  0
SECTION
  2
HEADER
  9
$ACADVER
  1
AC1015
  9
$ACADMAINTVER
 70
    20
  9
$DWGCODEPAGE
  3
ANSI_1252
  9
$INSBASE
 10
0.0
 20
0.0
 30
0.0
  9
$EXTMIN
 10
290.0311812051
 20
154.4076427081
 30
0.0
  9
$EXTMAX
 10
453.1953094984999
 20
257.1378875795
 30
0.0
  9
$LIMMIN
 10
0.0
 20
0.0
  9
$LIMMAX
 10
841.0
 20
594.0
  9
$ORTHOMODE
 70
     0
  9
$REGENMODE
 70
     1
  9
$FILLMODE
 70
     1
  9
$QTEXTMODE
 70
     0
  9
$MIRRTEXT
 70
     0
  9
$LTSCALE
 40
46.255
  9
$ATTMODE
 70
     1
  9
$TEXTSIZE
 40
0.2
  9
$TRACEWID
 40
0.05
  9
$TEXTSTYLE
  7
STANDARD
  9
$CLAYER
  8
0
  9
$CELTYPE
  6
BYLAYER
  9
$CECOLOR
 62
   256
  9
$CELTSCALE
 40
1.0
  9
$DISPSILH
 70
     0
  9
$DIMSCALE
 40
1.0
  9
$DIMASZ
 40
3.5
  9
$DIMEXO
 40
5.256249999999999
  9
$DIMDLI
 40
31.958
  9
$DIMRND
 40
0.0
  9
$DIMDLE
 40
0.0
  9
$DIMEXE
 40
15.138
  9
$DIMTP
 40
0.01
  9
$DIMTM
 40
0.01
  9
$DIMTXT
 40
3.5
  9
$DIMCEN
 40
7.568999999999999
  9
$DIMTSZ
 40
0.0
  9
$DIMTOL
 70
     1
  9
$DIMLIM
 70
     0
  9
$DIMTIH
 70
     1
  9
$DIMTOH
 70
     1
  9
$DIMSE1
 70
     0
  9
$DIMSE2
 70
     0
  9
$DIMTAD
 70
     0
  9
$DIMZIN
 70
     0
  9
$DIMBLK
  1

  9
$DIMASO
 70
     1
  9
$DIMSHO
 70
     1
  9
$DIMPOST
  1

  9
$DIMAPOST
  1

  9
$DIMALT
 70
     0
  9
$DIMALTD
 70
     2
  9
$DIMALTF
 40
25.4
  9
$DIMLFAC
 40
1.0
  9
$DIMTOFL
 70
     0
  9
$DIMTVP
 40
0.0
  9
$DIMTIX
 70
     0
  9
$DIMSOXD
 70
     0
  9
$DIMSAH
 70
     0
  9
$DIMBLK1
  1

  9
$DIMBLK2
  1

  9
$DIMSTYLE
  2
STANDARD
  9
$DIMCLRD
 70
     0
  9
$DIMCLRE
 70
     0
  9
$DIMCLRT
 70
     0
  9
$DIMTFAC
 40
1.0
  9
$DIMGAP
 40
0.09
  9
$DIMJUST
 70
     0
  9
$DIMSD1
 70
     0
  9
$DIMSD2
 70
     0
  9
$DIMTOLJ
 70
     1
  9
$DIMTZIN
 70
     0
  9
$DIMALTZ
 70
     0
  9
$DIMALTTZ
 70
     0
  9
$DIMUPT
 70
     0
  9
$DIMDEC
 70
     4
  9
$DIMTDEC
 70
     4
  9
$DIMALTU
 70
     2
  9
$DIMALTTD
 70
     2
  9
$DIMTXSTY
  7
STANDARD
  9
$DIMAUNIT
 70
     0
  9
$DIMADEC
 70
     0
  9
$DIMALTRND
 40
0.0
  9
$DIMAZIN
 70
     0
  9
$DIMDSEP
 70
    46
  9
$DIMATFIT
 70
     3
  9
$DIMFRAC
 70
     0
  9
$DIMLDRBLK
  1

  9
$DIMLUNIT
 70
     2
  9
$DIMLWD
 70
    -2
  9
$DIMLWE
 70
    -2
  9
$DIMTMOVE
 70
     0
  9
$LUNITS
 70
     2
  9
$LUPREC
 70
     4
  9
$SKETCHINC
 40
0.1
  9
$FILLETRAD
 40
0.0
  9
$AUNITS
 70
     0
  9
$AUPREC
 70
     0
  9
$MENU
  1
.
  9
$ELEVATION
 40
0.0
  9
$PELEVATION
 40
0.0
  9
$THICKNESS
 40
0.0
  9
$LIMCHECK
 70
     0
  9
$CHAMFERA
 40
0.0
  9
$CHAMFERB
 40
0.0
  9
$CHAMFERC
 40
0.0
  9
$CHAMFERD
 40
0.0
  9
$SKPOLY
 70
     0
  9
$TDCREATE
 40
2455511.407274560
  9
$TDUCREATE
 40
2455511.365607894
  9
$TDUPDATE
 40
2455565.541758310
  9
$TDUUPDATE
 40
2455565.500091644
  9
$TDINDWG
 40
0.0021419792
  9
$TDUSRTIMER
 40
0.0021419792
  9
$USRTIMER
 70
     1
  9
$ANGBASE
 50
0.0
  9
$ANGDIR
 70
     0
  9
$PDMODE
 70
     3
  9
$PDSIZE
 40
2.5
  9
$PLINEWID
 40
0.0
  9
$SPLFRAME
 70
     0
  9
$SPLINETYPE
 70
     6
  9
$SPLINESEGS
 70
     8
  9
$HANDSEED
  5
760
  9
$SURFTAB1
 70
     6
  9
$SURFTAB2
 70
     6
  9
$SURFTYPE
 70
     6
  9
$SURFU
 70
     6
  9
$SURFV
 70
     6
  9
$UCSBASE
  2

  9
$UCSNAME
  2

  9
$UCSORG
 10
0.0
 20
0.0
 30
0.0
  9
$UCSXDIR
 10
1.0
 20
0.0
 30
0.0
  9
$UCSYDIR
 10
0.0
 20
1.0
 30
0.0
  9
$UCSORTHOREF
  2

  9
$UCSORTHOVIEW
 70
     0
  9
$UCSORGTOP
 10
0.0
 20
0.0
 30
0.0
  9
$UCSORGBOTTOM
 10
0.0
 20
0.0
 30
0.0
  9
$UCSORGLEFT
 10
0.0
 20
0.0
 30
0.0
  9
$UCSORGRIGHT
 10
0.0
 20
0.0
 30
0.0
  9
$UCSORGFRONT
 10
0.0
 20
0.0
 30
0.0
  9
$UCSORGBACK
 10
0.0
 20
0.0
 30
0.0
  9
$PUCSBASE
  2

  9
$PUCSNAME
  2

  9
$PUCSORG
 10
0.0
 20
0.0
 30
0.0
  9
$PUCSXDIR
 10
1.0
 20
0.0
 30
0.0
  9
$PUCSYDIR
 10
0.0
 20
1.0
 30
0.0
  9
$PUCSORTHOREF
  2

  9
$PUCSORTHOVIEW
 70
     0
  9
$PUCSORGTOP
 10
0.0
 20
0.0
 30
0.0
  9
$PUCSORGBOTTOM
 10
0.0
 20
0.0
 30
0.0
  9
$PUCSORGLEFT
 10
0.0
 20
0.0
 30
0.0
  9
$PUCSORGRIGHT
 10
0.0
 20
0.0
 30
0.0
  9
$PUCSORGFRONT
 10
0.0
 20
0.0
 30
0.0
  9
$PUCSORGBACK
 10
0.0
 20
0.0
 30
0.0
  9
$USERI1
 70
     0
  9
$USERI2
 70
     0
  9
$USERI3
 70
     0
  9
$USERI4
 70
     0
  9
$USERI5
 70
     0
  9
$USERR1
 40
3.0
  9
$USERR2
 40
-3.0
  9
$USERR3
 40
50.0
  9
$USERR4
 40
0.0
  9
$USERR5
 40
0.0
  9
$WORLDVIEW
 70
     1
  9
$SHADEDGE
 70
     3
  9
$SHADEDIF
 70
    70
  9
$TILEMODE
 70
     1
  9
$MAXACTVP
 70
    64
  9
$PINSBASE
 10
0.0
 20
0.0
 30
0.0
  9
$PLIMCHECK
 70
     0
  9
$PEXTMIN
 10
1.000000000000000E+20
 20
1.000000000000000E+20
 30
1.000000000000000E+20
  9
$PEXTMAX
 10
-1.000000000000000E+20
 20
-1.000000000000000E+20
 30
-1.000000000000000E+20
  9
$PLIMMIN
 10
0.0
 20
0.0
  9
$PLIMMAX
 10
12.0
 20
9.0
  9
$UNITMODE
 70
     0
  9
$VISRETAIN
 70
     1
  9
$PLINEGEN
 70
     0
  9
$PSLTSCALE
 70
     1
  9
$TREEDEPTH
 70
  3020
  9
$CMLSTYLE
  2
Standard
  9
$CMLJUST
 70
     0
  9
$CMLSCALE
 40
1.0
  9
$PROXYGRAPHICS
 70
     1
  9
$MEASUREMENT
 70
     1
  9
$CELWEIGHT
370
    -1
  9
$ENDCAPS
280
     0
  9
$JOINSTYLE
280
     0
  9
$LWDISPLAY
290
     0
  9
$INSUNITS
 70
     4
  9
$HYPERLINKBASE
  1

  9
$STYLESHEET
  1

  9
$XEDIT
290
     1
  9
$CEPSNTYPE
380
     0
  9
$PSTYLEMODE
290
     1
  9
$FINGERPRINTGUID
  2
{E3601B89-C039-4D9D-9D80-9C826598FEA5}
  9
$VERSIONGUID
  2
{C6D666FA-763D-44E6-9578-2873E497DC29}
  9
$EXTNAMES
290
     1
  9
$PSVPSCALE
 40
0.0
  9
$OLESTARTUP
290
     0
  0
ENDSEC
  0
SECTION
  2
CLASSES
  0
CLASS
  1
ACDBDICTIONARYWDFLT
  2
AcDbDictionaryWithDefault
  3
ObjectDBX Classes
 90
        0
280
     0
281
     0
  0
CLASS
  1
ACDBPLACEHOLDER
  2
AcDbPlaceHolder
  3
ObjectDBX Classes
 90
        0
280
     0
281
     0
  0
CLASS
  1
LAYOUT
  2
AcDbLayout
  3
ObjectDBX Classes
 90
        0
280
     0
281
     0
  0
CLASS
  1
MATERIAL
  2
AcDbMaterial
  3
ObjectDBX Classes
 90
     1153
280
     0
281
     0
  0
CLASS
  1
VISUALSTYLE
  2
AcDbVisualStyle
  3
ObjectDBX Classes
 90
     4095
280
     0
281
     0
  0
CLASS
  1
TABLESTYLE
  2
AcDbTableStyle
  3
ObjectDBX Classes
 90
     4095
280
     0
281
     0
  0
CLASS
  1
SCALE
  2
AcDbScale
  3
ObjectDBX Classes
 90
     1153
280
     0
281
     0
  0
CLASS
  1
MLEADERSTYLE
  2
AcDbMLeaderStyle
  3
ACDB_MLEADERSTYLE_CLASS
 90
     4095
280
     0
281
     0
  0
CLASS
  1
CELLSTYLEMAP
  2
AcDbCellStyleMap
  3
ObjectDBX Classes
 90
     1152
280
     0
281
     0
  0
CLASS
  1
DICTIONARYVAR
  2
AcDbDictionaryVar
  3
ObjectDBX Classes
 90
        0
280
     0
281
     0
  0
CLASS
  1
AEC_REFEDIT_STATUS_TRACKER
  2
AecDbRefEditStatusTracker
  3
AecArchBase60|Product Desc: Autodesk Architectural Desktop 2007 |Company: Autodesk,Inc. |WEB Address: www.autodesk.com
 90
      129
280
     0
281
     0
  0
CLASS
  1
NPOCOLLECTION
  2
AcDbImpNonPersistentObjectsCollection
  3
ObjectDBX Classes
 90
     1153
280
     0
281
     0
  0
CLASS
  1
SORTENTSTABLE
  2
AcDbSortentsTable
  3
ObjectDBX Classes
 90
        0
280
     0
281
     0
  0
ENDSEC
  0
SECTION
  2
TABLES
  0
TABLE
  2
VPORT
  5
8
102
{ACAD_XDICTIONARY
360
404
102
}
330
0
100
AcDbSymbolTable
 70
     1
  0
VPORT
  5
1F4
330
8
100
AcDbSymbolTableRecord
100
AcDbViewportTableRecord
  2
*ACTIVE
 70
     0
 10
0.0
 20
0.0
 11
1.0
 21
1.0
 12
439.8382216358763
 22
210.8132642471972
 13
0.0
 23
0.0
 14
1.0
 24
1.0
 15
0.0
 25
0.0
 16
0.0
 26
0.0
 36
1.0
 17
0.0
 27
0.0
 37
0.0
 40
277.4194373604457
 41
1.820538384845463
 42
50.0
 43
0.0
 44
0.0
 50
0.0
 51
0.0
 71
     0
 72
   100
 73
     1
 74
     1
 75
     0
 76
     0
 77
     0
 78
     0
281
     0
 65
     1
110
0.0
120
0.0
130
0.0
111
1.0
121
0.0
131
0.0
112
0.0
122
1.0
132
0.0
 79
     0
146
0.0
  0
ENDTAB
  0
TABLE
  2
LTYPE
  5
5
330
0
100
AcDbSymbolTable
 70
     6
  0
LTYPE
  5
14
330
5
100
AcDbSymbolTableRecord
100
AcDbLinetypeTableRecord
  2
BYBLOCK
 70
     0
  3

 72
    65
 73
     0
 40
0.0
  0
LTYPE
  5
15
330
5
100
AcDbSymbolTableRecord
100
AcDbLinetypeTableRecord
  2
BYLAYER
 70
     0
  3

 72
    65
 73
     0
 40
0.0
  0
LTYPE
  5
16
330
5
100
AcDbSymbolTableRecord
100
AcDbLinetypeTableRecord
  2
CONTINUOUS
 70
     0
  3
Solid line
 72
    65
 73
     0
 40
0.0
  0
LTYPE
  5
1F5
330
5
100
AcDbSymbolTableRecord
100
AcDbLinetypeTableRecord
  2
CENTER
 70
     0
  3
____ _ ____ _ ____ _ ____ _ ____ _ ____ _ ____
 72
    65
 73
     4
 40
0.6
 49
0.375
 74
     0
 49
-0.075
 74
     0
 49
0.075
 74
     0
 49
-0.075
 74
     0
  0
LTYPE
  5
1F6
330
5
100
AcDbSymbolTableRecord
100
AcDbLinetypeTableRecord
  2
HIDDEN
 70
     0
  3
- - - - - - - - - - - - - - - - - - - -
 72
    65
 73
     2
 40
0.2
 49
0.1
 74
     0
 49
-0.1
 74
     0
  0
LTYPE
  5
1F7
330
5
100
AcDbSymbolTableRecord
100
AcDbLinetypeTableRecord
  2
PHANTOM
 70
     0
  3
_____ _ _ _____ _ _ _____ _ _ _____
 72
    65
 73
     6
 40
0.8
 49
0.45
 74
     0
 49
-0.05
 74
     0
 49
0.1
 74
     0
 49
-0.05
 74
     0
 49
0.1
 74
     0
 49
-0.05
 74
     0
  0
LTYPE
  5
1F8
330
5
100
AcDbSymbolTableRecord
100
AcDbLinetypeTableRecord
  2
DOT
 70
     0
  3
. . . . . . . . . . . . . . . . . . . .
 72
    65
 73
     2
 40
0.2
 49
0.1
 74
     0
 49
-0.1
 74
     0
  0
LTYPE
  5
1F9
330
5
100
AcDbSymbolTableRecord
100
AcDbLinetypeTableRecord
  2
DASHED
 70
     0
  3
- - - - - - - - - - - - - - - - - - - -
 72
    65
 73
     2
 40
0.2
 49
0.1
 74
     0
 49
-0.1
 74
     0
  0
ENDTAB
  0
TABLE
  2
LAYER
  5
2
330
0
100
AcDbSymbolTable
 70
    18
  0
LAYER
  5
10
102
{ACAD_XDICTIONARY
360
6BB
102
}
330
2
100
AcDbSymbolTableRecord
100
AcDbLayerTableRecord
  2
0
 70
     0
 62
     7
  6
CONTINUOUS
370
    -3
390
F
  0
LAYER
  5
1FA
102
{ACAD_XDICTIONARY
360
6BD
102
}
330
2
100
AcDbSymbolTableRecord
100
AcDbLayerTableRecord
  2
DEFAULT_1
 70
     0
 62
     7
  6
CENTER
370
    -3
390
F
  0
LAYER
  5
1FB
102
{ACAD_XDICTIONARY
360
6BF
102
}
330
2
100
AcDbSymbolTableRecord
100
AcDbLayerTableRecord
  2
DEFAULT_2
 70
     0
 62
     8
  6
HIDDEN
370
    -3
390
F
  0
LAYER
  5
1FC
102
{ACAD_XDICTIONARY
360
6C1
102
}
330
2
100
AcDbSymbolTableRecord
100
AcDbLayerTableRecord
  2
DEFAULT_3
 70
     0
 62
     7
  6
PHANTOM
370
    -3
390
F
  0
LAYER
  5
1FD
102
{ACAD_XDICTIONARY
360
6C3
102
}
330
2
100
AcDbSymbolTableRecord
100
AcDbLayerTableRecord
  2
2D-ELEMENTE
 70
     0
 62
     7
  6
CONTINUOUS
370
    -3
390
F
  0
LAYER
  5
1FE
102
{ACAD_XDICTIONARY
360
6C5
102
}
330
2
100
AcDbSymbolTableRecord
100
AcDbLayerTableRecord
  2
3_ALL_AXES
 70
     0
 62
     7
  6
CONTINUOUS
370
    -3
390
F
  0
LAYER
  5
1FF
102
{ACAD_XDICTIONARY
360
6C7
102
}
330
2
100
AcDbSymbolTableRecord
100
AcDbLayerTableRecord
  2
ACHSEN
 70
     0
 62
     7
  6
CONTINUOUS
370
    -3
390
F
  0
LAYER
  5
200
102
{ACAD_XDICTIONARY
360
6C9
102
}
330
2
100
AcDbSymbolTableRecord
100
AcDbLayerTableRecord
  2
AUSBLENDEN
 70
     0
 62
     7
  6
CONTINUOUS
370
    -3
390
F
  0
LAYER
  5
201
102
{ACAD_XDICTIONARY
360
6CB
102
}
330
2
100
AcDbSymbolTableRecord
100
AcDbLayerTableRecord
  2
BAUGRUPPE
 70
     0
 62
     7
  6
CONTINUOUS
370
    -3
390
F
  0
LAYER
  5
202
102
{ACAD_XDICTIONARY
360
6CD
102
}
330
2
100
AcDbSymbolTableRecord
100
AcDbLayerTableRecord
  2
EBENEN
 70
     0
 62
     7
  6
CONTINUOUS
370
    -3
390
F
  0
LAYER
  5
203
102
{ACAD_XDICTIONARY
360
6CF
102
}
330
2
100
AcDbSymbolTableRecord
100
AcDbLayerTableRecord
  2
KOORDINATEN
 70
     0
 62
     7
  6
CONTINUOUS
370
    -3
390
F
  0
LAYER
  5
204
102
{ACAD_XDICTIONARY
360
6D1
102
}
330
2
100
AcDbSymbolTableRecord
100
AcDbLayerTableRecord
  2
STD_ACHSEN
 70
     0
 62
     7
  6
CONTINUOUS
370
    -3
390
F
  0
LAYER
  5
205
102
{ACAD_XDICTIONARY
360
6D3
102
}
330
2
100
AcDbSymbolTableRecord
100
AcDbLayerTableRecord
  2
STD_CSYS
 70
     0
 62
     7
  6
CONTINUOUS
370
    -3
390
F
  0
LAYER
  5
206
102
{ACAD_XDICTIONARY
360
6D5
102
}
330
2
100
AcDbSymbolTableRecord
100
AcDbLayerTableRecord
  2
STD_EBENEN
 70
     0
 62
     7
  6
CONTINUOUS
370
    -3
390
F
  0
LAYER
  5
207
102
{ACAD_XDICTIONARY
360
6D7
102
}
330
2
100
AcDbSymbolTableRecord
100
AcDbLayerTableRecord
  2
TEIL_UMBENNEN
 70
     0
 62
     7
  6
CONTINUOUS
370
    -3
390
F
  0
LAYER
  5
208
102
{ACAD_XDICTIONARY
360
6D9
102
}
330
2
100
AcDbSymbolTableRecord
100
AcDbLayerTableRecord
  2
UMBENNEN
 70
     0
 62
     7
  6
CONTINUOUS
370
    -3
390
F
  0
LAYER
  5
209
102
{ACAD_XDICTIONARY
360
6DB
102
}
330
2
100
AcDbSymbolTableRecord
100
AcDbLayerTableRecord
  2
PR980_128_00_BL0
 70
     0
 62
     7
  6
CONTINUOUS
370
    -3
390
F
  0
LAYER
  5
20A
102
{ACAD_XDICTIONARY
360
6DD
102
}
330
2
100
AcDbSymbolTableRecord
100
AcDbLayerTableRecord
  2
PR970_004_00_BL1
 70
     0
 62
     7
  6
CONTINUOUS
370
    -3
390
F
  0
ENDTAB
  0
TABLE
  2
STYLE
  5
3
330
0
100
AcDbSymbolTable
 70
     2
  0
STYLE
  5
11
330
3
100
AcDbSymbolTableRecord
100
AcDbTextStyleTableRecord
  2
STANDARD
 70
     0
 40
0.0
 41
0.8
 50
0.0
 71
     0
 42
0.2
  3
txt
  4

  0
STYLE
  5
20B
330
3
100
AcDbSymbolTableRecord
100
AcDbTextStyleTableRecord
  2
TEXTSTYLE_1
 70
     0
 40
0.0
 41
0.8
 50
0.0
 71
     0
 42
0.2
  3
gdt
  4

  0
ENDTAB
  0
TABLE
  2
VIEW
  5
6
330
0
100
AcDbSymbolTable
 70
     0
  0
ENDTAB
  0
TABLE
  2
UCS
  5
7
330
0
100
AcDbSymbolTable
 70
     0
  0
ENDTAB
  0
TABLE
  2
APPID
  5
9
330
0
100
AcDbSymbolTable
 70
     2
  0
APPID
  5
20C
330
9
100
AcDbSymbolTableRecord
100
AcDbRegAppTableRecord
  2
ACAD
 70
     0
  0
APPID
  5
400
330
9
100
AcDbSymbolTableRecord
100
AcDbRegAppTableRecord
  2
ACAD_MLEADERVER
 70
     0
  0
ENDTAB
  0
TABLE
  2
DIMSTYLE
  5
A
330
0
100
AcDbSymbolTable
 70
     1
100
AcDbDimStyleTable
 71
     0
  0
DIMSTYLE
105
212
330
A
100
AcDbSymbolTableRecord
100
AcDbDimStyleTableRecord
  2
STANDARD
 70
     0
 41
3.5
 47
0.01
 48
0.01
 71
     1
 73
     0
 74
     0
 77
     1
 78
     8
140
3.5
271
     2
272
     2
284
     8
340
11
  0
ENDTAB
  0
TABLE
  2
BLOCK_RECORD
  5
1
330
0
100
AcDbSymbolTable
 70
     6
  0
BLOCK_RECORD
  5
20D
102
{ACAD_XDICTIONARY
360
59D
102
}
330
1
100
AcDbSymbolTableRecord
100
AcDbBlockTableRecord
  2
*Model_Space
340
3AB
  0
BLOCK_RECORD
  5
20E
330
1
100
AcDbSymbolTableRecord
100
AcDbBlockTableRecord
  2
*Paper_Space
340
3AC
  0
BLOCK_RECORD
  5
20F
330
1
100
AcDbSymbolTableRecord
100
AcDbBlockTableRecord
  2
SCHRIFTFELD-DATENPLANER_BL2
340
0
102
{BLKREFS
331
3A8
102
}
  0
BLOCK_RECORD
  5
210
330
1
100
AcDbSymbolTableRecord
100
AcDbBlockTableRecord
  2
PR980_128_00_BL0
340
0
  0
BLOCK_RECORD
  5
211
330
1
100
AcDbSymbolTableRecord
100
AcDbBlockTableRecord
  2
PR970_004_00_BL1
340
0
  0
BLOCK_RECORD
  5
5D1
330
1
100
AcDbSymbolTableRecord
100
AcDbBlockTableRecord
  2
TC-9_040_001_VA
340
0
310
2800000020000000200000000100080000000000000400000000000000000000000000000000000000000000000080000080000000808000800000008000800080800000C0C0C000C0DCC000F0CAA6000020400000206000002080000020A0000020C0000020E00000400000004020000040400000406000004080000040A0
310
000040C0000040E00000600000006020000060400000606000006080000060A0000060C0000060E00000800000008020000080400000806000008080000080A0000080C0000080E00000A0000000A0200000A0400000A0600000A0800000A0A00000A0C00000A0E00000C0000000C0200000C0400000C0600000C0800000C0
310
A00000C0C00000C0E00000E0000000E0200000E0400000E0600000E0800000E0A00000E0C00000E0E00040000000400020004000400040006000400080004000A0004000C0004000E00040200000402020004020400040206000402080004020A0004020C0004020E000404000004040200040404000404060004040800040
310
40A0004040C0004040E00040600000406020004060400040606000406080004060A0004060C0004060E00040800000408020004080400040806000408080004080A0004080C0004080E00040A0000040A0200040A0400040A0600040A0800040A0A00040A0C00040A0E00040C0000040C0200040C0400040C0600040C08000
310
40C0A00040C0C00040C0E00040E0000040E0200040E0400040E0600040E0800040E0A00040E0C00040E0E00080000000800020008000400080006000800080008000A0008000C0008000E00080200000802020008020400080206000802080008020A0008020C0008020E00080400000804020008040400080406000804080
310
008040A0008040C0008040E00080600000806020008060400080606000806080008060A0008060C0008060E00080800000808020008080400080806000808080008080A0008080C0008080E00080A0000080A0200080A0400080A0600080A0800080A0A00080A0C00080A0E00080C0000080C0200080C0400080C0600080C0
310
800080C0A00080C0C00080C0E00080E0000080E0200080E0400080E0600080E0800080E0A00080E0C00080E0E000C0000000C0002000C0004000C0006000C0008000C000A000C000C000C000E000C0200000C0202000C0204000C0206000C0208000C020A000C020C000C020E000C0400000C0402000C0404000C0406000C0
310
408000C040A000C040C000C040E000C0600000C0602000C0604000C0606000C0608000C060A000C060C000C060E000C0800000C0802000C0804000C0806000C0808000C080A000C080C000C080E000C0A00000C0A02000C0A04000C0A06000C0A08000C0A0A000C0A0C000C0A0E000C0C00000C0C02000C0C04000C0C06000
310
C0C08000C0C0A000F0FBFF00A4A0A000808080000000FF0000FF000000FFFF00FF000000FF00FF00FFFF0000FFFFFF00494949494949494949494949494949494949494949494949494949494949494949494949494949494949494949494949FF494949494949494949494949494949494949494949494949494949494949
310
49FF49494949494949494949494949494949494949494949494949494949494949FF494949494949494949494949494949494949494949FFFF4949494949494949FF49494949494949FFFF494949494949494949494949FFFFFF49494949494949FF494949494949FFFFFF494949494949494949494949FF49FFFF49494949
310
4949FF4949494949FFFF49FF494949494949494949494949FF494949494949494949FF4949494949494949FF494949494949494949494949FF494949494949494949FF4949494949494949FF494949494949494949494949FF494949494949494949FF4949494949494949FF494949494949494949494949FF494949494949
310
494949FF4949494949494949FF494949494949494949494949FF494949494949494949FF4949494949494949FF494949494949494949494949FF494949494949494949FF4949494949494949FF494949494949494949494949FF494949494949494949FF4949494949494949FF494949494949494949494949FF4949494949
310
49494949FF4949494949494949FF494949494949494949494949FF494949494949494949FF4949494949494949FF494949494949494949494949FF494949494949494949FF4949494949494949FF494949494949494949494949FF494949494949494949FF4949494949494949FF494949494949494949494949FF49494949
310
4949494949FF4949494949494949FF49494949494949494949494949FF4949494949494949FF49494949494949FF4949494949494949494949494949FF4949494949494949FF49494949494949FF494949494949494949494949494949FF49494949494949FF494949494949FF4949494949494949494949494949FFFFFFFF
310
FFFFFFFFFFFFFFFFFFFFFFFFFFFFFFFF494949494949494949494949FF4949FF49FF49494949FF494949FF49FF4949FF494949494949494949494949FF4949FF49FF49494949FF494949FF49FF4949FF494949494949494949494949FF494949FFFF49494949FF494949FFFF494949FF494949494949494949494949FFFFFF
310
FFFFFFFFFFFFFFFFFFFFFFFFFFFFFFFFFF49494949494949494949494949494949FFFFFFFFFFFFFFFFFFFFFFFF4949494949494949494949494949494949494949494949494949FF49494949494949494949494949494949494949494949494949494949494949FF4949494949494949494949494949494949494949494949
310
4949494949494949FF4949494949494949494949494949494949494949494949494949494949494949494949494949494949494949494949
102
{BLKREFS
331
60B
102
}
1001
ACAD
1000
DesignCenter Data
1002
{
1070
     1
1070
     4
1002
}
  0
BLOCK_RECORD
  5
60C
330
1
100
AcDbSymbolTableRecord
100
AcDbBlockTableRecord
  2
TC-9_040_001_DS
340
0
310
2800000020000000200000000100080000000000000400000000000000000000000000000000000000000000000080000080000000808000800000008000800080800000C0C0C000C0DCC000F0CAA6000020400000206000002080000020A0000020C0000020E00000400000004020000040400000406000004080000040A0
310
000040C0000040E00000600000006020000060400000606000006080000060A0000060C0000060E00000800000008020000080400000806000008080000080A0000080C0000080E00000A0000000A0200000A0400000A0600000A0800000A0A00000A0C00000A0E00000C0000000C0200000C0400000C0600000C0800000C0
310
A00000C0C00000C0E00000E0000000E0200000E0400000E0600000E0800000E0A00000E0C00000E0E00040000000400020004000400040006000400080004000A0004000C0004000E00040200000402020004020400040206000402080004020A0004020C0004020E000404000004040200040404000404060004040800040
310
40A0004040C0004040E00040600000406020004060400040606000406080004060A0004060C0004060E00040800000408020004080400040806000408080004080A0004080C0004080E00040A0000040A0200040A0400040A0600040A0800040A0A00040A0C00040A0E00040C0000040C0200040C0400040C0600040C08000
310
40C0A00040C0C00040C0E00040E0000040E0200040E0400040E0600040E0800040E0A00040E0C00040E0E00080000000800020008000400080006000800080008000A0008000C0008000E00080200000802020008020400080206000802080008020A0008020C0008020E00080400000804020008040400080406000804080
310
008040A0008040C0008040E00080600000806020008060400080606000806080008060A0008060C0008060E00080800000808020008080400080806000808080008080A0008080C0008080E00080A0000080A0200080A0400080A0600080A0800080A0A00080A0C00080A0E00080C0000080C0200080C0400080C0600080C0
310
800080C0A00080C0C00080C0E00080E0000080E0200080E0400080E0600080E0800080E0A00080E0C00080E0E000C0000000C0002000C0004000C0006000C0008000C000A000C000C000C000E000C0200000C0202000C0204000C0206000C0208000C020A000C020C000C020E000C0400000C0402000C0404000C0406000C0
310
408000C040A000C040C000C040E000C0600000C0602000C0604000C0606000C0608000C060A000C060C000C060E000C0800000C0802000C0804000C0806000C0808000C080A000C080C000C080E000C0A00000C0A02000C0A04000C0A06000C0A08000C0A0A000C0A0C000C0A0E000C0C00000C0C02000C0C04000C0C06000
310
C0C08000C0C0A000F0FBFF00A4A0A000808080000000FF0000FF000000FFFF00FF000000FF00FF00FFFF0000FFFFFF004949494949494949494949494949494949494949494949494949494949494949494949494949494949494949494949FF49494949494949494949494949494949494949494949494949494949494949
310
FF49494949494949494949494949494949494949494949494949494949494949FF49494949494949494949494949494949494949494949494949494949494949FF49494949494949494949494949494949494949494949494949494949494949FF494949494949494949494949494949494949494949494949494949494949
310
49FF49494949494949494949494949494949494949494949494949494949494949FF4949494949494949494949494949494949494949494907FFFFFF0707FFFFFFFFFFFFFFFF0707FFFFFF07494949494949494949494949074949490707494949FF4949494907074949490749494949494949494949494907494949070749
310
4949FF49494949070749494907494949494949494949494949074949490707494949FF49494949070749494907494949494949494949494949074949490707494949FF494949490707494949074949494949494949494949490707FFFF07074949FFFFFFFF49490707FFFF070749494949494949494949494907494949FF49
310
49FFFFFFFFFFFF4949FF4949490749494949494949FFFFFFFFFF07FFFFFFFFFFFFFFFFFFFFFFFFFFFFFFFFFFFF07FFFFFFFFFF4949494949494907494949FF4949FF49FF4949FF4949FF4949490749494949494949494949494907494949FF4949FFFFFFFFFFFF4949FF494949074949494949494949494949490707FFFF07
310
074949FFFFFFFF49490707FFFF0707494949494949494949494949074949490707494949FF49494949070749494907494949494949494949494949074949490707494949FF49494949070749494907494949494949494949494949074949490707494949FF4949494907074949490749494949494949494949494907494949
310
0707494949FF4949494907074949490749494949494949494949494907FFFFFF0707FFFFFFFFFFFFFFFF0707FFFFFF07494949494949494949494949494949494949494949FF49494949494949494949494949494949494949494949494949494949494949FF49494949494949494949494949494949494949494949494949
310
494949494949FF49494949494949494949494949494949494949494949494949494949494949FF49494949494949494949494949494949494949494949494949494949494949FF49494949494949494949494949494949494949494949494949494949494949FF494949494949494949494949494949494949494949494949
310
49494949494949FF494949494949494949494949494949494949494949494949494949494949494949494949494949494949494949494949
102
{BLKREFS
331
678
102
}
1001
ACAD
1000
DesignCenter Data
1002
{
1070
     1
1070
     4
1002
}
  0
BLOCK_RECORD
  5
679
330
1
100
AcDbSymbolTableRecord
100
AcDbBlockTableRecord
  2
TC-9_040_001_SL
340
0
310
2800000020000000200000000100080000000000000400000000000000000000000000000000000000000000000080000080000000808000800000008000800080800000C0C0C000C0DCC000F0CAA6000020400000206000002080000020A0000020C0000020E00000400000004020000040400000406000004080000040A0
310
000040C0000040E00000600000006020000060400000606000006080000060A0000060C0000060E00000800000008020000080400000806000008080000080A0000080C0000080E00000A0000000A0200000A0400000A0600000A0800000A0A00000A0C00000A0E00000C0000000C0200000C0400000C0600000C0800000C0
310
A00000C0C00000C0E00000E0000000E0200000E0400000E0600000E0800000E0A00000E0C00000E0E00040000000400020004000400040006000400080004000A0004000C0004000E00040200000402020004020400040206000402080004020A0004020C0004020E000404000004040200040404000404060004040800040
310
40A0004040C0004040E00040600000406020004060400040606000406080004060A0004060C0004060E00040800000408020004080400040806000408080004080A0004080C0004080E00040A0000040A0200040A0400040A0600040A0800040A0A00040A0C00040A0E00040C0000040C0200040C0400040C0600040C08000
310
40C0A00040C0C00040C0E00040E0000040E0200040E0400040E0600040E0800040E0A00040E0C00040E0E00080000000800020008000400080006000800080008000A0008000C0008000E00080200000802020008020400080206000802080008020A0008020C0008020E00080400000804020008040400080406000804080
310
008040A0008040C0008040E00080600000806020008060400080606000806080008060A0008060C0008060E00080800000808020008080400080806000808080008080A0008080C0008080E00080A0000080A0200080A0400080A0600080A0800080A0A00080A0C00080A0E00080C0000080C0200080C0400080C0600080C0
310
800080C0A00080C0C00080C0E00080E0000080E0200080E0400080E0600080E0800080E0A00080E0C00080E0E000C0000000C0002000C0004000C0006000C0008000C000A000C000C000C000E000C0200000C0202000C0204000C0206000C0208000C020A000C020C000C020E000C0400000C0402000C0404000C0406000C0
310
408000C040A000C040C000C040E000C0600000C0602000C0604000C0606000C0608000C060A000C060C000C060E000C0800000C0802000C0804000C0806000C0808000C080A000C080C000C080E000C0A00000C0A02000C0A04000C0A06000C0A08000C0A0A000C0A0C000C0A0E000C0C00000C0C02000C0C04000C0C06000
310
C0C08000C0C0A000F0FBFF00A4A0A000808080000000FF0000FF000000FFFF00FF000000FF00FF00FFFF0000FFFFFF00494949494949494949494949494949494949494949494949494949494949494949494949494949494949494949494949FF494949494949494949494949494949494949494949494949494949494949
310
49FF49494949494949494949494949494949494949494949494949494949494949FF49494949494949494949494949494949494949494949FFFFFFFFFFFFFFFFFFFFFFFFFFFFFFFFFFFF49494949494949494949494949490707070707070707070707070707070707074949494949494949494949494949FF494949494949
310
4949FF49494949494949FF4949494949494949494949494949FF4949494949494949FF49494949494949FF4949494949494949494949494949FF4949494949494949FF49494949494949FF4949494949494949494949494949FF4949494949494949FF49494949494949FF4949494949494949494949494949FF4949494949
310
49FFFFFFFF494949494949FF4949494949494949494949494949FF494949FFFFFFFFFFFFFFFFFFFF494949FF4949494949494949494949494949FF49494949494949FFFF49494949494949FF4949494949494949494949494949FF4949494949494949FF49494949494949FF4949494949494949494949494949FF49494949
310
49494949FF49494949494949FF4949494949494949494949494949FF4949494949494949FF49494949494949FF4949494949494949494949494949FF4949494949494949FF49494949494949FF49494949494949494949494949490707070707070707070707070707070707074949494949494949494949494949FF494949
310
49FFFF4949FF49FFFF49494949FF4949494949494949494949494949FF49494949FFFF4949FF49FFFF49494949FF4949494949494949494949494949FF49494949FFFF4949FF49FFFF49494949FF4949494949494949494949494949FF49494949FFFFFFFFFFFFFFFF49494949FF4949494949494949494949494949FF4949
310
4949FFFFFFFFFFFFFFFF49494949FF4949494949494949494949494949FF49494949FFFF4949FF49FFFF49494949FF4949494949494949494949494949FF49494949FFFF4949FF49FFFF49494949FF4949494949494949494949494949FF49494949FFFF4949FF49FFFF49494949FF49494949494949494949494949490707
310
07070707FFFFFFFFFFFF0707070707074949494949494949494949494949FFFFFFFFFFFFFFFFFFFFFFFFFFFFFFFFFFFF4949494949494949494949494949494949494949494949FF49494949494949494949494949494949494949494949494949494949494949FF4949494949494949494949494949494949494949494949
310
4949494949494949FF4949494949494949494949494949494949494949494949494949494949494949494949494949494949494949494949
102
{BLKREFS
331
6BA
102
}
1001
ACAD
1000
DesignCenter Data
1002
{
1070
     1
1070
     4
1002
}
  0
ENDTAB
  0
ENDSEC
  0
SECTION
  2
BLOCKS
  0
BLOCK
  5
20
330
20D
100
AcDbEntity
  8
0
100
AcDbBlockBegin
  2
*Model_Space
 70
     0
 10
0.0
 20
0.0
 30
0.0
  3
*Model_Space
  1

  0
ENDBLK
  5
21
330
20D
100
AcDbEntity
  8
0
100
AcDbBlockEnd
  0
BLOCK
  5
1C
330
20E
100
AcDbEntity
 67
     1
  8
0
100
AcDbBlockBegin
  2
*Paper_Space
 70
     0
 10
0.0
 20
0.0
 30
0.0
  3
*Paper_Space
  1

  0
ENDBLK
  5
1D
330
20E
100
AcDbEntity
 67
     1
  8
0
100
AcDbBlockEnd
  0
BLOCK
  5
213
330
20F
100
AcDbEntity
  8
0
  6
Continuous
 62
     2
100
AcDbBlockBegin
  2
SCHRIFTFELD-DATENPLANER_BL2
 70
     0
 10
395.4246953233
 20
178.1239968241
 30
0.0
  3
SCHRIFTFELD-DATENPLANER_BL2
  1

  0
TEXT
  5
214
330
20F
100
AcDbEntity
  8
0
  6
Continuous
 62
     2
100
AcDbText
 10
350.3818381804
 20
179.6239968241
 30
0.0
 40
6.0
  1
Artikel-Nr.: 9.040.001
 41
0.6824675325000001
100
AcDbText
  0
TEXT
  5
215
330
20F
100
AcDbEntity
  8
0
  6
Continuous
 62
     2
100
AcDbText
 10
350.3818381804
 20
170.6239968241
 30
0.0
 40
6.0
  1
Datum: 
 41
0.7129251701000001
100
AcDbText
  0
TEXT
  5
216
330
20F
100
AcDbEntity
  8
0
  6
Continuous
 62
     2
100
AcDbText
 10
381.4675524661
 20
170.6239968241
 30
0.0
 40
6.0
  1
10.11.2010
 41
0.6571428571000001
100
AcDbText
  0
ENDBLK
  5
217
330
20F
100
AcDbEntity
  8
0
  6
ByBlock
 62
     0
100
AcDbBlockEnd
  0
BLOCK
  5
218
330
210
100
AcDbEntity
  8
PR980_128_00_BL0
100
AcDbBlockBegin
  2
PR980_128_00_BL0
 70
     0
 10
372.4945196324
 20
214.7297804742
 30
0.0
  3
PR980_128_00_BL0
  1

  0
LINE
  5
219
330
210
100
AcDbEntity
  8
PR980_128_00_BL0
  6
Continuous
 62
     7
100
AcDbLine
 10
299.218323001
 20
243.1378875795
 30
0.0
 11
302.6581009875
 21
243.1378875795
 31
0.0
  0
LINE
  5
21A
330
210
100
AcDbEntity
  8
PR980_128_00_BL0
  6
Continuous
 62
     7
100
AcDbLine
 10
303.7602966608
 20
243.1378875795
 30
0.0
 11
307.718323001
 21
243.1378875795
 31
0.0
  0
LINE
  5
21B
330
210
100
AcDbEntity
  8
PR980_128_00_BL0
  6
Continuous
 62
     7
100
AcDbLine
 10
307.718323001
 20
243.1378875795
 30
0.0
 11
325.718323001
 21
243.1378875795
 31
0.0
  0
LINE
  5
21C
330
210
100
AcDbEntity
  8
PR980_128_00_BL0
  6
Continuous
 62
     7
100
AcDbLine
 10
325.718323001
 20
243.1378875795
 30
0.0
 11
329.6763493412
 21
243.1378875795
 31
0.0
  0
LINE
  5
21D
330
210
100
AcDbEntity
  8
PR980_128_00_BL0
  6
Continuous
 62
     7
100
AcDbLine
 10
330.7785450145
 20
243.1378875795
 30
0.0
 11
334.218323001
 21
243.1378875795
 31
0.0
  0
LINE
  5
21E
330
210
100
AcDbEntity
  8
PR980_128_00_BL0
  6
Continuous
 62
     7
100
AcDbLine
 10
334.218323001
 20
243.1378875795
 30
0.0
 11
334.218323001
 21
251.1378875795
 31
0.0
  0
LINE
  5
21F
330
210
100
AcDbEntity
  8
PR980_128_00_BL0
  6
Continuous
 62
     7
100
AcDbLine
 10
325.718323001
 20
243.1378875795
 30
0.0
 11
325.718323001
 21
251.1279593281
 31
0.0
  0
LINE
  5
220
330
210
100
AcDbEntity
  8
PR980_128_00_BL0
  6
Continuous
 62
     7
100
AcDbLine
 10
307.718323001
 20
243.1378875795
 30
0.0
 11
307.718323001
 21
251.1279593281
 31
0.0
  0
LINE
  5
221
330
210
100
AcDbEntity
  8
PR980_128_00_BL0
  6
Continuous
 62
     7
100
AcDbLine
 10
299.218323001
 20
243.1378875795
 30
0.0
 11
299.218323001
 21
251.1378875795
 31
0.0
  0
LINE
  5
222
330
210
100
AcDbEntity
  8
PR980_128_00_BL0
  6
Continuous
 62
     7
100
AcDbLine
 10
299.218323001
 20
251.1378875795
 30
0.0
 11
306.3661273277
 21
251.1378875795
 31
0.0
  0
LINE
  5
223
330
210
100
AcDbEntity
  8
PR980_128_00_BL0
  6
Continuous
 62
     7
100
AcDbLine
 10
327.0705186743
 20
251.1378875795
 30
0.0
 11
334.218323001
 21
251.1378875795
 31
0.0
  0
ARC
  5
224
330
210
100
AcDbEntity
  8
PR980_128_00_BL0
  6
Continuous
 62
     2
100
AcDbCircle
 10
316.718323001
 20
181.094784504
 30
0.0
 40
5.0
100
AcDbArc
 50
0.0
 51
180.0
  0
ARC
  5
225
330
210
100
AcDbEntity
  8
PR980_128_00_BL0
  6
Continuous
 62
     2
100
AcDbCircle
 10
316.718323001
 20
181.094784504
 30
0.0
 40
5.0
100
AcDbArc
 50
255.0
 51
360.0
  0
ARC
  5
226
330
210
100
AcDbEntity
  8
PR980_128_00_BL0
  6
Continuous
 62
     2
100
AcDbCircle
 10
316.718323001
 20
181.094784504
 30
0.0
 40
5.0
100
AcDbArc
 50
180.0
 51
195.0
  0
ARC
  5
227
330
210
100
AcDbEntity
  8
PR980_128_00_BL0
  6
Continuous
 62
     7
100
AcDbCircle
 10
316.718323001
 20
181.094784504
 30
0.0
 40
4.2
100
AcDbArc
 50
180.0
 51
360.0
  0
ARC
  5
228
330
210
100
AcDbEntity
  8
PR980_128_00_BL0
  6
Continuous
 62
     7
100
AcDbCircle
 10
316.718323001
 20
181.094784504
 30
0.0
 40
4.2
100
AcDbArc
 50
0.0
 51
180.0
  0
LINE
  5
229
330
210
100
AcDbEntity
  8
PR980_128_00_BL0
  6
Continuous
 62
     7
100
AcDbLine
 10
306.3661273277
 20
186.094784504
 30
0.0
 11
299.218323001
 21
186.094784504
 31
0.0
  0
LINE
  5
22A
330
210
100
AcDbEntity
  8
PR980_128_00_BL0
  6
Continuous
 62
     7
100
AcDbLine
 10
299.218323001
 20
186.094784504
 30
0.0
 11
299.218323001
 21
176.094784504
 31
0.0
  0
LINE
  5
22B
330
210
100
AcDbEntity
  8
PR980_128_00_BL0
  6
Continuous
 62
     7
100
AcDbLine
 10
299.218323001
 20
176.094784504
 30
0.0
 11
306.3661273277
 21
176.094784504
 31
0.0
  0
LINE
  5
22C
330
210
100
AcDbEntity
  8
PR980_128_00_BL0
  6
Continuous
 62
     7
100
AcDbLine
 10
334.218323001
 20
186.094784504
 30
0.0
 11
327.0705186743
 21
186.094784504
 31
0.0
  0
LINE
  5
22D
330
210
100
AcDbEntity
  8
PR980_128_00_BL0
  6
Continuous
 62
     7
100
AcDbLine
 10
334.218323001
 20
176.094784504
 30
0.0
 11
334.218323001
 21
186.094784504
 31
0.0
  0
LINE
  5
22E
330
210
100
AcDbEntity
  8
PR980_128_00_BL0
  6
Continuous
 62
     7
100
AcDbLine
 10
327.0705186743
 20
176.094784504
 30
0.0
 11
334.218323001
 21
176.094784504
 31
0.0
  0
LINE
  5
22F
330
210
100
AcDbEntity
  8
PR980_128_00_BL0
  6
Continuous
 62
     7
100
AcDbLine
 10
366.2308568877
 20
243.1378875795
 30
0.0
 11
366.7308568877
 21
243.1378875795
 31
0.0
  0
LINE
  5
230
330
210
100
AcDbEntity
  8
PR980_128_00_BL0
  6
Continuous
 62
     7
100
AcDbLine
 10
366.7308568877
 20
243.1378875795
 30
0.0
 11
376.7308568877
 21
243.1378875795
 31
0.0
  0
LINE
  5
231
330
210
100
AcDbEntity
  8
PR980_128_00_BL0
  6
Continuous
 62
     7
100
AcDbLine
 10
376.7308568877
 20
243.1378875795
 30
0.0
 11
377.2308568877
 21
243.1378875795
 31
0.0
  0
LINE
  5
232
330
210
100
AcDbEntity
  8
PR980_128_00_BL0
  6
Continuous
 62
     7
100
AcDbLine
 10
376.7308568877
 20
243.1378875795
 30
0.0
 11
376.7308568877
 21
251.1378875795
 31
0.0
  0
LINE
  5
233
330
210
100
AcDbEntity
  8
PR980_128_00_BL0
  6
Continuous
 62
     7
100
AcDbLine
 10
366.7308568877
 20
243.1378875795
 30
0.0
 11
366.7308568877
 21
251.1378875795
 31
0.0
  0
LINE
  5
234
330
210
100
AcDbEntity
  8
PR980_128_00_BL0
  6
Continuous
 62
     7
100
AcDbLine
 10
366.7308568877
 20
251.1378875795
 30
0.0
 11
376.7308568877
 21
251.1378875795
 31
0.0
  0
SPLINE
  5
235
330
210
100
AcDbEntity
  8
PR980_128_00_BL0
  6
Continuous
 62
     2
100
AcDbSpline
210
0.0
220
0.0
230
1.0
 70
     8
 71
     3
 72
   131
 73
   127
 74
     0
 42
0.0000000001
 43
0.0000000001
 40
0.0
 40
0.0
 40
0.0
 40
0.0
 40
0.03125
 40
0.046875
 40
0.0625
 40
0.0703125
 40
0.078125
 40
0.08203125
 40
0.0859375
 40
0.09375
 40
0.1015625
 40
0.109375
 40
0.125
 40
0.140625
 40
0.1484375
 40
0.15234375
 40
0.154296875
 40
0.15625
 40
0.16015625
 40
0.1640625
 40
0.171875
 40
0.1875
 40
0.203125
 40
0.21875
 40
0.2265625
 40
0.23046875
 40
0.234375
 40
0.2421875
 40
0.25
 40
0.265625
 40
0.28125
 40
0.296875
 40
0.30078125
 40
0.3046875
 40
0.30859375
 40
0.3125
 40
0.3203125
 40
0.328125
 40
0.34375
 40
0.359375
 40
0.375
 40
0.37890625
 40
0.3828125
 40
0.390625
 40
0.3984375
 40
0.40625
 40
0.421875
 40
0.4375
 40
0.4453125
 40
0.453125
 40
0.45703125
 40
0.4609375
 40
0.46484375
 40
0.46875
 40
0.4765625
 40
0.484375
 40
0.5
 40
0.515625
 40
0.5234375
 40
0.53125
 40
0.53515625
 40
0.5390625
 40
0.54296875
 40
0.546875
 40
0.5546875
 40
0.5625
 40
0.578125
 40
0.59375
 40
0.6015625
 40
0.609375
 40
0.61328125
 40
0.615234375
 40
0.6171875
 40
0.62109375
 40
0.625
 40
0.6328125
 40
0.640625
 40
0.65625
 40
0.671875
 40
0.6796875
 40
0.68359375
 40
0.6875
 40
0.689453125
 40
0.69140625
 40
0.6953125
 40
0.69921875
 40
0.703125
 40
0.7109375
 40
0.71875
 40
0.734375
 40
0.7421875
 40
0.75
 40
0.7578125
 40
0.76171875
 40
0.765625
 40
0.767578125
 40
0.76953125
 40
0.771484375
 40
0.7734375
 40
0.77734375
 40
0.78125
 40
0.796875
 40
0.8125
 40
0.8203125
 40
0.828125
 40
0.8359375
 40
0.83984375
 40
0.84375
 40
0.845703125
 40
0.84765625
 40
0.8515625
 40
0.859375
 40
0.875
 40
0.890625
 40
0.8984375
 40
0.90625
 40
0.9140625
 40
0.91796875
 40
0.921875
 40
0.9296875
 40
0.9375
 40
0.9453125
 40
0.953125
 40
0.96875
 40
0.984375
 40
1.0
 40
1.0
 40
1.0
 40
1.0
 10
426.3252282618999
 20
246.2205462435
 30
0.0
 10
426.4273396394999
 20
246.2689713495
 30
0.0
 10
426.580448523
 20
246.3416507202
 30
0.0
 10
426.7848264322
 20
246.4383897013
 30
0.0
 10
426.9120777689
 20
246.4991991614
 30
0.0
 10
427.0149843112999
 20
246.5470542084
 30
0.0
 10
427.0767796459999
 20
246.5787711172
 30
0.0
 10
427.1377126336999
 20
246.5959025654
 30
0.0
 10
427.1966376509999
 20
246.614473537
 30
0.0
 10
427.2709828008
 20
246.6371934239
 30
0.0
 10
427.3599023208999
 20
246.6646683759
 30
0.0
 10
427.4785635920999
 20
246.7012293431
 30
0.0
 10
427.6268624976
 20
246.7469450987
 30
0.0
 10
427.7751447482
 20
246.7926930455
 30
0.0
 10
427.8789966774
 20
246.8246388241
 30
0.0
 10
427.9308454833
 20
246.8407199395
 30
0.0
 10
427.9605978794999
 20
246.8497347299
 30
0.0
 10
427.9934057722
 20
246.8544696429
 30
0.0
 10
428.0333696016
 20
246.8618533758
 30
0.0
 10
428.0978953693
 20
246.8728505174
 30
0.0
 10
428.2105450407
 20
246.8924677275
 30
0.0
 10
428.3716023930999
 20
246.9203650383
 30
0.0
 10
428.5648689212999
 20
246.9536019605
 30
0.0
 10
428.7257596766
 20
246.9822685982
 30
0.0
 10
428.8387300475999
 20
247.000404854
 30
0.0
 10
428.9027393638999
 20
247.013786909
 30
0.0
 10
428.9687972755
 20
247.0158304296
 30
0.0
 10
429.0508842719
 20
247.0210714055
 30
0.0
 10
429.1824947998001
 20
247.0279551248
 30
0.0
 10
429.3469145297
 20
247.0370772895
 30
0.0
 10
429.544259669
 20
247.0477925755
 30
0.0
 10
429.6922562490999
 20
247.0559019563
 30
0.0
 10
429.7909281358999
 20
247.0612589679
 30
0.0
 10
429.8402531705
 20
247.0640116529
 30
0.0
 10
429.8896203404
 20
247.0664774694
 30
0.0
 10
429.9567742060999
 20
247.0606998363
 30
0.0
 10
430.0402610866
 20
247.0565825783
 30
0.0
 10
430.1740930408
 20
247.0482551282
 30
0.0
 10
430.3413077002999
 20
247.0384754623
 30
0.0
 10
430.5419472331999
 20
247.0263273151
 30
0.0
 10
430.6925713981
 20
247.0176982728
 30
0.0
 10
430.7927522926
 20
247.0112710525
 30
0.0
 10
430.8601025677999
 20
247.0085707209
 30
0.0
 10
430.9401854279999
 20
246.9936489545
 30
0.0
 10
431.0365491828999
 20
246.9764871368
 30
0.0
 10
431.1649437344
 20
246.9533467344
 30
0.0
 10
431.3254545293999
 20
246.9244953172
 30
0.0
 10
431.4860079709999
 20
246.8956700302
 30
0.0
 10
431.6143342879
 20
246.8724878196
 30
0.0
 10
431.6948080037999
 20
246.8582908254
 30
0.0
 10
431.7585686426999
 20
246.8462631954
 30
0.0
 10
431.8080822626
 20
246.8390774446
 30
0.0
 10
431.8511324865
 20
246.8248868241
 30
0.0
 10
431.9092921837999
 20
246.8067890128
 30
0.0
 10
431.9817316708999
 20
246.7838848274
 30
0.0
 10
432.0977809136
 20
246.7473963951
 30
0.0
 10
432.2427875297
 20
246.7017265571
 30
0.0
 10
432.3878313158999
 20
246.6560960795
 30
0.0
 10
432.5038210866
 20
246.6195446706
 30
0.0
 10
432.5764092538999
 20
246.5967979267
 30
0.0
 10
432.6342641566999
 20
246.5783773603
 30
0.0
 10
432.6782454905
 20
246.5651727175
 30
0.0
 10
432.7155296055
 20
246.5450367806
 30
0.0
 10
432.7675810605
 20
246.5206098798
 30
0.0
 10
432.8318436643
 20
246.4892468755
 30
0.0
 10
432.9351162023
 20
246.4395320596
 30
0.0
 10
433.0640209451999
 20
246.377211121
 30
0.0
 10
433.1931039415
 20
246.3150173684
 30
0.0
 10
433.2960912742
 20
246.265099055
 30
0.0
 10
433.3610668912
 20
246.2342447944
 30
0.0
 10
433.4053329468
 20
246.2119586973
 30
0.0
 10
433.4325313491
 20
246.2003000043
 30
0.0
 10
433.4525792701
 20
246.1845985717
 30
0.0
 10
433.4793333726
 20
246.1659296483
 30
0.0
 10
433.5211931204
 20
246.1355240633
 30
0.0
 10
433.5738421212999
 20
246.0977004196
 30
0.0
 10
433.6578985314999
 20
246.0370798442
 30
0.0
 10
433.7630367147
 20
245.9613413666
 30
0.0
 10
433.8681317051
 20
245.8855823539
 30
0.0
 10
433.941741534
 20
245.8325680996
 30
0.0
 10
433.9837429615
 20
245.8022511641
 30
0.0
 10
434.0101368654
 20
245.7833567085
 30
0.0
 10
434.0309240933999
 20
245.7681182032
 30
0.0
 10
434.0529084923
 20
245.7533285579
 30
0.0
 10
434.0718200782999
 20
245.731628727
 30
0.0
 10
434.0950694582
 20
245.7057971971
 30
0.0
 10
434.1258746165
 20
245.6712824138
 30
0.0
 10
434.1644474835
 20
245.6281638419
 30
0.0
 10
434.2261270189999
 20
245.5591602072
 30
0.0
 10
434.2878163233
 20
245.490160388
 30
0.0
 10
434.3495041098999
 20
245.421159562
 30
0.0
 10
434.3957647341
 20
245.3694081475
 30
0.0
 10
434.4343332726
 20
245.3262850382
 30
0.0
 10
434.4651474671
 20
245.2917795815
 30
0.0
 10
434.4844989204
 20
245.2702295595
 30
0.0
 10
434.4997680459999
 20
245.2529531519
 30
0.0
 10
434.5118004523
 20
245.2400954831
 30
0.0
 10
434.517244259
 20
245.2261070696
 30
0.0
 10
434.5268037395999
 20
245.2078507648
 30
0.0
 10
434.5379665519
 20
245.184895397
 30
0.0
 10
434.5654048561
 20
245.1299136468
 30
0.0
 10
434.6062874533999
 20
245.0473938765
 30
0.0
 10
434.6518548987
 20
244.9557295551
 30
0.0
 10
434.6882604286999
 20
244.8823900366
 30
0.0
 10
434.7156244526
 20
244.8273949943
 30
0.0
 10
434.7382483955999
 20
244.7815371629
 30
0.0
 10
434.7567481962999
 20
244.7449148102
 30
0.0
 10
434.7673986612
 20
244.7218803736
 30
0.0
 10
434.7780074567999
 20
244.7037859648
 30
0.0
 10
434.7809920861
 20
244.6844753672
 30
0.0
 10
434.7856715089999
 20
244.6505950853
 30
0.0
 10
434.7954157605
 20
244.5828961129
 30
0.0
 10
434.8091393766999
 20
244.4861510043
 30
0.0
 10
434.822915859
 20
244.3894177421
 30
0.0
 10
434.8339675605999
 20
244.3120285336
 30
0.0
 10
434.8421330698999
 20
244.2539873156
 30
0.0
 10
434.8493358357
 20
244.2056184224
 30
0.0
 10
434.8542040623999
 20
244.1669258712
 30
0.0
 10
434.8623296935
 20
244.1282240359
 30
0.0
 10
434.8491736813
 20
244.0799131683
 30
0.0
 10
434.8384118229
 20
244.0219258081
 30
0.0
 10
434.8263055701
 20
243.9639422786
 30
0.0
 10
434.8106335283
 20
243.8866295677
 30
0.0
 10
434.7908822478999
 20
243.7899891386
 30
0.0
 10
434.7672501634999
 20
243.6740204257
 30
0.0
 10
434.7514822116
 20
243.5967079882
 30
0.0
 10
434.7435998893
 20
243.5580517647
 30
0.0
  0
SPLINE
  5
236
330
210
100
AcDbEntity
  8
PR980_128_00_BL0
  6
Continuous
 62
     2
100
AcDbSpline
210
0.0
220
0.0
230
1.0
 70
     8
 71
     3
 72
    65
 73
    61
 74
     0
 42
0.0000000001
 43
0.0000000001
 40
0.0
 40
0.0
 40
0.0
 40
0.0
 40
0.0625
 40
0.09375
 40
0.125
 40
0.140625
 40
0.15625
 40
0.1640625
 40
0.16796875
 40
0.171875
 40
0.1796875
 40
0.1875
 40
0.21875
 40
0.25
 40
0.28125
 40
0.3125
 40
0.3203125
 40
0.328125
 40
0.33203125
 40
0.3359375
 40
0.34375
 40
0.359375
 40
0.375
 40
0.40625
 40
0.4375
 40
0.453125
 40
0.46875
 40
0.484375
 40
0.4921875
 40
0.49609375
 40
0.5
 40
0.50390625
 40
0.5078125
 40
0.515625
 40
0.53125
 40
0.546875
 40
0.5625
 40
0.59375
 40
0.625
 40
0.640625
 40
0.65625
 40
0.6640625
 40
0.66796875
 40
0.671875
 40
0.6796875
 40
0.6875
 40
0.71875
 40
0.75
 40
0.78125
 40
0.8125
 40
0.8203125
 40
0.828125
 40
0.83203125
 40
0.8359375
 40
0.84375
 40
0.859375
 40
0.875
 40
0.90625
 40
0.9375
 40
1.0
 40
1.0
 40
1.0
 40
1.0
 10
424.982344984
 20
243.5466582881
 30
0.0
 10
424.9680403229
 20
243.606479315
 30
0.0
 10
424.9465918816
 20
243.6962111191
 30
0.0
 10
424.9179597589
 20
243.815852469
 30
0.0
 10
424.9001359343999
 20
243.890630512
 30
0.0
 10
424.8857144197
 20
243.9504479319
 30
0.0
 10
424.8770714845999
 20
243.987845256
 30
0.0
 10
424.8702788928
 20
244.0140004628
 30
0.0
 10
424.8675591791999
 20
244.0289821558
 30
0.0
 10
424.8692152613999
 20
244.0440989171
 30
0.0
 10
424.8697896662999
 20
244.0629487039
 30
0.0
 10
424.8723995496
 20
244.1082261693
 30
0.0
 10
424.8757930741
 20
244.1761266884
 30
0.0
 10
424.8806354191999
 20
244.2666683813
 30
0.0
 10
424.8853192891999
 20
244.357212853
 30
0.0
 10
424.8890693825
 20
244.4251071197
 30
0.0
 10
424.8912236503
 20
244.4703925742
 30
0.0
 10
424.8926316995
 20
244.4892277432
 30
0.0
 10
424.892567668
 20
244.5043746664
 30
0.0
 10
424.8968571695999
 20
244.519233454
 30
0.0
 10
424.9063865423
 20
244.5451024587
 30
0.0
 10
424.9189445963
 20
244.5821280211
 30
0.0
 10
424.9396270748
 20
244.6413299324
 30
0.0
 10
424.9652795742999
 20
244.7153453687
 30
0.0
 10
424.9909974783999
 20
244.7893573522
 30
0.0
 10
425.0115753092999
 20
244.8485647881
 30
0.0
 10
425.0269589169
 20
244.8929788895
 30
0.0
 10
425.0399430137999
 20
244.9299631218
 30
0.0
 10
425.0487083639
 20
244.9559061446
 30
0.0
 10
425.05422241
 20
244.97064631
 30
0.0
 10
425.0569345544
 20
244.9819392456
 30
0.0
 10
425.0650876219
 20
244.9923231447
 30
0.0
 10
425.0740605249999
 20
245.0064854253
 30
0.0
 10
425.0906473372999
 20
245.0311216858001
 30
0.0
 10
425.1138806036
 20
245.0663935492
 30
0.0
 10
425.1419578851
 20
245.1086868687
 30
0.0
 10
425.1793276472
 20
245.1650888108
 30
0.0
 10
425.2260460437999
 20
245.2355921597
 30
0.0
 10
425.2728229309999
 20
245.3060782617
 30
0.0
 10
425.3100991080999
 20
245.3625077988
 30
0.0
 10
425.3337308052
 20
245.3976832441
 30
0.0
 10
425.3496032032
 20
245.4224924947
 30
0.0
 10
425.3597211304
 20
245.4363775044
 30
0.0
 10
425.3737863023999
 20
245.4491638062
 30
0.0
 10
425.3900185551
 20
245.4655222368
 30
0.0
 10
425.4300866658999
 20
245.5044732818
 30
0.0
 10
425.4897188166
 20
245.5630310369
 30
0.0
 10
425.5695136908999
 20
245.6410267531
 30
0.0
 10
425.6491699047
 20
245.7190677645
 30
0.0
 10
425.7091140416999
 20
245.7775236053
 30
0.0
 10
425.7487835033
 20
245.8166048741
 30
0.0
 10
425.7657451683
 20
245.8327250328
 30
0.0
 10
425.7783052955
 20
245.8460029768
 30
0.0
 10
425.7945560639
 20
245.8578846153
 30
0.0
 10
425.8247096630999
 20
245.8780287276
 30
0.0
 10
425.8668915593
 20
245.9071445191
 30
0.0
 10
425.9348825891999
 20
245.9535406187
 30
0.0
 10
426.0197001038999
 20
246.0116005419
 30
0.0
 10
426.1555042803999
 20
246.1044600408
 30
0.0
 10
426.2573357783999
 20
246.1741128501
 30
0.0
 10
426.3252282512999
 20
246.2205462374
 30
0.0
  0
LINE
  5
237
330
210
100
AcDbEntity
  8
PR980_128_00_BL0
  6
Continuous
 62
     7
100
AcDbLine
 10
413.5973356403
 20
235.6060717703
 30
0.0
 11
426.3253106929999
 21
228.257738189
 31
0.0
  0
LINE
  5
238
330
210
100
AcDbEntity
  8
PR980_128_00_BL0
  6
Continuous
 62
     7
100
AcDbLine
 10
426.3253106929999
 20
228.257738189
 30
0.0
 11
427.5305867245999
 21
228.9536004766
 31
0.0
  0
LINE
  5
239
330
210
100
AcDbEntity
  8
PR980_128_00_BL0
  6
Continuous
 62
     7
100
AcDbLine
 10
435.7499558598999
 20
230.1648734428
 30
0.0
 11
438.6996778917
 21
228.4618891604
 31
0.0
  0
LINE
  5
23A
330
210
100
AcDbEntity
  8
PR980_128_00_BL0
  6
Continuous
 62
     7
100
AcDbLine
 10
438.6996778917
 20
228.4618891604
 30
0.0
 11
445.7707162638
 21
232.5443306991
 31
0.0
  0
SPLINE
  5
23B
330
210
100
AcDbEntity
  8
PR980_128_00_BL0
  6
Continuous
 62
     7
100
AcDbSpline
210
0.0
220
0.0
230
1.0
 70
     8
 71
     3
 72
    13
 73
     9
 74
     0
 42
0.0000000001
 43
0.0000000001
 40
0.0
 40
0.0
 40
0.0
 40
0.0
 40
0.0986523639
 40
0.201133304
 40
0.3105891190999999
 40
0.4291110006000001
 40
0.6958432290000001
 40
1.0
 40
1.0
 40
1.0
 40
1.0
 10
425.6607847313
 20
244.1795821013
 30
0.0
 10
425.6607752109999
 20
244.0638415795
 30
0.0
 10
425.6905829593
 20
243.82691063
 30
0.0
 10
425.8221783858999
 20
243.4838831519
 30
0.0
 10
426.0361432830999
 20
243.1574599865
 30
0.0
 10
426.4394957429
 20
242.7364337271
 30
0.0
 10
427.1299355761
 20
242.2948973526
 30
0.0
 10
427.7644754583999
 20
242.0667509018
 30
0.0
 10
428.1094230019
 20
241.9753884834
 30
0.0
  0
SPLINE
  5
23C
330
210
100
AcDbEntity
  8
PR980_128_00_BL0
  6
Continuous
 62
     7
100
AcDbSpline
210
0.0
220
0.0
230
1.0
 70
     8
 71
     3
 72
     9
 73
     5
 74
     0
 42
0.0000000001
 43
0.0000000001
 40
0.0
 40
0.0
 40
0.0
 40
0.0
 40
0.2618300162
 40
1.0
 40
1.0
 40
1.0
 40
1.0
 10
431.7854359651
 20
242.0240938877
 30
0.0
 10
431.8804354295999
 20
242.052372209
 30
0.0
 10
432.2403403977999
 20
242.1696255348
 30
0.0
 10
432.5886324647
 20
242.325010329
 30
0.0
 10
432.8306377332999
 20
242.4647313019
 30
0.0
  0
LINE
  5
23D
330
210
100
AcDbEntity
  8
PR980_128_00_BL0
  6
Continuous
 62
     7
100
AcDbLine
 10
445.7707162638
 20
239.0763500361
 30
0.0
 11
440.7164343108999
 21
241.9943750676
 31
0.0
  0
LINE
  5
23E
330
210
100
AcDbEntity
  8
PR980_128_00_BL0
  6
Continuous
 62
     7
100
AcDbLine
 10
421.0218758835999
 20
253.3647764444
 30
0.0
 11
413.9508375115
 21
249.2823349056
 31
0.0
  0
LINE
  5
23F
330
210
100
AcDbEntity
  8
PR980_128_00_BL0
  6
Continuous
 62
     7
100
AcDbLine
 10
425.3690358921
 20
250.854999222
 30
0.0
 11
421.0218758835999
 21
253.3647764444
 31
0.0
  0
SPLINE
  5
240
330
210
100
AcDbEntity
  8
PR980_128_00_BL0
  6
Continuous
 62
     7
100
AcDbSpline
210
0.0
220
0.0
230
1.0
 70
     8
 71
     3
 72
    11
 73
     7
 74
     0
 42
0.0000000001
 43
0.0000000001
 40
0.0
 40
0.0
 40
0.0
 40
0.0
 40
0.2898033721
 40
0.5490453243
 40
0.7822298497000001
 40
1.0
 40
1.0
 40
1.0
 40
1.0
 10
432.8306377332999
 20
242.4647313019
 30
0.0
 10
433.0149738984999
 20
242.5711572013
 30
0.0
 10
433.3493465529
 20
242.8013120779
 30
0.0
 10
433.7487755149999
 20
243.221343283
 30
0.0
 10
434.0016556775
 20
243.6857136539
 30
0.0
 10
434.0607558874999
 20
244.0191565458
 30
0.0
 10
434.060769044
 20
244.1791028405
 30
0.0
  0
LINE
  5
241
330
210
100
AcDbEntity
  8
PR980_128_00_BL0
  6
Continuous
 62
     7
100
AcDbLine
 10
413.9508375115
 20
243.6093609502
 30
0.0
 11
413.9508375115
 21
249.2823349056
 31
0.0
  0
LINE
  5
242
330
210
100
AcDbEntity
  8
PR980_128_00_BL0
  6
Continuous
 62
     7
100
AcDbLine
 10
413.5973356403
 20
235.6060717703
 30
0.0
 11
413.5973356403
 21
241.3216095983
 31
0.0
  0
LINE
  5
243
330
210
100
AcDbEntity
  8
PR980_128_00_BL0
  6
Continuous
 62
     7
100
AcDbLine
 10
445.7707162638
 20
232.5443306991
 30
0.0
 11
445.7707162638
 21
239.0763500361
 31
0.0
  0
SPLINE
  5
244
330
210
100
AcDbEntity
  8
PR980_128_00_BL0
  6
Continuous
 62
     7
100
AcDbSpline
210
0.0
220
0.0
230
1.0
 70
     8
 71
     3
 72
    11
 73
     7
 74
     0
 42
0.0000000001
 43
0.0000000001
 40
0.0
 40
0.0
 40
0.0
 40
0.0
 40
0.2898033721
 40
0.5490453243
 40
0.7822298497000001
 40
1.0
 40
1.0
 40
1.0
 40
1.0
 10
426.8909160419999
 20
245.8939536399
 30
0.0
 10
426.7065798767999
 20
245.7875277405
 30
0.0
 10
426.3722072223999
 20
245.5573728639
 30
0.0
 10
425.9727782603
 20
245.1373416587
 30
0.0
 10
425.7198980977999
 20
244.6729712879
 30
0.0
 10
425.6607978877999
 20
244.339528396
 30
0.0
 10
425.6607847313
 20
244.1795821013
 30
0.0
  0
SPLINE
  5
245
330
210
100
AcDbEntity
  8
PR980_128_00_BL0
  6
Continuous
 62
     7
100
AcDbSpline
210
0.0
220
0.0
230
1.0
 70
     8
 71
     3
 72
    17
 73
    13
 74
     0
 42
0.0000000001
 43
0.0000000001
 40
0.0
 40
0.0
 40
0.0
 40
0.0
 40
0.0428595063
 40
0.0874877944
 40
0.1353201602
 40
0.1872830132
 40
0.3045449606
 40
0.4382158552000001
 40
0.5825636092000001
 40
0.7297219543000001
 40
0.8713137558999999
 40
1.0
 40
1.0
 40
1.0
 40
1.0
 10
434.060769044
 20
244.1791028405
 30
0.0
 10
434.0607788789999
 20
244.2986695081
 30
0.0
 10
434.0288807197
 20
244.5437858648
 30
0.0
 10
433.8883413052999
 20
244.897706787
 30
0.0
 10
433.6602935333999
 20
245.2332621584
 30
0.0
 10
433.2309121143
 20
245.6642220462
 30
0.0
 10
432.4992703891
 20
246.1096757765
 30
0.0
 10
431.4472167132
 20
246.4610998125
 30
0.0
 10
430.2665837462
 20
246.6270197736
 30
0.0
 10
429.0530739219999
 20
246.5934596881
 30
0.0
 10
427.9057743233999
 20
246.3638908764
 30
0.0
 10
427.2018200837
 20
246.0734531006
 30
0.0
 10
426.8909160419999
 20
245.8939536399
 30
0.0
  0
LINE
  5
246
330
210
100
AcDbEntity
  8
PR980_128_00_BL0
  6
Continuous
 62
     7
100
AcDbLine
 10
413.9508375115
 20
249.2823349056
 30
0.0
 11
418.6515675457999
 21
246.5684285517
 31
0.0
  0
LINE
  5
247
330
210
100
AcDbEntity
  8
PR980_128_00_BL0
  6
Continuous
 62
     7
100
AcDbLine
 10
426.3253106929999
 20
228.257738189
 30
0.0
 11
426.3253106929999
 21
232.6520987483
 31
0.0
  0
LINE
  5
248
330
210
100
AcDbEntity
  8
PR980_128_00_BL0
  6
Continuous
 62
     7
100
AcDbLine
 10
438.6996778917
 20
228.4618891604
 30
0.0
 11
438.6996778917
 21
234.9939084974
 31
0.0
  0
LINE
  5
249
330
210
100
AcDbEntity
  8
PR980_128_00_BL0
  6
Continuous
 62
     7
100
AcDbLine
 10
438.6996778917
 20
234.9939084974
 30
0.0
 11
445.7707162638
 21
239.0763500361
 31
0.0
  0
LINE
  5
24A
330
210
100
AcDbEntity
  8
PR980_128_00_BL0
  6
Continuous
 62
     7
100
AcDbLine
 10
433.6453959387999
 20
237.9119335289
 30
0.0
 11
438.6996778917
 21
234.9939084974
 31
0.0
  0
ENDBLK
  5
24B
330
210
100
AcDbEntity
  8
0
  6
ByBlock
 62
     0
100
AcDbBlockEnd
  0
BLOCK
  5
24C
330
211
100
AcDbEntity
  8
PR970_004_00_BL1
100
AcDbBlockBegin
  2
PR970_004_00_BL1
 70
     0
 10
375.9568162498001
 20
210.5023504427
 30
0.0
  3
PR970_004_00_BL1
  1

  0
ARC
  5
24D
330
211
100
AcDbEntity
  8
PR970_004_00_BL1
  6
Continuous
 62
     7
100
AcDbCircle
 10
333.218323001
 20
234.3071595946
 30
0.0
 40
1.5
100
AcDbArc
 50
0.0
 51
24.8678781451
  0
ARC
  5
24E
330
211
100
AcDbEntity
  8
PR970_004_00_BL1
  6
Continuous
 62
     7
100
AcDbCircle
 10
300.218323001
 20
234.3071595946
 30
0.0
 40
1.5
100
AcDbArc
 50
155.1321218549
 51
180.0
  0
LINE
  5
24F
330
211
100
AcDbEntity
  8
PR970_004_00_BL1
  6
Continuous
 62
     7
100
AcDbLine
 10
332.5065768945
 20
212.2968795143
 30
0.0
 11
331.9245331305
 21
212.8028424392
 31
0.0
  0
LINE
  5
250
330
211
100
AcDbEntity
  8
PR970_004_00_BL1
  6
Continuous
 62
     7
100
AcDbLine
 10
331.9245331305
 20
212.8028424392
 30
0.0
 11
329.6556985947
 21
214.7751102114
 31
0.0
  0
LINE
  5
251
330
211
100
AcDbEntity
  8
PR970_004_00_BL1
  6
Continuous
 62
     7
100
AcDbLine
 10
327.0705186743
 20
251.1378875795
 30
0.0
 11
327.0705186743
 21
251.2686784233
 31
0.0
  0
LINE
  5
252
330
211
100
AcDbEntity
  8
PR970_004_00_BL1
  6
Continuous
 62
     7
100
AcDbLine
 10
327.0705186743
 20
251.2686784233
 30
0.0
 11
327.0705186743
 21
252.1378875795
 31
0.0
  0
LINE
  5
253
330
211
100
AcDbEntity
  8
PR970_004_00_BL1
  6
Continuous
 62
     7
100
AcDbLine
 10
306.3661273277
 20
252.1378875795
 30
0.0
 11
307.7876691914
 21
252.1378875795
 31
0.0
  0
LINE
  5
254
330
211
100
AcDbEntity
  8
PR970_004_00_BL1
  6
Continuous
 62
     7
100
AcDbLine
 10
325.6489768106
 20
252.1378875795
 30
0.0
 11
327.0705186743
 21
252.1378875795
 31
0.0
  0
LINE
  5
255
330
211
100
AcDbEntity
  8
PR970_004_00_BL1
  6
Continuous
 62
     7
100
AcDbLine
 10
306.3661273277
 20
252.1378875795
 30
0.0
 11
306.3661273277
 21
251.2686784233
 31
0.0
  0
LINE
  5
256
330
211
100
AcDbEntity
  8
PR970_004_00_BL1
  6
Continuous
 62
     7
100
AcDbLine
 10
306.3661273277
 20
251.2686784233
 30
0.0
 11
306.3661273277
 21
251.1378875795
 31
0.0
  0
ARC
  5
257
330
211
100
AcDbEntity
  8
PR970_004_00_BL1
  6
Continuous
 62
     7
100
AcDbCircle
 10
307.7876691914
 20
250.6378875795
 30
0.0
 40
1.5
100
AcDbArc
 50
90.0
 51
155.1321218549
  0
LINE
  5
258
330
211
100
AcDbEntity
  8
PR970_004_00_BL1
  6
Continuous
 62
     7
100
AcDbLine
 10
325.6489768106
 20
252.1378875795
 30
0.0
 11
307.7876691914
 21
252.1378875795
 31
0.0
  0
ARC
  5
259
330
211
100
AcDbEntity
  8
PR970_004_00_BL1
  6
Continuous
 62
     7
100
AcDbCircle
 10
325.6489768106
 20
250.6378875795
 30
0.0
 40
1.5
100
AcDbArc
 50
24.8678781451
 51
90.0
  0
LINE
  5
25A
330
211
100
AcDbEntity
  8
PR970_004_00_BL1
  6
Continuous
 62
     7
100
AcDbLine
 10
334.5792428779
 20
234.9379504385
 30
0.0
 11
327.0098966875
 21
251.2686784233
 31
0.0
  0
LINE
  5
25B
330
211
100
AcDbEntity
  8
PR970_004_00_BL1
  6
Continuous
 62
     7
100
AcDbLine
 10
334.718323001
 20
212.8878875795
 30
0.0
 11
334.718323001
 21
234.3071595946
 31
0.0
  0
ARC
  5
25C
330
211
100
AcDbEntity
  8
PR970_004_00_BL1
  6
Continuous
 62
     7
100
AcDbCircle
 10
332.968323001
 20
212.8878875795
 30
0.0
 40
1.75
100
AcDbArc
 50
232.0
 51
360.0
  0
LINE
  5
25D
330
211
100
AcDbEntity
  8
PR970_004_00_BL1
  6
Continuous
 62
     7
100
AcDbLine
 10
329.0151193531
 20
213.9552061714
 30
0.0
 11
329.6307808285
 21
214.743216925
 31
0.0
  0
LINE
  5
25E
330
211
100
AcDbEntity
  8
PR970_004_00_BL1
  6
Continuous
 62
     7
100
AcDbLine
 10
331.8980167372
 20
212.7723388181
 30
0.0
 11
329.6307808285
 21
214.743216925
 31
0.0
  0
LINE
  5
25F
330
211
100
AcDbEntity
  8
PR970_004_00_BL1
  6
Continuous
 62
     7
100
AcDbLine
 10
332.5065768945
 20
212.2968795143
 30
0.0
 11
331.8980167372
 21
212.7723388181
 31
0.0
  0
ARC
  5
260
330
211
100
AcDbEntity
  8
PR970_004_00_BL1
  6
Continuous
 62
     7
100
AcDbCircle
 10
332.968323001
 20
212.8878875795
 30
0.0
 40
0.75
100
AcDbArc
 50
232.0
 51
360.0
  0
LINE
  5
261
330
211
100
AcDbEntity
  8
PR970_004_00_BL1
  6
Continuous
 62
     7
100
AcDbLine
 10
333.718323001
 20
234.3071595946
 30
0.0
 11
333.718323001
 21
212.8878875795
 31
0.0
  0
LINE
  5
262
330
211
100
AcDbEntity
  8
PR970_004_00_BL1
  6
Continuous
 62
     7
100
AcDbLine
 10
326.1026167696
 20
250.8481511941
 30
0.0
 11
333.67196296
 21
234.5174232092
 31
0.0
  0
LINE
  5
263
330
211
100
AcDbEntity
  8
PR970_004_00_BL1
  6
Continuous
 62
     7
100
AcDbLine
 10
307.7876691914
 20
251.1378875795
 30
0.0
 11
325.6489768106
 21
251.1378875795
 31
0.0
  0
LINE
  5
264
330
211
100
AcDbEntity
  8
PR970_004_00_BL1
  6
Continuous
 62
     7
100
AcDbLine
 10
299.764683042
 20
234.5174232092
 30
0.0
 11
307.3340292324
 21
250.8481511941
 31
0.0
  0
LINE
  5
265
330
211
100
AcDbEntity
  8
PR970_004_00_BL1
  6
Continuous
 62
     7
100
AcDbLine
 10
299.718323001
 20
212.8878875795
 30
0.0
 11
299.718323001
 21
234.3071595946
 31
0.0
  0
ARC
  5
266
330
211
100
AcDbEntity
  8
PR970_004_00_BL1
  6
Continuous
 62
     7
100
AcDbCircle
 10
300.468323001
 20
212.8878875795
 30
0.0
 40
0.75
100
AcDbArc
 50
180.0
 51
308.0
  0
LINE
  5
267
330
211
100
AcDbEntity
  8
PR970_004_00_BL1
  6
Continuous
 62
     7
100
AcDbLine
 10
301.5386292649
 20
212.7723388181
 30
0.0
 11
300.9300691075
 21
212.2968795143
 31
0.0
  0
LINE
  5
268
330
211
100
AcDbEntity
  8
PR970_004_00_BL1
  6
Continuous
 62
     7
100
AcDbLine
 10
303.8058651736
 20
214.743216925
 30
0.0
 11
301.5386292649
 21
212.7723388181
 31
0.0
  0
LINE
  5
269
330
211
100
AcDbEntity
  8
PR970_004_00_BL1
  6
Continuous
 62
     7
100
AcDbLine
 10
303.8058651736
 20
214.743216925
 30
0.0
 11
304.4215266489
 21
213.9552061714
 31
0.0
  0
ARC
  5
26A
330
211
100
AcDbEntity
  8
PR970_004_00_BL1
  6
Continuous
 62
     7
100
AcDbCircle
 10
300.468323001
 20
212.8878875795
 30
0.0
 40
1.75
100
AcDbArc
 50
180.0
 51
308.0
  0
LINE
  5
26B
330
211
100
AcDbEntity
  8
PR970_004_00_BL1
  6
Continuous
 62
     7
100
AcDbLine
 10
298.718323001
 20
234.3071595946
 30
0.0
 11
298.718323001
 21
212.8878875795
 31
0.0
  0
LINE
  5
26C
330
211
100
AcDbEntity
  8
PR970_004_00_BL1
  6
Continuous
 62
     7
100
AcDbLine
 10
306.4267493145
 20
251.2686784233
 30
0.0
 11
298.8574031241
 21
234.9379504385
 31
0.0
  0
ARC
  5
26D
330
211
100
AcDbEntity
  8
PR970_004_00_BL1
  6
Continuous
 62
     7
100
AcDbCircle
 10
333.218323001
 20
234.3071595946
 30
0.0
 40
0.5
100
AcDbArc
 50
0.0
 51
24.8678781451
  0
ARC
  5
26E
330
211
100
AcDbEntity
  8
PR970_004_00_BL1
  6
Continuous
 62
     7
100
AcDbCircle
 10
325.6489768106
 20
250.6378875795
 30
0.0
 40
0.5
100
AcDbArc
 50
24.8678781451
 51
90.0
  0
ARC
  5
26F
330
211
100
AcDbEntity
  8
PR970_004_00_BL1
  6
Continuous
 62
     7
100
AcDbCircle
 10
307.7876691914
 20
250.6378875795
 30
0.0
 40
0.5
100
AcDbArc
 50
90.0
 51
155.1321218549
  0
ARC
  5
270
330
211
100
AcDbEntity
  8
PR970_004_00_BL1
  6
Continuous
 62
     7
100
AcDbCircle
 10
300.218323001
 20
234.3071595946
 30
0.0
 40
0.5
100
AcDbArc
 50
155.1321218549
 51
180.0
  0
LINE
  5
271
330
211
100
AcDbEntity
  8
PR970_004_00_BL1
  6
Continuous
 62
     7
100
AcDbLine
 10
301.5457305828
 20
211.5088687607
 30
0.0
 11
304.518323001
 21
213.8313124905
 31
0.0
  0
LINE
  5
272
330
211
100
AcDbEntity
  8
PR970_004_00_BL1
  6
Continuous
 62
     7
100
AcDbLine
 10
304.4215266489
 20
213.9552061714
 30
0.0
 11
304.518323001
 21
213.8313124905
 31
0.0
  0
LINE
  5
273
330
211
100
AcDbEntity
  8
PR970_004_00_BL1
  6
Continuous
 62
     7
100
AcDbLine
 10
328.918323001
 20
213.8313124905
 30
0.0
 11
331.8909154192
 21
211.5088687607
 31
0.0
  0
LINE
  5
274
330
211
100
AcDbEntity
  8
PR970_004_00_BL1
  6
Continuous
 62
     7
100
AcDbLine
 10
329.6307808285
 20
214.743216925
 30
0.0
 11
329.6556985947
 21
214.7751102114
 31
0.0
  0
LINE
  5
275
330
211
100
AcDbEntity
  8
PR970_004_00_BL1
  6
Continuous
 62
     7
100
AcDbLine
 10
329.0151193531
 20
213.9552061714
 30
0.0
 11
328.918323001
 21
213.8313124905
 31
0.0
  0
LINE
  5
276
330
211
100
AcDbEntity
  8
PR970_004_00_BL1
  6
Continuous
 62
     7
100
AcDbLine
 10
329.0151193531
 20
213.9552061714
 30
0.0
 11
331.8909154192
 21
211.5088687607
 31
0.0
  0
LINE
  5
277
330
211
100
AcDbEntity
  8
PR970_004_00_BL1
  6
Continuous
 62
     7
100
AcDbLine
 10
301.5457305828
 20
211.5088687607
 30
0.0
 11
304.4215266489
 21
213.9552061714
 31
0.0
  0
LINE
  5
278
330
211
100
AcDbEntity
  8
PR970_004_00_BL1
  6
Continuous
 62
     7
100
AcDbLine
 10
325.6489768106
 20
196.094784504
 30
0.0
 11
327.0098966875
 21
196.094784504
 31
0.0
  0
LINE
  5
279
330
211
100
AcDbEntity
  8
PR970_004_00_BL1
  6
Continuous
 62
     7
100
AcDbLine
 10
325.6489768106
 20
196.094784504
 30
0.0
 11
307.7876691914
 21
196.094784504
 31
0.0
  0
LINE
  5
27A
330
211
100
AcDbEntity
  8
PR970_004_00_BL1
  6
Continuous
 62
     7
100
AcDbLine
 10
306.4267493145
 20
196.094784504
 30
0.0
 11
307.7876691914
 21
196.094784504
 31
0.0
  0
LINE
  5
27B
330
211
100
AcDbEntity
  8
PR970_004_00_BL1
  6
Continuous
 62
     7
100
AcDbLine
 10
306.4267493145
 20
196.094784504
 30
0.0
 11
298.8574031241
 21
196.094784504
 31
0.0
  0
LINE
  5
27C
330
211
100
AcDbEntity
  8
PR970_004_00_BL1
  6
Continuous
 62
     7
100
AcDbLine
 10
334.718323001
 20
186.594784504
 30
0.0
 11
334.5792428779
 21
186.594784504
 31
0.0
  0
LINE
  5
27D
330
211
100
AcDbEntity
  8
PR970_004_00_BL1
  6
Continuous
 62
     7
100
AcDbLine
 10
334.718323001
 20
186.594784504
 30
0.0
 11
334.718323001
 21
196.094784504
 31
0.0
  0
LINE
  5
27E
330
211
100
AcDbEntity
  8
PR970_004_00_BL1
  6
Continuous
 62
     7
100
AcDbLine
 10
334.5792428779
 20
196.094784504
 30
0.0
 11
334.718323001
 21
196.094784504
 31
0.0
  0
LINE
  5
27F
330
211
100
AcDbEntity
  8
PR970_004_00_BL1
  6
Continuous
 62
     7
100
AcDbLine
 10
334.718323001
 20
175.694784504
 30
0.0
 11
334.5792428779
 21
175.694784504
 31
0.0
  0
LINE
  5
280
330
211
100
AcDbEntity
  8
PR970_004_00_BL1
  6
Continuous
 62
     7
100
AcDbLine
 10
334.718323001
 20
175.694784504
 30
0.0
 11
334.718323001
 21
186.494784504
 31
0.0
  0
LINE
  5
281
330
211
100
AcDbEntity
  8
PR970_004_00_BL1
  6
Continuous
 62
     7
100
AcDbLine
 10
334.5792428779
 20
186.494784504
 30
0.0
 11
334.718323001
 21
186.494784504
 31
0.0
  0
LINE
  5
282
330
211
100
AcDbEntity
  8
PR970_004_00_BL1
  6
Continuous
 62
     7
100
AcDbLine
 10
334.5792428779
 20
196.094784504
 30
0.0
 11
327.0098966875
 21
196.094784504
 31
0.0
  0
LINE
  5
283
330
211
100
AcDbEntity
  8
PR970_004_00_BL1
  6
Continuous
 62
     7
100
AcDbLine
 10
307.7876691914
 20
166.094784504
 30
0.0
 11
306.4267493145
 21
166.094784504
 31
0.0
  0
LINE
  5
284
330
211
100
AcDbEntity
  8
PR970_004_00_BL1
  6
Continuous
 62
     7
100
AcDbLine
 10
325.6489768106
 20
166.094784504
 30
0.0
 11
307.7876691914
 21
166.094784504
 31
0.0
  0
LINE
  5
285
330
211
100
AcDbEntity
  8
PR970_004_00_BL1
  6
Continuous
 62
     7
100
AcDbLine
 10
327.0098966875
 20
166.094784504
 30
0.0
 11
325.6489768106
 21
166.094784504
 31
0.0
  0
LINE
  5
286
330
211
100
AcDbEntity
  8
PR970_004_00_BL1
  6
Continuous
 62
     7
100
AcDbLine
 10
334.5792428779
 20
166.094784504
 30
0.0
 11
327.0098966875
 21
166.094784504
 31
0.0
  0
LINE
  5
287
330
211
100
AcDbEntity
  8
PR970_004_00_BL1
  6
Continuous
 62
     7
100
AcDbLine
 10
334.718323001
 20
166.094784504
 30
0.0
 11
334.5792428779
 21
166.094784504
 31
0.0
  0
LINE
  5
288
330
211
100
AcDbEntity
  8
PR970_004_00_BL1
  6
Continuous
 62
     7
100
AcDbLine
 10
334.718323001
 20
166.094784504
 30
0.0
 11
334.718323001
 21
175.594784504
 31
0.0
  0
LINE
  5
289
330
211
100
AcDbEntity
  8
PR970_004_00_BL1
  6
Continuous
 62
     7
100
AcDbLine
 10
334.5792428779
 20
175.594784504
 30
0.0
 11
334.718323001
 21
175.594784504
 31
0.0
  0
LINE
  5
28A
330
211
100
AcDbEntity
  8
PR970_004_00_BL1
  6
Continuous
 62
     7
100
AcDbLine
 10
298.8574031241
 20
186.594784504
 30
0.0
 11
298.718323001
 21
186.594784504
 31
0.0
  0
LINE
  5
28B
330
211
100
AcDbEntity
  8
PR970_004_00_BL1
  6
Continuous
 62
     7
100
AcDbLine
 10
298.718323001
 20
196.094784504
 30
0.0
 11
298.8574031241
 21
196.094784504
 31
0.0
  0
LINE
  5
28C
330
211
100
AcDbEntity
  8
PR970_004_00_BL1
  6
Continuous
 62
     7
100
AcDbLine
 10
298.718323001
 20
186.594784504
 30
0.0
 11
298.718323001
 21
196.094784504
 31
0.0
  0
LINE
  5
28D
330
211
100
AcDbEntity
  8
PR970_004_00_BL1
  6
Continuous
 62
     7
100
AcDbLine
 10
298.8574031241
 20
175.694784504
 30
0.0
 11
298.718323001
 21
175.694784504
 31
0.0
  0
LINE
  5
28E
330
211
100
AcDbEntity
  8
PR970_004_00_BL1
  6
Continuous
 62
     7
100
AcDbLine
 10
298.718323001
 20
186.494784504
 30
0.0
 11
298.8574031241
 21
186.494784504
 31
0.0
  0
LINE
  5
28F
330
211
100
AcDbEntity
  8
PR970_004_00_BL1
  6
Continuous
 62
     7
100
AcDbLine
 10
306.4267493145
 20
166.094784504
 30
0.0
 11
298.8574031241
 21
166.094784504
 31
0.0
  0
LINE
  5
290
330
211
100
AcDbEntity
  8
PR970_004_00_BL1
  6
Continuous
 62
     7
100
AcDbLine
 10
298.8574031241
 20
186.494784504
 30
0.0
 11
302.1945976950001
 21
186.494784504
 31
0.0
  0
LINE
  5
291
330
211
100
AcDbEntity
  8
PR970_004_00_BL1
  6
Continuous
 62
     7
100
AcDbLine
 10
298.8574031241
 20
175.694784504
 30
0.0
 11
302.1945976950001
 21
175.694784504
 31
0.0
  0
LINE
  5
292
330
211
100
AcDbEntity
  8
PR970_004_00_BL1
  6
Continuous
 62
     7
100
AcDbLine
 10
298.718323001
 20
175.694784504
 30
0.0
 11
298.718323001
 21
186.494784504
 31
0.0
  0
LINE
  5
293
330
211
100
AcDbEntity
  8
PR970_004_00_BL1
  6
Continuous
 62
     7
100
AcDbLine
 10
298.8574031241
 20
166.094784504
 30
0.0
 11
298.718323001
 21
166.094784504
 31
0.0
  0
LINE
  5
294
330
211
100
AcDbEntity
  8
PR970_004_00_BL1
  6
Continuous
 62
     7
100
AcDbLine
 10
298.718323001
 20
175.594784504
 30
0.0
 11
298.8574031241
 21
175.594784504
 31
0.0
  0
LINE
  5
295
330
211
100
AcDbEntity
  8
PR970_004_00_BL1
  6
Continuous
 62
     7
100
AcDbLine
 10
298.718323001
 20
186.594784504
 30
0.0
 11
298.718323001
 21
186.494784504
 31
0.0
  0
LINE
  5
296
330
211
100
AcDbEntity
  8
PR970_004_00_BL1
  6
Continuous
 62
     7
100
AcDbLine
 10
298.718323001
 20
166.094784504
 30
0.0
 11
298.718323001
 21
175.594784504
 31
0.0
  0
LINE
  5
297
330
211
100
AcDbEntity
  8
PR970_004_00_BL1
  6
Continuous
 62
     7
100
AcDbLine
 10
330.3347683891
 20
175.694784504
 30
0.0
 11
331.242048307
 21
175.694784504
 31
0.0
  0
LINE
  5
298
330
211
100
AcDbEntity
  8
PR970_004_00_BL1
  6
Continuous
 62
     7
100
AcDbLine
 10
298.718323001
 20
175.694784504
 30
0.0
 11
298.718323001
 21
175.594784504
 31
0.0
  0
LINE
  5
299
330
211
100
AcDbEntity
  8
PR970_004_00_BL1
  6
Continuous
 62
     7
100
AcDbLine
 10
303.1018776129
 20
175.694784504
 30
0.0
 11
302.1945976950001
 21
175.694784504
 31
0.0
  0
LINE
  5
29A
330
211
100
AcDbEntity
  8
PR970_004_00_BL1
  6
Continuous
 62
     7
100
AcDbLine
 10
330.3347683891
 20
186.494784504
 30
0.0
 11
331.242048307
 21
186.494784504
 31
0.0
  0
LINE
  5
29B
330
211
100
AcDbEntity
  8
PR970_004_00_BL1
  6
Continuous
 62
     7
100
AcDbLine
 10
303.1018776129
 20
186.494784504
 30
0.0
 11
302.1945976950001
 21
186.494784504
 31
0.0
  0
LINE
  5
29C
330
211
100
AcDbEntity
  8
PR970_004_00_BL1
  6
Continuous
 62
     7
100
AcDbLine
 10
327.0705186743
 20
175.594784504
 30
0.0
 11
327.0705186743
 21
186.594784504
 31
0.0
  0
LINE
  5
29D
330
211
100
AcDbEntity
  8
PR970_004_00_BL1
  6
Continuous
 62
     7
100
AcDbLine
 10
307.7876691914
 20
186.594784504
 30
0.0
 11
306.3661273277
 21
186.594784504
 31
0.0
  0
LINE
  5
29E
330
211
100
AcDbEntity
  8
PR970_004_00_BL1
  6
Continuous
 62
     7
100
AcDbLine
 10
304.518323001
 20
186.594784504
 30
0.0
 11
304.518323001
 21
186.094784504
 31
0.0
  0
LINE
  5
29F
330
211
100
AcDbEntity
  8
PR970_004_00_BL1
  6
Continuous
 62
     7
100
AcDbLine
 10
304.518323001
 20
176.094784504
 30
0.0
 11
304.518323001
 21
175.594784504
 31
0.0
  0
LINE
  5
2A0
330
211
100
AcDbEntity
  8
PR970_004_00_BL1
  6
Continuous
 62
     7
100
AcDbLine
 10
327.0705186743
 20
186.594784504
 30
0.0
 11
325.6489768106
 21
186.594784504
 31
0.0
  0
LINE
  5
2A1
330
211
100
AcDbEntity
  8
PR970_004_00_BL1
  6
Continuous
 62
     7
100
AcDbLine
 10
306.3661273277
 20
175.594784504
 30
0.0
 11
307.7876691914
 21
175.594784504
 31
0.0
  0
LINE
  5
2A2
330
211
100
AcDbEntity
  8
PR970_004_00_BL1
  6
Continuous
 62
     7
100
AcDbLine
 10
325.6489768106
 20
175.594784504
 30
0.0
 11
327.0705186743
 21
175.594784504
 31
0.0
  0
LINE
  5
2A3
330
211
100
AcDbEntity
  8
PR970_004_00_BL1
  6
Continuous
 62
     7
100
AcDbLine
 10
306.3661273277
 20
186.594784504
 30
0.0
 11
306.3661273277
 21
175.594784504
 31
0.0
  0
LINE
  5
2A4
330
211
100
AcDbEntity
  8
PR970_004_00_BL1
  6
Continuous
 62
     7
100
AcDbLine
 10
299.718323001
 20
175.694784504
 30
0.0
 11
299.718323001
 21
175.594784504
 31
0.0
  0
LINE
  5
2A5
330
211
100
AcDbEntity
  8
PR970_004_00_BL1
  6
Continuous
 62
     7
100
AcDbLine
 10
299.718323001
 20
186.594784504
 30
0.0
 11
299.718323001
 21
186.494784504
 31
0.0
  0
LINE
  5
2A6
330
211
100
AcDbEntity
  8
PR970_004_00_BL1
  6
Continuous
 62
     7
100
AcDbLine
 10
303.1018776129
 20
186.494784504
 30
0.0
 11
303.1018776129
 21
186.094784504
 31
0.0
  0
LINE
  5
2A7
330
211
100
AcDbEntity
  8
PR970_004_00_BL1
  6
Continuous
 62
     7
100
AcDbLine
 10
303.1018776129
 20
176.094784504
 30
0.0
 11
303.1018776129
 21
175.694784504
 31
0.0
  0
LINE
  5
2A8
330
211
100
AcDbEntity
  8
PR970_004_00_BL1
  6
Continuous
 62
     7
100
AcDbLine
 10
334.5792428779
 20
175.594784504
 30
0.0
 11
327.0705186743
 21
175.594784504
 31
0.0
  0
LINE
  5
2A9
330
211
100
AcDbEntity
  8
PR970_004_00_BL1
  6
Continuous
 62
     7
100
AcDbLine
 10
306.3661273277
 20
175.594784504
 30
0.0
 11
298.8574031241
 21
175.594784504
 31
0.0
  0
LINE
  5
2AA
330
211
100
AcDbEntity
  8
PR970_004_00_BL1
  6
Continuous
 62
     7
100
AcDbLine
 10
330.3347683891
 20
175.694784504
 30
0.0
 11
330.3347683891
 21
176.094784504
 31
0.0
  0
LINE
  5
2AB
330
211
100
AcDbEntity
  8
PR970_004_00_BL1
  6
Continuous
 62
     7
100
AcDbLine
 10
330.3347683891
 20
186.094784504
 30
0.0
 11
330.3347683891
 21
186.494784504
 31
0.0
  0
LINE
  5
2AC
330
211
100
AcDbEntity
  8
PR970_004_00_BL1
  6
Continuous
 62
     7
100
AcDbLine
 10
327.0705186743
 20
186.594784504
 30
0.0
 11
334.5792428779
 21
186.594784504
 31
0.0
  0
LINE
  5
2AD
330
211
100
AcDbEntity
  8
PR970_004_00_BL1
  6
Continuous
 62
     7
100
AcDbLine
 10
298.8574031241
 20
186.594784504
 30
0.0
 11
306.3661273277
 21
186.594784504
 31
0.0
  0
LINE
  5
2AE
330
211
100
AcDbEntity
  8
PR970_004_00_BL1
  6
Continuous
 62
     7
100
AcDbLine
 10
333.718323001
 20
186.594784504
 30
0.0
 11
333.718323001
 21
186.494784504
 31
0.0
  0
ARC
  5
2AF
330
211
100
AcDbEntity
  8
PR970_004_00_BL1
  6
Continuous
 62
     7
100
AcDbCircle
 10
316.718323001
 20
181.094784504
 30
0.0
 40
5.5
100
AcDbArc
 50
0.0
 51
180.0
  0
LINE
  5
2B0
330
211
100
AcDbEntity
  8
PR970_004_00_BL1
  6
Continuous
 62
     7
100
AcDbLine
 10
333.718323001
 20
175.694784504
 30
0.0
 11
333.718323001
 21
175.594784504
 31
0.0
  0
ARC
  5
2B1
330
211
100
AcDbEntity
  8
PR970_004_00_BL1
  6
Continuous
 62
     7
100
AcDbCircle
 10
316.718323001
 20
181.094784504
 30
0.0
 40
5.5
100
AcDbArc
 50
180.0
 51
360.0
  0
LINE
  5
2B2
330
211
100
AcDbEntity
  8
PR970_004_00_BL1
  6
Continuous
 62
     7
100
AcDbLine
 10
328.918323001
 20
186.594784504
 30
0.0
 11
328.918323001
 21
186.094784504
 31
0.0
  0
LINE
  5
2B3
330
211
100
AcDbEntity
  8
PR970_004_00_BL1
  6
Continuous
 62
     7
100
AcDbLine
 10
328.918323001
 20
176.094784504
 30
0.0
 11
328.918323001
 21
175.594784504
 31
0.0
  0
LINE
  5
2B4
330
211
100
AcDbEntity
  8
PR970_004_00_BL1
  6
Continuous
 62
     7
100
AcDbLine
 10
334.5792428779
 20
186.494784504
 30
0.0
 11
331.242048307
 21
186.494784504
 31
0.0
  0
LINE
  5
2B5
330
211
100
AcDbEntity
  8
PR970_004_00_BL1
  6
Continuous
 62
     7
100
AcDbLine
 10
334.5792428779
 20
175.694784504
 30
0.0
 11
331.242048307
 21
175.694784504
 31
0.0
  0
LINE
  5
2B6
330
211
100
AcDbEntity
  8
PR970_004_00_BL1
  6
Continuous
 62
     7
100
AcDbLine
 10
334.718323001
 20
175.694784504
 30
0.0
 11
334.718323001
 21
175.594784504
 31
0.0
  0
LINE
  5
2B7
330
211
100
AcDbEntity
  8
PR970_004_00_BL1
  6
Continuous
 62
     7
100
AcDbLine
 10
334.718323001
 20
186.594784504
 30
0.0
 11
334.718323001
 21
186.494784504
 31
0.0
  0
LINE
  5
2B8
330
211
100
AcDbEntity
  8
PR970_004_00_BL1
  6
Continuous
 62
     9
100
AcDbLine
 10
298.8574031241
 20
166.094784504
 30
0.0
 11
298.8574031241
 21
175.594784504
 31
0.0
  0
LINE
  5
2B9
330
211
100
AcDbEntity
  8
PR970_004_00_BL1
  6
Continuous
 62
     9
100
AcDbLine
 10
325.6489768106
 20
186.594784504
 30
0.0
 11
325.6489768106
 21
196.094784504
 31
0.0
  0
LINE
  5
2BA
330
211
100
AcDbEntity
  8
PR970_004_00_BL1
  6
Continuous
 62
     9
100
AcDbLine
 10
307.7876691914
 20
186.594784504
 30
0.0
 11
307.7876691914
 21
196.094784504
 31
0.0
  0
LINE
  5
2BB
330
211
100
AcDbEntity
  8
PR970_004_00_BL1
  6
Continuous
 62
     9
100
AcDbLine
 10
307.7876691914
 20
175.594784504
 30
0.0
 11
307.7876691914
 21
166.094784504
 31
0.0
  0
LINE
  5
2BC
330
211
100
AcDbEntity
  8
PR970_004_00_BL1
  6
Continuous
 62
     9
100
AcDbLine
 10
334.5792428779
 20
175.694784504
 30
0.0
 11
334.5792428779
 21
186.494784504
 31
0.0
  0
LINE
  5
2BD
330
211
100
AcDbEntity
  8
PR970_004_00_BL1
  6
Continuous
 62
     9
100
AcDbLine
 10
325.6489768106
 20
175.594784504
 30
0.0
 11
325.6489768106
 21
166.094784504
 31
0.0
  0
LINE
  5
2BE
330
211
100
AcDbEntity
  8
PR970_004_00_BL1
  6
Continuous
 62
     9
100
AcDbLine
 10
334.5792428779
 20
166.094784504
 30
0.0
 11
334.5792428779
 21
175.594784504
 31
0.0
  0
LINE
  5
2BF
330
211
100
AcDbEntity
  8
PR970_004_00_BL1
  6
Continuous
 62
     7
100
AcDbLine
 10
302.1945976950001
 20
186.494784504
 30
0.0
 11
302.1945976950001
 21
186.094784504
 31
0.0
  0
LINE
  5
2C0
330
211
100
AcDbEntity
  8
PR970_004_00_BL1
  6
Continuous
 62
     7
100
AcDbLine
 10
302.1945976950001
 20
176.094784504
 30
0.0
 11
302.1945976950001
 21
175.694784504
 31
0.0
  0
LINE
  5
2C1
330
211
100
AcDbEntity
  8
PR970_004_00_BL1
  6
Continuous
 62
     9
100
AcDbLine
 10
332.5065768945
 20
186.594784504
 30
0.0
 11
332.5065768945
 21
186.494784504
 31
0.0
  0
LINE
  5
2C2
330
211
100
AcDbEntity
  8
PR970_004_00_BL1
  6
Continuous
 62
     9
100
AcDbLine
 10
332.5065768945
 20
175.694784504
 30
0.0
 11
332.5065768945
 21
175.594784504
 31
0.0
  0
LINE
  5
2C3
330
211
100
AcDbEntity
  8
PR970_004_00_BL1
  6
Continuous
 62
     7
100
AcDbLine
 10
329.5339844763
 20
186.594784504
 30
0.0
 11
329.5339844763
 21
186.094784504
 31
0.0
  0
LINE
  5
2C4
330
211
100
AcDbEntity
  8
PR970_004_00_BL1
  6
Continuous
 62
     7
100
AcDbLine
 10
329.5339844763
 20
176.094784504
 30
0.0
 11
329.5339844763
 21
175.594784504
 31
0.0
  0
LINE
  5
2C5
330
211
100
AcDbEntity
  8
PR970_004_00_BL1
  6
Continuous
 62
     9
100
AcDbLine
 10
334.5792428779
 20
186.594784504
 30
0.0
 11
334.5792428779
 21
196.094784504
 31
0.0
  0
LINE
  5
2C6
330
211
100
AcDbEntity
  8
PR970_004_00_BL1
  6
Continuous
 62
     9
100
AcDbLine
 10
306.4267493145
 20
175.594784504
 30
0.0
 11
306.4267493145
 21
166.094784504
 31
0.0
  0
LINE
  5
2C7
330
211
100
AcDbEntity
  8
PR970_004_00_BL1
  6
Continuous
 62
     9
100
AcDbLine
 10
327.0098966875
 20
186.594784504
 30
0.0
 11
327.0098966875
 21
196.094784504
 31
0.0
  0
LINE
  5
2C8
330
211
100
AcDbEntity
  8
PR970_004_00_BL1
  6
Continuous
 62
     9
100
AcDbLine
 10
327.0098966875
 20
175.594784504
 30
0.0
 11
327.0098966875
 21
166.094784504
 31
0.0
  0
LINE
  5
2C9
330
211
100
AcDbEntity
  8
PR970_004_00_BL1
  6
Continuous
 62
     7
100
AcDbLine
 10
303.9026615257
 20
186.594784504
 30
0.0
 11
303.9026615257
 21
186.094784504
 31
0.0
  0
LINE
  5
2CA
330
211
100
AcDbEntity
  8
PR970_004_00_BL1
  6
Continuous
 62
     7
100
AcDbLine
 10
303.9026615257
 20
176.094784504
 30
0.0
 11
303.9026615257
 21
175.594784504
 31
0.0
  0
LINE
  5
2CB
330
211
100
AcDbEntity
  8
PR970_004_00_BL1
  6
Continuous
 62
     7
100
AcDbLine
 10
331.242048307
 20
175.694784504
 30
0.0
 11
331.242048307
 21
176.094784504
 31
0.0
  0
LINE
  5
2CC
330
211
100
AcDbEntity
  8
PR970_004_00_BL1
  6
Continuous
 62
     7
100
AcDbLine
 10
331.242048307
 20
186.094784504
 30
0.0
 11
331.242048307
 21
186.494784504
 31
0.0
  0
LINE
  5
2CD
330
211
100
AcDbEntity
  8
PR970_004_00_BL1
  6
Continuous
 62
     9
100
AcDbLine
 10
300.9300691075
 20
186.594784504
 30
0.0
 11
300.9300691075
 21
186.494784504
 31
0.0
  0
LINE
  5
2CE
330
211
100
AcDbEntity
  8
PR970_004_00_BL1
  6
Continuous
 62
     9
100
AcDbLine
 10
300.9300691075
 20
175.694784504
 30
0.0
 11
300.9300691075
 21
175.594784504
 31
0.0
  0
LINE
  5
2CF
330
211
100
AcDbEntity
  8
PR970_004_00_BL1
  6
Continuous
 62
     9
100
AcDbLine
 10
298.8574031241
 20
175.694784504
 30
0.0
 11
298.8574031241
 21
186.494784504
 31
0.0
  0
LINE
  5
2D0
330
211
100
AcDbEntity
  8
PR970_004_00_BL1
  6
Continuous
 62
     9
100
AcDbLine
 10
306.4267493145
 20
186.594784504
 30
0.0
 11
306.4267493145
 21
196.094784504
 31
0.0
  0
LINE
  5
2D1
330
211
100
AcDbEntity
  8
PR970_004_00_BL1
  6
Continuous
 62
     9
100
AcDbLine
 10
298.8574031241
 20
186.594784504
 30
0.0
 11
298.8574031241
 21
196.094784504
 31
0.0
  0
LINE
  5
2D2
330
211
100
AcDbEntity
  8
PR970_004_00_BL1
  6
Continuous
 62
     7
100
AcDbLine
 10
386.7308568877
 20
252.1378875795
 30
0.0
 11
386.7308568877
 21
251.2686784233
 31
0.0
  0
LINE
  5
2D3
330
211
100
AcDbEntity
  8
PR970_004_00_BL1
  6
Continuous
 62
     7
100
AcDbLine
 10
356.7308568877
 20
251.2686784233
 30
0.0
 11
356.7308568877
 21
252.1378875795
 31
0.0
  0
LINE
  5
2D4
330
211
100
AcDbEntity
  8
PR970_004_00_BL1
  6
Continuous
 62
     7
100
AcDbLine
 10
356.7308568877
 20
251.2686784233
 30
0.0
 11
356.7308568877
 21
234.9379504385
 31
0.0
  0
LINE
  5
2D5
330
211
100
AcDbEntity
  8
PR970_004_00_BL1
  6
Continuous
 62
     7
100
AcDbLine
 10
356.7308568877
 20
234.3071595946
 30
0.0
 11
356.7308568877
 21
212.8878875795
 31
0.0
  0
LINE
  5
2D6
330
211
100
AcDbEntity
  8
PR970_004_00_BL1
  6
Continuous
 62
     7
100
AcDbLine
 10
356.7308568877
 20
212.8878875795
 30
0.0
 11
356.7308568877
 21
212.2968795143
 31
0.0
  0
LINE
  5
2D7
330
211
100
AcDbEntity
  8
PR970_004_00_BL1
  6
Continuous
 62
     7
100
AcDbLine
 10
356.7308568877
 20
212.2968795143
 30
0.0
 11
356.7308568877
 21
212.137902536
 31
0.0
  0
LINE
  5
2D8
330
211
100
AcDbEntity
  8
PR970_004_00_BL1
  6
Continuous
 62
     7
100
AcDbLine
 10
356.7308568877
 20
212.137902536
 30
0.0
 11
356.7308568877
 21
211.1381053309
 31
0.0
  0
LINE
  5
2D9
330
211
100
AcDbEntity
  8
PR970_004_00_BL1
  6
Continuous
 62
     7
100
AcDbLine
 10
377.2308568877
 20
252.1378875795
 30
0.0
 11
386.7308568877
 21
252.1378875795
 31
0.0
  0
LINE
  5
2DA
330
211
100
AcDbEntity
  8
PR970_004_00_BL1
  6
Continuous
 62
     7
100
AcDbLine
 10
356.7308568877
 20
211.1378875795
 30
0.0
 11
386.7308568877
 21
211.1378875795
 31
0.0
  0
LINE
  5
2DB
330
211
100
AcDbEntity
  8
PR970_004_00_BL1
  6
Continuous
 62
     7
100
AcDbLine
 10
366.2308568877
 20
234.9379504385
 30
0.0
 11
366.2308568877
 21
234.3071595946
 31
0.0
  0
LINE
  5
2DC
330
211
100
AcDbEntity
  8
PR970_004_00_BL1
  6
Continuous
 62
     7
100
AcDbLine
 10
356.7308568877
 20
234.3071595946
 30
0.0
 11
356.7308568877
 21
234.9379504385
 31
0.0
  0
LINE
  5
2DD
330
211
100
AcDbEntity
  8
PR970_004_00_BL1
  6
Continuous
 62
     7
100
AcDbLine
 10
377.1308568877
 20
234.9379504385
 30
0.0
 11
377.1308568877
 21
234.3071595946
 31
0.0
  0
LINE
  5
2DE
330
211
100
AcDbEntity
  8
PR970_004_00_BL1
  6
Continuous
 62
     7
100
AcDbLine
 10
366.3308568876999
 20
234.3071595946
 30
0.0
 11
366.3308568876999
 21
234.9379504385
 31
0.0
  0
LINE
  5
2DF
330
211
100
AcDbEntity
  8
PR970_004_00_BL1
  6
Continuous
 62
     7
100
AcDbLine
 10
386.7308568877
 20
234.9379504385
 30
0.0
 11
386.7308568877
 21
234.3071595946
 31
0.0
  0
LINE
  5
2E0
330
211
100
AcDbEntity
  8
PR970_004_00_BL1
  6
Continuous
 62
     7
100
AcDbLine
 10
377.2308568877
 20
234.3071595946
 30
0.0
 11
377.2308568877
 21
234.9379504385
 31
0.0
  0
LINE
  5
2E1
330
211
100
AcDbEntity
  8
PR970_004_00_BL1
  6
Continuous
 62
     7
100
AcDbLine
 10
386.7308568877
 20
212.8878875795
 30
0.0
 11
386.7308568877
 21
212.2968795143
 31
0.0
  0
LINE
  5
2E2
330
211
100
AcDbEntity
  8
PR970_004_00_BL1
  6
Continuous
 62
     7
100
AcDbLine
 10
386.7308568877
 20
212.2968795143
 30
0.0
 11
386.7308568877
 21
212.137902536
 31
0.0
  0
LINE
  5
2E3
330
211
100
AcDbEntity
  8
PR970_004_00_BL1
  6
Continuous
 62
     7
100
AcDbLine
 10
386.7308568877
 20
212.137902536
 30
0.0
 11
386.7308568877
 21
211.1381053309
 31
0.0
  0
LINE
  5
2E4
330
211
100
AcDbEntity
  8
PR970_004_00_BL1
  6
Continuous
 62
     7
100
AcDbLine
 10
386.7308568877
 20
234.3071595946
 30
0.0
 11
386.7308568877
 21
212.8878875795
 31
0.0
  0
LINE
  5
2E5
330
211
100
AcDbEntity
  8
PR970_004_00_BL1
  6
Continuous
 62
     7
100
AcDbLine
 10
386.7308568877
 20
251.2686784233
 30
0.0
 11
386.7308568877
 21
234.9379504385
 31
0.0
  0
LINE
  5
2E6
330
211
100
AcDbEntity
  8
PR970_004_00_BL1
  6
Continuous
 62
     7
100
AcDbLine
 10
366.3308568876999
 20
234.9379504385
 30
0.0
 11
366.3308568876999
 21
242.1378875795
 31
0.0
  0
LINE
  5
2E7
330
211
100
AcDbEntity
  8
PR970_004_00_BL1
  6
Continuous
 62
     7
100
AcDbLine
 10
366.3308568876999
 20
242.1378875795
 30
0.0
 11
377.1308568877
 21
242.1378875795
 31
0.0
  0
LINE
  5
2E8
330
211
100
AcDbEntity
  8
PR970_004_00_BL1
  6
Continuous
 62
     7
100
AcDbLine
 10
377.1308568877
 20
234.9379504385
 30
0.0
 11
377.1308568877
 21
242.1378875795
 31
0.0
  0
LINE
  5
2E9
330
211
100
AcDbEntity
  8
PR970_004_00_BL1
  6
Continuous
 62
     7
100
AcDbLine
 10
377.2308568877
 20
252.1378875795
 30
0.0
 11
377.2308568877
 21
251.2686784233
 31
0.0
  0
LINE
  5
2EA
330
211
100
AcDbEntity
  8
PR970_004_00_BL1
  6
Continuous
 62
     7
100
AcDbLine
 10
377.2308568877
 20
251.2686784233
 30
0.0
 11
377.2308568877
 21
251.1378875795
 31
0.0
  0
ARC
  5
2EB
330
211
100
AcDbEntity
  8
PR970_004_00_BL1
  6
Continuous
 62
     7
100
AcDbCircle
 10
371.7308568877
 20
223.1378875795
 30
0.0
 40
2.25
100
AcDbArc
 50
0.0
 51
180.0
  0
ARC
  5
2EC
330
211
100
AcDbEntity
  8
PR970_004_00_BL1
  6
Continuous
 62
     7
100
AcDbCircle
 10
371.7308568877
 20
223.1378875795
 30
0.0
 40
2.25
100
AcDbArc
 50
180.0
 51
360.0
  0
LINE
  5
2ED
330
211
100
AcDbEntity
  8
PR970_004_00_BL1
  6
Continuous
 62
     7
100
AcDbLine
 10
366.2308568877
 20
234.3071595946
 30
0.0
 11
366.2308568877
 21
234.1378875795
 31
0.0
  0
LINE
  5
2EE
330
211
100
AcDbEntity
  8
PR970_004_00_BL1
  6
Continuous
 62
     7
100
AcDbLine
 10
366.2308568877
 20
234.1378875795
 30
0.0
 11
366.3308568876999
 21
234.1378875795
 31
0.0
  0
LINE
  5
2EF
330
211
100
AcDbEntity
  8
PR970_004_00_BL1
  6
Continuous
 62
     7
100
AcDbLine
 10
366.3308568876999
 20
234.3071595946
 30
0.0
 11
366.3308568876999
 21
234.1378875795
 31
0.0
  0
LINE
  5
2F0
330
211
100
AcDbEntity
  8
PR970_004_00_BL1
  6
Continuous
 62
     7
100
AcDbLine
 10
377.1308568877
 20
234.3071595946
 30
0.0
 11
377.1308568877
 21
234.1378875795
 31
0.0
  0
LINE
  5
2F1
330
211
100
AcDbEntity
  8
PR970_004_00_BL1
  6
Continuous
 62
     7
100
AcDbLine
 10
377.1308568877
 20
234.1378875795
 30
0.0
 11
377.2308568877
 21
234.1378875795
 31
0.0
  0
LINE
  5
2F2
330
211
100
AcDbEntity
  8
PR970_004_00_BL1
  6
Continuous
 62
     7
100
AcDbLine
 10
377.2308568877
 20
234.3071595946
 30
0.0
 11
377.2308568877
 21
234.1378875795
 31
0.0
  0
LINE
  5
2F3
330
211
100
AcDbEntity
  8
PR970_004_00_BL1
  6
Continuous
 62
     7
100
AcDbLine
 10
366.2308568877
 20
252.1378875795
 30
0.0
 11
377.2308568877
 21
252.1378875795
 31
0.0
  0
LINE
  5
2F4
330
211
100
AcDbEntity
  8
PR970_004_00_BL1
  6
Continuous
 62
     7
100
AcDbLine
 10
366.2308568877
 20
251.1378875795
 30
0.0
 11
366.2308568877
 21
251.2686784233
 31
0.0
  0
LINE
  5
2F5
330
211
100
AcDbEntity
  8
PR970_004_00_BL1
  6
Continuous
 62
     7
100
AcDbLine
 10
366.2308568877
 20
251.2686784233
 30
0.0
 11
366.2308568877
 21
252.1378875795
 31
0.0
  0
LINE
  5
2F6
330
211
100
AcDbEntity
  8
PR970_004_00_BL1
  6
Continuous
 62
     7
100
AcDbLine
 10
377.2308568877
 20
251.1378875795
 30
0.0
 11
376.7308568877
 21
251.1378875795
 31
0.0
  0
LINE
  5
2F7
330
211
100
AcDbEntity
  8
PR970_004_00_BL1
  6
Continuous
 62
     7
100
AcDbLine
 10
366.7308568877
 20
251.1378875795
 30
0.0
 11
366.2308568877
 21
251.1378875795
 31
0.0
  0
LINE
  5
2F8
330
211
100
AcDbEntity
  8
PR970_004_00_BL1
  6
Continuous
 62
     7
100
AcDbLine
 10
377.2308568877
 20
251.1378875795
 30
0.0
 11
377.2308568877
 21
234.9379504385
 31
0.0
  0
LINE
  5
2F9
330
211
100
AcDbEntity
  8
PR970_004_00_BL1
  6
Continuous
 62
     7
100
AcDbLine
 10
366.2308568877
 20
234.9379504385
 30
0.0
 11
366.2308568877
 21
251.1378875795
 31
0.0
  0
LINE
  5
2FA
330
211
100
AcDbEntity
  8
PR970_004_00_BL1
  6
Continuous
 62
     7
100
AcDbLine
 10
366.2308568877
 20
252.1378875795
 30
0.0
 11
356.7308568877
 21
252.1378875795
 31
0.0
  0
LINE
  5
2FB
330
211
100
AcDbEntity
  8
PR970_004_00_BL1
  6
Continuous
 62
     7
100
AcDbLine
 10
377.2308568877
 20
252.1378875795
 30
0.0
 11
386.7308568877
 21
252.1378875795
 31
0.0
  0
LINE
  5
2FC
330
211
100
AcDbEntity
  8
PR970_004_00_BL1
  6
Continuous
 62
     9
100
AcDbLine
 10
366.2308568877
 20
251.2686784233
 30
0.0
 11
356.7308568877
 21
251.2686784233
 31
0.0
  0
LINE
  5
2FD
330
211
100
AcDbEntity
  8
PR970_004_00_BL1
  6
Continuous
 62
     9
100
AcDbLine
 10
366.2308568877
 20
234.9379504385
 30
0.0
 11
356.7308568877
 21
234.9379504385
 31
0.0
  0
LINE
  5
2FE
330
211
100
AcDbEntity
  8
PR970_004_00_BL1
  6
Continuous
 62
     9
100
AcDbLine
 10
356.7308568877
 20
212.8878875795
 30
0.0
 11
386.7308568877
 21
212.8878875795
 31
0.0
  0
LINE
  5
2FF
330
211
100
AcDbEntity
  8
PR970_004_00_BL1
  6
Continuous
 62
     9
100
AcDbLine
 10
377.1308568877
 20
234.9379504385
 30
0.0
 11
366.3308568876999
 21
234.9379504385
 31
0.0
  0
LINE
  5
300
330
211
100
AcDbEntity
  8
PR970_004_00_BL1
  6
Continuous
 62
     9
100
AcDbLine
 10
366.2308568877
 20
234.3071595946
 30
0.0
 11
356.7308568877
 21
234.3071595946
 31
0.0
  0
LINE
  5
301
330
211
100
AcDbEntity
  8
PR970_004_00_BL1
  6
Continuous
 62
     9
100
AcDbLine
 10
377.1308568877
 20
234.3071595946
 30
0.0
 11
366.3308568876999
 21
234.3071595946
 31
0.0
  0
LINE
  5
302
330
211
100
AcDbEntity
  8
PR970_004_00_BL1
  6
Continuous
 62
     9
100
AcDbLine
 10
386.7308568877
 20
234.3071595946
 30
0.0
 11
377.2308568877
 21
234.3071595946
 31
0.0
  0
LINE
  5
303
330
211
100
AcDbEntity
  8
PR970_004_00_BL1
  6
Continuous
 62
     9
100
AcDbLine
 10
377.2308568877
 20
251.2686784233
 30
0.0
 11
386.7308568877
 21
251.2686784233
 31
0.0
  0
LINE
  5
304
330
211
100
AcDbEntity
  8
PR970_004_00_BL1
  6
Continuous
 62
     9
100
AcDbLine
 10
386.7308568877
 20
234.9379504385
 30
0.0
 11
377.2308568877
 21
234.9379504385
 31
0.0
  0
SPLINE
  5
305
330
211
100
AcDbEntity
  8
PR970_004_00_BL1
  6
Continuous
 62
     7
100
AcDbSpline
210
0.0
220
0.0
230
1.0
 70
     8
 71
     3
 72
    10
 73
     6
 74
     0
 42
0.0000000001
 43
0.0000000001
 40
0.0
 40
0.0
 40
0.0
 40
0.0
 40
0.2290482388
 40
0.4806843662000001
 40
1.0
 40
1.0
 40
1.0
 40
1.0
 10
446.7822866066
 20
247.4736503465
 30
0.0
 10
446.8892225962
 20
247.4119122208
 30
0.0
 10
447.0973636362
 20
247.2532769103
 30
0.0
 10
447.4581246722
 20
246.8507112191
 30
0.0
 10
447.6578622498
 20
246.4745379173
 30
0.0
 10
447.7446062867
 20
246.2083560121
 30
0.0
  0
LINE
  5
306
330
211
100
AcDbEntity
  8
PR970_004_00_BL1
  6
Continuous
 62
     7
100
AcDbLine
 10
446.7822866066
 20
247.4736503465
 30
0.0
 11
434.1523822851999
 21
254.7653640457
 31
0.0
  0
SPLINE
  5
307
330
211
100
AcDbEntity
  8
PR970_004_00_BL1
  6
Continuous
 62
     7
100
AcDbSpline
210
0.0
220
0.0
230
1.0
 70
     8
 71
     3
 72
    11
 73
     7
 74
     0
 42
0.0000000001
 43
0.0000000001
 40
0.0
 40
0.0
 40
0.0
 40
0.0
 40
0.21776061
 40
0.4509268057
 40
0.7102288263
 40
1.0
 40
1.0
 40
1.0
 40
1.0
 10
433.4024183598999
 20
254.8396707659
 30
0.0
 10
433.4518922348999
 20
254.868228893
 30
0.0
 10
433.5655807095999
 20
254.9094738743
 30
0.0
 10
433.7543822586
 20
254.9142491649
 30
0.0
 10
433.9556355321
 20
254.8656791366
 30
0.0
 10
434.0865509219999
 20
254.8033709411
 30
0.0
 10
434.1523822851999
 20
254.7653640457
 30
0.0
  0
LINE
  5
308
330
211
100
AcDbEntity
  8
PR970_004_00_BL1
  6
Continuous
 62
     7
100
AcDbLine
 10
426.9955595426
 20
251.1406897704
 30
0.0
 11
433.4023856427999
 21
254.8396504642
 31
0.0
  0
SPLINE
  5
309
330
211
100
AcDbEntity
  8
PR970_004_00_BL1
  6
Continuous
 62
     7
100
AcDbSpline
210
0.0
220
0.0
230
1.0
 70
     8
 71
     3
 72
     9
 73
     5
 74
     0
 42
0.0000000001
 43
0.0000000001
 40
0.0
 40
0.0
 40
0.0
 40
0.0
 40
0.4861392925
 40
1.0
 40
1.0
 40
1.0
 40
1.0
 10
412.1893032434
 20
242.5923461498
 30
0.0
 10
412.1450812334999
 20
242.566819591
 30
0.0
 10
412.0619492323999
 20
242.4996575927
 30
0.0
 10
412.0019414444
 20
242.4117473374
 30
0.0
 10
411.9769474885999
 20
242.3639110099
 30
0.0
  0
LINE
  5
30A
330
211
100
AcDbEntity
  8
PR970_004_00_BL1
  6
Continuous
 62
     7
100
AcDbLine
 10
418.9067569798999
 20
246.4706453098
 30
0.0
 11
418.5809326879
 21
246.28253169
 31
0.0
  0
LINE
  5
30B
330
211
100
AcDbEntity
  8
PR970_004_00_BL1
  6
Continuous
 62
     7
100
AcDbLine
 10
418.5809326879
 20
246.28253169
 30
0.0
 11
412.1892705263999
 21
242.5923258481
 31
0.0
  0
SPLINE
  5
30C
330
211
100
AcDbEntity
  8
PR970_004_00_BL1
  6
Continuous
 62
     7
100
AcDbSpline
210
0.0
220
0.0
230
1.0
 70
     8
 71
     3
 72
     9
 73
     5
 74
     0
 42
0.0000000001
 43
0.0000000001
 40
0.0
 40
0.0
 40
0.0
 40
0.0
 40
0.5229904826000001
 40
1.0
 40
1.0
 40
1.0
 40
1.0
 10
428.7059880823
 20
225.3355418243
 30
0.0
 10
428.6265846655999
 20
225.4358137
 30
0.0
 10
428.5034930673999
 20
225.6510512571
 30
0.0
 10
428.4464691183999
 20
225.8952216736
 30
0.0
 10
428.4464691183999
 20
226.0118801506
 30
0.0
  0
LINE
  5
30D
330
211
100
AcDbEntity
  8
PR970_004_00_BL1
  6
Continuous
 62
     7
100
AcDbLine
 10
428.4464691183999
 20
226.0118801506
 30
0.0
 11
428.4464691183999
 21
226.1431326988
 31
0.0
  0
SPLINE
  5
30E
330
211
100
AcDbEntity
  8
PR970_004_00_BL1
  6
Continuous
 62
     7
100
AcDbSpline
210
0.0
220
0.0
230
1.0
 70
     8
 71
     3
 72
     9
 73
     5
 74
     0
 42
0.0000000001
 43
0.0000000001
 40
0.0
 40
0.0
 40
0.0
 40
0.0
 40
0.4491643212
 40
1.0
 40
1.0
 40
1.0
 40
1.0
 10
412.6891838149999
 20
241.7262506091
 30
0.0
 10
412.7229115085
 20
241.7457407156
 30
0.0
 10
412.8152233162
 20
241.7597616704
 30
0.0
 10
412.8978955014
 20
241.7254224153
 30
0.0
 10
412.9392671687
 20
241.7015370124
 30
0.0
  0
SPLINE
  5
30F
330
211
100
AcDbEntity
  8
PR970_004_00_BL1
  6
Continuous
 62
     7
100
AcDbSpline
210
0.0
220
0.0
230
1.0
 70
     8
 71
     3
 72
     9
 73
     5
 74
     0
 42
0.0000000001
 43
0.0000000001
 40
0.0
 40
0.0
 40
0.0
 40
0.0
 40
0.2471361264
 40
1.0
 40
1.0
 40
1.0
 40
1.0
 10
435.3045922941999
 20
244.6320583523
 30
0.0
 10
435.2983970503999
 20
244.6568879891
 30
0.0
 10
435.2713464644999
 20
244.7568555851
 30
0.0
 10
435.2364586030999
 20
244.8546766897
 30
0.0
 10
435.2063100583999
 20
244.9265699207
 30
0.0
  0
SPLINE
  5
310
330
211
100
AcDbEntity
  8
PR970_004_00_BL1
  6
Continuous
 62
     7
100
AcDbSpline
210
0.0
220
0.0
230
1.0
 70
     8
 71
     3
 72
    16
 73
    12
 74
     0
 42
0.0000000001
 43
0.0000000001
 40
0.0
 40
0.0
 40
0.0
 40
0.0
 40
0.0923806896
 40
0.1441865062
 40
0.1999733312
 40
0.3227043055999999
 40
0.4575465329
 40
0.5990639996000001
 40
0.7408087447
 40
0.8762948415999998
 40
1.0
 40
1.0
 40
1.0
 40
1.0
 10
435.2063100583999
 20
244.9265699207
 30
0.0
 10
435.0849111821999
 20
245.2160617525
 30
0.0
 10
434.7938435670999
 20
245.6274276962
 30
0.0
 10
434.2862984427999
 20
246.0801687447
 30
0.0
 10
433.6364270458999
 20
246.5205737091
 30
0.0
 10
432.655683011
 20
246.9560673501
 30
0.0
 10
431.3319378603999
 20
247.2765428313
 30
0.0
 10
429.9101998673999
 20
247.3908031924
 30
0.0
 10
428.4851293432
 20
247.2910968651
 30
0.0
 10
427.1519904219999
 20
246.9845133464
 30
0.0
 10
426.3357151861
 20
246.6348449897
 30
0.0
 10
425.9716733993
 20
246.4246666208
 30
0.0
  0
LINE
  5
311
330
211
100
AcDbEntity
  8
PR970_004_00_BL1
  6
Continuous
 62
     7
100
AcDbLine
 10
453.1953094984999
 20
211.7234537424
 30
0.0
 11
453.1953094984999
 21
229.2123411159
 31
0.0
  0
LINE
  5
312
330
211
100
AcDbEntity
  8
PR970_004_00_BL1
  6
Continuous
 62
     7
100
AcDbLine
 10
453.0969645908999
 20
229.784161539
 30
0.0
 11
447.7446062867
 21
246.2083560121
 31
0.0
  0
SPLINE
  5
313
330
211
100
AcDbEntity
  8
PR970_004_00_BL1
  6
Continuous
 62
     7
100
AcDbSpline
210
0.0
220
0.0
230
1.0
 70
     8
 71
     3
 72
    13
 73
     9
 74
     0
 42
0.0000000001
 43
0.0000000001
 40
0.0
 40
0.0
 40
0.0
 40
0.0
 40
0.307440398
 40
0.5811695322000001
 40
0.701034643
 40
0.8090873937999999
 40
0.9073655718000001
 40
1.0
 40
1.0
 40
1.0
 40
1.0
 10
429.982906984
 20
199.504419932
 30
0.0
 10
430.0969966096999
 20
199.3356253765
 30
0.0
 10
430.3453235746999
 20
199.0372483916999
 30
0.0
 10
430.722484454
 20
198.754547109
 30
0.0
 10
431.0313816962999
 20
198.6270059795
 30
0.0
 10
431.2455486041
 20
198.5861364831
 30
0.0
 10
431.4456694422999
 20
198.5985299728
 30
0.0
 10
431.566268475
 20
198.6441588785
 30
0.0
 10
431.6194375728
 20
198.6748416418
 30
0.0
  0
LINE
  5
314
330
211
100
AcDbEntity
  8
PR970_004_00_BL1
  6
Continuous
 62
     7
100
AcDbLine
 10
427.9494036182
 20
202.6758774968
 30
0.0
 11
429.982906984
 21
199.504419932
 31
0.0
  0
LINE
  5
315
330
211
100
AcDbEntity
  8
PR970_004_00_BL1
  6
Continuous
 62
     7
100
AcDbLine
 10
427.9494036182
 20
202.6758774968
 30
0.0
 11
428.3847438348
 21
203.0679520766
 31
0.0
  0
SPLINE
  5
316
330
211
100
AcDbEntity
  8
PR970_004_00_BL1
  6
Continuous
 62
     7
100
AcDbSpline
210
0.0
220
0.0
230
1.0
 70
     8
 71
     3
 72
    10
 73
     6
 74
     0
 42
0.0000000001
 43
0.0000000001
 40
0.0
 40
0.0
 40
0.0
 40
0.0
 40
0.5477463075
 40
0.7816046608000001
 40
1.0
 40
1.0
 40
1.0
 40
1.0
 10
431.2750846569
 20
199.8843698808
 30
0.0
 10
431.2750846569
 20
199.8127464374
 30
0.0
 10
431.2598459059
 20
199.7072681866
 30
0.0
 10
431.1908307603999
 20
199.5942436307
 30
0.0
 10
431.1445055944
 20
199.5553604547
 30
0.0
 10
431.1197756624999
 20
199.5410790958
 30
0.0
  0
LINE
  5
317
330
211
100
AcDbEntity
  8
PR970_004_00_BL1
  6
Continuous
 62
     7
100
AcDbLine
 10
431.2750846569
 20
217.3732572543
 30
0.0
 11
431.2750846569
 21
199.8843698808
 31
0.0
  0
LINE
  5
318
330
211
100
AcDbEntity
  8
PR970_004_00_BL1
  6
Continuous
 62
     7
100
AcDbLine
 10
425.8899447169
 20
233.9880585351
 30
0.0
 11
431.2423030210999
 21
217.563864062
 31
0.0
  0
LINE
  5
319
330
211
100
AcDbEntity
  8
PR970_004_00_BL1
  6
Continuous
 62
     7
100
AcDbLine
 10
412.9392671687
 20
241.7015370124
 30
0.0
 11
425.5691714901999
 21
234.4098233132
 31
0.0
  0
LINE
  5
31A
330
211
100
AcDbEntity
  8
PR970_004_00_BL1
  6
Continuous
 62
     7
100
AcDbLine
 10
408.5255316748999
 20
211.8925610856
 30
0.0
 11
410.5590350406999
 21
212.7159843387
 31
0.0
  0
SPLINE
  5
31B
330
211
100
AcDbEntity
  8
PR970_004_00_BL1
  6
Continuous
 62
     7
100
AcDbSpline
210
0.0
220
0.0
230
1.0
 70
     8
 71
     3
 72
    15
 73
    11
 74
     0
 42
0.0000000001
 43
0.0000000001
 40
0.0
 40
0.0
 40
0.0
 40
0.0
 40
0.1262083734
 40
0.2647753653
 40
0.4093169089
 40
0.5524561983
 40
0.6870414932
 40
0.8074045464000001
 40
0.9109080784999999
 40
1.0
 40
1.0
 40
1.0
 40
1.0
 10
406.5262442768
 20
214.172796289
 30
0.0
 10
406.5262442768
 20
214.0313813273
 30
0.0
 10
406.5636847219999
 20
213.7343638071
 30
0.0
 10
406.7048682971
 20
213.2958942673
 30
0.0
 10
406.9239691833
 20
212.8691638846
 30
0.0
 10
407.204901366
 20
212.4859111042
 30
0.0
 10
407.5271351816999
 20
212.1739287129
 30
0.0
 10
407.8685425009999
 20
211.9559688052
 30
0.0
 10
408.2074061639
 20
211.8475394032
 30
0.0
 10
408.4305882219
 20
211.8617218933
 30
0.0
 10
408.5255316748999
 20
211.8925610856
 30
0.0
  0
LINE
  5
31C
330
211
100
AcDbEntity
  8
PR970_004_00_BL1
  6
Continuous
 62
     7
100
AcDbLine
 10
406.5262442768
 20
231.6616836625
 30
0.0
 11
406.5262442768
 21
214.172796289
 31
0.0
  0
LINE
  5
31D
330
211
100
AcDbEntity
  8
PR970_004_00_BL1
  6
Continuous
 62
     7
100
AcDbLine
 10
411.9769474885999
 20
242.3639110099
 30
0.0
 11
406.6245891843999
 21
232.1199477368
 31
0.0
  0
SPLINE
  5
31E
330
211
100
AcDbEntity
  8
PR970_004_00_BL1
  6
Continuous
 62
     7
100
AcDbSpline
210
0.0
220
0.0
230
1.0
 70
     8
 71
     3
 72
    17
 73
    13
 74
     0
 42
0.0000000001
 43
0.0000000001
 40
0.0
 40
0.0
 40
0.0
 40
0.0
 40
0.0428613486
 40
0.0872084466
 40
0.1342883704
 40
0.1849709987
 40
0.2984196871
 40
0.4277203192
 40
0.5689332981000001
 40
0.7159967464000001
 40
0.8619524502
 40
1.0
 40
1.0
 40
1.0
 40
1.0
 10
424.3607871591
 20
244.9961586897
 30
0.0
 10
424.3607754116999
 20
244.8533428255
 30
0.0
 10
424.3952747435
 20
244.5616980911
 30
0.0
 10
424.5480775376999
 20
244.1375813008
 30
0.0
 10
424.7973604633
 20
243.7315278222
 30
0.0
 10
425.2680318908999
 20
243.2042264425
 30
0.0
 10
426.0806857533999
 20
242.6378855208
 30
0.0
 10
427.2721130737999
 20
242.1520790607
 30
0.0
 10
428.6395377376999
 20
241.8614984832
 30
0.0
 10
430.0901944087
 20
241.7859539297
 30
0.0
 10
431.5246078769
 20
241.9301594108
 30
0.0
 10
432.4443062388
 20
242.176899059
 30
0.0
 10
432.8745445724999
 20
242.3396164302
 30
0.0
  0
SPLINE
  5
31F
330
211
100
AcDbEntity
  8
PR970_004_00_BL1
  6
Continuous
 62
     7
100
AcDbSpline
210
0.0
220
0.0
230
1.0
 70
     8
 71
     3
 72
     9
 73
     5
 74
     0
 42
0.0000000001
 43
0.0000000001
 40
0.0
 40
0.0
 40
0.0
 40
0.0
 40
0.2586052969
 40
1.0
 40
1.0
 40
1.0
 40
1.0
 10
432.8745445724999
 20
242.3396164302
 30
0.0
 10
432.9525570417
 20
242.3691209696
 30
0.0
 10
433.2520639412
 20
242.4887611662
 30
0.0
 10
433.5428006467999
 20
242.6309639144
 30
0.0
 10
433.7498803759999
 20
242.7505207382
 30
0.0
  0
SPLINE
  5
320
330
211
100
AcDbEntity
  8
PR970_004_00_BL1
  6
Continuous
 62
     7
100
AcDbSpline
210
0.0
220
0.0
230
1.0
 70
     8
 71
     3
 72
    14
 73
    10
 74
     0
 42
0.0000000001
 43
0.0000000001
 40
0.0
 40
0.0
 40
0.0
 40
0.0
 40
0.2034343595
 40
0.3278376167
 40
0.4629866542000001
 40
0.6036530245
 40
0.7438488705
 40
0.8776355742999999
 40
1.0
 40
1.0
 40
1.0
 40
1.0
 10
441.1601251041
 20
212.3232848538
 30
0.0
 10
441.4350829987999
 20
212.320460949
 30
0.0
 10
441.8746238803
 20
212.4980080367
 30
0.0
 10
442.3639424663999
 20
212.8849496614
 30
0.0
 10
442.7292552328999
 20
213.2886824678
 30
0.0
 10
443.0403480437
 20
213.7590639109
 30
0.0
 10
443.2799705716
 20
214.2681174666
 30
0.0
 10
443.4327630041999
 20
214.7837174896
 30
0.0
 10
443.4726258489
 20
215.1303372279
 30
0.0
 10
443.4726258489
 20
215.2957313106
 30
0.0
  0
SPLINE
  5
321
330
211
100
AcDbEntity
  8
PR970_004_00_BL1
  6
Continuous
 62
     7
100
AcDbSpline
210
0.0
220
0.0
230
1.0
 70
     8
 71
     3
 72
    14
 73
    10
 74
     0
 42
0.0000000001
 43
0.0000000001
 40
0.0
 40
0.0
 40
0.0
 40
0.0
 40
0.2034343595
 40
0.3278376167
 40
0.4629866542000001
 40
0.6036530245
 40
0.7438488705
 40
0.8776355742999999
 40
1.0
 40
1.0
 40
1.0
 40
1.0
 10
416.4112847239
 20
226.611711262
 30
0.0
 10
416.6862426187
 20
226.6088873572
 30
0.0
 10
417.1257835000999
 20
226.7864344449
 30
0.0
 10
417.6151020862
 20
227.1733760696
 30
0.0
 10
417.9804148527
 20
227.577108876
 30
0.0
 10
418.2915076636
 20
228.0474903191
 30
0.0
 10
418.5311301914
 20
228.5565438748
 30
0.0
 10
418.683922624
 20
229.0721438978
 30
0.0
 10
418.7237854687
 20
229.4187636362
 30
0.0
 10
418.7237854687
 20
229.5841577188
 30
0.0
  0
SPLINE
  5
322
330
211
100
AcDbEntity
  8
PR970_004_00_BL1
  6
Continuous
 62
     7
100
AcDbSpline
210
0.0
220
0.0
230
1.0
 70
     8
 71
     3
 72
     9
 73
     5
 74
     0
 42
0.0000000001
 43
0.0000000001
 40
0.0
 40
0.0
 40
0.0
 40
0.0
 40
0.2754536496
 40
1.0
 40
1.0
 40
1.0
 40
1.0
 10
418.7237854687
 20
229.5841577188
 30
0.0
 10
418.7237854687
 20
229.6520585614
 30
0.0
 10
418.7120972185999
 20
229.8978001491
 30
0.0
 10
418.6481430226
 20
230.1455838733
 30
0.0
 10
418.5602329461
 20
230.3010555616999
 30
0.0
  0
SPLINE
  5
323
330
211
100
AcDbEntity
  8
PR970_004_00_BL1
  6
Continuous
 62
     7
100
AcDbSpline
210
0.0
220
0.0
230
1.0
 70
     8
 71
     3
 72
    16
 73
    12
 74
     0
 42
0.0000000001
 43
0.0000000001
 40
0.0
 40
0.0
 40
0.0
 40
0.0
 40
0.0428787394
 40
0.0875260083
 40
0.1869253741
 40
0.3042343478
 40
0.4379612797
 40
0.5823724483000001
 40
0.7295998290000001
 40
0.8712491058000001
 40
1.0
 40
1.0
 40
1.0
 40
1.0
 10
443.7139774871
 20
215.9173581463
 30
0.0
 10
443.6585093973
 20
215.9493972374
 30
0.0
 10
443.5362568825
 20
216.0002922234
 30
0.0
 10
443.2575520016
 20
216.0411833949
 30
0.0
 10
442.8640835656
 20
215.9644766438
 30
0.0
 10
442.4005543606999
 20
215.7102857517
 30
0.0
 10
441.9549906677999
 20
215.3162326758
 30
0.0
 10
441.5619564166999
 20
214.8129500046
 30
0.0
 10
441.2524213198
 20
214.2409308421
 30
0.0
 10
441.0515776308
 20
213.6471443507
 30
0.0
 10
440.9977683066
 20
213.2427321423
 30
0.0
 10
440.9977683066
 20
213.0503918637
 30
0.0
  0
SPLINE
  5
324
330
211
100
AcDbEntity
  8
PR970_004_00_BL1
  6
Continuous
 62
     7
100
AcDbSpline
210
0.0
220
0.0
230
1.0
 70
     8
 71
     3
 72
    16
 73
    12
 74
     0
 42
0.0000000001
 43
0.0000000001
 40
0.0
 40
0.0
 40
0.0
 40
0.0
 40
0.0428787394
 40
0.0875260083
 40
0.1869253741
 40
0.3042343478
 40
0.4379612797
 40
0.5823724483000001
 40
0.7295998290000001
 40
0.8712491058000001
 40
1.0
 40
1.0
 40
1.0
 40
1.0
 10
418.965137107
 20
230.2057845545
 30
0.0
 10
418.9096690172
 20
230.2378236456
 30
0.0
 10
418.7874165023999
 20
230.2887186316
 30
0.0
 10
418.5087116215
 20
230.3296098031
 30
0.0
 10
418.1152431855
 20
230.252903052
 30
0.0
 10
417.6517139806
 20
229.9987121599
 30
0.0
 10
417.2061502876999
 20
229.604659084
 30
0.0
 10
416.8131160366
 20
229.1013764129
 30
0.0
 10
416.5035809396
 20
228.5293572504
 30
0.0
 10
416.3027372506999
 20
227.9355707589
 30
0.0
 10
416.2489279263999
 20
227.5311585505
 30
0.0
 10
416.2489279263999
 20
227.3388182719
 30
0.0
  0
SPLINE
  5
325
330
211
100
AcDbEntity
  8
PR970_004_00_BL1
  6
Continuous
 62
     7
100
AcDbSpline
210
0.0
220
0.0
230
1.0
 70
     8
 71
     3
 72
    11
 73
     7
 74
     0
 42
0.0000000001
 43
0.0000000001
 40
0.0
 40
0.0
 40
0.0
 40
0.0
 40
0.2177799745
 40
0.4508974947000001
 40
0.7103342984000001
 40
1.0
 40
1.0
 40
1.0
 40
1.0
 10
452.8325526891999
 20
210.9221662579
 30
0.0
 10
452.8903069894
 20
210.9554950447
 30
0.0
 10
452.9984410339999
 20
211.0462101211
 30
0.0
 10
453.1135137410999
 20
211.2342926774
 30
0.0
 10
453.1818358448999
 20
211.4660650128
 30
0.0
 10
453.1953094984999
 20
211.634762284
 30
0.0
 10
453.1953094984999
 20
211.7234537424
 30
0.0
  0
LINE
  5
326
330
211
100
AcDbEntity
  8
PR970_004_00_BL1
  6
Continuous
 62
     7
100
AcDbLine
 10
452.8328635622
 20
210.9223283445
 30
0.0
 11
431.6197484458
 21
198.6750037284
 31
0.0
  0
LINE
  5
327
330
211
100
AcDbEntity
  8
PR970_004_00_BL1
  6
Continuous
 62
     7
100
AcDbLine
 10
429.3461247199999
 20
223.3824582968
 30
0.0
 11
412.7487921942999
 21
213.8000410946
 31
0.0
  0
LINE
  5
328
330
211
100
AcDbEntity
  8
PR970_004_00_BL1
  6
Continuous
 62
     7
100
AcDbLine
 10
410.5590350406999
 20
212.7159843387
 30
0.0
 11
412.7487921942999
 21
213.8000410946
 31
0.0
  0
SPLINE
  5
329
330
211
100
AcDbEntity
  8
PR970_004_00_BL1
  6
Continuous
 62
     7
100
AcDbSpline
210
0.0
220
0.0
230
1.0
 70
     8
 71
     3
 72
    11
 73
     7
 74
     0
 42
0.0000000001
 43
0.0000000001
 40
0.0
 40
0.0
 40
0.0
 40
0.0
 40
0.2897376304
 40
0.5490700755
 40
0.7822189804000001
 40
1.0
 40
1.0
 40
1.0
 40
1.0
 10
416.2489279263999
 20
227.3388182719
 30
0.0
 10
416.2489279263999
 20
227.2248280366
 30
0.0
 10
416.266176358
 20
227.0080729786
 30
0.0
 10
416.3539641356
 20
226.7102563458
 30
0.0
 10
416.5017063841999
 20
226.4685861202
 30
0.0
 10
416.6404928331999
 20
226.3518056288
 30
0.0
 10
416.7146860133
 20
226.3089506817
 30
0.0
  0
LINE
  5
32A
330
211
100
AcDbEntity
  8
PR970_004_00_BL1
  6
Continuous
 62
     7
100
AcDbLine
 10
413.9508404555
 20
235.1317623698
 30
0.0
 11
413.9508404555
 21
234.9935513602
 31
0.0
  0
SPLINE
  5
32B
330
211
100
AcDbEntity
  8
PR970_004_00_BL1
  6
Continuous
 62
     7
100
AcDbSpline
210
0.0
220
0.0
230
1.0
 70
     8
 71
     3
 72
    10
 73
     6
 74
     0
 42
0.0000000001
 43
0.0000000001
 40
0.0
 40
0.0
 40
0.0
 40
0.0
 40
0.280162732
 40
0.5397194464
 40
1.0
 40
1.0
 40
1.0
 40
1.0
 10
425.9716733993
 20
246.4246666208
 30
0.0
 10
425.7988609654
 20
246.324893911
 30
0.0
 10
425.4762912787
 20
246.1128840092
 30
0.0
 10
424.9393116445999
 20
245.6442733793
 30
0.0
 10
424.6327319119
 20
245.2135711393
 30
0.0
 10
424.5084449413999
 20
244.9102085521
 30
0.0
  0
SPLINE
  5
32C
330
211
100
AcDbEntity
  8
PR970_004_00_BL1
  6
Continuous
 62
     7
100
AcDbSpline
210
0.0
220
0.0
230
1.0
 70
     8
 71
     3
 72
     9
 73
     5
 74
     0
 42
0.0000000001
 43
0.0000000001
 40
0.0
 40
0.0
 40
0.0
 40
0.0
 40
0.2538361268
 40
1.0
 40
1.0
 40
1.0
 40
1.0
 10
424.5084449413999
 20
244.9102085521
 30
0.0
 10
424.4961823144999
 20
244.8802776415
 30
0.0
 10
424.4505653964999
 20
244.761283766
 30
0.0
 10
424.4160421721
 20
244.6379932447
 30
0.0
 10
424.3973315026999
 20
244.5447712196
 30
0.0
  0
LINE
  5
32D
330
211
100
AcDbEntity
  8
PR970_004_00_BL1
  6
Continuous
 62
     7
100
AcDbLine
 10
441.0699862294999
 20
242.1984971446
 30
0.0
 11
440.7164343108999
 21
241.9943750676
 31
0.0
  0
LINE
  5
32E
330
211
100
AcDbEntity
  8
PR970_004_00_BL1
  6
Continuous
 62
     7
100
AcDbLine
 10
440.7164343108999
 20
241.9943750676
 30
0.0
 11
433.3166521904
 21
237.7221343703
 31
0.0
  0
LINE
  5
32F
330
211
100
AcDbEntity
  8
PR970_004_00_BL1
  6
Continuous
 62
     7
100
AcDbLine
 10
433.3166521904
 20
237.7221343703
 30
0.0
 11
433.2918440201999
 21
237.707811452
 31
0.0
  0
LINE
  5
330
330
211
100
AcDbEntity
  8
PR970_004_00_BL1
  6
Continuous
 62
     7
100
AcDbLine
 10
436.1325691313999
 20
228.9907900906
 30
0.0
 11
436.9580646338
 21
229.4673872962
 31
0.0
  0
SPLINE
  5
331
330
211
100
AcDbEntity
  8
PR970_004_00_BL1
  6
Continuous
 62
     7
100
AcDbSpline
210
0.0
220
0.0
230
1.0
 70
     8
 71
     3
 72
     9
 73
     5
 74
     0
 42
0.0000000001
 43
0.0000000001
 40
0.0
 40
0.0
 40
0.0
 40
0.0
 40
0.2648245506
 40
1.0
 40
1.0
 40
1.0
 40
1.0
 10
453.0969645908999
 20
229.784161539
 30
0.0
 10
453.1128691191999
 20
229.7353570585
 30
0.0
 10
453.1666773346
 20
229.549217
 30
0.0
 10
453.1953094984999
 20
229.3548392448
 30
0.0
 10
453.1953094984999
 20
229.2123411159
 30
0.0
  0
SPLINE
  5
332
330
211
100
AcDbEntity
  8
PR970_004_00_BL1
  6
Continuous
 62
     7
100
AcDbSpline
210
0.0
220
0.0
230
1.0
 70
     8
 71
     3
 72
     9
 73
     5
 74
     0
 42
0.0000000001
 43
0.0000000001
 40
0.0
 40
0.0
 40
0.0
 40
0.0
 40
0.2754536496
 40
1.0
 40
1.0
 40
1.0
 40
1.0
 10
443.4726258489
 20
215.2957313106
 30
0.0
 10
443.4726258489
 20
215.3636321531
 30
0.0
 10
443.4609375987
 20
215.6093737409
 30
0.0
 10
443.3969834027999
 20
215.8571574651
 30
0.0
 10
443.3090733262
 20
216.0126291535
 30
0.0
  0
SPLINE
  5
333
330
211
100
AcDbEntity
  8
PR970_004_00_BL1
  6
Continuous
 62
     7
100
AcDbSpline
210
0.0
220
0.0
230
1.0
 70
     8
 71
     3
 72
     9
 73
     5
 74
     0
 42
0.0000000001
 43
0.0000000001
 40
0.0
 40
0.0
 40
0.0
 40
0.0
 40
0.2648245506
 40
1.0
 40
1.0
 40
1.0
 40
1.0
 10
446.3087677536
 20
225.8650176618
 30
0.0
 10
446.324672282
 20
225.8162131813
 30
0.0
 10
446.3784804973999
 20
225.6300731228
 30
0.0
 10
446.4071126612999
 20
225.4356953676
 30
0.0
 10
446.4071126612999
 20
225.2931972387
 30
0.0
  0
LINE
  5
334
330
211
100
AcDbEntity
  8
PR970_004_00_BL1
  6
Continuous
 62
     7
100
AcDbLine
 10
431.2750846569
 20
204.7145547672
 30
0.0
 11
430.4376097045
 21
204.2310412641
 31
0.0
  0
LINE
  5
335
330
211
100
AcDbEntity
  8
PR970_004_00_BL1
  6
Continuous
 62
     7
100
AcDbLine
 10
430.4376097045
 20
204.2310412641
 30
0.0
 11
428.3847438348
 21
203.0679520766
 31
0.0
  0
SPLINE
  5
336
330
211
100
AcDbEntity
  8
PR970_004_00_BL1
  6
Continuous
 62
     7
100
AcDbSpline
210
0.0
220
0.0
230
1.0
 70
     8
 71
     3
 72
     9
 73
     5
 74
     0
 42
0.0000000001
 43
0.0000000001
 40
0.0
 40
0.0
 40
0.0
 40
0.0
 40
0.2648245506
 40
1.0
 40
1.0
 40
1.0
 40
1.0
 10
438.601335928
 20
221.4151563846
 30
0.0
 10
438.6172404562999
 20
221.3663519041
 30
0.0
 10
438.6710486716999
 20
221.1802118456
 30
0.0
 10
438.6996808355999
 20
220.9858340904
 30
0.0
 10
438.6996808355999
 20
220.8433359615
 30
0.0
  0
SPLINE
  5
337
330
211
100
AcDbEntity
  8
PR970_004_00_BL1
  6
Continuous
 62
     7
100
AcDbSpline
210
0.0
220
0.0
230
1.0
 70
     8
 71
     3
 72
    11
 73
     7
 74
     0
 42
0.0000000001
 43
0.0000000001
 40
0.0
 40
0.0
 40
0.0
 40
0.0
 40
0.2897376304
 40
0.5490700755
 40
0.7822189804000001
 40
1.0
 40
1.0
 40
1.0
 40
1.0
 10
440.9977683066
 20
213.0503918637
 30
0.0
 10
440.9977683066
 20
212.9364016284
 30
0.0
 10
441.0150167382
 20
212.7196465704
 30
0.0
 10
441.1028045156999
 20
212.4218299376
 30
0.0
 10
441.2505467643
 20
212.180159712
 30
0.0
 10
441.3893332133
 20
212.0633792206
 30
0.0
 10
441.4635263934999
 20
212.0205242734999
 30
0.0
  0
LINE
  5
338
330
211
100
AcDbEntity
  8
PR970_004_00_BL1
  6
Continuous
 62
     7
100
AcDbLine
 10
438.6996808355999
 20
220.8433359615
 30
0.0
 11
438.6996808355999
 21
220.705124952
 31
0.0
  0
LINE
  5
339
330
211
100
AcDbEntity
  8
PR970_004_00_BL1
  6
Continuous
 62
     7
100
AcDbLine
 10
446.4071126612999
 20
225.2931972387
 30
0.0
 11
446.4071126612999
 21
225.1549862292
 31
0.0
  0
LINE
  5
33A
330
211
100
AcDbEntity
  8
PR970_004_00_BL1
  6
Continuous
 62
     7
100
AcDbLine
 10
446.3087677536
 20
225.8650176618
 30
0.0
 11
444.3915774050999
 21
231.7480892607
 31
0.0
  0
SPLINE
  5
33B
330
211
100
AcDbEntity
  8
PR970_004_00_BL1
  6
Continuous
 62
     7
100
AcDbSpline
210
0.0
220
0.0
230
1.0
 70
     8
 71
     3
 72
     9
 73
     5
 74
     0
 42
0.0000000001
 43
0.0000000001
 40
0.0
 40
0.0
 40
0.0
 40
0.0
 40
0.2281676436
 40
1.0
 40
1.0
 40
1.0
 40
1.0
 10
406.6245891843999
 20
232.1199477368
 30
0.0
 10
406.6079873512999
 20
232.0881732257
 30
0.0
 10
406.5461473448
 20
231.9431665453
 30
0.0
 10
406.5262442768
 20
231.7829558219
 30
0.0
 10
406.5262442768
 20
231.6616836625
 30
0.0
  0
SPLINE
  5
33C
330
211
100
AcDbEntity
  8
PR970_004_00_BL1
  6
Continuous
 62
     7
100
AcDbSpline
210
0.0
220
0.0
230
1.0
 70
     8
 71
     3
 72
    11
 73
     7
 74
     0
 42
0.0000000001
 43
0.0000000001
 40
0.0
 40
0.0
 40
0.0
 40
0.0
 40
0.2898033721
 40
0.5490453243
 40
0.7822298497000001
 40
1.0
 40
1.0
 40
1.0
 40
1.0
 10
433.7498803759999
 20
242.7505207382
 30
0.0
 10
433.9912729733
 20
242.8898879873
 30
0.0
 10
434.4291419254999
 20
243.1912812781
 30
0.0
 10
434.9522036616
 20
243.741322142
 30
0.0
 10
435.2833562554
 20
244.349426199
 30
0.0
 10
435.3607493874999
 20
244.7860776051
 30
0.0
 10
435.3607666162
 20
244.9955310863
 30
0.0
  0
SPLINE
  5
33D
330
211
100
AcDbEntity
  8
PR970_004_00_BL1
  6
Continuous
 62
     7
100
AcDbSpline
210
0.0
220
0.0
230
1.0
 70
     8
 71
     3
 72
     9
 73
     5
 74
     0
 42
0.0000000001
 43
0.0000000001
 40
0.0
 40
0.0
 40
0.0
 40
0.0
 40
0.2351846373
 40
1.0
 40
1.0
 40
1.0
 40
1.0
 10
413.9836220912999
 20
235.2845170612
 30
0.0
 10
413.9799688372
 20
235.2775250402
 30
0.0
 10
413.9659736789999
 20
235.2469919328
 30
0.0
 10
413.9579922085999
 20
235.2139083469
 30
0.0
 10
413.9545341319999
 20
235.1884879716
 30
0.0
  0
SPLINE
  5
33E
330
211
100
AcDbEntity
  8
PR970_004_00_BL1
  6
Continuous
 62
     7
100
AcDbSpline
210
0.0
220
0.0
230
1.0
 70
     8
 71
     3
 72
     8
 73
     4
 74
     0
 42
0.0000000001
 43
0.0000000001
 40
0.0
 40
0.0
 40
0.0
 40
0.0
 40
1.0
 40
1.0
 40
1.0
 40
1.0
 10
413.9545341319999
 20
235.1884879716
 30
0.0
 10
413.9519799752999
 20
235.1697123263
 30
0.0
 10
413.9508404555
 20
235.1507109468
 30
0.0
 10
413.9508404555
 20
235.1317623698
 30
0.0
  0
LINE
  5
33F
330
211
100
AcDbEntity
  8
PR970_004_00_BL1
  6
Continuous
 62
     7
100
AcDbLine
 10
413.9836220912999
 20
235.2845170612
 30
0.0
 11
414.0155419975999
 21
235.345609075
 31
0.0
  0
LINE
  5
340
330
211
100
AcDbEntity
  8
PR970_004_00_BL1
  6
Continuous
 62
     7
100
AcDbLine
 10
414.0155419975999
 20
235.345609075
 30
0.0
 11
414.0231753469
 21
235.360218663
 31
0.0
  0
LINE
  5
341
330
211
100
AcDbEntity
  8
PR970_004_00_BL1
  6
Continuous
 62
     7
100
AcDbLine
 10
438.601335928
 20
221.4151563846
 30
0.0
 11
436.2363349308999
 21
228.6723753707
 31
0.0
  0
LINE
  5
342
330
211
100
AcDbEntity
  8
PR970_004_00_BL1
  6
Continuous
 62
     7
100
AcDbLine
 10
436.2363349308999
 20
228.6723753707
 30
0.0
 11
433.2918440201999
 21
237.707811452
 31
0.0
  0
LINE
  5
343
330
211
100
AcDbEntity
  8
PR970_004_00_BL1
  6
Continuous
 62
     7
100
AcDbLine
 10
441.0699862294999
 20
243.0149995617
 30
0.0
 11
441.0699862294999
 21
242.3300365503
 31
0.0
  0
LINE
  5
344
330
211
100
AcDbEntity
  8
PR970_004_00_BL1
  6
Continuous
 62
     7
100
AcDbLine
 10
441.0699862294999
 20
242.3300365503
 30
0.0
 11
441.0699862294999
 21
242.1984971446
 31
0.0
  0
LINE
  5
345
330
211
100
AcDbEntity
  8
PR970_004_00_BL1
  6
Continuous
 62
     7
100
AcDbLine
 10
427.4348958316
 20
250.8870445839
 30
0.0
 11
426.4297097551
 21
251.4673759069
 31
0.0
  0
LINE
  5
346
330
211
100
AcDbEntity
  8
PR970_004_00_BL1
  6
Continuous
 62
     7
100
AcDbLine
 10
441.0699862294999
 20
243.0149995617
 30
0.0
 11
440.064800153
 21
243.5953308847
 31
0.0
  0
SPLINE
  5
347
330
211
100
AcDbEntity
  8
PR970_004_00_BL1
  6
Continuous
 62
     7
100
AcDbSpline
210
0.0
220
0.0
230
1.0
 70
     8
 71
     3
 72
     9
 73
     5
 74
     0
 42
0.0000000001
 43
0.0000000001
 40
0.0
 40
0.0
 40
0.0
 40
0.0
 40
0.4794959217
 40
1.0
 40
1.0
 40
1.0
 40
1.0
 10
425.5691714901999
 20
234.4098233132
 30
0.0
 10
425.6436224408999
 20
234.3668400092
 30
0.0
 10
425.7755885474
 20
234.2378438795
 30
0.0
 10
425.8610298787999
 20
234.0767863249
 30
0.0
 10
425.8899447169
 20
233.9880585351
 30
0.0
  0
LINE
  5
348
330
211
100
AcDbEntity
  8
PR970_004_00_BL1
  6
Continuous
 62
     7
100
AcDbLine
 10
418.6515675457999
 20
246.9766902143
 30
0.0
 11
418.6515675457999
 21
246.3233125008
 31
0.0
  0
LINE
  5
349
330
211
100
AcDbEntity
  8
PR970_004_00_BL1
  6
Continuous
 62
     7
100
AcDbLine
 10
426.4297097551
 20
251.4673759069
 30
0.0
 11
418.6515675457999
 21
246.9766902143
 31
0.0
  0
SPLINE
  5
34A
330
211
100
AcDbEntity
  8
PR970_004_00_BL1
  6
Continuous
 62
     7
100
AcDbSpline
210
0.0
220
0.0
230
1.0
 70
     8
 71
     3
 72
     9
 73
     5
 74
     0
 42
0.0000000001
 43
0.0000000001
 40
0.0
 40
0.0
 40
0.0
 40
0.0
 40
0.2648245506
 40
1.0
 40
1.0
 40
1.0
 40
1.0
 10
431.2423030210999
 20
217.563864062
 30
0.0
 10
431.2476045305
 20
217.5475959018
 30
0.0
 10
431.2655406023
 20
217.4855492157
 30
0.0
 10
431.2750846569
 20
217.4207566306
 30
0.0
 10
431.2750846569
 20
217.3732572543
 30
0.0
  0
SPLINE
  5
34B
330
211
100
AcDbEntity
  8
PR970_004_00_BL1
  6
Continuous
 62
     7
100
AcDbSpline
210
0.0
220
0.0
230
1.0
 70
     8
 71
     3
 72
    17
 73
    13
 74
     0
 42
0.0000000001
 43
0.0000000001
 40
0.0
 40
0.0
 40
0.0
 40
0.0
 40
0.0428595063
 40
0.0874877944
 40
0.1353201602
 40
0.1872830132
 40
0.3045449606
 40
0.4382158552000001
 40
0.5825636092000001
 40
0.7297219543000001
 40
0.8713137558999999
 40
1.0
 40
1.0
 40
1.0
 40
1.0
 10
435.3607666162
 20
244.9955310863
 30
0.0
 10
435.3607794953999
 20
245.1521064843
 30
0.0
 10
435.3190080962999
 20
245.4730921895
 30
0.0
 10
435.1349683869999
 20
245.9365600638
 30
0.0
 10
434.8363343998999
 20
246.3759778122
 30
0.0
 10
434.2740492082
 20
246.9403300462
 30
0.0
 10
433.3159469489999
 20
247.5236623121
 30
0.0
 10
431.9382576116
 20
247.9838604545
 30
0.0
 10
430.392190631
 20
248.2011365939
 30
0.0
 10
428.8030706230999
 20
248.1571888629
 30
0.0
 10
427.3006544819999
 20
247.8565630381
 30
0.0
 10
426.3788096444
 20
247.4762278555
 30
0.0
 10
425.9716733993
 20
247.2411690379
 30
0.0
  0
SPLINE
  5
34C
330
211
100
AcDbEntity
  8
PR970_004_00_BL1
  6
Continuous
 62
     7
100
AcDbSpline
210
0.0
220
0.0
230
1.0
 70
     8
 71
     3
 72
    11
 73
     7
 74
     0
 42
0.0000000001
 43
0.0000000001
 40
0.0
 40
0.0
 40
0.0
 40
0.0
 40
0.2177799745
 40
0.4508974947000001
 40
0.7103342984000001
 40
1.0
 40
1.0
 40
1.0
 40
1.0
 10
431.6194375728
 20
198.6748416418
 30
0.0
 10
431.677191873
 20
198.7081704286
 30
0.0
 10
431.7853259176
 20
198.798885505
 30
0.0
 10
431.9003986246999
 20
198.9869680612
 30
0.0
 10
431.9687207283999
 20
199.2187403966
 30
0.0
 10
431.9821943821
 20
199.3874376679
 30
0.0
 10
431.9821943821
 20
199.4761291262
 30
0.0
  0
SPLINE
  5
34D
330
211
100
AcDbEntity
  8
PR970_004_00_BL1
  6
Continuous
 62
     7
100
AcDbSpline
210
0.0
220
0.0
230
1.0
 70
     8
 71
     3
 72
     9
 73
     5
 74
     0
 42
0.0000000001
 43
0.0000000001
 40
0.0
 40
0.0
 40
0.0
 40
0.0
 40
0.2344697815
 40
1.0
 40
1.0
 40
1.0
 40
1.0
 10
438.7703912193
 20
220.8841603769
 30
0.0
 10
438.7703912193
 20
220.9296158237
 30
0.0
 10
438.7610303126999
 20
221.123461208
 30
0.0
 10
438.7180302087999
 20
221.3148750619
 30
0.0
 10
438.6720463117
 20
221.4559808
 30
0.0
  0
SPLINE
  5
34E
330
211
100
AcDbEntity
  8
PR970_004_00_BL1
  6
Continuous
 62
     7
100
AcDbSpline
210
0.0
220
0.0
230
1.0
 70
     8
 71
     3
 72
    11
 73
     7
 74
     0
 42
0.0000000001
 43
0.0000000001
 40
0.0
 40
0.0
 40
0.0
 40
0.0
 40
0.2177594406
 40
0.4509249464
 40
0.7102331127000001
 40
1.0
 40
1.0
 40
1.0
 40
1.0
 10
418.9068558166999
 20
246.47070239
 30
0.0
 10
418.9563290326999
 20
246.499250203
 30
0.0
 10
419.0700096163999
 20
246.5404804262
 30
0.0
 10
419.2587944001999
 20
246.5452349032
 30
0.0
 10
419.4600270829
 20
246.496666517
 30
0.0
 10
419.5909294786
 20
246.4343616187
 30
0.0
 10
419.6567536223
 20
246.3963588913
 30
0.0
  0
SPLINE
  5
34F
330
211
100
AcDbEntity
  8
PR970_004_00_BL1
  6
Continuous
 62
     7
100
AcDbSpline
210
0.0
220
0.0
230
1.0
 70
     8
 71
     3
 72
    11
 73
     7
 74
     0
 42
0.0000000001
 43
0.0000000001
 40
0.0
 40
0.0
 40
0.0
 40
0.0
 40
0.2897711737
 40
0.5490731943000001
 40
0.78223939
 40
1.0
 40
1.0
 40
1.0
 40
1.0
 10
412.9392671687
 20
242.5180394295
 30
0.0
 10
412.8734358055999
 20
242.5560463249
 30
0.0
 10
412.7425204156999
 20
242.6183545205
 30
0.0
 10
412.5412671422
 20
242.6669245487
 30
0.0
 10
412.3524655932
 20
242.6621492582
 30
0.0
 10
412.2387771185
 20
242.6209042768
 30
0.0
 10
412.1893032434
 20
242.5923461498
 30
0.0
  0
LINE
  5
350
330
211
100
AcDbEntity
  8
PR970_004_00_BL1
  6
Continuous
 62
     9
100
AcDbLine
 10
438.7703912193
 20
220.8841603769
 30
0.0
 11
446.4071126612999
 21
225.2931972387
 31
0.0
  0
SPLINE
  5
351
330
211
100
AcDbEntity
  8
PR970_004_00_BL1
  6
Continuous
 62
     7
100
AcDbSpline
210
0.0
220
0.0
230
1.0
 70
     8
 71
     3
 72
    11
 73
     7
 74
     0
 42
0.0000000001
 43
0.0000000001
 40
0.0
 40
0.0
 40
0.0
 40
0.0
 40
0.1894725501
 40
0.4169199666
 40
0.6915360969
 40
1.0
 40
1.0
 40
1.0
 40
1.0
 10
431.1197756624999
 20
199.5410790958
 30
0.0
 10
431.0733176108
 20
199.5142499031
 30
0.0
 10
430.9493267041999
 20
199.4915041472
 30
0.0
 10
430.7595362638999
 20
199.5572929579
 30
0.0
 10
430.5737547021999
 20
199.6959795324
 30
0.0
 10
430.4671569281
 20
199.8241330183
 30
0.0
 10
430.4182472005999
 20
199.8964945118
 30
0.0
  0
SPLINE
  5
352
330
211
100
AcDbEntity
  8
PR970_004_00_BL1
  6
Continuous
 62
     7
100
AcDbSpline
210
0.0
220
0.0
230
1.0
 70
     8
 71
     3
 72
    13
 73
     9
 74
     0
 42
0.0000000001
 43
0.0000000001
 40
0.0
 40
0.0
 40
0.0
 40
0.0
 40
0.2747026988
 40
0.5317809228
 40
0.6532575270000001
 40
0.77057714
 40
0.8854510104
 40
1.0
 40
1.0
 40
1.0
 40
1.0
 10
430.4376097045
 20
204.2310412641
 30
0.0
 10
430.6512289425
 20
203.9149935595
 30
0.0
 10
430.9725628952
 20
203.2334426717
 30
0.0
 10
431.0571854888999
 20
202.3064042743
 30
0.0
 10
430.9042747819999
 20
201.6298857428
 30
0.0
 10
430.6906401858999
 20
201.1826609187
 30
0.0
 10
430.3836530717999
 20
200.8058646489
 30
0.0
 10
430.1256873883
 20
200.6126819575
 30
0.0
 10
429.987928395
 20
200.5331472404
 30
0.0
  0
LINE
  5
353
330
211
100
AcDbEntity
  8
PR970_004_00_BL1
  6
Continuous
 62
     9
100
AcDbLine
 10
431.2750846569
 20
200.3911868949
 30
0.0
 11
430.4182472005999
 21
199.8964945118
 31
0.0
  0
LINE
  5
354
330
211
100
AcDbEntity
  8
PR970_004_00_BL1
  6
Continuous
 62
     7
100
AcDbLine
 10
429.987928395
 20
200.5331472404
 30
0.0
 11
428.3847438348
 21
203.0679520766
 31
0.0
  0
LINE
  5
355
330
211
100
AcDbEntity
  8
PR970_004_00_BL1
  6
Continuous
 62
     7
100
AcDbLine
 10
410.1236948241
 20
213.610735129
 30
0.0
 11
412.3134519776999
 21
214.6947918848
 31
0.0
  0
LINE
  5
356
330
211
100
AcDbEntity
  8
PR970_004_00_BL1
  6
Continuous
 62
     9
100
AcDbLine
 10
438.6720463117
 20
221.4559808
 30
0.0
 11
446.3087677536
 21
225.8650176618
 31
0.0
  0
SPLINE
  5
357
330
211
100
AcDbEntity
  8
PR970_004_00_BL1
  6
Continuous
 62
     7
100
AcDbSpline
210
0.0
220
0.0
230
1.0
 70
     8
 71
     3
 72
     9
 73
     5
 74
     0
 42
0.0000000001
 43
0.0000000001
 40
0.0
 40
0.0
 40
0.0
 40
0.0
 40
0.2344697815
 40
1.0
 40
1.0
 40
1.0
 40
1.0
 10
431.9821943821
 20
216.9650164998
 30
0.0
 10
431.9821943821
 20
217.0104719465
 30
0.0
 10
431.9728334755
 20
217.2043173308
 30
0.0
 10
431.9298333716
 20
217.3957311848
 30
0.0
 10
431.8838494745
 20
217.5368369228
 30
0.0
  0
LINE
  5
358
330
211
100
AcDbEntity
  8
PR970_004_00_BL1
  6
Continuous
 62
     9
100
AcDbLine
 10
431.9821943821
 20
216.9650164998
 30
0.0
 11
438.6996808355999
 21
220.8433359615
 31
0.0
  0
LINE
  5
359
330
211
100
AcDbEntity
  8
PR970_004_00_BL1
  6
Continuous
 62
     7
100
AcDbLine
 10
430.4182472005999
 20
199.8964945118
 30
0.0
 11
429.987928395
 21
200.5331472404
 31
0.0
  0
LINE
  5
35A
330
211
100
AcDbEntity
  8
PR970_004_00_BL1
  6
Continuous
 62
     9
100
AcDbLine
 10
431.8838494745
 20
217.5368369228
 30
0.0
 11
438.601335928
 21
221.4151563846
 31
0.0
  0
LINE
  5
35B
330
211
100
AcDbEntity
  8
PR970_004_00_BL1
  6
Continuous
 62
     7
100
AcDbLine
 10
425.5691714901999
 20
235.2263257303
 30
0.0
 11
412.9392671687
 21
242.5180394295
 31
0.0
  0
SPLINE
  5
35C
330
211
100
AcDbEntity
  8
PR970_004_00_BL1
  6
Continuous
 62
     7
100
AcDbSpline
210
0.0
220
0.0
230
1.0
 70
     8
 71
     3
 72
    10
 73
     6
 74
     0
 42
0.0000000001
 43
0.0000000001
 40
0.0
 40
0.0
 40
0.0
 40
0.0
 40
0.5193156338
 40
0.7709517612000001
 40
1.0
 40
1.0
 40
1.0
 40
1.0
 10
426.5314911703
 20
233.9610313959
 30
0.0
 10
426.4447471333999
 20
234.2272133012
 30
0.0
 10
426.2450095558
 20
234.603386603
 30
0.0
 10
425.8842485198
 20
235.0059522942
 30
0.0
 10
425.6761074797
 20
235.1645876047
 30
0.0
 10
425.5691714901999
 20
235.2263257303
 30
0.0
  0
SPLINE
  5
35D
330
211
100
AcDbEntity
  8
PR970_004_00_BL1
  6
Continuous
 62
     7
100
AcDbSpline
210
0.0
220
0.0
230
1.0
 70
     8
 71
     3
 72
    11
 73
     7
 74
     0
 42
0.0000000001
 43
0.0000000001
 40
0.0
 40
0.0
 40
0.0
 40
0.0
 40
0.2897376304
 40
0.5490700755
 40
0.7822189804000001
 40
1.0
 40
1.0
 40
1.0
 40
1.0
 10
444.179735574
 20
214.8874905561
 30
0.0
 10
444.179735574
 20
215.0014807914
 30
0.0
 10
444.1624871423999
 20
215.2182358494
 30
0.0
 10
444.0746993648999
 20
215.5160524822
 30
0.0
 10
443.9269571162999
 20
215.7577227078
 30
0.0
 10
443.7881706673
 20
215.8745031992
 30
0.0
 10
443.7139774871
 20
215.9173581463
 30
0.0
  0
SPLINE
  5
35E
330
211
100
AcDbEntity
  8
PR970_004_00_BL1
  6
Continuous
 62
     7
100
AcDbSpline
210
0.0
220
0.0
230
1.0
 70
     8
 71
     3
 72
    12
 73
     8
 74
     0
 42
0.0000000001
 43
0.0000000001
 40
0.0
 40
0.0
 40
0.0
 40
0.0
 40
0.0928501504
 40
0.2043141055
 40
0.4656959952000001
 40
0.7449441237000001
 40
1.0
 40
1.0
 40
1.0
 40
1.0
 10
412.3134519776999
 20
214.6947918848
 30
0.0
 10
412.1901208844999
 20
214.6547319209
 30
0.0
 10
411.9213807875
 20
214.5584642549
 30
0.0
 10
411.3169648477
 20
214.3181136142
 30
0.0
 10
410.4844859897
 20
213.9479125215
 30
0.0
 10
409.4864325373
 20
213.4589091102
 30
0.0
 10
408.8289974133
 20
213.1051905645
 30
0.0
 10
408.5205102638999
 20
212.9270864889
 30
0.0
  0
SPLINE
  5
35F
330
211
100
AcDbEntity
  8
PR970_004_00_BL1
  6
Continuous
 62
     7
100
AcDbSpline
210
0.0
220
0.0
230
1.0
 70
     8
 71
     3
 72
    16
 73
    12
 74
     0
 42
0.0000000001
 43
0.0000000001
 40
0.0
 40
0.0
 40
0.0
 40
0.0
 40
0.1914140437
 40
0.3324130273
 40
0.3844453328
 40
0.4250239154
 40
0.4560637876
 40
0.4818054603000001
 40
0.5429957559
 40
0.6457313418
 40
1.0
 40
1.0
 40
1.0
 40
1.0
 10
429.0023791542999
 20
224.4111719168
 30
0.0
 10
428.9625582005999
 20
224.4015555086
 30
0.0
 10
428.8929796223
 20
224.3866631274
 30
0.0
 10
428.8109938997
 20
224.3766088782
 30
0.0
 10
428.7608750241999
 20
224.3782580062
 30
0.0
 10
428.734787473
 20
224.3833711903
 30
0.0
 10
428.7155756143
 20
224.392593732
 30
0.0
 10
428.7000417115
 20
224.4144274233
 30
0.0
 10
428.7131068841
 20
224.458280776
 30
0.0
 10
428.7820809175
 20
224.5428672986
 30
0.0
 10
428.8593730728999
 20
224.6060809472
 30
0.0
 10
428.9194553848
 20
224.6523265217
 30
0.0
  0
LINE
  5
360
330
211
100
AcDbEntity
  8
PR970_004_00_BL1
  6
Continuous
 62
     7
100
AcDbLine
 10
438.7703912193
 20
220.7459493674
 30
0.0
 11
438.6996808355999
 21
220.705124952
 31
0.0
  0
LINE
  5
361
330
211
100
AcDbEntity
  8
PR970_004_00_BL1
  6
Continuous
 62
     7
100
AcDbLine
 10
438.7703912193
 20
220.8841603769
 30
0.0
 11
438.7703912193
 21
220.7459493674
 31
0.0
  0
LINE
  5
362
330
211
100
AcDbEntity
  8
PR970_004_00_BL1
  6
Continuous
 62
     7
100
AcDbLine
 10
429.0317767045999
 20
224.34706355
 30
0.0
 11
412.3134519776999
 21
214.6947918848
 31
0.0
  0
LINE
  5
363
330
211
100
AcDbEntity
  8
PR970_004_00_BL1
  6
Continuous
 62
     7
100
AcDbLine
 10
446.477823045
 20
225.1958106446
 30
0.0
 11
446.4071126612999
 21
225.1549862292
 31
0.0
  0
LINE
  5
364
330
211
100
AcDbEntity
  8
PR970_004_00_BL1
  6
Continuous
 62
     7
100
AcDbLine
 10
446.477823045
 20
225.3340216541
 30
0.0
 11
446.477823045
 21
225.1958106446
 31
0.0
  0
LINE
  5
365
330
211
100
AcDbEntity
  8
PR970_004_00_BL1
  6
Continuous
 62
     9
100
AcDbLine
 10
453.1953094984999
 20
211.7234537424
 30
0.0
 11
431.9821943821
 21
199.4761291262
 31
0.0
  0
LINE
  5
366
330
211
100
AcDbEntity
  8
PR970_004_00_BL1
  6
Continuous
 62
     7
100
AcDbLine
 10
438.6720463117
 20
221.4559808
 30
0.0
 11
436.3122835759999
 21
228.6971257084
 31
0.0
  0
LINE
  5
367
330
211
100
AcDbEntity
  8
PR970_004_00_BL1
  6
Continuous
 62
     7
100
AcDbLine
 10
436.3122835759999
 20
228.6971257084
 30
0.0
 11
437.3022470551999
 21
229.268677978
 31
0.0
  0
LINE
  5
368
330
211
100
AcDbEntity
  8
PR970_004_00_BL1
  6
Continuous
 62
     9
100
AcDbLine
 10
428.8861883347999
 20
224.7938146014
 30
0.0
 11
408.0901914583
 21
212.7873118759
 31
0.0
  0
LINE
  5
369
330
211
100
AcDbEntity
  8
PR970_004_00_BL1
  6
Continuous
 62
     9
100
AcDbLine
 10
433.2489776237999
 20
237.8393508577
 30
0.0
 11
433.2241694536
 21
237.8250279394
 31
0.0
  0
LINE
  5
36A
330
211
100
AcDbEntity
  8
PR970_004_00_BL1
  6
Continuous
 62
     9
100
AcDbLine
 10
433.2241694536
 20
237.8250279394
 30
0.0
 11
426.5314911703
 21
233.9610313959
 31
0.0
  0
LINE
  5
36B
330
211
100
AcDbEntity
  8
PR970_004_00_BL1
  6
Continuous
 62
     7
100
AcDbLine
 10
433.2489776237999
 20
237.8393508577
 30
0.0
 11
433.2918440201999
 21
237.707811452
 31
0.0
  0
LINE
  5
36C
330
211
100
AcDbEntity
  8
PR970_004_00_BL1
  6
Continuous
 62
     9
100
AcDbLine
 10
441.0699862294999
 20
242.3547853281
 30
0.0
 11
447.7446062867
 21
246.2083560121
 31
0.0
  0
SPLINE
  5
36D
330
211
100
AcDbEntity
  8
PR970_004_00_BL1
  6
Continuous
 62
     7
100
AcDbSpline
210
0.0
220
0.0
230
1.0
 70
     8
 71
     3
 72
    11
 73
     7
 74
     0
 42
0.0000000001
 43
0.0000000001
 40
0.0
 40
0.0
 40
0.0
 40
0.0
 40
0.2897376304
 40
0.5490700755
 40
0.7822189804000001
 40
1.0
 40
1.0
 40
1.0
 40
1.0
 10
419.4308951938999
 20
229.1759169643
 30
0.0
 10
419.4308951938999
 20
229.2899071996
 30
0.0
 10
419.4136467623001
 20
229.5066622576
 30
0.0
 10
419.3258589846999
 20
229.8044788904
 30
0.0
 10
419.1781167360999
 20
230.046149116
 30
0.0
 10
419.0393302870999
 20
230.1629296074001
 30
0.0
 10
418.965137107
 20
230.2057845545
 30
0.0
  0
SPLINE
  5
36E
330
211
100
AcDbEntity
  8
PR970_004_00_BL1
  6
Continuous
 62
     7
100
AcDbSpline
210
0.0
220
0.0
230
1.0
 70
     8
 71
     3
 72
    11
 73
     7
 74
     0
 42
0.0000000001
 43
0.0000000001
 40
0.0
 40
0.0
 40
0.0
 40
0.0
 40
0.2898033721
 40
0.5490453243
 40
0.7822298497000001
 40
1.0
 40
1.0
 40
1.0
 40
1.0
 10
425.9716733993
 20
247.2411690379
 30
0.0
 10
425.7302808019999
 20
247.1018017887
 30
0.0
 10
425.2924118498
 20
246.8004084979
 30
0.0
 10
424.7693501137
 20
246.250367634
 30
0.0
 10
424.4381975198999
 20
245.642263577
 30
0.0
 10
424.3608043877999
 20
245.2056121709
 30
0.0
 10
424.3607871591
 20
244.9961586897
 30
0.0
  0
SPLINE
  5
36F
330
211
100
AcDbEntity
  8
PR970_004_00_BL1
  6
Continuous
 62
     7
100
AcDbSpline
210
0.0
220
0.0
230
1.0
 70
     8
 71
     3
 72
    16
 73
    12
 74
     0
 42
0.0000000001
 43
0.0000000001
 40
0.0
 40
0.0
 40
0.0
 40
0.0
 40
0.0428787394
 40
0.0875260083
 40
0.1869253741
 40
0.3042343478
 40
0.4379612797
 40
0.5823724483000001
 40
0.7295998290000001
 40
0.8712491058000001
 40
1.0
 40
1.0
 40
1.0
 40
1.0
 10
441.4635263934999
 20
212.0205242734999
 30
0.0
 10
441.5189944833
 20
211.9884851824
 30
0.0
 10
441.6412469981
 20
211.9375901964
 30
0.0
 10
441.919951879
 20
211.8966990249
 30
0.0
 10
442.313420315
 20
211.973405776
 30
0.0
 10
442.7769495198999
 20
212.2275966681
 30
0.0
 10
443.2225132127999
 20
212.621649744
 30
0.0
 10
443.6155474638
 20
213.1249324151
 30
0.0
 10
443.9250825608
 20
213.6969515776
 30
0.0
 10
444.1259262498
 20
214.2907380691
 30
0.0
 10
444.179735574
 20
214.6951502775
 30
0.0
 10
444.179735574
 20
214.8874905561
 30
0.0
  0
LINE
  5
370
330
211
100
AcDbEntity
  8
PR970_004_00_BL1
  6
Continuous
 62
     9
100
AcDbLine
 10
432.2866579437
 20
239.1046451921
 30
0.0
 11
425.5691714901999
 21
235.2263257303
 31
0.0
  0
LINE
  5
371
330
211
100
AcDbEntity
  8
PR970_004_00_BL1
  6
Continuous
 62
     9
100
AcDbLine
 10
419.6567536223
 20
246.3963588913
 30
0.0
 11
412.9392671687
 21
242.5180394295
 31
0.0
  0
LINE
  5
372
330
211
100
AcDbEntity
  8
PR970_004_00_BL1
  6
Continuous
 62
     9
100
AcDbLine
 10
427.4348958316
 20
250.8870445839
 30
0.0
 11
434.1523822851999
 21
254.7653640457
 31
0.0
  0
LINE
  5
373
330
211
100
AcDbEntity
  8
PR970_004_00_BL1
  6
Continuous
 62
     9
100
AcDbLine
 10
440.064800153
 20
243.5953308847
 30
0.0
 11
446.7822866066
 21
247.4736503465
 31
0.0
  0
LINE
  5
374
330
211
100
AcDbEntity
  8
PR970_004_00_BL1
  6
Continuous
 62
     7
100
AcDbLine
 10
436.2270997549
 20
228.7007143418
 30
0.0
 11
436.3122835759999
 21
228.6971257084
 31
0.0
  0
LINE
  5
375
330
211
100
AcDbEntity
  8
PR970_004_00_BL1
  6
Continuous
 62
     9
100
AcDbLine
 10
428.4464691183999
 20
226.0118801506
 30
0.0
 11
407.2333540019
 21
213.7645555345
 31
0.0
  0
LINE
  5
376
330
211
100
AcDbEntity
  8
PR970_004_00_BL1
  6
Continuous
 62
     7
100
AcDbLine
 10
431.8838494745
 20
217.5368369228
 30
0.0
 11
426.5314911703
 21
233.9610313959
 31
0.0
  0
LINE
  5
377
330
211
100
AcDbEntity
  8
PR970_004_00_BL1
  6
Continuous
 62
     7
100
AcDbLine
 10
414.0215508392
 20
235.0343757756
 30
0.0
 11
413.9508404555
 21
234.9935513602
 31
0.0
  0
LINE
  5
378
330
211
100
AcDbEntity
  8
PR970_004_00_BL1
  6
Continuous
 62
     7
100
AcDbLine
 10
441.0699862294999
 20
242.1984971446
 30
0.0
 11
441.2338558761
 21
241.6956483458
 31
0.0
  0
LINE
  5
379
330
211
100
AcDbEntity
  8
PR970_004_00_BL1
  6
Continuous
 62
     7
100
AcDbLine
 10
444.4622877888
 20
231.7889136761
 30
0.0
 11
446.3794781374
 21
225.9058420772
 31
0.0
  0
SPLINE
  5
37A
330
211
100
AcDbEntity
  8
PR970_004_00_BL1
  6
Continuous
 62
     7
100
AcDbSpline
210
0.0
220
0.0
230
1.0
 70
     8
 71
     3
 72
     9
 73
     5
 74
     0
 42
0.0000000001
 43
0.0000000001
 40
0.0
 40
0.0
 40
0.0
 40
0.0
 40
0.2351846373
 40
1.0
 40
1.0
 40
1.0
 40
1.0
 10
414.0543324751
 20
235.3253414766
 30
0.0
 10
414.0506792208999
 20
235.3183494556
 30
0.0
 10
414.0366840627999
 20
235.2878163482
 30
0.0
 10
414.0287025923
 20
235.2547327623
 30
0.0
 10
414.0252445157
 20
235.229312387
 30
0.0
  0
SPLINE
  5
37B
330
211
100
AcDbEntity
  8
PR970_004_00_BL1
  6
Continuous
 62
     7
100
AcDbSpline
210
0.0
220
0.0
230
1.0
 70
     8
 71
     3
 72
     8
 73
     4
 74
     0
 42
0.0000000001
 43
0.0000000001
 40
0.0
 40
0.0
 40
0.0
 40
0.0
 40
1.0
 40
1.0
 40
1.0
 40
1.0
 10
414.0252445157
 20
235.229312387
 30
0.0
 10
414.0226903591
 20
235.2105367417
 30
0.0
 10
414.0215508392
 20
235.1915353622
 30
0.0
 10
414.0215508392
 20
235.1725867851
 30
0.0
  0
LINE
  5
37C
330
211
100
AcDbEntity
  8
PR970_004_00_BL1
  6
Continuous
 62
     7
100
AcDbLine
 10
414.0215508392
 20
235.1725867851
 30
0.0
 11
414.0215508392
 21
235.0343757756
 31
0.0
  0
SPLINE
  5
37D
330
211
100
AcDbEntity
  8
PR970_004_00_BL1
  6
Continuous
 62
     7
100
AcDbSpline
210
0.0
220
0.0
230
1.0
 70
     8
 71
     3
 72
    16
 73
    12
 74
     0
 42
0.0000000001
 43
0.0000000001
 40
0.0
 40
0.0
 40
0.0
 40
0.0
 40
0.0428787394
 40
0.0875260083
 40
0.1869253741
 40
0.3042343478
 40
0.4379612797
 40
0.5823724483000001
 40
0.7295998290000001
 40
0.8712491058000001
 40
1.0
 40
1.0
 40
1.0
 40
1.0
 10
416.7146860133
 20
226.3089506817
 30
0.0
 10
416.7701541030999
 20
226.2769115906
 30
0.0
 10
416.8924066179
 20
226.2260166046
 30
0.0
 10
417.1711114987999
 20
226.1851254331
 30
0.0
 10
417.5645799348
 20
226.2618321842
 30
0.0
 10
418.0281091397
 20
226.5160230763
 30
0.0
 10
418.4736728326
 20
226.9100761522
 30
0.0
 10
418.8667070836999
 20
227.4133588234
 30
0.0
 10
419.1762421806999
 20
227.9853779859
 30
0.0
 10
419.3770858695999
 20
228.5791644773
 30
0.0
 10
419.4308951938999
 20
228.9835766857
 30
0.0
 10
419.4308951938999
 20
229.1759169643
 30
0.0
  0
LINE
  5
37E
330
211
100
AcDbEntity
  8
PR970_004_00_BL1
  6
Continuous
 62
     7
100
AcDbLine
 10
438.6996808355999
 20
220.7867731029
 30
0.0
 11
438.7350351221
 21
220.7663617579
 31
0.0
  0
LINE
  5
37F
330
211
100
AcDbEntity
  8
PR970_004_00_BL1
  6
Continuous
 62
     7
100
AcDbLine
 10
438.7350351221
 20
220.7663617579
 30
0.0
 11
438.7703912193
 21
220.7459493674
 31
0.0
  0
LINE
  5
380
330
211
100
AcDbEntity
  8
PR970_004_00_BL1
  6
Continuous
 62
     7
100
AcDbLine
 10
413.9508404555
 20
235.0751995111
 30
0.0
 11
413.986194742
 21
235.0547881661
 31
0.0
  0
LINE
  5
381
330
211
100
AcDbEntity
  8
PR970_004_00_BL1
  6
Continuous
 62
     7
100
AcDbLine
 10
413.986194742
 20
235.0547881661
 30
0.0
 11
414.0215508392
 21
235.0343757756
 31
0.0
  0
LINE
  5
382
330
211
100
AcDbEntity
  8
PR970_004_00_BL1
  6
Continuous
 62
     7
100
AcDbLine
 10
431.9821943821
 20
199.4761291262
 30
0.0
 11
431.9821943821
 21
216.9650164998
 31
0.0
  0
LINE
  5
383
330
211
100
AcDbEntity
  8
PR970_004_00_BL1
  6
Continuous
 62
     7
100
AcDbLine
 10
414.0543324751
 20
235.3253414766
 30
0.0
 11
414.0611118013
 21
235.3383165364
 31
0.0
  0
LINE
  5
384
330
211
100
AcDbEntity
  8
PR970_004_00_BL1
  6
Continuous
 62
     7
100
AcDbLine
 10
407.2661356378
 20
231.4061975994
 30
0.0
 11
412.6184939419999
 21
241.6501608725
 31
0.0
  0
LINE
  5
385
330
211
100
AcDbEntity
  8
PR970_004_00_BL1
  6
Continuous
 62
     9
100
AcDbLine
 10
414.1848593820999
 20
235.2668724536
 30
0.0
 11
414.04157128
 21
235.184145523
 31
0.0
  0
LINE
  5
386
330
211
100
AcDbEntity
  8
PR970_004_00_BL1
  6
Continuous
 62
     9
100
AcDbLine
 10
414.04157128
 20
235.184145523
 30
0.0
 11
414.0215508392
 21
235.1725867851
 31
0.0
  0
LINE
  5
387
330
211
100
AcDbEntity
  8
PR970_004_00_BL1
  6
Continuous
 62
     9
100
AcDbLine
 10
414.068959002
 20
235.3337860554
 30
0.0
 11
414.0543324751
 21
235.3253414766
 31
0.0
  0
LINE
  5
388
330
211
100
AcDbEntity
  8
PR970_004_00_BL1
  6
Continuous
 62
     9
100
AcDbLine
 10
413.9508404555
 20
235.1317623698
 30
0.0
 11
407.2333540019
 21
231.253442908
 31
0.0
  0
SPLINE
  5
389
330
211
100
AcDbEntity
  8
PR970_004_00_BL1
  6
Continuous
 62
     7
100
AcDbSpline
210
0.0
220
0.0
230
1.0
 70
     8
 71
     3
 72
     9
 73
     5
 74
     0
 42
0.0000000001
 43
0.0000000001
 40
0.0
 40
0.0
 40
0.0
 40
0.0
 40
0.2742144977
 40
1.0
 40
1.0
 40
1.0
 40
1.0
 10
407.2333540019
 20
231.253442908
 30
0.0
 10
407.2333540019
 20
231.267795156
 30
0.0
 10
407.2357092294
 20
231.3199980244
 30
0.0
 10
407.2485441867
 20
231.3725290428
 30
0.0
 10
407.2661356378
 20
231.4061975994
 30
0.0
  0
LINE
  5
38A
330
211
100
AcDbEntity
  8
PR970_004_00_BL1
  6
Continuous
 62
     9
100
AcDbLine
 10
413.9836220912999
 20
235.2845170612
 30
0.0
 11
407.2661356378
 21
231.4061975994
 31
0.0
  0
LINE
  5
38B
330
211
100
AcDbEntity
  8
PR970_004_00_BL1
  6
Continuous
 62
     7
100
AcDbLine
 10
446.4071126612999
 20
225.2366343801
 30
0.0
 11
446.4424669477999
 21
225.2162230351
 31
0.0
  0
LINE
  5
38C
330
211
100
AcDbEntity
  8
PR970_004_00_BL1
  6
Continuous
 62
     7
100
AcDbLine
 10
446.4424669477999
 20
225.2162230351
 30
0.0
 11
446.477823045
 21
225.1958106446
 31
0.0
  0
LINE
  5
38D
330
211
100
AcDbEntity
  8
PR970_004_00_BL1
  6
Continuous
 62
     9
100
AcDbLine
 10
412.7834527909
 20
241.7453993398
 30
0.0
 11
412.7044592329999
 21
241.6997926602
 31
0.0
  0
LINE
  5
38E
330
211
100
AcDbEntity
  8
PR970_004_00_BL1
  6
Continuous
 62
     9
100
AcDbLine
 10
412.7044592329999
 20
241.6997926602
 30
0.0
 11
412.6184939419999
 21
241.6501608725
 31
0.0
  0
SPLINE
  5
38F
330
211
100
AcDbEntity
  8
PR970_004_00_BL1
  6
Continuous
 62
     7
100
AcDbSpline
210
0.0
220
0.0
230
1.0
 70
     8
 71
     3
 72
     9
 73
     5
 74
     0
 42
0.0000000001
 43
0.0000000001
 40
0.0
 40
0.0
 40
0.0
 40
0.0
 40
0.2627688437
 40
1.0
 40
1.0
 40
1.0
 40
1.0
 10
412.6184939419999
 20
241.6501608725
 30
0.0
 10
412.6227379381999
 20
241.658283524
 30
0.0
 10
412.6406750484999
 20
241.6881940334
 30
0.0
 10
412.6669212880999
 20
241.7133858391
 30
0.0
 10
412.6891838149999
 20
241.7262506091
 30
0.0
  0
SPLINE
  5
390
330
211
100
AcDbEntity
  8
PR970_004_00_BL1
  6
Continuous
 62
     7
100
AcDbSpline
210
0.0
220
0.0
230
1.0
 70
     8
 71
     3
 72
     9
 73
     5
 74
     0
 42
0.0000000001
 43
0.0000000001
 40
0.0
 40
0.0
 40
0.0
 40
0.0
 40
0.2344697815
 40
1.0
 40
1.0
 40
1.0
 40
1.0
 10
446.477823045
 20
225.3340216541
 30
0.0
 10
446.477823045
 20
225.3794771009
 30
0.0
 10
446.4684621383999
 20
225.5733224852
 30
0.0
 10
446.4254620344999
 20
225.7647363391
 30
0.0
 10
446.3794781374
 20
225.9058420772
 30
0.0
  0
LINE
  5
391
330
211
100
AcDbEntity
  8
PR970_004_00_BL1
  6
Continuous
 62
     7
100
AcDbLine
 10
433.2918440201999
 20
238.5243138691
 30
0.0
 11
441.0699862294999
 21
243.0149995617
 31
0.0
  0
LINE
  5
392
330
211
100
AcDbEntity
  8
PR970_004_00_BL1
  6
Continuous
 62
     7
100
AcDbLine
 10
433.2918440201999
 20
237.707811452
 30
0.0
 11
433.2918440201999
 21
238.5243138691
 31
0.0
  0
LINE
  5
393
330
211
100
AcDbEntity
  8
PR970_004_00_BL1
  6
Continuous
 62
     9
100
AcDbLine
 10
446.477823045
 20
225.3340216541
 30
0.0
 11
453.1953094984999
 21
229.2123411159
 31
0.0
  0
LINE
  5
394
330
211
100
AcDbEntity
  8
PR970_004_00_BL1
  6
Continuous
 62
     7
100
AcDbLine
 10
407.2333540019
 20
213.7645555345
 30
0.0
 11
407.2333540019
 21
231.253442908
 31
0.0
  0
SPLINE
  5
395
330
211
100
AcDbEntity
  8
PR970_004_00_BL1
  6
Continuous
 62
     7
100
AcDbSpline
210
0.0
220
0.0
230
1.0
 70
     8
 71
     3
 72
    13
 73
     9
 74
     0
 42
0.0000000001
 43
0.0000000001
 40
0.0
 40
0.0
 40
0.0
 40
0.0
 40
0.0892714916
 40
0.1930228066
 40
0.3136390821
 40
0.448514423
 40
0.7358562443000001
 40
1.0
 40
1.0
 40
1.0
 40
1.0
 10
408.0901914583
 20
212.7873118759
 30
0.0
 10
408.0495079884999
 20
212.774097217
 30
0.0
 10
407.9538546543999
 20
212.7680396125
 30
0.0
 10
407.8086234557
 20
212.8144764595
 30
0.0
 10
407.6622933041
 20
212.907913838
 30
0.0
 10
407.4745468234
 20
213.0899095822
 30
0.0
 10
407.299752454
 20
213.3743703039
 30
0.0
 10
407.2333540019
 20
213.6379869169
 30
0.0
 10
407.2333540019
 20
213.7645555345
 30
0.0
  0
LINE
  5
396
330
211
100
AcDbEntity
  8
PR970_004_00_BL1
  6
Continuous
 62
     7
100
AcDbLine
 10
418.6515675457999
 20
246.9766902143
 30
0.0
 11
419.6567536223
 21
246.3963588913
 31
0.0
  0
SPLINE
  5
397
330
211
100
AcDbEntity
  8
PR970_004_00_BL1
  6
Continuous
 62
     7
100
AcDbSpline
210
0.0
220
0.0
230
1.0
 70
     8
 71
     3
 72
    10
 73
     6
 74
     0
 42
0.0000000001
 43
0.0000000001
 40
0.0
 40
0.0
 40
0.0
 40
0.0
 40
0.2290480434
 40
0.4806841766
 40
1.0
 40
1.0
 40
1.0
 40
1.0
 10
432.2866579437
 20
239.1046451921
 30
0.0
 10
432.3935938515
 20
239.0429071137
 30
0.0
 10
432.6017340391
 20
238.8842709712
 30
0.0
 10
432.962497871
 20
238.4817077717
 30
0.0
 10
433.1622335476
 20
238.1055328836
 30
0.0
 10
433.2489776237999
 20
237.8393508577
 30
0.0
  0
LINE
  5
398
330
211
100
AcDbEntity
  8
PR970_004_00_BL1
  6
Continuous
 62
     7
100
AcDbLine
 10
432.2866579437
 20
239.1046451921
 30
0.0
 11
433.2918440201999
 21
238.5243138691
 31
0.0
  0
LINE
  5
399
330
211
100
AcDbEntity
  8
PR970_004_00_BL1
  6
Continuous
 62
     7
100
AcDbLine
 10
408.5205102638999
 20
212.9270864889
 30
0.0
 11
408.0901914583
 21
212.7873118759
 31
0.0
  0
LINE
  5
39A
330
211
100
AcDbEntity
  8
PR970_004_00_BL1
  6
Continuous
 62
     7
100
AcDbLine
 10
410.1236948241
 20
213.610735129
 30
0.0
 11
408.5205102638999
 21
212.9270864889
 31
0.0
  0
LINE
  5
39B
330
211
100
AcDbEntity
  8
PR970_004_00_BL1
  6
Continuous
 62
     7
100
AcDbLine
 10
410.1236948241
 20
213.610735129
 30
0.0
 11
410.5590350406999
 21
212.7159843387
 31
0.0
  0
LINE
  5
39C
330
211
100
AcDbEntity
  8
PR970_004_00_BL1
  6
Continuous
 62
     9
100
AcDbLine
 10
446.3794781374
 20
225.9058420772
 30
0.0
 11
453.0969645908999
 21
229.784161539
 31
0.0
  0
LINE
  5
39D
330
211
100
AcDbEntity
  8
PR970_004_00_BL1
  6
CENTER
 62
     7
100
AcDbLine
 10
371.7308568877
 20
223.1378875795
 30
0.0
 11
378.9808568877
 21
223.1378875795
 31
0.0
  0
LINE
  5
39E
330
211
100
AcDbEntity
  8
PR970_004_00_BL1
  6
CENTER
 62
     7
100
AcDbLine
 10
371.7308568877
 20
223.1378875795
 30
0.0
 11
364.4808568877
 21
223.1378875795
 31
0.0
  0
LINE
  5
39F
330
211
100
AcDbEntity
  8
PR970_004_00_BL1
  6
CENTER
 62
     7
100
AcDbLine
 10
371.7308568877
 20
223.1378875795
 30
0.0
 11
371.7308568877
 21
230.3878875795
 31
0.0
  0
LINE
  5
3A0
330
211
100
AcDbEntity
  8
PR970_004_00_BL1
  6
CENTER
 62
     7
100
AcDbLine
 10
371.7308568877
 20
223.1378875795
 30
0.0
 11
371.7308568877
 21
215.8878875795
 31
0.0
  0
ENDBLK
  5
3A1
330
211
100
AcDbEntity
  8
0
  6
ByBlock
 62
     0
100
AcDbBlockEnd
  0
BLOCK
  5
5D2
330
5D1
100
AcDbEntity
  8
0
100
AcDbBlockBegin
  2
TC-9_040_001_VA
 70
     0
 10
0.0
 20
0.0
 30
0.0
  3
TC-9_040_001_VA
  1

  0
LINE
  5
5D4
330
5D1
100
AcDbEntity
  8
STD_ACHSEN
  6
CENTER
 62
     7
100
AcDbLine
 10
0.0
 20
4.999999999999971
 30
0.0
 11
0.0
 21
-46.0025935559
 31
0.0
  0
LINE
  5
5D5
330
5D1
100
AcDbEntity
  8
PR980_128_00_BL0
  6
Continuous
 62
     7
100
AcDbLine
 10
-17.5
 20
-9.0
 30
0.0
 11
-14.06022201349998
 21
-9.0
 31
0.0
  0
LINE
  5
5D6
330
5D1
100
AcDbEntity
  8
PR980_128_00_BL0
  6
Continuous
 62
     7
100
AcDbLine
 10
-12.95802634019998
 20
-9.0
 30
0.0
 11
-9.0
 21
-9.0
 31
0.0
  0
LINE
  5
5D7
330
5D1
100
AcDbEntity
  8
PR980_128_00_BL0
  6
Continuous
 62
     7
100
AcDbLine
 10
-9.0
 20
-9.0
 30
0.0
 11
9.0
 21
-9.0
 31
0.0
  0
LINE
  5
5D8
330
5D1
100
AcDbEntity
  8
PR980_128_00_BL0
  6
Continuous
 62
     7
100
AcDbLine
 10
9.0
 20
-9.0
 30
0.0
 11
12.95802634019998
 21
-9.0
 31
0.0
  0
LINE
  5
5D9
330
5D1
100
AcDbEntity
  8
PR980_128_00_BL0
  6
Continuous
 62
     7
100
AcDbLine
 10
14.06022201350004
 20
-9.0
 30
0.0
 11
17.5
 21
-9.0
 31
0.0
  0
LINE
  5
5DA
330
5D1
100
AcDbEntity
  8
PR980_128_00_BL0
  6
Continuous
 62
     7
100
AcDbLine
 10
17.5
 20
-9.0
 30
0.0
 11
17.5
 21
-1.0
 31
0.0
  0
LINE
  5
5DB
330
5D1
100
AcDbEntity
  8
PR980_128_00_BL0
  6
Continuous
 62
     7
100
AcDbLine
 10
9.0
 20
-9.0
 30
0.0
 11
9.0
 21
-1.009928251399998
 31
0.0
  0
LINE
  5
5DC
330
5D1
100
AcDbEntity
  8
PR980_128_00_BL0
  6
Continuous
 62
     7
100
AcDbLine
 10
-9.0
 20
-9.0
 30
0.0
 11
-9.0
 21
-1.009928251399998
 31
0.0
  0
LINE
  5
5DD
330
5D1
100
AcDbEntity
  8
PR980_128_00_BL0
  6
Continuous
 62
     7
100
AcDbLine
 10
-17.5
 20
-9.0
 30
0.0
 11
-17.5
 21
-1.0
 31
0.0
  0
LINE
  5
5DE
330
5D1
100
AcDbEntity
  8
PR980_128_00_BL0
  6
Continuous
 62
     7
100
AcDbLine
 10
-17.5
 20
-1.0
 30
0.0
 11
-10.3521956733
 21
-1.0
 31
0.0
  0
LINE
  5
5DF
330
5D1
100
AcDbEntity
  8
PR980_128_00_BL0
  6
Continuous
 62
     7
100
AcDbLine
 10
10.3521956733
 20
-1.0
 30
0.0
 11
17.5
 21
-1.0
 31
0.0
  0
ARC
  5
5E0
330
5D1
100
AcDbEntity
  8
PR970_004_00_BL1
  6
Continuous
 62
     7
100
AcDbCircle
 10
16.5
 20
-17.83072798490002
 30
0.0
 40
1.5
100
AcDbArc
 50
0.0
 51
24.86787814509928
  0
ARC
  5
5E1
330
5D1
100
AcDbEntity
  8
PR970_004_00_BL1
  6
Continuous
 62
     7
100
AcDbCircle
 10
-16.5
 20
-17.83072798490002
 30
0.0
 40
1.5
100
AcDbArc
 50
155.1321218549007
 51
180.0
  0
LINE
  5
5E2
330
5D1
100
AcDbEntity
  8
PR970_004_00_BL1
  6
Continuous
 62
     7
100
AcDbLine
 10
15.78825389350004
 20
-39.84100806520002
 30
0.0
 11
15.20621012949999
 21
-39.33504514030003
 31
0.0
  0
LINE
  5
5E3
330
5D1
100
AcDbEntity
  8
PR970_004_00_BL1
  6
Continuous
 62
     7
100
AcDbLine
 10
15.20621012949999
 20
-39.33504514030003
 30
0.0
 11
12.93737559370004
 21
-37.36277736810001
 31
0.0
  0
LINE
  5
5E4
330
5D1
100
AcDbEntity
  8
PR970_004_00_BL1
  6
Continuous
 62
     7
100
AcDbLine
 10
10.3521956733
 20
-1.0
 30
0.0
 11
10.3521956733
 21
-0.8692091561999859
 31
0.0
  0
LINE
  5
5E5
330
5D1
100
AcDbEntity
  8
PR970_004_00_BL1
  6
Continuous
 62
     7
100
AcDbLine
 10
10.3521956733
 20
-0.8692091561999859
 30
0.0
 11
10.3521956733
 21
0.0
 31
0.0
  0
LINE
  5
5E6
330
5D1
100
AcDbEntity
  8
PR970_004_00_BL1
  6
Continuous
 62
     7
100
AcDbLine
 10
-10.3521956733
 20
0.0
 30
0.0
 11
-8.930653809600016
 21
0.0
 31
0.0
  0
LINE
  5
5E7
330
5D1
100
AcDbEntity
  8
PR970_004_00_BL1
  6
Continuous
 62
     7
100
AcDbLine
 10
8.930653809600016
 20
0.0
 30
0.0
 11
10.3521956733
 21
0.0
 31
0.0
  0
LINE
  5
5E8
330
5D1
100
AcDbEntity
  8
PR970_004_00_BL1
  6
Continuous
 62
     7
100
AcDbLine
 10
-10.3521956733
 20
0.0
 30
0.0
 11
-10.3521956733
 21
-0.8692091561999859
 31
0.0
  0
LINE
  5
5E9
330
5D1
100
AcDbEntity
  8
PR970_004_00_BL1
  6
Continuous
 62
     7
100
AcDbLine
 10
-10.3521956733
 20
-0.8692091561999859
 30
0.0
 11
-10.3521956733
 21
-1.0
 31
0.0
  0
ARC
  5
5EA
330
5D1
100
AcDbEntity
  8
PR970_004_00_BL1
  6
Continuous
 62
     7
100
AcDbCircle
 10
-8.930653809600016
 20
-1.5
 30
0.0
 40
1.5
100
AcDbArc
 50
90.0
 51
155.1321218549007
  0
LINE
  5
5EB
330
5D1
100
AcDbEntity
  8
PR970_004_00_BL1
  6
Continuous
 62
     7
100
AcDbLine
 10
8.930653809600016
 20
0.0
 30
0.0
 11
-8.930653809600016
 21
0.0
 31
0.0
  0
ARC
  5
5EC
330
5D1
100
AcDbEntity
  8
PR970_004_00_BL1
  6
Continuous
 62
     7
100
AcDbCircle
 10
8.930653809600016
 20
-1.5
 30
0.0
 40
1.5
100
AcDbArc
 50
24.86787814509928
 51
90.0
  0
LINE
  5
5ED
330
5D1
100
AcDbEntity
  8
PR970_004_00_BL1
  6
Continuous
 62
     7
100
AcDbLine
 10
17.86091987690002
 20
-17.19993714100002
 30
0.0
 11
10.29157368649999
 21
-0.8692091561999859
 31
0.0
  0
LINE
  5
5EE
330
5D1
100
AcDbEntity
  8
PR970_004_00_BL1
  6
Continuous
 62
     7
100
AcDbLine
 10
18.0
 20
-39.25
 30
0.0
 11
18.0
 21
-17.83072798490002
 31
0.0
  0
ARC
  5
5EF
330
5D1
100
AcDbEntity
  8
PR970_004_00_BL1
  6
Continuous
 62
     7
100
AcDbCircle
 10
16.25
 20
-39.25
 30
0.0
 40
1.75
100
AcDbArc
 50
231.9999999999992
 51
0.0
  0
LINE
  5
5F0
330
5D1
100
AcDbEntity
  8
PR970_004_00_BL1
  6
Continuous
 62
     7
100
AcDbLine
 10
12.29679635210004
 20
-38.18268140810003
 30
0.0
 11
12.91245782750002
 21
-37.3946706545
 31
0.0
  0
LINE
  5
5F1
330
5D1
100
AcDbEntity
  8
PR970_004_00_BL1
  6
Continuous
 62
     7
100
AcDbLine
 10
15.17969373620002
 20
-39.36554876139999
 30
0.0
 11
12.91245782750002
 21
-37.3946706545
 31
0.0
  0
LINE
  5
5F2
330
5D1
100
AcDbEntity
  8
PR970_004_00_BL1
  6
Continuous
 62
     7
100
AcDbLine
 10
15.78825389350004
 20
-39.84100806520002
 30
0.0
 11
15.17969373620002
 21
-39.36554876139999
 31
0.0
  0
ARC
  5
5F3
330
5D1
100
AcDbEntity
  8
PR970_004_00_BL1
  6
Continuous
 62
     7
100
AcDbCircle
 10
16.25
 20
-39.25
 30
0.0
 40
0.75
100
AcDbArc
 50
231.9999999999992
 51
0.0
  0
LINE
  5
5F4
330
5D1
100
AcDbEntity
  8
PR970_004_00_BL1
  6
Continuous
 62
     7
100
AcDbLine
 10
17.0
 20
-17.83072798490002
 30
0.0
 11
17.0
 21
-39.25
 31
0.0
  0
LINE
  5
5F5
330
5D1
100
AcDbEntity
  8
PR970_004_00_BL1
  6
Continuous
 62
     7
100
AcDbLine
 10
9.384293768600002
 20
-1.289736385400004
 30
0.0
 11
16.95363995899998
 21
-17.62046437030003
 31
0.0
  0
LINE
  5
5F6
330
5D1
100
AcDbEntity
  8
PR970_004_00_BL1
  6
Continuous
 62
     7
100
AcDbLine
 10
-8.930653809600016
 20
-1.0
 30
0.0
 11
8.930653809600016
 21
-1.0
 31
0.0
  0
LINE
  5
5F7
330
5D1
100
AcDbEntity
  8
PR970_004_00_BL1
  6
Continuous
 62
     7
100
AcDbLine
 10
-16.95363995899998
 20
-17.62046437030003
 30
0.0
 11
-9.384293768599945
 21
-1.289736385400004
 31
0.0
  0
LINE
  5
5F8
330
5D1
100
AcDbEntity
  8
PR970_004_00_BL1
  6
Continuous
 62
     7
100
AcDbLine
 10
-17.0
 20
-39.25
 30
0.0
 11
-17.0
 21
-17.83072798490002
 31
0.0
  0
ARC
  5
5F9
330
5D1
100
AcDbEntity
  8
PR970_004_00_BL1
  6
Continuous
 62
     7
100
AcDbCircle
 10
-16.25
 20
-39.25
 30
0.0
 40
0.75
100
AcDbArc
 50
180.0
 51
308.0000000000008
  0
LINE
  5
5FA
330
5D1
100
AcDbEntity
  8
PR970_004_00_BL1
  6
Continuous
 62
     7
100
AcDbLine
 10
-15.17969373609998
 20
-39.36554876139999
 30
0.0
 11
-15.78825389349998
 21
-39.84100806520002
 31
0.0
  0
LINE
  5
5FB
330
5D1
100
AcDbEntity
  8
PR970_004_00_BL1
  6
Continuous
 62
     7
100
AcDbLine
 10
-12.91245782739997
 20
-37.3946706545
 30
0.0
 11
-15.17969373609998
 21
-39.36554876139999
 31
0.0
  0
LINE
  5
5FC
330
5D1
100
AcDbEntity
  8
PR970_004_00_BL1
  6
Continuous
 62
     7
100
AcDbLine
 10
-12.91245782739997
 20
-37.3946706545
 30
0.0
 11
-12.29679635209999
 21
-38.18268140810003
 31
0.0
  0
ARC
  5
5FD
330
5D1
100
AcDbEntity
  8
PR970_004_00_BL1
  6
Continuous
 62
     7
100
AcDbCircle
 10
-16.25
 20
-39.25
 30
0.0
 40
1.75
100
AcDbArc
 50
180.0
 51
308.0000000000008
  0
LINE
  5
5FE
330
5D1
100
AcDbEntity
  8
PR970_004_00_BL1
  6
Continuous
 62
     7
100
AcDbLine
 10
-18.0
 20
-17.83072798490002
 30
0.0
 11
-18.0
 21
-39.25
 31
0.0
  0
LINE
  5
5FF
330
5D1
100
AcDbEntity
  8
PR970_004_00_BL1
  6
Continuous
 62
     7
100
AcDbLine
 10
-10.29157368649999
 20
-0.8692091561999859
 30
0.0
 11
-17.86091987689997
 21
-17.19993714100002
 31
0.0
  0
ARC
  5
600
330
5D1
100
AcDbEntity
  8
PR970_004_00_BL1
  6
Continuous
 62
     7
100
AcDbCircle
 10
16.5
 20
-17.83072798490002
 30
0.0
 40
0.5
100
AcDbArc
 50
0.0
 51
24.86787814509928
  0
ARC
  5
601
330
5D1
100
AcDbEntity
  8
PR970_004_00_BL1
  6
Continuous
 62
     7
100
AcDbCircle
 10
8.930653809600016
 20
-1.5
 30
0.0
 40
0.5
100
AcDbArc
 50
24.86787814509928
 51
90.0
  0
ARC
  5
602
330
5D1
100
AcDbEntity
  8
PR970_004_00_BL1
  6
Continuous
 62
     7
100
AcDbCircle
 10
-8.930653809600016
 20
-1.5
 30
0.0
 40
0.5
100
AcDbArc
 50
90.0
 51
155.1321218549007
  0
ARC
  5
603
330
5D1
100
AcDbEntity
  8
PR970_004_00_BL1
  6
Continuous
 62
     7
100
AcDbCircle
 10
-16.5
 20
-17.83072798490002
 30
0.0
 40
0.5
100
AcDbArc
 50
155.1321218549007
 51
180.0
  0
LINE
  5
604
330
5D1
100
AcDbEntity
  8
PR970_004_00_BL1
  6
Continuous
 62
     7
100
AcDbLine
 10
-15.17259241819999
 20
-40.62901881880001
 30
0.0
 11
-12.19999999999999
 21
-38.30657508900003
 31
0.0
  0
LINE
  5
605
330
5D1
100
AcDbEntity
  8
PR970_004_00_BL1
  6
Continuous
 62
     7
100
AcDbLine
 10
-12.29679635209999
 20
-38.18268140810003
 30
0.0
 11
-12.19999999999999
 21
-38.30657508900003
 31
0.0
  0
LINE
  5
606
330
5D1
100
AcDbEntity
  8
PR970_004_00_BL1
  6
Continuous
 62
     7
100
AcDbLine
 10
12.19999999999999
 20
-38.30657508900003
 30
0.0
 11
15.17259241819999
 21
-40.62901881880001
 31
0.0
  0
LINE
  5
607
330
5D1
100
AcDbEntity
  8
PR970_004_00_BL1
  6
Continuous
 62
     7
100
AcDbLine
 10
12.91245782750002
 20
-37.3946706545
 30
0.0
 11
12.93737559370004
 21
-37.36277736810001
 31
0.0
  0
LINE
  5
608
330
5D1
100
AcDbEntity
  8
PR970_004_00_BL1
  6
Continuous
 62
     7
100
AcDbLine
 10
12.29679635210004
 20
-38.18268140810003
 30
0.0
 11
12.19999999999999
 21
-38.30657508900003
 31
0.0
  0
LINE
  5
609
330
5D1
100
AcDbEntity
  8
PR970_004_00_BL1
  6
Continuous
 62
     7
100
AcDbLine
 10
12.29679635210004
 20
-38.18268140810003
 30
0.0
 11
15.17259241819999
 21
-40.62901881880001
 31
0.0
  0
LINE
  5
60A
330
5D1
100
AcDbEntity
  8
PR970_004_00_BL1
  6
Continuous
 62
     7
100
AcDbLine
 10
-15.17259241819999
 20
-40.62901881880001
 30
0.0
 11
-12.29679635209999
 21
-38.18268140810003
 31
0.0
  0
ENDBLK
  5
5D3
330
5D1
100
AcDbEntity
  8
0
100
AcDbBlockEnd
  0
BLOCK
  5
60D
330
60C
100
AcDbEntity
  8
0
100
AcDbBlockBegin
  2
TC-9_040_001_DS
 70
     0
 10
0.0
 20
0.0
 30
0.0
  3
TC-9_040_001_DS
  1

  0
LINE
  5
60F
330
60C
100
AcDbEntity
  8
STD_ACHSEN
  6
CENTER
 62
     7
100
AcDbLine
 10
0.0
 20
0.0
 30
0.0
 11
26.68714179600005
 21
0.0
 31
0.0
  0
LINE
  5
610
330
60C
100
AcDbEntity
  8
STD_ACHSEN
  6
CENTER
 62
     7
100
AcDbLine
 10
0.0
 20
0.0
 30
0.0
 11
-26.68714179590001
 21
0.0
 31
0.0
  0
LINE
  5
611
330
60C
100
AcDbEntity
  8
STD_ACHSEN
  6
CENTER
 62
     7
100
AcDbLine
 10
0.0
 20
0.0
 30
0.0
 11
0.0
 21
26.68714179599999
 31
0.0
  0
LINE
  5
612
330
60C
100
AcDbEntity
  8
STD_ACHSEN
  6
CENTER
 62
     7
100
AcDbLine
 10
0.0
 20
0.0
 30
0.0
 11
0.0
 21
-26.68714179590003
 31
0.0
  0
ARC
  5
613
330
60C
100
AcDbEntity
  8
PR980_128_00_BL0
  6
Continuous
 62
     2
100
AcDbCircle
 10
0.0
 20
0.0
 30
0.0
 40
5.0
100
AcDbArc
 50
0.0
 51
180.0
  0
ARC
  5
614
330
60C
100
AcDbEntity
  8
PR980_128_00_BL0
  6
Continuous
 62
     2
100
AcDbCircle
 10
0.0
 20
0.0
 30
0.0
 40
5.0
100
AcDbArc
 50
254.9999999999988
 51
0.0
  0
ARC
  5
615
330
60C
100
AcDbEntity
  8
PR980_128_00_BL0
  6
Continuous
 62
     2
100
AcDbCircle
 10
0.0
 20
0.0
 30
0.0
 40
5.0
100
AcDbArc
 50
180.0
 51
194.9999999999992
  0
ARC
  5
616
330
60C
100
AcDbEntity
  8
PR980_128_00_BL0
  6
Continuous
 62
     7
100
AcDbCircle
 10
0.0
 20
0.0
 30
0.0
 40
4.2
100
AcDbArc
 50
180.0
 51
0.0
  0
ARC
  5
617
330
60C
100
AcDbEntity
  8
PR980_128_00_BL0
  6
Continuous
 62
     7
100
AcDbCircle
 10
0.0
 20
0.0
 30
0.0
 40
4.2
100
AcDbArc
 50
0.0
 51
180.0
  0
LINE
  5
618
330
60C
100
AcDbEntity
  8
PR980_128_00_BL0
  6
Continuous
 62
     7
100
AcDbLine
 10
-10.3521956733
 20
5.0
 30
0.0
 11
-17.5
 21
5.0
 31
0.0
  0
LINE
  5
619
330
60C
100
AcDbEntity
  8
PR980_128_00_BL0
  6
Continuous
 62
     7
100
AcDbLine
 10
-17.5
 20
5.0
 30
0.0
 11
-17.5
 21
-5.0
 31
0.0
  0
LINE
  5
61A
330
60C
100
AcDbEntity
  8
PR980_128_00_BL0
  6
Continuous
 62
     7
100
AcDbLine
 10
-17.5
 20
-5.0
 30
0.0
 11
-10.3521956733
 21
-5.0
 31
0.0
  0
LINE
  5
61B
330
60C
100
AcDbEntity
  8
PR980_128_00_BL0
  6
Continuous
 62
     7
100
AcDbLine
 10
17.5
 20
5.0
 30
0.0
 11
10.3521956733
 21
5.0
 31
0.0
  0
LINE
  5
61C
330
60C
100
AcDbEntity
  8
PR980_128_00_BL0
  6
Continuous
 62
     7
100
AcDbLine
 10
17.5
 20
-5.0
 30
0.0
 11
17.5
 21
5.0
 31
0.0
  0
LINE
  5
61D
330
60C
100
AcDbEntity
  8
PR980_128_00_BL0
  6
Continuous
 62
     7
100
AcDbLine
 10
10.3521956733
 20
-5.0
 30
0.0
 11
17.5
 21
-5.0
 31
0.0
  0
LINE
  5
61E
330
60C
100
AcDbEntity
  8
PR970_004_00_BL1
  6
Continuous
 62
     7
100
AcDbLine
 10
8.930653809600016
 20
15.0
 30
0.0
 11
10.29157368649999
 21
15.0
 31
0.0
  0
LINE
  5
61F
330
60C
100
AcDbEntity
  8
PR970_004_00_BL1
  6
Continuous
 62
     7
100
AcDbLine
 10
8.930653809600016
 20
15.0
 30
0.0
 11
-8.930653809600016
 21
15.0
 31
0.0
  0
LINE
  5
620
330
60C
100
AcDbEntity
  8
PR970_004_00_BL1
  6
Continuous
 62
     7
100
AcDbLine
 10
-10.29157368649999
 20
15.0
 30
0.0
 11
-8.930653809600016
 21
15.0
 31
0.0
  0
LINE
  5
621
330
60C
100
AcDbEntity
  8
PR970_004_00_BL1
  6
Continuous
 62
     7
100
AcDbLine
 10
-10.29157368649999
 20
15.0
 30
0.0
 11
-17.86091987689997
 21
15.0
 31
0.0
  0
LINE
  5
622
330
60C
100
AcDbEntity
  8
PR970_004_00_BL1
  6
Continuous
 62
     7
100
AcDbLine
 10
18.0
 20
5.5
 30
0.0
 11
17.86091987690002
 21
5.5
 31
0.0
  0
LINE
  5
623
330
60C
100
AcDbEntity
  8
PR970_004_00_BL1
  6
Continuous
 62
     7
100
AcDbLine
 10
18.0
 20
5.5
 30
0.0
 11
18.0
 21
15.0
 31
0.0
  0
LINE
  5
624
330
60C
100
AcDbEntity
  8
PR970_004_00_BL1
  6
Continuous
 62
     7
100
AcDbLine
 10
17.86091987690002
 20
15.0
 30
0.0
 11
18.0
 21
15.0
 31
0.0
  0
LINE
  5
625
330
60C
100
AcDbEntity
  8
PR970_004_00_BL1
  6
Continuous
 62
     7
100
AcDbLine
 10
18.0
 20
-5.400000000000005
 30
0.0
 11
17.86091987690002
 21
-5.400000000000005
 31
0.0
  0
LINE
  5
626
330
60C
100
AcDbEntity
  8
PR970_004_00_BL1
  6
Continuous
 62
     7
100
AcDbLine
 10
18.0
 20
-5.400000000000005
 30
0.0
 11
18.0
 21
5.400000000000005
 31
0.0
  0
LINE
  5
627
330
60C
100
AcDbEntity
  8
PR970_004_00_BL1
  6
Continuous
 62
     7
100
AcDbLine
 10
17.86091987690002
 20
5.400000000000005
 30
0.0
 11
18.0
 21
5.400000000000005
 31
0.0
  0
LINE
  5
628
330
60C
100
AcDbEntity
  8
PR970_004_00_BL1
  6
Continuous
 62
     7
100
AcDbLine
 10
17.86091987690002
 20
15.0
 30
0.0
 11
10.29157368649999
 21
15.0
 31
0.0
  0
LINE
  5
629
330
60C
100
AcDbEntity
  8
PR970_004_00_BL1
  6
Continuous
 62
     7
100
AcDbLine
 10
-8.930653809600016
 20
-15.00000000000003
 30
0.0
 11
-10.29157368649999
 21
-15.00000000000003
 31
0.0
  0
LINE
  5
62A
330
60C
100
AcDbEntity
  8
PR970_004_00_BL1
  6
Continuous
 62
     7
100
AcDbLine
 10
8.930653809600016
 20
-15.00000000000003
 30
0.0
 11
-8.930653809600016
 21
-15.00000000000003
 31
0.0
  0
LINE
  5
62B
330
60C
100
AcDbEntity
  8
PR970_004_00_BL1
  6
Continuous
 62
     7
100
AcDbLine
 10
10.29157368649999
 20
-15.00000000000003
 30
0.0
 11
8.930653809600016
 21
-15.00000000000003
 31
0.0
  0
LINE
  5
62C
330
60C
100
AcDbEntity
  8
PR970_004_00_BL1
  6
Continuous
 62
     7
100
AcDbLine
 10
17.86091987690002
 20
-15.00000000000003
 30
0.0
 11
10.29157368649999
 21
-15.00000000000003
 31
0.0
  0
LINE
  5
62D
330
60C
100
AcDbEntity
  8
PR970_004_00_BL1
  6
Continuous
 62
     7
100
AcDbLine
 10
18.0
 20
-15.00000000000003
 30
0.0
 11
17.86091987690002
 21
-15.00000000000003
 31
0.0
  0
LINE
  5
62E
330
60C
100
AcDbEntity
  8
PR970_004_00_BL1
  6
Continuous
 62
     7
100
AcDbLine
 10
18.0
 20
-15.00000000000003
 30
0.0
 11
18.0
 21
-5.5
 31
0.0
  0
LINE
  5
62F
330
60C
100
AcDbEntity
  8
PR970_004_00_BL1
  6
Continuous
 62
     7
100
AcDbLine
 10
17.86091987690002
 20
-5.5
 30
0.0
 11
18.0
 21
-5.5
 31
0.0
  0
LINE
  5
630
330
60C
100
AcDbEntity
  8
PR970_004_00_BL1
  6
Continuous
 62
     7
100
AcDbLine
 10
-17.86091987689997
 20
5.5
 30
0.0
 11
-18.0
 21
5.5
 31
0.0
  0
LINE
  5
631
330
60C
100
AcDbEntity
  8
PR970_004_00_BL1
  6
Continuous
 62
     7
100
AcDbLine
 10
-18.0
 20
15.0
 30
0.0
 11
-17.86091987689997
 21
15.0
 31
0.0
  0
LINE
  5
632
330
60C
100
AcDbEntity
  8
PR970_004_00_BL1
  6
Continuous
 62
     7
100
AcDbLine
 10
-18.0
 20
5.5
 30
0.0
 11
-18.0
 21
15.0
 31
0.0
  0
LINE
  5
633
330
60C
100
AcDbEntity
  8
PR970_004_00_BL1
  6
Continuous
 62
     7
100
AcDbLine
 10
-17.86091987689997
 20
-5.400000000000005
 30
0.0
 11
-18.0
 21
-5.400000000000005
 31
0.0
  0
LINE
  5
634
330
60C
100
AcDbEntity
  8
PR970_004_00_BL1
  6
Continuous
 62
     7
100
AcDbLine
 10
-18.0
 20
5.400000000000005
 30
0.0
 11
-17.86091987689997
 21
5.400000000000005
 31
0.0
  0
LINE
  5
635
330
60C
100
AcDbEntity
  8
PR970_004_00_BL1
  6
Continuous
 62
     7
100
AcDbLine
 10
-10.29157368649999
 20
-15.00000000000003
 30
0.0
 11
-17.86091987689997
 21
-15.00000000000003
 31
0.0
  0
LINE
  5
636
330
60C
100
AcDbEntity
  8
PR970_004_00_BL1
  6
Continuous
 62
     7
100
AcDbLine
 10
-17.86091987689997
 20
5.400000000000005
 30
0.0
 11
-14.52372530599996
 21
5.400000000000005
 31
0.0
  0
LINE
  5
637
330
60C
100
AcDbEntity
  8
PR970_004_00_BL1
  6
Continuous
 62
     7
100
AcDbLine
 10
-17.86091987689997
 20
-5.400000000000005
 30
0.0
 11
-14.52372530599996
 21
-5.400000000000005
 31
0.0
  0
LINE
  5
638
330
60C
100
AcDbEntity
  8
PR970_004_00_BL1
  6
Continuous
 62
     7
100
AcDbLine
 10
-18.0
 20
-5.400000000000005
 30
0.0
 11
-18.0
 21
5.400000000000005
 31
0.0
  0
LINE
  5
639
330
60C
100
AcDbEntity
  8
PR970_004_00_BL1
  6
Continuous
 62
     7
100
AcDbLine
 10
-17.86091987689997
 20
-15.00000000000003
 30
0.0
 11
-18.0
 21
-15.00000000000003
 31
0.0
  0
LINE
  5
63A
330
60C
100
AcDbEntity
  8
PR970_004_00_BL1
  6
Continuous
 62
     7
100
AcDbLine
 10
-18.0
 20
-5.5
 30
0.0
 11
-17.86091987689997
 21
-5.5
 31
0.0
  0
LINE
  5
63B
330
60C
100
AcDbEntity
  8
PR970_004_00_BL1
  6
Continuous
 62
     7
100
AcDbLine
 10
-18.0
 20
5.5
 30
0.0
 11
-18.0
 21
5.400000000000005
 31
0.0
  0
LINE
  5
63C
330
60C
100
AcDbEntity
  8
PR970_004_00_BL1
  6
Continuous
 62
     7
100
AcDbLine
 10
-18.0
 20
-15.00000000000003
 30
0.0
 11
-18.0
 21
-5.5
 31
0.0
  0
LINE
  5
63D
330
60C
100
AcDbEntity
  8
PR970_004_00_BL1
  6
Continuous
 62
     7
100
AcDbLine
 10
13.61644538810003
 20
-5.400000000000005
 30
0.0
 11
14.52372530600001
 21
-5.400000000000005
 31
0.0
  0
LINE
  5
63E
330
60C
100
AcDbEntity
  8
PR970_004_00_BL1
  6
Continuous
 62
     7
100
AcDbLine
 10
-18.0
 20
-5.400000000000005
 30
0.0
 11
-18.0
 21
-5.5
 31
0.0
  0
LINE
  5
63F
330
60C
100
AcDbEntity
  8
PR970_004_00_BL1
  6
Continuous
 62
     7
100
AcDbLine
 10
-13.61644538809997
 20
-5.400000000000005
 30
0.0
 11
-14.52372530599996
 21
-5.400000000000005
 31
0.0
  0
LINE
  5
640
330
60C
100
AcDbEntity
  8
PR970_004_00_BL1
  6
Continuous
 62
     7
100
AcDbLine
 10
13.61644538810003
 20
5.400000000000005
 30
0.0
 11
14.52372530600001
 21
5.400000000000005
 31
0.0
  0
LINE
  5
641
330
60C
100
AcDbEntity
  8
PR970_004_00_BL1
  6
Continuous
 62
     7
100
AcDbLine
 10
-13.61644538809997
 20
5.400000000000005
 30
0.0
 11
-14.52372530599996
 21
5.400000000000005
 31
0.0
  0
LINE
  5
642
330
60C
100
AcDbEntity
  8
PR970_004_00_BL1
  6
Continuous
 62
     7
100
AcDbLine
 10
10.3521956733
 20
-5.5
 30
0.0
 11
10.3521956733
 21
5.5
 31
0.0
  0
LINE
  5
643
330
60C
100
AcDbEntity
  8
PR970_004_00_BL1
  6
Continuous
 62
     7
100
AcDbLine
 10
-8.930653809600016
 20
5.5
 30
0.0
 11
-10.3521956733
 21
5.5
 31
0.0
  0
LINE
  5
644
330
60C
100
AcDbEntity
  8
PR970_004_00_BL1
  6
Continuous
 62
     7
100
AcDbLine
 10
-12.19999999999999
 20
5.5
 30
0.0
 11
-12.19999999999999
 21
5.0
 31
0.0
  0
LINE
  5
645
330
60C
100
AcDbEntity
  8
PR970_004_00_BL1
  6
Continuous
 62
     7
100
AcDbLine
 10
-12.19999999999999
 20
-5.0
 30
0.0
 11
-12.19999999999999
 21
-5.5
 31
0.0
  0
LINE
  5
646
330
60C
100
AcDbEntity
  8
PR970_004_00_BL1
  6
Continuous
 62
     7
100
AcDbLine
 10
10.3521956733
 20
5.5
 30
0.0
 11
8.930653809600016
 21
5.5
 31
0.0
  0
LINE
  5
647
330
60C
100
AcDbEntity
  8
PR970_004_00_BL1
  6
Continuous
 62
     7
100
AcDbLine
 10
-10.3521956733
 20
-5.5
 30
0.0
 11
-8.930653809600016
 21
-5.5
 31
0.0
  0
LINE
  5
648
330
60C
100
AcDbEntity
  8
PR970_004_00_BL1
  6
Continuous
 62
     7
100
AcDbLine
 10
8.930653809600016
 20
-5.5
 30
0.0
 11
10.3521956733
 21
-5.5
 31
0.0
  0
LINE
  5
649
330
60C
100
AcDbEntity
  8
PR970_004_00_BL1
  6
Continuous
 62
     7
100
AcDbLine
 10
-10.3521956733
 20
5.5
 30
0.0
 11
-10.3521956733
 21
-5.5
 31
0.0
  0
LINE
  5
64A
330
60C
100
AcDbEntity
  8
PR970_004_00_BL1
  6
Continuous
 62
     7
100
AcDbLine
 10
-17.0
 20
-5.400000000000005
 30
0.0
 11
-17.0
 21
-5.5
 31
0.0
  0
LINE
  5
64B
330
60C
100
AcDbEntity
  8
PR970_004_00_BL1
  6
Continuous
 62
     7
100
AcDbLine
 10
-17.0
 20
5.5
 30
0.0
 11
-17.0
 21
5.400000000000005
 31
0.0
  0
LINE
  5
64C
330
60C
100
AcDbEntity
  8
PR970_004_00_BL1
  6
Continuous
 62
     7
100
AcDbLine
 10
-13.61644538809997
 20
5.400000000000005
 30
0.0
 11
-13.61644538809997
 21
5.0
 31
0.0
  0
LINE
  5
64D
330
60C
100
AcDbEntity
  8
PR970_004_00_BL1
  6
Continuous
 62
     7
100
AcDbLine
 10
-13.61644538809997
 20
-5.0
 30
0.0
 11
-13.61644538809997
 21
-5.400000000000005
 31
0.0
  0
LINE
  5
64E
330
60C
100
AcDbEntity
  8
PR970_004_00_BL1
  6
Continuous
 62
     7
100
AcDbLine
 10
17.86091987690002
 20
-5.5
 30
0.0
 11
10.3521956733
 21
-5.5
 31
0.0
  0
LINE
  5
64F
330
60C
100
AcDbEntity
  8
PR970_004_00_BL1
  6
Continuous
 62
     7
100
AcDbLine
 10
-10.3521956733
 20
-5.5
 30
0.0
 11
-17.86091987689997
 21
-5.5
 31
0.0
  0
LINE
  5
650
330
60C
100
AcDbEntity
  8
PR970_004_00_BL1
  6
Continuous
 62
     7
100
AcDbLine
 10
13.61644538810003
 20
-5.400000000000005
 30
0.0
 11
13.61644538810003
 21
-5.0
 31
0.0
  0
LINE
  5
651
330
60C
100
AcDbEntity
  8
PR970_004_00_BL1
  6
Continuous
 62
     7
100
AcDbLine
 10
13.61644538810003
 20
5.0
 30
0.0
 11
13.61644538810003
 21
5.400000000000005
 31
0.0
  0
LINE
  5
652
330
60C
100
AcDbEntity
  8
PR970_004_00_BL1
  6
Continuous
 62
     7
100
AcDbLine
 10
10.3521956733
 20
5.5
 30
0.0
 11
17.86091987690002
 21
5.5
 31
0.0
  0
LINE
  5
653
330
60C
100
AcDbEntity
  8
PR970_004_00_BL1
  6
Continuous
 62
     7
100
AcDbLine
 10
-17.86091987689997
 20
5.5
 30
0.0
 11
-10.3521956733
 21
5.5
 31
0.0
  0
LINE
  5
654
330
60C
100
AcDbEntity
  8
PR970_004_00_BL1
  6
Continuous
 62
     7
100
AcDbLine
 10
17.0
 20
5.5
 30
0.0
 11
17.0
 21
5.400000000000005
 31
0.0
  0
ARC
  5
655
330
60C
100
AcDbEntity
  8
PR970_004_00_BL1
  6
Continuous
 62
     7
100
AcDbCircle
 10
0.0
 20
0.0
 30
0.0
 40
5.5
100
AcDbArc
 50
0.0
 51
180.0
  0
LINE
  5
656
330
60C
100
AcDbEntity
  8
PR970_004_00_BL1
  6
Continuous
 62
     7
100
AcDbLine
 10
17.0
 20
-5.400000000000005
 30
0.0
 11
17.0
 21
-5.5
 31
0.0
  0
ARC
  5
657
330
60C
100
AcDbEntity
  8
PR970_004_00_BL1
  6
Continuous
 62
     7
100
AcDbCircle
 10
0.0
 20
0.0
 30
0.0
 40
5.5
100
AcDbArc
 50
180.0
 51
0.0
  0
LINE
  5
658
330
60C
100
AcDbEntity
  8
PR970_004_00_BL1
  6
Continuous
 62
     7
100
AcDbLine
 10
12.19999999999999
 20
5.5
 30
0.0
 11
12.19999999999999
 21
5.0
 31
0.0
  0
LINE
  5
659
330
60C
100
AcDbEntity
  8
PR970_004_00_BL1
  6
Continuous
 62
     7
100
AcDbLine
 10
12.19999999999999
 20
-5.0
 30
0.0
 11
12.19999999999999
 21
-5.5
 31
0.0
  0
LINE
  5
65A
330
60C
100
AcDbEntity
  8
PR970_004_00_BL1
  6
Continuous
 62
     7
100
AcDbLine
 10
17.86091987690002
 20
5.400000000000005
 30
0.0
 11
14.52372530600001
 21
5.400000000000005
 31
0.0
  0
LINE
  5
65B
330
60C
100
AcDbEntity
  8
PR970_004_00_BL1
  6
Continuous
 62
     7
100
AcDbLine
 10
17.86091987690002
 20
-5.400000000000005
 30
0.0
 11
14.52372530600001
 21
-5.400000000000005
 31
0.0
  0
LINE
  5
65C
330
60C
100
AcDbEntity
  8
PR970_004_00_BL1
  6
Continuous
 62
     7
100
AcDbLine
 10
18.0
 20
-5.400000000000005
 30
0.0
 11
18.0
 21
-5.5
 31
0.0
  0
LINE
  5
65D
330
60C
100
AcDbEntity
  8
PR970_004_00_BL1
  6
Continuous
 62
     7
100
AcDbLine
 10
18.0
 20
5.5
 30
0.0
 11
18.0
 21
5.400000000000005
 31
0.0
  0
LINE
  5
65E
330
60C
100
AcDbEntity
  8
PR970_004_00_BL1
  6
Continuous
 62
     9
100
AcDbLine
 10
-17.86091987689997
 20
-15.00000000000003
 30
0.0
 11
-17.86091987689997
 21
-5.5
 31
0.0
  0
LINE
  5
65F
330
60C
100
AcDbEntity
  8
PR970_004_00_BL1
  6
Continuous
 62
     9
100
AcDbLine
 10
8.930653809600016
 20
5.5
 30
0.0
 11
8.930653809600016
 21
15.0
 31
0.0
  0
LINE
  5
660
330
60C
100
AcDbEntity
  8
PR970_004_00_BL1
  6
Continuous
 62
     9
100
AcDbLine
 10
-8.930653809600016
 20
5.5
 30
0.0
 11
-8.930653809600016
 21
15.0
 31
0.0
  0
LINE
  5
661
330
60C
100
AcDbEntity
  8
PR970_004_00_BL1
  6
Continuous
 62
     9
100
AcDbLine
 10
-8.930653809600016
 20
-5.5
 30
0.0
 11
-8.930653809600016
 21
-15.00000000000003
 31
0.0
  0
LINE
  5
662
330
60C
100
AcDbEntity
  8
PR970_004_00_BL1
  6
Continuous
 62
     9
100
AcDbLine
 10
17.86091987690002
 20
-5.400000000000005
 30
0.0
 11
17.86091987690002
 21
5.400000000000005
 31
0.0
  0
LINE
  5
663
330
60C
100
AcDbEntity
  8
PR970_004_00_BL1
  6
Continuous
 62
     9
100
AcDbLine
 10
8.930653809600016
 20
-5.5
 30
0.0
 11
8.930653809600016
 21
-15.00000000000003
 31
0.0
  0
LINE
  5
664
330
60C
100
AcDbEntity
  8
PR970_004_00_BL1
  6
Continuous
 62
     9
100
AcDbLine
 10
17.86091987690002
 20
-15.00000000000003
 30
0.0
 11
17.86091987690002
 21
-5.5
 31
0.0
  0
LINE
  5
665
330
60C
100
AcDbEntity
  8
PR970_004_00_BL1
  6
Continuous
 62
     7
100
AcDbLine
 10
-14.52372530599996
 20
5.400000000000005
 30
0.0
 11
-14.52372530599996
 21
5.0
 31
0.0
  0
LINE
  5
666
330
60C
100
AcDbEntity
  8
PR970_004_00_BL1
  6
Continuous
 62
     7
100
AcDbLine
 10
-14.52372530599996
 20
-5.0
 30
0.0
 11
-14.52372530599996
 21
-5.400000000000005
 31
0.0
  0
LINE
  5
667
330
60C
100
AcDbEntity
  8
PR970_004_00_BL1
  6
Continuous
 62
     9
100
AcDbLine
 10
15.78825389350004
 20
5.5
 30
0.0
 11
15.78825389350004
 21
5.400000000000005
 31
0.0
  0
LINE
  5
668
330
60C
100
AcDbEntity
  8
PR970_004_00_BL1
  6
Continuous
 62
     9
100
AcDbLine
 10
15.78825389350004
 20
-5.400000000000005
 30
0.0
 11
15.78825389350004
 21
-5.5
 31
0.0
  0
LINE
  5
669
330
60C
100
AcDbEntity
  8
PR970_004_00_BL1
  6
Continuous
 62
     7
100
AcDbLine
 10
12.81566147530003
 20
5.5
 30
0.0
 11
12.81566147530003
 21
5.0
 31
0.0
  0
LINE
  5
66A
330
60C
100
AcDbEntity
  8
PR970_004_00_BL1
  6
Continuous
 62
     7
100
AcDbLine
 10
12.81566147530003
 20
-5.0
 30
0.0
 11
12.81566147530003
 21
-5.5
 31
0.0
  0
LINE
  5
66B
330
60C
100
AcDbEntity
  8
PR970_004_00_BL1
  6
Continuous
 62
     9
100
AcDbLine
 10
17.86091987690002
 20
5.5
 30
0.0
 11
17.86091987690002
 21
15.0
 31
0.0
  0
LINE
  5
66C
330
60C
100
AcDbEntity
  8
PR970_004_00_BL1
  6
Continuous
 62
     9
100
AcDbLine
 10
-10.29157368649999
 20
-5.5
 30
0.0
 11
-10.29157368649999
 21
-15.00000000000003
 31
0.0
  0
LINE
  5
66D
330
60C
100
AcDbEntity
  8
PR970_004_00_BL1
  6
Continuous
 62
     9
100
AcDbLine
 10
10.29157368649999
 20
5.5
 30
0.0
 11
10.29157368649999
 21
15.0
 31
0.0
  0
LINE
  5
66E
330
60C
100
AcDbEntity
  8
PR970_004_00_BL1
  6
Continuous
 62
     9
100
AcDbLine
 10
10.29157368649999
 20
-5.5
 30
0.0
 11
10.29157368649999
 21
-15.00000000000003
 31
0.0
  0
LINE
  5
66F
330
60C
100
AcDbEntity
  8
PR970_004_00_BL1
  6
Continuous
 62
     7
100
AcDbLine
 10
-12.81566147529997
 20
5.5
 30
0.0
 11
-12.81566147529997
 21
5.0
 31
0.0
  0
LINE
  5
670
330
60C
100
AcDbEntity
  8
PR970_004_00_BL1
  6
Continuous
 62
     7
100
AcDbLine
 10
-12.81566147529997
 20
-5.0
 30
0.0
 11
-12.81566147529997
 21
-5.5
 31
0.0
  0
LINE
  5
671
330
60C
100
AcDbEntity
  8
PR970_004_00_BL1
  6
Continuous
 62
     7
100
AcDbLine
 10
14.52372530600001
 20
-5.400000000000005
 30
0.0
 11
14.52372530600001
 21
-5.0
 31
0.0
  0
LINE
  5
672
330
60C
100
AcDbEntity
  8
PR970_004_00_BL1
  6
Continuous
 62
     7
100
AcDbLine
 10
14.52372530600001
 20
5.0
 30
0.0
 11
14.52372530600001
 21
5.400000000000005
 31
0.0
  0
LINE
  5
673
330
60C
100
AcDbEntity
  8
PR970_004_00_BL1
  6
Continuous
 62
     9
100
AcDbLine
 10
-15.78825389349998
 20
5.5
 30
0.0
 11
-15.78825389349998
 21
5.400000000000005
 31
0.0
  0
LINE
  5
674
330
60C
100
AcDbEntity
  8
PR970_004_00_BL1
  6
Continuous
 62
     9
100
AcDbLine
 10
-15.78825389349998
 20
-5.400000000000005
 30
0.0
 11
-15.78825389349998
 21
-5.5
 31
0.0
  0
LINE
  5
675
330
60C
100
AcDbEntity
  8
PR970_004_00_BL1
  6
Continuous
 62
     9
100
AcDbLine
 10
-17.86091987689997
 20
-5.400000000000005
 30
0.0
 11
-17.86091987689997
 21
5.400000000000005
 31
0.0
  0
LINE
  5
676
330
60C
100
AcDbEntity
  8
PR970_004_00_BL1
  6
Continuous
 62
     9
100
AcDbLine
 10
-10.29157368649999
 20
5.5
 30
0.0
 11
-10.29157368649999
 21
15.0
 31
0.0
  0
LINE
  5
677
330
60C
100
AcDbEntity
  8
PR970_004_00_BL1
  6
Continuous
 62
     9
100
AcDbLine
 10
-17.86091987689997
 20
5.5
 30
0.0
 11
-17.86091987689997
 21
15.0
 31
0.0
  0
ENDBLK
  5
60E
330
60C
100
AcDbEntity
  8
0
100
AcDbBlockEnd
  0
BLOCK
  5
67A
330
679
100
AcDbEntity
  8
0
100
AcDbBlockBegin
  2
TC-9_040_001_SL
 70
     0
 10
0.0
 20
0.0
 30
0.0
  3
TC-9_040_001_SL
  1

  0
LINE
  5
67C
330
679
100
AcDbEntity
  8
STD_ACHSEN
  6
CENTER
 62
     7
100
AcDbLine
 10
0.0
 20
4.999999999999971
 30
0.0
 11
0.0
 21
-46.0025935559
 31
0.0
  0
LINE
  5
67D
330
679
100
AcDbEntity
  8
PR980_128_00_BL0
  6
Continuous
 62
     7
100
AcDbLine
 10
-5.5
 20
-9.0
 30
0.0
 11
-5.0
 21
-9.0
 31
0.0
  0
LINE
  5
67E
330
679
100
AcDbEntity
  8
PR980_128_00_BL0
  6
Continuous
 62
     7
100
AcDbLine
 10
-5.0
 20
-9.0
 30
0.0
 11
5.0
 21
-9.0
 31
0.0
  0
LINE
  5
67F
330
679
100
AcDbEntity
  8
PR980_128_00_BL0
  6
Continuous
 62
     7
100
AcDbLine
 10
5.0
 20
-9.0
 30
0.0
 11
5.5
 21
-9.0
 31
0.0
  0
LINE
  5
680
330
679
100
AcDbEntity
  8
PR980_128_00_BL0
  6
Continuous
 62
     7
100
AcDbLine
 10
5.0
 20
-9.0
 30
0.0
 11
5.0
 21
-1.0
 31
0.0
  0
LINE
  5
681
330
679
100
AcDbEntity
  8
PR980_128_00_BL0
  6
Continuous
 62
     7
100
AcDbLine
 10
-5.0
 20
-9.0
 30
0.0
 11
-5.0
 21
-1.0
 31
0.0
  0
LINE
  5
682
330
679
100
AcDbEntity
  8
PR980_128_00_BL0
  6
Continuous
 62
     7
100
AcDbLine
 10
-5.0
 20
-1.0
 30
0.0
 11
5.0
 21
-1.0
 31
0.0
  0
LINE
  5
683
330
679
100
AcDbEntity
  8
PR970_004_00_BL1
  6
Continuous
 62
     7
100
AcDbLine
 10
15.0
 20
0.0
 30
0.0
 11
15.0
 21
-0.8692091561999859
 31
0.0
  0
LINE
  5
684
330
679
100
AcDbEntity
  8
PR970_004_00_BL1
  6
Continuous
 62
     7
100
AcDbLine
 10
-15.0
 20
-0.8692091561999859
 30
0.0
 11
-15.0
 21
0.0
 31
0.0
  0
LINE
  5
685
330
679
100
AcDbEntity
  8
PR970_004_00_BL1
  6
Continuous
 62
     7
100
AcDbLine
 10
-15.0
 20
-0.8692091561999859
 30
0.0
 11
-15.0
 21
-17.19993714100002
 31
0.0
  0
LINE
  5
686
330
679
100
AcDbEntity
  8
PR970_004_00_BL1
  6
Continuous
 62
     7
100
AcDbLine
 10
-15.0
 20
-17.83072798490002
 30
0.0
 11
-15.0
 21
-39.25
 31
0.0
  0
LINE
  5
687
330
679
100
AcDbEntity
  8
PR970_004_00_BL1
  6
Continuous
 62
     7
100
AcDbLine
 10
-15.0
 20
-39.25
 30
0.0
 11
-15.0
 21
-39.84100806520002
 31
0.0
  0
LINE
  5
688
330
679
100
AcDbEntity
  8
PR970_004_00_BL1
  6
Continuous
 62
     7
100
AcDbLine
 10
-15.0
 20
-39.84100806520002
 30
0.0
 11
-15.0
 21
-39.99998504350003
 31
0.0
  0
LINE
  5
689
330
679
100
AcDbEntity
  8
PR970_004_00_BL1
  6
Continuous
 62
     7
100
AcDbLine
 10
-15.0
 20
-39.99998504350003
 30
0.0
 11
-15.0
 21
-40.99978224860001
 31
0.0
  0
LINE
  5
68A
330
679
100
AcDbEntity
  8
PR970_004_00_BL1
  6
Continuous
 62
     7
100
AcDbLine
 10
5.5
 20
0.0
 30
0.0
 11
15.0
 21
0.0
 31
0.0
  0
LINE
  5
68B
330
679
100
AcDbEntity
  8
PR970_004_00_BL1
  6
Continuous
 62
     7
100
AcDbLine
 10
-15.0
 20
-41.0
 30
0.0
 11
15.0
 21
-41.0
 31
0.0
  0
LINE
  5
68C
330
679
100
AcDbEntity
  8
PR970_004_00_BL1
  6
Continuous
 62
     7
100
AcDbLine
 10
-5.5
 20
-17.19993714100002
 30
0.0
 11
-5.5
 21
-17.83072798490002
 31
0.0
  0
LINE
  5
68D
330
679
100
AcDbEntity
  8
PR970_004_00_BL1
  6
Continuous
 62
     7
100
AcDbLine
 10
-15.0
 20
-17.83072798490002
 30
0.0
 11
-15.0
 21
-17.19993714100002
 31
0.0
  0
LINE
  5
68E
330
679
100
AcDbEntity
  8
PR970_004_00_BL1
  6
Continuous
 62
     7
100
AcDbLine
 10
5.399999999999977
 20
-17.19993714100002
 30
0.0
 11
5.399999999999977
 21
-17.83072798490002
 31
0.0
  0
LINE
  5
68F
330
679
100
AcDbEntity
  8
PR970_004_00_BL1
  6
Continuous
 62
     7
100
AcDbLine
 10
-5.400000000000034
 20
-17.83072798490002
 30
0.0
 11
-5.400000000000034
 21
-17.19993714100002
 31
0.0
  0
LINE
  5
690
330
679
100
AcDbEntity
  8
PR970_004_00_BL1
  6
Continuous
 62
     7
100
AcDbLine
 10
15.0
 20
-17.19993714100002
 30
0.0
 11
15.0
 21
-17.83072798490002
 31
0.0
  0
LINE
  5
691
330
679
100
AcDbEntity
  8
PR970_004_00_BL1
  6
Continuous
 62
     7
100
AcDbLine
 10
5.5
 20
-17.83072798490002
 30
0.0
 11
5.5
 21
-17.19993714100002
 31
0.0
  0
LINE
  5
692
330
679
100
AcDbEntity
  8
PR970_004_00_BL1
  6
Continuous
 62
     7
100
AcDbLine
 10
15.0
 20
-39.25
 30
0.0
 11
15.0
 21
-39.84100806520002
 31
0.0
  0
LINE
  5
693
330
679
100
AcDbEntity
  8
PR970_004_00_BL1
  6
Continuous
 62
     7
100
AcDbLine
 10
15.0
 20
-39.84100806520002
 30
0.0
 11
15.0
 21
-39.99998504350003
 31
0.0
  0
LINE
  5
694
330
679
100
AcDbEntity
  8
PR970_004_00_BL1
  6
Continuous
 62
     7
100
AcDbLine
 10
15.0
 20
-39.99998504350003
 30
0.0
 11
15.0
 21
-40.99978224860001
 31
0.0
  0
LINE
  5
695
330
679
100
AcDbEntity
  8
PR970_004_00_BL1
  6
Continuous
 62
     7
100
AcDbLine
 10
15.0
 20
-17.83072798490002
 30
0.0
 11
15.0
 21
-39.25
 31
0.0
  0
LINE
  5
696
330
679
100
AcDbEntity
  8
PR970_004_00_BL1
  6
Continuous
 62
     7
100
AcDbLine
 10
15.0
 20
-0.8692091561999859
 30
0.0
 11
15.0
 21
-17.19993714100002
 31
0.0
  0
LINE
  5
697
330
679
100
AcDbEntity
  8
PR970_004_00_BL1
  6
Continuous
 62
     7
100
AcDbLine
 10
-5.400000000000034
 20
-17.19993714100002
 30
0.0
 11
-5.400000000000034
 21
-10.0
 31
0.0
  0
LINE
  5
698
330
679
100
AcDbEntity
  8
PR970_004_00_BL1
  6
Continuous
 62
     7
100
AcDbLine
 10
-5.400000000000034
 20
-10.0
 30
0.0
 11
5.399999999999977
 21
-10.0
 31
0.0
  0
LINE
  5
699
330
679
100
AcDbEntity
  8
PR970_004_00_BL1
  6
Continuous
 62
     7
100
AcDbLine
 10
5.399999999999977
 20
-17.19993714100002
 30
0.0
 11
5.399999999999977
 21
-10.0
 31
0.0
  0
LINE
  5
69A
330
679
100
AcDbEntity
  8
PR970_004_00_BL1
  6
Continuous
 62
     7
100
AcDbLine
 10
5.5
 20
0.0
 30
0.0
 11
5.5
 21
-0.8692091561999859
 31
0.0
  0
LINE
  5
69B
330
679
100
AcDbEntity
  8
PR970_004_00_BL1
  6
Continuous
 62
     7
100
AcDbLine
 10
5.5
 20
-0.8692091561999859
 30
0.0
 11
5.5
 21
-1.0
 31
0.0
  0
ARC
  5
69C
330
679
100
AcDbEntity
  8
PR970_004_00_BL1
  6
Continuous
 62
     7
100
AcDbCircle
 10
0.0
 20
-29.0
 30
0.0
 40
2.25
100
AcDbArc
 50
0.0
 51
180.0
  0
ARC
  5
69D
330
679
100
AcDbEntity
  8
PR970_004_00_BL1
  6
Continuous
 62
     7
100
AcDbCircle
 10
0.0
 20
-29.0
 30
0.0
 40
2.25
100
AcDbArc
 50
180.0
 51
0.0
  0
LINE
  5
69E
330
679
100
AcDbEntity
  8
PR970_004_00_BL1
  6
Continuous
 62
     7
100
AcDbLine
 10
-5.5
 20
-17.83072798490002
 30
0.0
 11
-5.5
 21
-18.0
 31
0.0
  0
LINE
  5
69F
330
679
100
AcDbEntity
  8
PR970_004_00_BL1
  6
Continuous
 62
     7
100
AcDbLine
 10
-5.5
 20
-18.0
 30
0.0
 11
-5.400000000000034
 21
-18.0
 31
0.0
  0
LINE
  5
6A0
330
679
100
AcDbEntity
  8
PR970_004_00_BL1
  6
Continuous
 62
     7
100
AcDbLine
 10
-5.400000000000034
 20
-17.83072798490002
 30
0.0
 11
-5.400000000000034
 21
-18.0
 31
0.0
  0
LINE
  5
6A1
330
679
100
AcDbEntity
  8
PR970_004_00_BL1
  6
Continuous
 62
     7
100
AcDbLine
 10
5.399999999999977
 20
-17.83072798490002
 30
0.0
 11
5.399999999999977
 21
-18.0
 31
0.0
  0
LINE
  5
6A2
330
679
100
AcDbEntity
  8
PR970_004_00_BL1
  6
Continuous
 62
     7
100
AcDbLine
 10
5.399999999999977
 20
-18.0
 30
0.0
 11
5.5
 21
-18.0
 31
0.0
  0
LINE
  5
6A3
330
679
100
AcDbEntity
  8
PR970_004_00_BL1
  6
Continuous
 62
     7
100
AcDbLine
 10
5.5
 20
-17.83072798490002
 30
0.0
 11
5.5
 21
-18.0
 31
0.0
  0
LINE
  5
6A4
330
679
100
AcDbEntity
  8
PR970_004_00_BL1
  6
Continuous
 62
     7
100
AcDbLine
 10
-5.5
 20
0.0
 30
0.0
 11
5.5
 21
0.0
 31
0.0
  0
LINE
  5
6A5
330
679
100
AcDbEntity
  8
PR970_004_00_BL1
  6
Continuous
 62
     7
100
AcDbLine
 10
-5.5
 20
-1.0
 30
0.0
 11
-5.5
 21
-0.8692091561999859
 31
0.0
  0
LINE
  5
6A6
330
679
100
AcDbEntity
  8
PR970_004_00_BL1
  6
Continuous
 62
     7
100
AcDbLine
 10
-5.5
 20
-0.8692091561999859
 30
0.0
 11
-5.5
 21
0.0
 31
0.0
  0
LINE
  5
6A7
330
679
100
AcDbEntity
  8
PR970_004_00_BL1
  6
Continuous
 62
     7
100
AcDbLine
 10
5.5
 20
-1.0
 30
0.0
 11
5.0
 21
-1.0
 31
0.0
  0
LINE
  5
6A8
330
679
100
AcDbEntity
  8
PR970_004_00_BL1
  6
Continuous
 62
     7
100
AcDbLine
 10
-5.0
 20
-1.0
 30
0.0
 11
-5.5
 21
-1.0
 31
0.0
  0
LINE
  5
6A9
330
679
100
AcDbEntity
  8
PR970_004_00_BL1
  6
Continuous
 62
     7
100
AcDbLine
 10
5.5
 20
-1.0
 30
0.0
 11
5.5
 21
-17.19993714100002
 31
0.0
  0
LINE
  5
6AA
330
679
100
AcDbEntity
  8
PR970_004_00_BL1
  6
Continuous
 62
     7
100
AcDbLine
 10
-5.5
 20
-17.19993714100002
 30
0.0
 11
-5.5
 21
-1.0
 31
0.0
  0
LINE
  5
6AB
330
679
100
AcDbEntity
  8
PR970_004_00_BL1
  6
Continuous
 62
     7
100
AcDbLine
 10
-5.5
 20
0.0
 30
0.0
 11
-15.0
 21
0.0
 31
0.0
  0
LINE
  5
6AC
330
679
100
AcDbEntity
  8
PR970_004_00_BL1
  6
Continuous
 62
     7
100
AcDbLine
 10
5.5
 20
0.0
 30
0.0
 11
15.0
 21
0.0
 31
0.0
  0
LINE
  5
6AD
330
679
100
AcDbEntity
  8
PR970_004_00_BL1
  6
Continuous
 62
     9
100
AcDbLine
 10
-5.5
 20
-0.8692091561999859
 30
0.0
 11
-15.0
 21
-0.8692091561999859
 31
0.0
  0
LINE
  5
6AE
330
679
100
AcDbEntity
  8
PR970_004_00_BL1
  6
Continuous
 62
     9
100
AcDbLine
 10
-5.5
 20
-17.19993714100002
 30
0.0
 11
-15.0
 21
-17.19993714100002
 31
0.0
  0
LINE
  5
6AF
330
679
100
AcDbEntity
  8
PR970_004_00_BL1
  6
Continuous
 62
     9
100
AcDbLine
 10
-15.0
 20
-39.25
 30
0.0
 11
15.0
 21
-39.25
 31
0.0
  0
LINE
  5
6B0
330
679
100
AcDbEntity
  8
PR970_004_00_BL1
  6
Continuous
 62
     9
100
AcDbLine
 10
5.399999999999977
 20
-17.19993714100002
 30
0.0
 11
-5.400000000000034
 21
-17.19993714100002
 31
0.0
  0
LINE
  5
6B1
330
679
100
AcDbEntity
  8
PR970_004_00_BL1
  6
Continuous
 62
     9
100
AcDbLine
 10
-5.5
 20
-17.83072798490002
 30
0.0
 11
-15.0
 21
-17.83072798490002
 31
0.0
  0
LINE
  5
6B2
330
679
100
AcDbEntity
  8
PR970_004_00_BL1
  6
Continuous
 62
     9
100
AcDbLine
 10
5.399999999999977
 20
-17.83072798490002
 30
0.0
 11
-5.400000000000034
 21
-17.83072798490002
 31
0.0
  0
LINE
  5
6B3
330
679
100
AcDbEntity
  8
PR970_004_00_BL1
  6
Continuous
 62
     9
100
AcDbLine
 10
15.0
 20
-17.83072798490002
 30
0.0
 11
5.5
 21
-17.83072798490002
 31
0.0
  0
LINE
  5
6B4
330
679
100
AcDbEntity
  8
PR970_004_00_BL1
  6
Continuous
 62
     9
100
AcDbLine
 10
5.5
 20
-0.8692091561999859
 30
0.0
 11
15.0
 21
-0.8692091561999859
 31
0.0
  0
LINE
  5
6B5
330
679
100
AcDbEntity
  8
PR970_004_00_BL1
  6
Continuous
 62
     9
100
AcDbLine
 10
15.0
 20
-17.19993714100002
 30
0.0
 11
5.5
 21
-17.19993714100002
 31
0.0
  0
LINE
  5
6B6
330
679
100
AcDbEntity
  8
PR970_004_00_BL1
  6
CENTER
 62
     7
100
AcDbLine
 10
0.0
 20
-29.0
 30
0.0
 11
7.25
 21
-29.0
 31
0.0
  0
LINE
  5
6B7
330
679
100
AcDbEntity
  8
PR970_004_00_BL1
  6
CENTER
 62
     7
100
AcDbLine
 10
0.0
 20
-29.0
 30
0.0
 11
-7.25
 21
-29.0
 31
0.0
  0
LINE
  5
6B8
330
679
100
AcDbEntity
  8
PR970_004_00_BL1
  6
CENTER
 62
     7
100
AcDbLine
 10
0.0
 20
-29.0
 30
0.0
 11
0.0
 21
-21.75
 31
0.0
  0
LINE
  5
6B9
330
679
100
AcDbEntity
  8
PR970_004_00_BL1
  6
CENTER
 62
     7
100
AcDbLine
 10
0.0
 20
-29.0
 30
0.0
 11
0.0
 21
-36.25
 31
0.0
  0
ENDBLK
  5
67B
330
679
100
AcDbEntity
  8
0
100
AcDbBlockEnd
  0
ENDSEC
  0
SECTION
  2
ENTITIES
  0
INSERT
  5
3A8
330
20D
100
AcDbEntity
  8
0
  6
Continuous
 62
     2
100
AcDbBlockReference
  2
SCHRIFTFELD-DATENPLANER_BL2
 10
395.4246953233
 20
178.1239968241
 30
0.0
  0
SPLINE
  5
4FF
330
20D
100
AcDbEntity
  8
PR970_004_00_BL1
  6
Continuous
 62
     7
100
AcDbSpline
210
0.0
220
0.0
230
1.0
 70
     8
 71
     3
 72
    10
 73
     6
 74
     0
 42
0.0000000001
 43
0.0000000001
 40
0.0
 40
0.0
 40
0.0
 40
0.0
 40
0.2290482388
 40
0.4806843662000001
 40
1.0
 40
1.0
 40
1.0
 40
1.0
 10
446.7822866066
 20
247.4736503465
 30
0.0
 10
446.8892225962
 20
247.4119122208
 30
0.0
 10
447.0973636362
 20
247.2532769103
 30
0.0
 10
447.4581246722
 20
246.8507112191
 30
0.0
 10
447.6578622498
 20
246.4745379173
 30
0.0
 10
447.7446062867
 20
246.2083560121
 30
0.0
  0
LINE
  5
500
330
20D
100
AcDbEntity
  8
PR970_004_00_BL1
  6
Continuous
 62
     7
100
AcDbLine
 10
446.7822866066
 20
247.4736503465
 30
0.0
 11
434.1523822851999
 21
254.7653640457
 31
0.0
  0
SPLINE
  5
501
330
20D
100
AcDbEntity
  8
PR970_004_00_BL1
  6
Continuous
 62
     7
100
AcDbSpline
210
0.0
220
0.0
230
1.0
 70
     8
 71
     3
 72
    11
 73
     7
 74
     0
 42
0.0000000001
 43
0.0000000001
 40
0.0
 40
0.0
 40
0.0
 40
0.0
 40
0.21776061
 40
0.4509268057
 40
0.7102288263
 40
1.0
 40
1.0
 40
1.0
 40
1.0
 10
433.4024183598999
 20
254.8396707659
 30
0.0
 10
433.4518922348999
 20
254.868228893
 30
0.0
 10
433.5655807095999
 20
254.9094738743
 30
0.0
 10
433.7543822586
 20
254.9142491649
 30
0.0
 10
433.9556355321
 20
254.8656791366
 30
0.0
 10
434.0865509219999
 20
254.8033709411
 30
0.0
 10
434.1523822851999
 20
254.7653640457
 30
0.0
  0
LINE
  5
502
330
20D
100
AcDbEntity
  8
PR970_004_00_BL1
  6
Continuous
 62
     7
100
AcDbLine
 10
426.9955595426
 20
251.1406897704
 30
0.0
 11
433.4023856427999
 21
254.8396504642
 31
0.0
  0
SPLINE
  5
503
330
20D
100
AcDbEntity
  8
PR970_004_00_BL1
  6
Continuous
 62
     7
100
AcDbSpline
210
0.0
220
0.0
230
1.0
 70
     8
 71
     3
 72
     9
 73
     5
 74
     0
 42
0.0000000001
 43
0.0000000001
 40
0.0
 40
0.0
 40
0.0
 40
0.0
 40
0.4861392925
 40
1.0
 40
1.0
 40
1.0
 40
1.0
 10
412.1893032434
 20
242.5923461498
 30
0.0
 10
412.1450812334999
 20
242.566819591
 30
0.0
 10
412.0619492323999
 20
242.4996575927
 30
0.0
 10
412.0019414444
 20
242.4117473374
 30
0.0
 10
411.9769474885999
 20
242.3639110099
 30
0.0
  0
LINE
  5
504
330
20D
100
AcDbEntity
  8
PR970_004_00_BL1
  6
Continuous
 62
     7
100
AcDbLine
 10
418.9067569798999
 20
246.4706453098
 30
0.0
 11
418.5809326879
 21
246.28253169
 31
0.0
  0
LINE
  5
505
330
20D
100
AcDbEntity
  8
PR970_004_00_BL1
  6
Continuous
 62
     7
100
AcDbLine
 10
418.5809326879
 20
246.28253169
 30
0.0
 11
412.1892705263999
 21
242.5923258481
 31
0.0
  0
SPLINE
  5
506
330
20D
100
AcDbEntity
  8
PR970_004_00_BL1
  6
Continuous
 62
     7
100
AcDbSpline
210
0.0
220
0.0
230
1.0
 70
     8
 71
     3
 72
     9
 73
     5
 74
     0
 42
0.0000000001
 43
0.0000000001
 40
0.0
 40
0.0
 40
0.0
 40
0.0
 40
0.5229904826000001
 40
1.0
 40
1.0
 40
1.0
 40
1.0
 10
428.7059880823
 20
225.3355418243
 30
0.0
 10
428.6265846655999
 20
225.4358137
 30
0.0
 10
428.5034930673999
 20
225.6510512571
 30
0.0
 10
428.4464691183999
 20
225.8952216736
 30
0.0
 10
428.4464691183999
 20
226.0118801506
 30
0.0
  0
LINE
  5
507
330
20D
100
AcDbEntity
  8
PR970_004_00_BL1
  6
Continuous
 62
     7
100
AcDbLine
 10
428.4464691183999
 20
226.0118801506
 30
0.0
 11
428.4464691183999
 21
226.1431326988
 31
0.0
  0
SPLINE
  5
508
330
20D
100
AcDbEntity
  8
PR970_004_00_BL1
  6
Continuous
 62
     7
100
AcDbSpline
210
0.0
220
0.0
230
1.0
 70
     8
 71
     3
 72
     9
 73
     5
 74
     0
 42
0.0000000001
 43
0.0000000001
 40
0.0
 40
0.0
 40
0.0
 40
0.0
 40
0.4491643212
 40
1.0
 40
1.0
 40
1.0
 40
1.0
 10
412.6891838149999
 20
241.7262506091
 30
0.0
 10
412.7229115085
 20
241.7457407156
 30
0.0
 10
412.8152233162
 20
241.7597616704
 30
0.0
 10
412.8978955014
 20
241.7254224153
 30
0.0
 10
412.9392671687
 20
241.7015370124
 30
0.0
  0
SPLINE
  5
509
330
20D
100
AcDbEntity
  8
PR970_004_00_BL1
  6
Continuous
 62
     7
100
AcDbSpline
210
0.0
220
0.0
230
1.0
 70
     8
 71
     3
 72
     9
 73
     5
 74
     0
 42
0.0000000001
 43
0.0000000001
 40
0.0
 40
0.0
 40
0.0
 40
0.0
 40
0.2471361264
 40
1.0
 40
1.0
 40
1.0
 40
1.0
 10
435.3045922941999
 20
244.6320583523
 30
0.0
 10
435.2983970503999
 20
244.6568879891
 30
0.0
 10
435.2713464644999
 20
244.7568555851
 30
0.0
 10
435.2364586030999
 20
244.8546766897
 30
0.0
 10
435.2063100583999
 20
244.9265699207
 30
0.0
  0
SPLINE
  5
50A
330
20D
100
AcDbEntity
  8
PR970_004_00_BL1
  6
Continuous
 62
     7
100
AcDbSpline
210
0.0
220
0.0
230
1.0
 70
     8
 71
     3
 72
    16
 73
    12
 74
     0
 42
0.0000000001
 43
0.0000000001
 40
0.0
 40
0.0
 40
0.0
 40
0.0
 40
0.0923806896
 40
0.1441865062
 40
0.1999733312
 40
0.3227043055999999
 40
0.4575465329
 40
0.5990639996000001
 40
0.7408087447
 40
0.8762948415999998
 40
1.0
 40
1.0
 40
1.0
 40
1.0
 10
435.2063100583999
 20
244.9265699207
 30
0.0
 10
435.0849111821999
 20
245.2160617525
 30
0.0
 10
434.7938435670999
 20
245.6274276962
 30
0.0
 10
434.2862984427999
 20
246.0801687447
 30
0.0
 10
433.6364270458999
 20
246.5205737091
 30
0.0
 10
432.655683011
 20
246.9560673501
 30
0.0
 10
431.3319378603999
 20
247.2765428313
 30
0.0
 10
429.9101998673999
 20
247.3908031924
 30
0.0
 10
428.4851293432
 20
247.2910968651
 30
0.0
 10
427.1519904219999
 20
246.9845133464
 30
0.0
 10
426.3357151861
 20
246.6348449897
 30
0.0
 10
425.9716733993
 20
246.4246666208
 30
0.0
  0
LINE
  5
50B
330
20D
100
AcDbEntity
  8
PR970_004_00_BL1
  6
Continuous
 62
     7
100
AcDbLine
 10
453.1953094984999
 20
211.7234537424
 30
0.0
 11
453.1953094984999
 21
229.2123411159
 31
0.0
  0
LINE
  5
50C
330
20D
100
AcDbEntity
  8
PR970_004_00_BL1
  6
Continuous
 62
     7
100
AcDbLine
 10
453.0969645908999
 20
229.784161539
 30
0.0
 11
447.7446062867
 21
246.2083560121
 31
0.0
  0
SPLINE
  5
50D
330
20D
100
AcDbEntity
  8
PR970_004_00_BL1
  6
Continuous
 62
     7
100
AcDbSpline
210
0.0
220
0.0
230
1.0
 70
     8
 71
     3
 72
    13
 73
     9
 74
     0
 42
0.0000000001
 43
0.0000000001
 40
0.0
 40
0.0
 40
0.0
 40
0.0
 40
0.307440398
 40
0.5811695322000001
 40
0.701034643
 40
0.8090873937999999
 40
0.9073655718000001
 40
1.0
 40
1.0
 40
1.0
 40
1.0
 10
429.982906984
 20
199.504419932
 30
0.0
 10
430.0969966096999
 20
199.3356253765
 30
0.0
 10
430.3453235746999
 20
199.0372483916999
 30
0.0
 10
430.722484454
 20
198.754547109
 30
0.0
 10
431.0313816962999
 20
198.6270059795
 30
0.0
 10
431.2455486041
 20
198.5861364831
 30
0.0
 10
431.4456694422999
 20
198.5985299728
 30
0.0
 10
431.566268475
 20
198.6441588785
 30
0.0
 10
431.6194375728
 20
198.6748416418
 30
0.0
  0
LINE
  5
50E
330
20D
100
AcDbEntity
  8
PR970_004_00_BL1
  6
Continuous
 62
     7
100
AcDbLine
 10
427.9494036182
 20
202.6758774968
 30
0.0
 11
429.982906984
 21
199.504419932
 31
0.0
  0
LINE
  5
50F
330
20D
100
AcDbEntity
  8
PR970_004_00_BL1
  6
Continuous
 62
     7
100
AcDbLine
 10
427.9494036182
 20
202.6758774968
 30
0.0
 11
428.3847438348
 21
203.0679520766
 31
0.0
  0
SPLINE
  5
510
330
20D
100
AcDbEntity
  8
PR970_004_00_BL1
  6
Continuous
 62
     7
100
AcDbSpline
210
0.0
220
0.0
230
1.0
 70
     8
 71
     3
 72
    10
 73
     6
 74
     0
 42
0.0000000001
 43
0.0000000001
 40
0.0
 40
0.0
 40
0.0
 40
0.0
 40
0.5477463075
 40
0.7816046608000001
 40
1.0
 40
1.0
 40
1.0
 40
1.0
 10
431.2750846569
 20
199.8843698808
 30
0.0
 10
431.2750846569
 20
199.8127464374
 30
0.0
 10
431.2598459059
 20
199.7072681866
 30
0.0
 10
431.1908307603999
 20
199.5942436307
 30
0.0
 10
431.1445055944
 20
199.5553604547
 30
0.0
 10
431.1197756624999
 20
199.5410790958
 30
0.0
  0
LINE
  5
511
330
20D
100
AcDbEntity
  8
PR970_004_00_BL1
  6
Continuous
 62
     7
100
AcDbLine
 10
431.2750846569
 20
217.3732572543
 30
0.0
 11
431.2750846569
 21
199.8843698808
 31
0.0
  0
LINE
  5
512
330
20D
100
AcDbEntity
  8
PR970_004_00_BL1
  6
Continuous
 62
     7
100
AcDbLine
 10
425.8899447169
 20
233.9880585351
 30
0.0
 11
431.2423030210999
 21
217.563864062
 31
0.0
  0
LINE
  5
513
330
20D
100
AcDbEntity
  8
PR970_004_00_BL1
  6
Continuous
 62
     7
100
AcDbLine
 10
412.9392671687
 20
241.7015370124
 30
0.0
 11
425.5691714901999
 21
234.4098233132
 31
0.0
  0
LINE
  5
514
330
20D
100
AcDbEntity
  8
PR970_004_00_BL1
  6
Continuous
 62
     7
100
AcDbLine
 10
408.5255316748999
 20
211.8925610856
 30
0.0
 11
410.5590350406999
 21
212.7159843387
 31
0.0
  0
SPLINE
  5
515
330
20D
100
AcDbEntity
  8
PR970_004_00_BL1
  6
Continuous
 62
     7
100
AcDbSpline
210
0.0
220
0.0
230
1.0
 70
     8
 71
     3
 72
    15
 73
    11
 74
     0
 42
0.0000000001
 43
0.0000000001
 40
0.0
 40
0.0
 40
0.0
 40
0.0
 40
0.1262083734
 40
0.2647753653
 40
0.4093169089
 40
0.5524561983
 40
0.6870414932
 40
0.8074045464000001
 40
0.9109080784999999
 40
1.0
 40
1.0
 40
1.0
 40
1.0
 10
406.5262442768
 20
214.172796289
 30
0.0
 10
406.5262442768
 20
214.0313813273
 30
0.0
 10
406.5636847219999
 20
213.7343638071
 30
0.0
 10
406.7048682971
 20
213.2958942673
 30
0.0
 10
406.9239691833
 20
212.8691638846
 30
0.0
 10
407.204901366
 20
212.4859111042
 30
0.0
 10
407.5271351816999
 20
212.1739287129
 30
0.0
 10
407.8685425009999
 20
211.9559688052
 30
0.0
 10
408.2074061639
 20
211.8475394032
 30
0.0
 10
408.4305882219
 20
211.8617218933
 30
0.0
 10
408.5255316748999
 20
211.8925610856
 30
0.0
  0
LINE
  5
516
330
20D
100
AcDbEntity
  8
PR970_004_00_BL1
  6
Continuous
 62
     7
100
AcDbLine
 10
406.5262442768
 20
231.6616836625
 30
0.0
 11
406.5262442768
 21
214.172796289
 31
0.0
  0
LINE
  5
517
330
20D
100
AcDbEntity
  8
PR970_004_00_BL1
  6
Continuous
 62
     7
100
AcDbLine
 10
411.9769474885999
 20
242.3639110099
 30
0.0
 11
406.6245891843999
 21
232.1199477368
 31
0.0
  0
SPLINE
  5
518
330
20D
100
AcDbEntity
  8
PR970_004_00_BL1
  6
Continuous
 62
     7
100
AcDbSpline
210
0.0
220
0.0
230
1.0
 70
     8
 71
     3
 72
    17
 73
    13
 74
     0
 42
0.0000000001
 43
0.0000000001
 40
0.0
 40
0.0
 40
0.0
 40
0.0
 40
0.0428613486
 40
0.0872084466
 40
0.1342883704
 40
0.1849709987
 40
0.2984196871
 40
0.4277203192
 40
0.5689332981000001
 40
0.7159967464000001
 40
0.8619524502
 40
1.0
 40
1.0
 40
1.0
 40
1.0
 10
424.3607871591
 20
244.9961586897
 30
0.0
 10
424.3607754116999
 20
244.8533428255
 30
0.0
 10
424.3952747435
 20
244.5616980911
 30
0.0
 10
424.5480775376999
 20
244.1375813008
 30
0.0
 10
424.7973604633
 20
243.7315278222
 30
0.0
 10
425.2680318908999
 20
243.2042264425
 30
0.0
 10
426.0806857533999
 20
242.6378855208
 30
0.0
 10
427.2721130737999
 20
242.1520790607
 30
0.0
 10
428.6395377376999
 20
241.8614984832
 30
0.0
 10
430.0901944087
 20
241.7859539297
 30
0.0
 10
431.5246078769
 20
241.9301594108
 30
0.0
 10
432.4443062388
 20
242.176899059
 30
0.0
 10
432.8745445724999
 20
242.3396164302
 30
0.0
  0
SPLINE
  5
519
330
20D
100
AcDbEntity
  8
PR970_004_00_BL1
  6
Continuous
 62
     7
100
AcDbSpline
210
0.0
220
0.0
230
1.0
 70
     8
 71
     3
 72
     9
 73
     5
 74
     0
 42
0.0000000001
 43
0.0000000001
 40
0.0
 40
0.0
 40
0.0
 40
0.0
 40
0.2586052969
 40
1.0
 40
1.0
 40
1.0
 40
1.0
 10
432.8745445724999
 20
242.3396164302
 30
0.0
 10
432.9525570417
 20
242.3691209696
 30
0.0
 10
433.2520639412
 20
242.4887611662
 30
0.0
 10
433.5428006467999
 20
242.6309639144
 30
0.0
 10
433.7498803759999
 20
242.7505207382
 30
0.0
  0
SPLINE
  5
51A
330
20D
100
AcDbEntity
  8
PR970_004_00_BL1
  6
Continuous
 62
     7
100
AcDbSpline
210
0.0
220
0.0
230
1.0
 70
     8
 71
     3
 72
    14
 73
    10
 74
     0
 42
0.0000000001
 43
0.0000000001
 40
0.0
 40
0.0
 40
0.0
 40
0.0
 40
0.2034343595
 40
0.3278376167
 40
0.4629866542000001
 40
0.6036530245
 40
0.7438488705
 40
0.8776355742999999
 40
1.0
 40
1.0
 40
1.0
 40
1.0
 10
441.1601251041
 20
212.3232848538
 30
0.0
 10
441.4350829987999
 20
212.320460949
 30
0.0
 10
441.8746238803
 20
212.4980080367
 30
0.0
 10
442.3639424663999
 20
212.8849496614
 30
0.0
 10
442.7292552328999
 20
213.2886824678
 30
0.0
 10
443.0403480437
 20
213.7590639109
 30
0.0
 10
443.2799705716
 20
214.2681174666
 30
0.0
 10
443.4327630041999
 20
214.7837174896
 30
0.0
 10
443.4726258489
 20
215.1303372279
 30
0.0
 10
443.4726258489
 20
215.2957313106
 30
0.0
  0
SPLINE
  5
51B
330
20D
100
AcDbEntity
  8
PR970_004_00_BL1
  6
Continuous
 62
     7
100
AcDbSpline
210
0.0
220
0.0
230
1.0
 70
     8
 71
     3
 72
    14
 73
    10
 74
     0
 42
0.0000000001
 43
0.0000000001
 40
0.0
 40
0.0
 40
0.0
 40
0.0
 40
0.2034343595
 40
0.3278376167
 40
0.4629866542000001
 40
0.6036530245
 40
0.7438488705
 40
0.8776355742999999
 40
1.0
 40
1.0
 40
1.0
 40
1.0
 10
416.4112847239
 20
226.611711262
 30
0.0
 10
416.6862426187
 20
226.6088873572
 30
0.0
 10
417.1257835000999
 20
226.7864344449
 30
0.0
 10
417.6151020862
 20
227.1733760696
 30
0.0
 10
417.9804148527
 20
227.577108876
 30
0.0
 10
418.2915076636
 20
228.0474903191
 30
0.0
 10
418.5311301914
 20
228.5565438748
 30
0.0
 10
418.683922624
 20
229.0721438978
 30
0.0
 10
418.7237854687
 20
229.4187636362
 30
0.0
 10
418.7237854687
 20
229.5841577188
 30
0.0
  0
SPLINE
  5
51C
330
20D
100
AcDbEntity
  8
PR970_004_00_BL1
  6
Continuous
 62
     7
100
AcDbSpline
210
0.0
220
0.0
230
1.0
 70
     8
 71
     3
 72
     9
 73
     5
 74
     0
 42
0.0000000001
 43
0.0000000001
 40
0.0
 40
0.0
 40
0.0
 40
0.0
 40
0.2754536496
 40
1.0
 40
1.0
 40
1.0
 40
1.0
 10
418.7237854687
 20
229.5841577188
 30
0.0
 10
418.7237854687
 20
229.6520585614
 30
0.0
 10
418.7120972185999
 20
229.8978001491
 30
0.0
 10
418.6481430226
 20
230.1455838733
 30
0.0
 10
418.5602329461
 20
230.3010555616999
 30
0.0
  0
SPLINE
  5
51D
330
20D
100
AcDbEntity
  8
PR970_004_00_BL1
  6
Continuous
 62
     7
100
AcDbSpline
210
0.0
220
0.0
230
1.0
 70
     8
 71
     3
 72
    16
 73
    12
 74
     0
 42
0.0000000001
 43
0.0000000001
 40
0.0
 40
0.0
 40
0.0
 40
0.0
 40
0.0428787394
 40
0.0875260083
 40
0.1869253741
 40
0.3042343478
 40
0.4379612797
 40
0.5823724483000001
 40
0.7295998290000001
 40
0.8712491058000001
 40
1.0
 40
1.0
 40
1.0
 40
1.0
 10
443.7139774871
 20
215.9173581463
 30
0.0
 10
443.6585093973
 20
215.9493972374
 30
0.0
 10
443.5362568825
 20
216.0002922234
 30
0.0
 10
443.2575520016
 20
216.0411833949
 30
0.0
 10
442.8640835656
 20
215.9644766438
 30
0.0
 10
442.4005543606999
 20
215.7102857517
 30
0.0
 10
441.9549906677999
 20
215.3162326758
 30
0.0
 10
441.5619564166999
 20
214.8129500046
 30
0.0
 10
441.2524213198
 20
214.2409308421
 30
0.0
 10
441.0515776308
 20
213.6471443507
 30
0.0
 10
440.9977683066
 20
213.2427321423
 30
0.0
 10
440.9977683066
 20
213.0503918637
 30
0.0
  0
SPLINE
  5
51E
330
20D
100
AcDbEntity
  8
PR970_004_00_BL1
  6
Continuous
 62
     7
100
AcDbSpline
210
0.0
220
0.0
230
1.0
 70
     8
 71
     3
 72
    16
 73
    12
 74
     0
 42
0.0000000001
 43
0.0000000001
 40
0.0
 40
0.0
 40
0.0
 40
0.0
 40
0.0428787394
 40
0.0875260083
 40
0.1869253741
 40
0.3042343478
 40
0.4379612797
 40
0.5823724483000001
 40
0.7295998290000001
 40
0.8712491058000001
 40
1.0
 40
1.0
 40
1.0
 40
1.0
 10
418.965137107
 20
230.2057845545
 30
0.0
 10
418.9096690172
 20
230.2378236456
 30
0.0
 10
418.7874165023999
 20
230.2887186316
 30
0.0
 10
418.5087116215
 20
230.3296098031
 30
0.0
 10
418.1152431855
 20
230.252903052
 30
0.0
 10
417.6517139806
 20
229.9987121599
 30
0.0
 10
417.2061502876999
 20
229.604659084
 30
0.0
 10
416.8131160366
 20
229.1013764129
 30
0.0
 10
416.5035809396
 20
228.5293572504
 30
0.0
 10
416.3027372506999
 20
227.9355707589
 30
0.0
 10
416.2489279263999
 20
227.5311585505
 30
0.0
 10
416.2489279263999
 20
227.3388182719
 30
0.0
  0
SPLINE
  5
51F
330
20D
100
AcDbEntity
  8
PR970_004_00_BL1
  6
Continuous
 62
     7
100
AcDbSpline
210
0.0
220
0.0
230
1.0
 70
     8
 71
     3
 72
    11
 73
     7
 74
     0
 42
0.0000000001
 43
0.0000000001
 40
0.0
 40
0.0
 40
0.0
 40
0.0
 40
0.2177799745
 40
0.4508974947000001
 40
0.7103342984000001
 40
1.0
 40
1.0
 40
1.0
 40
1.0
 10
452.8325526891999
 20
210.9221662579
 30
0.0
 10
452.8903069894
 20
210.9554950447
 30
0.0
 10
452.9984410339999
 20
211.0462101211
 30
0.0
 10
453.1135137410999
 20
211.2342926774
 30
0.0
 10
453.1818358448999
 20
211.4660650128
 30
0.0
 10
453.1953094984999
 20
211.634762284
 30
0.0
 10
453.1953094984999
 20
211.7234537424
 30
0.0
  0
LINE
  5
520
330
20D
100
AcDbEntity
  8
PR970_004_00_BL1
  6
Continuous
 62
     7
100
AcDbLine
 10
452.8328635622
 20
210.9223283445
 30
0.0
 11
431.6197484458
 21
198.6750037284
 31
0.0
  0
LINE
  5
521
330
20D
100
AcDbEntity
  8
PR970_004_00_BL1
  6
Continuous
 62
     7
100
AcDbLine
 10
429.3461247199999
 20
223.3824582968
 30
0.0
 11
412.7487921942999
 21
213.8000410946
 31
0.0
  0
LINE
  5
522
330
20D
100
AcDbEntity
  8
PR970_004_00_BL1
  6
Continuous
 62
     7
100
AcDbLine
 10
410.5590350406999
 20
212.7159843387
 30
0.0
 11
412.7487921942999
 21
213.8000410946
 31
0.0
  0
SPLINE
  5
523
330
20D
100
AcDbEntity
  8
PR970_004_00_BL1
  6
Continuous
 62
     7
100
AcDbSpline
210
0.0
220
0.0
230
1.0
 70
     8
 71
     3
 72
    11
 73
     7
 74
     0
 42
0.0000000001
 43
0.0000000001
 40
0.0
 40
0.0
 40
0.0
 40
0.0
 40
0.2897376304
 40
0.5490700755
 40
0.7822189804000001
 40
1.0
 40
1.0
 40
1.0
 40
1.0
 10
416.2489279263999
 20
227.3388182719
 30
0.0
 10
416.2489279263999
 20
227.2248280366
 30
0.0
 10
416.266176358
 20
227.0080729786
 30
0.0
 10
416.3539641356
 20
226.7102563458
 30
0.0
 10
416.5017063841999
 20
226.4685861202
 30
0.0
 10
416.6404928331999
 20
226.3518056288
 30
0.0
 10
416.7146860133
 20
226.3089506817
 30
0.0
  0
LINE
  5
524
330
20D
100
AcDbEntity
  8
PR970_004_00_BL1
  6
Continuous
 62
     7
100
AcDbLine
 10
413.9508404555
 20
235.1317623698
 30
0.0
 11
413.9508404555
 21
234.9935513602
 31
0.0
  0
SPLINE
  5
525
330
20D
100
AcDbEntity
  8
PR970_004_00_BL1
  6
Continuous
 62
     7
100
AcDbSpline
210
0.0
220
0.0
230
1.0
 70
     8
 71
     3
 72
    10
 73
     6
 74
     0
 42
0.0000000001
 43
0.0000000001
 40
0.0
 40
0.0
 40
0.0
 40
0.0
 40
0.280162732
 40
0.5397194464
 40
1.0
 40
1.0
 40
1.0
 40
1.0
 10
425.9716733993
 20
246.4246666208
 30
0.0
 10
425.7988609654
 20
246.324893911
 30
0.0
 10
425.4762912787
 20
246.1128840092
 30
0.0
 10
424.9393116445999
 20
245.6442733793
 30
0.0
 10
424.6327319119
 20
245.2135711393
 30
0.0
 10
424.5084449413999
 20
244.9102085521
 30
0.0
  0
SPLINE
  5
526
330
20D
100
AcDbEntity
  8
PR970_004_00_BL1
  6
Continuous
 62
     7
100
AcDbSpline
210
0.0
220
0.0
230
1.0
 70
     8
 71
     3
 72
     9
 73
     5
 74
     0
 42
0.0000000001
 43
0.0000000001
 40
0.0
 40
0.0
 40
0.0
 40
0.0
 40
0.2538361268
 40
1.0
 40
1.0
 40
1.0
 40
1.0
 10
424.5084449413999
 20
244.9102085521
 30
0.0
 10
424.4961823144999
 20
244.8802776415
 30
0.0
 10
424.4505653964999
 20
244.761283766
 30
0.0
 10
424.4160421721
 20
244.6379932447
 30
0.0
 10
424.3973315026999
 20
244.5447712196
 30
0.0
  0
LINE
  5
527
330
20D
100
AcDbEntity
  8
PR970_004_00_BL1
  6
Continuous
 62
     7
100
AcDbLine
 10
441.0699862294999
 20
242.1984971446
 30
0.0
 11
440.7164343108999
 21
241.9943750676
 31
0.0
  0
LINE
  5
528
330
20D
100
AcDbEntity
  8
PR970_004_00_BL1
  6
Continuous
 62
     7
100
AcDbLine
 10
440.7164343108999
 20
241.9943750676
 30
0.0
 11
433.3166521904
 21
237.7221343703
 31
0.0
  0
LINE
  5
529
330
20D
100
AcDbEntity
  8
PR970_004_00_BL1
  6
Continuous
 62
     7
100
AcDbLine
 10
433.3166521904
 20
237.7221343703
 30
0.0
 11
433.2918440201999
 21
237.707811452
 31
0.0
  0
LINE
  5
52A
330
20D
100
AcDbEntity
  8
PR970_004_00_BL1
  6
Continuous
 62
     7
100
AcDbLine
 10
436.1325691313999
 20
228.9907900906
 30
0.0
 11
436.9580646338
 21
229.4673872962
 31
0.0
  0
SPLINE
  5
52B
330
20D
100
AcDbEntity
  8
PR970_004_00_BL1
  6
Continuous
 62
     7
100
AcDbSpline
210
0.0
220
0.0
230
1.0
 70
     8
 71
     3
 72
     9
 73
     5
 74
     0
 42
0.0000000001
 43
0.0000000001
 40
0.0
 40
0.0
 40
0.0
 40
0.0
 40
0.2648245506
 40
1.0
 40
1.0
 40
1.0
 40
1.0
 10
453.0969645908999
 20
229.784161539
 30
0.0
 10
453.1128691191999
 20
229.7353570585
 30
0.0
 10
453.1666773346
 20
229.549217
 30
0.0
 10
453.1953094984999
 20
229.3548392448
 30
0.0
 10
453.1953094984999
 20
229.2123411159
 30
0.0
  0
SPLINE
  5
52C
330
20D
100
AcDbEntity
  8
PR970_004_00_BL1
  6
Continuous
 62
     7
100
AcDbSpline
210
0.0
220
0.0
230
1.0
 70
     8
 71
     3
 72
     9
 73
     5
 74
     0
 42
0.0000000001
 43
0.0000000001
 40
0.0
 40
0.0
 40
0.0
 40
0.0
 40
0.2754536496
 40
1.0
 40
1.0
 40
1.0
 40
1.0
 10
443.4726258489
 20
215.2957313106
 30
0.0
 10
443.4726258489
 20
215.3636321531
 30
0.0
 10
443.4609375987
 20
215.6093737409
 30
0.0
 10
443.3969834027999
 20
215.8571574651
 30
0.0
 10
443.3090733262
 20
216.0126291535
 30
0.0
  0
SPLINE
  5
52D
330
20D
100
AcDbEntity
  8
PR970_004_00_BL1
  6
Continuous
 62
     7
100
AcDbSpline
210
0.0
220
0.0
230
1.0
 70
     8
 71
     3
 72
     9
 73
     5
 74
     0
 42
0.0000000001
 43
0.0000000001
 40
0.0
 40
0.0
 40
0.0
 40
0.0
 40
0.2648245506
 40
1.0
 40
1.0
 40
1.0
 40
1.0
 10
446.3087677536
 20
225.8650176618
 30
0.0
 10
446.324672282
 20
225.8162131813
 30
0.0
 10
446.3784804973999
 20
225.6300731228
 30
0.0
 10
446.4071126612999
 20
225.4356953676
 30
0.0
 10
446.4071126612999
 20
225.2931972387
 30
0.0
  0
LINE
  5
52E
330
20D
100
AcDbEntity
  8
PR970_004_00_BL1
  6
Continuous
 62
     7
100
AcDbLine
 10
431.2750846569
 20
204.7145547672
 30
0.0
 11
430.4376097045
 21
204.2310412641
 31
0.0
  0
LINE
  5
52F
330
20D
100
AcDbEntity
  8
PR970_004_00_BL1
  6
Continuous
 62
     7
100
AcDbLine
 10
430.4376097045
 20
204.2310412641
 30
0.0
 11
428.3847438348
 21
203.0679520766
 31
0.0
  0
SPLINE
  5
530
330
20D
100
AcDbEntity
  8
PR970_004_00_BL1
  6
Continuous
 62
     7
100
AcDbSpline
210
0.0
220
0.0
230
1.0
 70
     8
 71
     3
 72
     9
 73
     5
 74
     0
 42
0.0000000001
 43
0.0000000001
 40
0.0
 40
0.0
 40
0.0
 40
0.0
 40
0.2648245506
 40
1.0
 40
1.0
 40
1.0
 40
1.0
 10
438.601335928
 20
221.4151563846
 30
0.0
 10
438.6172404562999
 20
221.3663519041
 30
0.0
 10
438.6710486716999
 20
221.1802118456
 30
0.0
 10
438.6996808355999
 20
220.9858340904
 30
0.0
 10
438.6996808355999
 20
220.8433359615
 30
0.0
  0
SPLINE
  5
531
330
20D
100
AcDbEntity
  8
PR970_004_00_BL1
  6
Continuous
 62
     7
100
AcDbSpline
210
0.0
220
0.0
230
1.0
 70
     8
 71
     3
 72
    11
 73
     7
 74
     0
 42
0.0000000001
 43
0.0000000001
 40
0.0
 40
0.0
 40
0.0
 40
0.0
 40
0.2897376304
 40
0.5490700755
 40
0.7822189804000001
 40
1.0
 40
1.0
 40
1.0
 40
1.0
 10
440.9977683066
 20
213.0503918637
 30
0.0
 10
440.9977683066
 20
212.9364016284
 30
0.0
 10
441.0150167382
 20
212.7196465704
 30
0.0
 10
441.1028045156999
 20
212.4218299376
 30
0.0
 10
441.2505467643
 20
212.180159712
 30
0.0
 10
441.3893332133
 20
212.0633792206
 30
0.0
 10
441.4635263934999
 20
212.0205242734999
 30
0.0
  0
LINE
  5
532
330
20D
100
AcDbEntity
  8
PR970_004_00_BL1
  6
Continuous
 62
     7
100
AcDbLine
 10
438.6996808355999
 20
220.8433359615
 30
0.0
 11
438.6996808355999
 21
220.705124952
 31
0.0
  0
LINE
  5
533
330
20D
100
AcDbEntity
  8
PR970_004_00_BL1
  6
Continuous
 62
     7
100
AcDbLine
 10
446.4071126612999
 20
225.2931972387
 30
0.0
 11
446.4071126612999
 21
225.1549862292
 31
0.0
  0
LINE
  5
534
330
20D
100
AcDbEntity
  8
PR970_004_00_BL1
  6
Continuous
 62
     7
100
AcDbLine
 10
446.3087677536
 20
225.8650176618
 30
0.0
 11
444.3915774050999
 21
231.7480892607
 31
0.0
  0
SPLINE
  5
535
330
20D
100
AcDbEntity
  8
PR970_004_00_BL1
  6
Continuous
 62
     7
100
AcDbSpline
210
0.0
220
0.0
230
1.0
 70
     8
 71
     3
 72
     9
 73
     5
 74
     0
 42
0.0000000001
 43
0.0000000001
 40
0.0
 40
0.0
 40
0.0
 40
0.0
 40
0.2281676436
 40
1.0
 40
1.0
 40
1.0
 40
1.0
 10
406.6245891843999
 20
232.1199477368
 30
0.0
 10
406.6079873512999
 20
232.0881732257
 30
0.0
 10
406.5461473448
 20
231.9431665453
 30
0.0
 10
406.5262442768
 20
231.7829558219
 30
0.0
 10
406.5262442768
 20
231.6616836625
 30
0.0
  0
SPLINE
  5
536
330
20D
100
AcDbEntity
  8
PR970_004_00_BL1
  6
Continuous
 62
     7
100
AcDbSpline
210
0.0
220
0.0
230
1.0
 70
     8
 71
     3
 72
    11
 73
     7
 74
     0
 42
0.0000000001
 43
0.0000000001
 40
0.0
 40
0.0
 40
0.0
 40
0.0
 40
0.2898033721
 40
0.5490453243
 40
0.7822298497000001
 40
1.0
 40
1.0
 40
1.0
 40
1.0
 10
433.7498803759999
 20
242.7505207382
 30
0.0
 10
433.9912729733
 20
242.8898879873
 30
0.0
 10
434.4291419254999
 20
243.1912812781
 30
0.0
 10
434.9522036616
 20
243.741322142
 30
0.0
 10
435.2833562554
 20
244.349426199
 30
0.0
 10
435.3607493874999
 20
244.7860776051
 30
0.0
 10
435.3607666162
 20
244.9955310863
 30
0.0
  0
SPLINE
  5
537
330
20D
100
AcDbEntity
  8
PR970_004_00_BL1
  6
Continuous
 62
     7
100
AcDbSpline
210
0.0
220
0.0
230
1.0
 70
     8
 71
     3
 72
     9
 73
     5
 74
     0
 42
0.0000000001
 43
0.0000000001
 40
0.0
 40
0.0
 40
0.0
 40
0.0
 40
0.2351846373
 40
1.0
 40
1.0
 40
1.0
 40
1.0
 10
413.9836220912999
 20
235.2845170612
 30
0.0
 10
413.9799688372
 20
235.2775250402
 30
0.0
 10
413.9659736789999
 20
235.2469919328
 30
0.0
 10
413.9579922085999
 20
235.2139083469
 30
0.0
 10
413.9545341319999
 20
235.1884879716
 30
0.0
  0
SPLINE
  5
538
330
20D
100
AcDbEntity
  8
PR970_004_00_BL1
  6
Continuous
 62
     7
100
AcDbSpline
210
0.0
220
0.0
230
1.0
 70
     8
 71
     3
 72
     8
 73
     4
 74
     0
 42
0.0000000001
 43
0.0000000001
 40
0.0
 40
0.0
 40
0.0
 40
0.0
 40
1.0
 40
1.0
 40
1.0
 40
1.0
 10
413.9545341319999
 20
235.1884879716
 30
0.0
 10
413.9519799752999
 20
235.1697123263
 30
0.0
 10
413.9508404555
 20
235.1507109468
 30
0.0
 10
413.9508404555
 20
235.1317623698
 30
0.0
  0
LINE
  5
539
330
20D
100
AcDbEntity
  8
PR970_004_00_BL1
  6
Continuous
 62
     7
100
AcDbLine
 10
413.9836220912999
 20
235.2845170612
 30
0.0
 11
414.0155419975999
 21
235.345609075
 31
0.0
  0
LINE
  5
53A
330
20D
100
AcDbEntity
  8
PR970_004_00_BL1
  6
Continuous
 62
     7
100
AcDbLine
 10
414.0155419975999
 20
235.345609075
 30
0.0
 11
414.0231753469
 21
235.360218663
 31
0.0
  0
LINE
  5
53B
330
20D
100
AcDbEntity
  8
PR970_004_00_BL1
  6
Continuous
 62
     7
100
AcDbLine
 10
438.601335928
 20
221.4151563846
 30
0.0
 11
436.2363349308999
 21
228.6723753707
 31
0.0
  0
LINE
  5
53C
330
20D
100
AcDbEntity
  8
PR970_004_00_BL1
  6
Continuous
 62
     7
100
AcDbLine
 10
436.2363349308999
 20
228.6723753707
 30
0.0
 11
433.2918440201999
 21
237.707811452
 31
0.0
  0
LINE
  5
53D
330
20D
100
AcDbEntity
  8
PR970_004_00_BL1
  6
Continuous
 62
     7
100
AcDbLine
 10
441.0699862294999
 20
243.0149995617
 30
0.0
 11
441.0699862294999
 21
242.3300365503
 31
0.0
  0
LINE
  5
53E
330
20D
100
AcDbEntity
  8
PR970_004_00_BL1
  6
Continuous
 62
     7
100
AcDbLine
 10
441.0699862294999
 20
242.3300365503
 30
0.0
 11
441.0699862294999
 21
242.1984971446
 31
0.0
  0
LINE
  5
53F
330
20D
100
AcDbEntity
  8
PR970_004_00_BL1
  6
Continuous
 62
     7
100
AcDbLine
 10
427.4348958316
 20
250.8870445839
 30
0.0
 11
426.4297097551
 21
251.4673759069
 31
0.0
  0
LINE
  5
540
330
20D
100
AcDbEntity
  8
PR970_004_00_BL1
  6
Continuous
 62
     7
100
AcDbLine
 10
441.0699862294999
 20
243.0149995617
 30
0.0
 11
440.064800153
 21
243.5953308847
 31
0.0
  0
SPLINE
  5
541
330
20D
100
AcDbEntity
  8
PR970_004_00_BL1
  6
Continuous
 62
     7
100
AcDbSpline
210
0.0
220
0.0
230
1.0
 70
     8
 71
     3
 72
     9
 73
     5
 74
     0
 42
0.0000000001
 43
0.0000000001
 40
0.0
 40
0.0
 40
0.0
 40
0.0
 40
0.4794959217
 40
1.0
 40
1.0
 40
1.0
 40
1.0
 10
425.5691714901999
 20
234.4098233132
 30
0.0
 10
425.6436224408999
 20
234.3668400092
 30
0.0
 10
425.7755885474
 20
234.2378438795
 30
0.0
 10
425.8610298787999
 20
234.0767863249
 30
0.0
 10
425.8899447169
 20
233.9880585351
 30
0.0
  0
LINE
  5
542
330
20D
100
AcDbEntity
  8
PR970_004_00_BL1
  6
Continuous
 62
     7
100
AcDbLine
 10
418.6515675457999
 20
246.9766902143
 30
0.0
 11
418.6515675457999
 21
246.3233125008
 31
0.0
  0
LINE
  5
543
330
20D
100
AcDbEntity
  8
PR970_004_00_BL1
  6
Continuous
 62
     7
100
AcDbLine
 10
426.4297097551
 20
251.4673759069
 30
0.0
 11
418.6515675457999
 21
246.9766902143
 31
0.0
  0
SPLINE
  5
544
330
20D
100
AcDbEntity
  8
PR970_004_00_BL1
  6
Continuous
 62
     7
100
AcDbSpline
210
0.0
220
0.0
230
1.0
 70
     8
 71
     3
 72
     9
 73
     5
 74
     0
 42
0.0000000001
 43
0.0000000001
 40
0.0
 40
0.0
 40
0.0
 40
0.0
 40
0.2648245506
 40
1.0
 40
1.0
 40
1.0
 40
1.0
 10
431.2423030210999
 20
217.563864062
 30
0.0
 10
431.2476045305
 20
217.5475959018
 30
0.0
 10
431.2655406023
 20
217.4855492157
 30
0.0
 10
431.2750846569
 20
217.4207566306
 30
0.0
 10
431.2750846569
 20
217.3732572543
 30
0.0
  0
SPLINE
  5
545
330
20D
100
AcDbEntity
  8
PR970_004_00_BL1
  6
Continuous
 62
     7
100
AcDbSpline
210
0.0
220
0.0
230
1.0
 70
     8
 71
     3
 72
    17
 73
    13
 74
     0
 42
0.0000000001
 43
0.0000000001
 40
0.0
 40
0.0
 40
0.0
 40
0.0
 40
0.0428595063
 40
0.0874877944
 40
0.1353201602
 40
0.1872830132
 40
0.3045449606
 40
0.4382158552000001
 40
0.5825636092000001
 40
0.7297219543000001
 40
0.8713137558999999
 40
1.0
 40
1.0
 40
1.0
 40
1.0
 10
435.3607666162
 20
244.9955310863
 30
0.0
 10
435.3607794953999
 20
245.1521064843
 30
0.0
 10
435.3190080962999
 20
245.4730921895
 30
0.0
 10
435.1349683869999
 20
245.9365600638
 30
0.0
 10
434.8363343998999
 20
246.3759778122
 30
0.0
 10
434.2740492082
 20
246.9403300462
 30
0.0
 10
433.3159469489999
 20
247.5236623121
 30
0.0
 10
431.9382576116
 20
247.9838604545
 30
0.0
 10
430.392190631
 20
248.2011365939
 30
0.0
 10
428.8030706230999
 20
248.1571888629
 30
0.0
 10
427.3006544819999
 20
247.8565630381
 30
0.0
 10
426.3788096444
 20
247.4762278555
 30
0.0
 10
425.9716733993
 20
247.2411690379
 30
0.0
  0
SPLINE
  5
546
330
20D
100
AcDbEntity
  8
PR970_004_00_BL1
  6
Continuous
 62
     7
100
AcDbSpline
210
0.0
220
0.0
230
1.0
 70
     8
 71
     3
 72
    11
 73
     7
 74
     0
 42
0.0000000001
 43
0.0000000001
 40
0.0
 40
0.0
 40
0.0
 40
0.0
 40
0.2177799745
 40
0.4508974947000001
 40
0.7103342984000001
 40
1.0
 40
1.0
 40
1.0
 40
1.0
 10
431.6194375728
 20
198.6748416418
 30
0.0
 10
431.677191873
 20
198.7081704286
 30
0.0
 10
431.7853259176
 20
198.798885505
 30
0.0
 10
431.9003986246999
 20
198.9869680612
 30
0.0
 10
431.9687207283999
 20
199.2187403966
 30
0.0
 10
431.9821943821
 20
199.3874376679
 30
0.0
 10
431.9821943821
 20
199.4761291262
 30
0.0
  0
SPLINE
  5
547
330
20D
100
AcDbEntity
  8
PR970_004_00_BL1
  6
Continuous
 62
     7
100
AcDbSpline
210
0.0
220
0.0
230
1.0
 70
     8
 71
     3
 72
     9
 73
     5
 74
     0
 42
0.0000000001
 43
0.0000000001
 40
0.0
 40
0.0
 40
0.0
 40
0.0
 40
0.2344697815
 40
1.0
 40
1.0
 40
1.0
 40
1.0
 10
438.7703912193
 20
220.8841603769
 30
0.0
 10
438.7703912193
 20
220.9296158237
 30
0.0
 10
438.7610303126999
 20
221.123461208
 30
0.0
 10
438.7180302087999
 20
221.3148750619
 30
0.0
 10
438.6720463117
 20
221.4559808
 30
0.0
  0
SPLINE
  5
548
330
20D
100
AcDbEntity
  8
PR970_004_00_BL1
  6
Continuous
 62
     7
100
AcDbSpline
210
0.0
220
0.0
230
1.0
 70
     8
 71
     3
 72
    11
 73
     7
 74
     0
 42
0.0000000001
 43
0.0000000001
 40
0.0
 40
0.0
 40
0.0
 40
0.0
 40
0.2177594406
 40
0.4509249464
 40
0.7102331127000001
 40
1.0
 40
1.0
 40
1.0
 40
1.0
 10
418.9068558166999
 20
246.47070239
 30
0.0
 10
418.9563290326999
 20
246.499250203
 30
0.0
 10
419.0700096163999
 20
246.5404804262
 30
0.0
 10
419.2587944001999
 20
246.5452349032
 30
0.0
 10
419.4600270829
 20
246.496666517
 30
0.0
 10
419.5909294786
 20
246.4343616187
 30
0.0
 10
419.6567536223
 20
246.3963588913
 30
0.0
  0
SPLINE
  5
549
330
20D
100
AcDbEntity
  8
PR970_004_00_BL1
  6
Continuous
 62
     7
100
AcDbSpline
210
0.0
220
0.0
230
1.0
 70
     8
 71
     3
 72
    11
 73
     7
 74
     0
 42
0.0000000001
 43
0.0000000001
 40
0.0
 40
0.0
 40
0.0
 40
0.0
 40
0.2897711737
 40
0.5490731943000001
 40
0.78223939
 40
1.0
 40
1.0
 40
1.0
 40
1.0
 10
412.9392671687
 20
242.5180394295
 30
0.0
 10
412.8734358055999
 20
242.5560463249
 30
0.0
 10
412.7425204156999
 20
242.6183545205
 30
0.0
 10
412.5412671422
 20
242.6669245487
 30
0.0
 10
412.3524655932
 20
242.6621492582
 30
0.0
 10
412.2387771185
 20
242.6209042768
 30
0.0
 10
412.1893032434
 20
242.5923461498
 30
0.0
  0
LINE
  5
54A
330
20D
100
AcDbEntity
  8
PR970_004_00_BL1
  6
Continuous
 62
     9
100
AcDbLine
 10
438.7703912193
 20
220.8841603769
 30
0.0
 11
446.4071126612999
 21
225.2931972387
 31
0.0
  0
SPLINE
  5
54B
330
20D
100
AcDbEntity
  8
PR970_004_00_BL1
  6
Continuous
 62
     7
100
AcDbSpline
210
0.0
220
0.0
230
1.0
 70
     8
 71
     3
 72
    11
 73
     7
 74
     0
 42
0.0000000001
 43
0.0000000001
 40
0.0
 40
0.0
 40
0.0
 40
0.0
 40
0.1894725501
 40
0.4169199666
 40
0.6915360969
 40
1.0
 40
1.0
 40
1.0
 40
1.0
 10
431.1197756624999
 20
199.5410790958
 30
0.0
 10
431.0733176108
 20
199.5142499031
 30
0.0
 10
430.9493267041999
 20
199.4915041472
 30
0.0
 10
430.7595362638999
 20
199.5572929579
 30
0.0
 10
430.5737547021999
 20
199.6959795324
 30
0.0
 10
430.4671569281
 20
199.8241330183
 30
0.0
 10
430.4182472005999
 20
199.8964945118
 30
0.0
  0
SPLINE
  5
54C
330
20D
100
AcDbEntity
  8
PR970_004_00_BL1
  6
Continuous
 62
     7
100
AcDbSpline
210
0.0
220
0.0
230
1.0
 70
     8
 71
     3
 72
    13
 73
     9
 74
     0
 42
0.0000000001
 43
0.0000000001
 40
0.0
 40
0.0
 40
0.0
 40
0.0
 40
0.2747026988
 40
0.5317809228
 40
0.6532575270000001
 40
0.77057714
 40
0.8854510104
 40
1.0
 40
1.0
 40
1.0
 40
1.0
 10
430.4376097045
 20
204.2310412641
 30
0.0
 10
430.6512289425
 20
203.9149935595
 30
0.0
 10
430.9725628952
 20
203.2334426717
 30
0.0
 10
431.0571854888999
 20
202.3064042743
 30
0.0
 10
430.9042747819999
 20
201.6298857428
 30
0.0
 10
430.6906401858999
 20
201.1826609187
 30
0.0
 10
430.3836530717999
 20
200.8058646489
 30
0.0
 10
430.1256873883
 20
200.6126819575
 30
0.0
 10
429.987928395
 20
200.5331472404
 30
0.0
  0
LINE
  5
54D
330
20D
100
AcDbEntity
  8
PR970_004_00_BL1
  6
Continuous
 62
     9
100
AcDbLine
 10
431.2750846569
 20
200.3911868949
 30
0.0
 11
430.4182472005999
 21
199.8964945118
 31
0.0
  0
LINE
  5
54E
330
20D
100
AcDbEntity
  8
PR970_004_00_BL1
  6
Continuous
 62
     7
100
AcDbLine
 10
429.987928395
 20
200.5331472404
 30
0.0
 11
428.3847438348
 21
203.0679520766
 31
0.0
  0
LINE
  5
54F
330
20D
100
AcDbEntity
  8
PR970_004_00_BL1
  6
Continuous
 62
     7
100
AcDbLine
 10
410.1236948241
 20
213.610735129
 30
0.0
 11
412.3134519776999
 21
214.6947918848
 31
0.0
  0
LINE
  5
550
330
20D
100
AcDbEntity
  8
PR970_004_00_BL1
  6
Continuous
 62
     9
100
AcDbLine
 10
438.6720463117
 20
221.4559808
 30
0.0
 11
446.3087677536
 21
225.8650176618
 31
0.0
  0
SPLINE
  5
551
330
20D
100
AcDbEntity
  8
PR970_004_00_BL1
  6
Continuous
 62
     7
100
AcDbSpline
210
0.0
220
0.0
230
1.0
 70
     8
 71
     3
 72
     9
 73
     5
 74
     0
 42
0.0000000001
 43
0.0000000001
 40
0.0
 40
0.0
 40
0.0
 40
0.0
 40
0.2344697815
 40
1.0
 40
1.0
 40
1.0
 40
1.0
 10
431.9821943821
 20
216.9650164998
 30
0.0
 10
431.9821943821
 20
217.0104719465
 30
0.0
 10
431.9728334755
 20
217.2043173308
 30
0.0
 10
431.9298333716
 20
217.3957311848
 30
0.0
 10
431.8838494745
 20
217.5368369228
 30
0.0
  0
LINE
  5
552
330
20D
100
AcDbEntity
  8
PR970_004_00_BL1
  6
Continuous
 62
     9
100
AcDbLine
 10
431.9821943821
 20
216.9650164998
 30
0.0
 11
438.6996808355999
 21
220.8433359615
 31
0.0
  0
LINE
  5
553
330
20D
100
AcDbEntity
  8
PR970_004_00_BL1
  6
Continuous
 62
     7
100
AcDbLine
 10
430.4182472005999
 20
199.8964945118
 30
0.0
 11
429.987928395
 21
200.5331472404
 31
0.0
  0
LINE
  5
554
330
20D
100
AcDbEntity
  8
PR970_004_00_BL1
  6
Continuous
 62
     9
100
AcDbLine
 10
431.8838494745
 20
217.5368369228
 30
0.0
 11
438.601335928
 21
221.4151563846
 31
0.0
  0
LINE
  5
555
330
20D
100
AcDbEntity
  8
PR970_004_00_BL1
  6
Continuous
 62
     7
100
AcDbLine
 10
425.5691714901999
 20
235.2263257303
 30
0.0
 11
412.9392671687
 21
242.5180394295
 31
0.0
  0
SPLINE
  5
556
330
20D
100
AcDbEntity
  8
PR970_004_00_BL1
  6
Continuous
 62
     7
100
AcDbSpline
210
0.0
220
0.0
230
1.0
 70
     8
 71
     3
 72
    10
 73
     6
 74
     0
 42
0.0000000001
 43
0.0000000001
 40
0.0
 40
0.0
 40
0.0
 40
0.0
 40
0.5193156338
 40
0.7709517612000001
 40
1.0
 40
1.0
 40
1.0
 40
1.0
 10
426.5314911703
 20
233.9610313959
 30
0.0
 10
426.4447471333999
 20
234.2272133012
 30
0.0
 10
426.2450095558
 20
234.603386603
 30
0.0
 10
425.8842485198
 20
235.0059522942
 30
0.0
 10
425.6761074797
 20
235.1645876047
 30
0.0
 10
425.5691714901999
 20
235.2263257303
 30
0.0
  0
SPLINE
  5
557
330
20D
100
AcDbEntity
  8
PR970_004_00_BL1
  6
Continuous
 62
     7
100
AcDbSpline
210
0.0
220
0.0
230
1.0
 70
     8
 71
     3
 72
    11
 73
     7
 74
     0
 42
0.0000000001
 43
0.0000000001
 40
0.0
 40
0.0
 40
0.0
 40
0.0
 40
0.2897376304
 40
0.5490700755
 40
0.7822189804000001
 40
1.0
 40
1.0
 40
1.0
 40
1.0
 10
444.179735574
 20
214.8874905561
 30
0.0
 10
444.179735574
 20
215.0014807914
 30
0.0
 10
444.1624871423999
 20
215.2182358494
 30
0.0
 10
444.0746993648999
 20
215.5160524822
 30
0.0
 10
443.9269571162999
 20
215.7577227078
 30
0.0
 10
443.7881706673
 20
215.8745031992
 30
0.0
 10
443.7139774871
 20
215.9173581463
 30
0.0
  0
SPLINE
  5
558
330
20D
100
AcDbEntity
  8
PR970_004_00_BL1
  6
Continuous
 62
     7
100
AcDbSpline
210
0.0
220
0.0
230
1.0
 70
     8
 71
     3
 72
    12
 73
     8
 74
     0
 42
0.0000000001
 43
0.0000000001
 40
0.0
 40
0.0
 40
0.0
 40
0.0
 40
0.0928501504
 40
0.2043141055
 40
0.4656959952000001
 40
0.7449441237000001
 40
1.0
 40
1.0
 40
1.0
 40
1.0
 10
412.3134519776999
 20
214.6947918848
 30
0.0
 10
412.1901208844999
 20
214.6547319209
 30
0.0
 10
411.9213807875
 20
214.5584642549
 30
0.0
 10
411.3169648477
 20
214.3181136142
 30
0.0
 10
410.4844859897
 20
213.9479125215
 30
0.0
 10
409.4864325373
 20
213.4589091102
 30
0.0
 10
408.8289974133
 20
213.1051905645
 30
0.0
 10
408.5205102638999
 20
212.9270864889
 30
0.0
  0
SPLINE
  5
559
330
20D
100
AcDbEntity
  8
PR970_004_00_BL1
  6
Continuous
 62
     7
100
AcDbSpline
210
0.0
220
0.0
230
1.0
 70
     8
 71
     3
 72
    16
 73
    12
 74
     0
 42
0.0000000001
 43
0.0000000001
 40
0.0
 40
0.0
 40
0.0
 40
0.0
 40
0.1914140437
 40
0.3324130273
 40
0.3844453328
 40
0.4250239154
 40
0.4560637876
 40
0.4818054603000001
 40
0.5429957559
 40
0.6457313418
 40
1.0
 40
1.0
 40
1.0
 40
1.0
 10
429.0023791542999
 20
224.4111719168
 30
0.0
 10
428.9625582005999
 20
224.4015555086
 30
0.0
 10
428.8929796223
 20
224.3866631274
 30
0.0
 10
428.8109938997
 20
224.3766088782
 30
0.0
 10
428.7608750241999
 20
224.3782580062
 30
0.0
 10
428.734787473
 20
224.3833711903
 30
0.0
 10
428.7155756143
 20
224.392593732
 30
0.0
 10
428.7000417115
 20
224.4144274233
 30
0.0
 10
428.7131068841
 20
224.458280776
 30
0.0
 10
428.7820809175
 20
224.5428672986
 30
0.0
 10
428.8593730728999
 20
224.6060809472
 30
0.0
 10
428.9194553848
 20
224.6523265217
 30
0.0
  0
LINE
  5
55A
330
20D
100
AcDbEntity
  8
PR970_004_00_BL1
  6
Continuous
 62
     7
100
AcDbLine
 10
438.7703912193
 20
220.7459493674
 30
0.0
 11
438.6996808355999
 21
220.705124952
 31
0.0
  0
LINE
  5
55B
330
20D
100
AcDbEntity
  8
PR970_004_00_BL1
  6
Continuous
 62
     7
100
AcDbLine
 10
438.7703912193
 20
220.8841603769
 30
0.0
 11
438.7703912193
 21
220.7459493674
 31
0.0
  0
LINE
  5
55C
330
20D
100
AcDbEntity
  8
PR970_004_00_BL1
  6
Continuous
 62
     7
100
AcDbLine
 10
429.0317767045999
 20
224.34706355
 30
0.0
 11
412.3134519776999
 21
214.6947918848
 31
0.0
  0
LINE
  5
55D
330
20D
100
AcDbEntity
  8
PR970_004_00_BL1
  6
Continuous
 62
     7
100
AcDbLine
 10
446.477823045
 20
225.1958106446
 30
0.0
 11
446.4071126612999
 21
225.1549862292
 31
0.0
  0
LINE
  5
55E
330
20D
100
AcDbEntity
  8
PR970_004_00_BL1
  6
Continuous
 62
     7
100
AcDbLine
 10
446.477823045
 20
225.3340216541
 30
0.0
 11
446.477823045
 21
225.1958106446
 31
0.0
  0
LINE
  5
55F
330
20D
100
AcDbEntity
  8
PR970_004_00_BL1
  6
Continuous
 62
     9
100
AcDbLine
 10
453.1953094984999
 20
211.7234537424
 30
0.0
 11
431.9821943821
 21
199.4761291262
 31
0.0
  0
LINE
  5
560
330
20D
100
AcDbEntity
  8
PR970_004_00_BL1
  6
Continuous
 62
     7
100
AcDbLine
 10
438.6720463117
 20
221.4559808
 30
0.0
 11
436.3122835759999
 21
228.6971257084
 31
0.0
  0
LINE
  5
561
330
20D
100
AcDbEntity
  8
PR970_004_00_BL1
  6
Continuous
 62
     7
100
AcDbLine
 10
436.3122835759999
 20
228.6971257084
 30
0.0
 11
437.3022470551999
 21
229.268677978
 31
0.0
  0
LINE
  5
562
330
20D
100
AcDbEntity
  8
PR970_004_00_BL1
  6
Continuous
 62
     9
100
AcDbLine
 10
428.8861883347999
 20
224.7938146014
 30
0.0
 11
408.0901914583
 21
212.7873118759
 31
0.0
  0
LINE
  5
563
330
20D
100
AcDbEntity
  8
PR970_004_00_BL1
  6
Continuous
 62
     9
100
AcDbLine
 10
433.2489776237999
 20
237.8393508577
 30
0.0
 11
433.2241694536
 21
237.8250279394
 31
0.0
  0
LINE
  5
564
330
20D
100
AcDbEntity
  8
PR970_004_00_BL1
  6
Continuous
 62
     9
100
AcDbLine
 10
433.2241694536
 20
237.8250279394
 30
0.0
 11
426.5314911703
 21
233.9610313959
 31
0.0
  0
LINE
  5
565
330
20D
100
AcDbEntity
  8
PR970_004_00_BL1
  6
Continuous
 62
     7
100
AcDbLine
 10
433.2489776237999
 20
237.8393508577
 30
0.0
 11
433.2918440201999
 21
237.707811452
 31
0.0
  0
LINE
  5
566
330
20D
100
AcDbEntity
  8
PR970_004_00_BL1
  6
Continuous
 62
     9
100
AcDbLine
 10
441.0699862294999
 20
242.3547853281
 30
0.0
 11
447.7446062867
 21
246.2083560121
 31
0.0
  0
SPLINE
  5
567
330
20D
100
AcDbEntity
  8
PR970_004_00_BL1
  6
Continuous
 62
     7
100
AcDbSpline
210
0.0
220
0.0
230
1.0
 70
     8
 71
     3
 72
    11
 73
     7
 74
     0
 42
0.0000000001
 43
0.0000000001
 40
0.0
 40
0.0
 40
0.0
 40
0.0
 40
0.2897376304
 40
0.5490700755
 40
0.7822189804000001
 40
1.0
 40
1.0
 40
1.0
 40
1.0
 10
419.4308951938999
 20
229.1759169643
 30
0.0
 10
419.4308951938999
 20
229.2899071996
 30
0.0
 10
419.4136467623001
 20
229.5066622576
 30
0.0
 10
419.3258589846999
 20
229.8044788904
 30
0.0
 10
419.1781167360999
 20
230.046149116
 30
0.0
 10
419.0393302870999
 20
230.1629296074001
 30
0.0
 10
418.965137107
 20
230.2057845545
 30
0.0
  0
SPLINE
  5
568
330
20D
100
AcDbEntity
  8
PR970_004_00_BL1
  6
Continuous
 62
     7
100
AcDbSpline
210
0.0
220
0.0
230
1.0
 70
     8
 71
     3
 72
    11
 73
     7
 74
     0
 42
0.0000000001
 43
0.0000000001
 40
0.0
 40
0.0
 40
0.0
 40
0.0
 40
0.2898033721
 40
0.5490453243
 40
0.7822298497000001
 40
1.0
 40
1.0
 40
1.0
 40
1.0
 10
425.9716733993
 20
247.2411690379
 30
0.0
 10
425.7302808019999
 20
247.1018017887
 30
0.0
 10
425.2924118498
 20
246.8004084979
 30
0.0
 10
424.7693501137
 20
246.250367634
 30
0.0
 10
424.4381975198999
 20
245.642263577
 30
0.0
 10
424.3608043877999
 20
245.2056121709
 30
0.0
 10
424.3607871591
 20
244.9961586897
 30
0.0
  0
SPLINE
  5
569
330
20D
100
AcDbEntity
  8
PR970_004_00_BL1
  6
Continuous
 62
     7
100
AcDbSpline
210
0.0
220
0.0
230
1.0
 70
     8
 71
     3
 72
    16
 73
    12
 74
     0
 42
0.0000000001
 43
0.0000000001
 40
0.0
 40
0.0
 40
0.0
 40
0.0
 40
0.0428787394
 40
0.0875260083
 40
0.1869253741
 40
0.3042343478
 40
0.4379612797
 40
0.5823724483000001
 40
0.7295998290000001
 40
0.8712491058000001
 40
1.0
 40
1.0
 40
1.0
 40
1.0
 10
441.4635263934999
 20
212.0205242734999
 30
0.0
 10
441.5189944833
 20
211.9884851824
 30
0.0
 10
441.6412469981
 20
211.9375901964
 30
0.0
 10
441.919951879
 20
211.8966990249
 30
0.0
 10
442.313420315
 20
211.973405776
 30
0.0
 10
442.7769495198999
 20
212.2275966681
 30
0.0
 10
443.2225132127999
 20
212.621649744
 30
0.0
 10
443.6155474638
 20
213.1249324151
 30
0.0
 10
443.9250825608
 20
213.6969515776
 30
0.0
 10
444.1259262498
 20
214.2907380691
 30
0.0
 10
444.179735574
 20
214.6951502775
 30
0.0
 10
444.179735574
 20
214.8874905561
 30
0.0
  0
LINE
  5
56A
330
20D
100
AcDbEntity
  8
PR970_004_00_BL1
  6
Continuous
 62
     9
100
AcDbLine
 10
432.2866579437
 20
239.1046451921
 30
0.0
 11
425.5691714901999
 21
235.2263257303
 31
0.0
  0
LINE
  5
56B
330
20D
100
AcDbEntity
  8
PR970_004_00_BL1
  6
Continuous
 62
     9
100
AcDbLine
 10
419.6567536223
 20
246.3963588913
 30
0.0
 11
412.9392671687
 21
242.5180394295
 31
0.0
  0
LINE
  5
56C
330
20D
100
AcDbEntity
  8
PR970_004_00_BL1
  6
Continuous
 62
     9
100
AcDbLine
 10
427.4348958316
 20
250.8870445839
 30
0.0
 11
434.1523822851999
 21
254.7653640457
 31
0.0
  0
LINE
  5
56D
330
20D
100
AcDbEntity
  8
PR970_004_00_BL1
  6
Continuous
 62
     9
100
AcDbLine
 10
440.064800153
 20
243.5953308847
 30
0.0
 11
446.7822866066
 21
247.4736503465
 31
0.0
  0
LINE
  5
56E
330
20D
100
AcDbEntity
  8
PR970_004_00_BL1
  6
Continuous
 62
     7
100
AcDbLine
 10
436.2270997549
 20
228.7007143418
 30
0.0
 11
436.3122835759999
 21
228.6971257084
 31
0.0
  0
LINE
  5
56F
330
20D
100
AcDbEntity
  8
PR970_004_00_BL1
  6
Continuous
 62
     9
100
AcDbLine
 10
428.4464691183999
 20
226.0118801506
 30
0.0
 11
407.2333540019
 21
213.7645555345
 31
0.0
  0
LINE
  5
570
330
20D
100
AcDbEntity
  8
PR970_004_00_BL1
  6
Continuous
 62
     7
100
AcDbLine
 10
431.8838494745
 20
217.5368369228
 30
0.0
 11
426.5314911703
 21
233.9610313959
 31
0.0
  0
LINE
  5
571
330
20D
100
AcDbEntity
  8
PR970_004_00_BL1
  6
Continuous
 62
     7
100
AcDbLine
 10
414.0215508392
 20
235.0343757756
 30
0.0
 11
413.9508404555
 21
234.9935513602
 31
0.0
  0
LINE
  5
572
330
20D
100
AcDbEntity
  8
PR970_004_00_BL1
  6
Continuous
 62
     7
100
AcDbLine
 10
441.0699862294999
 20
242.1984971446
 30
0.0
 11
441.2338558761
 21
241.6956483458
 31
0.0
  0
LINE
  5
573
330
20D
100
AcDbEntity
  8
PR970_004_00_BL1
  6
Continuous
 62
     7
100
AcDbLine
 10
444.4622877888
 20
231.7889136761
 30
0.0
 11
446.3794781374
 21
225.9058420772
 31
0.0
  0
SPLINE
  5
574
330
20D
100
AcDbEntity
  8
PR970_004_00_BL1
  6
Continuous
 62
     7
100
AcDbSpline
210
0.0
220
0.0
230
1.0
 70
     8
 71
     3
 72
     9
 73
     5
 74
     0
 42
0.0000000001
 43
0.0000000001
 40
0.0
 40
0.0
 40
0.0
 40
0.0
 40
0.2351846373
 40
1.0
 40
1.0
 40
1.0
 40
1.0
 10
414.0543324751
 20
235.3253414766
 30
0.0
 10
414.0506792208999
 20
235.3183494556
 30
0.0
 10
414.0366840627999
 20
235.2878163482
 30
0.0
 10
414.0287025923
 20
235.2547327623
 30
0.0
 10
414.0252445157
 20
235.229312387
 30
0.0
  0
SPLINE
  5
575
330
20D
100
AcDbEntity
  8
PR970_004_00_BL1
  6
Continuous
 62
     7
100
AcDbSpline
210
0.0
220
0.0
230
1.0
 70
     8
 71
     3
 72
     8
 73
     4
 74
     0
 42
0.0000000001
 43
0.0000000001
 40
0.0
 40
0.0
 40
0.0
 40
0.0
 40
1.0
 40
1.0
 40
1.0
 40
1.0
 10
414.0252445157
 20
235.229312387
 30
0.0
 10
414.0226903591
 20
235.2105367417
 30
0.0
 10
414.0215508392
 20
235.1915353622
 30
0.0
 10
414.0215508392
 20
235.1725867851
 30
0.0
  0
LINE
  5
576
330
20D
100
AcDbEntity
  8
PR970_004_00_BL1
  6
Continuous
 62
     7
100
AcDbLine
 10
414.0215508392
 20
235.1725867851
 30
0.0
 11
414.0215508392
 21
235.0343757756
 31
0.0
  0
SPLINE
  5
577
330
20D
100
AcDbEntity
  8
PR970_004_00_BL1
  6
Continuous
 62
     7
100
AcDbSpline
210
0.0
220
0.0
230
1.0
 70
     8
 71
     3
 72
    16
 73
    12
 74
     0
 42
0.0000000001
 43
0.0000000001
 40
0.0
 40
0.0
 40
0.0
 40
0.0
 40
0.0428787394
 40
0.0875260083
 40
0.1869253741
 40
0.3042343478
 40
0.4379612797
 40
0.5823724483000001
 40
0.7295998290000001
 40
0.8712491058000001
 40
1.0
 40
1.0
 40
1.0
 40
1.0
 10
416.7146860133
 20
226.3089506817
 30
0.0
 10
416.7701541030999
 20
226.2769115906
 30
0.0
 10
416.8924066179
 20
226.2260166046
 30
0.0
 10
417.1711114987999
 20
226.1851254331
 30
0.0
 10
417.5645799348
 20
226.2618321842
 30
0.0
 10
418.0281091397
 20
226.5160230763
 30
0.0
 10
418.4736728326
 20
226.9100761522
 30
0.0
 10
418.8667070836999
 20
227.4133588234
 30
0.0
 10
419.1762421806999
 20
227.9853779859
 30
0.0
 10
419.3770858695999
 20
228.5791644773
 30
0.0
 10
419.4308951938999
 20
228.9835766857
 30
0.0
 10
419.4308951938999
 20
229.1759169643
 30
0.0
  0
LINE
  5
578
330
20D
100
AcDbEntity
  8
PR970_004_00_BL1
  6
Continuous
 62
     7
100
AcDbLine
 10
438.6996808355999
 20
220.7867731029
 30
0.0
 11
438.7350351221
 21
220.7663617579
 31
0.0
  0
LINE
  5
579
330
20D
100
AcDbEntity
  8
PR970_004_00_BL1
  6
Continuous
 62
     7
100
AcDbLine
 10
438.7350351221
 20
220.7663617579
 30
0.0
 11
438.7703912193
 21
220.7459493674
 31
0.0
  0
LINE
  5
57A
330
20D
100
AcDbEntity
  8
PR970_004_00_BL1
  6
Continuous
 62
     7
100
AcDbLine
 10
413.9508404555
 20
235.0751995111
 30
0.0
 11
413.986194742
 21
235.0547881661
 31
0.0
  0
LINE
  5
57B
330
20D
100
AcDbEntity
  8
PR970_004_00_BL1
  6
Continuous
 62
     7
100
AcDbLine
 10
413.986194742
 20
235.0547881661
 30
0.0
 11
414.0215508392
 21
235.0343757756
 31
0.0
  0
LINE
  5
57C
330
20D
100
AcDbEntity
  8
PR970_004_00_BL1
  6
Continuous
 62
     7
100
AcDbLine
 10
431.9821943821
 20
199.4761291262
 30
0.0
 11
431.9821943821
 21
216.9650164998
 31
0.0
  0
LINE
  5
57D
330
20D
100
AcDbEntity
  8
PR970_004_00_BL1
  6
Continuous
 62
     7
100
AcDbLine
 10
414.0543324751
 20
235.3253414766
 30
0.0
 11
414.0611118013
 21
235.3383165364
 31
0.0
  0
LINE
  5
57E
330
20D
100
AcDbEntity
  8
PR970_004_00_BL1
  6
Continuous
 62
     7
100
AcDbLine
 10
407.2661356378
 20
231.4061975994
 30
0.0
 11
412.6184939419999
 21
241.6501608725
 31
0.0
  0
LINE
  5
57F
330
20D
100
AcDbEntity
  8
PR970_004_00_BL1
  6
Continuous
 62
     9
100
AcDbLine
 10
414.1848593820999
 20
235.2668724536
 30
0.0
 11
414.04157128
 21
235.184145523
 31
0.0
  0
LINE
  5
580
330
20D
100
AcDbEntity
  8
PR970_004_00_BL1
  6
Continuous
 62
     9
100
AcDbLine
 10
414.04157128
 20
235.184145523
 30
0.0
 11
414.0215508392
 21
235.1725867851
 31
0.0
  0
LINE
  5
581
330
20D
100
AcDbEntity
  8
PR970_004_00_BL1
  6
Continuous
 62
     9
100
AcDbLine
 10
414.068959002
 20
235.3337860554
 30
0.0
 11
414.0543324751
 21
235.3253414766
 31
0.0
  0
LINE
  5
582
330
20D
100
AcDbEntity
  8
PR970_004_00_BL1
  6
Continuous
 62
     9
100
AcDbLine
 10
413.9508404555
 20
235.1317623698
 30
0.0
 11
407.2333540019
 21
231.253442908
 31
0.0
  0
SPLINE
  5
583
330
20D
100
AcDbEntity
  8
PR970_004_00_BL1
  6
Continuous
 62
     7
100
AcDbSpline
210
0.0
220
0.0
230
1.0
 70
     8
 71
     3
 72
     9
 73
     5
 74
     0
 42
0.0000000001
 43
0.0000000001
 40
0.0
 40
0.0
 40
0.0
 40
0.0
 40
0.2742144977
 40
1.0
 40
1.0
 40
1.0
 40
1.0
 10
407.2333540019
 20
231.253442908
 30
0.0
 10
407.2333540019
 20
231.267795156
 30
0.0
 10
407.2357092294
 20
231.3199980244
 30
0.0
 10
407.2485441867
 20
231.3725290428
 30
0.0
 10
407.2661356378
 20
231.4061975994
 30
0.0
  0
LINE
  5
584
330
20D
100
AcDbEntity
  8
PR970_004_00_BL1
  6
Continuous
 62
     9
100
AcDbLine
 10
413.9836220912999
 20
235.2845170612
 30
0.0
 11
407.2661356378
 21
231.4061975994
 31
0.0
  0
LINE
  5
585
330
20D
100
AcDbEntity
  8
PR970_004_00_BL1
  6
Continuous
 62
     7
100
AcDbLine
 10
446.4071126612999
 20
225.2366343801
 30
0.0
 11
446.4424669477999
 21
225.2162230351
 31
0.0
  0
LINE
  5
586
330
20D
100
AcDbEntity
  8
PR970_004_00_BL1
  6
Continuous
 62
     7
100
AcDbLine
 10
446.4424669477999
 20
225.2162230351
 30
0.0
 11
446.477823045
 21
225.1958106446
 31
0.0
  0
LINE
  5
587
330
20D
100
AcDbEntity
  8
PR970_004_00_BL1
  6
Continuous
 62
     9
100
AcDbLine
 10
412.7834527909
 20
241.7453993398
 30
0.0
 11
412.7044592329999
 21
241.6997926602
 31
0.0
  0
LINE
  5
588
330
20D
100
AcDbEntity
  8
PR970_004_00_BL1
  6
Continuous
 62
     9
100
AcDbLine
 10
412.7044592329999
 20
241.6997926602
 30
0.0
 11
412.6184939419999
 21
241.6501608725
 31
0.0
  0
SPLINE
  5
589
330
20D
100
AcDbEntity
  8
PR970_004_00_BL1
  6
Continuous
 62
     7
100
AcDbSpline
210
0.0
220
0.0
230
1.0
 70
     8
 71
     3
 72
     9
 73
     5
 74
     0
 42
0.0000000001
 43
0.0000000001
 40
0.0
 40
0.0
 40
0.0
 40
0.0
 40
0.2627688437
 40
1.0
 40
1.0
 40
1.0
 40
1.0
 10
412.6184939419999
 20
241.6501608725
 30
0.0
 10
412.6227379381999
 20
241.658283524
 30
0.0
 10
412.6406750484999
 20
241.6881940334
 30
0.0
 10
412.6669212880999
 20
241.7133858391
 30
0.0
 10
412.6891838149999
 20
241.7262506091
 30
0.0
  0
SPLINE
  5
58A
330
20D
100
AcDbEntity
  8
PR970_004_00_BL1
  6
Continuous
 62
     7
100
AcDbSpline
210
0.0
220
0.0
230
1.0
 70
     8
 71
     3
 72
     9
 73
     5
 74
     0
 42
0.0000000001
 43
0.0000000001
 40
0.0
 40
0.0
 40
0.0
 40
0.0
 40
0.2344697815
 40
1.0
 40
1.0
 40
1.0
 40
1.0
 10
446.477823045
 20
225.3340216541
 30
0.0
 10
446.477823045
 20
225.3794771009
 30
0.0
 10
446.4684621383999
 20
225.5733224852
 30
0.0
 10
446.4254620344999
 20
225.7647363391
 30
0.0
 10
446.3794781374
 20
225.9058420772
 30
0.0
  0
LINE
  5
58B
330
20D
100
AcDbEntity
  8
PR970_004_00_BL1
  6
Continuous
 62
     7
100
AcDbLine
 10
433.2918440201999
 20
238.5243138691
 30
0.0
 11
441.0699862294999
 21
243.0149995617
 31
0.0
  0
LINE
  5
58C
330
20D
100
AcDbEntity
  8
PR970_004_00_BL1
  6
Continuous
 62
     7
100
AcDbLine
 10
433.2918440201999
 20
237.707811452
 30
0.0
 11
433.2918440201999
 21
238.5243138691
 31
0.0
  0
LINE
  5
58D
330
20D
100
AcDbEntity
  8
PR970_004_00_BL1
  6
Continuous
 62
     9
100
AcDbLine
 10
446.477823045
 20
225.3340216541
 30
0.0
 11
453.1953094984999
 21
229.2123411159
 31
0.0
  0
LINE
  5
58E
330
20D
100
AcDbEntity
  8
PR970_004_00_BL1
  6
Continuous
 62
     7
100
AcDbLine
 10
407.2333540019
 20
213.7645555345
 30
0.0
 11
407.2333540019
 21
231.253442908
 31
0.0
  0
SPLINE
  5
58F
330
20D
100
AcDbEntity
  8
PR970_004_00_BL1
  6
Continuous
 62
     7
100
AcDbSpline
210
0.0
220
0.0
230
1.0
 70
     8
 71
     3
 72
    13
 73
     9
 74
     0
 42
0.0000000001
 43
0.0000000001
 40
0.0
 40
0.0
 40
0.0
 40
0.0
 40
0.0892714916
 40
0.1930228066
 40
0.3136390821
 40
0.448514423
 40
0.7358562443000001
 40
1.0
 40
1.0
 40
1.0
 40
1.0
 10
408.0901914583
 20
212.7873118759
 30
0.0
 10
408.0495079884999
 20
212.774097217
 30
0.0
 10
407.9538546543999
 20
212.7680396125
 30
0.0
 10
407.8086234557
 20
212.8144764595
 30
0.0
 10
407.6622933041
 20
212.907913838
 30
0.0
 10
407.4745468234
 20
213.0899095822
 30
0.0
 10
407.299752454
 20
213.3743703039
 30
0.0
 10
407.2333540019
 20
213.6379869169
 30
0.0
 10
407.2333540019
 20
213.7645555345
 30
0.0
  0
LINE
  5
590
330
20D
100
AcDbEntity
  8
PR970_004_00_BL1
  6
Continuous
 62
     7
100
AcDbLine
 10
418.6515675457999
 20
246.9766902143
 30
0.0
 11
419.6567536223
 21
246.3963588913
 31
0.0
  0
SPLINE
  5
591
330
20D
100
AcDbEntity
  8
PR970_004_00_BL1
  6
Continuous
 62
     7
100
AcDbSpline
210
0.0
220
0.0
230
1.0
 70
     8
 71
     3
 72
    10
 73
     6
 74
     0
 42
0.0000000001
 43
0.0000000001
 40
0.0
 40
0.0
 40
0.0
 40
0.0
 40
0.2290480434
 40
0.4806841766
 40
1.0
 40
1.0
 40
1.0
 40
1.0
 10
432.2866579437
 20
239.1046451921
 30
0.0
 10
432.3935938515
 20
239.0429071137
 30
0.0
 10
432.6017340391
 20
238.8842709712
 30
0.0
 10
432.962497871
 20
238.4817077717
 30
0.0
 10
433.1622335476
 20
238.1055328836
 30
0.0
 10
433.2489776237999
 20
237.8393508577
 30
0.0
  0
LINE
  5
592
330
20D
100
AcDbEntity
  8
PR970_004_00_BL1
  6
Continuous
 62
     7
100
AcDbLine
 10
432.2866579437
 20
239.1046451921
 30
0.0
 11
433.2918440201999
 21
238.5243138691
 31
0.0
  0
LINE
  5
593
330
20D
100
AcDbEntity
  8
PR970_004_00_BL1
  6
Continuous
 62
     7
100
AcDbLine
 10
408.5205102638999
 20
212.9270864889
 30
0.0
 11
408.0901914583
 21
212.7873118759
 31
0.0
  0
LINE
  5
594
330
20D
100
AcDbEntity
  8
PR970_004_00_BL1
  6
Continuous
 62
     7
100
AcDbLine
 10
410.1236948241
 20
213.610735129
 30
0.0
 11
408.5205102638999
 21
212.9270864889
 31
0.0
  0
LINE
  5
595
330
20D
100
AcDbEntity
  8
PR970_004_00_BL1
  6
Continuous
 62
     7
100
AcDbLine
 10
410.1236948241
 20
213.610735129
 30
0.0
 11
410.5590350406999
 21
212.7159843387
 31
0.0
  0
LINE
  5
596
330
20D
100
AcDbEntity
  8
PR970_004_00_BL1
  6
Continuous
 62
     9
100
AcDbLine
 10
446.3794781374
 20
225.9058420772
 30
0.0
 11
453.0969645908999
 21
229.784161539
 31
0.0
  0
SPLINE
  5
5BB
330
20D
100
AcDbEntity
  8
PR980_128_00_BL0
  6
Continuous
 62
     2
100
AcDbSpline
210
0.0
220
0.0
230
1.0
 70
     8
 71
     3
 72
   131
 73
   127
 74
     0
 42
0.0000000001
 43
0.0000000001
 40
0.0
 40
0.0
 40
0.0
 40
0.0
 40
0.03125
 40
0.046875
 40
0.0625
 40
0.0703125
 40
0.078125
 40
0.08203125
 40
0.0859375
 40
0.09375
 40
0.1015625
 40
0.109375
 40
0.125
 40
0.140625
 40
0.1484375
 40
0.15234375
 40
0.154296875
 40
0.15625
 40
0.16015625
 40
0.1640625
 40
0.171875
 40
0.1875
 40
0.203125
 40
0.21875
 40
0.2265625
 40
0.23046875
 40
0.234375
 40
0.2421875
 40
0.25
 40
0.265625
 40
0.28125
 40
0.296875
 40
0.30078125
 40
0.3046875
 40
0.30859375
 40
0.3125
 40
0.3203125
 40
0.328125
 40
0.34375
 40
0.359375
 40
0.375
 40
0.37890625
 40
0.3828125
 40
0.390625
 40
0.3984375
 40
0.40625
 40
0.421875
 40
0.4375
 40
0.4453125
 40
0.453125
 40
0.45703125
 40
0.4609375
 40
0.46484375
 40
0.46875
 40
0.4765625
 40
0.484375
 40
0.5
 40
0.515625
 40
0.5234375
 40
0.53125
 40
0.53515625
 40
0.5390625
 40
0.54296875
 40
0.546875
 40
0.5546875
 40
0.5625
 40
0.578125
 40
0.59375
 40
0.6015625
 40
0.609375
 40
0.61328125
 40
0.615234375
 40
0.6171875
 40
0.62109375
 40
0.625
 40
0.6328125
 40
0.640625
 40
0.65625
 40
0.671875
 40
0.6796875
 40
0.68359375
 40
0.6875
 40
0.689453125
 40
0.69140625
 40
0.6953125
 40
0.69921875
 40
0.703125
 40
0.7109375
 40
0.71875
 40
0.734375
 40
0.7421875
 40
0.75
 40
0.7578125
 40
0.76171875
 40
0.765625
 40
0.767578125
 40
0.76953125
 40
0.771484375
 40
0.7734375
 40
0.77734375
 40
0.78125
 40
0.796875
 40
0.8125
 40
0.8203125
 40
0.828125
 40
0.8359375
 40
0.83984375
 40
0.84375
 40
0.845703125
 40
0.84765625
 40
0.8515625
 40
0.859375
 40
0.875
 40
0.890625
 40
0.8984375
 40
0.90625
 40
0.9140625
 40
0.91796875
 40
0.921875
 40
0.9296875
 40
0.9375
 40
0.9453125
 40
0.953125
 40
0.96875
 40
0.984375
 40
1.0
 40
1.0
 40
1.0
 40
1.0
 10
426.3252282618999
 20
246.2205462435
 30
0.0
 10
426.4273396394999
 20
246.2689713495
 30
0.0
 10
426.580448523
 20
246.3416507202
 30
0.0
 10
426.7848264322
 20
246.4383897013
 30
0.0
 10
426.9120777689
 20
246.4991991614
 30
0.0
 10
427.0149843112999
 20
246.5470542084
 30
0.0
 10
427.0767796459999
 20
246.5787711172
 30
0.0
 10
427.1377126336999
 20
246.5959025654
 30
0.0
 10
427.1966376509999
 20
246.614473537
 30
0.0
 10
427.2709828008
 20
246.6371934239
 30
0.0
 10
427.3599023208999
 20
246.6646683759
 30
0.0
 10
427.4785635920999
 20
246.7012293431
 30
0.0
 10
427.6268624976
 20
246.7469450987
 30
0.0
 10
427.7751447482
 20
246.7926930455
 30
0.0
 10
427.8789966774
 20
246.8246388241
 30
0.0
 10
427.9308454833
 20
246.8407199395
 30
0.0
 10
427.9605978794999
 20
246.8497347299
 30
0.0
 10
427.9934057722
 20
246.8544696429
 30
0.0
 10
428.0333696016
 20
246.8618533758
 30
0.0
 10
428.0978953693
 20
246.8728505174
 30
0.0
 10
428.2105450407
 20
246.8924677275
 30
0.0
 10
428.3716023930999
 20
246.9203650383
 30
0.0
 10
428.5648689212999
 20
246.9536019605
 30
0.0
 10
428.7257596766
 20
246.9822685982
 30
0.0
 10
428.8387300475999
 20
247.000404854
 30
0.0
 10
428.9027393638999
 20
247.013786909
 30
0.0
 10
428.9687972755
 20
247.0158304296
 30
0.0
 10
429.0508842719
 20
247.0210714055
 30
0.0
 10
429.1824947998001
 20
247.0279551248
 30
0.0
 10
429.3469145297
 20
247.0370772895
 30
0.0
 10
429.544259669
 20
247.0477925755
 30
0.0
 10
429.6922562490999
 20
247.0559019563
 30
0.0
 10
429.7909281358999
 20
247.0612589679
 30
0.0
 10
429.8402531705
 20
247.0640116529
 30
0.0
 10
429.8896203404
 20
247.0664774694
 30
0.0
 10
429.9567742060999
 20
247.0606998363
 30
0.0
 10
430.0402610866
 20
247.0565825783
 30
0.0
 10
430.1740930408
 20
247.0482551282
 30
0.0
 10
430.3413077002999
 20
247.0384754623
 30
0.0
 10
430.5419472331999
 20
247.0263273151
 30
0.0
 10
430.6925713981
 20
247.0176982728
 30
0.0
 10
430.7927522926
 20
247.0112710525
 30
0.0
 10
430.8601025677999
 20
247.0085707209
 30
0.0
 10
430.9401854279999
 20
246.9936489545
 30
0.0
 10
431.0365491828999
 20
246.9764871368
 30
0.0
 10
431.1649437344
 20
246.9533467344
 30
0.0
 10
431.3254545293999
 20
246.9244953172
 30
0.0
 10
431.4860079709999
 20
246.8956700302
 30
0.0
 10
431.6143342879
 20
246.8724878196
 30
0.0
 10
431.6948080037999
 20
246.8582908254
 30
0.0
 10
431.7585686426999
 20
246.8462631954
 30
0.0
 10
431.8080822626
 20
246.8390774446
 30
0.0
 10
431.8511324865
 20
246.8248868241
 30
0.0
 10
431.9092921837999
 20
246.8067890128
 30
0.0
 10
431.9817316708999
 20
246.7838848274
 30
0.0
 10
432.0977809136
 20
246.7473963951
 30
0.0
 10
432.2427875297
 20
246.7017265571
 30
0.0
 10
432.3878313158999
 20
246.6560960795
 30
0.0
 10
432.5038210866
 20
246.6195446706
 30
0.0
 10
432.5764092538999
 20
246.5967979267
 30
0.0
 10
432.6342641566999
 20
246.5783773603
 30
0.0
 10
432.6782454905
 20
246.5651727175
 30
0.0
 10
432.7155296055
 20
246.5450367806
 30
0.0
 10
432.7675810605
 20
246.5206098798
 30
0.0
 10
432.8318436643
 20
246.4892468755
 30
0.0
 10
432.9351162023
 20
246.4395320596
 30
0.0
 10
433.0640209451999
 20
246.377211121
 30
0.0
 10
433.1931039415
 20
246.3150173684
 30
0.0
 10
433.2960912742
 20
246.265099055
 30
0.0
 10
433.3610668912
 20
246.2342447944
 30
0.0
 10
433.4053329468
 20
246.2119586973
 30
0.0
 10
433.4325313491
 20
246.2003000043
 30
0.0
 10
433.4525792701
 20
246.1845985717
 30
0.0
 10
433.4793333726
 20
246.1659296483
 30
0.0
 10
433.5211931204
 20
246.1355240633
 30
0.0
 10
433.5738421212999
 20
246.0977004196
 30
0.0
 10
433.6578985314999
 20
246.0370798442
 30
0.0
 10
433.7630367147
 20
245.9613413666
 30
0.0
 10
433.8681317051
 20
245.8855823539
 30
0.0
 10
433.941741534
 20
245.8325680996
 30
0.0
 10
433.9837429615
 20
245.8022511641
 30
0.0
 10
434.0101368654
 20
245.7833567085
 30
0.0
 10
434.0309240933999
 20
245.7681182032
 30
0.0
 10
434.0529084923
 20
245.7533285579
 30
0.0
 10
434.0718200782999
 20
245.731628727
 30
0.0
 10
434.0950694582
 20
245.7057971971
 30
0.0
 10
434.1258746165
 20
245.6712824138
 30
0.0
 10
434.1644474835
 20
245.6281638419
 30
0.0
 10
434.2261270189999
 20
245.5591602072
 30
0.0
 10
434.2878163233
 20
245.490160388
 30
0.0
 10
434.3495041098999
 20
245.421159562
 30
0.0
 10
434.3957647341
 20
245.3694081475
 30
0.0
 10
434.4343332726
 20
245.3262850382
 30
0.0
 10
434.4651474671
 20
245.2917795815
 30
0.0
 10
434.4844989204
 20
245.2702295595
 30
0.0
 10
434.4997680459999
 20
245.2529531519
 30
0.0
 10
434.5118004523
 20
245.2400954831
 30
0.0
 10
434.517244259
 20
245.2261070696
 30
0.0
 10
434.5268037395999
 20
245.2078507648
 30
0.0
 10
434.5379665519
 20
245.184895397
 30
0.0
 10
434.5654048561
 20
245.1299136468
 30
0.0
 10
434.6062874533999
 20
245.0473938765
 30
0.0
 10
434.6518548987
 20
244.9557295551
 30
0.0
 10
434.6882604286999
 20
244.8823900366
 30
0.0
 10
434.7156244526
 20
244.8273949943
 30
0.0
 10
434.7382483955999
 20
244.7815371629
 30
0.0
 10
434.7567481962999
 20
244.7449148102
 30
0.0
 10
434.7673986612
 20
244.7218803736
 30
0.0
 10
434.7780074567999
 20
244.7037859648
 30
0.0
 10
434.7809920861
 20
244.6844753672
 30
0.0
 10
434.7856715089999
 20
244.6505950853
 30
0.0
 10
434.7954157605
 20
244.5828961129
 30
0.0
 10
434.8091393766999
 20
244.4861510043
 30
0.0
 10
434.822915859
 20
244.3894177421
 30
0.0
 10
434.8339675605999
 20
244.3120285336
 30
0.0
 10
434.8421330698999
 20
244.2539873156
 30
0.0
 10
434.8493358357
 20
244.2056184224
 30
0.0
 10
434.8542040623999
 20
244.1669258712
 30
0.0
 10
434.8623296935
 20
244.1282240359
 30
0.0
 10
434.8491736813
 20
244.0799131683
 30
0.0
 10
434.8384118229
 20
244.0219258081
 30
0.0
 10
434.8263055701
 20
243.9639422786
 30
0.0
 10
434.8106335283
 20
243.8866295677
 30
0.0
 10
434.7908822478999
 20
243.7899891386
 30
0.0
 10
434.7672501634999
 20
243.6740204257
 30
0.0
 10
434.7514822116
 20
243.5967079882
 30
0.0
 10
434.7435998893
 20
243.5580517647
 30
0.0
  0
SPLINE
  5
5BC
330
20D
100
AcDbEntity
  8
PR980_128_00_BL0
  6
Continuous
 62
     2
100
AcDbSpline
210
0.0
220
0.0
230
1.0
 70
     8
 71
     3
 72
    65
 73
    61
 74
     0
 42
0.0000000001
 43
0.0000000001
 40
0.0
 40
0.0
 40
0.0
 40
0.0
 40
0.0625
 40
0.09375
 40
0.125
 40
0.140625
 40
0.15625
 40
0.1640625
 40
0.16796875
 40
0.171875
 40
0.1796875
 40
0.1875
 40
0.21875
 40
0.25
 40
0.28125
 40
0.3125
 40
0.3203125
 40
0.328125
 40
0.33203125
 40
0.3359375
 40
0.34375
 40
0.359375
 40
0.375
 40
0.40625
 40
0.4375
 40
0.453125
 40
0.46875
 40
0.484375
 40
0.4921875
 40
0.49609375
 40
0.5
 40
0.50390625
 40
0.5078125
 40
0.515625
 40
0.53125
 40
0.546875
 40
0.5625
 40
0.59375
 40
0.625
 40
0.640625
 40
0.65625
 40
0.6640625
 40
0.66796875
 40
0.671875
 40
0.6796875
 40
0.6875
 40
0.71875
 40
0.75
 40
0.78125
 40
0.8125
 40
0.8203125
 40
0.828125
 40
0.83203125
 40
0.8359375
 40
0.84375
 40
0.859375
 40
0.875
 40
0.90625
 40
0.9375
 40
1.0
 40
1.0
 40
1.0
 40
1.0
 10
424.982344984
 20
243.5466582881
 30
0.0
 10
424.9680403229
 20
243.606479315
 30
0.0
 10
424.9465918816
 20
243.6962111191
 30
0.0
 10
424.9179597589
 20
243.815852469
 30
0.0
 10
424.9001359343999
 20
243.890630512
 30
0.0
 10
424.8857144197
 20
243.9504479319
 30
0.0
 10
424.8770714845999
 20
243.987845256
 30
0.0
 10
424.8702788928
 20
244.0140004628
 30
0.0
 10
424.8675591791999
 20
244.0289821558
 30
0.0
 10
424.8692152613999
 20
244.0440989171
 30
0.0
 10
424.8697896662999
 20
244.0629487039
 30
0.0
 10
424.8723995496
 20
244.1082261693
 30
0.0
 10
424.8757930741
 20
244.1761266884
 30
0.0
 10
424.8806354191999
 20
244.2666683813
 30
0.0
 10
424.8853192891999
 20
244.357212853
 30
0.0
 10
424.8890693825
 20
244.4251071197
 30
0.0
 10
424.8912236503
 20
244.4703925742
 30
0.0
 10
424.8926316995
 20
244.4892277432
 30
0.0
 10
424.892567668
 20
244.5043746664
 30
0.0
 10
424.8968571695999
 20
244.519233454
 30
0.0
 10
424.9063865423
 20
244.5451024587
 30
0.0
 10
424.9189445963
 20
244.5821280211
 30
0.0
 10
424.9396270748
 20
244.6413299324
 30
0.0
 10
424.9652795742999
 20
244.7153453687
 30
0.0
 10
424.9909974783999
 20
244.7893573522
 30
0.0
 10
425.0115753092999
 20
244.8485647881
 30
0.0
 10
425.0269589169
 20
244.8929788895
 30
0.0
 10
425.0399430137999
 20
244.9299631218
 30
0.0
 10
425.0487083639
 20
244.9559061446
 30
0.0
 10
425.05422241
 20
244.97064631
 30
0.0
 10
425.0569345544
 20
244.9819392456
 30
0.0
 10
425.0650876219
 20
244.9923231447
 30
0.0
 10
425.0740605249999
 20
245.0064854253
 30
0.0
 10
425.0906473372999
 20
245.0311216858001
 30
0.0
 10
425.1138806036
 20
245.0663935492
 30
0.0
 10
425.1419578851
 20
245.1086868687
 30
0.0
 10
425.1793276472
 20
245.1650888108
 30
0.0
 10
425.2260460437999
 20
245.2355921597
 30
0.0
 10
425.2728229309999
 20
245.3060782617
 30
0.0
 10
425.3100991080999
 20
245.3625077988
 30
0.0
 10
425.3337308052
 20
245.3976832441
 30
0.0
 10
425.3496032032
 20
245.4224924947
 30
0.0
 10
425.3597211304
 20
245.4363775044
 30
0.0
 10
425.3737863023999
 20
245.4491638062
 30
0.0
 10
425.3900185551
 20
245.4655222368
 30
0.0
 10
425.4300866658999
 20
245.5044732818
 30
0.0
 10
425.4897188166
 20
245.5630310369
 30
0.0
 10
425.5695136908999
 20
245.6410267531
 30
0.0
 10
425.6491699047
 20
245.7190677645
 30
0.0
 10
425.7091140416999
 20
245.7775236053
 30
0.0
 10
425.7487835033
 20
245.8166048741
 30
0.0
 10
425.7657451683
 20
245.8327250328
 30
0.0
 10
425.7783052955
 20
245.8460029768
 30
0.0
 10
425.7945560639
 20
245.8578846153
 30
0.0
 10
425.8247096630999
 20
245.8780287276
 30
0.0
 10
425.8668915593
 20
245.9071445191
 30
0.0
 10
425.9348825891999
 20
245.9535406187
 30
0.0
 10
426.0197001038999
 20
246.0116005419
 30
0.0
 10
426.1555042803999
 20
246.1044600408
 30
0.0
 10
426.2573357783999
 20
246.1741128501
 30
0.0
 10
426.3252282512999
 20
246.2205462374
 30
0.0
  0
LINE
  5
5BD
330
20D
100
AcDbEntity
  8
PR980_128_00_BL0
  6
Continuous
 62
     7
100
AcDbLine
 10
413.5973356403
 20
235.6060717703
 30
0.0
 11
426.3253106929999
 21
228.257738189
 31
0.0
  0
LINE
  5
5BE
330
20D
100
AcDbEntity
  8
PR980_128_00_BL0
  6
Continuous
 62
     7
100
AcDbLine
 10
426.3253106929999
 20
228.257738189
 30
0.0
 11
427.5305867245999
 21
228.9536004766
 31
0.0
  0
LINE
  5
5BF
330
20D
100
AcDbEntity
  8
PR980_128_00_BL0
  6
Continuous
 62
     7
100
AcDbLine
 10
435.7499558598999
 20
230.1648734428
 30
0.0
 11
438.6996778917
 21
228.4618891604
 31
0.0
  0
LINE
  5
5C0
330
20D
100
AcDbEntity
  8
PR980_128_00_BL0
  6
Continuous
 62
     7
100
AcDbLine
 10
438.6996778917
 20
228.4618891604
 30
0.0
 11
445.7707162638
 21
232.5443306991
 31
0.0
  0
SPLINE
  5
5C1
330
20D
100
AcDbEntity
  8
PR980_128_00_BL0
  6
Continuous
 62
     7
100
AcDbSpline
210
0.0
220
0.0
230
1.0
 70
     8
 71
     3
 72
    13
 73
     9
 74
     0
 42
0.0000000001
 43
0.0000000001
 40
0.0
 40
0.0
 40
0.0
 40
0.0
 40
0.0986523639
 40
0.201133304
 40
0.3105891190999999
 40
0.4291110006000001
 40
0.6958432290000001
 40
1.0
 40
1.0
 40
1.0
 40
1.0
 10
425.6607847313
 20
244.1795821013
 30
0.0
 10
425.6607752109999
 20
244.0638415795
 30
0.0
 10
425.6905829593
 20
243.82691063
 30
0.0
 10
425.8221783858999
 20
243.4838831519
 30
0.0
 10
426.0361432830999
 20
243.1574599865
 30
0.0
 10
426.4394957429
 20
242.7364337271
 30
0.0
 10
427.1299355761
 20
242.2948973526
 30
0.0
 10
427.7644754583999
 20
242.0667509018
 30
0.0
 10
428.1094230019
 20
241.9753884834
 30
0.0
  0
SPLINE
  5
5C2
330
20D
100
AcDbEntity
  8
PR980_128_00_BL0
  6
Continuous
 62
     7
100
AcDbSpline
210
0.0
220
0.0
230
1.0
 70
     8
 71
     3
 72
     9
 73
     5
 74
     0
 42
0.0000000001
 43
0.0000000001
 40
0.0
 40
0.0
 40
0.0
 40
0.0
 40
0.2618300162
 40
1.0
 40
1.0
 40
1.0
 40
1.0
 10
431.7854359651
 20
242.0240938877
 30
0.0
 10
431.8804354295999
 20
242.052372209
 30
0.0
 10
432.2403403977999
 20
242.1696255348
 30
0.0
 10
432.5886324647
 20
242.325010329
 30
0.0
 10
432.8306377332999
 20
242.4647313019
 30
0.0
  0
LINE
  5
5C3
330
20D
100
AcDbEntity
  8
PR980_128_00_BL0
  6
Continuous
 62
     7
100
AcDbLine
 10
445.7707162638
 20
239.0763500361
 30
0.0
 11
440.7164343108999
 21
241.9943750676
 31
0.0
  0
LINE
  5
5C4
330
20D
100
AcDbEntity
  8
PR980_128_00_BL0
  6
Continuous
 62
     7
100
AcDbLine
 10
421.0218758835999
 20
253.3647764444
 30
0.0
 11
413.9508375115
 21
249.2823349056
 31
0.0
  0
LINE
  5
5C5
330
20D
100
AcDbEntity
  8
PR980_128_00_BL0
  6
Continuous
 62
     7
100
AcDbLine
 10
425.3690358921
 20
250.854999222
 30
0.0
 11
421.0218758835999
 21
253.3647764444
 31
0.0
  0
SPLINE
  5
5C6
330
20D
100
AcDbEntity
  8
PR980_128_00_BL0
  6
Continuous
 62
     7
100
AcDbSpline
210
0.0
220
0.0
230
1.0
 70
     8
 71
     3
 72
    11
 73
     7
 74
     0
 42
0.0000000001
 43
0.0000000001
 40
0.0
 40
0.0
 40
0.0
 40
0.0
 40
0.2898033721
 40
0.5490453243
 40
0.7822298497000001
 40
1.0
 40
1.0
 40
1.0
 40
1.0
 10
432.8306377332999
 20
242.4647313019
 30
0.0
 10
433.0149738984999
 20
242.5711572013
 30
0.0
 10
433.3493465529
 20
242.8013120779
 30
0.0
 10
433.7487755149999
 20
243.221343283
 30
0.0
 10
434.0016556775
 20
243.6857136539
 30
0.0
 10
434.0607558874999
 20
244.0191565458
 30
0.0
 10
434.060769044
 20
244.1791028405
 30
0.0
  0
LINE
  5
5C7
330
20D
100
AcDbEntity
  8
PR980_128_00_BL0
  6
Continuous
 62
     7
100
AcDbLine
 10
413.9508375115
 20
243.6093609502
 30
0.0
 11
413.9508375115
 21
249.2823349056
 31
0.0
  0
LINE
  5
5C8
330
20D
100
AcDbEntity
  8
PR980_128_00_BL0
  6
Continuous
 62
     7
100
AcDbLine
 10
413.5973356403
 20
235.6060717703
 30
0.0
 11
413.5973356403
 21
241.3216095983
 31
0.0
  0
LINE
  5
5C9
330
20D
100
AcDbEntity
  8
PR980_128_00_BL0
  6
Continuous
 62
     7
100
AcDbLine
 10
445.7707162638
 20
232.5443306991
 30
0.0
 11
445.7707162638
 21
239.0763500361
 31
0.0
  0
SPLINE
  5
5CA
330
20D
100
AcDbEntity
  8
PR980_128_00_BL0
  6
Continuous
 62
     7
100
AcDbSpline
210
0.0
220
0.0
230
1.0
 70
     8
 71
     3
 72
    11
 73
     7
 74
     0
 42
0.0000000001
 43
0.0000000001
 40
0.0
 40
0.0
 40
0.0
 40
0.0
 40
0.2898033721
 40
0.5490453243
 40
0.7822298497000001
 40
1.0
 40
1.0
 40
1.0
 40
1.0
 10
426.8909160419999
 20
245.8939536399
 30
0.0
 10
426.7065798767999
 20
245.7875277405
 30
0.0
 10
426.3722072223999
 20
245.5573728639
 30
0.0
 10
425.9727782603
 20
245.1373416587
 30
0.0
 10
425.7198980977999
 20
244.6729712879
 30
0.0
 10
425.6607978877999
 20
244.339528396
 30
0.0
 10
425.6607847313
 20
244.1795821013
 30
0.0
  0
SPLINE
  5
5CB
330
20D
100
AcDbEntity
  8
PR980_128_00_BL0
  6
Continuous
 62
     7
100
AcDbSpline
210
0.0
220
0.0
230
1.0
 70
     8
 71
     3
 72
    17
 73
    13
 74
     0
 42
0.0000000001
 43
0.0000000001
 40
0.0
 40
0.0
 40
0.0
 40
0.0
 40
0.0428595063
 40
0.0874877944
 40
0.1353201602
 40
0.1872830132
 40
0.3045449606
 40
0.4382158552000001
 40
0.5825636092000001
 40
0.7297219543000001
 40
0.8713137558999999
 40
1.0
 40
1.0
 40
1.0
 40
1.0
 10
434.060769044
 20
244.1791028405
 30
0.0
 10
434.0607788789999
 20
244.2986695081
 30
0.0
 10
434.0288807197
 20
244.5437858648
 30
0.0
 10
433.8883413052999
 20
244.897706787
 30
0.0
 10
433.6602935333999
 20
245.2332621584
 30
0.0
 10
433.2309121143
 20
245.6642220462
 30
0.0
 10
432.4992703891
 20
246.1096757765
 30
0.0
 10
431.4472167132
 20
246.4610998125
 30
0.0
 10
430.2665837462
 20
246.6270197736
 30
0.0
 10
429.0530739219999
 20
246.5934596881
 30
0.0
 10
427.9057743233999
 20
246.3638908764
 30
0.0
 10
427.2018200837
 20
246.0734531006
 30
0.0
 10
426.8909160419999
 20
245.8939536399
 30
0.0
  0
LINE
  5
5CC
330
20D
100
AcDbEntity
  8
PR980_128_00_BL0
  6
Continuous
 62
     7
100
AcDbLine
 10
413.9508375115
 20
249.2823349056
 30
0.0
 11
418.6515675457999
 21
246.5684285517
 31
0.0
  0
LINE
  5
5CD
330
20D
100
AcDbEntity
  8
PR980_128_00_BL0
  6
Continuous
 62
     7
100
AcDbLine
 10
426.3253106929999
 20
228.257738189
 30
0.0
 11
426.3253106929999
 21
232.6520987483
 31
0.0
  0
LINE
  5
5CE
330
20D
100
AcDbEntity
  8
PR980_128_00_BL0
  6
Continuous
 62
     7
100
AcDbLine
 10
438.6996778917
 20
228.4618891604
 30
0.0
 11
438.6996778917
 21
234.9939084974
 31
0.0
  0
LINE
  5
5CF
330
20D
100
AcDbEntity
  8
PR980_128_00_BL0
  6
Continuous
 62
     7
100
AcDbLine
 10
438.6996778917
 20
234.9939084974
 30
0.0
 11
445.7707162638
 21
239.0763500361
 31
0.0
  0
LINE
  5
5D0
330
20D
100
AcDbEntity
  8
PR980_128_00_BL0
  6
Continuous
 62
     7
100
AcDbLine
 10
433.6453959387999
 20
237.9119335289
 30
0.0
 11
438.6996778917
 21
234.9939084974
 31
0.0
  0
INSERT
  5
60B
330
20D
100
AcDbEntity
  8
0
100
AcDbBlockReference
  2
TC-9_040_001_VA
 10
316.718323001
 20
252.1378875795
 30
0.0
  0
INSERT
  5
678
330
20D
100
AcDbEntity
  8
0
100
AcDbBlockReference
  2
TC-9_040_001_DS
 10
316.718323001
 20
181.094784504
 30
0.0
  0
INSERT
  5
6BA
330
20D
100
AcDbEntity
  8
0
100
AcDbBlockReference
  2
TC-9_040_001_SL
 10
371.7308568877
 20
252.1378875795
 30
0.0
  0
ENDSEC
  0
SECTION
  2
OBJECTS
  0
DICTIONARY
  5
C
330
0
100
AcDbDictionary
281
     1
  3
ACAD_COLOR
350
3D9
  3
ACAD_GROUP
350
D
  3
ACAD_LAYOUT
350
1A
  3
ACAD_MATERIAL
350
3AF
  3
ACAD_MLEADERSTYLE
350
3FE
  3
ACAD_MLINESTYLE
350
17
  3
ACAD_PLOTSETTINGS
350
19
  3
ACAD_PLOTSTYLENAME
350
E
  3
ACAD_SCALELIST
350
3DC
  3
ACAD_TABLESTYLE
350
3DA
  3
ACAD_VISUALSTYLE
350
3C8
  3
ACDB_RECOMPOSE_DATA
350
722
  3
AcDbVariableDictionary
350
432
  3
DWGPROPS
350
723
  0
DICTIONARY
  5
404
330
8
100
AcDbDictionary
280
     1
281
     1
  0
DICTIONARY
  5
6BB
330
10
100
AcDbDictionary
280
     1
281
     1
  3
ADSK_XREC_LAYER_RECONCILED
360
6BC
  0
DICTIONARY
  5
6BD
330
1FA
100
AcDbDictionary
280
     1
281
     1
  3
ADSK_XREC_LAYER_RECONCILED
360
6BE
  0
DICTIONARY
  5
6BF
330
1FB
100
AcDbDictionary
280
     1
281
     1
  3
ADSK_XREC_LAYER_RECONCILED
360
6C0
  0
DICTIONARY
  5
6C1
330
1FC
100
AcDbDictionary
280
     1
281
     1
  3
ADSK_XREC_LAYER_RECONCILED
360
6C2
  0
DICTIONARY
  5
6C3
330
1FD
100
AcDbDictionary
280
     1
281
     1
  3
ADSK_XREC_LAYER_RECONCILED
360
6C4
  0
DICTIONARY
  5
6C5
330
1FE
100
AcDbDictionary
280
     1
281
     1
  3
ADSK_XREC_LAYER_RECONCILED
360
6C6
  0
DICTIONARY
  5
6C7
330
1FF
100
AcDbDictionary
280
     1
281
     1
  3
ADSK_XREC_LAYER_RECONCILED
360
6C8
  0
DICTIONARY
  5
6C9
330
200
100
AcDbDictionary
280
     1
281
     1
  3
ADSK_XREC_LAYER_RECONCILED
360
6CA
  0
DICTIONARY
  5
6CB
330
201
100
AcDbDictionary
280
     1
281
     1
  3
ADSK_XREC_LAYER_RECONCILED
360
6CC
  0
DICTIONARY
  5
6CD
330
202
100
AcDbDictionary
280
     1
281
     1
  3
ADSK_XREC_LAYER_RECONCILED
360
6CE
  0
DICTIONARY
  5
6CF
330
203
100
AcDbDictionary
280
     1
281
     1
  3
ADSK_XREC_LAYER_RECONCILED
360
6D0
  0
DICTIONARY
  5
6D1
330
204
100
AcDbDictionary
280
     1
281
     1
  3
ADSK_XREC_LAYER_RECONCILED
360
6D2
  0
DICTIONARY
  5
6D3
330
205
100
AcDbDictionary
280
     1
281
     1
  3
ADSK_XREC_LAYER_RECONCILED
360
6D4
  0
DICTIONARY
  5
6D5
330
206
100
AcDbDictionary
280
     1
281
     1
  3
ADSK_XREC_LAYER_RECONCILED
360
6D6
  0
DICTIONARY
  5
6D7
330
207
100
AcDbDictionary
280
     1
281
     1
  3
ADSK_XREC_LAYER_RECONCILED
360
6D8
  0
DICTIONARY
  5
6D9
330
208
100
AcDbDictionary
280
     1
281
     1
  3
ADSK_XREC_LAYER_RECONCILED
360
6DA
  0
DICTIONARY
  5
6DB
330
209
100
AcDbDictionary
280
     1
281
     1
  3
ADSK_XREC_LAYER_RECONCILED
360
6DC
  0
DICTIONARY
  5
6DD
330
20A
100
AcDbDictionary
280
     1
281
     1
  3
ADSK_XREC_LAYER_RECONCILED
360
6DE
  0
DICTIONARY
  5
59D
330
20D
100
AcDbDictionary
280
     1
281
     1
  3
ACAD_SORTENTS
360
59E
  0
DICTIONARY
  5
3D9
102
{ACAD_REACTORS
330
C
102
}
330
C
100
AcDbDictionary
281
     1
  0
DICTIONARY
  5
D
102
{ACAD_REACTORS
330
C
102
}
330
C
100
AcDbDictionary
281
     1
  0
DICTIONARY
  5
1A
102
{ACAD_REACTORS
330
C
102
}
330
C
100
AcDbDictionary
281
     1
  3
Layout1
350
3AC
  3
Model
350
3AB
  0
DICTIONARY
  5
3AF
102
{ACAD_REACTORS
330
C
102
}
330
C
100
AcDbDictionary
281
     1
  3
ByBlock
350
3B8
  3
ByLayer
350
3B0
  3
Global
350
3C0
  0
DICTIONARY
  5
3FE
102
{ACAD_REACTORS
330
C
102
}
330
C
100
AcDbDictionary
281
     1
  3
Standard
350
3FF
  0
DICTIONARY
  5
17
102
{ACAD_REACTORS
330
C
102
}
330
C
100
AcDbDictionary
281
     1
  3
Standard
350
18
  0
DICTIONARY
  5
19
102
{ACAD_REACTORS
330
C
102
}
330
C
100
AcDbDictionary
281
     1
  0
ACDBDICTIONARYWDFLT
  5
E
102
{ACAD_REACTORS
330
C
102
}
330
C
100
AcDbDictionary
281
     1
  3
Normal
350
F
100
AcDbDictionaryWithDefault
340
F
  0
DICTIONARY
  5
3DC
102
{ACAD_REACTORS
330
C
102
}
330
C
100
AcDbDictionary
281
     1
  3
A0
350
3DD
  3
A1
350
3DE
  3
A2
350
3DF
  3
A3
350
3E0
  3
A4
350
3E1
  3
A5
350
3E2
  3
A6
350
3E3
  3
A7
350
3E4
  3
A8
350
3E5
  3
A9
350
3E6
  3
B0
350
3E7
  3
B1
350
3E8
  3
B2
350
3E9
  3
B3
350
3EA
  3
B4
350
3EB
  3
B5
350
3EC
  3
B6
350
3ED
  3
B7
350
3EE
  3
B8
350
3EF
  3
B9
350
3F0
  3
C0
350
3F1
  3
C1
350
3F2
  3
C2
350
3F3
  3
C3
350
3F4
  3
C4
350
3F5
  3
C5
350
3F6
  3
C6
350
3F7
  3
C7
350
3F8
  3
C8
350
3F9
  3
C9
350
3FA
  3
D0
350
3FB
  3
D1
350
3FC
  3
D2
350
3FD
  0
DICTIONARY
  5
3DA
102
{ACAD_REACTORS
330
C
102
}
330
C
100
AcDbDictionary
281
     1
  3
Standard
350
3DB
  0
DICTIONARY
  5
3C8
102
{ACAD_REACTORS
330
C
102
}
330
C
100
AcDbDictionary
281
     1
  3
2dWireframe
350
3CE
  3
3D Hidden
350
3D0
  3
3dWireframe
350
3CF
  3
Basic
350
3CD
  3
Brighten
350
3D4
  3
ColorChange
350
3D8
  3
Conceptual
350
3D1
  3
Dim
350
3D3
  3
EdgeColorOff
350
443
  3
Facepattern
350
3D7
  3
Flat
350
3C9
  3
FlatWithEdges
350
3CA
  3
Gouraud
350
3CB
  3
GouraudWithEdges
350
3CC
  3
Hidden
350
43B
  3
JitterOff
350
441
  3
Linepattern
350
3D6
  3
OverhangOff
350
442
  3
Realistic
350
3D2
  3
Shaded
350
440
  3
Shaded with edges
350
43F
  3
Shades of Gray
350
43C
  3
Sketchy
350
43D
  3
Thicken
350
3D5
  3
Wireframe
350
43A
  3
X-Ray
350
43E
  0
XRECORD
  5
722
102
{ACAD_REACTORS
330
C
102
}
330
C
100
AcDbXrecord
280
     1
 90
        1
330
3DB
  0
DICTIONARY
  5
432
102
{ACAD_REACTORS
330
C
102
}
330
C
100
AcDbDictionary
281
     1
  3
CANNOSCALE
350
435
  3
CMLEADERSTYLE
350
434
  3
CTABLESTYLE
350
433
  3
DIMASSOC
350
438
  3
INDEXCTL
350
437
  3
SORTENTS
350
436
  3
XCLIPFRAME
350
720
  0
XRECORD
  5
723
102
{ACAD_REACTORS
330
C
102
}
330
C
100
AcDbXrecord
280
     1
  1
DWGPROPS COOKIE
  2

  3

  4

  6

  7

  8
mfeld
  9

300
=
301
=
302
=
303
=
304
=
305
=
306
=
307
=
308
=
309
=
 40
0.0021417939814815
 41
2455511.40727456
 42
2455565.54175831
  1

 90
        0
  0
XRECORD
  5
6BC
102
{ACAD_REACTORS
330
6BB
102
}
330
6BB
100
AcDbXrecord
280
     1
290
     1
  0
XRECORD
  5
6BE
102
{ACAD_REACTORS
330
6BD
102
}
330
6BD
100
AcDbXrecord
280
     1
290
     1
  0
XRECORD
  5
6C0
102
{ACAD_REACTORS
330
6BF
102
}
330
6BF
100
AcDbXrecord
280
     1
290
     1
  0
XRECORD
  5
6C2
102
{ACAD_REACTORS
330
6C1
102
}
330
6C1
100
AcDbXrecord
280
     1
290
     1
  0
XRECORD
  5
6C4
102
{ACAD_REACTORS
330
6C3
102
}
330
6C3
100
AcDbXrecord
280
     1
290
     1
  0
XRECORD
  5
6C6
102
{ACAD_REACTORS
330
6C5
102
}
330
6C5
100
AcDbXrecord
280
     1
290
     1
  0
XRECORD
  5
6C8
102
{ACAD_REACTORS
330
6C7
102
}
330
6C7
100
AcDbXrecord
280
     1
290
     1
  0
XRECORD
  5
6CA
102
{ACAD_REACTORS
330
6C9
102
}
330
6C9
100
AcDbXrecord
280
     1
290
     1
  0
XRECORD
  5
6CC
102
{ACAD_REACTORS
330
6CB
102
}
330
6CB
100
AcDbXrecord
280
     1
290
     1
  0
XRECORD
  5
6CE
102
{ACAD_REACTORS
330
6CD
102
}
330
6CD
100
AcDbXrecord
280
     1
290
     1
  0
XRECORD
  5
6D0
102
{ACAD_REACTORS
330
6CF
102
}
330
6CF
100
AcDbXrecord
280
     1
290
     1
  0
XRECORD
  5
6D2
102
{ACAD_REACTORS
330
6D1
102
}
330
6D1
100
AcDbXrecord
280
     1
290
     1
  0
XRECORD
  5
6D4
102
{ACAD_REACTORS
330
6D3
102
}
330
6D3
100
AcDbXrecord
280
     1
290
     1
  0
XRECORD
  5
6D6
102
{ACAD_REACTORS
330
6D5
102
}
330
6D5
100
AcDbXrecord
280
     1
290
     1
  0
XRECORD
  5
6D8
102
{ACAD_REACTORS
330
6D7
102
}
330
6D7
100
AcDbXrecord
280
     1
290
     1
  0
XRECORD
  5
6DA
102
{ACAD_REACTORS
330
6D9
102
}
330
6D9
100
AcDbXrecord
280
     1
290
     1
  0
XRECORD
  5
6DC
102
{ACAD_REACTORS
330
6DB
102
}
330
6DB
100
AcDbXrecord
280
     1
290
     1
  0
XRECORD
  5
6DE
102
{ACAD_REACTORS
330
6DD
102
}
330
6DD
100
AcDbXrecord
280
     1
290
     1
  0
SORTENTSTABLE
  5
59E
102
{ACAD_REACTORS
330
59D
102
}
330
59D
100
AcDbSortentsTable
330
20D
331
556
  5
588
331
534
  5
566
331
512
  5
544
331
578
  5
5AE
331
592
  5
5C8
331
545
  5
577
331
523
  5
555
331
509
  5
53B
331
567
  5
599
331
5C5
  5
46D
331
554
  5
586
331
532
  5
564
331
510
  5
542
331
576
  5
5AC
331
590
  5
5C6
331
543
  5
575
331
521
  5
553
331
507
  5
539
331
565
  5
597
331
587
  5
5BD
331
5C3
  5
46B
331
552
  5
584
331
530
  5
562
331
574
  5
5AA
331
58E
  5
5C4
331
541
  5
573
331
51F
  5
551
331
505
  5
537
331
563
  5
595
331
585
  5
5BB
331
5C1
  5
469
331
550
  5
582
331
572
  5
5A8
331
58C
  5
5C2
331
53F
  5
571
331
51D
  5
54F
331
503
  5
535
331
5D0
  5
478
331
561
  5
593
331
583
  5
5B9
331
52E
  5
560
331
5BF
  5
467
331
570
  5
5A6
331
58A
  5
5C0
331
53D
  5
56F
331
51B
  5
54D
331
501
  5
533
331
5CE
  5
476
331
55F
  5
591
331
581
  5
5B7
331
54E
  5
580
331
52C
  5
55E
331
5BD
  5
465
331
588
  5
5BE
331
53B
  5
56D
331
519
  5
54B
331
4FF
  5
531
331
5CC
  5
474
331
55D
  5
58F
331
57F
  5
5B5
331
54C
  5
57E
331
52A
  5
55C
331
5BB
  5
463
331
56E
  5
5A4
331
539
  5
56B
331
517
  5
549
331
55B
  5
58D
331
5CA
  5
472
331
57D
  5
5B3
331
54A
  5
57C
331
528
  5
55A
331
50E
  5
540
331
56C
  5
5A2
331
537
  5
569
331
515
  5
547
331
5C8
  5
470
331
559
  5
58B
331
57B
  5
5B1
331
595
  5
5CB
331
548
  5
57A
331
526
  5
558
331
50C
  5
53E
331
56A
  5
5A0
331
557
  5
589
331
535
  5
567
331
513
  5
545
331
579
  5
5AF
331
593
  5
5C9
331
546
  5
578
331
524
  5
556
331
50A
  5
53C
331
568
  5
59A
331
5C6
  5
46E
331
555
  5
587
331
533
  5
565
331
511
  5
543
331
577
  5
5AD
331
591
  5
5C7
331
544
  5
576
331
522
  5
554
331
508
  5
53A
331
566
  5
598
331
5C4
  5
46C
331
553
  5
585
331
531
  5
563
331
575
  5
5AB
331
58F
  5
5C5
331
542
  5
574
331
520
  5
552
331
506
  5
538
331
564
  5
596
331
586
  5
5BC
331
5C2
  5
46A
331
551
  5
583
331
573
  5
5A9
331
58D
  5
5C3
331
540
  5
572
331
51E
  5
550
331
504
  5
536
331
562
  5
594
331
584
  5
5BA
331
52F
  5
561
331
5C0
  5
468
331
571
  5
5A7
331
58B
  5
5C1
331
53E
  5
570
331
51C
  5
54E
331
502
  5
534
331
560
  5
592
331
5CF
  5
477
331
582
  5
5B8
331
54F
  5
581
331
52D
  5
55F
331
5BE
  5
466
331
589
  5
5BF
331
53C
  5
56E
331
51A
  5
54C
331
500
  5
532
331
5CD
  5
475
331
55E
  5
590
331
580
  5
5B6
331
54D
  5
57F
331
52B
  5
55D
331
5BC
  5
464
331
56F
  5
5A5
331
3A8
  5
3A8
331
53A
  5
56C
331
518
  5
54A
331
55C
  5
58E
331
5CB
  5
473
331
57E
  5
5B4
331
54B
  5
57D
331
529
  5
55B
331
50F
  5
541
331
56D
  5
5A3
331
538
  5
56A
331
516
  5
548
331
5C9
  5
471
331
55A
  5
58C
331
57C
  5
5B2
331
596
  5
5CC
331
549
  5
57B
331
527
  5
559
331
50D
  5
53F
331
56B
  5
5A1
331
536
  5
568
331
514
  5
546
331
558
  5
58A
331
57A
  5
5B0
331
594
  5
5CA
331
547
  5
579
331
525
  5
557
331
50B
  5
53D
331
569
  5
59F
331
5C7
  5
46F
  0
LAYOUT
  5
3AC
102
{ACAD_XDICTIONARY
360
726
102
}
102
{ACAD_REACTORS
330
1A
102
}
330
1A
100
AcDbPlotSettings
  1

  2
none_device
  4
ISO_A1_(594.00_x_841.00_MM)
  6

 40
0.0
 41
0.0
 42
0.0
 43
0.0
 44
841.0
 45
594.0
 46
0.0
 47
0.0
 48
0.0
 49
0.0
140
0.0
141
0.0
142
1.0
143
1.0
 70
     0
 72
     1
 73
     0
 74
     0
  7

 75
     0
147
1.0
148
0.0
149
0.0
100
AcDbLayout
  1
Layout1
 70
     1
 71
     1
 10
0.0
 20
0.0
 11
12.0
 21
9.0
 12
0.0
 22
0.0
 32
0.0
 14
1.000000000000000E+20
 24
1.000000000000000E+20
 34
1.000000000000000E+20
 15
-1.000000000000000E+20
 25
-1.000000000000000E+20
 35
-1.000000000000000E+20
146
0.0
 13
0.0
 23
0.0
 33
0.0
 16
1.0
 26
0.0
 36
0.0
 17
0.0
 27
1.0
 37
0.0
 76
     0
330
20E
  0
LAYOUT
  5
3AB
102
{ACAD_XDICTIONARY
360
724
102
}
102
{ACAD_REACTORS
330
1A
102
}
330
1A
100
AcDbPlotSettings
  1

  2
none_device
  4
ISO_A1_(594.00_x_841.00_MM)
  6

 40
0.0
 41
0.0
 42
0.0
 43
0.0
 44
841.0
 45
594.0
 46
0.0
 47
0.0
 48
0.0
 49
0.0
140
0.0
141
0.0
142
1.0
143
1.0
 70
  1024
 72
     1
 73
     0
 74
     0
  7

 75
     0
147
1.0
148
0.0
149
0.0
100
AcDbLayout
  1
Model
 70
     0
 71
     0
 10
0.0
 20
0.0
 11
841.0
 21
594.0
 12
0.0
 22
0.0
 32
0.0
 14
0.0
 24
0.0
 34
0.0
 15
0.0
 25
0.0
 35
0.0
146
0.0
 13
0.0
 23
0.0
 33
0.0
 16
1.0
 26
0.0
 36
0.0
 17
0.0
 27
1.0
 37
0.0
 76
     0
330
20D
331
1F4
  0
MATERIAL
  5
3B8
102
{ACAD_XDICTIONARY
360
3B9
102
}
102
{ACAD_REACTORS
330
3AF
102
}
330
3AF
100
AcDbMaterial
  1
ByBlock
 72
     0
 43
0.0008202099737533
 43
0.0
 43
0.0
 43
0.0
 43
0.0
 43
0.0008202099737533
 43
0.0
 43
0.0
 43
0.0
 43
0.0
 43
1.0
 43
0.0
 43
0.0
 43
0.0
 43
0.0
 43
1.0
 77
     0
 47
0.0008202099737533
 47
0.0
 47
0.0
 47
0.0
 47
0.0
 47
0.0008202099737533
 47
0.0
 47
0.0
 47
0.0
 47
0.0
 47
1.0
 47
0.0
 47
0.0
 47
0.0
 47
0.0
 47
1.0
171
     0
 49
0.0008202099737533
 49
0.0
 49
0.0
 49
0.0
 49
0.0
 49
0.0008202099737533
 49
0.0
 49
0.0
 49
0.0
 49
0.0
 49
1.0
 49
0.0
 49
0.0
 49
0.0
 49
0.0
 49
1.0
175
     0
142
0.0008202099737533
142
0.0
142
0.0
142
0.0
142
0.0
142
0.0008202099737533
142
0.0
142
0.0
142
0.0
142
0.0
142
1.0
142
0.0
142
0.0
142
0.0
142
0.0
142
1.0
179
     0
144
0.0008202099737533
144
0.0
144
0.0
144
0.0
144
0.0
144
0.0008202099737533
144
0.0
144
0.0
144
0.0
144
0.0
144
1.0
144
0.0
144
0.0
144
0.0
144
0.0
144
1.0
147
0.0008202099737533
147
0.0
147
0.0
147
0.0
147
0.0
147
0.0008202099737533
147
0.0
147
0.0
147
0.0
147
0.0
147
1.0
147
0.0
147
0.0
147
0.0
147
0.0
147
1.0
  0
MATERIAL
  5
3B0
102
{ACAD_XDICTIONARY
360
3B1
102
}
102
{ACAD_REACTORS
330
3AF
102
}
330
3AF
100
AcDbMaterial
  1
ByLayer
 72
     0
 43
0.0008202099737533
 43
0.0
 43
0.0
 43
0.0
 43
0.0
 43
0.0008202099737533
 43
0.0
 43
0.0
 43
0.0
 43
0.0
 43
1.0
 43
0.0
 43
0.0
 43
0.0
 43
0.0
 43
1.0
 77
     0
 47
0.0008202099737533
 47
0.0
 47
0.0
 47
0.0
 47
0.0
 47
0.0008202099737533
 47
0.0
 47
0.0
 47
0.0
 47
0.0
 47
1.0
 47
0.0
 47
0.0
 47
0.0
 47
0.0
 47
1.0
171
     0
 49
0.0008202099737533
 49
0.0
 49
0.0
 49
0.0
 49
0.0
 49
0.0008202099737533
 49
0.0
 49
0.0
 49
0.0
 49
0.0
 49
1.0
 49
0.0
 49
0.0
 49
0.0
 49
0.0
 49
1.0
175
     0
142
0.0008202099737533
142
0.0
142
0.0
142
0.0
142
0.0
142
0.0008202099737533
142
0.0
142
0.0
142
0.0
142
0.0
142
1.0
142
0.0
142
0.0
142
0.0
142
0.0
142
1.0
179
     0
144
0.0008202099737533
144
0.0
144
0.0
144
0.0
144
0.0
144
0.0008202099737533
144
0.0
144
0.0
144
0.0
144
0.0
144
1.0
144
0.0
144
0.0
144
0.0
144
0.0
144
1.0
147
0.0008202099737533
147
0.0
147
0.0
147
0.0
147
0.0
147
0.0008202099737533
147
0.0
147
0.0
147
0.0
147
0.0
147
1.0
147
0.0
147
0.0
147
0.0
147
0.0
147
1.0
  0
MATERIAL
  5
3C0
102
{ACAD_XDICTIONARY
360
3C1
102
}
102
{ACAD_REACTORS
330
3AF
102
}
330
3AF
100
AcDbMaterial
  1
Global
 72
     0
 43
0.0008202099737533
 43
0.0
 43
0.0
 43
0.0
 43
0.0
 43
0.0008202099737533
 43
0.0
 43
0.0
 43
0.0
 43
0.0
 43
1.0
 43
0.0
 43
0.0
 43
0.0
 43
0.0
 43
1.0
 77
     0
 47
0.0008202099737533
 47
0.0
 47
0.0
 47
0.0
 47
0.0
 47
0.0008202099737533
 47
0.0
 47
0.0
 47
0.0
 47
0.0
 47
1.0
 47
0.0
 47
0.0
 47
0.0
 47
0.0
 47
1.0
171
     0
 49
0.0008202099737533
 49
0.0
 49
0.0
 49
0.0
 49
0.0
 49
0.0008202099737533
 49
0.0
 49
0.0
 49
0.0
 49
0.0
 49
1.0
 49
0.0
 49
0.0
 49
0.0
 49
0.0
 49
1.0
175
     0
142
0.0008202099737533
142
0.0
142
0.0
142
0.0
142
0.0
142
0.0008202099737533
142
0.0
142
0.0
142
0.0
142
0.0
142
1.0
142
0.0
142
0.0
142
0.0
142
0.0
142
1.0
179
     0
144
0.0008202099737533
144
0.0
144
0.0
144
0.0
144
0.0
144
0.0008202099737533
144
0.0
144
0.0
144
0.0
144
0.0
144
1.0
144
0.0
144
0.0
144
0.0
144
0.0
144
1.0
147
0.0008202099737533
147
0.0
147
0.0
147
0.0
147
0.0
147
0.0008202099737533
147
0.0
147
0.0
147
0.0
147
0.0
147
1.0
147
0.0
147
0.0
147
0.0
147
0.0
147
1.0
  0
MLEADERSTYLE
  5
3FF
102
{ACAD_REACTORS
330
3FE
102
}
330
3FE
100
AcDbMLeaderStyle
170
     2
171
     1
172
     0
 90
        2
 40
0.0
 41
0.0
173
     1
 91
-1056964608
340
14
 92
       -2
290
     1
 42
2.0
291
     1
 43
0.36
  3
Standard
 44
4.0
300

342
11
174
     1
178
     6
175
     1
176
     0
 93
-1056964608
 45
4.0
292
     0
297
     0
 46
4.0
 94
-1056964608
 47
1.0
 49
1.0
140
1.0
293
     1
141
0.0
294
     1
177
     0
142
1.0
295
     0
296
     0
143
0.125
1001
ACAD_MLEADERVER
1070
     2
  0
MLINESTYLE
  5
18
102
{ACAD_REACTORS
330
17
102
}
330
17
100
AcDbMlineStyle
  2
STANDARD
 70
     0
  3

 62
   256
 51
90.0
 52
90.0
 71
     2
 49
0.5
 62
   256
  6
BYLAYER
 49
-0.5
 62
   256
  6
BYLAYER
  0
ACDBPLACEHOLDER
  5
F
102
{ACAD_REACTORS
330
E
102
}
330
E
  0
SCALE
  5
3DD
102
{ACAD_REACTORS
330
3DC
102
}
330
3DC
100
AcDbScale
 70
     0
300
1:1
140
1.0
141
1.0
290
     1
  0
SCALE
  5
3DE
102
{ACAD_REACTORS
330
3DC
102
}
330
3DC
100
AcDbScale
 70
     0
300
1:2
140
1.0
141
2.0
290
     0
  0
SCALE
  5
3DF
102
{ACAD_REACTORS
330
3DC
102
}
330
3DC
100
AcDbScale
 70
     0
300
1:4
140
1.0
141
4.0
290
     0
  0
SCALE
  5
3E0
102
{ACAD_REACTORS
330
3DC
102
}
330
3DC
100
AcDbScale
 70
     0
300
1:5
140
1.0
141
5.0
290
     0
  0
SCALE
  5
3E1
102
{ACAD_REACTORS
330
3DC
102
}
330
3DC
100
AcDbScale
 70
     0
300
1:8
140
1.0
141
8.0
290
     0
  0
SCALE
  5
3E2
102
{ACAD_REACTORS
330
3DC
102
}
330
3DC
100
AcDbScale
 70
     0
300
1:10
140
1.0
141
10.0
290
     0
  0
SCALE
  5
3E3
102
{ACAD_REACTORS
330
3DC
102
}
330
3DC
100
AcDbScale
 70
     0
300
1:16
140
1.0
141
16.0
290
     0
  0
SCALE
  5
3E4
102
{ACAD_REACTORS
330
3DC
102
}
330
3DC
100
AcDbScale
 70
     0
300
1:20
140
1.0
141
20.0
290
     0
  0
SCALE
  5
3E5
102
{ACAD_REACTORS
330
3DC
102
}
330
3DC
100
AcDbScale
 70
     0
300
1:30
140
1.0
141
30.0
290
     0
  0
SCALE
  5
3E6
102
{ACAD_REACTORS
330
3DC
102
}
330
3DC
100
AcDbScale
 70
     0
300
1:40
140
1.0
141
40.0
290
     0
  0
SCALE
  5
3E7
102
{ACAD_REACTORS
330
3DC
102
}
330
3DC
100
AcDbScale
 70
     0
300
1:50
140
1.0
141
50.0
290
     0
  0
SCALE
  5
3E8
102
{ACAD_REACTORS
330
3DC
102
}
330
3DC
100
AcDbScale
 70
     0
300
1:100
140
1.0
141
100.0
290
     0
  0
SCALE
  5
3E9
102
{ACAD_REACTORS
330
3DC
102
}
330
3DC
100
AcDbScale
 70
     0
300
2:1
140
2.0
141
1.0
290
     0
  0
SCALE
  5
3EA
102
{ACAD_REACTORS
330
3DC
102
}
330
3DC
100
AcDbScale
 70
     0
300
4:1
140
4.0
141
1.0
290
     0
  0
SCALE
  5
3EB
102
{ACAD_REACTORS
330
3DC
102
}
330
3DC
100
AcDbScale
 70
     0
300
8:1
140
8.0
141
1.0
290
     0
  0
SCALE
  5
3EC
102
{ACAD_REACTORS
330
3DC
102
}
330
3DC
100
AcDbScale
 70
     0
300
10:1
140
10.0
141
1.0
290
     0
  0
SCALE
  5
3ED
102
{ACAD_REACTORS
330
3DC
102
}
330
3DC
100
AcDbScale
 70
     0
300
100:1
140
100.0
141
1.0
290
     0
  0
SCALE
  5
3EE
102
{ACAD_REACTORS
330
3DC
102
}
330
3DC
100
AcDbScale
 70
     0
300
1/128" = 1'-0"
140
0.0078125
141
12.0
290
     0
  0
SCALE
  5
3EF
102
{ACAD_REACTORS
330
3DC
102
}
330
3DC
100
AcDbScale
 70
     0
300
1/64" = 1'-0"
140
0.015625
141
12.0
290
     0
  0
SCALE
  5
3F0
102
{ACAD_REACTORS
330
3DC
102
}
330
3DC
100
AcDbScale
 70
     0
300
1/32" = 1'-0"
140
0.03125
141
12.0
290
     0
  0
SCALE
  5
3F1
102
{ACAD_REACTORS
330
3DC
102
}
330
3DC
100
AcDbScale
 70
     0
300
1/16" = 1'-0"
140
0.0625
141
12.0
290
     0
  0
SCALE
  5
3F2
102
{ACAD_REACTORS
330
3DC
102
}
330
3DC
100
AcDbScale
 70
     0
300
3/32" = 1'-0"
140
0.09375
141
12.0
290
     0
  0
SCALE
  5
3F3
102
{ACAD_REACTORS
330
3DC
102
}
330
3DC
100
AcDbScale
 70
     0
300
1/8" = 1'-0"
140
0.125
141
12.0
290
     0
  0
SCALE
  5
3F4
102
{ACAD_REACTORS
330
3DC
102
}
330
3DC
100
AcDbScale
 70
     0
300
3/16" = 1'-0"
140
0.1875
141
12.0
290
     0
  0
SCALE
  5
3F5
102
{ACAD_REACTORS
330
3DC
102
}
330
3DC
100
AcDbScale
 70
     0
300
1/4" = 1'-0"
140
0.25
141
12.0
290
     0
  0
SCALE
  5
3F6
102
{ACAD_REACTORS
330
3DC
102
}
330
3DC
100
AcDbScale
 70
     0
300
3/8" = 1'-0"
140
0.375
141
12.0
290
     0
  0
SCALE
  5
3F7
102
{ACAD_REACTORS
330
3DC
102
}
330
3DC
100
AcDbScale
 70
     0
300
1/2" = 1'-0"
140
0.5
141
12.0
290
     0
  0
SCALE
  5
3F8
102
{ACAD_REACTORS
330
3DC
102
}
330
3DC
100
AcDbScale
 70
     0
300
3/4" = 1'-0"
140
0.75
141
12.0
290
     0
  0
SCALE
  5
3F9
102
{ACAD_REACTORS
330
3DC
102
}
330
3DC
100
AcDbScale
 70
     0
300
1" = 1'-0"
140
1.0
141
12.0
290
     0
  0
SCALE
  5
3FA
102
{ACAD_REACTORS
330
3DC
102
}
330
3DC
100
AcDbScale
 70
     0
300
1-1/2" = 1'-0"
140
1.5
141
12.0
290
     0
  0
SCALE
  5
3FB
102
{ACAD_REACTORS
330
3DC
102
}
330
3DC
100
AcDbScale
 70
     0
300
3" = 1'-0"
140
3.0
141
12.0
290
     0
  0
SCALE
  5
3FC
102
{ACAD_REACTORS
330
3DC
102
}
330
3DC
100
AcDbScale
 70
     0
300
6" = 1'-0"
140
6.0
141
12.0
290
     0
  0
SCALE
  5
3FD
102
{ACAD_REACTORS
330
3DC
102
}
330
3DC
100
AcDbScale
 70
     0
300
1'-0" = 1'-0"
140
12.0
141
12.0
290
     0
  0
TABLESTYLE
  5
3DB
102
{ACAD_XDICTIONARY
360
401
102
}
102
{ACAD_REACTORS
330
3DA
102
}
330
3DA
100
AcDbTableStyle
  3
Standard
 70
     0
 71
     0
 40
1.5
 41
1.5
280
     0
281
     0
  7
STANDARD
140
4.5
170
     2
 62
     0
 63
     7
283
     0
274
    -2
284
     1
 64
     0
275
    -2
285
     1
 65
     0
276
    -2
286
     1
 66
     0
277
    -2
287
     1
 67
     0
278
    -2
288
     1
 68
     0
279
    -2
289
     1
 69
     0
  7
STANDARD
140
6.0
170
     5
 62
     0
 63
     7
283
     0
274
    -2
284
     1
 64
     0
275
    -2
285
     1
 65
     0
276
    -2
286
     1
 66
     0
277
    -2
287
     1
 67
     0
278
    -2
288
     1
 68
     0
279
    -2
289
     1
 69
     0
  7
STANDARD
140
4.5
170
     5
 62
     0
 63
     7
283
     0
274
    -2
284
     1
 64
     0
275
    -2
285
     1
 65
     0
276
    -2
286
     1
 66
     0
277
    -2
287
     1
 67
     0
278
    -2
288
     1
 68
     0
279
    -2
289
     1
 69
     0
  0
VISUALSTYLE
  5
3CE
102
{ACAD_XDICTIONARY
360
735
102
}
102
{ACAD_REACTORS
330
3C8
102
}
330
3C8
100
AcDbVisualStyle
  2
2dWireframe
 70
     4
 71
     0
 72
     2
 73
     0
 90
        0
 40
-0.6
 41
-30.0
 62
     5
 63
     7
 74
     1
 91
        4
 64
     7
 65
   257
 75
     1
175
     1
 42
1.0
 92
        0
 66
   257
 43
1.0
 76
     1
 77
     6
 78
     2
 67
     7
 79
     5
170
     0
171
     0
290
     0
174
     0
 93
        1
 44
0.0
173
     0
291
     0
 45
0.0
1001
ACAD
1000
AcDbSavedByObjectVersion
1070
     0
  0
VISUALSTYLE
  5
3D0
102
{ACAD_XDICTIONARY
360
739
102
}
102
{ACAD_REACTORS
330
3C8
102
}
330
3C8
100
AcDbVisualStyle
  2
3D Hidden
 70
     6
 71
     1
 72
     2
 73
     2
 90
        0
 40
-0.6
 41
-30.0
 62
     5
 63
     7
 74
     2
 91
        2
 64
     7
 65
   257
 75
     2
175
     1
 42
40.0
 92
        0
 66
   257
 43
1.0
 76
     1
 77
     6
 78
     2
 67
     7
 79
     3
170
     0
171
     0
290
     0
174
     0
 93
        1
 44
0.0
173
     0
291
     0
 45
0.0
1001
ACAD
1000
AcDbSavedByObjectVersion
1070
     0
  0
VISUALSTYLE
  5
3CF
102
{ACAD_XDICTIONARY
360
737
102
}
102
{ACAD_REACTORS
330
3C8
102
}
330
3C8
100
AcDbVisualStyle
  2
3dWireframe
 70
     5
 71
     0
 72
     2
 73
     0
 90
        0
 40
-0.6
 41
-30.0
 62
     5
 63
     7
 74
     1
 91
        4
 64
     7
 65
   257
 75
     1
175
     1
 42
1.0
 92
        0
 66
   257
 43
1.0
 76
     1
 77
     6
 78
     2
 67
     7
 79
     5
170
     0
171
     0
290
     0
174
     0
 93
        1
 44
0.0
173
     0
291
     0
 45
0.0
1001
ACAD
1000
AcDbSavedByObjectVersion
1070
     0
  0
VISUALSTYLE
  5
3CD
102
{ACAD_XDICTIONARY
360
733
102
}
102
{ACAD_REACTORS
330
3C8
102
}
330
3C8
100
AcDbVisualStyle
  2
Basic
 70
     7
 71
     1
 72
     0
 73
     1
 90
        0
 40
-0.6
 41
-30.0
 62
     5
 63
     7
 74
     0
 91
        4
 64
     7
 65
   257
 75
     1
175
     1
 42
1.0
 92
        8
 66
     7
 43
1.0
 76
     1
 77
     6
 78
     2
 67
     7
 79
     5
170
     0
171
     0
290
     0
174
     0
 93
        1
 44
0.0
173
     0
291
     1
 45
0.0
1001
ACAD
1000
AcDbSavedByObjectVersion
1070
     0
  0
VISUALSTYLE
  5
3D4
102
{ACAD_XDICTIONARY
360
741
102
}
102
{ACAD_REACTORS
330
3C8
102
}
330
3C8
100
AcDbVisualStyle
  2
Brighten
 70
    12
 71
     2
 72
     2
 73
     0
 90
        0
 40
-0.6
 41
-30.0
 62
     5
 63
     7
 74
     1
 91
        4
 64
     7
 65
   257
 75
     1
175
     1
 42
1.0
 92
        8
 66
     7
 43
1.0
 76
     1
 77
     6
 78
     2
 67
     7
 79
     5
170
     0
171
     0
290
     0
174
     0
 93
        1
 44
50.0
173
     0
291
     1
 45
0.0
1001
ACAD
1000
AcDbSavedByObjectVersion
1070
     0
  0
VISUALSTYLE
  5
3D8
102
{ACAD_XDICTIONARY
360
749
102
}
102
{ACAD_REACTORS
330
3C8
102
}
330
3C8
100
AcDbVisualStyle
  2
ColorChange
 70
    16
 71
     2
 72
     2
 73
     3
 90
        0
 40
-0.6
 41
-30.0
 62
     5
 63
     8
 74
     1
 91
        4
 64
     7
 65
   257
 75
     1
175
     1
 42
1.0
 92
        8
 66
     8
 43
1.0
 76
     1
 77
     6
 78
     2
 67
     7
 79
     5
170
     0
171
     0
290
     0
174
     0
 93
        1
 44
0.0
173
     0
291
     1
 45
0.0
1001
ACAD
1000
AcDbSavedByObjectVersion
1070
     0
  0
VISUALSTYLE
  5
3D1
102
{ACAD_XDICTIONARY
360
73B
102
}
102
{ACAD_REACTORS
330
3C8
102
}
330
3C8
100
AcDbVisualStyle
  2
Conceptual
 70
     9
 71
     3
 72
     2
 73
     0
 90
        0
 40
-0.6
 41
-30.0
 62
     5
 63
     7
 74
     2
 91
        2
 64
     7
 65
   257
 75
     1
175
     1
 42
40.0
 92
        8
 66
     7
 43
1.0
 76
     1
 77
     6
 78
     2
 67
     7
 79
     3
170
     0
171
     0
290
     0
174
     0
 93
        1
 44
0.0
173
     0
291
     0
 45
0.0
1001
ACAD
1000
AcDbSavedByObjectVersion
1070
     0
  0
VISUALSTYLE
  5
3D3
102
{ACAD_XDICTIONARY
360
73F
102
}
102
{ACAD_REACTORS
330
3C8
102
}
330
3C8
100
AcDbVisualStyle
  2
Dim
 70
    11
 71
     2
 72
     2
 73
     0
 90
        0
 40
-0.6
 41
-30.0
 62
     5
 63
     7
 74
     1
 91
        4
 64
     7
 65
   257
 75
     1
175
     1
 42
1.0
 92
        8
 66
     7
 43
1.0
 76
     1
 77
     6
 78
     2
 67
     7
 79
     5
170
     0
171
     0
290
     0
174
     0
 93
        1
 44
-50.0
173
     0
291
     1
 45
0.0
1001
ACAD
1000
AcDbSavedByObjectVersion
1070
     0
  0
VISUALSTYLE
  5
443
102
{ACAD_XDICTIONARY
360
75E
102
}
102
{ACAD_REACTORS
330
3C8
102
}
330
3C8
100
AcDbVisualStyle
  2
EdgeColorOff
 70
    22
 71
     2
 72
     2
 73
     0
 90
        0
 40
-0.6
 41
-30.0
 62
     5
 63
     7
 74
     1
 91
        4
 64
     7
 65
   257
 75
     1
175
     1
 42
1.0
 92
        8
 66
     7
 43
1.0
 76
     1
 77
     6
 78
     2
 67
     7
 79
     5
170
     0
171
     0
290
     0
174
     0
 93
        1
 44
0.0
173
     0
291
     1
 45
0.0
1001
ACAD
1000
AcDbSavedByObjectVersion
1070
     0
  0
VISUALSTYLE
  5
3D7
102
{ACAD_XDICTIONARY
360
747
102
}
102
{ACAD_REACTORS
330
3C8
102
}
330
3C8
100
AcDbVisualStyle
  2
Facepattern
 70
    15
 71
     2
 72
     2
 73
     0
 90
        0
 40
-0.6
 41
-30.0
 62
     5
 63
     7
 74
     1
 91
        4
 64
     7
 65
   257
 75
     1
175
     1
 42
1.0
 92
        8
 66
     7
 43
1.0
 76
     1
 77
     6
 78
     2
 67
     7
 79
     5
170
     0
171
     0
290
     0
174
     0
 93
        1
 44
0.0
173
     0
291
     1
 45
0.0
1001
ACAD
1000
AcDbSavedByObjectVersion
1070
     0
  0
VISUALSTYLE
  5
3C9
102
{ACAD_XDICTIONARY
360
72B
102
}
102
{ACAD_REACTORS
330
3C8
102
}
330
3C8
100
AcDbVisualStyle
  2
Flat
 70
     0
 71
     2
 72
     1
 73
     1
 90
        2
 40
-0.6
 41
30.0
 62
     5
 63
     7
 74
     0
 91
        4
 64
     7
 65
   257
 75
     1
175
     1
 42
1.0
 92
        8
 66
     7
 43
1.0
 76
     1
 77
     6
 78
     2
 67
     7
 79
     5
170
     0
171
     0
290
     0
174
     0
 93
       13
 44
0.0
173
     0
291
     1
 45
0.0
1001
ACAD
1000
AcDbSavedByObjectVersion
1070
     0
  0
VISUALSTYLE
  5
3CA
102
{ACAD_XDICTIONARY
360
72D
102
}
102
{ACAD_REACTORS
330
3C8
102
}
330
3C8
100
AcDbVisualStyle
  2
FlatWithEdges
 70
     1
 71
     2
 72
     1
 73
     1
 90
        2
 40
-0.6
 41
30.0
 62
     5
 63
     7
 74
     1
 91
        4
 64
     7
 65
   257
 75
     1
175
     1
 42
1.0
 92
        0
 66
   257
 43
1.0
 76
     1
 77
     6
 78
     2
 67
     7
 79
     5
170
     0
171
     0
290
     0
174
     0
 93
       13
 44
0.0
173
     0
291
     1
 45
0.0
1001
ACAD
1000
AcDbSavedByObjectVersion
1070
     0
  0
VISUALSTYLE
  5
3CB
102
{ACAD_XDICTIONARY
360
72F
102
}
102
{ACAD_REACTORS
330
3C8
102
}
330
3C8
100
AcDbVisualStyle
  2
Gouraud
 70
     2
 71
     2
 72
     2
 73
     1
 90
        2
 40
-0.6
 41
30.0
 62
     5
 63
     7
 74
     0
 91
        4
 64
     7
 65
   257
 75
     1
175
     1
 42
1.0
 92
        0
 66
     7
 43
1.0
 76
     1
 77
     6
 78
     2
 67
     7
 79
     5
170
     0
171
     0
290
     0
174
     0
 93
       13
 44
0.0
173
     0
291
     1
 45
0.0
1001
ACAD
1000
AcDbSavedByObjectVersion
1070
     0
  0
VISUALSTYLE
  5
3CC
102
{ACAD_XDICTIONARY
360
731
102
}
102
{ACAD_REACTORS
330
3C8
102
}
330
3C8
100
AcDbVisualStyle
  2
GouraudWithEdges
 70
     3
 71
     2
 72
     2
 73
     1
 90
        2
 40
-0.6
 41
30.0
 62
     5
 63
     7
 74
     1
 91
        4
 64
     7
 65
   257
 75
     1
175
     1
 42
1.0
 92
        0
 66
   257
 43
1.0
 76
     1
 77
     6
 78
     2
 67
     7
 79
     5
170
     0
171
     0
290
     0
174
     0
 93
       13
 44
0.0
173
     0
291
     1
 45
0.0
1001
ACAD
1000
AcDbSavedByObjectVersion
1070
     0
  0
VISUALSTYLE
  5
43B
102
{ACAD_XDICTIONARY
360
74E
102
}
102
{ACAD_REACTORS
330
3C8
102
}
330
3C8
100
AcDbVisualStyle
  2
Hidden
 70
     6
 71
     1
 72
     2
 73
     2
 90
        0
 40
-0.6
 41
-30.0
 62
     5
 63
     7
 74
     2
 91
        2
 64
     7
 65
   257
 75
     2
175
     1
 42
40.0
 92
        0
 66
   257
 43
1.0
 76
     1
 77
     6
 78
     2
 67
     7
 79
     3
170
     0
171
     0
290
     0
174
     0
 93
        1
 44
0.0
173
     0
291
     0
 45
0.0
1001
ACAD
1000
AcDbSavedByObjectVersion
1070
     0
  0
VISUALSTYLE
  5
441
102
{ACAD_XDICTIONARY
360
75A
102
}
102
{ACAD_REACTORS
330
3C8
102
}
330
3C8
100
AcDbVisualStyle
  2
JitterOff
 70
    20
 71
     2
 72
     2
 73
     0
 90
        0
 40
-0.6
 41
-30.0
 62
     5
 63
     7
 74
     1
 91
        4
 64
     7
 65
   257
 75
     1
175
     1
 42
1.0
 92
       10
 66
     7
 43
1.0
 76
     1
 77
     6
 78
     2
 67
     7
 79
     5
170
     0
171
     0
290
     0
174
     0
 93
        1
 44
0.0
173
     0
291
     1
 45
0.0
1001
ACAD
1000
AcDbSavedByObjectVersion
1070
     0
  0
VISUALSTYLE
  5
3D6
102
{ACAD_XDICTIONARY
360
745
102
}
102
{ACAD_REACTORS
330
3C8
102
}
330
3C8
100
AcDbVisualStyle
  2
Linepattern
 70
    14
 71
     2
 72
     2
 73
     0
 90
        0
 40
-0.6
 41
-30.0
 62
     5
 63
     7
 74
     1
 91
        4
 64
     7
 65
   257
 75
     7
175
     7
 42
1.0
 92
        8
 66
     7
 43
1.0
 76
     1
 77
     6
 78
     2
 67
     7
 79
     5
170
     0
171
     0
290
     0
174
     0
 93
        1
 44
0.0
173
     0
291
     1
 45
0.0
1001
ACAD
1000
AcDbSavedByObjectVersion
1070
     0
  0
VISUALSTYLE
  5
442
102
{ACAD_XDICTIONARY
360
75C
102
}
102
{ACAD_REACTORS
330
3C8
102
}
330
3C8
100
AcDbVisualStyle
  2
OverhangOff
 70
    21
 71
     2
 72
     2
 73
     0
 90
        0
 40
-0.6
 41
-30.0
 62
     5
 63
     7
 74
     1
 91
        4
 64
     7
 65
   257
 75
     1
175
     1
 42
1.0
 92
        9
 66
     7
 43
1.0
 76
     1
 77
     6
 78
     2
 67
     7
 79
     5
170
     0
171
     0
290
     0
174
     0
 93
        1
 44
0.0
173
     0
291
     1
 45
0.0
1001
ACAD
1000
AcDbSavedByObjectVersion
1070
     0
  0
VISUALSTYLE
  5
3D2
102
{ACAD_XDICTIONARY
360
73D
102
}
102
{ACAD_REACTORS
330
3C8
102
}
330
3C8
100
AcDbVisualStyle
  2
Realistic
 70
     8
 71
     2
 72
     2
 73
     0
 90
        0
 40
-0.6
 41
-30.0
 62
     5
 63
     7
 74
     1
 91
        0
 64
     7
 65
   257
 75
     1
175
     1
 42
1.0
 92
        8
 66
     8
 43
1.0
 76
     1
 77
     6
 78
     2
 67
     7
 79
     5
170
     0
171
     0
290
     0
174
     0
 93
       13
 44
0.0
173
     0
291
     0
 45
0.0
1001
ACAD
1000
AcDbSavedByObjectVersion
1070
     0
  0
VISUALSTYLE
  5
440
102
{ACAD_XDICTIONARY
360
758
102
}
102
{ACAD_REACTORS
330
3C8
102
}
330
3C8
100
AcDbVisualStyle
  2
Shaded
 70
    27
 71
     2
 72
     2
 73
     1
 90
        2
 40
-0.6
 41
30.0
 62
     5
 63
     7
 74
     0
 91
        4
 64
     7
 65
   257
 75
     1
175
     1
 42
1.0
 92
        8
 66
   257
 43
1.0
 76
     1
 77
     6
 78
     2
 67
     8
 79
     3
170
     0
171
     0
290
     0
174
     0
 93
        5
 44
0.0
173
     0
291
     0
 45
0.0
1001
ACAD
1000
AcDbSavedByObjectVersion
1070
     0
  0
VISUALSTYLE
  5
43F
102
{ACAD_XDICTIONARY
360
756
102
}
102
{ACAD_REACTORS
330
3C8
102
}
330
3C8
100
AcDbVisualStyle
  2
Shaded with edges
 70
    26
 71
     2
 72
     2
 73
     1
 90
        2
 40
-0.6
 41
30.0
 62
     5
 63
     7
 74
     1
 91
       10
 64
     7
 65
   257
 75
     2
175
     1
 42
1.0
 92
        8
 66
   257
 43
1.0
 76
     1
 77
     6
 78
     2
 67
     7
 79
     3
170
     0
171
     0
290
     0
174
     0
 93
        5
 44
0.0
173
     0
291
     0
 45
0.0
1001
ACAD
1000
AcDbSavedByObjectVersion
1070
     0
  0
VISUALSTYLE
  5
43C
102
{ACAD_XDICTIONARY
360
750
102
}
102
{ACAD_REACTORS
330
3C8
102
}
330
3C8
100
AcDbVisualStyle
  2
Shades of Gray
 70
    23
 71
     2
 72
     2
 73
     3
 90
        0
 40
-0.6
 41
-30.0
 62
     5
 63
     7
 74
     2
 91
        2
 64
     7
 65
     7
 75
     1
175
     1
 42
40.0
 92
        8
 66
     7
 43
1.0
 76
     1
 77
     6
 78
     2
 67
     7
 79
     3
170
     0
171
     0
290
     0
174
     0
 93
        1
 44
0.0
173
     0
291
     0
 45
0.0
1001
ACAD
1000
AcDbSavedByObjectVersion
1070
     0
  0
VISUALSTYLE
  5
43D
102
{ACAD_XDICTIONARY
360
752
102
}
102
{ACAD_REACTORS
330
3C8
102
}
330
3C8
100
AcDbVisualStyle
  2
Sketchy
 70
    24
 71
     1
 72
     2
 73
     2
 90
        0
 40
-0.6
 41
-30.0
 62
     5
 63
     7
 74
     2
 91
        2
 64
     7
 65
     7
 75
     1
175
     1
 42
40.0
 92
       11
 66
     7
 43
1.0
 76
     1
 77
     6
 78
     2
 67
     7
 79
     6
170
     0
171
     0
290
     0
174
     0
 93
        1
 44
0.0
173
     0
291
     0
 45
0.0
1001
ACAD
1000
AcDbSavedByObjectVersion
1070
     0
  0
VISUALSTYLE
  5
3D5
102
{ACAD_XDICTIONARY
360
743
102
}
102
{ACAD_REACTORS
330
3C8
102
}
330
3C8
100
AcDbVisualStyle
  2
Thicken
 70
    13
 71
     2
 72
     2
 73
     0
 90
        0
 40
-0.6
 41
-30.0
 62
     5
 63
     7
 74
     1
 91
        4
 64
     7
 65
   257
 75
     1
175
     1
 42
1.0
 92
       12
 66
     7
 43
1.0
 76
     1
 77
     6
 78
     2
 67
     7
 79
     5
170
     0
171
     0
290
     0
174
     0
 93
        1
 44
0.0
173
     0
291
     1
 45
0.0
1001
ACAD
1000
AcDbSavedByObjectVersion
1070
     0
  0
VISUALSTYLE
  5
43A
102
{ACAD_XDICTIONARY
360
74C
102
}
102
{ACAD_REACTORS
330
3C8
102
}
330
3C8
100
AcDbVisualStyle
  2
Wireframe
 70
     5
 71
     0
 72
     2
 73
     0
 90
        0
 40
-0.6
 41
-30.0
 62
     5
 63
     7
 74
     1
 91
        4
 64
     7
 65
   257
 75
     1
175
     1
 42
1.0
 92
        0
 66
   257
 43
1.0
 76
     1
 77
     6
 78
     2
 67
     7
 79
     3
170
     0
171
     0
290
     0
174
     0
 93
        1
 44
0.0
173
     0
291
     0
 45
0.0
1001
ACAD
1000
AcDbSavedByObjectVersion
1070
     0
  0
VISUALSTYLE
  5
43E
102
{ACAD_XDICTIONARY
360
754
102
}
102
{ACAD_REACTORS
330
3C8
102
}
330
3C8
100
AcDbVisualStyle
  2
X-Ray
 70
    25
 71
     2
 72
     2
 73
     1
 90
        1
 40
0.5
 41
-30.0
 62
     5
 63
     7
 74
     1
 91
        0
 64
     7
 65
   257
 75
     1
175
     1
 42
1.0
 92
        8
 66
     7
 43
1.0
 76
     1
 77
     6
 78
     2
 67
     7
 79
     3
170
     0
171
     0
290
     0
174
     0
 93
       13
 44
0.0
173
     0
291
     0
 45
0.0
1001
ACAD
1000
AcDbSavedByObjectVersion
1070
     0
  0
DICTIONARYVAR
  5
435
102
{ACAD_REACTORS
330
432
102
}
330
432
100
DictionaryVariables
280
     0
  1
1:1
  0
DICTIONARYVAR
  5
434
102
{ACAD_REACTORS
330
432
102
}
330
432
100
DictionaryVariables
280
     0
  1
STANDARD
  0
DICTIONARYVAR
  5
433
102
{ACAD_REACTORS
330
432
102
}
330
432
100
DictionaryVariables
280
     0
  1
STANDARD
  0
DICTIONARYVAR
  5
438
102
{ACAD_REACTORS
330
432
102
}
330
432
100
DictionaryVariables
280
     0
  1
1
  0
DICTIONARYVAR
  5
437
102
{ACAD_REACTORS
330
432
102
}
330
432
100
DictionaryVariables
280
     0
  1
0
  0
DICTIONARYVAR
  5
436
102
{ACAD_REACTORS
330
432
102
}
330
432
100
DictionaryVariables
280
     0
  1
127
  0
DICTIONARYVAR
  5
720
102
{ACAD_REACTORS
330
432
102
}
330
432
100
DictionaryVariables
280
     0
  1
2
  0
DICTIONARY
  5
726
330
3AC
100
AcDbDictionary
280
     1
281
     1
  3
ACAD_XREC_ROUNDTRIP
360
727
  0
DICTIONARY
  5
724
330
3AB
100
AcDbDictionary
280
     1
281
     1
  3
ACAD_XREC_ROUNDTRIP
360
725
  0
DICTIONARY
  5
3B9
330
3B8
100
AcDbDictionary
280
     1
281
     1
  3
ACAD_XREC_ROUNDTRIP
360
729
  3
BUMPTILE
360
3BB
  3
DIFFUSETILE
360
3BA
  3
OPACITYTILE
360
3BE
  3
REFLECTIONTILE
360
3BD
  3
REFRACTIONTILE
360
3BF
  3
SPECULARTILE
360
3BC
  0
DICTIONARY
  5
3B1
330
3B0
100
AcDbDictionary
280
     1
281
     1
  3
ACAD_XREC_ROUNDTRIP
360
728
  3
BUMPTILE
360
3B3
  3
DIFFUSETILE
360
3B2
  3
OPACITYTILE
360
3B6
  3
REFLECTIONTILE
360
3B5
  3
REFRACTIONTILE
360
3B7
  3
SPECULARTILE
360
3B4
  0
DICTIONARY
  5
3C1
330
3C0
100
AcDbDictionary
280
     1
281
     1
  3
ACAD_XREC_ROUNDTRIP
360
72A
  3
BUMPTILE
360
3C3
  3
DIFFUSETILE
360
3C2
  3
OPACITYTILE
360
3C6
  3
REFLECTIONTILE
360
3C5
  3
REFRACTIONTILE
360
3C7
  3
SPECULARTILE
360
3C4
  0
DICTIONARY
  5
401
330
3DB
100
AcDbDictionary
280
     1
281
     1
  3
ACAD_ROUNDTRIP_2008_TABLESTYLE_CELLSTYLEMAP
360
721
  3
ACAD_XREC_ROUNDTRIP
360
74B
  0
DICTIONARY
  5
735
330
3CE
100
AcDbDictionary
280
     1
281
     1
  3
ACAD_XREC_ROUNDTRIP
360
736
  0
DICTIONARY
  5
739
330
3D0
100
AcDbDictionary
280
     1
281
     1
  3
ACAD_XREC_ROUNDTRIP
360
73A
  0
DICTIONARY
  5
737
330
3CF
100
AcDbDictionary
280
     1
281
     1
  3
ACAD_XREC_ROUNDTRIP
360
738
  0
DICTIONARY
  5
733
330
3CD
100
AcDbDictionary
280
     1
281
     1
  3
ACAD_XREC_ROUNDTRIP
360
734
  0
DICTIONARY
  5
741
330
3D4
100
AcDbDictionary
280
     1
281
     1
  3
ACAD_XREC_ROUNDTRIP
360
742
  0
DICTIONARY
  5
749
330
3D8
100
AcDbDictionary
280
     1
281
     1
  3
ACAD_XREC_ROUNDTRIP
360
74A
  0
DICTIONARY
  5
73B
330
3D1
100
AcDbDictionary
280
     1
281
     1
  3
ACAD_XREC_ROUNDTRIP
360
73C
  0
DICTIONARY
  5
73F
330
3D3
100
AcDbDictionary
280
     1
281
     1
  3
ACAD_XREC_ROUNDTRIP
360
740
  0
DICTIONARY
  5
75E
330
443
100
AcDbDictionary
280
     1
281
     1
  3
ACAD_XREC_ROUNDTRIP
360
75F
  0
DICTIONARY
  5
747
330
3D7
100
AcDbDictionary
280
     1
281
     1
  3
ACAD_XREC_ROUNDTRIP
360
748
  0
DICTIONARY
  5
72B
330
3C9
100
AcDbDictionary
280
     1
281
     1
  3
ACAD_XREC_ROUNDTRIP
360
72C
  0
DICTIONARY
  5
72D
330
3CA
100
AcDbDictionary
280
     1
281
     1
  3
ACAD_XREC_ROUNDTRIP
360
72E
  0
DICTIONARY
  5
72F
330
3CB
100
AcDbDictionary
280
     1
281
     1
  3
ACAD_XREC_ROUNDTRIP
360
730
  0
DICTIONARY
  5
731
330
3CC
100
AcDbDictionary
280
     1
281
     1
  3
ACAD_XREC_ROUNDTRIP
360
732
  0
DICTIONARY
  5
74E
330
43B
100
AcDbDictionary
280
     1
281
     1
  3
ACAD_XREC_ROUNDTRIP
360
74F
  0
DICTIONARY
  5
75A
330
441
100
AcDbDictionary
280
     1
281
     1
  3
ACAD_XREC_ROUNDTRIP
360
75B
  0
DICTIONARY
  5
745
330
3D6
100
AcDbDictionary
280
     1
281
     1
  3
ACAD_XREC_ROUNDTRIP
360
746
  0
DICTIONARY
  5
75C
330
442
100
AcDbDictionary
280
     1
281
     1
  3
ACAD_XREC_ROUNDTRIP
360
75D
  0
DICTIONARY
  5
73D
330
3D2
100
AcDbDictionary
280
     1
281
     1
  3
ACAD_XREC_ROUNDTRIP
360
73E
  0
DICTIONARY
  5
758
330
440
100
AcDbDictionary
280
     1
281
     1
  3
ACAD_XREC_ROUNDTRIP
360
759
  0
DICTIONARY
  5
756
330
43F
100
AcDbDictionary
280
     1
281
     1
  3
ACAD_XREC_ROUNDTRIP
360
757
  0
DICTIONARY
  5
750
330
43C
100
AcDbDictionary
280
     1
281
     1
  3
ACAD_XREC_ROUNDTRIP
360
751
  0
DICTIONARY
  5
752
330
43D
100
AcDbDictionary
280
     1
281
     1
  3
ACAD_XREC_ROUNDTRIP
360
753
  0
DICTIONARY
  5
743
330
3D5
100
AcDbDictionary
280
     1
281
     1
  3
ACAD_XREC_ROUNDTRIP
360
744
  0
DICTIONARY
  5
74C
330
43A
100
AcDbDictionary
280
     1
281
     1
  3
ACAD_XREC_ROUNDTRIP
360
74D
  0
DICTIONARY
  5
754
330
43E
100
AcDbDictionary
280
     1
281
     1
  3
ACAD_XREC_ROUNDTRIP
360
755
  0
XRECORD
  5
727
102
{ACAD_REACTORS
330
726
102
}
330
726
100
AcDbXrecord
280
     1
102
SHADEPLOT
 70
     0
102
SHADEPLOTRESLEVEL
 70
     2
102
SHADEPLOTCUSTOMDPI
 70
   300
  0
XRECORD
  5
725
102
{ACAD_REACTORS
330
724
102
}
330
724
100
AcDbXrecord
280
     1
102
SHADEPLOT
 70
     0
102
SHADEPLOTRESLEVEL
 70
     2
102
SHADEPLOTCUSTOMDPI
 70
   300
  0
XRECORD
  5
729
102
{ACAD_REACTORS
330
3B9
102
}
330
3B9
100
AcDbXrecord
280
     1
102
MATERIAL
148
0.0
149
0.0
149
0.0
 93
        0
 94
      127
282
     0
 72
     0
 77
     0
171
     0
175
     0
179
     0
273
     0
  0
XRECORD
  5
3BB
102
{ACAD_REACTORS
330
3B9
102
}
330
3B9
100
AcDbXrecord
280
     1
270
     1
271
     1
  0
XRECORD
  5
3BA
102
{ACAD_REACTORS
330
3B9
102
}
330
3B9
100
AcDbXrecord
280
     1
270
     1
271
     1
  0
XRECORD
  5
3BE
102
{ACAD_REACTORS
330
3B9
102
}
330
3B9
100
AcDbXrecord
280
     1
270
     1
271
     1
  0
XRECORD
  5
3BD
102
{ACAD_REACTORS
330
3B9
102
}
330
3B9
100
AcDbXrecord
280
     1
270
     1
271
     1
  0
XRECORD
  5
3BF
102
{ACAD_REACTORS
330
3B9
102
}
330
3B9
100
AcDbXrecord
280
     1
270
     1
271
     1
  0
XRECORD
  5
3BC
102
{ACAD_REACTORS
330
3B9
102
}
330
3B9
100
AcDbXrecord
280
     1
270
     1
271
     1
  0
XRECORD
  5
728
102
{ACAD_REACTORS
330
3B1
102
}
330
3B1
100
AcDbXrecord
280
     1
102
MATERIAL
148
0.0
149
0.0
149
0.0
 93
        0
 94
      127
282
     0
 72
     0
 77
     0
171
     0
175
     0
179
     0
273
     0
  0
XRECORD
  5
3B3
102
{ACAD_REACTORS
330
3B1
102
}
330
3B1
100
AcDbXrecord
280
     1
270
     1
271
     1
  0
XRECORD
  5
3B2
102
{ACAD_REACTORS
330
3B1
102
}
330
3B1
100
AcDbXrecord
280
     1
270
     1
271
     1
  0
XRECORD
  5
3B6
102
{ACAD_REACTORS
330
3B1
102
}
330
3B1
100
AcDbXrecord
280
     1
270
     1
271
     1
  0
XRECORD
  5
3B5
102
{ACAD_REACTORS
330
3B1
102
}
330
3B1
100
AcDbXrecord
280
     1
270
     1
271
     1
  0
XRECORD
  5
3B7
102
{ACAD_REACTORS
330
3B1
102
}
330
3B1
100
AcDbXrecord
280
     1
270
     1
271
     1
  0
XRECORD
  5
3B4
102
{ACAD_REACTORS
330
3B1
102
}
330
3B1
100
AcDbXrecord
280
     1
270
     1
271
     1
  0
XRECORD
  5
72A
102
{ACAD_REACTORS
330
3C1
102
}
330
3C1
100
AcDbXrecord
280
     1
102
MATERIAL
148
0.0
149
0.0
149
0.0
 93
        0
 94
      127
282
     0
 72
     0
 77
     0
171
     0
175
     0
179
     0
273
     0
  0
XRECORD
  5
3C3
102
{ACAD_REACTORS
330
3C1
102
}
330
3C1
100
AcDbXrecord
280
     1
270
     1
271
     1
  0
XRECORD
  5
3C2
102
{ACAD_REACTORS
330
3C1
102
}
330
3C1
100
AcDbXrecord
280
     1
270
     1
271
     1
  0
XRECORD
  5
3C6
102
{ACAD_REACTORS
330
3C1
102
}
330
3C1
100
AcDbXrecord
280
     1
270
     1
271
     1
  0
XRECORD
  5
3C5
102
{ACAD_REACTORS
330
3C1
102
}
330
3C1
100
AcDbXrecord
280
     1
270
     1
271
     1
  0
XRECORD
  5
3C7
102
{ACAD_REACTORS
330
3C1
102
}
330
3C1
100
AcDbXrecord
280
     1
270
     1
271
     1
  0
XRECORD
  5
3C4
102
{ACAD_REACTORS
330
3C1
102
}
330
3C1
100
AcDbXrecord
280
     1
270
     1
271
     1
  0
CELLSTYLEMAP
  5
721
102
{ACAD_REACTORS
330
401
102
}
330
401
100
AcDbCellStyleMap
 90
        3
300
CELLSTYLE
  1
TABLEFORMAT_BEGIN
 90
        5
170
     1
 91
        0
 92
    32768
 62
   257
 93
        1
300
CONTENTFORMAT
  1
CONTENTFORMAT_BEGIN
 90
        0
 91
        0
 92
      512
 93
        0
300

 40
0.0
140
1.0
 94
        5
 62
     0
340
11
144
6.0
309
CONTENTFORMAT_END
171
     1
301
MARGIN
  1
CELLMARGIN_BEGIN
 40
1.5
 40
1.5
 40
1.5
 40
1.5
 40
4.5
 40
4.5
309
CELLMARGIN_END
 94
        6
 95
        1
302
GRIDFORMAT
  1
GRIDFORMAT_BEGIN
 90
        0
 91
        1
 62
     0
 92
       -2
340
0
 93
        0
 40
1.125
309
GRIDFORMAT_END
 95
        2
302
GRIDFORMAT
  1
GRIDFORMAT_BEGIN
 90
        0
 91
        1
 62
     0
 92
       -2
340
0
 93
        0
 40
1.125
309
GRIDFORMAT_END
 95
        4
302
GRIDFORMAT
  1
GRIDFORMAT_BEGIN
 90
        0
 91
        1
 62
     0
 92
       -2
340
0
 93
        0
 40
1.125
309
GRIDFORMAT_END
 95
        8
302
GRIDFORMAT
  1
GRIDFORMAT_BEGIN
 90
        0
 91
        1
 62
     0
 92
       -2
340
0
 93
        0
 40
1.125
309
GRIDFORMAT_END
 95
       16
302
GRIDFORMAT
  1
GRIDFORMAT_BEGIN
 90
        0
 91
        1
 62
     0
 92
       -2
340
0
 93
        0
 40
1.125
309
GRIDFORMAT_END
 95
       32
302
GRIDFORMAT
  1
GRIDFORMAT_BEGIN
 90
        0
 91
        1
 62
     0
 92
       -2
340
0
 93
        0
 40
1.125
309
GRIDFORMAT_END
309
TABLEFORMAT_END
  1
CELLSTYLE_BEGIN
 90
        1
 91
        1
300
_TITLE
309
CELLSTYLE_END
300
CELLSTYLE
  1
TABLEFORMAT_BEGIN
 90
        5
170
     1
 91
        0
 92
        0
 62
   257
 93
        1
300
CONTENTFORMAT
  1
CONTENTFORMAT_BEGIN
 90
        0
 91
        0
 92
      512
 93
        0
300

 40
0.0
140
1.0
 94
        5
 62
     0
340
11
144
4.5
309
CONTENTFORMAT_END
171
     1
301
MARGIN
  1
CELLMARGIN_BEGIN
 40
1.5
 40
1.5
 40
1.5
 40
1.5
 40
4.5
 40
4.5
309
CELLMARGIN_END
 94
        6
 95
        1
302
GRIDFORMAT
  1
GRIDFORMAT_BEGIN
 90
        0
 91
        1
 62
     0
 92
       -2
340
0
 93
        0
 40
1.125
309
GRIDFORMAT_END
 95
        2
302
GRIDFORMAT
  1
GRIDFORMAT_BEGIN
 90
        0
 91
        1
 62
     0
 92
       -2
340
0
 93
        0
 40
1.125
309
GRIDFORMAT_END
 95
        4
302
GRIDFORMAT
  1
GRIDFORMAT_BEGIN
 90
        0
 91
        1
 62
     0
 92
       -2
340
0
 93
        0
 40
1.125
309
GRIDFORMAT_END
 95
        8
302
GRIDFORMAT
  1
GRIDFORMAT_BEGIN
 90
        0
 91
        1
 62
     0
 92
       -2
340
0
 93
        0
 40
1.125
309
GRIDFORMAT_END
 95
       16
302
GRIDFORMAT
  1
GRIDFORMAT_BEGIN
 90
        0
 91
        1
 62
     0
 92
       -2
340
0
 93
        0
 40
1.125
309
GRIDFORMAT_END
 95
       32
302
GRIDFORMAT
  1
GRIDFORMAT_BEGIN
 90
        0
 91
        1
 62
     0
 92
       -2
340
0
 93
        0
 40
1.125
309
GRIDFORMAT_END
309
TABLEFORMAT_END
  1
CELLSTYLE_BEGIN
 90
        2
 91
        1
300
_HEADER
309
CELLSTYLE_END
300
CELLSTYLE
  1
TABLEFORMAT_BEGIN
 90
        5
170
     1
 91
        0
 92
        0
 62
   257
 93
        1
300
CONTENTFORMAT
  1
CONTENTFORMAT_BEGIN
 90
        0
 91
        0
 92
      512
 93
        0
300

 40
0.0
140
1.0
 94
        2
 62
     0
340
11
144
4.5
309
CONTENTFORMAT_END
171
     1
301
MARGIN
  1
CELLMARGIN_BEGIN
 40
1.5
 40
1.5
 40
1.5
 40
1.5
 40
4.5
 40
4.5
309
CELLMARGIN_END
 94
        6
 95
        1
302
GRIDFORMAT
  1
GRIDFORMAT_BEGIN
 90
        0
 91
        1
 62
     0
 92
       -2
340
0
 93
        0
 40
1.125
309
GRIDFORMAT_END
 95
        2
302
GRIDFORMAT
  1
GRIDFORMAT_BEGIN
 90
        0
 91
        1
 62
     0
 92
       -2
340
0
 93
        0
 40
1.125
309
GRIDFORMAT_END
 95
        4
302
GRIDFORMAT
  1
GRIDFORMAT_BEGIN
 90
        0
 91
        1
 62
     0
 92
       -2
340
0
 93
        0
 40
1.125
309
GRIDFORMAT_END
 95
        8
302
GRIDFORMAT
  1
GRIDFORMAT_BEGIN
 90
        0
 91
        1
 62
     0
 92
       -2
340
0
 93
        0
 40
1.125
309
GRIDFORMAT_END
 95
       16
302
GRIDFORMAT
  1
GRIDFORMAT_BEGIN
 90
        0
 91
        1
 62
     0
 92
       -2
340
0
 93
        0
 40
1.125
309
GRIDFORMAT_END
 95
       32
302
GRIDFORMAT
  1
GRIDFORMAT_BEGIN
 90
        0
 91
        1
 62
     0
 92
       -2
340
0
 93
        0
 40
1.125
309
GRIDFORMAT_END
309
TABLEFORMAT_END
  1
CELLSTYLE_BEGIN
 90
        3
 91
        2
300
_DATA
309
CELLSTYLE_END
  0
XRECORD
  5
74B
102
{ACAD_REACTORS
330
401
102
}
330
401
100
AcDbXrecord
280
     1
102
ACAD_ROUNDTRIP_PRE2007_TABLESTYLE
 90
      512
 91
        0
  1

 92
      512
 93
        0
  2

 94
      512
 95
        0
  3

  0
XRECORD
  5
736
102
{ACAD_REACTORS
330
735
102
}
330
735
100
AcDbXrecord
280
     1
102
RTVSPropertyOp0
 70
     1
102
RTVSPropertyOp1
 70
     1
102
RTVSPropertyOp2
 70
     1
102
RTVSPropertyOp3
 70
     1
102
RTVSPropertyOp4
 70
     1
102
RTVSPropertyOp5
 70
     1
102
RTVSPropertyOp6
 70
     1
102
RTVSPropertyOp7
 70
     1
102
RTVSPropertyOp8
 70
     1
102
RTVSPropertyOp9
 70
     1
102
RTVSPropertyOp10
 70
     1
102
RTVSPropertyOp11
 70
     1
102
RTVSPropertyOp12
 70
     1
102
RTVSPropertyOp13
 70
     1
102
RTVSPropertyOp14
 70
     1
102
RTVSPropertyOp15
 70
     1
102
RTVSPropertyOp16
 70
     1
102
RTVSPropertyOp17
 70
     1
102
RTVSPropertyOp18
 70
     1
102
RTVSPropertyOp19
 70
     1
102
RTVSPropertyOp20
 70
     1
102
RTVSPropertyOp21
 70
     1
102
RTVSPropertyOp22
 70
     1
102
RTVSPropertyOp23
 70
     1
102
RTVSPropertyOp24
 70
     1
102
RTVSPropertyOp25
 70
     1
102
RTVSPropertyOp26
 70
     1
102
RTVSPropertyOp27
 70
     1
102
RTVSPropertyOp28
 70
     1
102
RTVSPropertyOp29
 70
     1
102
RTVSPropertyOp30
 70
     1
102
RTVSPropertyOp31
 70
     1
102
RTVSPropertyOp32
 70
     1
  0
XRECORD
  5
73A
102
{ACAD_REACTORS
330
739
102
}
330
739
100
AcDbXrecord
280
     1
102
RTVSPropertyOp0
 70
     1
102
RTVSPropertyOp1
 70
     1
102
RTVSPropertyOp2
 70
     1
102
RTVSPropertyOp3
 70
     1
102
RTVSPropertyOp4
 70
     1
102
RTVSPropertyOp5
 70
     1
102
RTVSPropertyOp6
 70
     1
102
RTVSPropertyOp7
 70
     1
102
RTVSPropertyOp8
 70
     1
102
RTVSPropertyOp9
 70
     1
102
RTVSPropertyOp10
 70
     1
102
RTVSPropertyOp11
 70
     1
102
RTVSPropertyOp12
 70
     1
102
RTVSPropertyOp13
 70
     1
102
RTVSPropertyOp14
 70
     1
102
RTVSPropertyOp15
 70
     1
102
RTVSPropertyOp16
 70
     1
102
RTVSPropertyOp17
 70
     1
102
RTVSPropertyOp18
 70
     1
102
RTVSPropertyOp19
 70
     1
102
RTVSPropertyOp20
 70
     1
102
RTVSPropertyOp21
 70
     1
102
RTVSPropertyOp22
 70
     1
102
RTVSPropertyOp23
 70
     1
102
RTVSPropertyOp24
 70
     1
102
RTVSPropertyOp25
 70
     1
102
RTVSPropertyOp26
 70
     1
102
RTVSPropertyOp27
 70
     1
102
RTVSPropertyOp28
 70
     1
102
RTVSPropertyOp29
 70
     1
102
RTVSPropertyOp30
 70
     1
102
RTVSPropertyOp31
 70
     1
102
RTVSPropertyOp32
 70
     1
  0
XRECORD
  5
738
102
{ACAD_REACTORS
330
737
102
}
330
737
100
AcDbXrecord
280
     1
102
RTVSPropertyOp0
 70
     1
102
RTVSPropertyOp1
 70
     1
102
RTVSPropertyOp2
 70
     1
102
RTVSPropertyOp3
 70
     1
102
RTVSPropertyOp4
 70
     1
102
RTVSPropertyOp5
 70
     1
102
RTVSPropertyOp6
 70
     1
102
RTVSPropertyOp7
 70
     1
102
RTVSPropertyOp8
 70
     1
102
RTVSPropertyOp9
 70
     1
102
RTVSPropertyOp10
 70
     1
102
RTVSPropertyOp11
 70
     1
102
RTVSPropertyOp12
 70
     1
102
RTVSPropertyOp13
 70
     1
102
RTVSPropertyOp14
 70
     1
102
RTVSPropertyOp15
 70
     1
102
RTVSPropertyOp16
 70
     1
102
RTVSPropertyOp17
 70
     1
102
RTVSPropertyOp18
 70
     1
102
RTVSPropertyOp19
 70
     1
102
RTVSPropertyOp20
 70
     1
102
RTVSPropertyOp21
 70
     1
102
RTVSPropertyOp22
 70
     1
102
RTVSPropertyOp23
 70
     1
102
RTVSPropertyOp24
 70
     1
102
RTVSPropertyOp25
 70
     1
102
RTVSPropertyOp26
 70
     1
102
RTVSPropertyOp27
 70
     1
102
RTVSPropertyOp28
 70
     1
102
RTVSPropertyOp29
 70
     1
102
RTVSPropertyOp30
 70
     1
102
RTVSPropertyOp31
 70
     1
102
RTVSPropertyOp32
 70
     1
  0
XRECORD
  5
734
102
{ACAD_REACTORS
330
733
102
}
330
733
100
AcDbXrecord
280
     1
102
RTVSPropertyOp0
 70
     1
102
RTVSPropertyOp1
 70
     1
102
RTVSPropertyOp2
 70
     1
102
RTVSPropertyOp3
 70
     1
102
RTVSPropertyOp4
 70
     1
102
RTVSPropertyOp5
 70
     1
102
RTVSPropertyOp6
 70
     1
102
RTVSPropertyOp7
 70
     1
102
RTVSPropertyOp8
 70
     1
102
RTVSPropertyOp9
 70
     1
102
RTVSPropertyOp10
 70
     1
102
RTVSPropertyOp11
 70
     1
102
RTVSPropertyOp12
 70
     1
102
RTVSPropertyOp13
 70
     1
102
RTVSPropertyOp14
 70
     1
102
RTVSPropertyOp15
 70
     1
102
RTVSPropertyOp16
 70
     1
102
RTVSPropertyOp17
 70
     1
102
RTVSPropertyOp18
 70
     1
102
RTVSPropertyOp19
 70
     1
102
RTVSPropertyOp20
 70
     1
102
RTVSPropertyOp21
 70
     1
102
RTVSPropertyOp22
 70
     1
102
RTVSPropertyOp23
 70
     1
102
RTVSPropertyOp24
 70
     1
102
RTVSPropertyOp25
 70
     1
102
RTVSPropertyOp26
 70
     1
102
RTVSPropertyOp27
 70
     1
102
RTVSPropertyOp28
 70
     1
102
RTVSPropertyOp29
 70
     1
102
RTVSPropertyOp30
 70
     1
102
RTVSPropertyOp31
 70
     1
102
RTVSPropertyOp32
 70
     1
  0
XRECORD
  5
742
102
{ACAD_REACTORS
330
741
102
}
330
741
100
AcDbXrecord
280
     1
102
RTVSPropertyOp0
 70
     1
102
RTVSPropertyOp1
 70
     1
102
RTVSPropertyOp2
 70
     1
102
RTVSPropertyOp3
 70
     1
102
RTVSPropertyOp4
 70
     1
102
RTVSPropertyOp5
 70
     1
102
RTVSPropertyOp6
 70
     1
102
RTVSPropertyOp7
 70
     1
102
RTVSPropertyOp8
 70
     1
102
RTVSPropertyOp9
 70
     1
102
RTVSPropertyOp10
 70
     1
102
RTVSPropertyOp11
 70
     1
102
RTVSPropertyOp12
 70
     1
102
RTVSPropertyOp13
 70
     1
102
RTVSPropertyOp14
 70
     1
102
RTVSPropertyOp15
 70
     1
102
RTVSPropertyOp16
 70
     1
102
RTVSPropertyOp17
 70
     1
102
RTVSPropertyOp18
 70
     1
102
RTVSPropertyOp19
 70
     1
102
RTVSPropertyOp20
 70
     1
102
RTVSPropertyOp21
 70
     1
102
RTVSPropertyOp22
 70
     1
102
RTVSPropertyOp23
 70
     1
102
RTVSPropertyOp24
 70
     1
102
RTVSPropertyOp25
 70
     1
102
RTVSPropertyOp26
 70
     1
102
RTVSPropertyOp27
 70
     1
102
RTVSPropertyOp28
 70
     1
102
RTVSPropertyOp29
 70
     1
102
RTVSPropertyOp30
 70
     1
102
RTVSPropertyOp31
 70
     1
102
RTVSPropertyOp32
 70
     1
  0
XRECORD
  5
74A
102
{ACAD_REACTORS
330
749
102
}
330
749
100
AcDbXrecord
280
     1
102
RTVSPropertyOp0
 70
     1
102
RTVSPropertyOp1
 70
     1
102
RTVSPropertyOp2
 70
     1
102
RTVSPropertyOp3
 70
     1
102
RTVSPropertyOp4
 70
     1
102
RTVSPropertyOp5
 70
     1
102
RTVSPropertyOp6
 70
     1
102
RTVSPropertyOp7
 70
     1
102
RTVSPropertyOp8
 70
     1
102
RTVSPropertyOp9
 70
     1
102
RTVSPropertyOp10
 70
     1
102
RTVSPropertyOp11
 70
     1
102
RTVSPropertyOp12
 70
     1
102
RTVSPropertyOp13
 70
     1
102
RTVSPropertyOp14
 70
     1
102
RTVSPropertyOp15
 70
     1
102
RTVSPropertyOp16
 70
     1
102
RTVSPropertyOp17
 70
     1
102
RTVSPropertyOp18
 70
     1
102
RTVSPropertyOp19
 70
     1
102
RTVSPropertyOp20
 70
     1
102
RTVSPropertyOp21
 70
     1
102
RTVSPropertyOp22
 70
     1
102
RTVSPropertyOp23
 70
     1
102
RTVSPropertyOp24
 70
     1
102
RTVSPropertyOp25
 70
     1
102
RTVSPropertyOp26
 70
     1
102
RTVSPropertyOp27
 70
     1
102
RTVSPropertyOp28
 70
     1
102
RTVSPropertyOp29
 70
     1
102
RTVSPropertyOp30
 70
     1
102
RTVSPropertyOp31
 70
     1
102
RTVSPropertyOp32
 70
     1
  0
XRECORD
  5
73C
102
{ACAD_REACTORS
330
73B
102
}
330
73B
100
AcDbXrecord
280
     1
102
RTVSPropertyOp0
 70
     1
102
RTVSPropertyOp1
 70
     1
102
RTVSPropertyOp2
 70
     1
102
RTVSPropertyOp3
 70
     1
102
RTVSPropertyOp4
 70
     1
102
RTVSPropertyOp5
 70
     1
102
RTVSPropertyOp6
 70
     1
102
RTVSPropertyOp7
 70
     1
102
RTVSPropertyOp8
 70
     1
102
RTVSPropertyOp9
 70
     1
102
RTVSPropertyOp10
 70
     1
102
RTVSPropertyOp11
 70
     1
102
RTVSPropertyOp12
 70
     1
102
RTVSPropertyOp13
 70
     1
102
RTVSPropertyOp14
 70
     1
102
RTVSPropertyOp15
 70
     1
102
RTVSPropertyOp16
 70
     1
102
RTVSPropertyOp17
 70
     1
102
RTVSPropertyOp18
 70
     1
102
RTVSPropertyOp19
 70
     1
102
RTVSPropertyOp20
 70
     1
102
RTVSPropertyOp21
 70
     1
102
RTVSPropertyOp22
 70
     1
102
RTVSPropertyOp23
 70
     1
102
RTVSPropertyOp24
 70
     1
102
RTVSPropertyOp25
 70
     1
102
RTVSPropertyOp26
 70
     1
102
RTVSPropertyOp27
 70
     1
102
RTVSPropertyOp28
 70
     1
102
RTVSPropertyOp29
 70
     1
102
RTVSPropertyOp30
 70
     1
102
RTVSPropertyOp31
 70
     1
102
RTVSPropertyOp32
 70
     1
  0
XRECORD
  5
740
102
{ACAD_REACTORS
330
73F
102
}
330
73F
100
AcDbXrecord
280
     1
102
RTVSPropertyOp0
 70
     1
102
RTVSPropertyOp1
 70
     1
102
RTVSPropertyOp2
 70
     1
102
RTVSPropertyOp3
 70
     1
102
RTVSPropertyOp4
 70
     1
102
RTVSPropertyOp5
 70
     1
102
RTVSPropertyOp6
 70
     1
102
RTVSPropertyOp7
 70
     1
102
RTVSPropertyOp8
 70
     1
102
RTVSPropertyOp9
 70
     1
102
RTVSPropertyOp10
 70
     1
102
RTVSPropertyOp11
 70
     1
102
RTVSPropertyOp12
 70
     1
102
RTVSPropertyOp13
 70
     1
102
RTVSPropertyOp14
 70
     1
102
RTVSPropertyOp15
 70
     1
102
RTVSPropertyOp16
 70
     1
102
RTVSPropertyOp17
 70
     1
102
RTVSPropertyOp18
 70
     1
102
RTVSPropertyOp19
 70
     1
102
RTVSPropertyOp20
 70
     1
102
RTVSPropertyOp21
 70
     1
102
RTVSPropertyOp22
 70
     1
102
RTVSPropertyOp23
 70
     1
102
RTVSPropertyOp24
 70
     1
102
RTVSPropertyOp25
 70
     1
102
RTVSPropertyOp26
 70
     1
102
RTVSPropertyOp27
 70
     1
102
RTVSPropertyOp28
 70
     1
102
RTVSPropertyOp29
 70
     1
102
RTVSPropertyOp30
 70
     1
102
RTVSPropertyOp31
 70
     1
102
RTVSPropertyOp32
 70
     1
  0
XRECORD
  5
75F
102
{ACAD_REACTORS
330
75E
102
}
330
75E
100
AcDbXrecord
280
     1
102
RTVSPropertyOp0
 70
     0
102
RTVSPropertyOp1
 70
     0
102
RTVSPropertyOp2
 70
     0
102
RTVSPropertyOp3
 70
     0
102
RTVSPropertyOp4
 70
     0
102
RTVSPropertyOp5
 70
     0
102
RTVSPropertyOp6
 70
     0
102
RTVSPropertyOp7
 70
     0
102
RTVSPropertyOp8
 70
     0
102
RTVSPropertyOp9
 70
     0
102
RTVSPropertyOp10
 70
     0
102
RTVSPropertyOp11
 70
     0
102
RTVSPropertyOp12
 70
     0
102
RTVSPropertyOp13
 70
     0
102
RTVSPropertyOp14
 70
     2
102
RTVSPropertyOp15
 70
     0
102
RTVSPropertyOp16
 70
     0
102
RTVSPropertyOp17
 70
     0
102
RTVSPropertyOp18
 70
     0
102
RTVSPropertyOp19
 70
     0
102
RTVSPropertyOp20
 70
     0
102
RTVSPropertyOp21
 70
     0
102
RTVSPropertyOp22
 70
     0
102
RTVSPropertyOp23
 70
     0
102
RTVSPropertyOp24
 70
     0
102
RTVSPropertyOp25
 70
     0
102
RTVSPropertyOp26
 70
     0
102
RTVSPropertyOp27
 70
     0
102
RTVSPropertyOp28
 70
     0
102
RTVSPropertyOp29
 70
     0
102
RTVSPropertyOp30
 70
     0
102
RTVSPropertyOp31
 70
     0
102
RTVSPropertyOp32
 70
     0
  0
XRECORD
  5
748
102
{ACAD_REACTORS
330
747
102
}
330
747
100
AcDbXrecord
280
     1
102
RTVSPropertyOp0
 70
     1
102
RTVSPropertyOp1
 70
     1
102
RTVSPropertyOp2
 70
     1
102
RTVSPropertyOp3
 70
     1
102
RTVSPropertyOp4
 70
     1
102
RTVSPropertyOp5
 70
     1
102
RTVSPropertyOp6
 70
     1
102
RTVSPropertyOp7
 70
     1
102
RTVSPropertyOp8
 70
     1
102
RTVSPropertyOp9
 70
     1
102
RTVSPropertyOp10
 70
     1
102
RTVSPropertyOp11
 70
     1
102
RTVSPropertyOp12
 70
     1
102
RTVSPropertyOp13
 70
     1
102
RTVSPropertyOp14
 70
     1
102
RTVSPropertyOp15
 70
     1
102
RTVSPropertyOp16
 70
     1
102
RTVSPropertyOp17
 70
     1
102
RTVSPropertyOp18
 70
     1
102
RTVSPropertyOp19
 70
     1
102
RTVSPropertyOp20
 70
     1
102
RTVSPropertyOp21
 70
     1
102
RTVSPropertyOp22
 70
     1
102
RTVSPropertyOp23
 70
     1
102
RTVSPropertyOp24
 70
     1
102
RTVSPropertyOp25
 70
     1
102
RTVSPropertyOp26
 70
     1
102
RTVSPropertyOp27
 70
     1
102
RTVSPropertyOp28
 70
     1
102
RTVSPropertyOp29
 70
     1
102
RTVSPropertyOp30
 70
     1
102
RTVSPropertyOp31
 70
     1
102
RTVSPropertyOp32
 70
     1
  0
XRECORD
  5
72C
102
{ACAD_REACTORS
330
72B
102
}
330
72B
100
AcDbXrecord
280
     1
102
RTVSPropertyOp0
 70
     1
102
RTVSPropertyOp1
 70
     1
102
RTVSPropertyOp2
 70
     1
102
RTVSPropertyOp3
 70
     1
102
RTVSPropertyOp4
 70
     1
102
RTVSPropertyOp5
 70
     1
102
RTVSPropertyOp6
 70
     1
102
RTVSPropertyOp7
 70
     1
102
RTVSPropertyOp8
 70
     1
102
RTVSPropertyOp9
 70
     1
102
RTVSPropertyOp10
 70
     1
102
RTVSPropertyOp11
 70
     1
102
RTVSPropertyOp12
 70
     1
102
RTVSPropertyOp13
 70
     1
102
RTVSPropertyOp14
 70
     1
102
RTVSPropertyOp15
 70
     1
102
RTVSPropertyOp16
 70
     1
102
RTVSPropertyOp17
 70
     1
102
RTVSPropertyOp18
 70
     1
102
RTVSPropertyOp19
 70
     1
102
RTVSPropertyOp20
 70
     1
102
RTVSPropertyOp21
 70
     1
102
RTVSPropertyOp22
 70
     1
102
RTVSPropertyOp23
 70
     1
102
RTVSPropertyOp24
 70
     1
102
RTVSPropertyOp25
 70
     1
102
RTVSPropertyOp26
 70
     1
102
RTVSPropertyOp27
 70
     1
102
RTVSPropertyOp28
 70
     1
102
RTVSPropertyOp29
 70
     1
102
RTVSPropertyOp30
 70
     1
102
RTVSPropertyOp31
 70
     1
102
RTVSPropertyOp32
 70
     1
  0
XRECORD
  5
72E
102
{ACAD_REACTORS
330
72D
102
}
330
72D
100
AcDbXrecord
280
     1
102
RTVSPropertyOp0
 70
     1
102
RTVSPropertyOp1
 70
     1
102
RTVSPropertyOp2
 70
     1
102
RTVSPropertyOp3
 70
     1
102
RTVSPropertyOp4
 70
     1
102
RTVSPropertyOp5
 70
     1
102
RTVSPropertyOp6
 70
     1
102
RTVSPropertyOp7
 70
     1
102
RTVSPropertyOp8
 70
     1
102
RTVSPropertyOp9
 70
     1
102
RTVSPropertyOp10
 70
     1
102
RTVSPropertyOp11
 70
     1
102
RTVSPropertyOp12
 70
     1
102
RTVSPropertyOp13
 70
     1
102
RTVSPropertyOp14
 70
     1
102
RTVSPropertyOp15
 70
     1
102
RTVSPropertyOp16
 70
     1
102
RTVSPropertyOp17
 70
     1
102
RTVSPropertyOp18
 70
     1
102
RTVSPropertyOp19
 70
     1
102
RTVSPropertyOp20
 70
     1
102
RTVSPropertyOp21
 70
     1
102
RTVSPropertyOp22
 70
     1
102
RTVSPropertyOp23
 70
     1
102
RTVSPropertyOp24
 70
     1
102
RTVSPropertyOp25
 70
     1
102
RTVSPropertyOp26
 70
     1
102
RTVSPropertyOp27
 70
     1
102
RTVSPropertyOp28
 70
     1
102
RTVSPropertyOp29
 70
     1
102
RTVSPropertyOp30
 70
     1
102
RTVSPropertyOp31
 70
     1
102
RTVSPropertyOp32
 70
     1
  0
XRECORD
  5
730
102
{ACAD_REACTORS
330
72F
102
}
330
72F
100
AcDbXrecord
280
     1
102
RTVSPropertyOp0
 70
     1
102
RTVSPropertyOp1
 70
     1
102
RTVSPropertyOp2
 70
     1
102
RTVSPropertyOp3
 70
     1
102
RTVSPropertyOp4
 70
     1
102
RTVSPropertyOp5
 70
     1
102
RTVSPropertyOp6
 70
     1
102
RTVSPropertyOp7
 70
     1
102
RTVSPropertyOp8
 70
     1
102
RTVSPropertyOp9
 70
     1
102
RTVSPropertyOp10
 70
     1
102
RTVSPropertyOp11
 70
     1
102
RTVSPropertyOp12
 70
     1
102
RTVSPropertyOp13
 70
     1
102
RTVSPropertyOp14
 70
     1
102
RTVSPropertyOp15
 70
     1
102
RTVSPropertyOp16
 70
     1
102
RTVSPropertyOp17
 70
     1
102
RTVSPropertyOp18
 70
     1
102
RTVSPropertyOp19
 70
     1
102
RTVSPropertyOp20
 70
     1
102
RTVSPropertyOp21
 70
     1
102
RTVSPropertyOp22
 70
     1
102
RTVSPropertyOp23
 70
     1
102
RTVSPropertyOp24
 70
     1
102
RTVSPropertyOp25
 70
     1
102
RTVSPropertyOp26
 70
     1
102
RTVSPropertyOp27
 70
     1
102
RTVSPropertyOp28
 70
     1
102
RTVSPropertyOp29
 70
     1
102
RTVSPropertyOp30
 70
     1
102
RTVSPropertyOp31
 70
     1
102
RTVSPropertyOp32
 70
     1
  0
XRECORD
  5
732
102
{ACAD_REACTORS
330
731
102
}
330
731
100
AcDbXrecord
280
     1
102
RTVSPropertyOp0
 70
     1
102
RTVSPropertyOp1
 70
     1
102
RTVSPropertyOp2
 70
     1
102
RTVSPropertyOp3
 70
     1
102
RTVSPropertyOp4
 70
     1
102
RTVSPropertyOp5
 70
     1
102
RTVSPropertyOp6
 70
     1
102
RTVSPropertyOp7
 70
     1
102
RTVSPropertyOp8
 70
     1
102
RTVSPropertyOp9
 70
     1
102
RTVSPropertyOp10
 70
     1
102
RTVSPropertyOp11
 70
     1
102
RTVSPropertyOp12
 70
     1
102
RTVSPropertyOp13
 70
     1
102
RTVSPropertyOp14
 70
     1
102
RTVSPropertyOp15
 70
     1
102
RTVSPropertyOp16
 70
     1
102
RTVSPropertyOp17
 70
     1
102
RTVSPropertyOp18
 70
     1
102
RTVSPropertyOp19
 70
     1
102
RTVSPropertyOp20
 70
     1
102
RTVSPropertyOp21
 70
     1
102
RTVSPropertyOp22
 70
     1
102
RTVSPropertyOp23
 70
     1
102
RTVSPropertyOp24
 70
     1
102
RTVSPropertyOp25
 70
     1
102
RTVSPropertyOp26
 70
     1
102
RTVSPropertyOp27
 70
     1
102
RTVSPropertyOp28
 70
     1
102
RTVSPropertyOp29
 70
     1
102
RTVSPropertyOp30
 70
     1
102
RTVSPropertyOp31
 70
     1
102
RTVSPropertyOp32
 70
     1
  0
XRECORD
  5
74F
102
{ACAD_REACTORS
330
74E
102
}
330
74E
100
AcDbXrecord
280
     1
102
RTVSPropertyOp0
 70
     1
102
RTVSPropertyOp1
 70
     1
102
RTVSPropertyOp2
 70
     1
102
RTVSPropertyOp3
 70
     1
102
RTVSPropertyOp4
 70
     1
102
RTVSPropertyOp5
 70
     1
102
RTVSPropertyOp6
 70
     1
102
RTVSPropertyOp7
 70
     1
102
RTVSPropertyOp8
 70
     1
102
RTVSPropertyOp9
 70
     1
102
RTVSPropertyOp10
 70
     1
102
RTVSPropertyOp11
 70
     1
102
RTVSPropertyOp12
 70
     1
102
RTVSPropertyOp13
 70
     1
102
RTVSPropertyOp14
 70
     1
102
RTVSPropertyOp15
 70
     1
102
RTVSPropertyOp16
 70
     1
102
RTVSPropertyOp17
 70
     1
102
RTVSPropertyOp18
 70
     1
102
RTVSPropertyOp19
 70
     1
102
RTVSPropertyOp20
 70
     1
102
RTVSPropertyOp21
 70
     1
102
RTVSPropertyOp22
 70
     1
102
RTVSPropertyOp23
 70
     1
102
RTVSPropertyOp24
 70
     1
102
RTVSPropertyOp25
 70
     1
102
RTVSPropertyOp26
 70
     1
102
RTVSPropertyOp27
 70
     1
102
RTVSPropertyOp28
 70
     1
102
RTVSPropertyOp29
 70
     1
102
RTVSPropertyOp30
 70
     1
102
RTVSPropertyOp31
 70
     1
102
RTVSPropertyOp32
 70
     1
  0
XRECORD
  5
75B
102
{ACAD_REACTORS
330
75A
102
}
330
75A
100
AcDbXrecord
280
     1
102
RTVSPropertyOp0
 70
     0
102
RTVSPropertyOp1
 70
     0
102
RTVSPropertyOp2
 70
     0
102
RTVSPropertyOp3
 70
     0
102
RTVSPropertyOp4
 70
     0
102
RTVSPropertyOp5
 70
     0
102
RTVSPropertyOp6
 70
     0
102
RTVSPropertyOp7
 70
     0
102
RTVSPropertyOp8
 70
     0
102
RTVSPropertyOp9
 70
     0
102
RTVSPropertyOp10
 70
     0
102
RTVSPropertyOp11
 70
     0
102
RTVSPropertyOp12
 70
     0
102
RTVSPropertyOp13
 70
     0
102
RTVSPropertyOp14
 70
     2
102
RTVSPropertyOp15
 70
     0
102
RTVSPropertyOp16
 70
     0
102
RTVSPropertyOp17
 70
     0
102
RTVSPropertyOp18
 70
     0
102
RTVSPropertyOp19
 70
     0
102
RTVSPropertyOp20
 70
     0
102
RTVSPropertyOp21
 70
     0
102
RTVSPropertyOp22
 70
     0
102
RTVSPropertyOp23
 70
     0
102
RTVSPropertyOp24
 70
     0
102
RTVSPropertyOp25
 70
     0
102
RTVSPropertyOp26
 70
     0
102
RTVSPropertyOp27
 70
     0
102
RTVSPropertyOp28
 70
     0
102
RTVSPropertyOp29
 70
     0
102
RTVSPropertyOp30
 70
     0
102
RTVSPropertyOp31
 70
     0
102
RTVSPropertyOp32
 70
     0
  0
XRECORD
  5
746
102
{ACAD_REACTORS
330
745
102
}
330
745
100
AcDbXrecord
280
     1
102
RTVSPropertyOp0
 70
     1
102
RTVSPropertyOp1
 70
     1
102
RTVSPropertyOp2
 70
     1
102
RTVSPropertyOp3
 70
     1
102
RTVSPropertyOp4
 70
     1
102
RTVSPropertyOp5
 70
     1
102
RTVSPropertyOp6
 70
     1
102
RTVSPropertyOp7
 70
     1
102
RTVSPropertyOp8
 70
     1
102
RTVSPropertyOp9
 70
     1
102
RTVSPropertyOp10
 70
     1
102
RTVSPropertyOp11
 70
     1
102
RTVSPropertyOp12
 70
     1
102
RTVSPropertyOp13
 70
     1
102
RTVSPropertyOp14
 70
     1
102
RTVSPropertyOp15
 70
     1
102
RTVSPropertyOp16
 70
     1
102
RTVSPropertyOp17
 70
     1
102
RTVSPropertyOp18
 70
     1
102
RTVSPropertyOp19
 70
     1
102
RTVSPropertyOp20
 70
     1
102
RTVSPropertyOp21
 70
     1
102
RTVSPropertyOp22
 70
     1
102
RTVSPropertyOp23
 70
     1
102
RTVSPropertyOp24
 70
     1
102
RTVSPropertyOp25
 70
     1
102
RTVSPropertyOp26
 70
     1
102
RTVSPropertyOp27
 70
     1
102
RTVSPropertyOp28
 70
     1
102
RTVSPropertyOp29
 70
     1
102
RTVSPropertyOp30
 70
     1
102
RTVSPropertyOp31
 70
     1
102
RTVSPropertyOp32
 70
     1
  0
XRECORD
  5
75D
102
{ACAD_REACTORS
330
75C
102
}
330
75C
100
AcDbXrecord
280
     1
102
RTVSPropertyOp0
 70
     0
102
RTVSPropertyOp1
 70
     0
102
RTVSPropertyOp2
 70
     0
102
RTVSPropertyOp3
 70
     0
102
RTVSPropertyOp4
 70
     0
102
RTVSPropertyOp5
 70
     0
102
RTVSPropertyOp6
 70
     0
102
RTVSPropertyOp7
 70
     0
102
RTVSPropertyOp8
 70
     0
102
RTVSPropertyOp9
 70
     0
102
RTVSPropertyOp10
 70
     0
102
RTVSPropertyOp11
 70
     0
102
RTVSPropertyOp12
 70
     0
102
RTVSPropertyOp13
 70
     0
102
RTVSPropertyOp14
 70
     2
102
RTVSPropertyOp15
 70
     0
102
RTVSPropertyOp16
 70
     0
102
RTVSPropertyOp17
 70
     0
102
RTVSPropertyOp18
 70
     0
102
RTVSPropertyOp19
 70
     0
102
RTVSPropertyOp20
 70
     0
102
RTVSPropertyOp21
 70
     0
102
RTVSPropertyOp22
 70
     0
102
RTVSPropertyOp23
 70
     0
102
RTVSPropertyOp24
 70
     0
102
RTVSPropertyOp25
 70
     0
102
RTVSPropertyOp26
 70
     0
102
RTVSPropertyOp27
 70
     0
102
RTVSPropertyOp28
 70
     0
102
RTVSPropertyOp29
 70
     0
102
RTVSPropertyOp30
 70
     0
102
RTVSPropertyOp31
 70
     0
102
RTVSPropertyOp32
 70
     0
  0
XRECORD
  5
73E
102
{ACAD_REACTORS
330
73D
102
}
330
73D
100
AcDbXrecord
280
     1
102
RTVSPropertyOp0
 70
     1
102
RTVSPropertyOp1
 70
     1
102
RTVSPropertyOp2
 70
     1
102
RTVSPropertyOp3
 70
     1
102
RTVSPropertyOp4
 70
     1
102
RTVSPropertyOp5
 70
     1
102
RTVSPropertyOp6
 70
     1
102
RTVSPropertyOp7
 70
     1
102
RTVSPropertyOp8
 70
     1
102
RTVSPropertyOp9
 70
     1
102
RTVSPropertyOp10
 70
     1
102
RTVSPropertyOp11
 70
     1
102
RTVSPropertyOp12
 70
     1
102
RTVSPropertyOp13
 70
     1
102
RTVSPropertyOp14
 70
     1
102
RTVSPropertyOp15
 70
     1
102
RTVSPropertyOp16
 70
     1
102
RTVSPropertyOp17
 70
     1
102
RTVSPropertyOp18
 70
     1
102
RTVSPropertyOp19
 70
     1
102
RTVSPropertyOp20
 70
     1
102
RTVSPropertyOp21
 70
     1
102
RTVSPropertyOp22
 70
     1
102
RTVSPropertyOp23
 70
     1
102
RTVSPropertyOp24
 70
     1
102
RTVSPropertyOp25
 70
     1
102
RTVSPropertyOp26
 70
     1
102
RTVSPropertyOp27
 70
     1
102
RTVSPropertyOp28
 70
     1
102
RTVSPropertyOp29
 70
     1
102
RTVSPropertyOp30
 70
     1
102
RTVSPropertyOp31
 70
     1
102
RTVSPropertyOp32
 70
     1
  0
XRECORD
  5
759
102
{ACAD_REACTORS
330
758
102
}
330
758
100
AcDbXrecord
280
     1
102
RTVSPropertyOp0
 70
     1
102
RTVSPropertyOp1
 70
     1
102
RTVSPropertyOp2
 70
     1
102
RTVSPropertyOp3
 70
     1
102
RTVSPropertyOp4
 70
     1
102
RTVSPropertyOp5
 70
     1
102
RTVSPropertyOp6
 70
     1
102
RTVSPropertyOp7
 70
     1
102
RTVSPropertyOp8
 70
     1
102
RTVSPropertyOp9
 70
     1
102
RTVSPropertyOp10
 70
     1
102
RTVSPropertyOp11
 70
     1
102
RTVSPropertyOp12
 70
     1
102
RTVSPropertyOp13
 70
     1
102
RTVSPropertyOp14
 70
     1
102
RTVSPropertyOp15
 70
     1
102
RTVSPropertyOp16
 70
     1
102
RTVSPropertyOp17
 70
     1
102
RTVSPropertyOp18
 70
     1
102
RTVSPropertyOp19
 70
     1
102
RTVSPropertyOp20
 70
     1
102
RTVSPropertyOp21
 70
     1
102
RTVSPropertyOp22
 70
     1
102
RTVSPropertyOp23
 70
     1
102
RTVSPropertyOp24
 70
     1
102
RTVSPropertyOp25
 70
     1
102
RTVSPropertyOp26
 70
     1
102
RTVSPropertyOp27
 70
     1
102
RTVSPropertyOp28
 70
     1
102
RTVSPropertyOp29
 70
     1
102
RTVSPropertyOp30
 70
     1
102
RTVSPropertyOp31
 70
     1
102
RTVSPropertyOp32
 70
     1
  0
XRECORD
  5
757
102
{ACAD_REACTORS
330
756
102
}
330
756
100
AcDbXrecord
280
     1
102
RTVSPropertyOp0
 70
     1
102
RTVSPropertyOp1
 70
     1
102
RTVSPropertyOp2
 70
     1
102
RTVSPropertyOp3
 70
     1
102
RTVSPropertyOp4
 70
     1
102
RTVSPropertyOp5
 70
     1
102
RTVSPropertyOp6
 70
     1
102
RTVSPropertyOp7
 70
     1
102
RTVSPropertyOp8
 70
     1
102
RTVSPropertyOp9
 70
     1
102
RTVSPropertyOp10
 70
     1
102
RTVSPropertyOp11
 70
     1
102
RTVSPropertyOp12
 70
     1
102
RTVSPropertyOp13
 70
     1
102
RTVSPropertyOp14
 70
     1
102
RTVSPropertyOp15
 70
     1
102
RTVSPropertyOp16
 70
     1
102
RTVSPropertyOp17
 70
     1
102
RTVSPropertyOp18
 70
     1
102
RTVSPropertyOp19
 70
     1
102
RTVSPropertyOp20
 70
     1
102
RTVSPropertyOp21
 70
     1
102
RTVSPropertyOp22
 70
     1
102
RTVSPropertyOp23
 70
     1
102
RTVSPropertyOp24
 70
     1
102
RTVSPropertyOp25
 70
     1
102
RTVSPropertyOp26
 70
     1
102
RTVSPropertyOp27
 70
     1
102
RTVSPropertyOp28
 70
     1
102
RTVSPropertyOp29
 70
     1
102
RTVSPropertyOp30
 70
     1
102
RTVSPropertyOp31
 70
     1
102
RTVSPropertyOp32
 70
     1
  0
XRECORD
  5
751
102
{ACAD_REACTORS
330
750
102
}
330
750
100
AcDbXrecord
280
     1
102
RTVSPropertyOp0
 70
     1
102
RTVSPropertyOp1
 70
     1
102
RTVSPropertyOp2
 70
     1
102
RTVSPropertyOp3
 70
     1
102
RTVSPropertyOp4
 70
     1
102
RTVSPropertyOp5
 70
     1
102
RTVSPropertyOp6
 70
     1
102
RTVSPropertyOp7
 70
     1
102
RTVSPropertyOp8
 70
     1
102
RTVSPropertyOp9
 70
     1
102
RTVSPropertyOp10
 70
     1
102
RTVSPropertyOp11
 70
     1
102
RTVSPropertyOp12
 70
     1
102
RTVSPropertyOp13
 70
     1
102
RTVSPropertyOp14
 70
     1
102
RTVSPropertyOp15
 70
     1
102
RTVSPropertyOp16
 70
     1
102
RTVSPropertyOp17
 70
     1
102
RTVSPropertyOp18
 70
     1
102
RTVSPropertyOp19
 70
     1
102
RTVSPropertyOp20
 70
     1
102
RTVSPropertyOp21
 70
     1
102
RTVSPropertyOp22
 70
     1
102
RTVSPropertyOp23
 70
     1
102
RTVSPropertyOp24
 70
     1
102
RTVSPropertyOp25
 70
     1
102
RTVSPropertyOp26
 70
     1
102
RTVSPropertyOp27
 70
     1
102
RTVSPropertyOp28
 70
     1
102
RTVSPropertyOp29
 70
     1
102
RTVSPropertyOp30
 70
     1
102
RTVSPropertyOp31
 70
     1
102
RTVSPropertyOp32
 70
     1
  0
XRECORD
  5
753
102
{ACAD_REACTORS
330
752
102
}
330
752
100
AcDbXrecord
280
     1
102
RTVSPropertyOp0
 70
     1
102
RTVSPropertyOp1
 70
     1
102
RTVSPropertyOp2
 70
     1
102
RTVSPropertyOp3
 70
     1
102
RTVSPropertyOp4
 70
     1
102
RTVSPropertyOp5
 70
     1
102
RTVSPropertyOp6
 70
     1
102
RTVSPropertyOp7
 70
     1
102
RTVSPropertyOp8
 70
     1
102
RTVSPropertyOp9
 70
     1
102
RTVSPropertyOp10
 70
     1
102
RTVSPropertyOp11
 70
     1
102
RTVSPropertyOp12
 70
     1
102
RTVSPropertyOp13
 70
     1
102
RTVSPropertyOp14
 70
     1
102
RTVSPropertyOp15
 70
     1
102
RTVSPropertyOp16
 70
     1
102
RTVSPropertyOp17
 70
     1
102
RTVSPropertyOp18
 70
     1
102
RTVSPropertyOp19
 70
     1
102
RTVSPropertyOp20
 70
     1
102
RTVSPropertyOp21
 70
     1
102
RTVSPropertyOp22
 70
     1
102
RTVSPropertyOp23
 70
     1
102
RTVSPropertyOp24
 70
     1
102
RTVSPropertyOp25
 70
     1
102
RTVSPropertyOp26
 70
     1
102
RTVSPropertyOp27
 70
     1
102
RTVSPropertyOp28
 70
     1
102
RTVSPropertyOp29
 70
     1
102
RTVSPropertyOp30
 70
     1
102
RTVSPropertyOp31
 70
     1
102
RTVSPropertyOp32
 70
     1
  0
XRECORD
  5
744
102
{ACAD_REACTORS
330
743
102
}
330
743
100
AcDbXrecord
280
     1
102
RTVSPropertyOp0
 70
     1
102
RTVSPropertyOp1
 70
     1
102
RTVSPropertyOp2
 70
     1
102
RTVSPropertyOp3
 70
     1
102
RTVSPropertyOp4
 70
     1
102
RTVSPropertyOp5
 70
     1
102
RTVSPropertyOp6
 70
     1
102
RTVSPropertyOp7
 70
     1
102
RTVSPropertyOp8
 70
     1
102
RTVSPropertyOp9
 70
     1
102
RTVSPropertyOp10
 70
     1
102
RTVSPropertyOp11
 70
     1
102
RTVSPropertyOp12
 70
     1
102
RTVSPropertyOp13
 70
     1
102
RTVSPropertyOp14
 70
     1
102
RTVSPropertyOp15
 70
     1
102
RTVSPropertyOp16
 70
     1
102
RTVSPropertyOp17
 70
     1
102
RTVSPropertyOp18
 70
     1
102
RTVSPropertyOp19
 70
     1
102
RTVSPropertyOp20
 70
     1
102
RTVSPropertyOp21
 70
     1
102
RTVSPropertyOp22
 70
     1
102
RTVSPropertyOp23
 70
     1
102
RTVSPropertyOp24
 70
     1
102
RTVSPropertyOp25
 70
     1
102
RTVSPropertyOp26
 70
     1
102
RTVSPropertyOp27
 70
     1
102
RTVSPropertyOp28
 70
     1
102
RTVSPropertyOp29
 70
     1
102
RTVSPropertyOp30
 70
     1
102
RTVSPropertyOp31
 70
     1
102
RTVSPropertyOp32
 70
     1
  0
XRECORD
  5
74D
102
{ACAD_REACTORS
330
74C
102
}
330
74C
100
AcDbXrecord
280
     1
102
RTVSPropertyOp0
 70
     1
102
RTVSPropertyOp1
 70
     1
102
RTVSPropertyOp2
 70
     1
102
RTVSPropertyOp3
 70
     1
102
RTVSPropertyOp4
 70
     1
102
RTVSPropertyOp5
 70
     1
102
RTVSPropertyOp6
 70
     1
102
RTVSPropertyOp7
 70
     1
102
RTVSPropertyOp8
 70
     1
102
RTVSPropertyOp9
 70
     1
102
RTVSPropertyOp10
 70
     1
102
RTVSPropertyOp11
 70
     1
102
RTVSPropertyOp12
 70
     1
102
RTVSPropertyOp13
 70
     1
102
RTVSPropertyOp14
 70
     1
102
RTVSPropertyOp15
 70
     1
102
RTVSPropertyOp16
 70
     1
102
RTVSPropertyOp17
 70
     1
102
RTVSPropertyOp18
 70
     1
102
RTVSPropertyOp19
 70
     1
102
RTVSPropertyOp20
 70
     1
102
RTVSPropertyOp21
 70
     1
102
RTVSPropertyOp22
 70
     1
102
RTVSPropertyOp23
 70
     1
102
RTVSPropertyOp24
 70
     1
102
RTVSPropertyOp25
 70
     1
102
RTVSPropertyOp26
 70
     1
102
RTVSPropertyOp27
 70
     1
102
RTVSPropertyOp28
 70
     1
102
RTVSPropertyOp29
 70
     1
102
RTVSPropertyOp30
 70
     1
102
RTVSPropertyOp31
 70
     1
102
RTVSPropertyOp32
 70
     1
  0
XRECORD
  5
755
102
{ACAD_REACTORS
330
754
102
}
330
754
100
AcDbXrecord
280
     1
102
RTVSPropertyOp0
 70
     1
102
RTVSPropertyOp1
 70
     1
102
RTVSPropertyOp2
 70
     1
102
RTVSPropertyOp3
 70
     1
102
RTVSPropertyOp4
 70
     1
102
RTVSPropertyOp5
 70
     1
102
RTVSPropertyOp6
 70
     1
102
RTVSPropertyOp7
 70
     1
102
RTVSPropertyOp8
 70
     1
102
RTVSPropertyOp9
 70
     1
102
RTVSPropertyOp10
 70
     1
102
RTVSPropertyOp11
 70
     1
102
RTVSPropertyOp12
 70
     1
102
RTVSPropertyOp13
 70
     1
102
RTVSPropertyOp14
 70
     1
102
RTVSPropertyOp15
 70
     1
102
RTVSPropertyOp16
 70
     1
102
RTVSPropertyOp17
 70
     1
102
RTVSPropertyOp18
 70
     1
102
RTVSPropertyOp19
 70
     1
102
RTVSPropertyOp20
 70
     1
102
RTVSPropertyOp21
 70
     1
102
RTVSPropertyOp22
 70
     1
102
RTVSPropertyOp23
 70
     1
102
RTVSPropertyOp24
 70
     1
102
RTVSPropertyOp25
 70
     1
102
RTVSPropertyOp26
 70
     1
102
RTVSPropertyOp27
 70
     1
102
RTVSPropertyOp28
 70
     1
102
RTVSPropertyOp29
 70
     1
102
RTVSPropertyOp30
 70
     1
102
RTVSPropertyOp31
 70
     1
102
RTVSPropertyOp32
 70
     1
  0
ENDSEC
  0
EOF
