  0
SECTION
  2
HEADER
  9
$ACADVER
  1
AC1015
  9
$ACADMAINTVER
 70
    20
  9
$DWGCODEPAGE
  3
ANSI_1252
  9
$INSBASE
 10
0.0
 20
0.0
 30
0.0
  9
$EXTMIN
 10
-76.20833333330001
 20
270.0020421745
 30
0.0
  9
$EXTMAX
 10
885.6332786256999
 20
336.2625411589001
 30
0.0
  9
$LIMMIN
 10
0.0
 20
0.0
  9
$LIMMAX
 10
841.0
 20
594.0
  9
$ORTHOMODE
 70
     0
  9
$REGENMODE
 70
     1
  9
$FILLMODE
 70
     1
  9
$QTEXTMODE
 70
     0
  9
$MIRRTEXT
 70
     0
  9
$LTSCALE
 40
46.255
  9
$ATTMODE
 70
     1
  9
$TEXTSIZE
 40
0.2
  9
$TRACEWID
 40
0.05
  9
$TEXTSTYLE
  7
STANDARD
  9
$CLAYER
  8
0
  9
$CELTYPE
  6
BYLAYER
  9
$CECOLOR
 62
   256
  9
$CELTSCALE
 40
1.0
  9
$DISPSILH
 70
     0
  9
$DIMSCALE
 40
1.0
  9
$DIMASZ
 40
3.5
  9
$DIMEXO
 40
5.256249999999999
  9
$DIMDLI
 40
31.958
  9
$DIMRND
 40
0.0
  9
$DIMDLE
 40
0.0
  9
$DIMEXE
 40
15.138
  9
$DIMTP
 40
0.01
  9
$DIMTM
 40
0.01
  9
$DIMTXT
 40
3.5
  9
$DIMCEN
 40
7.568999999999999
  9
$DIMTSZ
 40
0.0
  9
$DIMTOL
 70
     1
  9
$DIMLIM
 70
     0
  9
$DIMTIH
 70
     1
  9
$DIMTOH
 70
     1
  9
$DIMSE1
 70
     0
  9
$DIMSE2
 70
     0
  9
$DIMTAD
 70
     0
  9
$DIMZIN
 70
     0
  9
$DIMBLK
  1

  9
$DIMASO
 70
     1
  9
$DIMSHO
 70
     1
  9
$DIMPOST
  1

  9
$DIMAPOST
  1

  9
$DIMALT
 70
     0
  9
$DIMALTD
 70
     2
  9
$DIMALTF
 40
25.4
  9
$DIMLFAC
 40
1.0
  9
$DIMTOFL
 70
     0
  9
$DIMTVP
 40
0.0
  9
$DIMTIX
 70
     0
  9
$DIMSOXD
 70
     0
  9
$DIMSAH
 70
     0
  9
$DIMBLK1
  1

  9
$DIMBLK2
  1

  9
$DIMSTYLE
  2
STANDARD
  9
$DIMCLRD
 70
     0
  9
$DIMCLRE
 70
     0
  9
$DIMCLRT
 70
     0
  9
$DIMTFAC
 40
1.0
  9
$DIMGAP
 40
0.09
  9
$DIMJUST
 70
     0
  9
$DIMSD1
 70
     0
  9
$DIMSD2
 70
     0
  9
$DIMTOLJ
 70
     1
  9
$DIMTZIN
 70
     0
  9
$DIMALTZ
 70
     0
  9
$DIMALTTZ
 70
     0
  9
$DIMUPT
 70
     0
  9
$DIMDEC
 70
     4
  9
$DIMTDEC
 70
     4
  9
$DIMALTU
 70
     2
  9
$DIMALTTD
 70
     2
  9
$DIMTXSTY
  7
STANDARD
  9
$DIMAUNIT
 70
     0
  9
$DIMADEC
 70
     0
  9
$DIMALTRND
 40
0.0
  9
$DIMAZIN
 70
     0
  9
$DIMDSEP
 70
    46
  9
$DIMATFIT
 70
     3
  9
$DIMFRAC
 70
     0
  9
$DIMLDRBLK
  1

  9
$DIMLUNIT
 70
     2
  9
$DIMLWD
 70
    -2
  9
$DIMLWE
 70
    -2
  9
$DIMTMOVE
 70
     0
  9
$LUNITS
 70
     2
  9
$LUPREC
 70
     4
  9
$SKETCHINC
 40
0.1
  9
$FILLETRAD
 40
0.0
  9
$AUNITS
 70
     0
  9
$AUPREC
 70
     0
  9
$MENU
  1
.
  9
$ELEVATION
 40
0.0
  9
$PELEVATION
 40
0.0
  9
$THICKNESS
 40
0.0
  9
$LIMCHECK
 70
     0
  9
$CHAMFERA
 40
0.0
  9
$CHAMFERB
 40
0.0
  9
$CHAMFERC
 40
0.0
  9
$CHAMFERD
 40
0.0
  9
$SKPOLY
 70
     0
  9
$TDCREATE
 40
2455553.393905393
  9
$TDUCREATE
 40
2455553.352238727
  9
$TDUPDATE
 40
2455566.516900406
  9
$TDUUPDATE
 40
2455566.475233738
  9
$TDINDWG
 40
0.0009146759
  9
$TDUSRTIMER
 40
0.0009146759
  9
$USRTIMER
 70
     1
  9
$ANGBASE
 50
0.0
  9
$ANGDIR
 70
     0
  9
$PDMODE
 70
     3
  9
$PDSIZE
 40
2.5
  9
$PLINEWID
 40
0.0
  9
$SPLFRAME
 70
     0
  9
$SPLINETYPE
 70
     6
  9
$SPLINESEGS
 70
     8
  9
$HANDSEED
  5
55C
  9
$SURFTAB1
 70
     6
  9
$SURFTAB2
 70
     6
  9
$SURFTYPE
 70
     6
  9
$SURFU
 70
     6
  9
$SURFV
 70
     6
  9
$UCSBASE
  2

  9
$UCSNAME
  2

  9
$UCSORG
 10
0.0
 20
0.0
 30
0.0
  9
$UCSXDIR
 10
1.0
 20
0.0
 30
0.0
  9
$UCSYDIR
 10
0.0
 20
1.0
 30
0.0
  9
$UCSORTHOREF
  2

  9
$UCSORTHOVIEW
 70
     0
  9
$UCSORGTOP
 10
0.0
 20
0.0
 30
0.0
  9
$UCSORGBOTTOM
 10
0.0
 20
0.0
 30
0.0
  9
$UCSORGLEFT
 10
0.0
 20
0.0
 30
0.0
  9
$UCSORGRIGHT
 10
0.0
 20
0.0
 30
0.0
  9
$UCSORGFRONT
 10
0.0
 20
0.0
 30
0.0
  9
$UCSORGBACK
 10
0.0
 20
0.0
 30
0.0
  9
$PUCSBASE
  2

  9
$PUCSNAME
  2

  9
$PUCSORG
 10
0.0
 20
0.0
 30
0.0
  9
$PUCSXDIR
 10
1.0
 20
0.0
 30
0.0
  9
$PUCSYDIR
 10
0.0
 20
1.0
 30
0.0
  9
$PUCSORTHOREF
  2

  9
$PUCSORTHOVIEW
 70
     0
  9
$PUCSORGTOP
 10
0.0
 20
0.0
 30
0.0
  9
$PUCSORGBOTTOM
 10
0.0
 20
0.0
 30
0.0
  9
$PUCSORGLEFT
 10
0.0
 20
0.0
 30
0.0
  9
$PUCSORGRIGHT
 10
0.0
 20
0.0
 30
0.0
  9
$PUCSORGFRONT
 10
0.0
 20
0.0
 30
0.0
  9
$PUCSORGBACK
 10
0.0
 20
0.0
 30
0.0
  9
$USERI1
 70
     0
  9
$USERI2
 70
     0
  9
$USERI3
 70
     0
  9
$USERI4
 70
     0
  9
$USERI5
 70
     0
  9
$USERR1
 40
3.0
  9
$USERR2
 40
-3.0
  9
$USERR3
 40
50.0
  9
$USERR4
 40
0.0
  9
$USERR5
 40
0.0
  9
$WORLDVIEW
 70
     1
  9
$SHADEDGE
 70
     3
  9
$SHADEDIF
 70
    70
  9
$TILEMODE
 70
     1
  9
$MAXACTVP
 70
    64
  9
$PINSBASE
 10
0.0
 20
0.0
 30
0.0
  9
$PLIMCHECK
 70
     0
  9
$PEXTMIN
 10
1.000000000000000E+20
 20
1.000000000000000E+20
 30
1.000000000000000E+20
  9
$PEXTMAX
 10
-1.000000000000000E+20
 20
-1.000000000000000E+20
 30
-1.000000000000000E+20
  9
$PLIMMIN
 10
0.0
 20
0.0
  9
$PLIMMAX
 10
12.0
 20
9.0
  9
$UNITMODE
 70
     0
  9
$VISRETAIN
 70
     1
  9
$PLINEGEN
 70
     0
  9
$PSLTSCALE
 70
     1
  9
$TREEDEPTH
 70
  3020
  9
$CMLSTYLE
  2
Standard
  9
$CMLJUST
 70
     0
  9
$CMLSCALE
 40
1.0
  9
$PROXYGRAPHICS
 70
     1
  9
$MEASUREMENT
 70
     1
  9
$CELWEIGHT
370
    -1
  9
$ENDCAPS
280
     0
  9
$JOINSTYLE
280
     0
  9
$LWDISPLAY
290
     0
  9
$INSUNITS
 70
     4
  9
$HYPERLINKBASE
  1

  9
$STYLESHEET
  1

  9
$XEDIT
290
     1
  9
$CEPSNTYPE
380
     0
  9
$PSTYLEMODE
290
     1
  9
$FINGERPRINTGUID
  2
{C5603629-14BA-4FF9-821D-CBD1E4A0D7EA}
  9
$VERSIONGUID
  2
{4D51DC96-01D7-4DF4-AE47-FC1930103D47}
  9
$EXTNAMES
290
     1
  9
$PSVPSCALE
 40
0.0
  9
$OLESTARTUP
290
     0
  0
ENDSEC
  0
SECTION
  2
CLASSES
  0
CLASS
  1
ACDBDICTIONARYWDFLT
  2
AcDbDictionaryWithDefault
  3
ObjectDBX Classes
 90
        0
280
     0
281
     0
  0
CLASS
  1
ACDBPLACEHOLDER
  2
AcDbPlaceHolder
  3
ObjectDBX Classes
 90
        0
280
     0
281
     0
  0
CLASS
  1
LAYOUT
  2
AcDbLayout
  3
ObjectDBX Classes
 90
        0
280
     0
281
     0
  0
CLASS
  1
MATERIAL
  2
AcDbMaterial
  3
ObjectDBX Classes
 90
     1153
280
     0
281
     0
  0
CLASS
  1
VISUALSTYLE
  2
AcDbVisualStyle
  3
ObjectDBX Classes
 90
     4095
280
     0
281
     0
  0
CLASS
  1
TABLESTYLE
  2
AcDbTableStyle
  3
ObjectDBX Classes
 90
     4095
280
     0
281
     0
  0
CLASS
  1
SCALE
  2
AcDbScale
  3
ObjectDBX Classes
 90
     1153
280
     0
281
     0
  0
CLASS
  1
MLEADERSTYLE
  2
AcDbMLeaderStyle
  3
ACDB_MLEADERSTYLE_CLASS
 90
     4095
280
     0
281
     0
  0
CLASS
  1
CELLSTYLEMAP
  2
AcDbCellStyleMap
  3
ObjectDBX Classes
 90
     1152
280
     0
281
     0
  0
CLASS
  1
DICTIONARYVAR
  2
AcDbDictionaryVar
  3
ObjectDBX Classes
 90
        0
280
     0
281
     0
  0
CLASS
  1
AEC_REFEDIT_STATUS_TRACKER
  2
AecDbRefEditStatusTracker
  3
AecArchBase60|Product Desc: Autodesk Architectural Desktop 2007 |Company: Autodesk,Inc. |WEB Address: www.autodesk.com
 90
      129
280
     0
281
     0
  0
CLASS
  1
NPOCOLLECTION
  2
AcDbImpNonPersistentObjectsCollection
  3
ObjectDBX Classes
 90
     1153
280
     0
281
     0
  0
ENDSEC
  0
SECTION
  2
TABLES
  0
TABLE
  2
VPORT
  5
8
102
{ACAD_XDICTIONARY
360
455
102
}
330
0
100
AcDbSymbolTable
 70
     1
  0
VPORT
  5
1F4
330
8
100
AcDbSymbolTableRecord
100
AcDbViewportTableRecord
  2
*ACTIVE
 70
     0
 10
0.0
 20
0.0
 11
1.0
 21
1.0
 12
650.1392994127378
 22
241.110652370105
 13
0.0
 23
0.0
 14
1.0
 24
1.0
 15
0.0
 25
0.0
 16
0.0
 26
0.0
 36
1.0
 17
0.0
 27
0.0
 37
0.0
 40
1029.723790439007
 41
1.850050658561296
 42
50.0
 43
0.0
 44
0.0
 50
0.0
 51
0.0
 71
     0
 72
   100
 73
     1
 74
     1
 75
     0
 76
     0
 77
     0
 78
     0
281
     0
 65
     1
110
0.0
120
0.0
130
0.0
111
1.0
121
0.0
131
0.0
112
0.0
122
1.0
132
0.0
 79
     0
146
0.0
  0
ENDTAB
  0
TABLE
  2
LTYPE
  5
5
330
0
100
AcDbSymbolTable
 70
     6
  0
LTYPE
  5
14
330
5
100
AcDbSymbolTableRecord
100
AcDbLinetypeTableRecord
  2
BYBLOCK
 70
     0
  3

 72
    65
 73
     0
 40
0.0
  0
LTYPE
  5
15
330
5
100
AcDbSymbolTableRecord
100
AcDbLinetypeTableRecord
  2
BYLAYER
 70
     0
  3

 72
    65
 73
     0
 40
0.0
  0
LTYPE
  5
16
330
5
100
AcDbSymbolTableRecord
100
AcDbLinetypeTableRecord
  2
CONTINUOUS
 70
     0
  3
Solid line
 72
    65
 73
     0
 40
0.0
  0
LTYPE
  5
1F5
330
5
100
AcDbSymbolTableRecord
100
AcDbLinetypeTableRecord
  2
CENTER
 70
     0
  3
____ _ ____ _ ____ _ ____ _ ____ _ ____ _ ____
 72
    65
 73
     4
 40
0.6
 49
0.375
 74
     0
 49
-0.075
 74
     0
 49
0.075
 74
     0
 49
-0.075
 74
     0
  0
LTYPE
  5
1F6
330
5
100
AcDbSymbolTableRecord
100
AcDbLinetypeTableRecord
  2
HIDDEN
 70
     0
  3
- - - - - - - - - - - - - - - - - - - -
 72
    65
 73
     2
 40
0.2
 49
0.1
 74
     0
 49
-0.1
 74
     0
  0
LTYPE
  5
1F7
330
5
100
AcDbSymbolTableRecord
100
AcDbLinetypeTableRecord
  2
PHANTOM
 70
     0
  3
_____ _ _ _____ _ _ _____ _ _ _____
 72
    65
 73
     6
 40
0.8
 49
0.45
 74
     0
 49
-0.05
 74
     0
 49
0.1
 74
     0
 49
-0.05
 74
     0
 49
0.1
 74
     0
 49
-0.05
 74
     0
  0
LTYPE
  5
1F8
330
5
100
AcDbSymbolTableRecord
100
AcDbLinetypeTableRecord
  2
DOT
 70
     0
  3
. . . . . . . . . . . . . . . . . . . .
 72
    65
 73
     2
 40
0.2
 49
0.1
 74
     0
 49
-0.1
 74
     0
  0
LTYPE
  5
1F9
330
5
100
AcDbSymbolTableRecord
100
AcDbLinetypeTableRecord
  2
DASHED
 70
     0
  3
- - - - - - - - - - - - - - - - - - - -
 72
    65
 73
     2
 40
0.2
 49
0.1
 74
     0
 49
-0.1
 74
     0
  0
ENDTAB
  0
TABLE
  2
LAYER
  5
2
330
0
100
AcDbSymbolTable
 70
    23
  0
LAYER
  5
10
102
{ACAD_XDICTIONARY
360
4AD
102
}
330
2
100
AcDbSymbolTableRecord
100
AcDbLayerTableRecord
  2
0
 70
     0
 62
     7
  6
CONTINUOUS
370
    -3
390
F
  0
LAYER
  5
1FA
102
{ACAD_XDICTIONARY
360
4AF
102
}
330
2
100
AcDbSymbolTableRecord
100
AcDbLayerTableRecord
  2
DEFAULT_1
 70
     0
 62
     7
  6
CENTER
370
    -3
390
F
  0
LAYER
  5
1FB
102
{ACAD_XDICTIONARY
360
4B1
102
}
330
2
100
AcDbSymbolTableRecord
100
AcDbLayerTableRecord
  2
DEFAULT_2
 70
     0
 62
     8
  6
HIDDEN
370
    -3
390
F
  0
LAYER
  5
1FC
102
{ACAD_XDICTIONARY
360
4B3
102
}
330
2
100
AcDbSymbolTableRecord
100
AcDbLayerTableRecord
  2
DEFAULT_3
 70
     0
 62
     7
  6
PHANTOM
370
    -3
390
F
  0
LAYER
  5
1FD
102
{ACAD_XDICTIONARY
360
4B5
102
}
330
2
100
AcDbSymbolTableRecord
100
AcDbLayerTableRecord
  2
2D-ELEMENTE
 70
     0
 62
     7
  6
CONTINUOUS
370
    -3
390
F
  0
LAYER
  5
1FE
102
{ACAD_XDICTIONARY
360
4B7
102
}
330
2
100
AcDbSymbolTableRecord
100
AcDbLayerTableRecord
  2
ACHSEN
 70
     0
 62
     7
  6
CONTINUOUS
370
    -3
390
F
  0
LAYER
  5
1FF
102
{ACAD_XDICTIONARY
360
4B9
102
}
330
2
100
AcDbSymbolTableRecord
100
AcDbLayerTableRecord
  2
AUSBLENDEN
 70
     0
 62
     7
  6
CONTINUOUS
370
    -3
390
F
  0
LAYER
  5
200
102
{ACAD_XDICTIONARY
360
4BB
102
}
330
2
100
AcDbSymbolTableRecord
100
AcDbLayerTableRecord
  2
BAUGRUPPE
 70
     0
 62
     7
  6
CONTINUOUS
370
    -3
390
F
  0
LAYER
  5
201
102
{ACAD_XDICTIONARY
360
4BD
102
}
330
2
100
AcDbSymbolTableRecord
100
AcDbLayerTableRecord
  2
EBENEN
 70
     0
 62
     7
  6
CONTINUOUS
370
    -3
390
F
  0
LAYER
  5
202
102
{ACAD_XDICTIONARY
360
4BF
102
}
330
2
100
AcDbSymbolTableRecord
100
AcDbLayerTableRecord
  2
KOORDINATEN
 70
     0
 62
     7
  6
CONTINUOUS
370
    -3
390
F
  0
LAYER
  5
203
102
{ACAD_XDICTIONARY
360
4C1
102
}
330
2
100
AcDbSymbolTableRecord
100
AcDbLayerTableRecord
  2
KOSMETIK
 70
     0
 62
     7
  6
CONTINUOUS
370
    -3
390
F
  0
LAYER
  5
204
102
{ACAD_XDICTIONARY
360
4C3
102
}
330
2
100
AcDbSymbolTableRecord
100
AcDbLayerTableRecord
  2
KURVEN
 70
     0
 62
     7
  6
CONTINUOUS
370
    -3
390
F
  0
LAYER
  5
205
102
{ACAD_XDICTIONARY
360
4C5
102
}
330
2
100
AcDbSymbolTableRecord
100
AcDbLayerTableRecord
  2
RUNDUNGEN
 70
     0
 62
     7
  6
CONTINUOUS
370
    -3
390
F
  0
LAYER
  5
206
102
{ACAD_XDICTIONARY
360
4C7
102
}
330
2
100
AcDbSymbolTableRecord
100
AcDbLayerTableRecord
  2
STD_ACHSEN
 70
     0
 62
     7
  6
CONTINUOUS
370
    -3
390
F
  0
LAYER
  5
207
102
{ACAD_XDICTIONARY
360
4C9
102
}
330
2
100
AcDbSymbolTableRecord
100
AcDbLayerTableRecord
  2
STD_CSYS
 70
     0
 62
     7
  6
CONTINUOUS
370
    -3
390
F
  0
LAYER
  5
208
102
{ACAD_XDICTIONARY
360
4CB
102
}
330
2
100
AcDbSymbolTableRecord
100
AcDbLayerTableRecord
  2
STD_EBENEN
 70
     0
 62
     7
  6
CONTINUOUS
370
    -3
390
F
  0
LAYER
  5
209
102
{ACAD_XDICTIONARY
360
4CD
102
}
330
2
100
AcDbSymbolTableRecord
100
AcDbLayerTableRecord
  2
TEIL_UMBENNEN
 70
     0
 62
     7
  6
CONTINUOUS
370
    -3
390
F
  0
LAYER
  5
20A
102
{ACAD_XDICTIONARY
360
4CF
102
}
330
2
100
AcDbSymbolTableRecord
100
AcDbLayerTableRecord
  2
UMBENNEN
 70
     0
 62
     7
  6
CONTINUOUS
370
    -3
390
F
  0
LAYER
  5
20B
102
{ACAD_XDICTIONARY
360
4D1
102
}
330
2
100
AcDbSymbolTableRecord
100
AcDbLayerTableRecord
  2
DR100_006_00_new_view_1_BL0
 70
     0
 62
     7
  6
CONTINUOUS
370
    -3
390
F
  0
LAYER
  5
20C
102
{ACAD_XDICTIONARY
360
4D3
102
}
330
2
100
AcDbSymbolTableRecord
100
AcDbLayerTableRecord
  2
DR100_006_00_new_view_1_BL1
 70
     0
 62
     7
  6
CONTINUOUS
370
    -3
390
F
  0
LAYER
  5
20D
102
{ACAD_XDICTIONARY
360
4D5
102
}
330
2
100
AcDbSymbolTableRecord
100
AcDbLayerTableRecord
  2
DR100_006_00_new_view_1_BL2
 70
     0
 62
     7
  6
CONTINUOUS
370
    -3
390
F
  0
LAYER
  5
20E
102
{ACAD_XDICTIONARY
360
4D7
102
}
330
2
100
AcDbSymbolTableRecord
100
AcDbLayerTableRecord
  2
DR100_006_00_new_view_1_BL3
 70
     0
 62
     7
  6
CONTINUOUS
370
    -3
390
F
  0
LAYER
  5
20F
102
{ACAD_XDICTIONARY
360
4D9
102
}
330
2
100
AcDbSymbolTableRecord
100
AcDbLayerTableRecord
  2
DR200_000_00_new_view_1_BL4
 70
     0
 62
     7
  6
CONTINUOUS
370
    -3
390
F
  0
ENDTAB
  0
TABLE
  2
STYLE
  5
3
330
0
100
AcDbSymbolTable
 70
     2
  0
STYLE
  5
11
330
3
100
AcDbSymbolTableRecord
100
AcDbTextStyleTableRecord
  2
STANDARD
 70
     0
 40
0.0
 41
0.8
 50
0.0
 71
     0
 42
0.2
  3
txt
  4

  0
STYLE
  5
210
330
3
100
AcDbSymbolTableRecord
100
AcDbTextStyleTableRecord
  2
TEXTSTYLE_1
 70
     0
 40
0.0
 41
0.8
 50
0.0
 71
     0
 42
0.2
  3
gdt
  4

  0
ENDTAB
  0
TABLE
  2
VIEW
  5
6
330
0
100
AcDbSymbolTable
 70
     0
  0
ENDTAB
  0
TABLE
  2
UCS
  5
7
330
0
100
AcDbSymbolTable
 70
     0
  0
ENDTAB
  0
TABLE
  2
APPID
  5
9
330
0
100
AcDbSymbolTable
 70
     2
  0
APPID
  5
211
330
9
100
AcDbSymbolTableRecord
100
AcDbRegAppTableRecord
  2
ACAD
 70
     0
  0
APPID
  5
451
330
9
100
AcDbSymbolTableRecord
100
AcDbRegAppTableRecord
  2
ACAD_MLEADERVER
 70
     0
  0
ENDTAB
  0
TABLE
  2
DIMSTYLE
  5
A
330
0
100
AcDbSymbolTable
 70
     1
100
AcDbDimStyleTable
 71
     0
  0
DIMSTYLE
105
219
330
A
100
AcDbSymbolTableRecord
100
AcDbDimStyleTableRecord
  2
STANDARD
 70
     0
 41
3.5
 47
0.01
 48
0.01
 71
     1
 73
     0
 74
     0
 77
     1
 78
     8
140
3.5
271
     2
272
     2
284
     8
340
11
  0
ENDTAB
  0
TABLE
  2
BLOCK_RECORD
  5
1
330
0
100
AcDbSymbolTable
 70
     6
  0
BLOCK_RECORD
  5
212
330
1
100
AcDbSymbolTableRecord
100
AcDbBlockTableRecord
  2
*Model_Space
340
3FC
  0
BLOCK_RECORD
  5
213
330
1
100
AcDbSymbolTableRecord
100
AcDbBlockTableRecord
  2
*Paper_Space
340
3FD
  0
BLOCK_RECORD
  5
214
330
1
100
AcDbSymbolTableRecord
100
AcDbBlockTableRecord
  2
DR100_006_00_NEW_VIEW_1_BL0
340
0
102
{BLKREFS
331
4A5
102
}
  0
BLOCK_RECORD
  5
215
330
1
100
AcDbSymbolTableRecord
100
AcDbBlockTableRecord
  2
DR100_006_00_NEW_VIEW_1_BL1
340
0
102
{BLKREFS
331
4A6
102
}
  0
BLOCK_RECORD
  5
216
330
1
100
AcDbSymbolTableRecord
100
AcDbBlockTableRecord
  2
DR100_006_00_NEW_VIEW_1_BL2
340
0
102
{BLKREFS
331
4A7
102
}
  0
BLOCK_RECORD
  5
217
330
1
100
AcDbSymbolTableRecord
100
AcDbBlockTableRecord
  2
DR100_006_00_NEW_VIEW_1_BL3
340
0
102
{BLKREFS
331
4A8
102
}
  0
BLOCK_RECORD
  5
218
330
1
100
AcDbSymbolTableRecord
100
AcDbBlockTableRecord
  2
DR200_000_00_NEW_VIEW_1_BL4
340
0
102
{BLKREFS
331
4A9
102
}
  0
BLOCK_RECORD
  5
4A2
330
1
100
AcDbSymbolTableRecord
100
AcDbBlockTableRecord
  2
TC-600710_DS
340
0
310
2800000020000000200000000100080000000000000400000000000000000000000000000000000000000000000080000080000000808000800000008000800080800000C0C0C000C0DCC000F0CAA6000020400000206000002080000020A0000020C0000020E00000400000004020000040400000406000004080000040A0
310
000040C0000040E00000600000006020000060400000606000006080000060A0000060C0000060E00000800000008020000080400000806000008080000080A0000080C0000080E00000A0000000A0200000A0400000A0600000A0800000A0A00000A0C00000A0E00000C0000000C0200000C0400000C0600000C0800000C0
310
A00000C0C00000C0E00000E0000000E0200000E0400000E0600000E0800000E0A00000E0C00000E0E00040000000400020004000400040006000400080004000A0004000C0004000E00040200000402020004020400040206000402080004020A0004020C0004020E000404000004040200040404000404060004040800040
310
40A0004040C0004040E00040600000406020004060400040606000406080004060A0004060C0004060E00040800000408020004080400040806000408080004080A0004080C0004080E00040A0000040A0200040A0400040A0600040A0800040A0A00040A0C00040A0E00040C0000040C0200040C0400040C0600040C08000
310
40C0A00040C0C00040C0E00040E0000040E0200040E0400040E0600040E0800040E0A00040E0C00040E0E00080000000800020008000400080006000800080008000A0008000C0008000E00080200000802020008020400080206000802080008020A0008020C0008020E00080400000804020008040400080406000804080
310
008040A0008040C0008040E00080600000806020008060400080606000806080008060A0008060C0008060E00080800000808020008080400080806000808080008080A0008080C0008080E00080A0000080A0200080A0400080A0600080A0800080A0A00080A0C00080A0E00080C0000080C0200080C0400080C0600080C0
310
800080C0A00080C0C00080C0E00080E0000080E0200080E0400080E0600080E0800080E0A00080E0C00080E0E000C0000000C0002000C0004000C0006000C0008000C000A000C000C000C000E000C0200000C0202000C0204000C0206000C0208000C020A000C020C000C020E000C0400000C0402000C0404000C0406000C0
310
408000C040A000C040C000C040E000C0600000C0602000C0604000C0606000C0608000C060A000C060C000C060E000C0800000C0802000C0804000C0806000C0808000C080A000C080C000C080E000C0A00000C0A02000C0A04000C0A06000C0A08000C0A0A000C0A0C000C0A0E000C0C00000C0C02000C0C04000C0C06000
310
C0C08000C0C0A000F0FBFF00A4A0A000808080000000FF0000FF000000FFFF00FF000000FF00FF00FFFF0000FFFFFF0049494949494949494949494949494949494949494949494949494949494949494949494949494949494949494949494949494949494949494949494949494949494949494949494949494949494949
310
49494949494949494949494949494949494949494949494949494949494949494949494949494949494949494949494949494949494949494949494949494949494949494949494949494949494949494949494949494949494949494949494949494949494949494949494949494949494949494949494949494949494949
310
49494949494949494949494949494949494949494949494949494949494949494949494949494949494949494949494949494949494949494949494949494949494949494949494949494949494949494949494949494949494949494949494949494949494949494949494949494949494949494949494949494949494949
310
494949494949494949494949494949494949494949494949494949494949494949494949494949494949494949494949494949494949494949494949494949494949494949494949494949494949494949494949494949494949494949494949494949494949494949494949494949494949494907FF070707070707070707
310
0707070707070707070707070707070707FF074949FAFFFAFAFAFAFAFAFAFAFAFAFAFAFAFAFAFAFAFAFAFAFAFAFAFAFAFAFAFA4949FAFFFAFAFAFAFAFAFAFAFAFAFAFAFAFAFAFAFAFAFAFAFAFAFAFAFAFAFFFA494907FF0707070707070707070707070707070707070707070707070707FF07494949494949494949494949
310
49494949494949494949494949494949494949494949494949494949494949494949494949494949494949494949494949494949494949494949494949494949494949494949494949494949494949494949494949494949494949494949494949494949494949494949494949494949494949494949494949494949494949
310
49494949494949494949494949494949494949494949494949494949494949494949494949494949494949494949494949494949494949494949494949494949494949494949494949494949494949494949494949494949494949494949494949494949494949494949494949494949494949494949494949494949494949
310
49494949494949494949494949494949494949494949494949494949494949494949494949494949494949494949494949494949494949494949494949494949494949494949494949494949494949494949494949494949494949494949494949494949494949494949494949494949494949494949494949494949494949
310
4949494949494949494949494949494949494949494949494949494949494949494949494949494949494949494949494949494949494949
102
{BLKREFS
331
4AA
102
}
1001
ACAD
1000
DesignCenter Data
1002
{
1070
     1
1070
     4
1002
}
  0
ENDTAB
  0
ENDSEC
  0
SECTION
  2
BLOCKS
  0
BLOCK
  5
20
330
212
100
AcDbEntity
  8
0
100
AcDbBlockBegin
  2
*Model_Space
 70
     0
 10
0.0
 20
0.0
 30
0.0
  3
*Model_Space
  1

  0
ENDBLK
  5
21
330
212
100
AcDbEntity
  8
0
100
AcDbBlockEnd
  0
BLOCK
  5
1C
330
213
100
AcDbEntity
 67
     1
  8
0
100
AcDbBlockBegin
  2
*Paper_Space
 70
     0
 10
0.0
 20
0.0
 30
0.0
  3
*Paper_Space
  1

  0
ENDBLK
  5
1D
330
213
100
AcDbEntity
 67
     1
  8
0
100
AcDbBlockEnd
  0
BLOCK
  5
21A
330
214
100
AcDbEntity
  8
DR100_006_00_new_view_1_BL0
100
AcDbBlockBegin
  2
DR100_006_00_NEW_VIEW_1_BL0
 70
     0
 10
-56.20723757069999
 20
276.4563443571
 30
0.0
  3
DR100_006_00_NEW_VIEW_1_BL0
  1

  0
SPLINE
  5
21B
330
214
100
AcDbEntity
  8
DR100_006_00_new_view_1_BL0
  6
Continuous
 62
     7
100
AcDbSpline
210
0.0
220
0.0
230
1.0
 70
     8
 71
     3
 72
    18
 73
    14
 74
     0
 42
0.0000000001
 43
0.0000000001
 40
0.0
 40
0.0
 40
0.0
 40
0.0
 40
0.0073471517
 40
0.023705483
 40
0.0491076114
 40
0.0833407027
 40
0.126143855
 40
0.1771018195
 40
0.3015250653
 40
0.4519794117
 40
0.6228464593
 40
0.807964302
 40
1.0
 40
1.0
 40
1.0
 40
1.0
 10
-56.5832316228
 20
282.9004122898
 30
0.0
 10
-56.58265475890001
 20
282.9011280115
 30
0.0
 10
-56.5793671225
 20
282.9015918863
 30
0.0
 10
-56.5736068792
 20
282.9027031939
 30
0.0
 10
-56.563975075
 20
282.903504027
 30
0.0
 10
-56.55125974689999
 20
282.9044665526
 30
0.0
 10
-56.535243563
 20
282.9053329839
 30
0.0
 10
-56.5079830318
 20
282.9065487598
 30
0.0
 10
-56.4672271599
 20
282.9078332333001
 30
0.0
 10
-56.4114726426
 20
282.9090534089
 30
0.0
 10
-56.34811339409999
 20
282.909960421
 30
0.0
 10
-56.2795488546
 20
282.9105204964
 30
0.0
 10
-56.2323602954
 20
282.9106465397
 30
0.0
 10
-56.2083333333
 20
282.9106465397
 30
0.0
  0
ARC
  5
21C
330
214
100
AcDbEntity
  8
DR100_006_00_new_view_1_BL0
  6
Continuous
 62
     7
100
AcDbCircle
 10
-47.9339455079
 20
275.9058096264
 30
0.0
 40
11.1236110642
100
AcDbArc
 50
141.0378522602
 51
142.7718532514
  0
ARC
  5
21D
330
214
100
AcDbEntity
  8
DR100_006_00_new_view_1_BL0
  6
Continuous
 62
     7
100
AcDbCircle
 10
-56.20833364439999
 20
278.1153738446
 30
0.0
 40
8.113331670099999
100
AcDbArc
 50
239.6345483189
 51
270.000002197
  0
SPLINE
  5
21E
330
214
100
AcDbEntity
  8
DR100_006_00_new_view_1_BL0
  6
Continuous
 62
     7
100
AcDbSpline
210
0.0
220
0.0
230
1.0
 70
     8
 71
     3
 72
    18
 73
    14
 74
     0
 42
0.0000000001
 43
0.0000000001
 40
0.0
 40
0.0
 40
0.0
 40
0.0
 40
0.0073471517
 40
0.023705483
 40
0.0491076114
 40
0.0833407027
 40
0.126143855
 40
0.1771018195
 40
0.3015250653
 40
0.4519794117
 40
0.6228464593
 40
0.807964302
 40
1.0
 40
1.0
 40
1.0
 40
1.0
 10
-55.83343504390001
 20
282.9004122898
 30
0.0
 10
-55.8340119077
 20
282.9011280115
 30
0.0
 10
-55.83729954409999
 20
282.9015918863
 30
0.0
 10
-55.84305978739999
 20
282.9027031939
 30
0.0
 10
-55.8526915916
 20
282.903504027
 30
0.0
 10
-55.8654069197
 20
282.9044665526
 30
0.0
 10
-55.8814231037
 20
282.9053329839
 30
0.0
 10
-55.9086836349
 20
282.9065487598
 30
0.0
 10
-55.94943950680001
 20
282.9078332333001
 30
0.0
 10
-56.0051940241
 20
282.9090534089
 30
0.0
 10
-56.06855327259999
 20
282.909960421
 30
0.0
 10
-56.1371178121
 20
282.9105204964
 30
0.0
 10
-56.1843063713
 20
282.9106465397
 30
0.0
 10
-56.2083333333
 20
282.9106465397
 30
0.0
  0
ARC
  5
21F
330
214
100
AcDbEntity
  8
DR100_006_00_new_view_1_BL0
  6
Continuous
 62
     7
100
AcDbCircle
 10
-64.48270814549999
 20
275.9058203556
 30
0.0
 40
11.123594199
100
AcDbArc
 50
37.228314416
 51
38.9621469168
  0
ARC
  5
220
330
214
100
AcDbEntity
  8
DR100_006_00_new_view_1_BL0
  6
Continuous
 62
     7
100
AcDbCircle
 10
-56.20833351079999
 20
278.1153763682
 30
0.0
 40
8.1133341937
100
AcDbArc
 50
270.0000012536
 51
300.3833839003
  0
SPLINE
  5
221
330
214
100
AcDbEntity
  8
DR100_006_00_new_view_1_BL0
  6
Continuous
 62
     7
100
AcDbSpline
210
0.0
220
0.0
230
1.0
 70
     8
 71
     3
 72
    18
 73
    14
 74
     0
 42
0.0000000001
 43
0.0000000001
 40
0.0
 40
0.0
 40
0.0
 40
0.0
 40
0.1974097174
 40
0.3872528939
 40
0.5616194368000001
 40
0.7138444149
 40
0.8378810452999999
 40
0.9288598455
 40
0.9607790725
 40
0.9832611806999999
 40
0.9908982363999999
 40
0.9961317009999998
 40
1.0
 40
1.0
 40
1.0
 40
1.0
 10
-56.2083333333
 20
282.8897053107
 30
0.0
 10
-56.23305307289999
 20
282.8897053107
 30
0.0
 10
-56.281545512
 20
282.8898389512
 30
0.0
 10
-56.3518682625
 20
282.8904283115999
 30
0.0
 10
-56.4165344575
 20
282.8913914543
 30
0.0
 10
-56.4729348401
 20
282.8926517882
 30
0.0
 10
-56.51893427920001
 20
282.8942286668
 30
0.0
 10
-56.54973845489999
 20
282.8956743324
 30
0.0
 10
-56.5680027435
 20
282.8972016699
 30
0.0
 10
-56.5755557956
 20
282.8979196705
 30
0.0
 10
-56.5801481629
 20
282.8988449337
 30
0.0
 10
-56.5818123822
 20
282.8990759163001
 30
0.0
 10
-56.5835355942
 20
282.9000351489
 30
0.0
 10
-56.5832316228
 20
282.9004122898
 30
0.0
  0
SPLINE
  5
222
330
214
100
AcDbEntity
  8
DR100_006_00_new_view_1_BL0
  6
Continuous
 62
     7
100
AcDbSpline
210
0.0
220
0.0
230
1.0
 70
     8
 71
     3
 72
    18
 73
    14
 74
     0
 42
0.0000000001
 43
0.0000000001
 40
0.0
 40
0.0
 40
0.0
 40
0.0
 40
0.1974097174
 40
0.3872528939
 40
0.5616194368000001
 40
0.7138444149
 40
0.8378810452999999
 40
0.9288598455
 40
0.9607790725
 40
0.9832611806999999
 40
0.9908982363999999
 40
0.9961317009999998
 40
1.0
 40
1.0
 40
1.0
 40
1.0
 10
-56.2083333333
 20
282.8897053107
 30
0.0
 10
-56.1836135938
 20
282.8897053107
 30
0.0
 10
-56.1351211547
 20
282.8898389512
 30
0.0
 10
-56.06479840409999
 20
282.8904283115999
 30
0.0
 10
-56.00013220920001
 20
282.8913914543
 30
0.0
 10
-55.9437318266
 20
282.8926517882
 30
0.0
 10
-55.8977323875
 20
282.8942286668
 30
0.0
 10
-55.8669282118
 20
282.8956743324
 30
0.0
 10
-55.8486639232
 20
282.8972016699
 30
0.0
 10
-55.84111087100001
 20
282.8979196705
 30
0.0
 10
-55.83651850369999
 20
282.8988449337
 30
0.0
 10
-55.83485428439999
 20
282.8990759163001
 30
0.0
 10
-55.8331310725
 20
282.9000351489
 30
0.0
 10
-55.83343504390001
 20
282.9004122898
 30
0.0
  0
ENDBLK
  5
223
330
214
100
AcDbEntity
  8
0
  6
ByBlock
 62
     0
100
AcDbBlockEnd
  0
BLOCK
  5
224
330
215
100
AcDbEntity
  8
DR100_006_00_new_view_1_BL1
100
AcDbBlockBegin
  2
DR100_006_00_NEW_VIEW_1_BL1
 70
     0
 10
-56.2094290959
 20
329.8082389762
 30
0.0
  3
DR100_006_00_NEW_VIEW_1_BL1
  1

  0
ARC
  5
225
330
215
100
AcDbEntity
  8
DR100_006_00_new_view_1_BL1
  6
Continuous
 62
     7
100
AcDbCircle
 10
-47.933958521
 20
330.3587629779
 30
0.0
 40
11.1235941992
100
AcDbArc
 50
217.228314416
 51
218.9621469168
  0
ARC
  5
226
330
215
100
AcDbEntity
  8
DR100_006_00_new_view_1_BL1
  6
Continuous
 62
     7
100
AcDbCircle
 10
-56.2083331558
 20
328.1492069651
 30
0.0
 40
8.1133341937
100
AcDbArc
 50
90.00000125360001
 51
120.3833839003
  0
ARC
  5
227
330
215
100
AcDbEntity
  8
DR100_006_00_new_view_1_BL1
  6
Continuous
 62
     7
100
AcDbCircle
 10
-64.4827211588
 20
330.358773707
 30
0.0
 40
11.1236110643
100
AcDbArc
 50
321.0378522602
 51
322.7718532514
  0
SPLINE
  5
228
330
215
100
AcDbEntity
  8
DR100_006_00_new_view_1_BL1
  6
Continuous
 62
     7
100
AcDbSpline
210
0.0
220
0.0
230
1.0
 70
     8
 71
     3
 72
    18
 73
    14
 74
     0
 42
0.0000000001
 43
0.0000000001
 40
0.0
 40
0.0
 40
0.0
 40
0.0
 40
0.192035698
 40
0.3771535407
 40
0.5480205883
 40
0.6984749347000001
 40
0.8228981805
 40
0.8738561449999998
 40
0.9166592973
 40
0.9508923885999999
 40
0.976294517
 40
0.9926528483
 40
1.0
 40
1.0
 40
1.0
 40
1.0
 10
-56.2083333333
 20
323.3539367936
 30
0.0
 10
-56.1843063713
 20
323.3539367936
 30
0.0
 10
-56.1371178121
 20
323.3540628369
 30
0.0
 10
-56.06855327259999
 20
323.3546229124
 30
0.0
 10
-56.0051940241
 20
323.3555299244
 30
0.0
 10
-55.94943950680001
 20
323.3567501001
 30
0.0
 10
-55.9086836349
 20
323.3580345736
 30
0.0
 10
-55.8814231037
 20
323.3592503495
 30
0.0
 10
-55.8654069197
 20
323.3601167807
 30
0.0
 10
-55.8526915916
 20
323.3610793063
 30
0.0
 10
-55.84305978739999
 20
323.3618801395
 30
0.0
 10
-55.83729954409999
 20
323.362991447
 30
0.0
 10
-55.8340119077
 20
323.3634553219
 30
0.0
 10
-55.83343504390001
 20
323.3641710435
 30
0.0
  0
ARC
  5
229
330
215
100
AcDbEntity
  8
DR100_006_00_new_view_1_BL1
  6
Continuous
 62
     7
100
AcDbCircle
 10
-56.2083330222
 20
328.1492094888
 30
0.0
 40
8.113331670099999
100
AcDbArc
 50
59.6345483189
 51
90.000002197
  0
SPLINE
  5
22A
330
215
100
AcDbEntity
  8
DR100_006_00_new_view_1_BL1
  6
Continuous
 62
     7
100
AcDbSpline
210
0.0
220
0.0
230
1.0
 70
     8
 71
     3
 72
    18
 73
    14
 74
     0
 42
0.0000000001
 43
0.0000000001
 40
0.0
 40
0.0
 40
0.0
 40
0.0
 40
0.192035698
 40
0.3771535407
 40
0.5480205883
 40
0.6984749347000001
 40
0.8228981805
 40
0.8738561449999998
 40
0.9166592973
 40
0.9508923885999999
 40
0.976294517
 40
0.9926528483
 40
1.0
 40
1.0
 40
1.0
 40
1.0
 10
-56.2083333333
 20
323.3539367936
 30
0.0
 10
-56.2323602954
 20
323.3539367936
 30
0.0
 10
-56.2795488546
 20
323.3540628369
 30
0.0
 10
-56.34811339409999
 20
323.3546229124
 30
0.0
 10
-56.4114726426
 20
323.3555299244
 30
0.0
 10
-56.4672271599
 20
323.3567501001
 30
0.0
 10
-56.5079830318
 20
323.3580345736
 30
0.0
 10
-56.535243563
 20
323.3592503495
 30
0.0
 10
-56.55125974689999
 20
323.3601167807
 30
0.0
 10
-56.563975075
 20
323.3610793063
 30
0.0
 10
-56.5736068792
 20
323.3618801395
 30
0.0
 10
-56.5793671225
 20
323.362991447
 30
0.0
 10
-56.58265475890001
 20
323.3634553219
 30
0.0
 10
-56.5832316228
 20
323.3641710435
 30
0.0
  0
SPLINE
  5
22B
330
215
100
AcDbEntity
  8
DR100_006_00_new_view_1_BL1
  6
Continuous
 62
     7
100
AcDbSpline
210
0.0
220
0.0
230
1.0
 70
     8
 71
     3
 72
    18
 73
    14
 74
     0
 42
0.0000000001
 43
0.0000000001
 40
0.0
 40
0.0
 40
0.0
 40
0.0
 40
0.003868299
 40
0.0091017636
 40
0.0167388193
 40
0.0392209275
 40
0.0711401545
 40
0.1621189547
 40
0.2861555851
 40
0.4383805632000001
 40
0.6127471061
 40
0.8025902826000001
 40
1.0
 40
1.0
 40
1.0
 40
1.0
 10
-55.83343504390001
 20
323.3641710435
 30
0.0
 10
-55.8331310725
 20
323.3645481845
 30
0.0
 10
-55.83485428439999
 20
323.365507417
 30
0.0
 10
-55.83651850369999
 20
323.3657383997
 30
0.0
 10
-55.84111087100001
 20
323.3666636629
 30
0.0
 10
-55.8486639232
 20
323.3673816634
 30
0.0
 10
-55.8669282118
 20
323.3689090009
 30
0.0
 10
-55.8977323875
 20
323.3703546666
 30
0.0
 10
-55.9437318266
 20
323.3719315452
 30
0.0
 10
-56.00013220920001
 20
323.3731918791
 30
0.0
 10
-56.06479840409999
 20
323.3741550217
 30
0.0
 10
-56.1351211547
 20
323.3747443821
 30
0.0
 10
-56.1836135938
 20
323.3748780227
 30
0.0
 10
-56.2083333333
 20
323.3748780227
 30
0.0
  0
SPLINE
  5
22C
330
215
100
AcDbEntity
  8
DR100_006_00_new_view_1_BL1
  6
Continuous
 62
     7
100
AcDbSpline
210
0.0
220
0.0
230
1.0
 70
     8
 71
     3
 72
    18
 73
    14
 74
     0
 42
0.0000000001
 43
0.0000000001
 40
0.0
 40
0.0
 40
0.0
 40
0.0
 40
0.003868299
 40
0.0091017636
 40
0.0167388193
 40
0.0392209275
 40
0.0711401545
 40
0.1621189547
 40
0.2861555851
 40
0.4383805632000001
 40
0.6127471061
 40
0.8025902826000001
 40
1.0
 40
1.0
 40
1.0
 40
1.0
 10
-56.5832316228
 20
323.3641710435
 30
0.0
 10
-56.5835355942
 20
323.3645481845
 30
0.0
 10
-56.5818123822
 20
323.365507417
 30
0.0
 10
-56.5801481629
 20
323.3657383997
 30
0.0
 10
-56.5755557956
 20
323.3666636629
 30
0.0
 10
-56.5680027435
 20
323.3673816634
 30
0.0
 10
-56.54973845489999
 20
323.3689090009
 30
0.0
 10
-56.51893427920001
 20
323.3703546666
 30
0.0
 10
-56.4729348401
 20
323.3719315452
 30
0.0
 10
-56.4165344575
 20
323.3731918791
 30
0.0
 10
-56.3518682625
 20
323.3741550217
 30
0.0
 10
-56.281545512
 20
323.3747443821
 30
0.0
 10
-56.23305307289999
 20
323.3748780227
 30
0.0
 10
-56.2083333333
 20
323.3748780227
 30
0.0
  0
ENDBLK
  5
22D
330
215
100
AcDbEntity
  8
0
  6
ByBlock
 62
     0
100
AcDbBlockEnd
  0
BLOCK
  5
22E
330
216
100
AcDbEntity
  8
DR100_006_00_new_view_1_BL2
100
AcDbBlockBegin
  2
DR100_006_00_NEW_VIEW_1_BL2
 70
     0
 10
546.7927624292999
 20
270.5591832694
 30
0.0
  3
DR100_006_00_NEW_VIEW_1_BL2
  1

  0
ARC
  5
22F
330
216
100
AcDbEntity
  8
DR100_006_00_new_view_1_BL2
  6
Continuous
 62
     7
100
AcDbCircle
 10
546.7916663556
 20
278.1153738446
 30
0.0
 40
8.113331670099999
100
AcDbArc
 50
239.6345483189
 51
270.000002197
  0
ARC
  5
230
330
216
100
AcDbEntity
  8
DR100_006_00_new_view_1_BL2
  6
Continuous
 62
     7
100
AcDbCircle
 10
546.7916664891999
 20
278.1153763682
 30
0.0
 40
8.1133341937
100
AcDbArc
 50
270.0000012536
 51
300.3833839003
  0
ENDBLK
  5
231
330
216
100
AcDbEntity
  8
0
  6
ByBlock
 62
     0
100
AcDbBlockEnd
  0
BLOCK
  5
232
330
217
100
AcDbEntity
  8
DR100_006_00_new_view_1_BL3
100
AcDbBlockBegin
  2
DR100_006_00_NEW_VIEW_1_BL3
 70
     0
 10
546.7905709041
 20
329.8082389762
 30
0.0
  3
DR100_006_00_NEW_VIEW_1_BL3
  1

  0
ARC
  5
233
330
217
100
AcDbEntity
  8
DR100_006_00_new_view_1_BL3
  6
Continuous
 62
     7
100
AcDbCircle
 10
555.0660414788
 20
330.3587629777
 30
0.0
 40
11.1235941989
100
AcDbArc
 50
217.228314416
 51
218.9621469168
  0
ARC
  5
234
330
217
100
AcDbEntity
  8
DR100_006_00_new_view_1_BL3
  6
Continuous
 62
     7
100
AcDbCircle
 10
546.7916668442
 20
328.1492069651
 30
0.0
 40
8.1133341937
100
AcDbArc
 50
90.00000125360001
 51
120.3833839003
  0
ARC
  5
235
330
217
100
AcDbEntity
  8
DR100_006_00_new_view_1_BL3
  6
Continuous
 62
     7
100
AcDbCircle
 10
538.5172788406999
 20
330.3587737074
 30
0.0
 40
11.1236110649
100
AcDbArc
 50
321.0378522603
 51
322.7718532514
  0
SPLINE
  5
236
330
217
100
AcDbEntity
  8
DR100_006_00_new_view_1_BL3
  6
Continuous
 62
     7
100
AcDbSpline
210
0.0
220
0.0
230
1.0
 70
     8
 71
     3
 72
    18
 73
    14
 74
     0
 42
0.0000000001
 43
0.0000000001
 40
0.0
 40
0.0
 40
0.0
 40
0.0
 40
0.192035698
 40
0.3771535407
 40
0.5480205883
 40
0.6984749347000001
 40
0.8228981805
 40
0.8738561449999998
 40
0.9166592973
 40
0.9508923885999999
 40
0.976294517
 40
0.9926528483
 40
1.0
 40
1.0
 40
1.0
 40
1.0
 10
546.7916666666999
 20
323.3539367936
 30
0.0
 10
546.8156936287
 20
323.3539367936
 30
0.0
 10
546.8628821879
 20
323.3540628369
 30
0.0
 10
546.9314467273999
 20
323.3546229124
 30
0.0
 10
546.9948059758999
 20
323.3555299244
 30
0.0
 10
547.0505604931999
 20
323.3567501001
 30
0.0
 10
547.0913163651
 20
323.3580345736
 30
0.0
 10
547.1185768962999
 20
323.3592503495
 30
0.0
 10
547.1345930802999
 20
323.3601167807
 30
0.0
 10
547.1473084083998
 20
323.3610793063
 30
0.0
 10
547.1569402126
 20
323.3618801395
 30
0.0
 10
547.1627004559
 20
323.362991447
 30
0.0
 10
547.1659880923
 20
323.3634553219
 30
0.0
 10
547.1665649561
 20
323.3641710435
 30
0.0
  0
ARC
  5
237
330
217
100
AcDbEntity
  8
DR100_006_00_new_view_1_BL3
  6
Continuous
 62
     7
100
AcDbCircle
 10
546.7916669777999
 20
328.1492094888
 30
0.0
 40
8.113331670099999
100
AcDbArc
 50
59.6345483189
 51
90.000002197
  0
SPLINE
  5
238
330
217
100
AcDbEntity
  8
DR100_006_00_new_view_1_BL3
  6
Continuous
 62
     7
100
AcDbSpline
210
0.0
220
0.0
230
1.0
 70
     8
 71
     3
 72
    18
 73
    14
 74
     0
 42
0.0000000001
 43
0.0000000001
 40
0.0
 40
0.0
 40
0.0
 40
0.0
 40
0.192035698
 40
0.3771535407
 40
0.5480205883
 40
0.6984749347000001
 40
0.8228981805
 40
0.8738561449999998
 40
0.9166592973
 40
0.9508923885999999
 40
0.976294517
 40
0.9926528483
 40
1.0
 40
1.0
 40
1.0
 40
1.0
 10
546.7916666666999
 20
323.3539367936
 30
0.0
 10
546.7676397046
 20
323.3539367936
 30
0.0
 10
546.7204511454
 20
323.3540628369
 30
0.0
 10
546.6518866059
 20
323.3546229124
 30
0.0
 10
546.5885273573999
 20
323.3555299244
 30
0.0
 10
546.5327728401
 20
323.3567501001
 30
0.0
 10
546.4920169682
 20
323.3580345736
 30
0.0
 10
546.4647564369999
 20
323.3592503495
 30
0.0
 10
546.4487402531
 20
323.3601167807
 30
0.0
 10
546.4360249249999
 20
323.3610793063
 30
0.0
 10
546.4263931208001
 20
323.3618801395
 30
0.0
 10
546.4206328775
 20
323.362991447
 30
0.0
 10
546.4173452410999
 20
323.3634553219
 30
0.0
 10
546.4167683772
 20
323.3641710435
 30
0.0
  0
SPLINE
  5
239
330
217
100
AcDbEntity
  8
DR100_006_00_new_view_1_BL3
  6
Continuous
 62
     7
100
AcDbSpline
210
0.0
220
0.0
230
1.0
 70
     8
 71
     3
 72
    18
 73
    14
 74
     0
 42
0.0000000001
 43
0.0000000001
 40
0.0
 40
0.0
 40
0.0
 40
0.0
 40
0.003868299
 40
0.0091017636
 40
0.0167388193
 40
0.0392209275
 40
0.0711401545
 40
0.1621189547
 40
0.2861555851
 40
0.4383805632000001
 40
0.6127471061
 40
0.8025902826000001
 40
1.0
 40
1.0
 40
1.0
 40
1.0
 10
547.1665649561
 20
323.3641710435
 30
0.0
 10
547.1668689274999
 20
323.3645481845
 30
0.0
 10
547.1651457155998
 20
323.365507417
 30
0.0
 10
547.1634814962999
 20
323.3657383997
 30
0.0
 10
547.158889129
 20
323.3666636629
 30
0.0
 10
547.1513360768
 20
323.3673816634
 30
0.0
 10
547.1330717882
 20
323.3689090009
 30
0.0
 10
547.1022676125
 20
323.3703546666
 30
0.0
 10
547.0562681734
 20
323.3719315452
 30
0.0
 10
546.9998677908001
 20
323.3731918791
 30
0.0
 10
546.9352015958999
 20
323.3741550217
 30
0.0
 10
546.8648788453
 20
323.3747443821
 30
0.0
 10
546.8163864062001
 20
323.3748780227
 30
0.0
 10
546.7916666666999
 20
323.3748780227
 30
0.0
  0
SPLINE
  5
23A
330
217
100
AcDbEntity
  8
DR100_006_00_new_view_1_BL3
  6
Continuous
 62
     7
100
AcDbSpline
210
0.0
220
0.0
230
1.0
 70
     8
 71
     3
 72
    18
 73
    14
 74
     0
 42
0.0000000001
 43
0.0000000001
 40
0.0
 40
0.0
 40
0.0
 40
0.0
 40
0.003868299
 40
0.0091017636
 40
0.0167388193
 40
0.0392209275
 40
0.0711401545
 40
0.1621189547
 40
0.2861555851
 40
0.4383805632000001
 40
0.6127471061
 40
0.8025902826000001
 40
1.0
 40
1.0
 40
1.0
 40
1.0
 10
546.4167683772
 20
323.3641710435
 30
0.0
 10
546.4164644058
 20
323.3645481845
 30
0.0
 10
546.4181876177999
 20
323.365507417
 30
0.0
 10
546.4198518370999
 20
323.3657383997
 30
0.0
 10
546.4244442044
 20
323.3666636629
 30
0.0
 10
546.4319972565
 20
323.3673816634
 30
0.0
 10
546.4502615451
 20
323.3689090009
 30
0.0
 10
546.4810657208
 20
323.3703546666
 30
0.0
 10
546.5270651598999
 20
323.3719315452
 30
0.0
 10
546.5834655424999
 20
323.3731918791
 30
0.0
 10
546.6481317374999
 20
323.3741550217
 30
0.0
 10
546.718454488
 20
323.3747443821
 30
0.0
 10
546.7669469270999
 20
323.3748780227
 30
0.0
 10
546.7916666666999
 20
323.3748780227
 30
0.0
  0
ENDBLK
  5
23B
330
217
100
AcDbEntity
  8
0
  6
ByBlock
 62
     0
100
AcDbBlockEnd
  0
BLOCK
  5
23C
330
218
100
AcDbEntity
  8
DR200_000_00_new_view_1_BL4
100
AcDbBlockBegin
  2
DR200_000_00_NEW_VIEW_1_BL4
 70
     0
 10
245.2916666667
 20
303.1322916667
 30
0.0
  3
DR200_000_00_NEW_VIEW_1_BL4
  1

  0
LINE
  5
23D
330
218
100
AcDbEntity
  8
DR200_000_00_new_view_1_BL4
  6
Continuous
 62
     3
100
AcDbLine
 10
-76.20833333330001
 20
332.0472916667
 30
0.0
 11
-76.20833333330001
 21
274.2172916667
 31
0.0
  0
LINE
  5
23E
330
218
100
AcDbEntity
  8
DR200_000_00_new_view_1_BL4
  6
Continuous
 62
     3
100
AcDbLine
 10
566.7916666666999
 20
274.2172916667
 30
0.0
 11
566.7916666666999
 21
332.0472916667
 31
0.0
  0
LINE
  5
23F
330
218
100
AcDbEntity
  8
DR200_000_00_new_view_1_BL4
  6
Continuous
 62
     3
100
AcDbLine
 10
363.1516666667
 20
311.4322916667
 30
0.0
 11
363.1516666667
 21
306.8322916667
 31
0.0
  0
LINE
  5
240
330
218
100
AcDbEntity
  8
DR200_000_00_new_view_1_BL4
  6
Continuous
 62
     3
100
AcDbLine
 10
290.7616666667
 20
311.6322916667
 30
0.0
 11
362.9516666667
 21
311.6322916667
 31
0.0
  0
LINE
  5
241
330
218
100
AcDbEntity
  8
DR200_000_00_new_view_1_BL4
  6
Continuous
 62
     3
100
AcDbLine
 10
290.5616666667
 20
306.8322916667
 30
0.0
 11
290.5616666667
 21
311.4322916667
 31
0.0
  0
LINE
  5
242
330
218
100
AcDbEntity
  8
DR200_000_00_new_view_1_BL4
  6
Continuous
 62
     3
100
AcDbLine
 10
362.9516666667
 20
306.6322916667
 30
0.0
 11
290.7616666667
 21
306.6322916667
 31
0.0
  0
LINE
  5
243
330
218
100
AcDbEntity
  8
DR200_000_00_new_view_1_BL4
  6
Continuous
 62
     3
100
AcDbLine
 10
417.4416666666999
 20
299.4322916667
 30
0.0
 11
417.4416666666999
 21
294.8322916667
 31
0.0
  0
LINE
  5
244
330
218
100
AcDbEntity
  8
DR200_000_00_new_view_1_BL4
  6
Continuous
 62
     3
100
AcDbLine
 10
345.0516666667
 20
299.6322916667
 30
0.0
 11
417.2416666666999
 21
299.6322916667
 31
0.0
  0
LINE
  5
245
330
218
100
AcDbEntity
  8
DR200_000_00_new_view_1_BL4
  6
Continuous
 62
     3
100
AcDbLine
 10
344.8516666667
 20
294.8322916667
 30
0.0
 11
344.8516666667
 21
299.4322916667
 31
0.0
  0
LINE
  5
246
330
218
100
AcDbEntity
  8
DR200_000_00_new_view_1_BL4
  6
Continuous
 62
     3
100
AcDbLine
 10
417.2416666666999
 20
294.6322916667
 30
0.0
 11
345.0516666667
 21
294.6322916667
 31
0.0
  0
LINE
  5
247
330
218
100
AcDbEntity
  8
DR200_000_00_new_view_1_BL4
  6
Continuous
 62
     3
100
AcDbLine
 10
417.4416666666999
 20
287.4322916667
 30
0.0
 11
417.4416666666999
 21
282.8322916667
 31
0.0
  0
LINE
  5
248
330
218
100
AcDbEntity
  8
DR200_000_00_new_view_1_BL4
  6
Continuous
 62
     3
100
AcDbLine
 10
345.0516666667
 20
287.6322916667
 30
0.0
 11
417.2416666666999
 21
287.6322916667
 31
0.0
  0
LINE
  5
249
330
218
100
AcDbEntity
  8
DR200_000_00_new_view_1_BL4
  6
Continuous
 62
     3
100
AcDbLine
 10
344.8516666667
 20
282.8322916667
 30
0.0
 11
344.8516666667
 21
287.4322916667
 31
0.0
  0
LINE
  5
24A
330
218
100
AcDbEntity
  8
DR200_000_00_new_view_1_BL4
  6
Continuous
 62
     3
100
AcDbLine
 10
417.2416666666999
 20
282.6322916667
 30
0.0
 11
345.0516666667
 21
282.6322916667
 31
0.0
  0
LINE
  5
24B
330
218
100
AcDbEntity
  8
DR200_000_00_new_view_1_BL4
  6
Continuous
 62
     3
100
AcDbLine
 10
337.8516666667
 20
287.4322916667
 30
0.0
 11
337.8516666667
 21
282.8322916667
 31
0.0
  0
LINE
  5
24C
330
218
100
AcDbEntity
  8
DR200_000_00_new_view_1_BL4
  6
Continuous
 62
     3
100
AcDbLine
 10
316.0516666667
 20
287.6322916667
 30
0.0
 11
337.6516666667
 21
287.6322916667
 31
0.0
  0
LINE
  5
24D
330
218
100
AcDbEntity
  8
DR200_000_00_new_view_1_BL4
  6
Continuous
 62
     3
100
AcDbLine
 10
315.8516666667
 20
282.8322916667
 30
0.0
 11
315.8516666667
 21
287.4322916667
 31
0.0
  0
LINE
  5
24E
330
218
100
AcDbEntity
  8
DR200_000_00_new_view_1_BL4
  6
Continuous
 62
     3
100
AcDbLine
 10
337.6516666667
 20
282.6322916667
 30
0.0
 11
316.0516666667
 21
282.6322916667
 31
0.0
  0
LINE
  5
24F
330
218
100
AcDbEntity
  8
DR200_000_00_new_view_1_BL4
  6
Continuous
 62
     3
100
AcDbLine
 10
337.8516666667
 20
299.4322916667
 30
0.0
 11
337.8516666667
 21
294.8322916667
 31
0.0
  0
LINE
  5
250
330
218
100
AcDbEntity
  8
DR200_000_00_new_view_1_BL4
  6
Continuous
 62
     3
100
AcDbLine
 10
316.0516666667
 20
299.6322916667
 30
0.0
 11
337.6516666667
 21
299.6322916667
 31
0.0
  0
LINE
  5
251
330
218
100
AcDbEntity
  8
DR200_000_00_new_view_1_BL4
  6
Continuous
 62
     3
100
AcDbLine
 10
315.8516666667
 20
294.8322916667
 30
0.0
 11
315.8516666667
 21
299.4322916667
 31
0.0
  0
LINE
  5
252
330
218
100
AcDbEntity
  8
DR200_000_00_new_view_1_BL4
  6
Continuous
 62
     3
100
AcDbLine
 10
337.6516666667
 20
294.6322916667
 30
0.0
 11
316.0516666667
 21
294.6322916667
 31
0.0
  0
LINE
  5
253
330
218
100
AcDbEntity
  8
DR200_000_00_new_view_1_BL4
  6
Continuous
 62
     3
100
AcDbLine
 10
471.7416666666999
 20
311.4322916667
 30
0.0
 11
471.7416666666999
 21
306.8322916667
 31
0.0
  0
LINE
  5
254
330
218
100
AcDbEntity
  8
DR200_000_00_new_view_1_BL4
  6
Continuous
 62
     3
100
AcDbLine
 10
399.3516666667
 20
311.6322916667
 30
0.0
 11
471.5416666667
 21
311.6322916667
 31
0.0
  0
LINE
  5
255
330
218
100
AcDbEntity
  8
DR200_000_00_new_view_1_BL4
  6
Continuous
 62
     3
100
AcDbLine
 10
399.1516666667
 20
306.8322916667
 30
0.0
 11
399.1516666667
 21
311.4322916667
 31
0.0
  0
LINE
  5
256
330
218
100
AcDbEntity
  8
DR200_000_00_new_view_1_BL4
  6
Continuous
 62
     3
100
AcDbLine
 10
471.5416666667
 20
306.6322916667
 30
0.0
 11
399.3516666667
 21
306.6322916667
 31
0.0
  0
LINE
  5
257
330
218
100
AcDbEntity
  8
DR200_000_00_new_view_1_BL4
  6
Continuous
 62
     3
100
AcDbLine
 10
392.1516666667
 20
311.4322916667
 30
0.0
 11
392.1516666667
 21
306.8322916667
 31
0.0
  0
LINE
  5
258
330
218
100
AcDbEntity
  8
DR200_000_00_new_view_1_BL4
  6
Continuous
 62
     3
100
AcDbLine
 10
370.3516666667
 20
311.6322916667
 30
0.0
 11
391.9516666667
 21
311.6322916667
 31
0.0
  0
LINE
  5
259
330
218
100
AcDbEntity
  8
DR200_000_00_new_view_1_BL4
  6
Continuous
 62
     3
100
AcDbLine
 10
370.1516666667
 20
306.8322916667
 30
0.0
 11
370.1516666667
 21
311.4322916667
 31
0.0
  0
LINE
  5
25A
330
218
100
AcDbEntity
  8
DR200_000_00_new_view_1_BL4
  6
Continuous
 62
     3
100
AcDbLine
 10
391.9516666667
 20
306.6322916667
 30
0.0
 11
370.3516666667
 21
306.6322916667
 31
0.0
  0
LINE
  5
25B
330
218
100
AcDbEntity
  8
DR200_000_00_new_view_1_BL4
  6
Continuous
 62
     3
100
AcDbLine
 10
392.1516666667
 20
323.4322916667
 30
0.0
 11
392.1516666667
 21
318.8322916667
 31
0.0
  0
LINE
  5
25C
330
218
100
AcDbEntity
  8
DR200_000_00_new_view_1_BL4
  6
Continuous
 62
     3
100
AcDbLine
 10
370.3516666667
 20
323.6322916667
 30
0.0
 11
391.9516666667
 21
323.6322916667
 31
0.0
  0
LINE
  5
25D
330
218
100
AcDbEntity
  8
DR200_000_00_new_view_1_BL4
  6
Continuous
 62
     3
100
AcDbLine
 10
370.1516666667
 20
318.8322916667
 30
0.0
 11
370.1516666667
 21
323.4322916667
 31
0.0
  0
LINE
  5
25E
330
218
100
AcDbEntity
  8
DR200_000_00_new_view_1_BL4
  6
Continuous
 62
     3
100
AcDbLine
 10
391.9516666667
 20
318.6322916667
 30
0.0
 11
370.3516666667
 21
318.6322916667
 31
0.0
  0
LINE
  5
25F
330
218
100
AcDbEntity
  8
DR200_000_00_new_view_1_BL4
  6
Continuous
 62
     3
100
AcDbLine
 10
363.1516666667
 20
323.4322916667
 30
0.0
 11
363.1516666667
 21
318.8322916667
 31
0.0
  0
LINE
  5
260
330
218
100
AcDbEntity
  8
DR200_000_00_new_view_1_BL4
  6
Continuous
 62
     3
100
AcDbLine
 10
290.7616666667
 20
323.6322916667
 30
0.0
 11
362.9516666667
 21
323.6322916667
 31
0.0
  0
LINE
  5
261
330
218
100
AcDbEntity
  8
DR200_000_00_new_view_1_BL4
  6
Continuous
 62
     3
100
AcDbLine
 10
290.5616666667
 20
318.8322916667
 30
0.0
 11
290.5616666667
 21
323.4322916667
 31
0.0
  0
LINE
  5
262
330
218
100
AcDbEntity
  8
DR200_000_00_new_view_1_BL4
  6
Continuous
 62
     3
100
AcDbLine
 10
362.9516666667
 20
318.6322916667
 30
0.0
 11
290.7616666667
 21
318.6322916667
 31
0.0
  0
LINE
  5
263
330
218
100
AcDbEntity
  8
DR200_000_00_new_view_1_BL4
  6
Continuous
 62
     3
100
AcDbLine
 10
283.5616666667
 20
323.4322916667
 30
0.0
 11
283.5616666667
 21
318.8322916667
 31
0.0
  0
LINE
  5
264
330
218
100
AcDbEntity
  8
DR200_000_00_new_view_1_BL4
  6
Continuous
 62
     3
100
AcDbLine
 10
261.7616666667
 20
323.6322916667
 30
0.0
 11
283.3616666667
 21
323.6322916667
 31
0.0
  0
LINE
  5
265
330
218
100
AcDbEntity
  8
DR200_000_00_new_view_1_BL4
  6
Continuous
 62
     3
100
AcDbLine
 10
261.5616666667
 20
318.8322916667
 30
0.0
 11
261.5616666667
 21
323.4322916667
 31
0.0
  0
LINE
  5
266
330
218
100
AcDbEntity
  8
DR200_000_00_new_view_1_BL4
  6
Continuous
 62
     3
100
AcDbLine
 10
283.3616666667
 20
318.6322916667
 30
0.0
 11
261.7616666667
 21
318.6322916667
 31
0.0
  0
LINE
  5
267
330
218
100
AcDbEntity
  8
DR200_000_00_new_view_1_BL4
  6
Continuous
 62
     3
100
AcDbLine
 10
283.5616666667
 20
311.4322916667
 30
0.0
 11
283.5616666667
 21
306.8322916667
 31
0.0
  0
LINE
  5
268
330
218
100
AcDbEntity
  8
DR200_000_00_new_view_1_BL4
  6
Continuous
 62
     3
100
AcDbLine
 10
261.7616666667
 20
311.6322916667
 30
0.0
 11
283.3616666667
 21
311.6322916667
 31
0.0
  0
LINE
  5
269
330
218
100
AcDbEntity
  8
DR200_000_00_new_view_1_BL4
  6
Continuous
 62
     3
100
AcDbLine
 10
261.5616666667
 20
306.8322916667
 30
0.0
 11
261.5616666667
 21
311.4322916667
 31
0.0
  0
LINE
  5
26A
330
218
100
AcDbEntity
  8
DR200_000_00_new_view_1_BL4
  6
Continuous
 62
     3
100
AcDbLine
 10
283.3616666667
 20
306.6322916667
 30
0.0
 11
261.7616666667
 21
306.6322916667
 31
0.0
  0
LINE
  5
26B
330
218
100
AcDbEntity
  8
DR200_000_00_new_view_1_BL4
  6
Continuous
 62
     3
100
AcDbLine
 10
254.5616666667
 20
311.4322916667
 30
0.0
 11
254.5616666667
 21
306.8322916667
 31
0.0
  0
LINE
  5
26C
330
218
100
AcDbEntity
  8
DR200_000_00_new_view_1_BL4
  6
Continuous
 62
     3
100
AcDbLine
 10
182.1716666667
 20
311.6322916667
 30
0.0
 11
254.3616666667
 21
311.6322916667
 31
0.0
  0
LINE
  5
26D
330
218
100
AcDbEntity
  8
DR200_000_00_new_view_1_BL4
  6
Continuous
 62
     3
100
AcDbLine
 10
181.9716666667
 20
306.8322916667
 30
0.0
 11
181.9716666667
 21
311.4322916667
 31
0.0
  0
LINE
  5
26E
330
218
100
AcDbEntity
  8
DR200_000_00_new_view_1_BL4
  6
Continuous
 62
     3
100
AcDbLine
 10
254.3616666667
 20
306.6322916667
 30
0.0
 11
182.1716666667
 21
306.6322916667
 31
0.0
  0
LINE
  5
26F
330
218
100
AcDbEntity
  8
DR200_000_00_new_view_1_BL4
  6
Continuous
 62
     3
100
AcDbLine
 10
254.5616666667
 20
323.4322916667
 30
0.0
 11
254.5616666667
 21
318.8322916667
 31
0.0
  0
LINE
  5
270
330
218
100
AcDbEntity
  8
DR200_000_00_new_view_1_BL4
  6
Continuous
 62
     3
100
AcDbLine
 10
182.1716666667
 20
323.6322916667
 30
0.0
 11
254.3616666667
 21
323.6322916667
 31
0.0
  0
LINE
  5
271
330
218
100
AcDbEntity
  8
DR200_000_00_new_view_1_BL4
  6
Continuous
 62
     3
100
AcDbLine
 10
181.9716666667
 20
318.8322916667
 30
0.0
 11
181.9716666667
 21
323.4322916667
 31
0.0
  0
LINE
  5
272
330
218
100
AcDbEntity
  8
DR200_000_00_new_view_1_BL4
  6
Continuous
 62
     3
100
AcDbLine
 10
254.3616666667
 20
318.6322916667
 30
0.0
 11
182.1716666667
 21
318.6322916667
 31
0.0
  0
LINE
  5
273
330
218
100
AcDbEntity
  8
DR200_000_00_new_view_1_BL4
  6
Continuous
 62
     3
100
AcDbLine
 10
308.8516666667
 20
299.4322916667
 30
0.0
 11
308.8516666667
 21
294.8322916667
 31
0.0
  0
LINE
  5
274
330
218
100
AcDbEntity
  8
DR200_000_00_new_view_1_BL4
  6
Continuous
 62
     3
100
AcDbLine
 10
236.4616666667
 20
299.6322916667
 30
0.0
 11
308.6516666667
 21
299.6322916667
 31
0.0
  0
LINE
  5
275
330
218
100
AcDbEntity
  8
DR200_000_00_new_view_1_BL4
  6
Continuous
 62
     3
100
AcDbLine
 10
236.2616666667
 20
294.8322916667
 30
0.0
 11
236.2616666667
 21
299.4322916667
 31
0.0
  0
LINE
  5
276
330
218
100
AcDbEntity
  8
DR200_000_00_new_view_1_BL4
  6
Continuous
 62
     3
100
AcDbLine
 10
308.6516666667
 20
294.6322916667
 30
0.0
 11
236.4616666667
 21
294.6322916667
 31
0.0
  0
LINE
  5
277
330
218
100
AcDbEntity
  8
DR200_000_00_new_view_1_BL4
  6
Continuous
 62
     3
100
AcDbLine
 10
308.8516666667
 20
287.4322916667
 30
0.0
 11
308.8516666667
 21
282.8322916667
 31
0.0
  0
LINE
  5
278
330
218
100
AcDbEntity
  8
DR200_000_00_new_view_1_BL4
  6
Continuous
 62
     3
100
AcDbLine
 10
236.4616666667
 20
287.6322916667
 30
0.0
 11
308.6516666667
 21
287.6322916667
 31
0.0
  0
LINE
  5
279
330
218
100
AcDbEntity
  8
DR200_000_00_new_view_1_BL4
  6
Continuous
 62
     3
100
AcDbLine
 10
236.2616666667
 20
282.8322916667
 30
0.0
 11
236.2616666667
 21
287.4322916667
 31
0.0
  0
LINE
  5
27A
330
218
100
AcDbEntity
  8
DR200_000_00_new_view_1_BL4
  6
Continuous
 62
     3
100
AcDbLine
 10
308.6516666667
 20
282.6322916667
 30
0.0
 11
236.4616666667
 21
282.6322916667
 31
0.0
  0
LINE
  5
27B
330
218
100
AcDbEntity
  8
DR200_000_00_new_view_1_BL4
  6
Continuous
 62
     3
100
AcDbLine
 10
507.7416666667
 20
318.8322916667
 30
0.0
 11
507.7416666667
 21
323.4322916667
 31
0.0
  0
LINE
  5
27C
330
218
100
AcDbEntity
  8
DR200_000_00_new_view_1_BL4
  6
Continuous
 62
     3
100
AcDbLine
 10
554.5916666666999
 20
318.6322916667
 30
0.0
 11
507.9416666666999
 21
318.6322916667
 31
0.0
  0
LINE
  5
27D
330
218
100
AcDbEntity
  8
DR200_000_00_new_view_1_BL4
  6
Continuous
 62
     3
100
AcDbLine
 10
554.7916666666999
 20
323.4322916667
 30
0.0
 11
554.7916666666999
 21
318.8322916667
 31
0.0
  0
LINE
  5
27E
330
218
100
AcDbEntity
  8
DR200_000_00_new_view_1_BL4
  6
Continuous
 62
     3
100
AcDbLine
 10
507.9416666666999
 20
323.6322916667
 30
0.0
 11
554.5916666666999
 21
323.6322916667
 31
0.0
  0
LINE
  5
27F
330
218
100
AcDbEntity
  8
DR200_000_00_new_view_1_BL4
  6
Continuous
 62
     3
100
AcDbLine
 10
507.7416666667
 20
306.8322916667
 30
0.0
 11
507.7416666667
 21
311.4322916667
 31
0.0
  0
LINE
  5
280
330
218
100
AcDbEntity
  8
DR200_000_00_new_view_1_BL4
  6
Continuous
 62
     3
100
AcDbLine
 10
554.5916666666999
 20
306.6322916667
 30
0.0
 11
507.9416666666999
 21
306.6322916667
 31
0.0
  0
LINE
  5
281
330
218
100
AcDbEntity
  8
DR200_000_00_new_view_1_BL4
  6
Continuous
 62
     3
100
AcDbLine
 10
554.7916666666999
 20
311.4322916667
 30
0.0
 11
554.7916666666999
 21
306.8322916667
 31
0.0
  0
LINE
  5
282
330
218
100
AcDbEntity
  8
DR200_000_00_new_view_1_BL4
  6
Continuous
 62
     3
100
AcDbLine
 10
507.9416666666999
 20
311.6322916667
 30
0.0
 11
554.5916666666999
 21
311.6322916667
 31
0.0
  0
LINE
  5
283
330
218
100
AcDbEntity
  8
DR200_000_00_new_view_1_BL4
  6
Continuous
 62
     3
100
AcDbLine
 10
500.7416666666999
 20
311.4322916667
 30
0.0
 11
500.7416666666999
 21
306.8322916667
 31
0.0
  0
LINE
  5
284
330
218
100
AcDbEntity
  8
DR200_000_00_new_view_1_BL4
  6
Continuous
 62
     3
100
AcDbLine
 10
478.9416666666999
 20
311.6322916667
 30
0.0
 11
500.5416666667
 21
311.6322916667
 31
0.0
  0
LINE
  5
285
330
218
100
AcDbEntity
  8
DR200_000_00_new_view_1_BL4
  6
Continuous
 62
     3
100
AcDbLine
 10
478.7416666667
 20
306.8322916667
 30
0.0
 11
478.7416666667
 21
311.4322916667
 31
0.0
  0
LINE
  5
286
330
218
100
AcDbEntity
  8
DR200_000_00_new_view_1_BL4
  6
Continuous
 62
     3
100
AcDbLine
 10
500.5416666667
 20
306.6322916667
 30
0.0
 11
478.9416666666999
 21
306.6322916667
 31
0.0
  0
LINE
  5
287
330
218
100
AcDbEntity
  8
DR200_000_00_new_view_1_BL4
  6
Continuous
 62
     3
100
AcDbLine
 10
500.7416666666999
 20
323.4322916667
 30
0.0
 11
500.7416666666999
 21
318.8322916667
 31
0.0
  0
LINE
  5
288
330
218
100
AcDbEntity
  8
DR200_000_00_new_view_1_BL4
  6
Continuous
 62
     3
100
AcDbLine
 10
478.9416666666999
 20
323.6322916667
 30
0.0
 11
500.5416666667
 21
323.6322916667
 31
0.0
  0
LINE
  5
289
330
218
100
AcDbEntity
  8
DR200_000_00_new_view_1_BL4
  6
Continuous
 62
     3
100
AcDbLine
 10
478.7416666667
 20
318.8322916667
 30
0.0
 11
478.7416666667
 21
323.4322916667
 31
0.0
  0
LINE
  5
28A
330
218
100
AcDbEntity
  8
DR200_000_00_new_view_1_BL4
  6
Continuous
 62
     3
100
AcDbLine
 10
500.5416666667
 20
318.6322916667
 30
0.0
 11
478.9416666666999
 21
318.6322916667
 31
0.0
  0
LINE
  5
28B
330
218
100
AcDbEntity
  8
DR200_000_00_new_view_1_BL4
  6
Continuous
 62
     3
100
AcDbLine
 10
526.0316666666999
 20
287.4322916667
 30
0.0
 11
526.0316666666999
 21
282.8322916667
 31
0.0
  0
LINE
  5
28C
330
218
100
AcDbEntity
  8
DR200_000_00_new_view_1_BL4
  6
Continuous
 62
     3
100
AcDbLine
 10
453.6416666666999
 20
287.6322916667
 30
0.0
 11
525.8316666667
 21
287.6322916667
 31
0.0
  0
LINE
  5
28D
330
218
100
AcDbEntity
  8
DR200_000_00_new_view_1_BL4
  6
Continuous
 62
     3
100
AcDbLine
 10
453.4416666667
 20
282.8322916667
 30
0.0
 11
453.4416666667
 21
287.4322916667
 31
0.0
  0
LINE
  5
28E
330
218
100
AcDbEntity
  8
DR200_000_00_new_view_1_BL4
  6
Continuous
 62
     3
100
AcDbLine
 10
525.8316666667
 20
282.6322916667
 30
0.0
 11
453.6416666666999
 21
282.6322916667
 31
0.0
  0
LINE
  5
28F
330
218
100
AcDbEntity
  8
DR200_000_00_new_view_1_BL4
  6
Continuous
 62
     3
100
AcDbLine
 10
526.0316666666999
 20
299.4322916667
 30
0.0
 11
526.0316666666999
 21
294.8322916667
 31
0.0
  0
LINE
  5
290
330
218
100
AcDbEntity
  8
DR200_000_00_new_view_1_BL4
  6
Continuous
 62
     3
100
AcDbLine
 10
453.6416666666999
 20
299.6322916667
 30
0.0
 11
525.8316666667
 21
299.6322916667
 31
0.0
  0
LINE
  5
291
330
218
100
AcDbEntity
  8
DR200_000_00_new_view_1_BL4
  6
Continuous
 62
     3
100
AcDbLine
 10
453.4416666667
 20
294.8322916667
 30
0.0
 11
453.4416666667
 21
299.4322916667
 31
0.0
  0
LINE
  5
292
330
218
100
AcDbEntity
  8
DR200_000_00_new_view_1_BL4
  6
Continuous
 62
     3
100
AcDbLine
 10
525.8316666667
 20
294.6322916667
 30
0.0
 11
453.6416666666999
 21
294.6322916667
 31
0.0
  0
LINE
  5
293
330
218
100
AcDbEntity
  8
DR200_000_00_new_view_1_BL4
  6
Continuous
 62
     3
100
AcDbLine
 10
533.0316666666999
 20
294.8322916667
 30
0.0
 11
533.0316666666999
 21
299.4322916667
 31
0.0
  0
LINE
  5
294
330
218
100
AcDbEntity
  8
DR200_000_00_new_view_1_BL4
  6
Continuous
 62
     3
100
AcDbLine
 10
554.5916666666999
 20
294.6322916667
 30
0.0
 11
533.2316666667
 21
294.6322916667
 31
0.0
  0
LINE
  5
295
330
218
100
AcDbEntity
  8
DR200_000_00_new_view_1_BL4
  6
Continuous
 62
     3
100
AcDbLine
 10
554.7916666666999
 20
299.4322916667
 30
0.0
 11
554.7916666666999
 21
294.8322916667
 31
0.0
  0
LINE
  5
296
330
218
100
AcDbEntity
  8
DR200_000_00_new_view_1_BL4
  6
Continuous
 62
     3
100
AcDbLine
 10
533.2316666667
 20
299.6322916667
 30
0.0
 11
554.5916666666999
 21
299.6322916667
 31
0.0
  0
LINE
  5
297
330
218
100
AcDbEntity
  8
DR200_000_00_new_view_1_BL4
  6
Continuous
 62
     3
100
AcDbLine
 10
446.4416666666999
 20
299.4322916667
 30
0.0
 11
446.4416666666999
 21
294.8322916667
 31
0.0
  0
LINE
  5
298
330
218
100
AcDbEntity
  8
DR200_000_00_new_view_1_BL4
  6
Continuous
 62
     3
100
AcDbLine
 10
424.6416666666999
 20
299.6322916667
 30
0.0
 11
446.2416666666999
 21
299.6322916667
 31
0.0
  0
LINE
  5
299
330
218
100
AcDbEntity
  8
DR200_000_00_new_view_1_BL4
  6
Continuous
 62
     3
100
AcDbLine
 10
424.4416666667
 20
294.8322916667
 30
0.0
 11
424.4416666667
 21
299.4322916667
 31
0.0
  0
LINE
  5
29A
330
218
100
AcDbEntity
  8
DR200_000_00_new_view_1_BL4
  6
Continuous
 62
     3
100
AcDbLine
 10
446.2416666666999
 20
294.6322916667
 30
0.0
 11
424.6416666666999
 21
294.6322916667
 31
0.0
  0
LINE
  5
29B
330
218
100
AcDbEntity
  8
DR200_000_00_new_view_1_BL4
  6
Continuous
 62
     3
100
AcDbLine
 10
446.4416666666999
 20
287.4322916667
 30
0.0
 11
446.4416666666999
 21
282.8322916667
 31
0.0
  0
LINE
  5
29C
330
218
100
AcDbEntity
  8
DR200_000_00_new_view_1_BL4
  6
Continuous
 62
     3
100
AcDbLine
 10
424.6416666666999
 20
287.6322916667
 30
0.0
 11
446.2416666666999
 21
287.6322916667
 31
0.0
  0
LINE
  5
29D
330
218
100
AcDbEntity
  8
DR200_000_00_new_view_1_BL4
  6
Continuous
 62
     3
100
AcDbLine
 10
424.4416666667
 20
282.8322916667
 30
0.0
 11
424.4416666667
 21
287.4322916667
 31
0.0
  0
LINE
  5
29E
330
218
100
AcDbEntity
  8
DR200_000_00_new_view_1_BL4
  6
Continuous
 62
     3
100
AcDbLine
 10
446.2416666666999
 20
282.6322916667
 30
0.0
 11
424.6416666666999
 21
282.6322916667
 31
0.0
  0
LINE
  5
29F
330
218
100
AcDbEntity
  8
DR200_000_00_new_view_1_BL4
  6
Continuous
 62
     3
100
AcDbLine
 10
471.7416666666999
 20
323.4322916667
 30
0.0
 11
471.7416666666999
 21
318.8322916667
 31
0.0
  0
LINE
  5
2A0
330
218
100
AcDbEntity
  8
DR200_000_00_new_view_1_BL4
  6
Continuous
 62
     3
100
AcDbLine
 10
399.3516666667
 20
323.6322916667
 30
0.0
 11
471.5416666667
 21
323.6322916667
 31
0.0
  0
LINE
  5
2A1
330
218
100
AcDbEntity
  8
DR200_000_00_new_view_1_BL4
  6
Continuous
 62
     3
100
AcDbLine
 10
399.1516666667
 20
318.8322916667
 30
0.0
 11
399.1516666667
 21
323.4322916667
 31
0.0
  0
LINE
  5
2A2
330
218
100
AcDbEntity
  8
DR200_000_00_new_view_1_BL4
  6
Continuous
 62
     3
100
AcDbLine
 10
471.5416666667
 20
318.6322916667
 30
0.0
 11
399.3516666667
 21
318.6322916667
 31
0.0
  0
LINE
  5
2A3
330
218
100
AcDbEntity
  8
DR200_000_00_new_view_1_BL4
  6
Continuous
 62
     3
100
AcDbLine
 10
12.0816666667
 20
287.4322916667
 30
0.0
 11
12.0816666667
 21
282.8322916667
 31
0.0
  0
LINE
  5
2A4
330
218
100
AcDbEntity
  8
DR200_000_00_new_view_1_BL4
  6
Continuous
 62
     3
100
AcDbLine
 10
-9.7183333333
 20
287.6322916667
 30
0.0
 11
11.8816666667
 21
287.6322916667
 31
0.0
  0
LINE
  5
2A5
330
218
100
AcDbEntity
  8
DR200_000_00_new_view_1_BL4
  6
Continuous
 62
     3
100
AcDbLine
 10
-9.918333333299999
 20
282.8322916667
 30
0.0
 11
-9.918333333299999
 21
287.4322916667
 31
0.0
  0
LINE
  5
2A6
330
218
100
AcDbEntity
  8
DR200_000_00_new_view_1_BL4
  6
Continuous
 62
     3
100
AcDbLine
 10
11.8816666667
 20
282.6322916667
 30
0.0
 11
-9.7183333333
 21
282.6322916667
 31
0.0
  0
LINE
  5
2A7
330
218
100
AcDbEntity
  8
DR200_000_00_new_view_1_BL4
  6
Continuous
 62
     3
100
AcDbLine
 10
12.0816666667
 20
299.4322916667
 30
0.0
 11
12.0816666667
 21
294.8322916667
 31
0.0
  0
LINE
  5
2A8
330
218
100
AcDbEntity
  8
DR200_000_00_new_view_1_BL4
  6
Continuous
 62
     3
100
AcDbLine
 10
-9.7183333333
 20
299.6322916667
 30
0.0
 11
11.8816666667
 21
299.6322916667
 31
0.0
  0
LINE
  5
2A9
330
218
100
AcDbEntity
  8
DR200_000_00_new_view_1_BL4
  6
Continuous
 62
     3
100
AcDbLine
 10
-9.918333333299999
 20
294.8322916667
 30
0.0
 11
-9.918333333299999
 21
299.4322916667
 31
0.0
  0
LINE
  5
2AA
330
218
100
AcDbEntity
  8
DR200_000_00_new_view_1_BL4
  6
Continuous
 62
     3
100
AcDbLine
 10
11.8816666667
 20
294.6322916667
 30
0.0
 11
-9.7183333333
 21
294.6322916667
 31
0.0
  0
LINE
  5
2AB
330
218
100
AcDbEntity
  8
DR200_000_00_new_view_1_BL4
  6
Continuous
 62
     3
100
AcDbLine
 10
-16.9183333333
 20
287.4322916667
 30
0.0
 11
-16.9183333333
 21
282.8322916667
 31
0.0
  0
LINE
  5
2AC
330
218
100
AcDbEntity
  8
DR200_000_00_new_view_1_BL4
  6
Continuous
 62
     3
100
AcDbLine
 10
-64.0083333333
 20
287.6322916667
 30
0.0
 11
-17.1183333333
 21
287.6322916667
 31
0.0
  0
LINE
  5
2AD
330
218
100
AcDbEntity
  8
DR200_000_00_new_view_1_BL4
  6
Continuous
 62
     3
100
AcDbLine
 10
-64.2083333333
 20
282.8322916667
 30
0.0
 11
-64.2083333333
 21
287.4322916667
 31
0.0
  0
LINE
  5
2AE
330
218
100
AcDbEntity
  8
DR200_000_00_new_view_1_BL4
  6
Continuous
 62
     3
100
AcDbLine
 10
-17.1183333333
 20
282.6322916667
 30
0.0
 11
-64.0083333333
 21
282.6322916667
 31
0.0
  0
LINE
  5
2AF
330
218
100
AcDbEntity
  8
DR200_000_00_new_view_1_BL4
  6
Continuous
 62
     3
100
AcDbLine
 10
-16.9183333333
 20
299.4322916667
 30
0.0
 11
-16.9183333333
 21
294.8322916667
 31
0.0
  0
LINE
  5
2B0
330
218
100
AcDbEntity
  8
DR200_000_00_new_view_1_BL4
  6
Continuous
 62
     3
100
AcDbLine
 10
-64.0083333333
 20
299.6322916667
 30
0.0
 11
-17.1183333333
 21
299.6322916667
 31
0.0
  0
LINE
  5
2B1
330
218
100
AcDbEntity
  8
DR200_000_00_new_view_1_BL4
  6
Continuous
 62
     3
100
AcDbLine
 10
-64.2083333333
 20
294.8322916667
 30
0.0
 11
-64.2083333333
 21
299.4322916667
 31
0.0
  0
LINE
  5
2B2
330
218
100
AcDbEntity
  8
DR200_000_00_new_view_1_BL4
  6
Continuous
 62
     3
100
AcDbLine
 10
-17.1183333333
 20
294.6322916667
 30
0.0
 11
-64.0083333333
 21
294.6322916667
 31
0.0
  0
LINE
  5
2B3
330
218
100
AcDbEntity
  8
DR200_000_00_new_view_1_BL4
  6
Continuous
 62
     3
100
AcDbLine
 10
145.9716666667
 20
323.4322916667
 30
0.0
 11
145.9716666667
 21
318.8322916667
 31
0.0
  0
LINE
  5
2B4
330
218
100
AcDbEntity
  8
DR200_000_00_new_view_1_BL4
  6
Continuous
 62
     3
100
AcDbLine
 10
73.5816666667
 20
323.6322916667
 30
0.0
 11
145.7716666667
 21
323.6322916667
 31
0.0
  0
LINE
  5
2B5
330
218
100
AcDbEntity
  8
DR200_000_00_new_view_1_BL4
  6
Continuous
 62
     3
100
AcDbLine
 10
73.3816666667
 20
318.8322916667
 30
0.0
 11
73.3816666667
 21
323.4322916667
 31
0.0
  0
LINE
  5
2B6
330
218
100
AcDbEntity
  8
DR200_000_00_new_view_1_BL4
  6
Continuous
 62
     3
100
AcDbLine
 10
145.7716666667
 20
318.6322916667
 30
0.0
 11
73.5816666667
 21
318.6322916667
 31
0.0
  0
LINE
  5
2B7
330
218
100
AcDbEntity
  8
DR200_000_00_new_view_1_BL4
  6
Continuous
 62
     3
100
AcDbLine
 10
145.9716666667
 20
311.4322916667
 30
0.0
 11
145.9716666667
 21
306.8322916667
 31
0.0
  0
LINE
  5
2B8
330
218
100
AcDbEntity
  8
DR200_000_00_new_view_1_BL4
  6
Continuous
 62
     3
100
AcDbLine
 10
73.5816666667
 20
311.6322916667
 30
0.0
 11
145.7716666667
 21
311.6322916667
 31
0.0
  0
LINE
  5
2B9
330
218
100
AcDbEntity
  8
DR200_000_00_new_view_1_BL4
  6
Continuous
 62
     3
100
AcDbLine
 10
73.3816666667
 20
306.8322916667
 30
0.0
 11
73.3816666667
 21
311.4322916667
 31
0.0
  0
LINE
  5
2BA
330
218
100
AcDbEntity
  8
DR200_000_00_new_view_1_BL4
  6
Continuous
 62
     3
100
AcDbLine
 10
145.7716666667
 20
306.6322916667
 30
0.0
 11
73.5816666667
 21
306.6322916667
 31
0.0
  0
LINE
  5
2BB
330
218
100
AcDbEntity
  8
DR200_000_00_new_view_1_BL4
  6
Continuous
 62
     3
100
AcDbLine
 10
66.3816666667
 20
311.4322916667
 30
0.0
 11
66.3816666667
 21
306.8322916667
 31
0.0
  0
LINE
  5
2BC
330
218
100
AcDbEntity
  8
DR200_000_00_new_view_1_BL4
  6
Continuous
 62
     3
100
AcDbLine
 10
44.5816666667
 20
311.6322916667
 30
0.0
 11
66.18166666669999
 21
311.6322916667
 31
0.0
  0
LINE
  5
2BD
330
218
100
AcDbEntity
  8
DR200_000_00_new_view_1_BL4
  6
Continuous
 62
     3
100
AcDbLine
 10
44.38166666669999
 20
306.8322916667
 30
0.0
 11
44.38166666669999
 21
311.4322916667
 31
0.0
  0
LINE
  5
2BE
330
218
100
AcDbEntity
  8
DR200_000_00_new_view_1_BL4
  6
Continuous
 62
     3
100
AcDbLine
 10
66.18166666669999
 20
306.6322916667
 30
0.0
 11
44.5816666667
 21
306.6322916667
 31
0.0
  0
LINE
  5
2BF
330
218
100
AcDbEntity
  8
DR200_000_00_new_view_1_BL4
  6
Continuous
 62
     3
100
AcDbLine
 10
66.3816666667
 20
323.4322916667
 30
0.0
 11
66.3816666667
 21
318.8322916667
 31
0.0
  0
LINE
  5
2C0
330
218
100
AcDbEntity
  8
DR200_000_00_new_view_1_BL4
  6
Continuous
 62
     3
100
AcDbLine
 10
44.5816666667
 20
323.6322916667
 30
0.0
 11
66.18166666669999
 21
323.6322916667
 31
0.0
  0
LINE
  5
2C1
330
218
100
AcDbEntity
  8
DR200_000_00_new_view_1_BL4
  6
Continuous
 62
     3
100
AcDbLine
 10
44.38166666669999
 20
318.8322916667
 30
0.0
 11
44.38166666669999
 21
323.4322916667
 31
0.0
  0
LINE
  5
2C2
330
218
100
AcDbEntity
  8
DR200_000_00_new_view_1_BL4
  6
Continuous
 62
     3
100
AcDbLine
 10
66.18166666669999
 20
318.6322916667
 30
0.0
 11
44.5816666667
 21
318.6322916667
 31
0.0
  0
LINE
  5
2C3
330
218
100
AcDbEntity
  8
DR200_000_00_new_view_1_BL4
  6
Continuous
 62
     3
100
AcDbLine
 10
91.6716666667
 20
287.4322916667
 30
0.0
 11
91.6716666667
 21
282.8322916667
 31
0.0
  0
LINE
  5
2C4
330
218
100
AcDbEntity
  8
DR200_000_00_new_view_1_BL4
  6
Continuous
 62
     3
100
AcDbLine
 10
19.2816666667
 20
287.6322916667
 30
0.0
 11
91.47166666670001
 21
287.6322916667
 31
0.0
  0
LINE
  5
2C5
330
218
100
AcDbEntity
  8
DR200_000_00_new_view_1_BL4
  6
Continuous
 62
     3
100
AcDbLine
 10
19.0816666667
 20
282.8322916667
 30
0.0
 11
19.0816666667
 21
287.4322916667
 31
0.0
  0
LINE
  5
2C6
330
218
100
AcDbEntity
  8
DR200_000_00_new_view_1_BL4
  6
Continuous
 62
     3
100
AcDbLine
 10
91.47166666670001
 20
282.6322916667
 30
0.0
 11
19.2816666667
 21
282.6322916667
 31
0.0
  0
LINE
  5
2C7
330
218
100
AcDbEntity
  8
DR200_000_00_new_view_1_BL4
  6
Continuous
 62
     3
100
AcDbLine
 10
91.6716666667
 20
299.4322916667
 30
0.0
 11
91.6716666667
 21
294.8322916667
 31
0.0
  0
LINE
  5
2C8
330
218
100
AcDbEntity
  8
DR200_000_00_new_view_1_BL4
  6
Continuous
 62
     3
100
AcDbLine
 10
19.2816666667
 20
299.6322916667
 30
0.0
 11
91.47166666670001
 21
299.6322916667
 31
0.0
  0
LINE
  5
2C9
330
218
100
AcDbEntity
  8
DR200_000_00_new_view_1_BL4
  6
Continuous
 62
     3
100
AcDbLine
 10
19.0816666667
 20
294.8322916667
 30
0.0
 11
19.0816666667
 21
299.4322916667
 31
0.0
  0
LINE
  5
2CA
330
218
100
AcDbEntity
  8
DR200_000_00_new_view_1_BL4
  6
Continuous
 62
     3
100
AcDbLine
 10
91.47166666670001
 20
294.6322916667
 30
0.0
 11
19.2816666667
 21
294.6322916667
 31
0.0
  0
LINE
  5
2CB
330
218
100
AcDbEntity
  8
DR200_000_00_new_view_1_BL4
  6
Continuous
 62
     3
100
AcDbLine
 10
37.3816666667
 20
311.4322916667
 30
0.0
 11
37.3816666667
 21
306.8322916667
 31
0.0
  0
LINE
  5
2CC
330
218
100
AcDbEntity
  8
DR200_000_00_new_view_1_BL4
  6
Continuous
 62
     3
100
AcDbLine
 10
-35.0083333333
 20
311.6322916667
 30
0.0
 11
37.18166666670001
 21
311.6322916667
 31
0.0
  0
LINE
  5
2CD
330
218
100
AcDbEntity
  8
DR200_000_00_new_view_1_BL4
  6
Continuous
 62
     3
100
AcDbLine
 10
-35.2083333333
 20
306.8322916667
 30
0.0
 11
-35.2083333333
 21
311.4322916667
 31
0.0
  0
LINE
  5
2CE
330
218
100
AcDbEntity
  8
DR200_000_00_new_view_1_BL4
  6
Continuous
 62
     3
100
AcDbLine
 10
37.18166666670001
 20
306.6322916667
 30
0.0
 11
-35.0083333333
 21
306.6322916667
 31
0.0
  0
LINE
  5
2CF
330
218
100
AcDbEntity
  8
DR200_000_00_new_view_1_BL4
  6
Continuous
 62
     3
100
AcDbLine
 10
37.3816666667
 20
323.4322916667
 30
0.0
 11
37.3816666667
 21
318.8322916667
 31
0.0
  0
LINE
  5
2D0
330
218
100
AcDbEntity
  8
DR200_000_00_new_view_1_BL4
  6
Continuous
 62
     3
100
AcDbLine
 10
-35.0083333333
 20
323.6322916667
 30
0.0
 11
37.18166666670001
 21
323.6322916667
 31
0.0
  0
LINE
  5
2D1
330
218
100
AcDbEntity
  8
DR200_000_00_new_view_1_BL4
  6
Continuous
 62
     3
100
AcDbLine
 10
-35.2083333333
 20
318.8322916667
 30
0.0
 11
-35.2083333333
 21
323.4322916667
 31
0.0
  0
LINE
  5
2D2
330
218
100
AcDbEntity
  8
DR200_000_00_new_view_1_BL4
  6
Continuous
 62
     3
100
AcDbLine
 10
37.18166666670001
 20
318.6322916667
 30
0.0
 11
-35.0083333333
 21
318.6322916667
 31
0.0
  0
LINE
  5
2D3
330
218
100
AcDbEntity
  8
DR200_000_00_new_view_1_BL4
  6
Continuous
 62
     3
100
AcDbLine
 10
-42.20833333329999
 20
311.4322916667
 30
0.0
 11
-42.20833333329999
 21
306.8322916667
 31
0.0
  0
LINE
  5
2D4
330
218
100
AcDbEntity
  8
DR200_000_00_new_view_1_BL4
  6
Continuous
 62
     3
100
AcDbLine
 10
-64.0083333333
 20
311.6322916667
 30
0.0
 11
-42.4083333333
 21
311.6322916667
 31
0.0
  0
LINE
  5
2D5
330
218
100
AcDbEntity
  8
DR200_000_00_new_view_1_BL4
  6
Continuous
 62
     3
100
AcDbLine
 10
-64.2083333333
 20
306.8322916667
 30
0.0
 11
-64.2083333333
 21
311.4322916667
 31
0.0
  0
LINE
  5
2D6
330
218
100
AcDbEntity
  8
DR200_000_00_new_view_1_BL4
  6
Continuous
 62
     3
100
AcDbLine
 10
-42.4083333333
 20
306.6322916667
 30
0.0
 11
-64.0083333333
 21
306.6322916667
 31
0.0
  0
LINE
  5
2D7
330
218
100
AcDbEntity
  8
DR200_000_00_new_view_1_BL4
  6
Continuous
 62
     3
100
AcDbLine
 10
-42.4083333333
 20
318.6322916667
 30
0.0
 11
-64.0083333333
 21
318.6322916667
 31
0.0
  0
LINE
  5
2D8
330
218
100
AcDbEntity
  8
DR200_000_00_new_view_1_BL4
  6
Continuous
 62
     3
100
AcDbLine
 10
-42.20833333329999
 20
323.4322916667
 30
0.0
 11
-42.20833333329999
 21
318.8322916667
 31
0.0
  0
LINE
  5
2D9
330
218
100
AcDbEntity
  8
DR200_000_00_new_view_1_BL4
  6
Continuous
 62
     3
100
AcDbLine
 10
-64.0083333333
 20
323.6322916667
 30
0.0
 11
-42.4083333333
 21
323.6322916667
 31
0.0
  0
LINE
  5
2DA
330
218
100
AcDbEntity
  8
DR200_000_00_new_view_1_BL4
  6
Continuous
 62
     3
100
AcDbLine
 10
-64.2083333333
 20
318.8322916667
 30
0.0
 11
-64.2083333333
 21
323.4322916667
 31
0.0
  0
LINE
  5
2DB
330
218
100
AcDbEntity
  8
DR200_000_00_new_view_1_BL4
  6
Continuous
 62
     3
100
AcDbLine
 10
200.2616666667
 20
299.4322916667
 30
0.0
 11
200.2616666667
 21
294.8322916667
 31
0.0
  0
LINE
  5
2DC
330
218
100
AcDbEntity
  8
DR200_000_00_new_view_1_BL4
  6
Continuous
 62
     3
100
AcDbLine
 10
127.8716666667
 20
299.6322916667
 30
0.0
 11
200.0616666667
 21
299.6322916667
 31
0.0
  0
LINE
  5
2DD
330
218
100
AcDbEntity
  8
DR200_000_00_new_view_1_BL4
  6
Continuous
 62
     3
100
AcDbLine
 10
127.6716666667
 20
294.8322916667
 30
0.0
 11
127.6716666667
 21
299.4322916667
 31
0.0
  0
LINE
  5
2DE
330
218
100
AcDbEntity
  8
DR200_000_00_new_view_1_BL4
  6
Continuous
 62
     3
100
AcDbLine
 10
200.0616666667
 20
294.6322916667
 30
0.0
 11
127.8716666667
 21
294.6322916667
 31
0.0
  0
LINE
  5
2DF
330
218
100
AcDbEntity
  8
DR200_000_00_new_view_1_BL4
  6
Continuous
 62
     3
100
AcDbLine
 10
174.9716666667
 20
311.4322916667
 30
0.0
 11
174.9716666667
 21
306.8322916667
 31
0.0
  0
LINE
  5
2E0
330
218
100
AcDbEntity
  8
DR200_000_00_new_view_1_BL4
  6
Continuous
 62
     3
100
AcDbLine
 10
153.1716666667
 20
311.6322916667
 30
0.0
 11
174.7716666667
 21
311.6322916667
 31
0.0
  0
LINE
  5
2E1
330
218
100
AcDbEntity
  8
DR200_000_00_new_view_1_BL4
  6
Continuous
 62
     3
100
AcDbLine
 10
152.9716666667
 20
306.8322916667
 30
0.0
 11
152.9716666667
 21
311.4322916667
 31
0.0
  0
LINE
  5
2E2
330
218
100
AcDbEntity
  8
DR200_000_00_new_view_1_BL4
  6
Continuous
 62
     3
100
AcDbLine
 10
174.7716666667
 20
306.6322916667
 30
0.0
 11
153.1716666667
 21
306.6322916667
 31
0.0
  0
LINE
  5
2E3
330
218
100
AcDbEntity
  8
DR200_000_00_new_view_1_BL4
  6
Continuous
 62
     3
100
AcDbLine
 10
174.9716666667
 20
323.4322916667
 30
0.0
 11
174.9716666667
 21
318.8322916667
 31
0.0
  0
LINE
  5
2E4
330
218
100
AcDbEntity
  8
DR200_000_00_new_view_1_BL4
  6
Continuous
 62
     3
100
AcDbLine
 10
153.1716666667
 20
323.6322916667
 30
0.0
 11
174.7716666667
 21
323.6322916667
 31
0.0
  0
LINE
  5
2E5
330
218
100
AcDbEntity
  8
DR200_000_00_new_view_1_BL4
  6
Continuous
 62
     3
100
AcDbLine
 10
152.9716666667
 20
318.8322916667
 30
0.0
 11
152.9716666667
 21
323.4322916667
 31
0.0
  0
LINE
  5
2E6
330
218
100
AcDbEntity
  8
DR200_000_00_new_view_1_BL4
  6
Continuous
 62
     3
100
AcDbLine
 10
174.7716666667
 20
318.6322916667
 30
0.0
 11
153.1716666667
 21
318.6322916667
 31
0.0
  0
LINE
  5
2E7
330
218
100
AcDbEntity
  8
DR200_000_00_new_view_1_BL4
  6
Continuous
 62
     3
100
AcDbLine
 10
200.2616666667
 20
287.4322916667
 30
0.0
 11
200.2616666667
 21
282.8322916667
 31
0.0
  0
LINE
  5
2E8
330
218
100
AcDbEntity
  8
DR200_000_00_new_view_1_BL4
  6
Continuous
 62
     3
100
AcDbLine
 10
127.8716666667
 20
287.6322916667
 30
0.0
 11
200.0616666667
 21
287.6322916667
 31
0.0
  0
LINE
  5
2E9
330
218
100
AcDbEntity
  8
DR200_000_00_new_view_1_BL4
  6
Continuous
 62
     3
100
AcDbLine
 10
127.6716666667
 20
282.8322916667
 30
0.0
 11
127.6716666667
 21
287.4322916667
 31
0.0
  0
LINE
  5
2EA
330
218
100
AcDbEntity
  8
DR200_000_00_new_view_1_BL4
  6
Continuous
 62
     3
100
AcDbLine
 10
200.0616666667
 20
282.6322916667
 30
0.0
 11
127.8716666667
 21
282.6322916667
 31
0.0
  0
LINE
  5
2EB
330
218
100
AcDbEntity
  8
DR200_000_00_new_view_1_BL4
  6
Continuous
 62
     3
100
AcDbLine
 10
207.4616666667
 20
287.6322916667
 30
0.0
 11
229.0616666667
 21
287.6322916667
 31
0.0
  0
LINE
  5
2EC
330
218
100
AcDbEntity
  8
DR200_000_00_new_view_1_BL4
  6
Continuous
 62
     3
100
AcDbLine
 10
207.2616666667
 20
282.8322916667
 30
0.0
 11
207.2616666667
 21
287.4322916667
 31
0.0
  0
LINE
  5
2ED
330
218
100
AcDbEntity
  8
DR200_000_00_new_view_1_BL4
  6
Continuous
 62
     3
100
AcDbLine
 10
229.0616666667
 20
282.6322916667
 30
0.0
 11
207.4616666667
 21
282.6322916667
 31
0.0
  0
LINE
  5
2EE
330
218
100
AcDbEntity
  8
DR200_000_00_new_view_1_BL4
  6
Continuous
 62
     3
100
AcDbLine
 10
229.2616666667
 20
287.4322916667
 30
0.0
 11
229.2616666667
 21
282.8322916667
 31
0.0
  0
LINE
  5
2EF
330
218
100
AcDbEntity
  8
DR200_000_00_new_view_1_BL4
  6
Continuous
 62
     3
100
AcDbLine
 10
207.4616666667
 20
299.6322916667
 30
0.0
 11
229.0616666667
 21
299.6322916667
 31
0.0
  0
LINE
  5
2F0
330
218
100
AcDbEntity
  8
DR200_000_00_new_view_1_BL4
  6
Continuous
 62
     3
100
AcDbLine
 10
207.2616666667
 20
294.8322916667
 30
0.0
 11
207.2616666667
 21
299.4322916667
 31
0.0
  0
LINE
  5
2F1
330
218
100
AcDbEntity
  8
DR200_000_00_new_view_1_BL4
  6
Continuous
 62
     3
100
AcDbLine
 10
229.0616666667
 20
294.6322916667
 30
0.0
 11
207.4616666667
 21
294.6322916667
 31
0.0
  0
LINE
  5
2F2
330
218
100
AcDbEntity
  8
DR200_000_00_new_view_1_BL4
  6
Continuous
 62
     3
100
AcDbLine
 10
229.2616666667
 20
299.4322916667
 30
0.0
 11
229.2616666667
 21
294.8322916667
 31
0.0
  0
LINE
  5
2F3
330
218
100
AcDbEntity
  8
DR200_000_00_new_view_1_BL4
  6
Continuous
 62
     3
100
AcDbLine
 10
120.6716666667
 20
287.4322916667
 30
0.0
 11
120.6716666667
 21
282.8322916667
 31
0.0
  0
LINE
  5
2F4
330
218
100
AcDbEntity
  8
DR200_000_00_new_view_1_BL4
  6
Continuous
 62
     3
100
AcDbLine
 10
98.87166666669999
 20
287.6322916667
 30
0.0
 11
120.4716666667
 21
287.6322916667
 31
0.0
  0
LINE
  5
2F5
330
218
100
AcDbEntity
  8
DR200_000_00_new_view_1_BL4
  6
Continuous
 62
     3
100
AcDbLine
 10
98.67166666670001
 20
282.8322916667
 30
0.0
 11
98.67166666670001
 21
287.4322916667
 31
0.0
  0
LINE
  5
2F6
330
218
100
AcDbEntity
  8
DR200_000_00_new_view_1_BL4
  6
Continuous
 62
     3
100
AcDbLine
 10
120.4716666667
 20
282.6322916667
 30
0.0
 11
98.87166666669999
 21
282.6322916667
 31
0.0
  0
LINE
  5
2F7
330
218
100
AcDbEntity
  8
DR200_000_00_new_view_1_BL4
  6
Continuous
 62
     3
100
AcDbLine
 10
120.6716666667
 20
299.4322916667
 30
0.0
 11
120.6716666667
 21
294.8322916667
 31
0.0
  0
LINE
  5
2F8
330
218
100
AcDbEntity
  8
DR200_000_00_new_view_1_BL4
  6
Continuous
 62
     3
100
AcDbLine
 10
98.87166666669999
 20
299.6322916667
 30
0.0
 11
120.4716666667
 21
299.6322916667
 31
0.0
  0
LINE
  5
2F9
330
218
100
AcDbEntity
  8
DR200_000_00_new_view_1_BL4
  6
Continuous
 62
     3
100
AcDbLine
 10
98.67166666670001
 20
294.8322916667
 30
0.0
 11
98.67166666670001
 21
299.4322916667
 31
0.0
  0
LINE
  5
2FA
330
218
100
AcDbEntity
  8
DR200_000_00_new_view_1_BL4
  6
Continuous
 62
     3
100
AcDbLine
 10
120.4716666667
 20
294.6322916667
 30
0.0
 11
98.87166666669999
 21
294.6322916667
 31
0.0
  0
LINE
  5
2FB
330
218
100
AcDbEntity
  8
DR200_000_00_new_view_1_BL4
  6
Continuous
 62
     3
100
AcDbLine
 10
532.2916666666999
 20
287.5218801186
 30
0.0
 11
533.8454967594999
 21
287.5218801186
 31
0.0
  0
LINE
  5
2FC
330
218
100
AcDbEntity
  8
DR200_000_00_new_view_1_BL4
  6
Continuous
 62
     3
100
AcDbLine
 10
533.8454967594999
 20
287.5218801186
 30
0.0
 11
533.8454967594999
 21
283.3322916667
 31
0.0
  0
LINE
  5
2FD
330
218
100
AcDbEntity
  8
DR200_000_00_new_view_1_BL4
  6
Continuous
 62
     3
100
AcDbLine
 10
533.8454967594999
 20
283.3322916667
 30
0.0
 11
534.7241193105999
 21
283.3322916667
 31
0.0
  0
LINE
  5
2FE
330
218
100
AcDbEntity
  8
DR200_000_00_new_view_1_BL4
  6
Continuous
 62
     3
100
AcDbLine
 10
534.7241193105999
 20
283.3322916667
 30
0.0
 11
534.7241193105999
 21
287.5218801186
 31
0.0
  0
LINE
  5
2FF
330
218
100
AcDbEntity
  8
DR200_000_00_new_view_1_BL4
  6
Continuous
 62
     3
100
AcDbLine
 10
534.7241193105999
 20
287.5218801186
 30
0.0
 11
536.2779494033999
 21
287.5218801186
 31
0.0
  0
LINE
  5
300
330
218
100
AcDbEntity
  8
DR200_000_00_new_view_1_BL4
  6
Continuous
 62
     3
100
AcDbLine
 10
536.2779494033999
 20
287.5218801186
 30
0.0
 11
536.2779494033999
 21
288.3322916667
 31
0.0
  0
LINE
  5
301
330
218
100
AcDbEntity
  8
DR200_000_00_new_view_1_BL4
  6
Continuous
 62
     3
100
AcDbLine
 10
536.2779494033999
 20
288.3322916667
 30
0.0
 11
532.2916666666999
 21
288.3322916667
 31
0.0
  0
LINE
  5
302
330
218
100
AcDbEntity
  8
DR200_000_00_new_view_1_BL4
  6
Continuous
 62
     3
100
AcDbLine
 10
532.2916666666999
 20
288.3322916667
 30
0.0
 11
532.2916666666999
 21
287.5218801186
 31
0.0
  0
LINE
  5
303
330
218
100
AcDbEntity
  8
DR200_000_00_new_view_1_BL4
  6
Continuous
 62
     3
100
AcDbLine
 10
536.7505541317
 20
283.3322916667
 30
0.0
 11
539.7908154367
 21
283.3322916667
 31
0.0
  0
LINE
  5
304
330
218
100
AcDbEntity
  8
DR200_000_00_new_view_1_BL4
  6
Continuous
 62
     3
100
AcDbLine
 10
539.7908154367
 20
283.3322916667
 30
0.0
 11
539.7908154367
 21
284.1418911659
 31
0.0
  0
LINE
  5
305
330
218
100
AcDbEntity
  8
DR200_000_00_new_view_1_BL4
  6
Continuous
 62
     3
100
AcDbLine
 10
539.7908154367
 20
284.1418911659
 30
0.0
 11
537.5609656797999
 21
284.1418911659
 31
0.0
  0
LINE
  5
306
330
218
100
AcDbEntity
  8
DR200_000_00_new_view_1_BL4
  6
Continuous
 62
     3
100
AcDbLine
 10
537.5609656797999
 20
284.1418911659
 30
0.0
 11
537.5609656797999
 21
285.4276403189
 31
0.0
  0
LINE
  5
307
330
218
100
AcDbEntity
  8
DR200_000_00_new_view_1_BL4
  6
Continuous
 62
     3
100
AcDbLine
 10
537.5609656797999
 20
285.4276403189
 30
0.0
 11
539.6552054794999
 21
285.4276403189
 31
0.0
  0
LINE
  5
308
330
218
100
AcDbEntity
  8
DR200_000_00_new_view_1_BL4
  6
Continuous
 62
     3
100
AcDbLine
 10
539.6552054794999
 20
285.4276403189
 30
0.0
 11
539.6552054794999
 21
286.2372398181
 31
0.0
  0
LINE
  5
309
330
218
100
AcDbEntity
  8
DR200_000_00_new_view_1_BL4
  6
Continuous
 62
     3
100
AcDbLine
 10
539.6552054794999
 20
286.2372398181
 30
0.0
 11
537.5609656797999
 21
286.2372398181
 31
0.0
  0
LINE
  5
30A
330
218
100
AcDbEntity
  8
DR200_000_00_new_view_1_BL4
  6
Continuous
 62
     3
100
AcDbLine
 10
537.5609656797999
 20
286.2372398181
 30
0.0
 11
537.5609656797999
 21
287.5218801186
 31
0.0
  0
LINE
  5
30B
330
218
100
AcDbEntity
  8
DR200_000_00_new_view_1_BL4
  6
Continuous
 62
     3
100
AcDbLine
 10
537.5609656797999
 20
287.5218801186
 30
0.0
 11
539.7908154367
 21
287.5218801186
 31
0.0
  0
LINE
  5
30C
330
218
100
AcDbEntity
  8
DR200_000_00_new_view_1_BL4
  6
Continuous
 62
     3
100
AcDbLine
 10
539.7908154367
 20
287.5218801186
 30
0.0
 11
539.7908154367
 21
288.3322916667
 31
0.0
  0
LINE
  5
30D
330
218
100
AcDbEntity
  8
DR200_000_00_new_view_1_BL4
  6
Continuous
 62
     3
100
AcDbLine
 10
539.7908154367
 20
288.3322916667
 30
0.0
 11
536.7505541317
 21
288.3322916667
 31
0.0
  0
LINE
  5
30E
330
218
100
AcDbEntity
  8
DR200_000_00_new_view_1_BL4
  6
Continuous
 62
     3
100
AcDbLine
 10
536.7505541317
 20
288.3322916667
 30
0.0
 11
536.7505541317
 21
283.3322916667
 31
0.0
  0
LINE
  5
30F
330
218
100
AcDbEntity
  8
DR200_000_00_new_view_1_BL4
  6
Continuous
 62
     3
100
AcDbLine
 10
545.8723403366999
 20
285.4276403189
 30
0.0
 11
547.9665801362999
 21
285.4276403189
 31
0.0
  0
LINE
  5
310
330
218
100
AcDbEntity
  8
DR200_000_00_new_view_1_BL4
  6
Continuous
 62
     3
100
AcDbLine
 10
547.9665801362999
 20
285.4276403189
 30
0.0
 11
547.9665801362999
 21
286.2372398181
 31
0.0
  0
LINE
  5
311
330
218
100
AcDbEntity
  8
DR200_000_00_new_view_1_BL4
  6
Continuous
 62
     3
100
AcDbLine
 10
547.9665801362999
 20
286.2372398181
 30
0.0
 11
545.8723403366999
 21
286.2372398181
 31
0.0
  0
LINE
  5
312
330
218
100
AcDbEntity
  8
DR200_000_00_new_view_1_BL4
  6
Continuous
 62
     3
100
AcDbLine
 10
545.8723403366999
 20
286.2372398181
 30
0.0
 11
545.8723403366999
 21
287.5218801186
 31
0.0
  0
LINE
  5
313
330
218
100
AcDbEntity
  8
DR200_000_00_new_view_1_BL4
  6
Continuous
 62
     3
100
AcDbLine
 10
545.8723403366999
 20
287.5218801186
 30
0.0
 11
548.0347911394
 21
287.5218801186
 31
0.0
  0
LINE
  5
314
330
218
100
AcDbEntity
  8
DR200_000_00_new_view_1_BL4
  6
Continuous
 62
     3
100
AcDbLine
 10
548.0347911394
 20
287.5218801186
 30
0.0
 11
548.0347911394
 21
288.3322916667
 31
0.0
  0
LINE
  5
315
330
218
100
AcDbEntity
  8
DR200_000_00_new_view_1_BL4
  6
Continuous
 62
     3
100
AcDbLine
 10
548.0347911394
 20
288.3322916667
 30
0.0
 11
545.0611167396999
 21
288.3322916667
 31
0.0
  0
LINE
  5
316
330
218
100
AcDbEntity
  8
DR200_000_00_new_view_1_BL4
  6
Continuous
 62
     3
100
AcDbLine
 10
545.0611167396999
 20
288.3322916667
 30
0.0
 11
545.0611167396999
 21
283.3322916667
 31
0.0
  0
LINE
  5
317
330
218
100
AcDbEntity
  8
DR200_000_00_new_view_1_BL4
  6
Continuous
 62
     3
100
AcDbLine
 10
545.0611167396999
 20
283.3322916667
 30
0.0
 11
548.0347911394
 21
283.3322916667
 31
0.0
  0
LINE
  5
318
330
218
100
AcDbEntity
  8
DR200_000_00_new_view_1_BL4
  6
Continuous
 62
     3
100
AcDbLine
 10
548.0347911394
 20
283.3322916667
 30
0.0
 11
548.0347911394
 21
284.1418911659
 31
0.0
  0
LINE
  5
319
330
218
100
AcDbEntity
  8
DR200_000_00_new_view_1_BL4
  6
Continuous
 62
     3
100
AcDbLine
 10
548.0347911394
 20
284.1418911659
 30
0.0
 11
545.8723403366999
 21
284.1418911659
 31
0.0
  0
LINE
  5
31A
330
218
100
AcDbEntity
  8
DR200_000_00_new_view_1_BL4
  6
Continuous
 62
     3
100
AcDbLine
 10
545.8723403366999
 20
284.1418911659
 30
0.0
 11
545.8723403366999
 21
285.4276403189
 31
0.0
  0
LINE
  5
31B
330
218
100
AcDbEntity
  8
DR200_000_00_new_view_1_BL4
  6
Continuous
 62
     3
100
AcDbLine
 10
549.319241353
 20
284.142425707
 30
0.0
 11
550.6046935550999
 21
284.142425707
 31
0.0
  0
LINE
  5
31C
330
218
100
AcDbEntity
  8
DR200_000_00_new_view_1_BL4
  6
Continuous
 62
     3
100
AcDbLine
 10
550.6046935550999
 20
284.142425707
 30
0.0
 11
550.6046935550999
 21
285.4278779091
 31
0.0
  0
LINE
  5
31D
330
218
100
AcDbEntity
  8
DR200_000_00_new_view_1_BL4
  6
Continuous
 62
     3
100
AcDbLine
 10
550.6046935550999
 20
285.4278779091
 30
0.0
 11
549.319241353
 21
285.4278779091
 31
0.0
  0
LINE
  5
31E
330
218
100
AcDbEntity
  8
DR200_000_00_new_view_1_BL4
  6
Continuous
 62
     3
100
AcDbLine
 10
549.319241353
 20
285.4278779091
 30
0.0
 11
549.319241353
 21
284.142425707
 31
0.0
  0
LINE
  5
31F
330
218
100
AcDbEntity
  8
DR200_000_00_new_view_1_BL4
  6
Continuous
 62
     3
100
AcDbLine
 10
550.6046935550999
 20
287.5234641516
 30
0.0
 11
549.319241353
 21
287.5234641516
 31
0.0
  0
LINE
  5
320
330
218
100
AcDbEntity
  8
DR200_000_00_new_view_1_BL4
  6
Continuous
 62
     3
100
AcDbLine
 10
549.319241353
 20
287.5234641516
 30
0.0
 11
549.319241353
 21
286.2380119495
 31
0.0
  0
LINE
  5
321
330
218
100
AcDbEntity
  8
DR200_000_00_new_view_1_BL4
  6
Continuous
 62
     3
100
AcDbLine
 10
549.319241353
 20
286.2380119495
 30
0.0
 11
550.6046935550999
 21
286.2380119495
 31
0.0
  0
LINE
  5
322
330
218
100
AcDbEntity
  8
DR200_000_00_new_view_1_BL4
  6
Continuous
 62
     3
100
AcDbLine
 10
550.6046935550999
 20
286.2380119495
 30
0.0
 11
550.6046935550999
 21
287.5234641516
 31
0.0
  0
LINE
  5
323
330
218
100
AcDbEntity
  8
DR200_000_00_new_view_1_BL4
  6
Continuous
 62
     3
100
AcDbLine
 10
544.0051332182999
 20
287.1860185223
 30
0.0
 11
544.5575096416
 21
287.7383949457
 31
0.0
  0
ARC
  5
324
330
218
100
AcDbEntity
  8
DR200_000_00_new_view_1_BL4
  6
Continuous
 62
     3
100
AcDbCircle
 10
542.7378829054999
 20
285.9187682096
 30
0.0
 40
2.5733408087
100
AcDbArc
 50
45.0
 51
225.0
  0
LINE
  5
325
330
218
100
AcDbEntity
  8
DR200_000_00_new_view_1_BL4
  6
Continuous
 62
     3
100
AcDbLine
 10
544.5575096416
 20
284.0991414735
 30
0.0
 11
544.0051332182999
 21
284.6515178969
 31
0.0
  0
ARC
  5
326
330
218
100
AcDbEntity
  8
DR200_000_00_new_view_1_BL4
  6
Continuous
 62
     3
100
AcDbCircle
 10
542.7378829054999
 20
285.9187682096
 30
0.0
 40
1.792162579199999
100
AcDbArc
 50
45.0
 51
225.0
  0
SPLINE
  5
327
330
218
100
AcDbEntity
  8
DR200_000_00_new_view_1_BL4
  6
Continuous
 62
     3
100
AcDbSpline
210
0.0
220
0.0
230
1.0
 70
     8
 71
     3
 72
    13
 73
     9
 74
     0
 42
0.0000000001
 43
0.0000000001
 40
0.0
 40
0.0
 40
0.0
 40
0.0
 40
0.1094462932
 40
0.1956869951
 40
0.3068512736
 40
0.4434673222
 40
0.6051699818000001
 40
1.0
 40
1.0
 40
1.0
 40
1.0
 10
-75.8228264043
 20
335.1472903483
 30
0.0
 10
-75.85439616069999
 20
335.1472880088
 30
0.0
 10
-75.90372774149999
 20
335.102753327
 30
0.0
 10
-75.94716994869999
 20
335.0284213382
 30
0.0
 10
-75.9870462529
 20
334.9396023187
 30
0.0
 10
-76.0260477364
 20
334.8283461542
 30
0.0
 10
-76.0825717658
 20
334.6363651402
 30
0.0
 10
-76.11884622560001
 20
334.4799137925
 30
0.0
 10
-76.1427761355
 20
334.368567586
 30
0.0
  0
LINE
  5
328
330
218
100
AcDbEntity
  8
DR200_000_00_new_view_1_BL4
  6
Continuous
 62
     3
100
AcDbLine
 10
566.4061640344
 20
335.1472916667
 30
0.0
 11
-75.8228307011
 21
335.1472916667
 31
0.0
  0
SPLINE
  5
329
330
218
100
AcDbEntity
  8
DR200_000_00_new_view_1_BL4
  6
Continuous
 62
     3
100
AcDbSpline
210
0.0
220
0.0
230
1.0
 70
     8
 71
     3
 72
    13
 73
     9
 74
     0
 42
0.0000000001
 43
0.0000000001
 40
0.0
 40
0.0
 40
0.0
 40
0.0
 40
0.1094462932
 40
0.1956869951
 40
0.3068512736
 40
0.4434673222
 40
0.6051699818000001
 40
1.0
 40
1.0
 40
1.0
 40
1.0
 10
566.4061597375999
 20
271.1172929851
 30
0.0
 10
566.437729494
 20
271.1172953245
 30
0.0
 10
566.4870610748001
 20
271.1618300064
 30
0.0
 10
566.5305032819999
 20
271.2361619951
 30
0.0
 10
566.5703795862
 20
271.3249810146
 30
0.0
 10
566.6093810698
 20
271.4362371791
 30
0.0
 10
566.6659050991
 20
271.6282181931
 30
0.0
 10
566.702179559
 20
271.7846695408
 30
0.0
 10
566.7261094688999
 20
271.8960157473
 30
0.0
  0
LINE
  5
32A
330
218
100
AcDbEntity
  8
DR200_000_00_new_view_1_BL4
  6
Continuous
 62
     3
100
AcDbLine
 10
-75.8228307011
 20
271.1172916667
 30
0.0
 11
566.4061640344
 21
271.1172916667
 31
0.0
  0
ARC
  5
32B
330
218
100
AcDbEntity
  8
DR200_000_00_new_view_1_BL4
  6
Continuous
 62
     3
100
AcDbCircle
 10
120.4716666667
 20
299.4322916667
 30
0.0
 40
0.2
100
AcDbArc
 50
0.0
 51
90.0
  0
ARC
  5
32C
330
218
100
AcDbEntity
  8
DR200_000_00_new_view_1_BL4
  6
Continuous
 62
     3
100
AcDbCircle
 10
127.8716666667
 20
294.8322916667
 30
0.0
 40
0.2
100
AcDbArc
 50
180.0
 51
270.0
  0
ARC
  5
32D
330
218
100
AcDbEntity
  8
DR200_000_00_new_view_1_BL4
  6
Continuous
 62
     3
100
AcDbCircle
 10
127.8716666667
 20
299.4322916667
 30
0.0
 40
0.2
100
AcDbArc
 50
90.0
 51
180.0
  0
ARC
  5
32E
330
218
100
AcDbEntity
  8
DR200_000_00_new_view_1_BL4
  6
Continuous
 62
     3
100
AcDbCircle
 10
127.8716666667
 20
287.4322916667
 30
0.0
 40
0.2
100
AcDbArc
 50
90.0
 51
180.0
  0
ARC
  5
32F
330
218
100
AcDbEntity
  8
DR200_000_00_new_view_1_BL4
  6
Continuous
 62
     3
100
AcDbCircle
 10
127.8716666667
 20
282.8322916667
 30
0.0
 40
0.2
100
AcDbArc
 50
180.0
 51
270.0
  0
ARC
  5
330
330
218
100
AcDbEntity
  8
DR200_000_00_new_view_1_BL4
  6
Continuous
 62
     3
100
AcDbCircle
 10
145.7716666667
 20
323.4322916667
 30
0.0
 40
0.2
100
AcDbArc
 50
0.0
 51
90.0
  0
ARC
  5
331
330
218
100
AcDbEntity
  8
DR200_000_00_new_view_1_BL4
  6
Continuous
 62
     3
100
AcDbCircle
 10
145.7716666667
 20
318.8322916667
 30
0.0
 40
0.2
100
AcDbArc
 50
270.0
 51
360.0
  0
ARC
  5
332
330
218
100
AcDbEntity
  8
DR200_000_00_new_view_1_BL4
  6
Continuous
 62
     3
100
AcDbCircle
 10
145.7716666667
 20
311.4322916667
 30
0.0
 40
0.2
100
AcDbArc
 50
0.0
 51
90.0
  0
ARC
  5
333
330
218
100
AcDbEntity
  8
DR200_000_00_new_view_1_BL4
  6
Continuous
 62
     3
100
AcDbCircle
 10
145.7716666667
 20
306.8322916667
 30
0.0
 40
0.2
100
AcDbArc
 50
270.0
 51
360.0
  0
ARC
  5
334
330
218
100
AcDbEntity
  8
DR200_000_00_new_view_1_BL4
  6
Continuous
 62
     3
100
AcDbCircle
 10
153.1716666667
 20
306.8322916667
 30
0.0
 40
0.2
100
AcDbArc
 50
180.0
 51
270.0
  0
ARC
  5
335
330
218
100
AcDbEntity
  8
DR200_000_00_new_view_1_BL4
  6
Continuous
 62
     3
100
AcDbCircle
 10
153.1716666667
 20
311.4322916667
 30
0.0
 40
0.2
100
AcDbArc
 50
90.0
 51
180.0
  0
ARC
  5
336
330
218
100
AcDbEntity
  8
DR200_000_00_new_view_1_BL4
  6
Continuous
 62
     3
100
AcDbCircle
 10
120.4716666667
 20
294.8322916667
 30
0.0
 40
0.2
100
AcDbArc
 50
270.0
 51
360.0
  0
ARC
  5
337
330
218
100
AcDbEntity
  8
DR200_000_00_new_view_1_BL4
  6
Continuous
 62
     3
100
AcDbCircle
 10
73.5816666667
 20
323.4322916667
 30
0.0
 40
0.2
100
AcDbArc
 50
90.0
 51
180.0
  0
ARC
  5
338
330
218
100
AcDbEntity
  8
DR200_000_00_new_view_1_BL4
  6
Continuous
 62
     3
100
AcDbCircle
 10
91.47166666670001
 20
299.4322916667
 30
0.0
 40
0.2
100
AcDbArc
 50
0.0
 51
90.0
  0
ARC
  5
339
330
218
100
AcDbEntity
  8
DR200_000_00_new_view_1_BL4
  6
Continuous
 62
     3
100
AcDbCircle
 10
91.47166666670001
 20
294.8322916667
 30
0.0
 40
0.2
100
AcDbArc
 50
270.0
 51
360.0
  0
ARC
  5
33A
330
218
100
AcDbEntity
  8
DR200_000_00_new_view_1_BL4
  6
Continuous
 62
     3
100
AcDbCircle
 10
91.47166666670001
 20
287.4322916667
 30
0.0
 40
0.2
100
AcDbArc
 50
0.0
 51
90.0
  0
SPLINE
  5
33B
330
218
100
AcDbEntity
  8
DR200_000_00_new_view_1_BL4
  6
Continuous
 62
     3
100
AcDbSpline
210
0.0
220
0.0
230
1.0
 70
     8
 71
     3
 72
    13
 73
     9
 74
     0
 42
0.0000000001
 43
0.0000000001
 40
0.0
 40
0.0
 40
0.0
 40
0.0
 40
0.3948300182
 40
0.5565326778000001
 40
0.6931487264000001
 40
0.8043130048999998
 40
0.8905537068
 40
1.0
 40
1.0
 40
1.0
 40
1.0
 10
-76.1427761355
 20
271.8960157473
 30
0.0
 10
-76.11884622560001
 20
271.7846695408
 30
0.0
 10
-76.0825717658
 20
271.6282181931
 30
0.0
 10
-76.0260477364
 20
271.4362371791
 30
0.0
 10
-75.9870462529
 20
271.3249810146
 30
0.0
 10
-75.94716994869999
 20
271.2361619951
 30
0.0
 10
-75.90372774149999
 20
271.1618300064
 30
0.0
 10
-75.85439616069999
 20
271.1172953245
 30
0.0
 10
-75.8228264043
 20
271.1172929851
 30
0.0
  0
SPLINE
  5
33C
330
218
100
AcDbEntity
  8
DR200_000_00_new_view_1_BL4
  6
Continuous
 62
     3
100
AcDbSpline
210
0.0
220
0.0
230
1.0
 70
     8
 71
     3
 72
     9
 73
     5
 74
     0
 42
0.0000000001
 43
0.0000000001
 40
0.0
 40
0.0
 40
0.0
 40
0.0
 40
0.2723105681
 40
1.0
 40
1.0
 40
1.0
 40
1.0
 10
-76.20833333330001
 20
272.6075212458
 30
0.0
 10
-76.20833333330001
 20
272.5426032171
 30
0.0
 10
-76.2034597681
 20
272.3043495727
 30
0.0
 10
-76.17922698210001
 20
272.0656220477
 30
0.0
 10
-76.1427761355
 20
271.8960157473
 30
0.0
  0
LINE
  5
33D
330
218
100
AcDbEntity
  8
DR200_000_00_new_view_1_BL4
  6
Continuous
 62
     3
100
AcDbLine
 10
-76.20833333330001
 20
274.2172916667
 30
0.0
 11
-76.20833333330001
 21
272.6075212458
 31
0.0
  0
LINE
  5
33E
330
218
100
AcDbEntity
  8
DR200_000_00_new_view_1_BL4
  6
Continuous
 62
     3
100
AcDbLine
 10
566.7916666666999
 20
272.6075212458
 30
0.0
 11
566.7916666666999
 21
274.2172916667
 31
0.0
  0
SPLINE
  5
33F
330
218
100
AcDbEntity
  8
DR200_000_00_new_view_1_BL4
  6
Continuous
 62
     3
100
AcDbSpline
210
0.0
220
0.0
230
1.0
 70
     8
 71
     3
 72
     9
 73
     5
 74
     0
 42
0.0000000001
 43
0.0000000001
 40
0.0
 40
0.0
 40
0.0
 40
0.0
 40
0.2270945714
 40
1.0
 40
1.0
 40
1.0
 40
1.0
 10
566.7261094688999
 20
271.8960157473
 30
0.0
 10
566.7374865722
 20
271.9489535685
 30
0.0
 10
566.7789886898999
 20
272.1839076134
 30
0.0
 10
566.7916666666999
 20
272.4232359936
 30
0.0
 10
566.7916666666999
 20
272.6075212458
 30
0.0
  0
ARC
  5
340
330
218
100
AcDbEntity
  8
DR200_000_00_new_view_1_BL4
  6
Continuous
 62
     3
100
AcDbCircle
 10
91.47166666670001
 20
282.8322916667
 30
0.0
 40
0.2
100
AcDbArc
 50
270.0
 51
360.0
  0
ARC
  5
341
330
218
100
AcDbEntity
  8
DR200_000_00_new_view_1_BL4
  6
Continuous
 62
     3
100
AcDbCircle
 10
98.87166666669999
 20
282.8322916667
 30
0.0
 40
0.2
100
AcDbArc
 50
180.0
 51
270.0
  0
ARC
  5
342
330
218
100
AcDbEntity
  8
DR200_000_00_new_view_1_BL4
  6
Continuous
 62
     3
100
AcDbCircle
 10
98.87166666669999
 20
287.4322916667
 30
0.0
 40
0.2
100
AcDbArc
 50
90.0
 51
180.0
  0
ARC
  5
343
330
218
100
AcDbEntity
  8
DR200_000_00_new_view_1_BL4
  6
Continuous
 62
     3
100
AcDbCircle
 10
98.87166666669999
 20
294.8322916667
 30
0.0
 40
0.2
100
AcDbArc
 50
180.0
 51
270.0
  0
ARC
  5
344
330
218
100
AcDbEntity
  8
DR200_000_00_new_view_1_BL4
  6
Continuous
 62
     3
100
AcDbCircle
 10
98.87166666669999
 20
299.4322916667
 30
0.0
 40
0.2
100
AcDbArc
 50
90.0
 51
180.0
  0
ARC
  5
345
330
218
100
AcDbEntity
  8
DR200_000_00_new_view_1_BL4
  6
Continuous
 62
     3
100
AcDbCircle
 10
120.4716666667
 20
282.8322916667
 30
0.0
 40
0.2
100
AcDbArc
 50
270.0
 51
360.0
  0
ARC
  5
346
330
218
100
AcDbEntity
  8
DR200_000_00_new_view_1_BL4
  6
Continuous
 62
     3
100
AcDbCircle
 10
120.4716666667
 20
287.4322916667
 30
0.0
 40
0.2
100
AcDbArc
 50
0.0
 51
90.0
  0
ARC
  5
347
330
218
100
AcDbEntity
  8
DR200_000_00_new_view_1_BL4
  6
Continuous
 62
     3
100
AcDbCircle
 10
153.1716666667
 20
318.8322916667
 30
0.0
 40
0.2
100
AcDbArc
 50
180.0
 51
270.0
  0
ARC
  5
348
330
218
100
AcDbEntity
  8
DR200_000_00_new_view_1_BL4
  6
Continuous
 62
     3
100
AcDbCircle
 10
200.0616666667
 20
282.8322916667
 30
0.0
 40
0.2
100
AcDbArc
 50
270.0
 51
360.0
  0
ARC
  5
349
330
218
100
AcDbEntity
  8
DR200_000_00_new_view_1_BL4
  6
Continuous
 62
     3
100
AcDbCircle
 10
207.4616666667
 20
282.8322916667
 30
0.0
 40
0.2
100
AcDbArc
 50
180.0
 51
270.0
  0
ARC
  5
34A
330
218
100
AcDbEntity
  8
DR200_000_00_new_view_1_BL4
  6
Continuous
 62
     3
100
AcDbCircle
 10
207.4616666667
 20
287.4322916667
 30
0.0
 40
0.2
100
AcDbArc
 50
90.0
 51
180.0
  0
ARC
  5
34B
330
218
100
AcDbEntity
  8
DR200_000_00_new_view_1_BL4
  6
Continuous
 62
     3
100
AcDbCircle
 10
207.4616666667
 20
294.8322916667
 30
0.0
 40
0.2
100
AcDbArc
 50
180.0
 51
270.0
  0
ARC
  5
34C
330
218
100
AcDbEntity
  8
DR200_000_00_new_view_1_BL4
  6
Continuous
 62
     3
100
AcDbCircle
 10
207.4616666667
 20
299.4322916667
 30
0.0
 40
0.2
100
AcDbArc
 50
90.0
 51
180.0
  0
ARC
  5
34D
330
218
100
AcDbEntity
  8
DR200_000_00_new_view_1_BL4
  6
Continuous
 62
     3
100
AcDbCircle
 10
229.0616666667
 20
299.4322916667
 30
0.0
 40
0.2
100
AcDbArc
 50
0.0
 51
90.0
  0
ARC
  5
34E
330
218
100
AcDbEntity
  8
DR200_000_00_new_view_1_BL4
  6
Continuous
 62
     3
100
AcDbCircle
 10
229.0616666667
 20
294.8322916667
 30
0.0
 40
0.2
100
AcDbArc
 50
270.0
 51
360.0
  0
ARC
  5
34F
330
218
100
AcDbEntity
  8
DR200_000_00_new_view_1_BL4
  6
Continuous
 62
     3
100
AcDbCircle
 10
229.0616666667
 20
287.4322916667
 30
0.0
 40
0.2
100
AcDbArc
 50
0.0
 51
90.0
  0
ARC
  5
350
330
218
100
AcDbEntity
  8
DR200_000_00_new_view_1_BL4
  6
Continuous
 62
     3
100
AcDbCircle
 10
229.0616666667
 20
282.8322916667
 30
0.0
 40
0.2
100
AcDbArc
 50
270.0
 51
360.0
  0
ARC
  5
351
330
218
100
AcDbEntity
  8
DR200_000_00_new_view_1_BL4
  6
Continuous
 62
     3
100
AcDbCircle
 10
236.4616666667
 20
282.8322916667
 30
0.0
 40
0.2
100
AcDbArc
 50
180.0
 51
270.0
  0
ARC
  5
352
330
218
100
AcDbEntity
  8
DR200_000_00_new_view_1_BL4
  6
Continuous
 62
     3
100
AcDbCircle
 10
236.4616666667
 20
287.4322916667
 30
0.0
 40
0.2
100
AcDbArc
 50
90.0
 51
180.0
  0
ARC
  5
353
330
218
100
AcDbEntity
  8
DR200_000_00_new_view_1_BL4
  6
Continuous
 62
     3
100
AcDbCircle
 10
200.0616666667
 20
287.4322916667
 30
0.0
 40
0.2
100
AcDbArc
 50
0.0
 51
90.0
  0
ARC
  5
354
330
218
100
AcDbEntity
  8
DR200_000_00_new_view_1_BL4
  6
Continuous
 62
     3
100
AcDbCircle
 10
153.1716666667
 20
323.4322916667
 30
0.0
 40
0.2
100
AcDbArc
 50
90.0
 51
180.0
  0
ARC
  5
355
330
218
100
AcDbEntity
  8
DR200_000_00_new_view_1_BL4
  6
Continuous
 62
     3
100
AcDbCircle
 10
174.7716666667
 20
323.4322916667
 30
0.0
 40
0.2
100
AcDbArc
 50
0.0
 51
90.0
  0
ARC
  5
356
330
218
100
AcDbEntity
  8
DR200_000_00_new_view_1_BL4
  6
Continuous
 62
     3
100
AcDbCircle
 10
174.7716666667
 20
318.8322916667
 30
0.0
 40
0.2
100
AcDbArc
 50
270.0
 51
360.0
  0
ARC
  5
357
330
218
100
AcDbEntity
  8
DR200_000_00_new_view_1_BL4
  6
Continuous
 62
     3
100
AcDbCircle
 10
174.7716666667
 20
311.4322916667
 30
0.0
 40
0.2
100
AcDbArc
 50
0.0
 51
90.0
  0
ARC
  5
358
330
218
100
AcDbEntity
  8
DR200_000_00_new_view_1_BL4
  6
Continuous
 62
     3
100
AcDbCircle
 10
174.7716666667
 20
306.8322916667
 30
0.0
 40
0.2
100
AcDbArc
 50
270.0
 51
360.0
  0
ARC
  5
359
330
218
100
AcDbEntity
  8
DR200_000_00_new_view_1_BL4
  6
Continuous
 62
     3
100
AcDbCircle
 10
182.1716666667
 20
306.8322916667
 30
0.0
 40
0.2
100
AcDbArc
 50
180.0
 51
270.0
  0
ARC
  5
35A
330
218
100
AcDbEntity
  8
DR200_000_00_new_view_1_BL4
  6
Continuous
 62
     3
100
AcDbCircle
 10
182.1716666667
 20
311.4322916667
 30
0.0
 40
0.2
100
AcDbArc
 50
90.0
 51
180.0
  0
ARC
  5
35B
330
218
100
AcDbEntity
  8
DR200_000_00_new_view_1_BL4
  6
Continuous
 62
     3
100
AcDbCircle
 10
182.1716666667
 20
318.8322916667
 30
0.0
 40
0.2
100
AcDbArc
 50
180.0
 51
270.0
  0
ARC
  5
35C
330
218
100
AcDbEntity
  8
DR200_000_00_new_view_1_BL4
  6
Continuous
 62
     3
100
AcDbCircle
 10
182.1716666667
 20
323.4322916667
 30
0.0
 40
0.2
100
AcDbArc
 50
90.0
 51
180.0
  0
ARC
  5
35D
330
218
100
AcDbEntity
  8
DR200_000_00_new_view_1_BL4
  6
Continuous
 62
     3
100
AcDbCircle
 10
200.0616666667
 20
299.4322916667
 30
0.0
 40
0.2
100
AcDbArc
 50
0.0
 51
90.0
  0
ARC
  5
35E
330
218
100
AcDbEntity
  8
DR200_000_00_new_view_1_BL4
  6
Continuous
 62
     3
100
AcDbCircle
 10
200.0616666667
 20
294.8322916667
 30
0.0
 40
0.2
100
AcDbArc
 50
270.0
 51
360.0
  0
ARC
  5
35F
330
218
100
AcDbEntity
  8
DR200_000_00_new_view_1_BL4
  6
Continuous
 62
     3
100
AcDbCircle
 10
37.18166666670001
 20
318.8322916667
 30
0.0
 40
0.2
100
AcDbArc
 50
270.0
 51
360.0
  0
SPLINE
  5
360
330
218
100
AcDbEntity
  8
DR200_000_00_new_view_1_BL4
  6
Continuous
 62
     3
100
AcDbSpline
210
0.0
220
0.0
230
1.0
 70
     8
 71
     3
 72
    13
 73
     9
 74
     0
 42
0.0000000001
 43
0.0000000001
 40
0.0
 40
0.0
 40
0.0
 40
0.0
 40
0.3948300182
 40
0.5565326778000001
 40
0.6931487264000001
 40
0.8043130048999998
 40
0.8905537068
 40
1.0
 40
1.0
 40
1.0
 40
1.0
 10
566.7261094688999
 20
334.368567586
 30
0.0
 10
566.702179559
 20
334.4799137925
 30
0.0
 10
566.6659050991
 20
334.6363651402
 30
0.0
 10
566.6093810698
 20
334.8283461542
 30
0.0
 10
566.5703795862
 20
334.9396023187
 30
0.0
 10
566.5305032819999
 20
335.0284213382
 30
0.0
 10
566.4870610748001
 20
335.102753327
 30
0.0
 10
566.437729494
 20
335.1472880088
 30
0.0
 10
566.4061597375999
 20
335.1472903483
 30
0.0
  0
SPLINE
  5
361
330
218
100
AcDbEntity
  8
DR200_000_00_new_view_1_BL4
  6
Continuous
 62
     3
100
AcDbSpline
210
0.0
220
0.0
230
1.0
 70
     8
 71
     3
 72
     9
 73
     5
 74
     0
 42
0.0000000001
 43
0.0000000001
 40
0.0
 40
0.0
 40
0.0
 40
0.0
 40
0.2723105681
 40
1.0
 40
1.0
 40
1.0
 40
1.0
 10
566.7916666666999
 20
333.6570620875999
 30
0.0
 10
566.7916666666999
 20
333.7219801162
 30
0.0
 10
566.7867931015
 20
333.9602337607
 30
0.0
 10
566.7625603154
 20
334.1989612856
 30
0.0
 10
566.7261094688999
 20
334.368567586
 30
0.0
  0
LINE
  5
362
330
218
100
AcDbEntity
  8
DR200_000_00_new_view_1_BL4
  6
Continuous
 62
     3
100
AcDbLine
 10
566.7916666666999
 20
332.0472916667
 30
0.0
 11
566.7916666666999
 21
333.6570620875999
 31
0.0
  0
LINE
  5
363
330
218
100
AcDbEntity
  8
DR200_000_00_new_view_1_BL4
  6
Continuous
 62
     3
100
AcDbLine
 10
-76.20833333330001
 20
333.6570620875999
 30
0.0
 11
-76.20833333330001
 21
332.0472916667
 31
0.0
  0
SPLINE
  5
364
330
218
100
AcDbEntity
  8
DR200_000_00_new_view_1_BL4
  6
Continuous
 62
     3
100
AcDbSpline
210
0.0
220
0.0
230
1.0
 70
     8
 71
     3
 72
     9
 73
     5
 74
     0
 42
0.0000000001
 43
0.0000000001
 40
0.0
 40
0.0
 40
0.0
 40
0.0
 40
0.2270945714
 40
1.0
 40
1.0
 40
1.0
 40
1.0
 10
-76.1427761355
 20
334.368567586
 30
0.0
 10
-76.1541532388
 20
334.3156297648
 30
0.0
 10
-76.1956553565
 20
334.08067572
 30
0.0
 10
-76.20833333330001
 20
333.8413473398
 30
0.0
 10
-76.20833333330001
 20
333.6570620875999
 30
0.0
  0
ARC
  5
365
330
218
100
AcDbEntity
  8
DR200_000_00_new_view_1_BL4
  6
Continuous
 62
     3
100
AcDbCircle
 10
37.18166666670001
 20
323.4322916667
 30
0.0
 40
0.2
100
AcDbArc
 50
0.0
 51
90.0
  0
ARC
  5
366
330
218
100
AcDbEntity
  8
DR200_000_00_new_view_1_BL4
  6
Continuous
 62
     3
100
AcDbCircle
 10
44.5816666667
 20
323.4322916667
 30
0.0
 40
0.2
100
AcDbArc
 50
90.0
 51
180.0
  0
ARC
  5
367
330
218
100
AcDbEntity
  8
DR200_000_00_new_view_1_BL4
  6
Continuous
 62
     3
100
AcDbCircle
 10
44.5816666667
 20
318.8322916667
 30
0.0
 40
0.2
100
AcDbArc
 50
180.0
 51
270.0
  0
ARC
  5
368
330
218
100
AcDbEntity
  8
DR200_000_00_new_view_1_BL4
  6
Continuous
 62
     3
100
AcDbCircle
 10
44.5816666667
 20
311.4322916667
 30
0.0
 40
0.2
100
AcDbArc
 50
90.0
 51
180.0
  0
ARC
  5
369
330
218
100
AcDbEntity
  8
DR200_000_00_new_view_1_BL4
  6
Continuous
 62
     3
100
AcDbCircle
 10
44.5816666667
 20
306.8322916667
 30
0.0
 40
0.2
100
AcDbArc
 50
180.0
 51
270.0
  0
ARC
  5
36A
330
218
100
AcDbEntity
  8
DR200_000_00_new_view_1_BL4
  6
Continuous
 62
     3
100
AcDbCircle
 10
-64.0083333333
 20
299.4322916667
 30
0.0
 40
0.2
100
AcDbArc
 50
90.0
 51
180.0
  0
ARC
  5
36B
330
218
100
AcDbEntity
  8
DR200_000_00_new_view_1_BL4
  6
Continuous
 62
     3
100
AcDbCircle
 10
-64.0083333333
 20
294.8322916667
 30
0.0
 40
0.2
100
AcDbArc
 50
180.0
 51
270.0
  0
ARC
  5
36C
330
218
100
AcDbEntity
  8
DR200_000_00_new_view_1_BL4
  6
Continuous
 62
     3
100
AcDbCircle
 10
-64.0083333333
 20
287.4322916667
 30
0.0
 40
0.2
100
AcDbArc
 50
90.0
 51
180.0
  0
ARC
  5
36D
330
218
100
AcDbEntity
  8
DR200_000_00_new_view_1_BL4
  6
Continuous
 62
     3
100
AcDbCircle
 10
-64.0083333333
 20
282.8322916667
 30
0.0
 40
0.2
100
AcDbArc
 50
180.0
 51
270.0
  0
ARC
  5
36E
330
218
100
AcDbEntity
  8
DR200_000_00_new_view_1_BL4
  6
Continuous
 62
     3
100
AcDbCircle
 10
-35.0083333333
 20
311.4322916667
 30
0.0
 40
0.2
100
AcDbArc
 50
90.0
 51
180.0
  0
ARC
  5
36F
330
218
100
AcDbEntity
  8
DR200_000_00_new_view_1_BL4
  6
Continuous
 62
     3
100
AcDbCircle
 10
37.18166666670001
 20
311.4322916667
 30
0.0
 40
0.2
100
AcDbArc
 50
0.0
 51
90.0
  0
ARC
  5
370
330
218
100
AcDbEntity
  8
DR200_000_00_new_view_1_BL4
  6
Continuous
 62
     3
100
AcDbCircle
 10
-64.0083333333
 20
323.4322916667
 30
0.0
 40
0.2
100
AcDbArc
 50
90.0
 51
180.0
  0
ARC
  5
371
330
218
100
AcDbEntity
  8
DR200_000_00_new_view_1_BL4
  6
Continuous
 62
     3
100
AcDbCircle
 10
-64.0083333333
 20
318.8322916667
 30
0.0
 40
0.2
100
AcDbArc
 50
180.0
 51
270.0
  0
ARC
  5
372
330
218
100
AcDbEntity
  8
DR200_000_00_new_view_1_BL4
  6
Continuous
 62
     3
100
AcDbCircle
 10
-42.4083333333
 20
318.8322916667
 30
0.0
 40
0.2
100
AcDbArc
 50
270.0
 51
360.0
  0
ARC
  5
373
330
218
100
AcDbEntity
  8
DR200_000_00_new_view_1_BL4
  6
Continuous
 62
     3
100
AcDbCircle
 10
-42.4083333333
 20
323.4322916667
 30
0.0
 40
0.2
100
AcDbArc
 50
0.0
 51
90.0
  0
ARC
  5
374
330
218
100
AcDbEntity
  8
DR200_000_00_new_view_1_BL4
  6
Continuous
 62
     3
100
AcDbCircle
 10
-64.0083333333
 20
311.4322916667
 30
0.0
 40
0.2
100
AcDbArc
 50
90.0
 51
180.0
  0
ARC
  5
375
330
218
100
AcDbEntity
  8
DR200_000_00_new_view_1_BL4
  6
Continuous
 62
     3
100
AcDbCircle
 10
-64.0083333333
 20
306.8322916667
 30
0.0
 40
0.2
100
AcDbArc
 50
180.0
 51
270.0
  0
ARC
  5
376
330
218
100
AcDbEntity
  8
DR200_000_00_new_view_1_BL4
  6
Continuous
 62
     3
100
AcDbCircle
 10
-42.4083333333
 20
306.8322916667
 30
0.0
 40
0.2
100
AcDbArc
 50
270.0
 51
360.0
  0
ARC
  5
377
330
218
100
AcDbEntity
  8
DR200_000_00_new_view_1_BL4
  6
Continuous
 62
     3
100
AcDbCircle
 10
-42.4083333333
 20
311.4322916667
 30
0.0
 40
0.2
100
AcDbArc
 50
0.0
 51
90.0
  0
ARC
  5
378
330
218
100
AcDbEntity
  8
DR200_000_00_new_view_1_BL4
  6
Continuous
 62
     3
100
AcDbCircle
 10
-35.0083333333
 20
323.4322916667
 30
0.0
 40
0.2
100
AcDbArc
 50
90.0
 51
180.0
  0
ARC
  5
379
330
218
100
AcDbEntity
  8
DR200_000_00_new_view_1_BL4
  6
Continuous
 62
     3
100
AcDbCircle
 10
-35.0083333333
 20
318.8322916667
 30
0.0
 40
0.2
100
AcDbArc
 50
180.0
 51
270.0
  0
ARC
  5
37A
330
218
100
AcDbEntity
  8
DR200_000_00_new_view_1_BL4
  6
Continuous
 62
     3
100
AcDbCircle
 10
37.18166666670001
 20
306.8322916667
 30
0.0
 40
0.2
100
AcDbArc
 50
270.0
 51
360.0
  0
ARC
  5
37B
330
218
100
AcDbEntity
  8
DR200_000_00_new_view_1_BL4
  6
Continuous
 62
     3
100
AcDbCircle
 10
-35.0083333333
 20
306.8322916667
 30
0.0
 40
0.2
100
AcDbArc
 50
180.0
 51
270.0
  0
ARC
  5
37C
330
218
100
AcDbEntity
  8
DR200_000_00_new_view_1_BL4
  6
Continuous
 62
     3
100
AcDbCircle
 10
19.2816666667
 20
299.4322916667
 30
0.0
 40
0.2
100
AcDbArc
 50
90.0
 51
180.0
  0
ARC
  5
37D
330
218
100
AcDbEntity
  8
DR200_000_00_new_view_1_BL4
  6
Continuous
 62
     3
100
AcDbCircle
 10
19.2816666667
 20
294.8322916667
 30
0.0
 40
0.2
100
AcDbArc
 50
180.0
 51
270.0
  0
ARC
  5
37E
330
218
100
AcDbEntity
  8
DR200_000_00_new_view_1_BL4
  6
Continuous
 62
     3
100
AcDbCircle
 10
19.2816666667
 20
287.4322916667
 30
0.0
 40
0.2
100
AcDbArc
 50
90.0
 51
180.0
  0
ARC
  5
37F
330
218
100
AcDbEntity
  8
DR200_000_00_new_view_1_BL4
  6
Continuous
 62
     3
100
AcDbCircle
 10
19.2816666667
 20
282.8322916667
 30
0.0
 40
0.2
100
AcDbArc
 50
180.0
 51
270.0
  0
ARC
  5
380
330
218
100
AcDbEntity
  8
DR200_000_00_new_view_1_BL4
  6
Continuous
 62
     3
100
AcDbCircle
 10
66.18166666669999
 20
323.4322916667
 30
0.0
 40
0.2
100
AcDbArc
 50
0.0
 51
90.0
  0
ARC
  5
381
330
218
100
AcDbEntity
  8
DR200_000_00_new_view_1_BL4
  6
Continuous
 62
     3
100
AcDbCircle
 10
66.18166666669999
 20
318.8322916667
 30
0.0
 40
0.2
100
AcDbArc
 50
270.0
 51
360.0
  0
ARC
  5
382
330
218
100
AcDbEntity
  8
DR200_000_00_new_view_1_BL4
  6
Continuous
 62
     3
100
AcDbCircle
 10
66.18166666669999
 20
311.4322916667
 30
0.0
 40
0.2
100
AcDbArc
 50
0.0
 51
90.0
  0
ARC
  5
383
330
218
100
AcDbEntity
  8
DR200_000_00_new_view_1_BL4
  6
Continuous
 62
     3
100
AcDbCircle
 10
66.18166666669999
 20
306.8322916667
 30
0.0
 40
0.2
100
AcDbArc
 50
270.0
 51
360.0
  0
ARC
  5
384
330
218
100
AcDbEntity
  8
DR200_000_00_new_view_1_BL4
  6
Continuous
 62
     3
100
AcDbCircle
 10
73.5816666667
 20
306.8322916667
 30
0.0
 40
0.2
100
AcDbArc
 50
180.0
 51
270.0
  0
ARC
  5
385
330
218
100
AcDbEntity
  8
DR200_000_00_new_view_1_BL4
  6
Continuous
 62
     3
100
AcDbCircle
 10
73.5816666667
 20
311.4322916667
 30
0.0
 40
0.2
100
AcDbArc
 50
90.0
 51
180.0
  0
ARC
  5
386
330
218
100
AcDbEntity
  8
DR200_000_00_new_view_1_BL4
  6
Continuous
 62
     3
100
AcDbCircle
 10
73.5816666667
 20
318.8322916667
 30
0.0
 40
0.2
100
AcDbArc
 50
180.0
 51
270.0
  0
ARC
  5
387
330
218
100
AcDbEntity
  8
DR200_000_00_new_view_1_BL4
  6
Continuous
 62
     3
100
AcDbCircle
 10
11.8816666667
 20
282.8322916667
 30
0.0
 40
0.2
100
AcDbArc
 50
270.0
 51
360.0
  0
ARC
  5
388
330
218
100
AcDbEntity
  8
DR200_000_00_new_view_1_BL4
  6
Continuous
 62
     3
100
AcDbCircle
 10
-17.1183333333
 20
299.4322916667
 30
0.0
 40
0.2
100
AcDbArc
 50
0.0
 51
90.0
  0
ARC
  5
389
330
218
100
AcDbEntity
  8
DR200_000_00_new_view_1_BL4
  6
Continuous
 62
     3
100
AcDbCircle
 10
-17.1183333333
 20
294.8322916667
 30
0.0
 40
0.2
100
AcDbArc
 50
270.0
 51
360.0
  0
ARC
  5
38A
330
218
100
AcDbEntity
  8
DR200_000_00_new_view_1_BL4
  6
Continuous
 62
     3
100
AcDbCircle
 10
-17.1183333333
 20
287.4322916667
 30
0.0
 40
0.2
100
AcDbArc
 50
0.0
 51
90.0
  0
ARC
  5
38B
330
218
100
AcDbEntity
  8
DR200_000_00_new_view_1_BL4
  6
Continuous
 62
     3
100
AcDbCircle
 10
-17.1183333333
 20
282.8322916667
 30
0.0
 40
0.2
100
AcDbArc
 50
270.0
 51
360.0
  0
ARC
  5
38C
330
218
100
AcDbEntity
  8
DR200_000_00_new_view_1_BL4
  6
Continuous
 62
     3
100
AcDbCircle
 10
-9.7183333333
 20
282.8322916667
 30
0.0
 40
0.2
100
AcDbArc
 50
180.0
 51
270.0
  0
ARC
  5
38D
330
218
100
AcDbEntity
  8
DR200_000_00_new_view_1_BL4
  6
Continuous
 62
     3
100
AcDbCircle
 10
-9.7183333333
 20
287.4322916667
 30
0.0
 40
0.2
100
AcDbArc
 50
90.0
 51
180.0
  0
ARC
  5
38E
330
218
100
AcDbEntity
  8
DR200_000_00_new_view_1_BL4
  6
Continuous
 62
     3
100
AcDbCircle
 10
-9.7183333333
 20
294.8322916667
 30
0.0
 40
0.2
100
AcDbArc
 50
180.0
 51
270.0
  0
ARC
  5
38F
330
218
100
AcDbEntity
  8
DR200_000_00_new_view_1_BL4
  6
Continuous
 62
     3
100
AcDbCircle
 10
-9.7183333333
 20
299.4322916667
 30
0.0
 40
0.2
100
AcDbArc
 50
90.0
 51
180.0
  0
ARC
  5
390
330
218
100
AcDbEntity
  8
DR200_000_00_new_view_1_BL4
  6
Continuous
 62
     3
100
AcDbCircle
 10
11.8816666667
 20
299.4322916667
 30
0.0
 40
0.2
100
AcDbArc
 50
0.0
 51
90.0
  0
ARC
  5
391
330
218
100
AcDbEntity
  8
DR200_000_00_new_view_1_BL4
  6
Continuous
 62
     3
100
AcDbCircle
 10
11.8816666667
 20
294.8322916667
 30
0.0
 40
0.2
100
AcDbArc
 50
270.0
 51
360.0
  0
ARC
  5
392
330
218
100
AcDbEntity
  8
DR200_000_00_new_view_1_BL4
  6
Continuous
 62
     3
100
AcDbCircle
 10
11.8816666667
 20
287.4322916667
 30
0.0
 40
0.2
100
AcDbArc
 50
0.0
 51
90.0
  0
ARC
  5
393
330
218
100
AcDbEntity
  8
DR200_000_00_new_view_1_BL4
  6
Continuous
 62
     3
100
AcDbCircle
 10
446.2416666666999
 20
294.8322916667
 30
0.0
 40
0.2
100
AcDbArc
 50
270.0
 51
360.0
  0
ARC
  5
394
330
218
100
AcDbEntity
  8
DR200_000_00_new_view_1_BL4
  6
Continuous
 62
     3
100
AcDbCircle
 10
446.2416666666999
 20
287.4322916667
 30
0.0
 40
0.2
100
AcDbArc
 50
0.0
 51
90.0
  0
ARC
  5
395
330
218
100
AcDbEntity
  8
DR200_000_00_new_view_1_BL4
  6
Continuous
 62
     3
100
AcDbCircle
 10
446.2416666666999
 20
282.8322916667
 30
0.0
 40
0.2
100
AcDbArc
 50
270.0
 51
360.0
  0
ARC
  5
396
330
218
100
AcDbEntity
  8
DR200_000_00_new_view_1_BL4
  6
Continuous
 62
     3
100
AcDbCircle
 10
453.6416666666999
 20
282.8322916667
 30
0.0
 40
0.2
100
AcDbArc
 50
180.0
 51
270.0
  0
ARC
  5
397
330
218
100
AcDbEntity
  8
DR200_000_00_new_view_1_BL4
  6
Continuous
 62
     3
100
AcDbCircle
 10
453.6416666666999
 20
287.4322916667
 30
0.0
 40
0.2
100
AcDbArc
 50
90.0
 51
180.0
  0
ARC
  5
398
330
218
100
AcDbEntity
  8
DR200_000_00_new_view_1_BL4
  6
Continuous
 62
     3
100
AcDbCircle
 10
453.6416666666999
 20
294.8322916667
 30
0.0
 40
0.2
100
AcDbArc
 50
180.0
 51
270.0
  0
ARC
  5
399
330
218
100
AcDbEntity
  8
DR200_000_00_new_view_1_BL4
  6
Continuous
 62
     3
100
AcDbCircle
 10
453.6416666666999
 20
299.4322916667
 30
0.0
 40
0.2
100
AcDbArc
 50
90.0
 51
180.0
  0
ARC
  5
39A
330
218
100
AcDbEntity
  8
DR200_000_00_new_view_1_BL4
  6
Continuous
 62
     3
100
AcDbCircle
 10
471.5416666667
 20
323.4322916667
 30
0.0
 40
0.2
100
AcDbArc
 50
0.0
 51
90.0
  0
ARC
  5
39B
330
218
100
AcDbEntity
  8
DR200_000_00_new_view_1_BL4
  6
Continuous
 62
     3
100
AcDbCircle
 10
471.5416666667
 20
318.8322916667
 30
0.0
 40
0.2
100
AcDbArc
 50
270.0
 51
360.0
  0
ARC
  5
39C
330
218
100
AcDbEntity
  8
DR200_000_00_new_view_1_BL4
  6
Continuous
 62
     3
100
AcDbCircle
 10
471.5416666667
 20
311.4322916667
 30
0.0
 40
0.2
100
AcDbArc
 50
0.0
 51
90.0
  0
ARC
  5
39D
330
218
100
AcDbEntity
  8
DR200_000_00_new_view_1_BL4
  6
Continuous
 62
     3
100
AcDbCircle
 10
471.5416666667
 20
306.8322916667
 30
0.0
 40
0.2
100
AcDbArc
 50
270.0
 51
360.0
  0
ARC
  5
39E
330
218
100
AcDbEntity
  8
DR200_000_00_new_view_1_BL4
  6
Continuous
 62
     3
100
AcDbCircle
 10
446.2416666666999
 20
299.4322916667
 30
0.0
 40
0.2
100
AcDbArc
 50
0.0
 51
90.0
  0
ARC
  5
39F
330
218
100
AcDbEntity
  8
DR200_000_00_new_view_1_BL4
  6
Continuous
 62
     3
100
AcDbCircle
 10
399.3516666667
 20
311.4322916667
 30
0.0
 40
0.2
100
AcDbArc
 50
90.0
 51
180.0
  0
ARC
  5
3A0
330
218
100
AcDbEntity
  8
DR200_000_00_new_view_1_BL4
  6
Continuous
 62
     3
100
AcDbCircle
 10
399.3516666667
 20
318.8322916667
 30
0.0
 40
0.2
100
AcDbArc
 50
180.0
 51
270.0
  0
ARC
  5
3A1
330
218
100
AcDbEntity
  8
DR200_000_00_new_view_1_BL4
  6
Continuous
 62
     3
100
AcDbCircle
 10
399.3516666667
 20
323.4322916667
 30
0.0
 40
0.2
100
AcDbArc
 50
90.0
 51
180.0
  0
ARC
  5
3A2
330
218
100
AcDbEntity
  8
DR200_000_00_new_view_1_BL4
  6
Continuous
 62
     3
100
AcDbCircle
 10
417.2416666666999
 20
299.4322916667
 30
0.0
 40
0.2
100
AcDbArc
 50
0.0
 51
90.0
  0
ARC
  5
3A3
330
218
100
AcDbEntity
  8
DR200_000_00_new_view_1_BL4
  6
Continuous
 62
     3
100
AcDbCircle
 10
417.2416666666999
 20
294.8322916667
 30
0.0
 40
0.2
100
AcDbArc
 50
270.0
 51
360.0
  0
ARC
  5
3A4
330
218
100
AcDbEntity
  8
DR200_000_00_new_view_1_BL4
  6
Continuous
 62
     3
100
AcDbCircle
 10
417.2416666666999
 20
287.4322916667
 30
0.0
 40
0.2
100
AcDbArc
 50
0.0
 51
90.0
  0
ARC
  5
3A5
330
218
100
AcDbEntity
  8
DR200_000_00_new_view_1_BL4
  6
Continuous
 62
     3
100
AcDbCircle
 10
417.2416666666999
 20
282.8322916667
 30
0.0
 40
0.2
100
AcDbArc
 50
270.0
 51
360.0
  0
ARC
  5
3A6
330
218
100
AcDbEntity
  8
DR200_000_00_new_view_1_BL4
  6
Continuous
 62
     3
100
AcDbCircle
 10
424.6416666666999
 20
282.8322916667
 30
0.0
 40
0.2
100
AcDbArc
 50
180.0
 51
270.0
  0
ARC
  5
3A7
330
218
100
AcDbEntity
  8
DR200_000_00_new_view_1_BL4
  6
Continuous
 62
     3
100
AcDbCircle
 10
424.6416666666999
 20
287.4322916667
 30
0.0
 40
0.2
100
AcDbArc
 50
90.0
 51
180.0
  0
ARC
  5
3A8
330
218
100
AcDbEntity
  8
DR200_000_00_new_view_1_BL4
  6
Continuous
 62
     3
100
AcDbCircle
 10
424.6416666666999
 20
294.8322916667
 30
0.0
 40
0.2
100
AcDbArc
 50
180.0
 51
270.0
  0
ARC
  5
3A9
330
218
100
AcDbEntity
  8
DR200_000_00_new_view_1_BL4
  6
Continuous
 62
     3
100
AcDbCircle
 10
424.6416666666999
 20
299.4322916667
 30
0.0
 40
0.2
100
AcDbArc
 50
90.0
 51
180.0
  0
ARC
  5
3AA
330
218
100
AcDbEntity
  8
DR200_000_00_new_view_1_BL4
  6
Continuous
 62
     3
100
AcDbCircle
 10
478.9416666666999
 20
306.8322916667
 30
0.0
 40
0.2
100
AcDbArc
 50
180.0
 51
270.0
  0
ARC
  5
3AB
330
218
100
AcDbEntity
  8
DR200_000_00_new_view_1_BL4
  6
Continuous
 62
     3
100
AcDbCircle
 10
554.5916666666999
 20
318.8322916667
 30
0.0
 40
0.2
100
AcDbArc
 50
270.0
 51
360.0
  0
ARC
  5
3AC
330
218
100
AcDbEntity
  8
DR200_000_00_new_view_1_BL4
  6
Continuous
 62
     3
100
AcDbCircle
 10
554.5916666666999
 20
311.4322916667
 30
0.0
 40
0.2
100
AcDbArc
 50
0.0
 51
90.0
  0
ARC
  5
3AD
330
218
100
AcDbEntity
  8
DR200_000_00_new_view_1_BL4
  6
Continuous
 62
     3
100
AcDbCircle
 10
554.5916666666999
 20
306.8322916667
 30
0.0
 40
0.2
100
AcDbArc
 50
270.0
 51
360.0
  0
ARC
  5
3AE
330
218
100
AcDbEntity
  8
DR200_000_00_new_view_1_BL4
  6
Continuous
 62
     3
100
AcDbCircle
 10
554.5916666666999
 20
299.4322916667
 30
0.0
 40
0.2
100
AcDbArc
 50
0.0
 51
90.0
  0
ARC
  5
3AF
330
218
100
AcDbEntity
  8
DR200_000_00_new_view_1_BL4
  6
Continuous
 62
     3
100
AcDbCircle
 10
554.5916666666999
 20
294.8322916667
 30
0.0
 40
0.2
100
AcDbArc
 50
270.0
 51
360.0
  0
ARC
  5
3B0
330
218
100
AcDbEntity
  8
DR200_000_00_new_view_1_BL4
  6
Continuous
 62
     3
100
AcDbCircle
 10
533.2316666667
 20
299.4322916667
 30
0.0
 40
0.2
100
AcDbArc
 50
90.0
 51
180.0
  0
ARC
  5
3B1
330
218
100
AcDbEntity
  8
DR200_000_00_new_view_1_BL4
  6
Continuous
 62
     3
100
AcDbCircle
 10
533.2316666667
 20
294.8322916667
 30
0.0
 40
0.2
100
AcDbArc
 50
180.0
 51
270.0
  0
ARC
  5
3B2
330
218
100
AcDbEntity
  8
DR200_000_00_new_view_1_BL4
  6
Continuous
 62
     3
100
AcDbCircle
 10
525.8316666667
 20
299.4322916667
 30
0.0
 40
0.2
100
AcDbArc
 50
0.0
 51
90.0
  0
ARC
  5
3B3
330
218
100
AcDbEntity
  8
DR200_000_00_new_view_1_BL4
  6
Continuous
 62
     3
100
AcDbCircle
 10
525.8316666667
 20
294.8322916667
 30
0.0
 40
0.2
100
AcDbArc
 50
270.0
 51
360.0
  0
ARC
  5
3B4
330
218
100
AcDbEntity
  8
DR200_000_00_new_view_1_BL4
  6
Continuous
 62
     3
100
AcDbCircle
 10
525.8316666667
 20
287.4322916667
 30
0.0
 40
0.2
100
AcDbArc
 50
0.0
 51
90.0
  0
ARC
  5
3B5
330
218
100
AcDbEntity
  8
DR200_000_00_new_view_1_BL4
  6
Continuous
 62
     3
100
AcDbCircle
 10
525.8316666667
 20
282.8322916667
 30
0.0
 40
0.2
100
AcDbArc
 50
270.0
 51
360.0
  0
ARC
  5
3B6
330
218
100
AcDbEntity
  8
DR200_000_00_new_view_1_BL4
  6
Continuous
 62
     3
100
AcDbCircle
 10
554.5916666666999
 20
323.4322916667
 30
0.0
 40
0.2
100
AcDbArc
 50
0.0
 51
90.0
  0
ARC
  5
3B7
330
218
100
AcDbEntity
  8
DR200_000_00_new_view_1_BL4
  6
Continuous
 62
     3
100
AcDbCircle
 10
478.9416666666999
 20
311.4322916667
 30
0.0
 40
0.2
100
AcDbArc
 50
90.0
 51
180.0
  0
ARC
  5
3B8
330
218
100
AcDbEntity
  8
DR200_000_00_new_view_1_BL4
  6
Continuous
 62
     3
100
AcDbCircle
 10
478.9416666666999
 20
318.8322916667
 30
0.0
 40
0.2
100
AcDbArc
 50
180.0
 51
270.0
  0
ARC
  5
3B9
330
218
100
AcDbEntity
  8
DR200_000_00_new_view_1_BL4
  6
Continuous
 62
     3
100
AcDbCircle
 10
478.9416666666999
 20
323.4322916667
 30
0.0
 40
0.2
100
AcDbArc
 50
90.0
 51
180.0
  0
ARC
  5
3BA
330
218
100
AcDbEntity
  8
DR200_000_00_new_view_1_BL4
  6
Continuous
 62
     3
100
AcDbCircle
 10
500.5416666667
 20
323.4322916667
 30
0.0
 40
0.2
100
AcDbArc
 50
0.0
 51
90.0
  0
ARC
  5
3BB
330
218
100
AcDbEntity
  8
DR200_000_00_new_view_1_BL4
  6
Continuous
 62
     3
100
AcDbCircle
 10
500.5416666667
 20
318.8322916667
 30
0.0
 40
0.2
100
AcDbArc
 50
270.0
 51
360.0
  0
ARC
  5
3BC
330
218
100
AcDbEntity
  8
DR200_000_00_new_view_1_BL4
  6
Continuous
 62
     3
100
AcDbCircle
 10
500.5416666667
 20
311.4322916667
 30
0.0
 40
0.2
100
AcDbArc
 50
0.0
 51
90.0
  0
ARC
  5
3BD
330
218
100
AcDbEntity
  8
DR200_000_00_new_view_1_BL4
  6
Continuous
 62
     3
100
AcDbCircle
 10
500.5416666667
 20
306.8322916667
 30
0.0
 40
0.2
100
AcDbArc
 50
270.0
 51
360.0
  0
ARC
  5
3BE
330
218
100
AcDbEntity
  8
DR200_000_00_new_view_1_BL4
  6
Continuous
 62
     3
100
AcDbCircle
 10
507.9416666666999
 20
306.8322916667
 30
0.0
 40
0.2
100
AcDbArc
 50
180.0
 51
270.0
  0
ARC
  5
3BF
330
218
100
AcDbEntity
  8
DR200_000_00_new_view_1_BL4
  6
Continuous
 62
     3
100
AcDbCircle
 10
507.9416666666999
 20
311.4322916667
 30
0.0
 40
0.2
100
AcDbArc
 50
90.0
 51
180.0
  0
ARC
  5
3C0
330
218
100
AcDbEntity
  8
DR200_000_00_new_view_1_BL4
  6
Continuous
 62
     3
100
AcDbCircle
 10
507.9416666666999
 20
318.8322916667
 30
0.0
 40
0.2
100
AcDbArc
 50
180.0
 51
270.0
  0
ARC
  5
3C1
330
218
100
AcDbEntity
  8
DR200_000_00_new_view_1_BL4
  6
Continuous
 62
     3
100
AcDbCircle
 10
507.9416666666999
 20
323.4322916667
 30
0.0
 40
0.2
100
AcDbArc
 50
90.0
 51
180.0
  0
ARC
  5
3C2
330
218
100
AcDbEntity
  8
DR200_000_00_new_view_1_BL4
  6
Continuous
 62
     3
100
AcDbCircle
 10
283.3616666667
 20
311.4322916667
 30
0.0
 40
0.2
100
AcDbArc
 50
0.0
 51
90.0
  0
ARC
  5
3C3
330
218
100
AcDbEntity
  8
DR200_000_00_new_view_1_BL4
  6
Continuous
 62
     3
100
AcDbCircle
 10
283.3616666667
 20
306.8322916667
 30
0.0
 40
0.2
100
AcDbArc
 50
270.0
 51
360.0
  0
ARC
  5
3C4
330
218
100
AcDbEntity
  8
DR200_000_00_new_view_1_BL4
  6
Continuous
 62
     3
100
AcDbCircle
 10
290.7616666667
 20
306.8322916667
 30
0.0
 40
0.2
100
AcDbArc
 50
180.0
 51
270.0
  0
ARC
  5
3C5
330
218
100
AcDbEntity
  8
DR200_000_00_new_view_1_BL4
  6
Continuous
 62
     3
100
AcDbCircle
 10
290.7616666667
 20
311.4322916667
 30
0.0
 40
0.2
100
AcDbArc
 50
90.0
 51
180.0
  0
ARC
  5
3C6
330
218
100
AcDbEntity
  8
DR200_000_00_new_view_1_BL4
  6
Continuous
 62
     3
100
AcDbCircle
 10
290.7616666667
 20
318.8322916667
 30
0.0
 40
0.2
100
AcDbArc
 50
180.0
 51
270.0
  0
ARC
  5
3C7
330
218
100
AcDbEntity
  8
DR200_000_00_new_view_1_BL4
  6
Continuous
 62
     3
100
AcDbCircle
 10
290.7616666667
 20
323.4322916667
 30
0.0
 40
0.2
100
AcDbArc
 50
90.0
 51
180.0
  0
ARC
  5
3C8
330
218
100
AcDbEntity
  8
DR200_000_00_new_view_1_BL4
  6
Continuous
 62
     3
100
AcDbCircle
 10
308.6516666667
 20
299.4322916667
 30
0.0
 40
0.2
100
AcDbArc
 50
0.0
 51
90.0
  0
ARC
  5
3C9
330
218
100
AcDbEntity
  8
DR200_000_00_new_view_1_BL4
  6
Continuous
 62
     3
100
AcDbCircle
 10
308.6516666667
 20
294.8322916667
 30
0.0
 40
0.2
100
AcDbArc
 50
270.0
 51
360.0
  0
ARC
  5
3CA
330
218
100
AcDbEntity
  8
DR200_000_00_new_view_1_BL4
  6
Continuous
 62
     3
100
AcDbCircle
 10
308.6516666667
 20
287.4322916667
 30
0.0
 40
0.2
100
AcDbArc
 50
0.0
 51
90.0
  0
ARC
  5
3CB
330
218
100
AcDbEntity
  8
DR200_000_00_new_view_1_BL4
  6
Continuous
 62
     3
100
AcDbCircle
 10
308.6516666667
 20
282.8322916667
 30
0.0
 40
0.2
100
AcDbArc
 50
270.0
 51
360.0
  0
ARC
  5
3CC
330
218
100
AcDbEntity
  8
DR200_000_00_new_view_1_BL4
  6
Continuous
 62
     3
100
AcDbCircle
 10
316.0516666667
 20
282.8322916667
 30
0.0
 40
0.2
100
AcDbArc
 50
180.0
 51
270.0
  0
ARC
  5
3CD
330
218
100
AcDbEntity
  8
DR200_000_00_new_view_1_BL4
  6
Continuous
 62
     3
100
AcDbCircle
 10
283.3616666667
 20
318.8322916667
 30
0.0
 40
0.2
100
AcDbArc
 50
270.0
 51
360.0
  0
ARC
  5
3CE
330
218
100
AcDbEntity
  8
DR200_000_00_new_view_1_BL4
  6
Continuous
 62
     3
100
AcDbCircle
 10
236.4616666667
 20
294.8322916667
 30
0.0
 40
0.2
100
AcDbArc
 50
180.0
 51
270.0
  0
ARC
  5
3CF
330
218
100
AcDbEntity
  8
DR200_000_00_new_view_1_BL4
  6
Continuous
 62
     3
100
AcDbCircle
 10
236.4616666667
 20
299.4322916667
 30
0.0
 40
0.2
100
AcDbArc
 50
90.0
 51
180.0
  0
ARC
  5
3D0
330
218
100
AcDbEntity
  8
DR200_000_00_new_view_1_BL4
  6
Continuous
 62
     3
100
AcDbCircle
 10
254.3616666667
 20
323.4322916667
 30
0.0
 40
0.2
100
AcDbArc
 50
0.0
 51
90.0
  0
ARC
  5
3D1
330
218
100
AcDbEntity
  8
DR200_000_00_new_view_1_BL4
  6
Continuous
 62
     3
100
AcDbCircle
 10
254.3616666667
 20
318.8322916667
 30
0.0
 40
0.2
100
AcDbArc
 50
270.0
 51
360.0
  0
ARC
  5
3D2
330
218
100
AcDbEntity
  8
DR200_000_00_new_view_1_BL4
  6
Continuous
 62
     3
100
AcDbCircle
 10
254.3616666667
 20
311.4322916667
 30
0.0
 40
0.2
100
AcDbArc
 50
0.0
 51
90.0
  0
ARC
  5
3D3
330
218
100
AcDbEntity
  8
DR200_000_00_new_view_1_BL4
  6
Continuous
 62
     3
100
AcDbCircle
 10
254.3616666667
 20
306.8322916667
 30
0.0
 40
0.2
100
AcDbArc
 50
270.0
 51
360.0
  0
ARC
  5
3D4
330
218
100
AcDbEntity
  8
DR200_000_00_new_view_1_BL4
  6
Continuous
 62
     3
100
AcDbCircle
 10
261.7616666667
 20
306.8322916667
 30
0.0
 40
0.2
100
AcDbArc
 50
180.0
 51
270.0
  0
ARC
  5
3D5
330
218
100
AcDbEntity
  8
DR200_000_00_new_view_1_BL4
  6
Continuous
 62
     3
100
AcDbCircle
 10
261.7616666667
 20
311.4322916667
 30
0.0
 40
0.2
100
AcDbArc
 50
90.0
 51
180.0
  0
ARC
  5
3D6
330
218
100
AcDbEntity
  8
DR200_000_00_new_view_1_BL4
  6
Continuous
 62
     3
100
AcDbCircle
 10
261.7616666667
 20
318.8322916667
 30
0.0
 40
0.2
100
AcDbArc
 50
180.0
 51
270.0
  0
ARC
  5
3D7
330
218
100
AcDbEntity
  8
DR200_000_00_new_view_1_BL4
  6
Continuous
 62
     3
100
AcDbCircle
 10
261.7616666667
 20
323.4322916667
 30
0.0
 40
0.2
100
AcDbArc
 50
90.0
 51
180.0
  0
ARC
  5
3D8
330
218
100
AcDbEntity
  8
DR200_000_00_new_view_1_BL4
  6
Continuous
 62
     3
100
AcDbCircle
 10
283.3616666667
 20
323.4322916667
 30
0.0
 40
0.2
100
AcDbArc
 50
0.0
 51
90.0
  0
ARC
  5
3D9
330
218
100
AcDbEntity
  8
DR200_000_00_new_view_1_BL4
  6
Continuous
 62
     3
100
AcDbCircle
 10
316.0516666667
 20
287.4322916667
 30
0.0
 40
0.2
100
AcDbArc
 50
90.0
 51
180.0
  0
ARC
  5
3DA
330
218
100
AcDbEntity
  8
DR200_000_00_new_view_1_BL4
  6
Continuous
 62
     3
100
AcDbCircle
 10
362.9516666667
 20
318.8322916667
 30
0.0
 40
0.2
100
AcDbArc
 50
270.0
 51
360.0
  0
ARC
  5
3DB
330
218
100
AcDbEntity
  8
DR200_000_00_new_view_1_BL4
  6
Continuous
 62
     3
100
AcDbCircle
 10
362.9516666667
 20
323.4322916667
 30
0.0
 40
0.2
100
AcDbArc
 50
0.0
 51
90.0
  0
ARC
  5
3DC
330
218
100
AcDbEntity
  8
DR200_000_00_new_view_1_BL4
  6
Continuous
 62
     3
100
AcDbCircle
 10
370.3516666667
 20
323.4322916667
 30
0.0
 40
0.2
100
AcDbArc
 50
90.0
 51
180.0
  0
ARC
  5
3DD
330
218
100
AcDbEntity
  8
DR200_000_00_new_view_1_BL4
  6
Continuous
 62
     3
100
AcDbCircle
 10
370.3516666667
 20
318.8322916667
 30
0.0
 40
0.2
100
AcDbArc
 50
180.0
 51
270.0
  0
ARC
  5
3DE
330
218
100
AcDbEntity
  8
DR200_000_00_new_view_1_BL4
  6
Continuous
 62
     3
100
AcDbCircle
 10
370.3516666667
 20
311.4322916667
 30
0.0
 40
0.2
100
AcDbArc
 50
90.0
 51
180.0
  0
ARC
  5
3DF
330
218
100
AcDbEntity
  8
DR200_000_00_new_view_1_BL4
  6
Continuous
 62
     3
100
AcDbCircle
 10
370.3516666667
 20
306.8322916667
 30
0.0
 40
0.2
100
AcDbArc
 50
180.0
 51
270.0
  0
ARC
  5
3E0
330
218
100
AcDbEntity
  8
DR200_000_00_new_view_1_BL4
  6
Continuous
 62
     3
100
AcDbCircle
 10
391.9516666667
 20
323.4322916667
 30
0.0
 40
0.2
100
AcDbArc
 50
0.0
 51
90.0
  0
ARC
  5
3E1
330
218
100
AcDbEntity
  8
DR200_000_00_new_view_1_BL4
  6
Continuous
 62
     3
100
AcDbCircle
 10
391.9516666667
 20
318.8322916667
 30
0.0
 40
0.2
100
AcDbArc
 50
270.0
 51
360.0
  0
ARC
  5
3E2
330
218
100
AcDbEntity
  8
DR200_000_00_new_view_1_BL4
  6
Continuous
 62
     3
100
AcDbCircle
 10
391.9516666667
 20
311.4322916667
 30
0.0
 40
0.2
100
AcDbArc
 50
0.0
 51
90.0
  0
ARC
  5
3E3
330
218
100
AcDbEntity
  8
DR200_000_00_new_view_1_BL4
  6
Continuous
 62
     3
100
AcDbCircle
 10
391.9516666667
 20
306.8322916667
 30
0.0
 40
0.2
100
AcDbArc
 50
270.0
 51
360.0
  0
ARC
  5
3E4
330
218
100
AcDbEntity
  8
DR200_000_00_new_view_1_BL4
  6
Continuous
 62
     3
100
AcDbCircle
 10
399.3516666667
 20
306.8322916667
 30
0.0
 40
0.2
100
AcDbArc
 50
180.0
 51
270.0
  0
ARC
  5
3E5
330
218
100
AcDbEntity
  8
DR200_000_00_new_view_1_BL4
  6
Continuous
 62
     3
100
AcDbCircle
 10
362.9516666667
 20
311.4322916667
 30
0.0
 40
0.2
100
AcDbArc
 50
0.0
 51
90.0
  0
ARC
  5
3E6
330
218
100
AcDbEntity
  8
DR200_000_00_new_view_1_BL4
  6
Continuous
 62
     3
100
AcDbCircle
 10
316.0516666667
 20
294.8322916667
 30
0.0
 40
0.2
100
AcDbArc
 50
180.0
 51
270.0
  0
ARC
  5
3E7
330
218
100
AcDbEntity
  8
DR200_000_00_new_view_1_BL4
  6
Continuous
 62
     3
100
AcDbCircle
 10
316.0516666667
 20
299.4322916667
 30
0.0
 40
0.2
100
AcDbArc
 50
90.0
 51
180.0
  0
ARC
  5
3E8
330
218
100
AcDbEntity
  8
DR200_000_00_new_view_1_BL4
  6
Continuous
 62
     3
100
AcDbCircle
 10
337.6516666667
 20
299.4322916667
 30
0.0
 40
0.2
100
AcDbArc
 50
0.0
 51
90.0
  0
ARC
  5
3E9
330
218
100
AcDbEntity
  8
DR200_000_00_new_view_1_BL4
  6
Continuous
 62
     3
100
AcDbCircle
 10
337.6516666667
 20
294.8322916667
 30
0.0
 40
0.2
100
AcDbArc
 50
270.0
 51
360.0
  0
ARC
  5
3EA
330
218
100
AcDbEntity
  8
DR200_000_00_new_view_1_BL4
  6
Continuous
 62
     3
100
AcDbCircle
 10
337.6516666667
 20
287.4322916667
 30
0.0
 40
0.2
100
AcDbArc
 50
0.0
 51
90.0
  0
ARC
  5
3EB
330
218
100
AcDbEntity
  8
DR200_000_00_new_view_1_BL4
  6
Continuous
 62
     3
100
AcDbCircle
 10
337.6516666667
 20
282.8322916667
 30
0.0
 40
0.2
100
AcDbArc
 50
270.0
 51
360.0
  0
ARC
  5
3EC
330
218
100
AcDbEntity
  8
DR200_000_00_new_view_1_BL4
  6
Continuous
 62
     3
100
AcDbCircle
 10
345.0516666667
 20
282.8322916667
 30
0.0
 40
0.2
100
AcDbArc
 50
180.0
 51
270.0
  0
ARC
  5
3ED
330
218
100
AcDbEntity
  8
DR200_000_00_new_view_1_BL4
  6
Continuous
 62
     3
100
AcDbCircle
 10
345.0516666667
 20
287.4322916667
 30
0.0
 40
0.2
100
AcDbArc
 50
90.0
 51
180.0
  0
ARC
  5
3EE
330
218
100
AcDbEntity
  8
DR200_000_00_new_view_1_BL4
  6
Continuous
 62
     3
100
AcDbCircle
 10
345.0516666667
 20
294.8322916667
 30
0.0
 40
0.2
100
AcDbArc
 50
180.0
 51
270.0
  0
ARC
  5
3EF
330
218
100
AcDbEntity
  8
DR200_000_00_new_view_1_BL4
  6
Continuous
 62
     3
100
AcDbCircle
 10
345.0516666667
 20
299.4322916667
 30
0.0
 40
0.2
100
AcDbArc
 50
90.0
 51
180.0
  0
ARC
  5
3F0
330
218
100
AcDbEntity
  8
DR200_000_00_new_view_1_BL4
  6
Continuous
 62
     3
100
AcDbCircle
 10
362.9516666667
 20
306.8322916667
 30
0.0
 40
0.2
100
AcDbArc
 50
270.0
 51
360.0
  0
ARC
  5
3F1
330
218
100
AcDbEntity
  8
DR200_000_00_new_view_1_BL4
  6
Continuous
 62
     3
100
AcDbCircle
 10
542.7378829054999
 20
285.9187682096
 30
0.0
 40
2.5733408087
100
AcDbArc
 50
225.0
 51
315.0
  0
ARC
  5
3F2
330
218
100
AcDbEntity
  8
DR200_000_00_new_view_1_BL4
  6
Continuous
 62
     3
100
AcDbCircle
 10
542.7378829054999
 20
285.9187682096
 30
0.0
 40
1.792162579199999
100
AcDbArc
 50
225.0
 51
315.0
  0
LINE
  5
3F3
330
218
100
AcDbEntity
  8
DR200_000_00_new_view_1_BL4
  6
Continuous
 62
     9
100
AcDbLine
 10
566.7916666666999
 20
274.2172916667
 30
0.0
 11
-76.20833333330001
 21
274.2172916667
 31
0.0
  0
LINE
  5
3F4
330
218
100
AcDbEntity
  8
DR200_000_00_new_view_1_BL4
  6
Continuous
 62
     9
100
AcDbLine
 10
-76.20833333330001
 20
332.0472916667
 30
0.0
 11
566.7916666666999
 21
332.0472916667
 31
0.0
  0
ENDBLK
  5
3F5
330
218
100
AcDbEntity
  8
0
  6
ByBlock
 62
     0
100
AcDbBlockEnd
  0
BLOCK
  5
4A3
330
4A2
100
AcDbEntity
  8
0
100
AcDbBlockBegin
  2
TC-600710_DS
 70
     0
 10
0.0
 20
0.0
 30
0.0
  3
TC-600710_DS
  1

  0
INSERT
  5
4A5
330
4A2
100
AcDbEntity
  8
DR100_006_00_new_view_1_BL0
100
AcDbBlockReference
  2
DR100_006_00_NEW_VIEW_1_BL0
 10
-301.49890423735
 20
-58.6909473096
 30
0.0
  0
INSERT
  5
4A6
330
4A2
100
AcDbEntity
  8
DR100_006_00_new_view_1_BL1
100
AcDbBlockReference
  2
DR100_006_00_NEW_VIEW_1_BL1
 10
-301.50109576255
 20
-5.339052690499954
 30
0.0
  0
INSERT
  5
4A7
330
4A2
100
AcDbEntity
  8
DR100_006_00_new_view_1_BL2
100
AcDbBlockReference
  2
DR100_006_00_NEW_VIEW_1_BL2
 10
301.5010957626499
 20
-64.5881083973
 30
0.0
  0
INSERT
  5
4A8
330
4A2
100
AcDbEntity
  8
DR100_006_00_new_view_1_BL3
100
AcDbBlockReference
  2
DR100_006_00_NEW_VIEW_1_BL3
 10
301.49890423745
 20
-5.339052690499954
 30
0.0
  0
INSERT
  5
4A9
330
4A2
100
AcDbEntity
  8
DR200_000_00_new_view_1_BL4
100
AcDbBlockReference
  2
DR200_000_00_NEW_VIEW_1_BL4
 10
0.0000000000499654
 20
-32.01499999999999
 30
0.0
  0
ENDBLK
  5
4A4
330
4A2
100
AcDbEntity
  8
0
100
AcDbBlockEnd
  0
ENDSEC
  0
SECTION
  2
ENTITIES
  0
MTEXT
  5
3F6
330
212
100
AcDbEntity
  8
0
  6
Continuous
 62
     2
100
AcDbMText
 10
637.6332786256999
 20
321.3371764697
 30
0.0
 40
15.0
 41
425.0
 71
     1
 72
     1
  1
Artikel-Nr.:  6 007 10/11              \PDatum:       22.12.2010
 73
     1
 44
0.9
1001
ACAD
1000
MTEXTBEGIN
1070
    73
1070
     1
1070
    44
1040
0.9
1070
    74
1070
     0
1000
MTEXTEND
  0
INSERT
  5
4AA
330
212
100
AcDbEntity
  8
0
100
AcDbBlockReference
  2
TC-600710_DS
 10
245.29166666665
 20
335.1472916667
 30
0.0
  0
ENDSEC
  0
SECTION
  2
OBJECTS
  0
DICTIONARY
  5
C
330
0
100
AcDbDictionary
281
     1
  3
ACAD_COLOR
350
42A
  3
ACAD_GROUP
350
D
  3
ACAD_LAYOUT
350
1A
  3
ACAD_MATERIAL
350
400
  3
ACAD_MLEADERSTYLE
350
44F
  3
ACAD_MLINESTYLE
350
17
  3
ACAD_PLOTSETTINGS
350
19
  3
ACAD_PLOTSTYLENAME
350
E
  3
ACAD_SCALELIST
350
42D
  3
ACAD_TABLESTYLE
350
42B
  3
ACAD_VISUALSTYLE
350
419
  3
ACDB_RECOMPOSE_DATA
350
51E
  3
AcDbVariableDictionary
350
48D
  3
DWGPROPS
350
51F
  0
DICTIONARY
  5
455
330
8
100
AcDbDictionary
280
     1
281
     1
  0
DICTIONARY
  5
4AD
330
10
100
AcDbDictionary
280
     1
281
     1
  3
ADSK_XREC_LAYER_RECONCILED
360
4AE
  0
DICTIONARY
  5
4AF
330
1FA
100
AcDbDictionary
280
     1
281
     1
  3
ADSK_XREC_LAYER_RECONCILED
360
4B0
  0
DICTIONARY
  5
4B1
330
1FB
100
AcDbDictionary
280
     1
281
     1
  3
ADSK_XREC_LAYER_RECONCILED
360
4B2
  0
DICTIONARY
  5
4B3
330
1FC
100
AcDbDictionary
280
     1
281
     1
  3
ADSK_XREC_LAYER_RECONCILED
360
4B4
  0
DICTIONARY
  5
4B5
330
1FD
100
AcDbDictionary
280
     1
281
     1
  3
ADSK_XREC_LAYER_RECONCILED
360
4B6
  0
DICTIONARY
  5
4B7
330
1FE
100
AcDbDictionary
280
     1
281
     1
  3
ADSK_XREC_LAYER_RECONCILED
360
4B8
  0
DICTIONARY
  5
4B9
330
1FF
100
AcDbDictionary
280
     1
281
     1
  3
ADSK_XREC_LAYER_RECONCILED
360
4BA
  0
DICTIONARY
  5
4BB
330
200
100
AcDbDictionary
280
     1
281
     1
  3
ADSK_XREC_LAYER_RECONCILED
360
4BC
  0
DICTIONARY
  5
4BD
330
201
100
AcDbDictionary
280
     1
281
     1
  3
ADSK_XREC_LAYER_RECONCILED
360
4BE
  0
DICTIONARY
  5
4BF
330
202
100
AcDbDictionary
280
     1
281
     1
  3
ADSK_XREC_LAYER_RECONCILED
360
4C0
  0
DICTIONARY
  5
4C1
330
203
100
AcDbDictionary
280
     1
281
     1
  3
ADSK_XREC_LAYER_RECONCILED
360
4C2
  0
DICTIONARY
  5
4C3
330
204
100
AcDbDictionary
280
     1
281
     1
  3
ADSK_XREC_LAYER_RECONCILED
360
4C4
  0
DICTIONARY
  5
4C5
330
205
100
AcDbDictionary
280
     1
281
     1
  3
ADSK_XREC_LAYER_RECONCILED
360
4C6
  0
DICTIONARY
  5
4C7
330
206
100
AcDbDictionary
280
     1
281
     1
  3
ADSK_XREC_LAYER_RECONCILED
360
4C8
  0
DICTIONARY
  5
4C9
330
207
100
AcDbDictionary
280
     1
281
     1
  3
ADSK_XREC_LAYER_RECONCILED
360
4CA
  0
DICTIONARY
  5
4CB
330
208
100
AcDbDictionary
280
     1
281
     1
  3
ADSK_XREC_LAYER_RECONCILED
360
4CC
  0
DICTIONARY
  5
4CD
330
209
100
AcDbDictionary
280
     1
281
     1
  3
ADSK_XREC_LAYER_RECONCILED
360
4CE
  0
DICTIONARY
  5
4CF
330
20A
100
AcDbDictionary
280
     1
281
     1
  3
ADSK_XREC_LAYER_RECONCILED
360
4D0
  0
DICTIONARY
  5
4D1
330
20B
100
AcDbDictionary
280
     1
281
     1
  3
ADSK_XREC_LAYER_RECONCILED
360
4D2
  0
DICTIONARY
  5
4D3
330
20C
100
AcDbDictionary
280
     1
281
     1
  3
ADSK_XREC_LAYER_RECONCILED
360
4D4
  0
DICTIONARY
  5
4D5
330
20D
100
AcDbDictionary
280
     1
281
     1
  3
ADSK_XREC_LAYER_RECONCILED
360
4D6
  0
DICTIONARY
  5
4D7
330
20E
100
AcDbDictionary
280
     1
281
     1
  3
ADSK_XREC_LAYER_RECONCILED
360
4D8
  0
DICTIONARY
  5
4D9
330
20F
100
AcDbDictionary
280
     1
281
     1
  3
ADSK_XREC_LAYER_RECONCILED
360
4DA
  0
DICTIONARY
  5
42A
102
{ACAD_REACTORS
330
C
102
}
330
C
100
AcDbDictionary
281
     1
  0
DICTIONARY
  5
D
102
{ACAD_REACTORS
330
C
102
}
330
C
100
AcDbDictionary
281
     1
  0
DICTIONARY
  5
1A
102
{ACAD_REACTORS
330
C
102
}
330
C
100
AcDbDictionary
281
     1
  3
Layout1
350
3FD
  3
Model
350
3FC
  0
DICTIONARY
  5
400
102
{ACAD_REACTORS
330
C
102
}
330
C
100
AcDbDictionary
281
     1
  3
ByBlock
350
409
  3
ByLayer
350
401
  3
Global
350
411
  0
DICTIONARY
  5
44F
102
{ACAD_REACTORS
330
C
102
}
330
C
100
AcDbDictionary
281
     1
  3
Standard
350
450
  0
DICTIONARY
  5
17
102
{ACAD_REACTORS
330
C
102
}
330
C
100
AcDbDictionary
281
     1
  3
Standard
350
18
  0
DICTIONARY
  5
19
102
{ACAD_REACTORS
330
C
102
}
330
C
100
AcDbDictionary
281
     1
  0
ACDBDICTIONARYWDFLT
  5
E
102
{ACAD_REACTORS
330
C
102
}
330
C
100
AcDbDictionary
281
     1
  3
Normal
350
F
100
AcDbDictionaryWithDefault
340
F
  0
DICTIONARY
  5
42D
102
{ACAD_REACTORS
330
C
102
}
330
C
100
AcDbDictionary
281
     1
  3
A0
350
42E
  3
A1
350
42F
  3
A2
350
430
  3
A3
350
431
  3
A4
350
432
  3
A5
350
433
  3
A6
350
434
  3
A7
350
435
  3
A8
350
436
  3
A9
350
437
  3
B0
350
438
  3
B1
350
439
  3
B2
350
43A
  3
B3
350
43B
  3
B4
350
43C
  3
B5
350
43D
  3
B6
350
43E
  3
B7
350
43F
  3
B8
350
440
  3
B9
350
441
  3
C0
350
442
  3
C1
350
443
  3
C2
350
444
  3
C3
350
445
  3
C4
350
446
  3
C5
350
447
  3
C6
350
448
  3
C7
350
449
  3
C8
350
44A
  3
C9
350
44B
  3
D0
350
44C
  3
D1
350
44D
  3
D2
350
44E
  0
DICTIONARY
  5
42B
102
{ACAD_REACTORS
330
C
102
}
330
C
100
AcDbDictionary
281
     1
  3
Standard
350
42C
  0
DICTIONARY
  5
419
102
{ACAD_REACTORS
330
C
102
}
330
C
100
AcDbDictionary
281
     1
  3
2dWireframe
350
41F
  3
3D Hidden
350
421
  3
3dWireframe
350
420
  3
Basic
350
41E
  3
Brighten
350
425
  3
ColorChange
350
429
  3
Conceptual
350
422
  3
Dim
350
424
  3
EdgeColorOff
350
49E
  3
Facepattern
350
428
  3
Flat
350
41A
  3
FlatWithEdges
350
41B
  3
Gouraud
350
41C
  3
GouraudWithEdges
350
41D
  3
Hidden
350
496
  3
JitterOff
350
49C
  3
Linepattern
350
427
  3
OverhangOff
350
49D
  3
Realistic
350
423
  3
Shaded
350
49B
  3
Shaded with edges
350
49A
  3
Shades of Gray
350
497
  3
Sketchy
350
498
  3
Thicken
350
426
  3
Wireframe
350
495
  3
X-Ray
350
499
  0
XRECORD
  5
51E
102
{ACAD_REACTORS
330
C
102
}
330
C
100
AcDbXrecord
280
     1
 90
        1
330
42C
  0
DICTIONARY
  5
48D
102
{ACAD_REACTORS
330
C
102
}
330
C
100
AcDbDictionary
281
     1
  3
CANNOSCALE
350
490
  3
CMLEADERSTYLE
350
48F
  3
CTABLESTYLE
350
48E
  3
DIMASSOC
350
493
  3
INDEXCTL
350
492
  3
SORTENTS
350
491
  3
XCLIPFRAME
350
51C
  0
XRECORD
  5
51F
102
{ACAD_REACTORS
330
C
102
}
330
C
100
AcDbXrecord
280
     1
  1
DWGPROPS COOKIE
  2

  3

  4

  6

  7

  8
mfeld
  9

300
=
301
=
302
=
303
=
304
=
305
=
306
=
307
=
308
=
309
=
 40
0.0009143171296296
 41
2455553.393905393
 42
2455566.516900406
  1

 90
        0
  0
XRECORD
  5
4AE
102
{ACAD_REACTORS
330
4AD
102
}
330
4AD
100
AcDbXrecord
280
     1
290
     1
  0
XRECORD
  5
4B0
102
{ACAD_REACTORS
330
4AF
102
}
330
4AF
100
AcDbXrecord
280
     1
290
     1
  0
XRECORD
  5
4B2
102
{ACAD_REACTORS
330
4B1
102
}
330
4B1
100
AcDbXrecord
280
     1
290
     1
  0
XRECORD
  5
4B4
102
{ACAD_REACTORS
330
4B3
102
}
330
4B3
100
AcDbXrecord
280
     1
290
     1
  0
XRECORD
  5
4B6
102
{ACAD_REACTORS
330
4B5
102
}
330
4B5
100
AcDbXrecord
280
     1
290
     1
  0
XRECORD
  5
4B8
102
{ACAD_REACTORS
330
4B7
102
}
330
4B7
100
AcDbXrecord
280
     1
290
     1
  0
XRECORD
  5
4BA
102
{ACAD_REACTORS
330
4B9
102
}
330
4B9
100
AcDbXrecord
280
     1
290
     1
  0
XRECORD
  5
4BC
102
{ACAD_REACTORS
330
4BB
102
}
330
4BB
100
AcDbXrecord
280
     1
290
     1
  0
XRECORD
  5
4BE
102
{ACAD_REACTORS
330
4BD
102
}
330
4BD
100
AcDbXrecord
280
     1
290
     1
  0
XRECORD
  5
4C0
102
{ACAD_REACTORS
330
4BF
102
}
330
4BF
100
AcDbXrecord
280
     1
290
     1
  0
XRECORD
  5
4C2
102
{ACAD_REACTORS
330
4C1
102
}
330
4C1
100
AcDbXrecord
280
     1
290
     1
  0
XRECORD
  5
4C4
102
{ACAD_REACTORS
330
4C3
102
}
330
4C3
100
AcDbXrecord
280
     1
290
     1
  0
XRECORD
  5
4C6
102
{ACAD_REACTORS
330
4C5
102
}
330
4C5
100
AcDbXrecord
280
     1
290
     1
  0
XRECORD
  5
4C8
102
{ACAD_REACTORS
330
4C7
102
}
330
4C7
100
AcDbXrecord
280
     1
290
     1
  0
XRECORD
  5
4CA
102
{ACAD_REACTORS
330
4C9
102
}
330
4C9
100
AcDbXrecord
280
     1
290
     1
  0
XRECORD
  5
4CC
102
{ACAD_REACTORS
330
4CB
102
}
330
4CB
100
AcDbXrecord
280
     1
290
     1
  0
XRECORD
  5
4CE
102
{ACAD_REACTORS
330
4CD
102
}
330
4CD
100
AcDbXrecord
280
     1
290
     1
  0
XRECORD
  5
4D0
102
{ACAD_REACTORS
330
4CF
102
}
330
4CF
100
AcDbXrecord
280
     1
290
     1
  0
XRECORD
  5
4D2
102
{ACAD_REACTORS
330
4D1
102
}
330
4D1
100
AcDbXrecord
280
     1
290
     1
  0
XRECORD
  5
4D4
102
{ACAD_REACTORS
330
4D3
102
}
330
4D3
100
AcDbXrecord
280
     1
290
     1
  0
XRECORD
  5
4D6
102
{ACAD_REACTORS
330
4D5
102
}
330
4D5
100
AcDbXrecord
280
     1
290
     1
  0
XRECORD
  5
4D8
102
{ACAD_REACTORS
330
4D7
102
}
330
4D7
100
AcDbXrecord
280
     1
290
     1
  0
XRECORD
  5
4DA
102
{ACAD_REACTORS
330
4D9
102
}
330
4D9
100
AcDbXrecord
280
     1
290
     1
  0
LAYOUT
  5
3FD
102
{ACAD_XDICTIONARY
360
522
102
}
102
{ACAD_REACTORS
330
1A
102
}
330
1A
100
AcDbPlotSettings
  1

  2
none_device
  4
ISO_A1_(594.00_x_841.00_MM)
  6

 40
0.0
 41
0.0
 42
0.0
 43
0.0
 44
841.0
 45
594.0
 46
0.0
 47
0.0
 48
0.0
 49
0.0
140
0.0
141
0.0
142
1.0
143
1.0
 70
     0
 72
     1
 73
     0
 74
     0
  7

 75
     0
147
1.0
148
0.0
149
0.0
100
AcDbLayout
  1
Layout1
 70
     1
 71
     1
 10
0.0
 20
0.0
 11
12.0
 21
9.0
 12
0.0
 22
0.0
 32
0.0
 14
1.000000000000000E+20
 24
1.000000000000000E+20
 34
1.000000000000000E+20
 15
-1.000000000000000E+20
 25
-1.000000000000000E+20
 35
-1.000000000000000E+20
146
0.0
 13
0.0
 23
0.0
 33
0.0
 16
1.0
 26
0.0
 36
0.0
 17
0.0
 27
1.0
 37
0.0
 76
     0
330
213
  0
LAYOUT
  5
3FC
102
{ACAD_XDICTIONARY
360
520
102
}
102
{ACAD_REACTORS
330
1A
102
}
330
1A
100
AcDbPlotSettings
  1

  2
none_device
  4
ISO_A1_(594.00_x_841.00_MM)
  6

 40
0.0
 41
0.0
 42
0.0
 43
0.0
 44
841.0
 45
594.0
 46
0.0
 47
0.0
 48
0.0
 49
0.0
140
0.0
141
0.0
142
1.0
143
1.0
 70
  1024
 72
     1
 73
     0
 74
     0
  7

 75
     0
147
1.0
148
0.0
149
0.0
100
AcDbLayout
  1
Model
 70
     0
 71
     0
 10
0.0
 20
0.0
 11
841.0
 21
594.0
 12
0.0
 22
0.0
 32
0.0
 14
0.0
 24
0.0
 34
0.0
 15
0.0
 25
0.0
 35
0.0
146
0.0
 13
0.0
 23
0.0
 33
0.0
 16
1.0
 26
0.0
 36
0.0
 17
0.0
 27
1.0
 37
0.0
 76
     0
330
212
331
1F4
  0
MATERIAL
  5
409
102
{ACAD_XDICTIONARY
360
40A
102
}
102
{ACAD_REACTORS
330
400
102
}
330
400
100
AcDbMaterial
  1
ByBlock
 72
     0
 43
0.0008202099737533
 43
0.0
 43
0.0
 43
0.0
 43
0.0
 43
0.0008202099737533
 43
0.0
 43
0.0
 43
0.0
 43
0.0
 43
1.0
 43
0.0
 43
0.0
 43
0.0
 43
0.0
 43
1.0
 77
     0
 47
0.0008202099737533
 47
0.0
 47
0.0
 47
0.0
 47
0.0
 47
0.0008202099737533
 47
0.0
 47
0.0
 47
0.0
 47
0.0
 47
1.0
 47
0.0
 47
0.0
 47
0.0
 47
0.0
 47
1.0
171
     0
 49
0.0008202099737533
 49
0.0
 49
0.0
 49
0.0
 49
0.0
 49
0.0008202099737533
 49
0.0
 49
0.0
 49
0.0
 49
0.0
 49
1.0
 49
0.0
 49
0.0
 49
0.0
 49
0.0
 49
1.0
175
     0
142
0.0008202099737533
142
0.0
142
0.0
142
0.0
142
0.0
142
0.0008202099737533
142
0.0
142
0.0
142
0.0
142
0.0
142
1.0
142
0.0
142
0.0
142
0.0
142
0.0
142
1.0
179
     0
144
0.0008202099737533
144
0.0
144
0.0
144
0.0
144
0.0
144
0.0008202099737533
144
0.0
144
0.0
144
0.0
144
0.0
144
1.0
144
0.0
144
0.0
144
0.0
144
0.0
144
1.0
147
0.0008202099737533
147
0.0
147
0.0
147
0.0
147
0.0
147
0.0008202099737533
147
0.0
147
0.0
147
0.0
147
0.0
147
1.0
147
0.0
147
0.0
147
0.0
147
0.0
147
1.0
  0
MATERIAL
  5
401
102
{ACAD_XDICTIONARY
360
402
102
}
102
{ACAD_REACTORS
330
400
102
}
330
400
100
AcDbMaterial
  1
ByLayer
 72
     0
 43
0.0008202099737533
 43
0.0
 43
0.0
 43
0.0
 43
0.0
 43
0.0008202099737533
 43
0.0
 43
0.0
 43
0.0
 43
0.0
 43
1.0
 43
0.0
 43
0.0
 43
0.0
 43
0.0
 43
1.0
 77
     0
 47
0.0008202099737533
 47
0.0
 47
0.0
 47
0.0
 47
0.0
 47
0.0008202099737533
 47
0.0
 47
0.0
 47
0.0
 47
0.0
 47
1.0
 47
0.0
 47
0.0
 47
0.0
 47
0.0
 47
1.0
171
     0
 49
0.0008202099737533
 49
0.0
 49
0.0
 49
0.0
 49
0.0
 49
0.0008202099737533
 49
0.0
 49
0.0
 49
0.0
 49
0.0
 49
1.0
 49
0.0
 49
0.0
 49
0.0
 49
0.0
 49
1.0
175
     0
142
0.0008202099737533
142
0.0
142
0.0
142
0.0
142
0.0
142
0.0008202099737533
142
0.0
142
0.0
142
0.0
142
0.0
142
1.0
142
0.0
142
0.0
142
0.0
142
0.0
142
1.0
179
     0
144
0.0008202099737533
144
0.0
144
0.0
144
0.0
144
0.0
144
0.0008202099737533
144
0.0
144
0.0
144
0.0
144
0.0
144
1.0
144
0.0
144
0.0
144
0.0
144
0.0
144
1.0
147
0.0008202099737533
147
0.0
147
0.0
147
0.0
147
0.0
147
0.0008202099737533
147
0.0
147
0.0
147
0.0
147
0.0
147
1.0
147
0.0
147
0.0
147
0.0
147
0.0
147
1.0
  0
MATERIAL
  5
411
102
{ACAD_XDICTIONARY
360
412
102
}
102
{ACAD_REACTORS
330
400
102
}
330
400
100
AcDbMaterial
  1
Global
 72
     0
 43
0.0008202099737533
 43
0.0
 43
0.0
 43
0.0
 43
0.0
 43
0.0008202099737533
 43
0.0
 43
0.0
 43
0.0
 43
0.0
 43
1.0
 43
0.0
 43
0.0
 43
0.0
 43
0.0
 43
1.0
 77
     0
 47
0.0008202099737533
 47
0.0
 47
0.0
 47
0.0
 47
0.0
 47
0.0008202099737533
 47
0.0
 47
0.0
 47
0.0
 47
0.0
 47
1.0
 47
0.0
 47
0.0
 47
0.0
 47
0.0
 47
1.0
171
     0
 49
0.0008202099737533
 49
0.0
 49
0.0
 49
0.0
 49
0.0
 49
0.0008202099737533
 49
0.0
 49
0.0
 49
0.0
 49
0.0
 49
1.0
 49
0.0
 49
0.0
 49
0.0
 49
0.0
 49
1.0
175
     0
142
0.0008202099737533
142
0.0
142
0.0
142
0.0
142
0.0
142
0.0008202099737533
142
0.0
142
0.0
142
0.0
142
0.0
142
1.0
142
0.0
142
0.0
142
0.0
142
0.0
142
1.0
179
     0
144
0.0008202099737533
144
0.0
144
0.0
144
0.0
144
0.0
144
0.0008202099737533
144
0.0
144
0.0
144
0.0
144
0.0
144
1.0
144
0.0
144
0.0
144
0.0
144
0.0
144
1.0
147
0.0008202099737533
147
0.0
147
0.0
147
0.0
147
0.0
147
0.0008202099737533
147
0.0
147
0.0
147
0.0
147
0.0
147
1.0
147
0.0
147
0.0
147
0.0
147
0.0
147
1.0
  0
MLEADERSTYLE
  5
450
102
{ACAD_REACTORS
330
44F
102
}
330
44F
100
AcDbMLeaderStyle
170
     2
171
     1
172
     0
 90
        2
 40
0.0
 41
0.0
173
     1
 91
-1056964608
340
14
 92
       -2
290
     1
 42
2.0
291
     1
 43
0.36
  3
Standard
 44
4.0
300

342
11
174
     1
178
     6
175
     1
176
     0
 93
-1056964608
 45
4.0
292
     0
297
     0
 46
4.0
 94
-1056964608
 47
1.0
 49
1.0
140
1.0
293
     1
141
0.0
294
     1
177
     0
142
1.0
295
     0
296
     0
143
0.125
1001
ACAD_MLEADERVER
1070
     2
  0
MLINESTYLE
  5
18
102
{ACAD_REACTORS
330
17
102
}
330
17
100
AcDbMlineStyle
  2
STANDARD
 70
     0
  3

 62
   256
 51
90.0
 52
90.0
 71
     2
 49
0.5
 62
   256
  6
BYLAYER
 49
-0.5
 62
   256
  6
BYLAYER
  0
ACDBPLACEHOLDER
  5
F
102
{ACAD_REACTORS
330
E
102
}
330
E
  0
SCALE
  5
42E
102
{ACAD_REACTORS
330
42D
102
}
330
42D
100
AcDbScale
 70
     0
300
1:1
140
1.0
141
1.0
290
     1
  0
SCALE
  5
42F
102
{ACAD_REACTORS
330
42D
102
}
330
42D
100
AcDbScale
 70
     0
300
1:2
140
1.0
141
2.0
290
     0
  0
SCALE
  5
430
102
{ACAD_REACTORS
330
42D
102
}
330
42D
100
AcDbScale
 70
     0
300
1:4
140
1.0
141
4.0
290
     0
  0
SCALE
  5
431
102
{ACAD_REACTORS
330
42D
102
}
330
42D
100
AcDbScale
 70
     0
300
1:5
140
1.0
141
5.0
290
     0
  0
SCALE
  5
432
102
{ACAD_REACTORS
330
42D
102
}
330
42D
100
AcDbScale
 70
     0
300
1:8
140
1.0
141
8.0
290
     0
  0
SCALE
  5
433
102
{ACAD_REACTORS
330
42D
102
}
330
42D
100
AcDbScale
 70
     0
300
1:10
140
1.0
141
10.0
290
     0
  0
SCALE
  5
434
102
{ACAD_REACTORS
330
42D
102
}
330
42D
100
AcDbScale
 70
     0
300
1:16
140
1.0
141
16.0
290
     0
  0
SCALE
  5
435
102
{ACAD_REACTORS
330
42D
102
}
330
42D
100
AcDbScale
 70
     0
300
1:20
140
1.0
141
20.0
290
     0
  0
SCALE
  5
436
102
{ACAD_REACTORS
330
42D
102
}
330
42D
100
AcDbScale
 70
     0
300
1:30
140
1.0
141
30.0
290
     0
  0
SCALE
  5
437
102
{ACAD_REACTORS
330
42D
102
}
330
42D
100
AcDbScale
 70
     0
300
1:40
140
1.0
141
40.0
290
     0
  0
SCALE
  5
438
102
{ACAD_REACTORS
330
42D
102
}
330
42D
100
AcDbScale
 70
     0
300
1:50
140
1.0
141
50.0
290
     0
  0
SCALE
  5
439
102
{ACAD_REACTORS
330
42D
102
}
330
42D
100
AcDbScale
 70
     0
300
1:100
140
1.0
141
100.0
290
     0
  0
SCALE
  5
43A
102
{ACAD_REACTORS
330
42D
102
}
330
42D
100
AcDbScale
 70
     0
300
2:1
140
2.0
141
1.0
290
     0
  0
SCALE
  5
43B
102
{ACAD_REACTORS
330
42D
102
}
330
42D
100
AcDbScale
 70
     0
300
4:1
140
4.0
141
1.0
290
     0
  0
SCALE
  5
43C
102
{ACAD_REACTORS
330
42D
102
}
330
42D
100
AcDbScale
 70
     0
300
8:1
140
8.0
141
1.0
290
     0
  0
SCALE
  5
43D
102
{ACAD_REACTORS
330
42D
102
}
330
42D
100
AcDbScale
 70
     0
300
10:1
140
10.0
141
1.0
290
     0
  0
SCALE
  5
43E
102
{ACAD_REACTORS
330
42D
102
}
330
42D
100
AcDbScale
 70
     0
300
100:1
140
100.0
141
1.0
290
     0
  0
SCALE
  5
43F
102
{ACAD_REACTORS
330
42D
102
}
330
42D
100
AcDbScale
 70
     0
300
1/128" = 1'-0"
140
0.0078125
141
12.0
290
     0
  0
SCALE
  5
440
102
{ACAD_REACTORS
330
42D
102
}
330
42D
100
AcDbScale
 70
     0
300
1/64" = 1'-0"
140
0.015625
141
12.0
290
     0
  0
SCALE
  5
441
102
{ACAD_REACTORS
330
42D
102
}
330
42D
100
AcDbScale
 70
     0
300
1/32" = 1'-0"
140
0.03125
141
12.0
290
     0
  0
SCALE
  5
442
102
{ACAD_REACTORS
330
42D
102
}
330
42D
100
AcDbScale
 70
     0
300
1/16" = 1'-0"
140
0.0625
141
12.0
290
     0
  0
SCALE
  5
443
102
{ACAD_REACTORS
330
42D
102
}
330
42D
100
AcDbScale
 70
     0
300
3/32" = 1'-0"
140
0.09375
141
12.0
290
     0
  0
SCALE
  5
444
102
{ACAD_REACTORS
330
42D
102
}
330
42D
100
AcDbScale
 70
     0
300
1/8" = 1'-0"
140
0.125
141
12.0
290
     0
  0
SCALE
  5
445
102
{ACAD_REACTORS
330
42D
102
}
330
42D
100
AcDbScale
 70
     0
300
3/16" = 1'-0"
140
0.1875
141
12.0
290
     0
  0
SCALE
  5
446
102
{ACAD_REACTORS
330
42D
102
}
330
42D
100
AcDbScale
 70
     0
300
1/4" = 1'-0"
140
0.25
141
12.0
290
     0
  0
SCALE
  5
447
102
{ACAD_REACTORS
330
42D
102
}
330
42D
100
AcDbScale
 70
     0
300
3/8" = 1'-0"
140
0.375
141
12.0
290
     0
  0
SCALE
  5
448
102
{ACAD_REACTORS
330
42D
102
}
330
42D
100
AcDbScale
 70
     0
300
1/2" = 1'-0"
140
0.5
141
12.0
290
     0
  0
SCALE
  5
449
102
{ACAD_REACTORS
330
42D
102
}
330
42D
100
AcDbScale
 70
     0
300
3/4" = 1'-0"
140
0.75
141
12.0
290
     0
  0
SCALE
  5
44A
102
{ACAD_REACTORS
330
42D
102
}
330
42D
100
AcDbScale
 70
     0
300
1" = 1'-0"
140
1.0
141
12.0
290
     0
  0
SCALE
  5
44B
102
{ACAD_REACTORS
330
42D
102
}
330
42D
100
AcDbScale
 70
     0
300
1-1/2" = 1'-0"
140
1.5
141
12.0
290
     0
  0
SCALE
  5
44C
102
{ACAD_REACTORS
330
42D
102
}
330
42D
100
AcDbScale
 70
     0
300
3" = 1'-0"
140
3.0
141
12.0
290
     0
  0
SCALE
  5
44D
102
{ACAD_REACTORS
330
42D
102
}
330
42D
100
AcDbScale
 70
     0
300
6" = 1'-0"
140
6.0
141
12.0
290
     0
  0
SCALE
  5
44E
102
{ACAD_REACTORS
330
42D
102
}
330
42D
100
AcDbScale
 70
     0
300
1'-0" = 1'-0"
140
12.0
141
12.0
290
     0
  0
TABLESTYLE
  5
42C
102
{ACAD_XDICTIONARY
360
452
102
}
102
{ACAD_REACTORS
330
42B
102
}
330
42B
100
AcDbTableStyle
  3
Standard
 70
     0
 71
     0
 40
1.5
 41
1.5
280
     0
281
     0
  7
STANDARD
140
4.5
170
     2
 62
     0
 63
     7
283
     0
274
    -2
284
     1
 64
     0
275
    -2
285
     1
 65
     0
276
    -2
286
     1
 66
     0
277
    -2
287
     1
 67
     0
278
    -2
288
     1
 68
     0
279
    -2
289
     1
 69
     0
  7
STANDARD
140
6.0
170
     5
 62
     0
 63
     7
283
     0
274
    -2
284
     1
 64
     0
275
    -2
285
     1
 65
     0
276
    -2
286
     1
 66
     0
277
    -2
287
     1
 67
     0
278
    -2
288
     1
 68
     0
279
    -2
289
     1
 69
     0
  7
STANDARD
140
4.5
170
     5
 62
     0
 63
     7
283
     0
274
    -2
284
     1
 64
     0
275
    -2
285
     1
 65
     0
276
    -2
286
     1
 66
     0
277
    -2
287
     1
 67
     0
278
    -2
288
     1
 68
     0
279
    -2
289
     1
 69
     0
  0
VISUALSTYLE
  5
41F
102
{ACAD_XDICTIONARY
360
531
102
}
102
{ACAD_REACTORS
330
419
102
}
330
419
100
AcDbVisualStyle
  2
2dWireframe
 70
     4
 71
     0
 72
     2
 73
     0
 90
        0
 40
-0.6
 41
-30.0
 62
     5
 63
     7
 74
     1
 91
        4
 64
     7
 65
   257
 75
     1
175
     1
 42
1.0
 92
        0
 66
   257
 43
1.0
 76
     1
 77
     6
 78
     2
 67
     7
 79
     5
170
     0
171
     0
290
     0
174
     0
 93
        1
 44
0.0
173
     0
291
     0
 45
0.0
1001
ACAD
1000
AcDbSavedByObjectVersion
1070
     0
  0
VISUALSTYLE
  5
421
102
{ACAD_XDICTIONARY
360
535
102
}
102
{ACAD_REACTORS
330
419
102
}
330
419
100
AcDbVisualStyle
  2
3D Hidden
 70
     6
 71
     1
 72
     2
 73
     2
 90
        0
 40
-0.6
 41
-30.0
 62
     5
 63
     7
 74
     2
 91
        2
 64
     7
 65
   257
 75
     2
175
     1
 42
40.0
 92
        0
 66
   257
 43
1.0
 76
     1
 77
     6
 78
     2
 67
     7
 79
     3
170
     0
171
     0
290
     0
174
     0
 93
        1
 44
0.0
173
     0
291
     0
 45
0.0
1001
ACAD
1000
AcDbSavedByObjectVersion
1070
     0
  0
VISUALSTYLE
  5
420
102
{ACAD_XDICTIONARY
360
533
102
}
102
{ACAD_REACTORS
330
419
102
}
330
419
100
AcDbVisualStyle
  2
3dWireframe
 70
     5
 71
     0
 72
     2
 73
     0
 90
        0
 40
-0.6
 41
-30.0
 62
     5
 63
     7
 74
     1
 91
        4
 64
     7
 65
   257
 75
     1
175
     1
 42
1.0
 92
        0
 66
   257
 43
1.0
 76
     1
 77
     6
 78
     2
 67
     7
 79
     5
170
     0
171
     0
290
     0
174
     0
 93
        1
 44
0.0
173
     0
291
     0
 45
0.0
1001
ACAD
1000
AcDbSavedByObjectVersion
1070
     0
  0
VISUALSTYLE
  5
41E
102
{ACAD_XDICTIONARY
360
52F
102
}
102
{ACAD_REACTORS
330
419
102
}
330
419
100
AcDbVisualStyle
  2
Basic
 70
     7
 71
     1
 72
     0
 73
     1
 90
        0
 40
-0.6
 41
-30.0
 62
     5
 63
     7
 74
     0
 91
        4
 64
     7
 65
   257
 75
     1
175
     1
 42
1.0
 92
        8
 66
     7
 43
1.0
 76
     1
 77
     6
 78
     2
 67
     7
 79
     5
170
     0
171
     0
290
     0
174
     0
 93
        1
 44
0.0
173
     0
291
     1
 45
0.0
1001
ACAD
1000
AcDbSavedByObjectVersion
1070
     0
  0
VISUALSTYLE
  5
425
102
{ACAD_XDICTIONARY
360
53D
102
}
102
{ACAD_REACTORS
330
419
102
}
330
419
100
AcDbVisualStyle
  2
Brighten
 70
    12
 71
     2
 72
     2
 73
     0
 90
        0
 40
-0.6
 41
-30.0
 62
     5
 63
     7
 74
     1
 91
        4
 64
     7
 65
   257
 75
     1
175
     1
 42
1.0
 92
        8
 66
     7
 43
1.0
 76
     1
 77
     6
 78
     2
 67
     7
 79
     5
170
     0
171
     0
290
     0
174
     0
 93
        1
 44
50.0
173
     0
291
     1
 45
0.0
1001
ACAD
1000
AcDbSavedByObjectVersion
1070
     0
  0
VISUALSTYLE
  5
429
102
{ACAD_XDICTIONARY
360
545
102
}
102
{ACAD_REACTORS
330
419
102
}
330
419
100
AcDbVisualStyle
  2
ColorChange
 70
    16
 71
     2
 72
     2
 73
     3
 90
        0
 40
-0.6
 41
-30.0
 62
     5
 63
     8
 74
     1
 91
        4
 64
     7
 65
   257
 75
     1
175
     1
 42
1.0
 92
        8
 66
     8
 43
1.0
 76
     1
 77
     6
 78
     2
 67
     7
 79
     5
170
     0
171
     0
290
     0
174
     0
 93
        1
 44
0.0
173
     0
291
     1
 45
0.0
1001
ACAD
1000
AcDbSavedByObjectVersion
1070
     0
  0
VISUALSTYLE
  5
422
102
{ACAD_XDICTIONARY
360
537
102
}
102
{ACAD_REACTORS
330
419
102
}
330
419
100
AcDbVisualStyle
  2
Conceptual
 70
     9
 71
     3
 72
     2
 73
     0
 90
        0
 40
-0.6
 41
-30.0
 62
     5
 63
     7
 74
     2
 91
        2
 64
     7
 65
   257
 75
     1
175
     1
 42
40.0
 92
        8
 66
     7
 43
1.0
 76
     1
 77
     6
 78
     2
 67
     7
 79
     3
170
     0
171
     0
290
     0
174
     0
 93
        1
 44
0.0
173
     0
291
     0
 45
0.0
1001
ACAD
1000
AcDbSavedByObjectVersion
1070
     0
  0
VISUALSTYLE
  5
424
102
{ACAD_XDICTIONARY
360
53B
102
}
102
{ACAD_REACTORS
330
419
102
}
330
419
100
AcDbVisualStyle
  2
Dim
 70
    11
 71
     2
 72
     2
 73
     0
 90
        0
 40
-0.6
 41
-30.0
 62
     5
 63
     7
 74
     1
 91
        4
 64
     7
 65
   257
 75
     1
175
     1
 42
1.0
 92
        8
 66
     7
 43
1.0
 76
     1
 77
     6
 78
     2
 67
     7
 79
     5
170
     0
171
     0
290
     0
174
     0
 93
        1
 44
-50.0
173
     0
291
     1
 45
0.0
1001
ACAD
1000
AcDbSavedByObjectVersion
1070
     0
  0
VISUALSTYLE
  5
49E
102
{ACAD_XDICTIONARY
360
55A
102
}
102
{ACAD_REACTORS
330
419
102
}
330
419
100
AcDbVisualStyle
  2
EdgeColorOff
 70
    22
 71
     2
 72
     2
 73
     0
 90
        0
 40
-0.6
 41
-30.0
 62
     5
 63
     7
 74
     1
 91
        4
 64
     7
 65
   257
 75
     1
175
     1
 42
1.0
 92
        8
 66
     7
 43
1.0
 76
     1
 77
     6
 78
     2
 67
     7
 79
     5
170
     0
171
     0
290
     0
174
     0
 93
        1
 44
0.0
173
     0
291
     1
 45
0.0
1001
ACAD
1000
AcDbSavedByObjectVersion
1070
     0
  0
VISUALSTYLE
  5
428
102
{ACAD_XDICTIONARY
360
543
102
}
102
{ACAD_REACTORS
330
419
102
}
330
419
100
AcDbVisualStyle
  2
Facepattern
 70
    15
 71
     2
 72
     2
 73
     0
 90
        0
 40
-0.6
 41
-30.0
 62
     5
 63
     7
 74
     1
 91
        4
 64
     7
 65
   257
 75
     1
175
     1
 42
1.0
 92
        8
 66
     7
 43
1.0
 76
     1
 77
     6
 78
     2
 67
     7
 79
     5
170
     0
171
     0
290
     0
174
     0
 93
        1
 44
0.0
173
     0
291
     1
 45
0.0
1001
ACAD
1000
AcDbSavedByObjectVersion
1070
     0
  0
VISUALSTYLE
  5
41A
102
{ACAD_XDICTIONARY
360
527
102
}
102
{ACAD_REACTORS
330
419
102
}
330
419
100
AcDbVisualStyle
  2
Flat
 70
     0
 71
     2
 72
     1
 73
     1
 90
        2
 40
-0.6
 41
30.0
 62
     5
 63
     7
 74
     0
 91
        4
 64
     7
 65
   257
 75
     1
175
     1
 42
1.0
 92
        8
 66
     7
 43
1.0
 76
     1
 77
     6
 78
     2
 67
     7
 79
     5
170
     0
171
     0
290
     0
174
     0
 93
       13
 44
0.0
173
     0
291
     1
 45
0.0
1001
ACAD
1000
AcDbSavedByObjectVersion
1070
     0
  0
VISUALSTYLE
  5
41B
102
{ACAD_XDICTIONARY
360
529
102
}
102
{ACAD_REACTORS
330
419
102
}
330
419
100
AcDbVisualStyle
  2
FlatWithEdges
 70
     1
 71
     2
 72
     1
 73
     1
 90
        2
 40
-0.6
 41
30.0
 62
     5
 63
     7
 74
     1
 91
        4
 64
     7
 65
   257
 75
     1
175
     1
 42
1.0
 92
        0
 66
   257
 43
1.0
 76
     1
 77
     6
 78
     2
 67
     7
 79
     5
170
     0
171
     0
290
     0
174
     0
 93
       13
 44
0.0
173
     0
291
     1
 45
0.0
1001
ACAD
1000
AcDbSavedByObjectVersion
1070
     0
  0
VISUALSTYLE
  5
41C
102
{ACAD_XDICTIONARY
360
52B
102
}
102
{ACAD_REACTORS
330
419
102
}
330
419
100
AcDbVisualStyle
  2
Gouraud
 70
     2
 71
     2
 72
     2
 73
     1
 90
        2
 40
-0.6
 41
30.0
 62
     5
 63
     7
 74
     0
 91
        4
 64
     7
 65
   257
 75
     1
175
     1
 42
1.0
 92
        0
 66
     7
 43
1.0
 76
     1
 77
     6
 78
     2
 67
     7
 79
     5
170
     0
171
     0
290
     0
174
     0
 93
       13
 44
0.0
173
     0
291
     1
 45
0.0
1001
ACAD
1000
AcDbSavedByObjectVersion
1070
     0
  0
VISUALSTYLE
  5
41D
102
{ACAD_XDICTIONARY
360
52D
102
}
102
{ACAD_REACTORS
330
419
102
}
330
419
100
AcDbVisualStyle
  2
GouraudWithEdges
 70
     3
 71
     2
 72
     2
 73
     1
 90
        2
 40
-0.6
 41
30.0
 62
     5
 63
     7
 74
     1
 91
        4
 64
     7
 65
   257
 75
     1
175
     1
 42
1.0
 92
        0
 66
   257
 43
1.0
 76
     1
 77
     6
 78
     2
 67
     7
 79
     5
170
     0
171
     0
290
     0
174
     0
 93
       13
 44
0.0
173
     0
291
     1
 45
0.0
1001
ACAD
1000
AcDbSavedByObjectVersion
1070
     0
  0
VISUALSTYLE
  5
496
102
{ACAD_XDICTIONARY
360
54A
102
}
102
{ACAD_REACTORS
330
419
102
}
330
419
100
AcDbVisualStyle
  2
Hidden
 70
     6
 71
     1
 72
     2
 73
     2
 90
        0
 40
-0.6
 41
-30.0
 62
     5
 63
     7
 74
     2
 91
        2
 64
     7
 65
   257
 75
     2
175
     1
 42
40.0
 92
        0
 66
   257
 43
1.0
 76
     1
 77
     6
 78
     2
 67
     7
 79
     3
170
     0
171
     0
290
     0
174
     0
 93
        1
 44
0.0
173
     0
291
     0
 45
0.0
1001
ACAD
1000
AcDbSavedByObjectVersion
1070
     0
  0
VISUALSTYLE
  5
49C
102
{ACAD_XDICTIONARY
360
556
102
}
102
{ACAD_REACTORS
330
419
102
}
330
419
100
AcDbVisualStyle
  2
JitterOff
 70
    20
 71
     2
 72
     2
 73
     0
 90
        0
 40
-0.6
 41
-30.0
 62
     5
 63
     7
 74
     1
 91
        4
 64
     7
 65
   257
 75
     1
175
     1
 42
1.0
 92
       10
 66
     7
 43
1.0
 76
     1
 77
     6
 78
     2
 67
     7
 79
     5
170
     0
171
     0
290
     0
174
     0
 93
        1
 44
0.0
173
     0
291
     1
 45
0.0
1001
ACAD
1000
AcDbSavedByObjectVersion
1070
     0
  0
VISUALSTYLE
  5
427
102
{ACAD_XDICTIONARY
360
541
102
}
102
{ACAD_REACTORS
330
419
102
}
330
419
100
AcDbVisualStyle
  2
Linepattern
 70
    14
 71
     2
 72
     2
 73
     0
 90
        0
 40
-0.6
 41
-30.0
 62
     5
 63
     7
 74
     1
 91
        4
 64
     7
 65
   257
 75
     7
175
     7
 42
1.0
 92
        8
 66
     7
 43
1.0
 76
     1
 77
     6
 78
     2
 67
     7
 79
     5
170
     0
171
     0
290
     0
174
     0
 93
        1
 44
0.0
173
     0
291
     1
 45
0.0
1001
ACAD
1000
AcDbSavedByObjectVersion
1070
     0
  0
VISUALSTYLE
  5
49D
102
{ACAD_XDICTIONARY
360
558
102
}
102
{ACAD_REACTORS
330
419
102
}
330
419
100
AcDbVisualStyle
  2
OverhangOff
 70
    21
 71
     2
 72
     2
 73
     0
 90
        0
 40
-0.6
 41
-30.0
 62
     5
 63
     7
 74
     1
 91
        4
 64
     7
 65
   257
 75
     1
175
     1
 42
1.0
 92
        9
 66
     7
 43
1.0
 76
     1
 77
     6
 78
     2
 67
     7
 79
     5
170
     0
171
     0
290
     0
174
     0
 93
        1
 44
0.0
173
     0
291
     1
 45
0.0
1001
ACAD
1000
AcDbSavedByObjectVersion
1070
     0
  0
VISUALSTYLE
  5
423
102
{ACAD_XDICTIONARY
360
539
102
}
102
{ACAD_REACTORS
330
419
102
}
330
419
100
AcDbVisualStyle
  2
Realistic
 70
     8
 71
     2
 72
     2
 73
     0
 90
        0
 40
-0.6
 41
-30.0
 62
     5
 63
     7
 74
     1
 91
        0
 64
     7
 65
   257
 75
     1
175
     1
 42
1.0
 92
        8
 66
     8
 43
1.0
 76
     1
 77
     6
 78
     2
 67
     7
 79
     5
170
     0
171
     0
290
     0
174
     0
 93
       13
 44
0.0
173
     0
291
     0
 45
0.0
1001
ACAD
1000
AcDbSavedByObjectVersion
1070
     0
  0
VISUALSTYLE
  5
49B
102
{ACAD_XDICTIONARY
360
554
102
}
102
{ACAD_REACTORS
330
419
102
}
330
419
100
AcDbVisualStyle
  2
Shaded
 70
    27
 71
     2
 72
     2
 73
     1
 90
        2
 40
-0.6
 41
30.0
 62
     5
 63
     7
 74
     0
 91
        4
 64
     7
 65
   257
 75
     1
175
     1
 42
1.0
 92
        8
 66
   257
 43
1.0
 76
     1
 77
     6
 78
     2
 67
     8
 79
     3
170
     0
171
     0
290
     0
174
     0
 93
        5
 44
0.0
173
     0
291
     0
 45
0.0
1001
ACAD
1000
AcDbSavedByObjectVersion
1070
     0
  0
VISUALSTYLE
  5
49A
102
{ACAD_XDICTIONARY
360
552
102
}
102
{ACAD_REACTORS
330
419
102
}
330
419
100
AcDbVisualStyle
  2
Shaded with edges
 70
    26
 71
     2
 72
     2
 73
     1
 90
        2
 40
-0.6
 41
30.0
 62
     5
 63
     7
 74
     1
 91
       10
 64
     7
 65
   257
 75
     2
175
     1
 42
1.0
 92
        8
 66
   257
 43
1.0
 76
     1
 77
     6
 78
     2
 67
     7
 79
     3
170
     0
171
     0
290
     0
174
     0
 93
        5
 44
0.0
173
     0
291
     0
 45
0.0
1001
ACAD
1000
AcDbSavedByObjectVersion
1070
     0
  0
VISUALSTYLE
  5
497
102
{ACAD_XDICTIONARY
360
54C
102
}
102
{ACAD_REACTORS
330
419
102
}
330
419
100
AcDbVisualStyle
  2
Shades of Gray
 70
    23
 71
     2
 72
     2
 73
     3
 90
        0
 40
-0.6
 41
-30.0
 62
     5
 63
     7
 74
     2
 91
        2
 64
     7
 65
     7
 75
     1
175
     1
 42
40.0
 92
        8
 66
     7
 43
1.0
 76
     1
 77
     6
 78
     2
 67
     7
 79
     3
170
     0
171
     0
290
     0
174
     0
 93
        1
 44
0.0
173
     0
291
     0
 45
0.0
1001
ACAD
1000
AcDbSavedByObjectVersion
1070
     0
  0
VISUALSTYLE
  5
498
102
{ACAD_XDICTIONARY
360
54E
102
}
102
{ACAD_REACTORS
330
419
102
}
330
419
100
AcDbVisualStyle
  2
Sketchy
 70
    24
 71
     1
 72
     2
 73
     2
 90
        0
 40
-0.6
 41
-30.0
 62
     5
 63
     7
 74
     2
 91
        2
 64
     7
 65
     7
 75
     1
175
     1
 42
40.0
 92
       11
 66
     7
 43
1.0
 76
     1
 77
     6
 78
     2
 67
     7
 79
     6
170
     0
171
     0
290
     0
174
     0
 93
        1
 44
0.0
173
     0
291
     0
 45
0.0
1001
ACAD
1000
AcDbSavedByObjectVersion
1070
     0
  0
VISUALSTYLE
  5
426
102
{ACAD_XDICTIONARY
360
53F
102
}
102
{ACAD_REACTORS
330
419
102
}
330
419
100
AcDbVisualStyle
  2
Thicken
 70
    13
 71
     2
 72
     2
 73
     0
 90
        0
 40
-0.6
 41
-30.0
 62
     5
 63
     7
 74
     1
 91
        4
 64
     7
 65
   257
 75
     1
175
     1
 42
1.0
 92
       12
 66
     7
 43
1.0
 76
     1
 77
     6
 78
     2
 67
     7
 79
     5
170
     0
171
     0
290
     0
174
     0
 93
        1
 44
0.0
173
     0
291
     1
 45
0.0
1001
ACAD
1000
AcDbSavedByObjectVersion
1070
     0
  0
VISUALSTYLE
  5
495
102
{ACAD_XDICTIONARY
360
548
102
}
102
{ACAD_REACTORS
330
419
102
}
330
419
100
AcDbVisualStyle
  2
Wireframe
 70
     5
 71
     0
 72
     2
 73
     0
 90
        0
 40
-0.6
 41
-30.0
 62
     5
 63
     7
 74
     1
 91
        4
 64
     7
 65
   257
 75
     1
175
     1
 42
1.0
 92
        0
 66
   257
 43
1.0
 76
     1
 77
     6
 78
     2
 67
     7
 79
     3
170
     0
171
     0
290
     0
174
     0
 93
        1
 44
0.0
173
     0
291
     0
 45
0.0
1001
ACAD
1000
AcDbSavedByObjectVersion
1070
     0
  0
VISUALSTYLE
  5
499
102
{ACAD_XDICTIONARY
360
550
102
}
102
{ACAD_REACTORS
330
419
102
}
330
419
100
AcDbVisualStyle
  2
X-Ray
 70
    25
 71
     2
 72
     2
 73
     1
 90
        1
 40
0.5
 41
-30.0
 62
     5
 63
     7
 74
     1
 91
        0
 64
     7
 65
   257
 75
     1
175
     1
 42
1.0
 92
        8
 66
     7
 43
1.0
 76
     1
 77
     6
 78
     2
 67
     7
 79
     3
170
     0
171
     0
290
     0
174
     0
 93
       13
 44
0.0
173
     0
291
     0
 45
0.0
1001
ACAD
1000
AcDbSavedByObjectVersion
1070
     0
  0
DICTIONARYVAR
  5
490
102
{ACAD_REACTORS
330
48D
102
}
330
48D
100
DictionaryVariables
280
     0
  1
1:1
  0
DICTIONARYVAR
  5
48F
102
{ACAD_REACTORS
330
48D
102
}
330
48D
100
DictionaryVariables
280
     0
  1
STANDARD
  0
DICTIONARYVAR
  5
48E
102
{ACAD_REACTORS
330
48D
102
}
330
48D
100
DictionaryVariables
280
     0
  1
STANDARD
  0
DICTIONARYVAR
  5
493
102
{ACAD_REACTORS
330
48D
102
}
330
48D
100
DictionaryVariables
280
     0
  1
1
  0
DICTIONARYVAR
  5
492
102
{ACAD_REACTORS
330
48D
102
}
330
48D
100
DictionaryVariables
280
     0
  1
0
  0
DICTIONARYVAR
  5
491
102
{ACAD_REACTORS
330
48D
102
}
330
48D
100
DictionaryVariables
280
     0
  1
127
  0
DICTIONARYVAR
  5
51C
102
{ACAD_REACTORS
330
48D
102
}
330
48D
100
DictionaryVariables
280
     0
  1
2
  0
DICTIONARY
  5
522
330
3FD
100
AcDbDictionary
280
     1
281
     1
  3
ACAD_XREC_ROUNDTRIP
360
523
  0
DICTIONARY
  5
520
330
3FC
100
AcDbDictionary
280
     1
281
     1
  3
ACAD_XREC_ROUNDTRIP
360
521
  0
DICTIONARY
  5
40A
330
409
100
AcDbDictionary
280
     1
281
     1
  3
ACAD_XREC_ROUNDTRIP
360
525
  3
BUMPTILE
360
40C
  3
DIFFUSETILE
360
40B
  3
OPACITYTILE
360
40F
  3
REFLECTIONTILE
360
40E
  3
REFRACTIONTILE
360
410
  3
SPECULARTILE
360
40D
  0
DICTIONARY
  5
402
330
401
100
AcDbDictionary
280
     1
281
     1
  3
ACAD_XREC_ROUNDTRIP
360
524
  3
BUMPTILE
360
404
  3
DIFFUSETILE
360
403
  3
OPACITYTILE
360
407
  3
REFLECTIONTILE
360
406
  3
REFRACTIONTILE
360
408
  3
SPECULARTILE
360
405
  0
DICTIONARY
  5
412
330
411
100
AcDbDictionary
280
     1
281
     1
  3
ACAD_XREC_ROUNDTRIP
360
526
  3
BUMPTILE
360
414
  3
DIFFUSETILE
360
413
  3
OPACITYTILE
360
417
  3
REFLECTIONTILE
360
416
  3
REFRACTIONTILE
360
418
  3
SPECULARTILE
360
415
  0
DICTIONARY
  5
452
330
42C
100
AcDbDictionary
280
     1
281
     1
  3
ACAD_ROUNDTRIP_2008_TABLESTYLE_CELLSTYLEMAP
360
51D
  3
ACAD_XREC_ROUNDTRIP
360
547
  0
DICTIONARY
  5
531
330
41F
100
AcDbDictionary
280
     1
281
     1
  3
ACAD_XREC_ROUNDTRIP
360
532
  0
DICTIONARY
  5
535
330
421
100
AcDbDictionary
280
     1
281
     1
  3
ACAD_XREC_ROUNDTRIP
360
536
  0
DICTIONARY
  5
533
330
420
100
AcDbDictionary
280
     1
281
     1
  3
ACAD_XREC_ROUNDTRIP
360
534
  0
DICTIONARY
  5
52F
330
41E
100
AcDbDictionary
280
     1
281
     1
  3
ACAD_XREC_ROUNDTRIP
360
530
  0
DICTIONARY
  5
53D
330
425
100
AcDbDictionary
280
     1
281
     1
  3
ACAD_XREC_ROUNDTRIP
360
53E
  0
DICTIONARY
  5
545
330
429
100
AcDbDictionary
280
     1
281
     1
  3
ACAD_XREC_ROUNDTRIP
360
546
  0
DICTIONARY
  5
537
330
422
100
AcDbDictionary
280
     1
281
     1
  3
ACAD_XREC_ROUNDTRIP
360
538
  0
DICTIONARY
  5
53B
330
424
100
AcDbDictionary
280
     1
281
     1
  3
ACAD_XREC_ROUNDTRIP
360
53C
  0
DICTIONARY
  5
55A
330
49E
100
AcDbDictionary
280
     1
281
     1
  3
ACAD_XREC_ROUNDTRIP
360
55B
  0
DICTIONARY
  5
543
330
428
100
AcDbDictionary
280
     1
281
     1
  3
ACAD_XREC_ROUNDTRIP
360
544
  0
DICTIONARY
  5
527
330
41A
100
AcDbDictionary
280
     1
281
     1
  3
ACAD_XREC_ROUNDTRIP
360
528
  0
DICTIONARY
  5
529
330
41B
100
AcDbDictionary
280
     1
281
     1
  3
ACAD_XREC_ROUNDTRIP
360
52A
  0
DICTIONARY
  5
52B
330
41C
100
AcDbDictionary
280
     1
281
     1
  3
ACAD_XREC_ROUNDTRIP
360
52C
  0
DICTIONARY
  5
52D
330
41D
100
AcDbDictionary
280
     1
281
     1
  3
ACAD_XREC_ROUNDTRIP
360
52E
  0
DICTIONARY
  5
54A
330
496
100
AcDbDictionary
280
     1
281
     1
  3
ACAD_XREC_ROUNDTRIP
360
54B
  0
DICTIONARY
  5
556
330
49C
100
AcDbDictionary
280
     1
281
     1
  3
ACAD_XREC_ROUNDTRIP
360
557
  0
DICTIONARY
  5
541
330
427
100
AcDbDictionary
280
     1
281
     1
  3
ACAD_XREC_ROUNDTRIP
360
542
  0
DICTIONARY
  5
558
330
49D
100
AcDbDictionary
280
     1
281
     1
  3
ACAD_XREC_ROUNDTRIP
360
559
  0
DICTIONARY
  5
539
330
423
100
AcDbDictionary
280
     1
281
     1
  3
ACAD_XREC_ROUNDTRIP
360
53A
  0
DICTIONARY
  5
554
330
49B
100
AcDbDictionary
280
     1
281
     1
  3
ACAD_XREC_ROUNDTRIP
360
555
  0
DICTIONARY
  5
552
330
49A
100
AcDbDictionary
280
     1
281
     1
  3
ACAD_XREC_ROUNDTRIP
360
553
  0
DICTIONARY
  5
54C
330
497
100
AcDbDictionary
280
     1
281
     1
  3
ACAD_XREC_ROUNDTRIP
360
54D
  0
DICTIONARY
  5
54E
330
498
100
AcDbDictionary
280
     1
281
     1
  3
ACAD_XREC_ROUNDTRIP
360
54F
  0
DICTIONARY
  5
53F
330
426
100
AcDbDictionary
280
     1
281
     1
  3
ACAD_XREC_ROUNDTRIP
360
540
  0
DICTIONARY
  5
548
330
495
100
AcDbDictionary
280
     1
281
     1
  3
ACAD_XREC_ROUNDTRIP
360
549
  0
DICTIONARY
  5
550
330
499
100
AcDbDictionary
280
     1
281
     1
  3
ACAD_XREC_ROUNDTRIP
360
551
  0
XRECORD
  5
523
102
{ACAD_REACTORS
330
522
102
}
330
522
100
AcDbXrecord
280
     1
102
SHADEPLOT
 70
     0
102
SHADEPLOTRESLEVEL
 70
     2
102
SHADEPLOTCUSTOMDPI
 70
   300
  0
XRECORD
  5
521
102
{ACAD_REACTORS
330
520
102
}
330
520
100
AcDbXrecord
280
     1
102
SHADEPLOT
 70
     0
102
SHADEPLOTRESLEVEL
 70
     2
102
SHADEPLOTCUSTOMDPI
 70
   300
  0
XRECORD
  5
525
102
{ACAD_REACTORS
330
40A
102
}
330
40A
100
AcDbXrecord
280
     1
102
MATERIAL
148
0.0
149
0.0
149
0.0
 93
        0
 94
      127
282
     0
 72
     0
 77
     0
171
     0
175
     0
179
     0
273
     0
  0
XRECORD
  5
40C
102
{ACAD_REACTORS
330
40A
102
}
330
40A
100
AcDbXrecord
280
     1
270
     1
271
     1
  0
XRECORD
  5
40B
102
{ACAD_REACTORS
330
40A
102
}
330
40A
100
AcDbXrecord
280
     1
270
     1
271
     1
  0
XRECORD
  5
40F
102
{ACAD_REACTORS
330
40A
102
}
330
40A
100
AcDbXrecord
280
     1
270
     1
271
     1
  0
XRECORD
  5
40E
102
{ACAD_REACTORS
330
40A
102
}
330
40A
100
AcDbXrecord
280
     1
270
     1
271
     1
  0
XRECORD
  5
410
102
{ACAD_REACTORS
330
40A
102
}
330
40A
100
AcDbXrecord
280
     1
270
     1
271
     1
  0
XRECORD
  5
40D
102
{ACAD_REACTORS
330
40A
102
}
330
40A
100
AcDbXrecord
280
     1
270
     1
271
     1
  0
XRECORD
  5
524
102
{ACAD_REACTORS
330
402
102
}
330
402
100
AcDbXrecord
280
     1
102
MATERIAL
148
0.0
149
0.0
149
0.0
 93
        0
 94
      127
282
     0
 72
     0
 77
     0
171
     0
175
     0
179
     0
273
     0
  0
XRECORD
  5
404
102
{ACAD_REACTORS
330
402
102
}
330
402
100
AcDbXrecord
280
     1
270
     1
271
     1
  0
XRECORD
  5
403
102
{ACAD_REACTORS
330
402
102
}
330
402
100
AcDbXrecord
280
     1
270
     1
271
     1
  0
XRECORD
  5
407
102
{ACAD_REACTORS
330
402
102
}
330
402
100
AcDbXrecord
280
     1
270
     1
271
     1
  0
XRECORD
  5
406
102
{ACAD_REACTORS
330
402
102
}
330
402
100
AcDbXrecord
280
     1
270
     1
271
     1
  0
XRECORD
  5
408
102
{ACAD_REACTORS
330
402
102
}
330
402
100
AcDbXrecord
280
     1
270
     1
271
     1
  0
XRECORD
  5
405
102
{ACAD_REACTORS
330
402
102
}
330
402
100
AcDbXrecord
280
     1
270
     1
271
     1
  0
XRECORD
  5
526
102
{ACAD_REACTORS
330
412
102
}
330
412
100
AcDbXrecord
280
     1
102
MATERIAL
148
0.0
149
0.0
149
0.0
 93
        0
 94
      127
282
     0
 72
     0
 77
     0
171
     0
175
     0
179
     0
273
     0
  0
XRECORD
  5
414
102
{ACAD_REACTORS
330
412
102
}
330
412
100
AcDbXrecord
280
     1
270
     1
271
     1
  0
XRECORD
  5
413
102
{ACAD_REACTORS
330
412
102
}
330
412
100
AcDbXrecord
280
     1
270
     1
271
     1
  0
XRECORD
  5
417
102
{ACAD_REACTORS
330
412
102
}
330
412
100
AcDbXrecord
280
     1
270
     1
271
     1
  0
XRECORD
  5
416
102
{ACAD_REACTORS
330
412
102
}
330
412
100
AcDbXrecord
280
     1
270
     1
271
     1
  0
XRECORD
  5
418
102
{ACAD_REACTORS
330
412
102
}
330
412
100
AcDbXrecord
280
     1
270
     1
271
     1
  0
XRECORD
  5
415
102
{ACAD_REACTORS
330
412
102
}
330
412
100
AcDbXrecord
280
     1
270
     1
271
     1
  0
CELLSTYLEMAP
  5
51D
102
{ACAD_REACTORS
330
452
102
}
330
452
100
AcDbCellStyleMap
 90
        3
300
CELLSTYLE
  1
TABLEFORMAT_BEGIN
 90
        5
170
     1
 91
        0
 92
    32768
 62
   257
 93
        1
300
CONTENTFORMAT
  1
CONTENTFORMAT_BEGIN
 90
        0
 91
        0
 92
      512
 93
        0
300

 40
0.0
140
1.0
 94
        5
 62
     0
340
11
144
6.0
309
CONTENTFORMAT_END
171
     1
301
MARGIN
  1
CELLMARGIN_BEGIN
 40
1.5
 40
1.5
 40
1.5
 40
1.5
 40
4.5
 40
4.5
309
CELLMARGIN_END
 94
        6
 95
        1
302
GRIDFORMAT
  1
GRIDFORMAT_BEGIN
 90
        0
 91
        1
 62
     0
 92
       -2
340
0
 93
        0
 40
1.125
309
GRIDFORMAT_END
 95
        2
302
GRIDFORMAT
  1
GRIDFORMAT_BEGIN
 90
        0
 91
        1
 62
     0
 92
       -2
340
0
 93
        0
 40
1.125
309
GRIDFORMAT_END
 95
        4
302
GRIDFORMAT
  1
GRIDFORMAT_BEGIN
 90
        0
 91
        1
 62
     0
 92
       -2
340
0
 93
        0
 40
1.125
309
GRIDFORMAT_END
 95
        8
302
GRIDFORMAT
  1
GRIDFORMAT_BEGIN
 90
        0
 91
        1
 62
     0
 92
       -2
340
0
 93
        0
 40
1.125
309
GRIDFORMAT_END
 95
       16
302
GRIDFORMAT
  1
GRIDFORMAT_BEGIN
 90
        0
 91
        1
 62
     0
 92
       -2
340
0
 93
        0
 40
1.125
309
GRIDFORMAT_END
 95
       32
302
GRIDFORMAT
  1
GRIDFORMAT_BEGIN
 90
        0
 91
        1
 62
     0
 92
       -2
340
0
 93
        0
 40
1.125
309
GRIDFORMAT_END
309
TABLEFORMAT_END
  1
CELLSTYLE_BEGIN
 90
        1
 91
        1
300
_TITLE
309
CELLSTYLE_END
300
CELLSTYLE
  1
TABLEFORMAT_BEGIN
 90
        5
170
     1
 91
        0
 92
        0
 62
   257
 93
        1
300
CONTENTFORMAT
  1
CONTENTFORMAT_BEGIN
 90
        0
 91
        0
 92
      512
 93
        0
300

 40
0.0
140
1.0
 94
        5
 62
     0
340
11
144
4.5
309
CONTENTFORMAT_END
171
     1
301
MARGIN
  1
CELLMARGIN_BEGIN
 40
1.5
 40
1.5
 40
1.5
 40
1.5
 40
4.5
 40
4.5
309
CELLMARGIN_END
 94
        6
 95
        1
302
GRIDFORMAT
  1
GRIDFORMAT_BEGIN
 90
        0
 91
        1
 62
     0
 92
       -2
340
0
 93
        0
 40
1.125
309
GRIDFORMAT_END
 95
        2
302
GRIDFORMAT
  1
GRIDFORMAT_BEGIN
 90
        0
 91
        1
 62
     0
 92
       -2
340
0
 93
        0
 40
1.125
309
GRIDFORMAT_END
 95
        4
302
GRIDFORMAT
  1
GRIDFORMAT_BEGIN
 90
        0
 91
        1
 62
     0
 92
       -2
340
0
 93
        0
 40
1.125
309
GRIDFORMAT_END
 95
        8
302
GRIDFORMAT
  1
GRIDFORMAT_BEGIN
 90
        0
 91
        1
 62
     0
 92
       -2
340
0
 93
        0
 40
1.125
309
GRIDFORMAT_END
 95
       16
302
GRIDFORMAT
  1
GRIDFORMAT_BEGIN
 90
        0
 91
        1
 62
     0
 92
       -2
340
0
 93
        0
 40
1.125
309
GRIDFORMAT_END
 95
       32
302
GRIDFORMAT
  1
GRIDFORMAT_BEGIN
 90
        0
 91
        1
 62
     0
 92
       -2
340
0
 93
        0
 40
1.125
309
GRIDFORMAT_END
309
TABLEFORMAT_END
  1
CELLSTYLE_BEGIN
 90
        2
 91
        1
300
_HEADER
309
CELLSTYLE_END
300
CELLSTYLE
  1
TABLEFORMAT_BEGIN
 90
        5
170
     1
 91
        0
 92
        0
 62
   257
 93
        1
300
CONTENTFORMAT
  1
CONTENTFORMAT_BEGIN
 90
        0
 91
        0
 92
      512
 93
        0
300

 40
0.0
140
1.0
 94
        2
 62
     0
340
11
144
4.5
309
CONTENTFORMAT_END
171
     1
301
MARGIN
  1
CELLMARGIN_BEGIN
 40
1.5
 40
1.5
 40
1.5
 40
1.5
 40
4.5
 40
4.5
309
CELLMARGIN_END
 94
        6
 95
        1
302
GRIDFORMAT
  1
GRIDFORMAT_BEGIN
 90
        0
 91
        1
 62
     0
 92
       -2
340
0
 93
        0
 40
1.125
309
GRIDFORMAT_END
 95
        2
302
GRIDFORMAT
  1
GRIDFORMAT_BEGIN
 90
        0
 91
        1
 62
     0
 92
       -2
340
0
 93
        0
 40
1.125
309
GRIDFORMAT_END
 95
        4
302
GRIDFORMAT
  1
GRIDFORMAT_BEGIN
 90
        0
 91
        1
 62
     0
 92
       -2
340
0
 93
        0
 40
1.125
309
GRIDFORMAT_END
 95
        8
302
GRIDFORMAT
  1
GRIDFORMAT_BEGIN
 90
        0
 91
        1
 62
     0
 92
       -2
340
0
 93
        0
 40
1.125
309
GRIDFORMAT_END
 95
       16
302
GRIDFORMAT
  1
GRIDFORMAT_BEGIN
 90
        0
 91
        1
 62
     0
 92
       -2
340
0
 93
        0
 40
1.125
309
GRIDFORMAT_END
 95
       32
302
GRIDFORMAT
  1
GRIDFORMAT_BEGIN
 90
        0
 91
        1
 62
     0
 92
       -2
340
0
 93
        0
 40
1.125
309
GRIDFORMAT_END
309
TABLEFORMAT_END
  1
CELLSTYLE_BEGIN
 90
        3
 91
        2
300
_DATA
309
CELLSTYLE_END
  0
XRECORD
  5
547
102
{ACAD_REACTORS
330
452
102
}
330
452
100
AcDbXrecord
280
     1
102
ACAD_ROUNDTRIP_PRE2007_TABLESTYLE
 90
      512
 91
        0
  1

 92
      512
 93
        0
  2

 94
      512
 95
        0
  3

  0
XRECORD
  5
532
102
{ACAD_REACTORS
330
531
102
}
330
531
100
AcDbXrecord
280
     1
102
RTVSPropertyOp0
 70
     1
102
RTVSPropertyOp1
 70
     1
102
RTVSPropertyOp2
 70
     1
102
RTVSPropertyOp3
 70
     1
102
RTVSPropertyOp4
 70
     1
102
RTVSPropertyOp5
 70
     1
102
RTVSPropertyOp6
 70
     1
102
RTVSPropertyOp7
 70
     1
102
RTVSPropertyOp8
 70
     1
102
RTVSPropertyOp9
 70
     1
102
RTVSPropertyOp10
 70
     1
102
RTVSPropertyOp11
 70
     1
102
RTVSPropertyOp12
 70
     1
102
RTVSPropertyOp13
 70
     1
102
RTVSPropertyOp14
 70
     1
102
RTVSPropertyOp15
 70
     1
102
RTVSPropertyOp16
 70
     1
102
RTVSPropertyOp17
 70
     1
102
RTVSPropertyOp18
 70
     1
102
RTVSPropertyOp19
 70
     1
102
RTVSPropertyOp20
 70
     1
102
RTVSPropertyOp21
 70
     1
102
RTVSPropertyOp22
 70
     1
102
RTVSPropertyOp23
 70
     1
102
RTVSPropertyOp24
 70
     1
102
RTVSPropertyOp25
 70
     1
102
RTVSPropertyOp26
 70
     1
102
RTVSPropertyOp27
 70
     1
102
RTVSPropertyOp28
 70
     1
102
RTVSPropertyOp29
 70
     1
102
RTVSPropertyOp30
 70
     1
102
RTVSPropertyOp31
 70
     1
102
RTVSPropertyOp32
 70
     1
  0
XRECORD
  5
536
102
{ACAD_REACTORS
330
535
102
}
330
535
100
AcDbXrecord
280
     1
102
RTVSPropertyOp0
 70
     1
102
RTVSPropertyOp1
 70
     1
102
RTVSPropertyOp2
 70
     1
102
RTVSPropertyOp3
 70
     1
102
RTVSPropertyOp4
 70
     1
102
RTVSPropertyOp5
 70
     1
102
RTVSPropertyOp6
 70
     1
102
RTVSPropertyOp7
 70
     1
102
RTVSPropertyOp8
 70
     1
102
RTVSPropertyOp9
 70
     1
102
RTVSPropertyOp10
 70
     1
102
RTVSPropertyOp11
 70
     1
102
RTVSPropertyOp12
 70
     1
102
RTVSPropertyOp13
 70
     1
102
RTVSPropertyOp14
 70
     1
102
RTVSPropertyOp15
 70
     1
102
RTVSPropertyOp16
 70
     1
102
RTVSPropertyOp17
 70
     1
102
RTVSPropertyOp18
 70
     1
102
RTVSPropertyOp19
 70
     1
102
RTVSPropertyOp20
 70
     1
102
RTVSPropertyOp21
 70
     1
102
RTVSPropertyOp22
 70
     1
102
RTVSPropertyOp23
 70
     1
102
RTVSPropertyOp24
 70
     1
102
RTVSPropertyOp25
 70
     1
102
RTVSPropertyOp26
 70
     1
102
RTVSPropertyOp27
 70
     1
102
RTVSPropertyOp28
 70
     1
102
RTVSPropertyOp29
 70
     1
102
RTVSPropertyOp30
 70
     1
102
RTVSPropertyOp31
 70
     1
102
RTVSPropertyOp32
 70
     1
  0
XRECORD
  5
534
102
{ACAD_REACTORS
330
533
102
}
330
533
100
AcDbXrecord
280
     1
102
RTVSPropertyOp0
 70
     1
102
RTVSPropertyOp1
 70
     1
102
RTVSPropertyOp2
 70
     1
102
RTVSPropertyOp3
 70
     1
102
RTVSPropertyOp4
 70
     1
102
RTVSPropertyOp5
 70
     1
102
RTVSPropertyOp6
 70
     1
102
RTVSPropertyOp7
 70
     1
102
RTVSPropertyOp8
 70
     1
102
RTVSPropertyOp9
 70
     1
102
RTVSPropertyOp10
 70
     1
102
RTVSPropertyOp11
 70
     1
102
RTVSPropertyOp12
 70
     1
102
RTVSPropertyOp13
 70
     1
102
RTVSPropertyOp14
 70
     1
102
RTVSPropertyOp15
 70
     1
102
RTVSPropertyOp16
 70
     1
102
RTVSPropertyOp17
 70
     1
102
RTVSPropertyOp18
 70
     1
102
RTVSPropertyOp19
 70
     1
102
RTVSPropertyOp20
 70
     1
102
RTVSPropertyOp21
 70
     1
102
RTVSPropertyOp22
 70
     1
102
RTVSPropertyOp23
 70
     1
102
RTVSPropertyOp24
 70
     1
102
RTVSPropertyOp25
 70
     1
102
RTVSPropertyOp26
 70
     1
102
RTVSPropertyOp27
 70
     1
102
RTVSPropertyOp28
 70
     1
102
RTVSPropertyOp29
 70
     1
102
RTVSPropertyOp30
 70
     1
102
RTVSPropertyOp31
 70
     1
102
RTVSPropertyOp32
 70
     1
  0
XRECORD
  5
530
102
{ACAD_REACTORS
330
52F
102
}
330
52F
100
AcDbXrecord
280
     1
102
RTVSPropertyOp0
 70
     1
102
RTVSPropertyOp1
 70
     1
102
RTVSPropertyOp2
 70
     1
102
RTVSPropertyOp3
 70
     1
102
RTVSPropertyOp4
 70
     1
102
RTVSPropertyOp5
 70
     1
102
RTVSPropertyOp6
 70
     1
102
RTVSPropertyOp7
 70
     1
102
RTVSPropertyOp8
 70
     1
102
RTVSPropertyOp9
 70
     1
102
RTVSPropertyOp10
 70
     1
102
RTVSPropertyOp11
 70
     1
102
RTVSPropertyOp12
 70
     1
102
RTVSPropertyOp13
 70
     1
102
RTVSPropertyOp14
 70
     1
102
RTVSPropertyOp15
 70
     1
102
RTVSPropertyOp16
 70
     1
102
RTVSPropertyOp17
 70
     1
102
RTVSPropertyOp18
 70
     1
102
RTVSPropertyOp19
 70
     1
102
RTVSPropertyOp20
 70
     1
102
RTVSPropertyOp21
 70
     1
102
RTVSPropertyOp22
 70
     1
102
RTVSPropertyOp23
 70
     1
102
RTVSPropertyOp24
 70
     1
102
RTVSPropertyOp25
 70
     1
102
RTVSPropertyOp26
 70
     1
102
RTVSPropertyOp27
 70
     1
102
RTVSPropertyOp28
 70
     1
102
RTVSPropertyOp29
 70
     1
102
RTVSPropertyOp30
 70
     1
102
RTVSPropertyOp31
 70
     1
102
RTVSPropertyOp32
 70
     1
  0
XRECORD
  5
53E
102
{ACAD_REACTORS
330
53D
102
}
330
53D
100
AcDbXrecord
280
     1
102
RTVSPropertyOp0
 70
     1
102
RTVSPropertyOp1
 70
     1
102
RTVSPropertyOp2
 70
     1
102
RTVSPropertyOp3
 70
     1
102
RTVSPropertyOp4
 70
     1
102
RTVSPropertyOp5
 70
     1
102
RTVSPropertyOp6
 70
     1
102
RTVSPropertyOp7
 70
     1
102
RTVSPropertyOp8
 70
     1
102
RTVSPropertyOp9
 70
     1
102
RTVSPropertyOp10
 70
     1
102
RTVSPropertyOp11
 70
     1
102
RTVSPropertyOp12
 70
     1
102
RTVSPropertyOp13
 70
     1
102
RTVSPropertyOp14
 70
     1
102
RTVSPropertyOp15
 70
     1
102
RTVSPropertyOp16
 70
     1
102
RTVSPropertyOp17
 70
     1
102
RTVSPropertyOp18
 70
     1
102
RTVSPropertyOp19
 70
     1
102
RTVSPropertyOp20
 70
     1
102
RTVSPropertyOp21
 70
     1
102
RTVSPropertyOp22
 70
     1
102
RTVSPropertyOp23
 70
     1
102
RTVSPropertyOp24
 70
     1
102
RTVSPropertyOp25
 70
     1
102
RTVSPropertyOp26
 70
     1
102
RTVSPropertyOp27
 70
     1
102
RTVSPropertyOp28
 70
     1
102
RTVSPropertyOp29
 70
     1
102
RTVSPropertyOp30
 70
     1
102
RTVSPropertyOp31
 70
     1
102
RTVSPropertyOp32
 70
     1
  0
XRECORD
  5
546
102
{ACAD_REACTORS
330
545
102
}
330
545
100
AcDbXrecord
280
     1
102
RTVSPropertyOp0
 70
     1
102
RTVSPropertyOp1
 70
     1
102
RTVSPropertyOp2
 70
     1
102
RTVSPropertyOp3
 70
     1
102
RTVSPropertyOp4
 70
     1
102
RTVSPropertyOp5
 70
     1
102
RTVSPropertyOp6
 70
     1
102
RTVSPropertyOp7
 70
     1
102
RTVSPropertyOp8
 70
     1
102
RTVSPropertyOp9
 70
     1
102
RTVSPropertyOp10
 70
     1
102
RTVSPropertyOp11
 70
     1
102
RTVSPropertyOp12
 70
     1
102
RTVSPropertyOp13
 70
     1
102
RTVSPropertyOp14
 70
     1
102
RTVSPropertyOp15
 70
     1
102
RTVSPropertyOp16
 70
     1
102
RTVSPropertyOp17
 70
     1
102
RTVSPropertyOp18
 70
     1
102
RTVSPropertyOp19
 70
     1
102
RTVSPropertyOp20
 70
     1
102
RTVSPropertyOp21
 70
     1
102
RTVSPropertyOp22
 70
     1
102
RTVSPropertyOp23
 70
     1
102
RTVSPropertyOp24
 70
     1
102
RTVSPropertyOp25
 70
     1
102
RTVSPropertyOp26
 70
     1
102
RTVSPropertyOp27
 70
     1
102
RTVSPropertyOp28
 70
     1
102
RTVSPropertyOp29
 70
     1
102
RTVSPropertyOp30
 70
     1
102
RTVSPropertyOp31
 70
     1
102
RTVSPropertyOp32
 70
     1
  0
XRECORD
  5
538
102
{ACAD_REACTORS
330
537
102
}
330
537
100
AcDbXrecord
280
     1
102
RTVSPropertyOp0
 70
     1
102
RTVSPropertyOp1
 70
     1
102
RTVSPropertyOp2
 70
     1
102
RTVSPropertyOp3
 70
     1
102
RTVSPropertyOp4
 70
     1
102
RTVSPropertyOp5
 70
     1
102
RTVSPropertyOp6
 70
     1
102
RTVSPropertyOp7
 70
     1
102
RTVSPropertyOp8
 70
     1
102
RTVSPropertyOp9
 70
     1
102
RTVSPropertyOp10
 70
     1
102
RTVSPropertyOp11
 70
     1
102
RTVSPropertyOp12
 70
     1
102
RTVSPropertyOp13
 70
     1
102
RTVSPropertyOp14
 70
     1
102
RTVSPropertyOp15
 70
     1
102
RTVSPropertyOp16
 70
     1
102
RTVSPropertyOp17
 70
     1
102
RTVSPropertyOp18
 70
     1
102
RTVSPropertyOp19
 70
     1
102
RTVSPropertyOp20
 70
     1
102
RTVSPropertyOp21
 70
     1
102
RTVSPropertyOp22
 70
     1
102
RTVSPropertyOp23
 70
     1
102
RTVSPropertyOp24
 70
     1
102
RTVSPropertyOp25
 70
     1
102
RTVSPropertyOp26
 70
     1
102
RTVSPropertyOp27
 70
     1
102
RTVSPropertyOp28
 70
     1
102
RTVSPropertyOp29
 70
     1
102
RTVSPropertyOp30
 70
     1
102
RTVSPropertyOp31
 70
     1
102
RTVSPropertyOp32
 70
     1
  0
XRECORD
  5
53C
102
{ACAD_REACTORS
330
53B
102
}
330
53B
100
AcDbXrecord
280
     1
102
RTVSPropertyOp0
 70
     1
102
RTVSPropertyOp1
 70
     1
102
RTVSPropertyOp2
 70
     1
102
RTVSPropertyOp3
 70
     1
102
RTVSPropertyOp4
 70
     1
102
RTVSPropertyOp5
 70
     1
102
RTVSPropertyOp6
 70
     1
102
RTVSPropertyOp7
 70
     1
102
RTVSPropertyOp8
 70
     1
102
RTVSPropertyOp9
 70
     1
102
RTVSPropertyOp10
 70
     1
102
RTVSPropertyOp11
 70
     1
102
RTVSPropertyOp12
 70
     1
102
RTVSPropertyOp13
 70
     1
102
RTVSPropertyOp14
 70
     1
102
RTVSPropertyOp15
 70
     1
102
RTVSPropertyOp16
 70
     1
102
RTVSPropertyOp17
 70
     1
102
RTVSPropertyOp18
 70
     1
102
RTVSPropertyOp19
 70
     1
102
RTVSPropertyOp20
 70
     1
102
RTVSPropertyOp21
 70
     1
102
RTVSPropertyOp22
 70
     1
102
RTVSPropertyOp23
 70
     1
102
RTVSPropertyOp24
 70
     1
102
RTVSPropertyOp25
 70
     1
102
RTVSPropertyOp26
 70
     1
102
RTVSPropertyOp27
 70
     1
102
RTVSPropertyOp28
 70
     1
102
RTVSPropertyOp29
 70
     1
102
RTVSPropertyOp30
 70
     1
102
RTVSPropertyOp31
 70
     1
102
RTVSPropertyOp32
 70
     1
  0
XRECORD
  5
55B
102
{ACAD_REACTORS
330
55A
102
}
330
55A
100
AcDbXrecord
280
     1
102
RTVSPropertyOp0
 70
     0
102
RTVSPropertyOp1
 70
     0
102
RTVSPropertyOp2
 70
     0
102
RTVSPropertyOp3
 70
     0
102
RTVSPropertyOp4
 70
     0
102
RTVSPropertyOp5
 70
     0
102
RTVSPropertyOp6
 70
     0
102
RTVSPropertyOp7
 70
     0
102
RTVSPropertyOp8
 70
     0
102
RTVSPropertyOp9
 70
     0
102
RTVSPropertyOp10
 70
     0
102
RTVSPropertyOp11
 70
     0
102
RTVSPropertyOp12
 70
     0
102
RTVSPropertyOp13
 70
     0
102
RTVSPropertyOp14
 70
     2
102
RTVSPropertyOp15
 70
     0
102
RTVSPropertyOp16
 70
     0
102
RTVSPropertyOp17
 70
     0
102
RTVSPropertyOp18
 70
     0
102
RTVSPropertyOp19
 70
     0
102
RTVSPropertyOp20
 70
     0
102
RTVSPropertyOp21
 70
     0
102
RTVSPropertyOp22
 70
     0
102
RTVSPropertyOp23
 70
     0
102
RTVSPropertyOp24
 70
     0
102
RTVSPropertyOp25
 70
     0
102
RTVSPropertyOp26
 70
     0
102
RTVSPropertyOp27
 70
     0
102
RTVSPropertyOp28
 70
     0
102
RTVSPropertyOp29
 70
     0
102
RTVSPropertyOp30
 70
     0
102
RTVSPropertyOp31
 70
     0
102
RTVSPropertyOp32
 70
     0
  0
XRECORD
  5
544
102
{ACAD_REACTORS
330
543
102
}
330
543
100
AcDbXrecord
280
     1
102
RTVSPropertyOp0
 70
     1
102
RTVSPropertyOp1
 70
     1
102
RTVSPropertyOp2
 70
     1
102
RTVSPropertyOp3
 70
     1
102
RTVSPropertyOp4
 70
     1
102
RTVSPropertyOp5
 70
     1
102
RTVSPropertyOp6
 70
     1
102
RTVSPropertyOp7
 70
     1
102
RTVSPropertyOp8
 70
     1
102
RTVSPropertyOp9
 70
     1
102
RTVSPropertyOp10
 70
     1
102
RTVSPropertyOp11
 70
     1
102
RTVSPropertyOp12
 70
     1
102
RTVSPropertyOp13
 70
     1
102
RTVSPropertyOp14
 70
     1
102
RTVSPropertyOp15
 70
     1
102
RTVSPropertyOp16
 70
     1
102
RTVSPropertyOp17
 70
     1
102
RTVSPropertyOp18
 70
     1
102
RTVSPropertyOp19
 70
     1
102
RTVSPropertyOp20
 70
     1
102
RTVSPropertyOp21
 70
     1
102
RTVSPropertyOp22
 70
     1
102
RTVSPropertyOp23
 70
     1
102
RTVSPropertyOp24
 70
     1
102
RTVSPropertyOp25
 70
     1
102
RTVSPropertyOp26
 70
     1
102
RTVSPropertyOp27
 70
     1
102
RTVSPropertyOp28
 70
     1
102
RTVSPropertyOp29
 70
     1
102
RTVSPropertyOp30
 70
     1
102
RTVSPropertyOp31
 70
     1
102
RTVSPropertyOp32
 70
     1
  0
XRECORD
  5
528
102
{ACAD_REACTORS
330
527
102
}
330
527
100
AcDbXrecord
280
     1
102
RTVSPropertyOp0
 70
     1
102
RTVSPropertyOp1
 70
     1
102
RTVSPropertyOp2
 70
     1
102
RTVSPropertyOp3
 70
     1
102
RTVSPropertyOp4
 70
     1
102
RTVSPropertyOp5
 70
     1
102
RTVSPropertyOp6
 70
     1
102
RTVSPropertyOp7
 70
     1
102
RTVSPropertyOp8
 70
     1
102
RTVSPropertyOp9
 70
     1
102
RTVSPropertyOp10
 70
     1
102
RTVSPropertyOp11
 70
     1
102
RTVSPropertyOp12
 70
     1
102
RTVSPropertyOp13
 70
     1
102
RTVSPropertyOp14
 70
     1
102
RTVSPropertyOp15
 70
     1
102
RTVSPropertyOp16
 70
     1
102
RTVSPropertyOp17
 70
     1
102
RTVSPropertyOp18
 70
     1
102
RTVSPropertyOp19
 70
     1
102
RTVSPropertyOp20
 70
     1
102
RTVSPropertyOp21
 70
     1
102
RTVSPropertyOp22
 70
     1
102
RTVSPropertyOp23
 70
     1
102
RTVSPropertyOp24
 70
     1
102
RTVSPropertyOp25
 70
     1
102
RTVSPropertyOp26
 70
     1
102
RTVSPropertyOp27
 70
     1
102
RTVSPropertyOp28
 70
     1
102
RTVSPropertyOp29
 70
     1
102
RTVSPropertyOp30
 70
     1
102
RTVSPropertyOp31
 70
     1
102
RTVSPropertyOp32
 70
     1
  0
XRECORD
  5
52A
102
{ACAD_REACTORS
330
529
102
}
330
529
100
AcDbXrecord
280
     1
102
RTVSPropertyOp0
 70
     1
102
RTVSPropertyOp1
 70
     1
102
RTVSPropertyOp2
 70
     1
102
RTVSPropertyOp3
 70
     1
102
RTVSPropertyOp4
 70
     1
102
RTVSPropertyOp5
 70
     1
102
RTVSPropertyOp6
 70
     1
102
RTVSPropertyOp7
 70
     1
102
RTVSPropertyOp8
 70
     1
102
RTVSPropertyOp9
 70
     1
102
RTVSPropertyOp10
 70
     1
102
RTVSPropertyOp11
 70
     1
102
RTVSPropertyOp12
 70
     1
102
RTVSPropertyOp13
 70
     1
102
RTVSPropertyOp14
 70
     1
102
RTVSPropertyOp15
 70
     1
102
RTVSPropertyOp16
 70
     1
102
RTVSPropertyOp17
 70
     1
102
RTVSPropertyOp18
 70
     1
102
RTVSPropertyOp19
 70
     1
102
RTVSPropertyOp20
 70
     1
102
RTVSPropertyOp21
 70
     1
102
RTVSPropertyOp22
 70
     1
102
RTVSPropertyOp23
 70
     1
102
RTVSPropertyOp24
 70
     1
102
RTVSPropertyOp25
 70
     1
102
RTVSPropertyOp26
 70
     1
102
RTVSPropertyOp27
 70
     1
102
RTVSPropertyOp28
 70
     1
102
RTVSPropertyOp29
 70
     1
102
RTVSPropertyOp30
 70
     1
102
RTVSPropertyOp31
 70
     1
102
RTVSPropertyOp32
 70
     1
  0
XRECORD
  5
52C
102
{ACAD_REACTORS
330
52B
102
}
330
52B
100
AcDbXrecord
280
     1
102
RTVSPropertyOp0
 70
     1
102
RTVSPropertyOp1
 70
     1
102
RTVSPropertyOp2
 70
     1
102
RTVSPropertyOp3
 70
     1
102
RTVSPropertyOp4
 70
     1
102
RTVSPropertyOp5
 70
     1
102
RTVSPropertyOp6
 70
     1
102
RTVSPropertyOp7
 70
     1
102
RTVSPropertyOp8
 70
     1
102
RTVSPropertyOp9
 70
     1
102
RTVSPropertyOp10
 70
     1
102
RTVSPropertyOp11
 70
     1
102
RTVSPropertyOp12
 70
     1
102
RTVSPropertyOp13
 70
     1
102
RTVSPropertyOp14
 70
     1
102
RTVSPropertyOp15
 70
     1
102
RTVSPropertyOp16
 70
     1
102
RTVSPropertyOp17
 70
     1
102
RTVSPropertyOp18
 70
     1
102
RTVSPropertyOp19
 70
     1
102
RTVSPropertyOp20
 70
     1
102
RTVSPropertyOp21
 70
     1
102
RTVSPropertyOp22
 70
     1
102
RTVSPropertyOp23
 70
     1
102
RTVSPropertyOp24
 70
     1
102
RTVSPropertyOp25
 70
     1
102
RTVSPropertyOp26
 70
     1
102
RTVSPropertyOp27
 70
     1
102
RTVSPropertyOp28
 70
     1
102
RTVSPropertyOp29
 70
     1
102
RTVSPropertyOp30
 70
     1
102
RTVSPropertyOp31
 70
     1
102
RTVSPropertyOp32
 70
     1
  0
XRECORD
  5
52E
102
{ACAD_REACTORS
330
52D
102
}
330
52D
100
AcDbXrecord
280
     1
102
RTVSPropertyOp0
 70
     1
102
RTVSPropertyOp1
 70
     1
102
RTVSPropertyOp2
 70
     1
102
RTVSPropertyOp3
 70
     1
102
RTVSPropertyOp4
 70
     1
102
RTVSPropertyOp5
 70
     1
102
RTVSPropertyOp6
 70
     1
102
RTVSPropertyOp7
 70
     1
102
RTVSPropertyOp8
 70
     1
102
RTVSPropertyOp9
 70
     1
102
RTVSPropertyOp10
 70
     1
102
RTVSPropertyOp11
 70
     1
102
RTVSPropertyOp12
 70
     1
102
RTVSPropertyOp13
 70
     1
102
RTVSPropertyOp14
 70
     1
102
RTVSPropertyOp15
 70
     1
102
RTVSPropertyOp16
 70
     1
102
RTVSPropertyOp17
 70
     1
102
RTVSPropertyOp18
 70
     1
102
RTVSPropertyOp19
 70
     1
102
RTVSPropertyOp20
 70
     1
102
RTVSPropertyOp21
 70
     1
102
RTVSPropertyOp22
 70
     1
102
RTVSPropertyOp23
 70
     1
102
RTVSPropertyOp24
 70
     1
102
RTVSPropertyOp25
 70
     1
102
RTVSPropertyOp26
 70
     1
102
RTVSPropertyOp27
 70
     1
102
RTVSPropertyOp28
 70
     1
102
RTVSPropertyOp29
 70
     1
102
RTVSPropertyOp30
 70
     1
102
RTVSPropertyOp31
 70
     1
102
RTVSPropertyOp32
 70
     1
  0
XRECORD
  5
54B
102
{ACAD_REACTORS
330
54A
102
}
330
54A
100
AcDbXrecord
280
     1
102
RTVSPropertyOp0
 70
     1
102
RTVSPropertyOp1
 70
     1
102
RTVSPropertyOp2
 70
     1
102
RTVSPropertyOp3
 70
     1
102
RTVSPropertyOp4
 70
     1
102
RTVSPropertyOp5
 70
     1
102
RTVSPropertyOp6
 70
     1
102
RTVSPropertyOp7
 70
     1
102
RTVSPropertyOp8
 70
     1
102
RTVSPropertyOp9
 70
     1
102
RTVSPropertyOp10
 70
     1
102
RTVSPropertyOp11
 70
     1
102
RTVSPropertyOp12
 70
     1
102
RTVSPropertyOp13
 70
     1
102
RTVSPropertyOp14
 70
     1
102
RTVSPropertyOp15
 70
     1
102
RTVSPropertyOp16
 70
     1
102
RTVSPropertyOp17
 70
     1
102
RTVSPropertyOp18
 70
     1
102
RTVSPropertyOp19
 70
     1
102
RTVSPropertyOp20
 70
     1
102
RTVSPropertyOp21
 70
     1
102
RTVSPropertyOp22
 70
     1
102
RTVSPropertyOp23
 70
     1
102
RTVSPropertyOp24
 70
     1
102
RTVSPropertyOp25
 70
     1
102
RTVSPropertyOp26
 70
     1
102
RTVSPropertyOp27
 70
     1
102
RTVSPropertyOp28
 70
     1
102
RTVSPropertyOp29
 70
     1
102
RTVSPropertyOp30
 70
     1
102
RTVSPropertyOp31
 70
     1
102
RTVSPropertyOp32
 70
     1
  0
XRECORD
  5
557
102
{ACAD_REACTORS
330
556
102
}
330
556
100
AcDbXrecord
280
     1
102
RTVSPropertyOp0
 70
     0
102
RTVSPropertyOp1
 70
     0
102
RTVSPropertyOp2
 70
     0
102
RTVSPropertyOp3
 70
     0
102
RTVSPropertyOp4
 70
     0
102
RTVSPropertyOp5
 70
     0
102
RTVSPropertyOp6
 70
     0
102
RTVSPropertyOp7
 70
     0
102
RTVSPropertyOp8
 70
     0
102
RTVSPropertyOp9
 70
     0
102
RTVSPropertyOp10
 70
     0
102
RTVSPropertyOp11
 70
     0
102
RTVSPropertyOp12
 70
     0
102
RTVSPropertyOp13
 70
     0
102
RTVSPropertyOp14
 70
     2
102
RTVSPropertyOp15
 70
     0
102
RTVSPropertyOp16
 70
     0
102
RTVSPropertyOp17
 70
     0
102
RTVSPropertyOp18
 70
     0
102
RTVSPropertyOp19
 70
     0
102
RTVSPropertyOp20
 70
     0
102
RTVSPropertyOp21
 70
     0
102
RTVSPropertyOp22
 70
     0
102
RTVSPropertyOp23
 70
     0
102
RTVSPropertyOp24
 70
     0
102
RTVSPropertyOp25
 70
     0
102
RTVSPropertyOp26
 70
     0
102
RTVSPropertyOp27
 70
     0
102
RTVSPropertyOp28
 70
     0
102
RTVSPropertyOp29
 70
     0
102
RTVSPropertyOp30
 70
     0
102
RTVSPropertyOp31
 70
     0
102
RTVSPropertyOp32
 70
     0
  0
XRECORD
  5
542
102
{ACAD_REACTORS
330
541
102
}
330
541
100
AcDbXrecord
280
     1
102
RTVSPropertyOp0
 70
     1
102
RTVSPropertyOp1
 70
     1
102
RTVSPropertyOp2
 70
     1
102
RTVSPropertyOp3
 70
     1
102
RTVSPropertyOp4
 70
     1
102
RTVSPropertyOp5
 70
     1
102
RTVSPropertyOp6
 70
     1
102
RTVSPropertyOp7
 70
     1
102
RTVSPropertyOp8
 70
     1
102
RTVSPropertyOp9
 70
     1
102
RTVSPropertyOp10
 70
     1
102
RTVSPropertyOp11
 70
     1
102
RTVSPropertyOp12
 70
     1
102
RTVSPropertyOp13
 70
     1
102
RTVSPropertyOp14
 70
     1
102
RTVSPropertyOp15
 70
     1
102
RTVSPropertyOp16
 70
     1
102
RTVSPropertyOp17
 70
     1
102
RTVSPropertyOp18
 70
     1
102
RTVSPropertyOp19
 70
     1
102
RTVSPropertyOp20
 70
     1
102
RTVSPropertyOp21
 70
     1
102
RTVSPropertyOp22
 70
     1
102
RTVSPropertyOp23
 70
     1
102
RTVSPropertyOp24
 70
     1
102
RTVSPropertyOp25
 70
     1
102
RTVSPropertyOp26
 70
     1
102
RTVSPropertyOp27
 70
     1
102
RTVSPropertyOp28
 70
     1
102
RTVSPropertyOp29
 70
     1
102
RTVSPropertyOp30
 70
     1
102
RTVSPropertyOp31
 70
     1
102
RTVSPropertyOp32
 70
     1
  0
XRECORD
  5
559
102
{ACAD_REACTORS
330
558
102
}
330
558
100
AcDbXrecord
280
     1
102
RTVSPropertyOp0
 70
     0
102
RTVSPropertyOp1
 70
     0
102
RTVSPropertyOp2
 70
     0
102
RTVSPropertyOp3
 70
     0
102
RTVSPropertyOp4
 70
     0
102
RTVSPropertyOp5
 70
     0
102
RTVSPropertyOp6
 70
     0
102
RTVSPropertyOp7
 70
     0
102
RTVSPropertyOp8
 70
     0
102
RTVSPropertyOp9
 70
     0
102
RTVSPropertyOp10
 70
     0
102
RTVSPropertyOp11
 70
     0
102
RTVSPropertyOp12
 70
     0
102
RTVSPropertyOp13
 70
     0
102
RTVSPropertyOp14
 70
     2
102
RTVSPropertyOp15
 70
     0
102
RTVSPropertyOp16
 70
     0
102
RTVSPropertyOp17
 70
     0
102
RTVSPropertyOp18
 70
     0
102
RTVSPropertyOp19
 70
     0
102
RTVSPropertyOp20
 70
     0
102
RTVSPropertyOp21
 70
     0
102
RTVSPropertyOp22
 70
     0
102
RTVSPropertyOp23
 70
     0
102
RTVSPropertyOp24
 70
     0
102
RTVSPropertyOp25
 70
     0
102
RTVSPropertyOp26
 70
     0
102
RTVSPropertyOp27
 70
     0
102
RTVSPropertyOp28
 70
     0
102
RTVSPropertyOp29
 70
     0
102
RTVSPropertyOp30
 70
     0
102
RTVSPropertyOp31
 70
     0
102
RTVSPropertyOp32
 70
     0
  0
XRECORD
  5
53A
102
{ACAD_REACTORS
330
539
102
}
330
539
100
AcDbXrecord
280
     1
102
RTVSPropertyOp0
 70
     1
102
RTVSPropertyOp1
 70
     1
102
RTVSPropertyOp2
 70
     1
102
RTVSPropertyOp3
 70
     1
102
RTVSPropertyOp4
 70
     1
102
RTVSPropertyOp5
 70
     1
102
RTVSPropertyOp6
 70
     1
102
RTVSPropertyOp7
 70
     1
102
RTVSPropertyOp8
 70
     1
102
RTVSPropertyOp9
 70
     1
102
RTVSPropertyOp10
 70
     1
102
RTVSPropertyOp11
 70
     1
102
RTVSPropertyOp12
 70
     1
102
RTVSPropertyOp13
 70
     1
102
RTVSPropertyOp14
 70
     1
102
RTVSPropertyOp15
 70
     1
102
RTVSPropertyOp16
 70
     1
102
RTVSPropertyOp17
 70
     1
102
RTVSPropertyOp18
 70
     1
102
RTVSPropertyOp19
 70
     1
102
RTVSPropertyOp20
 70
     1
102
RTVSPropertyOp21
 70
     1
102
RTVSPropertyOp22
 70
     1
102
RTVSPropertyOp23
 70
     1
102
RTVSPropertyOp24
 70
     1
102
RTVSPropertyOp25
 70
     1
102
RTVSPropertyOp26
 70
     1
102
RTVSPropertyOp27
 70
     1
102
RTVSPropertyOp28
 70
     1
102
RTVSPropertyOp29
 70
     1
102
RTVSPropertyOp30
 70
     1
102
RTVSPropertyOp31
 70
     1
102
RTVSPropertyOp32
 70
     1
  0
XRECORD
  5
555
102
{ACAD_REACTORS
330
554
102
}
330
554
100
AcDbXrecord
280
     1
102
RTVSPropertyOp0
 70
     1
102
RTVSPropertyOp1
 70
     1
102
RTVSPropertyOp2
 70
     1
102
RTVSPropertyOp3
 70
     1
102
RTVSPropertyOp4
 70
     1
102
RTVSPropertyOp5
 70
     1
102
RTVSPropertyOp6
 70
     1
102
RTVSPropertyOp7
 70
     1
102
RTVSPropertyOp8
 70
     1
102
RTVSPropertyOp9
 70
     1
102
RTVSPropertyOp10
 70
     1
102
RTVSPropertyOp11
 70
     1
102
RTVSPropertyOp12
 70
     1
102
RTVSPropertyOp13
 70
     1
102
RTVSPropertyOp14
 70
     1
102
RTVSPropertyOp15
 70
     1
102
RTVSPropertyOp16
 70
     1
102
RTVSPropertyOp17
 70
     1
102
RTVSPropertyOp18
 70
     1
102
RTVSPropertyOp19
 70
     1
102
RTVSPropertyOp20
 70
     1
102
RTVSPropertyOp21
 70
     1
102
RTVSPropertyOp22
 70
     1
102
RTVSPropertyOp23
 70
     1
102
RTVSPropertyOp24
 70
     1
102
RTVSPropertyOp25
 70
     1
102
RTVSPropertyOp26
 70
     1
102
RTVSPropertyOp27
 70
     1
102
RTVSPropertyOp28
 70
     1
102
RTVSPropertyOp29
 70
     1
102
RTVSPropertyOp30
 70
     1
102
RTVSPropertyOp31
 70
     1
102
RTVSPropertyOp32
 70
     1
  0
XRECORD
  5
553
102
{ACAD_REACTORS
330
552
102
}
330
552
100
AcDbXrecord
280
     1
102
RTVSPropertyOp0
 70
     1
102
RTVSPropertyOp1
 70
     1
102
RTVSPropertyOp2
 70
     1
102
RTVSPropertyOp3
 70
     1
102
RTVSPropertyOp4
 70
     1
102
RTVSPropertyOp5
 70
     1
102
RTVSPropertyOp6
 70
     1
102
RTVSPropertyOp7
 70
     1
102
RTVSPropertyOp8
 70
     1
102
RTVSPropertyOp9
 70
     1
102
RTVSPropertyOp10
 70
     1
102
RTVSPropertyOp11
 70
     1
102
RTVSPropertyOp12
 70
     1
102
RTVSPropertyOp13
 70
     1
102
RTVSPropertyOp14
 70
     1
102
RTVSPropertyOp15
 70
     1
102
RTVSPropertyOp16
 70
     1
102
RTVSPropertyOp17
 70
     1
102
RTVSPropertyOp18
 70
     1
102
RTVSPropertyOp19
 70
     1
102
RTVSPropertyOp20
 70
     1
102
RTVSPropertyOp21
 70
     1
102
RTVSPropertyOp22
 70
     1
102
RTVSPropertyOp23
 70
     1
102
RTVSPropertyOp24
 70
     1
102
RTVSPropertyOp25
 70
     1
102
RTVSPropertyOp26
 70
     1
102
RTVSPropertyOp27
 70
     1
102
RTVSPropertyOp28
 70
     1
102
RTVSPropertyOp29
 70
     1
102
RTVSPropertyOp30
 70
     1
102
RTVSPropertyOp31
 70
     1
102
RTVSPropertyOp32
 70
     1
  0
XRECORD
  5
54D
102
{ACAD_REACTORS
330
54C
102
}
330
54C
100
AcDbXrecord
280
     1
102
RTVSPropertyOp0
 70
     1
102
RTVSPropertyOp1
 70
     1
102
RTVSPropertyOp2
 70
     1
102
RTVSPropertyOp3
 70
     1
102
RTVSPropertyOp4
 70
     1
102
RTVSPropertyOp5
 70
     1
102
RTVSPropertyOp6
 70
     1
102
RTVSPropertyOp7
 70
     1
102
RTVSPropertyOp8
 70
     1
102
RTVSPropertyOp9
 70
     1
102
RTVSPropertyOp10
 70
     1
102
RTVSPropertyOp11
 70
     1
102
RTVSPropertyOp12
 70
     1
102
RTVSPropertyOp13
 70
     1
102
RTVSPropertyOp14
 70
     1
102
RTVSPropertyOp15
 70
     1
102
RTVSPropertyOp16
 70
     1
102
RTVSPropertyOp17
 70
     1
102
RTVSPropertyOp18
 70
     1
102
RTVSPropertyOp19
 70
     1
102
RTVSPropertyOp20
 70
     1
102
RTVSPropertyOp21
 70
     1
102
RTVSPropertyOp22
 70
     1
102
RTVSPropertyOp23
 70
     1
102
RTVSPropertyOp24
 70
     1
102
RTVSPropertyOp25
 70
     1
102
RTVSPropertyOp26
 70
     1
102
RTVSPropertyOp27
 70
     1
102
RTVSPropertyOp28
 70
     1
102
RTVSPropertyOp29
 70
     1
102
RTVSPropertyOp30
 70
     1
102
RTVSPropertyOp31
 70
     1
102
RTVSPropertyOp32
 70
     1
  0
XRECORD
  5
54F
102
{ACAD_REACTORS
330
54E
102
}
330
54E
100
AcDbXrecord
280
     1
102
RTVSPropertyOp0
 70
     1
102
RTVSPropertyOp1
 70
     1
102
RTVSPropertyOp2
 70
     1
102
RTVSPropertyOp3
 70
     1
102
RTVSPropertyOp4
 70
     1
102
RTVSPropertyOp5
 70
     1
102
RTVSPropertyOp6
 70
     1
102
RTVSPropertyOp7
 70
     1
102
RTVSPropertyOp8
 70
     1
102
RTVSPropertyOp9
 70
     1
102
RTVSPropertyOp10
 70
     1
102
RTVSPropertyOp11
 70
     1
102
RTVSPropertyOp12
 70
     1
102
RTVSPropertyOp13
 70
     1
102
RTVSPropertyOp14
 70
     1
102
RTVSPropertyOp15
 70
     1
102
RTVSPropertyOp16
 70
     1
102
RTVSPropertyOp17
 70
     1
102
RTVSPropertyOp18
 70
     1
102
RTVSPropertyOp19
 70
     1
102
RTVSPropertyOp20
 70
     1
102
RTVSPropertyOp21
 70
     1
102
RTVSPropertyOp22
 70
     1
102
RTVSPropertyOp23
 70
     1
102
RTVSPropertyOp24
 70
     1
102
RTVSPropertyOp25
 70
     1
102
RTVSPropertyOp26
 70
     1
102
RTVSPropertyOp27
 70
     1
102
RTVSPropertyOp28
 70
     1
102
RTVSPropertyOp29
 70
     1
102
RTVSPropertyOp30
 70
     1
102
RTVSPropertyOp31
 70
     1
102
RTVSPropertyOp32
 70
     1
  0
XRECORD
  5
540
102
{ACAD_REACTORS
330
53F
102
}
330
53F
100
AcDbXrecord
280
     1
102
RTVSPropertyOp0
 70
     1
102
RTVSPropertyOp1
 70
     1
102
RTVSPropertyOp2
 70
     1
102
RTVSPropertyOp3
 70
     1
102
RTVSPropertyOp4
 70
     1
102
RTVSPropertyOp5
 70
     1
102
RTVSPropertyOp6
 70
     1
102
RTVSPropertyOp7
 70
     1
102
RTVSPropertyOp8
 70
     1
102
RTVSPropertyOp9
 70
     1
102
RTVSPropertyOp10
 70
     1
102
RTVSPropertyOp11
 70
     1
102
RTVSPropertyOp12
 70
     1
102
RTVSPropertyOp13
 70
     1
102
RTVSPropertyOp14
 70
     1
102
RTVSPropertyOp15
 70
     1
102
RTVSPropertyOp16
 70
     1
102
RTVSPropertyOp17
 70
     1
102
RTVSPropertyOp18
 70
     1
102
RTVSPropertyOp19
 70
     1
102
RTVSPropertyOp20
 70
     1
102
RTVSPropertyOp21
 70
     1
102
RTVSPropertyOp22
 70
     1
102
RTVSPropertyOp23
 70
     1
102
RTVSPropertyOp24
 70
     1
102
RTVSPropertyOp25
 70
     1
102
RTVSPropertyOp26
 70
     1
102
RTVSPropertyOp27
 70
     1
102
RTVSPropertyOp28
 70
     1
102
RTVSPropertyOp29
 70
     1
102
RTVSPropertyOp30
 70
     1
102
RTVSPropertyOp31
 70
     1
102
RTVSPropertyOp32
 70
     1
  0
XRECORD
  5
549
102
{ACAD_REACTORS
330
548
102
}
330
548
100
AcDbXrecord
280
     1
102
RTVSPropertyOp0
 70
     1
102
RTVSPropertyOp1
 70
     1
102
RTVSPropertyOp2
 70
     1
102
RTVSPropertyOp3
 70
     1
102
RTVSPropertyOp4
 70
     1
102
RTVSPropertyOp5
 70
     1
102
RTVSPropertyOp6
 70
     1
102
RTVSPropertyOp7
 70
     1
102
RTVSPropertyOp8
 70
     1
102
RTVSPropertyOp9
 70
     1
102
RTVSPropertyOp10
 70
     1
102
RTVSPropertyOp11
 70
     1
102
RTVSPropertyOp12
 70
     1
102
RTVSPropertyOp13
 70
     1
102
RTVSPropertyOp14
 70
     1
102
RTVSPropertyOp15
 70
     1
102
RTVSPropertyOp16
 70
     1
102
RTVSPropertyOp17
 70
     1
102
RTVSPropertyOp18
 70
     1
102
RTVSPropertyOp19
 70
     1
102
RTVSPropertyOp20
 70
     1
102
RTVSPropertyOp21
 70
     1
102
RTVSPropertyOp22
 70
     1
102
RTVSPropertyOp23
 70
     1
102
RTVSPropertyOp24
 70
     1
102
RTVSPropertyOp25
 70
     1
102
RTVSPropertyOp26
 70
     1
102
RTVSPropertyOp27
 70
     1
102
RTVSPropertyOp28
 70
     1
102
RTVSPropertyOp29
 70
     1
102
RTVSPropertyOp30
 70
     1
102
RTVSPropertyOp31
 70
     1
102
RTVSPropertyOp32
 70
     1
  0
XRECORD
  5
551
102
{ACAD_REACTORS
330
550
102
}
330
550
100
AcDbXrecord
280
     1
102
RTVSPropertyOp0
 70
     1
102
RTVSPropertyOp1
 70
     1
102
RTVSPropertyOp2
 70
     1
102
RTVSPropertyOp3
 70
     1
102
RTVSPropertyOp4
 70
     1
102
RTVSPropertyOp5
 70
     1
102
RTVSPropertyOp6
 70
     1
102
RTVSPropertyOp7
 70
     1
102
RTVSPropertyOp8
 70
     1
102
RTVSPropertyOp9
 70
     1
102
RTVSPropertyOp10
 70
     1
102
RTVSPropertyOp11
 70
     1
102
RTVSPropertyOp12
 70
     1
102
RTVSPropertyOp13
 70
     1
102
RTVSPropertyOp14
 70
     1
102
RTVSPropertyOp15
 70
     1
102
RTVSPropertyOp16
 70
     1
102
RTVSPropertyOp17
 70
     1
102
RTVSPropertyOp18
 70
     1
102
RTVSPropertyOp19
 70
     1
102
RTVSPropertyOp20
 70
     1
102
RTVSPropertyOp21
 70
     1
102
RTVSPropertyOp22
 70
     1
102
RTVSPropertyOp23
 70
     1
102
RTVSPropertyOp24
 70
     1
102
RTVSPropertyOp25
 70
     1
102
RTVSPropertyOp26
 70
     1
102
RTVSPropertyOp27
 70
     1
102
RTVSPropertyOp28
 70
     1
102
RTVSPropertyOp29
 70
     1
102
RTVSPropertyOp30
 70
     1
102
RTVSPropertyOp31
 70
     1
102
RTVSPropertyOp32
 70
     1
  0
ENDSEC
  0
EOF
