  0
SECTION
  2
HEADER
  9
$ACADVER
  1
AC1021
  9
$DWGCODEPAGE
  3
ANSI_1252
  9
$EXTMAX
 10
841.0
 20
594.0
 30
0.0
  9
$EXTMIN
 10
0.0
 20
0.0
 30
0.0
  9
$LIMMIN
 10
0.0
 20
0.0
  9
$LIMMAX
 10
841.0
 20
594.0
  9
$VIEWCTR
 10
420.5
 20
297.0
  9
$VIEWSIZE
 40
594.0
  9
$CLAYER
  8
0
  9
$LTSCALE
 40
46.255
  9
$CELTYPE
  6
BYLAYER
  9
$DIMSCALE
 40
1.0
  9
$DIMASZ
 40
3.5
  9
$DIMEXO
 40
5.25625
  9
$DIMDLI
 40
31.958
  9
$DIMEXE
 40
15.138
  9
$DIMCEN
 40
7.569
  9
$DIMLFAC
 40
1.0
  9
$DIMBLK
  1
_FILLED
  9
$DIMTXT
 40
3.5
  9
$DIMTOL
 70
1
  9
$DIMLIM
 70
0
  9
$DIMTFAC
 40
1.0
  9
$DIMTP
 40
0.01
  9
$DIMTM
 40
0.01
  9
$PDMODE
 70
3
  9
$PDSIZE
 40
2.5
  9
$HANDSEED
  5
76A
  9
$TILEMODE
 70
1
  9
$MEASUREMENT
 70
1
  9
$INSUNITS
 70
4
  0
ENDSEC
  0
SECTION
  2
CLASSES
  0
CLASS
  1
ACDBDICTIONARYWDFLT
  2
AcDbDictionaryWithDefault
  3
AutoCAD 2000
 90
0
 91
1
280
0
281
0
  0
CLASS
  1
ACDBPLACEHOLDER
  2
AcDbPlaceHolder
  3
AutoCAD 2000
 90
0
 91
1
280
0
281
0
  0
CLASS
  1
LAYOUT
  2
AcDbLayout
  3
AutoCAD 2000
 90
0
 91
0
280
0
281
0
  0
ENDSEC
  0
SECTION
  2
TABLES
  0
TABLE
  2
VPORT
  5
8
100
AcDbSymbolTable
 70
2
  0
VPORT
  5
1F4
100
AcDbSymbolTableRecord
100
AcDbViewportTableRecord
  2
*ACTIVE
 70
0
 10
0.0
 20
0.0
 11
1.0
 21
1.0
 12
420.5
 22
297.0
 13
0.0
 23
0.0
 14
1.0
 24
1.0
 15
0.0
 25
0.0
 16
0.0
 26
0.0
 36
1.0
 17
0.0
 27
0.0
 37
0.0
 40
594.0
 41
1.4158249158
 42
50.0
 43
0.0
 44
0.0
 50
0.0
 51
0.0
 71
0
 72
100
 73
1
 74
1
 75
0
 76
0
 77
0
 78
0
  0
ENDTAB
  0
TABLE
  2
LTYPE
  5
5
100
AcDbSymbolTable
 70
6
  0
LTYPE
  5
14
100
AcDbSymbolTableRecord
100
AcDbLinetypeTableRecord
  2
BYBLOCK
 70
0
  3

 72
65
 73
0
 40
0.0
  0
LTYPE
  5
15
100
AcDbSymbolTableRecord
100
AcDbLinetypeTableRecord
  2
BYLAYER
 70
0
  3

 72
65
 73
0
 40
0.0
  0
LTYPE
  5
16
100
AcDbSymbolTableRecord
100
AcDbLinetypeTableRecord
  2
CONTINUOUS
 70
64
  3
Solid line
 72
65
 73
0
 40
0.0
  0
LTYPE
  5
1F5
100
AcDbSymbolTableRecord
100
AcDbLinetypeTableRecord
  2
CENTER
 70
64
  3
____ _ ____ _ ____ _ ____ _ ____ _ ____ _ ____
 72
65
 73
4
 40
0.6
 49
0.375
 74
0
 49
-0.075
 74
0
 49
0.075
 74
0
 49
-0.075
 74
0
  0
LTYPE
  5
1F6
100
AcDbSymbolTableRecord
100
AcDbLinetypeTableRecord
  2
HIDDEN
 70
64
  3
- - - - - - - - - - - - - - - - - - - -
 72
65
 73
2
 40
0.2
 49
0.1
 74
0
 49
-0.1
 74
0
  0
LTYPE
  5
1F7
100
AcDbSymbolTableRecord
100
AcDbLinetypeTableRecord
  2
PHANTOM
 70
64
  3
_____ _ _ _____ _ _ _____ _ _ _____
 72
65
 73
6
 40
0.8
 49
0.45
 74
0
 49
-0.05
 74
0
 49
0.1
 74
0
 49
-0.05
 74
0
 49
0.1
 74
0
 49
-0.05
 74
0
  0
LTYPE
  5
1F8
100
AcDbSymbolTableRecord
100
AcDbLinetypeTableRecord
  2
DOT
 70
64
  3
. . . . . . . . . . . . . . . . . . . .
 72
65
 73
2
 40
0.2
 49
0.1
 74
0
 49
-0.1
 74
0
  0
LTYPE
  5
1F9
100
AcDbSymbolTableRecord
100
AcDbLinetypeTableRecord
  2
DASHED
 70
64
  3
- - - - - - - - - - - - - - - - - - - -
 72
65
 73
2
 40
0.2
 49
0.1
 74
0
 49
-0.1
 74
0
  0
ENDTAB
  0
TABLE
  2
LAYER
  5
2
100
AcDbSymbolTable
 70
36
  0
LAYER
  5
10
100
AcDbSymbolTableRecord
100
AcDbLayerTableRecord
  2
0
 70
0
 62
7
  6
CONTINUOUS
370
-3
390
F
  0
LAYER
  5
1FA
100
AcDbSymbolTableRecord
100
AcDbLayerTableRecord
  2
DEFAULT_1
 70
0
 62
7
  6
CENTER
370
-3
390
F
  0
LAYER
  5
1FB
100
AcDbSymbolTableRecord
100
AcDbLayerTableRecord
  2
DEFAULT_2
 70
0
 62
8
  6
HIDDEN
370
-3
390
F
  0
LAYER
  5
1FC
100
AcDbSymbolTableRecord
100
AcDbLayerTableRecord
  2
DEFAULT_3
 70
0
 62
7
  6
PHANTOM
370
-3
390
F
  0
LAYER
  5
1FD
100
AcDbSymbolTableRecord
100
AcDbLayerTableRecord
  2
00_AXS
 70
0
 62
7
  6
CONTINUOUS
370
-3
390
F
  0
LAYER
  5
1FE
100
AcDbSymbolTableRecord
100
AcDbLayerTableRecord
  2
00_CHM
 70
0
 62
7
  6
CONTINUOUS
370
-3
390
F
  0
LAYER
  5
1FF
100
AcDbSymbolTableRecord
100
AcDbLayerTableRecord
  2
00_CRV
 70
0
 62
7
  6
CONTINUOUS
370
-3
390
F
  0
LAYER
  5
200
100
AcDbSymbolTableRecord
100
AcDbLayerTableRecord
  2
00_PLN
 70
0
 62
7
  6
CONTINUOUS
370
-3
390
F
  0
LAYER
  5
201
100
AcDbSymbolTableRecord
100
AcDbLayerTableRecord
  2
00_SRF
 70
0
 62
7
  6
CONTINUOUS
370
-3
390
F
  0
LAYER
  5
202
100
AcDbSymbolTableRecord
100
AcDbLayerTableRecord
  2
2D-ELEMENTE
 70
0
 62
7
  6
CONTINUOUS
370
-3
390
F
  0
LAYER
  5
203
100
AcDbSymbolTableRecord
100
AcDbLayerTableRecord
  2
ACHSEN
 70
0
 62
7
  6
CONTINUOUS
370
-3
390
F
  0
LAYER
  5
204
100
AcDbSymbolTableRecord
100
AcDbLayerTableRecord
  2
AUSBLENDEN
 70
0
 62
7
  6
CONTINUOUS
370
-3
390
F
  0
LAYER
  5
205
100
AcDbSymbolTableRecord
100
AcDbLayerTableRecord
  2
BAUGRUPPE
 70
0
 62
7
  6
CONTINUOUS
370
-3
390
F
  0
LAYER
  5
206
100
AcDbSymbolTableRecord
100
AcDbLayerTableRecord
  2
EBENEN
 70
0
 62
7
  6
CONTINUOUS
370
-3
390
F
  0
LAYER
  5
207
100
AcDbSymbolTableRecord
100
AcDbLayerTableRecord
  2
KOORDINATEN
 70
0
 62
7
  6
CONTINUOUS
370
-3
390
F
  0
LAYER
  5
208
100
AcDbSymbolTableRecord
100
AcDbLayerTableRecord
  2
RUNDUNGEN
 70
0
 62
7
  6
CONTINUOUS
370
-3
390
F
  0
LAYER
  5
209
100
AcDbSymbolTableRecord
100
AcDbLayerTableRecord
  2
STD_ACHSEN
 70
0
 62
7
  6
CONTINUOUS
370
-3
390
F
  0
LAYER
  5
20A
100
AcDbSymbolTableRecord
100
AcDbLayerTableRecord
  2
STD_CSYS
 70
0
 62
7
  6
CONTINUOUS
370
-3
390
F
  0
LAYER
  5
20B
100
AcDbSymbolTableRecord
100
AcDbLayerTableRecord
  2
STD_EBENEN
 70
0
 62
7
  6
CONTINUOUS
370
-3
390
F
  0
LAYER
  5
20C
100
AcDbSymbolTableRecord
100
AcDbLayerTableRecord
  2
TEIL_UMBENNEN
 70
0
 62
7
  6
CONTINUOUS
370
-3
390
F
  0
LAYER
  5
20D
100
AcDbSymbolTableRecord
100
AcDbLayerTableRecord
  2
UMBENNEN
 70
0
 62
7
  6
CONTINUOUS
370
-3
390
F
  0
LAYER
  5
20E
100
AcDbSymbolTableRecord
100
AcDbLayerTableRecord
  2
AT110_010_00_new_view_1_BL0
 70
0
 62
7
  6
CONTINUOUS
370
-3
390
F
  0
LAYER
  5
20F
100
AcDbSymbolTableRecord
100
AcDbLayerTableRecord
  2
AT110_008_01_new_view_1_BL1
 70
0
 62
7
  6
CONTINUOUS
370
-3
390
F
  0
LAYER
  5
210
100
AcDbSymbolTableRecord
100
AcDbLayerTableRecord
  2
AT110_009_01_new_view_1_BL2
 70
0
 62
7
  6
CONTINUOUS
370
-3
390
F
  0
LAYER
  5
211
100
AcDbSymbolTableRecord
100
AcDbLayerTableRecord
  2
AT110_010_00_rechts_2_BL3
 70
0
 62
7
  6
CONTINUOUS
370
-3
390
F
  0
LAYER
  5
212
100
AcDbSymbolTableRecord
100
AcDbLayerTableRecord
  2
AT110_008_01_rechts_2_BL4
 70
0
 62
7
  6
CONTINUOUS
370
-3
390
F
  0
LAYER
  5
213
100
AcDbSymbolTableRecord
100
AcDbLayerTableRecord
  2
AT110_009_01_rechts_2_BL5
 70
0
 62
7
  6
CONTINUOUS
370
-3
390
F
  0
LAYER
  5
214
100
AcDbSymbolTableRecord
100
AcDbLayerTableRecord
  2
AT110_010_00_links_3_BL6
 70
0
 62
7
  6
CONTINUOUS
370
-3
390
F
  0
LAYER
  5
215
100
AcDbSymbolTableRecord
100
AcDbLayerTableRecord
  2
AT110_008_01_links_3_BL7
 70
0
 62
7
  6
CONTINUOUS
370
-3
390
F
  0
LAYER
  5
216
100
AcDbSymbolTableRecord
100
AcDbLayerTableRecord
  2
AT110_009_01_links_3_BL8
 70
0
 62
7
  6
CONTINUOUS
370
-3
390
F
  0
LAYER
  5
217
100
AcDbSymbolTableRecord
100
AcDbLayerTableRecord
  2
AT110_009_01_oben_4_BL9
 70
0
 62
7
  6
CONTINUOUS
370
-3
390
F
  0
LAYER
  5
218
100
AcDbSymbolTableRecord
100
AcDbLayerTableRecord
  2
AT110_010_00_oben_4_BL10
 70
0
 62
7
  6
CONTINUOUS
370
-3
390
F
  0
LAYER
  5
219
100
AcDbSymbolTableRecord
100
AcDbLayerTableRecord
  2
AT110_008_01_oben_4_BL11
 70
0
 62
7
  6
CONTINUOUS
370
-3
390
F
  0
LAYER
  5
21A
100
AcDbSymbolTableRecord
100
AcDbLayerTableRecord
  2
AT110_010_00_new_view_5_BL12
 70
0
 62
7
  6
CONTINUOUS
370
-3
390
F
  0
LAYER
  5
21B
100
AcDbSymbolTableRecord
100
AcDbLayerTableRecord
  2
AT110_009_01_new_view_5_BL13
 70
0
 62
7
  6
CONTINUOUS
370
-3
390
F
  0
LAYER
  5
21C
100
AcDbSymbolTableRecord
100
AcDbLayerTableRecord
  2
AT110_008_01_new_view_5_BL14
 70
0
 62
7
  6
CONTINUOUS
370
-3
390
F
  0
ENDTAB
  0
TABLE
  2
STYLE
  5
3
100
AcDbSymbolTable
 70
1
  0
STYLE
  5
11
100
AcDbSymbolTableRecord
100
AcDbTextStyleTableRecord
  2
STANDARD
 70
0
 40
0.0
 41
0.8
 50
0.0
 71
0
 42
0.2
  3
txt
  4

  0
STYLE
  5
21D
100
AcDbSymbolTableRecord
100
AcDbTextStyleTableRecord
  2
TEXTSTYLE_1
 70
0
 40
0.0
 41
0.8
 50
0.0
 71
0
 42
0.2
  3
gdt
  4

  0
ENDTAB
  0
TABLE
  2
VIEW
  5
6
100
AcDbSymbolTable
 70
0
  0
ENDTAB
  0
TABLE
  2
UCS
  5
7
100
AcDbSymbolTable
 70
0
  0
ENDTAB
  0
TABLE
  2
APPID
  5
9
100
AcDbSymbolTable
 70
1
  0
APPID
  5
21E
100
AcDbSymbolTableRecord
100
AcDbRegAppTableRecord
  2
ACAD
 70
0
  0
ENDTAB
  0
TABLE
  2
BLOCK_RECORD
  5
1
100
AcDbSymbolTable
 70
0
  0
BLOCK_RECORD
  5
21F
100
AcDbSymbolTableRecord
100
AcDbBlockTableRecord
  2
*Model_Space
  0
BLOCK_RECORD
  5
220
100
AcDbSymbolTableRecord
100
AcDbBlockTableRecord
  2
*Paper_Space
  0
BLOCK_RECORD
  5
221
100
AcDbSymbolTableRecord
100
AcDbBlockTableRecord
  2
SCHRIFTFELD-DATENPLANER_BL15
  0
BLOCK_RECORD
  5
222
100
AcDbSymbolTableRecord
100
AcDbBlockTableRecord
  2
AT110_010_00_NEW_VIEW_1_BL0
  0
BLOCK_RECORD
  5
223
100
AcDbSymbolTableRecord
100
AcDbBlockTableRecord
  2
AT110_008_01_NEW_VIEW_1_BL1
  0
BLOCK_RECORD
  5
224
100
AcDbSymbolTableRecord
100
AcDbBlockTableRecord
  2
AT110_009_01_NEW_VIEW_1_BL2
  0
BLOCK_RECORD
  5
225
100
AcDbSymbolTableRecord
100
AcDbBlockTableRecord
  2
AT110_010_00_RECHTS_2_BL3
  0
BLOCK_RECORD
  5
226
100
AcDbSymbolTableRecord
100
AcDbBlockTableRecord
  2
AT110_008_01_RECHTS_2_BL4
  0
BLOCK_RECORD
  5
227
100
AcDbSymbolTableRecord
100
AcDbBlockTableRecord
  2
AT110_009_01_RECHTS_2_BL5
  0
BLOCK_RECORD
  5
228
100
AcDbSymbolTableRecord
100
AcDbBlockTableRecord
  2
AT110_010_00_LINKS_3_BL6
  0
BLOCK_RECORD
  5
229
100
AcDbSymbolTableRecord
100
AcDbBlockTableRecord
  2
AT110_008_01_LINKS_3_BL7
  0
BLOCK_RECORD
  5
22A
100
AcDbSymbolTableRecord
100
AcDbBlockTableRecord
  2
AT110_009_01_LINKS_3_BL8
  0
BLOCK_RECORD
  5
22B
100
AcDbSymbolTableRecord
100
AcDbBlockTableRecord
  2
AT110_009_01_OBEN_4_BL9
  0
BLOCK_RECORD
  5
22C
100
AcDbSymbolTableRecord
100
AcDbBlockTableRecord
  2
AT110_010_00_OBEN_4_BL10
  0
BLOCK_RECORD
  5
22D
100
AcDbSymbolTableRecord
100
AcDbBlockTableRecord
  2
AT110_008_01_OBEN_4_BL11
  0
BLOCK_RECORD
  5
22E
100
AcDbSymbolTableRecord
100
AcDbBlockTableRecord
  2
AT110_010_00_NEW_VIEW_5_BL12
  0
BLOCK_RECORD
  5
22F
100
AcDbSymbolTableRecord
100
AcDbBlockTableRecord
  2
AT110_009_01_NEW_VIEW_5_BL13
  0
BLOCK_RECORD
  5
230
100
AcDbSymbolTableRecord
100
AcDbBlockTableRecord
  2
AT110_008_01_NEW_VIEW_5_BL14
  0
ENDTAB
  0
TABLE
  2
DIMSTYLE
  5
A
100
AcDbSymbolTable
 70
1
100
AcDbDimStyleTable
 71
0
  0
DIMSTYLE
105
231
100
AcDbSymbolTableRecord
100
AcDbDimStyleTableRecord
  2
STANDARD
 70
0
  3

  4

 40
1.0
 41
3.5
 42
0.0625
 43
0.38
 44
0.18
 45
0.0
 46
0.0
 47
0.01
 48
0.01
140
3.5
141
0.09
142
0.0
143
25.4
144
1.0
145
0.0
146
1.0
147
0.09
 71
1.0
 72
0.0
 73
0
 74
0
 75
0
 76
0
 77
1
 78
8
170
0
171
2
172
0
173
0
174
0
175
0
176
0
177
0
178
0
270
2
271
2
272
2
273
2
274
2
275
0
280
0
281
0
282
0
283
1
284
8
285
0
286
0
287
3
288
0
340
11
  0
ENDTAB
  0
ENDSEC
  0
SECTION
  2
BLOCKS
  0
BLOCK
  5
20
100
AcDbEntity
  8
0
100
AcDbBlockBegin
  2
*Model_Space
 70
0
 10
0.0
 20
0.0
 30
0.0
  3
*Model_Space
  1

  0
ENDBLK
  5
21
100
AcDbEntity
  8
0
100
AcDbBlockEnd
  0
BLOCK
  5
1C
100
AcDbEntity
  8
0
100
AcDbBlockBegin
  2
*Paper_Space
 70
0
 10
0.0
 20
0.0
 30
0.0
  3
*Paper_Space
  1

  0
ENDBLK
  5
1D
100
AcDbEntity
  8
0
100
AcDbBlockEnd
  0
BLOCK
  5
232
100
AcDbEntity
  8
0
100
AcDbBlockBegin
 62
2
  6
CONTINUOUS
  2
SCHRIFTFELD-DATENPLANER_BL15
 70
64
 10
651.8374739994
 20
178.2632947076
  3
SCHRIFTFELD-DATENPLANER_BL15
  1

  0
TEXT
  5
233
100
AcDbEntity
  8
0
100
AcDbText
 62
2
  6
CONTINUOUS
 10
442.6946168566
 20
185.7632947076
  7
STANDARD
 40
30.0
  1
Artikel-Nr.: 3695000
 41
0.6971428571
 72
0
100
AcDbText
  0
TEXT
  5
234
100
AcDbEntity
  8
0
100
AcDbText
 62
2
  6
CONTINUOUS
 10
442.6946168566
 20
140.7632947076
  7
STANDARD
 40
30.0
  1
Datum: 
 41
0.7129251701
 72
0
100
AcDbText
  0
TEXT
  5
235
100
AcDbEntity
  8
0
100
AcDbText
 62
2
  6
CONTINUOUS
 10
598.1231882851
 20
140.7632947076
  7
STANDARD
 40
30.0
  1
22.02.12
 41
0.7053571429
 72
0
100
AcDbText
  0
ENDBLK
  5
236
100
AcDbEntity
  8
0
  6
BYBLOCK
 62
0
100
AcDbBlockEnd
  0
BLOCK
  5
237
100
AcDbEntity
  8
AT110_010_00_new_view_1_BL0
100
AcDbBlockBegin
  2
AT110_010_00_NEW_VIEW_1_BL0
 70
64
 10
296.5964350055
 20
335.3071646341
  3
AT110_010_00_NEW_VIEW_1_BL0
  1

  0
LINE
  5
238
100
AcDbEntity
  8
AT110_010_00_new_view_1_BL0
100
AcDbLine
 62
7
  6
CONTINUOUS
 10
249.0964350055
 20
336.5571646341
 11
247.7702882827
 21
336.4411418297
  0
ARC
  5
239
100
AcDbEntity
  8
AT110_010_00_new_view_1_BL0
100
AcDbCircle
 62
7
  6
CONTINUOUS
 10
247.7964350055
 20
336.1422834203
 40
0.3
100
AcDbArc
 50
95.0
 51
118.0
  0
ARC
  5
23A
100
AcDbEntity
  8
AT110_010_00_new_view_1_BL0
100
AcDbCircle
 62
7
  6
CONTINUOUS
 10
247.7964350055
 20
336.1422834203
 40
0.3
100
AcDbArc
 50
118.0
 51
141.0
  0
ARC
  5
23B
100
AcDbEntity
  8
AT110_010_00_new_view_1_BL0
100
AcDbCircle
 62
7
  6
CONTINUOUS
 10
247.7964350055
 20
336.1422834203
 40
0.3
100
AcDbArc
 50
141.0
 51
164.0
  0
ARC
  5
23C
100
AcDbEntity
  8
AT110_010_00_new_view_1_BL0
100
AcDbCircle
 62
7
  6
CONTINUOUS
 10
247.7964350055
 20
336.1422834203
 40
0.3
100
AcDbArc
 50
164.0
 51
187.0
  0
ARC
  5
23D
100
AcDbEntity
  8
AT110_010_00_new_view_1_BL0
100
AcDbCircle
 62
7
  6
CONTINUOUS
 10
247.7964350055
 20
336.1422834203
 40
0.3
100
AcDbArc
 50
187.0
 51
210.0
  0
LINE
  5
23E
100
AcDbEntity
  8
AT110_010_00_new_view_1_BL0
100
AcDbLine
 62
7
  6
CONTINUOUS
 10
247.5366273844
 20
335.9922834203
 11
248.6538687365
 21
334.0571646341
  0
LINE
  5
23F
100
AcDbEntity
  8
AT110_010_00_new_view_1_BL0
100
AcDbLine
 62
7
  6
CONTINUOUS
 10
344.0964350055
 20
336.5571646341
 11
343.8531444959
 21
336.5571646341
  0
LINE
  5
240
100
AcDbEntity
  8
AT110_010_00_new_view_1_BL0
100
AcDbLine
 62
7
  6
CONTINUOUS
 10
343.8531444959
 20
336.5571646341
 11
342.2025551536
 21
336.5571646341
  0
LINE
  5
241
100
AcDbEntity
  8
AT110_010_00_new_view_1_BL0
100
AcDbLine
 62
7
  6
CONTINUOUS
 10
342.2025551536
 20
336.5571646341
 11
311.2747422384
 21
336.5571646341
  0
LINE
  5
242
100
AcDbEntity
  8
AT110_010_00_new_view_1_BL0
100
AcDbLine
 62
7
  6
CONTINUOUS
 10
311.2747422384
 20
336.5571646341
 11
311.0517740783
 21
336.5571646341
  0
LINE
  5
243
100
AcDbEntity
  8
AT110_010_00_new_view_1_BL0
100
AcDbLine
 62
7
  6
CONTINUOUS
 10
311.0517740783
 20
336.5571646341
 11
282.1410959327
 21
336.5571646341
  0
LINE
  5
244
100
AcDbEntity
  8
AT110_010_00_new_view_1_BL0
100
AcDbLine
 62
7
  6
CONTINUOUS
 10
282.1410959327
 20
336.5571646341
 11
281.9181277727
 21
336.5571646341
  0
LINE
  5
245
100
AcDbEntity
  8
AT110_010_00_new_view_1_BL0
100
AcDbLine
 62
7
  6
CONTINUOUS
 10
281.9181277727
 20
336.5571646341
 11
250.9903148575
 21
336.5571646341
  0
LINE
  5
246
100
AcDbEntity
  8
AT110_010_00_new_view_1_BL0
100
AcDbLine
 62
7
  6
CONTINUOUS
 10
250.9903148575
 20
336.5571646341
 11
249.3397255152
 21
336.5571646341
  0
LINE
  5
247
100
AcDbEntity
  8
AT110_010_00_new_view_1_BL0
100
AcDbLine
 62
7
  6
CONTINUOUS
 10
249.3397255152
 20
336.5571646341
 11
249.0964350055
 21
336.5571646341
  0
LINE
  5
248
100
AcDbEntity
  8
AT110_010_00_new_view_1_BL0
100
AcDbLine
 62
7
  6
CONTINUOUS
 10
344.5390012746
 20
334.0571646341
 11
345.6562426267
 21
335.9922834203
  0
LINE
  5
249
100
AcDbEntity
  8
AT110_010_00_new_view_1_BL0
100
AcDbLine
 62
7
  6
CONTINUOUS
 10
248.6538687365
 20
334.0571646341
 11
247.5366273844
 21
335.9922834203
  0
LINE
  5
24A
100
AcDbEntity
  8
AT110_010_00_new_view_1_BL0
100
AcDbLine
 62
7
  6
CONTINUOUS
 10
344.0964350055
 20
336.5571646341
 11
345.4225817284
 21
336.4411418297
  0
ARC
  5
24B
100
AcDbEntity
  8
AT110_010_00_new_view_1_BL0
100
AcDbCircle
 62
7
  6
CONTINUOUS
 10
345.3964350055
 20
336.1422834203
 40
0.3
100
AcDbArc
 50
330.0
 51
353.0
  0
ARC
  5
24C
100
AcDbEntity
  8
AT110_010_00_new_view_1_BL0
100
AcDbCircle
 62
7
  6
CONTINUOUS
 10
345.3964350055
 20
336.1422834203
 40
0.3
100
AcDbArc
 50
353.0
 51
16.0
  0
ARC
  5
24D
100
AcDbEntity
  8
AT110_010_00_new_view_1_BL0
100
AcDbCircle
 62
7
  6
CONTINUOUS
 10
345.3964350055
 20
336.1422834203
 40
0.3
100
AcDbArc
 50
16.0
 51
39.0
  0
ARC
  5
24E
100
AcDbEntity
  8
AT110_010_00_new_view_1_BL0
100
AcDbCircle
 62
7
  6
CONTINUOUS
 10
345.3964350055
 20
336.1422834203
 40
0.3
100
AcDbArc
 50
39.0
 51
62.0
  0
ARC
  5
24F
100
AcDbEntity
  8
AT110_010_00_new_view_1_BL0
100
AcDbCircle
 62
7
  6
CONTINUOUS
 10
345.3964350055
 20
336.1422834203
 40
0.3
100
AcDbArc
 50
62.0
 51
85.0
  0
ARC
  5
250
100
AcDbEntity
  8
AT110_010_00_new_view_1_BL0
100
AcDbCircle
 62
7
  6
CONTINUOUS
 10
247.7964350055
 20
336.1422834203
 40
0.3
100
AcDbArc
 50
187.0
 51
210.0
  0
ARC
  5
251
100
AcDbEntity
  8
AT110_010_00_new_view_1_BL0
100
AcDbCircle
 62
7
  6
CONTINUOUS
 10
247.7964350055
 20
336.1422834203
 40
0.3
100
AcDbArc
 50
164.0
 51
187.0
  0
ARC
  5
252
100
AcDbEntity
  8
AT110_010_00_new_view_1_BL0
100
AcDbCircle
 62
7
  6
CONTINUOUS
 10
247.7964350055
 20
336.1422834203
 40
0.3
100
AcDbArc
 50
141.0
 51
164.0
  0
ARC
  5
253
100
AcDbEntity
  8
AT110_010_00_new_view_1_BL0
100
AcDbCircle
 62
7
  6
CONTINUOUS
 10
247.7964350055
 20
336.1422834203
 40
0.3
100
AcDbArc
 50
118.0
 51
141.0
  0
ARC
  5
254
100
AcDbEntity
  8
AT110_010_00_new_view_1_BL0
100
AcDbCircle
 62
7
  6
CONTINUOUS
 10
247.7964350055
 20
336.1422834203
 40
0.3
100
AcDbArc
 50
95.0
 51
118.0
  0
LINE
  5
255
100
AcDbEntity
  8
AT110_010_00_new_view_1_BL0
100
AcDbLine
 62
7
  6
CONTINUOUS
 10
345.4225817284
 20
336.4411418297
 11
344.0964350055
 21
336.5571646341
  0
LINE
  5
256
100
AcDbEntity
  8
AT110_010_00_new_view_1_BL0
100
AcDbLine
 62
7
  6
CONTINUOUS
 10
247.7702882827
 20
336.4411418297
 11
249.0964350055
 21
336.5571646341
  0
ARC
  5
257
100
AcDbEntity
  8
AT110_010_00_new_view_1_BL0
100
AcDbCircle
 62
7
  6
CONTINUOUS
 10
345.3964350055
 20
336.1422834203
 40
0.3
100
AcDbArc
 50
62.0
 51
85.0
  0
ARC
  5
258
100
AcDbEntity
  8
AT110_010_00_new_view_1_BL0
100
AcDbCircle
 62
7
  6
CONTINUOUS
 10
345.3964350055
 20
336.1422834203
 40
0.3
100
AcDbArc
 50
39.0
 51
62.0
  0
ARC
  5
259
100
AcDbEntity
  8
AT110_010_00_new_view_1_BL0
100
AcDbCircle
 62
7
  6
CONTINUOUS
 10
345.3964350055
 20
336.1422834203
 40
0.3
100
AcDbArc
 50
16.0
 51
39.0
  0
ARC
  5
25A
100
AcDbEntity
  8
AT110_010_00_new_view_1_BL0
100
AcDbCircle
 62
7
  6
CONTINUOUS
 10
345.3964350055
 20
336.1422834203
 40
0.3
100
AcDbArc
 50
353.0
 51
16.0
  0
ARC
  5
25B
100
AcDbEntity
  8
AT110_010_00_new_view_1_BL0
100
AcDbCircle
 62
7
  6
CONTINUOUS
 10
345.3964350055
 20
336.1422834203
 40
0.3
100
AcDbArc
 50
330.0
 51
353.0
  0
LINE
  5
25C
100
AcDbEntity
  8
AT110_010_00_new_view_1_BL0
100
AcDbLine
 62
7
  6
CONTINUOUS
 10
344.5390012746
 20
334.0571646341
 11
343.8777133467
 21
334.0571646341
  0
LINE
  5
25D
100
AcDbEntity
  8
AT110_010_00_new_view_1_BL0
100
AcDbLine
 62
7
  6
CONTINUOUS
 10
343.8777133467
 20
334.0571646341
 11
343.768544511
 21
334.0571646341
  0
LINE
  5
25E
100
AcDbEntity
  8
AT110_010_00_new_view_1_BL0
100
AcDbLine
 62
7
  6
CONTINUOUS
 10
343.768544511
 20
334.0571646341
 11
343.4964350055
 21
334.0571646341
  0
LINE
  5
25F
100
AcDbEntity
  8
AT110_010_00_new_view_1_BL0
100
AcDbLine
 62
7
  6
CONTINUOUS
 10
343.4964350055
 20
334.0571646341
 11
320.8168862956
 21
334.0571646341
  0
LINE
  5
260
100
AcDbEntity
  8
AT110_010_00_new_view_1_BL0
100
AcDbLine
 62
7
  6
CONTINUOUS
 10
320.8168862956
 20
334.0571646341
 11
272.3759837155
 21
334.0571646341
  0
LINE
  5
261
100
AcDbEntity
  8
AT110_010_00_new_view_1_BL0
100
AcDbLine
 62
7
  6
CONTINUOUS
 10
272.3759837155
 20
334.0571646341
 11
252.1046986496
 21
334.0571646341
  0
LINE
  5
262
100
AcDbEntity
  8
AT110_010_00_new_view_1_BL0
100
AcDbLine
 62
7
  6
CONTINUOUS
 10
252.1046986496
 20
334.0571646341
 11
251.7109326765
 21
334.0571646341
  0
LINE
  5
263
100
AcDbEntity
  8
AT110_010_00_new_view_1_BL0
100
AcDbLine
 62
7
  6
CONTINUOUS
 10
251.7109326765
 20
334.0571646341
 11
251.6323309542
 21
334.0571646341
  0
LINE
  5
264
100
AcDbEntity
  8
AT110_010_00_new_view_1_BL0
100
AcDbLine
 62
7
  6
CONTINUOUS
 10
251.6323309542
 20
334.0571646341
 11
251.2372886597
 21
334.0571646341
  0
LINE
  5
265
100
AcDbEntity
  8
AT110_010_00_new_view_1_BL0
100
AcDbLine
 62
7
  6
CONTINUOUS
 10
251.2372886597
 20
334.0571646341
 11
250.8029992219
 21
334.0571646341
  0
LINE
  5
266
100
AcDbEntity
  8
AT110_010_00_new_view_1_BL0
100
AcDbLine
 62
7
  6
CONTINUOUS
 10
250.8029992219
 20
334.0571646341
 11
250.7833295505
 21
334.0571646341
  0
LINE
  5
267
100
AcDbEntity
  8
AT110_010_00_new_view_1_BL0
100
AcDbLine
 62
7
  6
CONTINUOUS
 10
250.7833295505
 20
334.0571646341
 11
250.7312318588
 21
334.0571646341
  0
LINE
  5
268
100
AcDbEntity
  8
AT110_010_00_new_view_1_BL0
100
AcDbLine
 62
7
  6
CONTINUOUS
 10
250.7312318588
 20
334.0571646341
 11
249.6964350055
 21
334.0571646341
  0
LINE
  5
269
100
AcDbEntity
  8
AT110_010_00_new_view_1_BL0
100
AcDbLine
 62
7
  6
CONTINUOUS
 10
249.6964350055
 20
334.0571646341
 11
249.4243255001
 21
334.0571646341
  0
LINE
  5
26A
100
AcDbEntity
  8
AT110_010_00_new_view_1_BL0
100
AcDbLine
 62
7
  6
CONTINUOUS
 10
249.4243255001
 20
334.0571646341
 11
249.3151566644
 21
334.0571646341
  0
LINE
  5
26B
100
AcDbEntity
  8
AT110_010_00_new_view_1_BL0
100
AcDbLine
 62
7
  6
CONTINUOUS
 10
249.3151566644
 20
334.0571646341
 11
248.6538687365
 21
334.0571646341
  0
LINE
  5
26C
100
AcDbEntity
  8
AT110_010_00_new_view_1_BL0
100
AcDbLine
 62
7
  6
CONTINUOUS
 10
345.6562426267
 20
335.9922834203
 11
344.5390012746
 21
334.0571646341
  0
LINE
  5
26D
100
AcDbEntity
  8
AT110_010_00_new_view_1_BL0
100
AcDbLine
 62
9
  6
CONTINUOUS
 10
345.4225817284
 20
336.4411418297
 11
344.0964350055
 21
336.4411418297
  0
LINE
  5
26E
100
AcDbEntity
  8
AT110_010_00_new_view_1_BL0
100
AcDbLine
 62
9
  6
CONTINUOUS
 10
344.0964350055
 20
336.4411418297
 11
342.3091761664
 21
336.4411418297
  0
LINE
  5
26F
100
AcDbEntity
  8
AT110_010_00_new_view_1_BL0
100
AcDbLine
 62
9
  6
CONTINUOUS
 10
342.3091761664
 20
336.4411418297
 11
342.2025551536
 21
336.4411418297
  0
LINE
  5
270
100
AcDbEntity
  8
AT110_010_00_new_view_1_BL0
100
AcDbLine
 62
9
  6
CONTINUOUS
 10
342.2025551536
 20
336.4411418297
 11
311.6845441127
 21
336.4411418297
  0
LINE
  5
271
100
AcDbEntity
  8
AT110_010_00_new_view_1_BL0
100
AcDbLine
 62
9
  6
CONTINUOUS
 10
311.6845441127
 20
336.4411418297
 11
311.4631002274
 21
336.4411418297
  0
LINE
  5
272
100
AcDbEntity
  8
AT110_010_00_new_view_1_BL0
100
AcDbLine
 62
9
  6
CONTINUOUS
 10
311.4631002274
 20
336.4411418297
 11
311.0517740783
 21
336.4411418297
  0
LINE
  5
273
100
AcDbEntity
  8
AT110_010_00_new_view_1_BL0
100
AcDbLine
 62
9
  6
CONTINUOUS
 10
311.0517740783
 20
336.4411418297
 11
282.1410959327
 21
336.4411418297
  0
LINE
  5
274
100
AcDbEntity
  8
AT110_010_00_new_view_1_BL0
100
AcDbLine
 62
9
  6
CONTINUOUS
 10
282.1410959327
 20
336.4411418297
 11
281.7297697837
 21
336.4411418297
  0
LINE
  5
275
100
AcDbEntity
  8
AT110_010_00_new_view_1_BL0
100
AcDbLine
 62
9
  6
CONTINUOUS
 10
281.7297697837
 20
336.4411418297
 11
281.5083258983
 21
336.4411418297
  0
LINE
  5
276
100
AcDbEntity
  8
AT110_010_00_new_view_1_BL0
100
AcDbLine
 62
9
  6
CONTINUOUS
 10
281.5083258983
 20
336.4411418297
 11
250.9903148575
 21
336.4411418297
  0
LINE
  5
277
100
AcDbEntity
  8
AT110_010_00_new_view_1_BL0
100
AcDbLine
 62
9
  6
CONTINUOUS
 10
250.9903148575
 20
336.4411418297
 11
250.8836938447
 21
336.4411418297
  0
LINE
  5
278
100
AcDbEntity
  8
AT110_010_00_new_view_1_BL0
100
AcDbLine
 62
9
  6
CONTINUOUS
 10
250.8836938447
 20
336.4411418297
 11
249.0964350055
 21
336.4411418297
  0
LINE
  5
279
100
AcDbEntity
  8
AT110_010_00_new_view_1_BL0
100
AcDbLine
 62
9
  6
CONTINUOUS
 10
249.0964350055
 20
336.4411418297
 11
247.7702882827
 21
336.4411418297
  0
LINE
  5
27A
100
AcDbEntity
  8
AT110_010_00_new_view_1_BL0
100
AcDbLine
 62
9
  6
CONTINUOUS
 10
345.6562426267
 20
335.9922834203
 11
312.782218135
 21
335.9922834203
  0
LINE
  5
27B
100
AcDbEntity
  8
AT110_010_00_new_view_1_BL0
100
AcDbLine
 62
9
  6
CONTINUOUS
 10
312.782218135
 20
335.9922834203
 11
280.4106513912
 21
335.9922834203
  0
LINE
  5
27C
100
AcDbEntity
  8
AT110_010_00_new_view_1_BL0
100
AcDbLine
 62
9
  6
CONTINUOUS
 10
280.4106513912
 20
335.9922834203
 11
247.5366273844
 21
335.9922834203
  0
ENDBLK
  5
27D
100
AcDbEntity
  8
0
  6
BYBLOCK
 62
0
100
AcDbBlockEnd
  0
BLOCK
  5
27E
100
AcDbEntity
  8
AT110_008_01_new_view_1_BL1
100
AcDbBlockBegin
  2
AT110_008_01_NEW_VIEW_1_BL1
 70
64
 10
296.5964350055
 20
334.3073784812
  3
AT110_008_01_NEW_VIEW_1_BL1
  1

  0
LWPOLYLINE
  5
27F
100
AcDbEntity
  8
AT110_008_01_new_view_1_BL1
100
AcDbPolyline
 62
7
  6
CONTINUOUS
 90
3
 70
0
 10
283.4284777573
 20
336.5571646341
 10
285.7947484353
 20
337.2540782632
 10
289.784567117
 20
337.7758697795
  0
LWPOLYLINE
  5
280
100
AcDbEntity
  8
AT110_008_01_new_view_1_BL1
100
AcDbPolyline
 62
7
  6
CONTINUOUS
 90
3
 70
0
 10
290.1169849613
 20
337.8193436375
 10
291.1347179989
 20
337.9524435368
 10
291.7734233591
 20
337.9646056302
  0
LWPOLYLINE
  5
281
100
AcDbEntity
  8
AT110_008_01_new_view_1_BL1
100
AcDbPolyline
 62
7
  6
CONTINUOUS
 90
3
 70
0
 10
303.4082651318
 20
337.7765462414
 10
307.4174163884
 20
337.2500317269
 10
309.764736604
 20
336.5571646341
  0
LWPOLYLINE
  5
282
100
AcDbEntity
  8
AT110_008_01_new_view_1_BL1
100
AcDbPolyline
 62
7
  6
CONTINUOUS
 90
4
 70
0
 10
283.4281334071
 20
336.5571646341
 10
285.7754536227
 20
337.2500317269
 10
291.1148424266
 20
337.9512439097
 10
294.0344481742
 20
338.0074815967
  0
LWPOLYLINE
  5
283
100
AcDbEntity
  8
AT110_008_01_new_view_1_BL1
100
AcDbPolyline
 62
7
  6
CONTINUOUS
 90
3
 70
0
 10
294.0344481742
 20
338.0074815967
 10
296.5863474276
 20
338.0566364907
 10
299.3233449647
 20
338.0045191584
  0
LWPOLYLINE
  5
284
100
AcDbEntity
  8
AT110_008_01_new_view_1_BL1
100
AcDbPolyline
 62
7
  6
CONTINUOUS
 90
4
 70
0
 10
299.3233449647
 20
338.0045191584
 10
302.0581520121
 20
337.9524435368
 10
307.3981215757
 20
337.2540782633
 10
309.7643922537
 20
336.5571646341
  0
LINE
  5
285
100
AcDbEntity
  8
AT110_008_01_new_view_1_BL1
100
AcDbLine
 62
7
  6
CONTINUOUS
 10
292.806260559
 20
343.0571646341
 11
300.3866094521
 21
343.0571646341
  0
ELLIPSE
  5
286
100
AcDbEntity
  8
AT110_008_01_new_view_1_BL1
100
AcDbEllipse
 62
7
  6
CONTINUOUS
 10
274.084644331
 20
329.0571646341
 30
0.0
 11
-0.0604569134
 21
2.9998477956
 31
0.0
 40
0.4998477222
 41
-4.6701023567
 42
-3.1516659074
  0
LINE
  5
287
100
AcDbEntity
  8
AT110_008_01_new_view_1_BL1
100
AcDbLine
 62
7
  6
CONTINUOUS
 10
275.4290320256
 20
326.0571646341
 11
274.1299939199
 21
326.0571646341
  0
ELLIPSE
  5
288
100
AcDbEntity
  8
AT110_008_01_new_view_1_BL1
100
AcDbEllipse
 62
7
  6
CONTINUOUS
 10
319.1082256801
 20
329.0571646341
 30
0.0
 11
0.0604569134
 21
2.9998477956
 31
0.0
 40
0.4998477222
 41
-3.1315193998
 42
-1.6130829505
  0
LINE
  5
289
100
AcDbEntity
  8
AT110_008_01_new_view_1_BL1
100
AcDbLine
 62
7
  6
CONTINUOUS
 10
319.0628760912
 20
326.0571646341
 11
317.7638379855
 21
326.0571646341
  0
LINE
  5
28A
100
AcDbEntity
  8
AT110_008_01_new_view_1_BL1
100
AcDbLine
 62
7
  6
CONTINUOUS
 10
301.419446652
 20
337.9646056302
 11
301.4071641005
 21
336.5571646341
  0
LINE
  5
28B
100
AcDbEntity
  8
AT110_008_01_new_view_1_BL1
100
AcDbLine
 62
7
  6
CONTINUOUS
 10
291.7734292582
 20
337.9639296637
 11
291.7857059106
 21
336.5571646341
  0
ARC
  5
28C
100
AcDbEntity
  8
AT110_008_01_new_view_1_BL1
100
AcDbCircle
 62
7
  6
CONTINUOUS
 10
301.4464350055
 20
306.7048050133
 40
36.3523596208
100
AcDbArc
 50
55.3733082466
 51
90.0
  0
LINE
  5
28D
100
AcDbEntity
  8
AT110_008_01_new_view_1_BL1
100
AcDbLine
 62
7
  6
CONTINUOUS
 10
291.7464350055
 20
343.0571646341
 11
291.8688832174
 21
343.0571646341
  0
LINE
  5
28E
100
AcDbEntity
  8
AT110_008_01_new_view_1_BL1
100
AcDbLine
 62
7
  6
CONTINUOUS
 10
291.8688832174
 20
343.0571646341
 11
292.806260566
 21
343.0571646341
  0
ARC
  5
28F
100
AcDbEntity
  8
AT110_008_01_new_view_1_BL1
100
AcDbCircle
 62
7
  6
CONTINUOUS
 10
291.7464350055
 20
306.7048050133
 40
36.3523596208
100
AcDbArc
 50
90.0
 51
124.6266917534
  0
LINE
  5
290
100
AcDbEntity
  8
AT110_008_01_new_view_1_BL1
100
AcDbLine
 62
7
  6
CONTINUOUS
 10
291.8676692333
 20
343.0571646341
 11
291.8442953358
 21
343.0571646341
  0
LINE
  5
291
100
AcDbEntity
  8
AT110_008_01_new_view_1_BL1
100
AcDbLine
 62
7
  6
CONTINUOUS
 10
292.806260559
 20
343.0571646341
 11
291.9238507386
 21
343.0571646341
  0
LINE
  5
292
100
AcDbEntity
  8
AT110_008_01_new_view_1_BL1
100
AcDbLine
 62
7
  6
CONTINUOUS
 10
291.9238507386
 20
343.0571646341
 11
291.8676692333
 21
343.0571646341
  0
LINE
  5
293
100
AcDbEntity
  8
AT110_008_01_new_view_1_BL1
100
AcDbLine
 62
7
  6
CONTINUOUS
 10
301.4464346266
 20
343.0571646341
 11
300.3866094521
 21
343.0571646341
  0
ARC
  5
294
100
AcDbEntity
  8
AT110_008_01_new_view_1_BL1
100
AcDbCircle
 62
7
  6
CONTINUOUS
 10
250.6714350055
 20
321.0571646341
 40
13.0
100
AcDbArc
 50
20.2542477239
 51
22.619864948
  0
ARC
  5
295
100
AcDbEntity
  8
AT110_008_01_new_view_1_BL1
100
AcDbCircle
 62
7
  6
CONTINUOUS
 10
342.5214350055
 20
321.0571646341
 40
13.0
100
AcDbArc
 50
157.380135052
 51
159.7457522761
  0
LINE
  5
296
100
AcDbEntity
  8
AT110_008_01_new_view_1_BL1
100
AcDbLine
 62
7
  6
CONTINUOUS
 10
251.6323309542
 20
334.0307621896
 11
251.6323309542
 21
333.7571646341
  0
LINE
  5
297
100
AcDbEntity
  8
AT110_008_01_new_view_1_BL1
100
AcDbLine
 62
7
  6
CONTINUOUS
 10
250.7833295505
 20
334.0571646341
 11
250.7833295505
 21
333.7571646341
  0
LINE
  5
298
100
AcDbEntity
  8
AT110_008_01_new_view_1_BL1
100
AcDbLine
 62
7
  6
CONTINUOUS
 10
252.1046986496
 20
333.9791633985
 11
252.1046986496
 21
333.7571646341
  0
LINE
  5
299
100
AcDbEntity
  8
AT110_008_01_new_view_1_BL1
100
AcDbLine
 62
7
  6
CONTINUOUS
 10
252.1046986496
 20
333.7571646341
 11
251.6323309542
 21
333.7571646341
  0
LINE
  5
29A
100
AcDbEntity
  8
AT110_008_01_new_view_1_BL1
100
AcDbLine
 62
7
  6
CONTINUOUS
 10
250.7880269189
 20
333.7571646341
 11
250.617913883
 21
333.7571646341
  0
LINE
  5
29B
100
AcDbEntity
  8
AT110_008_01_new_view_1_BL1
100
AcDbLine
 62
7
  6
CONTINUOUS
 10
250.617913883
 20
333.7571646341
 11
250.4889023712
 21
333.7571646341
  0
LINE
  5
29C
100
AcDbEntity
  8
AT110_008_01_new_view_1_BL1
100
AcDbLine
 62
7
  6
CONTINUOUS
 10
250.4889023712
 20
333.7571646341
 11
250.3145089654
 21
333.7571646341
  0
LINE
  5
29D
100
AcDbEntity
  8
AT110_008_01_new_view_1_BL1
100
AcDbLine
 62
7
  6
CONTINUOUS
 10
250.3145089654
 20
333.7571646341
 11
250.1812169482
 21
333.7571646341
  0
LINE
  5
29E
100
AcDbEntity
  8
AT110_008_01_new_view_1_BL1
100
AcDbLine
 62
7
  6
CONTINUOUS
 10
250.1812169482
 20
333.7571646341
 11
250.1315545815
 21
333.7571646341
  0
LINE
  5
29F
100
AcDbEntity
  8
AT110_008_01_new_view_1_BL1
100
AcDbLine
 62
7
  6
CONTINUOUS
 10
250.1315545815
 20
333.7571646341
 11
250.099450221
 21
333.7571646341
  0
LINE
  5
2A0
100
AcDbEntity
  8
AT110_008_01_new_view_1_BL1
100
AcDbLine
 62
7
  6
CONTINUOUS
 10
251.1730425424
 20
333.7571646341
 11
250.9164777099
 21
333.7571646341
  0
LINE
  5
2A1
100
AcDbEntity
  8
AT110_008_01_new_view_1_BL1
100
AcDbLine
 62
7
  6
CONTINUOUS
 10
250.9164777099
 20
333.7571646341
 11
250.7833295505
 21
333.7571646341
  0
LINE
  5
2A2
100
AcDbEntity
  8
AT110_008_01_new_view_1_BL1
100
AcDbLine
 62
7
  6
CONTINUOUS
 10
251.6323309542
 20
333.7571646341
 11
251.5107787103
 21
333.7571646341
  0
LINE
  5
2A3
100
AcDbEntity
  8
AT110_008_01_new_view_1_BL1
100
AcDbLine
 62
7
  6
CONTINUOUS
 10
251.5107787103
 20
333.7571646341
 11
251.1730425424
 21
333.7571646341
  0
LINE
  5
2A4
100
AcDbEntity
  8
AT110_008_01_new_view_1_BL1
100
AcDbLine
 62
7
  6
CONTINUOUS
 10
344.0964350055
 20
336.5571646341
 11
343.8531444959
 21
336.5571646341
  0
LINE
  5
2A5
100
AcDbEntity
  8
AT110_008_01_new_view_1_BL1
100
AcDbLine
 62
7
  6
CONTINUOUS
 10
343.8531444959
 20
336.5571646341
 11
342.2025551536
 21
336.5571646341
  0
LINE
  5
2A6
100
AcDbEntity
  8
AT110_008_01_new_view_1_BL1
100
AcDbLine
 62
7
  6
CONTINUOUS
 10
342.2025551536
 20
336.5571646341
 11
311.2747422384
 21
336.5571646341
  0
LINE
  5
2A7
100
AcDbEntity
  8
AT110_008_01_new_view_1_BL1
100
AcDbLine
 62
7
  6
CONTINUOUS
 10
311.2747422384
 20
336.5571646341
 11
311.0517740783
 21
336.5571646341
  0
LINE
  5
2A8
100
AcDbEntity
  8
AT110_008_01_new_view_1_BL1
100
AcDbLine
 62
7
  6
CONTINUOUS
 10
311.0517740783
 20
336.5571646341
 11
282.1410959327
 21
336.5571646341
  0
LINE
  5
2A9
100
AcDbEntity
  8
AT110_008_01_new_view_1_BL1
100
AcDbLine
 62
7
  6
CONTINUOUS
 10
282.1410959327
 20
336.5571646341
 11
281.9181277727
 21
336.5571646341
  0
LINE
  5
2AA
100
AcDbEntity
  8
AT110_008_01_new_view_1_BL1
100
AcDbLine
 62
7
  6
CONTINUOUS
 10
281.9181277727
 20
336.5571646341
 11
250.9903148575
 21
336.5571646341
  0
LINE
  5
2AB
100
AcDbEntity
  8
AT110_008_01_new_view_1_BL1
100
AcDbLine
 62
7
  6
CONTINUOUS
 10
250.9903148575
 20
336.5571646341
 11
249.0964350055
 21
336.5571646341
  0
ARC
  5
2AC
100
AcDbEntity
  8
AT110_008_01_new_view_1_BL1
100
AcDbCircle
 62
7
  6
CONTINUOUS
 10
342.5214350055
 20
321.0571646341
 40
13.0
100
AcDbArc
 50
157.380135052
 51
159.7103850635
  0
ARC
  5
2AD
100
AcDbEntity
  8
AT110_008_01_new_view_1_BL1
100
AcDbCircle
 62
7
  6
CONTINUOUS
 10
250.6714350055
 20
321.0571646341
 40
13.0
100
AcDbArc
 50
20.2896149365
 51
22.619864948
  0
LINE
  5
2AE
100
AcDbEntity
  8
AT110_008_01_new_view_1_BL1
100
AcDbLine
 62
7
  6
CONTINUOUS
 10
300.3866094449
 20
343.0571646341
 11
301.4464350055
 21
343.0571646341
  0
LINE
  5
2AF
100
AcDbEntity
  8
AT110_008_01_new_view_1_BL1
100
AcDbLine
 62
7
  6
CONTINUOUS
 10
292.806260566
 20
343.0571646341
 11
300.3866094449
 21
343.0571646341
  0
LINE
  5
2B0
100
AcDbEntity
  8
AT110_008_01_new_view_1_BL1
100
AcDbLine
 62
7
  6
CONTINUOUS
 10
343.2261676754
 20
328.9001567654
 11
343.4964350055
 21
334.0571646341
  0
ARC
  5
2B1
100
AcDbEntity
  8
AT110_008_01_new_view_1_BL1
100
AcDbCircle
 62
7
  6
CONTINUOUS
 10
340.2302790711
 20
329.0571646341
 40
3.0
100
AcDbArc
 50
270.0
 51
357.0
  0
LINE
  5
2B2
100
AcDbEntity
  8
AT110_008_01_new_view_1_BL1
100
AcDbLine
 62
7
  6
CONTINUOUS
 10
330.513143646
 20
326.0571646341
 11
340.2302790711
 21
326.0571646341
  0
LINE
  5
2B3
100
AcDbEntity
  8
AT110_008_01_new_view_1_BL1
100
AcDbLine
 62
7
  6
CONTINUOUS
 10
320.6037965682
 20
328.9001567654
 11
320.8168862956
 21
334.0571646341
  0
LINE
  5
2B4
100
AcDbEntity
  8
AT110_008_01_new_view_1_BL1
100
AcDbLine
 62
7
  6
CONTINUOUS
 10
312.9052702729
 20
326.0571646341
 11
317.7638379855
 21
326.0571646341
  0
LINE
  5
2B5
100
AcDbEntity
  8
AT110_008_01_new_view_1_BL1
100
AcDbLine
 62
7
  6
CONTINUOUS
 10
319.0628760912
 20
326.0571646341
 11
317.7638379855
 21
326.0571646341
  0
LINE
  5
2B6
100
AcDbEntity
  8
AT110_008_01_new_view_1_BL1
100
AcDbLine
 62
7
  6
CONTINUOUS
 10
280.2875997382
 20
326.0571646341
 11
275.4290320256
 21
326.0571646341
  0
LINE
  5
2B7
100
AcDbEntity
  8
AT110_008_01_new_view_1_BL1
100
AcDbLine
 62
7
  6
CONTINUOUS
 10
272.5890734429
 20
328.9001567654
 11
272.3759837155
 21
334.0571646341
  0
LINE
  5
2B8
100
AcDbEntity
  8
AT110_008_01_new_view_1_BL1
100
AcDbLine
 62
7
  6
CONTINUOUS
 10
275.4290320256
 20
326.0571646341
 11
274.1299939199
 21
326.0571646341
  0
LINE
  5
2B9
100
AcDbEntity
  8
AT110_008_01_new_view_1_BL1
100
AcDbLine
 62
7
  6
CONTINUOUS
 10
262.6797263651
 20
326.0571646341
 11
252.96259094
 21
326.0571646341
  0
ARC
  5
2BA
100
AcDbEntity
  8
AT110_008_01_new_view_1_BL1
100
AcDbCircle
 62
7
  6
CONTINUOUS
 10
252.96259094
 20
329.0571646341
 40
3.0
100
AcDbArc
 50
183.0
 51
270.0
  0
LINE
  5
2BB
100
AcDbEntity
  8
AT110_008_01_new_view_1_BL1
100
AcDbLine
 62
7
  6
CONTINUOUS
 10
249.9667023357
 20
328.9001567654
 11
249.6964350055
 21
334.0571646341
  0
LINE
  5
2BC
100
AcDbEntity
  8
AT110_008_01_new_view_1_BL1
100
AcDbLine
 62
9
  6
CONTINUOUS
 10
300.3866094521
 20
343.0571646341
 11
300.3866094521
 21
340.0833442406
  0
LINE
  5
2BD
100
AcDbEntity
  8
AT110_008_01_new_view_1_BL1
100
AcDbLine
 62
9
  6
CONTINUOUS
 10
292.806260559
 20
343.0571646341
 11
292.806260559
 21
340.0833442406
  0
LINE
  5
2BE
100
AcDbEntity
  8
AT110_008_01_new_view_1_BL1
100
AcDbLine
 62
7
  6
CONTINUOUS
 10
250.9164777099
 20
334.0567481172
 11
250.9164777099
 21
333.7571646341
  0
LINE
  5
2BF
100
AcDbEntity
  8
AT110_008_01_new_view_1_BL1
100
AcDbLine
 62
7
  6
CONTINUOUS
 10
251.1730425424
 20
334.05090506
 11
251.1730425424
 21
333.7571646341
  0
LINE
  5
2C0
100
AcDbEntity
  8
AT110_008_01_new_view_1_BL1
100
AcDbLine
 62
7
  6
CONTINUOUS
 10
251.5107787103
 20
334.0383163977
 11
251.5107787103
 21
333.7571646341
  0
LINE
  5
2C1
100
AcDbEntity
  8
AT110_008_01_new_view_1_BL1
100
AcDbLine
 62
7
  6
CONTINUOUS
 10
250.1315545815
 20
334.0571646341
 11
250.1315545815
 21
333.7571646341
  0
LINE
  5
2C2
100
AcDbEntity
  8
AT110_008_01_new_view_1_BL1
100
AcDbLine
 62
7
  6
CONTINUOUS
 10
250.1812169482
 20
334.0571646341
 11
250.1812169482
 21
333.7571646341
  0
ARC
  5
2C3
100
AcDbEntity
  8
AT110_008_01_new_view_1_BL1
100
AcDbCircle
 62
7
  6
CONTINUOUS
 10
250.6833800949
 20
321.0694663088
 40
12.9877028524
100
AcDbArc
 50
83.7172119256
 51
85.6931140061
  0
LINE
  5
2C4
100
AcDbEntity
  8
AT110_008_01_new_view_1_BL1
100
AcDbLine
 62
7
  6
CONTINUOUS
 10
251.6587380229
 20
334.0204933837
 11
251.6318578482
 21
334.0224896722
  0
LINE
  5
2C5
100
AcDbEntity
  8
AT110_008_01_new_view_1_BL1
100
AcDbLine
 62
7
  6
CONTINUOUS
 10
250.3145089654
 20
334.0571646341
 11
250.3145089654
 21
333.7571646341
  0
LINE
  5
2C6
100
AcDbEntity
  8
AT110_008_01_new_view_1_BL1
100
AcDbLine
 62
7
  6
CONTINUOUS
 10
250.4889023712
 20
334.0571646341
 11
250.4889023712
 21
333.7571646341
  0
LINE
  5
2C7
100
AcDbEntity
  8
AT110_008_01_new_view_1_BL1
100
AcDbLine
 62
7
  6
CONTINUOUS
 10
250.617913883
 20
334.0571646341
 11
250.617913883
 21
333.7571646341
  0
ARC
  5
2C8
100
AcDbEntity
  8
AT110_008_01_new_view_1_BL1
100
AcDbCircle
 62
7
  6
CONTINUOUS
 10
250.842581972
 20
322.3048801554
 40
11.7524471041
100
AcDbArc
 50
86.1468953971
 51
86.7406354333
  0
SPLINE
  5
2C9
100
AcDbEntity
  8
AT110_008_01_new_view_1_BL1
100
AcDbSpline
 62
7
  6
CONTINUOUS
 70
0
 71
3
 72
14
 73
10
 74
0
 42
0.0000001
 43
0.0000001
 44
0.0000000001
 40
0.0
 40
0.0
 40
0.0
 40
0.0
 40
0.3190709986
 40
0.462101611
 40
0.5922701417
 40
0.7093249669
 40
0.8142683251
 40
0.9097173347
 40
1.0
 40
1.0
 40
1.0
 40
1.0
 10
280.2875997382
 20
326.0571646341
 30
0.0
 10
280.0731519926
 20
327.167862719
 30
0.0
 10
279.6383357238
 20
328.7608681667
 30
0.0
 10
278.7655312877
 20
330.6749074135
 30
0.0
 10
278.036323689
 20
331.8559985159
 30
0.0
 10
277.2222545365
 20
332.8104689582
 30
0.0
 10
276.3356669431
 20
333.517735604
 30
0.0
 10
275.3908668205
 20
333.956740306
 30
0.0
 10
274.7287766703
 20
334.0571646341
 30
0.0
 10
274.4086951389
 20
334.0571646341
 30
0.0
  0
ARC
  5
2CA
100
AcDbEntity
  8
AT110_008_01_new_view_1_BL1
100
AcDbCircle
 62
7
  6
CONTINUOUS
 10
250.682322971
 20
321.0605640943
 40
12.9963453761
100
AcDbArc
 50
22.6104337171
 51
83.5370081733
  0
ARC
  5
2CB
100
AcDbEntity
  8
AT110_008_01_new_view_1_BL1
100
AcDbCircle
 62
7
  6
CONTINUOUS
 10
250.685238969
 20
321.1000332608
 40
12.9568484594
100
AcDbArc
 50
83.5301750528
 51
83.7279964264
  0
SPLINE
  5
2CC
100
AcDbEntity
  8
AT110_008_01_new_view_1_BL1
100
AcDbSpline
 62
9
  6
CONTINUOUS
 70
0
 71
3
 72
12
 73
8
 74
0
 42
0.0000001
 43
0.0000001
 44
0.0000000001
 40
0.0
 40
0.0
 40
0.0
 40
0.0
 40
0.2499672317
 40
0.4999321908
 40
0.7499006345
 40
0.8749634196
 40
1.0
 40
1.0
 40
1.0
 40
1.0
 10
271.2176281883
 20
336.5586370962
 30
0.0
 10
272.7148213756
 20
337.5912854982
 30
0.0
 10
275.8699193197
 20
339.4340599982
 30
0.0
 10
280.9575292791
 20
341.4578169018
 30
0.0
 10
285.403577172
 20
342.4963301827
 30
0.0
 10
289.0180511136
 20
342.9341514328
 30
0.0
 10
290.837023405
 20
343.0272018213
 30
0.0
 10
291.7465964024
 20
343.0463214424
 30
0.0
  0
ARC
  5
2CD
100
AcDbEntity
  8
AT110_008_01_new_view_1_BL1
100
AcDbCircle
 62
9
  6
CONTINUOUS
 10
292.7929441305
 20
292.574620317
 40
50.4825460735
100
AcDbArc
 50
89.9848863574
 51
91.1876501243
  0
ELLIPSE
  5
2CE
100
AcDbEntity
  8
AT110_008_01_new_view_1_BL1
100
AcDbEllipse
 62
7
  6
CONTINUOUS
 10
275.4743816145
 20
329.0571646341
 30
0.0
 11
0.0604569134
 21
2.9998477956
 31
0.0
 40
0.4998477222
 41
-4.649955849
 42
-3.1315193998
  0
ELLIPSE
  5
2CF
100
AcDbEntity
  8
AT110_008_01_new_view_1_BL1
100
AcDbEllipse
 62
7
  6
CONTINUOUS
 10
317.7184883965
 20
329.0571646341
 30
0.0
 11
-0.0604569134
 21
2.9998477956
 31
0.0
 40
0.4998477222
 41
-3.1516659074
 42
-1.6332294582
  0
LINE
  5
2D0
100
AcDbEntity
  8
AT110_008_01_new_view_1_BL1
100
AcDbLine
 62
7
  6
CONTINUOUS
 10
319.2188061128
 20
328.9001567654
 11
319.2759837155
 21
334.0571646341
  0
LINE
  5
2D1
100
AcDbEntity
  8
AT110_008_01_new_view_1_BL1
100
AcDbLine
 62
9
  6
CONTINUOUS
 10
320.6037965682
 20
328.9001567654
 11
319.2188061128
 21
328.9001567654
  0
LINE
  5
2D2
100
AcDbEntity
  8
AT110_008_01_new_view_1_BL1
100
AcDbLine
 62
7
  6
CONTINUOUS
 10
273.9740638983
 20
328.9001567654
 11
273.9168862956
 21
334.0571646341
  0
LINE
  5
2D3
100
AcDbEntity
  8
AT110_008_01_new_view_1_BL1
100
AcDbLine
 62
9
  6
CONTINUOUS
 10
273.9740638983
 20
328.9001567654
 11
272.5890734429
 21
328.9001567654
  0
LINE
  5
2D4
100
AcDbEntity
  8
AT110_008_01_new_view_1_BL1
100
AcDbLine
 62
7
  6
CONTINUOUS
 10
250.0996296451
 20
334.0571646341
 11
250.099450221
 21
333.7571646341
  0
ARC
  5
2D5
100
AcDbEntity
  8
AT110_008_01_new_view_1_BL1
100
AcDbCircle
 62
9
  6
CONTINUOUS
 10
300.3998500817
 20
292.5712706682
 40
50.4858957023
100
AcDbArc
 50
88.8123454673
 51
90.0150266167
  0
SPLINE
  5
2D6
100
AcDbEntity
  8
AT110_008_01_new_view_1_BL1
100
AcDbSpline
 62
9
  6
CONTINUOUS
 70
0
 71
3
 72
12
 73
8
 74
0
 42
0.0000001
 43
0.0000001
 44
0.0000000001
 40
0.0
 40
0.0
 40
0.0
 40
0.0
 40
0.1250365512
 40
0.2500990349
 40
0.5000690347
 40
0.7500342332
 40
1.0
 40
1.0
 40
1.0
 40
1.0
 10
301.4462711208
 20
343.0463206222
 30
0.0
 10
302.3557506337
 20
343.0272037119
 30
0.0
 10
304.1745339635
 20
342.9341692749
 30
0.0
 10
307.7886503371
 20
342.4964316715
 30
0.0
 10
312.2342724411
 20
341.4581229478
 30
0.0
 10
317.3214363355
 20
339.4347671423
 30
0.0
 10
320.4762964606
 20
337.5923539788
 30
0.0
 10
321.973392759
 20
336.5599124218
 30
0.0
  0
SPLINE
  5
2D7
100
AcDbEntity
  8
AT110_008_01_new_view_1_BL1
100
AcDbSpline
 62
9
  6
CONTINUOUS
 70
0
 71
3
 72
17
 73
13
 74
0
 42
0.0000001
 43
0.0000001
 44
0.0000000001
 40
0.0
 40
0.0
 40
0.0
 40
0.0
 40
0.124964153
 40
0.2499339818
 40
0.3124483406
 40
0.3749643735
 40
0.4999996222
 40
0.6250348544
 40
0.6875508721
 40
0.7500651591
 40
0.8750356119
 40
1.0
 40
1.0
 40
1.0
 40
1.0
 10
280.0239137689
 20
336.563222118
 30
0.0
 10
281.3292032161
 20
337.0856215186
 30
0.0
 10
284.0101801797
 20
337.9631382868
 30
0.0
 10
287.4706662911
 20
338.6297659778
 30
0.0
 10
290.2693060653
 20
338.9215622313
 30
0.0
 10
293.0799529561
 20
339.0703247363
 30
0.0
 10
296.5975336325
 20
339.0620654159
 30
0.0
 10
300.1151166919
 20
339.0702940266
 30
0.0
 10
302.925755914
 20
338.9213920264
 30
0.0
 10
305.7243854065
 20
338.6294368763
 30
0.0
 10
309.1848380064
 20
337.962583251
 30
0.0
 10
311.8657662412
 20
337.084885722
 30
0.0
 10
313.1710221497
 20
336.5623954105
 30
0.0
  0
SPLINE
  5
2D8
100
AcDbEntity
  8
AT110_008_01_new_view_1_BL1
100
AcDbSpline
 62
9
  6
CONTINUOUS
 70
0
 71
3
 72
11
 73
7
 74
0
 42
0.0000001
 43
0.0000001
 44
0.0000000001
 40
0.0
 40
0.0
 40
0.0
 40
0.0
 40
0.2499857202
 40
0.4999736036
 40
0.749975987
 40
1.0
 40
1.0
 40
1.0
 40
1.0
 10
277.0682667588
 20
336.5620738426
 30
0.0
 10
278.2833875914
 20
337.162748368
 30
0.0
 10
280.7895388438
 20
338.2171102244
 30
0.0
 10
284.7102306883
 20
339.3311229425
 30
0.0
 10
288.7362575947
 20
339.9705238451
 30
0.0
 10
291.4505720082
 20
340.0832834819
 30
0.0
 10
292.806260559
 20
340.0833442406
 30
0.0
  0
LINE
  5
2D9
100
AcDbEntity
  8
AT110_008_01_new_view_1_BL1
100
AcDbLine
 62
9
  6
CONTINUOUS
 10
292.806260559
 20
340.0833442406
 11
300.3866094521
 21
340.0833442406
  0
SPLINE
  5
2DA
100
AcDbEntity
  8
AT110_008_01_new_view_1_BL1
100
AcDbSpline
 62
9
  6
CONTINUOUS
 70
0
 71
3
 72
11
 73
7
 74
0
 42
0.0000001
 43
0.0000001
 44
0.0000000001
 40
0.0
 40
0.0
 40
0.0
 40
0.0
 40
0.2500234914
 40
0.5000261691
 40
0.7500144658
 40
1.0
 40
1.0
 40
1.0
 40
1.0
 10
300.3866094521
 20
340.0833442406
 30
0.0
 10
301.7429259769
 20
340.0832819182
 30
0.0
 10
304.4585053499
 20
339.970412227
 30
0.0
 10
308.4863637155
 20
339.3303805049
 30
0.0
 10
312.4087348335
 20
338.2152957977
 30
0.0
 10
314.9158506187
 20
337.1599419323
 30
0.0
 10
316.1313998975
 20
336.5587132255
 30
0.0
  0
SPLINE
  5
2DB
100
AcDbEntity
  8
AT110_008_01_new_view_1_BL1
100
AcDbSpline
 62
7
  6
CONTINUOUS
 70
0
 71
3
 72
11
 73
7
 74
0
 42
0.0000001
 43
0.0000001
 44
0.0000000001
 40
0.0
 40
0.0
 40
0.0
 40
0.0
 40
0.2500164952
 40
0.5000192658
 40
0.7500115513
 40
1.0
 40
1.0
 40
1.0
 40
1.0
 10
342.5128173189
 20
334.0571646341
 30
0.0
 10
341.2433029502
 20
334.0571646341
 30
0.0
 10
338.6887066983
 20
333.6801660479
 30
0.0
 10
335.1970427448
 20
332.0305096224
 30
0.0
 10
332.3312825772
 20
329.4421440086
 30
0.0
 10
331.0010799178
 20
327.2290107669
 30
0.0
 10
330.513143646
 20
326.0571646341
 30
0.0
  0
SPLINE
  5
2DC
100
AcDbEntity
  8
AT110_008_01_new_view_1_BL1
100
AcDbSpline
 62
7
  6
CONTINUOUS
 70
0
 71
3
 72
14
 73
10
 74
0
 42
0.0000001
 43
0.0000001
 44
0.0000000001
 40
0.0
 40
0.0
 40
0.0
 40
0.0
 40
0.0902826653
 40
0.1857316749
 40
0.2906750331
 40
0.4077298584
 40
0.537898389
 40
0.6809290014
 40
1.0
 40
1.0
 40
1.0
 40
1.0
 10
318.7841748722
 20
334.0571646341
 30
0.0
 10
318.4640933407
 20
334.0571646341
 30
0.0
 10
317.8020031905
 20
333.956740306
 30
0.0
 10
316.8572030677
 20
333.5177356039
 30
0.0
 10
315.9706154742
 20
332.8104689578
 30
0.0
 10
315.1565463218
 20
331.8559985155
 30
0.0
 10
314.4273387231
 20
330.674907413
 30
0.0
 10
313.5545342873
 20
328.7608681664
 30
0.0
 10
313.1197180185
 20
327.1678627189
 30
0.0
 10
312.9052702729
 20
326.0571646341
 30
0.0
  0
ENDBLK
  5
2DD
100
AcDbEntity
  8
0
  6
BYBLOCK
 62
0
100
AcDbBlockEnd
  0
BLOCK
  5
2DE
100
AcDbEntity
  8
AT110_009_01_new_view_1_BL2
100
AcDbBlockBegin
  2
AT110_009_01_NEW_VIEW_1_BL2
 70
64
 10
296.5964350055
 20
305.5571646341
  3
AT110_009_01_NEW_VIEW_1_BL2
  1

  0
LINE
  5
2DF
100
AcDbEntity
  8
AT110_009_01_new_view_1_BL2
100
AcDbLine
 62
7
  6
CONTINUOUS
 10
249.8157490301
 20
300.4262666017
 11
249.6052380287
 21
324.5484380986
  0
LINE
  5
2E0
100
AcDbEntity
  8
AT110_009_01_new_view_1_BL2
100
AcDbLine
 62
7
  6
CONTINUOUS
 10
343.377120981
 20
300.4262666017
 11
343.5876319824
 21
324.5484380986
  0
ARC
  5
2E1
100
AcDbEntity
  8
AT110_009_01_new_view_1_BL2
100
AcDbCircle
 62
7
  6
CONTINUOUS
 10
342.5877462161
 20
324.5571646341
 40
1.0
100
AcDbArc
 50
359.5
 51
90.0
  0
ARC
  5
2E2
100
AcDbEntity
  8
AT110_009_01_new_view_1_BL2
100
AcDbCircle
 62
7
  6
CONTINUOUS
 10
250.6051237949
 20
324.5571646341
 40
1.0
100
AcDbArc
 50
90.0
 51
180.5
  0
ARC
  5
2E3
100
AcDbEntity
  8
AT110_009_01_new_view_1_BL2
100
AcDbCircle
 62
7
  6
CONTINUOUS
 10
342.5877462161
 20
324.5571646341
 40
1.0
100
AcDbArc
 50
359.5
 51
90.0
  0
ARC
  5
2E4
100
AcDbEntity
  8
AT110_009_01_new_view_1_BL2
100
AcDbCircle
 62
7
  6
CONTINUOUS
 10
250.6051237949
 20
324.5571646341
 40
1.0
100
AcDbArc
 50
90.0
 51
180.5
  0
LINE
  5
2E5
100
AcDbEntity
  8
AT110_009_01_new_view_1_BL2
100
AcDbLine
 62
7
  6
CONTINUOUS
 10
342.5877462161
 20
325.5571646341
 11
250.6051237949
 21
325.5571646341
  0
LINE
  5
2E6
100
AcDbEntity
  8
AT110_009_01_new_view_1_BL2
100
AcDbLine
 62
7
  6
CONTINUOUS
 10
328.377692135
 20
285.5571646341
 11
315.5964350055
 21
285.5571646341
  0
LINE
  5
2E7
100
AcDbEntity
  8
AT110_009_01_new_view_1_BL2
100
AcDbLine
 62
7
  6
CONTINUOUS
 10
315.5964350055
 20
285.5571646341
 11
314.6972630349
 21
285.5571646341
  0
LINE
  5
2E8
100
AcDbEntity
  8
AT110_009_01_new_view_1_BL2
100
AcDbLine
 62
7
  6
CONTINUOUS
 10
314.6972630349
 20
285.5571646341
 11
310.5127641068
 21
285.5571646341
  0
LINE
  5
2E9
100
AcDbEntity
  8
AT110_009_01_new_view_1_BL2
100
AcDbLine
 62
7
  6
CONTINUOUS
 10
310.5127641068
 20
285.5571646341
 11
307.5964350055
 21
285.5571646341
  0
LINE
  5
2EA
100
AcDbEntity
  8
AT110_009_01_new_view_1_BL2
100
AcDbLine
 62
7
  6
CONTINUOUS
 10
307.5964350055
 20
285.5571646341
 11
302.5964350055
 21
285.5571646341
  0
LINE
  5
2EB
100
AcDbEntity
  8
AT110_009_01_new_view_1_BL2
100
AcDbLine
 62
7
  6
CONTINUOUS
 10
302.5964350055
 20
285.5571646341
 11
300.7504808654
 21
285.5571646341
  0
LINE
  5
2EC
100
AcDbEntity
  8
AT110_009_01_new_view_1_BL2
100
AcDbLine
 62
7
  6
CONTINUOUS
 10
300.7504808654
 20
285.5571646341
 11
300.6968789363
 21
285.5571646341
  0
LINE
  5
2ED
100
AcDbEntity
  8
AT110_009_01_new_view_1_BL2
100
AcDbLine
 62
7
  6
CONTINUOUS
 10
300.6968789363
 20
285.5571646341
 11
300.2693789363
 21
285.5571646341
  0
LINE
  5
2EE
100
AcDbEntity
  8
AT110_009_01_new_view_1_BL2
100
AcDbLine
 62
7
  6
CONTINUOUS
 10
300.2693789363
 20
285.5571646341
 11
300.0318789363
 21
285.5571646341
  0
LINE
  5
2EF
100
AcDbEntity
  8
AT110_009_01_new_view_1_BL2
100
AcDbLine
 62
7
  6
CONTINUOUS
 10
300.0318789363
 20
285.5571646341
 11
299.9538269941
 21
285.5571646341
  0
LINE
  5
2F0
100
AcDbEntity
  8
AT110_009_01_new_view_1_BL2
100
AcDbLine
 62
7
  6
CONTINUOUS
 10
299.9538269941
 20
285.5571646341
 11
299.9273789363
 21
285.5571646341
  0
LINE
  5
2F1
100
AcDbEntity
  8
AT110_009_01_new_view_1_BL2
100
AcDbLine
 62
7
  6
CONTINUOUS
 10
299.9273789363
 20
285.5571646341
 11
299.7468789363
 21
285.5571646341
  0
LINE
  5
2F2
100
AcDbEntity
  8
AT110_009_01_new_view_1_BL2
100
AcDbLine
 62
7
  6
CONTINUOUS
 10
299.7468789363
 20
285.5571646341
 11
299.3288789363
 21
285.5571646341
  0
LINE
  5
2F3
100
AcDbEntity
  8
AT110_009_01_new_view_1_BL2
100
AcDbLine
 62
7
  6
CONTINUOUS
 10
299.3288789363
 20
285.5571646341
 11
299.1768789363
 21
285.5571646341
  0
LINE
  5
2F4
100
AcDbEntity
  8
AT110_009_01_new_view_1_BL2
100
AcDbLine
 62
7
  6
CONTINUOUS
 10
299.1768789363
 20
285.5571646341
 11
299.1537622898
 21
285.5571646341
  0
LINE
  5
2F5
100
AcDbEntity
  8
AT110_009_01_new_view_1_BL2
100
AcDbLine
 62
7
  6
CONTINUOUS
 10
299.1537622898
 20
285.5571646341
 11
299.0533789363
 21
285.5571646341
  0
LINE
  5
2F6
100
AcDbEntity
  8
AT110_009_01_new_view_1_BL2
100
AcDbLine
 62
7
  6
CONTINUOUS
 10
299.0533789363
 20
285.5571646341
 11
298.5308789363
 21
285.5571646341
  0
LINE
  5
2F7
100
AcDbEntity
  8
AT110_009_01_new_view_1_BL2
100
AcDbLine
 62
7
  6
CONTINUOUS
 10
298.5308789363
 20
285.5571646341
 11
298.5043069481
 21
285.5571646341
  0
LINE
  5
2F8
100
AcDbEntity
  8
AT110_009_01_new_view_1_BL2
100
AcDbLine
 62
7
  6
CONTINUOUS
 10
298.5043069481
 20
285.5571646341
 11
298.4928789363
 21
285.5571646341
  0
LINE
  5
2F9
100
AcDbEntity
  8
AT110_009_01_new_view_1_BL2
100
AcDbLine
 62
7
  6
CONTINUOUS
 10
298.4928789363
 20
285.5571646341
 11
298.4833789363
 21
285.5571646341
  0
LINE
  5
2FA
100
AcDbEntity
  8
AT110_009_01_new_view_1_BL2
100
AcDbLine
 62
7
  6
CONTINUOUS
 10
298.4833789363
 20
285.5571646341
 11
298.4263789363
 21
285.5571646341
  0
LINE
  5
2FB
100
AcDbEntity
  8
AT110_009_01_new_view_1_BL2
100
AcDbLine
 62
7
  6
CONTINUOUS
 10
298.4263789363
 20
285.5571646341
 11
297.9513789363
 21
285.5571646341
  0
LINE
  5
2FC
100
AcDbEntity
  8
AT110_009_01_new_view_1_BL2
100
AcDbLine
 62
7
  6
CONTINUOUS
 10
297.9513789363
 20
285.5571646341
 11
297.5998789363
 21
285.5571646341
  0
LINE
  5
2FD
100
AcDbEntity
  8
AT110_009_01_new_view_1_BL2
100
AcDbLine
 62
7
  6
CONTINUOUS
 10
297.5998789363
 20
285.5571646341
 11
297.5808789363
 21
285.5571646341
  0
LINE
  5
2FE
100
AcDbEntity
  8
AT110_009_01_new_view_1_BL2
100
AcDbLine
 62
7
  6
CONTINUOUS
 10
297.5808789363
 20
285.5571646341
 11
297.5143789363
 21
285.5571646341
  0
LINE
  5
2FF
100
AcDbEntity
  8
AT110_009_01_new_view_1_BL2
100
AcDbLine
 62
7
  6
CONTINUOUS
 10
297.5143789363
 20
285.5571646341
 11
297.4098789363
 21
285.5571646341
  0
LINE
  5
300
100
AcDbEntity
  8
AT110_009_01_new_view_1_BL2
100
AcDbLine
 62
7
  6
CONTINUOUS
 10
297.4098789363
 20
285.5571646341
 11
297.1625255578
 21
285.5571646341
  0
LINE
  5
301
100
AcDbEntity
  8
AT110_009_01_new_view_1_BL2
100
AcDbLine
 62
7
  6
CONTINUOUS
 10
297.1625255578
 20
285.5571646341
 11
297.1343789363
 21
285.5571646341
  0
LINE
  5
302
100
AcDbEntity
  8
AT110_009_01_new_view_1_BL2
100
AcDbLine
 62
7
  6
CONTINUOUS
 10
297.1343789363
 20
285.5571646341
 11
297.0678789363
 21
285.5571646341
  0
LINE
  5
303
100
AcDbEntity
  8
AT110_009_01_new_view_1_BL2
100
AcDbLine
 62
7
  6
CONTINUOUS
 10
297.0678789363
 20
285.5571646341
 11
296.9728789363
 21
285.5571646341
  0
LINE
  5
304
100
AcDbEntity
  8
AT110_009_01_new_view_1_BL2
100
AcDbLine
 62
7
  6
CONTINUOUS
 10
296.9728789363
 20
285.5571646341
 11
296.8778789363
 21
285.5571646341
  0
LINE
  5
305
100
AcDbEntity
  8
AT110_009_01_new_view_1_BL2
100
AcDbLine
 62
7
  6
CONTINUOUS
 10
296.8778789363
 20
285.5571646341
 11
296.7638789363
 21
285.5571646341
  0
LINE
  5
306
100
AcDbEntity
  8
AT110_009_01_new_view_1_BL2
100
AcDbLine
 62
7
  6
CONTINUOUS
 10
296.7638789363
 20
285.5571646341
 11
296.7258789363
 21
285.5571646341
  0
LINE
  5
307
100
AcDbEntity
  8
AT110_009_01_new_view_1_BL2
100
AcDbLine
 62
7
  6
CONTINUOUS
 10
296.7258789363
 20
285.5571646341
 11
296.6878681133
 21
285.5571646341
  0
LINE
  5
308
100
AcDbEntity
  8
AT110_009_01_new_view_1_BL2
100
AcDbLine
 62
7
  6
CONTINUOUS
 10
296.6878681133
 20
285.5571646341
 11
296.6118789363
 21
285.5571646341
  0
LINE
  5
309
100
AcDbEntity
  8
AT110_009_01_new_view_1_BL2
100
AcDbLine
 62
7
  6
CONTINUOUS
 10
296.6118789363
 20
285.5571646341
 11
296.4598789363
 21
285.5571646341
  0
LINE
  5
30A
100
AcDbEntity
  8
AT110_009_01_new_view_1_BL2
100
AcDbLine
 62
7
  6
CONTINUOUS
 10
296.4598789363
 20
285.5571646341
 11
296.3507781944
 21
285.5571646341
  0
LINE
  5
30B
100
AcDbEntity
  8
AT110_009_01_new_view_1_BL2
100
AcDbLine
 62
7
  6
CONTINUOUS
 10
296.3507781944
 20
285.5571646341
 11
296.3268789363
 21
285.5571646341
  0
LINE
  5
30C
100
AcDbEntity
  8
AT110_009_01_new_view_1_BL2
100
AcDbLine
 62
7
  6
CONTINUOUS
 10
296.3268789363
 20
285.5571646341
 11
296.3078789363
 21
285.5571646341
  0
LINE
  5
30D
100
AcDbEntity
  8
AT110_009_01_new_view_1_BL2
100
AcDbLine
 62
7
  6
CONTINUOUS
 10
296.3078789363
 20
285.5571646341
 11
296.1273789363
 21
285.5571646341
  0
LINE
  5
30E
100
AcDbEntity
  8
AT110_009_01_new_view_1_BL2
100
AcDbLine
 62
7
  6
CONTINUOUS
 10
296.1273789363
 20
285.5571646341
 11
295.9373789363
 21
285.5571646341
  0
LINE
  5
30F
100
AcDbEntity
  8
AT110_009_01_new_view_1_BL2
100
AcDbLine
 62
7
  6
CONTINUOUS
 10
295.9373789363
 20
285.5571646341
 11
295.8518789363
 21
285.5571646341
  0
LINE
  5
310
100
AcDbEntity
  8
AT110_009_01_new_view_1_BL2
100
AcDbLine
 62
7
  6
CONTINUOUS
 10
295.8518789363
 20
285.5571646341
 11
295.8328772444
 21
285.5571646341
  0
LINE
  5
311
100
AcDbEntity
  8
AT110_009_01_new_view_1_BL2
100
AcDbLine
 62
7
  6
CONTINUOUS
 10
295.8328772444
 20
285.5571646341
 11
295.8233789363
 21
285.5571646341
  0
LINE
  5
312
100
AcDbEntity
  8
AT110_009_01_new_view_1_BL2
100
AcDbLine
 62
7
  6
CONTINUOUS
 10
295.8233789363
 20
285.5571646341
 11
295.7663789363
 21
285.5571646341
  0
LINE
  5
313
100
AcDbEntity
  8
AT110_009_01_new_view_1_BL2
100
AcDbLine
 62
7
  6
CONTINUOUS
 10
295.7663789363
 20
285.5571646341
 11
295.5478789363
 21
285.5571646341
  0
LINE
  5
314
100
AcDbEntity
  8
AT110_009_01_new_view_1_BL2
100
AcDbLine
 62
7
  6
CONTINUOUS
 10
295.5478789363
 20
285.5571646341
 11
295.4718789363
 21
285.5571646341
  0
LINE
  5
315
100
AcDbEntity
  8
AT110_009_01_new_view_1_BL2
100
AcDbLine
 62
7
  6
CONTINUOUS
 10
295.4718789363
 20
285.5571646341
 11
295.4433789363
 21
285.5571646341
  0
LINE
  5
316
100
AcDbEntity
  8
AT110_009_01_new_view_1_BL2
100
AcDbLine
 62
7
  6
CONTINUOUS
 10
295.4433789363
 20
285.5571646341
 11
295.3167304317
 21
285.5571646341
  0
LINE
  5
317
100
AcDbEntity
  8
AT110_009_01_new_view_1_BL2
100
AcDbLine
 62
7
  6
CONTINUOUS
 10
295.3167304317
 20
285.5571646341
 11
295.3103789363
 21
285.5571646341
  0
LINE
  5
318
100
AcDbEntity
  8
AT110_009_01_new_view_1_BL2
100
AcDbLine
 62
7
  6
CONTINUOUS
 10
295.3103789363
 20
285.5571646341
 11
295.2913789363
 21
285.5571646341
  0
LINE
  5
319
100
AcDbEntity
  8
AT110_009_01_new_view_1_BL2
100
AcDbLine
 62
7
  6
CONTINUOUS
 10
295.2913789363
 20
285.5571646341
 11
295.0630262001
 21
285.5571646341
  0
LINE
  5
31A
100
AcDbEntity
  8
AT110_009_01_new_view_1_BL2
100
AcDbLine
 62
7
  6
CONTINUOUS
 10
295.0630262001
 20
285.5571646341
 11
294.6928789363
 21
285.5571646341
  0
LINE
  5
31B
100
AcDbEntity
  8
AT110_009_01_new_view_1_BL2
100
AcDbLine
 62
7
  6
CONTINUOUS
 10
294.6928789363
 20
285.5571646341
 11
294.688563063
 21
285.5571646341
  0
LINE
  5
31C
100
AcDbEntity
  8
AT110_009_01_new_view_1_BL2
100
AcDbLine
 62
7
  6
CONTINUOUS
 10
294.688563063
 20
285.5571646341
 11
294.5883681123
 21
285.5571646341
  0
LINE
  5
31D
100
AcDbEntity
  8
AT110_009_01_new_view_1_BL2
100
AcDbLine
 62
7
  6
CONTINUOUS
 10
294.5883681123
 20
285.5571646341
 11
294.5218789363
 21
285.5571646341
  0
LINE
  5
31E
100
AcDbEntity
  8
AT110_009_01_new_view_1_BL2
100
AcDbLine
 62
7
  6
CONTINUOUS
 10
294.5218789363
 20
285.5571646341
 11
294.0088789363
 21
285.5571646341
  0
LINE
  5
31F
100
AcDbEntity
  8
AT110_009_01_new_view_1_BL2
100
AcDbLine
 62
7
  6
CONTINUOUS
 10
294.0088789363
 20
285.5571646341
 11
293.6573789363
 21
285.5571646341
  0
LINE
  5
320
100
AcDbEntity
  8
AT110_009_01_new_view_1_BL2
100
AcDbLine
 62
7
  6
CONTINUOUS
 10
293.6573789363
 20
285.5571646341
 11
293.3723789363
 21
285.5571646341
  0
LINE
  5
321
100
AcDbEntity
  8
AT110_009_01_new_view_1_BL2
100
AcDbLine
 62
7
  6
CONTINUOUS
 10
293.3723789363
 20
285.5571646341
 11
293.2390406589
 21
285.5571646341
  0
LINE
  5
322
100
AcDbEntity
  8
AT110_009_01_new_view_1_BL2
100
AcDbLine
 62
7
  6
CONTINUOUS
 10
293.2390406589
 20
285.5571646341
 11
292.8593789363
 21
285.5571646341
  0
LINE
  5
323
100
AcDbEntity
  8
AT110_009_01_new_view_1_BL2
100
AcDbLine
 62
7
  6
CONTINUOUS
 10
292.8593789363
 20
285.5571646341
 11
292.4505784107
 21
285.5571646341
  0
LINE
  5
324
100
AcDbEntity
  8
AT110_009_01_new_view_1_BL2
100
AcDbLine
 62
7
  6
CONTINUOUS
 10
292.4505784107
 20
285.5571646341
 11
290.5964350055
 21
285.5571646341
  0
LINE
  5
325
100
AcDbEntity
  8
AT110_009_01_new_view_1_BL2
100
AcDbLine
 62
7
  6
CONTINUOUS
 10
290.5964350055
 20
285.5571646341
 11
285.5964350055
 21
285.5571646341
  0
LINE
  5
326
100
AcDbEntity
  8
AT110_009_01_new_view_1_BL2
100
AcDbLine
 62
7
  6
CONTINUOUS
 10
285.5964350055
 20
285.5571646341
 11
282.6801059043
 21
285.5571646341
  0
LINE
  5
327
100
AcDbEntity
  8
AT110_009_01_new_view_1_BL2
100
AcDbLine
 62
7
  6
CONTINUOUS
 10
282.6801059043
 20
285.5571646341
 11
278.4956069762
 21
285.5571646341
  0
LINE
  5
328
100
AcDbEntity
  8
AT110_009_01_new_view_1_BL2
100
AcDbLine
 62
7
  6
CONTINUOUS
 10
278.4956069762
 20
285.5571646341
 11
277.5964350055
 21
285.5571646341
  0
LINE
  5
329
100
AcDbEntity
  8
AT110_009_01_new_view_1_BL2
100
AcDbLine
 62
7
  6
CONTINUOUS
 10
277.5964350055
 20
285.5571646341
 11
264.8151778761
 21
285.5571646341
  0
ARC
  5
32A
100
AcDbEntity
  8
AT110_009_01_new_view_1_BL2
100
AcDbCircle
 62
7
  6
CONTINUOUS
 10
328.377692135
 20
300.5571646341
 40
15.0
100
AcDbArc
 50
270.0
 51
359.5
  0
ARC
  5
32B
100
AcDbEntity
  8
AT110_009_01_new_view_1_BL2
100
AcDbCircle
 62
7
  6
CONTINUOUS
 10
264.8151778761
 20
300.5571646341
 40
15.0
100
AcDbArc
 50
180.5
 51
270.0
  0
ARC
  5
32C
100
AcDbEntity
  8
AT110_009_01_new_view_1_BL2
100
AcDbCircle
 62
7
  6
CONTINUOUS
 10
264.8151778761
 20
300.5571646341
 40
15.0
100
AcDbArc
 50
180.5
 51
270.0
  0
ARC
  5
32D
100
AcDbEntity
  8
AT110_009_01_new_view_1_BL2
100
AcDbCircle
 62
7
  6
CONTINUOUS
 10
328.377692135
 20
300.5571646341
 40
15.0
100
AcDbArc
 50
270.0
 51
359.5
  0
LINE
  5
32E
100
AcDbEntity
  8
AT110_009_01_new_view_1_BL2
100
AcDbLine
 62
7
  6
CONTINUOUS
 10
249.6052380287
 20
324.5484380986
 11
249.8157490301
 21
300.4262666017
  0
LINE
  5
32F
100
AcDbEntity
  8
AT110_009_01_new_view_1_BL2
100
AcDbLine
 62
7
  6
CONTINUOUS
 10
343.5876319824
 20
324.5484380986
 11
343.377120981
 21
300.4262666017
  0
LINE
  5
330
100
AcDbEntity
  8
AT110_009_01_new_view_1_BL2
100
AcDbLine
 62
7
  6
CONTINUOUS
 10
249.6052380287
 20
324.5484380986
 11
343.5876319824
 21
324.5484380986
  0
LINE
  5
331
100
AcDbEntity
  8
AT110_009_01_new_view_1_BL2
100
AcDbLine
 62
9
  6
CONTINUOUS
 10
343.377120981
 20
300.4262666017
 11
299.697834189
 21
300.4262666017
  0
LINE
  5
332
100
AcDbEntity
  8
AT110_009_01_new_view_1_BL2
100
AcDbLine
 62
9
  6
CONTINUOUS
 10
299.697834189
 20
300.4262666017
 11
293.4950358221
 21
300.4262666017
  0
LINE
  5
333
100
AcDbEntity
  8
AT110_009_01_new_view_1_BL2
100
AcDbLine
 62
9
  6
CONTINUOUS
 10
293.4950358221
 20
300.4262666017
 11
249.8157490301
 21
300.4262666017
  0
ENDBLK
  5
334
100
AcDbEntity
  8
0
  6
BYBLOCK
 62
0
100
AcDbBlockEnd
  0
BLOCK
  5
335
100
AcDbEntity
  8
AT110_010_00_rechts_2_BL3
100
AcDbBlockBegin
  2
AT110_010_00_RECHTS_2_BL3
 70
64
 10
156.1723946785
 20
335.3071646341
  3
AT110_010_00_RECHTS_2_BL3
  1

  0
LINE
  5
336
100
AcDbEntity
  8
AT110_010_00_rechts_2_BL3
100
AcDbLine
 62
7
  6
CONTINUOUS
 10
156.1723946785
 20
334.0571646341
 11
155.2827541591
 21
334.0571646341
  0
LINE
  5
337
100
AcDbEntity
  8
AT110_010_00_rechts_2_BL3
100
AcDbLine
 62
7
  6
CONTINUOUS
 10
155.2827541591
 20
334.0571646341
 11
115.9628208855
 21
334.0571646341
  0
LINE
  5
338
100
AcDbEntity
  8
AT110_010_00_rechts_2_BL3
100
AcDbLine
 62
7
  6
CONTINUOUS
 10
115.9628208855
 20
334.0571646341
 11
115.1109829813
 21
334.0571646341
  0
LINE
  5
339
100
AcDbEntity
  8
AT110_010_00_rechts_2_BL3
100
AcDbLine
 62
7
  6
CONTINUOUS
 10
115.1109829813
 20
334.0571646341
 11
110.5763046204
 21
334.0571646341
  0
LINE
  5
33A
100
AcDbEntity
  8
AT110_010_00_rechts_2_BL3
100
AcDbLine
 62
7
  6
CONTINUOUS
 10
110.5763046204
 20
334.0571646341
 11
110.2473946799
 21
334.0571646341
  0
LINE
  5
33B
100
AcDbEntity
  8
AT110_010_00_rechts_2_BL3
100
AcDbLine
 62
7
  6
CONTINUOUS
 10
110.2473946799
 20
334.0571646341
 11
108.8911163373
 21
334.0571646341
  0
LINE
  5
33C
100
AcDbEntity
  8
AT110_010_00_rechts_2_BL3
100
AcDbLine
 62
7
  6
CONTINUOUS
 10
108.8911163373
 20
334.0571646341
 11
108.6637200556
 21
334.0571646341
  0
LINE
  5
33D
100
AcDbEntity
  8
AT110_010_00_rechts_2_BL3
100
AcDbLine
 62
7
  6
CONTINUOUS
 10
108.6637200556
 20
334.0571646341
 11
108.2299012995
 21
334.0571646341
  0
LINE
  5
33E
100
AcDbEntity
  8
AT110_010_00_rechts_2_BL3
100
AcDbLine
 62
7
  6
CONTINUOUS
 10
156.1723946785
 20
336.5571646341
 11
151.5301352096
 21
336.5571646341
  0
LINE
  5
33F
100
AcDbEntity
  8
AT110_010_00_rechts_2_BL3
100
AcDbLine
 62
7
  6
CONTINUOUS
 10
151.5301352096
 20
336.5571646341
 11
108.873098124
 21
336.5571646341
  0
LINE
  5
340
100
AcDbEntity
  8
AT110_010_00_rechts_2_BL3
100
AcDbLine
 62
7
  6
CONTINUOUS
 10
108.873098124
 20
336.5571646341
 11
108.6723946785
 21
336.5571646341
  0
LINE
  5
341
100
AcDbEntity
  8
AT110_010_00_rechts_2_BL3
100
AcDbLine
 62
7
  6
CONTINUOUS
 10
156.1723946785
 20
334.0571646341
 11
157.0620351979
 21
334.0571646341
  0
LINE
  5
342
100
AcDbEntity
  8
AT110_010_00_rechts_2_BL3
100
AcDbLine
 62
7
  6
CONTINUOUS
 10
157.0620351979
 20
334.0571646341
 11
169.5333310153
 21
334.0571646341
  0
LINE
  5
343
100
AcDbEntity
  8
AT110_010_00_rechts_2_BL3
100
AcDbLine
 62
7
  6
CONTINUOUS
 10
169.5333310153
 20
334.0571646341
 11
170.0410212346
 21
334.0571646341
  0
LINE
  5
344
100
AcDbEntity
  8
AT110_010_00_rechts_2_BL3
100
AcDbLine
 62
7
  6
CONTINUOUS
 10
170.0410212346
 20
334.0571646341
 11
177.7939910444
 21
334.0571646341
  0
LINE
  5
345
100
AcDbEntity
  8
AT110_010_00_rechts_2_BL3
100
AcDbLine
 62
7
  6
CONTINUOUS
 10
177.7939910444
 20
334.0571646341
 11
180.6348946785
 21
334.0571646341
  0
LINE
  5
346
100
AcDbEntity
  8
AT110_010_00_rechts_2_BL3
100
AcDbLine
 62
7
  6
CONTINUOUS
 10
180.6348946785
 20
334.0571646341
 11
180.7621022749
 21
334.0571646341
  0
LINE
  5
347
100
AcDbEntity
  8
AT110_010_00_rechts_2_BL3
100
AcDbLine
 62
7
  6
CONTINUOUS
 10
180.7621022749
 20
334.0571646341
 11
197.2338063757
 21
334.0571646341
  0
LINE
  5
348
100
AcDbEntity
  8
AT110_010_00_rechts_2_BL3
100
AcDbLine
 62
7
  6
CONTINUOUS
 10
197.2338063757
 20
334.0571646341
 11
200.6801967407
 21
334.0571646341
  0
LINE
  5
349
100
AcDbEntity
  8
AT110_010_00_rechts_2_BL3
100
AcDbLine
 62
7
  6
CONTINUOUS
 10
200.6801967407
 20
334.0571646341
 11
201.7684847366
 21
334.0571646341
  0
LINE
  5
34A
100
AcDbEntity
  8
AT110_010_00_rechts_2_BL3
100
AcDbLine
 62
7
  6
CONTINUOUS
 10
201.7684847366
 20
334.0571646341
 11
202.097294384
 21
334.0571646341
  0
LINE
  5
34B
100
AcDbEntity
  8
AT110_010_00_rechts_2_BL3
100
AcDbLine
 62
7
  6
CONTINUOUS
 10
202.097294384
 20
334.0571646341
 11
203.4536730197
 21
334.0571646341
  0
LINE
  5
34C
100
AcDbEntity
  8
AT110_010_00_rechts_2_BL3
100
AcDbLine
 62
7
  6
CONTINUOUS
 10
203.4536730197
 20
334.0571646341
 11
203.6810693013
 21
334.0571646341
  0
LINE
  5
34D
100
AcDbEntity
  8
AT110_010_00_rechts_2_BL3
100
AcDbLine
 62
7
  6
CONTINUOUS
 10
203.6810693013
 20
334.0571646341
 11
204.1148880575
 21
334.0571646341
  0
LINE
  5
34E
100
AcDbEntity
  8
AT110_010_00_rechts_2_BL3
100
AcDbLine
 62
7
  6
CONTINUOUS
 10
156.1723946785
 20
336.5571646341
 11
160.8146541474
 21
336.5571646341
  0
LINE
  5
34F
100
AcDbEntity
  8
AT110_010_00_rechts_2_BL3
100
AcDbLine
 62
7
  6
CONTINUOUS
 10
160.8146541474
 20
336.5571646341
 11
203.6723946785
 21
336.5571646341
  0
LINE
  5
350
100
AcDbEntity
  8
AT110_010_00_rechts_2_BL3
100
AcDbLine
 62
7
  6
CONTINUOUS
 10
107.1125870574
 20
335.9922834203
 11
108.2298284095
 21
334.0571646341
  0
LINE
  5
351
100
AcDbEntity
  8
AT110_010_00_rechts_2_BL3
100
AcDbLine
 62
7
  6
CONTINUOUS
 10
203.6723946785
 20
336.5571646341
 11
204.9985414013
 21
336.4411418297
  0
ARC
  5
352
100
AcDbEntity
  8
AT110_010_00_rechts_2_BL3
100
AcDbCircle
 62
7
  6
CONTINUOUS
 10
204.9723946785
 20
336.1422834203
 40
0.3
100
AcDbArc
 50
330.0
 51
85.0
  0
ARC
  5
353
100
AcDbEntity
  8
AT110_010_00_rechts_2_BL3
100
AcDbCircle
 62
7
  6
CONTINUOUS
 10
107.3723946785
 20
336.1422834203
 40
0.3
100
AcDbArc
 50
95.0
 51
210.0
  0
LINE
  5
354
100
AcDbEntity
  8
AT110_010_00_rechts_2_BL3
100
AcDbLine
 62
7
  6
CONTINUOUS
 10
205.2322022996
 20
335.9922834203
 11
204.1149609475
 21
334.0571646341
  0
LINE
  5
355
100
AcDbEntity
  8
AT110_010_00_rechts_2_BL3
100
AcDbLine
 62
7
  6
CONTINUOUS
 10
108.6723946785
 20
336.5571646341
 11
107.3462479557
 21
336.4411418297
  0
LINE
  5
356
100
AcDbEntity
  8
AT110_010_00_rechts_2_BL3
100
AcDbLine
 62
9
  6
CONTINUOUS
 10
156.1723946785
 20
336.4411418297
 11
203.6723946785
 21
336.4411418297
  0
LINE
  5
357
100
AcDbEntity
  8
AT110_010_00_rechts_2_BL3
100
AcDbLine
 62
9
  6
CONTINUOUS
 10
203.6723946785
 20
336.4411418297
 11
203.7743679629
 21
336.4411418297
  0
LINE
  5
358
100
AcDbEntity
  8
AT110_010_00_rechts_2_BL3
100
AcDbLine
 62
9
  6
CONTINUOUS
 10
203.7743679629
 20
336.4411418297
 11
204.9985414013
 21
336.4411418297
  0
LINE
  5
359
100
AcDbEntity
  8
AT110_010_00_rechts_2_BL3
100
AcDbLine
 62
9
  6
CONTINUOUS
 10
156.1723946785
 20
335.9922834203
 11
155.7456745906
 21
335.9922834203
  0
LINE
  5
35A
100
AcDbEntity
  8
AT110_010_00_rechts_2_BL3
100
AcDbLine
 62
9
  6
CONTINUOUS
 10
155.7456745906
 20
335.9922834203
 11
107.1125870574
 21
335.9922834203
  0
LINE
  5
35B
100
AcDbEntity
  8
AT110_010_00_rechts_2_BL3
100
AcDbLine
 62
9
  6
CONTINUOUS
 10
156.1723946785
 20
336.4411418297
 11
108.6723946785
 21
336.4411418297
  0
LINE
  5
35C
100
AcDbEntity
  8
AT110_010_00_rechts_2_BL3
100
AcDbLine
 62
9
  6
CONTINUOUS
 10
108.6723946785
 20
336.4411418297
 11
108.5704213941
 21
336.4411418297
  0
LINE
  5
35D
100
AcDbEntity
  8
AT110_010_00_rechts_2_BL3
100
AcDbLine
 62
9
  6
CONTINUOUS
 10
108.5704213941
 20
336.4411418297
 11
107.3462479557
 21
336.4411418297
  0
LINE
  5
35E
100
AcDbEntity
  8
AT110_010_00_rechts_2_BL3
100
AcDbLine
 62
9
  6
CONTINUOUS
 10
156.1723946785
 20
335.9922834203
 11
156.5991209676
 21
335.9922834203
  0
LINE
  5
35F
100
AcDbEntity
  8
AT110_010_00_rechts_2_BL3
100
AcDbLine
 62
9
  6
CONTINUOUS
 10
156.5991209676
 20
335.9922834203
 11
205.2322022996
 21
335.9922834203
  0
ENDBLK
  5
360
100
AcDbEntity
  8
0
  6
BYBLOCK
 62
0
100
AcDbBlockEnd
  0
BLOCK
  5
361
100
AcDbEntity
  8
AT110_008_01_rechts_2_BL4
100
AcDbBlockBegin
  2
AT110_008_01_RECHTS_2_BL4
 70
64
 10
156.1723946785
 20
334.3081664968
  3
AT110_008_01_RECHTS_2_BL4
  1

  0
LINE
  5
362
100
AcDbEntity
  8
AT110_008_01_rechts_2_BL4
100
AcDbLine
 62
7
  6
CONTINUOUS
 10
156.1723946785
 20
336.5571646341
 11
160.8146541474
 21
336.5571646341
  0
LINE
  5
363
100
AcDbEntity
  8
AT110_008_01_rechts_2_BL4
100
AcDbLine
 62
7
  6
CONTINUOUS
 10
160.8146541474
 20
336.5571646341
 11
201.7785148265
 21
336.5571646341
  0
LINE
  5
364
100
AcDbEntity
  8
AT110_008_01_rechts_2_BL4
100
AcDbLine
 62
7
  6
CONTINUOUS
 10
201.7785148265
 20
336.5571646341
 11
203.4716912329
 21
336.5571646341
  0
LINE
  5
365
100
AcDbEntity
  8
AT110_008_01_rechts_2_BL4
100
AcDbLine
 62
7
  6
CONTINUOUS
 10
203.4716912329
 20
336.5571646341
 11
203.6723946785
 21
336.5571646341
  0
LINE
  5
366
100
AcDbEntity
  8
AT110_008_01_rechts_2_BL4
100
AcDbLine
 62
7
  6
CONTINUOUS
 10
175.6348954678
 20
333.6564089748
 11
175.6755193157
 21
333.7571646341
  0
LINE
  5
367
100
AcDbEntity
  8
AT110_008_01_rechts_2_BL4
100
AcDbLine
 62
7
  6
CONTINUOUS
 10
180.6347934453
 20
333.7571646341
 11
179.7533041354
 21
333.7571646341
  0
LINE
  5
368
100
AcDbEntity
  8
AT110_008_01_rechts_2_BL4
100
AcDbLine
 62
7
  6
CONTINUOUS
 10
179.7533041354
 20
333.7571646341
 11
175.8879600859
 21
333.7571646341
  0
LINE
  5
369
100
AcDbEntity
  8
AT110_008_01_rechts_2_BL4
100
AcDbLine
 62
7
  6
CONTINUOUS
 10
175.8879600859
 20
333.7571646341
 11
175.6755193157
 21
333.7571646341
  0
LINE
  5
36A
100
AcDbEntity
  8
AT110_008_01_rechts_2_BL4
100
AcDbLine
 62
7
  6
CONTINUOUS
 10
180.6348946785
 20
334.0350864628
 11
180.6348946785
 21
333.7571646341
  0
LINE
  5
36B
100
AcDbEntity
  8
AT110_008_01_rechts_2_BL4
100
AcDbLine
 62
7
  6
CONTINUOUS
 10
165.0410212346
 20
333.7962610252
 11
165.0410212346
 21
333.7571646341
  0
LINE
  5
36C
100
AcDbEntity
  8
AT110_008_01_rechts_2_BL4
100
AcDbLine
 62
7
  6
CONTINUOUS
 10
170.0408792639
 20
333.7571646341
 11
169.3485800401
 21
333.7571646341
  0
LINE
  5
36D
100
AcDbEntity
  8
AT110_008_01_rechts_2_BL4
100
AcDbLine
 62
7
  6
CONTINUOUS
 10
169.3485800401
 20
333.7571646341
 11
165.3067849375
 21
333.7571646341
  0
LINE
  5
36E
100
AcDbEntity
  8
AT110_008_01_rechts_2_BL4
100
AcDbLine
 62
7
  6
CONTINUOUS
 10
165.3067849375
 20
333.7571646341
 11
165.0414534777
 21
333.7571646341
  0
LINE
  5
36F
100
AcDbEntity
  8
AT110_008_01_rechts_2_BL4
100
AcDbLine
 62
7
  6
CONTINUOUS
 10
170.0410212346
 20
333.9906492088
 11
170.0410212346
 21
333.7571646341
  0
LINE
  5
370
100
AcDbEntity
  8
AT110_008_01_rechts_2_BL4
100
AcDbLine
 62
7
  6
CONTINUOUS
 10
162.2072305983
 20
339.0653636094
 11
162.2291193191
 21
336.5571646341
  0
LINE
  5
371
100
AcDbEntity
  8
AT110_008_01_rechts_2_BL4
100
AcDbLine
 62
7
  6
CONTINUOUS
 10
150.1375587587
 20
339.0653636094
 11
150.1156700379
 21
336.5571646341
  0
ELLIPSE
  5
372
100
AcDbEntity
  8
AT110_008_01_rechts_2_BL4
100
AcDbEllipse
 62
7
  6
CONTINUOUS
 10
194.3615947015
 20
329.0571646341
 30
0.0
 11
0.1045871944
 21
2.9986332105
 31
0.0
 40
0.8657618647
 41
-3.1114055343
 42
-1.592969085
  0
LINE
  5
373
100
AcDbEntity
  8
AT110_008_01_rechts_2_BL4
100
AcDbLine
 62
7
  6
CONTINUOUS
 10
194.3354121041
 20
326.0571646341
 11
193.5854121041
 21
326.0571646341
  0
ELLIPSE
  5
374
100
AcDbEntity
  8
AT110_008_01_rechts_2_BL4
100
AcDbEllipse
 62
7
  6
CONTINUOUS
 10
117.9831946555
 20
329.0571646341
 30
0.0
 11
-0.1045871944
 21
2.9986332105
 31
0.0
 40
0.8657618647
 41
-4.6902162222
 42
-3.1717797729
  0
LINE
  5
375
100
AcDbEntity
  8
AT110_008_01_rechts_2_BL4
100
AcDbLine
 62
7
  6
CONTINUOUS
 10
118.7593772529
 20
326.0571646341
 11
118.0093772529
 21
326.0571646341
  0
LINE
  5
376
100
AcDbEntity
  8
AT110_008_01_rechts_2_BL4
100
AcDbLine
 62
7
  6
CONTINUOUS
 10
155.4223946785
 20
326.0571646341
 11
155.3727700663
 21
328.9001567654
  0
LINE
  5
377
100
AcDbEntity
  8
AT110_008_01_rechts_2_BL4
100
AcDbLine
 62
7
  6
CONTINUOUS
 10
156.9223946785
 20
326.0571646341
 11
156.9720192907
 21
328.9001567654
  0
LINE
  5
378
100
AcDbEntity
  8
AT110_008_01_rechts_2_BL4
100
AcDbLine
 62
7
  6
CONTINUOUS
 10
156.9223946785
 20
326.0571646341
 11
155.4223946785
 21
326.0571646341
  0
LINE
  5
379
100
AcDbEntity
  8
AT110_008_01_rechts_2_BL4
100
AcDbLine
 62
7
  6
CONTINUOUS
 10
159.1984610467
 20
343.0571646341
 11
153.1463283103
 21
343.0571646341
  0
ARC
  5
37A
100
AcDbEntity
  8
AT110_008_01_rechts_2_BL4
100
AcDbCircle
 62
7
  6
CONTINUOUS
 10
110.2473946785
 20
321.0571646341
 40
13.0
100
AcDbArc
 50
67.7034404885
 51
90.0
  0
ARC
  5
37B
100
AcDbEntity
  8
AT110_008_01_rechts_2_BL4
100
AcDbCircle
 62
7
  6
CONTINUOUS
 10
110.2473946785
 20
321.0571646341
 40
13.0
100
AcDbArc
 50
20.2616601202
 51
22.6962450901
  0
ARC
  5
37C
100
AcDbEntity
  8
AT110_008_01_rechts_2_BL4
100
AcDbCircle
 62
7
  6
CONTINUOUS
 10
202.0973946785
 20
321.0571646341
 40
13.0
100
AcDbArc
 50
96.2585507861
 51
96.4176867122
  0
ARC
  5
37D
100
AcDbEntity
  8
AT110_008_01_rechts_2_BL4
100
AcDbCircle
 62
7
  6
CONTINUOUS
 10
202.0973946785
 20
321.0571646341
 40
13.0
100
AcDbArc
 50
96.4176867122
 51
112.2965595115
  0
ARC
  5
37E
100
AcDbEntity
  8
AT110_008_01_rechts_2_BL4
100
AcDbCircle
 62
7
  6
CONTINUOUS
 10
202.0973946785
 20
321.0571646341
 40
13.0
100
AcDbArc
 50
157.3037549099
 51
159.7383398798
  0
LINE
  5
37F
100
AcDbEntity
  8
AT110_008_01_rechts_2_BL4
100
AcDbLine
 62
7
  6
CONTINUOUS
 10
202.0973946785
 20
334.0571646341
 11
200.6801967407
 21
333.9796856732
  0
LINE
  5
380
100
AcDbEntity
  8
AT110_008_01_rechts_2_BL4
100
AcDbLine
 62
7
  6
CONTINUOUS
 10
156.1723946785
 20
336.5571646341
 11
151.5301352096
 21
336.5571646341
  0
LINE
  5
381
100
AcDbEntity
  8
AT110_008_01_rechts_2_BL4
100
AcDbLine
 62
7
  6
CONTINUOUS
 10
151.5301352096
 20
336.5571646341
 11
110.5662745304
 21
336.5571646341
  0
LINE
  5
382
100
AcDbEntity
  8
AT110_008_01_rechts_2_BL4
100
AcDbLine
 62
7
  6
CONTINUOUS
 10
110.5662745304
 20
336.5571646341
 11
108.6723946785
 21
336.5571646341
  0
LINE
  5
383
100
AcDbEntity
  8
AT110_008_01_rechts_2_BL4
100
AcDbLine
 62
7
  6
CONTINUOUS
 10
200.222468244
 20
333.9143026293
 11
200.222468244
 21
333.7571646341
  0
LINE
  5
384
100
AcDbEntity
  8
AT110_008_01_rechts_2_BL4
100
AcDbLine
 62
7
  6
CONTINUOUS
 10
200.3637603783
 20
333.934485139
 11
200.3637603783
 21
333.7571646341
  0
LINE
  5
385
100
AcDbEntity
  8
AT110_008_01_rechts_2_BL4
100
AcDbLine
 62
7
  6
CONTINUOUS
 10
200.454094453
 20
333.9473886764
 11
200.454094453
 21
333.7571646341
  0
LINE
  5
386
100
AcDbEntity
  8
AT110_008_01_rechts_2_BL4
100
AcDbLine
 62
7
  6
CONTINUOUS
 10
200.5770204474
 20
333.978847006
 11
200.5770204474
 21
333.7571646341
  0
LINE
  5
387
100
AcDbEntity
  8
AT110_008_01_rechts_2_BL4
100
AcDbLine
 62
7
  6
CONTINUOUS
 10
202.6673624007
 20
334.0571646341
 11
202.6673624007
 21
333.7571646341
  0
LINE
  5
388
100
AcDbEntity
  8
AT110_008_01_rechts_2_BL4
100
AcDbLine
 62
7
  6
CONTINUOUS
 10
153.1463283103
 20
343.0571646341
 11
159.1984610467
 21
343.0571646341
  0
LINE
  5
389
100
AcDbEntity
  8
AT110_008_01_rechts_2_BL4
100
AcDbLine
 62
7
  6
CONTINUOUS
 10
199.506709293
 20
333.7571646341
 11
199.4574302159
 21
333.7571646341
  0
LINE
  5
38A
100
AcDbEntity
  8
AT110_008_01_rechts_2_BL4
100
AcDbLine
 62
7
  6
CONTINUOUS
 10
199.4574302159
 20
333.7571646341
 11
199.3503624207
 21
333.7571646341
  0
LINE
  5
38B
100
AcDbEntity
  8
AT110_008_01_rechts_2_BL4
100
AcDbLine
 62
7
  6
CONTINUOUS
 10
156.9720192907
 20
328.9001567654
 11
157.0620351979
 21
334.0571646341
  0
LINE
  5
38C
100
AcDbEntity
  8
AT110_008_01_rechts_2_BL4
100
AcDbLine
 62
7
  6
CONTINUOUS
 10
155.3727700663
 20
328.9001567654
 11
155.2827541591
 21
334.0571646341
  0
LINE
  5
38D
100
AcDbEntity
  8
AT110_008_01_rechts_2_BL4
100
AcDbLine
 62
7
  6
CONTINUOUS
 10
156.9223946785
 20
326.0571646341
 11
155.4223946785
 21
326.0571646341
  0
LINE
  5
38E
100
AcDbEntity
  8
AT110_008_01_rechts_2_BL4
100
AcDbLine
 62
7
  6
CONTINUOUS
 10
127.1746633831
 20
326.0571646341
 11
118.7593772529
 21
326.0571646341
  0
LINE
  5
38F
100
AcDbEntity
  8
AT110_008_01_rechts_2_BL4
100
AcDbLine
 62
7
  6
CONTINUOUS
 10
200.222468244
 20
333.7571646341
 11
200.1229867795
 21
333.7571646341
  0
LINE
  5
390
100
AcDbEntity
  8
AT110_008_01_rechts_2_BL4
100
AcDbLine
 62
7
  6
CONTINUOUS
 10
200.1229867795
 20
333.7571646341
 11
199.93832349
 21
333.7571646341
  0
LINE
  5
391
100
AcDbEntity
  8
AT110_008_01_rechts_2_BL4
100
AcDbLine
 62
7
  6
CONTINUOUS
 10
115.3900493086
 20
328.9001567654
 11
115.1109829813
 21
334.0571646341
  0
LINE
  5
392
100
AcDbEntity
  8
AT110_008_01_rechts_2_BL4
100
AcDbLine
 62
7
  6
CONTINUOUS
 10
199.93832349
 20
333.7571646341
 11
199.7856708438
 21
333.7571646341
  0
LINE
  5
393
100
AcDbEntity
  8
AT110_008_01_rechts_2_BL4
100
AcDbLine
 62
7
  6
CONTINUOUS
 10
118.7593772529
 20
326.0571646341
 11
118.0093772529
 21
326.0571646341
  0
LINE
  5
394
100
AcDbEntity
  8
AT110_008_01_rechts_2_BL4
100
AcDbLine
 62
7
  6
CONTINUOUS
 10
199.7856708438
 20
333.7571646341
 11
199.6141445472
 21
333.7571646341
  0
LINE
  5
395
100
AcDbEntity
  8
AT110_008_01_rechts_2_BL4
100
AcDbLine
 62
7
  6
CONTINUOUS
 10
199.6141445472
 20
333.7571646341
 11
199.5160765582
 21
333.7571646341
  0
LINE
  5
396
100
AcDbEntity
  8
AT110_008_01_rechts_2_BL4
100
AcDbLine
 62
7
  6
CONTINUOUS
 10
199.5160765582
 20
333.7571646341
 11
199.5009034876
 21
333.7571646341
  0
LINE
  5
397
100
AcDbEntity
  8
AT110_008_01_rechts_2_BL4
100
AcDbLine
 62
7
  6
CONTINUOUS
 10
200.3637603783
 20
333.7571646341
 11
200.3000517208
 21
333.7571646341
  0
LINE
  5
398
100
AcDbEntity
  8
AT110_008_01_rechts_2_BL4
100
AcDbLine
 62
7
  6
CONTINUOUS
 10
200.3000517208
 20
333.7571646341
 11
200.222468244
 21
333.7571646341
  0
LINE
  5
399
100
AcDbEntity
  8
AT110_008_01_rechts_2_BL4
100
AcDbLine
 62
7
  6
CONTINUOUS
 10
196.9547400484
 20
328.9001567654
 11
197.2338063757
 21
334.0571646341
  0
LINE
  5
39A
100
AcDbEntity
  8
AT110_008_01_rechts_2_BL4
100
AcDbLine
 62
7
  6
CONTINUOUS
 10
185.1701259739
 20
326.0571646341
 11
193.5854121041
 21
326.0571646341
  0
LINE
  5
39B
100
AcDbEntity
  8
AT110_008_01_rechts_2_BL4
100
AcDbLine
 62
7
  6
CONTINUOUS
 10
194.3354121041
 20
326.0571646341
 11
193.5854121041
 21
326.0571646341
  0
LINE
  5
39C
100
AcDbEntity
  8
AT110_008_01_rechts_2_BL4
100
AcDbLine
 62
7
  6
CONTINUOUS
 10
200.454094453
 20
333.7571646341
 11
200.391791199
 21
333.7571646341
  0
LINE
  5
39D
100
AcDbEntity
  8
AT110_008_01_rechts_2_BL4
100
AcDbLine
 62
7
  6
CONTINUOUS
 10
200.391791199
 20
333.7571646341
 11
200.3637603783
 21
333.7571646341
  0
LINE
  5
39E
100
AcDbEntity
  8
AT110_008_01_rechts_2_BL4
100
AcDbLine
 62
7
  6
CONTINUOUS
 10
200.5770204474
 20
333.7571646341
 11
200.4774685036
 21
333.7571646341
  0
LINE
  5
39F
100
AcDbEntity
  8
AT110_008_01_rechts_2_BL4
100
AcDbLine
 62
7
  6
CONTINUOUS
 10
162.2291193191
 20
336.5571646341
 11
162.2072305983
 21
339.0653636094
  0
LINE
  5
3A0
100
AcDbEntity
  8
AT110_008_01_rechts_2_BL4
100
AcDbLine
 62
7
  6
CONTINUOUS
 10
162.2291193191
 20
336.5571646341
 11
162.2087573787
 21
338.8904118977
  0
LINE
  5
3A1
100
AcDbEntity
  8
AT110_008_01_rechts_2_BL4
100
AcDbLine
 62
7
  6
CONTINUOUS
 10
162.2087573787
 20
338.8904118977
 11
162.1983468159
 21
340.0833442406
  0
LINE
  5
3A2
100
AcDbEntity
  8
AT110_008_01_rechts_2_BL4
100
AcDbLine
 62
7
  6
CONTINUOUS
 10
200.4774685036
 20
333.7571646341
 11
200.454094453
 21
333.7571646341
  0
LINE
  5
3A3
100
AcDbEntity
  8
AT110_008_01_rechts_2_BL4
100
AcDbLine
 62
7
  6
CONTINUOUS
 10
162.1983468159
 20
340.0833442406
 11
162.2090891095
 21
338.8523993189
  0
LINE
  5
3A4
100
AcDbEntity
  8
AT110_008_01_rechts_2_BL4
100
AcDbLine
 62
7
  6
CONTINUOUS
 10
200.64898758
 20
333.7571646341
 11
200.5926936826
 21
333.7571646341
  0
LINE
  5
3A5
100
AcDbEntity
  8
AT110_008_01_rechts_2_BL4
100
AcDbLine
 62
7
  6
CONTINUOUS
 10
202.6673624007
 20
333.7571646341
 11
202.4940585844
 21
333.7571646341
  0
LINE
  5
3A6
100
AcDbEntity
  8
AT110_008_01_rechts_2_BL4
100
AcDbLine
 62
7
  6
CONTINUOUS
 10
202.4940585844
 20
333.7571646341
 11
201.3383017615
 21
333.7571646341
  0
LINE
  5
3A7
100
AcDbEntity
  8
AT110_008_01_rechts_2_BL4
100
AcDbLine
 62
7
  6
CONTINUOUS
 10
201.3383017615
 20
333.7571646341
 11
201.182943213
 21
333.7571646341
  0
LINE
  5
3A8
100
AcDbEntity
  8
AT110_008_01_rechts_2_BL4
100
AcDbLine
 62
7
  6
CONTINUOUS
 10
201.182943213
 20
333.7571646341
 11
200.6801967406
 21
333.7571646341
  0
LINE
  5
3A9
100
AcDbEntity
  8
AT110_008_01_rechts_2_BL4
100
AcDbLine
 62
7
  6
CONTINUOUS
 10
200.6755153664
 20
333.7571646341
 11
200.6536689542
 21
333.7571646341
  0
LINE
  5
3AA
100
AcDbEntity
  8
AT110_008_01_rechts_2_BL4
100
AcDbLine
 62
7
  6
CONTINUOUS
 10
150.1360319782
 20
338.8904118977
 11
150.1464425411
 21
340.0833442406
  0
LINE
  5
3AB
100
AcDbEntity
  8
AT110_008_01_rechts_2_BL4
100
AcDbLine
 62
7
  6
CONTINUOUS
 10
150.1464425411
 20
340.0833442406
 11
150.1357002475
 21
338.8523993189
  0
LINE
  5
3AC
100
AcDbEntity
  8
AT110_008_01_rechts_2_BL4
100
AcDbLine
 62
7
  6
CONTINUOUS
 10
150.1357002475
 20
338.8523993189
 11
150.1156700379
 21
336.5571646341
  0
ARC
  5
3AD
100
AcDbEntity
  8
AT110_008_01_rechts_2_BL4
100
AcDbCircle
 62
7
  6
CONTINUOUS
 10
159.1984611117
 20
340.0571571825
 40
3.0
100
AcDbArc
 50
75.0833634939
 51
90.000001242
  0
ARC
  5
3AE
100
AcDbEntity
  8
AT110_008_01_rechts_2_BL4
100
AcDbCircle
 62
7
  6
CONTINUOUS
 10
159.1984611117
 20
340.0571571825
 40
3.0
100
AcDbArc
 50
69.711289475
 51
75.0833634939
  0
ARC
  5
3AF
100
AcDbEntity
  8
AT110_008_01_rechts_2_BL4
100
AcDbCircle
 62
7
  6
CONTINUOUS
 10
159.1984611117
 20
340.0571571825
 40
3.0
100
AcDbArc
 50
60.1667249095
 51
69.711289475
  0
ARC
  5
3B0
100
AcDbEntity
  8
AT110_008_01_rechts_2_BL4
100
AcDbCircle
 62
7
  6
CONTINUOUS
 10
159.1984611117
 20
340.0571571825
 40
3.0
100
AcDbArc
 50
53.4618618576
 51
60.1667249095
  0
ARC
  5
3B1
100
AcDbEntity
  8
AT110_008_01_rechts_2_BL4
100
AcDbCircle
 62
7
  6
CONTINUOUS
 10
159.1984611117
 20
340.0571571825
 40
3.0
100
AcDbArc
 50
45.2500843767
 51
53.4618618576
  0
ARC
  5
3B2
100
AcDbEntity
  8
AT110_008_01_rechts_2_BL4
100
AcDbCircle
 62
7
  6
CONTINUOUS
 10
159.1984611117
 20
340.0571571825
 40
3.0
100
AcDbArc
 50
37.6042578256
 51
45.2500843767
  0
ARC
  5
3B3
100
AcDbEntity
  8
AT110_008_01_rechts_2_BL4
100
AcDbCircle
 62
7
  6
CONTINUOUS
 10
159.1984611117
 20
340.0571571825
 40
3.0
100
AcDbArc
 50
30.3334409151
 51
37.6042578256
  0
ARC
  5
3B4
100
AcDbEntity
  8
AT110_008_01_rechts_2_BL4
100
AcDbCircle
 62
7
  6
CONTINUOUS
 10
159.1984611117
 20
340.0571571825
 40
3.0
100
AcDbArc
 50
21.3376664787
 51
30.3334409151
  0
ARC
  5
3B5
100
AcDbEntity
  8
AT110_008_01_rechts_2_BL4
100
AcDbCircle
 62
7
  6
CONTINUOUS
 10
159.1984611117
 20
340.0571571825
 40
3.0
100
AcDbArc
 50
15.4167937412
 51
21.3376664787
  0
ARC
  5
3B6
100
AcDbEntity
  8
AT110_008_01_rechts_2_BL4
100
AcDbCircle
 62
7
  6
CONTINUOUS
 10
159.1984611117
 20
340.0571571825
 40
3.0
100
AcDbArc
 50
0.5001423221
 51
15.4167937412
  0
ARC
  5
3B7
100
AcDbEntity
  8
AT110_008_01_rechts_2_BL4
100
AcDbCircle
 62
7
  6
CONTINUOUS
 10
159.1984610467
 20
340.0571646341
 40
3.0
100
AcDbArc
 50
0.5
 51
90.0
  0
ARC
  5
3B8
100
AcDbEntity
  8
AT110_008_01_rechts_2_BL4
100
AcDbCircle
 62
7
  6
CONTINUOUS
 10
153.1463282452
 20
340.0571571825
 40
3.0
100
AcDbArc
 50
89.999998758
 51
179.4998576779
  0
ARC
  5
3B9
100
AcDbEntity
  8
AT110_008_01_rechts_2_BL4
100
AcDbCircle
 62
7
  6
CONTINUOUS
 10
153.1463283103
 20
340.0571646341
 40
3.0
100
AcDbArc
 50
90.0
 51
104.9166745172
  0
ARC
  5
3BA
100
AcDbEntity
  8
AT110_008_01_rechts_2_BL4
100
AcDbCircle
 62
7
  6
CONTINUOUS
 10
153.1463283103
 20
340.0571646341
 40
3.0
100
AcDbArc
 50
104.9166745172
 51
110.2887604261
  0
ARC
  5
3BB
100
AcDbEntity
  8
AT110_008_01_rechts_2_BL4
100
AcDbCircle
 62
7
  6
CONTINUOUS
 10
153.1463283103
 20
340.0571646341
 40
3.0
100
AcDbArc
 50
110.2887604261
 51
119.8333472813
  0
ARC
  5
3BC
100
AcDbEntity
  8
AT110_008_01_rechts_2_BL4
100
AcDbCircle
 62
7
  6
CONTINUOUS
 10
153.1463283103
 20
340.0571646341
 40
3.0
100
AcDbArc
 50
119.8333472813
 51
126.5382228616
  0
ARC
  5
3BD
100
AcDbEntity
  8
AT110_008_01_rechts_2_BL4
100
AcDbCircle
 62
7
  6
CONTINUOUS
 10
153.1463283103
 20
340.0571646341
 40
3.0
100
AcDbArc
 50
126.5382228616
 51
134.7500170828
  0
ARC
  5
3BE
100
AcDbEntity
  8
AT110_008_01_rechts_2_BL4
100
AcDbCircle
 62
7
  6
CONTINUOUS
 10
153.1463283103
 20
340.0571646341
 40
3.0
100
AcDbArc
 50
134.7500170828
 51
142.3958544209
  0
ARC
  5
3BF
100
AcDbEntity
  8
AT110_008_01_rechts_2_BL4
100
AcDbCircle
 62
7
  6
CONTINUOUS
 10
153.1463283103
 20
340.0571646341
 40
3.0
100
AcDbArc
 50
142.3958544209
 51
149.6666829116
  0
ARC
  5
3C0
100
AcDbEntity
  8
AT110_008_01_rechts_2_BL4
100
AcDbCircle
 62
7
  6
CONTINUOUS
 10
153.1463283103
 20
340.0571646341
 40
3.0
100
AcDbArc
 50
149.6666829116
 51
158.6624656753
  0
ARC
  5
3C1
100
AcDbEntity
  8
AT110_008_01_rechts_2_BL4
100
AcDbCircle
 62
7
  6
CONTINUOUS
 10
153.1463283103
 20
340.0571646341
 40
3.0
100
AcDbArc
 50
158.6624656753
 51
164.5833440255
  0
ARC
  5
3C2
100
AcDbEntity
  8
AT110_008_01_rechts_2_BL4
100
AcDbCircle
 62
7
  6
CONTINUOUS
 10
153.1463283103
 20
340.0571646341
 40
3.0
100
AcDbArc
 50
164.5833440255
 51
179.5
  0
LINE
  5
3C3
100
AcDbEntity
  8
AT110_008_01_rechts_2_BL4
100
AcDbLine
 62
7
  6
CONTINUOUS
 10
200.5926936826
 20
333.978847006
 11
200.5926936826
 21
333.7571646341
  0
SPLINE
  5
3C4
100
AcDbEntity
  8
AT110_008_01_rechts_2_BL4
100
AcDbSpline
 62
7
  6
CONTINUOUS
 70
0
 71
3
 72
13
 73
9
 74
0
 42
0.0000001
 43
0.0000001
 44
0.0000000001
 40
0.0
 40
0.0
 40
0.0
 40
0.0
 40
0.3897223704
 40
0.6947021971
 40
0.808168966
 40
0.894162405
 40
0.9549648059
 40
1.0
 40
1.0
 40
1.0
 40
1.0
 10
166.5707299713
 20
334.0571646341
 30
0.0
 10
166.3619296153
 20
334.0571646341
 30
0.0
 10
165.9898037964
 20
334.0537074279
 30
0.0
 10
165.5568906389
 20
334.0271384706
 30
0.0
 10
165.2902814305
 20
333.9783996014
 30
0.0
 10
165.1578189768
 20
333.9344159176
 30
0.0
 10
165.0675590782
 20
333.8799766301
 30
0.0
 10
165.0413295923
 20
333.8237770779
 30
0.0
 10
165.0410579435
 20
333.7996502396
 30
0.0
  0
LINE
  5
3C5
100
AcDbEntity
  8
AT110_008_01_rechts_2_BL4
100
AcDbLine
 62
7
  6
CONTINUOUS
 10
200.6536689542
 20
333.979248694
 11
200.6536689542
 21
333.7571646341
  0
LINE
  5
3C6
100
AcDbEntity
  8
AT110_008_01_rechts_2_BL4
100
AcDbLine
 62
7
  6
CONTINUOUS
 10
200.6801967406
 20
333.9796856732
 11
200.6801967406
 21
333.7571646341
  0
SPLINE
  5
3C7
100
AcDbEntity
  8
AT110_008_01_rechts_2_BL4
100
AcDbSpline
 62
7
  6
CONTINUOUS
 70
0
 71
3
 72
15
 73
11
 74
0
 42
0.0000001
 43
0.0000001
 44
0.0000000001
 40
0.0
 40
0.0
 40
0.0
 40
0.0
 40
0.1158586467
 40
0.2603565829
 40
0.5842388077
 40
0.7344290185
 40
0.858435865
 40
0.9478365649
 40
0.9783905607
 40
1.0
 40
1.0
 40
1.0
 40
1.0
 10
169.5974522317
 20
333.7571646341
 30
0.0
 10
169.4262712921
 20
333.6940692594
 30
0.0
 10
169.0352600592
 20
333.5692362286
 30
0.0
 10
168.1427044505
 20
333.3460672691
 30
0.0
 10
167.168049737
 20
333.2237599609
 30
0.0
 10
166.2246507416
 20
333.2787973945
 30
0.0
 10
165.6627828268
 20
333.3936364009
 30
0.0
 10
165.2992364165
 20
333.532431079
 30
0.0
 10
165.1160103614
 20
333.6598904448
 30
0.0
 10
165.0615648857
 20
333.7254341483
 30
0.0
 10
165.049274252
 20
333.7571646341
 30
0.0
  0
SPLINE
  5
3C8
100
AcDbEntity
  8
AT110_008_01_rechts_2_BL4
100
AcDbSpline
 62
7
  6
CONTINUOUS
 70
0
 71
3
 72
12
 73
8
 74
0
 42
0.0000001
 43
0.0000001
 44
0.0000000001
 40
0.0
 40
0.0
 40
0.0
 40
0.0
 40
0.2654821274
 40
0.5611611986
 40
0.8238226741
 40
0.9247686418
 40
1.0
 40
1.0
 40
1.0
 40
1.0
 10
179.7533041354
 20
333.7571646341
 30
0.0
 10
179.4109380547
 20
333.6630130524
 30
0.0
 10
178.6838355771
 20
333.4750209848
 30
0.0
 10
177.6001149671
 20
333.2730850581
 30
0.0
 10
176.7115277669
 20
333.2303420658
 30
0.0
 10
176.1301797417
 20
333.3202462793
 30
0.0
 10
175.9044660057
 20
333.3971777771
 30
0.0
 10
175.8162287706
 20
333.4455369609
 30
0.0
  0
SPLINE
  5
3C9
100
AcDbEntity
  8
AT110_008_01_rechts_2_BL4
100
AcDbSpline
 62
7
  6
CONTINUOUS
 70
0
 71
3
 72
9
 73
5
 74
0
 42
0.0000001
 43
0.0000001
 44
0.0000000001
 40
0.0
 40
0.0
 40
0.0
 40
0.0
 40
0.3285874924
 40
1.0
 40
1.0
 40
1.0
 40
1.0
 10
175.8162287706
 20
333.4455369609
 30
0.0
 10
175.7888510723
 20
333.4605415465
 30
0.0
 10
175.7100339922
 20
333.5087875262
 30
0.0
 10
175.635196107
 20
333.5940617867
 30
0.0
 10
175.6349758103
 20
333.6578537452
 30
0.0
  0
SPLINE
  5
3CA
100
AcDbEntity
  8
AT110_008_01_rechts_2_BL4
100
AcDbSpline
 62
7
  6
CONTINUOUS
 70
0
 71
3
 72
12
 73
8
 74
0
 42
0.0000001
 43
0.0000001
 44
0.0000000001
 40
0.0
 40
0.0
 40
0.0
 40
0.0
 40
0.3464761007
 40
0.6433493108
 40
0.8643753503
 40
0.9424775657
 40
1.0
 40
1.0
 40
1.0
 40
1.0
 10
177.7939910444
 20
334.0571646341
 30
0.0
 10
177.5433421679
 20
334.0571646341
 30
0.0
 10
177.0775547394
 20
334.053096636
 30
0.0
 10
176.4540306579
 20
334.0136338277
 30
0.0
 10
176.0251986324
 20
333.9418479215
 30
0.0
 10
175.7848588043
 20
333.8464807207
 30
0.0
 10
175.7025906723
 20
333.7887682587
 30
0.0
 10
175.6755193157
 20
333.7571646341
 30
0.0
  0
SPLINE
  5
3CB
100
AcDbEntity
  8
AT110_008_01_rechts_2_BL4
100
AcDbSpline
 62
7
  6
CONTINUOUS
 70
0
 71
3
 72
11
 73
7
 74
0
 42
0.0000001
 43
0.0000001
 44
0.0000000001
 40
0.0
 40
0.0
 40
0.0
 40
0.0
 40
0.2642020571
 40
0.5179406085
 40
0.7618188148
 40
1.0
 40
1.0
 40
1.0
 40
1.0
 10
127.1746633831
 20
326.0571646341
 30
0.0
 10
126.7690153397
 20
327.2099985407
 30
0.0
 10
125.672322744
 20
329.3795847716
 30
0.0
 10
123.2271464819
 20
331.9874820756
 30
0.0
 10
120.2016553785
 20
333.6690669461
 30
0.0
 10
117.9542162561
 20
334.0571646341
 30
0.0
 10
116.852461405
 20
334.0571646341
 30
0.0
  0
SPLINE
  5
3CC
100
AcDbEntity
  8
AT110_008_01_rechts_2_BL4
100
AcDbSpline
 62
9
  6
CONTINUOUS
 70
0
 71
3
 72
9
 73
5
 74
0
 42
0.0000001
 43
0.0000001
 44
0.0000000001
 40
0.0
 40
0.0
 40
0.0
 40
0.0
 40
0.2584296936
 40
1.0
 40
1.0
 40
1.0
 40
1.0
 10
159.4711325468
 20
336.5586370962
 30
0.0
 10
159.4699718767
 20
336.6579248041
 30
0.0
 10
159.4654436256
 20
337.042120575
 30
0.0
 10
159.4607574594
 20
337.4263144996
 30
0.0
 10
159.4571618591
 20
337.7112197766
 30
0.0
  0
LINE
  5
3CD
100
AcDbEntity
  8
AT110_008_01_rechts_2_BL4
100
AcDbLine
 62
9
  6
CONTINUOUS
 10
159.4571618591
 20
337.7112197766
 11
159.4540791655
 21
337.9530805932
  0
SPLINE
  5
3CE
100
AcDbEntity
  8
AT110_008_01_rechts_2_BL4
100
AcDbSpline
 62
9
  6
CONTINUOUS
 70
0
 71
3
 72
18
 73
14
 74
0
 42
0.0000001
 43
0.0000001
 44
0.0000000001
 40
0.0
 40
0.0
 40
0.0
 40
0.0
 40
0.4393432954
 40
0.6120303405
 40
0.7523963685
 40
0.8103188302
 40
0.8600379752
 40
0.901577549
 40
0.9350196152
 40
0.9605600586
 40
0.9786646387
 40
0.9905916503
 40
1.0
 40
1.0
 40
1.0
 40
1.0
 10
159.4540791655
 20
337.9530805932
 30
0.0
 10
159.4443582026
 20
338.7080659107
 30
0.0
 10
159.4299536858
 20
339.75979856
 30
0.0
 10
159.4048766428
 20
341.0526153337
 30
0.0
 10
159.3883587734
 20
341.6899611462
 30
0.0
 10
159.372570622
 20
342.1159059008
 30
0.0
 10
159.3602355965
 20
342.3719736014
 30
0.0
 10
159.3461680161
 20
342.5859041342
 30
0.0
 10
159.3298011967
 20
342.7577398962
 30
0.0
 10
159.3101509197
 20
342.889324309
 30
0.0
 10
159.2861635781
 20
342.9810341246
 30
0.0
 10
159.2527537355
 20
343.0439464515
 30
0.0
 10
159.2146300732
 20
343.057155077
 30
0.0
 10
159.1984610467
 20
343.0571646341
 30
0.0
  0
ELLIPSE
  5
3CF
100
AcDbEntity
  8
AT110_008_01_rechts_2_BL4
100
AcDbEllipse
 62
7
  6
CONTINUOUS
 10
193.5592295067
 20
329.0571646341
 30
0.0
 11
-0.1045871944
 21
2.9986332105
 31
0.0
 40
0.8657618647
 41
-3.1717797729
 42
-2.9819617253
  0
ELLIPSE
  5
3D0
100
AcDbEntity
  8
AT110_008_01_rechts_2_BL4
100
AcDbEllipse
 62
7
  6
CONTINUOUS
 10
193.5592295067
 20
329.0571646341
 30
0.0
 11
-0.1045871944
 21
2.9986332105
 31
0.0
 40
0.8657618647
 41
-2.9819617253
 42
-2.7921450149
  0
ELLIPSE
  5
3D1
100
AcDbEntity
  8
AT110_008_01_rechts_2_BL4
100
AcDbEllipse
 62
7
  6
CONTINUOUS
 10
193.5592295067
 20
329.0571646341
 30
0.0
 11
-0.1045871944
 21
2.9986332105
 31
0.0
 40
0.8657618647
 41
-2.7921450149
 42
-1.6533433237
  0
ELLIPSE
  5
3D2
100
AcDbEntity
  8
AT110_008_01_rechts_2_BL4
100
AcDbEllipse
 62
7
  6
CONTINUOUS
 10
118.7855598503
 20
329.0571646341
 30
0.0
 11
0.1045871944
 21
2.9986332105
 31
0.0
 40
0.8657618647
 41
-3.3012235819
 42
-3.1114055343
  0
ELLIPSE
  5
3D3
100
AcDbEntity
  8
AT110_008_01_rechts_2_BL4
100
AcDbEllipse
 62
7
  6
CONTINUOUS
 10
118.7855598503
 20
329.0571646341
 30
0.0
 11
0.1045871944
 21
2.9986332105
 31
0.0
 40
0.8657618647
 41
-3.4910402922
 42
-3.3012235819
  0
ELLIPSE
  5
3D4
100
AcDbEntity
  8
AT110_008_01_rechts_2_BL4
100
AcDbEllipse
 62
7
  6
CONTINUOUS
 10
118.7855598503
 20
329.0571646341
 30
0.0
 11
0.1045871944
 21
2.9986332105
 31
0.0
 40
0.8657618647
 41
-4.6298419835
 42
-3.4910402922
  0
LINE
  5
3D5
100
AcDbEntity
  8
AT110_008_01_rechts_2_BL4
100
AcDbLine
 62
9
  6
CONTINUOUS
 10
156.9720192907
 20
328.9001567654
 11
155.3727700663
 21
328.9001567654
  0
LINE
  5
3D6
100
AcDbEntity
  8
AT110_008_01_rechts_2_BL4
100
AcDbLine
 62
7
  6
CONTINUOUS
 10
116.1896739208
 20
328.9001567654
 11
116.0006235007
 21
334.0571646341
  0
LINE
  5
3D7
100
AcDbEntity
  8
AT110_008_01_rechts_2_BL4
100
AcDbLine
 62
9
  6
CONTINUOUS
 10
116.1896739208
 20
328.9001567654
 11
115.3900493086
 21
328.9001567654
  0
SPLINE
  5
3D8
100
AcDbEntity
  8
AT110_008_01_rechts_2_BL4
100
AcDbSpline
 62
9
  6
CONTINUOUS
 70
0
 71
3
 72
18
 73
14
 74
0
 42
0.0000001
 43
0.0000001
 44
0.0000000001
 40
0.0
 40
0.0
 40
0.0
 40
0.0
 40
0.0094099646
 40
0.0213378384
 40
0.0394422907
 40
0.0649822151
 40
0.0984236987
 40
0.1399629333
 40
0.1896816874
 40
0.2476039865
 40
0.3879690291
 40
0.5606556069
 40
1.0
 40
1.0
 40
1.0
 40
1.0
 10
153.1463283103
 20
343.0571646341
 30
0.0
 10
153.1301621207
 20
343.0571548367
 30
0.0
 10
153.092047524
 20
343.043952377
 30
0.0
 10
153.0586357993
 20
342.9810647983
 30
0.0
 10
153.0346521082
 20
342.8893864681
 30
0.0
 10
153.0150022893
 20
342.7578513201
 30
0.0
 10
152.9986350371
 20
342.5860780115
 30
0.0
 10
152.9845669044
 20
342.3722243952
 30
0.0
 10
152.9722338731
 20
342.1162471686
 30
0.0
 10
152.9564447181
 20
341.6904531342
 30
0.0
 10
152.939929536
 20
341.0533313216
 30
0.0
 10
152.9148536106
 20
339.7609639739
 30
0.0
 10
152.9004524304
 20
338.7095952309
 30
0.0
 10
152.8907332033
 20
337.9548700532
 30
0.0
  0
SPLINE
  5
3D9
100
AcDbEntity
  8
AT110_008_01_rechts_2_BL4
100
AcDbSpline
 62
9
  6
CONTINUOUS
 70
0
 71
3
 72
9
 73
5
 74
0
 42
0.0000001
 43
0.0000001
 44
0.0000000001
 40
0.0
 40
0.0
 40
0.0
 40
0.0
 40
0.2394722082
 40
1.0
 40
1.0
 40
1.0
 40
1.0
 10
152.8907332033
 20
337.9548700532
 30
0.0
 10
152.8892992525
 20
337.8435197589
 30
0.0
 10
152.8833981141
 20
337.3785365239
 30
0.0
 10
152.877805933
 20
336.9135494012
 30
0.0
 10
152.8736717097
 20
336.5599124218
 30
0.0
  0
LINE
  5
3DA
100
AcDbEntity
  8
AT110_008_01_rechts_2_BL4
100
AcDbLine
 62
7
  6
CONTINUOUS
 10
196.1551154361
 20
328.9001567654
 11
196.3441658563
 21
334.0571646341
  0
LINE
  5
3DB
100
AcDbEntity
  8
AT110_008_01_rechts_2_BL4
100
AcDbLine
 62
9
  6
CONTINUOUS
 10
196.9547400484
 20
328.9001567654
 11
196.1551154361
 21
328.9001567654
  0
LINE
  5
3DC
100
AcDbEntity
  8
AT110_008_01_rechts_2_BL4
100
AcDbLine
 62
7
  6
CONTINUOUS
 10
199.6141445472
 20
333.7991561127
 11
199.6141445472
 21
333.7571646341
  0
LINE
  5
3DD
100
AcDbEntity
  8
AT110_008_01_rechts_2_BL4
100
AcDbLine
 62
7
  6
CONTINUOUS
 10
199.7856708438
 20
333.8451164453
 11
199.7856708438
 21
333.7571646341
  0
LINE
  5
3DE
100
AcDbEntity
  8
AT110_008_01_rechts_2_BL4
100
AcDbLine
 62
7
  6
CONTINUOUS
 10
199.93832349
 20
333.8737147064
 11
199.93832349
 21
333.7571646341
  0
LINE
  5
3DF
100
AcDbEntity
  8
AT110_008_01_rechts_2_BL4
100
AcDbLine
 62
7
  6
CONTINUOUS
 10
200.1229867795
 20
333.9000924566
 11
200.1229867795
 21
333.7571646341
  0
LINE
  5
3E0
100
AcDbEntity
  8
AT110_008_01_rechts_2_BL4
100
AcDbLine
 62
7
  6
CONTINUOUS
 10
200.3000517208
 20
333.9253848405
 11
200.3000517208
 21
333.7571646341
  0
LINE
  5
3E1
100
AcDbEntity
  8
AT110_008_01_rechts_2_BL4
100
AcDbLine
 62
7
  6
CONTINUOUS
 10
200.391791199
 20
333.9384891291
 11
200.391791199
 21
333.7571646341
  0
LINE
  5
3E2
100
AcDbEntity
  8
AT110_008_01_rechts_2_BL4
100
AcDbLine
 62
7
  6
CONTINUOUS
 10
200.4774685036
 20
333.9507274822
 11
200.4774685036
 21
333.7571646341
  0
SPLINE
  5
3E3
100
AcDbEntity
  8
AT110_008_01_rechts_2_BL4
100
AcDbSpline
 62
7
  6
CONTINUOUS
 70
0
 71
3
 72
11
 73
7
 74
0
 42
0.0000001
 43
0.0000001
 44
0.0000000001
 40
0.0
 40
0.0
 40
0.0
 40
0.0
 40
0.2381811852
 40
0.4820593916
 40
0.7357979429
 40
1.0
 40
1.0
 40
1.0
 40
1.0
 10
195.492327952
 20
334.0571646341
 30
0.0
 10
194.3905731007
 20
334.0571646341
 30
0.0
 10
192.1431339781
 20
333.669066946
 30
0.0
 10
189.1176428746
 20
331.9874820752
 30
0.0
 10
186.6724666128
 20
329.3795847713
 30
0.0
 10
185.5757740173
 20
327.2099985406
 30
0.0
 10
185.1701259739
 20
326.0571646341
 30
0.0
  0
ENDBLK
  5
3E4
100
AcDbEntity
  8
0
  6
BYBLOCK
 62
0
100
AcDbBlockEnd
  0
BLOCK
  5
3E5
100
AcDbEntity
  8
AT110_009_01_rechts_2_BL5
100
AcDbBlockBegin
  2
AT110_009_01_RECHTS_2_BL5
 70
64
 10
156.1723946785
 20
305.5571646341
  3
AT110_009_01_RECHTS_2_BL5
  1

  0
LINE
  5
3E6
100
AcDbEntity
  8
AT110_009_01_rechts_2_BL5
100
AcDbLine
 62
7
  6
CONTINUOUS
 10
184.7448305052
 20
285.5571646341
 11
174.1723946785
 21
285.5571646341
  0
LINE
  5
3E7
100
AcDbEntity
  8
AT110_009_01_rechts_2_BL5
100
AcDbLine
 62
7
  6
CONTINUOUS
 10
174.1723946785
 20
285.5571646341
 11
156.1723946785
 21
285.5571646341
  0
SPLINE
  5
3E8
100
AcDbEntity
  8
AT110_009_01_rechts_2_BL5
100
AcDbSpline
 62
7
  6
CONTINUOUS
 70
0
 71
3
 72
10
 73
6
 74
0
 42
0.0000001
 43
0.0000001
 44
0.0000000001
 40
0.0
 40
0.0
 40
0.0
 40
0.0
 40
0.092649552
 40
0.2823739012
 40
1.0
 40
1.0
 40
1.0
 40
1.0
 10
186.1723946785
 20
285.5665214087
 30
0.0
 10
186.1723946785
 20
285.56676025
 30
0.0
 10
186.1716953876
 20
285.5672952094
 30
0.0
 10
186.1693468971
 20
285.567993231
 30
0.0
 10
186.1669543418
 20
285.5683926937
 30
0.0
 10
186.1651212078
 20
285.5686416986
 30
0.0
  0
SPLINE
  5
3E9
100
AcDbEntity
  8
AT110_009_01_rechts_2_BL5
100
AcDbSpline
 62
7
  6
CONTINUOUS
 70
0
 71
3
 72
17
 73
13
 74
0
 42
0.0000001
 43
0.0000001
 44
0.0000000001
 40
0.0
 40
0.0
 40
0.0
 40
0.0
 40
0.0129134438
 40
0.0335500615
 40
0.0618125575
 40
0.09755092
 40
0.1906307626
 40
0.3107277577
 40
0.4551629611
 40
0.620710767
 40
0.803680435
 40
1.0
 40
1.0
 40
1.0
 40
1.0
 10
186.1651212078
 20
285.5686416986
 30
0.0
 10
186.1590623111
 20
285.5694647123
 30
0.0
 10
186.1431929244
 20
285.5705376499
 30
0.0
 10
186.1139546445
 20
285.5716889992
 30
0.0
 10
186.0738790622
 20
285.5724171247
 30
0.0
 10
185.999503786
 20
285.5728853083
 30
0.0
 10
185.8816395269
 20
285.5720295465
 30
0.0
 10
185.7123296939
 20
285.5694726526
 30
0.0
 10
185.5087202285
 20
285.565714832
 30
0.0
 10
185.2753426882
 20
285.5615882681
 30
0.0
 10
185.0173829654
 20
285.5581513767
 30
0.0
 10
184.8377881662
 20
285.5571646341
 30
0.0
 10
184.7448305052
 20
285.5571646341
 30
0.0
  0
ARC
  5
3EA
100
AcDbEntity
  8
AT110_009_01_rechts_2_BL5
100
AcDbCircle
 62
7
  6
CONTINUOUS
 10
202.1637058891
 20
324.5571646341
 40
1.0
100
AcDbArc
 50
359.5
 51
90.0
  0
LINE
  5
3EB
100
AcDbEntity
  8
AT110_009_01_rechts_2_BL5
100
AcDbLine
 62
7
  6
CONTINUOUS
 10
202.1637058891
 20
325.5571646341
 11
156.1723946785
 21
325.5571646341
  0
ARC
  5
3EC
100
AcDbEntity
  8
AT110_009_01_rechts_2_BL5
100
AcDbCircle
 62
7
  6
CONTINUOUS
 10
110.1810834679
 20
324.5571646341
 40
1.0
100
AcDbArc
 50
90.0
 51
180.5
  0
LINE
  5
3ED
100
AcDbEntity
  8
AT110_009_01_rechts_2_BL5
100
AcDbLine
 62
7
  6
CONTINUOUS
 10
156.1723946785
 20
325.5571646341
 11
110.1810834679
 21
325.5571646341
  0
ARC
  5
3EE
100
AcDbEntity
  8
AT110_009_01_rechts_2_BL5
100
AcDbCircle
 62
7
  6
CONTINUOUS
 10
124.391137549
 20
300.5571646341
 40
15.0
100
AcDbArc
 50
180.5
 51
270.0000000001
  0
LINE
  5
3EF
100
AcDbEntity
  8
AT110_009_01_rechts_2_BL5
100
AcDbLine
 62
7
  6
CONTINUOUS
 10
124.4213862637
 20
285.5571646341
 11
124.3989151636
 21
285.5571646341
  0
LINE
  5
3F0
100
AcDbEntity
  8
AT110_009_01_rechts_2_BL5
100
AcDbLine
 62
7
  6
CONTINUOUS
 10
156.1723946785
 20
285.5571646341
 11
140.1723946785
 21
285.5571646341
  0
LINE
  5
3F1
100
AcDbEntity
  8
AT110_009_01_rechts_2_BL5
100
AcDbLine
 62
7
  6
CONTINUOUS
 10
140.1723946785
 20
285.5571646341
 11
138.0715666535
 21
285.5571646341
  0
LINE
  5
3F2
100
AcDbEntity
  8
AT110_009_01_rechts_2_BL5
100
AcDbLine
 62
7
  6
CONTINUOUS
 10
138.0715666535
 20
285.5571646341
 11
137.1723918724
 21
285.5571646341
  0
LINE
  5
3F3
100
AcDbEntity
  8
AT110_009_01_rechts_2_BL5
100
AcDbLine
 62
7
  6
CONTINUOUS
 10
137.1723918724
 20
285.5571646341
 11
136.831294966
 21
285.5571646341
  0
LINE
  5
3F4
100
AcDbEntity
  8
AT110_009_01_rechts_2_BL5
100
AcDbLine
 62
7
  6
CONTINUOUS
 10
136.831294966
 20
285.5571646341
 11
136.6528939537
 21
285.5571646341
  0
LINE
  5
3F5
100
AcDbEntity
  8
AT110_009_01_rechts_2_BL5
100
AcDbLine
 62
7
  6
CONTINUOUS
 10
136.6528939537
 20
285.5571646341
 11
136.1723946785
 21
285.5571646341
  0
LINE
  5
3F6
100
AcDbEntity
  8
AT110_009_01_rechts_2_BL5
100
AcDbLine
 62
7
  6
CONTINUOUS
 10
136.1723946785
 20
285.5571646341
 11
136.1493939537
 21
285.5571646341
  0
LINE
  5
3F7
100
AcDbEntity
  8
AT110_009_01_rechts_2_BL5
100
AcDbLine
 62
7
  6
CONTINUOUS
 10
136.1493939537
 20
285.5571646341
 11
133.8218939537
 21
285.5571646341
  0
LINE
  5
3F8
100
AcDbEntity
  8
AT110_009_01_rechts_2_BL5
100
AcDbLine
 62
7
  6
CONTINUOUS
 10
133.8218939537
 20
285.5571646341
 11
133.6508939537
 21
285.5571646341
  0
LINE
  5
3F9
100
AcDbEntity
  8
AT110_009_01_rechts_2_BL5
100
AcDbLine
 62
7
  6
CONTINUOUS
 10
133.6508939537
 20
285.5571646341
 11
133.4133939537
 21
285.5571646341
  0
LINE
  5
3FA
100
AcDbEntity
  8
AT110_009_01_rechts_2_BL5
100
AcDbLine
 62
7
  6
CONTINUOUS
 10
133.4133939537
 20
285.5571646341
 11
133.2993939537
 21
285.5571646341
  0
LINE
  5
3FB
100
AcDbEntity
  8
AT110_009_01_rechts_2_BL5
100
AcDbLine
 62
7
  6
CONTINUOUS
 10
133.2993939537
 20
285.5571646341
 11
133.2233939537
 21
285.5571646341
  0
LINE
  5
3FC
100
AcDbEntity
  8
AT110_009_01_rechts_2_BL5
100
AcDbLine
 62
7
  6
CONTINUOUS
 10
133.2233939537
 20
285.5571646341
 11
133.1473939537
 21
285.5571646341
  0
LINE
  5
3FD
100
AcDbEntity
  8
AT110_009_01_rechts_2_BL5
100
AcDbLine
 62
7
  6
CONTINUOUS
 10
133.1473939537
 20
285.5571646341
 11
133.0523939537
 21
285.5571646341
  0
LINE
  5
3FE
100
AcDbEntity
  8
AT110_009_01_rechts_2_BL5
100
AcDbLine
 62
7
  6
CONTINUOUS
 10
133.0523939537
 20
285.5571646341
 11
132.8053939537
 21
285.5571646341
  0
LINE
  5
3FF
100
AcDbEntity
  8
AT110_009_01_rechts_2_BL5
100
AcDbLine
 62
7
  6
CONTINUOUS
 10
132.8053939537
 20
285.5571646341
 11
132.7483939537
 21
285.5571646341
  0
LINE
  5
400
100
AcDbEntity
  8
AT110_009_01_rechts_2_BL5
100
AcDbLine
 62
7
  6
CONTINUOUS
 10
132.7483939537
 20
285.5571646341
 11
132.6723939537
 21
285.5571646341
  0
LINE
  5
401
100
AcDbEntity
  8
AT110_009_01_rechts_2_BL5
100
AcDbLine
 62
7
  6
CONTINUOUS
 10
132.6723939537
 20
285.5571646341
 11
132.4063939537
 21
285.5571646341
  0
LINE
  5
402
100
AcDbEntity
  8
AT110_009_01_rechts_2_BL5
100
AcDbLine
 62
7
  6
CONTINUOUS
 10
132.4063939537
 20
285.5571646341
 11
132.3837844167
 21
285.5571646341
  0
LINE
  5
403
100
AcDbEntity
  8
AT110_009_01_rechts_2_BL5
100
AcDbLine
 62
7
  6
CONTINUOUS
 10
132.3837844167
 20
285.5571646341
 11
132.3493939537
 21
285.5571646341
  0
LINE
  5
404
100
AcDbEntity
  8
AT110_009_01_rechts_2_BL5
100
AcDbLine
 62
7
  6
CONTINUOUS
 10
132.3493939537
 20
285.5571646341
 11
132.2448939537
 21
285.5571646341
  0
LINE
  5
405
100
AcDbEntity
  8
AT110_009_01_rechts_2_BL5
100
AcDbLine
 62
7
  6
CONTINUOUS
 10
132.2448939537
 20
285.5571646341
 11
132.2163939537
 21
285.5571646341
  0
LINE
  5
406
100
AcDbEntity
  8
AT110_009_01_rechts_2_BL5
100
AcDbLine
 62
7
  6
CONTINUOUS
 10
132.2163939537
 20
285.5571646341
 11
132.1723946785
 21
285.5571646341
  0
LINE
  5
407
100
AcDbEntity
  8
AT110_009_01_rechts_2_BL5
100
AcDbLine
 62
7
  6
CONTINUOUS
 10
132.1723946785
 20
285.5571646341
 11
132.0453939537
 21
285.5571646341
  0
LINE
  5
408
100
AcDbEntity
  8
AT110_009_01_rechts_2_BL5
100
AcDbLine
 62
7
  6
CONTINUOUS
 10
132.0453939537
 20
285.5571646341
 11
131.8173939537
 21
285.5571646341
  0
LINE
  5
409
100
AcDbEntity
  8
AT110_009_01_rechts_2_BL5
100
AcDbLine
 62
7
  6
CONTINUOUS
 10
131.8173939537
 20
285.5571646341
 11
131.4658939537
 21
285.5571646341
  0
LINE
  5
40A
100
AcDbEntity
  8
AT110_009_01_rechts_2_BL5
100
AcDbLine
 62
7
  6
CONTINUOUS
 10
131.4658939537
 20
285.5571646341
 11
131.2093939537
 21
285.5571646341
  0
LINE
  5
40B
100
AcDbEntity
  8
AT110_009_01_rechts_2_BL5
100
AcDbLine
 62
7
  6
CONTINUOUS
 10
131.2093939537
 20
285.5571646341
 11
131.1723946785
 21
285.5571646341
  0
LINE
  5
40C
100
AcDbEntity
  8
AT110_009_01_rechts_2_BL5
100
AcDbLine
 62
7
  6
CONTINUOUS
 10
131.1723946785
 20
285.5571646341
 11
131.0573939537
 21
285.5571646341
  0
LINE
  5
40D
100
AcDbEntity
  8
AT110_009_01_rechts_2_BL5
100
AcDbLine
 62
7
  6
CONTINUOUS
 10
131.0573939537
 20
285.5571646341
 11
130.3163939537
 21
285.5571646341
  0
LINE
  5
40E
100
AcDbEntity
  8
AT110_009_01_rechts_2_BL5
100
AcDbLine
 62
7
  6
CONTINUOUS
 10
130.3163939537
 20
285.5571646341
 11
130.0788939537
 21
285.5571646341
  0
LINE
  5
40F
100
AcDbEntity
  8
AT110_009_01_rechts_2_BL5
100
AcDbLine
 62
7
  6
CONTINUOUS
 10
130.0788939537
 20
285.5571646341
 11
130.0770948626
 21
285.5571646341
  0
LINE
  5
410
100
AcDbEntity
  8
AT110_009_01_rechts_2_BL5
100
AcDbLine
 62
7
  6
CONTINUOUS
 10
130.0770948626
 20
285.5571646341
 11
129.4613939537
 21
285.5571646341
  0
LINE
  5
411
100
AcDbEntity
  8
AT110_009_01_rechts_2_BL5
100
AcDbLine
 62
7
  6
CONTINUOUS
 10
129.4613939537
 20
285.5571646341
 11
129.2806982143
 21
285.5571646341
  0
LINE
  5
412
100
AcDbEntity
  8
AT110_009_01_rechts_2_BL5
100
AcDbLine
 62
7
  6
CONTINUOUS
 10
129.2806982143
 20
285.5571646341
 11
127.8463939537
 21
285.5571646341
  0
LINE
  5
413
100
AcDbEntity
  8
AT110_009_01_rechts_2_BL5
100
AcDbLine
 62
7
  6
CONTINUOUS
 10
127.8463939537
 20
285.5571646341
 11
127.4473939537
 21
285.5571646341
  0
LINE
  5
414
100
AcDbEntity
  8
AT110_009_01_rechts_2_BL5
100
AcDbLine
 62
7
  6
CONTINUOUS
 10
127.4473939537
 20
285.5571646341
 11
127.1433939537
 21
285.5571646341
  0
LINE
  5
415
100
AcDbEntity
  8
AT110_009_01_rechts_2_BL5
100
AcDbLine
 62
7
  6
CONTINUOUS
 10
127.1433939537
 20
285.5571646341
 11
126.7823939537
 21
285.5571646341
  0
LINE
  5
416
100
AcDbEntity
  8
AT110_009_01_rechts_2_BL5
100
AcDbLine
 62
7
  6
CONTINUOUS
 10
126.7823939537
 20
285.5571646341
 11
126.3928939537
 21
285.5571646341
  0
LINE
  5
417
100
AcDbEntity
  8
AT110_009_01_rechts_2_BL5
100
AcDbLine
 62
7
  6
CONTINUOUS
 10
126.3928939537
 20
285.5571646341
 11
125.5758939537
 21
285.5571646341
  0
LINE
  5
418
100
AcDbEntity
  8
AT110_009_01_rechts_2_BL5
100
AcDbLine
 62
7
  6
CONTINUOUS
 10
125.5758939537
 20
285.5571646341
 11
125.1723974846
 21
285.5571646341
  0
LINE
  5
419
100
AcDbEntity
  8
AT110_009_01_rechts_2_BL5
100
AcDbLine
 62
7
  6
CONTINUOUS
 10
125.1723974846
 20
285.5571646341
 11
124.4213862637
 21
285.5571646341
  0
LINE
  5
41A
100
AcDbEntity
  8
AT110_009_01_rechts_2_BL5
100
AcDbLine
 62
7
  6
CONTINUOUS
 10
124.4213862637
 20
285.5571646341
 11
124.4169121347
 21
285.5571646341
  0
LINE
  5
41B
100
AcDbEntity
  8
AT110_009_01_rechts_2_BL5
100
AcDbLine
 62
7
  6
CONTINUOUS
 10
124.4169121347
 20
285.5571646341
 11
124.3911375491
 21
285.5571646341
  0
LINE
  5
41C
100
AcDbEntity
  8
AT110_009_01_rechts_2_BL5
100
AcDbLine
 62
7
  6
CONTINUOUS
 10
156.1723946785
 20
285.5571646341
 11
140.1723946785
 21
285.5571646341
  0
LINE
  5
41D
100
AcDbEntity
  8
AT110_009_01_rechts_2_BL5
100
AcDbLine
 62
7
  6
CONTINUOUS
 10
140.1723946785
 20
285.5571646341
 11
138.0715666491
 21
285.5571646341
  0
LINE
  5
41E
100
AcDbEntity
  8
AT110_009_01_rechts_2_BL5
100
AcDbLine
 62
7
  6
CONTINUOUS
 10
138.0715666491
 20
285.5571646341
 11
136.1723946785
 21
285.5571646341
  0
LINE
  5
41F
100
AcDbEntity
  8
AT110_009_01_rechts_2_BL5
100
AcDbLine
 62
7
  6
CONTINUOUS
 10
136.1723946785
 20
285.5571646341
 11
136.1493939537
 21
285.5571646341
  0
LINE
  5
420
100
AcDbEntity
  8
AT110_009_01_rechts_2_BL5
100
AcDbLine
 62
7
  6
CONTINUOUS
 10
136.1493939537
 20
285.5571646341
 11
133.8218939537
 21
285.5571646341
  0
LINE
  5
421
100
AcDbEntity
  8
AT110_009_01_rechts_2_BL5
100
AcDbLine
 62
7
  6
CONTINUOUS
 10
133.8218939537
 20
285.5571646341
 11
133.4133939537
 21
285.5571646341
  0
LINE
  5
422
100
AcDbEntity
  8
AT110_009_01_rechts_2_BL5
100
AcDbLine
 62
7
  6
CONTINUOUS
 10
133.4133939537
 20
285.5571646341
 11
133.2993939537
 21
285.5571646341
  0
LINE
  5
423
100
AcDbEntity
  8
AT110_009_01_rechts_2_BL5
100
AcDbLine
 62
7
  6
CONTINUOUS
 10
133.2993939537
 20
285.5571646341
 11
133.1473939537
 21
285.5571646341
  0
LINE
  5
424
100
AcDbEntity
  8
AT110_009_01_rechts_2_BL5
100
AcDbLine
 62
7
  6
CONTINUOUS
 10
133.1473939537
 20
285.5571646341
 11
133.0523939537
 21
285.5571646341
  0
LINE
  5
425
100
AcDbEntity
  8
AT110_009_01_rechts_2_BL5
100
AcDbLine
 62
7
  6
CONTINUOUS
 10
133.0523939537
 20
285.5571646341
 11
132.7483939537
 21
285.5571646341
  0
LINE
  5
426
100
AcDbEntity
  8
AT110_009_01_rechts_2_BL5
100
AcDbLine
 62
7
  6
CONTINUOUS
 10
132.7483939537
 20
285.5571646341
 11
132.3493939537
 21
285.5571646341
  0
LINE
  5
427
100
AcDbEntity
  8
AT110_009_01_rechts_2_BL5
100
AcDbLine
 62
7
  6
CONTINUOUS
 10
132.3493939537
 20
285.5571646341
 11
132.1723946785
 21
285.5571646341
  0
LINE
  5
428
100
AcDbEntity
  8
AT110_009_01_rechts_2_BL5
100
AcDbLine
 62
7
  6
CONTINUOUS
 10
132.1723946785
 20
285.5571646341
 11
132.0453939537
 21
285.5571646341
  0
LINE
  5
429
100
AcDbEntity
  8
AT110_009_01_rechts_2_BL5
100
AcDbLine
 62
7
  6
CONTINUOUS
 10
132.0453939537
 20
285.5571646341
 11
131.2093939537
 21
285.5571646341
  0
LINE
  5
42A
100
AcDbEntity
  8
AT110_009_01_rechts_2_BL5
100
AcDbLine
 62
7
  6
CONTINUOUS
 10
131.2093939537
 20
285.5571646341
 11
130.3163939537
 21
285.5571646341
  0
LINE
  5
42B
100
AcDbEntity
  8
AT110_009_01_rechts_2_BL5
100
AcDbLine
 62
7
  6
CONTINUOUS
 10
130.3163939537
 20
285.5571646341
 11
130.0788939537
 21
285.5571646341
  0
LINE
  5
42C
100
AcDbEntity
  8
AT110_009_01_rechts_2_BL5
100
AcDbLine
 62
7
  6
CONTINUOUS
 10
130.0788939537
 20
285.5571646341
 11
130.0770948626
 21
285.5571646341
  0
LINE
  5
42D
100
AcDbEntity
  8
AT110_009_01_rechts_2_BL5
100
AcDbLine
 62
7
  6
CONTINUOUS
 10
130.0770948626
 20
285.5571646341
 11
129.4613939537
 21
285.5571646341
  0
LINE
  5
42E
100
AcDbEntity
  8
AT110_009_01_rechts_2_BL5
100
AcDbLine
 62
7
  6
CONTINUOUS
 10
129.4613939537
 20
285.5571646341
 11
129.2806982143
 21
285.5571646341
  0
LINE
  5
42F
100
AcDbEntity
  8
AT110_009_01_rechts_2_BL5
100
AcDbLine
 62
7
  6
CONTINUOUS
 10
129.2806982143
 20
285.5571646341
 11
127.8463939537
 21
285.5571646341
  0
LINE
  5
430
100
AcDbEntity
  8
AT110_009_01_rechts_2_BL5
100
AcDbLine
 62
7
  6
CONTINUOUS
 10
127.8463939537
 20
285.5571646341
 11
125.5758939537
 21
285.5571646341
  0
LINE
  5
431
100
AcDbEntity
  8
AT110_009_01_rechts_2_BL5
100
AcDbLine
 62
7
  6
CONTINUOUS
 10
125.5758939537
 20
285.5571646341
 11
124.4213862637
 21
285.5571646341
  0
LINE
  5
432
100
AcDbEntity
  8
AT110_009_01_rechts_2_BL5
100
AcDbLine
 62
7
  6
CONTINUOUS
 10
187.9536499814
 20
285.5571646341
 11
186.1723946785
 21
285.5571646341
  0
ARC
  5
433
100
AcDbEntity
  8
AT110_009_01_rechts_2_BL5
100
AcDbCircle
 62
7
  6
CONTINUOUS
 10
187.9536518079
 20
300.5571646341
 40
15.0
100
AcDbArc
 50
270.0
 51
359.5
  0
LINE
  5
434
100
AcDbEntity
  8
AT110_009_01_rechts_2_BL5
100
AcDbLine
 62
7
  6
CONTINUOUS
 10
187.9458741933
 20
285.5571646341
 11
186.1723946785
 21
285.5571646341
  0
LINE
  5
435
100
AcDbEntity
  8
AT110_009_01_rechts_2_BL5
100
AcDbLine
 62
7
  6
CONTINUOUS
 10
186.1723946785
 20
285.5571646341
 11
186.1723946785
 21
285.5665214087
  0
LINE
  5
436
100
AcDbEntity
  8
AT110_009_01_rechts_2_BL5
100
AcDbLine
 62
7
  6
CONTINUOUS
 10
203.1635916554
 20
324.5484380986
 11
202.9530806539
 21
300.4262666017
  0
LINE
  5
437
100
AcDbEntity
  8
AT110_009_01_rechts_2_BL5
100
AcDbLine
 62
7
  6
CONTINUOUS
 10
109.1811977016
 20
324.5484380986
 11
109.3917087031
 21
300.4262666017
  0
LINE
  5
438
100
AcDbEntity
  8
AT110_009_01_rechts_2_BL5
100
AcDbLine
 62
9
  6
CONTINUOUS
 10
202.9530806539
 20
300.4262666017
 11
156.1723946785
 21
300.4262666017
  0
LINE
  5
439
100
AcDbEntity
  8
AT110_009_01_rechts_2_BL5
100
AcDbLine
 62
7
  6
CONTINUOUS
 10
109.1811977016
 20
324.5484380986
 11
156.1723946785
 21
324.5484380986
  0
LINE
  5
43A
100
AcDbEntity
  8
AT110_009_01_rechts_2_BL5
100
AcDbLine
 62
9
  6
CONTINUOUS
 10
156.1723946785
 20
300.4262666017
 11
109.3917087031
 21
300.4262666017
  0
LINE
  5
43B
100
AcDbEntity
  8
AT110_009_01_rechts_2_BL5
100
AcDbLine
 62
7
  6
CONTINUOUS
 10
156.1723946785
 20
324.5484380986
 11
203.1635916554
 21
324.5484380986
  0
ENDBLK
  5
43C
100
AcDbEntity
  8
0
  6
BYBLOCK
 62
0
100
AcDbBlockEnd
  0
BLOCK
  5
43D
100
AcDbEntity
  8
AT110_010_00_links_3_BL6
100
AcDbBlockBegin
  2
AT110_010_00_LINKS_3_BL6
 70
64
 10
441.3472664911
 20
335.3071646341
  3
AT110_010_00_LINKS_3_BL6
  1

  0
LINE
  5
43E
100
AcDbEntity
  8
AT110_010_00_links_3_BL6
100
AcDbLine
 62
7
  6
CONTINUOUS
 10
393.8472664911
 20
336.5571646341
 11
394.0479699367
 21
336.5571646341
  0
LINE
  5
43F
100
AcDbEntity
  8
AT110_010_00_links_3_BL6
100
AcDbLine
 62
7
  6
CONTINUOUS
 10
394.0479699367
 20
336.5571646341
 11
441.3472664911
 21
336.5571646341
  0
LINE
  5
440
100
AcDbEntity
  8
AT110_010_00_links_3_BL6
100
AcDbLine
 62
7
  6
CONTINUOUS
 10
393.8472664911
 20
336.5571646341
 11
392.5211197683
 21
336.4411418297
  0
ARC
  5
441
100
AcDbEntity
  8
AT110_010_00_links_3_BL6
100
AcDbCircle
 62
7
  6
CONTINUOUS
 10
392.5472664911
 20
336.1422834203
 40
0.3
100
AcDbArc
 50
95.0
 51
210.0
  0
LINE
  5
442
100
AcDbEntity
  8
AT110_010_00_links_3_BL6
100
AcDbLine
 62
7
  6
CONTINUOUS
 10
393.4047731122
 20
334.0571646341
 11
393.8385918683
 21
334.0571646341
  0
LINE
  5
443
100
AcDbEntity
  8
AT110_010_00_links_3_BL6
100
AcDbLine
 62
7
  6
CONTINUOUS
 10
393.8385918683
 20
334.0571646341
 11
394.0659881499
 21
334.0571646341
  0
LINE
  5
444
100
AcDbEntity
  8
AT110_010_00_links_3_BL6
100
AcDbLine
 62
7
  6
CONTINUOUS
 10
394.0659881499
 20
334.0571646341
 11
394.8522987689
 21
334.0571646341
  0
LINE
  5
445
100
AcDbEntity
  8
AT110_010_00_links_3_BL6
100
AcDbLine
 62
7
  6
CONTINUOUS
 10
394.8522987689
 20
334.0571646341
 11
394.8891064628
 21
334.0571646341
  0
LINE
  5
446
100
AcDbEntity
  8
AT110_010_00_links_3_BL6
100
AcDbLine
 62
7
  6
CONTINUOUS
 10
394.8891064628
 20
334.0571646341
 11
395.0509533935
 21
334.0571646341
  0
LINE
  5
447
100
AcDbEntity
  8
AT110_010_00_links_3_BL6
100
AcDbLine
 62
7
  6
CONTINUOUS
 10
395.0509533935
 20
334.0571646341
 11
395.1404813629
 21
334.0571646341
  0
LINE
  5
448
100
AcDbEntity
  8
AT110_010_00_links_3_BL6
100
AcDbLine
 62
7
  6
CONTINUOUS
 10
395.1404813629
 20
334.0571646341
 11
395.2007176727
 21
334.0571646341
  0
LINE
  5
449
100
AcDbEntity
  8
AT110_010_00_links_3_BL6
100
AcDbLine
 62
7
  6
CONTINUOUS
 10
395.2007176727
 20
334.0571646341
 11
395.3174143384
 21
334.0571646341
  0
LINE
  5
44A
100
AcDbEntity
  8
AT110_010_00_links_3_BL6
100
AcDbLine
 62
7
  6
CONTINUOUS
 10
395.3174143384
 20
334.0571646341
 11
395.4222664911
 21
334.0571646341
  0
LINE
  5
44B
100
AcDbEntity
  8
AT110_010_00_links_3_BL6
100
AcDbLine
 62
7
  6
CONTINUOUS
 10
395.4222664911
 20
334.0571646341
 11
395.647486216
 21
334.0571646341
  0
LINE
  5
44C
100
AcDbEntity
  8
AT110_010_00_links_3_BL6
100
AcDbLine
 62
7
  6
CONTINUOUS
 10
395.647486216
 20
334.0571646341
 11
395.6630813036
 21
334.0571646341
  0
LINE
  5
44D
100
AcDbEntity
  8
AT110_010_00_links_3_BL6
100
AcDbLine
 62
7
  6
CONTINUOUS
 10
395.6630813036
 20
334.0571646341
 11
395.6845009385
 21
334.0571646341
  0
LINE
  5
44E
100
AcDbEntity
  8
AT110_010_00_links_3_BL6
100
AcDbLine
 62
7
  6
CONTINUOUS
 10
395.6845009385
 20
334.0571646341
 11
395.7405625798
 21
334.0571646341
  0
LINE
  5
44F
100
AcDbEntity
  8
AT110_010_00_links_3_BL6
100
AcDbLine
 62
7
  6
CONTINUOUS
 10
395.7405625798
 20
334.0571646341
 11
395.746723545
 21
334.0571646341
  0
LINE
  5
450
100
AcDbEntity
  8
AT110_010_00_links_3_BL6
100
AcDbLine
 62
7
  6
CONTINUOUS
 10
395.746723545
 20
334.0571646341
 11
395.7511764331
 21
334.0571646341
  0
LINE
  5
451
100
AcDbEntity
  8
AT110_010_00_links_3_BL6
100
AcDbLine
 62
7
  6
CONTINUOUS
 10
395.7511764331
 20
334.0571646341
 11
395.7921715857
 21
334.0571646341
  0
LINE
  5
452
100
AcDbEntity
  8
AT110_010_00_links_3_BL6
100
AcDbLine
 62
7
  6
CONTINUOUS
 10
395.7921715857
 20
334.0571646341
 11
396.040380891
 21
334.0571646341
  0
LINE
  5
453
100
AcDbEntity
  8
AT110_010_00_links_3_BL6
100
AcDbLine
 62
7
  6
CONTINUOUS
 10
396.040380891
 20
334.0571646341
 11
396.5021552732
 21
334.0571646341
  0
LINE
  5
454
100
AcDbEntity
  8
AT110_010_00_links_3_BL6
100
AcDbLine
 62
7
  6
CONTINUOUS
 10
396.5021552732
 20
334.0571646341
 11
396.8394644289
 21
334.0571646341
  0
LINE
  5
455
100
AcDbEntity
  8
AT110_010_00_links_3_BL6
100
AcDbLine
 62
7
  6
CONTINUOUS
 10
396.8394644289
 20
334.0571646341
 11
396.8706735896
 21
334.0571646341
  0
LINE
  5
456
100
AcDbEntity
  8
AT110_010_00_links_3_BL6
100
AcDbLine
 62
7
  6
CONTINUOUS
 10
396.8706735896
 20
334.0571646341
 11
396.9426407222
 21
334.0571646341
  0
LINE
  5
457
100
AcDbEntity
  8
AT110_010_00_links_3_BL6
100
AcDbLine
 62
7
  6
CONTINUOUS
 10
396.9426407222
 20
334.0571646341
 11
397.0272904544
 21
334.0571646341
  0
LINE
  5
458
100
AcDbEntity
  8
AT110_010_00_links_3_BL6
100
AcDbLine
 62
7
  6
CONTINUOUS
 10
397.0272904544
 20
334.0571646341
 11
397.0655667167
 21
334.0571646341
  0
LINE
  5
459
100
AcDbEntity
  8
AT110_010_00_links_3_BL6
100
AcDbLine
 62
7
  6
CONTINUOUS
 10
397.0655667167
 20
334.0571646341
 11
397.1559007913
 21
334.0571646341
  0
LINE
  5
45A
100
AcDbEntity
  8
AT110_010_00_links_3_BL6
100
AcDbLine
 62
7
  6
CONTINUOUS
 10
397.1559007913
 20
334.0571646341
 11
397.2627453194
 21
334.0571646341
  0
LINE
  5
45B
100
AcDbEntity
  8
AT110_010_00_links_3_BL6
100
AcDbLine
 62
7
  6
CONTINUOUS
 10
397.2627453194
 20
334.0571646341
 11
397.2971929256
 21
334.0571646341
  0
LINE
  5
45C
100
AcDbEntity
  8
AT110_010_00_links_3_BL6
100
AcDbLine
 62
7
  6
CONTINUOUS
 10
397.2971929256
 20
334.0571646341
 11
398.018757682
 21
334.0571646341
  0
LINE
  5
45D
100
AcDbEntity
  8
AT110_010_00_links_3_BL6
100
AcDbLine
 62
7
  6
CONTINUOUS
 10
398.018757682
 20
334.0571646341
 11
398.4064456489
 21
334.0571646341
  0
LINE
  5
45E
100
AcDbEntity
  8
AT110_010_00_links_3_BL6
100
AcDbLine
 62
7
  6
CONTINUOUS
 10
398.4064456489
 20
334.0571646341
 11
398.4810493568
 21
334.0571646341
  0
LINE
  5
45F
100
AcDbEntity
  8
AT110_010_00_links_3_BL6
100
AcDbLine
 62
7
  6
CONTINUOUS
 10
398.4810493568
 20
334.0571646341
 11
399.0217468338
 21
334.0571646341
  0
LINE
  5
460
100
AcDbEntity
  8
AT110_010_00_links_3_BL6
100
AcDbLine
 62
7
  6
CONTINUOUS
 10
399.0217468338
 20
334.0571646341
 11
399.041578357
 21
334.0571646341
  0
LINE
  5
461
100
AcDbEntity
  8
AT110_010_00_links_3_BL6
100
AcDbLine
 62
7
  6
CONTINUOUS
 10
399.041578357
 20
334.0571646341
 11
399.1292568489
 21
334.0571646341
  0
LINE
  5
462
100
AcDbEntity
  8
AT110_010_00_links_3_BL6
100
AcDbLine
 62
7
  6
CONTINUOUS
 10
399.1292568489
 20
334.0571646341
 11
399.4638370516
 21
334.0571646341
  0
LINE
  5
463
100
AcDbEntity
  8
AT110_010_00_links_3_BL6
100
AcDbLine
 62
7
  6
CONTINUOUS
 10
399.4638370516
 20
334.0571646341
 11
399.4992145005
 21
334.0571646341
  0
LINE
  5
464
100
AcDbEntity
  8
AT110_010_00_links_3_BL6
100
AcDbLine
 62
7
  6
CONTINUOUS
 10
399.4992145005
 20
334.0571646341
 11
399.5451269156
 21
334.0571646341
  0
LINE
  5
465
100
AcDbEntity
  8
AT110_010_00_links_3_BL6
100
AcDbLine
 62
7
  6
CONTINUOUS
 10
399.5451269156
 20
334.0571646341
 11
399.6492741282
 21
334.0571646341
  0
LINE
  5
466
100
AcDbEntity
  8
AT110_010_00_links_3_BL6
100
AcDbLine
 62
7
  6
CONTINUOUS
 10
399.6492741282
 20
334.0571646341
 11
400.2858547939
 21
334.0571646341
  0
LINE
  5
467
100
AcDbEntity
  8
AT110_010_00_links_3_BL6
100
AcDbLine
 62
7
  6
CONTINUOUS
 10
400.2858547939
 20
334.0571646341
 11
400.3657342805
 21
334.0571646341
  0
LINE
  5
468
100
AcDbEntity
  8
AT110_010_00_links_3_BL6
100
AcDbLine
 62
7
  6
CONTINUOUS
 10
400.3657342805
 20
334.0571646341
 11
400.9457271301
 21
334.0571646341
  0
LINE
  5
469
100
AcDbEntity
  8
AT110_010_00_links_3_BL6
100
AcDbLine
 62
7
  6
CONTINUOUS
 10
400.9457271301
 20
334.0571646341
 11
401.1376926982
 21
334.0571646341
  0
LINE
  5
46A
100
AcDbEntity
  8
AT110_010_00_links_3_BL6
100
AcDbLine
 62
7
  6
CONTINUOUS
 10
401.1376926982
 20
334.0571646341
 11
438.9709133628
 21
334.0571646341
  0
LINE
  5
46B
100
AcDbEntity
  8
AT110_010_00_links_3_BL6
100
AcDbLine
 62
7
  6
CONTINUOUS
 10
438.9709133628
 20
334.0571646341
 11
438.9922067826
 21
334.0571646341
  0
LINE
  5
46C
100
AcDbEntity
  8
AT110_010_00_links_3_BL6
100
AcDbLine
 62
7
  6
CONTINUOUS
 10
438.9922067826
 20
334.0571646341
 11
439.0985775049
 21
334.0571646341
  0
LINE
  5
46D
100
AcDbEntity
  8
AT110_010_00_links_3_BL6
100
AcDbLine
 62
7
  6
CONTINUOUS
 10
439.0985775049
 20
334.0571646341
 11
439.8560009744
 21
334.0571646341
  0
LINE
  5
46E
100
AcDbEntity
  8
AT110_010_00_links_3_BL6
100
AcDbLine
 62
7
  6
CONTINUOUS
 10
439.8560009744
 20
334.0571646341
 11
440.2144290125
 21
334.0571646341
  0
LINE
  5
46F
100
AcDbEntity
  8
AT110_010_00_links_3_BL6
100
AcDbLine
 62
7
  6
CONTINUOUS
 10
440.2144290125
 20
334.0571646341
 11
440.4576259717
 21
334.0571646341
  0
LINE
  5
470
100
AcDbEntity
  8
AT110_010_00_links_3_BL6
100
AcDbLine
 62
7
  6
CONTINUOUS
 10
440.4576259717
 20
334.0571646341
 11
441.3472664911
 21
334.0571646341
  0
LINE
  5
471
100
AcDbEntity
  8
AT110_010_00_links_3_BL6
100
AcDbLine
 62
7
  6
CONTINUOUS
 10
490.4070741123
 20
335.9922834203
 11
489.2898327602
 21
334.0571646341
  0
LINE
  5
472
100
AcDbEntity
  8
AT110_010_00_links_3_BL6
100
AcDbLine
 62
7
  6
CONTINUOUS
 10
489.2897598701
 20
334.0571646341
 11
488.855941114
 21
334.0571646341
  0
LINE
  5
473
100
AcDbEntity
  8
AT110_010_00_links_3_BL6
100
AcDbLine
 62
7
  6
CONTINUOUS
 10
488.855941114
 20
334.0571646341
 11
488.6285448323
 21
334.0571646341
  0
LINE
  5
474
100
AcDbEntity
  8
AT110_010_00_links_3_BL6
100
AcDbLine
 62
7
  6
CONTINUOUS
 10
488.6285448323
 20
334.0571646341
 11
487.2722664897
 21
334.0571646341
  0
LINE
  5
475
100
AcDbEntity
  8
AT110_010_00_links_3_BL6
100
AcDbLine
 62
7
  6
CONTINUOUS
 10
487.2722664897
 20
334.0571646341
 11
486.9433565492
 21
334.0571646341
  0
LINE
  5
476
100
AcDbEntity
  8
AT110_010_00_links_3_BL6
100
AcDbLine
 62
7
  6
CONTINUOUS
 10
486.9433565492
 20
334.0571646341
 11
482.4086781883
 21
334.0571646341
  0
LINE
  5
477
100
AcDbEntity
  8
AT110_010_00_links_3_BL6
100
AcDbLine
 62
7
  6
CONTINUOUS
 10
482.4086781883
 20
334.0571646341
 11
481.5568402841
 21
334.0571646341
  0
LINE
  5
478
100
AcDbEntity
  8
AT110_010_00_links_3_BL6
100
AcDbLine
 62
7
  6
CONTINUOUS
 10
481.5568402841
 20
334.0571646341
 11
444.938881595
 21
334.0571646341
  0
LINE
  5
479
100
AcDbEntity
  8
AT110_010_00_links_3_BL6
100
AcDbLine
 62
7
  6
CONTINUOUS
 10
444.938881595
 20
334.0571646341
 11
444.897432445
 21
334.0571646341
  0
LINE
  5
47A
100
AcDbEntity
  8
AT110_010_00_links_3_BL6
100
AcDbLine
 62
7
  6
CONTINUOUS
 10
444.897432445
 20
334.0571646341
 11
444.8210057057
 21
334.0571646341
  0
LINE
  5
47B
100
AcDbEntity
  8
AT110_010_00_links_3_BL6
100
AcDbLine
 62
7
  6
CONTINUOUS
 10
444.8210057057
 20
334.0571646341
 11
444.0452774109
 21
334.0571646341
  0
LINE
  5
47C
100
AcDbEntity
  8
AT110_010_00_links_3_BL6
100
AcDbLine
 62
7
  6
CONTINUOUS
 10
444.0452774109
 20
334.0571646341
 11
443.6900779023
 21
334.0571646341
  0
LINE
  5
47D
100
AcDbEntity
  8
AT110_010_00_links_3_BL6
100
AcDbLine
 62
7
  6
CONTINUOUS
 10
443.6900779023
 20
334.0571646341
 11
442.2369070106
 21
334.0571646341
  0
LINE
  5
47E
100
AcDbEntity
  8
AT110_010_00_links_3_BL6
100
AcDbLine
 62
7
  6
CONTINUOUS
 10
442.2369070106
 20
334.0571646341
 11
441.3472664911
 21
334.0571646341
  0
ARC
  5
47F
100
AcDbEntity
  8
AT110_010_00_links_3_BL6
100
AcDbCircle
 62
7
  6
CONTINUOUS
 10
490.1472664911
 20
336.1422834203
 40
0.3
100
AcDbArc
 50
330.0
 51
85.0
  0
LINE
  5
480
100
AcDbEntity
  8
AT110_010_00_links_3_BL6
100
AcDbLine
 62
7
  6
CONTINUOUS
 10
392.28745887
 20
335.9922834203
 11
393.4047002221
 21
334.0571646341
  0
LINE
  5
481
100
AcDbEntity
  8
AT110_010_00_links_3_BL6
100
AcDbLine
 62
7
  6
CONTINUOUS
 10
488.8472664911
 20
336.5571646341
 11
490.173413214
 21
336.4411418297
  0
LINE
  5
482
100
AcDbEntity
  8
AT110_010_00_links_3_BL6
100
AcDbLine
 62
7
  6
CONTINUOUS
 10
488.8472664911
 20
336.5571646341
 11
488.6465630456
 21
336.5571646341
  0
LINE
  5
483
100
AcDbEntity
  8
AT110_010_00_links_3_BL6
100
AcDbLine
 62
7
  6
CONTINUOUS
 10
488.6465630456
 20
336.5571646341
 11
445.98952596
 21
336.5571646341
  0
LINE
  5
484
100
AcDbEntity
  8
AT110_010_00_links_3_BL6
100
AcDbLine
 62
7
  6
CONTINUOUS
 10
445.98952596
 20
336.5571646341
 11
441.3472664911
 21
336.5571646341
  0
LINE
  5
485
100
AcDbEntity
  8
AT110_010_00_links_3_BL6
100
AcDbLine
 62
9
  6
CONTINUOUS
 10
392.28745887
 20
335.9922834203
 11
440.9199384383
 21
335.9922834203
  0
LINE
  5
486
100
AcDbEntity
  8
AT110_010_00_links_3_BL6
100
AcDbLine
 62
9
  6
CONTINUOUS
 10
440.9199384383
 20
335.9922834203
 11
441.3472664911
 21
335.9922834203
  0
LINE
  5
487
100
AcDbEntity
  8
AT110_010_00_links_3_BL6
100
AcDbLine
 62
9
  6
CONTINUOUS
 10
392.5211197683
 20
336.4411418297
 11
393.7452932068
 21
336.4411418297
  0
LINE
  5
488
100
AcDbEntity
  8
AT110_010_00_links_3_BL6
100
AcDbLine
 62
9
  6
CONTINUOUS
 10
393.7452932068
 20
336.4411418297
 11
393.8472664911
 21
336.4411418297
  0
LINE
  5
489
100
AcDbEntity
  8
AT110_010_00_links_3_BL6
100
AcDbLine
 62
9
  6
CONTINUOUS
 10
393.8472664911
 20
336.4411418297
 11
441.3472664911
 21
336.4411418297
  0
LINE
  5
48A
100
AcDbEntity
  8
AT110_010_00_links_3_BL6
100
AcDbLine
 62
9
  6
CONTINUOUS
 10
490.4070741123
 20
335.9922834203
 11
441.7739927802
 21
335.9922834203
  0
LINE
  5
48B
100
AcDbEntity
  8
AT110_010_00_links_3_BL6
100
AcDbLine
 62
9
  6
CONTINUOUS
 10
441.7739927802
 20
335.9922834203
 11
441.3472664911
 21
335.9922834203
  0
LINE
  5
48C
100
AcDbEntity
  8
AT110_010_00_links_3_BL6
100
AcDbLine
 62
9
  6
CONTINUOUS
 10
490.173413214
 20
336.4411418297
 11
488.9492397755
 21
336.4411418297
  0
LINE
  5
48D
100
AcDbEntity
  8
AT110_010_00_links_3_BL6
100
AcDbLine
 62
9
  6
CONTINUOUS
 10
488.9492397755
 20
336.4411418297
 11
488.8472664911
 21
336.4411418297
  0
LINE
  5
48E
100
AcDbEntity
  8
AT110_010_00_links_3_BL6
100
AcDbLine
 62
9
  6
CONTINUOUS
 10
488.8472664911
 20
336.4411418297
 11
441.3472664911
 21
336.4411418297
  0
ENDBLK
  5
48F
100
AcDbEntity
  8
0
  6
BYBLOCK
 62
0
100
AcDbBlockEnd
  0
BLOCK
  5
490
100
AcDbEntity
  8
AT110_008_01_links_3_BL7
100
AcDbBlockBegin
  2
AT110_008_01_LINKS_3_BL7
 70
64
 10
441.3472664911
 20
334.3081664968
  3
AT110_008_01_LINKS_3_BL7
  1

  0
LINE
  5
491
100
AcDbEntity
  8
AT110_008_01_links_3_BL7
100
AcDbLine
 62
7
  6
CONTINUOUS
 10
435.3124305713
 20
339.0653636094
 11
435.2905418505
 21
336.5571646341
  0
LINE
  5
492
100
AcDbEntity
  8
AT110_008_01_links_3_BL7
100
AcDbLine
 62
7
  6
CONTINUOUS
 10
447.3821024109
 20
339.0653636094
 11
447.4039911318
 21
336.5571646341
  0
ELLIPSE
  5
493
100
AcDbEntity
  8
AT110_008_01_links_3_BL7
100
AcDbEllipse
 62
7
  6
CONTINUOUS
 10
403.1580664682
 20
329.0571646341
 30
0.0
 11
-0.1045871944
 21
2.9986332105
 31
0.0
 40
0.8657618647
 41
-4.6902162222
 42
-3.1717797729
  0
LINE
  5
494
100
AcDbEntity
  8
AT110_008_01_links_3_BL7
100
AcDbLine
 62
7
  6
CONTINUOUS
 10
403.9342490656
 20
326.0571646341
 11
403.1842490656
 21
326.0571646341
  0
LINE
  5
495
100
AcDbEntity
  8
AT110_008_01_links_3_BL7
100
AcDbLine
 62
7
  6
CONTINUOUS
 10
440.5972664911
 20
326.0571646341
 11
440.5476418789
 21
328.9001567654
  0
LINE
  5
496
100
AcDbEntity
  8
AT110_008_01_links_3_BL7
100
AcDbLine
 62
7
  6
CONTINUOUS
 10
442.0972664911
 20
326.0571646341
 11
442.1468911034
 21
328.9001567654
  0
LINE
  5
497
100
AcDbEntity
  8
AT110_008_01_links_3_BL7
100
AcDbLine
 62
7
  6
CONTINUOUS
 10
442.0972664911
 20
326.0571646341
 11
440.5972664911
 21
326.0571646341
  0
ELLIPSE
  5
498
100
AcDbEntity
  8
AT110_008_01_links_3_BL7
100
AcDbEllipse
 62
7
  6
CONTINUOUS
 10
479.5364665141
 20
329.0571646341
 30
0.0
 11
0.1045871944
 21
2.9986332105
 31
0.0
 40
0.8657618647
 41
-3.1114055343
 42
-1.592969085
  0
LINE
  5
499
100
AcDbEntity
  8
AT110_008_01_links_3_BL7
100
AcDbLine
 62
7
  6
CONTINUOUS
 10
479.5102839167
 20
326.0571646341
 11
478.7602839167
 21
326.0571646341
  0
LINE
  5
49A
100
AcDbEntity
  8
AT110_008_01_links_3_BL7
100
AcDbLine
 62
7
  6
CONTINUOUS
 10
444.3733328593
 20
343.0571646341
 11
438.3212001229
 21
343.0571646341
  0
ARC
  5
49B
100
AcDbEntity
  8
AT110_008_01_links_3_BL7
100
AcDbCircle
 62
7
  6
CONTINUOUS
 10
487.2722664911
 20
321.0571646341
 40
13.0
100
AcDbArc
 50
90.0
 51
112.2965595115
  0
ARC
  5
49C
100
AcDbEntity
  8
AT110_008_01_links_3_BL7
100
AcDbCircle
 62
7
  6
CONTINUOUS
 10
487.2722664911
 20
321.0571646341
 40
13.0
100
AcDbArc
 50
157.3037549099
 51
159.7383398798
  0
LINE
  5
49D
100
AcDbEntity
  8
AT110_008_01_links_3_BL7
100
AcDbLine
 62
7
  6
CONTINUOUS
 10
488.8472664911
 20
336.5571646341
 11
488.6465630456
 21
336.5571646341
  0
LINE
  5
49E
100
AcDbEntity
  8
AT110_008_01_links_3_BL7
100
AcDbLine
 62
7
  6
CONTINUOUS
 10
488.6465630456
 20
336.5571646341
 11
486.9533866392
 21
336.5571646341
  0
LINE
  5
49F
100
AcDbEntity
  8
AT110_008_01_links_3_BL7
100
AcDbLine
 62
7
  6
CONTINUOUS
 10
486.9533866392
 20
336.5571646341
 11
441.3472664911
 21
336.5571646341
  0
ARC
  5
4A0
100
AcDbEntity
  8
AT110_008_01_links_3_BL7
100
AcDbCircle
 62
7
  6
CONTINUOUS
 10
395.4222664911
 20
321.0571646341
 40
13.0
100
AcDbArc
 50
77.1277201037
 51
77.388542741
  0
ARC
  5
4A1
100
AcDbEntity
  8
AT110_008_01_links_3_BL7
100
AcDbCircle
 62
7
  6
CONTINUOUS
 10
395.4222664911
 20
321.0571646341
 40
13.0
100
AcDbArc
 50
76.9243178482
 51
77.1277201037
  0
ARC
  5
4A2
100
AcDbEntity
  8
AT110_008_01_links_3_BL7
100
AcDbCircle
 62
7
  6
CONTINUOUS
 10
395.4222664911
 20
321.0571646341
 40
13.0
100
AcDbArc
 50
76.7850721607
 51
76.9243178482
  0
ARC
  5
4A3
100
AcDbEntity
  8
AT110_008_01_links_3_BL7
100
AcDbCircle
 62
7
  6
CONTINUOUS
 10
395.4222664911
 20
321.0571646341
 40
13.0
100
AcDbArc
 50
76.4670665116
 51
76.7850721607
  0
ARC
  5
4A4
100
AcDbEntity
  8
AT110_008_01_links_3_BL7
100
AcDbCircle
 62
7
  6
CONTINUOUS
 10
395.4222664911
 20
321.0571646341
 40
13.0
100
AcDbArc
 50
76.2644890708
 51
76.4670665116
  0
ARC
  5
4A5
100
AcDbEntity
  8
AT110_008_01_links_3_BL7
100
AcDbCircle
 62
7
  6
CONTINUOUS
 10
395.4222664911
 20
321.0571646341
 40
13.0
100
AcDbArc
 50
75.9609907135
 51
76.2644890708
  0
ARC
  5
4A6
100
AcDbEntity
  8
AT110_008_01_links_3_BL7
100
AcDbCircle
 62
7
  6
CONTINUOUS
 10
395.4222664911
 20
321.0571646341
 40
13.0
100
AcDbArc
 50
75.8799990224
 51
75.9609907135
  0
ARC
  5
4A7
100
AcDbEntity
  8
AT110_008_01_links_3_BL7
100
AcDbCircle
 62
7
  6
CONTINUOUS
 10
395.4222664911
 20
321.0571646341
 40
13.0
100
AcDbArc
 50
75.7514603488
 51
75.8799990224
  0
ARC
  5
4A8
100
AcDbEntity
  8
AT110_008_01_links_3_BL7
100
AcDbCircle
 62
7
  6
CONTINUOUS
 10
395.4222664911
 20
321.0571646341
 40
13.0
100
AcDbArc
 50
75.4341180734
 51
75.7514603488
  0
ARC
  5
4A9
100
AcDbEntity
  8
AT110_008_01_links_3_BL7
100
AcDbCircle
 62
7
  6
CONTINUOUS
 10
395.4222664911
 20
321.0571646341
 40
13.0
100
AcDbArc
 50
75.3117965247
 51
75.4341180734
  0
ARC
  5
4AA
100
AcDbEntity
  8
AT110_008_01_links_3_BL7
100
AcDbCircle
 62
7
  6
CONTINUOUS
 10
395.4222664911
 20
321.0571646341
 40
13.0
100
AcDbArc
 50
75.1157838428
 51
75.3117965247
  0
ARC
  5
4AB
100
AcDbEntity
  8
AT110_008_01_links_3_BL7
100
AcDbCircle
 62
7
  6
CONTINUOUS
 10
395.4222664911
 20
321.0571646341
 40
13.0
100
AcDbArc
 50
75.0224786853
 51
75.1157838428
  0
ARC
  5
4AC
100
AcDbEntity
  8
AT110_008_01_links_3_BL7
100
AcDbCircle
 62
7
  6
CONTINUOUS
 10
395.4222664911
 20
321.0571646341
 40
13.0
100
AcDbArc
 50
74.6793040792
 51
75.0224786853
  0
ARC
  5
4AD
100
AcDbEntity
  8
AT110_008_01_links_3_BL7
100
AcDbCircle
 62
7
  6
CONTINUOUS
 10
395.4222664911
 20
321.0571646341
 40
13.0
100
AcDbArc
 50
67.7034404885
 51
74.6793040792
  0
ARC
  5
4AE
100
AcDbEntity
  8
AT110_008_01_links_3_BL7
100
AcDbCircle
 62
7
  6
CONTINUOUS
 10
395.4222664911
 20
321.0571646341
 40
13.0
100
AcDbArc
 50
20.2616601202
 51
22.6962450901
  0
LINE
  5
4AF
100
AcDbEntity
  8
AT110_008_01_links_3_BL7
100
AcDbLine
 62
7
  6
CONTINUOUS
 10
393.8472664911
 20
336.5571646341
 11
394.0479699367
 21
336.5571646341
  0
LINE
  5
4B0
100
AcDbEntity
  8
AT110_008_01_links_3_BL7
100
AcDbLine
 62
7
  6
CONTINUOUS
 10
394.0479699367
 20
336.5571646341
 11
395.7411463431
 21
336.5571646341
  0
LINE
  5
4B1
100
AcDbEntity
  8
AT110_008_01_links_3_BL7
100
AcDbLine
 62
7
  6
CONTINUOUS
 10
395.7411463431
 20
336.5571646341
 11
436.7050070222
 21
336.5571646341
  0
LINE
  5
4B2
100
AcDbEntity
  8
AT110_008_01_links_3_BL7
100
AcDbLine
 62
7
  6
CONTINUOUS
 10
436.7050070222
 20
336.5571646341
 11
441.3472664911
 21
336.5571646341
  0
LINE
  5
4B3
100
AcDbEntity
  8
AT110_008_01_links_3_BL7
100
AcDbLine
 62
7
  6
CONTINUOUS
 10
444.0452774109
 20
334.0509694271
 11
444.0452774109
 21
333.7571646341
  0
LINE
  5
4B4
100
AcDbEntity
  8
AT110_008_01_links_3_BL7
100
AcDbLine
 62
7
  6
CONTINUOUS
 10
444.938881595
 20
334.0383163977
 11
444.938881595
 21
333.7571646341
  0
LINE
  5
4B5
100
AcDbEntity
  8
AT110_008_01_links_3_BL7
100
AcDbLine
 62
7
  6
CONTINUOUS
 10
443.6939606304
 20
334.0571646341
 11
443.6939606304
 21
333.7571646341
  0
LINE
  5
4B6
100
AcDbEntity
  8
AT110_008_01_links_3_BL7
100
AcDbLine
 62
7
  6
CONTINUOUS
 10
440.2098446254
 20
334.0571646341
 11
440.2098446254
 21
333.7571646341
  0
LINE
  5
4B7
100
AcDbEntity
  8
AT110_008_01_links_3_BL7
100
AcDbLine
 62
7
  6
CONTINUOUS
 10
438.9709133628
 20
334.0385436789
 11
438.9709133628
 21
333.7571646341
  0
LINE
  5
4B8
100
AcDbEntity
  8
AT110_008_01_links_3_BL7
100
AcDbLine
 62
7
  6
CONTINUOUS
 10
439.8560009744
 20
334.0509004744
 11
439.8560009744
 21
333.7571646341
  0
LINE
  5
4B9
100
AcDbEntity
  8
AT110_008_01_links_3_BL7
100
AcDbLine
 62
7
  6
CONTINUOUS
 10
440.4628624912
 20
333.7571646341
 11
440.2098446254
 21
333.7571646341
  0
LINE
  5
4BA
100
AcDbEntity
  8
AT110_008_01_links_3_BL7
100
AcDbLine
 62
7
  6
CONTINUOUS
 10
443.6939606304
 20
333.7571646341
 11
443.6566901226
 21
333.7571646341
  0
LINE
  5
4BB
100
AcDbEntity
  8
AT110_008_01_links_3_BL7
100
AcDbLine
 62
7
  6
CONTINUOUS
 10
443.6566901226
 20
333.7571646341
 11
443.5375921847
 21
333.7571646341
  0
LINE
  5
4BC
100
AcDbEntity
  8
AT110_008_01_links_3_BL7
100
AcDbLine
 62
7
  6
CONTINUOUS
 10
443.5375921847
 20
333.7571646341
 11
443.3753945122
 21
333.7571646341
  0
LINE
  5
4BD
100
AcDbEntity
  8
AT110_008_01_links_3_BL7
100
AcDbLine
 62
7
  6
CONTINUOUS
 10
443.3753945122
 20
333.7571646341
 11
443.1686408706
 21
333.7571646341
  0
LINE
  5
4BE
100
AcDbEntity
  8
AT110_008_01_links_3_BL7
100
AcDbLine
 62
7
  6
CONTINUOUS
 10
443.1686408706
 20
333.7571646341
 11
442.2316704911
 21
333.7571646341
  0
LINE
  5
4BF
100
AcDbEntity
  8
AT110_008_01_links_3_BL7
100
AcDbLine
 62
7
  6
CONTINUOUS
 10
444.938881595
 20
333.7571646341
 11
444.897432445
 21
333.7571646341
  0
LINE
  5
4C0
100
AcDbEntity
  8
AT110_008_01_links_3_BL7
100
AcDbLine
 62
7
  6
CONTINUOUS
 10
444.897432445
 20
333.7571646341
 11
444.8646320047
 21
333.7571646341
  0
LINE
  5
4C1
100
AcDbEntity
  8
AT110_008_01_links_3_BL7
100
AcDbLine
 62
7
  6
CONTINUOUS
 10
444.8646320047
 20
333.7571646341
 11
444.3362371227
 21
333.7571646341
  0
LINE
  5
4C2
100
AcDbEntity
  8
AT110_008_01_links_3_BL7
100
AcDbLine
 62
7
  6
CONTINUOUS
 10
444.3362371227
 20
333.7571646341
 11
444.0452774109
 21
333.7571646341
  0
LINE
  5
4C3
100
AcDbEntity
  8
AT110_008_01_links_3_BL7
100
AcDbLine
 62
7
  6
CONTINUOUS
 10
439.8560009744
 20
333.7571646341
 11
439.5645206536
 21
333.7571646341
  0
LINE
  5
4C4
100
AcDbEntity
  8
AT110_008_01_links_3_BL7
100
AcDbLine
 62
7
  6
CONTINUOUS
 10
439.5645206536
 20
333.7571646341
 11
439.049630576
 21
333.7571646341
  0
LINE
  5
4C5
100
AcDbEntity
  8
AT110_008_01_links_3_BL7
100
AcDbLine
 62
7
  6
CONTINUOUS
 10
439.049630576
 20
333.7571646341
 11
438.9922067826
 21
333.7571646341
  0
LINE
  5
4C6
100
AcDbEntity
  8
AT110_008_01_links_3_BL7
100
AcDbLine
 62
7
  6
CONTINUOUS
 10
438.9922067826
 20
333.7571646341
 11
438.9709133628
 21
333.7571646341
  0
LINE
  5
4C7
100
AcDbEntity
  8
AT110_008_01_links_3_BL7
100
AcDbLine
 62
7
  6
CONTINUOUS
 10
399.0217468338
 20
334.0571646341
 11
399.0217468338
 21
333.7571646341
  0
LINE
  5
4C8
100
AcDbEntity
  8
AT110_008_01_links_3_BL7
100
AcDbLine
 62
7
  6
CONTINUOUS
 10
398.4064456489
 20
334.0571646341
 11
398.4064456489
 21
333.7571646341
  0
LINE
  5
4C9
100
AcDbEntity
  8
AT110_008_01_links_3_BL7
100
AcDbLine
 62
7
  6
CONTINUOUS
 10
397.0272904544
 20
334.0571646341
 11
397.0272904544
 21
333.7571646341
  0
LINE
  5
4CA
100
AcDbEntity
  8
AT110_008_01_links_3_BL7
100
AcDbLine
 62
7
  6
CONTINUOUS
 10
396.5021552732
 20
334.0571646341
 11
396.5021552732
 21
333.7571646341
  0
LINE
  5
4CB
100
AcDbEntity
  8
AT110_008_01_links_3_BL7
100
AcDbLine
 62
7
  6
CONTINUOUS
 10
438.3212001229
 20
343.0571646341
 11
444.3733328593
 21
343.0571646341
  0
LINE
  5
4CC
100
AcDbEntity
  8
AT110_008_01_links_3_BL7
100
AcDbLine
 62
7
  6
CONTINUOUS
 10
396.040380891
 20
334.0571646341
 11
396.040380891
 21
333.7571646341
  0
LINE
  5
4CD
100
AcDbEntity
  8
AT110_008_01_links_3_BL7
100
AcDbLine
 62
7
  6
CONTINUOUS
 10
395.3174143384
 20
334.0571646341
 11
395.3174143384
 21
333.7571646341
  0
LINE
  5
4CE
100
AcDbEntity
  8
AT110_008_01_links_3_BL7
100
AcDbLine
 62
7
  6
CONTINUOUS
 10
395.1404813629
 20
334.0571646341
 11
395.1404813629
 21
333.7571646341
  0
LINE
  5
4CF
100
AcDbEntity
  8
AT110_008_01_links_3_BL7
100
AcDbLine
 62
7
  6
CONTINUOUS
 10
395.0509533935
 20
334.0571646341
 11
395.0509533935
 21
333.7571646341
  0
LINE
  5
4D0
100
AcDbEntity
  8
AT110_008_01_links_3_BL7
100
AcDbLine
 62
7
  6
CONTINUOUS
 10
394.8891064628
 20
334.0571646341
 11
394.8891064628
 21
333.7571646341
  0
LINE
  5
4D1
100
AcDbEntity
  8
AT110_008_01_links_3_BL7
100
AcDbLine
 62
7
  6
CONTINUOUS
 10
399.1252746717
 20
333.7571646341
 11
399.0217468338
 21
333.7571646341
  0
LINE
  5
4D2
100
AcDbEntity
  8
AT110_008_01_links_3_BL7
100
AcDbLine
 62
7
  6
CONTINUOUS
 10
400.3020889941
 20
333.7571646341
 11
399.4992145005
 21
333.7571646341
  0
LINE
  5
4D3
100
AcDbEntity
  8
AT110_008_01_links_3_BL7
100
AcDbLine
 62
7
  6
CONTINUOUS
 10
399.4992145005
 20
333.7571646341
 11
399.3316110451
 21
333.7571646341
  0
LINE
  5
4D4
100
AcDbEntity
  8
AT110_008_01_links_3_BL7
100
AcDbLine
 62
7
  6
CONTINUOUS
 10
399.3316110451
 20
333.7571646341
 11
399.2871583735
 21
333.7571646341
  0
LINE
  5
4D5
100
AcDbEntity
  8
AT110_008_01_links_3_BL7
100
AcDbLine
 62
7
  6
CONTINUOUS
 10
399.2871583735
 20
333.7571646341
 11
399.1533171413
 21
333.7571646341
  0
LINE
  5
4D6
100
AcDbEntity
  8
AT110_008_01_links_3_BL7
100
AcDbLine
 62
7
  6
CONTINUOUS
 10
399.1533171413
 20
333.7571646341
 11
399.1252746717
 21
333.7571646341
  0
LINE
  5
4D7
100
AcDbEntity
  8
AT110_008_01_links_3_BL7
100
AcDbLine
 62
7
  6
CONTINUOUS
 10
482.129611861
 20
328.9001567654
 11
482.4086781883
 21
334.0571646341
  0
LINE
  5
4D8
100
AcDbEntity
  8
AT110_008_01_links_3_BL7
100
AcDbLine
 62
7
  6
CONTINUOUS
 10
470.3449977865
 20
326.0571646341
 11
478.7602839167
 21
326.0571646341
  0
LINE
  5
4D9
100
AcDbEntity
  8
AT110_008_01_links_3_BL7
100
AcDbLine
 62
7
  6
CONTINUOUS
 10
479.5102839167
 20
326.0571646341
 11
478.7602839167
 21
326.0571646341
  0
LINE
  5
4DA
100
AcDbEntity
  8
AT110_008_01_links_3_BL7
100
AcDbLine
 62
7
  6
CONTINUOUS
 10
399.0217468338
 20
333.7571646341
 11
398.9641212699
 21
333.7571646341
  0
LINE
  5
4DB
100
AcDbEntity
  8
AT110_008_01_links_3_BL7
100
AcDbLine
 62
7
  6
CONTINUOUS
 10
398.9641212699
 20
333.7571646341
 11
398.7980584974
 21
333.7571646341
  0
LINE
  5
4DC
100
AcDbEntity
  8
AT110_008_01_links_3_BL7
100
AcDbLine
 62
7
  6
CONTINUOUS
 10
442.1468911034
 20
328.9001567654
 11
442.2316704911
 21
333.7571646341
  0
LINE
  5
4DD
100
AcDbEntity
  8
AT110_008_01_links_3_BL7
100
AcDbLine
 62
7
  6
CONTINUOUS
 10
442.2316704911
 20
333.7571646341
 11
442.2369070106
 21
334.0571646341
  0
LINE
  5
4DE
100
AcDbEntity
  8
AT110_008_01_links_3_BL7
100
AcDbLine
 62
7
  6
CONTINUOUS
 10
398.7980584974
 20
333.7571646341
 11
398.5997740748
 21
333.7571646341
  0
LINE
  5
4DF
100
AcDbEntity
  8
AT110_008_01_links_3_BL7
100
AcDbLine
 62
7
  6
CONTINUOUS
 10
398.5997740748
 20
333.7571646341
 11
398.4638663065
 21
333.7571646341
  0
LINE
  5
4E0
100
AcDbEntity
  8
AT110_008_01_links_3_BL7
100
AcDbLine
 62
7
  6
CONTINUOUS
 10
398.4638663065
 20
333.7571646341
 11
398.4064456489
 21
333.7571646341
  0
LINE
  5
4E1
100
AcDbEntity
  8
AT110_008_01_links_3_BL7
100
AcDbLine
 62
7
  6
CONTINUOUS
 10
440.5476418789
 20
328.9001567654
 11
440.4628624912
 21
333.7571646341
  0
LINE
  5
4E2
100
AcDbEntity
  8
AT110_008_01_links_3_BL7
100
AcDbLine
 62
7
  6
CONTINUOUS
 10
440.4628624912
 20
333.7571646341
 11
440.4576259717
 21
334.0571646341
  0
LINE
  5
4E3
100
AcDbEntity
  8
AT110_008_01_links_3_BL7
100
AcDbLine
 62
7
  6
CONTINUOUS
 10
442.0972664911
 20
326.0571646341
 11
440.5972664911
 21
326.0571646341
  0
LINE
  5
4E4
100
AcDbEntity
  8
AT110_008_01_links_3_BL7
100
AcDbLine
 62
7
  6
CONTINUOUS
 10
412.3495351958
 20
326.0571646341
 11
403.9342490656
 21
326.0571646341
  0
LINE
  5
4E5
100
AcDbEntity
  8
AT110_008_01_links_3_BL7
100
AcDbLine
 62
7
  6
CONTINUOUS
 10
400.5649211212
 20
328.9001567654
 11
400.2858547939
 21
334.0571646341
  0
LINE
  5
4E6
100
AcDbEntity
  8
AT110_008_01_links_3_BL7
100
AcDbLine
 62
7
  6
CONTINUOUS
 10
403.9342490656
 20
326.0571646341
 11
403.1842490656
 21
326.0571646341
  0
LINE
  5
4E7
100
AcDbEntity
  8
AT110_008_01_links_3_BL7
100
AcDbLine
 62
7
  6
CONTINUOUS
 10
398.4064456489
 20
333.7571646341
 11
398.3737787933
 21
333.7571646341
  0
LINE
  5
4E8
100
AcDbEntity
  8
AT110_008_01_links_3_BL7
100
AcDbLine
 62
7
  6
CONTINUOUS
 10
435.3109037909
 20
338.8904118977
 11
435.3213143537
 21
340.0833442406
  0
LINE
  5
4E9
100
AcDbEntity
  8
AT110_008_01_links_3_BL7
100
AcDbLine
 62
7
  6
CONTINUOUS
 10
398.3737787933
 20
333.7571646341
 11
398.201257991
 21
333.7571646341
  0
LINE
  5
4EA
100
AcDbEntity
  8
AT110_008_01_links_3_BL7
100
AcDbLine
 62
7
  6
CONTINUOUS
 10
435.3213143537
 20
340.0833442406
 11
435.3105720601
 21
338.8523993189
  0
LINE
  5
4EB
100
AcDbEntity
  8
AT110_008_01_links_3_BL7
100
AcDbLine
 62
7
  6
CONTINUOUS
 10
435.3105720601
 20
338.8523993189
 11
435.2905418505
 21
336.5571646341
  0
LINE
  5
4EC
100
AcDbEntity
  8
AT110_008_01_links_3_BL7
100
AcDbLine
 62
7
  6
CONTINUOUS
 10
398.201257991
 20
333.7571646341
 11
398.135254551
 21
333.7571646341
  0
LINE
  5
4ED
100
AcDbEntity
  8
AT110_008_01_links_3_BL7
100
AcDbLine
 62
7
  6
CONTINUOUS
 10
398.135254551
 20
333.7571646341
 11
398.1202307297
 21
333.7571646341
  0
LINE
  5
4EE
100
AcDbEntity
  8
AT110_008_01_links_3_BL7
100
AcDbLine
 62
7
  6
CONTINUOUS
 10
398.1202307297
 20
333.7571646341
 11
398.0369246975
 21
333.7571646341
  0
LINE
  5
4EF
100
AcDbEntity
  8
AT110_008_01_links_3_BL7
100
AcDbLine
 62
7
  6
CONTINUOUS
 10
398.0369246975
 20
333.7571646341
 11
397.9003602759
 21
333.7571646341
  0
LINE
  5
4F0
100
AcDbEntity
  8
AT110_008_01_links_3_BL7
100
AcDbLine
 62
7
  6
CONTINUOUS
 10
397.9003602759
 20
333.7571646341
 11
397.7788193839
 21
333.7571646341
  0
LINE
  5
4F1
100
AcDbEntity
  8
AT110_008_01_links_3_BL7
100
AcDbLine
 62
7
  6
CONTINUOUS
 10
397.7788193839
 20
333.7571646341
 11
397.550761016
 21
333.7571646341
  0
LINE
  5
4F2
100
AcDbEntity
  8
AT110_008_01_links_3_BL7
100
AcDbLine
 62
7
  6
CONTINUOUS
 10
397.550761016
 20
333.7571646341
 11
397.3909852642
 21
333.7571646341
  0
LINE
  5
4F3
100
AcDbEntity
  8
AT110_008_01_links_3_BL7
100
AcDbLine
 62
7
  6
CONTINUOUS
 10
397.3909852642
 20
333.7571646341
 11
397.205719703
 21
333.7571646341
  0
LINE
  5
4F4
100
AcDbEntity
  8
AT110_008_01_links_3_BL7
100
AcDbLine
 62
7
  6
CONTINUOUS
 10
397.205719703
 20
333.7571646341
 11
397.1014814032
 21
333.7571646341
  0
LINE
  5
4F5
100
AcDbEntity
  8
AT110_008_01_links_3_BL7
100
AcDbLine
 62
7
  6
CONTINUOUS
 10
397.1014814032
 20
333.7571646341
 11
397.0505014929
 21
333.7571646341
  0
LINE
  5
4F6
100
AcDbEntity
  8
AT110_008_01_links_3_BL7
100
AcDbLine
 62
7
  6
CONTINUOUS
 10
397.0505014929
 20
333.7571646341
 11
397.0272904544
 21
333.7571646341
  0
LINE
  5
4F7
100
AcDbEntity
  8
AT110_008_01_links_3_BL7
100
AcDbLine
 62
7
  6
CONTINUOUS
 10
447.4039911318
 20
336.5571646341
 11
447.3821024109
 21
339.0653636094
  0
LINE
  5
4F8
100
AcDbEntity
  8
AT110_008_01_links_3_BL7
100
AcDbLine
 62
7
  6
CONTINUOUS
 10
447.4039911318
 20
336.5571646341
 11
447.3836291914
 21
338.8904118977
  0
LINE
  5
4F9
100
AcDbEntity
  8
AT110_008_01_links_3_BL7
100
AcDbLine
 62
7
  6
CONTINUOUS
 10
447.3836291914
 20
338.8904118977
 11
447.3732186285
 21
340.0833442406
  0
LINE
  5
4FA
100
AcDbEntity
  8
AT110_008_01_links_3_BL7
100
AcDbLine
 62
7
  6
CONTINUOUS
 10
447.3732186285
 20
340.0833442406
 11
447.3839609221
 21
338.8523993189
  0
LINE
  5
4FB
100
AcDbEntity
  8
AT110_008_01_links_3_BL7
100
AcDbLine
 62
7
  6
CONTINUOUS
 10
397.0272904544
 20
333.7571646341
 11
396.9702527283
 21
333.7571646341
  0
LINE
  5
4FC
100
AcDbEntity
  8
AT110_008_01_links_3_BL7
100
AcDbLine
 62
7
  6
CONTINUOUS
 10
396.9702527283
 20
333.7571646341
 11
396.8139058702
 21
333.7571646341
  0
LINE
  5
4FD
100
AcDbEntity
  8
AT110_008_01_links_3_BL7
100
AcDbLine
 62
7
  6
CONTINUOUS
 10
396.8139058702
 20
333.7571646341
 11
396.6353585507
 21
333.7571646341
  0
LINE
  5
4FE
100
AcDbEntity
  8
AT110_008_01_links_3_BL7
100
AcDbLine
 62
7
  6
CONTINUOUS
 10
396.6353585507
 20
333.7571646341
 11
396.5277415657
 21
333.7571646341
  0
LINE
  5
4FF
100
AcDbEntity
  8
AT110_008_01_links_3_BL7
100
AcDbLine
 62
7
  6
CONTINUOUS
 10
396.5277415657
 20
333.7571646341
 11
396.5021552732
 21
333.7571646341
  0
ARC
  5
500
100
AcDbEntity
  8
AT110_008_01_links_3_BL7
100
AcDbCircle
 62
7
  6
CONTINUOUS
 10
438.3212000579
 20
340.0571571825
 40
3.0
100
AcDbArc
 50
89.999998758
 51
179.4998576779
  0
ARC
  5
501
100
AcDbEntity
  8
AT110_008_01_links_3_BL7
100
AcDbCircle
 62
7
  6
CONTINUOUS
 10
438.3212001229
 20
340.0571646341
 40
3.0
100
AcDbArc
 50
90.0
 51
104.9166745172
  0
ARC
  5
502
100
AcDbEntity
  8
AT110_008_01_links_3_BL7
100
AcDbCircle
 62
7
  6
CONTINUOUS
 10
438.3212001229
 20
340.0571646341
 40
3.0
100
AcDbArc
 50
104.9166745172
 51
110.2887608526
  0
ARC
  5
503
100
AcDbEntity
  8
AT110_008_01_links_3_BL7
100
AcDbCircle
 62
7
  6
CONTINUOUS
 10
438.3212001229
 20
340.0571646341
 40
3.0
100
AcDbArc
 50
110.2887608526
 51
119.8333472813
  0
ARC
  5
504
100
AcDbEntity
  8
AT110_008_01_links_3_BL7
100
AcDbCircle
 62
7
  6
CONTINUOUS
 10
438.3212001229
 20
340.0571646341
 40
3.0
100
AcDbArc
 50
119.8333472813
 51
126.5382228091
  0
ARC
  5
505
100
AcDbEntity
  8
AT110_008_01_links_3_BL7
100
AcDbCircle
 62
7
  6
CONTINUOUS
 10
438.3212001229
 20
340.0571646341
 40
3.0
100
AcDbArc
 50
126.5382228091
 51
134.7500170828
  0
ARC
  5
506
100
AcDbEntity
  8
AT110_008_01_links_3_BL7
100
AcDbCircle
 62
7
  6
CONTINUOUS
 10
438.3212001229
 20
340.0571646341
 40
3.0
100
AcDbArc
 50
134.7500170828
 51
142.3958560173
  0
ARC
  5
507
100
AcDbEntity
  8
AT110_008_01_links_3_BL7
100
AcDbCircle
 62
7
  6
CONTINUOUS
 10
438.3212001229
 20
340.0571646341
 40
3.0
100
AcDbArc
 50
142.3958560173
 51
149.6666829116
  0
ARC
  5
508
100
AcDbEntity
  8
AT110_008_01_links_3_BL7
100
AcDbCircle
 62
7
  6
CONTINUOUS
 10
438.3212001229
 20
340.0571646341
 40
3.0
100
AcDbArc
 50
149.6666829116
 51
158.6624655603
  0
ARC
  5
509
100
AcDbEntity
  8
AT110_008_01_links_3_BL7
100
AcDbCircle
 62
7
  6
CONTINUOUS
 10
438.3212001229
 20
340.0571646341
 40
3.0
100
AcDbArc
 50
158.6624655603
 51
164.5833440255
  0
ARC
  5
50A
100
AcDbEntity
  8
AT110_008_01_links_3_BL7
100
AcDbCircle
 62
7
  6
CONTINUOUS
 10
438.3212001229
 20
340.0571646341
 40
3.0
100
AcDbArc
 50
164.5833440255
 51
179.5
  0
ARC
  5
50B
100
AcDbEntity
  8
AT110_008_01_links_3_BL7
100
AcDbCircle
 62
7
  6
CONTINUOUS
 10
444.3733329244
 20
340.0571571825
 40
3.0
100
AcDbArc
 50
75.0833634939
 51
90.000001242
  0
ARC
  5
50C
100
AcDbEntity
  8
AT110_008_01_links_3_BL7
100
AcDbCircle
 62
7
  6
CONTINUOUS
 10
444.3733329244
 20
340.0571571825
 40
3.0
100
AcDbArc
 50
69.7112890494
 51
75.0833634939
  0
ARC
  5
50D
100
AcDbEntity
  8
AT110_008_01_links_3_BL7
100
AcDbCircle
 62
7
  6
CONTINUOUS
 10
444.3733329244
 20
340.0571571825
 40
3.0
100
AcDbArc
 50
60.1667249095
 51
69.7112890494
  0
ARC
  5
50E
100
AcDbEntity
  8
AT110_008_01_links_3_BL7
100
AcDbCircle
 62
7
  6
CONTINUOUS
 10
444.3733329244
 20
340.0571571825
 40
3.0
100
AcDbArc
 50
53.4618619101
 51
60.1667249095
  0
ARC
  5
50F
100
AcDbEntity
  8
AT110_008_01_links_3_BL7
100
AcDbCircle
 62
7
  6
CONTINUOUS
 10
444.3733329244
 20
340.0571571825
 40
3.0
100
AcDbArc
 50
45.2500843767
 51
53.4618619101
  0
ARC
  5
510
100
AcDbEntity
  8
AT110_008_01_links_3_BL7
100
AcDbCircle
 62
7
  6
CONTINUOUS
 10
444.3733329244
 20
340.0571571825
 40
3.0
100
AcDbArc
 50
37.6042562282
 51
45.2500843767
  0
ARC
  5
511
100
AcDbEntity
  8
AT110_008_01_links_3_BL7
100
AcDbCircle
 62
7
  6
CONTINUOUS
 10
444.3733329244
 20
340.0571571825
 40
3.0
100
AcDbArc
 50
30.3334409151
 51
37.6042562282
  0
ARC
  5
512
100
AcDbEntity
  8
AT110_008_01_links_3_BL7
100
AcDbCircle
 62
7
  6
CONTINUOUS
 10
444.3733329244
 20
340.0571571825
 40
3.0
100
AcDbArc
 50
21.3376656706
 51
30.3334409151
  0
ARC
  5
513
100
AcDbEntity
  8
AT110_008_01_links_3_BL7
100
AcDbCircle
 62
7
  6
CONTINUOUS
 10
444.3733329244
 20
340.0571571825
 40
3.0
100
AcDbArc
 50
15.4167937412
 51
21.3376656706
  0
ARC
  5
514
100
AcDbEntity
  8
AT110_008_01_links_3_BL7
100
AcDbCircle
 62
7
  6
CONTINUOUS
 10
444.3733329244
 20
340.0571571825
 40
3.0
100
AcDbArc
 50
0.5001423221
 51
15.4167937412
  0
ARC
  5
515
100
AcDbEntity
  8
AT110_008_01_links_3_BL7
100
AcDbCircle
 62
7
  6
CONTINUOUS
 10
444.3733328593
 20
340.0571646341
 40
3.0
100
AcDbArc
 50
0.5
 51
90.0
  0
LINE
  5
516
100
AcDbEntity
  8
AT110_008_01_links_3_BL7
100
AcDbLine
 62
7
  6
CONTINUOUS
 10
396.5021552732
 20
333.7571646341
 11
396.477800652
 21
333.7571646341
  0
LINE
  5
517
100
AcDbEntity
  8
AT110_008_01_links_3_BL7
100
AcDbLine
 62
7
  6
CONTINUOUS
 10
396.477800652
 20
333.7571646341
 11
396.3251480203
 21
333.7571646341
  0
LINE
  5
518
100
AcDbEntity
  8
AT110_008_01_links_3_BL7
100
AcDbLine
 62
7
  6
CONTINUOUS
 10
396.3251480203
 20
333.7571646341
 11
396.1536219506
 21
333.7571646341
  0
LINE
  5
519
100
AcDbEntity
  8
AT110_008_01_links_3_BL7
100
AcDbLine
 62
7
  6
CONTINUOUS
 10
396.1536219506
 20
333.7571646341
 11
396.0555539652
 21
333.7571646341
  0
LINE
  5
51A
100
AcDbEntity
  8
AT110_008_01_links_3_BL7
100
AcDbLine
 62
7
  6
CONTINUOUS
 10
396.0555539652
 20
333.7571646341
 11
396.040380891
 21
333.7571646341
  0
LINE
  5
51B
100
AcDbEntity
  8
AT110_008_01_links_3_BL7
100
AcDbLine
 62
7
  6
CONTINUOUS
 10
396.040380891
 20
333.7571646341
 11
396.0076071224
 21
333.7571646341
  0
LINE
  5
51C
100
AcDbEntity
  8
AT110_008_01_links_3_BL7
100
AcDbLine
 62
7
  6
CONTINUOUS
 10
396.0076071224
 20
333.7571646341
 11
395.8753281078
 21
333.7571646341
  0
LINE
  5
51D
100
AcDbEntity
  8
AT110_008_01_links_3_BL7
100
AcDbLine
 62
7
  6
CONTINUOUS
 10
395.8753281078
 20
333.7571646341
 11
395.6950161342
 21
333.7571646341
  0
LINE
  5
51E
100
AcDbEntity
  8
AT110_008_01_links_3_BL7
100
AcDbLine
 62
7
  6
CONTINUOUS
 10
395.6950161342
 20
333.7571646341
 11
395.5509170385
 21
333.7571646341
  0
LINE
  5
51F
100
AcDbEntity
  8
AT110_008_01_links_3_BL7
100
AcDbLine
 62
7
  6
CONTINUOUS
 10
395.5509170385
 20
333.7571646341
 11
395.5280290566
 21
333.7571646341
  0
LINE
  5
520
100
AcDbEntity
  8
AT110_008_01_links_3_BL7
100
AcDbLine
 62
7
  6
CONTINUOUS
 10
395.5280290566
 20
333.7571646341
 11
395.3949978115
 21
333.7571646341
  0
LINE
  5
521
100
AcDbEntity
  8
AT110_008_01_links_3_BL7
100
AcDbLine
 62
7
  6
CONTINUOUS
 10
395.3949978115
 20
333.7571646341
 11
395.3174143384
 21
333.7571646341
  0
LINE
  5
522
100
AcDbEntity
  8
AT110_008_01_links_3_BL7
100
AcDbLine
 62
7
  6
CONTINUOUS
 10
395.1685121836
 20
333.7571646341
 11
395.1404813629
 21
333.7571646341
  0
LINE
  5
523
100
AcDbEntity
  8
AT110_008_01_links_3_BL7
100
AcDbLine
 62
7
  6
CONTINUOUS
 10
395.3174143384
 20
333.7571646341
 11
395.1685121836
 21
333.7571646341
  0
LINE
  5
524
100
AcDbEntity
  8
AT110_008_01_links_3_BL7
100
AcDbLine
 62
7
  6
CONTINUOUS
 10
395.0743274441
 20
333.7571646341
 11
395.0509533935
 21
333.7571646341
  0
LINE
  5
525
100
AcDbEntity
  8
AT110_008_01_links_3_BL7
100
AcDbLine
 62
7
  6
CONTINUOUS
 10
395.1404813629
 20
333.7571646341
 11
395.0743274441
 21
333.7571646341
  0
LINE
  5
526
100
AcDbEntity
  8
AT110_008_01_links_3_BL7
100
AcDbLine
 62
7
  6
CONTINUOUS
 10
395.0509533935
 20
333.7571646341
 11
394.9883702804
 21
333.7571646341
  0
LINE
  5
527
100
AcDbEntity
  8
AT110_008_01_links_3_BL7
100
AcDbLine
 62
7
  6
CONTINUOUS
 10
394.9883702804
 20
333.7571646341
 11
394.8891064628
 21
333.7571646341
  0
LINE
  5
528
100
AcDbEntity
  8
AT110_008_01_links_3_BL7
100
AcDbLine
 62
7
  6
CONTINUOUS
 10
394.8891064628
 20
333.7571646341
 11
394.8585406008
 21
333.7571646341
  0
LINE
  5
529
100
AcDbEntity
  8
AT110_008_01_links_3_BL7
100
AcDbLine
 62
7
  6
CONTINUOUS
 10
397.0505014929
 20
334.0571646341
 11
397.0505014929
 21
333.7571646341
  0
LINE
  5
52A
100
AcDbEntity
  8
AT110_008_01_links_3_BL7
100
AcDbLine
 62
7
  6
CONTINUOUS
 10
397.1014814032
 20
334.0571646341
 11
397.1014814032
 21
333.7571646341
  0
LINE
  5
52B
100
AcDbEntity
  8
AT110_008_01_links_3_BL7
100
AcDbLine
 62
7
  6
CONTINUOUS
 10
397.205719703
 20
334.0571646341
 11
397.205719703
 21
333.7571646341
  0
LINE
  5
52C
100
AcDbEntity
  8
AT110_008_01_links_3_BL7
100
AcDbLine
 62
7
  6
CONTINUOUS
 10
397.3909852642
 20
334.0571646341
 11
397.3909852642
 21
333.7571646341
  0
LINE
  5
52D
100
AcDbEntity
  8
AT110_008_01_links_3_BL7
100
AcDbLine
 62
7
  6
CONTINUOUS
 10
397.550761016
 20
334.0571646341
 11
397.550761016
 21
333.7571646341
  0
LINE
  5
52E
100
AcDbEntity
  8
AT110_008_01_links_3_BL7
100
AcDbLine
 62
7
  6
CONTINUOUS
 10
397.7788193839
 20
334.0571646341
 11
397.7788193839
 21
333.7571646341
  0
LINE
  5
52F
100
AcDbEntity
  8
AT110_008_01_links_3_BL7
100
AcDbLine
 62
7
  6
CONTINUOUS
 10
397.9003602759
 20
334.0570360152
 11
397.9003602759
 21
333.7571646341
  0
LINE
  5
530
100
AcDbEntity
  8
AT110_008_01_links_3_BL7
100
AcDbLine
 62
7
  6
CONTINUOUS
 10
398.0369246975
 20
334.0551434474
 11
398.0369246975
 21
333.7571646341
  0
LINE
  5
531
100
AcDbEntity
  8
AT110_008_01_links_3_BL7
100
AcDbLine
 62
7
  6
CONTINUOUS
 10
398.1202307297
 20
334.0522227229
 11
398.1202307297
 21
333.7571646341
  0
LINE
  5
532
100
AcDbEntity
  8
AT110_008_01_links_3_BL7
100
AcDbLine
 62
7
  6
CONTINUOUS
 10
398.135254551
 20
334.0509532842
 11
398.135254551
 21
333.7571646341
  0
LINE
  5
533
100
AcDbEntity
  8
AT110_008_01_links_3_BL7
100
AcDbLine
 62
7
  6
CONTINUOUS
 10
398.201257991
 20
334.0495964242
 11
398.201257991
 21
333.7571646341
  0
LINE
  5
534
100
AcDbEntity
  8
AT110_008_01_links_3_BL7
100
AcDbLine
 62
7
  6
CONTINUOUS
 10
398.3737787933
 20
334.044704725
 11
398.3737787933
 21
333.7571646341
  0
LINE
  5
535
100
AcDbEntity
  8
AT110_008_01_links_3_BL7
100
AcDbLine
 62
7
  6
CONTINUOUS
 10
396.5277415657
 20
334.0571646341
 11
396.5277415657
 21
333.7571646341
  0
LINE
  5
536
100
AcDbEntity
  8
AT110_008_01_links_3_BL7
100
AcDbLine
 62
7
  6
CONTINUOUS
 10
396.6353585507
 20
334.0571646341
 11
396.6353585507
 21
333.7571646341
  0
LINE
  5
537
100
AcDbEntity
  8
AT110_008_01_links_3_BL7
100
AcDbLine
 62
7
  6
CONTINUOUS
 10
396.8139058702
 20
334.0571646341
 11
396.8139058702
 21
333.7571646341
  0
LINE
  5
538
100
AcDbEntity
  8
AT110_008_01_links_3_BL7
100
AcDbLine
 62
7
  6
CONTINUOUS
 10
396.9702527283
 20
334.0571646341
 11
396.9702527283
 21
333.7571646341
  0
SPLINE
  5
539
100
AcDbEntity
  8
AT110_008_01_links_3_BL7
100
AcDbSpline
 62
9
  6
CONTINUOUS
 70
0
 71
3
 72
9
 73
5
 74
0
 42
0.0000001
 43
0.0000001
 44
0.0000000001
 40
0.0
 40
0.0
 40
0.0
 40
0.0
 40
0.2584296935
 40
1.0
 40
1.0
 40
1.0
 40
1.0
 10
444.6460043594
 20
336.5586370962
 30
0.0
 10
444.6448436893
 20
336.6579248041
 30
0.0
 10
444.6403154381
 20
337.042120575
 30
0.0
 10
444.635629272
 20
337.4263144995
 30
0.0
 10
444.6320336717
 20
337.7112197766
 30
0.0
  0
LINE
  5
53A
100
AcDbEntity
  8
AT110_008_01_links_3_BL7
100
AcDbLine
 62
9
  6
CONTINUOUS
 10
444.6320336717
 20
337.7112197766
 11
444.6289602843
 21
337.9523578014
  0
SPLINE
  5
53B
100
AcDbEntity
  8
AT110_008_01_links_3_BL7
100
AcDbSpline
 62
9
  6
CONTINUOUS
 70
0
 71
3
 72
18
 73
14
 74
0
 42
0.0000001
 43
0.0000001
 44
0.0000000001
 40
0.0
 40
0.0
 40
0.0
 40
0.0
 40
0.4393425942
 40
0.6120298774
 40
0.7523963447
 40
0.8103190583
 40
0.8600384553
 40
0.9015782626
 40
0.935020516
 40
0.96056107
 40
0.9786656165
 40
0.9905923159
 40
1.0
 40
1.0
 40
1.0
 40
1.0
 10
444.6289602843
 20
337.9523578014
 30
0.0
 10
444.6192385821
 20
338.7074477351
 30
0.0
 10
444.6048330575
 20
339.7593270022
 30
0.0
 10
444.579755007
 20
341.0523249763
 30
0.0
 10
444.5632366967
 20
341.6897617549
 30
0.0
 10
444.5474483008
 20
342.1157679034
 30
0.0
 10
444.5351131254
 20
342.3718728289
 30
0.0
 10
444.5210454037
 20
342.5858346375
 30
0.0
 10
444.5046783783
 20
342.7576955402
 30
0.0
 10
444.4850279435
 20
342.8892993307
 30
0.0
 10
444.4610399258
 20
342.9810219944
 30
0.0
 10
444.4276301276
 20
343.0439436638
 30
0.0
 10
444.3895030079
 20
343.0571550764
 30
0.0
 10
444.3733328593
 20
343.0571646341
 30
0.0
  0
LINE
  5
53C
100
AcDbEntity
  8
AT110_008_01_links_3_BL7
100
AcDbLine
 62
7
  6
CONTINUOUS
 10
396.0555539652
 20
334.0571646341
 11
396.0555539652
 21
333.7571646341
  0
LINE
  5
53D
100
AcDbEntity
  8
AT110_008_01_links_3_BL7
100
AcDbLine
 62
7
  6
CONTINUOUS
 10
396.1536219506
 20
334.0571646341
 11
396.1536219506
 21
333.7571646341
  0
LINE
  5
53E
100
AcDbEntity
  8
AT110_008_01_links_3_BL7
100
AcDbLine
 62
7
  6
CONTINUOUS
 10
396.3251480203
 20
334.0571646341
 11
396.3251480203
 21
333.7571646341
  0
LINE
  5
53F
100
AcDbEntity
  8
AT110_008_01_links_3_BL7
100
AcDbLine
 62
7
  6
CONTINUOUS
 10
396.477800652
 20
334.0571646341
 11
396.477800652
 21
333.7571646341
  0
LINE
  5
540
100
AcDbEntity
  8
AT110_008_01_links_3_BL7
100
AcDbLine
 62
7
  6
CONTINUOUS
 10
395.3949978115
 20
334.0571646341
 11
395.3949978115
 21
333.7571646341
  0
LINE
  5
541
100
AcDbEntity
  8
AT110_008_01_links_3_BL7
100
AcDbLine
 62
7
  6
CONTINUOUS
 10
395.5509170385
 20
334.0571646341
 11
395.5509170385
 21
333.7571646341
  0
LINE
  5
542
100
AcDbEntity
  8
AT110_008_01_links_3_BL7
100
AcDbLine
 62
7
  6
CONTINUOUS
 10
395.6950161342
 20
334.0571646341
 11
395.6950161342
 21
333.7571646341
  0
LINE
  5
543
100
AcDbEntity
  8
AT110_008_01_links_3_BL7
100
AcDbLine
 62
7
  6
CONTINUOUS
 10
395.8753281078
 20
334.0571646341
 11
395.8753281078
 21
333.7571646341
  0
LINE
  5
544
100
AcDbEntity
  8
AT110_008_01_links_3_BL7
100
AcDbLine
 62
7
  6
CONTINUOUS
 10
396.0076071224
 20
334.0571556542
 11
396.0076071224
 21
333.7571646341
  0
LINE
  5
545
100
AcDbEntity
  8
AT110_008_01_links_3_BL7
100
AcDbLine
 62
7
  6
CONTINUOUS
 10
395.1685121836
 20
334.0571646341
 11
395.1685121836
 21
333.7571646341
  0
LINE
  5
546
100
AcDbEntity
  8
AT110_008_01_links_3_BL7
100
AcDbLine
 62
7
  6
CONTINUOUS
 10
395.0743274441
 20
334.0571646341
 11
395.0743274441
 21
333.7571646341
  0
LINE
  5
547
100
AcDbEntity
  8
AT110_008_01_links_3_BL7
100
AcDbLine
 62
7
  6
CONTINUOUS
 10
394.9883702804
 20
334.0571646341
 11
394.9883702804
 21
333.7571646341
  0
LINE
  5
548
100
AcDbEntity
  8
AT110_008_01_links_3_BL7
100
AcDbLine
 62
7
  6
CONTINUOUS
 10
394.8585406008
 20
334.0571646341
 11
394.8585406008
 21
333.7571646341
  0
ELLIPSE
  5
549
100
AcDbEntity
  8
AT110_008_01_links_3_BL7
100
AcDbEllipse
 62
7
  6
CONTINUOUS
 10
403.960431663
 20
329.0571646341
 30
0.0
 11
0.1045871944
 21
2.9986332105
 31
0.0
 40
0.8657618647
 41
-3.3012235819
 42
-3.1114055343
  0
ELLIPSE
  5
54A
100
AcDbEntity
  8
AT110_008_01_links_3_BL7
100
AcDbEllipse
 62
7
  6
CONTINUOUS
 10
403.960431663
 20
329.0571646341
 30
0.0
 11
0.1045871944
 21
2.9986332105
 31
0.0
 40
0.8657618647
 41
-3.4910402922
 42
-3.3012235819
  0
ELLIPSE
  5
54B
100
AcDbEntity
  8
AT110_008_01_links_3_BL7
100
AcDbEllipse
 62
7
  6
CONTINUOUS
 10
403.960431663
 20
329.0571646341
 30
0.0
 11
0.1045871944
 21
2.9986332105
 31
0.0
 40
0.8657618647
 41
-4.6298419835
 42
-3.4910402922
  0
ELLIPSE
  5
54C
100
AcDbEntity
  8
AT110_008_01_links_3_BL7
100
AcDbEllipse
 62
7
  6
CONTINUOUS
 10
478.7341013193
 20
329.0571646341
 30
0.0
 11
-0.1045871944
 21
2.9986332105
 31
0.0
 40
0.8657618647
 41
-3.1717797729
 42
-2.9819617253
  0
ELLIPSE
  5
54D
100
AcDbEntity
  8
AT110_008_01_links_3_BL7
100
AcDbEllipse
 62
7
  6
CONTINUOUS
 10
478.7341013193
 20
329.0571646341
 30
0.0
 11
-0.1045871944
 21
2.9986332105
 31
0.0
 40
0.8657618647
 41
-2.9819617253
 42
-2.7921450149
  0
ELLIPSE
  5
54E
100
AcDbEntity
  8
AT110_008_01_links_3_BL7
100
AcDbEllipse
 62
7
  6
CONTINUOUS
 10
478.7341013193
 20
329.0571646341
 30
0.0
 11
-0.1045871944
 21
2.9986332105
 31
0.0
 40
0.8657618647
 41
-2.7921450149
 42
-1.6533433237
  0
LINE
  5
54F
100
AcDbEntity
  8
AT110_008_01_links_3_BL7
100
AcDbLine
 62
7
  6
CONTINUOUS
 10
481.3299872488
 20
328.9001567654
 11
481.5190376689
 21
334.0571646341
  0
LINE
  5
550
100
AcDbEntity
  8
AT110_008_01_links_3_BL7
100
AcDbLine
 62
9
  6
CONTINUOUS
 10
482.129611861
 20
328.9001567654
 11
481.3299872488
 21
328.9001567654
  0
SPLINE
  5
551
100
AcDbEntity
  8
AT110_008_01_links_3_BL7
100
AcDbSpline
 62
9
  6
CONTINUOUS
 70
0
 71
3
 72
18
 73
14
 74
0
 42
0.0000001
 43
0.0000001
 44
0.0000000001
 40
0.0
 40
0.0
 40
0.0
 40
0.0
 40
0.0094099646
 40
0.0213378384
 40
0.0394422907
 40
0.0649822151
 40
0.0984236987
 40
0.1399629333
 40
0.1896816874
 40
0.2476039865
 40
0.3879690291
 40
0.5606556068
 40
1.0
 40
1.0
 40
1.0
 40
1.0
 10
438.3212001229
 20
343.0571646341
 30
0.0
 10
438.3050339334
 20
343.0571548367
 30
0.0
 10
438.2669193366
 20
343.043952377
 30
0.0
 10
438.2335076119
 20
342.9810647983
 30
0.0
 10
438.2095239209
 20
342.8893864681
 30
0.0
 10
438.1898741019
 20
342.7578513201
 30
0.0
 10
438.1735068497
 20
342.5860780115
 30
0.0
 10
438.159438717
 20
342.3722243952
 30
0.0
 10
438.1471056857
 20
342.1162471686
 30
0.0
 10
438.1313165307
 20
341.6904531342
 30
0.0
 10
438.1148013486
 20
341.0533313216
 30
0.0
 10
438.0897254232
 20
339.7609639739
 30
0.0
 10
438.075324243
 20
338.7095952309
 30
0.0
 10
438.065605016
 20
337.9548700531
 30
0.0
  0
SPLINE
  5
552
100
AcDbEntity
  8
AT110_008_01_links_3_BL7
100
AcDbSpline
 62
9
  6
CONTINUOUS
 70
0
 71
3
 72
9
 73
5
 74
0
 42
0.0000001
 43
0.0000001
 44
0.0000000001
 40
0.0
 40
0.0
 40
0.0
 40
0.0
 40
0.2394722082
 40
1.0
 40
1.0
 40
1.0
 40
1.0
 10
438.065605016
 20
337.9548700531
 30
0.0
 10
438.0641710652
 20
337.8435197588
 30
0.0
 10
438.0582699268
 20
337.3785365239
 30
0.0
 10
438.0526777455
 20
336.9135494012
 30
0.0
 10
438.0485435223
 20
336.5599124219
 30
0.0
  0
SPLINE
  5
553
100
AcDbEntity
  8
AT110_008_01_links_3_BL7
100
AcDbSpline
 62
7
  6
CONTINUOUS
 70
0
 71
3
 72
11
 73
7
 74
0
 42
0.0000001
 43
0.0000001
 44
0.0000000001
 40
0.0
 40
0.0
 40
0.0
 40
0.0
 40
0.2642020571
 40
0.5179406085
 40
0.7618188148
 40
1.0
 40
1.0
 40
1.0
 40
1.0
 10
412.3495351958
 20
326.0571646341
 30
0.0
 10
411.9438871523
 20
327.2099985407
 30
0.0
 10
410.8471945566
 20
329.3795847716
 30
0.0
 10
408.4020182945
 20
331.9874820756
 30
0.0
 10
405.3765271911
 20
333.6690669461
 30
0.0
 10
403.1290880688
 20
334.0571646341
 30
0.0
 10
402.0273332176
 20
334.0571646341
 30
0.0
  0
LINE
  5
554
100
AcDbEntity
  8
AT110_008_01_links_3_BL7
100
AcDbLine
 62
9
  6
CONTINUOUS
 10
442.1468911034
 20
328.9001567654
 11
440.5476418789
 21
328.9001567654
  0
SPLINE
  5
555
100
AcDbEntity
  8
AT110_008_01_links_3_BL7
100
AcDbSpline
 62
7
  6
CONTINUOUS
 70
0
 71
3
 72
11
 73
7
 74
0
 42
0.0000001
 43
0.0000001
 44
0.0000000001
 40
0.0
 40
0.0
 40
0.0
 40
0.0
 40
0.2381811852
 40
0.4820593916
 40
0.7357979429
 40
1.0
 40
1.0
 40
1.0
 40
1.0
 10
480.6671997647
 20
334.0571646341
 30
0.0
 10
479.5654449133
 20
334.0571646341
 30
0.0
 10
477.3180057907
 20
333.669066946
 30
0.0
 10
474.2925146873
 20
331.9874820752
 30
0.0
 10
471.8473384254
 20
329.3795847713
 30
0.0
 10
470.7506458299
 20
327.2099985406
 30
0.0
 10
470.3449977865
 20
326.0571646341
 30
0.0
  0
LINE
  5
556
100
AcDbEntity
  8
AT110_008_01_links_3_BL7
100
AcDbLine
 62
7
  6
CONTINUOUS
 10
401.3645457335
 20
328.9001567654
 11
401.1754953134
 21
334.0571646341
  0
LINE
  5
557
100
AcDbEntity
  8
AT110_008_01_links_3_BL7
100
AcDbLine
 62
9
  6
CONTINUOUS
 10
401.3645457335
 20
328.9001567654
 11
400.5649211212
 21
328.9001567654
  0
LINE
  5
558
100
AcDbEntity
  8
AT110_008_01_links_3_BL7
100
AcDbLine
 62
7
  6
CONTINUOUS
 10
444.8646320047
 20
334.0571646341
 11
444.8646320047
 21
333.7571646341
  0
LINE
  5
559
100
AcDbEntity
  8
AT110_008_01_links_3_BL7
100
AcDbLine
 62
7
  6
CONTINUOUS
 10
443.1686408706
 20
334.0571646341
 11
443.1686408706
 21
333.7571646341
  0
LINE
  5
55A
100
AcDbEntity
  8
AT110_008_01_links_3_BL7
100
AcDbLine
 62
7
  6
CONTINUOUS
 10
443.3753945122
 20
334.0571646341
 11
443.3753945122
 21
333.7571646341
  0
LINE
  5
55B
100
AcDbEntity
  8
AT110_008_01_links_3_BL7
100
AcDbLine
 62
7
  6
CONTINUOUS
 10
443.5375921847
 20
334.0571646341
 11
443.5375921847
 21
333.7571646341
  0
LINE
  5
55C
100
AcDbEntity
  8
AT110_008_01_links_3_BL7
100
AcDbLine
 62
7
  6
CONTINUOUS
 10
443.6566901226
 20
334.0571646341
 11
443.6566901226
 21
333.7571646341
  0
LINE
  5
55D
100
AcDbEntity
  8
AT110_008_01_links_3_BL7
100
AcDbLine
 62
7
  6
CONTINUOUS
 10
439.049630576
 20
334.0571646341
 11
439.049630576
 21
333.7571646341
  0
LINE
  5
55E
100
AcDbEntity
  8
AT110_008_01_links_3_BL7
100
AcDbLine
 62
7
  6
CONTINUOUS
 10
399.1252746717
 20
334.0571646341
 11
399.1252746717
 21
333.7571646341
  0
LINE
  5
55F
100
AcDbEntity
  8
AT110_008_01_links_3_BL7
100
AcDbLine
 62
7
  6
CONTINUOUS
 10
398.4638663065
 20
334.0571646341
 11
398.4638663065
 21
333.7571646341
  0
LINE
  5
560
100
AcDbEntity
  8
AT110_008_01_links_3_BL7
100
AcDbLine
 62
7
  6
CONTINUOUS
 10
398.5997740748
 20
334.0571646341
 11
398.5997740748
 21
333.7571646341
  0
LINE
  5
561
100
AcDbEntity
  8
AT110_008_01_links_3_BL7
100
AcDbLine
 62
7
  6
CONTINUOUS
 10
398.7980584974
 20
334.0571646341
 11
398.7980584974
 21
333.7571646341
  0
LINE
  5
562
100
AcDbEntity
  8
AT110_008_01_links_3_BL7
100
AcDbLine
 62
7
  6
CONTINUOUS
 10
398.9641212699
 20
334.0571646341
 11
398.9641212699
 21
333.7571646341
  0
ENDBLK
  5
563
100
AcDbEntity
  8
0
  6
BYBLOCK
 62
0
100
AcDbBlockEnd
  0
BLOCK
  5
564
100
AcDbEntity
  8
AT110_009_01_links_3_BL8
100
AcDbBlockBegin
  2
AT110_009_01_LINKS_3_BL8
 70
64
 10
441.3472664911
 20
305.5571646341
  3
AT110_009_01_LINKS_3_BL8
  1

  0
LINE
  5
565
100
AcDbEntity
  8
AT110_009_01_links_3_BL8
100
AcDbLine
 62
7
  6
CONTINUOUS
 10
441.3472664911
 20
285.5571646341
 11
423.3472664911
 21
285.5571646341
  0
LINE
  5
566
100
AcDbEntity
  8
AT110_009_01_links_3_BL8
100
AcDbLine
 62
7
  6
CONTINUOUS
 10
423.3472664911
 20
285.5571646341
 11
412.7748306644
 21
285.5571646341
  0
ARC
  5
567
100
AcDbEntity
  8
AT110_009_01_links_3_BL8
100
AcDbCircle
 62
7
  6
CONTINUOUS
 10
395.3559552805
 20
324.5571646341
 40
1.0
100
AcDbArc
 50
90.0
 51
180.5
  0
LINE
  5
568
100
AcDbEntity
  8
AT110_009_01_links_3_BL8
100
AcDbLine
 62
7
  6
CONTINUOUS
 10
441.3472664911
 20
325.5571646341
 11
395.3559552805
 21
325.5571646341
  0
ARC
  5
569
100
AcDbEntity
  8
AT110_009_01_links_3_BL8
100
AcDbCircle
 62
7
  6
CONTINUOUS
 10
487.3385777017
 20
324.5571646341
 40
1.0
100
AcDbArc
 50
359.5
 51
90.0
  0
LINE
  5
56A
100
AcDbEntity
  8
AT110_009_01_links_3_BL8
100
AcDbLine
 62
7
  6
CONTINUOUS
 10
487.3385777017
 20
325.5571646341
 11
441.3472664911
 21
325.5571646341
  0
LINE
  5
56B
100
AcDbEntity
  8
AT110_009_01_links_3_BL8
100
AcDbLine
 62
7
  6
CONTINUOUS
 10
473.1285236206
 20
285.5571646341
 11
472.347263685
 21
285.5571646341
  0
LINE
  5
56C
100
AcDbEntity
  8
AT110_009_01_links_3_BL8
100
AcDbLine
 62
7
  6
CONTINUOUS
 10
472.347263685
 20
285.5571646341
 11
471.9437672159
 21
285.5571646341
  0
LINE
  5
56D
100
AcDbEntity
  8
AT110_009_01_links_3_BL8
100
AcDbLine
 62
7
  6
CONTINUOUS
 10
471.9437672159
 20
285.5571646341
 11
471.1267672159
 21
285.5571646341
  0
LINE
  5
56E
100
AcDbEntity
  8
AT110_009_01_links_3_BL8
100
AcDbLine
 62
7
  6
CONTINUOUS
 10
471.1267672159
 20
285.5571646341
 11
470.7372672159
 21
285.5571646341
  0
LINE
  5
56F
100
AcDbEntity
  8
AT110_009_01_links_3_BL8
100
AcDbLine
 62
7
  6
CONTINUOUS
 10
470.7372672159
 20
285.5571646341
 11
470.4047672159
 21
285.5571646341
  0
LINE
  5
570
100
AcDbEntity
  8
AT110_009_01_links_3_BL8
100
AcDbLine
 62
7
  6
CONTINUOUS
 10
470.4047672159
 20
285.5571646341
 11
470.0722672159
 21
285.5571646341
  0
LINE
  5
571
100
AcDbEntity
  8
AT110_009_01_links_3_BL8
100
AcDbLine
 62
7
  6
CONTINUOUS
 10
470.0722672159
 20
285.5571646341
 11
469.6732672159
 21
285.5571646341
  0
LINE
  5
572
100
AcDbEntity
  8
AT110_009_01_links_3_BL8
100
AcDbLine
 62
7
  6
CONTINUOUS
 10
469.6732672159
 20
285.5571646341
 11
468.8372672159
 21
285.5571646341
  0
LINE
  5
573
100
AcDbEntity
  8
AT110_009_01_links_3_BL8
100
AcDbLine
 62
7
  6
CONTINUOUS
 10
468.8372672159
 20
285.5571646341
 11
468.2387672159
 21
285.5571646341
  0
LINE
  5
574
100
AcDbEntity
  8
AT110_009_01_links_3_BL8
100
AcDbLine
 62
7
  6
CONTINUOUS
 10
468.2387672159
 20
285.5571646341
 11
468.2292672159
 21
285.5571646341
  0
LINE
  5
575
100
AcDbEntity
  8
AT110_009_01_links_3_BL8
100
AcDbLine
 62
7
  6
CONTINUOUS
 10
468.2292672159
 20
285.5571646341
 11
468.2084665041
 21
285.5571646341
  0
LINE
  5
576
100
AcDbEntity
  8
AT110_009_01_links_3_BL8
100
AcDbLine
 62
7
  6
CONTINUOUS
 10
468.2084665041
 20
285.5571646341
 11
467.8302672159
 21
285.5571646341
  0
LINE
  5
577
100
AcDbEntity
  8
AT110_009_01_links_3_BL8
100
AcDbLine
 62
7
  6
CONTINUOUS
 10
467.8302672159
 20
285.5571646341
 11
467.4407672159
 21
285.5571646341
  0
LINE
  5
578
100
AcDbEntity
  8
AT110_009_01_links_3_BL8
100
AcDbLine
 62
7
  6
CONTINUOUS
 10
467.4407672159
 20
285.5571646341
 11
467.4312672159
 21
285.5571646341
  0
LINE
  5
579
100
AcDbEntity
  8
AT110_009_01_links_3_BL8
100
AcDbLine
 62
7
  6
CONTINUOUS
 10
467.4312672159
 20
285.5571646341
 11
466.8327672159
 21
285.5571646341
  0
LINE
  5
57A
100
AcDbEntity
  8
AT110_009_01_links_3_BL8
100
AcDbLine
 62
7
  6
CONTINUOUS
 10
466.8327672159
 20
285.5571646341
 11
466.4622672159
 21
285.5571646341
  0
LINE
  5
57B
100
AcDbEntity
  8
AT110_009_01_links_3_BL8
100
AcDbLine
 62
7
  6
CONTINUOUS
 10
466.4622672159
 20
285.5571646341
 11
466.3472664911
 21
285.5571646341
  0
LINE
  5
57C
100
AcDbEntity
  8
AT110_009_01_links_3_BL8
100
AcDbLine
 62
7
  6
CONTINUOUS
 10
466.3472664911
 20
285.5571646341
 11
466.1392672159
 21
285.5571646341
  0
LINE
  5
57D
100
AcDbEntity
  8
AT110_009_01_links_3_BL8
100
AcDbLine
 62
7
  6
CONTINUOUS
 10
466.1392672159
 20
285.5571646341
 11
465.5407672159
 21
285.5571646341
  0
LINE
  5
57E
100
AcDbEntity
  8
AT110_009_01_links_3_BL8
100
AcDbLine
 62
7
  6
CONTINUOUS
 10
465.5407672159
 20
285.5571646341
 11
465.3472664911
 21
285.5571646341
  0
LINE
  5
57F
100
AcDbEntity
  8
AT110_009_01_links_3_BL8
100
AcDbLine
 62
7
  6
CONTINUOUS
 10
465.3472664911
 20
285.5571646341
 11
464.7142672159
 21
285.5571646341
  0
LINE
  5
580
100
AcDbEntity
  8
AT110_009_01_links_3_BL8
100
AcDbLine
 62
7
  6
CONTINUOUS
 10
464.7142672159
 20
285.5571646341
 11
464.2962672159
 21
285.5571646341
  0
LINE
  5
581
100
AcDbEntity
  8
AT110_009_01_links_3_BL8
100
AcDbLine
 62
7
  6
CONTINUOUS
 10
464.2962672159
 20
285.5571646341
 11
464.2679813631
 21
285.5571646341
  0
LINE
  5
582
100
AcDbEntity
  8
AT110_009_01_links_3_BL8
100
AcDbLine
 62
7
  6
CONTINUOUS
 10
464.2679813631
 20
285.5571646341
 11
463.8687672159
 21
285.5571646341
  0
LINE
  5
583
100
AcDbEntity
  8
AT110_009_01_links_3_BL8
100
AcDbLine
 62
7
  6
CONTINUOUS
 10
463.8687672159
 20
285.5571646341
 11
463.7832672159
 21
285.5571646341
  0
LINE
  5
584
100
AcDbEntity
  8
AT110_009_01_links_3_BL8
100
AcDbLine
 62
7
  6
CONTINUOUS
 10
463.7832672159
 20
285.5571646341
 11
463.7642672159
 21
285.5571646341
  0
LINE
  5
585
100
AcDbEntity
  8
AT110_009_01_links_3_BL8
100
AcDbLine
 62
7
  6
CONTINUOUS
 10
463.7642672159
 20
285.5571646341
 11
462.8142672159
 21
285.5571646341
  0
LINE
  5
586
100
AcDbEntity
  8
AT110_009_01_links_3_BL8
100
AcDbLine
 62
7
  6
CONTINUOUS
 10
462.8142672159
 20
285.5571646341
 11
462.6052672159
 21
285.5571646341
  0
LINE
  5
587
100
AcDbEntity
  8
AT110_009_01_links_3_BL8
100
AcDbLine
 62
7
  6
CONTINUOUS
 10
462.6052672159
 20
285.5571646341
 11
462.5197672159
 21
285.5571646341
  0
LINE
  5
588
100
AcDbEntity
  8
AT110_009_01_links_3_BL8
100
AcDbLine
 62
7
  6
CONTINUOUS
 10
462.5197672159
 20
285.5571646341
 11
461.5602672159
 21
285.5571646341
  0
LINE
  5
589
100
AcDbEntity
  8
AT110_009_01_links_3_BL8
100
AcDbLine
 62
7
  6
CONTINUOUS
 10
461.5602672159
 20
285.5571646341
 11
461.4857961624
 21
285.5571646341
  0
LINE
  5
58A
100
AcDbEntity
  8
AT110_009_01_links_3_BL8
100
AcDbLine
 62
7
  6
CONTINUOUS
 10
461.4857961624
 20
285.5571646341
 11
461.3472664911
 21
285.5571646341
  0
LINE
  5
58B
100
AcDbEntity
  8
AT110_009_01_links_3_BL8
100
AcDbLine
 62
7
  6
CONTINUOUS
 10
461.3472664911
 20
285.5571646341
 11
461.2467672159
 21
285.5571646341
  0
LINE
  5
58C
100
AcDbEntity
  8
AT110_009_01_links_3_BL8
100
AcDbLine
 62
7
  6
CONTINUOUS
 10
461.2467672159
 20
285.5571646341
 11
460.7432672159
 21
285.5571646341
  0
LINE
  5
58D
100
AcDbEntity
  8
AT110_009_01_links_3_BL8
100
AcDbLine
 62
7
  6
CONTINUOUS
 10
460.7432672159
 20
285.5571646341
 11
460.6883662036
 21
285.5571646341
  0
LINE
  5
58E
100
AcDbEntity
  8
AT110_009_01_links_3_BL8
100
AcDbLine
 62
7
  6
CONTINUOUS
 10
460.6883662036
 20
285.5571646341
 11
460.3472692973
 21
285.5571646341
  0
LINE
  5
58F
100
AcDbEntity
  8
AT110_009_01_links_3_BL8
100
AcDbLine
 62
7
  6
CONTINUOUS
 10
460.3472692973
 20
285.5571646341
 11
459.4480945161
 21
285.5571646341
  0
LINE
  5
590
100
AcDbEntity
  8
AT110_009_01_links_3_BL8
100
AcDbLine
 62
7
  6
CONTINUOUS
 10
459.4480945161
 20
285.5571646341
 11
457.3472664911
 21
285.5571646341
  0
LINE
  5
591
100
AcDbEntity
  8
AT110_009_01_links_3_BL8
100
AcDbLine
 62
7
  6
CONTINUOUS
 10
457.3472664911
 20
285.5571646341
 11
441.3472664911
 21
285.5571646341
  0
ARC
  5
592
100
AcDbEntity
  8
AT110_009_01_links_3_BL8
100
AcDbCircle
 62
7
  6
CONTINUOUS
 10
473.1285236206
 20
300.5571646341
 40
15.0
100
AcDbArc
 50
269.9999999999
 51
359.5
  0
LINE
  5
593
100
AcDbEntity
  8
AT110_009_01_links_3_BL8
100
AcDbLine
 62
7
  6
CONTINUOUS
 10
473.120746006
 20
285.5571646341
 11
472.347263685
 21
285.5571646341
  0
LINE
  5
594
100
AcDbEntity
  8
AT110_009_01_links_3_BL8
100
AcDbLine
 62
7
  6
CONTINUOUS
 10
472.347263685
 20
285.5571646341
 11
471.9437672159
 21
285.5571646341
  0
LINE
  5
595
100
AcDbEntity
  8
AT110_009_01_links_3_BL8
100
AcDbLine
 62
7
  6
CONTINUOUS
 10
471.9437672159
 20
285.5571646341
 11
471.1267672159
 21
285.5571646341
  0
LINE
  5
596
100
AcDbEntity
  8
AT110_009_01_links_3_BL8
100
AcDbLine
 62
7
  6
CONTINUOUS
 10
471.1267672159
 20
285.5571646341
 11
470.7372672159
 21
285.5571646341
  0
LINE
  5
597
100
AcDbEntity
  8
AT110_009_01_links_3_BL8
100
AcDbLine
 62
7
  6
CONTINUOUS
 10
470.7372672159
 20
285.5571646341
 11
470.4047672159
 21
285.5571646341
  0
LINE
  5
598
100
AcDbEntity
  8
AT110_009_01_links_3_BL8
100
AcDbLine
 62
7
  6
CONTINUOUS
 10
470.4047672159
 20
285.5571646341
 11
470.0722672159
 21
285.5571646341
  0
LINE
  5
599
100
AcDbEntity
  8
AT110_009_01_links_3_BL8
100
AcDbLine
 62
7
  6
CONTINUOUS
 10
470.0722672159
 20
285.5571646341
 11
469.6732672159
 21
285.5571646341
  0
LINE
  5
59A
100
AcDbEntity
  8
AT110_009_01_links_3_BL8
100
AcDbLine
 62
7
  6
CONTINUOUS
 10
469.6732672159
 20
285.5571646341
 11
468.8372672159
 21
285.5571646341
  0
LINE
  5
59B
100
AcDbEntity
  8
AT110_009_01_links_3_BL8
100
AcDbLine
 62
7
  6
CONTINUOUS
 10
468.8372672159
 20
285.5571646341
 11
468.2387672159
 21
285.5571646341
  0
LINE
  5
59C
100
AcDbEntity
  8
AT110_009_01_links_3_BL8
100
AcDbLine
 62
7
  6
CONTINUOUS
 10
468.2387672159
 20
285.5571646341
 11
468.2292672159
 21
285.5571646341
  0
LINE
  5
59D
100
AcDbEntity
  8
AT110_009_01_links_3_BL8
100
AcDbLine
 62
7
  6
CONTINUOUS
 10
468.2292672159
 20
285.5571646341
 11
467.8302672159
 21
285.5571646341
  0
LINE
  5
59E
100
AcDbEntity
  8
AT110_009_01_links_3_BL8
100
AcDbLine
 62
7
  6
CONTINUOUS
 10
467.8302672159
 20
285.5571646341
 11
467.4407672159
 21
285.5571646341
  0
LINE
  5
59F
100
AcDbEntity
  8
AT110_009_01_links_3_BL8
100
AcDbLine
 62
7
  6
CONTINUOUS
 10
467.4407672159
 20
285.5571646341
 11
467.4312672159
 21
285.5571646341
  0
LINE
  5
5A0
100
AcDbEntity
  8
AT110_009_01_links_3_BL8
100
AcDbLine
 62
7
  6
CONTINUOUS
 10
467.4312672159
 20
285.5571646341
 11
466.8327672159
 21
285.5571646341
  0
LINE
  5
5A1
100
AcDbEntity
  8
AT110_009_01_links_3_BL8
100
AcDbLine
 62
7
  6
CONTINUOUS
 10
466.8327672159
 20
285.5571646341
 11
466.8086136967
 21
285.5571646341
  0
LINE
  5
5A2
100
AcDbEntity
  8
AT110_009_01_links_3_BL8
100
AcDbLine
 62
7
  6
CONTINUOUS
 10
466.8086136967
 20
285.5571646341
 11
466.4622672159
 21
285.5571646341
  0
LINE
  5
5A3
100
AcDbEntity
  8
AT110_009_01_links_3_BL8
100
AcDbLine
 62
7
  6
CONTINUOUS
 10
466.4622672159
 20
285.5571646341
 11
466.3472664911
 21
285.5571646341
  0
LINE
  5
5A4
100
AcDbEntity
  8
AT110_009_01_links_3_BL8
100
AcDbLine
 62
7
  6
CONTINUOUS
 10
466.3472664911
 20
285.5571646341
 11
466.1392672159
 21
285.5571646341
  0
LINE
  5
5A5
100
AcDbEntity
  8
AT110_009_01_links_3_BL8
100
AcDbLine
 62
7
  6
CONTINUOUS
 10
466.1392672159
 20
285.5571646341
 11
466.0537672159
 21
285.5571646341
  0
LINE
  5
5A6
100
AcDbEntity
  8
AT110_009_01_links_3_BL8
100
AcDbLine
 62
7
  6
CONTINUOUS
 10
466.0537672159
 20
285.5571646341
 11
465.7022672159
 21
285.5571646341
  0
LINE
  5
5A7
100
AcDbEntity
  8
AT110_009_01_links_3_BL8
100
AcDbLine
 62
7
  6
CONTINUOUS
 10
465.7022672159
 20
285.5571646341
 11
465.5407672159
 21
285.5571646341
  0
LINE
  5
5A8
100
AcDbEntity
  8
AT110_009_01_links_3_BL8
100
AcDbLine
 62
7
  6
CONTINUOUS
 10
465.5407672159
 20
285.5571646341
 11
465.3472664911
 21
285.5571646341
  0
LINE
  5
5A9
100
AcDbEntity
  8
AT110_009_01_links_3_BL8
100
AcDbLine
 62
7
  6
CONTINUOUS
 10
465.3472664911
 20
285.5571646341
 11
465.3032672159
 21
285.5571646341
  0
LINE
  5
5AA
100
AcDbEntity
  8
AT110_009_01_links_3_BL8
100
AcDbLine
 62
7
  6
CONTINUOUS
 10
465.3032672159
 20
285.5571646341
 11
465.1132672159
 21
285.5571646341
  0
LINE
  5
5AB
100
AcDbEntity
  8
AT110_009_01_links_3_BL8
100
AcDbLine
 62
7
  6
CONTINUOUS
 10
465.1132672159
 20
285.5571646341
 11
464.8472672159
 21
285.5571646341
  0
LINE
  5
5AC
100
AcDbEntity
  8
AT110_009_01_links_3_BL8
100
AcDbLine
 62
7
  6
CONTINUOUS
 10
464.8472672159
 20
285.5571646341
 11
464.7142672159
 21
285.5571646341
  0
LINE
  5
5AD
100
AcDbEntity
  8
AT110_009_01_links_3_BL8
100
AcDbLine
 62
7
  6
CONTINUOUS
 10
464.7142672159
 20
285.5571646341
 11
464.2962672159
 21
285.5571646341
  0
LINE
  5
5AE
100
AcDbEntity
  8
AT110_009_01_links_3_BL8
100
AcDbLine
 62
7
  6
CONTINUOUS
 10
464.2962672159
 20
285.5571646341
 11
464.1062672159
 21
285.5571646341
  0
LINE
  5
5AF
100
AcDbEntity
  8
AT110_009_01_links_3_BL8
100
AcDbLine
 62
7
  6
CONTINUOUS
 10
464.1062672159
 20
285.5571646341
 11
463.8687672159
 21
285.5571646341
  0
LINE
  5
5B0
100
AcDbEntity
  8
AT110_009_01_links_3_BL8
100
AcDbLine
 62
7
  6
CONTINUOUS
 10
463.8687672159
 20
285.5571646341
 11
463.7832672159
 21
285.5571646341
  0
LINE
  5
5B1
100
AcDbEntity
  8
AT110_009_01_links_3_BL8
100
AcDbLine
 62
7
  6
CONTINUOUS
 10
463.7832672159
 20
285.5571646341
 11
463.7642672159
 21
285.5571646341
  0
LINE
  5
5B2
100
AcDbEntity
  8
AT110_009_01_links_3_BL8
100
AcDbLine
 62
7
  6
CONTINUOUS
 10
463.7642672159
 20
285.5571646341
 11
462.8142672159
 21
285.5571646341
  0
LINE
  5
5B3
100
AcDbEntity
  8
AT110_009_01_links_3_BL8
100
AcDbLine
 62
7
  6
CONTINUOUS
 10
462.8142672159
 20
285.5571646341
 11
462.6052672159
 21
285.5571646341
  0
LINE
  5
5B4
100
AcDbEntity
  8
AT110_009_01_links_3_BL8
100
AcDbLine
 62
7
  6
CONTINUOUS
 10
462.6052672159
 20
285.5571646341
 11
462.5197672159
 21
285.5571646341
  0
LINE
  5
5B5
100
AcDbEntity
  8
AT110_009_01_links_3_BL8
100
AcDbLine
 62
7
  6
CONTINUOUS
 10
462.5197672159
 20
285.5571646341
 11
461.8452672159
 21
285.5571646341
  0
LINE
  5
5B6
100
AcDbEntity
  8
AT110_009_01_links_3_BL8
100
AcDbLine
 62
7
  6
CONTINUOUS
 10
461.8452672159
 20
285.5571646341
 11
461.5602672159
 21
285.5571646341
  0
LINE
  5
5B7
100
AcDbEntity
  8
AT110_009_01_links_3_BL8
100
AcDbLine
 62
7
  6
CONTINUOUS
 10
461.5602672159
 20
285.5571646341
 11
461.4857961624
 21
285.5571646341
  0
LINE
  5
5B8
100
AcDbEntity
  8
AT110_009_01_links_3_BL8
100
AcDbLine
 62
7
  6
CONTINUOUS
 10
461.4857961624
 20
285.5571646341
 11
461.3472664911
 21
285.5571646341
  0
LINE
  5
5B9
100
AcDbEntity
  8
AT110_009_01_links_3_BL8
100
AcDbLine
 62
7
  6
CONTINUOUS
 10
461.3472664911
 20
285.5571646341
 11
461.2467672159
 21
285.5571646341
  0
LINE
  5
5BA
100
AcDbEntity
  8
AT110_009_01_links_3_BL8
100
AcDbLine
 62
7
  6
CONTINUOUS
 10
461.2467672159
 20
285.5571646341
 11
460.7432672159
 21
285.5571646341
  0
LINE
  5
5BB
100
AcDbEntity
  8
AT110_009_01_links_3_BL8
100
AcDbLine
 62
7
  6
CONTINUOUS
 10
460.7432672159
 20
285.5571646341
 11
460.6883662036
 21
285.5571646341
  0
LINE
  5
5BC
100
AcDbEntity
  8
AT110_009_01_links_3_BL8
100
AcDbLine
 62
7
  6
CONTINUOUS
 10
460.6883662036
 20
285.5571646341
 11
460.3472692973
 21
285.5571646341
  0
LINE
  5
5BD
100
AcDbEntity
  8
AT110_009_01_links_3_BL8
100
AcDbLine
 62
7
  6
CONTINUOUS
 10
460.3472692973
 20
285.5571646341
 11
459.4480945161
 21
285.5571646341
  0
LINE
  5
5BE
100
AcDbEntity
  8
AT110_009_01_links_3_BL8
100
AcDbLine
 62
7
  6
CONTINUOUS
 10
459.4480945161
 20
285.5571646341
 11
457.3472664911
 21
285.5571646341
  0
LINE
  5
5BF
100
AcDbEntity
  8
AT110_009_01_links_3_BL8
100
AcDbLine
 62
7
  6
CONTINUOUS
 10
457.3472664911
 20
285.5571646341
 11
441.3472664911
 21
285.5571646341
  0
ARC
  5
5C0
100
AcDbEntity
  8
AT110_009_01_links_3_BL8
100
AcDbCircle
 62
7
  6
CONTINUOUS
 10
409.5660093617
 20
300.5571646341
 40
15.0
100
AcDbArc
 50
180.5
 51
270.0
  0
LINE
  5
5C1
100
AcDbEntity
  8
AT110_009_01_links_3_BL8
100
AcDbLine
 62
7
  6
CONTINUOUS
 10
409.5962580763
 20
285.5571646341
 11
409.5737869763
 21
285.5571646341
  0
LINE
  5
5C2
100
AcDbEntity
  8
AT110_009_01_links_3_BL8
100
AcDbLine
 62
7
  6
CONTINUOUS
 10
411.3472664911
 20
285.5571646341
 11
409.6219906326
 21
285.5571646341
  0
LINE
  5
5C3
100
AcDbEntity
  8
AT110_009_01_links_3_BL8
100
AcDbLine
 62
7
  6
CONTINUOUS
 10
409.6219906326
 20
285.5571646341
 11
409.5722311264
 21
285.5571646341
  0
LINE
  5
5C4
100
AcDbEntity
  8
AT110_009_01_links_3_BL8
100
AcDbLine
 62
7
  6
CONTINUOUS
 10
409.5722311264
 20
285.5571646341
 11
409.5660111882
 21
285.5571646341
  0
LINE
  5
5C5
100
AcDbEntity
  8
AT110_009_01_links_3_BL8
100
AcDbLine
 62
7
  6
CONTINUOUS
 10
411.3472664911
 20
285.5571646341
 11
409.5962580763
 21
285.5571646341
  0
SPLINE
  5
5C6
100
AcDbEntity
  8
AT110_009_01_links_3_BL8
100
AcDbSpline
 62
7
  6
CONTINUOUS
 70
0
 71
3
 72
24
 73
20
 74
0
 42
0.0000001
 43
0.0000001
 44
0.0000000001
 40
0.0
 40
0.0
 40
0.0
 40
0.0
 40
0.208742731
 40
0.4019050486
 40
0.5745518778
 40
0.6517780098
 40
0.7222651449
 40
0.7855610057
 40
0.8412598846
 40
0.8890054382
 40
0.9284938527
 40
0.945061831
 40
0.9594769619
 40
0.9717172411
 40
0.9817652668
 40
0.9896076948
 40
0.9952390401
 40
0.998667992
 40
1.0
 40
1.0
 40
1.0
 40
1.0
 10
412.7748306644
 20
285.5571646341
 30
0.0
 10
412.6754559269
 20
285.5571646341
 30
0.0
 10
412.4841229495
 20
285.5582892017
 30
0.0
 10
412.2106254341
 20
285.5621171988
 30
0.0
 10
411.9997472797
 20
285.5659484092
 30
0.0
 10
411.8472605509
 20
285.5687045928
 30
0.0
 10
411.7468209157
 20
285.5703903569
 30
0.0
 10
411.6566246224
 20
285.5716716163
 30
0.0
 10
411.577249097
 20
285.5724751637
 30
0.0
 10
411.5092050902
 20
285.5727568605
 30
0.0
 10
411.4597858842
 20
285.5725448559
 30
0.0
 10
411.426243904
 20
285.5720616598
 30
0.0
 10
411.4056630533
 20
285.5715961602
 30
0.0
 10
411.3882248654
 20
285.5710157608
 30
0.0
 10
411.3738248047
 20
285.5703313167
 30
0.0
 10
411.3628365908
 20
285.5695637845
 30
0.0
 10
411.3544095523
 20
285.5687310246
 30
0.0
 10
411.3502863005
 20
285.5679110702
 30
0.0
 10
411.3472664911
 20
285.5671555287
 30
0.0
 10
411.3472664911
 20
285.5665214087
 30
0.0
  0
LINE
  5
5C7
100
AcDbEntity
  8
AT110_009_01_links_3_BL8
100
AcDbLine
 62
7
  6
CONTINUOUS
 10
411.3472664911
 20
285.5665214087
 11
411.3472664911
 21
285.5571646341
  0
LINE
  5
5C8
100
AcDbEntity
  8
AT110_009_01_links_3_BL8
100
AcDbLine
 62
7
  6
CONTINUOUS
 10
394.3560695142
 20
324.5484380986
 11
394.5665805157
 21
300.4262666017
  0
LINE
  5
5C9
100
AcDbEntity
  8
AT110_009_01_links_3_BL8
100
AcDbLine
 62
7
  6
CONTINUOUS
 10
488.338463468
 20
324.5484380986
 11
488.1279524665
 21
300.4262666017
  0
LINE
  5
5CA
100
AcDbEntity
  8
AT110_009_01_links_3_BL8
100
AcDbLine
 62
9
  6
CONTINUOUS
 10
441.3472664911
 20
300.4262666017
 11
394.5665805157
 21
300.4262666017
  0
LINE
  5
5CB
100
AcDbEntity
  8
AT110_009_01_links_3_BL8
100
AcDbLine
 62
7
  6
CONTINUOUS
 10
394.3560695142
 20
324.5484380986
 11
441.3472664911
 21
324.5484380986
  0
LINE
  5
5CC
100
AcDbEntity
  8
AT110_009_01_links_3_BL8
100
AcDbLine
 62
9
  6
CONTINUOUS
 10
488.1279524665
 20
300.4262666017
 11
441.3472664911
 21
300.4262666017
  0
LINE
  5
5CD
100
AcDbEntity
  8
AT110_009_01_links_3_BL8
100
AcDbLine
 62
7
  6
CONTINUOUS
 10
441.3472664911
 20
324.5484380986
 11
488.338463468
 21
324.5484380986
  0
ENDBLK
  5
5CE
100
AcDbEntity
  8
0
  6
BYBLOCK
 62
0
100
AcDbBlockEnd
  0
BLOCK
  5
5CF
100
AcDbEntity
  8
AT110_009_01_oben_4_BL9
100
AcDbBlockBegin
  2
AT110_009_01_OBEN_4_BL9
 70
64
 10
296.5964350055
 20
179.9799663941
  3
AT110_009_01_OBEN_4_BL9
  1

  0
ARC
  5
5D0
100
AcDbEntity
  8
AT110_009_01_oben_4_BL9
100
AcDbCircle
 62
9
  6
CONTINUOUS
 10
296.5964350055
 20
179.9799663941
 40
18.1007518626
100
AcDbArc
 50
19.5597020642
 51
160.440176328
  0
ARC
  5
5D1
100
AcDbEntity
  8
AT110_009_01_oben_4_BL9
100
AcDbCircle
 62
9
  6
CONTINUOUS
 10
296.5964350055
 20
179.9799663941
 40
18.1007518626
100
AcDbArc
 50
199.5597020643
 51
340.440176328
  0
ENDBLK
  5
5D2
100
AcDbEntity
  8
0
  6
BYBLOCK
 62
0
100
AcDbBlockEnd
  0
BLOCK
  5
5D3
100
AcDbEntity
  8
AT110_010_00_oben_4_BL10
100
AcDbBlockBegin
  2
AT110_010_00_OBEN_4_BL10
 70
64
 10
296.5964350055
 20
179.9799663941
  3
AT110_010_00_OBEN_4_BL10
  1

  0
ARC
  5
5D4
100
AcDbEntity
  8
AT110_010_00_oben_4_BL10
100
AcDbCircle
 62
7
  6
CONTINUOUS
 10
296.5964350055
 20
179.9799663941
 40
49.1
100
AcDbArc
 50
0.0
 51
180.0
  0
ARC
  5
5D5
100
AcDbEntity
  8
AT110_010_00_oben_4_BL10
100
AcDbCircle
 62
7
  6
CONTINUOUS
 10
296.5964350055
 20
179.9799663941
 40
49.1
100
AcDbArc
 50
180.0
 51
360.0
  0
ARC
  5
5D6
100
AcDbEntity
  8
AT110_010_00_oben_4_BL10
100
AcDbCircle
 62
9
  6
CONTINUOUS
 10
296.5964350055
 20
179.9799663941
 40
48.8261467228
100
AcDbArc
 50
180.0
 51
360.0
  0
ARC
  5
5D7
100
AcDbEntity
  8
AT110_010_00_oben_4_BL10
100
AcDbCircle
 62
7
  6
CONTINUOUS
 10
296.5964350055
 20
179.9799663941
 40
47.5
100
AcDbArc
 50
180.0
 51
360.0
  0
ARC
  5
5D8
100
AcDbEntity
  8
AT110_010_00_oben_4_BL10
100
AcDbCircle
 62
9
  6
CONTINUOUS
 10
296.5964350055
 20
179.9799663941
 40
48.8261467228
100
AcDbArc
 50
0.0
 51
180.0
  0
ARC
  5
5D9
100
AcDbEntity
  8
AT110_010_00_oben_4_BL10
100
AcDbCircle
 62
7
  6
CONTINUOUS
 10
296.5964350055
 20
179.9799663941
 40
47.5
100
AcDbArc
 50
0.0
 51
5.6109131926
  0
ARC
  5
5DA
100
AcDbEntity
  8
AT110_010_00_oben_4_BL10
100
AcDbCircle
 62
7
  6
CONTINUOUS
 10
296.5964350055
 20
179.9799663941
 40
47.5
100
AcDbArc
 50
5.6109131926
 51
174.3890868074
  0
ARC
  5
5DB
100
AcDbEntity
  8
AT110_010_00_oben_4_BL10
100
AcDbCircle
 62
7
  6
CONTINUOUS
 10
296.5964350055
 20
179.9799663941
 40
47.5
100
AcDbArc
 50
174.3890868074
 51
180.0
  0
ENDBLK
  5
5DC
100
AcDbEntity
  8
0
  6
BYBLOCK
 62
0
100
AcDbBlockEnd
  0
BLOCK
  5
5DD
100
AcDbEntity
  8
AT110_008_01_oben_4_BL11
100
AcDbBlockBegin
  2
AT110_008_01_OBEN_4_BL11
 70
64
 10
296.5964350055
 20
179.9799663941
  3
AT110_008_01_OBEN_4_BL11
  1

  0
ARC
  5
5DE
100
AcDbEntity
  8
AT110_008_01_oben_4_BL11
100
AcDbCircle
 62
7
  6
CONTINUOUS
 10
296.5964350055
 20
179.9799663941
 40
47.5
100
AcDbArc
 50
0.0
 51
180.0
  0
ARC
  5
5DF
100
AcDbEntity
  8
AT110_008_01_oben_4_BL11
100
AcDbCircle
 62
7
  6
CONTINUOUS
 10
296.5964350055
 20
179.9799663941
 40
30.555
100
AcDbArc
 50
19.4868918804
 51
26.4711134938
  0
ARC
  5
5E0
100
AcDbEntity
  8
AT110_008_01_oben_4_BL11
100
AcDbCircle
 62
7
  6
CONTINUOUS
 10
296.5964350055
 20
179.9799663941
 40
30.555
100
AcDbArc
 50
26.4711134938
 51
153.5288862948
  0
ARC
  5
5E1
100
AcDbEntity
  8
AT110_008_01_oben_4_BL11
100
AcDbCircle
 62
7
  6
CONTINUOUS
 10
296.5964350055
 20
179.9799663941
 40
30.555
100
AcDbArc
 50
153.5288862948
 51
160.5131081196
  0
LINE
  5
5E2
100
AcDbEntity
  8
AT110_008_01_oben_4_BL11
100
AcDbLine
 62
7
  6
CONTINUOUS
 10
268.7216531031
 20
186.1031458114
 11
268.2975078058
 21
186.1912799855
  0
LINE
  5
5E3
100
AcDbEntity
  8
AT110_008_01_oben_4_BL11
100
AcDbLine
 62
7
  6
CONTINUOUS
 10
268.2975078058
 20
186.1912799855
 11
268.2041251941
 21
186.2548668315
  0
LWPOLYLINE
  5
5E4
100
AcDbEntity
  8
AT110_008_01_oben_4_BL11
100
AcDbPolyline
 62
7
  6
CONTINUOUS
 90
4
 70
0
 10
268.2041251941
 20
186.2548668315
 10
267.8849120217
 20
186.472228056
 10
267.524259672
 20
186.9515291446
 10
267.2659019468
 20
187.5780872324
  0
LINE
  5
5E5
100
AcDbEntity
  8
AT110_008_01_oben_4_BL11
100
AcDbLine
 62
7
  6
CONTINUOUS
 10
267.2659019468
 20
187.5780872324
 11
267.1954425908
 21
187.8969423995
  0
LINE
  5
5E6
100
AcDbEntity
  8
AT110_008_01_oben_4_BL11
100
AcDbLine
 62
7
  6
CONTINUOUS
 10
267.1954425908
 20
187.8969423995
 11
267.1623940277
 21
188.0464996152
  0
LINE
  5
5E7
100
AcDbEntity
  8
AT110_008_01_oben_4_BL11
100
AcDbLine
 62
7
  6
CONTINUOUS
 10
326.0304755824
 20
188.0465028545
 11
325.9976735112
 21
187.8967409221
  0
LINE
  5
5E8
100
AcDbEntity
  8
AT110_008_01_oben_4_BL11
100
AcDbLine
 62
7
  6
CONTINUOUS
 10
325.9976735112
 20
187.8967409221
 11
325.9307169856
 21
187.5910425837
  0
LWPOLYLINE
  5
5E9
100
AcDbEntity
  8
AT110_008_01_oben_4_BL11
100
AcDbPolyline
 62
7
  6
CONTINUOUS
 90
4
 70
0
 10
325.9307169856
 20
187.5910425837
 10
325.6735111386
 20
186.9603295473
 10
325.3126700844
 20
186.4768174934
 10
324.9883278192
 20
186.2541828866
  0
LINE
  5
5EA
100
AcDbEntity
  8
AT110_008_01_oben_4_BL11
100
AcDbLine
 62
7
  6
CONTINUOUS
 10
324.9883278192
 20
186.2541828866
 11
324.8988715531
 21
186.1927784297
  0
LINE
  5
5EB
100
AcDbEntity
  8
AT110_008_01_oben_4_BL11
100
AcDbLine
 62
7
  6
CONTINUOUS
 10
324.8988715531
 20
186.1927784297
 11
324.4712665526
 21
186.1031475465
  0
LINE
  5
5EC
100
AcDbEntity
  8
AT110_008_01_oben_4_BL11
100
AcDbLine
 62
7
  6
CONTINUOUS
 10
267.1623944163
 20
171.9134299826
 11
267.1951974635
 21
172.0631908922
  0
LINE
  5
5ED
100
AcDbEntity
  8
AT110_008_01_oben_4_BL11
100
AcDbLine
 62
7
  6
CONTINUOUS
 10
267.1951974635
 20
172.0631908922
 11
267.2621683004
 21
172.368943386
  0
LWPOLYLINE
  5
5EE
100
AcDbEntity
  8
AT110_008_01_oben_4_BL11
100
AcDbPolyline
 62
7
  6
CONTINUOUS
 90
4
 70
0
 10
267.2621683004
 20
172.368943386
 10
267.5193778781
 20
172.9996374808
 10
267.8802159796
 20
173.4831309775
 10
268.2045407254
 20
173.7057481003
  0
LINE
  5
5EF
100
AcDbEntity
  8
AT110_008_01_oben_4_BL11
100
AcDbLine
 62
7
  6
CONTINUOUS
 10
268.2045407254
 20
173.7057481003
 11
268.2940073025
 21
173.7671581291
  0
LINE
  5
5F0
100
AcDbEntity
  8
AT110_008_01_oben_4_BL11
100
AcDbLine
 62
7
  6
CONTINUOUS
 10
268.2940073025
 20
173.7671581291
 11
268.7216033528
 21
173.8567852641
  0
LINE
  5
5F1
100
AcDbEntity
  8
AT110_008_01_oben_4_BL11
100
AcDbLine
 62
7
  6
CONTINUOUS
 10
324.4712169828
 20
173.856786996
 11
324.8953610136
 21
173.7686532889
  0
LINE
  5
5F2
100
AcDbEntity
  8
AT110_008_01_oben_4_BL11
100
AcDbLine
 62
7
  6
CONTINUOUS
 10
324.8953610136
 20
173.7686532889
 11
324.9887449491
 21
173.7050657134
  0
LWPOLYLINE
  5
5F3
100
AcDbEntity
  8
AT110_008_01_oben_4_BL11
100
AcDbPolyline
 62
7
  6
CONTINUOUS
 90
4
 70
0
 10
324.9887449491
 20
173.7050657134
 10
325.30795644
 20
173.4877062213
 10
325.6686090067
 20
173.008405982
 10
325.9269674965
 20
172.3818475218
  0
LINE
  5
5F4
100
AcDbEntity
  8
AT110_008_01_oben_4_BL11
100
AcDbLine
 62
7
  6
CONTINUOUS
 10
325.9269674965
 20
172.3818475218
 11
325.9974274278
 21
172.0629902236
  0
LINE
  5
5F5
100
AcDbEntity
  8
AT110_008_01_oben_4_BL11
100
AcDbLine
 62
7
  6
CONTINUOUS
 10
325.9974274278
 20
172.0629902236
 11
326.0304759949
 21
171.9134332115
  0
ARC
  5
5F6
100
AcDbEntity
  8
AT110_008_01_oben_4_BL11
100
AcDbCircle
 62
7
  6
CONTINUOUS
 10
296.5964350055
 20
179.9799663941
 40
30.555
100
AcDbArc
 50
19.4868918804
 51
26.4750906116
  0
ARC
  5
5F7
100
AcDbEntity
  8
AT110_008_01_oben_4_BL11
100
AcDbCircle
 62
7
  6
CONTINUOUS
 10
296.5964350055
 20
179.9799663941
 40
30.555
100
AcDbArc
 50
26.4750906116
 51
153.524909194
  0
ARC
  5
5F8
100
AcDbEntity
  8
AT110_008_01_oben_4_BL11
100
AcDbCircle
 62
7
  6
CONTINUOUS
 10
296.5964350055
 20
179.9799663941
 40
30.555
100
AcDbArc
 50
153.524909194
 51
160.5131081196
  0
ARC
  5
5F9
100
AcDbEntity
  8
AT110_008_01_oben_4_BL11
100
AcDbCircle
 62
7
  6
CONTINUOUS
 10
291.1811736976
 20
-2681.7404356972
 40
2855.6856704175
100
AcDbArc
 50
89.9693683633
 51
90.4508219335
  0
LINE
  5
5FA
100
AcDbEntity
  8
AT110_008_01_oben_4_BL11
100
AcDbLine
 62
7
  6
CONTINUOUS
 10
292.7078886264
 20
173.9448266119
 11
292.8062533708
 21
173.9448504877
  0
SPLINE
  5
5FB
100
AcDbEntity
  8
AT110_008_01_oben_4_BL11
100
AcDbSpline
 62
7
  6
CONTINUOUS
 70
0
 71
3
 72
8
 73
4
 74
0
 42
0.0000001
 43
0.0000001
 44
0.0000000001
 40
0.0
 40
0.0
 40
0.0
 40
0.0
 40
1.0
 40
1.0
 40
1.0
 40
1.0
 10
292.8062533708
 20
173.9448504877
 30
0.0
 10
295.3330421724
 20
173.9454465355
 30
0.0
 10
297.8598311849
 20
173.9454465369
 30
0.0
 10
300.3866199866
 20
173.9448504863
 30
0.0
  0
LINE
  5
5FC
100
AcDbEntity
  8
AT110_008_01_oben_4_BL11
100
AcDbLine
 62
7
  6
CONTINUOUS
 10
300.3866199866
 20
173.9448504863
 11
300.5420758655
 21
173.9448121278
  0
ARC
  5
5FD
100
AcDbEntity
  8
AT110_008_01_oben_4_BL11
100
AcDbCircle
 62
7
  6
CONTINUOUS
 10
302.030219391
 20
-2678.1424998076
 40
2852.0877001723
100
AcDbArc
 50
89.5489813633
 51
90.0298954156
  0
ARC
  5
5FE
100
AcDbEntity
  8
AT110_008_01_oben_4_BL11
100
AcDbCircle
 62
7
  6
CONTINUOUS
 10
302.0116964171
 20
3041.700352858
 40
2855.6856547897
100
AcDbArc
 50
269.969368369
 51
270.4508219309
  0
LINE
  5
5FF
100
AcDbEntity
  8
AT110_008_01_oben_4_BL11
100
AcDbLine
 62
7
  6
CONTINUOUS
 10
300.4849817815
 20
186.0151061765
 11
300.3866166404
 21
186.0150823005
  0
SPLINE
  5
600
100
AcDbEntity
  8
AT110_008_01_oben_4_BL11
100
AcDbSpline
 62
7
  6
CONTINUOUS
 70
0
 71
3
 72
8
 73
4
 74
0
 42
0.0000001
 43
0.0000001
 44
0.0000000001
 40
0.0
 40
0.0
 40
0.0
 40
0.0
 40
1.0
 40
1.0
 40
1.0
 40
1.0
 10
300.3866166404
 20
186.0150823005
 30
0.0
 10
297.8598278387
 20
186.0144862528
 30
0.0
 10
295.3330388262
 20
186.0144862514
 30
0.0
 10
292.8062500245
 20
186.015082302
 30
0.0
  0
LINE
  5
601
100
AcDbEntity
  8
AT110_008_01_oben_4_BL11
100
AcDbLine
 62
7
  6
CONTINUOUS
 10
292.8062500245
 20
186.015082302
 11
292.6507942777
 21
186.0151206604
  0
ARC
  5
602
100
AcDbEntity
  8
AT110_008_01_oben_4_BL11
100
AcDbCircle
 62
7
  6
CONTINUOUS
 10
291.1626506843
 20
3038.1024489188
 40
2852.0877164953
100
AcDbArc
 50
269.5489813671
 51
270.0298954168
  0
SPLINE
  5
603
100
AcDbEntity
  8
AT110_008_01_oben_4_BL11
100
AcDbSpline
 62
7
  6
CONTINUOUS
 70
0
 71
3
 72
9
 73
5
 74
0
 42
0.0000001
 43
0.0000001
 44
0.0000000001
 40
0.0
 40
0.0
 40
0.0
 40
0.0
 40
0.5073238275
 40
1.0
 40
1.0
 40
1.0
 40
1.0
 10
267.7916901003
 20
169.78708567
 30
0.0
 10
267.6768367287
 20
170.1213589483
 30
0.0
 10
267.4702710748
 20
170.7869993286
 30
0.0
 10
267.2822506625
 20
171.4579437231
 30
0.0
 10
267.1959910191
 20
171.7901775059
 30
0.0
  0
ARC
  5
604
100
AcDbEntity
  8
AT110_008_01_oben_4_BL11
100
AcDbCircle
 62
7
  6
CONTINUOUS
 10
295.1813075631
 20
179.0562298635
 40
28.9132056149
100
AcDbArc
 50
194.2909480243
 51
194.5547881508
  0
ARC
  5
605
100
AcDbEntity
  8
AT110_008_01_oben_4_BL11
100
AcDbCircle
 62
7
  6
CONTINUOUS
 10
294.8403842627
 20
178.9695802261
 40
28.5614431653
100
AcDbArc
 50
193.9603959488
 51
194.2913237241
  0
ARC
  5
606
100
AcDbEntity
  8
AT110_008_01_oben_4_BL11
100
AcDbCircle
 62
7
  6
CONTINUOUS
 10
298.3541226329
 20
178.9691719677
 40
28.5597561525
100
AcDbArc
 50
345.7086668294
 51
346.0395944602
  0
ARC
  5
607
100
AcDbEntity
  8
AT110_008_01_oben_4_BL11
100
AcDbCircle
 62
7
  6
CONTINUOUS
 10
298.0094593502
 20
179.0567743896
 40
28.9153780406
100
AcDbArc
 50
345.4419582713
 51
345.7090424672
  0
SPLINE
  5
608
100
AcDbEntity
  8
AT110_008_01_oben_4_BL11
100
AcDbSpline
 62
7
  6
CONTINUOUS
 70
0
 71
3
 72
9
 73
5
 74
0
 42
0.0000001
 43
0.0000001
 44
0.0000000001
 40
0.0
 40
0.0
 40
0.0
 40
0.0
 40
0.4926799984
 40
1.0
 40
1.0
 40
1.0
 40
1.0
 10
325.9964659183
 20
171.7885868171
 30
0.0
 10
325.910254598
 20
171.4566165605
 30
0.0
 10
325.7223555765
 20
170.786207283
 30
0.0
 10
325.5159411639
 20
170.1210940758
 30
0.0
 10
325.4011797367
 20
169.7870858681
 30
0.0
  0
SPLINE
  5
609
100
AcDbEntity
  8
AT110_008_01_oben_4_BL11
100
AcDbSpline
 62
7
  6
CONTINUOUS
 70
0
 71
3
 72
9
 73
5
 74
0
 42
0.0000001
 43
0.0000001
 44
0.0000000001
 40
0.0
 40
0.0
 40
0.0
 40
0.0
 40
0.5073437098
 40
1.0
 40
1.0
 40
1.0
 40
1.0
 10
325.4011784449
 20
190.1728453001
 30
0.0
 10
325.5160350842
 20
189.8385796987
 30
0.0
 10
325.7225840806
 20
189.1729752992
 30
0.0
 10
325.910596907
 20
188.5020699883
 30
0.0
 10
325.9968495168
 20
188.1698688064
 30
0.0
  0
ARC
  5
60A
100
AcDbEntity
  8
AT110_008_01_oben_4_BL11
100
AcDbCircle
 62
7
  6
CONTINUOUS
 10
298.0114166354
 20
180.9036655844
 40
28.9133561321
100
AcDbArc
 50
14.2909453232
 51
14.5550195793
  0
ARC
  5
60B
100
AcDbEntity
  8
AT110_008_01_oben_4_BL11
100
AcDbCircle
 62
7
  6
CONTINUOUS
 10
298.3525000527
 20
180.9903560705
 40
28.5614284371
100
AcDbArc
 50
13.9603956461
 51
14.2913208686
  0
ARC
  5
60C
100
AcDbEntity
  8
AT110_008_01_oben_4_BL11
100
AcDbCircle
 62
7
  6
CONTINUOUS
 10
294.8387338513
 20
180.9907641388
 40
28.5597422246
100
AcDbArc
 50
165.7086691929
 51
166.0395946861
  0
ARC
  5
60D
100
AcDbEntity
  8
AT110_008_01_oben_4_BL11
100
AcDbCircle
 62
7
  6
CONTINUOUS
 10
295.1835421413
 20
180.9031247233
 40
28.9155137645
100
AcDbArc
 50
165.4417534916
 51
165.7090446942
  0
SPLINE
  5
60E
100
AcDbEntity
  8
AT110_008_01_oben_4_BL11
100
AcDbSpline
 62
7
  6
CONTINUOUS
 70
0
 71
3
 72
9
 73
5
 74
0
 42
0.0000001
 43
0.0000001
 44
0.0000000001
 40
0.0
 40
0.0
 40
0.0
 40
0.0
 40
0.492662411
 40
1.0
 40
1.0
 40
1.0
 40
1.0
 10
267.1964301844
 20
188.1714464396
 30
0.0
 10
267.2826352804
 20
188.5033878578
 30
0.0
 10
267.4705275823
 20
189.1737625438
 30
0.0
 10
267.6769272618
 20
189.8388438999
 30
0.0
 10
267.7916915662
 20
190.1728453001
 30
0.0
  0
ARC
  5
60F
100
AcDbEntity
  8
AT110_008_01_oben_4_BL11
100
AcDbCircle
 62
7
  6
CONTINUOUS
 10
296.5964350055
 20
179.9799663941
 40
30.555
100
AcDbArc
 50
199.4868915567
 51
340.5131083807
  0
ARC
  5
610
100
AcDbEntity
  8
AT110_008_01_oben_4_BL11
100
AcDbCircle
 62
7
  6
CONTINUOUS
 10
296.5964350055
 20
179.9799663941
 40
47.5
100
AcDbArc
 50
180.0
 51
360.0
  0
SPLINE
  5
611
100
AcDbEntity
  8
AT110_008_01_oben_4_BL11
100
AcDbSpline
 62
9
  6
CONTINUOUS
 70
0
 71
3
 72
10
 73
6
 74
0
 42
0.0000001
 43
0.0000001
 44
0.0000000001
 40
0.0
 40
0.0
 40
0.0
 40
0.0
 40
0.6084144411
 40
0.8336257713
 40
1.0
 40
1.0
 40
1.0
 40
1.0
 10
325.8322436324
 20
185.7467602118
 30
0.0
 10
325.6986545712
 20
185.8457860748
 30
0.0
 10
325.5059879876
 20
185.9723793962
 30
0.0
 10
325.2504170111
 20
186.0709026006
 30
0.0
 10
325.1442384694
 20
186.0920277709
 30
0.0
 10
325.0987820292
 20
186.0932449573
 30
0.0
  0
SPLINE
  5
612
100
AcDbEntity
  8
AT110_008_01_oben_4_BL11
100
AcDbSpline
 62
9
  6
CONTINUOUS
 70
0
 71
3
 72
9
 73
5
 74
0
 42
0.0000001
 43
0.0000001
 44
0.0000000001
 40
0.0
 40
0.0
 40
0.0
 40
0.0
 40
0.5332576268
 40
1.0
 40
1.0
 40
1.0
 40
1.0
 10
326.9679581802
 20
183.3234052675
 30
0.0
 10
326.9392542858
 20
183.8090677636
 30
0.0
 10
326.7341527726
 20
184.7188382041
 30
0.0
 10
326.1740845454
 20
185.4928455494
 30
0.0
 10
325.8322437696
 20
185.7467598132
 30
0.0
  0
SPLINE
  5
613
100
AcDbEntity
  8
AT110_008_01_oben_4_BL11
100
AcDbSpline
 62
9
  6
CONTINUOUS
 70
0
 71
3
 72
9
 73
5
 74
0
 42
0.0000001
 43
0.0000001
 44
0.0000000001
 40
0.0
 40
0.0
 40
0.0
 40
0.0
 40
0.5133927148
 40
1.0
 40
1.0
 40
1.0
 40
1.0
 10
325.8322437696
 20
185.7467598132
 30
0.0
 10
325.688656264
 20
185.8534144849
 30
0.0
 10
325.378957635
 20
186.0253604116
 30
0.0
 10
325.0289025095
 20
186.0896816355
 30
0.0
 10
324.8593762784
 20
186.0911685101
 30
0.0
  0
LINE
  5
614
100
AcDbEntity
  8
AT110_008_01_oben_4_BL11
100
AcDbLine
 62
9
  6
CONTINUOUS
 10
300.3866094521
 20
183.0060327623
 11
300.3866094521
 21
186.0059185315
  0
LINE
  5
615
100
AcDbEntity
  8
AT110_008_01_oben_4_BL11
100
AcDbLine
 62
9
  6
CONTINUOUS
 10
292.806260559
 20
183.0060327623
 11
292.806260559
 21
186.0059185315
  0
SPLINE
  5
616
100
AcDbEntity
  8
AT110_008_01_oben_4_BL11
100
AcDbSpline
 62
9
  6
CONTINUOUS
 70
0
 71
3
 72
10
 73
6
 74
0
 42
0.0000001
 43
0.0000001
 44
0.0000000001
 40
0.0
 40
0.0
 40
0.0
 40
0.0
 40
0.1663725238
 40
0.3915840509
 40
1.0
 40
1.0
 40
1.0
 40
1.0
 10
268.0940887779
 20
186.0932449742
 30
0.0
 10
268.0486303472
 20
186.0920276998
 30
0.0
 10
267.9424465266
 20
186.070900962
 30
0.0
 10
267.6868625073
 20
185.972370357
 30
0.0
 10
267.4941866111
 20
185.8457674533
 30
0.0
 10
267.3605913455
 20
185.7467341738
 30
0.0
  0
SPLINE
  5
617
100
AcDbEntity
  8
AT110_008_01_oben_4_BL11
100
AcDbSpline
 62
9
  6
CONTINUOUS
 70
0
 71
3
 72
9
 73
5
 74
0
 42
0.0000001
 43
0.0000001
 44
0.0000000001
 40
0.0
 40
0.0
 40
0.0
 40
0.0
 40
0.5133936032
 40
1.0
 40
1.0
 40
1.0
 40
1.0
 10
267.3605913455
 20
185.7467341738
 30
0.0
 10
267.5041827235
 20
185.8533964627
 30
0.0
 10
267.8138912279
 20
186.0253552912
 30
0.0
 10
268.1639608528
 20
186.0896816201
 30
0.0
 10
268.3334937326
 20
186.0911685101
 30
0.0
  0
SPLINE
  5
618
100
AcDbEntity
  8
AT110_008_01_oben_4_BL11
100
AcDbSpline
 62
9
  6
CONTINUOUS
 70
0
 71
3
 72
9
 73
5
 74
0
 42
0.0000001
 43
0.0000001
 44
0.0000000001
 40
0.0
 40
0.0
 40
0.0
 40
0.0
 40
0.5332566285
 40
1.0
 40
1.0
 40
1.0
 40
1.0
 10
266.2249114437
 20
183.3234053102
 30
0.0
 10
266.2536148528
 20
183.8090595057
 30
0.0
 10
266.4587110706
 20
184.7188158859
 30
0.0
 10
267.0187604431
 20
185.4928159583
 30
0.0
 10
267.3605913455
 20
185.7467341738
 30
0.0
  0
SPLINE
  5
619
100
AcDbEntity
  8
AT110_008_01_oben_4_BL11
100
AcDbSpline
 62
9
  6
CONTINUOUS
 70
0
 71
3
 72
9
 73
5
 74
0
 42
0.0000001
 43
0.0000001
 44
0.0000000001
 40
0.0
 40
0.0
 40
0.0
 40
0.0
 40
0.4766027143
 40
1.0
 40
1.0
 40
1.0
 40
1.0
 10
267.3605913455
 20
185.7467341738
 30
0.0
 10
266.9908365883
 20
185.472637438
 30
0.0
 10
266.3199593395
 20
184.7482806811
 30
0.0
 10
265.9481974956
 20
183.8227946161
 30
0.0
 10
265.8686014571
 20
183.3236411248
 30
0.0
  0
ARC
  5
61A
100
AcDbEntity
  8
AT110_008_01_oben_4_BL11
100
AcDbCircle
 62
9
  6
CONTINUOUS
 10
328.42124833
 20
-53.8980448176
 40
227.7889638295
100
AcDbArc
 50
90.8357259829
 51
90.9911560693
  0
LINE
  5
61B
100
AcDbEntity
  8
AT110_008_01_oben_4_BL11
100
AcDbLine
 62
9
  6
CONTINUOUS
 10
324.8593762784
 20
173.8687642782
 11
325.0987975839
 21
173.8666876665
  0
ARC
  5
61C
100
AcDbEntity
  8
AT110_008_01_oben_4_BL11
100
AcDbCircle
 62
9
  6
CONTINUOUS
 10
302.2180766212
 20
-2826.9314940296
 40
3000.8860671666
100
AcDbArc
 50
89.5747848348
 51
90.0349681205
  0
LINE
  5
61D
100
AcDbEntity
  8
AT110_008_01_oben_4_BL11
100
AcDbLine
 62
9
  6
CONTINUOUS
 10
324.4886620345
 20
173.8719332445
 11
324.8593762784
 21
173.8687642782
  0
LINE
  5
61E
100
AcDbEntity
  8
AT110_008_01_oben_4_BL11
100
AcDbLine
 62
9
  6
CONTINUOUS
 10
292.806260559
 20
173.9540142567
 11
300.3866094521
 21
173.9540142567
  0
LINE
  5
61F
100
AcDbEntity
  8
AT110_008_01_oben_4_BL11
100
AcDbLine
 62
9
  6
CONTINUOUS
 10
268.3334937326
 20
173.8687642782
 11
268.7041273601
 21
173.8719325662
  0
ARC
  5
620
100
AcDbEntity
  8
AT110_008_01_oben_4_BL11
100
AcDbCircle
 62
9
  6
CONTINUOUS
 10
290.9747858433
 20
-2826.9263521078
 40
3000.8809252504
100
AcDbArc
 50
89.9650316755
 51
90.4252172889
  0
LINE
  5
621
100
AcDbEntity
  8
AT110_008_01_oben_4_BL11
100
AcDbLine
 62
9
  6
CONTINUOUS
 10
268.0940714903
 20
173.8666876819
 11
268.3334937326
 21
173.8687642782
  0
ARC
  5
622
100
AcDbEntity
  8
AT110_008_01_oben_4_BL11
100
AcDbCircle
 62
9
  6
CONTINUOUS
 10
264.4979407932
 20
-71.0661847316
 40
244.9592703792
100
AcDbArc
 50
89.0143010808
 51
89.1588376594
  0
ARC
  5
623
100
AcDbEntity
  8
AT110_008_01_oben_4_BL11
100
AcDbCircle
 62
9
  6
CONTINUOUS
 10
264.7716085143
 20
413.8588773712
 40
227.7898636911
100
AcDbArc
 50
270.8357259935
 51
270.9911554971
  0
LINE
  5
624
100
AcDbEntity
  8
AT110_008_01_oben_4_BL11
100
AcDbLine
 62
9
  6
CONTINUOUS
 10
268.3334937326
 20
186.0911685101
 11
268.0940724276
 21
186.0932451218
  0
ARC
  5
625
100
AcDbEntity
  8
AT110_008_01_oben_4_BL11
100
AcDbCircle
 62
9
  6
CONTINUOUS
 10
290.9747934142
 20
3186.8914384092
 40
3000.886078758
100
AcDbArc
 50
269.5747848383
 51
270.0349681199
  0
LINE
  5
626
100
AcDbEntity
  8
AT110_008_01_oben_4_BL11
100
AcDbLine
 62
9
  6
CONTINUOUS
 10
268.7042080994
 20
186.0879995427
 11
268.3334937326
 21
186.0911685101
  0
LINE
  5
627
100
AcDbEntity
  8
AT110_008_01_oben_4_BL11
100
AcDbLine
 62
9
  6
CONTINUOUS
 10
300.3866094521
 20
186.0059185315
 11
292.806260559
 21
186.0059185315
  0
LINE
  5
628
100
AcDbEntity
  8
AT110_008_01_oben_4_BL11
100
AcDbLine
 62
9
  6
CONTINUOUS
 10
324.8593762784
 20
186.0911685101
 11
324.4887425057
 21
186.0880002208
  0
ARC
  5
629
100
AcDbEntity
  8
AT110_008_01_oben_4_BL11
100
AcDbCircle
 62
9
  6
CONTINUOUS
 10
302.2180841391
 20
3186.8862985996
 40
3000.8809389539
100
AcDbArc
 50
269.9650316762
 51
270.4252172848
  0
LINE
  5
62A
100
AcDbEntity
  8
AT110_008_01_oben_4_BL11
100
AcDbLine
 62
9
  6
CONTINUOUS
 10
325.0987985264
 20
186.0932451062
 11
324.8593762784
 21
186.0911685101
  0
ARC
  5
62B
100
AcDbEntity
  8
AT110_008_01_oben_4_BL11
100
AcDbCircle
 62
9
  6
CONTINUOUS
 10
328.6949616783
 20
431.0282471079
 40
244.9614002143
100
AcDbArc
 50
269.014302024
 51
269.1588373815
  0
LINE
  5
62C
100
AcDbEntity
  8
AT110_008_01_oben_4_BL11
100
AcDbLine
 62
9
  6
CONTINUOUS
 10
268.7116952004
 20
186.1031573403
 11
268.7216531031
 21
186.1031458114
  0
LINE
  5
62D
100
AcDbEntity
  8
AT110_008_01_oben_4_BL11
100
AcDbLine
 62
9
  6
CONTINUOUS
 10
324.4811749192
 20
186.1030976121
 11
324.4712671003
 21
186.1030864381
  0
LINE
  5
62E
100
AcDbEntity
  8
AT110_008_01_oben_4_BL11
100
AcDbLine
 62
9
  6
CONTINUOUS
 10
268.7116950919
 20
173.8568351761
 11
268.7216028053
 21
173.8568463491
  0
LINE
  5
62F
100
AcDbEntity
  8
AT110_008_01_oben_4_BL11
100
AcDbLine
 62
9
  6
CONTINUOUS
 10
324.4811748107
 20
173.8567754679
 11
324.4712169828
 21
173.856786996
  0
SPLINE
  5
630
100
AcDbEntity
  8
AT110_008_01_oben_4_BL11
100
AcDbSpline
 62
9
  6
CONTINUOUS
 70
0
 71
3
 72
11
 73
7
 74
0
 42
0.0000001
 43
0.0000001
 44
0.0000000001
 40
0.0
 40
0.0
 40
0.0
 40
0.0
 40
0.2348634639
 40
0.4670311537
 40
0.7182525012
 40
1.0
 40
1.0
 40
1.0
 40
1.0
 10
324.4809701158
 20
173.8568371314
 30
0.0
 10
324.6830780924
 20
173.8545690757
 30
0.0
 10
325.0911294313
 20
173.7550347238
 30
0.0
 10
325.5745074694
 20
173.343687858
 30
0.0
 10
325.9065477834
 20
172.764627484
 30
0.0
 10
326.0287848502
 20
172.317981364
 30
0.0
 10
326.0703000031
 20
172.0790933415
 30
0.0
  0
SPLINE
  5
631
100
AcDbEntity
  8
AT110_008_01_oben_4_BL11
100
AcDbSpline
 62
9
  6
CONTINUOUS
 70
0
 71
3
 72
12
 73
8
 74
0
 42
0.0000001
 43
0.0000001
 44
0.0000000001
 40
0.0
 40
0.0
 40
0.0
 40
0.0
 40
0.2646777617
 40
0.5239786165
 40
0.7679367404
 40
0.8850576764
 40
1.0
 40
1.0
 40
1.0
 40
1.0
 10
327.58941826
 20
170.0704323513
 30
0.0
 10
327.6925795351
 20
170.5131752026
 30
0.0
 10
327.7198002155
 20
171.4401739228
 30
0.0
 10
327.2440868526
 20
172.7065270547
 30
0.0
 10
326.4562488113
 20
173.4866344778
 30
0.0
 10
325.6963974947
 20
173.8093401123
 30
0.0
 10
325.2961224582
 20
173.865690237
 30
0.0
 10
325.0987036108
 20
173.8667085167
 30
0.0
  0
LINE
  5
632
100
AcDbEntity
  8
AT110_008_01_oben_4_BL11
100
AcDbLine
 62
9
  6
CONTINUOUS
 10
331.5306606992
 20
176.178306565
 11
327.3242287748
 21
176.6360646293
  0
ARC
  5
633
100
AcDbEntity
  8
AT110_008_01_oben_4_BL11
100
AcDbCircle
 62
9
  6
CONTINUOUS
 10
296.5964350055
 20
179.9799663941
 40
30.9092054937
100
AcDbArc
 50
353.7897439183
 51
6.210256693
  0
LINE
  5
634
100
AcDbEntity
  8
AT110_008_01_oben_4_BL11
100
AcDbLine
 62
9
  6
CONTINUOUS
 10
331.5306606944
 20
183.7816262233
 11
327.3242286856
 21
183.3238681582
  0
SPLINE
  5
635
100
AcDbEntity
  8
AT110_008_01_oben_4_BL11
100
AcDbSpline
 62
9
  6
CONTINUOUS
 70
0
 71
3
 72
12
 73
8
 74
0
 42
0.0000001
 43
0.0000001
 44
0.0000000001
 40
0.0
 40
0.0
 40
0.0
 40
0.0
 40
0.2646776822
 40
0.5239779787
 40
0.767936014
 40
0.8850572465
 40
1.0
 40
1.0
 40
1.0
 40
1.0
 10
327.5894477016
 20
189.8895098496
 30
0.0
 10
327.692606932
 20
189.4467671465
 30
0.0
 10
327.7198222394
 20
188.5197696025
 30
0.0
 10
327.2440938779
 20
187.2534239016
 30
0.0
 10
326.4562486885
 20
186.4733284395
 30
0.0
 10
325.6963977189
 20
186.1506232174
 30
0.0
 10
325.2961229785
 20
186.0942685302
 30
0.0
 10
325.0987036155
 20
186.0932467849
 30
0.0
  0
SPLINE
  5
636
100
AcDbEntity
  8
AT110_008_01_oben_4_BL11
100
AcDbSpline
 62
9
  6
CONTINUOUS
 70
0
 71
3
 72
11
 73
7
 74
0
 42
0.0000001
 43
0.0000001
 44
0.0000000001
 40
0.0
 40
0.0
 40
0.0
 40
0.0
 40
0.2817468917
 40
0.5329659867
 40
0.7651339221
 40
1.0
 40
1.0
 40
1.0
 40
1.0
 10
326.0703015025
 20
187.8808333513
 30
0.0
 10
326.0287858744
 20
187.6419460662
 30
0.0
 10
325.9065464492
 20
187.1953033392
 30
0.0
 10
325.5745077652
 20
186.6162458907
 30
0.0
 10
325.0911307317
 20
186.2048966507
 30
0.0
 10
324.6830764228
 20
186.1053640646
 30
0.0
 10
324.4809663033
 20
186.103095609
 30
0.0
  0
SPLINE
  5
637
100
AcDbEntity
  8
AT110_008_01_oben_4_BL11
100
AcDbSpline
 62
9
  6
CONTINUOUS
 70
0
 71
3
 72
11
 73
7
 74
0
 42
0.0000001
 43
0.0000001
 44
0.0000000001
 40
0.0
 40
0.0
 40
0.0
 40
0.0
 40
0.2348634979
 40
0.4670312133
 40
0.7182525319
 40
1.0
 40
1.0
 40
1.0
 40
1.0
 10
268.7119000021
 20
186.1030956555
 30
0.0
 10
268.5097919979
 20
186.1053637198
 30
0.0
 10
268.101740598
 20
186.2048980171
 30
0.0
 10
267.6183625389
 20
186.6162449178
 30
0.0
 10
267.2863222552
 20
187.1953052581
 30
0.0
 10
267.164085155
 20
187.6419513073
 30
0.0
 10
267.1225699704
 20
187.8808392956
 30
0.0
  0
SPLINE
  5
638
100
AcDbEntity
  8
AT110_008_01_oben_4_BL11
100
AcDbSpline
 62
9
  6
CONTINUOUS
 70
0
 71
3
 72
12
 73
8
 74
0
 42
0.0000001
 43
0.0000001
 44
0.0000000001
 40
0.0
 40
0.0
 40
0.0
 40
0.0
 40
0.2646777617
 40
0.5239786165
 40
0.7679367404
 40
0.8850576764
 40
1.0
 40
1.0
 40
1.0
 40
1.0
 10
265.6034517512
 20
189.889500437
 30
0.0
 10
265.5002904761
 20
189.4467575858
 30
0.0
 10
265.4730697958
 20
188.5197588655
 30
0.0
 10
265.9487831586
 20
187.2534057336
 30
0.0
 10
266.7366212
 20
186.4732983105
 30
0.0
 10
267.4964725166
 20
186.150592676
 30
0.0
 10
267.8967475532
 20
186.0942425513
 30
0.0
 10
268.0941664006
 20
186.0932242716
 30
0.0
  0
LINE
  5
639
100
AcDbEntity
  8
AT110_008_01_oben_4_BL11
100
AcDbLine
 62
9
  6
CONTINUOUS
 10
261.6622093161
 20
183.7816262249
 11
265.8686412715
 21
183.3238681601
  0
ARC
  5
63A
100
AcDbEntity
  8
AT110_008_01_oben_4_BL11
100
AcDbCircle
 62
9
  6
CONTINUOUS
 10
296.5964350055
 20
179.9799663941
 40
30.9092054937
100
AcDbArc
 50
173.789743879
 51
186.2102566264
  0
LINE
  5
63B
100
AcDbEntity
  8
AT110_008_01_oben_4_BL11
100
AcDbLine
 62
9
  6
CONTINUOUS
 10
261.6622093145
 20
176.1783065654
 11
265.868641266
 21
176.6360646297
  0
SPLINE
  5
63C
100
AcDbEntity
  8
AT110_008_01_oben_4_BL11
100
AcDbSpline
 62
9
  6
CONTINUOUS
 70
0
 71
3
 72
11
 73
7
 74
0
 42
0.0000001
 43
0.0000001
 44
0.0000000001
 40
0.0
 40
0.0
 40
0.0
 40
0.0
 40
0.281746924
 40
0.5329660556
 40
0.7651339615
 40
1.0
 40
1.0
 40
1.0
 40
1.0
 10
267.1225685561
 20
172.0790992456
 30
0.0
 10
267.1640841467
 20
172.3179865688
 30
0.0
 10
267.2863235189
 20
172.7646293841
 30
0.0
 10
267.6183622425
 20
173.3436868742
 30
0.0
 10
268.1017392525
 20
173.7550360801
 30
0.0
 10
268.509793493
 20
173.8545687322
 30
0.0
 10
268.7119035816
 20
173.8568371776
 30
0.0
  0
SPLINE
  5
63D
100
AcDbEntity
  8
AT110_008_01_oben_4_BL11
100
AcDbSpline
 62
9
  6
CONTINUOUS
 70
0
 71
3
 72
12
 73
8
 74
0
 42
0.0000001
 43
0.0000001
 44
0.0000000001
 40
0.0
 40
0.0
 40
0.0
 40
0.0
 40
0.2646776822
 40
0.5239779787
 40
0.767936014
 40
0.8850572465
 40
1.0
 40
1.0
 40
1.0
 40
1.0
 10
265.6034223146
 20
170.0704229381
 30
0.0
 10
265.500263084
 20
170.5131656412
 30
0.0
 10
265.4730477765
 20
171.4401631854
 30
0.0
 10
265.9487761382
 20
172.7065088865
 30
0.0
 10
266.7366213279
 20
173.4866043486
 30
0.0
 10
267.4964722978
 20
173.8093095707
 30
0.0
 10
267.8967470384
 20
173.8656642579
 30
0.0
 10
268.0941664015
 20
173.8666860033
 30
0.0
  0
ARC
  5
63E
100
AcDbEntity
  8
AT110_008_01_oben_4_BL11
100
AcDbCircle
 62
9
  6
CONTINUOUS
 10
296.5964350055
 20
179.9799663941
 40
45.606120148
100
AcDbArc
 50
0.0
 51
180.0
  0
SPLINE
  5
63F
100
AcDbEntity
  8
AT110_008_01_oben_4_BL11
100
AcDbSpline
 62
9
  6
CONTINUOUS
 70
0
 71
3
 72
13
 73
9
 74
0
 42
0.0000001
 43
0.0000001
 44
0.0000000001
 40
0.0
 40
0.0
 40
0.0
 40
0.0
 40
0.085023552
 40
0.1903864366
 40
0.3106687321
 40
0.4405994129
 40
0.7157661676
 40
1.0
 40
1.0
 40
1.0
 40
1.0
 10
265.6034226541
 20
189.8895097416
 30
0.0
 10
265.3876383719
 20
189.8674990054
 30
0.0
 10
264.9198949939
 20
189.6942107095
 30
0.0
 10
264.2695157212
 20
189.2354608807
 30
0.0
 10
263.6278395502
 20
188.5880885905
 30
0.0
 10
262.8278503123
 20
187.5085956111
 30
0.0
 10
262.0572413052
 20
185.9081947672
 30
0.0
 10
261.7407566011
 20
184.5024695636
 30
0.0
 10
261.6622093153
 20
183.7816262228
 30
0.0
  0
ARC
  5
640
100
AcDbEntity
  8
AT110_008_01_oben_4_BL11
100
AcDbCircle
 62
9
  6
CONTINUOUS
 10
296.5964350055
 20
179.9799663941
 40
35.1404319664
100
AcDbArc
 50
0.0
 51
6.2106794953
  0
SPLINE
  5
641
100
AcDbEntity
  8
AT110_008_01_oben_4_BL11
100
AcDbSpline
 62
9
  6
CONTINUOUS
 70
0
 71
3
 72
13
 73
9
 74
0
 42
0.0000001
 43
0.0000001
 44
0.0000000001
 40
0.0
 40
0.0
 40
0.0
 40
0.0
 40
0.2842337453
 40
0.5594004498
 40
0.6893312187
 40
0.8096136127
 40
0.9149764849
 40
1.0
 40
1.0
 40
1.0
 40
1.0
 10
331.5306606952
 20
183.7816262212
 30
0.0
 10
331.4521135454
 20
184.5024693522
 30
0.0
 10
331.1356287233
 20
185.9081941527
 30
0.0
 10
330.3650201871
 20
187.5085950772
 30
0.0
 10
329.5650306863
 20
188.5880882845
 30
0.0
 10
328.9233542022
 20
189.2354609557
 30
0.0
 10
328.2729747948
 20
189.6942106182
 30
0.0
 10
327.8052315807
 20
189.8674993124
 30
0.0
 10
327.5894473621
 20
189.8895097411
 30
0.0
  0
SPLINE
  5
642
100
AcDbEntity
  8
AT110_008_01_oben_4_BL11
100
AcDbSpline
 62
9
  6
CONTINUOUS
 70
0
 71
3
 72
18
 73
14
 74
0
 42
0.0000001
 43
0.0000001
 44
0.0000000001
 40
0.0
 40
0.0
 40
0.0
 40
0.0
 40
0.223936589
 40
0.4220129066
 40
0.5928596101
 40
0.7352242776
 40
0.8479407023
 40
0.8928629962
 40
0.9300214071
 40
0.9593329178
 40
0.9807313322
 40
0.9942165455
 40
1.0
 40
1.0
 40
1.0
 40
1.0
 10
327.5894473621
 20
189.8895097411
 30
0.0
 10
327.4254426808
 20
189.9062887145
 30
0.0
 10
327.1164534784
 20
189.9387176648
 30
0.0
 10
326.6826610066
 20
189.9868888861
 30
0.0
 10
326.3088297864
 20
190.0309654883
 30
0.0
 10
325.9977608331
 20
190.070257335
 30
0.0
 10
325.7788684222
 20
190.1002242083
 30
0.0
 10
325.637170867
 20
190.1216653166
 30
0.0
 10
325.5560054937
 20
190.1348069842
 30
0.0
 10
325.4929491364
 20
190.1465277331
 30
0.0
 10
325.4452903764
 20
190.1558287551
 30
0.0
 10
325.4189974046
 20
190.1643978109
 30
0.0
 10
325.4026022507
 20
190.1688326748
 30
0.0
 10
325.4011784449
 20
190.1728453001
 30
0.0
  0
SPLINE
  5
643
100
AcDbEntity
  8
AT110_008_01_oben_4_BL11
100
AcDbSpline
 62
9
  6
CONTINUOUS
 70
0
 71
3
 72
18
 73
14
 74
0
 42
0.0000001
 43
0.0000001
 44
0.0000000001
 40
0.0
 40
0.0
 40
0.0
 40
0.0
 40
0.005782416
 40
0.0192662645
 40
0.0406645064
 40
0.0699750594
 40
0.1071316934
 40
0.1520536381
 40
0.2647688599
 40
0.4071344673
 40
0.5779828584
 40
0.7760620086
 40
1.0
 40
1.0
 40
1.0
 40
1.0
 10
267.7916915662
 20
190.1728453001
 30
0.0
 10
267.7902684856
 20
190.1688332286
 30
0.0
 10
267.7738751194
 20
190.1643981386
 30
0.0
 10
267.747584133
 20
190.1558300735
 30
0.0
 10
267.6999270171
 20
190.1465290456
 30
0.0
 10
267.6368728905
 20
190.134808492
 30
0.0
 10
267.5557097309
 20
190.1216671369
 30
0.0
 10
267.4140146875
 20
190.1002259046
 30
0.0
 10
267.1951225877
 20
190.0702599117
 30
0.0
 10
266.8840526911
 20
190.0309671874
 30
0.0
 10
266.510217439
 20
189.9868903056
 30
0.0
 10
266.0764206541
 20
189.9387183517
 30
0.0
 10
265.7674284112
 20
189.9062883897
 30
0.0
 10
265.6034226541
 20
189.8895097416
 30
0.0
  0
ARC
  5
644
100
AcDbEntity
  8
AT110_008_01_oben_4_BL11
100
AcDbCircle
 62
9
  6
CONTINUOUS
 10
296.5964350055
 20
179.9799663941
 40
35.1404322007
100
AcDbArc
 50
173.7893205022
 51
180.0
  0
SPLINE
  5
645
100
AcDbEntity
  8
AT110_008_01_oben_4_BL11
100
AcDbSpline
 62
9
  6
CONTINUOUS
 70
0
 71
3
 72
9
 73
5
 74
0
 42
0.0000001
 43
0.0000001
 44
0.0000000001
 40
0.0
 40
0.0
 40
0.0
 40
0.0
 40
0.5233985907
 40
1.0
 40
1.0
 40
1.0
 40
1.0
 10
265.8686014916
 20
176.6362913914
 30
0.0
 10
265.9481987658
 20
176.1371292612
 30
0.0
 10
266.3199704976
 20
175.2116303577
 30
0.0
 10
266.9908636299
 20
174.4872673967
 30
0.0
 10
267.3606265967
 20
174.213172437
 30
0.0
  0
SPLINE
  5
646
100
AcDbEntity
  8
AT110_008_01_oben_4_BL11
100
AcDbSpline
 62
9
  6
CONTINUOUS
 70
0
 71
3
 72
10
 73
6
 74
0
 42
0.0000001
 43
0.0000001
 44
0.0000000001
 40
0.0
 40
0.0
 40
0.0
 40
0.0
 40
0.6084143632
 40
0.8336257367
 40
1.0
 40
1.0
 40
1.0
 40
1.0
 10
267.3606265967
 20
174.213172437
 30
0.0
 10
267.494215611
 20
174.1141466318
 30
0.0
 10
267.6868821073
 20
173.9875533194
 30
0.0
 10
267.9424530218
 20
173.8890301819
 30
0.0
 10
268.0486315517
 20
173.8679050169
 30
0.0
 10
268.0940879875
 20
173.8666878309
 30
0.0
  0
SPLINE
  5
647
100
AcDbEntity
  8
AT110_008_01_oben_4_BL11
100
AcDbSpline
 62
9
  6
CONTINUOUS
 70
0
 71
3
 72
9
 73
5
 74
0
 42
0.0000001
 43
0.0000001
 44
0.0000000001
 40
0.0
 40
0.0
 40
0.0
 40
0.0
 40
0.5332576329
 40
1.0
 40
1.0
 40
1.0
 40
1.0
 10
266.2249118309
 20
176.6365275207
 30
0.0
 10
266.2536157283
 20
176.1508649739
 30
0.0
 10
266.458717274
 20
175.2410944474
 30
0.0
 10
267.0187856166
 20
174.4670870577
 30
0.0
 10
267.3606264527
 20
174.2131728181
 30
0.0
  0
SPLINE
  5
648
100
AcDbEntity
  8
AT110_008_01_oben_4_BL11
100
AcDbSpline
 62
9
  6
CONTINUOUS
 70
0
 71
3
 72
9
 73
5
 74
0
 42
0.0000001
 43
0.0000001
 44
0.0000000001
 40
0.0
 40
0.0
 40
0.0
 40
0.0
 40
0.5133927094
 40
1.0
 40
1.0
 40
1.0
 40
1.0
 10
267.3606264527
 20
174.2131728181
 30
0.0
 10
267.504213935
 20
174.1065181928
 30
0.0
 10
267.8139125043
 20
173.9345723448
 30
0.0
 10
268.1639675419
 20
173.8702511524
 30
0.0
 10
268.3334937326
 20
173.8687642782
 30
0.0
  0
LINE
  5
649
100
AcDbEntity
  8
AT110_008_01_oben_4_BL11
100
AcDbLine
 62
9
  6
CONTINUOUS
 10
292.806260559
 20
176.9539000259
 11
292.806260559
 21
173.9540142567
  0
LINE
  5
64A
100
AcDbEntity
  8
AT110_008_01_oben_4_BL11
100
AcDbLine
 62
9
  6
CONTINUOUS
 10
300.3866094521
 20
176.9539000259
 11
300.3866094521
 21
173.9540142567
  0
SPLINE
  5
64B
100
AcDbEntity
  8
AT110_008_01_oben_4_BL11
100
AcDbSpline
 62
9
  6
CONTINUOUS
 70
0
 71
3
 72
10
 73
6
 74
0
 42
0.0000001
 43
0.0000001
 44
0.0000000001
 40
0.0
 40
0.0
 40
0.0
 40
0.0
 40
0.1663725576
 40
0.3915841297
 40
1.0
 40
1.0
 40
1.0
 40
1.0
 10
325.0987812337
 20
173.866687814
 30
0.0
 10
325.1442396594
 20
173.8679050881
 30
0.0
 10
325.2504234678
 20
173.8890318204
 30
0.0
 10
325.5060074241
 20
173.9875623559
 30
0.0
 10
325.6986832319
 20
174.1141652498
 30
0.0
 10
325.83227845
 20
174.2131984701
 30
0.0
  0
LINE
  5
64C
100
AcDbEntity
  8
AT110_008_01_oben_4_BL11
100
AcDbLine
 62
9
  6
CONTINUOUS
 10
300.3866094451
 20
183.0060327623
 11
292.8062605662
 21
183.0060327623
  0
LINE
  5
64D
100
AcDbEntity
  8
AT110_008_01_oben_4_BL11
100
AcDbLine
 62
9
  6
CONTINUOUS
 10
292.806260566
 20
176.9539000259
 11
300.3866094449
 21
176.9539000259
  0
SPLINE
  5
64E
100
AcDbEntity
  8
AT110_008_01_oben_4_BL11
100
AcDbSpline
 62
9
  6
CONTINUOUS
 70
0
 71
3
 72
12
 73
8
 74
0
 42
0.0000001
 43
0.0000001
 44
0.0000000001
 40
0.0
 40
0.0
 40
0.0
 40
0.0
 40
0.1381164456
 40
0.2751623497
 40
0.5406306418
 40
0.785601047
 40
1.0
 40
1.0
 40
1.0
 40
1.0
 10
300.3866094521
 20
176.9539000259
 30
0.0
 10
301.609445746
 20
176.9030603074
 30
0.0
 10
304.0472434065
 20
176.8422603874
 30
0.0
 10
308.8374839855
 20
176.7791454299
 30
0.0
 10
314.5749349965
 20
176.7364256595
 30
0.0
 10
320.9977663674
 20
176.6903551033
 30
0.0
 10
325.0682401466
 20
176.6557041954
 30
0.0
 10
326.9679989998
 20
176.6365274206
 30
0.0
  0
ARC
  5
64F
100
AcDbEntity
  8
AT110_008_01_oben_4_BL11
100
AcDbCircle
 62
9
  6
CONTINUOUS
 10
296.5964350055
 20
179.9799663941
 40
30.555
100
AcDbArc
 50
353.7179166043
 51
6.2820832222
  0
SPLINE
  5
650
100
AcDbEntity
  8
AT110_008_01_oben_4_BL11
100
AcDbSpline
 62
9
  6
CONTINUOUS
 70
0
 71
3
 72
12
 73
8
 74
0
 42
0.0000001
 43
0.0000001
 44
0.0000000001
 40
0.0
 40
0.0
 40
0.0
 40
0.0
 40
0.2144008338
 40
0.4593714831
 40
0.7248381387
 40
0.8618838257
 40
1.0
 40
1.0
 40
1.0
 40
1.0
 10
326.9679999535
 20
183.323405366
 30
0.0
 10
325.0682243665
 20
183.3042284213
 30
0.0
 10
320.9977316136
 20
183.2695773178
 30
0.0
 10
314.574895676
 20
183.2235073549
 30
0.0
 10
308.8374587462
 20
183.1807857631
 30
0.0
 10
304.0472367857
 20
183.1176730861
 30
0.0
 10
301.609443397
 20
183.0568721563
 30
0.0
 10
300.3866094521
 20
183.0060327623
 30
0.0
  0
ARC
  5
651
100
AcDbEntity
  8
AT110_008_01_oben_4_BL11
100
AcDbCircle
 62
9
  6
CONTINUOUS
 10
296.5964350055
 20
179.9799663941
 40
4.85
100
AcDbArc
 50
321.3962159154
 51
38.6037840832
  0
SPLINE
  5
652
100
AcDbEntity
  8
AT110_008_01_oben_4_BL11
100
AcDbSpline
 62
9
  6
CONTINUOUS
 70
0
 71
3
 72
12
 73
8
 74
0
 42
0.0000001
 43
0.0000001
 44
0.0000000001
 40
0.0
 40
0.0
 40
0.0
 40
0.0
 40
0.2144008378
 40
0.4593714877
 40
0.7248381416
 40
0.8618838273
 40
1.0
 40
1.0
 40
1.0
 40
1.0
 10
266.2248711311
 20
176.6365274238
 30
0.0
 10
268.1246466766
 20
176.6557043726
 30
0.0
 10
272.1951393059
 20
176.6903554793
 30
0.0
 10
278.6179750099
 20
176.7364254373
 30
0.0
 10
284.3554116861
 20
176.7791470294
 30
0.0
 10
289.1456334123
 20
176.842259706
 30
0.0
 10
291.5834266768
 20
176.9030606346
 30
0.0
 10
292.806260559
 20
176.9539000259
 30
0.0
  0
ARC
  5
653
100
AcDbEntity
  8
AT110_008_01_oben_4_BL11
100
AcDbCircle
 62
9
  6
CONTINUOUS
 10
296.5964350055
 20
179.9799663941
 40
4.85
100
AcDbArc
 50
141.3962159154
 51
218.6037840832
  0
SPLINE
  5
654
100
AcDbEntity
  8
AT110_008_01_oben_4_BL11
100
AcDbSpline
 62
9
  6
CONTINUOUS
 70
0
 71
3
 72
12
 73
8
 74
0
 42
0.0000001
 43
0.0000001
 44
0.0000000001
 40
0.0
 40
0.0
 40
0.0
 40
0.0
 40
0.1381164471
 40
0.2751623527
 40
0.5406306465
 40
0.7856010511
 40
1.0
 40
1.0
 40
1.0
 40
1.0
 10
292.806260559
 20
183.0060327623
 30
0.0
 10
291.5834242005
 20
183.0568724835
 30
0.0
 10
289.145626412
 20
183.1176724048
 30
0.0
 10
284.3553855916
 20
183.1807873627
 30
0.0
 10
278.6179343194
 20
183.2235071329
 30
0.0
 10
272.1951027078
 20
183.269577694
 30
0.0
 10
268.1246288013
 20
183.3042285987
 30
0.0
 10
266.2248699054
 20
183.3234053693
 30
0.0
  0
ARC
  5
655
100
AcDbEntity
  8
AT110_008_01_oben_4_BL11
100
AcDbCircle
 62
9
  6
CONTINUOUS
 10
296.5964350055
 20
179.9799663941
 40
30.555
100
AcDbArc
 50
173.717916807
 51
186.2820834191
  0
LINE
  5
656
100
AcDbEntity
  8
AT110_008_01_oben_4_BL11
100
AcDbLine
 62
9
  6
CONTINUOUS
 10
327.3242533603
 20
183.3236414058
 11
326.9679999323
 21
183.3234055583
  0
LINE
  5
657
100
AcDbEntity
  8
AT110_008_01_oben_4_BL11
100
AcDbLine
 62
9
  6
CONTINUOUS
 10
326.9679989801
 20
176.6365272417
 11
327.3242534846
 21
176.6362917006
  0
LINE
  5
658
100
AcDbEntity
  8
AT110_008_01_oben_4_BL11
100
AcDbLine
 62
9
  6
CONTINUOUS
 10
265.8686165876
 20
176.6362914117
 11
266.224871151
 21
176.6365272424
  0
LINE
  5
659
100
AcDbEntity
  8
AT110_008_01_oben_4_BL11
100
AcDbLine
 62
9
  6
CONTINUOUS
 10
266.2248699263
 20
183.3234055594
 11
265.8686165639
 21
183.3236411049
  0
SPLINE
  5
65A
100
AcDbEntity
  8
AT110_008_01_oben_4_BL11
100
AcDbSpline
 62
9
  6
CONTINUOUS
 70
0
 71
3
 72
9
 73
5
 74
0
 42
0.0000001
 43
0.0000001
 44
0.0000000001
 40
0.0
 40
0.0
 40
0.0
 40
0.0
 40
0.5133935981
 40
1.0
 40
1.0
 40
1.0
 40
1.0
 10
325.83227845
 20
174.2131984701
 30
0.0
 10
325.6886870964
 20
174.106536226
 30
0.0
 10
325.3789786538
 20
173.9345774726
 30
0.0
 10
325.0289091178
 20
173.8702511702
 30
0.0
 10
324.8593762784
 20
173.8687642782
 30
0.0
  0
SPLINE
  5
65B
100
AcDbEntity
  8
AT110_008_01_oben_4_BL11
100
AcDbSpline
 62
9
  6
CONTINUOUS
 70
0
 71
3
 72
9
 73
5
 74
0
 42
0.0000001
 43
0.0000001
 44
0.0000000001
 40
0.0
 40
0.0
 40
0.0
 40
0.0
 40
0.5332566341
 40
1.0
 40
1.0
 40
1.0
 40
1.0
 10
326.9679585461
 20
176.6365274804
 30
0.0
 10
326.9392551345
 20
176.1508732378
 30
0.0
 10
326.7341588872
 20
175.2411167776
 30
0.0
 10
326.1741094082
 20
174.4671166635
 30
0.0
 10
325.83227845
 20
174.2131984701
 30
0.0
  0
SPLINE
  5
65C
100
AcDbEntity
  8
AT110_008_01_oben_4_BL11
100
AcDbSpline
 62
9
  6
CONTINUOUS
 70
0
 71
3
 72
13
 73
9
 74
0
 42
0.0000001
 43
0.0000001
 44
0.0000000001
 40
0.0
 40
0.0
 40
0.0
 40
0.0
 40
0.2842337451
 40
0.5594004493
 40
0.6893312181
 40
0.8096136122
 40
0.9149764848
 40
1.0
 40
1.0
 40
1.0
 40
1.0
 10
261.6622093145
 20
176.1783065654
 30
0.0
 10
261.7407564668
 20
175.4574634358
 30
0.0
 10
262.0572412938
 20
174.051738639
 30
0.0
 10
262.8278498368
 20
172.4513377218
 30
0.0
 10
263.627839336
 20
171.3718445164
 30
0.0
 10
264.2695158177
 20
170.7244718427
 30
0.0
 10
264.9198952218
 20
170.2657221755
 30
0.0
 10
265.3876384352
 20
170.0924334751
 30
0.0
 10
265.6034226541
 20
170.0704230467
 30
0.0
  0
ARC
  5
65D
100
AcDbEntity
  8
AT110_008_01_oben_4_BL11
100
AcDbCircle
 62
9
  6
CONTINUOUS
 10
296.5964350055
 20
179.9799663941
 40
35.1404715937
100
AcDbArc
 50
180.0
 51
186.2106794978
  0
ARC
  5
65E
100
AcDbEntity
  8
AT110_008_01_oben_4_BL11
100
AcDbCircle
 62
9
  6
CONTINUOUS
 10
296.5964350055
 20
179.9799663941
 40
45.606120148
100
AcDbArc
 50
180.0
 51
360.0
  0
ARC
  5
65F
100
AcDbEntity
  8
AT110_008_01_oben_4_BL11
100
AcDbCircle
 62
9
  6
CONTINUOUS
 10
296.5964350055
 20
179.9799663941
 40
35.1404715945
100
AcDbArc
 50
353.7893205021
 51
360.0
  0
SPLINE
  5
660
100
AcDbEntity
  8
AT110_008_01_oben_4_BL11
100
AcDbSpline
 62
9
  6
CONTINUOUS
 70
0
 71
3
 72
13
 73
9
 74
0
 42
0.0000001
 43
0.0000001
 44
0.0000000001
 40
0.0
 40
0.0
 40
0.0
 40
0.0
 40
0.0850235522
 40
0.1903864371
 40
0.3106687328
 40
0.4405994135
 40
0.7157661678
 40
1.0
 40
1.0
 40
1.0
 40
1.0
 10
327.5894473572
 20
170.0704230467
 30
0.0
 10
327.8052316398
 20
170.0924337827
 30
0.0
 10
328.2729750175
 20
170.2657220843
 30
0.0
 10
328.9233542873
 20
170.7244719179
 30
0.0
 10
329.5650304563
 20
171.3718442103
 30
0.0
 10
330.3650196932
 20
172.4513371875
 30
0.0
 10
331.135628708
 20
174.0517380241
 30
0.0
 10
331.4521134133
 20
175.4574632253
 30
0.0
 10
331.5306606992
 20
176.178306565
 30
0.0
  0
SPLINE
  5
661
100
AcDbEntity
  8
AT110_008_01_oben_4_BL11
100
AcDbSpline
 62
9
  6
CONTINUOUS
 70
0
 71
3
 72
18
 73
14
 74
0
 42
0.0000001
 43
0.0000001
 44
0.0000000001
 40
0.0
 40
0.0
 40
0.0
 40
0.0
 40
0.0057810652
 40
0.0192646346
 40
0.0406630372
 40
0.0699736826
 40
0.1071303308
 40
0.1520523023
 40
0.2647677114
 40
0.4071335477
 40
0.5779821998
 40
0.7760616616
 40
1.0
 40
1.0
 40
1.0
 40
1.0
 10
325.4011803347
 20
169.7870928286
 30
0.0
 10
325.4026009472
 20
169.7911047127
 30
0.0
 10
325.4189976956
 20
169.7955373047
 30
0.0
 10
325.445284407
 20
169.8041038348
 30
0.0
 10
325.4929437071
 20
169.8134031038
 30
0.0
 10
325.555997071
 20
169.8251237749
 30
0.0
 10
325.637160458
 20
169.8382654902
 30
0.0
 10
325.7788552265
 20
169.8597072011
 30
0.0
 10
325.9977474642
 20
169.8896727733
 30
0.0
 10
326.3088173127
 20
169.9289655993
 30
0.0
 10
326.6826525809
 20
169.9730424995
 30
0.0
 10
327.1164493588
 20
170.0212144282
 30
0.0
 10
327.4254416021
 20
170.0536443987
 30
0.0
 10
327.5894473572
 20
170.0704230467
 30
0.0
  0
SPLINE
  5
662
100
AcDbEntity
  8
AT110_008_01_oben_4_BL11
100
AcDbSpline
 62
9
  6
CONTINUOUS
 70
0
 71
3
 72
9
 73
5
 74
0
 42
0.0000001
 43
0.0000001
 44
0.0000000001
 40
0.0
 40
0.0
 40
0.0
 40
0.0
 40
0.4766027247
 40
1.0
 40
1.0
 40
1.0
 40
1.0
 10
325.83227845
 20
174.2131984701
 30
0.0
 10
326.2020332915
 20
174.4872952018
 30
0.0
 10
326.8729108163
 20
175.2116518859
 30
0.0
 10
327.2446726173
 20
176.1371381338
 30
0.0
 10
327.3242686363
 20
176.6362916797
 30
0.0
  0
SPLINE
  5
663
100
AcDbEntity
  8
AT110_008_01_oben_4_BL11
100
AcDbSpline
 62
9
  6
CONTINUOUS
 70
0
 71
3
 72
18
 73
14
 74
0
 42
0.0000001
 43
0.0000001
 44
0.0000000001
 40
0.0
 40
0.0
 40
0.0
 40
0.0
 40
0.2239369914
 40
0.4220136699
 40
0.5928606754
 40
0.7352256107
 40
0.8479422456
 40
0.8928645655
 40
0.9300230018
 40
0.9593346385
 40
0.9807332321
 40
0.9942180918
 40
1.0
 40
1.0
 40
1.0
 40
1.0
 10
265.6034226541
 20
170.0704230467
 30
0.0
 10
265.7674273329
 20
170.0536440735
 30
0.0
 10
266.0764165347
 20
170.0212151127
 30
0.0
 10
266.5102089976
 20
169.9730439236
 30
0.0
 10
266.8840402349
 20
169.9289672875
 30
0.0
 10
267.1951091341
 20
169.8896753601
 30
0.0
 10
267.41400169
 20
169.8597089406
 30
0.0
 10
267.5556989187
 20
169.8382672109
 30
0.0
 10
267.6368645715
 20
169.8251251874
 30
0.0
 10
267.699920113
 20
169.8134044479
 30
0.0
 10
267.7475813425
 20
169.8041055345
 30
0.0
 10
267.7738694648
 20
169.7955382343
 30
0.0
 10
267.7902683474
 20
169.791106133
 30
0.0
 10
267.7916893566
 20
169.7870937323
 30
0.0
  0
SPLINE
  5
664
100
AcDbEntity
  8
AT110_008_01_oben_4_BL11
100
AcDbSpline
 62
9
  6
CONTINUOUS
 70
0
 71
3
 72
9
 73
5
 74
0
 42
0.0000001
 43
0.0000001
 44
0.0000000001
 40
0.0
 40
0.0
 40
0.0
 40
0.0
 40
0.5233986015
 40
1.0
 40
1.0
 40
1.0
 40
1.0
 10
327.3242683907
 20
183.3236414255
 30
0.0
 10
327.2446710946
 20
183.8228034967
 30
0.0
 10
326.8728993799
 20
184.7483022299
 30
0.0
 10
326.2020065126
 20
185.4726652524
 30
0.0
 10
325.8322436324
 20
185.7467602118
 30
0.0
  0
ENDBLK
  5
665
100
AcDbEntity
  8
0
  6
BYBLOCK
 62
0
100
AcDbBlockEnd
  0
BLOCK
  5
666
100
AcDbEntity
  8
AT110_010_00_new_view_5_BL12
100
AcDbBlockBegin
  2
AT110_010_00_NEW_VIEW_5_BL12
 70
64
 10
154.2056695818
 20
200.8952748535
  3
AT110_010_00_NEW_VIEW_5_BL12
  1

  0
SPLINE
  5
667
100
AcDbEntity
  8
AT110_010_00_new_view_5_BL12
100
AcDbSpline
 62
7
  6
CONTINUOUS
 70
0
 71
3
 72
22
 73
18
 74
0
 42
0.0000001
 43
0.0000001
 44
0.0000000001
 40
0.0
 40
0.0
 40
0.0
 40
0.0
 40
0.050732334
 40
0.1065766065
 40
0.1672328926
 40
0.2321236794
 40
0.3004699998
 40
0.3713486513
 40
0.5164766231
 40
0.5886524968
 40
0.6591086238
 40
0.7268406813
 40
0.7909500289
 40
0.8506925566
 40
0.9055393166
 40
0.9552544563
 40
1.0
 40
1.0
 40
1.0
 40
1.0
 10
195.7251517362
 20
187.6427665841
 30
0.0
 10
194.5355440328
 20
186.6125360924
 30
0.0
 10
191.8520938038
 20
184.657505117
 30
0.0
 10
187.2878115372
 20
182.169318072
 30
0.0
 10
182.0746738107
 20
180.0258670947
 30
0.0
 10
176.3145380318
 20
178.2689350115
 30
0.0
 10
170.1184450109
 20
176.9319073357
 30
0.0
 10
161.3729661302
 20
175.7367396636
 30
0.0
 10
152.4007602975
 20
175.4895427874
 30
0.0
 10
143.4958430322
 20
176.1814306047
 30
0.0
 10
137.0378545737
 20
177.1618688496
 30
0.0
 10
130.9189986606
 20
178.5841230915
 30
0.0
 10
125.2584096921
 20
180.4205494069
 30
0.0
 10
120.1662612056
 20
182.6353960015
 30
0.0
 10
115.7395797371
 20
185.1881116666
 30
0.0
 10
112.0640159149
 20
188.031472583
 30
0.0
 10
110.0629082379
 20
190.2001213264
 30
0.0
 10
109.2377180698
 20
191.3161812973
 30
0.0
  0
ARC
  5
668
100
AcDbEntity
  8
AT110_010_00_new_view_5_BL12
100
AcDbCircle
 62
7
  6
CONTINUOUS
 10
124.3051130033
 20
202.4579179649
 40
18.7393886254
100
AcDbArc
 50
215.2677551642
 51
216.4814458836
  0
SPLINE
  5
669
100
AcDbEntity
  8
AT110_010_00_new_view_5_BL12
100
AcDbSpline
 62
7
  6
CONTINUOUS
 70
0
 71
3
 72
23
 73
19
 74
0
 42
0.0000001
 43
0.0000001
 44
0.0000000001
 40
0.0
 40
0.0
 40
0.0
 40
0.0
 40
0.0526403579
 40
0.1110416562
 40
0.1747783038
 40
0.2430704113
 40
0.3148881578
 40
0.3890315367
 40
0.4641970032
 40
0.5390372958
 40
0.6122189143
 40
0.6824804244
 40
0.748694853
 40
0.8099415607
 40
0.8655960976
 40
0.9154500479
 40
0.9598730886
 40
1.0
 40
1.0
 40
1.0
 40
1.0
 10
195.3418781044
 20
189.9184716608
 30
0.0
 10
194.0453467906
 20
188.7956426062
 30
0.0
 10
191.08894922
 20
186.6786532361
 30
0.0
 10
186.0295416836
 20
184.0356007983
 30
0.0
 10
180.2243238276
 20
181.811112903
 30
0.0
 10
173.8085327363
 20
180.0571464352
 30
0.0
 10
166.9308051048
 20
178.8140045464
 30
0.0
 10
159.7527746979
 20
178.1112777648
 30
0.0
 10
152.4436761368
 20
177.9656872188
 30
0.0
 10
145.1762181898
 20
178.3807418538
 30
0.0
 10
138.1220111768
 20
179.3465068551
 30
0.0
 10
131.4471146237
 20
180.8400117473
 30
0.0
 10
125.3076420551
 20
182.8260738049
 30
0.0
 10
119.8455457823
 20
185.2592075221
 30
0.0
 10
115.1850738226
 20
188.0855648808
 30
0.0
 10
111.4309643224
 20
191.2503571487
 30
0.0
 10
108.6733746165
 20
194.694255687
 30
0.0
 10
107.5175973169
 20
197.2399955869
 30
0.0
 10
107.1649018636
 20
198.4989566511
 30
0.0
  0
SPLINE
  5
66A
100
AcDbEntity
  8
AT110_010_00_new_view_5_BL12
100
AcDbSpline
 62
7
  6
CONTINUOUS
 70
0
 71
3
 72
9
 73
5
 74
0
 42
0.0000001
 43
0.0000001
 44
0.0000000001
 40
0.0
 40
0.0
 40
0.0
 40
0.0
 40
0.2525714704
 40
1.0
 40
1.0
 40
1.0
 40
1.0
 10
107.1649018636
 20
198.4989566511
 30
0.0
 10
107.1164373842
 20
198.6719526223
 30
0.0
 10
106.9388237116
 20
199.3607940093
 30
0.0
 10
106.819821832
 20
200.0648680955
 30
0.0
 10
106.7663138078
 20
200.5938212665
 30
0.0
  0
ARC
  5
66B
100
AcDbEntity
  8
AT110_010_00_new_view_5_BL12
100
AcDbCircle
 62
7
  6
CONTINUOUS
 10
178.4636953375
 20
207.5872729036
 40
26.3769067431
100
AcDbArc
 50
310.8753442958
 51
314.5437387256
  0
SPLINE
  5
66C
100
AcDbEntity
  8
AT110_010_00_new_view_5_BL12
100
AcDbSpline
 62
7
  6
CONTINUOUS
 70
0
 71
3
 72
9
 73
5
 74
0
 42
0.0000001
 43
0.0000001
 44
0.0000000001
 40
0.0
 40
0.0
 40
0.0
 40
0.0
 40
0.2582374723
 40
1.0
 40
1.0
 40
1.0
 40
1.0
 10
196.9658700667
 20
188.7880511212
 30
0.0
 10
197.172348288
 20
188.9916642051
 30
0.0
 10
197.957857793
 20
189.7941471978
 30
0.0
 10
198.6850512494
 20
190.6546236981
 30
0.0
 10
199.1798937694
 20
191.3246578125
 30
0.0
  0
ARC
  5
66D
100
AcDbEntity
  8
AT110_010_00_new_view_5_BL12
100
AcDbCircle
 62
7
  6
CONTINUOUS
 10
184.1213569316
 20
202.4470791388
 40
18.7207849155
100
AcDbArc
 50
323.5499669209
 51
324.7327639236
  0
SPLINE
  5
66E
100
AcDbEntity
  8
AT110_010_00_new_view_5_BL12
100
AcDbSpline
 62
7
  6
CONTINUOUS
 70
0
 71
3
 72
9
 73
5
 74
0
 42
0.0000001
 43
0.0000001
 44
0.0000000001
 40
0.0
 40
0.0
 40
0.0
 40
0.0
 40
0.2629041227
 40
1.0
 40
1.0
 40
1.0
 40
1.0
 10
195.3418781044
 20
189.9184716608
 30
0.0
 10
195.6912206992
 20
190.2210112226
 30
0.0
 10
196.990461663
 20
191.4047321834
 30
0.0
 10
198.1667784889
 20
192.7287300175
 30
0.0
 10
198.921528591
 20
193.7818844605
 30
0.0
  0
LINE
  5
66F
100
AcDbEntity
  8
AT110_010_00_new_view_5_BL12
100
AcDbLine
 62
7
  6
CONTINUOUS
 10
198.921528591
 20
193.7818844605
 11
198.9386721277
 21
193.8058464517
  0
ARC
  5
670
100
AcDbEntity
  8
AT110_010_00_new_view_5_BL12
100
AcDbCircle
 62
7
  6
CONTINUOUS
 10
184.0968090929
 20
204.4068684503
 40
18.2390396062
100
AcDbArc
 50
324.4631114252
 51
325.1761605474
  0
SPLINE
  5
671
100
AcDbEntity
  8
AT110_010_00_new_view_5_BL12
100
AcDbSpline
 62
7
  6
CONTINUOUS
 70
0
 71
3
 72
9
 73
5
 74
0
 42
0.0000001
 43
0.0000001
 44
0.0000000001
 40
0.0
 40
0.0
 40
0.0
 40
0.0
 40
0.5142401602
 40
1.0
 40
1.0
 40
1.0
 40
1.0
 10
199.0694496885
 20
193.9913704136
 30
0.0
 10
199.5597459207
 20
194.6962152495
 30
0.0
 10
200.4175062343
 20
196.1374168456
 30
0.0
 10
201.0228706982
 20
197.7042597488
 30
0.0
 10
201.2425239899
 20
198.4849988253
 30
0.0
  0
SPLINE
  5
672
100
AcDbEntity
  8
AT110_010_00_new_view_5_BL12
100
AcDbSpline
 62
7
  6
CONTINUOUS
 70
0
 71
3
 72
9
 73
5
 74
0
 42
0.0000001
 43
0.0000001
 44
0.0000000001
 40
0.0
 40
0.0
 40
0.0
 40
0.0
 40
0.2525964763
 40
1.0
 40
1.0
 40
1.0
 40
1.0
 10
201.2425239899
 20
198.4849988253
 30
0.0
 10
201.2915144738
 20
198.6591313632
 30
0.0
 10
201.4710069165
 20
199.3524707963
 30
0.0
 10
201.5911713406
 20
200.0612972926
 30
0.0
 10
201.6450315892
 20
200.593821202
 30
0.0
  0
LINE
  5
673
100
AcDbEntity
  8
AT110_010_00_new_view_5_BL12
100
AcDbLine
 62
7
  6
CONTINUOUS
 10
107.9516412211
 20
193.127635576
 11
109.0049864695
 21
191.6379804398
  0
ARC
  5
674
100
AcDbEntity
  8
AT110_010_00_new_view_5_BL12
100
AcDbCircle
 62
7
  6
CONTINUOUS
 10
130.4799971663
 20
192.2300056143
 40
28.6149301221
100
AcDbArc
 50
130.5833654603
 51
130.8931099199
  0
SPLINE
  5
675
100
AcDbEntity
  8
AT110_010_00_new_view_5_BL12
100
AcDbSpline
 62
7
  6
CONTINUOUS
 70
0
 71
3
 72
27
 73
23
 74
0
 42
0.0000001
 43
0.0000001
 44
0.0000000001
 40
0.0
 40
0.0
 40
0.0
 40
0.0
 40
0.0568278335
 40
0.1207421617
 40
0.1909649237
 40
0.2661428106
 40
0.3445550048
 40
0.4242660908
 40
0.503258806
 40
0.5795608258
 40
0.6513744601
 40
0.7172240326
 40
0.7761368823
 40
0.8029206584
 40
0.8279716346
 40
0.8734301833
 40
0.8945203551
 40
0.9149960731
 40
0.9353224212
 40
0.9559766765
 40
0.9774120038
 40
1.0
 40
1.0
 40
1.0
 40
1.0
 10
111.8644469975
 20
213.9619065391
 30
0.0
 10
113.4940588196
 20
215.3578463263
 30
0.0
 10
117.2852469642
 20
217.9452082074
 30
0.0
 10
123.8271833451
 20
221.0270503393
 30
0.0
 10
131.3660798914
 20
223.462257566
 30
0.0
 10
139.6571626315
 20
225.1719026353
 30
0.0
 10
148.4304471554
 20
226.1015163682
 30
0.0
 10
157.3954094885
 20
226.219743816
 30
0.0
 10
166.2544972504
 20
225.5227510481
 30
0.0
 10
174.713902385
 20
224.033909344
 30
0.0
 10
182.4966448219
 20
221.8016532403
 30
0.0
 10
189.3492828414
 20
218.8975262451
 30
0.0
 10
194.2574234264
 20
215.8965721827
 30
0.0
 10
197.4711739485
 20
213.207866585
 30
0.0
 10
200.015040933
 20
210.5525728185
 30
0.0
 10
201.9401045804
 20
207.6088646415
 30
0.0
 10
203.0040947894
 20
204.4841817731
 30
0.0
 10
203.3564561559
 20
202.1605384921
 30
0.0
 10
203.2743555911
 20
199.8281403412
 30
0.0
 10
202.7596180546
 20
197.5152254927
 30
0.0
 10
201.8225244645
 20
195.248407422
 30
0.0
 10
200.9521230803
 20
193.824024672
 30
0.0
 10
200.4597016281
 20
193.127635576
 30
0.0
  0
LINE
  5
676
100
AcDbEntity
  8
AT110_010_00_new_view_5_BL12
100
AcDbLine
 62
7
  6
CONTINUOUS
 10
200.4597016281
 20
193.127635576
 11
199.4063563797
 21
191.6379804398
  0
SPLINE
  5
677
100
AcDbEntity
  8
AT110_010_00_new_view_5_BL12
100
AcDbSpline
 62
7
  6
CONTINUOUS
 70
0
 71
3
 72
15
 73
11
 74
0
 42
0.0000001
 43
0.0000001
 44
0.0000000001
 40
0.0
 40
0.0
 40
0.0
 40
0.0
 40
0.1272738192
 40
0.2472789977
 40
0.3631058549
 40
0.4783768709
 40
0.5967774965
 40
0.7215961131
 40
0.8554287992
 40
1.0
 40
1.0
 40
1.0
 40
1.0
 10
107.9516412211
 20
193.127635576
 30
0.0
 10
107.3777674821
 20
193.9392156008
 30
0.0
 10
106.383104129
 20
195.6078097857
 30
0.0
 10
105.4036353359
 20
198.2883052036
 30
0.0
 10
105.0131802295
 20
201.023971058
 30
0.0
 10
105.2244286336
 20
203.7669170099
 30
0.0
 10
106.0305020216
 20
206.4685252067
 30
0.0
 10
107.4089719105
 20
209.0891009472
 30
0.0
 10
109.3314951457
 20
211.5988858086
 30
0.0
 10
110.8937412377
 20
213.1218048579
 30
0.0
 10
111.7472356187
 20
213.8609526739
 30
0.0
  0
SPLINE
  5
678
100
AcDbEntity
  8
AT110_010_00_new_view_5_BL12
100
AcDbSpline
 62
9
  6
CONTINUOUS
 70
0
 71
3
 72
9
 73
5
 74
0
 42
0.0000001
 43
0.0000001
 44
0.0000000001
 40
0.0
 40
0.0
 40
0.0
 40
0.0
 40
0.257659634
 40
1.0
 40
1.0
 40
1.0
 40
1.0
 10
196.6927111293
 20
189.0393182742
 30
0.0
 10
196.9113531728
 20
189.2286678382
 30
0.0
 10
197.7485877249
 20
189.9764474358
 30
0.0
 10
198.5391195563
 20
190.7772086374
 30
0.0
 10
199.0904947077
 20
191.4020285728
 30
0.0
  0
ARC
  5
679
100
AcDbEntity
  8
AT110_010_00_new_view_5_BL12
100
AcDbCircle
 62
9
  6
CONTINUOUS
 10
182.634388141
 20
205.9251256781
 40
21.9482070536
100
AcDbArc
 50
318.5704560005
 51
319.6215034972
  0
SPLINE
  5
67A
100
AcDbEntity
  8
AT110_010_00_new_view_5_BL12
100
AcDbSpline
 62
9
  6
CONTINUOUS
 70
0
 71
3
 72
9
 73
5
 74
0
 42
0.0000001
 43
0.0000001
 44
0.0000000001
 40
0.0
 40
0.0
 40
0.0
 40
0.0
 40
0.2543008262
 40
1.0
 40
1.0
 40
1.0
 40
1.0
 10
199.3541261825
 20
191.7063299243
 30
0.0
 10
199.4530225634
 20
191.8226319931
 30
0.0
 10
199.8370599325
 20
192.2840711501
 30
0.0
 10
200.2012418381
 20
192.7621139658
 30
0.0
 10
200.4596991624
 20
193.1276360118
 30
0.0
  0
SPLINE
  5
67B
100
AcDbEntity
  8
AT110_010_00_new_view_5_BL12
100
AcDbSpline
 62
9
  6
CONTINUOUS
 70
0
 71
3
 72
9
 73
5
 74
0
 42
0.0000001
 43
0.0000001
 44
0.0000000001
 40
0.0
 40
0.0
 40
0.0
 40
0.0
 40
0.2627237284
 40
1.0
 40
1.0
 40
1.0
 40
1.0
 10
196.4903548555
 20
189.486456284
 30
0.0
 10
196.8446319992
 20
189.7932692905
 30
0.0
 10
198.1635421488
 20
190.9941023129
 30
0.0
 10
199.3594465518
 20
192.3352398636
 30
0.0
 10
200.1294649664
 20
193.4014636547
 30
0.0
  0
LINE
  5
67C
100
AcDbEntity
  8
AT110_010_00_new_view_5_BL12
100
AcDbLine
 62
9
  6
CONTINUOUS
 10
200.1294649664
 20
193.4014636547
 11
200.1699451687
 21
193.4577312358
  0
SPLINE
  5
67D
100
AcDbEntity
  8
AT110_010_00_new_view_5_BL12
100
AcDbSpline
 62
9
  6
CONTINUOUS
 70
0
 71
3
 72
15
 73
11
 74
0
 42
0.0000001
 43
0.0000001
 44
0.0000000001
 40
0.0
 40
0.0
 40
0.0
 40
0.0
 40
0.1232695384
 40
0.2383954627
 40
0.3496205888
 40
0.4618690119
 40
0.5798784142
 40
0.707434832
 40
0.8470469459
 40
1.0
 40
1.0
 40
1.0
 40
1.0
 10
200.1699451687
 20
193.4577312358
 30
0.0
 10
200.8175044989
 20
194.3613150627
 30
0.0
 10
201.9207129625
 20
196.225885307
 30
0.0
 10
202.9136296727
 20
199.2471450534
 30
0.0
 10
203.1428499408
 20
202.3241262985
 30
0.0
 10
202.5977324314
 20
205.3862504446
 30
0.0
 10
201.3006317334
 20
208.3691001752
 30
0.0
 10
199.2898031434
 20
211.2260318763
 30
0.0
 10
196.6068976381
 20
213.9217205135
 30
0.0
 10
194.4949994515
 20
215.5172074414
 30
0.0
 10
193.349400199
 20
216.28546612
 30
0.0
  0
SPLINE
  5
67E
100
AcDbEntity
  8
AT110_010_00_new_view_5_BL12
100
AcDbSpline
 62
9
  6
CONTINUOUS
 70
0
 71
3
 72
16
 73
12
 74
0
 42
0.0000001
 43
0.0000001
 44
0.0000000001
 40
0.0
 40
0.0
 40
0.0
 40
0.0
 40
0.0515923606
 40
0.1069290466
 40
0.2275394237
 40
0.3584993749
 40
0.4952488432
 40
0.6326809068
 40
0.7656269495
 40
0.8893341985
 40
1.0
 40
1.0
 40
1.0
 40
1.0
 10
193.349400199
 20
216.28546612
 30
0.0
 10
192.2121648141
 20
217.0481158443
 30
0.0
 10
189.7653940037
 20
218.4973974589
 30
0.0
 10
184.2998432965
 20
221.0811209113
 30
0.0
 10
176.5288592982
 20
223.6313617701
 30
0.0
 10
166.3776245784
 20
225.5437424124
 30
0.0
 10
155.6279950907
 20
226.2977638742
 30
0.0
 10
144.8097180925
 20
225.8555868969
 30
0.0
 10
134.4501581863
 20
224.238703827
 30
0.0
 10
125.0579891023
 20
221.5297098542
 30
0.0
 10
119.3729450946
 20
218.9125431013
 30
0.0
 10
116.8478762133
 20
217.4123106821
 30
0.0
  0
SPLINE
  5
67F
100
AcDbEntity
  8
AT110_010_00_new_view_5_BL12
100
AcDbSpline
 62
9
  6
CONTINUOUS
 70
0
 71
3
 72
9
 73
5
 74
0
 42
0.0000001
 43
0.0000001
 44
0.0000000001
 40
0.0
 40
0.0
 40
0.0
 40
0.0
 40
0.2617931912
 40
1.0
 40
1.0
 40
1.0
 40
1.0
 10
116.8478762133
 20
217.4123106821
 30
0.0
 10
116.3935990887
 20
217.1424086313
 30
0.0
 10
114.6786964473
 20
216.0781335366
 30
0.0
 10
113.0473290382
 20
214.8749696033
 30
0.0
 10
111.9209879937
 20
213.8995296455
 30
0.0
  0
ARC
  5
680
100
AcDbEntity
  8
AT110_010_00_new_view_5_BL12
100
AcDbCircle
 62
9
  6
CONTINUOUS
 10
177.1059166144
 20
211.8821073062
 40
29.6196156394
100
AcDbArc
 50
307.6310560562
 51
310.8776541976
  0
SPLINE
  5
681
100
AcDbEntity
  8
AT110_010_00_new_view_5_BL12
100
AcDbSpline
 62
9
  6
CONTINUOUS
 70
0
 71
3
 72
19
 73
15
 74
0
 42
0.0000001
 43
0.0000001
 44
0.0000000001
 40
0.0
 40
0.0
 40
0.0
 40
0.0
 40
0.0505531541
 40
0.1054222664
 40
0.1643398022
 40
0.2268620346
 40
0.360235495
 40
0.499999266
 40
0.6397632415
 40
0.7731373486
 40
0.8356600426
 40
0.894578195
 40
0.949447817
 40
1.0
 40
1.0
 40
1.0
 40
1.0
 10
195.1908991968
 20
188.4245917595
 30
0.0
 10
194.0402276128
 20
187.5360001715
 30
0.0
 10
191.5123224193
 20
185.8462024293
 30
0.0
 10
187.3119466402
 20
183.6637789124
 30
0.0
 10
182.6060649727
 20
181.7575840966
 30
0.0
 10
175.6027852029
 20
179.5773902842
 30
0.0
 10
166.0874094222
 20
177.7607549271
 30
0.0
 10
154.2060869705
 20
177.0339064172
 30
0.0
 10
142.3247410219
 20
177.7606605923
 30
0.0
 10
132.809310001
 20
179.5772077574
 30
0.0
 10
125.8059613585
 20
181.7573450286
 30
0.0
 10
121.1000091148
 20
183.6634878481
 30
0.0
 10
116.8996075662
 20
185.8458719081
 30
0.0
 10
114.3716802986
 20
187.5356078864
 30
0.0
 10
113.2210030833
 20
188.4241464903
 30
0.0
  0
SPLINE
  5
682
100
AcDbEntity
  8
AT110_010_00_new_view_5_BL12
100
AcDbSpline
 62
9
  6
CONTINUOUS
 70
0
 71
3
 72
15
 73
11
 74
0
 42
0.0000001
 43
0.0000001
 44
0.0000000001
 40
0.0
 40
0.0
 40
0.0
 40
0.0
 40
0.1449339013
 40
0.2758497188
 40
0.3953727471
 40
0.5078813008
 40
0.6191332828
 40
0.7351639241
 40
0.8610037731
 40
1.0
 40
1.0
 40
1.0
 40
1.0
 10
113.2210030833
 20
188.4241464903
 30
0.0
 10
112.072312804
 20
189.3111508069
 30
0.0
 10
109.9957233448
 20
191.1528755993
 30
0.0
 10
107.5249130058
 20
194.2773952637
 30
0.0
 10
105.9199455108
 20
197.576230767
 30
0.0
 10
105.2417134715
 20
200.9891060307
 30
0.0
 10
105.5275400061
 20
204.4236016771
 30
0.0
 10
106.7605593307
 20
207.7780986606
 30
0.0
 10
108.8843322707
 20
210.979215258
 30
0.0
 10
110.7558178023
 20
212.8796106965
 30
0.0
 10
111.802849682
 20
213.7966416281
 30
0.0
  0
ARC
  5
683
100
AcDbEntity
  8
AT110_010_00_new_view_5_BL12
100
AcDbCircle
 62
9
  6
CONTINUOUS
 10
130.299362555
 20
192.677802354
 40
28.0735883126
100
AcDbArc
 50
130.8931163532
 51
131.2128479791
  0
SPLINE
  5
684
100
AcDbEntity
  8
AT110_010_00_new_view_5_BL12
100
AcDbSpline
 62
7
  6
CONTINUOUS
 70
0
 71
3
 72
25
 73
21
 74
0
 42
0.0000001
 43
0.0000001
 44
0.0000000001
 40
0.0
 40
0.0
 40
0.0
 40
0.0
 40
0.0192501052
 40
0.038637685
 40
0.0585214117
 40
0.0792220831
 40
0.1239932582
 40
0.1744299852
 40
0.2310114503
 40
0.2935409894
 40
0.3613405673
 40
0.4333937729
 40
0.5084517289
 40
0.5851174682
 40
0.6619192166
 40
0.7373789668
 40
0.810080769
 40
0.8787428072
 40
0.9422990862
 40
1.0
 40
1.0
 40
1.0
 40
1.0
 10
201.6450315892
 20
200.593821202
 30
0.0
 10
201.7090198644
 20
201.2264823458
 30
0.0
 10
201.7359487599
 20
202.5090548845
 30
0.0
 10
201.4638888316
 20
204.4308349827
 30
0.0
 10
200.8825285464
 20
206.3327595719
 30
0.0
 10
199.6720477019
 20
208.888782377
 30
0.0
 10
197.343316464
 20
211.9791555004
 30
0.0
 10
193.5404631511
 20
215.2869539955
 30
0.0
 10
188.7567462981
 20
218.2383466937
 30
0.0
 10
183.1085093702
 20
220.7677784574
 30
0.0
 10
176.7329151289
 20
222.8173007509
 30
0.0
 10
169.7881956497
 20
224.3360495473
 30
0.0
 10
162.4487310977
 20
225.2857341086
 30
0.0
 10
154.9001382582
 20
225.6420243771
 30
0.0
 10
147.3339271113
 20
225.3957750366
 30
0.0
 10
139.9420432596
 20
224.5532798499
 30
0.0
 10
132.911756628
 20
223.1362445179
 30
0.0
 10
126.419291872
 20
221.1801979936
 30
0.0
 10
120.6282158074
 20
218.7350143286
 30
0.0
 10
117.1512833203
 20
216.713487604
 30
0.0
 10
115.5884254195
 20
215.6224132504
 30
0.0
  0
SPLINE
  5
685
100
AcDbEntity
  8
AT110_010_00_new_view_5_BL12
100
AcDbSpline
 62
7
  6
CONTINUOUS
 70
0
 71
3
 72
9
 73
5
 74
0
 42
0.0000001
 43
0.0000001
 44
0.0000000001
 40
0.0
 40
0.0
 40
0.0
 40
0.0
 40
0.2567381412
 40
1.0
 40
1.0
 40
1.0
 40
1.0
 10
115.5884254195
 20
215.6224132504
 30
0.0
 10
115.3646675438
 20
215.4662016847
 30
0.0
 10
114.5005134839
 20
214.8472931011
 30
0.0
 10
113.6666678509
 20
214.1856647219
 30
0.0
 10
113.0694647449
 20
213.6684716608
 30
0.0
  0
ARC
  5
686
100
AcDbEntity
  8
AT110_010_00_new_view_5_BL12
100
AcDbCircle
 62
9
  6
CONTINUOUS
 10
177.2810350505
 20
211.4647276184
 40
29.659941882
100
AcDbArc
 50
307.8613550113
 51
310.8798169026
  0
ARC
  5
687
100
AcDbEntity
  8
AT110_010_00_new_view_5_BL12
100
AcDbCircle
 62
9
  6
CONTINUOUS
 10
175.8678295001
 20
213.2481063708
 40
31.9352821826
100
AcDbArc
 50
307.1998874681
 51
307.8993356917
  0
SPLINE
  5
688
100
AcDbEntity
  8
AT110_010_00_new_view_5_BL12
100
AcDbSpline
 62
9
  6
CONTINUOUS
 70
0
 71
3
 72
19
 73
15
 74
0
 42
0.0000001
 43
0.0000001
 44
0.0000000001
 40
0.0
 40
0.0
 40
0.0
 40
0.0
 40
0.0508013266
 40
0.1058977898
 40
0.1650104924
 40
0.2276892207
 40
0.3612478535
 40
0.5010250661
 40
0.6406516143
 40
0.7737748798
 40
0.836144655
 40
0.8949005414
 40
0.9496061188
 40
1.0
 40
1.0
 40
1.0
 40
1.0
 10
195.1758228801
 20
187.8106607498
 30
0.0
 10
194.0084683731
 20
186.9245474013
 30
0.0
 10
191.4488663639
 20
185.2407307667
 30
0.0
 10
187.2049926654
 20
183.0681884443
 30
0.0
 10
182.4592257966
 20
181.1738204469
 30
0.0
 10
175.4097143891
 20
179.012861046
 30
0.0
 10
165.848312945
 20
177.2222709843
 30
0.0
 10
153.9258189462
 20
176.5285759852
 30
0.0
 10
142.0199813302
 20
177.2895524454
 30
0.0
 10
132.4948936169
 20
179.1348708908
 30
0.0
 10
125.491446034
 20
181.337443098
 30
0.0
 10
120.7894063933
 20
183.2590002297
 30
0.0
 10
116.5955049849
 20
185.4559044492
 30
0.0
 10
114.0736007519
 20
187.1551755693
 30
0.0
 10
112.9264262184
 20
188.0482534231
 30
0.0
  0
SPLINE
  5
689
100
AcDbEntity
  8
AT110_010_00_new_view_5_BL12
100
AcDbSpline
 62
9
  6
CONTINUOUS
 70
0
 71
3
 72
9
 73
5
 74
0
 42
0.0000001
 43
0.0000001
 44
0.0000000001
 40
0.0
 40
0.0
 40
0.0
 40
0.0
 40
0.2610890358
 40
1.0
 40
1.0
 40
1.0
 40
1.0
 10
112.9264262184
 20
188.0482534231
 30
0.0
 10
112.5879899371
 20
188.3117267996
 30
0.0
 10
111.3126437877
 20
189.3470355508
 30
0.0
 10
110.1239105787
 20
190.4919826464
 30
0.0
 10
109.3207648953
 20
191.4021301883
 30
0.0
  0
ARC
  5
68A
100
AcDbEntity
  8
AT110_010_00_new_view_5_BL12
100
AcDbCircle
 62
9
  6
CONTINUOUS
 10
125.780354756
 20
205.9279719685
 40
21.9526348716
100
AcDbArc
 50
220.3786293298
 51
221.4288992951
  0
SPLINE
  5
68B
100
AcDbEntity
  8
AT110_010_00_new_view_5_BL12
100
AcDbSpline
 62
9
  6
CONTINUOUS
 70
0
 71
3
 72
9
 73
5
 74
0
 42
0.0000001
 43
0.0000001
 44
0.0000000001
 40
0.0
 40
0.0
 40
0.0
 40
0.0
 40
0.2542981076
 40
1.0
 40
1.0
 40
1.0
 40
1.0
 10
109.0572766542
 20
191.7062689549
 30
0.0
 10
108.9583763505
 20
191.8225750724
 30
0.0
 10
108.5743188055
 20
192.2840345238
 30
0.0
 10
108.2101143705
 20
192.7620961245
 30
0.0
 10
107.9516422221
 20
193.1276357529
 30
0.0
  0
ARC
  5
68C
100
AcDbEntity
  8
AT110_010_00_new_view_5_BL12
100
AcDbCircle
 62
7
  6
CONTINUOUS
 10
118.6402027305
 20
201.795737159
 40
11.9345649254
100
AcDbArc
 50
181.1671052842
 51
185.7799886527
  0
ARC
  5
68D
100
AcDbEntity
  8
AT110_010_00_new_view_5_BL12
100
AcDbCircle
 62
7
  6
CONTINUOUS
 10
118.5930725833
 20
201.793278213
 40
11.8873945654
100
AcDbArc
 50
177.1452495885
 51
181.1598828467
  0
ARC
  5
68E
100
AcDbEntity
  8
AT110_010_00_new_view_5_BL12
100
AcDbCircle
 62
7
  6
CONTINUOUS
 10
118.7392803424
 20
201.7843415985
 40
12.033866074
100
AcDbArc
 50
169.5753693381
 51
177.1374232693
  0
ARC
  5
68F
100
AcDbEntity
  8
AT110_010_00_new_view_5_BL12
100
AcDbCircle
 62
7
  6
CONTINUOUS
 10
119.2356611368
 20
201.697639231
 40
12.5377424158
100
AcDbArc
 50
165.482843836
 51
169.5961387821
  0
ARC
  5
690
100
AcDbEntity
  8
AT110_010_00_new_view_5_BL12
100
AcDbCircle
 62
7
  6
CONTINUOUS
 10
119.8424239379
 20
201.5383881541
 40
13.1650524857
100
AcDbArc
 50
158.8720956188
 51
165.4738373781
  0
ARC
  5
691
100
AcDbEntity
  8
AT110_010_00_new_view_5_BL12
100
AcDbCircle
 62
7
  6
CONTINUOUS
 10
120.8048537771
 20
201.181636158
 40
14.1913846649
100
AcDbArc
 50
155.0089048303
 51
158.9291778137
  0
SPLINE
  5
692
100
AcDbEntity
  8
AT110_010_00_new_view_5_BL12
100
AcDbSpline
 62
7
  6
CONTINUOUS
 70
0
 71
3
 72
9
 73
5
 74
0
 42
0.0000001
 43
0.0000001
 44
0.0000000001
 40
0.0
 40
0.0
 40
0.0
 40
0.0
 40
0.2465098721
 40
1.0
 40
1.0
 40
1.0
 40
1.0
 10
107.9421593728
 20
207.1771754471
 30
0.0
 10
107.9976411476
 20
207.2963702477
 30
0.0
 10
108.2291752784
 20
207.7768727106
 30
0.0
 10
108.4861332443
 20
208.2450547199
 30
0.0
 10
108.6922172818
 20
208.5900605844
 30
0.0
  0
ARC
  5
693
100
AcDbEntity
  8
AT110_010_00_new_view_5_BL12
100
AcDbCircle
 62
7
  6
CONTINUOUS
 10
123.3193678097
 20
199.8491004139
 40
17.0398919383
100
AcDbArc
 50
145.7782840344
 51
149.1381101136
  0
SPLINE
  5
694
100
AcDbEntity
  8
AT110_010_00_new_view_5_BL12
100
AcDbSpline
 62
7
  6
CONTINUOUS
 70
0
 71
3
 72
9
 73
5
 74
0
 42
0.0000001
 43
0.0000001
 44
0.0000000001
 40
0.0
 40
0.0
 40
0.0
 40
0.0
 40
0.2455830397
 40
1.0
 40
1.0
 40
1.0
 40
1.0
 10
109.229635358
 20
209.4322813423
 30
0.0
 10
109.314793233
 20
209.5576334927
 30
0.0
 10
109.6680552217
 20
210.0636231273
 30
0.0
 10
110.0466750451
 20
210.551812204
 30
0.0
 10
110.344284608
 20
210.9097864971
 30
0.0
  0
ARC
  5
695
100
AcDbEntity
  8
AT110_010_00_new_view_5_BL12
100
AcDbCircle
 62
7
  6
CONTINUOUS
 10
126.6245600377
 20
197.3713489159
 40
21.1739618449
100
AcDbArc
 50
137.7765310776
 51
140.2535878777
  0
SPLINE
  5
696
100
AcDbEntity
  8
AT110_010_00_new_view_5_BL12
100
AcDbSpline
 62
7
  6
CONTINUOUS
 70
0
 71
3
 72
9
 73
5
 74
0
 42
0.0000001
 43
0.0000001
 44
0.0000000001
 40
0.0
 40
0.0
 40
0.0
 40
0.0
 40
0.2432436018
 40
1.0
 40
1.0
 40
1.0
 40
1.0
 10
110.944618974
 20
211.6007588983
 30
0.0
 10
111.1061589427
 20
211.7789003777
 30
0.0
 10
111.7822308544
 20
212.5003682814
 30
0.0
 10
112.5039153382
 20
213.1786915075
 30
0.0
 10
113.0694647449
 20
213.6684716608
 30
0.0
  0
ENDBLK
  5
697
100
AcDbEntity
  8
0
  6
BYBLOCK
 62
0
100
AcDbBlockEnd
  0
BLOCK
  5
698
100
AcDbEntity
  8
AT110_009_01_new_view_5_BL13
100
AcDbBlockBegin
  2
AT110_009_01_NEW_VIEW_5_BL13
 70
64
 10
154.2053854489
 20
166.8466693827
  3
AT110_009_01_NEW_VIEW_5_BL13
  1

  0
SPLINE
  5
699
100
AcDbEntity
  8
AT110_009_01_new_view_5_BL13
100
AcDbSpline
 62
7
  6
CONTINUOUS
 70
0
 71
3
 72
9
 73
5
 74
0
 42
0.0000001
 43
0.0000001
 44
0.0000000001
 40
0.0
 40
0.0
 40
0.0
 40
0.0
 40
0.5058253154
 40
1.0
 40
1.0
 40
1.0
 40
1.0
 10
158.9322815541
 20
193.167729049
 30
0.0
 10
158.9671022844
 20
193.0961814837
 30
0.0
 10
159.0259491817
 20
192.9495750146
 30
0.0
 10
159.0609389463
 20
192.7953884245
 30
0.0
 10
159.0717354658
 20
192.7184035948
 30
0.0
  0
ARC
  5
69A
100
AcDbEntity
  8
AT110_009_01_new_view_5_BL13
100
AcDbCircle
 62
7
  6
CONTINUOUS
 10
157.7048670463
 20
192.5265431694
 40
1.380267981
100
AcDbArc
 50
0.5919773518
 51
7.9901178314
  0
ARC
  5
69B
100
AcDbEntity
  8
AT110_009_01_new_view_5_BL13
100
AcDbCircle
 62
7
  6
CONTINUOUS
 10
150.7063960438
 20
192.526547077
 40
1.3801881857
100
AcDbArc
 50
172.0383978245
 51
179.4081506468
  0
SPLINE
  5
69C
100
AcDbEntity
  8
AT110_009_01_new_view_5_BL13
100
AcDbSpline
 62
7
  6
CONTINUOUS
 70
0
 71
3
 72
9
 73
5
 74
0
 42
0.0000001
 43
0.0000001
 44
0.0000000001
 40
0.0
 40
0.0
 40
0.0
 40
0.0
 40
0.4941385658
 40
1.0
 40
1.0
 40
1.0
 40
1.0
 10
149.3395113322
 20
192.7177161467
 30
0.0
 10
149.3503240548
 20
192.7950961148
 30
0.0
 10
149.385486341
 20
192.9500848148
 30
0.0
 10
149.444745964
 20
193.0974065827
 30
0.0
 10
149.4798221019
 20
193.1692906753
 30
0.0
  0
ARC
  5
69D
100
AcDbEntity
  8
AT110_009_01_new_view_5_BL13
100
AcDbCircle
 62
7
  6
CONTINUOUS
 10
188.5500608571
 20
191.3955279438
 40
12.6468593664
100
AcDbArc
 50
359.4555294178
 51
11.7336907026
  0
SPLINE
  5
69E
100
AcDbEntity
  8
AT110_009_01_new_view_5_BL13
100
AcDbSpline
 62
7
  6
CONTINUOUS
 70
0
 71
3
 72
15
 73
11
 74
0
 42
0.0000001
 43
0.0000001
 44
0.0000000001
 40
0.0
 40
0.0
 40
0.0
 40
0.0
 40
0.1094500612
 40
0.2207516932
 40
0.3354946394
 40
0.4550554934
 40
0.5805524866
 40
0.7128396699
 40
0.8525248842
 40
1.0
 40
1.0
 40
1.0
 40
1.0
 10
199.1964502986
 20
191.2953932386
 30
0.0
 10
199.1918586623
 20
190.839692227
 30
0.0
 10
199.1223654541
 20
189.9201051944
 30
0.0
 10
198.8383722992
 20
188.5487418301
 30
0.0
 10
198.3738868644
 20
187.183035504
 30
0.0
 10
197.7287692499
 20
185.8274668461
 30
0.0
 10
196.9036074279
 20
184.4871528735
 30
0.0
 10
195.9000420079
 20
183.1681010231
 30
0.0
 10
194.7210649214
 20
181.8768500499
 30
0.0
 10
193.8448408955
 20
181.0612590071
 30
0.0
 10
193.3806616156
 20
180.6592679588
 30
0.0
  0
ARC
  5
69F
100
AcDbEntity
  8
AT110_009_01_new_view_5_BL13
100
AcDbCircle
 62
7
  6
CONTINUOUS
 10
119.8587214631
 20
191.395689565
 40
12.6442997666
100
AcDbArc
 50
168.3532976958
 51
180.5463386189
  0
SPLINE
  5
6A0
100
AcDbEntity
  8
AT110_009_01_new_view_5_BL13
100
AcDbSpline
 62
7
  6
CONTINUOUS
 70
0
 71
3
 72
39
 73
35
 74
0
 42
0.0000001
 43
0.0000001
 44
0.0000000001
 40
0.0
 40
0.0
 40
0.0
 40
0.0
 40
0.0259219595
 40
0.0535291887
 40
0.0827885652
 40
0.1136327946
 40
0.1459665988
 40
0.1796715838
 40
0.2146101693
 40
0.2506288784
 40
0.2875611909
 40
0.3252300925
 40
0.3634504236
 40
0.4020310936
 40
0.4407772072
 40
0.4794921401
 40
0.5179795928
 40
0.5560456493
 40
0.5935008646
 40
0.6301624149
 40
0.6658563491
 40
0.700419991
 40
0.7337045745
 40
0.7655782168
 40
0.7959293846
 40
0.8246710856
 40
0.8517461045
 40
0.8771337205
 40
0.9008583961
 40
0.9230008154
 40
0.9437108989
 40
0.9632204842
 40
0.9818499548
 40
1.0
 40
1.0
 40
1.0
 40
1.0
 10
193.3806616156
 20
180.6592679588
 30
0.0
 10
192.7567122585
 20
180.1189119648
 30
0.0
 10
191.4139924179
 20
179.0647081609
 30
0.0
 10
189.2112532554
 20
177.6120358146
 30
0.0
 10
186.7708280437
 20
176.2491196883
 30
0.0
 10
184.109763756
 20
174.9866925761
 30
0.0
 10
181.2463222259
 20
173.8342105965
 30
0.0
 10
178.2001922616
 20
172.8002040195
 30
0.0
 10
174.9921963713
 20
171.8921722704
 30
0.0
 10
171.6441705997
 20
171.1166142808
 30
0.0
 10
168.1788077624
 20
170.4790173418
 30
0.0
 10
164.6195159294
 20
169.9838544572
 30
0.0
 10
160.990273012
 20
169.6345771999
 30
0.0
 10
157.3154807108
 20
169.4336094261
 30
0.0
 10
153.6198164322
 20
169.3823419028
 30
0.0
 10
149.9280838943
 20
169.4811289832
 30
0.0
 10
146.265063025
 20
169.7292877168
 30
0.0
 10
142.6553599901
 20
170.125099544
 30
0.0
 10
139.1232581656
 20
170.6658143313
 30
0.0
 10
135.6925706311
 20
171.3476561651
 30
0.0
 10
132.3864945056
 20
172.1658299564
 30
0.0
 10
129.2274665924
 20
173.114527625
 30
0.0
 10
126.2370186919
 20
174.1869324656
 30
0.0
 10
123.4356289336
 20
175.3752207652
 30
0.0
 10
120.8425625441
 20
176.670561115
 30
0.0
 10
118.475691149
 20
178.0631164025
 30
0.0
 10
116.3512748657
 20
179.5420610915
 30
0.0
 10
114.4836900252
 20
181.0956483576
 30
0.0
 10
112.8850955101
 20
182.7113709871
 30
0.0
 10
111.5650705975
 20
184.3763435895
 30
0.0
 10
110.5303439985
 20
186.0778254276
 30
0.0
 10
109.7848309426
 20
187.804346389
 30
0.0
 10
109.3301888891
 20
189.5453849025
 30
0.0
 10
109.2207062863
 20
190.7176464825
 30
0.0
 10
109.2148911427
 20
191.2955512324
 30
0.0
  0
SPLINE
  5
6A1
100
AcDbEntity
  8
AT110_009_01_new_view_5_BL13
100
AcDbSpline
 62
7
  6
CONTINUOUS
 70
0
 71
3
 72
37
 73
33
 74
0
 42
0.0000001
 43
0.0000001
 44
0.0000000001
 40
0.0
 40
0.0
 40
0.0
 40
0.0
 40
0.0291610036
 40
0.0586514713
 40
0.0885852396
 40
0.1190520761
 40
0.1501104419
 40
0.1817843388
 40
0.2140635046
 40
0.2469061739
 40
0.2802427874
 40
0.3139809191
 40
0.3821909945
 40
0.4505542832
 40
0.4844777123
 40
0.518062564
 40
0.5512053017
 40
0.583822293
 40
0.6158549484
 40
0.6472740496
 40
0.6780833063
 40
0.7083210937
 40
0.7380593277
 40
0.7673989457
 40
0.796460575
 40
0.8253709113
 40
0.8542464271
 40
0.8831779282
 40
0.9122199669
 40
0.9413879777
 40
0.9706627514
 40
1.0
 40
1.0
 40
1.0
 40
1.0
 10
191.5488525235
 20
151.3323086519
 30
0.0
 10
190.8016746936
 20
150.6852336701
 30
0.0
 10
189.2403740069
 20
149.4499807057
 30
0.0
 10
186.7403459823
 20
147.7819121504
 30
0.0
 10
184.0855055892
 20
146.2815197663
 30
0.0
 10
181.2875056369
 20
144.9417901783
 30
0.0
 10
178.356844951
 20
143.7574470221
 30
0.0
 10
175.3045034255
 20
142.7253047899
 30
0.0
 10
172.142627339
 20
141.8438477336
 30
0.0
 10
168.884987686
 20
141.1128223187
 30
0.0
 10
165.5469525443
 20
140.5327132169
 30
0.0
 10
160.9959545473
 20
139.9597690085
 30
0.0
 10
155.2243834132
 20
139.6305470059
 30
0.0
 10
149.44006377
 20
139.810162653
 30
0.0
 10
144.8555823872
 20
140.2627200472
 30
0.0
 10
141.4782029409
 20
140.7537695443
 30
0.0
 10
138.1714066085
 20
141.3962350379
 30
0.0
 10
134.9515082167
 20
142.1893676561
 30
0.0
 10
131.8332734663
 20
143.1329103896
 30
0.0
 10
128.8297624117
 20
144.2275850364
 30
0.0
 10
125.9525690666
 20
145.475547456
 30
0.0
 10
123.2123684594
 20
146.8808078166
 30
0.0
 10
120.6198978842
 20
148.4494405785
 30
0.0
 10
118.1873886036
 20
150.1893615155
 30
0.0
 10
115.9303278354
 20
152.1094024491
 30
0.0
 10
113.8692067452
 20
154.2174330812
 30
0.0
 10
112.0306370423
 20
156.5174933697
 30
0.0
 10
110.447128814
 20
159.0063351386
 30
0.0
 10
109.1550198722
 20
161.6700584353
 30
0.0
 10
108.1906123086
 20
164.482326433
 30
0.0
 10
107.5852873898
 20
167.4033261693
 30
0.0
 10
107.4355993209
 20
169.3909980402
 30
0.0
 10
107.4255792419
 20
170.385344808
 30
0.0
  0
SPLINE
  5
6A2
100
AcDbEntity
  8
AT110_009_01_new_view_5_BL13
100
AcDbSpline
 62
7
  6
CONTINUOUS
 70
0
 71
3
 72
15
 73
11
 74
0
 42
0.0000001
 43
0.0000001
 44
0.0000000001
 40
0.0
 40
0.0
 40
0.0
 40
0.0
 40
0.1261463673
 40
0.2520586514
 40
0.3775648933
 40
0.5025729298
 40
0.627103694
 40
0.7513107066
 40
0.875479064
 40
1.0
 40
1.0
 40
1.0
 40
1.0
 10
200.9857636073
 20
170.385344808
 30
0.0
 10
200.9764778051
 20
169.4638643071
 30
0.0
 10
200.8466112089
 20
167.6218204049
 30
0.0
 10
200.3240120527
 20
164.9072970261
 30
0.0
 10
199.4898805693
 20
162.2804593622
 30
0.0
 10
198.3680726491
 20
159.7747036784
 30
0.0
 10
196.9869173652
 20
157.4136485613
 30
0.0
 10
195.3756939856
 20
155.2114831216
 30
0.0
 10
193.5619552031
 20
153.1740154772
 30
0.0
 10
192.2364856693
 20
151.9278164246
 30
0.0
 10
191.5488525235
 20
151.3323086519
 30
0.0
  0
LINE
  5
6A3
100
AcDbEntity
  8
AT110_009_01_new_view_5_BL13
100
AcDbLine
 62
7
  6
CONTINUOUS
 10
159.0850613566
 20
192.5408037809
 11
159.2011091124
 21
181.0247557157
  0
LINE
  5
6A4
100
AcDbEntity
  8
AT110_009_01_new_view_5_BL13
100
AcDbLine
 62
7
  6
CONTINUOUS
 10
149.3262814926
 20
192.5408037809
 11
149.2102257241
 21
181.0239605667
  0
LINE
  5
6A5
100
AcDbEntity
  8
AT110_009_01_new_view_5_BL13
100
AcDbLine
 62
7
  6
CONTINUOUS
 10
201.1962719367
 20
191.2752277933
 11
200.9857636073
 21
170.385344808
  0
LINE
  5
6A6
100
AcDbEntity
  8
AT110_009_01_new_view_5_BL13
100
AcDbLine
 62
7
  6
CONTINUOUS
 10
107.2150709125
 20
191.2752277933
 11
107.4255792419
 21
170.385344808
  0
ARC
  5
6A7
100
AcDbEntity
  8
AT110_009_01_new_view_5_BL13
100
AcDbCircle
 62
9
  6
CONTINUOUS
 10
187.9494667483
 20
191.4087281137
 40
11.2475539704
100
AcDbArc
 50
359.4226597574
 51
359.858059889
  0
ARC
  5
6A8
100
AcDbEntity
  8
AT110_009_01_new_view_5_BL13
100
AcDbCircle
 62
9
  6
CONTINUOUS
 10
176.770372142
 20
162.9716628754
 40
24.7837379209
100
AcDbArc
 50
46.6971063046
 51
48.5467632415
  0
SPLINE
  5
6A9
100
AcDbEntity
  8
AT110_009_01_new_view_5_BL13
100
AcDbSpline
 62
9
  6
CONTINUOUS
 70
0
 71
3
 72
41
 73
37
 74
0
 42
0.0000001
 43
0.0000001
 44
0.0000000001
 40
0.0
 40
0.0
 40
0.0
 40
0.0
 40
0.0261657401
 40
0.053896626
 40
0.0831780602
 40
0.1139594651
 40
0.1461601178
 40
0.1796740726
 40
0.2143743274
 40
0.2501164058
 40
0.2867415023
 40
0.3240793085
 40
0.3619506124
 40
0.4001697386
 40
0.4385468847
 40
0.476890395
 40
0.5150090071
 40
0.5527141044
 40
0.5898220075
 40
0.6261563416
 40
0.6615505259
 40
0.6958504431
 40
0.7289173665
 40
0.7606312425
 40
0.7908944603
 40
0.8196362624
 40
0.8468179717
 40
0.8724391825
 40
0.8965449342
 40
0.9192335469
 40
0.9406641038
 40
0.9610614355
 40
0.9709681216
 40
0.9807300954
 40
0.9903918634
 40
1.0
 40
1.0
 40
1.0
 40
1.0
 10
194.7189338858
 20
158.8080246093
 30
0.0
 10
194.0630400702
 20
158.2400039028
 30
0.0
 10
192.65539681
 20
157.1342904757
 30
0.0
 10
190.3511199634
 20
155.6136655732
 30
0.0
 10
187.807672568
 20
154.1922227009
 30
0.0
 10
185.0419735971
 20
152.8792994444
 30
0.0
 10
182.0721021984
 20
151.6833497004
 30
0.0
 10
178.917623608
 20
150.6122195032
 30
0.0
 10
175.5993393699
 20
149.6729563112
 30
0.0
 10
172.1391819416
 20
148.8717720906
 30
0.0
 10
168.5600536857
 20
148.213979114
 30
0.0
 10
164.885671751
 20
147.7039479168
 30
0.0
 10
161.1404040527
 20
147.3450715998
 30
0.0
 10
157.3491023796
 20
147.1397397308
 30
0.0
 10
153.5369324234
 20
147.0893201793
 30
0.0
 10
149.7292021104
 20
147.1941489
 30
0.0
 10
145.9511891103
 20
147.4535274311
 30
0.0
 10
142.2279685223
 20
147.8657280953
 30
0.0
 10
138.5842416994
 20
148.4280069703
 30
0.0
 10
135.0441672004
 20
149.1366248258
 30
0.0
 10
131.6311949072
 20
149.9868763927
 30
0.0
 10
128.3679044719
 20
150.9731286
 30
0.0
 10
125.275849579
 20
152.0888687096
 30
0.0
 10
122.3754101297
 20
153.3267639757
 30
0.0
 10
119.6856559208
 20
154.6787341046
 30
0.0
 10
117.2242274436
 20
156.136040676
 30
0.0
 10
115.0072452817
 20
157.6893863983
 30
0.0
 10
113.0492604317
 20
159.3290454038
 30
0.0
 10
111.3632820741
 20
161.0449152849
 30
0.0
 10
109.9608518553
 20
162.8267499451
 30
0.0
 10
108.8523101357
 20
164.6634363473
 30
0.0
 10
108.1742982484
 20
166.2465557503
 30
0.0
 10
107.7937169782
 20
167.5206709114
 30
0.0
 10
107.5885353783
 20
168.472472831
 30
0.0
 10
107.4614024021
 20
169.4277451575
 30
0.0
 10
107.4287900679
 20
170.0667514973
 30
0.0
 10
107.4255793034
 20
170.3853448082
 30
0.0
  0
SPLINE
  5
6AA
100
AcDbEntity
  8
AT110_009_01_new_view_5_BL13
100
AcDbSpline
 62
7
  6
CONTINUOUS
 70
0
 71
3
 72
15
 73
11
 74
0
 42
0.0000001
 43
0.0000001
 44
0.0000000001
 40
0.0
 40
0.0
 40
0.0
 40
0.0
 40
0.1442838571
 40
0.281728701
 40
0.41276797
 40
0.5380161235
 40
0.6582802923
 40
0.7745598348
 40
0.8880292712
 40
1.0
 40
1.0
 40
1.0
 40
1.0
 10
194.9012417608
 20
179.6458101697
 30
0.0
 10
195.3966964545
 20
180.0748865209
 30
0.0
 10
196.334389751
 20
180.9480526992
 30
0.0
 10
197.5995611306
 20
182.3349114575
 30
0.0
 10
198.6832555553
 20
183.7611343234
 30
0.0
 10
199.5804949894
 20
185.2210110787
 30
0.0
 10
200.2870095702
 20
186.7086693108
 30
0.0
 10
200.7991217166
 20
188.2180027627
 30
0.0
 10
201.1139184461
 20
189.7420490956
 30
0.0
 10
201.1911461006
 20
190.7666145325
 30
0.0
 10
201.196271875
 20
191.2752277936
 30
0.0
  0
SPLINE
  5
6AB
100
AcDbEntity
  8
AT110_009_01_new_view_5_BL13
100
AcDbSpline
 62
9
  6
CONTINUOUS
 70
0
 71
3
 72
11
 73
7
 74
0
 42
0.0000001
 43
0.0000001
 44
0.0000000001
 40
0.0
 40
0.0
 40
0.0
 40
0.0
 40
0.282213421
 40
0.5384094387
 40
0.7746153823
 40
1.0
 40
1.0
 40
1.0
 40
1.0
 10
158.4314006983
 20
191.3086483537
 30
0.0
 10
158.5336232286
 20
191.3971756618
 30
0.0
 10
158.7171341905
 20
191.5804271228
 30
0.0
 10
158.9290179162
 20
191.8881981959
 30
0.0
 10
159.0582653464
 20
192.2103400549
 30
0.0
 10
159.0861490788
 20
192.4328120272
 30
0.0
 10
159.0850610684
 20
192.540803688
 30
0.0
  0
SPLINE
  5
6AC
100
AcDbEntity
  8
AT110_009_01_new_view_5_BL13
100
AcDbSpline
 62
9
  6
CONTINUOUS
 70
0
 71
3
 72
11
 73
7
 74
0
 42
0.0000001
 43
0.0000001
 44
0.0000000001
 40
0.0
 40
0.0
 40
0.0
 40
0.0
 40
0.2323301401
 40
0.4721520166
 40
0.7263158303
 40
1.0
 40
1.0
 40
1.0
 40
1.0
 10
149.3262817822
 20
192.5408037802
 30
0.0
 10
149.3253949808
 20
192.4527843159
 30
0.0
 10
149.3432732178
 20
192.2731452549
 30
0.0
 10
149.4281013324
 20
192.0094664712
 30
0.0
 10
149.5690297246
 20
191.7532871575
 30
0.0
 10
149.6937403853
 20
191.5957816791
 30
0.0
 10
149.7634861352
 20
191.5190513519
 30
0.0
  0
SPLINE
  5
6AD
100
AcDbEntity
  8
AT110_009_01_new_view_5_BL13
100
AcDbSpline
 62
9
  6
CONTINUOUS
 70
0
 71
3
 72
23
 73
19
 74
0
 42
0.0000001
 43
0.0000001
 44
0.0000000001
 40
0.0
 40
0.0
 40
0.0
 40
0.0
 40
0.0466909306
 40
0.09827505
 40
0.1547170771
 40
0.2156699636
 40
0.2805551676
 40
0.3486235862
 40
0.4190036651
 40
0.4907418159
 40
0.5628385412
 40
0.6342824788
 40
0.7040839444
 40
0.7713094016
 40
0.8351185685
 40
0.8948066579
 40
0.9498556056
 40
1.0
 40
1.0
 40
1.0
 40
1.0
 10
149.7634861352
 20
191.5190513519
 30
0.0
 10
149.8604343023
 20
191.4123944648
 30
0.0
 10
150.085916716
 20
191.2070107003
 30
0.0
 10
150.4831031915
 20
190.9395337663
 30
0.0
 10
150.9486099362
 20
190.701728735
 30
0.0
 10
151.4739557384
 20
190.4978345081
 30
0.0
 10
152.0496799184
 20
190.3314323083
 30
0.0
 10
152.6652419388
 20
190.205580783
 30
0.0
 10
153.3093140003
 20
190.1226058139
 30
0.0
 10
153.9699901541
 20
190.0840558624
 30
0.0
 10
154.635033899
 20
190.090651484
 30
0.0
 10
155.2921215836
 20
190.1422695824
 30
0.0
 10
155.9290870828
 20
190.2379444184
 30
0.0
 10
156.5341716937
 20
190.3758980298
 30
0.0
 10
157.0962422531
 20
190.5535720277
 30
0.0
 10
157.605091892
 20
190.7677743653
 30
0.0
 10
158.051399996
 20
191.0145979002
 30
0.0
 10
158.3143867657
 20
191.2073113155
 30
0.0
 10
158.4314006983
 20
191.3086483537
 30
0.0
  0
LINE
  5
6AE
100
AcDbEntity
  8
AT110_009_01_new_view_5_BL13
100
AcDbLine
 62
9
  6
CONTINUOUS
 10
199.1964497678
 20
191.2953941873
 11
199.1964496337
 21
191.2953808726
  0
SPLINE
  5
6AF
100
AcDbEntity
  8
AT110_009_01_new_view_5_BL13
100
AcDbSpline
 62
7
  6
CONTINUOUS
 70
0
 71
3
 72
41
 73
37
 74
0
 42
0.0000001
 43
0.0000001
 44
0.0000000001
 40
0.0
 40
0.0
 40
0.0
 40
0.0
 40
0.0096081337
 40
0.0192699035
 40
0.0290318833
 40
0.0389385794
 40
0.0593359411
 40
0.0807665376
 40
0.1034551958
 40
0.1275609954
 40
0.1531822538
 40
0.1803640079
 40
0.2091058505
 40
0.2393691035
 40
0.2710830084
 40
0.304149954
 40
0.3384498865
 40
0.3738440791
 40
0.4101784149
 40
0.4472863131
 40
0.4849913997
 40
0.5231099955
 40
0.5614534849
 40
0.599830606
 40
0.6380497038
 40
0.6759209767
 40
0.7132587502
 40
0.749883813
 40
0.7856258576
 40
0.8203260793
 40
0.8538400022
 40
0.886040625
 40
0.9168220025
 40
0.9461034124
 40
0.9738342774
 40
1.0
 40
1.0
 40
1.0
 40
1.0
 10
107.215071969
 20
191.2751291307
 30
0.0
 10
107.2182998653
 20
190.9551026039
 30
0.0
 10
107.2510642702
 20
190.3132217125
 30
0.0
 10
107.3787770191
 20
189.353652529
 30
0.0
 10
107.5848893209
 20
188.3975695245
 30
0.0
 10
107.9671928038
 20
187.1177235573
 30
0.0
 10
108.6482669948
 20
185.5274840605
 30
0.0
 10
109.7618090056
 20
183.6825379187
 30
0.0
 10
111.1705606202
 20
181.8926906578
 30
0.0
 10
112.8641349433
 20
180.1691052487
 30
0.0
 10
114.8309383916
 20
178.5220738368
 30
0.0
 10
117.0579032441
 20
176.9617442314
 30
0.0
 10
119.5304130334
 20
175.497886006
 30
0.0
 10
122.232274652
 20
174.1398382273
 30
0.0
 10
125.1457682581
 20
172.8963785744
 30
0.0
 10
128.2517382856
 20
171.7756236392
 30
0.0
 10
131.5297131811
 20
170.7849391033
 30
0.0
 10
134.9580423386
 20
169.9308669538
 30
0.0
 10
138.5140445788
 20
169.2190655562
 30
0.0
 10
142.1741645873
 20
168.6542613036
 30
0.0
 10
145.9141351923
 20
168.2402102084
 30
0.0
 10
149.7091439937
 20
167.9796685021
 30
0.0
 10
153.5340031696
 20
167.8743716042
 30
0.0
 10
157.3633214211
 20
167.9250210936
 30
0.0
 10
161.1716770609
 20
168.1312794845
 30
0.0
 10
164.933791278
 20
168.4917727396
 30
0.0
 10
168.6247005787
 20
169.0041005325
 30
0.0
 10
172.2199275191
 20
169.6648544949
 30
0.0
 10
175.6956483489
 20
170.4696444319
 30
0.0
 10
179.0288577667
 20
171.4131341803
 30
0.0
 10
182.1975247368
 20
172.4890838411
 30
0.0
 10
185.1807542194
 20
173.690414269
 30
0.0
 10
187.9588930395
 20
175.0092441553
 30
0.0
 10
190.5137807889
 20
176.4370815972
 30
0.0
 10
192.8284224468
 20
177.9645470326
 30
0.0
 10
194.2423975421
 20
179.0752343392
 30
0.0
 10
194.9012417608
 20
179.6458101697
 30
0.0
  0
LINE
  5
6B0
100
AcDbEntity
  8
AT110_009_01_new_view_5_BL13
100
AcDbLine
 62
9
  6
CONTINUOUS
 10
109.2148914357
 20
191.2955636138
 11
109.2144411488
 21
191.3569853812
  0
LINE
  5
6B1
100
AcDbEntity
  8
AT110_009_01_new_view_5_BL13
100
AcDbLine
 62
9
  6
CONTINUOUS
 10
159.0850613575
 20
192.5408036887
 11
159.0850613566
 21
192.5408037809
  0
SPLINE
  5
6B2
100
AcDbEntity
  8
AT110_009_01_new_view_5_BL13
100
AcDbSpline
 62
9
  6
CONTINUOUS
 70
0
 71
3
 72
15
 73
11
 74
0
 42
0.0000001
 43
0.0000001
 44
0.0000000001
 40
0.0
 40
0.0
 40
0.0
 40
0.0
 40
0.1119707288
 40
0.2254401652
 40
0.3417197077
 40
0.4619838765
 40
0.58723203
 40
0.718271299
 40
0.8557161429
 40
1.0
 40
1.0
 40
1.0
 40
1.0
 10
200.9857635458
 20
170.3853448083
 30
0.0
 10
200.9806607339
 20
169.8790100311
 30
0.0
 10
200.9037790435
 20
168.8590344389
 30
0.0
 10
200.5903925394
 20
167.3418155235
 30
0.0
 10
200.0805745511
 20
165.8392435784
 30
0.0
 10
199.377225012
 20
164.3582497525
 30
0.0
 10
198.4840050279
 20
162.904912948
 30
0.0
 10
197.4051653338
 20
161.4850792704
 30
0.0
 10
196.1456616645
 20
160.1044333572
 30
0.0
 10
195.2121690432
 20
159.2351787857
 30
0.0
 10
194.7189338858
 20
158.8080246093
 30
0.0
  0
LINE
  5
6B3
100
AcDbEntity
  8
AT110_009_01_new_view_5_BL13
100
AcDbLine
 62
7
  6
CONTINUOUS
 10
107.2150709125
 20
191.2752277942
 11
107.2150719072
 21
191.2751291306
  0
ARC
  5
6B4
100
AcDbEntity
  8
AT110_009_01_new_view_5_BL13
100
AcDbCircle
 62
9
  6
CONTINUOUS
 10
131.4724587428
 20
163.1563605731
 40
24.5337518049
100
AcDbArc
 50
131.4425663859
 51
133.3136091644
  0
LINE
  5
6B5
100
AcDbEntity
  8
AT110_009_01_new_view_5_BL13
100
AcDbLine
 62
9
  6
CONTINUOUS
 10
109.2148932204
 20
191.2953803903
 11
109.2148913755
 21
191.2955636137
  0
ENDBLK
  5
6B6
100
AcDbEntity
  8
0
  6
BYBLOCK
 62
0
100
AcDbBlockEnd
  0
BLOCK
  5
6B7
100
AcDbEntity
  8
AT110_008_01_new_view_5_BL14
100
AcDbBlockBegin
  2
AT110_008_01_NEW_VIEW_5_BL14
 70
64
 10
154.2060423386
 20
198.0124413704
  3
AT110_008_01_NEW_VIEW_5_BL14
  1

  0
LINE
  5
6B8
100
AcDbEntity
  8
AT110_008_01_new_view_5_BL14
100
AcDbLine
 62
7
  6
CONTINUOUS
 10
128.0964801556
 20
199.1496283886
 11
128.0968284206
 21
199.1498903923
  0
LWPOLYLINE
  5
6B9
100
AcDbEntity
  8
AT110_008_01_new_view_5_BL14
100
AcDbPolyline
 62
7
  6
CONTINUOUS
 90
7
 70
0
 10
124.794458704
 20
195.6150355008
 10
125.0677819852
 20
195.9853867518
 10
125.7443816705
 20
196.8321551408
 10
126.4461256863
 20
197.6233011339
 10
127.1139172201
 20
198.3007746126
 10
127.7155512312
 20
198.8444646512
 10
128.0964709231
 20
199.1496407411
  0
LINE
  5
6BA
100
AcDbEntity
  8
AT110_008_01_new_view_5_BL14
100
AcDbLine
 62
7
  6
CONTINUOUS
 10
174.9911740582
 20
185.4086479673
 11
174.9911731698
 21
185.4086491609
  0
LWPOLYLINE
  5
6BB
100
AcDbEntity
  8
AT110_008_01_new_view_5_BL14
100
AcDbPolyline
 62
7
  6
CONTINUOUS
 90
13
 70
0
 10
128.0968284206
 20
199.1498903923
 10
131.2547448602
 20
201.0442046228
 10
134.4584088139
 20
202.1977859358
 10
137.9117758128
 20
202.7994993375
 10
142.0366373943
 20
202.8190319742
 10
146.7355559302
 20
202.0792602937
 10
151.6351324107
 20
200.7523765891
 10
156.4221978367
 20
199.2616178751
 10
160.9873054133
 20
197.3055901585
 10
165.2267597052
 20
194.7966153041
 10
169.0335545815
 20
191.8507738584
 10
172.340615265
 20
188.6160223431
 10
174.9912026007
 20
185.4086692467
  0
LWPOLYLINE
  5
6BC
100
AcDbEntity
  8
AT110_008_01_new_view_5_BL14
100
AcDbPolyline
 62
7
  6
CONTINUOUS
 90
3
 70
0
 10
174.9911731698
 20
185.4086491609
 10
175.3377154709
 20
184.8624620199
 10
175.6131449256
 20
184.1924030687
  0
LINE
  5
6BD
100
AcDbEntity
  8
AT110_008_01_new_view_5_BL14
100
AcDbLine
 62
7
  6
CONTINUOUS
 10
182.6754451492
 20
192.3993809309
 11
182.675339757
 21
192.399515237
  0
LWPOLYLINE
  5
6BE
100
AcDbEntity
  8
AT110_008_01_new_view_5_BL14
100
AcDbPolyline
 62
7
  6
CONTINUOUS
 90
4
 70
0
 10
186.224354687
 20
191.6848557244
 10
186.220232457
 20
191.6815197174
 10
186.1143126062
 20
191.6100240648
 10
185.864514739
 20
191.4862617575
  0
LWPOLYLINE
  5
6BF
100
AcDbEntity
  8
AT110_008_01_new_view_5_BL14
100
AcDbPolyline
 62
7
  6
CONTINUOUS
 90
7
 70
0
 10
185.864514739
 20
191.4862617575
 10
185.4626137751
 20
191.3628296643
 10
184.9210313564
 20
191.3047711811
 10
184.2912177338
 20
191.3743972607
 10
183.646351793
 20
191.6059298602
 10
183.04841055
 20
192.0070663027
 10
182.6755612085
 20
192.3992330257
  0
LINE
  5
6C0
100
AcDbEntity
  8
AT110_008_01_new_view_5_BL14
100
AcDbLine
 62
7
  6
CONTINUOUS
 10
182.6754525191
 20
192.3993716991
 11
182.5968305848
 21
192.4994506887
  0
LINE
  5
6C1
100
AcDbEntity
  8
AT110_008_01_new_view_5_BL14
100
AcDbLine
 62
7
  6
CONTINUOUS
 10
182.5968315542
 20
192.4994487552
 11
182.5968302444
 21
192.4994504229
  0
LWPOLYLINE
  5
6C2
100
AcDbEntity
  8
AT110_008_01_new_view_5_BL14
100
AcDbPolyline
 62
7
  6
CONTINUOUS
 90
7
 70
0
 10
182.5968315542
 20
192.4994487552
 10
179.6455724284
 20
195.9099779807
 10
176.3495674826
 20
199.0551733643
 10
172.7961930083
 20
201.8406647367
 10
168.8956980814
 20
204.3055398826
 10
164.5483734594
 20
206.4239511637
 10
159.8337004517
 20
208.0694804199
  0
LINE
  5
6C3
100
AcDbEntity
  8
AT110_008_01_new_view_5_BL14
100
AcDbLine
 62
7
  6
CONTINUOUS
 10
159.8331422584
 20
208.0696489051
 11
159.8337023256
 21
208.0694869132
  0
LINE
  5
6C4
100
AcDbEntity
  8
AT110_008_01_new_view_5_BL14
100
AcDbLine
 62
7
  6
CONTINUOUS
 10
159.8331422584
 20
208.0696489051
 11
153.2683697547
 21
209.9647354912
  0
LINE
  5
6C5
100
AcDbEntity
  8
AT110_008_01_new_view_5_BL14
100
AcDbLine
 62
7
  6
CONTINUOUS
 10
153.2677276895
 20
209.9649204264
 11
153.2683698205
 21
209.9647354723
  0
LWPOLYLINE
  5
6C6
100
AcDbEntity
  8
AT110_008_01_new_view_5_BL14
100
AcDbPolyline
 62
7
  6
CONTINUOUS
 90
7
 70
0
 10
153.2677257646
 20
209.9649137505
 10
148.2967622911
 20
211.0827926434
 10
143.9804062634
 20
211.4472372892
 10
139.9181184271
 20
211.2068336639
 10
136.0981539574
 20
210.3877049716
 10
132.5790862723
 20
209.0163495376
 10
129.8626776398
 20
207.4417252469
  0
ARC
  5
6C7
100
AcDbEntity
  8
AT110_008_01_new_view_5_BL14
100
AcDbCircle
 62
7
  6
CONTINUOUS
 10
154.4975869202
 20
123.3620836041
 40
58.6522507303
100
AcDbArc
 50
81.5982987225
 51
85.4002854739
  0
ARC
  5
6C8
100
AcDbEntity
  8
AT110_008_01_new_view_5_BL14
100
AcDbCircle
 62
7
  6
CONTINUOUS
 10
153.9878251688
 20
122.7138983456
 40
59.3043001663
100
AcDbArc
 50
94.6131293119
 51
98.3828336743
  0
LINE
  5
6C9
100
AcDbEntity
  8
AT110_008_01_new_view_5_BL14
100
AcDbLine
 62
7
  6
CONTINUOUS
 10
187.0105831837
 20
176.4115975076
 11
187.0689075491
 21
182.199440545
  0
LINE
  5
6CA
100
AcDbEntity
  8
AT110_008_01_new_view_5_BL14
100
AcDbLine
 62
7
  6
CONTINUOUS
 10
121.4007571915
 20
176.4118430204
 11
121.342580216
 21
182.1850597562
  0
ELLIPSE
  5
6CB
100
AcDbEntity
  8
AT110_008_01_new_view_5_BL14
100
AcDbEllipse
 62
7
  6
CONTINUOUS
 10
116.0164714016
 20
184.7372544369
 30
0.0
 11
1.9233987512
 21
2.3025526447
 31
0.0
 40
0.7586254183
 41
-3.8164665984
 42
-3.1551115786
  0
LINE
  5
6CC
100
AcDbEntity
  8
AT110_008_01_new_view_5_BL14
100
AcDbLine
 62
7
  6
CONTINUOUS
 10
114.8378122771
 20
181.7893762146
 11
114.0695736967
 21
182.4546903414
  0
ELLIPSE
  5
6CD
100
AcDbEntity
  8
AT110_008_01_new_view_5_BL14
100
AcDbEllipse
 62
7
  6
CONTINUOUS
 10
153.4033062298
 20
173.4813590996
 30
0.0
 11
-0.0453530423
 21
2.9999999739
 31
0.0
 40
0.0087255384
 41
-4.1365622371
 42
-3.1418331978
  0
ELLIPSE
  5
6CE
100
AcDbEntity
  8
AT110_008_01_new_view_5_BL14
100
AcDbEllipse
 62
7
  6
CONTINUOUS
 10
155.0080366194
 20
173.4813590996
 30
0.0
 11
0.0453530423
 21
2.9999999739
 31
0.0
 40
0.0087255384
 41
-3.1413521094
 42
-2.14662307
  0
LINE
  5
6CF
100
AcDbEntity
  8
AT110_008_01_new_view_5_BL14
100
AcDbLine
 62
7
  6
CONTINUOUS
 10
154.9628393175
 20
170.4813590996
 11
153.4485035317
 21
170.4813590996
  0
ELLIPSE
  5
6D0
100
AcDbEntity
  8
AT110_008_01_new_view_5_BL14
100
AcDbEllipse
 62
7
  6
CONTINUOUS
 10
192.3948714476
 20
184.7372544369
 30
0.0
 11
-1.9233987512
 21
2.3025526447
 31
0.0
 40
0.7586254183
 41
-3.1280737286
 42
-2.4667187088
  0
LINE
  5
6D1
100
AcDbEntity
  8
AT110_008_01_new_view_5_BL14
100
AcDbLine
 62
7
  6
CONTINUOUS
 10
194.3417691525
 20
182.4546903414
 11
193.5735305721
 21
181.7893762146
  0
LINE
  5
6D2
100
AcDbEntity
  8
AT110_008_01_new_view_5_BL14
100
AcDbLine
 62
7
  6
CONTINUOUS
 10
158.9799044424
 20
198.1657083204
 11
158.9247085077
 21
192.6883164316
  0
SPLINE
  5
6D3
100
AcDbEntity
  8
AT110_008_01_new_view_5_BL14
100
AcDbSpline
 62
7
  6
CONTINUOUS
 70
0
 71
3
 72
9
 73
5
 74
0
 42
0.0000001
 43
0.0000001
 44
0.0000000001
 40
0.0
 40
0.0
 40
0.0
 40
0.0
 40
0.4696901366
 40
1.0
 40
1.0
 40
1.0
 40
1.0
 10
149.4866253973
 20
192.6889144694
 30
0.0
 10
149.4883238771
 20
192.5122925276
 30
0.0
 10
149.5819188942
 20
192.1343598611
 30
0.0
 10
149.8106420849
 20
191.8261819679
 30
0.0
 10
149.9484980019
 20
191.6820754124
 30
0.0
  0
LINE
  5
6D4
100
AcDbEntity
  8
AT110_008_01_new_view_5_BL14
100
AcDbLine
 62
7
  6
CONTINUOUS
 10
149.3992707059
 20
201.3578837128
 11
149.4866343415
 21
192.6883164316
  0
LINE
  5
6D5
100
AcDbEntity
  8
AT110_008_01_new_view_5_BL14
100
AcDbLine
 62
7
  6
CONTINUOUS
 10
129.8704635997
 20
207.4470191426
 11
129.862525466
 21
207.4416242368
  0
LINE
  5
6D6
100
AcDbEntity
  8
AT110_008_01_new_view_5_BL14
100
AcDbLine
 62
7
  6
CONTINUOUS
 10
129.2576179275
 20
207.022221278
 11
129.8706747766
 21
207.4471626435
  0
LINE
  5
6D7
100
AcDbEntity
  8
AT110_008_01_new_view_5_BL14
100
AcDbLine
 62
7
  6
CONTINUOUS
 10
129.2575928461
 20
207.0222035428
 11
128.9684107943
 21
206.8177209529
  0
SPLINE
  5
6D8
100
AcDbEntity
  8
AT110_008_01_new_view_5_BL14
100
AcDbSpline
 62
7
  6
CONTINUOUS
 70
0
 71
3
 72
11
 73
7
 74
0
 42
0.0000001
 43
0.0000001
 44
0.0000000001
 40
0.0
 40
0.0
 40
0.0
 40
0.0
 40
0.226207853
 40
0.4612088593
 40
0.716578675
 40
1.0
 40
1.0
 40
1.0
 40
1.0
 10
106.7663209868
 20
200.593821448
 30
0.0
 10
106.6519838003
 20
201.7241482182
 30
0.0
 10
106.7547874095
 20
204.0765594451
 30
0.0
 10
107.9357140428
 20
207.5204665496
 30
0.0
 10
110.0774592017
 20
210.8018234693
 30
0.0
 10
111.9934445347
 20
212.7366108238
 30
0.0
 10
113.0694647449
 20
213.6684716608
 30
0.0
  0
SPLINE
  5
6D9
100
AcDbEntity
  8
AT110_008_01_new_view_5_BL14
100
AcDbSpline
 62
7
  6
CONTINUOUS
 70
0
 71
3
 72
37
 73
33
 74
0
 42
0.0000001
 43
0.0000001
 44
0.0000000001
 40
0.0
 40
0.0
 40
0.0
 40
0.0
 40
0.0000497441
 40
0.0000589466
 40
0.0002533199
 40
0.0006861877
 40
0.0013606449
 40
0.0034490692
 40
0.0065536055
 40
0.0107000847
 40
0.0158789945
 40
0.0220792936
 40
0.0292903349
 40
0.0374806673
 40
0.0466124628
 40
0.067549652
 40
0.0917776022
 40
0.1189629886
 40
0.1487834522
 40
0.1809364766
 40
0.2151375819
 40
0.2511230588
 40
0.3274430589
 40
0.408047505
 40
0.4911915414
 40
0.5751932377
 40
0.6583902988
 40
0.7391017666
 40
0.8155859054
 40
0.8859819848
 40
0.9482286282
 40
1.0
 40
1.0
 40
1.0
 40
1.0
 10
123.3854874743
 20
189.7158143891
 30
0.0
 10
123.3850569085
 20
189.716737223
 30
0.0
 10
123.383432855
 20
189.7193338249
 30
0.0
 10
123.3881676034
 20
189.7153517309
 30
0.0
 10
123.3921255047
 20
189.7036866555
 30
0.0
 10
123.4086582325
 20
189.6816343792
 30
0.0
 10
123.4433068483
 20
189.6268713619
 30
0.0
 10
123.5153707058
 20
189.5299804676
 30
0.0
 10
123.6348068031
 20
189.381004217
 30
0.0
 10
123.8043544203
 20
189.1909374691
 30
0.0
 10
124.0258601169
 20
188.9629511775
 30
0.0
 10
124.3026593676
 20
188.7015670343
 30
0.0
 10
124.6366788591
 20
188.4115874286
 30
0.0
 10
125.0284307677
 20
188.0971226603
 30
0.0
 10
125.6568961737
 20
187.6294433837
 30
0.0
 10
126.5850583154
 20
187.0161292115
 30
0.0
 10
127.8702813509
 20
186.278258731
 30
0.0
 10
129.3590666954
 20
185.5353288308
 30
0.0
 10
131.0337799226
 20
184.8075852148
 30
0.0
 10
132.8765489633
 20
184.1122908284
 30
0.0
 10
134.8691035994
 20
183.462769765
 30
0.0
 10
137.7585219566
 20
182.655846019
 30
0.0
 10
141.6245733312
 20
181.8288347067
 30
0.0
 10
146.4966964491
 20
181.154819391
 30
0.0
 10
151.5606656617
 20
180.808624187
 30
0.0
 10
156.6893877499
 20
180.8032196791
 30
0.0
 10
161.7572970151
 20
181.1388156413
 30
0.0
 10
166.6376795202
 20
181.8028350678
 30
0.0
 10
171.2003809871
 20
182.7676832018
 30
0.0
 10
175.3100138979
 20
183.9860363393
 30
0.0
 10
178.8238966184
 20
185.3803836436
 30
0.0
 10
180.8986160117
 20
186.4634059488
 30
0.0
 10
181.8016873321
 20
187.0181316735
 30
0.0
  0
ARC
  5
6DA
100
AcDbEntity
  8
AT110_008_01_new_view_5_BL14
100
AcDbCircle
 62
7
  6
CONTINUOUS
 10
170.4182323018
 20
205.5513421584
 40
21.750010099
100
AcDbArc
 50
301.5590478017
 51
302.1299500538
  0
ARC
  5
6DB
100
AcDbEntity
  8
AT110_008_01_new_view_5_BL14
100
AcDbCircle
 62
7
  6
CONTINUOUS
 10
171.3288351149
 20
204.1079816586
 40
20.0434129806
100
AcDbArc
 50
302.1199455779
 51
304.0399137865
  0
ARC
  5
6DC
100
AcDbEntity
  8
AT110_008_01_new_view_5_BL14
100
AcDbCircle
 62
7
  6
CONTINUOUS
 10
172.5584360588
 20
202.2676339473
 40
17.8301223296
100
AcDbArc
 50
304.0761157373
 51
304.8266491608
  0
SPLINE
  5
6DD
100
AcDbEntity
  8
AT110_008_01_new_view_5_BL14
100
AcDbSpline
 62
7
  6
CONTINUOUS
 70
0
 71
3
 72
25
 73
21
 74
0
 42
0.0000001
 43
0.0000001
 44
0.0000000001
 40
0.0
 40
0.0
 40
0.0
 40
0.0
 40
0.0193606013
 40
0.0388793543
 40
0.0589432184
 40
0.0798946883
 40
0.1254206875
 40
0.1769591421
 40
0.234919458
 40
0.2989867728
 40
0.368339346
 40
0.4418042201
 40
0.5179740125
 40
0.5953005401
 40
0.6721782819
 40
0.7470237232
 40
0.8183564626
 40
0.8848871508
 40
0.9456217461
 40
1.0
 40
1.0
 40
1.0
 40
1.0
 10
201.6450207623
 20
200.5938214758
 30
0.0
 10
201.7114505926
 20
201.2505387757
 30
0.0
 10
201.7353265433
 20
202.5831756377
 30
0.0
 10
201.4339855567
 20
204.5788446389
 30
0.0
 10
200.7993551237
 20
206.5516636915
 30
0.0
 10
199.482528396
 20
209.2026189236
 30
0.0
 10
196.9596393461
 20
212.3934996083
 30
0.0
 10
192.8653889501
 20
215.7793123275
 30
0.0
 10
187.7344838701
 20
218.7699582352
 30
0.0
 10
181.7007296948
 20
221.2932772754
 30
0.0
 10
174.9219358829
 20
223.2864786183
 30
0.0
 10
167.5795844779
 20
224.6960158367
 30
0.0
 10
159.8724434032
 20
225.4834689957
 30
0.0
 10
152.0105337265
 20
225.6270364841
 30
0.0
 10
144.2086031392
 20
225.1228183805
 30
0.0
 10
136.6794935861
 20
223.9846383985
 30
0.0
 10
129.628004024
 20
222.2440476501
 30
0.0
 10
123.2431367885
 20
219.9473578595
 30
0.0
 10
117.6966652011
 20
217.1568172429
 30
0.0
 10
114.4709110252
 20
214.8821597416
 30
0.0
 10
113.0694647449
 20
213.6684716608
 30
0.0
  0
SPLINE
  5
6DE
100
AcDbEntity
  8
AT110_008_01_new_view_5_BL14
100
AcDbSpline
 62
7
  6
CONTINUOUS
 70
0
 71
3
 72
13
 73
9
 74
0
 42
0.0000001
 43
0.0000001
 44
0.0000000001
 40
0.0
 40
0.0
 40
0.0
 40
0.0
 40
0.3194109826
 40
0.6005972069
 40
0.7203627528
 40
0.8249956257
 40
0.9165047106
 40
1.0
 40
1.0
 40
1.0
 40
1.0
 10
154.5708060983
 20
190.3477300006
 30
0.0
 10
155.1372845012
 20
190.3697112027
 30
0.0
 10
156.2008003042
 20
190.5057944231
 30
0.0
 10
157.4245332452
 20
190.9260239446
 30
0.0
 10
158.1865077666
 20
191.4079488596
 30
0.0
 10
158.5958576323
 20
191.7980845709
 30
0.0
 10
158.8584324641
 20
192.2276591016
 30
0.0
 10
158.923191109
 20
192.5398126952
 30
0.0
 10
158.9246961523
 20
192.6879961781
 30
0.0
  0
SPLINE
  5
6DF
100
AcDbEntity
  8
AT110_008_01_new_view_5_BL14
100
AcDbSpline
 62
7
  6
CONTINUOUS
 70
0
 71
3
 72
11
 73
7
 74
0
 42
0.0000001
 43
0.0000001
 44
0.0000000001
 40
0.0
 40
0.0
 40
0.0
 40
0.0
 40
0.2863085122
 40
0.5585003889
 40
0.7998810071
 40
1.0
 40
1.0
 40
1.0
 40
1.0
 10
154.5708060983
 20
190.3477300006
 30
0.0
 10
154.1011365183
 20
190.3295052952
 30
0.0
 10
153.1809473569
 20
190.361819124
 30
0.0
 10
151.8847758401
 20
190.60693632
 30
0.0
 10
150.7840523967
 20
191.0254985604
 30
0.0
 10
150.1755972014
 20
191.4446791215
 30
0.0
 10
149.9484980019
 20
191.6820754124
 30
0.0
  0
LINE
  5
6E0
100
AcDbEntity
  8
AT110_008_01_new_view_5_BL14
100
AcDbLine
 62
7
  6
CONTINUOUS
 10
194.9880167945
 20
183.8511227759
 11
195.2006488849
 21
187.2322445818
  0
ELLIPSE
  5
6E1
100
AcDbEntity
  8
AT110_008_01_new_view_5_BL14
100
AcDbEllipse
 62
7
  6
CONTINUOUS
 10
191.5925062528
 20
184.0423857951
 30
0.0
 11
-2.0018469409
 21
2.2346699733
 31
0.0
 40
0.7411784973
 41
-4.011096745
 42
-3.1540153156
  0
LINE
  5
6E2
100
AcDbEntity
  8
AT110_008_01_new_view_5_BL14
100
AcDbLine
 62
7
  6
CONTINUOUS
 10
187.8547957765
 20
182.5535267179
 11
191.6186888502
 21
181.4669843782
  0
LINE
  5
6E3
100
AcDbEntity
  8
AT110_008_01_new_view_5_BL14
100
AcDbLine
 62
7
  6
CONTINUOUS
 10
155.0052960369
 20
171.8474419946
 11
155.0850601664
 21
175.6851608649
  0
LINE
  5
6E4
100
AcDbEntity
  8
AT110_008_01_new_view_5_BL14
100
AcDbLine
 62
7
  6
CONTINUOUS
 10
153.4060468124
 20
171.8474419946
 11
153.3265560906
 21
175.6720063038
  0
LINE
  5
6E5
100
AcDbEntity
  8
AT110_008_01_new_view_5_BL14
100
AcDbLine
 62
7
  6
CONTINUOUS
 10
120.5948202457
 20
182.5645752313
 11
116.792653999
 21
181.4669843782
  0
ELLIPSE
  5
6E6
100
AcDbEntity
  8
AT110_008_01_new_view_5_BL14
100
AcDbEllipse
 62
7
  6
CONTINUOUS
 10
116.8188365964
 20
184.0423857951
 30
0.0
 11
2.0018469409
 21
2.2346699733
 31
0.0
 40
0.7411784973
 41
-3.1291699916
 42
-2.2720885622
  0
LINE
  5
6E7
100
AcDbEntity
  8
AT110_008_01_new_view_5_BL14
100
AcDbLine
 62
7
  6
CONTINUOUS
 10
113.4233260547
 20
183.8511227759
 11
113.2117447009
 21
187.2155365277
  0
SPLINE
  5
6E8
100
AcDbEntity
  8
AT110_008_01_new_view_5_BL14
100
AcDbSpline
 62
7
  6
CONTINUOUS
 70
0
 71
3
 72
17
 73
13
 74
0
 42
0.0000001
 43
0.0000001
 44
0.0000000001
 40
0.0
 40
0.0
 40
0.0
 40
0.0
 40
0.0379402291
 40
0.0691600335
 40
0.0931508805
 40
0.1130929513
 40
0.1397351944
 40
0.1816671308
 40
0.3093152852
 40
0.4704662229
 40
0.6434911112
 40
1.0
 40
1.0
 40
1.0
 40
1.0
 10
124.7944586453
 20
195.6150320318
 30
0.0
 10
124.7879209184
 20
195.6059262044
 30
0.0
 10
124.7753825087
 20
195.5896596226
 30
0.0
 10
124.7558153449
 20
195.5704430812
 30
0.0
 10
124.7361295181
 20
195.5583404232
 30
0.0
 10
124.7133233094
 20
195.5617488365
 30
0.0
 10
124.6986533118
 20
195.5858912087
 30
0.0
 10
124.6841027592
 20
195.6413901002
 30
0.0
 10
124.6800576632
 20
195.740377423
 30
0.0
 10
124.684572837
 20
195.8763116079
 30
0.0
 10
124.7003011504
 20
196.0800017225
 30
0.0
 10
124.7175164562
 20
196.2354634871
 30
0.0
 10
124.7301207574
 20
196.3400398811
 30
0.0
  0
SPLINE
  5
6E9
100
AcDbEntity
  8
AT110_008_01_new_view_5_BL14
100
AcDbSpline
 62
9
  6
CONTINUOUS
 70
0
 71
3
 72
21
 73
17
 74
0
 42
0.0000001
 43
0.0000001
 44
0.0000000001
 40
0.0
 40
0.0
 40
0.0
 40
0.0
 40
0.2058649269
 40
0.3743491796
 40
0.4439640469
 40
0.5036438714
 40
0.5533804617
 40
0.5934844767
 40
0.6251657803
 40
0.6515838316
 40
0.6790554254
 40
0.7143390822
 40
0.7618983697
 40
0.8243383015
 40
0.903376077
 40
1.0
 40
1.0
 40
1.0
 40
1.0
 10
186.3604282469
 20
190.7978143206
 30
0.0
 10
186.483628175
 20
190.9376175313
 30
0.0
 10
186.6998707506
 20
191.1988884949
 30
0.0
 10
186.9274001208
 20
191.531383611
 30
0.0
 10
187.0546067793
 20
191.769335813
 30
0.0
 10
187.1179273623
 20
191.9187922497
 30
0.0
 10
187.1556768961
 20
192.0492614895
 30
0.0
 10
187.1677558406
 20
192.1592688417
 30
0.0
 10
187.1539758565
 20
192.2489319226
 30
0.0
 10
187.1064801621
 20
192.3153426334
 30
0.0
 10
187.0258621997
 20
192.3423413355
 30
0.0
 10
186.9250006582
 20
192.3288904499
 30
0.0
 10
186.8026983236
 20
192.2783128034
 30
0.0
 10
186.6578893221
 20
192.1859487161
 30
0.0
 10
186.4919768313
 20
192.0477563799
 30
0.0
 10
186.3802474683
 20
191.9342726439
 30
0.0
 10
186.3212568725
 20
191.8697013844
 30
0.0
  0
SPLINE
  5
6EA
100
AcDbEntity
  8
AT110_008_01_new_view_5_BL14
100
AcDbSpline
 62
9
  6
CONTINUOUS
 70
0
 71
3
 72
9
 73
5
 74
0
 42
0.0000001
 43
0.0000001
 44
0.0000000001
 40
0.0
 40
0.0
 40
0.0
 40
0.0
 40
0.2351121447
 40
1.0
 40
1.0
 40
1.0
 40
1.0
 10
186.3212568725
 20
191.8697013844
 30
0.0
 10
186.3041330598
 20
191.8509576145
 30
0.0
 10
186.2321873235
 20
191.770426208
 30
0.0
 10
186.1636451693
 20
191.6868802799
 30
0.0
 10
186.1128557644
 20
191.6217471471
 30
0.0
  0
SPLINE
  5
6EB
100
AcDbEntity
  8
AT110_008_01_new_view_5_BL14
100
AcDbSpline
 62
7
  6
CONTINUOUS
 70
0
 71
3
 72
13
 73
9
 74
0
 42
0.0000001
 43
0.0000001
 44
0.0000000001
 40
0.0
 40
0.0
 40
0.0
 40
0.0
 40
0.098059594
 40
0.2055057095
 40
0.3219883714
 40
0.4466814857
 40
0.7155117465
 40
1.0
 40
1.0
 40
1.0
 40
1.0
 10
125.297544161
 20
180.490119985
 30
0.0
 10
126.0189484415
 20
179.8284497882
 30
0.0
 10
127.644066117
 20
178.5630516292
 30
0.0
 10
130.4154181538
 20
176.9220542825
 30
0.0
 10
133.5871443283
 20
175.4753321575
 30
0.0
 10
138.399741417
 20
173.7964638494
 30
0.0
 10
145.0433459015
 20
172.3678604468
 30
0.0
 10
150.5684720376
 20
171.9468504908
 30
0.0
 10
153.4082053659
 20
171.9124137389
 30
0.0
  0
SPLINE
  5
6EC
100
AcDbEntity
  8
AT110_008_01_new_view_5_BL14
100
AcDbSpline
 62
7
  6
CONTINUOUS
 70
0
 71
3
 72
13
 73
9
 74
0
 42
0.0000001
 43
0.0000001
 44
0.0000000001
 40
0.0
 40
0.0
 40
0.0
 40
0.0
 40
0.2829499506
 40
0.5510009749
 40
0.6757601405
 40
0.7926604153
 40
0.9008846616
 40
1.0
 40
1.0
 40
1.0
 40
1.0
 10
155.0031374876
 20
171.9124138007
 30
0.0
 10
157.777876953
 20
171.9460625903
 30
0.0
 10
163.1829990132
 20
172.3501663721
 30
0.0
 10
169.6932519071
 20
173.717613848
 30
0.0
 10
174.4325637666
 20
175.3239410844
 30
0.0
 10
177.5768734416
 20
176.7112284811
 30
0.0
 10
180.3454230745
 20
178.2872384273
 30
0.0
 10
181.9847625544
 20
179.5024765145
 30
0.0
 10
182.7195578442
 20
180.1388279021
 30
0.0
  0
SPLINE
  5
6ED
100
AcDbEntity
  8
AT110_008_01_new_view_5_BL14
100
AcDbSpline
 62
7
  6
CONTINUOUS
 70
0
 71
3
 72
11
 73
7
 74
0
 42
0.0000001
 43
0.0000001
 44
0.0000000001
 40
0.0
 40
0.0
 40
0.0
 40
0.0
 40
0.2154579302
 40
0.4518842476
 40
0.7129803296
 40
1.0
 40
1.0
 40
1.0
 40
1.0
 10
184.1334725973
 20
191.4496019581
 30
0.0
 10
183.8499600948
 20
192.1385134802
 30
0.0
 10
183.0746465365
 20
193.5123599124
 30
0.0
 10
181.4512802463
 20
195.3839947287
 30
0.0
 10
179.3571555632
 20
197.1236375652
 30
0.0
 10
177.7458319011
 20
198.1315307952
 30
0.0
 10
176.877533285
 20
198.612069466
 30
0.0
  0
SPLINE
  5
6EE
100
AcDbEntity
  8
AT110_008_01_new_view_5_BL14
100
AcDbSpline
 62
7
  6
CONTINUOUS
 70
0
 71
3
 72
9
 73
5
 74
0
 42
0.0000001
 43
0.0000001
 44
0.0000000001
 40
0.0
 40
0.0
 40
0.0
 40
0.0
 40
0.5175163456
 40
1.0
 40
1.0
 40
1.0
 40
1.0
 10
143.3234192803
 20
202.6457753814
 30
0.0
 10
141.7361682991
 20
202.3432851052
 30
0.0
 10
138.6937161588
 20
201.6181748367
 30
0.0
 10
135.7417727554
 20
200.576763512
 30
0.0
 10
134.3564713096
 20
199.9849097971
 30
0.0
  0
SPLINE
  5
6EF
100
AcDbEntity
  8
AT110_008_01_new_view_5_BL14
100
AcDbSpline
 62
7
  6
CONTINUOUS
 70
0
 71
3
 72
9
 73
5
 74
0
 42
0.0000001
 43
0.0000001
 44
0.0000000001
 40
0.0
 40
0.0
 40
0.0
 40
0.0
 40
0.2568969882
 40
1.0
 40
1.0
 40
1.0
 40
1.0
 10
195.3418781044
 20
189.9184716608
 30
0.0
 10
195.5338631641
 20
190.0847355997
 30
0.0
 10
196.272136804
 20
190.7422549627
 30
0.0
 10
196.9732123486
 20
191.4419858855
 30
0.0
 10
197.4667172724
 20
191.9861857841
 30
0.0
  0
ARC
  5
6F0
100
AcDbEntity
  8
AT110_008_01_new_view_5_BL14
100
AcDbCircle
 62
7
  6
CONTINUOUS
 10
181.6087605092
 20
206.3705354251
 40
21.4099114267
100
AcDbArc
 50
317.7896265944
 51
320.2393938719
  0
ARC
  5
6F1
100
AcDbEntity
  8
AT110_008_01_new_view_5_BL14
100
AcDbCircle
 62
7
  6
CONTINUOUS
 10
182.9998426907
 20
205.212662289
 40
19.5999999145
100
AcDbArc
 50
320.24048736
 51
324.5409451557
  0
ARC
  5
6F2
100
AcDbEntity
  8
AT110_008_01_new_view_5_BL14
100
AcDbCircle
 62
7
  6
CONTINUOUS
 10
184.1297049342
 20
204.3840530915
 40
18.1990096901
100
AcDbArc
 50
324.6022438454
 51
325.2377804392
  0
ARC
  5
6F3
100
AcDbEntity
  8
AT110_008_01_new_view_5_BL14
100
AcDbCircle
 62
7
  6
CONTINUOUS
 10
184.3499063309
 20
204.2311572418
 40
17.9309317296
100
AcDbArc
 50
325.2379566634
 51
325.8084300205
  0
ARC
  5
6F4
100
AcDbEntity
  8
AT110_008_01_new_view_5_BL14
100
AcDbCircle
 62
7
  6
CONTINUOUS
 10
184.9213993557
 20
203.8465123625
 40
17.2420582694
100
AcDbArc
 50
325.7984839858
 51
329.1188940274
  0
SPLINE
  5
6F5
100
AcDbEntity
  8
AT110_008_01_new_view_5_BL14
100
AcDbSpline
 62
7
  6
CONTINUOUS
 70
0
 71
3
 72
9
 73
5
 74
0
 42
0.0000001
 43
0.0000001
 44
0.0000000001
 40
0.0
 40
0.0
 40
0.0
 40
0.0
 40
0.2536724795
 40
1.0
 40
1.0
 40
1.0
 40
1.0
 10
199.7191235437
 20
194.9968834313
 30
0.0
 10
199.7885010068
 20
195.1130353648
 30
0.0
 10
200.0563554251
 20
195.5742521702
 30
0.0
 10
200.3011942099
 20
196.0489038294
 30
0.0
 10
200.469179285
 20
196.409768017
 30
0.0
  0
ARC
  5
6F6
100
AcDbEntity
  8
AT110_008_01_new_view_5_BL14
100
AcDbCircle
 62
7
  6
CONTINUOUS
 10
187.4817286838
 20
202.4584211662
 40
14.3269005036
100
AcDbArc
 50
335.027163785
 51
338.910349483
  0
ARC
  5
6F7
100
AcDbEntity
  8
AT110_008_01_new_view_5_BL14
100
AcDbCircle
 62
7
  6
CONTINUOUS
 10
188.3227420102
 20
202.1305412509
 40
13.4242394109
100
AcDbArc
 50
338.9244241856
 51
344.3305605015
  0
ARC
  5
6F8
100
AcDbEntity
  8
AT110_008_01_new_view_5_BL14
100
AcDbCircle
 62
7
  6
CONTINUOUS
 10
188.8813644599
 20
201.9633728343
 40
12.8412315898
100
AcDbArc
 50
344.3755322186
 51
345.4920915869
  0
ARC
  5
6F9
100
AcDbEntity
  8
AT110_008_01_new_view_5_BL14
100
AcDbCircle
 62
7
  6
CONTINUOUS
 10
189.1917129627
 20
201.884956101
 40
12.5211348204
100
AcDbArc
 50
345.4837164247
 51
350.4812619975
  0
ARC
  5
6FA
100
AcDbEntity
  8
AT110_008_01_new_view_5_BL14
100
AcDbCircle
 62
7
  6
CONTINUOUS
 10
189.5798456279
 20
201.8156240176
 40
12.1268813993
100
AcDbArc
 50
350.5010675848
 51
354.2175481924
  0
ELLIPSE
  5
6FB
100
AcDbEntity
  8
AT110_008_01_new_view_5_BL14
100
AcDbEllipse
 62
7
  6
CONTINUOUS
 10
116.8188365964
 20
184.0423857951
 30
0.0
 11
2.0018469409
 21
2.2346699733
 31
0.0
 40
0.7411784973
 41
-3.7905250114
 42
-3.1291699916
  0
ELLIPSE
  5
6FC
100
AcDbEntity
  8
AT110_008_01_new_view_5_BL14
100
AcDbEllipse
 62
7
  6
CONTINUOUS
 10
191.5925062528
 20
184.0423857951
 30
0.0
 11
-2.0018469409
 21
2.2346699733
 31
0.0
 40
0.7411784973
 41
-3.1540153156
 42
-2.4926602958
  0
SPLINE
  5
6FD
100
AcDbEntity
  8
AT110_008_01_new_view_5_BL14
100
AcDbSpline
 62
9
  6
CONTINUOUS
 70
0
 71
3
 72
9
 73
5
 74
0
 42
0.0000001
 43
0.0000001
 44
0.0000000001
 40
0.0
 40
0.0
 40
0.0
 40
0.0
 40
0.471075211
 40
1.0
 40
1.0
 40
1.0
 40
1.0
 10
176.9577328121
 20
184.684233775
 30
0.0
 10
176.8795836618
 20
185.0015501527
 30
0.0
 10
176.5740562577
 20
185.6412864765
 30
0.0
 10
176.1072377341
 20
186.1649149664
 30
0.0
 10
175.8327311635
 20
186.4083974481
 30
0.0
  0
LINE
  5
6FE
100
AcDbEntity
  8
AT110_008_01_new_view_5_BL14
100
AcDbLine
 62
9
  6
CONTINUOUS
 10
125.9227625806
 20
204.1291027409
 11
126.2314059981
 21
204.3468574743
  0
LINE
  5
6FF
100
AcDbEntity
  8
AT110_008_01_new_view_5_BL14
100
AcDbLine
 62
9
  6
CONTINUOUS
 10
178.836497803
 20
189.1610754133
 11
179.1449054836
 21
188.7651936161
  0
LINE
  5
700
100
AcDbEntity
  8
AT110_008_01_new_view_5_BL14
100
AcDbLine
 62
9
  6
CONTINUOUS
 10
182.4885802286
 20
191.6609010887
 11
182.179937786
 21
192.0565776015
  0
SPLINE
  5
701
100
AcDbEntity
  8
AT110_008_01_new_view_5_BL14
100
AcDbSpline
 62
9
  6
CONTINUOUS
 70
0
 71
3
 72
9
 73
5
 74
0
 42
0.0000001
 43
0.0000001
 44
0.0000000001
 40
0.0
 40
0.0
 40
0.0
 40
0.0
 40
0.2363084927
 40
1.0
 40
1.0
 40
1.0
 40
1.0
 10
126.2314059981
 20
204.3468574743
 30
0.0
 10
126.4416941853
 20
204.5861790413
 30
0.0
 10
127.3666009803
 20
205.568100679
 30
0.0
 10
128.4168893594
 20
206.4277205642
 30
0.0
 10
129.2575371412
 20
207.0221616675
 30
0.0
  0
SPLINE
  5
702
100
AcDbEntity
  8
AT110_008_01_new_view_5_BL14
100
AcDbSpline
 62
9
  6
CONTINUOUS
 70
0
 71
3
 72
11
 73
7
 74
0
 42
0.0000001
 43
0.0000001
 44
0.0000000001
 40
0.0
 40
0.0
 40
0.0
 40
0.0
 40
0.2665878059
 40
0.5222476
 40
0.7660135426
 40
1.0
 40
1.0
 40
1.0
 40
1.0
 10
152.4363172532
 20
209.6805055712
 30
0.0
 10
150.6966490829
 20
210.2320635564
 30
0.0
 10
147.2000819289
 20
211.0612759817
 30
0.0
 10
141.9368347496
 20
211.3740798072
 30
0.0
 10
136.9272694703
 20
210.7151649275
 30
0.0
 10
133.8165164472
 20
209.6087747531
 30
0.0
 10
132.3784916687
 20
208.9031293274
 30
0.0
  0
ARC
  5
703
100
AcDbEntity
  8
AT110_008_01_new_view_5_BL14
100
AcDbCircle
 62
9
  6
CONTINUOUS
 10
141.4980038364
 20
190.3075650363
 40
20.7113619418
100
AcDbArc
 50
116.1239466975
 51
124.1525571342
  0
SPLINE
  5
704
100
AcDbEntity
  8
AT110_008_01_new_view_5_BL14
100
AcDbSpline
 62
9
  6
CONTINUOUS
 70
0
 71
3
 72
13
 73
9
 74
0
 42
0.0000001
 43
0.0000001
 44
0.0000000001
 40
0.0
 40
0.0
 40
0.0
 40
0.0
 40
0.3270948714
 40
0.5995245708
 40
0.7134504639
 40
0.8145336661
 40
0.907710144
 40
1.0
 40
1.0
 40
1.0
 40
1.0
 10
152.4363172594
 20
209.6805055694
 30
0.0
 10
151.96036653
 20
209.587262174
 30
0.0
 10
151.100600472
 20
209.3418773487
 30
0.0
 10
150.1608557918
 20
208.8165431816
 30
0.0
 10
149.6542360955
 20
208.2934660714
 30
0.0
 10
149.4231555286
 20
207.8922814424
 30
0.0
 10
149.3322874653
 20
207.4693780399
 30
0.0
 10
149.3706164201
 20
207.1908320786
 30
0.0
 10
149.4102508911
 20
207.0598552211
 30
0.0
  0
SPLINE
  5
705
100
AcDbEntity
  8
AT110_008_01_new_view_5_BL14
100
AcDbSpline
 62
9
  6
CONTINUOUS
 70
0
 71
3
 72
12
 73
8
 74
0
 42
0.0000001
 43
0.0000001
 44
0.0000000001
 40
0.0
 40
0.0
 40
0.0
 40
0.0
 40
0.2325089293
 40
0.473935979
 40
0.7288690002
 40
0.8623642375
 40
1.0
 40
1.0
 40
1.0
 40
1.0
 10
126.2314060715
 20
204.3468575578
 30
0.0
 10
127.7558333845
 20
205.4251581887
 30
0.0
 10
131.1790271997
 20
207.2058587862
 30
0.0
 10
136.9405873304
 20
208.5134912647
 30
0.0
 10
142.0400780963
 20
208.480182558
 30
0.0
 10
146.2207309159
 20
207.8448418506
 30
0.0
 10
148.3408978127
 20
207.3395810157
 30
0.0
 10
149.410250885
 20
207.0598552228
 30
0.0
  0
SPLINE
  5
706
100
AcDbEntity
  8
AT110_008_01_new_view_5_BL14
100
AcDbSpline
 62
9
  6
CONTINUOUS
 70
0
 71
3
 72
13
 73
9
 74
0
 42
0.0000001
 43
0.0000001
 44
0.0000000001
 40
0.0
 40
0.0
 40
0.0
 40
0.0
 40
0.3270948714
 40
0.5995245708
 40
0.7134504639
 40
0.8145336661
 40
0.907710144
 40
1.0
 40
1.0
 40
1.0
 40
1.0
 10
155.9750255898
 20
205.1647680013
 30
0.0
 10
156.4509763193
 20
205.2580113968
 30
0.0
 10
157.3107423772
 20
205.5033962221
 30
0.0
 10
158.2504870574
 20
206.0287303892
 30
0.0
 10
158.7571067537
 20
206.5518074994
 30
0.0
 10
158.9881873207
 20
206.9529921284
 30
0.0
 10
159.0790553839
 20
207.3758955309
 30
0.0
 10
159.0407264291
 20
207.6544414922
 30
0.0
 10
159.0010919582
 20
207.7854183497
 30
0.0
  0
SPLINE
  5
707
100
AcDbEntity
  8
AT110_008_01_new_view_5_BL14
100
AcDbSpline
 62
9
  6
CONTINUOUS
 70
0
 71
3
 72
12
 73
8
 74
0
 42
0.0000001
 43
0.0000001
 44
0.0000000001
 40
0.0
 40
0.0
 40
0.0
 40
0.0
 40
0.2577106364
 40
0.5125796885
 40
0.7605496252
 40
0.8812575172
 40
1.0
 40
1.0
 40
1.0
 40
1.0
 10
182.1799377081
 20
192.056577513
 30
0.0
 10
180.6675983407
 20
193.9792405824
 30
0.0
 10
177.3643119122
 20
197.58150466
 30
0.0
 10
171.7172421431
 20
202.1209005494
 30
0.0
 10
166.5517068151
 20
205.0709390526
 30
0.0
 10
162.2671675358
 20
206.8300860358
 30
0.0
 10
160.0914900211
 20
207.5001351865
 30
0.0
 10
159.0010919642
 20
207.785418348
 30
0.0
  0
SPLINE
  5
708
100
AcDbEntity
  8
AT110_008_01_new_view_5_BL14
100
AcDbSpline
 62
9
  6
CONTINUOUS
 70
0
 71
3
 72
9
 73
5
 74
0
 42
0.0000001
 43
0.0000001
 44
0.0000000001
 40
0.0
 40
0.0
 40
0.0
 40
0.0
 40
0.235161101
 40
1.0
 40
1.0
 40
1.0
 40
1.0
 10
182.179937786
 20
192.0565776015
 30
0.0
 10
181.9507381744
 20
191.7957336137
 30
0.0
 10
180.9341943943
 20
190.7233864684
 30
0.0
 10
179.7699019293
 20
189.7968298679
 30
0.0
 10
178.836497803
 20
189.1610754133
 30
0.0
  0
SPLINE
  5
709
100
AcDbEntity
  8
AT110_008_01_new_view_5_BL14
100
AcDbSpline
 62
9
  6
CONTINUOUS
 70
0
 71
3
 72
10
 73
6
 74
0
 42
0.0000001
 43
0.0000001
 44
0.0000000001
 40
0.0
 40
0.0
 40
0.0
 40
0.0
 40
0.2408188436
 40
0.4885443177
 40
1.0
 40
1.0
 40
1.0
 40
1.0
 10
155.975025596
 20
205.1647679996
 30
0.0
 10
157.0093698581
 20
204.8367780097
 30
0.0
 10
159.0938316721
 20
204.1234499819
 30
0.0
 10
163.2393105931
 20
202.349415698
 30
0.0
 10
166.2169701824
 20
200.627758525
 30
0.0
 10
168.1179704212
 20
199.3249948919
 30
0.0
  0
LINE
  5
70A
100
AcDbEntity
  8
AT110_008_01_new_view_5_BL14
100
AcDbLine
 62
9
  6
CONTINUOUS
 10
168.1179704212
 20
199.3249948919
 11
168.1840576645
 21
199.2796191493
  0
SPLINE
  5
70B
100
AcDbEntity
  8
AT110_008_01_new_view_5_BL14
100
AcDbSpline
 62
9
  6
CONTINUOUS
 70
0
 71
3
 72
9
 73
5
 74
0
 42
0.0000001
 43
0.0000001
 44
0.0000000001
 40
0.0
 40
0.0
 40
0.0
 40
0.0
 40
0.4968136569
 40
1.0
 40
1.0
 40
1.0
 40
1.0
 10
168.1840576645
 20
199.2796191493
 30
0.0
 10
170.1946807459
 20
197.8965029986
 30
0.0
 10
174.0227200589
 20
194.7822468632
 30
0.0
 10
177.3268230716
 20
191.1181815101
 30
0.0
 10
178.8364979095
 20
189.1610754858
 30
0.0
  0
LINE
  5
70C
100
AcDbEntity
  8
AT110_008_01_new_view_5_BL14
100
AcDbLine
 62
9
  6
CONTINUOUS
 10
149.4102508911
 20
207.0598552211
 11
155.9750255898
 21
205.1647680013
  0
LINE
  5
70D
100
AcDbEntity
  8
AT110_008_01_new_view_5_BL14
100
AcDbLine
 62
9
  6
CONTINUOUS
 10
159.0010919582
 20
207.7854183497
 11
152.4363172594
 21
209.6805055694
  0
SPLINE
  5
70E
100
AcDbEntity
  8
AT110_008_01_new_view_5_BL14
100
AcDbSpline
 62
9
  6
CONTINUOUS
 70
0
 71
3
 72
9
 73
5
 74
0
 42
0.0000001
 43
0.0000001
 44
0.0000000001
 40
0.0
 40
0.0
 40
0.0
 40
0.0
 40
0.2461517775
 40
1.0
 40
1.0
 40
1.0
 40
1.0
 10
134.3564713096
 20
199.9849097971
 30
0.0
 10
134.3545990554
 20
200.1578741103
 30
0.0
 10
134.3310683373
 20
200.8603216077
 30
0.0
 10
134.2449098956
 20
201.560372619
 30
0.0
 10
134.1487399133
 20
202.0813101943
 30
0.0
  0
SPLINE
  5
70F
100
AcDbEntity
  8
AT110_008_01_new_view_5_BL14
100
AcDbSpline
 62
9
  6
CONTINUOUS
 70
0
 71
3
 72
9
 73
5
 74
0
 42
0.0000001
 43
0.0000001
 44
0.0000000001
 40
0.0
 40
0.0
 40
0.0
 40
0.0
 40
0.2568218079
 40
1.0
 40
1.0
 40
1.0
 40
1.0
 10
182.7430746646
 20
187.63252917
 30
0.0
 10
182.9115473296
 20
187.7497615461
 30
0.0
 10
183.5619286079
 20
188.2142029307
 30
0.0
 10
184.1892401861
 20
188.7112644291
 30
0.0
 10
184.6382125033
 20
189.100085858
 30
0.0
  0
LINE
  5
710
100
AcDbEntity
  8
AT110_008_01_new_view_5_BL14
100
AcDbLine
 62
9
  6
CONTINUOUS
 10
128.9682381176
 20
206.8175988508
 11
128.9668581118
 21
206.8166229393
  0
ARC
  5
711
100
AcDbEntity
  8
AT110_008_01_new_view_5_BL14
100
AcDbCircle
 62
7
  6
CONTINUOUS
 10
170.6321315043
 20
194.100155793
 40
18.4668500833
100
AcDbArc
 50
310.8853306115
 51
312.6371525323
  0
SPLINE
  5
712
100
AcDbEntity
  8
AT110_008_01_new_view_5_BL14
100
AcDbSpline
 62
9
  6
CONTINUOUS
 70
0
 71
3
 72
12
 73
8
 74
0
 42
0.0000001
 43
0.0000001
 44
0.0000000001
 40
0.0
 40
0.0
 40
0.0
 40
0.0
 40
0.1029395679
 40
0.2098011649
 40
0.4440290913
 40
0.7112799749
 40
1.0
 40
1.0
 40
1.0
 40
1.0
 10
182.5481911935
 20
187.498189713
 30
0.0
 10
182.4353557409
 20
187.4211502471
 30
0.0
 10
182.1816864534
 20
187.2963336008
 30
0.0
 10
181.5964264645
 20
187.1863734978
 30
0.0
 10
180.7761376627
 20
187.3424728426
 30
0.0
 10
179.867964228
 20
187.8968992301
 30
0.0
 10
179.3634074451
 20
188.450389239
 30
0.0
 10
179.1447705487
 20
188.7651014688
 30
0.0
  0
SPLINE
  5
713
100
AcDbEntity
  8
AT110_008_01_new_view_5_BL14
100
AcDbSpline
 62
9
  6
CONTINUOUS
 70
0
 71
3
 72
9
 73
5
 74
0
 42
0.0000001
 43
0.0000001
 44
0.0000000001
 40
0.0
 40
0.0
 40
0.0
 40
0.0
 40
0.5323259446
 40
1.0
 40
1.0
 40
1.0
 40
1.0
 10
131.1823919102
 20
208.2149207575
 30
0.0
 10
130.3745206537
 20
208.7819929977
 30
0.0
 10
128.4488985125
 20
209.3071754632
 30
0.0
 10
126.5687224971
 20
208.75389155
 30
0.0
 10
125.8525744297
 20
208.2649271669
 30
0.0
  0
SPLINE
  5
714
100
AcDbEntity
  8
AT110_008_01_new_view_5_BL14
100
AcDbSpline
 62
9
  6
CONTINUOUS
 70
0
 71
3
 72
9
 73
5
 74
0
 42
0.0000001
 43
0.0000001
 44
0.0000000001
 40
0.0
 40
0.0
 40
0.0
 40
0.0
 40
0.2574042682
 40
1.0
 40
1.0
 40
1.0
 40
1.0
 10
125.8525744297
 20
208.2649271669
 30
0.0
 10
125.6668429852
 20
208.138091859
 30
0.0
 10
124.951850745
 20
207.6358607118
 30
0.0
 10
124.2636106088
 20
207.0950900144
 30
0.0
 10
123.7731303459
 20
206.670321642
 30
0.0
  0
SPLINE
  5
715
100
AcDbEntity
  8
AT110_008_01_new_view_5_BL14
100
AcDbSpline
 62
9
  6
CONTINUOUS
 70
0
 71
3
 72
28
 73
24
 74
0
 42
0.0000001
 43
0.0000001
 44
0.0000000001
 40
0.0
 40
0.0
 40
0.0
 40
0.0
 40
0.0258562984
 40
0.049891542
 40
0.0723432101
 40
0.0935710964
 40
0.114048704
 40
0.1343323788
 40
0.1550013331
 40
0.1765898131
 40
0.1995354914
 40
0.2241567856
 40
0.2790453618
 40
0.3418158748
 40
0.4117588661
 40
0.4874126313
 40
0.5668353004
 40
0.6478071998
 40
0.7280015217
 40
0.8051447796
 40
0.8771821842
 40
0.9424661508
 40
1.0
 40
1.0
 40
1.0
 40
1.0
 10
193.7017300409
 20
190.3489928352
 30
0.0
 10
194.4208020386
 20
190.9717274524
 30
0.0
 10
195.745461539
 20
192.2496879906
 30
0.0
 10
197.4114308117
 20
194.3359072125
 30
0.0
 10
198.6634419587
 20
196.5020140606
 30
0.0
 10
199.4846622835
 20
198.7284622026
 30
0.0
 10
199.8613446607
 20
200.9922911399
 30
0.0
 10
199.7858202791
 20
203.2658871964
 30
0.0
 10
199.2597128434
 20
205.5201302096
 30
0.0
 10
198.293172804
 20
207.7287561515
 30
0.0
 10
196.9012675925
 20
209.870397244
 30
0.0
 10
194.4105897542
 20
212.7137060815
 30
0.0
 10
190.2456998959
 20
215.9589819786
 30
0.0
 10
184.1021446398
 20
219.1605665107
 30
0.0
 10
176.8493825231
 20
221.7101534459
 30
0.0
 10
168.7529392211
 20
223.514363703
 30
0.0
 10
160.1108278435
 20
224.5070170011
 30
0.0
 10
151.2469042541
 20
224.6500360507
 30
0.0
 10
142.4940983118
 20
223.9379327372
 30
0.0
 10
134.1811512602
 20
222.3982355021
 30
0.0
 10
126.6155637325
 20
220.0876785097
 30
0.0
 10
120.0774345401
 20
217.0937016489
 30
0.0
 10
116.3096477109
 20
214.5377237818
 30
0.0
 10
114.7096128084
 20
213.1520529093
 30
0.0
  0
SPLINE
  5
716
100
AcDbEntity
  8
AT110_008_01_new_view_5_BL14
100
AcDbSpline
 62
9
  6
CONTINUOUS
 70
0
 71
3
 72
9
 73
5
 74
0
 42
0.0000001
 43
0.0000001
 44
0.0000000001
 40
0.0
 40
0.0
 40
0.0
 40
0.0
 40
0.2642424391
 40
1.0
 40
1.0
 40
1.0
 40
1.0
 10
128.9668586784
 20
206.8166221956
 30
0.0
 10
128.6744871964
 20
206.6098435066
 30
0.0
 10
127.5877428247
 20
205.8005000754
 30
0.0
 10
126.5821812175
 20
204.8770250215
 30
0.0
 10
125.9227625806
 20
204.1291027409
 30
0.0
  0
SPLINE
  5
717
100
AcDbEntity
  8
AT110_008_01_new_view_5_BL14
100
AcDbSpline
 62
9
  6
CONTINUOUS
 70
0
 71
3
 72
9
 73
5
 74
0
 42
0.0000001
 43
0.0000001
 44
0.0000000001
 40
0.0
 40
0.0
 40
0.0
 40
0.0
 40
0.2577105726
 40
1.0
 40
1.0
 40
1.0
 40
1.0
 10
184.6382125033
 20
189.100085858
 30
0.0
 10
184.7953164588
 20
189.2361418733
 30
0.0
 10
185.3967664396
 20
189.7733718505
 30
0.0
 10
185.9645470013
 20
190.3487961978
 30
0.0
 10
186.3604282469
 20
190.7978143206
 30
0.0
  0
LINE
  5
718
100
AcDbEntity
  8
AT110_008_01_new_view_5_BL14
100
AcDbLine
 62
7
  6
CONTINUOUS
 10
194.1883921823
 20
183.1586275482
 11
194.3356853241
 21
186.5552481232
  0
LINE
  5
719
100
AcDbEntity
  8
AT110_008_01_new_view_5_BL14
100
AcDbLine
 62
9
  6
CONTINUOUS
 10
194.9880167945
 20
183.8511227759
 11
194.1883921823
 21
183.1586275482
  0
LINE
  5
71A
100
AcDbEntity
  8
AT110_008_01_new_view_5_BL14
100
AcDbLine
 62
9
  6
CONTINUOUS
 10
155.0052960369
 20
171.8474419946
 11
153.4060468124
 21
171.8474419946
  0
LINE
  5
71B
100
AcDbEntity
  8
AT110_008_01_new_view_5_BL14
100
AcDbLine
 62
7
  6
CONTINUOUS
 10
114.222950667
 20
183.1586275482
 11
114.0759982714
 21
186.5473904207
  0
LINE
  5
71C
100
AcDbEntity
  8
AT110_008_01_new_view_5_BL14
100
AcDbLine
 62
9
  6
CONTINUOUS
 10
114.222950667
 20
183.1586275482
 11
113.4233260547
 21
183.8511227759
  0
SPLINE
  5
71D
100
AcDbEntity
  8
AT110_008_01_new_view_5_BL14
100
AcDbSpline
 62
7
  6
CONTINUOUS
 70
0
 71
3
 72
9
 73
5
 74
0
 42
0.0000001
 43
0.0000001
 44
0.0000000001
 40
0.0
 40
0.0
 40
0.0
 40
0.0
 40
0.2433215144
 40
1.0
 40
1.0
 40
1.0
 40
1.0
 10
195.3418781044
 20
189.9184716608
 30
0.0
 10
195.1463698832
 20
189.7491565746
 30
0.0
 10
194.3330508642
 20
189.0646872394
 30
0.0
 10
193.482387651
 20
188.4249458527
 30
0.0
 10
192.8229117713
 20
187.9645322499
 30
0.0
  0
SPLINE
  5
71E
100
AcDbEntity
  8
AT110_008_01_new_view_5_BL14
100
AcDbSpline
 62
7
  6
CONTINUOUS
 70
0
 71
3
 72
23
 73
19
 74
0
 42
0.0000001
 43
0.0000001
 44
0.0000000001
 40
0.0
 40
0.0
 40
0.0
 40
0.0
 40
0.0551514489
 40
0.1154226554
 40
0.1802711041
 40
0.2489162673
 40
0.3204062849
 40
0.3936738012
 40
0.4675833602
 40
0.54097568
 40
0.612710603
 40
0.6817112329
 40
0.7470108435
 40
0.8078070419
 40
0.8635282088
 40
0.9139194623
 40
0.9591592711
 40
1.0
 40
1.0
 40
1.0
 40
1.0
 10
192.8229117713
 20
187.9645322499
 30
0.0
 10
191.4210346708
 20
186.9858106524
 30
0.0
 10
188.3323263547
 20
185.1554484672
 30
0.0
 10
183.2157749786
 20
182.8837480131
 30
0.0
 10
177.501984063
 20
181.0016933192
 30
0.0
 10
171.3083992004
 20
179.5482270549
 30
0.0
 10
164.7614904635
 20
178.5529352904
 30
0.0
 10
157.9963118164
 20
178.0366444315
 30
0.0
 10
151.1526856528
 20
178.0101024776
 30
0.0
 10
144.3722382933
 20
178.4738468811
 30
0.0
 10
137.7951704255
 20
179.4182349311
 30
0.0
 10
131.5570894756
 20
180.8235710423
 30
0.0
 10
125.7859274928
 20
182.6608709216
 30
0.0
 10
120.5989305032
 20
184.8930928501
 30
0.0
 10
116.1001641804
 20
187.4762343933
 30
0.0
 10
112.3785511482
 20
190.3645262312
 30
0.0
 10
109.5108523847
 20
193.5069765552
 30
0.0
 10
108.1587957115
 20
195.8425576737
 30
0.0
 10
107.6775900241
 20
197.0136297004
 30
0.0
  0
ARC
  5
71F
100
AcDbEntity
  8
AT110_008_01_new_view_5_BL14
100
AcDbCircle
 62
7
  6
CONTINUOUS
 10
120.2198960116
 20
202.1738748037
 40
13.5623585342
100
AcDbArc
 50
195.6958957752
 51
202.363595959
  0
SPLINE
  5
720
100
AcDbEntity
  8
AT110_008_01_new_view_5_BL14
100
AcDbSpline
 62
7
  6
CONTINUOUS
 70
0
 71
3
 72
9
 73
5
 74
0
 42
0.0000001
 43
0.0000001
 44
0.0000000001
 40
0.0
 40
0.0
 40
0.0
 40
0.0
 40
0.2525610516
 40
1.0
 40
1.0
 40
1.0
 40
1.0
 10
107.1632625333
 20
198.5048298023
 30
0.0
 10
107.1150184803
 20
198.6773474526
 30
0.0
 10
106.9381928504
 20
199.3642955556
 30
0.0
 10
106.8196748583
 20
200.0663700458
 30
0.0
 10
106.7663209868
 20
200.593821448
 30
0.0
  0
SPLINE
  5
721
100
AcDbEntity
  8
AT110_008_01_new_view_5_BL14
100
AcDbSpline
 62
9
  6
CONTINUOUS
 70
0
 71
3
 72
9
 73
5
 74
0
 42
0.0000001
 43
0.0000001
 44
0.0000000001
 40
0.0
 40
0.0
 40
0.0
 40
0.0
 40
0.2614987213
 40
1.0
 40
1.0
 40
1.0
 40
1.0
 10
122.4101637147
 20
198.3876751779
 30
0.0
 10
122.6899128442
 20
197.799480802
 30
0.0
 10
123.6520274746
 20
195.5036868563
 30
0.0
 10
124.1683057597
 20
192.997045926
 30
0.0
 10
124.1635936122
 20
191.157620983
 30
0.0
  0
SPLINE
  5
722
100
AcDbEntity
  8
AT110_008_01_new_view_5_BL14
100
AcDbSpline
 62
7
  6
CONTINUOUS
 70
0
 71
3
 72
9
 73
5
 74
0
 42
0.0000001
 43
0.0000001
 44
0.0000000001
 40
0.0
 40
0.0
 40
0.0
 40
0.0
 40
0.254391344
 40
1.0
 40
1.0
 40
1.0
 40
1.0
 10
124.1635914577
 20
191.1575192465
 30
0.0
 10
124.1068359764
 20
191.0046126284
 30
0.0
 10
123.9004586722
 20
190.3975140842
 30
0.0
 10
123.7637587644
 20
189.7663672027
 30
0.0
 10
123.7063464583
 20
189.2917890853
 30
0.0
  0
SPLINE
  5
723
100
AcDbEntity
  8
AT110_008_01_new_view_5_BL14
100
AcDbSpline
 62
9
  6
CONTINUOUS
 70
0
 71
3
 72
11
 73
7
 74
0
 42
0.0000001
 43
0.0000001
 44
0.0000000001
 40
0.0
 40
0.0
 40
0.0
 40
0.0
 40
0.2190137986
 40
0.4596749378
 40
0.7207861102
 40
1.0
 40
1.0
 40
1.0
 40
1.0
 10
193.7017300409
 20
190.3489928352
 30
0.0
 10
192.5944723247
 20
189.3900795245
 30
0.0
 10
190.1027057757
 20
187.5679116198
 30
0.0
 10
185.8704211466
 20
185.2393748864
 30
0.0
 10
181.0423476126
 20
183.2239099479
 30
0.0
 10
177.5876867986
 20
182.1457343477
 30
0.0
 10
175.7841960748
 20
181.6614425435
 30
0.0
  0
LINE
  5
724
100
AcDbEntity
  8
AT110_008_01_new_view_5_BL14
100
AcDbLine
 62
9
  6
CONTINUOUS
 10
175.7841960748
 20
181.6614425435
 11
175.7181821219
 21
181.6437506985
  0
SPLINE
  5
725
100
AcDbEntity
  8
AT110_008_01_new_view_5_BL14
100
AcDbSpline
 62
9
  6
CONTINUOUS
 70
0
 71
3
 72
26
 73
22
 74
0
 42
0.0000001
 43
0.0000001
 44
0.0000000001
 40
0.0
 40
0.0
 40
0.0
 40
0.0
 40
0.0765504682
 40
0.1562489237
 40
0.237591643
 40
0.3189976822
 40
0.3988832192
 40
0.4757355306
 40
0.5481920625
 40
0.6151295907
 40
0.6757764087
 40
0.7298619058
 40
0.7778224681
 40
0.7999478379
 40
0.8211511437
 40
0.8417679583
 40
0.8621784868
 40
0.882779632
 40
0.9039528802
 40
0.9492068806
 40
1.0
 40
1.0
 40
1.0
 40
1.0
 10
175.7181821219
 20
181.6437506985
 30
0.0
 10
173.4935491028
 20
181.0487204848
 30
0.0
 10
168.8906702438
 20
180.0582752855
 30
0.0
 10
161.7913938684
 20
179.1655952406
 30
0.0
 10
154.4967183018
 20
178.8497347836
 30
0.0
 10
147.1947705492
 20
179.1191886707
 30
0.0
 10
140.0726996644
 20
179.9668187935
 30
0.0
 10
133.3128747013
 20
181.3707373303
 30
0.0
 10
127.0871136113
 20
183.2949877132
 30
0.0
 10
121.5519684301
 20
185.691166241
 30
0.0
 10
116.8435630013
 20
188.5032976204
 30
0.0
 10
113.0777209612
 20
191.6676019344
 30
0.0
 10
110.7447837692
 20
194.6341742654
 30
0.0
 10
109.5087186642
 20
197.0957326466
 30
0.0
 10
108.8996395542
 20
198.9281345206
 30
0.0
 10
108.5903436863
 20
200.7825027246
 30
0.0
 10
108.5842843789
 20
202.6446310885
 30
0.0
 10
108.8816823255
 20
204.4996599784
 30
0.0
 10
109.6951728182
 20
206.9980850892
 30
0.0
 10
111.5230906157
 20
210.0660386599
 30
0.0
 10
113.5545622491
 20
212.1517497823
 30
0.0
 10
114.7096128084
 20
213.1520529093
 30
0.0
  0
SPLINE
  5
726
100
AcDbEntity
  8
AT110_008_01_new_view_5_BL14
100
AcDbSpline
 62
9
  6
CONTINUOUS
 70
0
 71
3
 72
9
 73
5
 74
0
 42
0.0000001
 43
0.0000001
 44
0.0000000001
 40
0.0
 40
0.0
 40
0.0
 40
0.0
 40
0.2577299709
 40
1.0
 40
1.0
 40
1.0
 40
1.0
 10
123.7731303459
 20
206.670321642
 30
0.0
 10
123.6160145478
 20
206.534255368
 30
0.0
 10
123.0145589696
 20
205.9970314166
 30
0.0
 10
122.4467855468
 20
205.4215996208
 30
0.0
 10
122.0509146002
 20
204.9725931795
 30
0.0
  0
SPLINE
  5
727
100
AcDbEntity
  8
AT110_008_01_new_view_5_BL14
100
AcDbSpline
 62
9
  6
CONTINUOUS
 70
0
 71
3
 72
12
 73
8
 74
0
 42
0.0000001
 43
0.0000001
 44
0.0000000001
 40
0.0
 40
0.0
 40
0.0
 40
0.0
 40
0.0965739417
 40
0.1967902252
 40
0.4200492762
 40
0.6903280682
 40
1.0
 40
1.0
 40
1.0
 40
1.0
 10
122.0509146002
 20
204.9725931795
 30
0.0
 10
121.9030072823
 20
204.8047854935
 30
0.0
 10
121.6408598983
 20
204.4261333763
 30
0.0
 10
121.2769283243
 20
203.5160777975
 30
0.0
 10
121.185583557
 20
202.1119771606
 30
0.0
 10
121.5914655548
 20
200.2832280088
 30
0.0
 10
122.1020099924
 20
199.0353778006
 30
0.0
 10
122.4101637147
 20
198.3876751779
 30
0.0
  0
SPLINE
  5
728
100
AcDbEntity
  8
AT110_008_01_new_view_5_BL14
100
AcDbSpline
 62
7
  6
CONTINUOUS
 70
0
 71
3
 72
17
 73
13
 74
0
 42
0.0000001
 43
0.0000001
 44
0.0000000001
 40
0.0
 40
0.0
 40
0.0
 40
0.0
 40
0.2489000721
 40
0.3738604027
 40
0.4992044773
 40
0.6251264391
 40
0.6879867394
 40
0.7510210955
 40
0.8151421625
 40
0.8786349264
 40
0.9390483596
 40
1.0
 40
1.0
 40
1.0
 40
1.0
 10
133.3420978844
 20
201.7959114774
 30
0.0
 10
133.4236169484
 20
201.6438882795
 30
0.0
 10
133.5467877358
 20
201.4159319304
 30
0.0
 10
133.710870004
 20
201.111340495
 30
0.0
 10
133.835115246
 20
200.8821047885
 30
0.0
 10
133.9361041074
 20
200.689208536
 30
0.0
 10
134.019655365
 20
200.5360264806
 30
0.0
 10
134.0834242311
 20
200.4206694102
 30
0.0
 10
134.1402480597
 20
200.3016780918
 30
0.0
 10
134.1950199616
 20
200.1821702887
 30
0.0
 10
134.2803244299
 20
200.0860102416
 30
0.0
 10
134.3373979254
 20
200.0226012194
 30
0.0
 10
134.3564713096
 20
199.9849097971
 30
0.0
  0
ARC
  5
729
100
AcDbEntity
  8
AT110_008_01_new_view_5_BL14
100
AcDbCircle
 62
9
  6
CONTINUOUS
 10
153.7882430552
 20
125.8472632511
 40
56.6384410758
100
AcDbArc
 50
94.6278668481
 51
100.1028470701
  0
ARC
  5
72A
100
AcDbEntity
  8
AT110_008_01_new_view_5_BL14
100
AcDbCircle
 62
9
  6
CONTINUOUS
 10
154.4938780799
 20
124.849344017
 40
57.6435531545
100
AcDbArc
 50
79.9280534921
 51
85.3241677548
  0
SPLINE
  5
72B
100
AcDbEntity
  8
AT110_008_01_new_view_5_BL14
100
AcDbSpline
 62
7
  6
CONTINUOUS
 70
0
 71
3
 72
14
 73
10
 74
0
 42
0.0000001
 43
0.0000001
 44
0.0000000001
 40
0.0
 40
0.0
 40
0.0
 40
0.0
 40
0.0625022964
 40
0.1250086393
 40
0.1874947286
 40
0.2499851575
 40
0.3749906119
 40
0.500021602
 40
1.0
 40
1.0
 40
1.0
 40
1.0
 10
124.1635902251
 20
191.1574199792
 30
0.0
 10
124.1713962018
 20
191.2515778803
 30
0.0
 10
124.1974512643
 20
191.4388730262
 30
0.0
 10
124.2225955974
 20
191.7212029125
 30
0.0
 10
124.2482805266
 20
192.0034391552
 30
0.0
 10
124.2858704248
 20
192.3794514982
 30
0.0
 10
124.3324275315
 20
192.8495791073
 30
0.0
 10
124.4513288688
 20
193.9770857049
 30
0.0
 10
124.5597388838
 20
194.9156644795
 30
0.0
 10
124.6492456057
 20
195.6661325982
 30
0.0
  0
SPLINE
  5
72C
100
AcDbEntity
  8
AT110_008_01_new_view_5_BL14
100
AcDbSpline
 62
7
  6
CONTINUOUS
 70
0
 71
3
 72
8
 73
4
 74
0
 42
0.0000001
 43
0.0000001
 44
0.0000000001
 40
0.0
 40
0.0
 40
0.0
 40
0.0
 40
1.0
 40
1.0
 40
1.0
 40
1.0
 10
124.6492456057
 20
195.6661325982
 30
0.0
 10
124.676039774
 20
195.8907880057
 30
0.0
 10
124.7030476979
 20
196.115417912
 30
0.0
 10
124.7301207574
 20
196.3400398811
 30
0.0
  0
SPLINE
  5
72D
100
AcDbEntity
  8
AT110_008_01_new_view_5_BL14
100
AcDbSpline
 62
9
  6
CONTINUOUS
 70
0
 71
3
 72
19
 73
15
 74
0
 42
0.0000001
 43
0.0000001
 44
0.0000000001
 40
0.0
 40
0.0
 40
0.0
 40
0.0
 40
0.0530687202
 40
0.1068887484
 40
0.2183032669
 40
0.3369147445
 40
0.3989528122
 40
0.4619834328
 40
0.5253013295
 40
0.5895413998
 40
0.6552585943
 40
0.7224603073
 40
0.8601605875
 40
1.0
 40
1.0
 40
1.0
 40
1.0
 10
126.9954225891
 20
199.5233772743
 30
0.0
 10
127.7670014263
 20
200.1045650939
 30
0.0
 10
129.4172355754
 20
201.153340856
 30
0.0
 10
133.0715740261
 20
202.7471476744
 30
0.0
 10
138.2245578125
 20
203.7123630383
 30
0.0
 10
143.5742758881
 20
203.3015704841
 30
0.0
 10
147.8998064083
 20
202.3075497222
 30
0.0
 10
151.1926359712
 20
201.3483661049
 30
0.0
 10
154.528067232
 20
200.3939381965
 30
0.0
 10
157.8523638106
 20
199.2314972068
 30
0.0
 10
161.1234987473
 20
197.7418483127
 30
0.0
 10
165.4012411957
 20
195.286746256
 30
0.0
 10
170.3817531422
 20
191.4093891257
 30
0.0
 10
173.7715814746
 20
187.6219647567
 30
0.0
 10
175.292794453
 20
185.5811230478
 30
0.0
  0
ARC
  5
72E
100
AcDbEntity
  8
AT110_008_01_new_view_5_BL14
100
AcDbCircle
 62
9
  6
CONTINUOUS
 10
106.1630379774
 20
190.4956528457
 40
22.7043620692
100
AcDbArc
 50
23.429521212
 51
26.5942412602
  0
LINE
  5
72F
100
AcDbEntity
  8
AT110_008_01_new_view_5_BL14
100
AcDbLine
 62
9
  6
CONTINUOUS
 10
126.4652611964
 20
200.6596967915
 11
126.6736452386
 21
200.8068149459
  0
SPLINE
  5
730
100
AcDbEntity
  8
AT110_008_01_new_view_5_BL14
100
AcDbSpline
 62
9
  6
CONTINUOUS
 70
0
 71
3
 72
9
 73
5
 74
0
 42
0.0000001
 43
0.0000001
 44
0.0000000001
 40
0.0
 40
0.0
 40
0.0
 40
0.0
 40
0.4950722717
 40
1.0
 40
1.0
 40
1.0
 40
1.0
 10
126.6736452386
 20
200.8068149459
 30
0.0
 10
127.6107472434
 20
201.4694032141
 30
0.0
 10
129.629274486
 20
202.6377607108
 30
0.0
 10
131.8200998631
 20
203.4335356911
 30
0.0
 10
132.9493333672
 20
203.7417234342
 30
0.0
  0
LINE
  5
731
100
AcDbEntity
  8
AT110_008_01_new_view_5_BL14
100
AcDbLine
 62
9
  6
CONTINUOUS
 10
132.9493333672
 20
203.7417234342
 11
132.9849814324
 21
203.7514194292
  0
ARC
  5
732
100
AcDbEntity
  8
AT110_008_01_new_view_5_BL14
100
AcDbCircle
 62
9
  6
CONTINUOUS
 10
138.6217070966
 20
182.9559649859
 40
21.545848828
100
AcDbArc
 50
104.2851242518
 51
105.165935338
  0
ARC
  5
733
100
AcDbEntity
  8
AT110_008_01_new_view_5_BL14
100
AcDbCircle
 62
9
  6
CONTINUOUS
 10
138.7179688998
 20
182.5719387927
 40
21.9417532657
100
AcDbArc
 50
101.0978038821
 51
104.2812802052
  0
SPLINE
  5
734
100
AcDbEntity
  8
AT110_008_01_new_view_5_BL14
100
AcDbSpline
 62
9
  6
CONTINUOUS
 70
0
 71
3
 72
9
 73
5
 74
0
 42
0.0000001
 43
0.0000001
 44
0.0000000001
 40
0.0
 40
0.0
 40
0.0
 40
0.0
 40
0.4852270832
 40
1.0
 40
1.0
 40
1.0
 40
1.0
 10
134.4945246981
 20
204.1033822058
 30
0.0
 10
136.401430379
 20
204.4778876223
 30
0.0
 10
140.4436696315
 20
204.7367908853
 30
0.0
 10
144.4251331841
 20
204.088943212
 30
0.0
 10
146.4248779564
 20
203.5874657183
 30
0.0
  0
ARC
  5
735
100
AcDbEntity
  8
AT110_008_01_new_view_5_BL14
100
AcDbCircle
 62
9
  6
CONTINUOUS
 10
137.0621685879
 20
166.2521955418
 40
38.4913331267
100
AcDbArc
 50
75.7566333972
 51
75.9220340425
  0
ARC
  5
736
100
AcDbEntity
  8
AT110_008_01_new_view_5_BL14
100
AcDbCircle
 62
9
  6
CONTINUOUS
 10
135.9743714559
 20
162.0329490448
 40
42.8485233225
100
AcDbArc
 50
73.8256479589
 51
75.7349048631
  0
LINE
  5
737
100
AcDbEntity
  8
AT110_008_01_new_view_5_BL14
100
AcDbLine
 62
9
  6
CONTINUOUS
 10
147.9103080004
 20
203.1854625735
 11
154.4750827114
 21
201.2903753502
  0
SPLINE
  5
738
100
AcDbEntity
  8
AT110_008_01_new_view_5_BL14
100
AcDbSpline
 62
9
  6
CONTINUOUS
 70
0
 71
3
 72
13
 73
9
 74
0
 42
0.0000001
 43
0.0000001
 44
0.0000000001
 40
0.0
 40
0.0
 40
0.0
 40
0.0
 40
0.1178868715
 40
0.2383021489
 40
0.3612183627
 40
0.4863504949
 40
0.7414515992
 40
1.0
 40
1.0
 40
1.0
 40
1.0
 10
154.4750827114
 20
201.2903753502
 30
0.0
 10
155.4303585252
 20
201.0145668259
 30
0.0
 10
157.3453151852
 20
200.3973514643
 30
0.0
 10
160.1628001795
 20
199.2292485076
 30
0.0
 10
162.9306354508
 20
197.8084443538
 30
0.0
 10
166.5428136852
 20
195.5737037807
 30
0.0
 10
170.7794460063
 20
192.2100902244
 30
0.0
 10
173.7466879709
 20
189.0284862021
 30
0.0
 10
175.1121831098
 20
187.3282565757
 30
0.0
  0
ARC
  5
739
100
AcDbEntity
  8
AT110_008_01_new_view_5_BL14
100
AcDbCircle
 62
9
  6
CONTINUOUS
 10
140.7572932925
 20
159.7369946597
 40
44.0628663216
100
AcDbArc
 50
38.3285568302
 51
38.768809265
  0
ARC
  5
73A
100
AcDbEntity
  8
AT110_008_01_new_view_5_BL14
100
AcDbCircle
 62
9
  6
CONTINUOUS
 10
140.7983374366
 20
159.7693859217
 40
44.0105804378
100
AcDbArc
 50
37.6873290135
 51
38.3286147145
  0
LINE
  5
73B
100
AcDbEntity
  8
AT110_008_01_new_view_5_BL14
100
AcDbLine
 62
9
  6
CONTINUOUS
 10
175.6264954946
 20
186.6753443095
 11
175.8328021215
 21
186.4085137271
  0
ARC
  5
73C
100
AcDbEntity
  8
AT110_008_01_new_view_5_BL14
100
AcDbCircle
 62
9
  6
CONTINUOUS
 10
184.840531714
 20
179.9395807327
 40
11.0899182367
100
AcDbArc
 50
144.3158482465
 51
149.4221183227
  0
SPLINE
  5
73D
100
AcDbEntity
  8
AT110_008_01_new_view_5_BL14
100
AcDbSpline
 62
9
  6
CONTINUOUS
 70
0
 71
3
 72
11
 73
7
 74
0
 42
0.0000001
 43
0.0000001
 44
0.0000000001
 40
0.0
 40
0.0
 40
0.0
 40
0.0
 40
0.2957144049
 40
0.5660477954
 40
0.7982962038
 40
1.0
 40
1.0
 40
1.0
 40
1.0
 10
126.9952126725
 20
199.5232356145
 30
0.0
 10
127.0728915554
 20
199.4254217901
 30
0.0
 10
127.2451484769
 20
199.2551841387
 30
0.0
 10
127.5432249518
 20
199.0880978485
 30
0.0
 10
127.8444036865
 20
199.0350267652
 30
0.0
 10
128.0283192306
 20
199.0985140706
 30
0.0
 10
128.0964308219
 20
199.1496939518
 30
0.0
  0
SPLINE
  5
73E
100
AcDbEntity
  8
AT110_008_01_new_view_5_BL14
100
AcDbSpline
 62
9
  6
CONTINUOUS
 70
0
 71
3
 72
12
 73
8
 74
0
 42
0.0000001
 43
0.0000001
 44
0.0000000001
 40
0.0
 40
0.0
 40
0.0
 40
0.0
 40
0.4160857598
 40
0.7294689471
 40
0.9248161284
 40
0.9764129848
 40
1.0
 40
1.0
 40
1.0
 40
1.0
 10
175.2929690107
 20
185.5808398742
 30
0.0
 10
175.2526790333
 20
185.5537447643
 30
0.0
 10
175.1812293807
 20
185.5067437875
 30
0.0
 10
175.0906173268
 20
185.4504226955
 30
0.0
 10
175.0310236008
 20
185.4183743829
 30
0.0
 10
175.0037340142
 20
185.4074464629
 30
0.0
 10
174.9928704415
 20
185.4064795528
 30
0.0
 10
174.9912258042
 20
185.4086865406
 30
0.0
  0
SPLINE
  5
73F
100
AcDbEntity
  8
AT110_008_01_new_view_5_BL14
100
AcDbSpline
 62
9
  6
CONTINUOUS
 70
0
 71
3
 72
8
 73
4
 74
0
 42
0.0000001
 43
0.0000001
 44
0.0000000001
 40
0.0
 40
0.0
 40
0.0
 40
0.0
 40
1.0
 40
1.0
 40
1.0
 40
1.0
 10
175.2928225714
 20
185.5811706136
 30
0.0
 10
175.5451328884
 20
185.1820876761
 30
0.0
 10
175.7246321062
 20
184.7315124637
 30
0.0
 10
175.8341670805
 20
184.2722415453
 30
0.0
  0
SPLINE
  5
740
100
AcDbEntity
  8
AT110_008_01_new_view_5_BL14
100
AcDbSpline
 62
9
  6
CONTINUOUS
 70
0
 71
3
 72
9
 73
5
 74
0
 42
0.0000001
 43
0.0000001
 44
0.0000000001
 40
0.0
 40
0.0
 40
0.0
 40
0.0
 40
0.2653740664
 40
1.0
 40
1.0
 40
1.0
 40
1.0
 10
179.1449054836
 20
188.7651936161
 30
0.0
 10
179.4684717523
 20
188.9861557895
 30
0.0
 10
180.6654810684
 20
189.850002301
 30
0.0
 10
181.771269146
 20
190.8473106643
 30
0.0
 10
182.4885802286
 20
191.6609010887
 30
0.0
  0
SPLINE
  5
741
100
AcDbEntity
  8
AT110_008_01_new_view_5_BL14
100
AcDbSpline
 62
9
  6
CONTINUOUS
 70
0
 71
3
 72
11
 73
7
 74
0
 42
0.0000001
 43
0.0000001
 44
0.0000000001
 40
0.0
 40
0.0
 40
0.0
 40
0.0
 40
0.223094533
 40
0.4664774404
 40
0.7291373514
 40
1.0
 40
1.0
 40
1.0
 40
1.0
 10
186.3604282473
 20
190.7978143212
 30
0.0
 10
186.1000041563
 20
190.6113620895
 30
0.0
 10
185.4493844981
 20
190.3594557757
 30
0.0
 10
184.3799573083
 20
190.418624606
 30
0.0
 10
183.3345996513
 20
190.858451026
 30
0.0
 10
182.7417206135
 20
191.3657343954
 30
0.0
 10
182.4886722359
 20
191.6610054437
 30
0.0
  0
SPLINE
  5
742
100
AcDbEntity
  8
AT110_008_01_new_view_5_BL14
100
AcDbSpline
 62
9
  6
CONTINUOUS
 70
0
 71
3
 72
11
 73
7
 74
0
 42
0.0000001
 43
0.0000001
 44
0.0000000001
 40
0.0
 40
0.0
 40
0.0
 40
0.0
 40
0.2839740156
 40
0.5504524018
 40
0.7887833953
 40
1.0
 40
1.0
 40
1.0
 40
1.0
 10
125.8525744314
 20
208.2649271671
 30
0.0
 10
126.0498680335
 20
207.9831899528
 30
0.0
 10
126.4992559016
 20
207.4800653197
 30
0.0
 10
127.3044705506
 20
206.9446954366
 30
0.0
 10
128.1522826586
 20
206.6955960399
 30
0.0
 10
128.7147958023
 20
206.762231475
 30
0.0
 10
128.9528548048
 20
206.8559029131
 30
0.0
  0
ARC
  5
743
100
AcDbEntity
  8
AT110_008_01_new_view_5_BL14
100
AcDbCircle
 62
9
  6
CONTINUOUS
 10
128.4072767355
 20
208.2448874836
 40
1.4922913813
100
AcDbArc
 50
291.4443614266
 51
303.6737464717
  0
SPLINE
  5
744
100
AcDbEntity
  8
AT110_008_01_new_view_5_BL14
100
AcDbSpline
 62
9
  6
CONTINUOUS
 70
0
 71
3
 72
11
 73
7
 74
0
 42
0.0000001
 43
0.0000001
 44
0.0000000001
 40
0.0
 40
0.0
 40
0.0
 40
0.0
 40
0.27105093
 40
0.5337003863
 40
0.7769633928
 40
1.0
 40
1.0
 40
1.0
 40
1.0
 10
122.0509146002
 20
204.9725931795
 30
0.0
 10
122.305214768
 20
204.6784227291
 30
0.0
 10
122.8999365309
 20
204.1737924555
 30
0.0
 10
123.9465694961
 20
203.7388169178
 30
0.0
 10
125.0153649769
 20
203.6852145796
 30
0.0
 10
125.6637463353
 20
203.9410130302
 30
0.0
 10
125.9226705617
 20
204.1289983718
 30
0.0
  0
SPLINE
  5
745
100
AcDbEntity
  8
AT110_008_01_new_view_5_BL14
100
AcDbSpline
 62
9
  6
CONTINUOUS
 70
0
 71
3
 72
10
 73
6
 74
0
 42
0.0000001
 43
0.0000001
 44
0.0000000001
 40
0.0
 40
0.0
 40
0.0
 40
0.0
 40
0.527665604
 40
0.7780846896
 40
1.0
 40
1.0
 40
1.0
 40
1.0
 10
124.7301207574
 20
196.3400398811
 30
0.0
 10
125.0638571617
 20
196.9428388101
 30
0.0
 10
125.5957419307
 20
197.8117080807
 30
0.0
 10
126.3796459666
 20
198.8568411597
 30
0.0
 10
126.7892310748
 20
199.3198114244
 30
0.0
 10
126.9953942306
 20
199.5234427374
 30
0.0
  0
SPLINE
  5
746
100
AcDbEntity
  8
AT110_008_01_new_view_5_BL14
100
AcDbSpline
 62
9
  6
CONTINUOUS
 70
0
 71
3
 72
13
 73
9
 74
0
 42
0.0000001
 43
0.0000001
 44
0.0000000001
 40
0.0
 40
0.0
 40
0.0
 40
0.0
 40
0.0797439097
 40
0.1840889967
 40
0.3084630568
 40
0.4469135883
 40
0.7380299012
 40
1.0
 40
1.0
 40
1.0
 40
1.0
 10
122.4101633664
 20
198.3876750422
 30
0.0
 10
122.4891000186
 20
198.4840304601
 30
0.0
 10
122.6975834768
 20
198.6842845518
 30
0.0
 10
123.0778563969
 20
198.9804497662
 30
0.0
 10
123.5550840694
 20
199.2994530011
 30
0.0
 10
124.3001954844
 20
199.7399425848
 30
0.0
 10
125.2680582579
 20
200.2223922427
 30
0.0
 10
126.0740608242
 20
200.5397603937
 30
0.0
 10
126.4653425526
 20
200.6595221696
 30
0.0
  0
SPLINE
  5
747
100
AcDbEntity
  8
AT110_008_01_new_view_5_BL14
100
AcDbSpline
 62
9
  6
CONTINUOUS
 70
0
 71
3
 72
11
 73
7
 74
0
 42
0.0000001
 43
0.0000001
 44
0.0000000001
 40
0.0
 40
0.0
 40
0.0
 40
0.0
 40
0.2985530431
 40
0.5595018778
 40
0.7888798659
 40
1.0
 40
1.0
 40
1.0
 40
1.0
 10
152.4363172532
 20
209.6805055712
 30
0.0
 10
152.5050257695
 20
209.7400085759
 30
0.0
 10
152.6416482606
 20
209.8431430693
 30
0.0
 10
152.858286911
 20
209.9509233934
 30
0.0
 10
153.0696159466
 20
209.996878949
 30
0.0
 10
153.205951627
 20
209.9826657338
 30
0.0
 10
153.2677189109
 20
209.9648899947
 30
0.0
  0
SPLINE
  5
748
100
AcDbEntity
  8
AT110_008_01_new_view_5_BL14
100
AcDbSpline
 62
9
  6
CONTINUOUS
 70
0
 71
3
 72
11
 73
7
 74
0
 42
0.0000001
 43
0.0000001
 44
0.0000000001
 40
0.0
 40
0.0
 40
0.0
 40
0.0
 40
0.2985809984
 40
0.5595218762
 40
0.7888775063
 40
1.0
 40
1.0
 40
1.0
 40
1.0
 10
159.0010919642
 20
207.785418348
 30
0.0
 10
159.0698563421
 20
207.8449700462
 30
0.0
 10
159.2065886041
 20
207.948177019
 30
0.0
 10
159.4234139981
 20
208.05598194
 30
0.0
 10
159.6349221549
 20
208.1018465725
 30
0.0
 10
159.7713419979
 20
208.0874802983
 30
0.0
 10
159.8331334041
 20
208.0696182408
 30
0.0
  0
SPLINE
  5
749
100
AcDbEntity
  8
AT110_008_01_new_view_5_BL14
100
AcDbSpline
 62
9
  6
CONTINUOUS
 70
0
 71
3
 72
10
 73
6
 74
0
 42
0.0000001
 43
0.0000001
 44
0.0000000001
 40
0.0
 40
0.0
 40
0.0
 40
0.0
 40
0.6502865076
 40
0.8642247248
 40
1.0
 40
1.0
 40
1.0
 40
1.0
 10
182.1799014822
 20
192.0566232717
 30
0.0
 10
182.272912961
 20
192.1403268805
 30
0.0
 10
182.3959235499
 20
192.2526533495
 30
0.0
 10
182.5291235501
 20
192.3912385145
 30
0.0
 10
182.5729588893
 20
192.4427918367
 30
0.0
 10
182.5868593545
 20
192.4649132104
 30
0.0
  0
SPLINE
  5
74A
100
AcDbEntity
  8
AT110_008_01_new_view_5_BL14
100
AcDbSpline
 62
9
  6
CONTINUOUS
 70
0
 71
3
 72
9
 73
5
 74
0
 42
0.0000001
 43
0.0000001
 44
0.0000000001
 40
0.0
 40
0.0
 40
0.0
 40
0.0
 40
0.3770000151
 40
1.0
 40
1.0
 40
1.0
 40
1.0
 10
182.5868593545
 20
192.4649132104
 30
0.0
 10
182.589302571
 20
192.4688013757
 30
0.0
 10
182.5948749981
 20
192.4785730229
 30
0.0
 10
182.6015013185
 20
192.4934672067
 30
0.0
 10
182.5968219748
 20
192.4994412296
 30
0.0
  0
SPLINE
  5
74B
100
AcDbEntity
  8
AT110_008_01_new_view_5_BL14
100
AcDbSpline
 62
9
  6
CONTINUOUS
 70
0
 71
3
 72
9
 73
5
 74
0
 42
0.0000001
 43
0.0000001
 44
0.0000000001
 40
0.0
 40
0.0
 40
0.0
 40
0.0
 40
0.6013964459
 40
1.0
 40
1.0
 40
1.0
 40
1.0
 10
182.4885932551
 20
191.6608843855
 30
0.0
 10
182.5698986499
 20
191.7769074983
 30
0.0
 10
182.6898818138
 20
191.9796343845
 30
0.0
 10
182.7362905971
 20
192.2257548626
 30
0.0
 10
182.7138060505
 20
192.3169252093
 30
0.0
  0
SPLINE
  5
74C
100
AcDbEntity
  8
AT110_008_01_new_view_5_BL14
100
AcDbSpline
 62
9
  6
CONTINUOUS
 70
0
 71
3
 72
9
 73
5
 74
0
 42
0.0000001
 43
0.0000001
 44
0.0000000001
 40
0.0
 40
0.0
 40
0.0
 40
0.0
 40
0.2681884564
 40
1.0
 40
1.0
 40
1.0
 40
1.0
 10
182.7138060505
 20
192.3169252093
 30
0.0
 10
182.7118499474
 20
192.3248568171
 30
0.0
 10
182.7032931228
 20
192.3540730598
 30
0.0
 10
182.6891534613
 20
192.3818979404
 30
0.0
 10
182.6754007918
 20
192.3994416146
 30
0.0
  0
SPLINE
  5
74D
100
AcDbEntity
  8
AT110_008_01_new_view_5_BL14
100
AcDbSpline
 62
9
  6
CONTINUOUS
 70
0
 71
3
 72
12
 73
8
 74
0
 42
0.0000001
 43
0.0000001
 44
0.0000000001
 40
0.0
 40
0.0
 40
0.0
 40
0.0
 40
0.1331708194
 40
0.2682762329
 40
0.4029023043
 40
0.5351118742
 40
1.0
 40
1.0
 40
1.0
 40
1.0
 10
176.6412705866
 20
187.4254985264
 30
0.0
 10
176.7420329763
 20
187.5014441611
 30
0.0
 10
176.9559178415
 20
187.6396471647
 30
0.0
 10
177.2854635736
 20
187.8322635159
 30
0.0
 10
177.6218716872
 20
188.0110705877
 30
0.0
 10
178.2441925868
 20
188.3165629794
 30
0.0
 10
178.7586186793
 20
188.5535377345
 30
0.0
 10
179.1449185949
 20
188.7651767779
 30
0.0
  0
SPLINE
  5
74E
100
AcDbEntity
  8
AT110_008_01_new_view_5_BL14
100
AcDbSpline
 62
9
  6
CONTINUOUS
 70
0
 71
3
 72
9
 73
5
 74
0
 42
0.0000001
 43
0.0000001
 44
0.0000000001
 40
0.0
 40
0.0
 40
0.0
 40
0.0
 40
0.4647664029
 40
1.0
 40
1.0
 40
1.0
 40
1.0
 10
178.8364629055
 20
189.1611204812
 30
0.0
 10
178.5042191998
 20
188.882560852
 30
0.0
 10
177.7771906108
 20
188.2977876806
 30
0.0
 10
177.039415972
 20
187.7268054376
 30
0.0
 10
176.6412705866
 20
187.4254985264
 30
0.0
  0
SPLINE
  5
74F
100
AcDbEntity
  8
AT110_008_01_new_view_5_BL14
100
AcDbSpline
 62
9
  6
CONTINUOUS
 70
0
 71
3
 72
9
 73
5
 74
0
 42
0.0000001
 43
0.0000001
 44
0.0000000001
 40
0.0
 40
0.0
 40
0.0
 40
0.0
 40
0.2711118324
 40
1.0
 40
1.0
 40
1.0
 40
1.0
 10
176.6412705866
 20
187.4254985264
 30
0.0
 10
176.5503319225
 20
187.356678319
 30
0.0
 10
176.2142352196
 20
187.1037230792
 30
0.0
 10
175.8756636744
 20
186.8540185494
 30
0.0
 10
175.6264954946
 20
186.6753443095
 30
0.0
  0
SPLINE
  5
750
100
AcDbEntity
  8
AT110_008_01_new_view_5_BL14
100
AcDbSpline
 62
9
  6
CONTINUOUS
 70
0
 71
3
 72
10
 73
6
 74
0
 42
0.0000001
 43
0.0000001
 44
0.0000000001
 40
0.0
 40
0.0
 40
0.0
 40
0.0
 40
0.230476632
 40
0.6003120594
 40
1.0
 40
1.0
 40
1.0
 40
1.0
 10
175.8327880356
 20
186.408531937
 30
0.0
 10
175.8671880425
 20
186.5034985187
 30
0.0
 10
175.9788402174
 20
186.7436086694
 30
0.0
 10
176.2505186632
 20
187.0921492647
 30
0.0
 10
176.5013914
 20
187.3200701653
 30
0.0
 10
176.6412705866
 20
187.4254985264
 30
0.0
  0
SPLINE
  5
751
100
AcDbEntity
  8
AT110_008_01_new_view_5_BL14
100
AcDbSpline
 62
9
  6
CONTINUOUS
 70
0
 71
3
 72
11
 73
7
 74
0
 42
0.0000001
 43
0.0000001
 44
0.0000000001
 40
0.0
 40
0.0
 40
0.0
 40
0.0
 40
0.2109372707
 40
0.4678564095
 40
0.7419578308
 40
1.0
 40
1.0
 40
1.0
 40
1.0
 10
155.975025596
 20
205.1647679996
 30
0.0
 10
155.7493098156
 20
204.9692934376
 30
0.0
 10
155.3388827509
 20
204.4352353208
 30
0.0
 10
154.8811968033
 20
203.4858998995
 30
0.0
 10
154.5671493357
 20
202.4088893022
 30
0.0
 10
154.4769142679
 20
201.6556435472
 30
0.0
 10
154.4750827114
 20
201.2903753502
 30
0.0
  0
SPLINE
  5
752
100
AcDbEntity
  8
AT110_008_01_new_view_5_BL14
100
AcDbSpline
 62
9
  6
CONTINUOUS
 70
0
 71
3
 72
11
 73
7
 74
0
 42
0.0000001
 43
0.0000001
 44
0.0000000001
 40
0.0
 40
0.0
 40
0.0
 40
0.0
 40
0.2109371531
 40
0.4678563348
 40
0.7419578327
 40
1.0
 40
1.0
 40
1.0
 40
1.0
 10
149.410250885
 20
207.0598552228
 30
0.0
 10
149.1845358068
 20
206.8643802308
 30
0.0
 10
148.7741099832
 20
206.3303216665
 30
0.0
 10
148.3164246942
 20
205.3809863234
 30
0.0
 10
148.0023766654
 20
204.3039761016
 30
0.0
 10
147.9121403934
 20
203.5507306623
 30
0.0
 10
147.9103080004
 20
203.1854625735
 30
0.0
  0
SPLINE
  5
753
100
AcDbEntity
  8
AT110_008_01_new_view_5_BL14
100
AcDbSpline
 62
9
  6
CONTINUOUS
 70
0
 71
3
 72
9
 73
5
 74
0
 42
0.0000001
 43
0.0000001
 44
0.0000000001
 40
0.0
 40
0.0
 40
0.0
 40
0.0
 40
0.244631514
 40
1.0
 40
1.0
 40
1.0
 40
1.0
 10
126.0033217297
 20
202.0433702415
 30
0.0
 10
126.0407554871
 20
201.9346601316
 30
0.0
 10
126.2131829972
 20
201.4971274966
 30
0.0
 10
126.4576756573
 20
201.0885841843
 30
0.0
 10
126.6736452386
 20
200.8068149459
 30
0.0
  0
SPLINE
  5
754
100
AcDbEntity
  8
AT110_008_01_new_view_5_BL14
100
AcDbSpline
 62
9
  6
CONTINUOUS
 70
0
 71
3
 72
11
 73
7
 74
0
 42
0.0000001
 43
0.0000001
 44
0.0000000001
 40
0.0
 40
0.0
 40
0.0
 40
0.0
 40
0.2139612142
 40
0.4498750052
 40
0.7126227178
 40
1.0
 40
1.0
 40
1.0
 40
1.0
 10
126.231441367
 20
204.3468818586
 30
0.0
 10
126.1152101748
 20
204.2195512565
 30
0.0
 10
125.9229335221
 20
203.9016661559
 30
0.0
 10
125.7966923392
 20
203.3338644014
 30
0.0
 10
125.8196933498
 20
202.6954529605
 30
0.0
 10
125.9279300719
 20
202.2623126084
 30
0.0
 10
126.0033217297
 20
202.0433702415
 30
0.0
  0
SPLINE
  5
755
100
AcDbEntity
  8
AT110_008_01_new_view_5_BL14
100
AcDbSpline
 62
9
  6
CONTINUOUS
 70
0
 71
3
 72
9
 73
5
 74
0
 42
0.0000001
 43
0.0000001
 44
0.0000000001
 40
0.0
 40
0.0
 40
0.0
 40
0.0
 40
0.50178543
 40
1.0
 40
1.0
 40
1.0
 40
1.0
 10
126.0033216638
 20
202.0433699184
 30
0.0
 10
126.0830886437
 20
201.8127731615
 30
0.0
 10
126.2423774797
 20
201.3534093594
 30
0.0
 10
126.3975352214
 20
200.8923107014
 30
0.0
 10
126.4652755579
 20
200.6597069162
 30
0.0
  0
SPLINE
  5
756
100
AcDbEntity
  8
AT110_008_01_new_view_5_BL14
100
AcDbSpline
 62
9
  6
CONTINUOUS
 70
0
 71
3
 72
12
 73
8
 74
0
 42
0.0000001
 43
0.0000001
 44
0.0000000001
 40
0.0
 40
0.0
 40
0.0
 40
0.0
 40
0.1968929161
 40
0.4189104459
 40
0.6855486074
 40
0.8373243066
 40
1.0
 40
1.0
 40
1.0
 40
1.0
 10
125.9227494969
 20
204.1290935019
 30
0.0
 10
125.8307437254
 20
204.0199479736
 30
0.0
 10
125.6925446567
 20
203.7354717823
 30
0.0
 10
125.6747614032
 20
203.2303736673
 30
0.0
 10
125.7681362308
 20
202.7735524804
 30
0.0
 10
125.8878496605
 20
202.3695305685
 30
0.0
 10
125.9647650691
 20
202.1548324021
 30
0.0
 10
126.0033216638
 20
202.0433699184
 30
0.0
  0
ENDBLK
  5
757
100
AcDbEntity
  8
0
  6
BYBLOCK
 62
0
100
AcDbBlockEnd
  0
ENDSEC
  0
SECTION
  2
ENTITIES
  0
INSERT
  5
758
100
AcDbEntity
  8
0
100
AcDbBlockReference
 62
2
  6
CONTINUOUS
  2
SCHRIFTFELD-DATENPLANER_BL15
 10
651.8374739994
 20
178.2632947076
  0
INSERT
  5
759
100
AcDbEntity
  8
AT110_010_00_new_view_1_BL0
100
AcDbBlockReference
  2
AT110_010_00_NEW_VIEW_1_BL0
 10
296.5964350055
 20
335.3071646341
  0
INSERT
  5
75A
100
AcDbEntity
  8
AT110_008_01_new_view_1_BL1
100
AcDbBlockReference
  2
AT110_008_01_NEW_VIEW_1_BL1
 10
296.5964350055
 20
334.3073784812
  0
INSERT
  5
75B
100
AcDbEntity
  8
AT110_009_01_new_view_1_BL2
100
AcDbBlockReference
  2
AT110_009_01_NEW_VIEW_1_BL2
 10
296.5964350055
 20
305.5571646341
  0
INSERT
  5
75C
100
AcDbEntity
  8
AT110_010_00_rechts_2_BL3
100
AcDbBlockReference
  2
AT110_010_00_RECHTS_2_BL3
 10
156.1723946785
 20
335.3071646341
  0
INSERT
  5
75D
100
AcDbEntity
  8
AT110_008_01_rechts_2_BL4
100
AcDbBlockReference
  2
AT110_008_01_RECHTS_2_BL4
 10
156.1723946785
 20
334.3081664968
  0
INSERT
  5
75E
100
AcDbEntity
  8
AT110_009_01_rechts_2_BL5
100
AcDbBlockReference
  2
AT110_009_01_RECHTS_2_BL5
 10
156.1723946785
 20
305.5571646341
  0
INSERT
  5
75F
100
AcDbEntity
  8
AT110_010_00_links_3_BL6
100
AcDbBlockReference
  2
AT110_010_00_LINKS_3_BL6
 10
441.3472664911
 20
335.3071646341
  0
INSERT
  5
760
100
AcDbEntity
  8
AT110_008_01_links_3_BL7
100
AcDbBlockReference
  2
AT110_008_01_LINKS_3_BL7
 10
441.3472664911
 20
334.3081664968
  0
INSERT
  5
761
100
AcDbEntity
  8
AT110_009_01_links_3_BL8
100
AcDbBlockReference
  2
AT110_009_01_LINKS_3_BL8
 10
441.3472664911
 20
305.5571646341
  0
INSERT
  5
762
100
AcDbEntity
  8
AT110_009_01_oben_4_BL9
100
AcDbBlockReference
  2
AT110_009_01_OBEN_4_BL9
 10
296.5964350055
 20
179.9799663941
  0
INSERT
  5
763
100
AcDbEntity
  8
AT110_010_00_oben_4_BL10
100
AcDbBlockReference
  2
AT110_010_00_OBEN_4_BL10
 10
296.5964350055
 20
179.9799663941
  0
INSERT
  5
764
100
AcDbEntity
  8
AT110_008_01_oben_4_BL11
100
AcDbBlockReference
  2
AT110_008_01_OBEN_4_BL11
 10
296.5964350055
 20
179.9799663941
  0
INSERT
  5
765
100
AcDbEntity
  8
AT110_010_00_new_view_5_BL12
100
AcDbBlockReference
  2
AT110_010_00_NEW_VIEW_5_BL12
 10
154.2056695818
 20
200.8952748535
  0
INSERT
  5
766
100
AcDbEntity
  8
AT110_009_01_new_view_5_BL13
100
AcDbBlockReference
  2
AT110_009_01_NEW_VIEW_5_BL13
 10
154.2053854489
 20
166.8466693827
  0
INSERT
  5
767
100
AcDbEntity
  8
AT110_008_01_new_view_5_BL14
100
AcDbBlockReference
  2
AT110_008_01_NEW_VIEW_5_BL14
 10
154.2060423386
 20
198.0124413704
  0
ENDSEC
  0
SECTION
  2
OBJECTS
  0
DICTIONARY
  5
C
100
AcDbDictionary
280
0
281
1
  3
ACAD_GROUP
350
D
  3
ACAD_MLINESTYLE
350
17
  3
ACAD_LAYOUT
350
1A
  3
ACAD_PLOTSETTINGS
350
19
  3
ACAD_PLOTSTYLENAME
350
E
  0
DICTIONARY
  5
D
102
{ACAD_REACTORS
330
C
102
}
100
AcDbDictionary
280
0
281
1
  0
ACDBDICTIONARYWDFLT
  5
E
102
{ACAD_REACTORS
330
C
102
}
100
AcDbDictionary
281
1
  3
Normal
350
F
100
AcDbDictionaryWithDefault
340
F
  0
DICTIONARY
  5
17
102
{ACAD_REACTORS
330
C
102
}
100
AcDbDictionary
280
0
281
1
  3
Standard
350
18
  0
DICTIONARY
  5
19
102
{ACAD_REACTORS
330
C
102
}
100
AcDbDictionary
281
1
  0
DICTIONARY
  5
1A
102
{ACAD_REACTORS
330
C
102
}
100
AcDbDictionary
281
1
  3
Model
350
768
  3
Layout1
350
769
  0
ACDBPLACEHOLDER
  5
F
102
{ACAD_REACTORS
330
E
102
}
  0
MLINESTYLE
  5
18
102
{ACAD_REACTORS
330
17
102
}
100
AcDbMlineStyle
  2
STANDARD
 70
0
  3

 62
256
 51
90.0
 52
90.0
 71
2
 49
0.5
 62
256
  6
BYLAYER
 49
-0.5
 62
256
  6
BYLAYER
  0
LAYOUT
  5
768
102
{ACAD_REACTORS
330
1A
102
}
100
AcDbPlotSettings
  1

  2
none_device
  4
ISO_A1_(594.00_x_841.00_MM)
  6

 40
0.0
 41
0.0
 42
0.0
 43
0.0
 44
841.0
 45
594.0
 46
0.0
 47
0.0
 48
0.0
 49
0.0
140
0.0
141
0.0
142
1.0
143
1.0
 70
1024
 72
1
 73
0
 74
0
  7

 75
0
147
1.0
148
0.0
149
0.0
100
AcDbLayout
  1
Model
 70
0
 71
0
 10
0.0
 20
0.0
 11
841.0
 21
594.0
 12
0.0
 22
0.0
 32
0.0
 14
0.0
 24
0.0
 34
0.0
 15
0.0
 25
0.0
 35
0.0
146
0.0
 13
0.0
 23
0.0
 33
0.0
 16
1.0
 26
0.0
 36
0.0
 17
0.0
 27
1.0
 37
0.0
 76
0
330
21F
345
0
346
0
  0
LAYOUT
  5
769
102
{ACAD_REACTORS
330
1A
102
}
100
AcDbPlotSettings
  1

  2
none_device
  4
ISO_A1_(594.00_x_841.00_MM)
  6

 40
0.0
 41
0.0
 42
0.0
 43
0.0
 44
841.0
 45
594.0
 46
0.0
 47
0.0
 48
0.0
 49
0.0
140
0.0
141
0.0
142
1.0
143
1.0
 70
0
 72
1
 73
0
 74
0
  7

 75
0
147
1.0
148
0.0
149
0.0
100
AcDbLayout
  1
Layout1
 70
0
 71
1
 10
0.0
 20
0.0
 11
841.0
 21
594.0
 12
0.0
 22
0.0
 32
0.0
 14
0.0
 24
0.0
 34
0.0
 15
0.0
 25
0.0
 35
0.0
146
0.0
 13
0.0
 23
0.0
 33
0.0
 16
1.0
 26
0.0
 36
0.0
 17
0.0
 27
1.0
 37
0.0
 76
0
330
220
345
0
346
0
  0
ENDSEC
  0
EOF
