                                                                        S      1
,,,9H430360227,22HAutodesk Inventor 2018,7Hunknown,32,38,7,99,15,,1.,2, G      1
2HMM,1,0.08,15H20201214.080153,0.01,10000.,5HJANAN,,11,0,15H20201214.070G      2
151;                                                                    G      3
     186       1                                                00000000D      1
     186            -119       1       0                               0D      2
     514       2                                                00010000D      3
     514                       1       1                               0D      4
     510       3                                                00010000D      5
     510            -119       1       1                               0D      6
     510       4                                                00010000D      7
     510            -119       1       1                               0D      8
     510       5                                                00010000D      9
     510            -119       1       1                               0D     10
     510       6                                                00010000D     11
     510            -119       1       1                               0D     12
     510       7                                                00010000D     13
     510            -119       1       1                               0D     14
     510       8                                                00010000D     15
     510            -119       1       1                               0D     16
     510       9                                                00010000D     17
     510            -119       1       1                               0D     18
     510      10                                                00010000D     19
     510            -119       1       1                               0D     20
     510      11                                                00010000D     21
     510            -119       1       1                               0D     22
     510      12                                                00010000D     23
     510            -119       1       1                               0D     24
     508      13                                                00010000D     25
     508                       1       1                               0D     26
     508      14                                                00010000D     27
     508                       1       1                               0D     28
     508      15                                                00010000D     29
     508                       1       1                               0D     30
     508      16                                                00010000D     31
     508                       1       1                               0D     32
     508      17                                                00010000D     33
     508                       1       1                               0D     34
     508      18                                                00010000D     35
     508                       1       1                               0D     36
     508      19                                                00010000D     37
     508                       1       1                               0D     38
     508      20                                                00010000D     39
     508                       1       1                               0D     40
     508      21                                                00010000D     41
     508                       2       1                               0D     42
     508      23                                                00010000D     43
     508                       2       1                               0D     44
     126      25                                                00010000D     45
     126       0               2       0                               0D     46
     126      27                                                00010000D     47
     126       0               2       0                               0D     48
     126      29                                                00010000D     49
     126       0               2       0                               0D     50
     126      31                                                00010000D     51
     126       0               2       0                               0D     52
     126      33                                                00010000D     53
     126       0               2       0                               0D     54
     126      35                                                00010000D     55
     126       0               2       0                               0D     56
     126      37                                                00010000D     57
     126       0               2       0                               0D     58
     126      39                                                00010000D     59
     126       0               4       0                               0D     60
     126      43                                                00010000D     61
     126       0               4       0                               0D     62
     126      47                                                00010000D     63
     126       0               3       0                               0D     64
     126      50                                                00010000D     65
     126       0               3       0                               0D     66
     126      53                                                00010000D     67
     126       0               3       0                               0D     68
     126      56                                                00010000D     69
     126       0               3       0                               0D     70
     126      59                                                00010000D     71
     126       0               5       0                               0D     72
     126      64                                                00010000D     73
     126       0               5       0                               0D     74
     126      69                                                00010000D     75
     126       0               2       0                               0D     76
     126      71                                                00010000D     77
     126       0               3       0                               0D     78
     126      74                                                00010000D     79
     126       0               3       0                               0D     80
     126      77                                                00010000D     81
     126       0               2       0                               0D     82
     126      79                                                00010000D     83
     126       0               2       0                               0D     84
     126      81                                                00010000D     85
     126       0               2       0                               0D     86
     126      83                                                00010000D     87
     126       0               2       0                               0D     88
     126      85                                                00010000D     89
     126       0               2       0                               0D     90
     126      87                                                00010000D     91
     126       0               2       0                               0D     92
     128      89                                                00010000D     93
     128       0    -119       4       0                               0D     94
     128      93                                                00010000D     95
     128       0    -119       4       0                               0D     96
     128      97                                                00010000D     97
     128       0    -119       6       0                               0D     98
     128     103                                                00010000D     99
     128       0    -119       6       0                               0D    100
     128     109                                                00010000D    101
     128       0    -119       8       0                               0D    102
     128     117                                                00010000D    103
     128       0    -119       5       0                               0D    104
     128     122                                                00010000D    105
     128       0    -119       5       0                               0D    106
     128     127                                                00010000D    107
     128       0    -119       4       0                               0D    108
     128     131                                                00010000D    109
     128       0    -119       8       0                               0D    110
     128     139                                                00010000D    111
     128       0    -119       8       0                               0D    112
     502     147                                                00010000D    113
     502                       7       1                               0D    114
     504     154                                                00010001D    115
     504                       7       1                               0D    116
     406     161                                                00000000D    117
     406                       1      15                               0D    118
     314     162                                                00000200D    119
     314                       1       0                               0D    120
186,3,1,0,0,1,117;                                                     1P      1
514,10,5,1,7,1,9,1,11,1,13,1,15,1,17,1,19,1,21,1,23,1;                 3P      2
510,93,1,1,25;                                                         5P      3
510,95,1,1,27;                                                         7P      4
510,97,1,1,29;                                                         9P      5
510,99,1,1,31;                                                        11P      6
510,101,1,1,33;                                                       13P      7
510,103,1,1,35;                                                       15P      8
510,105,1,1,37;                                                       17P      9
510,107,1,1,39;                                                       19P     10
510,109,1,1,41;                                                       21P     11
510,111,1,1,43;                                                       23P     12
508,4,0,115,1,0,0,0,115,2,1,0,0,115,3,0,0,0,115,4,0,0;                25P     13
508,4,0,115,5,0,0,0,115,4,1,0,0,115,6,0,0,0,115,7,0,0;                27P     14
508,4,0,115,8,0,0,0,115,7,1,0,0,115,9,0,0,0,115,10,0,0;               29P     15
508,4,0,115,11,0,0,0,115,10,1,0,0,115,12,0,0,0,115,13,0,0;            31P     16
508,4,0,115,14,0,0,0,115,13,1,0,0,115,15,0,0,0,115,16,0,0;            33P     17
508,4,0,115,17,0,0,0,115,16,1,0,0,115,18,0,0,0,115,19,0,0;            35P     18
508,4,0,115,20,0,0,0,115,19,1,0,0,115,21,0,0,0,115,22,0,0;            37P     19
508,4,0,115,23,0,0,0,115,22,1,0,0,115,24,0,0,0,115,2,0,0;             39P     20
508,8,0,115,23,1,0,0,115,1,1,0,0,115,5,1,0,0,115,8,1,0,0,115,11,      41P     21
1,0,0,115,14,1,0,0,115,17,1,0,0,115,20,1,0;                           41P     22
508,8,0,115,24,1,0,0,115,21,1,0,0,115,18,1,0,0,115,15,1,0,0,115,      43P     23
12,1,0,0,115,9,1,0,0,115,6,1,0,0,115,3,1,0;                           43P     24
126,1,1,0,0,1,0,0.,0.,20.5,20.5,1.,1.,-1370.,0.,0.,-1370.,0.,         45P     25
205.,0.,20.5,0.,0.,0.;                                                45P     26
126,1,1,0,0,1,0,0.,0.,1.2,1.2,1.,1.,-1370.,0.,0.,-1370.,-12.,0.,      47P     27
0.,1.2,0.,0.,0.;                                                      47P     28
126,1,1,0,0,1,0,-20.5,-20.5,0.,0.,1.,1.,-1370.,-12.,205.,-1370.,      49P     29
-12.,0.,-20.5,0.,0.,0.,0.;                                            49P     30
126,1,1,0,0,1,0,0.,0.,1.2,1.2,1.,1.,-1370.,0.,205.,-1370.,-12.,       51P     31
205.,0.,1.2,0.,0.,0.;                                                 51P     32
126,1,1,0,0,1,0,0.,0.,39.5385,39.5385,1.,1.,-1370.,0.,205.,           53P     33
-974.615,0.,205.,0.,39.5385,0.,0.,0.;                                 53P     34
126,1,1,0,0,1,0,-39.5385,-39.5385,0.,0.,1.,1.,-974.615,-12.,          55P     35
205.,-1370.,-12.,205.,-39.5385,0.,0.,0.,0.;                           55P     36
126,1,1,0,0,1,0,0.,0.,1.2,1.2,1.,1.,-974.615,0.,205.,-974.615,        57P     37
-12.,205.,0.,1.2,0.,0.,0.;                                            57P     38
126,2,2,0,0,0,0,0.,0.,0.,0.907571211037053,0.907571211037053,         59P     39
0.907571211037053,1.,0.898794046299165,1.,-974.615,0.,205.,           59P     40
-950.228370571707,0.,205.,-935.214462319664,0.,185.783073766283,      59P     41
0.,0.907571211037053,0.,0.,0.;                                        59P     42
126,2,2,0,0,0,0,-0.907571211037053,-0.907571211037053,                61P     43
-0.907571211037053,0.,0.,0.,1.,0.898794046299165,1.,                  61P     44
-935.214462319664,-12.,185.783073766283,-950.228370571707,-12.,       61P     45
205.,-974.615,-12.,205.,-0.907571211037053,0.,0.,0.,0.;               61P     46
126,1,1,0,0,1,0,0.,0.,1.2,1.2,1.,1.,-935.214462319664,0.,             63P     47
185.783073766283,-935.214462319664,-12.,185.783073766283,0.,1.2,      63P     48
0.,0.,0.;                                                             63P     49
126,1,1,0,0,1,0,0.,0.,7.81285626506713,7.81285626506713,1.,1.,        65P     50
-935.214462319664,0.,185.783073766283,-887.113716173078,0.,           65P     51
124.216926233717,0.,7.81285626506713,0.,0.,0.;                        65P     52
126,1,1,0,0,1,0,-7.81285626506713,-7.81285626506713,0.,0.,1.,1.,      67P     53
-887.113716173078,-12.,124.216926233717,-935.214462319664,-12.,       67P     54
185.783073766283,-7.81285626506713,0.,0.,0.,0.;                       67P     55
126,1,1,0,0,1,0,0.,0.,1.2,1.2,1.,1.,-887.113716173078,0.,             69P     56
124.216926233717,-887.113716173078,-12.,124.216926233717,0.,1.2,      69P     57
0.,0.,0.;                                                             69P     58
126,2,2,0,0,0,0,2.23402144255274,2.23402144255274,                    71P     59
2.23402144255274,3.14159265358979,3.14159265358979,                   71P     60
3.14159265358979,1.,0.898794046299168,1.,-887.113716173079,0.,        71P     61
124.216926233717,-872.099807921036,0.,105.,-847.713178492742,0.,      71P     62
105.,2.23402144255274,3.14159265358979,0.,0.,0.;                      71P     63
126,2,2,0,0,0,0,-3.14159265358979,-3.14159265358979,                  73P     64
-3.14159265358979,-2.23402144255274,-2.23402144255274,                73P     65
-2.23402144255274,1.,0.898794046299168,1.,-847.713178492742,          73P     66
-12.,105.,-872.099807921036,-12.,105.,-887.113716173079,-12.,         73P     67
124.216926233717,-3.14159265358979,-2.23402144255274,0.,0.,0.;        73P     68
126,1,1,0,0,1,0,0.,0.,1.2,1.2,1.,1.,-847.713178492742,0.,105.,        75P     69
-847.713178492742,-12.,105.,0.,1.2,0.,0.,0.;                          75P     70
126,1,1,0,0,1,0,0.,0.,84.7713178492742,84.7713178492742,1.,1.,        77P     71
-847.713178492742,0.,105.,0.,0.,105.,0.,84.7713178492742,0.,0.,       77P     72
0.;                                                                   77P     73
126,1,1,0,0,1,0,-84.7713178492742,-84.7713178492742,0.,0.,1.,1.,      79P     74
0.,-12.,105.,-847.713178492742,-12.,105.,-84.7713178492742,0.,        79P     75
0.,0.,0.;                                                             79P     76
126,1,1,0,0,1,0,0.,0.,1.2,1.2,1.,1.,3.2146978477618D-14,0.,105.,      81P     77
3.2146978477618D-14,-12.,105.,0.,1.2,0.,0.,0.;                        81P     78
126,1,1,0,0,1,0,0.,0.,10.5,10.5,1.,1.,3.2146978477618D-14,0.,         83P     79
105.,-3.94430452610506D-30,0.,0.,0.,10.5,0.,0.,0.;                    83P     80
126,1,1,0,0,1,0,-10.5,-10.5,0.,0.,1.,1.,-3.94430452610506D-30,        85P     81
-12.,0.,3.2146978477618D-14,-12.,105.,-10.5,0.,0.,0.,0.;              85P     82
126,1,1,0,0,1,0,0.,0.,1.2,1.2,1.,1.,0.,0.,0.,0.,-12.,0.,0.,1.2,       87P     83
0.,0.,0.;                                                             87P     84
126,1,1,0,0,1,0,0.,0.,137.,137.,1.,1.,0.,0.,0.,-1370.,0.,0.,0.,       89P     85
137.,0.,0.,0.;                                                        89P     86
126,1,1,0,0,1,0,-137.,-137.,0.,0.,1.,1.,-1370.,-12.,0.,0.,-12.,       91P     87
0.,-137.,0.,0.,0.,0.;                                                 91P     88
128,1,1,1,1,0,0,1,0,0,-0.001,-0.001,20.501,20.501,-0.001,-0.001,      93P     89
1.201,1.201,1.,1.,1.,1.,-1370.,0.01,205.01,-1370.,0.01,               93P     90
-0.0100000000000122,-1370.,-12.01,205.01,-1370.,-12.01,               93P     91
-0.0100000000000122,-0.001,20.501,-0.001,1.201;                       93P     92
128,1,1,1,1,0,0,1,0,0,-0.001,-0.001,39.5395,39.5395,-0.001,           95P     93
-0.001,1.201,1.201,1.,1.,1.,1.,-974.605,0.01,205.,-1370.01,0.01,      95P     94
205.,-974.605,-12.01,205.,-1370.01,-12.01,205.,-0.001,39.5395,        95P     95
-0.001,1.201;                                                         95P     96
128,1,2,1,2,0,0,0,0,0,0.,0.,0.24,0.24,-0.907571211037053,             97P     97
-0.907571211037053,-0.907571211037053,0.,0.,0.,1.,1.,                 97P     98
0.898794046299167,0.898794046299167,1.,1.,-935.214462319664,          97P     99
-12.,185.783073766283,-935.214462319664,0.,185.783073766283,          97P    100
-950.228370571707,-12.,205.,-950.228370571707,0.,205.,-974.615,       97P    101
-12.,205.,-974.615,0.,205.,0.,0.24,-0.907571211037053,0.;             97P    102
128,1,1,1,1,0,0,1,0,0,-0.001,-0.001,7.81385626506714,                 99P    103
7.81385626506714,-0.001,-0.001,1.201,1.201,1.,1.,1.,1.,               99P    104
-887.107559558325,0.01,124.209046126181,-935.220618934417,0.01,       99P    105
185.790953873819,-887.107559558325,-12.01,124.209046126181,           99P    106
-935.220618934417,-12.01,185.790953873819,-0.001,                     99P    107
7.81385626506714,-0.001,1.201;                                        99P    108
128,1,2,1,2,0,0,0,0,0,0.,0.,0.239999999999999,0.239999999999999,     101P    109
2.23402144255274,2.23402144255274,2.23402144255274,                  101P    110
3.14159265358979,3.14159265358979,3.14159265358979,1.,1.,            101P    111
0.898794046299167,0.898794046299167,1.,1.,-887.113716173079,0.,      101P    112
124.216926233717,-887.113716173079,-12.,124.216926233717,            101P    113
-872.099807921036,0.,105.,-872.099807921036,-12.,105.,               101P    114
-847.713178492742,0.,105.,-847.713178492742,-12.,105.,0.,            101P    115
0.239999999999999,2.23402144255274,3.14159265358979;                 101P    116
128,1,1,1,1,0,0,1,0,0,-0.00100000000000321,-0.00100000000000321,     103P    117
84.7723178492742,84.7723178492742,-0.001,-0.001,1.201,1.201,1.,      103P    118
1.,1.,1.,0.0100000000000321,0.01,105.,-847.723178492742,0.01,        103P    119
105.,0.0100000000000321,-12.01,105.,-847.723178492742,-12.01,        103P    120
105.,-0.00100000000000321,84.7723178492742,-0.001,1.201;             103P    121
128,1,1,1,1,0,0,1,0,0,-0.001,-0.001,10.501,10.501,-0.001,-0.001,     105P    122
1.201,1.201,1.,1.,1.,1.,-3.06161699787233D-18,0.01,-0.01,            105P    123
3.21500400946159D-14,0.01,105.01,-3.06161699787233D-18,-12.01,       105P    124
-0.01,3.21500400946159D-14,-12.01,105.01,-0.001,10.501,-0.001,       105P    125
1.201;                                                               105P    126
128,1,1,1,1,0,0,1,0,0,-0.001,-0.001,137.001,137.001,-0.001,          107P    127
-0.001,1.201,1.201,1.,1.,1.,1.,-1370.01,0.01,0.,                     107P    128
0.0100000000000477,0.01,0.,-1370.01,-12.01,0.,                       107P    129
0.0100000000000477,-12.01,0.,-0.001,137.001,-0.001,1.201;            107P    130
128,1,1,1,1,0,0,1,0,0,-7.14431079749567,-7.14431079749567,           109P    131
13.3576892025043,13.3576892025043,-66.1270427400191,                 109P    132
-66.1270427400191,70.8749572599809,70.8749572599809,1.,1.,1.,1.,     109P    133
-1370.01,-1.26676334708568D-13,-0.0100000000000033,-1370.01,         109P    134
-9.58120894476285D-14,205.01,0.0100000000000477,                     109P    135
1.13488993936275D-13,-0.0100000000000033,0.0100000000000477,         109P    136
1.44353239197215D-13,205.01,-7.14431079749567,13.3576892025043,      109P    137
-66.1270427400191,70.8749572599809;                                  109P    138
128,1,1,1,1,0,0,1,0,0,-7.14431079749567,-7.14431079749567,           111P    139
13.3576892025043,13.3576892025043,-66.1270427400191,                 111P    140
-66.1270427400191,70.8749572599809,70.8749572599809,1.,1.,1.,1.,     111P    141
-1370.01,-12.0000000000001,205.01,-1370.01,-12.0000000000001,        111P    142
-0.0100000000000033,0.0100000000000477,-11.9999999999999,205.01,     111P    143
0.0100000000000477,-11.9999999999999,-0.0100000000000033,            111P    144
-7.14431079749567,13.3576892025043,-66.1270427400191,                111P    145
70.8749572599809;                                                    111P    146
502,16,-1370.,0.,0.,-1370.,0.,205.,-1370.,-12.,0.,-1370.,-12.,       113P    147
205.,-974.615,0.,205.,-974.615,-12.,205.,-935.214462319664,0.,       113P    148
185.783073766283,-935.214462319664,-12.,185.783073766283,            113P    149
-887.113716173078,0.,124.216926233717,-887.113716173078,-12.,        113P    150
124.216926233717,-847.713178492742,0.,105.,-847.713178492742,        113P    151
-12.,105.,3.2146978477618D-14,0.,105.,3.2146978477618D-14,-12.,      113P    152
105.,0.,0.,0.,0.,-12.,0.;                                            113P    153
504,24,45,113,1,113,2,47,113,1,113,3,49,113,4,113,3,51,113,2,        115P    154
113,4,53,113,2,113,5,55,113,6,113,4,57,113,5,113,6,59,113,5,113,     115P    155
7,61,113,8,113,6,63,113,7,113,8,65,113,7,113,9,67,113,10,113,8,      115P    156
69,113,9,113,10,71,113,9,113,11,73,113,12,113,10,75,113,11,113,      115P    157
12,77,113,11,113,13,79,113,14,113,12,81,113,13,113,14,83,113,13,     115P    158
113,15,85,113,16,113,14,87,113,15,113,16,89,113,15,113,1,91,113,     115P    159
3,113,16;                                                            115P    160
406,1,15HVolumenkörper1;                                            117P    161
314,100.,100.,100.,;                                                 119P    162
S      1G      3D    120P    162                                        T      1
