                                                                        S      1
,,,9H430010301,22HAutodesk Inventor 2018,7Hunknown,32,38,7,99,15,,1.,2, G      1
2HMM,1,0.08,15H20201214.075048,0.01,10000.,5HJANAN,,11,0,15H20201214.065G      2
045;                                                                    G      3
     186       1                                                00000000D      1
     186            -119       1       0                               0D      2
     514       2                                                00010000D      3
     514                       1       1                               0D      4
     510       3                                                00010000D      5
     510            -119       1       1                               0D      6
     510       4                                                00010000D      7
     510            -119       1       1                               0D      8
     510       5                                                00010000D      9
     510            -119       1       1                               0D     10
     510       6                                                00010000D     11
     510            -119       1       1                               0D     12
     510       7                                                00010000D     13
     510            -119       1       1                               0D     14
     510       8                                                00010000D     15
     510            -119       1       1                               0D     16
     510       9                                                00010000D     17
     510            -119       1       1                               0D     18
     510      10                                                00010000D     19
     510            -119       1       1                               0D     20
     510      11                                                00010000D     21
     510            -119       1       1                               0D     22
     510      12                                                00010000D     23
     510            -119       1       1                               0D     24
     508      13                                                00010000D     25
     508                       1       1                               0D     26
     508      14                                                00010000D     27
     508                       1       1                               0D     28
     508      15                                                00010000D     29
     508                       1       1                               0D     30
     508      16                                                00010000D     31
     508                       1       1                               0D     32
     508      17                                                00010000D     33
     508                       1       1                               0D     34
     508      18                                                00010000D     35
     508                       1       1                               0D     36
     508      19                                                00010000D     37
     508                       1       1                               0D     38
     508      20                                                00010000D     39
     508                       1       1                               0D     40
     508      21                                                00010000D     41
     508                       2       1                               0D     42
     508      23                                                00010000D     43
     508                       2       1                               0D     44
     126      25                                                00010000D     45
     126       0               2       0                               0D     46
     126      27                                                00010000D     47
     126       0               2       0                               0D     48
     126      29                                                00010000D     49
     126       0               2       0                               0D     50
     126      31                                                00010000D     51
     126       0               2       0                               0D     52
     126      33                                                00010000D     53
     126       0               3       0                               0D     54
     126      36                                                00010000D     55
     126       0               3       0                               0D     56
     126      39                                                00010000D     57
     126       0               2       0                               0D     58
     126      41                                                00010000D     59
     126       0               5       0                               0D     60
     126      46                                                00010000D     61
     126       0               6       0                               0D     62
     126      52                                                00010000D     63
     126       0               3       0                               0D     64
     126      55                                                00010000D     65
     126       0               3       0                               0D     66
     126      58                                                00010000D     67
     126       0               4       0                               0D     68
     126      62                                                00010000D     69
     126       0               3       0                               0D     70
     126      65                                                00010000D     71
     126       0               4       0                               0D     72
     126      69                                                00010000D     73
     126       0               4       0                               0D     74
     126      73                                                00010000D     75
     126       0               2       0                               0D     76
     126      75                                                00010000D     77
     126       0               2       0                               0D     78
     126      77                                                00010000D     79
     126       0               2       0                               0D     80
     126      79                                                00010000D     81
     126       0               2       0                               0D     82
     126      81                                                00010000D     83
     126       0               2       0                               0D     84
     126      83                                                00010000D     85
     126       0               2       0                               0D     86
     126      85                                                00010000D     87
     126       0               2       0                               0D     88
     126      87                                                00010000D     89
     126       0               2       0                               0D     90
     126      89                                                00010000D     91
     126       0               2       0                               0D     92
     128      91                                                00010000D     93
     128       0    -119       4       0                               0D     94
     128      95                                                00010000D     95
     128       0    -119       5       0                               0D     96
     128     100                                                00010000D     97
     128       0    -119       8       0                               0D     98
     128     108                                                00010000D     99
     128       0    -119       6       0                               0D    100
     128     114                                                00010000D    101
     128       0    -119       8       0                               0D    102
     128     122                                                00010000D    103
     128       0    -119       5       0                               0D    104
     128     127                                                00010000D    105
     128       0    -119       5       0                               0D    106
     128     132                                                00010000D    107
     128       0    -119       4       0                               0D    108
     128     136                                                00010000D    109
     128       0    -119       7       0                               0D    110
     128     143                                                00010000D    111
     128       0    -119       7       0                               0D    112
     502     150                                                00010000D    113
     502                       7       1                               0D    114
     504     157                                                00010001D    115
     504                       7       1                               0D    116
     406     164                                                00000000D    117
     406                       1      15                               0D    118
     314     165                                                00000200D    119
     314                       1       0                               0D    120
186,3,1,0,0,1,117;                                                     1P      1
514,10,5,1,7,1,9,1,11,1,13,1,15,1,17,1,19,1,21,1,23,1;                 3P      2
510,93,1,1,25;                                                         5P      3
510,95,1,1,27;                                                         7P      4
510,97,1,1,29;                                                         9P      5
510,99,1,1,31;                                                        11P      6
510,101,1,1,33;                                                       13P      7
510,103,1,1,35;                                                       15P      8
510,105,1,1,37;                                                       17P      9
510,107,1,1,39;                                                       19P     10
510,109,1,1,41;                                                       21P     11
510,111,1,1,43;                                                       23P     12
508,4,0,115,1,0,0,0,115,2,1,0,0,115,3,0,0,0,115,4,0,0;                25P     13
508,4,0,115,5,0,0,0,115,4,1,0,0,115,6,0,0,0,115,7,0,0;                27P     14
508,4,0,115,8,0,0,0,115,7,1,0,0,115,9,0,0,0,115,10,0,0;               29P     15
508,4,0,115,11,0,0,0,115,10,1,0,0,115,12,0,0,0,115,13,0,0;            31P     16
508,4,0,115,14,0,0,0,115,13,1,0,0,115,15,0,0,0,115,16,0,0;            33P     17
508,4,0,115,17,0,0,0,115,16,1,0,0,115,18,0,0,0,115,19,0,0;            35P     18
508,4,0,115,20,0,0,0,115,19,1,0,0,115,21,0,0,0,115,22,0,0;            37P     19
508,4,0,115,23,0,0,0,115,22,1,0,0,115,24,0,0,0,115,2,0,0;             39P     20
508,8,0,115,23,1,0,0,115,1,1,0,0,115,5,1,0,0,115,8,1,0,0,115,11,      41P     21
1,0,0,115,14,1,0,0,115,17,1,0,0,115,20,1,0;                           41P     22
508,8,0,115,24,1,0,0,115,21,1,0,0,115,18,1,0,0,115,15,1,0,0,115,      43P     23
12,1,0,0,115,9,1,0,0,115,6,1,0,0,115,3,1,0;                           43P     24
126,1,1,0,0,1,0,0.,0.,10.5,10.5,1.,1.,-1780.,0.,0.,-1780.,0.,         45P     25
105.,0.,10.5,0.,0.,0.;                                                45P     26
126,1,1,0,0,1,0,0.,0.,1.2,1.2,1.,1.,-1780.,0.,0.,-1780.,-12.,0.,      47P     27
0.,1.2,0.,0.,0.;                                                      47P     28
126,1,1,0,0,1,0,-10.5,-10.5,0.,0.,1.,1.,-1780.,-12.,105.,-1780.,      49P     29
-12.,0.,-10.5,0.,0.,0.,0.;                                            49P     30
126,1,1,0,0,1,0,0.,0.,1.2,1.2,1.,1.,-1780.,0.,105.,-1780.,-12.,       51P     31
105.,0.,1.2,0.,0.,0.;                                                 51P     32
126,1,1,0,0,1,0,0.,0.,84.7713178492742,84.7713178492742,1.,1.,        53P     33
-1780.,0.,105.,-932.286821507258,0.,105.,0.,84.7713178492742,0.,      53P     34
0.,0.;                                                                53P     35
126,1,1,0,0,1,0,-84.7713178492742,-84.7713178492742,0.,0.,1.,1.,      55P     36
-932.286821507258,-12.,105.,-1780.,-12.,105.,-84.7713178492742,       55P     37
0.,0.,0.,0.;                                                          55P     38
126,1,1,0,0,1,0,0.,0.,1.2,1.2,1.,1.,-932.286821507258,0.,105.,        57P     39
-932.286821507258,-12.,105.,0.,1.2,0.,0.,0.;                          57P     40
126,2,2,0,0,0,0,2.23402144255274,2.23402144255274,                    59P     41
2.23402144255274,3.14159265358979,3.14159265358979,                   59P     42
3.14159265358979,1.,0.898794046299175,1.,-932.286821507258,0.,        59P     43
105.,-907.900192078965,0.,105.,-892.886283826922,0.,                  59P     44
124.216926233717,2.23402144255274,3.14159265358979,0.,0.,0.;          59P     45
126,2,2,0,0,0,0,-3.14159265358979,-3.14159265358979,                  61P     46
-3.14159265358979,-2.23402144255274,-2.23402144255274,                61P     47
-2.23402144255274,1.,0.898794046299175,1.,-892.886283826922,          61P     48
-12.,124.216926233717,-907.900192078965,-12.,105.,                    61P     49
-932.286821507258,-12.,105.,-3.14159265358979,-2.23402144255274,      61P     50
0.,0.,0.;                                                             61P     51
126,1,1,0,0,1,0,0.,0.,1.2,1.2,1.,1.,-892.886283826922,0.,             63P     52
124.216926233717,-892.886283826922,-12.,124.216926233717,0.,1.2,      63P     53
0.,0.,0.;                                                             63P     54
126,1,1,0,0,1,0,0.,0.,7.8128562650672,7.8128562650672,1.,1.,          65P     55
-892.886283826922,0.,124.216926233717,-844.785537680336,0.,           65P     56
185.783073766283,0.,7.8128562650672,0.,0.,0.;                         65P     57
126,1,1,0,0,1,0,-7.8128562650672,-7.8128562650672,                    67P     58
8.88178419700125D-16,8.88178419700125D-16,1.,1.,                      67P     59
-844.785537680336,-12.,185.783073766283,-892.886283826922,-12.,       67P     60
124.216926233717,-7.8128562650672,8.88178419700125D-16,0.,0.,0.;      67P     61
126,1,1,0,0,1,0,0.,0.,1.2,1.2,1.,1.,-844.785537680336,0.,             69P     62
185.783073766283,-844.785537680336,-12.,185.783073766283,0.,1.2,      69P     63
0.,0.,0.;                                                             69P     64
126,2,2,0,0,0,0,0.,0.,0.,0.907571211037051,0.907571211037051,         71P     65
0.907571211037051,1.,0.898794046299159,1.,-844.785537680336,0.,       71P     66
185.783073766283,-829.771629428293,0.,205.,-805.385,0.,205.,0.,       71P     67
0.907571211037051,0.,0.,0.;                                           71P     68
126,2,2,0,0,0,0,-0.907571211037051,-0.907571211037051,                73P     69
-0.907571211037051,0.,0.,0.,1.,0.898794046299159,1.,-805.385,         73P     70
-12.,205.,-829.771629428293,-12.,205.,-844.785537680336,-12.,         73P     71
185.783073766283,-0.907571211037051,0.,0.,0.,0.;                      73P     72
126,1,1,0,0,1,0,0.,0.,1.2,1.2,1.,1.,-805.385,0.,205.,-805.385,        75P     73
-12.,205.,0.,1.2,0.,0.,0.;                                            75P     74
126,1,1,0,0,1,0,0.,0.,80.5385,80.5385,1.,1.,-805.385,0.,205.,0.,      77P     75
0.,205.,0.,80.5385,0.,0.,0.;                                          77P     76
126,1,1,0,0,1,0,-80.5385,-80.5385,0.,0.,1.,1.,0.,-12.,205.,           79P     77
-805.385,-12.,205.,-80.5385,0.,0.,0.,0.;                              79P     78
126,1,1,0,0,1,0,0.,0.,1.2,1.2,1.,1.,6.27631484563018D-14,0.,          81P     79
205.,6.27631484563018D-14,-12.,205.,0.,1.2,0.,0.,0.;                  81P     80
126,1,1,0,0,1,0,0.,0.,20.5,20.5,1.,1.,6.27631484563018D-14,0.,        83P     81
205.,0.,0.,0.,0.,20.5,0.,0.,0.;                                       83P     82
126,1,1,0,0,1,0,-20.5,-20.5,0.,0.,1.,1.,0.,-12.,0.,                   85P     83
6.27631484563018D-14,-12.,205.,-20.5,0.,0.,0.,0.;                     85P     84
126,1,1,0,0,1,0,0.,0.,1.2,1.2,1.,1.,0.,0.,0.,0.,-12.,0.,0.,1.2,       87P     85
0.,0.,0.;                                                             87P     86
126,1,1,0,0,1,0,0.,0.,178.,178.,1.,1.,0.,0.,0.,-1780.,0.,0.,0.,       89P     87
178.,0.,0.,0.;                                                        89P     88
126,1,1,0,0,1,0,-178.,-178.,0.,0.,1.,1.,-1780.,-12.,0.,0.,-12.,       91P     89
0.,-178.,0.,0.,0.,0.;                                                 91P     90
128,1,1,1,1,0,0,1,0,0,-0.001,-0.001,10.501,10.501,-0.001,-0.001,      93P     91
1.201,1.201,1.,1.,1.,1.,-1780.,0.01,105.01,-1780.,0.01,               93P     92
-0.00999999999999446,-1780.,-12.01,105.01,-1780.,-12.01,              93P     93
-0.00999999999999446,-0.001,10.501,-0.001,1.201;                      93P     94
128,1,1,1,1,0,0,1,0,0,-0.001,-0.001,84.7723178492742,                 95P     95
84.7723178492742,-0.001,-0.001,1.201,1.201,1.,1.,1.,1.,               95P     96
-932.276821507258,0.01,105.,-1780.01,0.01,105.,                       95P     97
-932.276821507258,-12.01,105.,-1780.01,-12.01,105.,-0.001,            95P     98
84.7723178492742,-0.001,1.201;                                        95P     99
128,1,2,1,2,0,0,0,0,0,0.,0.,0.24,0.24,2.23402144255274,               97P    100
2.23402144255274,2.23402144255274,3.14159265358979,                   97P    101
3.14159265358979,3.14159265358979,1.,1.,0.898794046299167,            97P    102
0.898794046299167,1.,1.,-932.286821507258,0.,105.,                    97P    103
-932.286821507258,-12.,105.,-907.900192078965,0.,105.,                97P    104
-907.900192078965,-12.,105.,-892.886283826922,0.,                     97P    105
124.216926233717,-892.886283826922,-12.,124.216926233717,0.,          97P    106
0.24,2.23402144255274,3.14159265358979;                               97P    107
128,1,1,1,1,0,0,1,0,0,-0.0010000000000028,-0.0010000000000028,        99P    108
7.8138562650672,7.8138562650672,-0.001,-0.001,1.201,1.201,1.,1.,      99P    109
1.,1.,-844.779381065583,0.01,185.790953873819,-892.892440441675,      99P    110
0.01,124.209046126181,-844.779381065583,-12.01,185.790953873819,      99P    111
-892.892440441675,-12.01,124.209046126181,-0.0010000000000028,        99P    112
7.8138562650672,-0.001,1.201;                                         99P    113
128,1,2,1,2,0,0,0,0,0,0.,0.,0.240000000000001,0.240000000000001,     101P    114
-0.907571211037051,-0.907571211037051,-0.907571211037051,            101P    115
1.59872115546023D-15,1.59872115546023D-15,1.59872115546023D-15,      101P    116
1.,1.,0.898794046299167,0.898794046299167,1.,1.,-805.385,-12.,       101P    117
205.,-805.385,0.,205.,-829.771629428293,-12.,205.,                   101P    118
-829.771629428293,0.,205.,-844.785537680336,-12.,                    101P    119
185.783073766283,-844.785537680336,0.,185.783073766283,0.,           101P    120
0.240000000000001,-0.907571211037051,1.59872115546023D-15;           101P    121
128,1,1,1,1,0,0,1,0,0,-0.00100000000000628,-0.00100000000000628,     103P    122
80.5395,80.5395,-0.001,-0.001,1.201,1.201,1.,1.,1.,1.,               103P    123
0.0100000000000628,0.01,205.,-805.395,0.01,205.,                     103P    124
0.0100000000000628,-12.01,205.,-805.395,-12.01,205.,                 103P    125
-0.00100000000000628,80.5395,-0.001,1.201;                           103P    126
128,1,1,1,1,0,0,1,0,0,-0.001,-0.001,20.501,20.501,-0.001,-0.001,     105P    127
1.201,1.201,1.,1.,1.,1.,-3.06161699786838D-18,0.01,-0.01,            105P    128
6.27662100732997D-14,0.01,205.01,-3.06161699786838D-18,-12.01,       105P    129
-0.01,6.27662100732997D-14,-12.01,205.01,-0.001,20.501,-0.001,       105P    130
1.201;                                                               105P    131
128,1,1,1,1,0,0,1,0,0,-0.001,-0.001,178.001,178.001,-0.001,          107P    132
-0.001,1.201,1.201,1.,1.,1.,1.,-1780.01,0.01,0.,                     107P    133
0.0100000000000477,0.01,0.,-1780.01,-12.01,0.,                       107P    134
0.0100000000000477,-12.01,0.,-0.001,178.001,-0.001,1.201;            107P    135
128,1,1,1,1,0,0,1,0,0,-12.7026899237502,-12.7026899237502,           109P    136
7.79931007624982,7.79931007624982,-91.2998320984803,                 109P    137
-91.2998320984803,86.7021679015197,86.7021679015197,1.,1.,1.,1.,     109P    138
-1780.01,0.,-0.0100000000000033,-1780.01,0.,205.01,                  109P    139
0.0100000000000477,0.,-0.0100000000000122,0.0100000000000477,0.,     109P    140
205.01,-12.7026899237502,7.79931007624982,-91.2998320984803,         109P    141
86.7021679015197;                                                    109P    142
128,1,1,1,1,0,0,1,0,0,-12.7026899237502,-12.7026899237502,           111P    143
7.79931007624982,7.79931007624982,-91.2998320984803,                 111P    144
-91.2998320984803,86.7021679015197,86.7021679015197,1.,1.,1.,1.,     111P    145
-1780.01,-12.,205.01,-1780.01,-12.,-0.0100000000000033,              111P    146
0.0100000000000477,-12.,205.01,0.0100000000000477,-12.,              111P    147
-0.0100000000000122,-12.7026899237502,7.79931007624982,              111P    148
-91.2998320984803,86.7021679015197;                                  111P    149
502,16,-1780.,0.,0.,-1780.,0.,105.,-1780.,-12.,0.,-1780.,-12.,       113P    150
105.,-932.286821507258,0.,105.,-932.286821507258,-12.,105.,          113P    151
-892.886283826922,0.,124.216926233717,-892.886283826922,-12.,        113P    152
124.216926233717,-844.785537680336,0.,185.783073766283,              113P    153
-844.785537680336,-12.,185.783073766283,-805.385,0.,205.,            113P    154
-805.385,-12.,205.,6.27631484563018D-14,0.,205.,                     113P    155
6.27631484563018D-14,-12.,205.,0.,0.,0.,0.,-12.,0.;                  113P    156
504,24,45,113,1,113,2,47,113,1,113,3,49,113,4,113,3,51,113,2,        115P    157
113,4,53,113,2,113,5,55,113,6,113,4,57,113,5,113,6,59,113,5,113,     115P    158
7,61,113,8,113,6,63,113,7,113,8,65,113,7,113,9,67,113,10,113,8,      115P    159
69,113,9,113,10,71,113,9,113,11,73,113,12,113,10,75,113,11,113,      115P    160
12,77,113,11,113,13,79,113,14,113,12,81,113,13,113,14,83,113,13,     115P    161
113,15,85,113,16,113,14,87,113,15,113,16,89,113,15,113,1,91,113,     115P    162
3,113,16;                                                            115P    163
406,1,15HVolumenkörper1;                                            117P    164
314,100.,100.,100.,;                                                 119P    165
S      1G      3D    120P    165                                        T      1
