                                                                        S      1
,,,6H305005,22HAutodesk Inventor 2018,7Hunknown,32,38,7,99,15,,1.,2,2HMMG      1
,1,0.08,15H20190325.172949,0.01,10000.,6Hseihe2,,11,0,15H20190205.152425G      2
;                                                                       G      3
     186       1                                                00000000D      1
     186             -75       1       0                               0D      2
     514       2                                                00010000D      3
     514                       1       1                               0D      4
     510       3                                                00010000D      5
     510             -77       1       1                               0D      6
     510       4                                                00010000D      7
     510             -77       1       1                               0D      8
     510       5                                                00010000D      9
     510             -77       1       1                               0D     10
     510       6                                                00010000D     11
     510             -77       1       1                               0D     12
     510       7                                                00010000D     13
     510             -77       1       1                               0D     14
     510       8                                                00010000D     15
     510             -77       1       1                               0D     16
     508       9                                                00010000D     17
     508                       2       1                               0D     18
     508      11                                                00010000D     19
     508                       2       1                               0D     20
     508      13                                                00010000D     21
     508                       1       1                               0D     22
     508      14                                                00010000D     23
     508                       2       1                               0D     24
     508      16                                                00010000D     25
     508                       1       1                               0D     26
     508      17                                                00010000D     27
     508                       1       1                               0D     28
     508      18                                                00010000D     29
     508                       1       1                               0D     30
     126      19                                                00010000D     31
     126       0               7       0                               0D     32
     126      26                                                00010000D     33
     126       0               3       0                               0D     34
     126      29                                                00010000D     35
     126       0               7       0                               0D     36
     126      36                                                00010000D     37
     126       0               6       0                               0D     38
     126      42                                                00010000D     39
     126       0               6       0                               0D     40
     126      48                                                00010000D     41
     126       0               3       0                               0D     42
     126      51                                                00010000D     43
     126       0               7       0                               0D     44
     126      58                                                00010000D     45
     126       0               5       0                               0D     46
     126      63                                                00010000D     47
     126       0               5       0                               0D     48
     126      68                                                00010000D     49
     126       0               3       0                               0D     50
     126      71                                                00010000D     51
     126       0               5       0                               0D     52
     126      76                                                00010000D     53
     126       0               7       0                               0D     54
     126      83                                                00010000D     55
     126       0               8       0                               0D     56
     128      91                                                00010000D     57
     128       0     -77      17       0                               0D     58
     128     108                                                00010000D     59
     128       0     -77      13       0                               0D     60
     128     121                                                00010000D     61
     128       0     -77       3       0                               0D     62
     128     124                                                00010000D     63
     128       0     -77      13       0                               0D     64
     128     137                                                00010000D     65
     128       0     -77       5       0                               0D     66
     128     142                                                00010000D     67
     128       0     -77       3       0                               0D     68
     502     145                                                00010000D     69
     502                       3       1                               0D     70
     504     148                                                00010001D     71
     504                       3       1                               0D     72
     406     151                                                00000000D     73
     406                       1      15                               0D     74
     314     152                                                00000200D     75
     314                       1       0                               0D     76
     314     153                                                00000200D     77
     314                       1       0                               0D     78
186,3,1,0,0,1,73;                                                      1P      1
514,6,5,1,7,1,9,1,11,1,13,1,15,1;                                      3P      2
510,57,1,1,17;                                                         5P      3
510,59,1,1,19;                                                         7P      4
510,61,1,1,21;                                                         9P      5
510,63,1,1,23;                                                        11P      6
510,65,2,1,25,27;                                                     13P      7
510,67,1,1,29;                                                        15P      8
508,6,0,71,1,1,0,0,71,2,1,0,0,71,3,1,0,0,71,4,1,0,0,71,2,0,0,0,       17P      9
71,5,1,0;                                                             17P     10
508,6,0,71,4,0,0,0,71,3,0,0,0,71,6,1,0,0,71,7,1,0,0,71,8,1,0,0,       19P     11
71,6,0,0;                                                             19P     12
508,2,0,71,1,0,0,0,71,5,0,0;                                          21P     13
508,6,0,71,9,1,0,0,71,10,1,0,0,71,11,0,0,0,71,12,0,0,0,71,10,0,       23P     14
0,0,71,13,1,0;                                                        23P     15
508,2,0,71,8,0,0,0,71,7,0,0;                                          25P     16
508,2,0,71,11,1,0,0,71,12,1,0;                                        27P     17
508,2,0,71,9,0,0,0,71,13,0,0;                                         29P     18
126,4,2,0,0,0,0,-3.14159265358979,-3.14159265358979,                  31P     19
-3.14159265358979,-1.5707963267949,-1.5707963267949,                  31P     20
-1.22464679914735D-16,-1.22464679914735D-16,                          31P     21
-1.22464679914735D-16,1.,0.707106781186547,1.,0.707106781186548,      31P     22
1.,26.,-6.36816335556624D-15,30.,26.,-26.,30.,                        31P     23
-4.77612251667468D-15,-26.,30.,-26.,-26.,30.,-26.,0.,30.,             31P     24
-3.14159265358979,-1.22464679914735D-16,0.,0.,0.;                     31P     25
126,2,2,0,0,0,0,-1.5707963267949,-1.5707963267949,                    33P     26
-1.5707963267949,0.,0.,0.,1.,0.707106781186541,1.,-26.,0.,30.,        33P     27
-28.,0.,30.,-28.,0.,28.,-1.5707963267949,0.,0.,0.,0.;                 33P     28
126,4,2,0,0,0,0,1.22464679914735D-16,1.22464679914735D-16,            35P     29
1.22464679914735D-16,1.5707963267949,1.5707963267949,                 35P     30
3.14159265358979,3.14159265358979,3.14159265358979,1.,                35P     31
0.707106781186547,1.,0.707106781186548,1.,-28.,0.,28.,-28.,-28.,      35P     32
28.,-5.14351655641888D-15,-28.,28.,28.,-28.,28.,28.,                  35P     33
-6.85802207522518D-15,28.,1.22464679914735D-16,3.14159265358979,      35P     34
0.,0.,0.;                                                             35P     35
126,4,2,0,0,0,0,-3.14159265358979,-3.14159265358979,                  37P     36
-3.14159265358979,-1.5707963267949,-1.5707963267949,                  37P     37
1.22464679914735D-16,1.22464679914735D-16,1.22464679914735D-16,       37P     38
1.,0.707106781186547,1.,0.707106781186548,1.,28.,0.,28.,28.,28.,      37P     39
28.,1.71450551880629D-15,28.,28.,-28.,28.,28.,-28.,0.,28.,            37P     40
-3.14159265358979,1.22464679914735D-16,0.,0.,0.;                      37P     41
126,4,2,0,0,0,0,-1.22464679914735D-16,-1.22464679914735D-16,          39P     42
-1.22464679914735D-16,1.5707963267949,1.5707963267949,                39P     43
3.14159265358979,3.14159265358979,3.14159265358979,1.,                39P     44
0.707106781186548,1.,0.707106781186547,1.,-26.,0.,30.,-26.,26.,       39P     45
30.,1.59204083889156D-15,26.,30.,26.,26.,30.,26.,0.,30.,              39P     46
-1.22464679914735D-16,3.14159265358979,0.,0.,0.;                      39P     47
126,1,1,0,0,1,0,-0.464285714285715,-0.464285714285715,                41P     48
0.535714285714286,0.535714285714286,1.,1.,-28.,0.,28.,-28.,0.,        41P     49
0.,-0.464285714285715,0.535714285714286,0.,0.,0.;                     41P     50
126,4,2,0,0,0,0,3.14159265358979,3.14159265358979,                    43P     51
3.14159265358979,4.71238898038469,4.71238898038469,                   43P     52
6.28318530717959,6.28318530717959,6.28318530717959,1.,                43P     53
0.707106781186548,1.,0.707106781186547,1.,-28.,                       43P     54
3.42901103761259D-15,0.,-28.,-28.,0.,-5.14351655641888D-15,-28.,      43P     55
0.,28.,-28.,0.,28.,-6.85802207522518D-15,0.,3.14159265358979,         43P     56
6.28318530717959,0.,0.,0.;                                            43P     57
126,4,2,0,0,0,0,0.,0.,0.,1.5707963267949,1.5707963267949,             45P     58
3.14159265358979,3.14159265358979,3.14159265358979,1.,                45P     59
0.707106781186548,1.,0.707106781186548,1.,28.,0.,0.,28.,28.,0.,       45P     60
1.71450551880629D-15,28.,0.,-28.,28.,0.,-28.,                         45P     61
3.42901103761259D-15,0.,0.,3.14159265358979,0.,0.,0.;                 45P     62
126,4,2,0,0,0,0,0.,0.,0.,1.5707963267949,1.5707963267949,             47P     63
3.14159265358979,3.14159265358979,3.14159265358979,1.,                47P     64
0.707106781186548,1.,0.707106781186548,1.,24.8,0.,26.8,24.8,          47P     65
24.8,26.8,1.51856203094272D-15,24.8,26.8,-24.8,24.8,26.8,-24.8,       47P     66
3.03712406188544D-15,26.8,0.,3.14159265358979,0.,0.,0.;               47P     67
126,1,1,0,0,1,0,-0.540322580645161,-0.540322580645161,                49P     68
0.540322580645161,0.540322580645161,1.,1.,-24.8,0.,26.8,-24.8,        49P     69
0.,0.,-0.540322580645161,0.540322580645161,0.,0.,0.;                  49P     70
126,4,2,0,0,0,0,0.,0.,0.,1.5707963267949,1.5707963267949,             51P     71
3.14159265358979,3.14159265358979,3.14159265358979,1.,                51P     72
0.707106781186548,1.,0.707106781186548,1.,24.8,0.,0.,24.8,24.8,       51P     73
0.,1.51856203094272D-15,24.8,0.,-24.8,24.8,0.,-24.8,                  51P     74
3.03712406188544D-15,0.,0.,3.14159265358979,0.,0.,0.;                 51P     75
126,4,2,0,0,0,0,3.14159265358979,3.14159265358979,                    53P     76
3.14159265358979,4.71238898038469,4.71238898038469,                   53P     77
6.28318530717959,6.28318530717959,6.28318530717959,1.,                53P     78
0.707106781186548,1.,0.707106781186547,1.,-24.8,                      53P     79
3.03712406188544D-15,0.,-24.8,-24.8,0.,-4.55568609282816D-15,         53P     80
-24.8,0.,24.8,-24.8,0.,24.8,-6.07424812377087D-15,0.,                 53P     81
3.14159265358979,6.28318530717959,0.,0.,0.;                           53P     82
126,4,2,0,0,0,0,3.14159265358979,3.14159265358979,                    55P     83
3.14159265358979,4.71238898038469,4.71238898038469,                   55P     84
6.28318530717959,6.28318530717959,6.28318530717959,1.,                55P     85
0.707106781186548,1.,0.707106781186547,1.,-24.8,                      55P     86
3.03712406188544D-15,26.8,-24.8,-24.8,26.8,                           55P     87
-4.55568609282816D-15,-24.8,26.8,24.8,-24.8,26.8,24.8,                55P     88
-6.07424812377088D-15,26.8,3.14159265358979,6.28318530717959,0.,      55P     89
0.,0.;                                                                55P     90
128,2,8,2,2,0,1,0,0,1,0.,0.,0.,1.5707963267949,1.5707963267949,       57P     91
1.5707963267949,-3.14159265358979,-3.14159265358979,                  57P     92
-3.14159265358979,-1.5707963267949,-1.5707963267949,0.,0.,            57P     93
1.5707963267949,1.5707963267949,3.14159265358979,                     57P     94
3.14159265358979,3.14159265358979,1.,0.707106781186541,1.,            57P     95
0.707106781186548,0.499999999999996,0.707106781186548,1.,             57P     96
0.707106781186541,1.,0.707106781186548,0.499999999999996,             57P     97
0.707106781186548,1.,0.707106781186541,1.,0.707106781186548,          57P     98
0.499999999999996,0.707106781186548,1.,0.707106781186541,1.,          57P     99
0.707106781186548,0.499999999999996,0.707106781186548,1.,             57P    100
0.707106781186541,1.,-26.,0.,30.,-28.,0.,30.,-28.,0.,28.,-26.,        57P    101
-26.,30.,-28.,-28.,30.,-28.,-28.,28.,0.,-26.,30.,0.,-28.,30.,0.,      57P    102
-28.,28.,26.,-26.,30.,28.,-28.,30.,28.,-28.,28.,26.,0.,30.,28.,       57P    103
0.,30.,28.,0.,28.,26.,26.,30.,28.,28.,30.,28.,28.,28.,0.,26.,         57P    104
30.,0.,28.,30.,0.,28.,28.,-26.,26.,30.,-28.,28.,30.,-28.,28.,         57P    105
28.,-26.,0.,30.,-28.,0.,30.,-28.,0.,28.,0.,1.5707963267949,           57P    106
-3.14159265358979,3.14159265358979;                                   57P    107
128,1,8,1,2,0,1,0,0,1,-0.535714285714286,-0.535714285714286,          59P    108
0.464285714285715,0.464285714285715,-3.14159265358979,                59P    109
-3.14159265358979,-3.14159265358979,-1.5707963267949,                 59P    110
-1.5707963267949,0.,0.,1.5707963267949,1.5707963267949,               59P    111
3.14159265358979,3.14159265358979,3.14159265358979,1.,1.,             59P    112
0.707106781186548,0.707106781186548,1.,1.,0.707106781186548,          59P    113
0.707106781186548,1.,1.,0.707106781186548,0.707106781186548,1.,       59P    114
1.,0.707106781186548,0.707106781186548,1.,1.,-28.,0.,28.,-28.,        59P    115
0.,0.,-28.,-28.,28.,-28.,-28.,0.,0.,-28.,28.,0.,-28.,0.,28.,          59P    116
-28.,28.,28.,-28.,0.,28.,0.,28.,28.,0.,0.,28.,28.,28.,28.,28.,        59P    117
0.,0.,28.,28.,0.,28.,0.,-28.,28.,28.,-28.,28.,0.,-28.,0.,28.,         59P    118
-28.,0.,0.,-0.535714285714286,0.464285714285715,                      59P    119
-3.14159265358979,3.14159265358979;                                   59P    120
128,1,1,1,1,0,0,1,0,0,-2.601,-2.601,2.601,2.601,-2.601,-2.601,        61P    121
2.601,2.601,1.,1.,1.,1.,-26.01,-26.01,30.,26.01,-26.01,30.,           61P    122
-26.01,26.01,30.,26.01,26.01,30.,-2.601,2.601,-2.601,2.601;           61P    123
128,1,8,1,2,0,1,0,0,1,-0.540322580645161,-0.540322580645161,          63P    124
0.540322580645161,0.540322580645161,-3.14159265358979,                63P    125
-3.14159265358979,-3.14159265358979,-1.5707963267949,                 63P    126
-1.5707963267949,0.,0.,1.5707963267949,1.5707963267949,               63P    127
3.14159265358979,3.14159265358979,3.14159265358979,1.,1.,             63P    128
0.707106781186548,0.707106781186548,1.,1.,0.707106781186548,          63P    129
0.707106781186548,1.,1.,0.707106781186548,0.707106781186548,1.,       63P    130
1.,0.707106781186548,0.707106781186548,1.,1.,-24.8,0.,0.,-24.8,       63P    131
0.,26.8,-24.8,-24.8,0.,-24.8,-24.8,26.8,0.,-24.8,0.,0.,-24.8,         63P    132
26.8,24.8,-24.8,0.,24.8,-24.8,26.8,24.8,0.,0.,24.8,0.,26.8,24.8,      63P    133
24.8,0.,24.8,24.8,26.8,0.,24.8,0.,0.,24.8,26.8,-24.8,24.8,0.,         63P    134
-24.8,24.8,26.8,-24.8,0.,0.,-24.8,0.,26.8,-0.540322580645161,         63P    135
0.540322580645161,-3.14159265358979,3.14159265358979;                 63P    136
128,1,1,1,1,0,0,1,0,0,-0.001,-0.001,5.601,5.601,-2.801,-2.801,        65P    137
2.801,2.801,1.,1.,1.,1.,28.01,-28.01,-2.51997742100093D-16,           65P    138
-28.01,-28.01,-2.51997742100093D-16,28.01,28.01,                      65P    139
-2.51997742100093D-16,-28.01,28.01,-2.51997742100093D-16,-0.001,      65P    140
5.601,-2.801,2.801;                                                   65P    141
128,1,1,1,1,0,0,1,0,0,-0.001,-0.001,4.961,4.961,-2.481,-2.481,        67P    142
2.481,2.481,1.,1.,1.,1.,24.81,-24.81,26.8,-24.81,-24.81,26.8,         67P    143
24.81,24.81,26.8,-24.81,24.81,26.8,-0.001,4.961,-2.481,2.481;         67P    144
502,10,26.,-6.36816335556624D-15,30.,-26.,0.,30.,-28.,0.,28.,         69P    145
28.,0.,28.,-28.,0.,0.,28.,0.,-2.51997742100093D-16,24.8,0.,26.8,      69P    146
-24.8,0.,26.8,-24.8,0.,0.,24.8,0.,0.;                                 69P    147
504,13,31,69,1,69,2,33,69,2,69,3,35,69,3,69,4,37,69,4,69,3,39,        71P    148
69,2,69,1,41,69,3,69,5,43,69,5,69,6,45,69,6,69,5,47,69,7,69,8,        71P    149
49,69,8,69,9,51,69,10,69,9,53,69,9,69,10,55,69,8,69,7;                71P    150
406,1,15HVolumenkörper1;                                             73P    151
314,100.,98.4313725490196,94.1176470588235,;                          75P    152
314,25.0980392156863,25.0980392156863,25.0980392156863,;              77P    153
S      1G      3D     78P    153                                        T      1
