                                                                        S      1
,,5H22053,27HNo Iges File Name specified,22HAutodesk Inventor 2011,37HAuG      1
toDesk Inventor Iges Exporter R2011,32,38,6,99,15,5H22053,1.0D0,2,2HMM, G      2
1,.08D0,15H20110606.142317,.01D0,10000.0D0,4Hbruh,,11,0,,;              G      3
     406       1       0       0       1       0       0       000000000D      1
     406       0       0       1       3                               0D      2
     116       2       0       0       0       0       0       000010000D      3
     116       0       0       1       0                               0D      4
     123       3       0       0       0       0       0       000010200D      5
     123       0       0       1       0                               0D      6
     192       4       0       0       0       0       0       000010000D      7
     192       0       0       1       1                               0D      8
     123       5       0       0       0       0       0       000010200D      9
     123       0       0       1       0                               0D     10
     504       6       0       0       0       0       0       000010001D     11
     504       0       0       3       1                               0D     12
     502       9       0       0       0       0       0       000010000D     13
     502       0       0       4       1                               0D     14
     110      13       0       0       0       0       0       000010000D     15
     110       0       0       1       0                               0D     16
     100      14       0       0       0       0      19       000010000D     17
     100       0       0       1       0                               0D     18
     124      15       0       0       0       0       0       000000000D     19
     124       0       0       2       0                               0D     20
     110      17       0       0       0       0       0       000010000D     21
     110       0       0       2       0                               0D     22
     100      19       0       0       0       0      25       000010000D     23
     100       0       0       2       0                               0D     24
     124      21       0       0       0       0       0       000000000D     25
     124       0       0       2       0                               0D     26
     508      23       0       0       0       0       0       000010000D     27
     508       0       0       1       1                               0D     28
     510      24       0       0       0       0       0       000010000D     29
     510       0    -111       1       1                               0D     30
     120      25       0       0       0       0       0       000010000D     31
     120       0       0       1       0                               0D     32
     110      26       0       0       0       0       0       000010000D     33
     110       0       0       1       0                               0D     34
     110      27       0       0       0       0       0       001010000D     35
     110       0       0       1       0                               0D     36
     110      28       0       0       0       0       0       000010000D     37
     110       0       0       1       0                               0D     38
     100      29       0       0       0       0      25       000010000D     39
     100       0       0       2       0                               0D     40
     110      31       0       0       0       0       0       000010000D     41
     110       0       0       2       0                               0D     42
     100      33       0       0       0       0      19       000010000D     43
     100       0       0       1       0                               0D     44
     508      34       0       0       0       0       0       000010000D     45
     508       0       0       1       1                               0D     46
     510      35       0       0       0       0       0       000010000D     47
     510       0    -111       1       1                               0D     48
     120      36       0       0       0       0       0       000010000D     49
     120       0       0       1       0                               0D     50
     110      37       0       0       0       0       0       000010000D     51
     110       0       0       1       0                               0D     52
     110      38       0       0       0       0       0       001010000D     53
     110       0       0       1       0                               0D     54
     100      39       0       0       0       0      19       000010000D     55
     100       0       0       2       0                               0D     56
     100      41       0       0       0       0      25       000010000D     57
     100       0       0       1       0                               0D     58
     508      42       0       0       0       0       0       000010000D     59
     508       0       0       1       1                               0D     60
     510      43       0       0       0       0       0       000010000D     61
     510       0    -111       1       1                               0D     62
     116      44       0       0       0       0       0       000010000D     63
     116       0       0       1       0                               0D     64
     123      45       0       0       0       0       0       000010200D     65
     123       0       0       1       0                               0D     66
     190      46       0       0       0       0       0       000010000D     67
     190       0       0       1       1                               0D     68
     123      47       0       0       0       0       0       000010200D     69
     123       0       0       1       0                               0D     70
     100      48       0       0       0       0      25       000010000D     71
     100       0       0       1       0                               0D     72
     508      49       0       0       0       0       0       000010000D     73
     508       0       0       1       1                               0D     74
     508      50       0       0       0       0       0       000010000D     75
     508       0       0       1       1                               0D     76
     510      51       0       0       0       0       0       000010000D     77
     510       0    -111       1       1                               0D     78
     116      52       0       0       0       0       0       000010000D     79
     116       0       0       1       0                               0D     80
     123      53       0       0       0       0       0       000010200D     81
     123       0       0       1       0                               0D     82
     192      54       0       0       0       0       0       000010000D     83
     192       0       0       1       1                               0D     84
     123      55       0       0       0       0       0       000010200D     85
     123       0       0       1       0                               0D     86
     100      56       0       0       0       0      19       000010000D     87
     100       0       0       2       0                               0D     88
     508      58       0       0       0       0       0       000010000D     89
     508       0       0       1       1                               0D     90
     510      59       0       0       0       0       0       000010000D     91
     510       0    -111       1       1                               0D     92
     116      60       0       0       0       0       0       000010000D     93
     116       0       0       1       0                               0D     94
     123      61       0       0       0       0       0       000010200D     95
     123       0       0       1       0                               0D     96
     190      62       0       0       0       0       0       000010000D     97
     190       0       0       1       1                               0D     98
     123      63       0       0       0       0       0       000010200D     99
     123       0       0       1       0                               0D    100
     508      64       0       0       0       0       0       000010000D    101
     508       0       0       1       1                               0D    102
     508      65       0       0       0       0       0       000010000D    103
     508       0       0       1       1                               0D    104
     510      66       0       0       0       0       0       000010000D    105
     510       0    -111       1       1                               0D    106
     514      67       0       0       0       0       0       000010000D    107
     514       0       0       1       1                               0D    108
     186      68       0       0       1       0       0       000000000D    109
     186       0       0       1       0                Volumenk       0D    110
     314      69       0       0       0       0       0       000000000D    111
     314       0       8       1       0                               0D    112
406,2,0,;                                                              1P      1
116,0.0D0,0.0D0,0.0D0,0;                                               3P      2
123,0.0D0,0.0D0,1.0D0;                                                 5P      3
192,3,5,14.0D0,9;                                                      7P      4
123,-1.0D0,0.0D0,0.0D0;                                                9P      5
504,12,15,13,1,13,2,17,13,1,13,3,21,13,3,13,4,23,13,4,13,2,37,        11P      6
13,5,13,6,39,13,7,13,5,41,13,7,13,8,43,13,6,13,8,55,13,8,13,6,        11P      7
57,13,5,13,7,71,13,2,13,4,87,13,3,13,1;                               11P      8
502,8,-14.0D0,0.0D0,28.0D0,-14.0D0,0.0D0,-28.0D0,14.0D0,              13P      9
1.7145055188063D-15,28.0D0,14.0D0,1.7145055188063D-15,-28.0D0,        13P     10
-12.5D0,0.0D0,-28.0D0,-12.5D0,0.0D0,28.0D0,12.5D0,                    13P     11
1.53080849893419D-15,-28.0D0,12.5D0,1.53080849893419D-15,28.0D0;      13P     12
110,-14.0D0,0.0D0,28.0D0,-14.0D0,0.0D0,-28.0D0;                       15P     13
100,0.0D0,0.0D0,0.0D0,14.0D0,0.0D0,-14.0D0,1.7145055188063D-15;       17P     14
124,-1.0D0,0.0D0,0.0D0,0.0D0,0.0D0,1.0D0,0.0D0,0.0D0,0.0D0,           19P     15
0.0D0,-1.0D0,28.0D0;                                                  19P     16
110,14.0D0,1.7145055188063D-15,28.0D0,14.0D0,                         21P     17
1.7145055188063D-15,-28.0D0;                                          21P     18
100,0.0D0,0.0D0,0.0D0,-14.0D0,1.7145055188063D-15,14.0D0,             23P     19
-3.42901103761259D-15;                                                23P     20
124,-1.0D0,0.0D0,0.0D0,0.0D0,0.0D0,-1.0D0,0.0D0,0.0D0,0.0D0,          25P     21
0.0D0,1.0D0,-28.0D0;                                                  25P     22
508,4,0,11,1,0,0,0,11,2,1,0,0,11,3,1,0,0,11,4,1,0;                    27P     23
510,7,1,1,27;                                                         29P     24
120,35,33,0.0D0,6.28318530717959D0;                                   31P     25
110,-12.5D0,0.0D0,-30.8D0,-12.5D0,0.0D0,30.8D0;                       33P     26
110,0.0D0,0.0D0,-30.8D0,0.0D0,0.0D0,-29.8D0;                          35P     27
110,-12.5D0,0.0D0,-28.0D0,-12.5D0,0.0D0,28.0D0;                       37P     28
100,0.0D0,0.0D0,0.0D0,-12.5D0,1.53080849893419D-15,12.5D0,            39P     29
-3.06161699786838D-15;                                                39P     30
110,12.5D0,1.53080849893419D-15,-28.0D0,12.5D0,                       41P     31
1.53080849893419D-15,28.0D0;                                          41P     32
100,0.0D0,0.0D0,0.0D0,12.5D0,0.0D0,-12.5D0,1.53080849893419D-15;      43P     33
508,4,0,11,5,0,0,0,11,6,0,0,0,11,7,1,0,0,11,8,0,0;                    45P     34
510,31,1,1,45;                                                        47P     35
120,53,51,0.0D0,6.28318530717959D0;                                   49P     36
110,-12.5D0,0.0D0,-30.8D0,-12.5D0,0.0D0,30.8D0;                       51P     37
110,0.0D0,0.0D0,-30.8D0,0.0D0,0.0D0,-29.8D0;                          53P     38
100,0.0D0,0.0D0,0.0D0,-12.5D0,1.53080849893419D-15,12.5D0,            55P     39
-3.06161699786838D-15;                                                55P     40
100,0.0D0,0.0D0,0.0D0,12.5D0,0.0D0,-12.5D0,1.53080849893419D-15;      57P     41
508,4,0,11,5,1,0,0,11,9,0,0,0,11,7,0,0,0,11,10,0,0;                   59P     42
510,49,1,1,59;                                                        61P     43
116,0.0D0,0.0D0,-28.0D0,0;                                            63P     44
123,0.0D0,0.0D0,-1.0D0;                                               65P     45
190,63,65,69;                                                         67P     46
123,-1.0D0,0.0D0,0.0D0;                                               69P     47
100,0.0D0,0.0D0,0.0D0,14.0D0,0.0D0,-14.0D0,1.7145055188063D-15;       71P     48
508,2,0,11,4,0,0,0,11,11,0,0;                                         73P     49
508,2,0,11,6,1,0,0,11,10,1,0;                                         75P     50
510,67,2,1,73,75;                                                     77P     51
116,0.0D0,0.0D0,0.0D0,0;                                              79P     52
123,0.0D0,0.0D0,1.0D0;                                                81P     53
192,79,81,14.0D0,85;                                                  83P     54
123,-1.0D0,0.0D0,0.0D0;                                               85P     55
100,0.0D0,0.0D0,0.0D0,-14.0D0,1.7145055188063D-15,14.0D0,             87P     56
-3.42901103761259D-15;                                                87P     57
508,4,0,11,1,1,0,0,11,11,1,0,0,11,3,0,0,0,11,12,1,0;                  89P     58
510,83,1,1,89;                                                        91P     59
116,0.0D0,0.0D0,28.0D0,0;                                             93P     60
123,0.0D0,0.0D0,1.0D0;                                                95P     61
190,93,95,99;                                                         97P     62
123,1.0D0,0.0D0,0.0D0;                                                99P     63
508,2,0,11,12,0,0,0,11,2,0,0;                                        101P     64
508,2,0,11,9,1,0,0,11,8,1,0;                                         103P     65
510,97,2,1,101,103;                                                  105P     66
514,6,29,1,47,1,61,1,77,1,91,1,105,1;                                107P     67
186,107,1,0;                                                         109P     68
314,94.9020028114319D0,92.1568989753723D0,92.9412007331848D0,;       111P     69
S      1G      3D    112P     69                                        T      1
