                                                                        S      1
,,6H116090,27HNo Iges File Name specified,22HAutodesk Inventor 2011,37HAG      1
utoDesk Inventor Iges Exporter R2011,32,38,6,99,15,6H116090,1.0D0,2,2HMMG      2
,1,.08D0,15H20120511.115936,.01D0,10000.0D0,4Hbruh,,11,0,,;             G      3
     406       1       0       0       1       0       0       000000000D      1
     406       0       0       1       3                               0D      2
     116       2       0       0       0       0       0       000010000D      3
     116       0       0       1       0                               0D      4
     123       3       0       0       0       0       0       000010200D      5
     123       0       0       1       0                               0D      6
     190       4       0       0       0       0       0       000010000D      7
     190       0       0       1       1                               0D      8
     123       5       0       0       0       0       0       000010200D      9
     123       0       0       1       0                               0D     10
     504       6       0       0       0       0       0       000010001D     11
     504       0       0       3       1                               0D     12
     502       9       0       0       0       0       0       000010000D     13
     502       0       0       7       1                               0D     14
     110      16       0       0       0       0       0       000010000D     15
     110       0       0       2       0                               0D     16
     110      18       0       0       0       0       0       000010000D     17
     110       0       0       2       0                               0D     18
     110      20       0       0       0       0       0       000010000D     19
     110       0       0       2       0                               0D     20
     110      22       0       0       0       0       0       000010000D     21
     110       0       0       2       0                               0D     22
     508      24       0       0       0       0       0       000010000D     23
     508       0       0       1       1                               0D     24
     510      25       0       0       0       0       0       000010000D     25
     510       0    -211       1       1                               0D     26
     116      26       0       0       0       0       0       000010000D     27
     116       0       0       1       0                               0D     28
     123      27       0       0       0       0       0       000010200D     29
     123       0       0       1       0                               0D     30
     190      28       0       0       0       0       0       000010000D     31
     190       0       0       1       1                               0D     32
     123      29       0       0       0       0       0       000010200D     33
     123       0       0       1       0                               0D     34
     110      30       0       0       0       0       0       000010000D     35
     110       0       0       2       0                               0D     36
     110      32       0       0       0       0       0       000010000D     37
     110       0       0       2       0                               0D     38
     110      34       0       0       0       0       0       000010000D     39
     110       0       0       2       0                               0D     40
     508      36       0       0       0       0       0       000010000D     41
     508       0       0       1       1                               0D     42
     510      37       0       0       0       0       0       000010000D     43
     510       0    -211       1       1                               0D     44
     116      38       0       0       0       0       0       000010000D     45
     116       0       0       1       0                               0D     46
     123      39       0       0       0       0       0       000010200D     47
     123       0       0       1       0                               0D     48
     190      40       0       0       0       0       0       000010000D     49
     190       0       0       1       1                               0D     50
     123      41       0       0       0       0       0       000010200D     51
     123       0       0       1       0                               0D     52
     110      42       0       0       0       0       0       000010000D     53
     110       0       0       2       0                               0D     54
     110      44       0       0       0       0       0       000010000D     55
     110       0       0       2       0                               0D     56
     508      46       0       0       0       0       0       000010000D     57
     508       0       0       1       1                               0D     58
     510      47       0       0       0       0       0       000010000D     59
     510       0    -211       1       1                               0D     60
     116      48       0       0       0       0       0       000010000D     61
     116       0       0       1       0                               0D     62
     123      49       0       0       0       0       0       000010200D     63
     123       0       0       1       0                               0D     64
     190      50       0       0       0       0       0       000010000D     65
     190       0       0       1       1                               0D     66
     123      51       0       0       0       0       0       000010200D     67
     123       0       0       1       0                               0D     68
     110      52       0       0       0       0       0       000010000D     69
     110       0       0       2       0                               0D     70
     110      54       0       0       0       0       0       000010000D     71
     110       0       0       2       0                               0D     72
     508      56       0       0       0       0       0       000010000D     73
     508       0       0       1       1                               0D     74
     510      57       0       0       0       0       0       000010000D     75
     510       0    -211       1       1                               0D     76
     116      58       0       0       0       0       0       000010000D     77
     116       0       0       1       0                               0D     78
     123      59       0       0       0       0       0       000010200D     79
     123       0       0       1       0                               0D     80
     190      60       0       0       0       0       0       000010000D     81
     190       0       0       1       1                               0D     82
     123      61       0       0       0       0       0       000010200D     83
     123       0       0       1       0                               0D     84
     110      62       0       0       0       0       0       000010000D     85
     110       0       0       2       0                               0D     86
     508      64       0       0       0       0       0       000010000D     87
     508       0       0       1       1                               0D     88
     510      65       0       0       0       0       0       000010000D     89
     510       0    -211       1       1                               0D     90
     116      66       0       0       0       0       0       000010000D     91
     116       0       0       1       0                               0D     92
     123      67       0       0       0       0       0       000010200D     93
     123       0       0       1       0                               0D     94
     190      68       0       0       0       0       0       000010000D     95
     190       0       0       1       1                               0D     96
     123      69       0       0       0       0       0       000010200D     97
     123       0       0       1       0                               0D     98
     508      70       0       0       0       0       0       000010000D     99
     508       0       0       1       1                               0D    100
     510      71       0       0       0       0       0       000010000D    101
     510       0    -211       1       1                               0D    102
     514      72       0       0       0       0       0       000010000D    103
     514       0       0       1       1                               0D    104
     186      73       0       0       1       0       0       000000000D    105
     186       0       0       1       0                Volumenk       0D    106
     116      74       0       0       0       0       0       000010000D    107
     116       0       0       1       0                               0D    108
     123      75       0       0       0       0       0       000010200D    109
     123       0       0       1       0                               0D    110
     190      76       0       0       0       0       0       000010000D    111
     190       0       0       1       1                               0D    112
     123      77       0       0       0       0       0       000010200D    113
     123       0       0       1       0                               0D    114
     504      78       0       0       0       0       0       000010001D    115
     504       0       0       4       1                               0D    116
     502      82       0       0       0       0       0       000010000D    117
     502       0       0       8       1                               0D    118
     110      90       0       0       0       0       0       000010000D    119
     110       0       0       2       0                               0D    120
     110      92       0       0       0       0       0       000010000D    121
     110       0       0       2       0                               0D    122
     110      94       0       0       0       0       0       000010000D    123
     110       0       0       2       0                               0D    124
     110      96       0       0       0       0       0       000010000D    125
     110       0       0       2       0                               0D    126
     508      98       0       0       0       0       0       000010000D    127
     508       0       0       1       1                               0D    128
     510      99       0       0       0       0       0       000010000D    129
     510       0    -211       1       1                               0D    130
     116     100       0       0       0       0       0       000010000D    131
     116       0       0       1       0                               0D    132
     123     101       0       0       0       0       0       000010200D    133
     123       0       0       1       0                               0D    134
     190     102       0       0       0       0       0       000010000D    135
     190       0       0       1       1                               0D    136
     123     103       0       0       0       0       0       000010200D    137
     123       0       0       1       0                               0D    138
     110     104       0       0       0       0       0       000010000D    139
     110       0       0       2       0                               0D    140
     110     106       0       0       0       0       0       000010000D    141
     110       0       0       2       0                               0D    142
     110     108       0       0       0       0       0       000010000D    143
     110       0       0       2       0                               0D    144
     508     110       0       0       0       0       0       000010000D    145
     508       0       0       1       1                               0D    146
     510     111       0       0       0       0       0       000010000D    147
     510       0    -211       1       1                               0D    148
     116     112       0       0       0       0       0       000010000D    149
     116       0       0       1       0                               0D    150
     123     113       0       0       0       0       0       000010200D    151
     123       0       0       1       0                               0D    152
     190     114       0       0       0       0       0       000010000D    153
     190       0       0       1       1                               0D    154
     123     115       0       0       0       0       0       000010200D    155
     123       0       0       1       0                               0D    156
     110     116       0       0       0       0       0       000010000D    157
     110       0       0       2       0                               0D    158
     110     118       0       0       0       0       0       000010000D    159
     110       0       0       2       0                               0D    160
     508     120       0       0       0       0       0       000010000D    161
     508       0       0       1       1                               0D    162
     510     121       0       0       0       0       0       000010000D    163
     510       0    -211       1       1                               0D    164
     116     122       0       0       0       0       0       000010000D    165
     116       0       0       1       0                               0D    166
     123     123       0       0       0       0       0       000010200D    167
     123       0       0       1       0                               0D    168
     190     124       0       0       0       0       0       000010000D    169
     190       0       0       1       1                               0D    170
     123     125       0       0       0       0       0       000010200D    171
     123       0       0       1       0                               0D    172
     110     126       0       0       0       0       0       000010000D    173
     110       0       0       2       0                               0D    174
     110     128       0       0       0       0       0       000010000D    175
     110       0       0       2       0                               0D    176
     508     130       0       0       0       0       0       000010000D    177
     508       0       0       1       1                               0D    178
     510     131       0       0       0       0       0       000010000D    179
     510       0    -211       1       1                               0D    180
     116     132       0       0       0       0       0       000010000D    181
     116       0       0       1       0                               0D    182
     123     133       0       0       0       0       0       000010200D    183
     123       0       0       1       0                               0D    184
     190     134       0       0       0       0       0       000010000D    185
     190       0       0       1       1                               0D    186
     123     135       0       0       0       0       0       000010200D    187
     123       0       0       1       0                               0D    188
     110     136       0       0       0       0       0       000010000D    189
     110       0       0       2       0                               0D    190
     508     138       0       0       0       0       0       000010000D    191
     508       0       0       1       1                               0D    192
     510     139       0       0       0       0       0       000010000D    193
     510       0    -211       1       1                               0D    194
     116     140       0       0       0       0       0       000010000D    195
     116       0       0       1       0                               0D    196
     123     141       0       0       0       0       0       000010200D    197
     123       0       0       1       0                               0D    198
     190     142       0       0       0       0       0       000010000D    199
     190       0       0       1       1                               0D    200
     123     143       0       0       0       0       0       000010200D    201
     123       0       0       1       0                               0D    202
     508     144       0       0       0       0       0       000010000D    203
     508       0       0       1       1                               0D    204
     510     145       0       0       0       0       0       000010000D    205
     510       0    -211       1       1                               0D    206
     514     146       0       0       0       0       0       000010000D    207
     514       0       0       1       1                               0D    208
     186     147       0       0       1       0       0       000000000D    209
     186       0       0       1       0                Volumenk       0D    210
     314     148       0       0       0       0       0       000000000D    211
     314       0       8       1       0                               0D    212
406,2,0,;                                                              1P      1
116,0.0D0,122.2596982736D0,77.66333333333D0,0;                         3P      2
123,-1.0D0,0.0D0,0.0D0;                                                5P      3
190,3,5,9;                                                             7P      4
123,0.0D0,1.0D0,0.0D0;                                                 9P      5
504,12,15,13,1,13,2,17,13,3,13,1,19,13,4,13,3,21,13,2,13,4,35,        11P      6
13,5,13,6,37,13,1,13,6,39,13,2,13,5,53,13,3,13,7,55,13,7,13,6,        11P      7
69,13,7,13,8,71,13,4,13,8,85,13,8,13,5;                               11P      8
502,8,0.0D0,122.2596982736D0,77.66333333333D0,0.0D0,                  13P      9
-122.4323017264D0,77.66333333333D0,0.0D0,122.2596982736D0,            13P     10
-84.79666666667D0,0.0D0,-122.4323017264D0,-84.79666666667D0,          13P     11
6.999999999999D0,-122.4323017264D0,77.66333333333D0,                  13P     12
6.999999999999D0,122.2596982736D0,77.66333333333D0,                   13P     13
6.999999999999D0,122.2596982736D0,-84.79666666667D0,                  13P     14
6.999999999999D0,-122.4323017264D0,-84.79666666667D0;                 13P     15
110,0.0D0,122.2596982736D0,77.66333333333D0,0.0D0,                    15P     16
-122.4323017264D0,77.66333333333D0;                                   15P     17
110,0.0D0,122.2596982736D0,-84.79666666667D0,0.0D0,                   17P     18
122.2596982736D0,77.66333333333D0;                                    17P     19
110,0.0D0,-122.4323017264D0,-84.79666666667D0,0.0D0,                  19P     20
122.2596982736D0,-84.79666666667D0;                                   19P     21
110,0.0D0,-122.4323017264D0,77.66333333333D0,0.0D0,                   21P     22
-122.4323017264D0,-84.79666666667D0;                                  21P     23
508,4,0,11,1,0,0,0,11,2,0,0,0,11,3,0,0,0,11,4,0,0;                    23P     24
510,7,1,1,23;                                                         25P     25
116,0.0D0,-122.4323017264D0,77.66333333333D0,0;                       27P     26
123,0.0D0,0.0D0,1.0D0;                                                29P     27
190,27,29,33;                                                         31P     28
123,-1.0D0,0.0D0,0.0D0;                                               33P     29
110,6.999999999999D0,-122.4323017264D0,77.66333333333D0,              35P     30
6.999999999999D0,122.2596982736D0,77.66333333333D0;                   35P     31
110,0.0D0,122.2596982736D0,77.66333333333D0,6.999999999999D0,         37P     32
122.2596982736D0,77.66333333333D0;                                    37P     33
110,0.0D0,-122.4323017264D0,77.66333333333D0,6.999999999999D0,        39P     34
-122.4323017264D0,77.66333333333D0;                                   39P     35
508,4,0,11,5,1,0,0,11,6,0,0,0,11,1,1,0,0,11,7,1,0;                    41P     36
510,31,1,1,41;                                                        43P     37
116,0.0D0,122.2596982736D0,-84.79666666667D0,0;                       45P     38
123,0.0D0,1.0D0,0.0D0;                                                47P     39
190,45,47,51;                                                         49P     40
123,1.0D0,0.0D0,0.0D0;                                                51P     41
110,0.0D0,122.2596982736D0,-84.79666666667D0,6.999999999999D0,        53P     42
122.2596982736D0,-84.79666666667D0;                                   53P     43
110,6.999999999999D0,122.2596982736D0,-84.79666666667D0,              55P     44
6.999999999999D0,122.2596982736D0,77.66333333333D0;                   55P     45
508,4,0,11,8,0,0,0,11,2,1,0,0,11,6,1,0,0,11,9,0,0;                    57P     46
510,49,1,1,57;                                                        59P     47
116,0.0D0,122.2596982736D0,-84.79666666667D0,0;                       61P     48
123,0.0D0,0.0D0,-1.0D0;                                               63P     49
190,61,63,67;                                                         65P     50
123,1.0D0,0.0D0,0.0D0;                                                67P     51
110,6.999999999999D0,122.2596982736D0,-84.79666666667D0,              69P     52
6.999999999999D0,-122.4323017264D0,-84.79666666667D0;                 69P     53
110,0.0D0,-122.4323017264D0,-84.79666666667D0,6.999999999999D0,       71P     54
-122.4323017264D0,-84.79666666667D0;                                  71P     55
508,4,0,11,10,1,0,0,11,11,0,0,0,11,3,1,0,0,11,8,1,0;                  73P     56
510,65,1,1,73;                                                        75P     57
116,0.0D0,-122.4323017264D0,-84.79666666667D0,0;                      77P     58
123,0.0D0,-1.0D0,0.0D0;                                               79P     59
190,77,79,83;                                                         81P     60
123,-1.0D0,0.0D0,0.0D0;                                               83P     61
110,6.999999999999D0,-122.4323017264D0,-84.79666666667D0,             85P     62
6.999999999999D0,-122.4323017264D0,77.66333333333D0;                  85P     63
508,4,0,11,12,1,0,0,11,7,0,0,0,11,4,1,0,0,11,11,1,0;                  87P     64
510,81,1,1,87;                                                        89P     65
116,6.999999999999D0,122.2596982736D0,77.66333333333D0,0;             91P     66
123,1.0D0,0.0D0,0.0D0;                                                93P     67
190,91,93,97;                                                         95P     68
123,0.0D0,-1.0D0,0.0D0;                                               97P     69
508,4,0,11,5,0,0,0,11,12,0,0,0,11,10,0,0,0,11,9,1,0;                  99P     70
510,95,1,1,99;                                                       101P     71
514,6,25,1,43,1,59,1,75,1,89,1,101,1;                                103P     72
186,103,1,0;                                                         105P     73
116,11.199999999999D0,123.3366982736D0,78.64333333333D0,0;           107P     74
123,0.0D0,1.0D0,0.0D0;                                               109P     75
190,107,109,113;                                                     111P     76
123,1.0D0,0.0D0,0.0D0;                                               113P     77
504,12,119,117,1,117,2,121,117,3,117,2,123,117,4,117,3,125,117,      115P     78
4,117,1,139,117,5,117,1,141,117,5,117,6,143,117,6,117,2,157,117,     115P     79
3,117,7,159,117,6,117,7,173,117,4,117,8,175,117,8,117,7,189,117,     115P     80
5,117,8;                                                             115P     81
502,8,11.199999999999D0,123.3366982736D0,-85.77666666667D0,          117P     82
7.199999999999D0,123.3366982736D0,-85.77666666667D0,                 117P     83
7.199999999999D0,123.3366982736D0,78.64333333333D0,                  117P     84
11.199999999999D0,123.3366982736D0,78.64333333333D0,                 117P     85
11.199999999999D0,-123.5093017264D0,-85.77666666667D0,               117P     86
7.199999999999D0,-123.5093017264D0,-85.77666666667D0,                117P     87
7.199999999999D0,-123.5093017264D0,78.64333333333D0,                 117P     88
11.199999999999D0,-123.5093017264D0,78.64333333333D0;                117P     89
110,11.199999999999D0,123.3366982736D0,-85.77666666667D0,            119P     90
7.199999999999D0,123.3366982736D0,-85.7766666666719D0;               119P     91
110,7.199999999999D0,123.3366982736D0,78.64333333333D0,              121P     92
7.199999999999D0,123.3366982736D0,-85.77666666667D0;                 121P     93
110,11.199999999999D0,123.3366982736D0,78.64333333333D0,             123P     94
7.199999999999D0,123.3366982736D0,78.64333333333D0;                  123P     95
110,11.199999999999D0,123.3366982736D0,78.64333333333D0,             125P     96
11.199999999999D0,123.3366982736D0,-85.77666666667D0;                125P     97
508,4,0,115,1,1,0,0,115,2,0,0,0,115,3,0,0,0,115,4,1,0;               127P     98
510,111,1,1,127;                                                     129P     99
116,11.199999999999D0,-123.5093017264D0,-85.77666666667D0,0;         131P    100
123,0.0D0,0.0D0,-1.0D0;                                              133P    101
190,131,133,137;                                                     135P    102
123,1.0D0,0.0D0,0.0D0;                                               137P    103
110,11.199999999999D0,-123.5093017264D0,-85.77666666667D0,           139P    104
11.199999999999D0,123.3366982736D0,-85.77666666667D0;                139P    105
110,11.199999999999D0,-123.5093017264D0,-85.77666666667D0,           141P    106
7.199999999999D0,-123.5093017264D0,-85.77666666667D0;                141P    107
110,7.199999999999D0,-123.5093017264D0,-85.77666666667D0,            143P    108
7.199999999999D0,123.3366982736D0,-85.77666666667D0;                 143P    109
508,4,0,115,5,0,0,0,115,6,1,0,0,115,7,1,0,0,115,1,0,0;               145P    110
510,135,1,1,145;                                                     147P    111
116,7.199999999999D0,123.3366982736D0,-85.77666666667D0,0;           149P    112
123,-1.0D0,0.0D0,0.0D0;                                              151P    113
190,149,151,155;                                                     153P    114
123,0.0D0,1.0D0,0.0D0;                                               155P    115
110,7.199999999999D0,123.3366982736D0,78.64333333333D0,              157P    116
7.199999999999D0,-123.5093017264D0,78.64333333333D0;                 157P    117
110,7.199999999999D0,-123.5093017264D0,-85.77666666667D0,            159P    118
7.199999999999D0,-123.5093017264D0,78.64333333333D0;                 159P    119
508,4,0,115,8,0,0,0,115,2,1,0,0,115,7,0,0,0,115,9,1,0;               161P    120
510,153,1,1,161;                                                     163P    121
116,11.199999999999D0,123.3366982736D0,78.64333333333D0,0;           165P    122
123,0.0D0,0.0D0,1.0D0;                                               167P    123
190,165,167,171;                                                     169P    124
123,-1.0D0,0.0D0,0.0D0;                                              171P    125
110,11.199999999999D0,123.3366982736D0,78.64333333333D0,             173P    126
11.199999999999D0,-123.5093017264D0,78.64333333333D0;                173P    127
110,11.199999999999D0,-123.5093017264D0,78.64333333333D0,            175P    128
7.199999999999D0,-123.509301726399D0,78.643333333329D0;              175P    129
508,4,0,115,10,0,0,0,115,3,1,0,0,115,8,1,0,0,115,11,0,0;             177P    130
510,169,1,1,177;                                                     179P    131
116,11.199999999999D0,123.3366982736D0,-85.77666666667D0,0;          181P    132
123,1.0D0,0.0D0,0.0D0;                                               183P    133
190,181,183,187;                                                     185P    134
123,0.0D0,-1.0D0,0.0D0;                                              187P    135
110,11.199999999999D0,-123.5093017264D0,-85.77666666667D0,           189P    136
11.199999999999D0,-123.5093017264D0,78.64333333333D0;                189P    137
508,4,0,115,4,0,0,0,115,10,1,0,0,115,12,0,0,0,115,5,1,0;             191P    138
510,185,1,1,191;                                                     193P    139
116,11.199999999999D0,-123.5093017264D0,-85.77666666667D0,0;         195P    140
123,0.0D0,-1.0D0,0.0D0;                                              197P    141
190,195,197,201;                                                     199P    142
123,-1.0D0,0.0D0,0.0D0;                                              201P    143
508,4,0,115,11,1,0,0,115,9,0,0,0,115,6,0,0,0,115,12,1,0;             203P    144
510,199,1,1,203;                                                     205P    145
514,6,129,1,147,1,163,1,179,1,193,1,205,1;                           207P    146
186,207,1,0;                                                         209P    147
314,82.3529005050659D0,82.3529005050659D0,100.0D0,;                  211P    148
S      1G      3D    212P    148                                        T      1
