  0
SECTION
  2
HEADER
  9
$ACADVER
  1
AC1015
  9
$ACADMAINTVER
 70
    18
  9
$DWGCODEPAGE
  3
ANSI_1252
  9
$INSBASE
 10
0.0
 20
0.0
 30
0.0
  9
$EXTMIN
 10
-14.27830230197696
 20
-76.12322811098238
 30
-0.0015258207003583
  9
$EXTMAX
 10
67.27313378671306
 20
35.00744730886913
 30
0.0000000349246037
  9
$LIMMIN
 10
0.0
 20
0.0
  9
$LIMMAX
 10
1189.0
 20
840.9999999999998
  9
$ORTHOMODE
 70
     0
  9
$REGENMODE
 70
     1
  9
$FILLMODE
 70
     1
  9
$QTEXTMODE
 70
     0
  9
$MIRRTEXT
 70
     0
  9
$LTSCALE
 40
1.0
  9
$ATTMODE
 70
     1
  9
$TEXTSIZE
 40
0.2
  9
$TRACEWID
 40
0.05
  9
$TEXTSTYLE
  7
STANDARD
  9
$CLAYER
  8
0
  9
$CELTYPE
  6
ByLayer
  9
$CECOLOR
 62
   256
  9
$CELTSCALE
 40
1.0
  9
$DISPSILH
 70
     0
  9
$DIMSCALE
 40
1.0
  9
$DIMASZ
 40
180.0
  9
$DIMEXO
 40
0.0625
  9
$DIMDLI
 40
0.38
  9
$DIMRND
 40
0.0
  9
$DIMDLE
 40
0.0
  9
$DIMEXE
 40
0.18
  9
$DIMTP
 40
0.0
  9
$DIMTM
 40
0.0
  9
$DIMTXT
 40
34.99999940395355
  9
$DIMCEN
 40
0.09
  9
$DIMTSZ
 40
0.0
  9
$DIMTOL
 70
     0
  9
$DIMLIM
 70
     0
  9
$DIMTIH
 70
     1
  9
$DIMTOH
 70
     1
  9
$DIMSE1
 70
     0
  9
$DIMSE2
 70
     0
  9
$DIMTAD
 70
     0
  9
$DIMZIN
 70
     0
  9
$DIMBLK
  1

  9
$DIMASO
 70
     1
  9
$DIMSHO
 70
     1
  9
$DIMPOST
  1

  9
$DIMAPOST
  1

  9
$DIMALT
 70
     0
  9
$DIMALTD
 70
     2
  9
$DIMALTF
 40
25.4
  9
$DIMLFAC
 40
1.0
  9
$DIMTOFL
 70
     0
  9
$DIMTVP
 40
0.0
  9
$DIMTIX
 70
     0
  9
$DIMSOXD
 70
     0
  9
$DIMSAH
 70
     0
  9
$DIMBLK1
  1

  9
$DIMBLK2
  1

  9
$DIMSTYLE
  2
STANDARD
  9
$DIMCLRD
 70
     0
  9
$DIMCLRE
 70
     0
  9
$DIMCLRT
 70
     0
  9
$DIMTFAC
 40
1.0
  9
$DIMGAP
 40
0.09
  9
$DIMJUST
 70
     0
  9
$DIMSD1
 70
     0
  9
$DIMSD2
 70
     0
  9
$DIMTOLJ
 70
     1
  9
$DIMTZIN
 70
     0
  9
$DIMALTZ
 70
     0
  9
$DIMALTTZ
 70
     0
  9
$DIMUPT
 70
     0
  9
$DIMDEC
 70
     4
  9
$DIMTDEC
 70
     4
  9
$DIMALTU
 70
     2
  9
$DIMALTTD
 70
     2
  9
$DIMTXSTY
  7
STANDARD
  9
$DIMAUNIT
 70
     0
  9
$DIMADEC
 70
     0
  9
$DIMALTRND
 40
0.0
  9
$DIMAZIN
 70
     0
  9
$DIMDSEP
 70
    46
  9
$DIMATFIT
 70
     3
  9
$DIMFRAC
 70
     0
  9
$DIMLDRBLK
  1

  9
$DIMLUNIT
 70
     2
  9
$DIMLWD
 70
    -2
  9
$DIMLWE
 70
    -2
  9
$DIMTMOVE
 70
     0
  9
$LUNITS
 70
     2
  9
$LUPREC
 70
     4
  9
$SKETCHINC
 40
0.1
  9
$FILLETRAD
 40
0.0
  9
$AUNITS
 70
     0
  9
$AUPREC
 70
     0
  9
$MENU
  1
.
  9
$ELEVATION
 40
0.0
  9
$PELEVATION
 40
0.0
  9
$THICKNESS
 40
0.0
  9
$LIMCHECK
 70
     0
  9
$CHAMFERA
 40
0.0
  9
$CHAMFERB
 40
0.0
  9
$CHAMFERC
 40
0.0
  9
$CHAMFERD
 40
0.0
  9
$SKPOLY
 70
     0
  9
$TDCREATE
 40
2454871.539305995
  9
$TDUCREATE
 40
2454871.455972662
  9
$TDUPDATE
 40
2455723.335010324
  9
$TDUUPDATE
 40
2455723.251676991
  9
$TDINDWG
 40
0.0125857639
  9
$TDUSRTIMER
 40
0.0125857639
  9
$USRTIMER
 70
     1
  9
$ANGBASE
 50
0.0
  9
$ANGDIR
 70
     0
  9
$PDMODE
 70
     0
  9
$PDSIZE
 40
0.0
  9
$PLINEWID
 40
0.0
  9
$SPLFRAME
 70
     0
  9
$SPLINETYPE
 70
     6
  9
$SPLINESEGS
 70
     8
  9
$HANDSEED
  5
2E8
  9
$SURFTAB1
 70
     6
  9
$SURFTAB2
 70
     6
  9
$SURFTYPE
 70
     6
  9
$SURFU
 70
     6
  9
$SURFV
 70
     6
  9
$UCSBASE
  2

  9
$UCSNAME
  2

  9
$UCSORG
 10
0.0
 20
0.0
 30
0.0
  9
$UCSXDIR
 10
1.0
 20
0.0
 30
0.0
  9
$UCSYDIR
 10
0.0
 20
1.0
 30
0.0
  9
$UCSORTHOREF
  2

  9
$UCSORTHOVIEW
 70
     0
  9
$UCSORGTOP
 10
0.0
 20
0.0
 30
0.0
  9
$UCSORGBOTTOM
 10
0.0
 20
0.0
 30
0.0
  9
$UCSORGLEFT
 10
0.0
 20
0.0
 30
0.0
  9
$UCSORGRIGHT
 10
0.0
 20
0.0
 30
0.0
  9
$UCSORGFRONT
 10
0.0
 20
0.0
 30
0.0
  9
$UCSORGBACK
 10
0.0
 20
0.0
 30
0.0
  9
$PUCSBASE
  2

  9
$PUCSNAME
  2

  9
$PUCSORG
 10
0.0
 20
0.0
 30
0.0
  9
$PUCSXDIR
 10
1.0
 20
0.0
 30
0.0
  9
$PUCSYDIR
 10
0.0
 20
1.0
 30
0.0
  9
$PUCSORTHOREF
  2

  9
$PUCSORTHOVIEW
 70
     0
  9
$PUCSORGTOP
 10
0.0
 20
0.0
 30
0.0
  9
$PUCSORGBOTTOM
 10
0.0
 20
0.0
 30
0.0
  9
$PUCSORGLEFT
 10
0.0
 20
0.0
 30
0.0
  9
$PUCSORGRIGHT
 10
0.0
 20
0.0
 30
0.0
  9
$PUCSORGFRONT
 10
0.0
 20
0.0
 30
0.0
  9
$PUCSORGBACK
 10
0.0
 20
0.0
 30
0.0
  9
$USERI1
 70
     0
  9
$USERI2
 70
     0
  9
$USERI3
 70
     0
  9
$USERI4
 70
     0
  9
$USERI5
 70
     0
  9
$USERR1
 40
0.0
  9
$USERR2
 40
0.0
  9
$USERR3
 40
0.0
  9
$USERR4
 40
0.0
  9
$USERR5
 40
0.0
  9
$WORLDVIEW
 70
     1
  9
$SHADEDGE
 70
     3
  9
$SHADEDIF
 70
    70
  9
$TILEMODE
 70
     1
  9
$MAXACTVP
 70
    64
  9
$PINSBASE
 10
0.0
 20
0.0
 30
0.0
  9
$PLIMCHECK
 70
     0
  9
$PEXTMIN
 10
0.0
 20
0.0
 30
0.0
  9
$PEXTMAX
 10
1189.0
 20
840.9999999999998
 30
0.0
  9
$PLIMMIN
 10
0.0
 20
0.0
  9
$PLIMMAX
 10
1189.0
 20
840.9999999999998
  9
$UNITMODE
 70
     0
  9
$VISRETAIN
 70
     1
  9
$PLINEGEN
 70
     0
  9
$PSLTSCALE
 70
     1
  9
$TREEDEPTH
 70
  3020
  9
$CMLSTYLE
  2
Standard
  9
$CMLJUST
 70
     0
  9
$CMLSCALE
 40
1.0
  9
$PROXYGRAPHICS
 70
     1
  9
$MEASUREMENT
 70
     1
  9
$CELWEIGHT
370
    -1
  9
$ENDCAPS
280
     0
  9
$JOINSTYLE
280
     0
  9
$LWDISPLAY
290
     0
  9
$INSUNITS
 70
     4
  9
$HYPERLINKBASE
  1

  9
$STYLESHEET
  1

  9
$XEDIT
290
     1
  9
$CEPSNTYPE
380
     0
  9
$PSTYLEMODE
290
     1
  9
$FINGERPRINTGUID
  2
{CDA3DB26-F6C5-4F91-87B6-7D4FBCB9B33D}
  9
$VERSIONGUID
  2
{E8F2D03E-4D35-4FAC-BE78-BC39DF88429E}
  9
$EXTNAMES
290
     1
  9
$PSVPSCALE
 40
0.0
  9
$OLESTARTUP
290
     0
  0
ENDSEC
  0
SECTION
  2
CLASSES
  0
CLASS
  1
ACDBDICTIONARYWDFLT
  2
AcDbDictionaryWithDefault
  3
ObjectDBX Classes
 90
        0
280
     0
281
     0
  0
CLASS
  1
MATERIAL
  2
AcDbMaterial
  3
ObjectDBX Classes
 90
     1153
280
     0
281
     0
  0
CLASS
  1
VISUALSTYLE
  2
AcDbVisualStyle
  3
ObjectDBX Classes
 90
     4095
280
     0
281
     0
  0
CLASS
  1
SCALE
  2
AcDbScale
  3
ObjectDBX Classes
 90
     1153
280
     0
281
     0
  0
CLASS
  1
TABLESTYLE
  2
AcDbTableStyle
  3
ObjectDBX Classes
 90
     4095
280
     0
281
     0
  0
CLASS
  1
MLEADERSTYLE
  2
AcDbMLeaderStyle
  3
ACDB_MLEADERSTYLE_CLASS
 90
     4095
280
     0
281
     0
  0
CLASS
  1
SORTENTSTABLE
  2
AcDbSortentsTable
  3
ObjectDBX Classes
 90
        0
280
     0
281
     0
  0
CLASS
  1
CELLSTYLEMAP
  2
AcDbCellStyleMap
  3
ObjectDBX Classes
 90
     1152
280
     0
281
     0
  0
CLASS
  1
DICTIONARYVAR
  2
AcDbDictionaryVar
  3
ObjectDBX Classes
 90
        0
280
     0
281
     0
  0
CLASS
  1
ACME_DOCUMENT
  2
AcMeDbDoc
  3
AcMeServices
 90
     1024
280
     0
281
     0
  0
CLASS
  1
AMGSETTINGSOBJ
  2
AmgSettingsObj
  3
"AcadM|Product Description: AutoCAD Mechanical|Company: Autodesk, Inc."
 90
     1024
280
     0
281
     0
  0
CLASS
  1
ACMESCOPE
  2
AcMeScope
  3
AcMeServices
 90
     1024
280
     0
281
     0
  0
CLASS
  1
ACMECOMMANDHISTORY
  2
AcMeCommandHistory
  3
AcMeServices
 90
     1024
280
     0
281
     0
  0
CLASS
  1
ACIMSYSVARMAN
  2
AcImSysVarManager
  3
AcMeServices
 90
     1024
280
     0
281
     0
  0
CLASS
  1
ACIMINTSYSVAR
  2
AcImIntSysVar
  3
AcMeServices
 90
     1024
280
     0
281
     0
  0
CLASS
  1
ACMEDRAWINGMAN
  2
AcMeDrawingMan
  3
AcMeServices
 90
    33792
280
     0
281
     0
  0
CLASS
  1
ACMEVIEW
  2
AcMeView
  3
AcMeServices
 90
    33792
280
     0
281
     0
  0
CLASS
  1
ACDBENTITYCACHE
  2
AcMeEntityCache
  3
AcMeServices
 90
     1024
280
     0
281
     0
  0
CLASS
  1
GSMANAGER
  2
AcMeGSManager
  3
AcMeServices
 90
    33792
280
     1
281
     0
  0
CLASS
  1
AMDTINTERNALREACTOR
  2
AmdtInternalReactor
  3
AcMeServices
 90
     1024
280
     0
281
     0
  0
CLASS
  1
ACMESTATEMGR
  2
AcMeStateMgr
  3
AcMeServices
 90
     1024
280
     0
281
     0
  0
CLASS
  1
ACGREFMASTER
  2
AcGrefMaster
  3
AcAttribServices
 90
     1024
280
     0
281
     0
  0
CLASS
  1
AM_DRAWING_MGR
  2
AcDmDwgMgr
  3
AcMechDwgViewMgmt
 90
     1024
280
     0
281
     0
  0
CLASS
  1
AM_DWG_DOCUMENT
  2
AcDmDwgDocument
  3
AcMechDwgViewMgmt
 90
     1024
280
     0
281
     0
  0
CLASS
  1
AM_DWG_SHEET
  2
AcDmSheet
  3
AcMechDwgViewMgmt
 90
     1024
280
     0
281
     0
  0
CLASS
  1
AM_VIEWDIMPARMAP
  2
AcDmViewDimParMap
  3
AcMechDwgViewMgmt
 90
     1024
280
     0
281
     0
  0
CLASS
  1
ACIMREALSYSVAR
  2
AcImRealSysVar
  3
AcMeServices
 90
     1024
280
     0
281
     0
  0
CLASS
  1
AM_DWGMGR_NAME
  2
AcDmDwgMgrName
  3
AcMechDwgViewMgmt
 90
     1024
280
     0
281
     0
  0
CLASS
  1
ACME_DATABASE
  2
AcMeDbDatabase
  3
AcMeServices
 90
     1024
280
     0
281
     0
  0
CLASS
  1
ACRFINSADJUSTERMGR
  2
AcRfInsAdjusterMgr
  3
AcMeServices
 90
     1024
280
     0
281
     0
  0
CLASS
  1
ACGREFACADMASTER
  2
AcGrefacadMaster
  3
AcGrefServices
 90
     1024
280
     0
281
     0
  0
CLASS
  1
AMDTMENUSTATEMGR
  2
AmdtMenuStateMgr
  3
McadcomServices
 90
     1024
280
     0
281
     0
  0
CLASS
  1
AMDTMCOMMENUSTATE
  2
AmdtMcomMenuState
  3
McadcomServices
 90
     1024
280
     0
281
     0
  0
CLASS
  1
AMIMASTER
  2
AmiMaster
  3
AmiServices
 90
     1024
280
     0
281
     0
  0
CLASS
  1
MAPIAMMOUDLE
  2
MApiAmModule
  3
MApiAmServices
 90
     1024
280
     0
281
     0
  0
CLASS
  1
ACIMSTRSYSVAR
  2
AcImStrSysVar
  3
AcMeServices
 90
     1024
280
     0
281
     0
  0
CLASS
  1
AMDTADMENUSTATE
  2
AmdtAdMenuState
  3
DesignerServices
 90
    33792
280
     1
281
     0
  0
CLASS
  1
ADAPPL
  2
AcAdAppl
  3
DesignerAssemblies
 90
    33792
280
     0
281
     0
  0
CLASS
  1
DEPMGR
  2
AcAdDepMgr
  3
DesignerAssemblies
 90
    33792
280
     0
281
     0
  0
CLASS
  1
PARAMMGR
  2
AcAdParamMgr
  3
DesignerAssemblies
 90
    33792
280
     0
281
     0
  0
CLASS
  1
PARAMSCOPE
  2
AcAdParamScope
  3
DesignerAssemblies
 90
    33792
280
     0
281
     0
  0
CLASS
  1
NAMEDAPPL
  2
AcAdNamedAppl
  3
DesignerAssemblies
 90
    33792
280
     0
281
     0
  0
CLASS
  1
AMDTDMMENUSTATE
  2
AmdtDmMenuState
  3
AcMechDwgViewMgmt
 90
     1024
280
     0
281
     0
  0
CLASS
  1
AMDTAMMENUSTATE
  2
AmdtAmMenuState
  3
DesignerAssemblies
 90
     1024
280
     0
281
     0
  0
CLASS
  1
ACAMPROJECT
  2
AcAmProject
  3
DesignerAssemblies
 90
     1024
280
     0
281
     0
  0
CLASS
  1
ACAMGRCOMPDEF
  2
AcAmGrCompDef
  3
DesignerAssemblies
 90
     1024
280
     0
281
     0
  0
CLASS
  1
ACCMCONTEXT
  2
AcCmContext
  3
DesignerAssemblies
 90
    33792
280
     0
281
     0
  0
CLASS
  1
ACAMCOMPDEF
  2
AcAmCompDef
  3
DesignerAssemblies
 90
     1024
280
     0
281
     0
  0
CLASS
  1
ACAMCOMPDEFMGR
  2
AcAmCompDefMgr
  3
DesignerAssemblies
 90
     1024
280
     0
281
     0
  0
CLASS
  1
AMCONTEXTMGR
  2
AcAmContextMgr
  3
DesignerAssemblies
 90
     1024
280
     0
281
     0
  0
CLASS
  1
ACAMCONTEXTMODELER
  2
AcAmContextModeler
  3
DesignerAssemblies
 90
     1024
280
     0
281
     0
  0
CLASS
  1
ACMDATADICTIONARY
  2
AcmDataDictionary
  3
"AcmSymBB|Product Description: AutoCAD Mechanical|Company: Autodesk, Inc."
 90
     1024
280
     0
281
     0
  0
CLASS
  1
CATALOGSTATE
  2
AcAmCatalogState
  3
DesignerAssemblies
 90
    33792
280
     0
281
     0
  0
CLASS
  1
ACAMGRCOMPDEFSET
  2
AcAmGrCompDefSet
  3
DesignerAssemblies
 90
     1024
280
     0
281
     0
  0
CLASS
  1
AMDTBROWSERDBTAB
  2
AmdtBrowserDbTab
  3
McadcomServices
 90
     1024
280
     0
281
     0
  0
CLASS
  1
CBROWSERAPPOBJECT
  2
CBrowserAppObject
  3
McadcomServices
 90
     1024
280
     0
281
     0
  0
CLASS
  1
DM_PLACEHOLDER
  2
AcDmSelsetPlaceholder
  3
AcMechDwgViewMgmt
 90
     1024
280
     0
281
     0
  0
CLASS
  1
EXACXREFPANELOBJECT
  2
ExAcXREFPanelObject
  3
EXAC_ESW
 90
     1025
280
     0
281
     0
  0
CLASS
  1
NPOCOLLECTION
  2
AcDbImpNonPersistentObjectsCollection
  3
ObjectDBX Classes
 90
     1153
280
     0
281
     0
  0
CLASS
  1
ACMSTANDARDANSI
  2
AcmStandardANSI
  3
"Amdt_StdImp|Product Description: AutoCAD Mechanical|Company: Autodesk, Inc."
 90
     1024
280
     0
281
     0
  0
CLASS
  1
ACMSURFSTANDARDANSI
  2
AcmSurfTextStdANSI
  3
"Amdt_StdImp|Product Description: AutoCAD Mechanical|Company: Autodesk, Inc."
 90
     1024
280
     0
281
     0
  0
CLASS
  1
ACMFCFSTANDARDANSI
  2
AcmFCFStdANSI
  3
"Amdt_StdImp|Product Description: AutoCAD Mechanical|Company: Autodesk, Inc."
 90
     1024
280
     0
281
     0
  0
CLASS
  1
ACMWELDSTANDARDANSI
  2
AcmWeldingStdANSI
  3
"Amdt_StdImp|Product Description: AutoCAD Mechanical|Company: Autodesk, Inc."
 90
     1024
280
     0
281
     0
  0
CLASS
  1
ACMIDSTANDARDANSI
  2
AcmIdStdANSI
  3
"Amdt_StdImp|Product Description: AutoCAD Mechanical|Company: Autodesk, Inc."
 90
     1024
280
     0
281
     0
  0
CLASS
  1
ACMDATUMSTANDARDANSI
  2
AcmDatumStdANSI
  3
"Amdt_StdImp|Product Description: AutoCAD Mechanical|Company: Autodesk, Inc."
 90
     1024
280
     0
281
     0
  0
CLASS
  1
ACMBOMSTANDARDANSI
  2
AcmBOMStdANSI
  3
"Amdt_StdImp|Product Description: AutoCAD Mechanical|Company: Autodesk, Inc."
 90
     1024
280
     0
281
     0
  0
CLASS
  1
ACMDETAILSTANDARDANSI
  2
AmdtDetailSymStdANSI
  3
"Amdt_StdImp|Product Description: AutoCAD Mechanical|Company: Autodesk, Inc."
 90
     1024
280
     0
281
     0
  0
CLASS
  1
ACMSECTIONSTANDARDANSI
  2
AmdtSectionSymStdANSI
  3
"Amdt_StdImp|Product Description: AutoCAD Mechanical|Company: Autodesk, Inc."
 90
     1024
280
     0
281
     0
  0
CLASS
  1
ACMCENTERLINESTANDARDANSI
  2
AmdtCenterLineStdANSI
  3
"Amdt_StdImp|Product Description: AutoCAD Mechanical|Company: Autodesk, Inc."
 90
     1024
280
     0
281
     0
  0
CLASS
  1
ACMTHREADLINESTANDARDANSI
  2
AmdtThreadLineStdANSI
  3
"Amdt_StdImp|Product Description: AutoCAD Mechanical|Company: Autodesk, Inc."
 90
     1024
280
     0
281
     0
  0
CLASS
  1
ACMNOTESTANDARDANSI
  2
AmdtNoteStdANSI
  3
"Amdt_StdImp|Product Description: AutoCAD Mechanical|Company: Autodesk, Inc."
 90
     1024
280
     0
281
     0
  0
CLASS
  1
ACMTAPERSTANDARDANSI
  2
AcmTaperStdANSI
  3
"Amdt_StdImp|Product Description: AutoCAD Mechanical|Company: Autodesk, Inc."
 90
     1024
280
     0
281
     0
  0
CLASS
  1
ACMANOOTATIONVIEWSTANDARDANSI
  2
AmdtAnViewStdANSI
  3
"Amdt_StdImp|Product Description: AutoCAD Mechanical|Company: Autodesk, Inc."
 90
     1024
280
     0
281
     0
  0
CLASS
  1
ACAMGLAYSTD
  2
AcAmgLayStd
  3
"AmgLay|Product Description: AutoCAD Mechanical|Company: Autodesk, Inc."
 90
     1024
280
     0
281
     0
  0
CLASS
  1
ACAMGDIMSTD
  2
AcAmgDimStd
  3
"AmgDim|Product Description: AutoCAD Mechanical|Company: Autodesk, Inc."
 90
     1024
280
     0
281
     0
  0
CLASS
  1
AMGOBJPROPCFG
  2
AmgObjPropCfg
  3
"AmgLay|Product Description: AutoCAD Mechanical|Company: Autodesk, Inc."
 90
     1025
280
     0
281
     0
  0
CLASS
  1
ACAMGHOLECHARTSTDANSI
  2
AcAmgHoleChartStdANSI
  3
AmgDim|Product Description: AutoCAD Mechanical|Company: Autodesk, Inc.
 90
     1024
280
     0
281
     0
  0
CLASS
  1
ACAMGTITLESTD
  2
AcAmgTitleStd
  3
"AmgTitle|Product Description: AutoCAD Mechanical|Company: Autodesk, Inc."
 90
     4095
280
     0
281
     0
  0
CLASS
  1
AMDTNOTETEMPLATEDB
  2
AmdtNoteTemplateDB
  3
AcmSymBB|Product Description: AutoCAD Mechanical|Company: Autodesk, Inc.
 90
     1024
280
     0
281
     0
  0
CLASS
  1
ACAMGFILTERDAT
  2
AcAmgFilterDat
  3
"AcadM|Product Description: AutoCAD Mechanical|Company: Autodesk, Inc."
 90
    33792
280
     0
281
     0
  0
CLASS
  1
CAMSSTRUCTBTNSTATE
  2
StructBtnState
  3
DesignerAssemblies
 90
    33792
280
     0
281
     0
  0
CLASS
  1
ACDBPLACEHOLDER
  2
AcDbPlaceHolder
  3
ObjectDBX Classes
 90
        0
280
     0
281
     0
  0
CLASS
  1
LAYOUT
  2
AcDbLayout
  3
ObjectDBX Classes
 90
        0
280
     0
281
     0
  0
CLASS
  1
SOLID_BACKGROUND
  2
AcDbSolidBackground
  3
SCENEOE
 90
    36863
280
     0
281
     0
  0
ENDSEC
  0
SECTION
  2
TABLES
  0
TABLE
  2
VPORT
  5
28
102
{ACAD_XDICTIONARY
360
2C
102
}
330
0
100
AcDbSymbolTable
 70
     1
  0
VPORT
  5
29
330
28
100
AcDbSymbolTableRecord
100
AcDbViewportTableRecord
  2
*ACTIVE
 70
     0
 10
0.0
 20
0.0
 11
1.0
 21
1.0
 12
26.49741574236806
 22
-20.55789040105663
 13
0.0
 23
0.0
 14
1.0
 24
1.0
 15
0.0
 25
0.0
 16
0.0
 26
0.0
 36
1.0
 17
0.0
 27
0.0
 37
0.0
 40
124.4235169808428
 41
2.068965517241379
 42
50.0
 43
0.0
 44
0.0
 50
0.0
 51
0.0
 71
     0
 72
   100
 73
     1
 74
     1
 75
     0
 76
     0
 77
     0
 78
     0
281
     0
 65
     1
110
0.0
120
0.0
130
0.0
111
1.0
121
0.0
131
0.0
112
0.0
122
1.0
132
0.0
 79
     0
146
0.0
  0
ENDTAB
  0
TABLE
  2
LTYPE
  5
23
330
0
100
AcDbSymbolTable
 70
    11
  0
LTYPE
  5
24
330
23
100
AcDbSymbolTableRecord
100
AcDbLinetypeTableRecord
  2
ByBlock
 70
     0
  3

 72
    65
 73
     0
 40
0.0
  0
LTYPE
  5
25
330
23
100
AcDbSymbolTableRecord
100
AcDbLinetypeTableRecord
  2
ByLayer
 70
     0
  3

 72
    65
 73
     0
 40
0.0
  0
LTYPE
  5
1B
330
23
100
AcDbSymbolTableRecord
100
AcDbLinetypeTableRecord
  2
CONTINUOUS
 70
     0
  3
Solid line
 72
    65
 73
     0
 40
0.0
  0
LTYPE
  5
1F2
330
23
100
AcDbSymbolTableRecord
100
AcDbLinetypeTableRecord
  2
HIDDEN
 70
     0
  3
Verdeckt
 72
    65
 73
     2
 40
0.375
 49
0.25
 74
     0
 49
-0.125
 74
     0
  0
LTYPE
  5
1F4
330
23
100
AcDbSymbolTableRecord
100
AcDbLinetypeTableRecord
  2
PHANTOM2
 70
     0
  3
Phantom (.5x) ___ _ _ ___ _ _ ___ _ _ ___ _ _
 72
    65
 73
     6
 40
1.25
 49
0.625
 74
     0
 49
-0.125
 74
     0
 49
0.125
 74
     0
 49
-0.125
 74
     0
 49
0.125
 74
     0
 49
-0.125
 74
     0
  0
LTYPE
  5
1F3
330
23
100
AcDbSymbolTableRecord
100
AcDbLinetypeTableRecord
  2
CENTER
 70
     0
  3
Mitte ____ _ ____ _ ____ _ ____ _ ____ _ ____
 72
    65
 73
     4
 40
2.0
 49
1.25
 74
     0
 49
-0.25
 74
     0
 49
0.25
 74
     0
 49
-0.25
 74
     0
  0
LTYPE
  5
1F5
330
23
100
AcDbSymbolTableRecord
100
AcDbLinetypeTableRecord
  2
Amconstr
 70
     0
  3
_______________________
 72
    65
 73
     2
 40
9999.0
 49
9999.0
 74
     0
 49
0.0
 74
     0
  0
LTYPE
  5
1F6
330
23
100
AcDbSymbolTableRecord
100
AcDbLinetypeTableRecord
  2
CENTER2
 70
     0
  3
Center (.5x) ___ _ ___ _ ___ _ ___ _ ___ _ ___
 72
    65
 73
     4
 40
1.125
 49
0.75
 74
     0
 49
-0.125
 74
     0
 49
0.125
 74
     0
 49
-0.125
 74
     0
  0
LTYPE
  5
1F7
330
23
100
AcDbSymbolTableRecord
100
AcDbLinetypeTableRecord
  2
HIDDEN2
 70
     0
  3
Hidden (.5x) _ _ _ _ _ _ _ _ _ _ _ _ _ _ _ _ _
 72
    65
 73
     2
 40
0.1875
 49
0.125
 74
     0
 49
-0.0625
 74
     0
  0
LTYPE
  5
1F8
330
23
100
AcDbSymbolTableRecord
100
AcDbLinetypeTableRecord
  2
Amzigzag2
 70
     0
  3
/\/-/\/-/\/-/\/-/\/-/\/
 72
    65
 73
     2
 40
0.4401
 49
0.0001
 74
     4
 75
   136
340
1F9
 46
0.0016
 50
0.0
 44
0.0
 45
0.0
 49
-0.4400000000000001
 74
     0
  0
LTYPE
  5
209
330
23
100
AcDbSymbolTableRecord
100
AcDbLinetypeTableRecord
  2
ACANSTGB
 70
     0
  3
__ . . __ . .
 72
    65
 73
     6
 40
0.35433070866
 49
0.15748031496
 74
     0
 49
-0.03937007874
 74
     0
 49
0.03937007874
 74
     0
 49
-0.03937007874
 74
     0
 49
0.03937007874
 74
     0
 49
-0.03937007874
 74
     0
  0
LTYPE
  5
20A
330
23
100
AcDbSymbolTableRecord
100
AcDbLinetypeTableRecord
  2
ACANSTGL
 70
     0
  3
_ _ _ _ _
 72
    65
 73
     2
 40
0.11811023622
 49
0.07874015748
 74
     0
 49
-0.03937007874
 74
     0
  0
LTYPE
  5
7C
330
23
100
AcDbSymbolTableRecord
100
AcDbLinetypeTableRecord
  2
DASHED
 70
     0
  3
Dashed __ __ __ __ __ __ __ __ __ __ __ __ __ _
 72
    65
 73
     2
 40
0.75
 49
0.5
 74
     0
 49
-0.25
 74
     0
  0
ENDTAB
  0
TABLE
  2
LAYER
  5
E
102
{ACAD_XDICTIONARY
360
1C
102
}
330
0
100
AcDbSymbolTable
 70
     7
  0
LAYER
  5
F
330
E
100
AcDbSymbolTableRecord
100
AcDbLayerTableRecord
  2
0
 70
     0
 62
     7
  6
CONTINUOUS
370
    -3
390
10
  0
LAYER
  5
80
330
E
100
AcDbSymbolTableRecord
100
AcDbLayerTableRecord
  2
GEB-KONTUR-A
 70
     0
 62
     5
  6
CONTINUOUS
370
    -3
390
10
  0
LAYER
  5
7B
330
E
100
AcDbSymbolTableRecord
100
AcDbLayerTableRecord
  2
GEB-VERDECKT
 70
     0
 62
     2
  6
DASHED
370
    -3
390
10
1001
AcAecLayerStandard
1000

1000

  0
LAYER
  5
76
330
E
100
AcDbSymbolTableRecord
100
AcDbLayerTableRecord
  2
Arbeitspunkt(DIN)
 70
     0
 62
     7
  6
CONTINUOUS
370
    25
390
10
  0
LAYER
  5
1EE
330
E
100
AcDbSymbolTableRecord
100
AcDbLayerTableRecord
  2
GEB-ART-NR
 70
     0
 62
     1
  6
CONTINUOUS
370
    18
390
10
  0
LAYER
  5
72
330
E
100
AcDbSymbolTableRecord
100
AcDbLayerTableRecord
  2
GEB-BEZUG
 70
     0
 62
     2
  6
CONTINUOUS
370
    25
390
10
  0
LAYER
  5
1EB
330
E
100
AcDbSymbolTableRecord
100
AcDbLayerTableRecord
  2
GEB-TEXT
 70
     0
 62
     5
  6
CONTINUOUS
370
    18
390
10
  0
ENDTAB
  0
TABLE
  2
STYLE
  5
20
330
0
100
AcDbSymbolTable
 70
     3
  0
STYLE
  5
21
330
20
100
AcDbSymbolTableRecord
100
AcDbTextStyleTableRecord
  2
STANDARD
 70
     0
 40
0.0
 41
1.0
 50
0.0
 71
     0
 42
0.2
  3
arial.ttf
  4

1001
ACAD
1000
Arial
1071
       34
  0
STYLE
  5
1F9
330
20
100
AcDbSymbolTableRecord
100
AcDbTextStyleTableRecord
  2

 70
     1
 40
0.0
 41
1.0
 50
0.0
 71
     0
 42
0.2
  3
genltshp.shx
  4

  0
STYLE
  5
205
330
20
100
AcDbSymbolTableRecord
100
AcDbTextStyleTableRecord
  2
ACANSGDT
 70
     0
 40
0.0
 41
1.0
 50
0.0
 71
     0
 42
0.2
  3
amgdt.shx
  4

  0
ENDTAB
  0
TABLE
  2
VIEW
  5
26
330
0
100
AcDbSymbolTable
 70
     0
  0
ENDTAB
  0
TABLE
  2
UCS
  5
27
330
0
100
AcDbSymbolTable
 70
     0
  0
ENDTAB
  0
TABLE
  2
APPID
  5
2D
330
0
100
AcDbSymbolTable
 70
    14
  0
APPID
  5
1F
330
2D
100
AcDbSymbolTableRecord
100
AcDbRegAppTableRecord
  2
ACAD
 70
     0
  0
APPID
  5
7D
330
2D
100
AcDbSymbolTableRecord
100
AcDbRegAppTableRecord
  2
AcAecLayerStandard
 70
     0
  0
APPID
  5
248
330
2D
100
AcDbSymbolTableRecord
100
AcDbRegAppTableRecord
  2
ACATTRIBSERVICES
 70
     0
  0
APPID
  5
273
330
2D
100
AcDbSymbolTableRecord
100
AcDbRegAppTableRecord
  2
MCAD_NO_VIS
 70
     0
  0
APPID
  5
274
330
2D
100
AcDbSymbolTableRecord
100
AcDbRegAppTableRecord
  2
ACAD_TEMP_GRAPHIC
 70
     0
  0
APPID
  5
278
330
2D
100
AcDbSymbolTableRecord
100
AcDbRegAppTableRecord
  2
AD_DRAW
 70
     0
  0
APPID
  5
291
330
2D
100
AcDbSymbolTableRecord
100
AcDbRegAppTableRecord
  2
DESIGNERASSEMBLIES
 70
     0
  0
APPID
  5
296
330
2D
100
AcDbSymbolTableRecord
100
AcDbRegAppTableRecord
  2
ACADM_DIM_EDIT
 70
     0
  0
APPID
  5
297
330
2D
100
AcDbSymbolTableRecord
100
AcDbRegAppTableRecord
  2
AMDT_DM_ADJ
 70
     0
  0
APPID
  5
2B7
330
2D
100
AcDbSymbolTableRecord
100
AcDbRegAppTableRecord
  2
ACAD_DSTYLE_DIMARC_LENGTH_SYMBOL
 70
     0
  0
APPID
  5
2B8
330
2D
100
AcDbSymbolTableRecord
100
AcDbRegAppTableRecord
  2
ACAD_DSTYLE_DIM_LINETYPE
 70
     0
  0
APPID
  5
2B9
330
2D
100
AcDbSymbolTableRecord
100
AcDbRegAppTableRecord
  2
ACAD_DSTYLE_DIM_EXT1_LINETYPE
 70
     0
  0
APPID
  5
2BA
330
2D
100
AcDbSymbolTableRecord
100
AcDbRegAppTableRecord
  2
ACAD_DSTYLE_DIM_EXT2_LINETYPE
 70
     0
  0
APPID
  5
2E7
330
2D
100
AcDbSymbolTableRecord
100
AcDbRegAppTableRecord
  2
ACAD_MLEADERVER
 70
     0
  0
ENDTAB
  0
TABLE
  2
DIMSTYLE
  5
2E
330
0
100
AcDbSymbolTable
 70
     7
100
AcDbDimStyleTable
 71
     1
340
2F
  0
DIMSTYLE
105
2F
330
2E
100
AcDbSymbolTableRecord
100
AcDbDimStyleTableRecord
  2
STANDARD
 70
     0
279
     2
340
21
  0
DIMSTYLE
105
21B
102
{ACAD_REACTORS
330
202
102
}
330
2E
100
AcDbSymbolTableRecord
100
AcDbDimStyleTableRecord
  2
AM_ANSI
 70
     0
  4
mm
 41
0.12
 42
0.05
 43
0.5
 44
0.1
 47
0.1
 48
0.1
 78
     7
 79
     2
140
0.12
141
0.0
146
0.71
147
0.06
176
   256
177
   256
178
     2
274
     4
284
     7
340
21
371
    -1
372
    -1
1001
ACAD_DSTYLE_DIMARC_LENGTH_SYMBOL
1070
   379
1070
     1
1001
ACAD_DSTYLE_DIM_LINETYPE
1070
   380
1005
24
1001
ACAD_DSTYLE_DIM_EXT1_LINETYPE
1070
   381
1005
24
1001
ACAD_DSTYLE_DIM_EXT2_LINETYPE
1070
   382
1005
24
  0
DIMSTYLE
105
21C
330
2E
100
AcDbSymbolTableRecord
100
AcDbDimStyleTableRecord
  2
AM_ANSI$3
 70
     0
  4
mm
 41
0.12
 42
0.05
 43
0.5
 44
0.1
 47
0.1
 48
0.1
 78
     7
 79
     2
140
0.12
141
0.0
146
0.71
147
0.06
176
   256
177
   256
178
     2
274
     4
284
     7
288
     1
289
     0
340
21
371
    -1
372
    -1
1001
ACAD_DSTYLE_DIMARC_LENGTH_SYMBOL
1070
   379
1070
     1
1001
ACAD_DSTYLE_DIM_LINETYPE
1070
   380
1005
24
1001
ACAD_DSTYLE_DIM_EXT1_LINETYPE
1070
   381
1005
24
1001
ACAD_DSTYLE_DIM_EXT2_LINETYPE
1070
   382
1005
24
  0
DIMSTYLE
105
21D
330
2E
100
AcDbSymbolTableRecord
100
AcDbDimStyleTableRecord
  2
AM_ANSI$4
 70
     0
  4
mm
 41
0.12
 42
0.05
 43
0.5
 44
0.1
 47
0.1
 48
0.1
 78
     7
 79
     2
140
0.12
141
0.0
146
0.71
147
0.06
176
   256
177
   256
178
     2
274
     4
284
     7
288
     1
289
     0
340
21
371
    -1
372
    -1
1001
ACAD_DSTYLE_DIMARC_LENGTH_SYMBOL
1070
   379
1070
     1
1001
ACAD_DSTYLE_DIM_LINETYPE
1070
   380
1005
24
1001
ACAD_DSTYLE_DIM_EXT1_LINETYPE
1070
   381
1005
24
1001
ACAD_DSTYLE_DIM_EXT2_LINETYPE
1070
   382
1005
24
  0
DIMSTYLE
105
21E
330
2E
100
AcDbSymbolTableRecord
100
AcDbDimStyleTableRecord
  2
AM_ANSI$7
 70
     0
  4
mm
 41
0.12
 42
0.05
 43
0.5
 44
0.1
 47
0.1
 48
0.1
 78
     7
 79
     2
140
0.12
141
0.0
146
0.71
147
0.06
176
   256
177
   256
178
     2
274
     4
284
     7
340
21
371
    -1
372
    -1
1001
ACAD_DSTYLE_DIMARC_LENGTH_SYMBOL
1070
   379
1070
     1
1001
ACAD_DSTYLE_DIM_LINETYPE
1070
   380
1005
24
1001
ACAD_DSTYLE_DIM_EXT1_LINETYPE
1070
   381
1005
24
1001
ACAD_DSTYLE_DIM_EXT2_LINETYPE
1070
   382
1005
24
  0
DIMSTYLE
105
21F
330
2E
100
AcDbSymbolTableRecord
100
AcDbDimStyleTableRecord
  2
AM_ANSI$SF
 70
     0
  4
mm
 41
0.12
 42
0.05
 43
0.5
 44
0.1
 47
0.1
 48
0.1
 75
     1
 76
     1
 78
     7
 79
     2
140
0.12
141
0.0
146
0.71
147
0.06
176
   256
177
   256
178
     2
274
     4
284
     7
340
21
371
    -1
372
    -1
1001
ACAD_DSTYLE_DIMARC_LENGTH_SYMBOL
1070
   379
1070
     1
1001
ACAD_DSTYLE_DIM_LINETYPE
1070
   380
1005
24
1001
ACAD_DSTYLE_DIM_EXT1_LINETYPE
1070
   381
1005
24
1001
ACAD_DSTYLE_DIM_EXT2_LINETYPE
1070
   382
1005
24
  0
DIMSTYLE
105
220
330
2E
100
AcDbSymbolTableRecord
100
AcDbDimStyleTableRecord
  2
AM_ANSI$SH
 70
     0
  4
mm
 41
0.12
 42
0.05
 43
0.5
 44
0.1
 47
0.1
 48
0.1
 75
     1
 76
     1
 78
     7
 79
     2
140
0.12
141
0.0
146
0.71
147
0.06
173
     1
176
   256
177
   256
178
     2
274
     4
284
     7
340
21
343
221
371
    -1
372
    -1
1001
ACAD_DSTYLE_DIMARC_LENGTH_SYMBOL
1070
   379
1070
     1
1001
ACAD_DSTYLE_DIM_LINETYPE
1070
   380
1005
24
1001
ACAD_DSTYLE_DIM_EXT1_LINETYPE
1070
   381
1005
24
1001
ACAD_DSTYLE_DIM_EXT2_LINETYPE
1070
   382
1005
24
  0
ENDTAB
  0
TABLE
  2
BLOCK_RECORD
  5
1
330
0
100
AcDbSymbolTable
 70
     3
  0
BLOCK_RECORD
  5
2
102
{ACAD_XDICTIONARY
360
3
102
}
330
1
100
AcDbSymbolTableRecord
100
AcDbBlockTableRecord
  2
*Model_Space
340
7
  0
BLOCK_RECORD
  5
A
330
1
100
AcDbSymbolTableRecord
100
AcDbBlockTableRecord
  2
*Paper_Space
340
D
  0
BLOCK_RECORD
  5
221
330
1
100
AcDbSymbolTableRecord
100
AcDbBlockTableRecord
  2
GENAXEH
340
0
  0
BLOCK_RECORD
  5
6F
330
1
100
AcDbSymbolTableRecord
100
AcDbBlockTableRecord
  2
Einfügepunkt
340
0
102
{BLKREFS
331
6E
102
}
  0
ENDTAB
  0
ENDSEC
  0
SECTION
  2
BLOCKS
  0
BLOCK
  5
5
330
2
100
AcDbEntity
  8
0
100
AcDbBlockBegin
  2
*Model_Space
 70
     0
 10
0.0
 20
0.0
 30
0.0
  3
*Model_Space
  1

  0
ENDBLK
  5
6
330
2
100
AcDbEntity
  8
0
100
AcDbBlockEnd
  0
BLOCK
  5
B
330
A
100
AcDbEntity
 67
     1
  8
0
100
AcDbBlockBegin
  2
*Paper_Space
 70
     0
 10
0.0
 20
0.0
 30
0.0
  3
*Paper_Space
  1

  0
ENDBLK
  5
C
330
A
100
AcDbEntity
 67
     1
  8
0
100
AcDbBlockEnd
  0
BLOCK
  5
222
330
221
100
AcDbEntity
  8
0
100
AcDbBlockBegin
  2
GENAXEH
 70
     0
 10
0.0
 20
0.0
 30
0.0
  3
GENAXEH
  1

  0
LINE
  5
223
330
221
100
AcDbEntity
  8
0
100
AcDbLine
 10
-1.0
 20
0.0
 30
0.0
 11
1.0
 21
0.0
 31
0.0
  0
ENDBLK
  5
224
330
221
100
AcDbEntity
  8
0
100
AcDbBlockEnd
  0
BLOCK
  5
70
330
6F
100
AcDbEntity
  8
0
100
AcDbBlockBegin
  2
Einfügepunkt
 70
     0
 10
0.0
 20
0.0
 30
0.0
  3
Einfügepunkt
  1

  0
LINE
  5
71
330
6F
100
AcDbEntity
  8
GEB-BEZUG
100
AcDbLine
 10
-0.7071067811865817
 20
-0.7071067811865106
 30
0.0
 11
0.7071067811864751
 21
0.7071067811865817
 31
0.0
  0
LINE
  5
73
330
6F
100
AcDbEntity
  8
GEB-BEZUG
100
AcDbLine
 10
-0.7071067811865106
 20
0.7071067811865817
 30
0.0
 11
0.7071067811865462
 21
-0.7071067811865106
 31
0.0
  0
ENDBLK
  5
74
330
6F
100
AcDbEntity
  8
0
100
AcDbBlockEnd
  0
ENDSEC
  0
SECTION
  2
ENTITIES
  0
INSERT
  5
6E
330
2
100
AcDbEntity
  8
0
 48
25.0
100
AcDbBlockReference
  2
Einfügepunkt
 10
0.0
 20
0.0
 30
0.0
  0
LINE
  5
75
330
2
100
AcDbEntity
  8
Arbeitspunkt(DIN)
 48
25.0
100
AcDbLine
 10
0.0000000000001137
 20
0.0
 30
0.0
 11
0.0000000000001137
 21
-2.5
 31
0.0
  0
LINE
  5
77
330
2
100
AcDbEntity
  8
Arbeitspunkt(DIN)
 48
25.0
100
AcDbLine
 10
0.0000000000001137
 20
0.0
 30
0.0
 11
0.0000000000001137
 21
2.5
 31
0.0
  0
LINE
  5
78
330
2
100
AcDbEntity
  8
Arbeitspunkt(DIN)
 48
25.0
100
AcDbLine
 10
0.0000000000001137
 20
0.0
 30
0.0
 11
-2.499999999999886
 21
0.0
 31
0.0
  0
LINE
  5
79
330
2
100
AcDbEntity
  8
Arbeitspunkt(DIN)
 48
25.0
100
AcDbLine
 10
0.0000000000001137
 20
0.0
 30
0.0
 11
2.500000000000113
 21
0.0
 31
0.0
  0
LINE
  5
7A
330
2
100
AcDbEntity
  8
GEB-VERDECKT
 48
25.0
100
AcDbLine
 10
33.49999999997726
 20
-12.5
 30
0.0
 11
54.99999999997726
 21
-12.5
 31
0.0
  0
LINE
  5
7E
330
2
100
AcDbEntity
  8
GEB-VERDECKT
 48
25.0
100
AcDbLine
 10
9.49999999997749
 20
12.5
 30
0.0
 11
54.99999999997726
 21
12.5
 31
0.0
  0
LINE
  5
7F
330
2
100
AcDbEntity
  8
GEB-KONTUR-A
 48
25.0
100
AcDbLine
 10
39.99999999997454
 20
-50.0
 30
0.0
 11
1.999999999974647
 21
-50.0
 31
0.0
  0
LINE
  5
81
330
2
100
AcDbEntity
  8
GEB-KONTUR-A
 48
25.0
100
AcDbLine
 10
1.999999999974647
 20
-30.0
 30
0.0
 11
1.999999999974647
 21
-50.0
 31
0.0
  0
ELLIPSE
  5
82
330
2
100
AcDbEntity
  8
GEB-VERDECKT
 48
25.0
100
AcDbEllipse
 10
20.99999999997726
 20
-19.91892921458372
 30
0.0
 11
-20.9999999999999
 21
0.0
 31
0.0
210
0.0
220
0.0
230
1.0
 40
0.1405408347023922
 41
4.736200754345944
 42
5.843209352376727
  0
LINE
  5
83
330
2
100
AcDbEntity
  8
GEB-VERDECKT
 48
25.0
100
AcDbLine
 10
1.999999999974647
 20
-18.66189377454725
 30
0.0
 11
1.999999999974647
 21
-30.0
 31
0.0
  0
LINE
  5
84
330
2
100
AcDbEntity
  8
GEB-KONTUR-A
 48
25.0
100
AcDbLine
 10
39.99999999997454
 20
-50.0
 30
0.0
 11
39.99999999997454
 21
-30.0
 31
0.0
  0
LINE
  5
85
330
2
100
AcDbEntity
  8
GEB-KONTUR-A
 48
25.0
100
AcDbLine
 10
1.999999999977376
 20
35.0
 30
0.0
 11
20.49999999997726
 21
35.0
 31
0.0
  0
LINE
  5
86
330
2
100
AcDbEntity
  8
GEB-KONTUR-A
 48
25.0
100
AcDbLine
 10
1.999999999977376
 20
35.0
 30
0.0
 11
1.999999999972033
 21
30.0
 31
0.0
  0
LINE
  5
87
330
2
100
AcDbEntity
  8
GEB-KONTUR-A
 48
25.0
100
AcDbLine
 10
20.49999999997726
 20
35.0
 30
0.0
 11
20.49999999997203
 21
30.0
 31
0.0
  0
LINE
  5
88
330
2
100
AcDbEntity
  8
GEB-VERDECKT
 48
25.0
100
AcDbLine
 10
1.999999999972033
 20
30.0
 30
0.0
 11
1.99999999996703
 21
0.0
 31
0.0
  0
LINE
  5
89
330
2
100
AcDbEntity
  8
GEB-VERDECKT
 48
25.0
100
AcDbLine
 10
1.99999999996703
 20
-13.26142652436749
 30
0.0
 11
1.99999999996703
 21
0.0
 31
0.0
  0
LINE
  5
8A
330
2
100
AcDbEntity
  8
GEB-VERDECKT
 48
25.0
100
AcDbLine
 10
1.99999999996703
 20
-13.26142652436749
 30
0.0
 11
1.999999999967485
 21
-15.24196266185072
 31
0.0
  0
LINE
  5
8B
330
2
100
AcDbEntity
  8
GEB-VERDECKT
 48
25.0
100
AcDbLine
 10
1.999999999974647
 20
-18.66189377454725
 30
0.0
 11
1.999999999967599
 21
-15.24196266185072
 31
0.0
  0
LINE
  5
8C
330
2
100
AcDbEntity
  8
GEB-VERDECKT
 48
25.0
100
AcDbLine
 10
20.49999999997112
 20
-16.96840835701357
 30
0.0
 11
20.49999999996749
 21
-15.24196266185072
 31
0.0
  0
LINE
  5
8D
330
2
100
AcDbEntity
  8
GEB-VERDECKT
 48
25.0
100
AcDbLine
 10
20.49999999996703
 20
-13.26142652436749
 30
0.0
 11
20.49999999996749
 21
-15.24196266185072
 31
0.0
  0
LINE
  5
8E
330
2
100
AcDbEntity
  8
GEB-VERDECKT
 48
25.0
100
AcDbLine
 10
20.49999999996703
 20
-13.26142652436749
 30
0.0
 11
20.49999999996703
 21
0.0
 31
0.0
  0
LINE
  5
8F
330
2
100
AcDbEntity
  8
GEB-VERDECKT
 48
25.0
100
AcDbLine
 10
20.49999999997203
 20
30.0
 30
0.0
 11
20.49999999996703
 21
0.0
 31
0.0
  0
LINE
  5
90
330
2
100
AcDbEntity
  8
GEB-VERDECKT
 48
25.0
100
AcDbLine
 10
33.27802915778079
 20
-4.0
 30
0.0
 11
20.49999999997112
 21
-4.0
 31
0.0
  0
SPLINE
  5
91
330
2
100
AcDbEntity
  8
GEB-VERDECKT
 48
25.0
100
AcDbSpline
210
0.0
220
0.0
230
1.0
 70
     8
 71
     3
 72
    12
 73
     8
 74
     0
 42
0.0000000001
 43
0.0000000001
 40
3.311450438871145
 40
3.311450438871145
 40
3.311450438871145
 40
3.311450438871145
 40
3.361579481505844
 40
3.361579481505844
 40
4.201974351882305
 40
4.201974351882305
 40
4.658402867985611
 40
4.658402867985611
 40
4.658402867985611
 40
4.658402867985611
 10
20.49999999997203
 20
-0.5000000000005685
 30
0.0
 10
20.66623975908465
 20
-0.4953822289140817
 30
0.0
 10
20.83290319118987
 20
-0.493052874302407
 30
0.0
 10
23.80131623456032
 20
-0.493052874302407
 30
0.0
 10
26.48024264281616
 20
-1.168013863088731
 30
0.0
 10
30.50433181102835
 20
-2.694953186402813
 30
0.0
 10
31.90000898651442
 20
-3.323225126285592
 30
0.0
 10
33.27802915778079
 20
-4.0
 30
0.0
  0
LINE
  5
92
330
2
100
AcDbEntity
  8
GEB-VERDECKT
 48
25.0
100
AcDbLine
 10
39.99999999997726
 20
-17.5
 30
0.0
 11
41.99999999997726
 21
-17.5
 31
0.0
  0
LINE
  5
93
330
2
100
AcDbEntity
  8
GEB-VERDECKT
 48
25.0
100
AcDbLine
 10
20.49999999997726
 20
17.5
 30
0.0
 11
41.99999999997726
 21
17.5
 31
0.0
  0
SPLINE
  5
94
330
2
100
AcDbEntity
  8
GEB-VERDECKT
 48
25.0
100
AcDbSpline
210
0.0
220
0.0
230
1.0
 70
     8
 71
     3
 72
    16
 73
    12
 74
     0
 42
0.0000000001
 43
0.0000000001
 40
9.502512983956679
 40
9.502512983956679
 40
9.502512983956679
 40
9.502512983956679
 40
9.61781230693931
 40
9.61781230693931
 40
9.967445179214781
 40
9.967445179214781
 40
10.33188844778205
 40
10.33188844778205
 40
10.69633171634932
 40
10.69633171634932
 40
11.01316083892573
 40
11.01316083892573
 40
11.01316083892573
 40
11.01316083892573
 10
39.99999999997454
 20
-15.04160895649136
 30
0.0
 10
39.84824512167006
 20
-14.84991784843737
 30
0.0
 10
39.6905258524414
 20
-14.64932692035165
 30
0.0
 10
39.03602443090722
 20
-13.80958749040155
 30
0.0
 10
38.50105938180855
 20
-13.10679922232066
 30
0.0
 10
37.41007184001774
 20
-11.61091247034949
 30
0.0
 10
36.81013089427688
 20
-10.75682938460772
 30
0.0
 10
35.61345988220523
 20
-8.905186680336782
 30
0.0
 10
35.01668991275278
 20
-7.908015051774896
 30
0.0
 10
34.01732451042653
 20
-5.943046840074202
 30
0.0
 10
33.59986360894777
 20
-4.987873193853374
 30
0.0
 10
33.27802915778079
 20
-4.0
 30
0.0
  0
LINE
  5
95
330
2
100
AcDbEntity
  8
GEB-KONTUR-A
 48
25.0
100
AcDbLine
 10
41.99999999997726
 20
-17.5
 30
0.0
 11
54.99999999997726
 21
-17.5
 31
0.0
  0
LINE
  5
96
330
2
100
AcDbEntity
  8
GEB-KONTUR-A
 48
25.0
100
AcDbLine
 10
41.99999999997726
 20
17.5
 30
0.0
 11
54.99999999997726
 21
17.5
 31
0.0
  0
LINE
  5
97
330
2
100
AcDbEntity
  8
GEB-KONTUR-A
 48
25.0
100
AcDbLine
 10
54.99999999997726
 20
17.5
 30
0.0
 11
54.99999999997726
 21
-17.5
 31
0.0
  0
LINE
  5
98
330
2
100
AcDbEntity
  8
GEB-VERDECKT
 48
25.0
100
AcDbLine
 10
36.99999999997726
 20
-50.0
 30
0.0
 11
36.99999999997726
 21
-21.0
 31
0.0
  0
LINE
  5
99
330
2
100
AcDbEntity
  8
GEB-VERDECKT
 48
25.0
100
AcDbLine
 10
4.999999999977376
 20
-50.0
 30
0.0
 11
4.999999999977376
 21
-21.0
 31
0.0
  0
LINE
  5
9A
330
2
100
AcDbEntity
  8
GEB-VERDECKT
 48
25.0
100
AcDbLine
 10
33.49999999997726
 20
-17.5
 30
0.0
 11
33.49999999997726
 21
-12.5
 31
0.0
  0
LINE
  5
9B
330
2
100
AcDbEntity
  8
GEB-VERDECKT
 48
25.0
100
AcDbLine
 10
8.499999999977262
 20
-17.5
 30
0.0
 11
8.499999999977262
 21
-15.53562059103501
 31
0.0
  0
LINE
  5
9C
330
2
100
AcDbEntity
  8
GEB-VERDECKT
 48
25.0
100
AcDbLine
 10
8.499999999977262
 20
-17.5
 30
0.0
 11
4.999999999977376
 21
-21.0
 31
0.0
  0
LINE
  5
9D
330
2
100
AcDbEntity
  8
GEB-VERDECKT
 48
25.0
100
AcDbLine
 10
33.49999999997726
 20
-17.5
 30
0.0
 11
36.99999999997726
 21
-21.0
 31
0.0
  0
LINE
  5
9E
330
2
100
AcDbEntity
  8
GEB-VERDECKT
 48
25.0
100
AcDbLine
 10
36.99999999997726
 20
-21.0
 30
0.0
 11
4.999999999977376
 21
-21.0
 31
0.0
  0
LINE
  5
9F
330
2
100
AcDbEntity
  8
GEB-VERDECKT
 48
25.0
100
AcDbLine
 10
33.49999999997726
 20
-17.5
 30
0.0
 11
8.499999999977262
 21
-17.5
 31
0.0
  0
LINE
  5
A0
330
2
100
AcDbEntity
  8
GEB-VERDECKT
 48
25.0
100
AcDbLine
 10
33.49999999997726
 20
-12.5
 30
0.0
 11
9.499999999975898
 21
-12.5
 31
0.0
  0
SPLINE
  5
A1
330
2
100
AcDbEntity
  8
GEB-VERDECKT
 48
25.0
100
AcDbSpline
210
0.0
220
0.0
230
1.0
 70
     8
 71
     3
 72
    28
 73
    24
 74
     0
 42
0.0000000001
 43
0.0000000001
 40
1.647986132873375
 40
1.647986132873375
 40
1.647986132873375
 40
1.647986132873375
 40
1.847271755216796
 40
1.847271755216796
 40
2.046557377560216
 40
2.046557377560216
 40
2.273510805084403
 40
2.273510805084403
 40
2.500464232608591
 40
2.500464232608591
 40
2.898218249177671
 40
2.898218249177671
 40
3.295972265746751
 40
3.295972265746751
 40
3.69372628231583
 40
3.69372628231583
 40
4.091480298884911
 40
4.091480298884911
 40
4.318433726409097
 40
4.318433726409097
 40
4.545387153933284
 40
4.545387153933284
 40
4.593721951894279
 40
4.593721951894279
 40
4.593721951894279
 40
4.593721951894279
 10
33.49999999997726
 20
-12.5
 30
0.0
 10
33.49999999997704
 20
-12.5
 30
0.0
 10
33.38610532847269
 20
-12.44266408500823
 30
0.0
 10
32.9376666100643
 20
-12.22153954414068
 30
0.0
 10
32.60518001988089
 20
-12.05937662914903
 30
0.0
 10
31.82758580888072
 20
-11.69170307494244
 30
0.0
 10
31.29877479804691
 20
-11.44766391325834
 30
0.0
 10
30.11977283380907
 20
-10.93625880074046
 30
0.0
 10
29.4702374328142
 20
-10.67040099090434
 30
0.0
 10
27.75056622384432
 20
-10.02397353761125
 30
0.0
 10
26.46195437407437
 20
-9.602718011177671
 30
0.0
 10
23.75085262802236
 20
-9.004406952851581
 30
0.0
 10
22.32584672187158
 20
-8.838834764831744
 30
0.0
 10
19.67415327807771
 20
-8.838834764831744
 30
0.0
 10
18.24914737192716
 20
-9.004406952851581
 30
0.0
 10
15.53804562587561
 20
-9.602718011177671
 30
0.0
 10
14.24943377610589
 20
-10.02397353761125
 30
0.0
 10
12.52976256713668
 20
-10.67040099090434
 30
0.0
 10
11.88022716614205
 20
-10.93625880074046
 30
0.0
 10
10.70122520190466
 20
-11.44766391325834
 30
0.0
 10
10.17241419107108
 20
-11.69170307494244
 30
0.0
 10
9.670201804477073
 20
-11.92916653664724
 30
0.0
 10
9.583620533336898
 20
-11.97037870719714
 30
0.0
 10
9.500000013047383
 20
-12.01041213694873
 30
0.0
  0
LINE
  5
A2
330
2
100
AcDbEntity
  8
GEB-VERDECKT
 48
25.0
100
AcDbLine
 10
9.49999999997749
 20
30.60694165537723
 30
0.0
 11
1.999999999977376
 21
31.0
 31
0.0
  0
LINE
  5
A3
330
2
100
AcDbEntity
  8
GEB-VERDECKT
 48
25.0
100
AcDbLine
 10
1.999999999968167
 20
-11.5228530487351
 30
0.0
 11
9.499999999968395
 21
-11.18117264256648
 31
0.0
  0
ELLIPSE
  5
A4
330
2
100
AcDbEntity
  8
GEB-VERDECKT
 48
25.0
100
AcDbEllipse
 10
20.99999999997726
 20
-14.87408533435393
 30
0.0
 11
-12.49964227255727
 21
-0.6748069543331999
 31
0.0
210
0.0
220
0.0
230
1.0
 40
0.1401404399067101
 41
5.872903973954276
 42
6.275619815534918
  0
LINE
  5
A5
330
2
100
AcDbEntity
  8
GEB-VERDECKT
 48
25.0
100
AcDbLine
 10
1.999999999977376
 20
-15.87961892450914
 30
0.0
 11
8.499999999977262
 21
-15.53562059103501
 31
0.0
  0
LINE
  5
A6
330
2
100
AcDbEntity
  8
GEB-VERDECKT
 48
25.0
100
AcDbLine
 10
9.49999999997749
 20
30.60694165537723
 30
0.0
 11
9.499999999968395
 21
0.0
 31
0.0
  0
LINE
  5
A7
330
2
100
AcDbEntity
  8
GEB-VERDECKT
 48
25.0
100
AcDbLine
 10
9.499999999968395
 20
-11.18117264256648
 30
0.0
 11
9.499999999968395
 21
0.0
 31
0.0
  0
LINE
  5
A8
330
2
100
AcDbEntity
  8
GEB-VERDECKT
 48
25.0
100
AcDbLine
 10
9.499999999968622
 20
-11.40701356413126
 30
0.0
 11
9.499999999968395
 21
-11.18117264256648
 31
0.0
  0
LINE
  5
A9
330
2
100
AcDbEntity
  8
GEB-VERDECKT
 48
25.0
100
AcDbLine
 10
9.499999999975898
 20
-14.79419110440915
 30
0.0
 11
9.499999999970441
 21
-12.17915486618551
 31
0.0
  0
LINE
  5
AA
330
2
100
AcDbEntity
  8
GEB-VERDECKT
 48
25.0
100
AcDbLine
 10
7.299999999981764
 20
16.107551910903
 30
0.0
 11
6.499999999981582
 21
16.107551910903
 31
0.0
  0
LINE
  5
AB
330
2
100
AcDbEntity
  8
GEB-VERDECKT
 48
25.0
100
AcDbLine
 10
7.299999999981764
 20
13.107551910903
 30
0.0
 11
6.499999999981582
 21
13.107551910903
 31
0.0
  0
LINE
  5
AC
330
2
100
AcDbEntity
  8
GEB-VERDECKT
 48
25.0
100
AcDbLine
 10
7.299999999971078
 20
1.500000000000113
 30
0.0
 11
6.499999999971123
 21
1.500000000000113
 31
0.0
  0
LINE
  5
AD
330
2
100
AcDbEntity
  8
GEB-VERDECKT
 48
25.0
100
AcDbLine
 10
7.299999999971078
 20
-1.5
 30
0.0
 11
6.499999999971123
 21
-1.5
 31
0.0
  0
LINE
  5
AE
330
2
100
AcDbEntity
  8
GEB-VERDECKT
 48
25.0
100
AcDbLine
 10
7.299999999977217
 20
22.15819802546787
 30
0.0
 11
6.499999999977262
 21
22.15819802546787
 31
0.0
  0
LINE
  5
AF
330
2
100
AcDbEntity
  8
GEB-VERDECKT
 48
25.0
100
AcDbLine
 10
7.299999999977217
 20
19.15819802546798
 30
0.0
 11
6.499999999977262
 21
19.15819802546798
 31
0.0
  0
LINE
  5
B0
330
2
100
AcDbEntity
  8
GEB-VERDECKT
 48
25.0
100
AcDbLine
 10
-0.0000000000184173
 20
11.50755191090286
 30
0.0
 11
2.999999999981582
 21
11.50755191090286
 31
0.0
  0
LINE
  5
B1
330
2
100
AcDbEntity
  8
GEB-VERDECKT
 48
25.0
100
AcDbLine
 10
-0.0000000000184173
 20
17.70755191090291
 30
0.0
 11
2.999999999981582
 21
17.70755191090291
 31
0.0
  0
LINE
  5
B2
330
2
100
AcDbEntity
  8
GEB-VERDECKT
 48
25.0
100
AcDbLine
 10
-0.0000000000226237
 20
17.55819802546784
 30
0.0
 11
2.999999999977262
 21
17.55819802546784
 31
0.0
  0
LINE
  5
B3
330
2
100
AcDbEntity
  8
GEB-VERDECKT
 48
25.0
100
AcDbLine
 10
-0.0000000000226237
 20
23.75819802546789
 30
0.0
 11
2.999999999977262
 21
23.75819802546789
 31
0.0
  0
LINE
  5
B4
330
2
100
AcDbEntity
  8
GEB-VERDECKT
 48
25.0
100
AcDbLine
 10
-0.0000000000287628
 20
-3.100000000000022
 30
0.0
 11
2.999999999971237
 21
-3.100000000000022
 31
0.0
  0
LINE
  5
B5
330
2
100
AcDbEntity
  8
GEB-VERDECKT
 48
25.0
100
AcDbLine
 10
-0.0000000000287628
 20
3.100000000000022
 30
0.0
 11
2.999999999971237
 21
3.100000000000022
 31
0.0
  0
LINE
  5
B6
330
2
100
AcDbEntity
  8
GEB-VERDECKT
 48
25.0
100
AcDbLine
 10
-0.0000000000226237
 20
28.99999999999989
 30
0.0
 11
9.499999999977262
 21
28.99999999999989
 31
0.0
  0
LINE
  5
B7
330
2
100
AcDbEntity
  8
GEB-VERDECKT
 48
25.0
100
AcDbLine
 10
9.499999999968622
 20
-11.98729768473924
 30
0.0
 11
9.499999999968622
 21
-11.40701356413114
 31
0.0
  0
LINE
  5
B8
330
2
100
AcDbEntity
  8
GEB-VERDECKT
 48
25.0
100
AcDbLine
 10
-0.0000000000226237
 20
-12.99999999999988
 30
0.0
 11
2.999999999977262
 21
-12.99999999999988
 31
0.0
  0
LINE
  5
B9
330
2
100
AcDbEntity
  8
GEB-VERDECKT
 48
25.0
100
AcDbLine
 10
-0.0000000000313776
 20
-11.98729768473924
 30
0.0
 11
9.499999999968622
 21
-11.98729768473924
 31
0.0
  0
LINE
  5
BA
330
2
100
AcDbEntity
  8
GEB-VERDECKT
 48
25.0
100
AcDbLine
 10
9.499999999970214
 20
-12.1791548661854
 30
0.0
 11
9.499999999968622
 21
-11.98729768473924
 31
0.0
  0
LINE
  5
BB
330
2
100
AcDbEntity
  8
GEB-VERDECKT
 48
25.0
100
AcDbLine
 10
9.499999999977262
 20
13.0
 30
0.0
 11
6.499999999977262
 21
13.0
 31
0.0
  0
LINE
  5
BC
330
2
100
AcDbEntity
  8
GEB-VERDECKT
 48
25.0
100
AcDbLine
 10
6.499999999973397
 20
-12.54602999660721
 30
0.0
 11
9.499999999973397
 21
-12.54602999660721
 31
0.0
  0
LINE
  5
BD
330
2
100
AcDbEntity
  8
GEB-VERDECKT
 48
25.0
100
AcDbLine
 10
6.499999999977262
 20
26.0
 30
0.0
 11
2.999999999977262
 21
26.0
 31
0.0
  0
LINE
  5
BE
330
2
100
AcDbEntity
  8
GEB-VERDECKT
 48
25.0
100
AcDbLine
 10
2.999999999977262
 20
-12.99999999999988
 30
0.0
 11
2.999999999970441
 21
-12.19682230168973
 31
0.0
  0
LINE
  5
BF
330
2
100
AcDbEntity
  8
GEB-VERDECKT
 48
25.0
100
AcDbLine
 10
2.999999999970441
 20
-12.19682230168973
 30
0.0
 11
6.499999999970441
 21
-12.19682230168973
 31
0.0
  0
LINE
  5
C0
330
2
100
AcDbEntity
  8
GEB-VERDECKT
 48
25.0
100
AcDbLine
 10
2.999999999970441
 20
-9.39682230168978
 30
0.0
 11
2.999999999970441
 21
-12.19682230168973
 31
0.0
  0
LINE
  5
C1
330
2
100
AcDbEntity
  8
GEB-VERDECKT
 48
25.0
100
AcDbLine
 10
6.499999999970441
 20
-9.39682230168978
 30
0.0
 11
2.999999999970441
 21
-9.39682230168978
 31
0.0
  0
LINE
  5
C2
330
2
100
AcDbEntity
  8
GEB-VERDECKT
 48
25.0
100
AcDbLine
 10
2.999999999970441
 20
-9.39682230168978
 30
0.0
 11
2.999999999969645
 21
-6.396822301689894
 31
0.0
  0
LINE
  5
C3
330
2
100
AcDbEntity
  8
GEB-VERDECKT
 48
25.0
100
AcDbLine
 10
2.999999999969645
 20
-2.289032718806083
 30
0.0
 11
2.999999999969645
 21
-6.396822301689667
 31
0.0
  0
LINE
  5
C4
330
2
100
AcDbEntity
  8
GEB-VERDECKT
 48
25.0
100
AcDbLine
 10
6.499999999969531
 20
-1.243927105436682
 30
0.0
 11
6.499999999969531
 21
-6.396822301689667
 31
0.0
  0
LINE
  5
C5
330
2
100
AcDbEntity
  8
GEB-VERDECKT
 48
25.0
100
AcDbLine
 10
6.499999999970441
 20
-9.39682230168978
 30
0.0
 11
6.499999999969531
 21
-6.396822301689894
 31
0.0
  0
LINE
  5
C6
330
2
100
AcDbEntity
  8
GEB-VERDECKT
 48
25.0
100
AcDbLine
 10
6.499999999970441
 20
-9.39682230168978
 30
0.0
 11
6.499999999970441
 21
-12.19682230168973
 31
0.0
  0
LINE
  5
C7
330
2
100
AcDbEntity
  8
GEB-VERDECKT
 48
25.0
100
AcDbLine
 10
6.499999999970441
 20
-12.19682230168973
 30
0.0
 11
6.499999999973397
 21
-12.54602999660721
 31
0.0
  0
LINE
  5
C8
330
2
100
AcDbEntity
  8
GEB-VERDECKT
 48
25.0
100
AcDbLine
 10
9.499999999977262
 20
23.75819802546789
 30
0.0
 11
7.299999999977217
 21
23.75819802546789
 31
0.0
  0
LINE
  5
C9
330
2
100
AcDbEntity
  8
GEB-VERDECKT
 48
25.0
100
AcDbLine
 10
9.499999999977262
 20
17.55819802546784
 30
0.0
 11
7.299999999977217
 21
17.55819802546784
 31
0.0
  0
LINE
  5
CA
330
2
100
AcDbEntity
  8
GEB-VERDECKT
 48
25.0
100
AcDbLine
 10
9.499999999971123
 20
3.100000000000022
 30
0.0
 11
7.299999999971078
 21
3.100000000000022
 31
0.0
  0
LINE
  5
CB
330
2
100
AcDbEntity
  8
GEB-VERDECKT
 48
25.0
100
AcDbLine
 10
9.499999999971123
 20
-3.100000000000022
 30
0.0
 11
7.299999999971078
 21
-3.100000000000022
 31
0.0
  0
LINE
  5
CC
330
2
100
AcDbEntity
  8
GEB-VERDECKT
 48
25.0
100
AcDbLine
 10
9.499999999981582
 20
17.70755191090291
 30
0.0
 11
7.299999999981764
 21
17.70755191090291
 31
0.0
  0
LINE
  5
CD
330
2
100
AcDbEntity
  8
GEB-VERDECKT
 48
25.0
100
AcDbLine
 10
9.499999999981582
 20
11.50755191090286
 30
0.0
 11
7.299999999981764
 21
11.50755191090286
 31
0.0
  0
LINE
  5
CE
330
2
100
AcDbEntity
  8
GEB-VERDECKT
 48
25.0
100
AcDbLine
 10
7.299999999977217
 20
17.55819802546784
 30
0.0
 11
7.299999999977217
 21
23.75819802546789
 31
0.0
  0
LINE
  5
CF
330
2
100
AcDbEntity
  8
GEB-VERDECKT
 48
25.0
100
AcDbLine
 10
7.299999999971078
 20
-3.100000000000022
 30
0.0
 11
7.299999999971078
 21
3.100000000000022
 31
0.0
  0
LINE
  5
D0
330
2
100
AcDbEntity
  8
GEB-VERDECKT
 48
25.0
100
AcDbLine
 10
7.299999999981764
 20
11.50755191090286
 30
0.0
 11
7.299999999981309
 21
17.55819802546784
 31
0.0
  0
LINE
  5
D1
330
2
100
AcDbEntity
  8
GEB-VERDECKT
 48
25.0
100
AcDbLine
 10
-0.0000000000226237
 20
-17.19999999999993
 30
0.0
 11
-2.000000000022737
 21
-17.19999999999993
 31
0.0
  0
LINE
  5
D2
330
2
100
AcDbEntity
  8
GEB-VERDECKT
 48
25.0
100
AcDbLine
 10
-0.0000000000226237
 20
-22.79999999999995
 30
0.0
 11
-2.000000000022737
 21
-22.79999999999995
 31
0.0
  0
LINE
  5
D3
330
2
100
AcDbEntity
  8
GEB-VERDECKT
 48
25.0
100
AcDbLine
 10
-0.0000000000268301
 20
-11.342135623731
 30
0.0
 11
-2.00000000002683
 21
-11.342135623731
 31
0.0
  0
LINE
  5
D4
330
2
100
AcDbEntity
  8
GEB-VERDECKT
 48
25.0
100
AcDbLine
 10
-0.0000000000268301
 20
-16.9421356237309
 30
0.0
 11
-2.00000000002683
 21
-16.9421356237309
 31
0.0
  0
LINE
  5
D5
330
2
100
AcDbEntity
  8
GEB-VERDECKT
 48
25.0
100
AcDbLine
 10
-0.0000000000286491
 20
2.800000000000068
 30
0.0
 11
-2.000000000028649
 21
2.800000000000068
 31
0.0
  0
LINE
  5
D6
330
2
100
AcDbEntity
  8
GEB-VERDECKT
 48
25.0
100
AcDbLine
 10
-0.0000000000286491
 20
-2.799999999999954
 30
0.0
 11
-2.000000000028649
 21
-2.799999999999954
 31
0.0
  0
LINE
  5
D7
330
2
100
AcDbEntity
  8
GEB-VERDECKT
 48
25.0
100
AcDbLine
 10
-0.0000000000268301
 20
16.9421356237309
 30
0.0
 11
-2.00000000002683
 21
16.9421356237309
 31
0.0
  0
LINE
  5
D8
330
2
100
AcDbEntity
  8
GEB-VERDECKT
 48
25.0
100
AcDbLine
 10
-0.0000000000268301
 20
11.342135623731
 30
0.0
 11
-2.00000000002683
 21
11.342135623731
 31
0.0
  0
LINE
  5
D9
330
2
100
AcDbEntity
  8
GEB-VERDECKT
 48
25.0
100
AcDbLine
 10
-0.0000000000226237
 20
22.80000000000007
 30
0.0
 11
-2.000000000022737
 21
22.80000000000007
 31
0.0
  0
LINE
  5
DA
330
2
100
AcDbEntity
  8
GEB-VERDECKT
 48
25.0
100
AcDbLine
 10
-0.0000000000226237
 20
17.20000000000004
 30
0.0
 11
-2.000000000022737
 21
17.20000000000004
 31
0.0
  0
LINE
  5
DB
330
2
100
AcDbEntity
  8
GEB-VERDECKT
 48
25.0
100
AcDbLine
 10
-0.0000000000344471
 20
5.0
 30
0.0
 11
-2.000000000034447
 21
5.0
 31
0.0
  0
LINE
  5
DC
330
2
100
AcDbEntity
  8
GEB-VERDECKT
 48
25.0
100
AcDbLine
 10
-0.0000000000344471
 20
-5.0
 30
0.0
 11
-2.000000000034447
 21
-5.0
 31
0.0
  0
LINE
  5
DD
330
2
100
AcDbEntity
  8
GEB-VERDECKT
 48
25.0
100
AcDbLine
 10
-0.0000000000226237
 20
15.25000000000011
 30
0.0
 11
-2.000000000022737
 21
15.25000000000011
 31
0.0
  0
LINE
  5
DE
330
2
100
AcDbEntity
  8
GEB-VERDECKT
 48
25.0
100
AcDbLine
 10
-0.0000000000226237
 20
-15.25
 30
0.0
 11
-2.000000000022737
 21
-15.25
 31
0.0
  0
LINE
  5
DF
330
2
100
AcDbEntity
  8
GEB-VERDECKT
 48
25.0
100
AcDbLine
 10
41.9999999999145
 20
-14.75
 30
0.0
 11
39.99999999991428
 21
-14.75
 31
0.0
  0
LINE
  5
E0
330
2
100
AcDbEntity
  8
GEB-VERDECKT
 48
25.0
100
AcDbLine
 10
41.9999999999145
 20
14.75
 30
0.0
 11
39.99999999991428
 21
14.75
 31
0.0
  0
LINE
  5
E1
330
2
100
AcDbEntity
  8
GEB-VERDECKT
 48
25.0
100
AcDbLine
 10
41.99999999991951
 20
-3.25
 30
0.0
 11
39.99999999991951
 21
-3.25
 31
0.0
  0
LINE
  5
E2
330
2
100
AcDbEntity
  8
GEB-VERDECKT
 48
25.0
100
AcDbLine
 10
41.99999999991951
 20
3.250000000000113
 30
0.0
 11
39.99999999991951
 21
3.250000000000113
 31
0.0
  0
LINE
  5
E3
330
2
100
AcDbEntity
  8
GEB-KONTUR-A
 48
25.0
100
AcDbLine
 10
41.9999999999145
 20
30.0
 30
0.0
 11
41.99999999991155
 21
20.0
 31
0.0
  0
LINE
  5
E4
330
2
100
AcDbEntity
  8
GEB-KONTUR-A
 48
25.0
100
AcDbLine
 10
41.99999999991155
 20
20.0
 30
0.0
 11
39.99999999991132
 21
20.0
 31
0.0
  0
LINE
  5
E5
330
2
100
AcDbEntity
  8
GEB-KONTUR-A
 48
25.0
100
AcDbLine
 10
39.99999999991132
 20
20.0
 30
0.0
 11
39.99999999991428
 21
30.0
 31
0.0
  0
LINE
  5
E6
330
2
100
AcDbEntity
  8
GEB-KONTUR-A
 48
25.0
100
AcDbLine
 10
39.99999999991132
 20
-20.0
 30
0.0
 11
41.99999999991155
 21
-20.0
 31
0.0
  0
LINE
  5
E7
330
2
100
AcDbEntity
  8
GEB-KONTUR-A
 48
25.0
100
AcDbLine
 10
41.99999999991155
 20
-20.0
 30
0.0
 11
41.9999999999145
 21
-30.0
 31
0.0
  0
LINE
  5
E8
330
2
100
AcDbEntity
  8
GEB-KONTUR-A
 48
25.0
100
AcDbLine
 10
39.99999999991428
 20
-30.0
 30
0.0
 11
39.99999999991132
 21
-20.0
 31
0.0
  0
LINE
  5
E9
330
2
100
AcDbEntity
  8
GEB-KONTUR-A
 48
25.0
100
AcDbLine
 10
41.9999999999145
 20
-30.0
 30
0.0
 11
39.99999999991428
 21
-30.0
 31
0.0
  0
LINE
  5
EA
330
2
100
AcDbEntity
  8
GEB-KONTUR-A
 48
25.0
100
AcDbLine
 10
39.99999999991428
 20
30.0
 30
0.0
 11
41.9999999999145
 21
30.0
 31
0.0
  0
LINE
  5
EB
330
2
100
AcDbEntity
  8
GEB-VERDECKT
 48
25.0
100
AcDbLine
 10
-0.0000000000362661
 20
-30.0
 30
0.0
 11
-0.0000000000362661
 21
30.0
 31
0.0
  0
LINE
  5
EC
330
2
100
AcDbEntity
  8
GEB-KONTUR-A
 48
25.0
100
AcDbLine
 10
39.99999999991132
 20
-20.0
 30
0.0
 11
39.99999999991132
 21
20.0
 31
0.0
  0
LINE
  5
ED
330
2
100
AcDbEntity
  8
GEB-KONTUR-A
 48
25.0
100
AcDbLine
 10
-2.000000000036607
 20
-30.0
 30
0.0
 11
-2.000000000036607
 21
30.0
 31
0.0
  0
LINE
  5
EE
330
2
100
AcDbEntity
  8
GEB-KONTUR-A
 48
25.0
100
AcDbLine
 10
41.99999999991155
 20
-20.0
 30
0.0
 11
41.99999999991155
 21
20.0
 31
0.0
  0
LINE
  5
EF
330
2
100
AcDbEntity
  8
GEB-KONTUR-A
 48
25.0
100
AcDbLine
 10
2.999999999962028
 20
-30.0
 30
0.0
 11
-2.000000000036607
 21
-30.0
 31
0.0
  0
LINE
  5
F0
330
2
100
AcDbEntity
  8
GEB-KONTUR-A
 48
25.0
100
AcDbLine
 10
2.999999999962028
 20
-30.0
 30
0.0
 11
36.9999999999618
 21
-30.0
 31
0.0
  0
LINE
  5
F1
330
2
100
AcDbEntity
  8
GEB-KONTUR-A
 48
25.0
100
AcDbLine
 10
36.9999999999618
 20
-30.0
 30
0.0
 11
39.99999999996112
 21
-30.0
 31
0.0
  0
LINE
  5
F2
330
2
100
AcDbEntity
  8
GEB-KONTUR-A
 48
25.0
100
AcDbLine
 10
39.99999999996112
 20
30.0
 30
0.0
 11
36.9999999999618
 21
30.0
 31
0.0
  0
LINE
  5
F3
330
2
100
AcDbEntity
  8
GEB-KONTUR-A
 48
25.0
100
AcDbLine
 10
36.9999999999618
 20
30.0
 30
0.0
 11
2.999999999962028
 21
30.0
 31
0.0
  0
LINE
  5
F4
330
2
100
AcDbEntity
  8
GEB-KONTUR-A
 48
25.0
100
AcDbLine
 10
-2.000000000036607
 20
30.0
 30
0.0
 11
2.999999999961801
 21
30.0
 31
0.0
  0
LINE
  5
F5
330
2
100
AcDbEntity
  8
GEB-VERDECKT
 48
25.0
100
AcDbLine
 10
0.0
 20
15.0
 30
0.0
 11
-2.000000000000113
 21
15.0
 31
0.0
  0
LINE
  5
F6
330
2
100
AcDbEntity
  8
GEB-VERDECKT
 48
25.0
100
AcDbLine
 10
0.0
 20
-15.0
 30
0.0
 11
-2.000000000000113
 21
-15.0
 31
0.0
  0
LINE
  5
F7
330
2
100
AcDbEntity
  8
GEB-KONTUR-A
 48
25.0
100
AcDbLine
 10
25.99999999997408
 20
-55.64993281746263
 30
0.0
 11
15.99999999997408
 21
-55.64993281746263
 31
0.0
  0
LINE
  5
F8
330
2
100
AcDbEntity
  8
GEB-VERDECKT
 48
25.0
100
AcDbLine
 10
25.9999999999734
 20
-45.50000000000011
 30
0.0
 11
15.99999999997339
 21
-45.50000000000011
 31
0.0
  0
SPLINE
  5
F9
330
2
100
AcDbEntity
  8
GEB-VERDECKT
 48
25.0
100
AcDbSpline
210
0.0
220
0.0
230
1.0
 70
     8
 71
     3
 72
    14
 73
    10
 74
     0
 42
0.0000000001
 43
0.0000000001
 40
0.3072577440109771
 40
0.3072577440109771
 40
0.3072577440109771
 40
0.3072577440109771
 40
0.3453821699580131
 40
0.3453821699580131
 40
0.383506595905049
 40
0.383506595905049
 40
0.4225281117749357
 40
0.4225281117749357
 40
0.4615496276448223
 40
0.4615496276448223
 40
0.4615496276448223
 40
0.4615496276448223
 10
15.99999999997339
 20
-37.05000000000007
 30
0.0
 10
15.99999999997339
 20
-37.1770814198236
 30
0.0
 10
16.02572703928649
 20
-37.31190017049698
 30
0.0
 10
16.12846427441423
 20
-37.55815845959467
 30
0.0
 10
16.20542470259397
 20
-37.66963826499398
 30
0.0
 10
16.38241992005351
 20
-37.8466334824534
 30
0.0
 10
16.49510680128401
 20
-37.92339140726119
 30
0.0
 10
16.74123543393284
 20
-38.02507466447753
 30
0.0
 10
16.87470297354503
 20
-38.05000000000007
 30
0.0
 10
16.99999999997317
 20
-38.05000000000007
 30
0.0
  0
SPLINE
  5
FA
330
2
100
AcDbEntity
  8
GEB-VERDECKT
 48
25.0
100
AcDbSpline
210
0.0
220
0.0
230
1.0
 70
     8
 71
     3
 72
    14
 73
    10
 74
     0
 42
0.0000000001
 43
0.0000000001
 40
0.1529682240815632
 40
0.1529682240815632
 40
0.1529682240815632
 40
0.1529682240815632
 40
0.1924673699099895
 40
0.1924673699099895
 40
0.2319665157384157
 40
0.2319665157384157
 40
0.2696121298746964
 40
0.2696121298746964
 40
0.3072577440109771
 40
0.3072577440109771
 40
0.3072577440109771
 40
0.3072577440109771
 10
24.99999999997317
 20
-38.05000000000007
 30
0.0
 10
25.12683068321099
 20
-38.05000000000007
 30
0.0
 10
25.26182747023404
 20
-38.02446691070577
 30
0.0
 10
25.51030870026193
 20
-37.92047366669215
 30
0.0
 10
25.62382037364614
 20
-37.84201415810196
 30
0.0
 10
25.79923511098491
 20
-37.66331473052981
 30
0.0
 10
25.87450125094779
 20
-37.55263227415435
 30
0.0
 10
25.97490856987247
 20
-37.30873709379773
 30
0.0
 10
25.9999999999734
 20
-37.17548538045435
 30
0.0
 10
25.9999999999734
 20
-37.05000000000007
 30
0.0
  0
SPLINE
  5
FB
330
2
100
AcDbEntity
  8
GEB-VERDECKT
 48
25.0
100
AcDbSpline
210
0.0
220
0.0
230
1.0
 70
    28
 71
     2
 72
     6
 73
     3
 74
     0
 42
0.0000000001
 43
0.0000000001
 40
0.6154343969347047
 40
0.6154343969347047
 40
0.6154343969347047
 40
1.053588082563648
 40
1.053588082563648
 40
1.053588082563648
 10
15.99999999997362
 20
-49.99999999999943
 30
0.0
 41
1.002647537543031
 10
15.99999999997339
 20
-47.85416696476613
 30
0.0
 41
1.002266215552275
 10
15.99999999997339
 20
-45.50000000000011
 30
0.0
 41
1.0
  0
SPLINE
  5
FC
330
2
100
AcDbEntity
  8
GEB-VERDECKT
 48
25.0
100
AcDbSpline
210
0.0
220
0.0
230
1.0
 70
     8
 71
     3
 72
     8
 73
     4
 74
     0
 42
0.0000000001
 43
0.0000000001
 40
0.5862448890998734
 40
0.5862448890998734
 40
0.5862448890998734
 40
0.5862448890998734
 40
1.052443047124898
 40
1.052443047124898
 40
1.052443047124898
 40
1.052443047124898
 10
14.46001433841866
 20
-49.99999997201178
 30
0.0
 10
14.42050869540435
 20
-48.50179793925452
 30
0.0
 10
14.38083393767465
 20
-46.99497667183118
 30
0.0
 10
14.34152639976332
 20
-45.49999999999999
 30
0.0
  0
SPLINE
  5
FD
330
2
100
AcDbEntity
  8
GEB-KONTUR-A
 48
25.0
100
AcDbSpline
210
0.0
220
0.0
230
1.0
 70
    28
 71
     2
 72
     6
 73
     3
 74
     0
 42
0.0000000001
 43
0.0000000001
 40
0.0
 40
0.0
 40
0.0
 40
0.6154343969347047
 40
0.6154343969347047
 40
0.6154343969347047
 10
15.99999999997408
 20
-55.64993281746263
 30
0.0
 41
1.0
 10
15.99999999997385
 20
-53.01130044043202
 30
0.0
 41
1.003183145657526
 10
15.99999999997362
 20
-49.99999999999943
 30
0.0
 41
1.002647537543031
  0
SPLINE
  5
FE
330
2
100
AcDbEntity
  8
GEB-KONTUR-A
 48
25.0
100
AcDbSpline
210
0.0
220
0.0
230
1.0
 70
     8
 71
     3
 72
    10
 73
     6
 74
     0
 42
0.0000000001
 43
0.0000000001
 40
0.0
 40
0.0
 40
0.0
 40
0.0
 40
0.4966101253357071
 40
0.4966101253357071
 40
0.5862448890998734
 40
0.5862448890998734
 40
0.5862448890998734
 40
0.5862448890998734
 10
14.6093266352882
 20
-55.65189803420287
 30
0.0
 10
14.56723535031801
 20
-54.06160716148292
 30
0.0
 10
14.52477108874859
 20
-52.45466471090321
 30
0.0
 10
14.47519939082144
 20
-50.57579252568018
 30
0.0
 10
14.46760999043476
 20
-50.288055561605
 30
0.0
 10
14.46001433841866
 20
-49.99999997201178
 30
0.0
  0
LINE
  5
FF
330
2
100
AcDbEntity
  8
GEB-KONTUR-A
 48
25.0
100
AcDbLine
 10
15.99999999997408
 20
-55.64993281746263
 30
0.0
 11
14.6093266352882
 21
-55.65189803420287
 31
0.0
  0
LINE
  5
100
330
2
100
AcDbEntity
  8
GEB-KONTUR-A
 48
25.0
100
AcDbLine
 10
15.99999999997408
 20
-55.64993281746263
 30
0.0
 11
15.99999999997385
 21
-55.65726906904763
 31
0.0
  0
ELLIPSE
  5
101
330
2
100
AcDbEntity
  8
GEB-KONTUR-A
 48
25.0
100
AcDbEllipse
 10
20.99999999997749
 20
-55.55986184669689
 30
0.0
 11
13.14204038570082
 21
-0.0000000000001007
 31
0.0
210
0.0
220
0.0
230
1.0
 40
0.0080145929206698
 41
4.204564859826795
 42
4.322097030475372
  0
LINE
  5
102
330
2
100
AcDbEntity
  8
GEB-VERDECKT
 48
25.0
100
AcDbLine
 10
24.99999999997317
 20
-38.05000000000007
 30
0.0
 11
16.99999999997317
 21
-38.05000000000007
 31
0.0
  0
SPLINE
  5
103
330
2
100
AcDbEntity
  8
GEB-KONTUR-A
 48
25.0
100
AcDbSpline
210
0.0
220
0.0
230
1.0
 70
    28
 71
     2
 72
     6
 73
     3
 74
     0
 42
0.0000000001
 43
0.0000000001
 40
0.0
 40
0.0
 40
0.0
 40
0.0232265546373451
 40
0.0232265546373451
 40
0.0232265546373451
 10
15.99999999997385
 20
-55.85818443314519
 30
0.0
 41
1.0
 10
15.99999999997385
 20
-55.75796524651412
 30
0.0
 41
1.000111261947532
 10
15.99999999997385
 20
-55.65726906904763
 30
0.0
 41
1.00021772128319
  0
SPLINE
  5
104
330
2
100
AcDbEntity
  8
GEB-KONTUR-A
 48
25.0
100
AcDbSpline
210
0.0
220
0.0
230
1.0
 70
    28
 71
     2
 72
     6
 73
     3
 74
     0
 42
0.0000000001
 43
0.0000000001
 40
1.052951063042367
 40
1.052951063042367
 40
1.052951063042367
 40
1.076177617679746
 40
1.076177617679746
 40
1.076177617679746
 10
25.99999999997385
 20
-55.65726906904763
 30
0.0
 41
1.000217721283227
 10
25.99999999997385
 20
-55.75796524651412
 30
0.0
 41
1.000111261947551
 10
25.99999999997385
 20
-55.85818443314519
 30
0.0
 41
1.0
  0
LINE
  5
105
330
2
100
AcDbEntity
  8
GEB-KONTUR-A
 48
25.0
100
AcDbLine
 10
25.99999999997385
 20
-55.65726906904763
 30
0.0
 11
25.99999999997408
 21
-55.64993281746263
 31
0.0
  0
ELLIPSE
  5
106
330
2
100
AcDbEntity
  8
GEB-KONTUR-A
 48
25.0
100
AcDbEllipse
 10
20.99999999997749
 20
-55.55986184669689
 30
0.0
 11
13.14204038570082
 21
-0.0000000000001063
 31
0.0
210
0.0
220
0.0
230
1.0
 40
0.0080145929206698
 41
5.10268093029305
 42
5.220213100941528
  0
LINE
  5
107
330
2
100
AcDbEntity
  8
GEB-KONTUR-A
 48
25.0
100
AcDbLine
 10
25.99999999997408
 20
-55.64993281746263
 30
0.0
 11
27.39067336465996
 21
-55.65189803420287
 31
0.0
  0
SPLINE
  5
108
330
2
100
AcDbEntity
  8
GEB-KONTUR-A
 48
25.0
100
AcDbSpline
210
0.0
220
0.0
230
1.0
 70
    28
 71
     2
 72
     6
 73
     3
 74
     0
 42
0.0000000001
 43
0.0000000001
 40
0.4381536856286074
 40
0.4381536856286074
 40
0.4381536856286074
 40
1.053588082563648
 40
1.053588082563648
 40
1.053588082563648
 10
25.99999999997363
 20
-49.99999999999807
 30
0.0
 41
1.002647537543421
 10
25.99999999997385
 20
-53.01130044043157
 30
0.0
 41
1.003183145657997
 10
25.99999999997408
 20
-55.64993281746263
 30
0.0
 41
1.0
  0
SPLINE
  5
109
330
2
100
AcDbEntity
  8
GEB-KONTUR-A
 48
25.0
100
AcDbSpline
210
0.0
220
0.0
230
1.0
 70
     8
 71
     3
 72
    10
 73
     6
 74
     0
 42
0.0000000001
 43
0.0000000001
 40
0.4657906707169818
 40
0.4657906707169818
 40
0.4657906707169818
 40
0.4657906707169818
 40
0.5547545270202581
 40
0.5547545270202581
 40
1.051513804832344
 40
1.051513804832344
 40
1.051513804832344
 40
1.051513804832344
 10
27.5399856624424
 20
-49.99999997238887
 30
0.0
 10
27.53244033466285
 20
-50.28614707106749
 30
0.0
 10
27.52490118765036
 20
-50.57197930455709
 30
0.0
 10
27.47532999761665
 20
-52.45083929495581
 30
0.0
 10
27.43281453306849
 20
-54.05972246783552
 30
0.0
 10
27.39067336465996
 20
-55.65189803420287
 30
0.0
  0
SPLINE
  5
10A
330
2
100
AcDbEntity
  8
GEB-VERDECKT
 48
25.0
100
AcDbSpline
210
0.0
220
0.0
230
1.0
 70
    28
 71
     2
 72
     6
 73
     3
 74
     0
 42
0.0000000001
 43
0.0000000001
 40
0.0
 40
0.0
 40
0.0
 40
0.4381536856286074
 40
0.4381536856286074
 40
0.4381536856286074
 10
25.9999999999734
 20
-45.50000000000011
 30
0.0
 41
1.0
 10
25.9999999999734
 20
-47.8541669647667
 30
0.0
 41
1.002266215552608
 10
25.99999999997363
 20
-49.99999999999807
 30
0.0
 41
1.002647537543421
  0
SPLINE
  5
10B
330
2
100
AcDbEntity
  8
GEB-VERDECKT
 48
25.0
100
AcDbSpline
210
0.0
220
0.0
230
1.0
 70
     8
 71
     3
 72
     8
 73
     4
 74
     0
 42
0.0000000001
 43
0.0000000001
 40
0.0
 40
0.0
 40
0.0
 40
0.0
 40
0.4657906707169818
 40
0.4657906707169818
 40
0.4657906707169818
 40
0.4657906707169818
 10
27.65847360018302
 20
-45.49999999999999
 30
0.0
 10
27.6191656826802
 20
-46.99499110877411
 30
0.0
 10
27.57949095631216
 20
-48.50181121848834
 30
0.0
 10
27.5399856624424
 20
-49.99999997238887
 30
0.0
  0
LINE
  5
10C
330
2
100
AcDbEntity
  8
GEB-KONTUR-A
 48
25.0
100
AcDbLine
 10
7.843275630613561
 20
-55.88288152647442
 30
0.0
 11
7.399999999977353
 21
-56.00000000000012
 31
0.0
  0
LINE
  5
10D
330
2
100
AcDbEntity
  8
GEB-KONTUR-A
 48
25.0
100
AcDbLine
 10
34.15672436934119
 20
-55.88288152647442
 30
0.0
 11
34.5999999999774
 21
-56.00000000000012
 31
0.0
  0
LINE
  5
10E
330
2
100
AcDbEntity
  8
GEB-KONTUR-A
 48
25.0
100
AcDbLine
 10
34.01873492707728
 20
-58.20000000000016
 30
0.0
 11
34.5999999999774
 21
-56.00000000000012
 31
0.0
  0
LINE
  5
10F
330
2
100
AcDbEntity
  8
GEB-KONTUR-A
 48
25.0
100
AcDbLine
 10
7.981265072877476
 20
-58.20000000000016
 30
0.0
 11
7.399999999977353
 21
-56.00000000000012
 31
0.0
  0
LINE
  5
110
330
2
100
AcDbEntity
  8
GEB-KONTUR-A
 48
25.0
100
AcDbLine
 10
34.5999999999774
 20
-56.00000000000012
 30
0.0
 11
7.399999999977353
 21
-56.00000000000012
 31
0.0
  0
LINE
  5
111
330
2
100
AcDbEntity
  8
GEB-KONTUR-A
 48
25.0
100
AcDbLine
 10
34.01873492707728
 20
-58.20000000000016
 30
0.0
 11
7.981265072877476
 21
-58.20000000000016
 31
0.0
  0
LINE
  5
112
330
2
100
AcDbEntity
  8
GEB-KONTUR-A
 48
25.0
100
AcDbLine
 10
15.99999999997385
 20
-55.85818443314519
 30
0.0
 11
11.76288760729744
 21
-55.85818443314519
 31
0.0
  0
LINE
  5
113
330
2
100
AcDbEntity
  8
GEB-KONTUR-A
 48
25.0
100
AcDbLine
 10
30.23711239265185
 20
-55.85818443314519
 30
0.0
 11
25.99999999997385
 21
-55.85818443314519
 31
0.0
  0
LINE
  5
114
330
2
100
AcDbEntity
  8
GEB-VERDECKT
 48
25.0
100
AcDbLine
 10
31.24999999997749
 20
-58.20000000000016
 30
0.0
 11
31.24999999997749
 21
-52.20000000000016
 31
0.0
  0
LINE
  5
115
330
2
100
AcDbEntity
  8
GEB-VERDECKT
 48
25.0
100
AcDbLine
 10
10.74999999997749
 20
-58.20000000000016
 30
0.0
 11
10.74999999997749
 21
-52.20000000000016
 31
0.0
  0
LINE
  5
116
330
2
100
AcDbEntity
  8
GEB-VERDECKT
 48
25.0
100
AcDbLine
 10
31.24999999997726
 20
-52.20000000000016
 30
0.0
 11
31.89807903866381
 21
-50.41941747518729
 31
0.0
  0
LINE
  5
117
330
2
100
AcDbEntity
  8
GEB-VERDECKT
 48
25.0
100
AcDbLine
 10
10.74999999997749
 20
-52.20000000000016
 30
0.0
 11
10.10192096129094
 21
-50.41941747518729
 31
0.0
  0
LINE
  5
118
330
2
100
AcDbEntity
  8
GEB-VERDECKT
 48
25.0
100
AcDbLine
 10
31.89807903866381
 20
-50.41941747518729
 30
0.0
 11
33.24999999997749
 21
-40.80000000000007
 31
0.0
  0
LINE
  5
119
330
2
100
AcDbEntity
  8
GEB-VERDECKT
 48
25.0
100
AcDbLine
 10
10.10192096129094
 20
-50.41941747518729
 30
0.0
 11
8.74999999997749
 21
-40.80000000000007
 31
0.0
  0
LINE
  5
11A
330
2
100
AcDbEntity
  8
GEB-VERDECKT
 48
25.0
100
AcDbLine
 10
34.5999999999774
 20
-40.80000000000007
 30
0.0
 11
34.5999999999774
 21
-24.69282032302761
 31
0.0
  0
LINE
  5
11B
330
2
100
AcDbEntity
  8
GEB-VERDECKT
 48
25.0
100
AcDbLine
 10
7.399999999977353
 20
-32.55000000000007
 30
0.0
 11
7.399999999977353
 21
-24.69282032302761
 31
0.0
  0
LINE
  5
11C
330
2
100
AcDbEntity
  8
GEB-VERDECKT
 48
25.0
100
AcDbLine
 10
7.399999999977353
 20
-40.80000000000007
 30
0.0
 11
7.399999999977353
 21
-32.65000000000009
 31
0.0
  0
LINE
  5
11D
330
2
100
AcDbEntity
  8
GEB-VERDECKT
 48
25.0
100
AcDbLine
 10
34.5999999999774
 20
-24.69282032302761
 30
0.0
 11
34.99999999997726
 21
-24.0
 31
0.0
  0
LINE
  5
11E
330
2
100
AcDbEntity
  8
GEB-VERDECKT
 48
25.0
100
AcDbLine
 10
7.399999999977353
 20
-24.69282032302761
 30
0.0
 11
6.99999999997749
 21
-24.0
 31
0.0
  0
LINE
  5
11F
330
2
100
AcDbEntity
  8
GEB-VERDECKT
 48
25.0
100
AcDbLine
 10
31.24999999997726
 20
-52.20000000000016
 30
0.0
 11
10.74999999997749
 21
-52.20000000000016
 31
0.0
  0
LINE
  5
120
330
2
100
AcDbEntity
  8
GEB-VERDECKT
 48
25.0
100
AcDbLine
 10
31.89807903866381
 20
-50.41941747518729
 30
0.0
 11
10.10192096129094
 21
-50.41941747518729
 31
0.0
  0
LINE
  5
121
330
2
100
AcDbEntity
  8
GEB-VERDECKT
 48
25.0
100
AcDbLine
 10
34.5999999999774
 20
-40.80000000000007
 30
0.0
 11
7.399999999977353
 21
-40.80000000000007
 31
0.0
  0
LINE
  5
122
330
2
100
AcDbEntity
  8
GEB-VERDECKT
 48
25.0
100
AcDbLine
 10
34.5999999999774
 20
-24.69282032302761
 30
0.0
 11
7.399999999977353
 21
-24.69282032302761
 31
0.0
  0
LINE
  5
123
330
2
100
AcDbEntity
  8
GEB-VERDECKT
 48
25.0
100
AcDbLine
 10
14.34152639976332
 20
-45.50000000000011
 30
0.0
 11
9.827712857226742
 21
-45.50000000000011
 31
0.0
  0
LINE
  5
124
330
2
100
AcDbEntity
  8
GEB-VERDECKT
 48
25.0
100
AcDbLine
 10
32.17228714272142
 20
-45.50000000000011
 30
0.0
 11
27.65847360018302
 21
-45.50000000000011
 31
0.0
  0
LINE
  5
125
330
2
100
AcDbEntity
  8
GEB-VERDECKT
 48
25.0
100
AcDbLine
 10
15.99999999997339
 20
-33.55000000000007
 30
0.0
 11
15.99999999997339
 21
-37.05000000000007
 31
0.0
  0
LINE
  5
126
330
2
100
AcDbEntity
  8
GEB-VERDECKT
 48
25.0
100
AcDbLine
 10
15.99999999997339
 20
-45.50000000000011
 30
0.0
 11
15.99999999997339
 21
-37.05000000000007
 31
0.0
  0
LINE
  5
127
330
2
100
AcDbEntity
  8
GEB-VERDECKT
 48
25.0
100
AcDbLine
 10
14.34152639976332
 20
-45.50000000000011
 30
0.0
 11
15.99999999997339
 21
-45.50000000000011
 31
0.0
  0
LINE
  5
128
330
2
100
AcDbEntity
  8
GEB-VERDECKT
 48
25.0
100
AcDbLine
 10
25.9999999999734
 20
-37.05000000000007
 30
0.0
 11
25.9999999999734
 21
-45.50000000000011
 31
0.0
  0
LINE
  5
129
330
2
100
AcDbEntity
  8
GEB-VERDECKT
 48
25.0
100
AcDbLine
 10
25.9999999999734
 20
-37.05000000000007
 30
0.0
 11
25.9999999999734
 21
-33.55000000000007
 31
0.0
  0
LINE
  5
12A
330
2
100
AcDbEntity
  8
GEB-VERDECKT
 48
25.0
100
AcDbLine
 10
27.65847360018302
 20
-45.50000000000011
 30
0.0
 11
25.9999999999734
 21
-45.50000000000011
 31
0.0
  0
LINE
  5
12B
330
2
100
AcDbEntity
  8
GEB-VERDECKT
 48
25.0
100
AcDbLine
 10
14.34152639976332
 20
-45.50000000000011
 30
0.0
 11
14.34152639976332
 21
-33.55000000000007
 31
0.0
  0
LINE
  5
12C
330
2
100
AcDbEntity
  8
GEB-VERDECKT
 48
25.0
100
AcDbLine
 10
27.65847360018302
 20
-33.55000000000007
 30
0.0
 11
27.65847360018302
 21
-45.50000000000011
 31
0.0
  0
LINE
  5
12D
330
2
100
AcDbEntity
  8
GEB-VERDECKT
 48
25.0
100
AcDbLine
 10
14.34195200922363
 20
-33.55000000000007
 30
0.0
 11
14.34152639976332
 21
-33.55000000000007
 31
0.0
  0
SPLINE
  5
12E
330
2
100
AcDbEntity
  8
GEB-VERDECKT
 48
25.0
100
AcDbSpline
210
0.0
220
0.0
230
1.0
 70
    24
 71
     3
 72
     8
 73
     4
 74
     0
 42
0.0000000001
 43
0.0000000001
 40
0.142803462792876
 40
0.142803462792876
 40
0.142803462792876
 40
0.142803462792876
 40
0.1987614655853647
 40
0.1987614655853647
 40
0.1987614655853647
 40
0.1987614655853647
 10
14.89298404062651
 20
-33.55000000000007
 30
0.0
 10
14.70930669685003
 20
-33.55000000000007
 30
0.0
 10
14.52562935307355
 20
-33.55000000000007
 30
0.0
 10
14.34195200929707
 20
-33.55000000000007
 30
0.0
  0
SPLINE
  5
12F
330
2
100
AcDbEntity
  8
GEB-VERDECKT
 48
25.0
100
AcDbSpline
210
0.0
220
0.0
230
1.0
 70
     8
 71
     3
 72
    16
 73
    12
 74
     0
 42
0.0000000001
 43
0.0000000001
 40
0.0
 40
0.0
 40
0.0
 40
0.0
 40
0.127219158998259
 40
0.127219158998259
 40
0.2610507027689845
 40
0.2610507027689845
 40
0.388526019336194
 40
0.388526019336194
 40
0.4532506528758813
 40
0.4532506528758813
 40
0.5165933580561776
 40
0.5165933580561776
 40
0.5165933580561776
 40
0.5165933580561776
 10
14.34195200929753
 20
-33.55000000000007
 30
0.0
 10
14.34195200929753
 20
-33.12593613667252
 30
0.0
 10
14.41924688891322
 20
-32.69685728806326
 30
0.0
 10
14.71848854638642
 20
-31.88969272698091
 30
0.0
 10
14.93450957770028
 20
-31.55158111583887
 30
0.0
 10
15.41427904212401
 20
-31.03062755218741
 30
0.0
 10
15.69173798065844
 20
-30.82345662108298
 30
0.0
 10
16.15836567416249
 20
-30.60592082161714
 30
0.0
 10
16.32281934939624
 20
-30.54938975337416
 30
0.0
 10
16.65864501316855
 20
-30.47428137154168
 30
0.0
 10
16.82856963307472
 20
-30.45519540547616
 30
0.0
 10
16.99999999997294
 20
-30.45519540547616
 30
0.0
  0
SPLINE
  5
130
330
2
100
AcDbEntity
  8
GEB-VERDECKT
 48
25.0
100
AcDbSpline
210
0.0
220
0.0
230
1.0
 70
    24
 71
     3
 72
     8
 73
     4
 74
     0
 42
0.0000000001
 43
0.0000000001
 40
0.0
 40
0.0
 40
0.0
 40
0.0
 40
0.0267669657340522
 40
0.0267669657340522
 40
0.0267669657340522
 40
0.0267669657340522
 10
17.26556962022641
 20
-32.55000000000007
 30
0.0
 10
17.17925300534739
 20
-32.55000000000007
 30
0.0
 10
17.09153321056624
 20
-32.55000000000007
 30
0.0
 10
16.99999999997317
 20
-32.55000000000007
 30
0.0
  0
SPLINE
  5
131
330
2
100
AcDbEntity
  8
GEB-VERDECKT
 48
25.0
100
AcDbSpline
210
0.0
220
0.0
230
1.0
 70
     8
 71
     3
 72
    16
 73
    12
 74
     0
 42
0.0000000001
 43
0.0000000001
 40
0.0136831908681082
 40
0.0136831908681082
 40
0.0136831908681082
 40
0.0136831908681082
 40
0.0403676035692468
 40
0.0403676035692468
 40
0.0812369480020667
 40
0.0812369480020667
 40
0.1211764385122882
 40
0.1211764385122882
 40
0.1469473844068602
 40
0.1469473844068602
 40
0.1724074894212338
 40
0.1724074894212338
 40
0.1724074894212338
 40
0.1724074894212338
 10
16.99999999997317
 20
-32.55000000000007
 30
0.0
 10
16.91231085440881
 20
-32.55000000000007
 30
0.0
 10
16.82491886495177
 20
-32.56153454777689
 30
0.0
 10
16.61016645687368
 20
-32.61933748222782
 30
0.0
 10
16.4885505135062
 20
-32.68019118644815
 30
0.0
 10
16.2790199567512
 20
-32.84464950459597
 30
0.0
 10
16.19221122744284
 20
-32.94583224148369
 30
0.0
 10
16.08574147607965
 20
-33.13595331540649
 30
0.0
 10
16.05364339383573
 20
-33.21568668140287
 30
0.0
 10
16.01079663608902
 20
-33.38071757530383
 30
0.0
 10
15.99999999997339
 20
-33.46514959485205
 30
0.0
 10
15.99999999997339
 20
-33.55000000000007
 30
0.0
  0
SPLINE
  5
132
330
2
100
AcDbEntity
  8
GEB-VERDECKT
 48
25.0
100
AcDbSpline
210
0.0
220
0.0
230
1.0
 70
     8
 71
     3
 72
    16
 73
    12
 74
     0
 42
0.0000000001
 43
0.0000000001
 40
0.0
 40
0.0
 40
0.0
 40
0.0
 40
0.0977908214148685
 40
0.0977908214148685
 40
0.1907138234216205
 40
0.1907138234216205
 40
0.2369768337391462
 40
0.2369768337391462
 40
0.3230789164001324
 40
0.3230789164001324
 40
0.4085954576781561
 40
0.4085954576781561
 40
0.4085954576781561
 40
0.4085954576781561
 10
24.99999999997295
 20
-30.45519540547616
 30
0.0
 10
25.3153503745591
 20
-30.45519540547616
 30
0.0
 10
25.62456714579139
 20
-30.51998530659375
 30
0.0
 10
26.18628829723184
 20
-30.75598775649189
 30
0.0
 10
26.46417510063111
 20
-30.93125642506982
 30
0.0
 10
26.8500499134791
 20
-31.31325176694077
 30
0.0
 10
26.96632644815668
 20
-31.45316146528114
 30
0.0
 10
27.26252412698205
 20
-31.88197631980415
 30
0.0
 10
27.41138922407208
 20
-32.19534679504784
 30
0.0
 10
27.61013255156104
 20
-32.85785843486895
 30
0.0
 10
27.65939502590959
 20
-33.2020640953233
 30
0.0
 10
27.65939502590959
 20
-33.55000000000007
 30
0.0
  0
SPLINE
  5
133
330
2
100
AcDbEntity
  8
GEB-VERDECKT
 48
25.0
100
AcDbSpline
210
0.0
220
0.0
230
1.0
 70
     8
 71
     3
 72
    16
 73
    12
 74
     0
 42
0.0000000001
 43
0.0000000001
 40
0.0
 40
0.0
 40
0.0
 40
0.0
 40
0.0393266642598616
 40
0.0393266642598616
 40
0.0770927003301641
 40
0.0770927003301641
 40
0.1142902718541408
 40
0.1142902718541408
 40
0.1443854110165289
 40
0.1443854110165289
 40
0.1586800458003512
 40
0.1586800458003512
 40
0.1586800458003512
 40
0.1586800458003512
 10
25.9999999999734
 20
-33.55000000000007
 30
0.0
 10
25.9999999999734
 20
-33.4189111191339
 30
0.0
 10
25.97423444843002
 20
-33.28932963771229
 30
0.0
 10
25.87649519003526
 20
-33.05249709344969
 30
0.0
 10
25.80736169501824
 20
-32.9468935221737
 30
0.0
 10
25.63570209630552
 20
-32.76834280845003
 30
0.0
 10
25.53508907860737
 20
-32.69637626599877
 30
0.0
 10
25.33448954091046
 20
-32.60240757302233
 30
0.0
 10
25.23896836815698
 20
-32.57391957340394
 30
0.0
 10
25.09412003478815
 20
-32.55332495600237
 30
0.0
 10
25.04708075087956
 20
-32.55000000000007
 30
0.0
 10
24.99999999997317
 20
-32.55000000000007
 30
0.0
  0
SPLINE
  5
134
330
2
100
AcDbEntity
  8
GEB-VERDECKT
 48
25.0
100
AcDbSpline
210
0.0
220
0.0
230
1.0
 70
    24
 71
     3
 72
     8
 73
     4
 74
     0
 42
0.0000000001
 43
0.0000000001
 40
0.0584232393371453
 40
0.0584232393371453
 40
0.0584232393371453
 40
0.0584232393371453
 40
0.0977834980903351
 40
0.0977834980903351
 40
0.0977834980903351
 40
0.0977834980903351
 10
24.99999999997317
 20
-32.55000000000007
 30
0.0
 10
24.9038121587987
 20
-32.55000000000007
 30
0.0
 10
24.81657070088545
 20
-32.55000000000007
 30
0.0
 10
24.73443037971993
 20
-32.55000000000007
 30
0.0
  0
LINE
  5
135
330
2
100
AcDbEntity
  8
GEB-VERDECKT
 48
25.0
100
AcDbLine
 10
27.65847360017119
 20
-33.55000000000007
 30
0.0
 11
27.65939502590959
 21
-33.55000000000007
 31
0.0
  0
LINE
  5
136
330
2
100
AcDbEntity
  8
GEB-VERDECKT
 48
25.0
100
AcDbLine
 10
27.65847360018302
 20
-33.55000000000007
 30
0.0
 11
25.9999999999734
 21
-33.55000000000007
 31
0.0
  0
LINE
  5
137
330
2
100
AcDbEntity
  8
GEB-VERDECKT
 48
25.0
100
AcDbLine
 10
17.26556962022641
 20
-32.55000000000007
 30
0.0
 11
24.73443037971993
 21
-32.55000000000007
 31
0.0
  0
LINE
  5
138
330
2
100
AcDbEntity
  8
GEB-VERDECKT
 48
25.0
100
AcDbLine
 10
24.99999999997295
 20
-30.45519540547616
 30
0.0
 11
16.99999999997294
 21
-30.45519540547616
 31
0.0
  0
LINE
  5
139
330
2
100
AcDbEntity
  8
GEB-VERDECKT
 48
25.0
100
AcDbLine
 10
14.89298404062583
 20
-33.55000000000007
 30
0.0
 11
15.99999999997339
 21
-33.55000000000007
 31
0.0
  0
LINE
  5
13A
330
2
100
AcDbEntity
  8
GEB-KONTUR-A
 48
25.0
100
AcDbLine
 10
34.15672436934119
 20
-55.88288152647442
 30
0.0
 11
35.71104871449984
 21
-50.0
 31
0.0
  0
LINE
  5
13B
330
2
100
AcDbEntity
  8
GEB-KONTUR-A
 48
25.0
100
AcDbLine
 10
30.23711239265185
 20
-55.85818443314519
 30
0.0
 11
31.33157162626026
 21
-50.0
 31
0.0
  0
LINE
  5
13C
330
2
100
AcDbEntity
  8
GEB-KONTUR-A
 48
25.0
100
AcDbLine
 10
30.30320901975415
 20
-55.88288152647442
 30
0.0
 11
30.23711239265185
 21
-55.85818443314519
 31
0.0
  0
LINE
  5
13D
330
2
100
AcDbEntity
  8
GEB-KONTUR-A
 48
25.0
100
AcDbLine
 10
34.15672436934119
 20
-55.88288152647442
 30
0.0
 11
30.30320901975415
 21
-55.88288152647442
 31
0.0
  0
LINE
  5
13E
330
2
100
AcDbEntity
  8
GEB-KONTUR-A
 48
25.0
100
AcDbLine
 10
31.40228230437879
 20
-50.0
 30
0.0
 11
30.30320901975415
 21
-55.88288152647442
 31
0.0
  0
LINE
  5
13F
330
2
100
AcDbEntity
  8
GEB-VERDECKT
 48
25.0
100
AcDbLine
 10
36.89999999997758
 20
-45.50000000000011
 30
0.0
 11
36.89999999997758
 21
-24.0
 31
0.0
  0
LINE
  5
140
330
2
100
AcDbEntity
  8
GEB-VERDECKT
 48
25.0
100
AcDbLine
 10
35.71104871449984
 20
-50.0
 30
0.0
 11
36.89999999997758
 21
-45.50000000000011
 31
0.0
  0
LINE
  5
141
330
2
100
AcDbEntity
  8
GEB-VERDECKT
 48
25.0
100
AcDbLine
 10
31.33157162626026
 20
-50.0
 30
0.0
 11
32.17228714272164
 21
-45.50000000000011
 31
0.0
  0
LINE
  5
142
330
2
100
AcDbEntity
  8
GEB-VERDECKT
 48
25.0
100
AcDbLine
 10
32.17228714272164
 20
-45.50000000000011
 30
0.0
 11
32.17228714272164
 21
-24.0
 31
0.0
  0
LINE
  5
143
330
2
100
AcDbEntity
  8
GEB-VERDECKT
 48
25.0
100
AcDbLine
 10
32.24299782084017
 20
-24.0
 30
0.0
 11
32.24299782084017
 21
-45.50000000000011
 31
0.0
  0
LINE
  5
144
330
2
100
AcDbEntity
  8
GEB-VERDECKT
 48
25.0
100
AcDbLine
 10
32.24299782084017
 20
-45.50000000000011
 30
0.0
 11
31.40228230437879
 21
-50.0
 31
0.0
  0
LINE
  5
145
330
2
100
AcDbEntity
  8
GEB-VERDECKT
 48
25.0
100
AcDbLine
 10
36.89999999997735
 20
-45.50000000000011
 30
0.0
 11
32.24299782084017
 21
-45.50000000000011
 31
0.0
  0
LINE
  5
146
330
2
100
AcDbEntity
  8
GEB-VERDECKT
 48
25.0
100
AcDbLine
 10
28.88019383024107
 20
-32.55000000000007
 30
0.0
 11
29.12956705271767
 21
-32.55000000000007
 31
0.0
  0
SPLINE
  5
147
330
2
100
AcDbEntity
  8
GEB-VERDECKT
 48
25.0
100
AcDbSpline
210
0.0
220
0.0
230
1.0
 70
    24
 71
     3
 72
     8
 73
     4
 74
     0
 42
0.0000000001
 43
0.0000000001
 40
0.0
 40
0.0
 40
0.0
 40
0.0
 40
0.2500000000000002
 40
0.2500000000000002
 40
0.2500000000000002
 40
0.2500000000000002
 10
31.25413862904543
 20
-32.55000000000007
 30
0.0
 10
30.5858610840753
 20
-32.55000000000007
 30
0.0
 10
29.87471427572427
 20
-32.55000000000007
 30
0.0
 10
29.12956705271767
 20
-32.55000000000007
 30
0.0
  0
SPLINE
  5
148
330
2
100
AcDbEntity
  8
GEB-VERDECKT
 48
25.0
100
AcDbSpline
210
0.0
220
0.0
230
1.0
 70
    24
 71
     3
 72
    41
 73
    37
 74
     0
 42
0.0000000001
 43
0.0000000001
 40
0.0
 40
0.0
 40
0.0
 40
0.0
 40
0.0016666666666667
 40
0.0016666666666667
 40
0.0016666666666667
 40
0.0033333333333333
 40
0.0033333333333333
 40
0.0033333333333333
 40
0.0058333333333333
 40
0.0058333333333333
 40
0.0058333333333333
 40
0.0066666666666667
 40
0.0066666666666667
 40
0.0066666666666667
 40
0.0083333333333333
 40
0.0083333333333333
 40
0.0083333333333333
 40
0.0091666666666667
 40
0.0091666666666667
 40
0.0091666666666667
 40
0.0108333333333334
 40
0.0108333333333334
 40
0.0108333333333334
 40
0.0116666666666667
 40
0.0116666666666667
 40
0.0116666666666667
 40
0.0133333333333334
 40
0.0133333333333334
 40
0.0133333333333334
 40
0.0141666666666667
 40
0.0141666666666667
 40
0.0141666666666667
 40
0.0166666666666667
 40
0.0166666666666667
 40
0.0166666666666667
 40
0.02
 40
0.02
 40
0.02
 40
0.02
 10
29.12956705271767
 20
-32.55000000000007
 30
0.0
 10
29.12956705271767
 20
-32.54444444444448
 30
0.0
 10
29.12956705271767
 20
-32.53888888888901
 30
0.0
 10
29.12956705271767
 20
-32.53333333333342
 30
0.0
 10
29.12956705271767
 20
-32.52777777777783
 30
0.0
 10
29.12956705271767
 20
-32.52222222222224
 30
0.0
 10
29.12956705271767
 20
-32.51666666666677
 30
0.0
 10
29.12956705271767
 20
-32.50833333333333
 30
0.0
 10
29.12956705271767
 20
-32.50000000000011
 30
0.0
 10
29.12956705271767
 20
-32.49166666666667
 30
0.0
 10
29.12956705271767
 20
-32.48888888888894
 30
0.0
 10
29.12956705271767
 20
-32.4861111111112
 30
0.0
 10
29.12956705271767
 20
-32.48333333333335
 30
0.0
 10
29.12956705271767
 20
-32.47777777777776
 30
0.0
 10
29.12956705271767
 20
-32.47222222222229
 30
0.0
 10
29.12956705271767
 20
-32.4666666666667
 30
0.0
 10
29.12956705271767
 20
-32.46388888888896
 30
0.0
 10
29.12956705271767
 20
-32.46111111111111
 30
0.0
 10
29.12956705271767
 20
-32.45833333333337
 30
0.0
 10
29.12956705271767
 20
-32.4527777777779
 30
0.0
 10
29.12956705271767
 20
-32.44722222222231
 30
0.0
 10
29.12956705271767
 20
-32.44166666666672
 30
0.0
 10
29.12956705271767
 20
-32.43888888888899
 30
0.0
 10
29.12956705271767
 20
-32.43611111111125
 30
0.0
 10
29.12956705271767
 20
-32.43333333333339
 30
0.0
 10
29.12956705271767
 20
-32.42777777777781
 30
0.0
 10
29.12956705271767
 20
-32.42222222222233
 30
0.0
 10
29.12956705271767
 20
-32.41666666666674
 30
0.0
 10
29.12956705271767
 20
-32.41388888888901
 30
0.0
 10
29.12956705271767
 20
-32.41111111111115
 30
0.0
 10
29.12956705271767
 20
-32.40833333333342
 30
0.0
 10
29.12956705271767
 20
-32.40000000000009
 30
0.0
 10
29.12956705271767
 20
-32.39166666666676
 30
0.0
 10
29.12956705271767
 20
-32.38333333333344
 30
0.0
 10
29.12956705271767
 20
-32.37222222222226
 30
0.0
 10
29.12956705271767
 20
-32.3611111111112
 30
0.0
 10
29.12956705271767
 20
-32.35000000000002
 30
0.0
  0
SPLINE
  5
149
330
2
100
AcDbEntity
  8
GEB-VERDECKT
 48
25.0
100
AcDbSpline
210
0.0
220
0.0
230
1.0
 70
    24
 71
     3
 72
    23
 73
    19
 74
     0
 42
0.0000000001
 43
0.0000000001
 40
0.1250000000000002
 40
0.1250000000000002
 40
0.1250000000000002
 40
0.1250000000000002
 40
0.1614583333333336
 40
0.1614583333333336
 40
0.1614583333333336
 40
0.1666666666666669
 40
0.1666666666666669
 40
0.1666666666666669
 40
0.1770833333333336
 40
0.1770833333333336
 40
0.1770833333333336
 40
0.1927083333333336
 40
0.1927083333333336
 40
0.1927083333333336
 40
0.1979166666666669
 40
0.1979166666666669
 40
0.1979166666666669
 40
0.2500000000000002
 40
0.2500000000000002
 40
0.2500000000000002
 40
0.2500000000000002
 10
30.22069401482145
 20
-32.35000000000014
 30
0.0
 10
30.32407961467084
 20
-32.35000000000014
 30
0.0
 10
30.42664691680875
 20
-32.35000000000002
 30
0.0
 10
30.52836861739706
 20
-32.35000000000014
 30
0.0
 10
30.54290028890978
 20
-32.35000000000014
 30
0.0
 10
30.55741470398834
 20
-32.35000000000014
 30
0.0
 10
30.5719117837732
 20
-32.35000000000014
 30
0.0
 10
30.60090594334293
 20
-32.35000000000014
 30
0.0
 10
30.6298307615491
 20
-32.35000000000014
 30
0.0
 10
30.65868560978243
 20
-32.35000000000014
 30
0.0
 10
30.70196788213229
 20
-32.35000000000014
 30
0.0
 10
30.74509272132127
 20
-32.35000000000014
 30
0.0
 10
30.78805801863814
 20
-32.35000000000014
 30
0.0
 10
30.80237978441028
 20
-32.35000000000014
 30
0.0
 10
30.81668382343583
 20
-32.35000000000014
 30
0.0
 10
30.83097005799777
 20
-32.35000000000014
 30
0.0
 10
30.97383240361796
 20
-32.35000000000002
 30
0.0
 10
31.11491414050988
 20
-32.35000000000014
 30
0.0
 10
31.25413862904543
 20
-32.35000000000014
 30
0.0
  0
SPLINE
  5
14A
330
2
100
AcDbEntity
  8
GEB-VERDECKT
 48
25.0
100
AcDbSpline
210
0.0
220
0.0
230
1.0
 70
    24
 71
     3
 72
    41
 73
    37
 74
     0
 42
0.0000000001
 43
0.0000000001
 40
0.0
 40
0.0
 40
0.0
 40
0.0
 40
0.0016666666666667
 40
0.0016666666666667
 40
0.0016666666666667
 40
0.0033333333333333
 40
0.0033333333333333
 40
0.0033333333333333
 40
0.0058333333333333
 40
0.0058333333333333
 40
0.0058333333333333
 40
0.0066666666666667
 40
0.0066666666666667
 40
0.0066666666666667
 40
0.0083333333333333
 40
0.0083333333333333
 40
0.0083333333333333
 40
0.0091666666666667
 40
0.0091666666666667
 40
0.0091666666666667
 40
0.0108333333333334
 40
0.0108333333333334
 40
0.0108333333333334
 40
0.0116666666666667
 40
0.0116666666666667
 40
0.0116666666666667
 40
0.0133333333333334
 40
0.0133333333333334
 40
0.0133333333333334
 40
0.0141666666666667
 40
0.0141666666666667
 40
0.0141666666666667
 40
0.0166666666666667
 40
0.0166666666666667
 40
0.0166666666666667
 40
0.02
 40
0.02
 40
0.02
 40
0.02
 10
31.25413862904543
 20
-32.35000000000014
 30
0.0
 10
31.25413862904543
 20
-32.35555555555561
 30
0.0
 10
31.25413862904543
 20
-32.3611111111112
 30
0.0
 10
31.25413862904543
 20
-32.36666666666679
 30
0.0
 10
31.25413862904543
 20
-32.37222222222238
 30
0.0
 10
31.25413862904543
 20
-32.37777777777785
 30
0.0
 10
31.25413862904543
 20
-32.38333333333344
 30
0.0
 10
31.25413862904543
 20
-32.39166666666676
 30
0.0
 10
31.25413862904543
 20
-32.40000000000009
 30
0.0
 10
31.25413862904543
 20
-32.40833333333342
 30
0.0
 10
31.25413862904543
 20
-32.41111111111115
 30
0.0
 10
31.25413862904543
 20
-32.41388888888901
 30
0.0
 10
31.25413862904543
 20
-32.41666666666674
 30
0.0
 10
31.25413862904543
 20
-32.42222222222233
 30
0.0
 10
31.25413862904543
 20
-32.42777777777781
 30
0.0
 10
31.25413862904543
 20
-32.43333333333339
 30
0.0
 10
31.25413862904543
 20
-32.43611111111125
 30
0.0
 10
31.25413862904543
 20
-32.43888888888899
 30
0.0
 10
31.25413862904543
 20
-32.44166666666672
 30
0.0
 10
31.25413862904543
 20
-32.44722222222231
 30
0.0
 10
31.25413862904543
 20
-32.4527777777779
 30
0.0
 10
31.25413862904543
 20
-32.45833333333337
 30
0.0
 10
31.25413862904543
 20
-32.46111111111111
 30
0.0
 10
31.25413862904543
 20
-32.46388888888896
 30
0.0
 10
31.25413862904543
 20
-32.4666666666667
 30
0.0
 10
31.25413862904543
 20
-32.47222222222229
 30
0.0
 10
31.25413862904543
 20
-32.47777777777776
 30
0.0
 10
31.25413862904543
 20
-32.48333333333335
 30
0.0
 10
31.25413862904543
 20
-32.4861111111112
 30
0.0
 10
31.25413862904543
 20
-32.48888888888894
 30
0.0
 10
31.25413862904543
 20
-32.49166666666667
 30
0.0
 10
31.25413862904543
 20
-32.5
 30
0.0
 10
31.25413862904543
 20
-32.50833333333344
 30
0.0
 10
31.25413862904543
 20
-32.51666666666677
 30
0.0
 10
31.25413862904543
 20
-32.52777777777783
 30
0.0
 10
31.25413862904543
 20
-32.53888888888889
 30
0.0
 10
31.25413862904543
 20
-32.55000000000007
 30
0.0
  0
SPLINE
  5
14B
330
2
100
AcDbEntity
  8
GEB-VERDECKT
 48
25.0
100
AcDbSpline
210
0.0
220
0.0
230
1.0
 70
    24
 71
     3
 72
    20
 73
    16
 74
     0
 42
0.0000000001
 43
0.0000000001
 40
0.0
 40
0.0
 40
0.0
 40
0.0
 40
0.0104166666666667
 40
0.0104166666666667
 40
0.0104166666666667
 40
0.0208333333333334
 40
0.0208333333333334
 40
0.0208333333333334
 40
0.0260416666666667
 40
0.0260416666666667
 40
0.0260416666666667
 40
0.0416666666666668
 40
0.0416666666666668
 40
0.0416666666666668
 40
0.1250000000000002
 40
0.1250000000000002
 40
0.1250000000000002
 40
0.1250000000000002
 10
29.12956705271767
 20
-32.35000000000014
 30
0.0
 10
29.16061485367618
 20
-32.35000000000014
 30
0.0
 10
29.19160376198465
 20
-32.35000000000014
 30
0.0
 10
29.22253310417204
 20
-32.35000000000014
 30
0.0
 10
29.25346244635921
 20
-32.35000000000014
 30
0.0
 10
29.2843322224262
 20
-32.35000000000014
 30
0.0
 10
29.31514176149335
 20
-32.35000000000014
 30
0.0
 10
29.33054653102681
 20
-32.35000000000014
 30
0.0
 10
29.34593624135118
 20
-32.35000000000002
 30
0.0
 10
29.36131080885116
 20
-32.35000000000002
 30
0.0
 10
29.40743451135086
 20
-32.35000000000002
 30
0.0
 10
29.45342192743942
 20
-32.35000000000002
 30
0.0
 10
29.49927080843099
 20
-32.35000000000002
 30
0.0
 10
29.7437981737196
 20
-32.35000000000014
 30
0.0
 10
29.98438407230878
 20
-32.35000000000014
 30
0.0
 10
30.22069401482145
 20
-32.35000000000014
 30
0.0
  0
LINE
  5
14C
330
2
100
AcDbEntity
  8
GEB-VERDECKT
 48
25.0
100
AcDbLine
 10
28.88019383024107
 20
-32.35000000000014
 30
0.0
 11
29.12956705271767
 21
-32.35000000000014
 31
0.0
  0
LINE
  5
14D
330
2
100
AcDbEntity
  8
GEB-VERDECKT
 48
25.0
100
AcDbLine
 10
28.88019383024107
 20
-30.05000000000007
 30
0.0
 11
29.12956705271767
 21
-30.05000000000007
 31
0.0
  0
SPLINE
  5
14E
330
2
100
AcDbEntity
  8
GEB-VERDECKT
 48
25.0
100
AcDbSpline
210
0.0
220
0.0
230
1.0
 70
     8
 71
     3
 72
    50
 73
    46
 74
     0
 42
0.0000000001
 43
0.0000000001
 40
0.0
 40
0.0
 40
0.0
 40
0.0
 40
0.0218144001878474
 40
0.0218144001878474
 40
0.0218144001878474
 40
0.0436288003756948
 40
0.0436288003756948
 40
0.0436288003756948
 40
0.0545360004696185
 40
0.0545360004696185
 40
0.0545360004696185
 40
0.0763504006574659
 40
0.0763504006574659
 40
0.0763504006574659
 40
0.0872576007513896
 40
0.0872576007513896
 40
0.0872576007513896
 40
0.1090720009392369
 40
0.1090720009392369
 40
0.1090720009392369
 40
0.1199792010331606
 40
0.1199792010331606
 40
0.1199792010331606
 40
0.141793601221008
 40
0.141793601221008
 40
0.141793601221008
 40
0.1527008013149317
 40
0.1527008013149317
 40
0.1527008013149317
 40
0.1745152015027791
 40
0.1745152015027791
 40
0.1745152015027791
 40
0.1854224015967028
 40
0.1854224015967028
 40
0.1854224015967028
 40
0.2072368017845501
 40
0.2072368017845501
 40
0.2072368017845501
 40
0.2181440018784738
 40
0.2181440018784738
 40
0.2181440018784738
 40
0.2399584020663212
 40
0.2399584020663212
 40
0.2399584020663212
 40
0.2617728022541686
 40
0.2617728022541686
 40
0.2617728022541686
 40
0.2617728022541686
 10
30.22069401482145
 20
-32.35000000000014
 30
0.0
 10
30.19115527200757
 20
-32.28611111111116
 30
0.0
 10
30.16154973214157
 20
-32.22222222222228
 30
0.0
 10
30.13187803863047
 20
-32.15833333333342
 30
0.0
 10
30.10220634511938
 20
-32.09444444444455
 30
0.0
 10
30.07246849796252
 20
-32.03055555555568
 30
0.0
 10
30.04266514343953
 20
-31.96666666666681
 30
0.0
 10
30.02776346617793
 20
-31.93472222222226
 30
0.0
 10
30.01284541211953
 20
-31.90277777777783
 30
0.0
 10
29.99791106231669
 20
-31.87083333333339
 30
0.0
 10
29.96804236271123
 20
-31.80694444444453
 30
0.0
 10
29.93810847995155
 20
-31.74305555555554
 30
0.0
 10
29.90811006457693
 20
-31.67916666666679
 30
0.0
 10
29.89311085688928
 20
-31.64722222222224
 30
0.0
 10
29.87809551609212
 20
-31.61527777777792
 30
0.0
 10
29.86306412376621
 20
-31.58333333333337
 30
0.0
 10
29.83300133911439
 20
-31.5194444444445
 30
0.0
 10
29.80287434817433
 20
-31.45555555555564
 30
0.0
 10
29.77268380568103
 20
-31.39166666666677
 30
0.0
 10
29.75758853443449
 20
-31.35972222222233
 30
0.0
 10
29.74247737534279
 20
-31.3277777777779
 30
0.0
 10
29.72735041050805
 20
-31.29583333333346
 30
0.0
 10
29.69709648083881
 20
-31.2319444444446
 30
0.0
 10
29.66677932802531
 20
-31.16805555555561
 30
0.0
 10
29.63639961093645
 20
-31.10416666666675
 30
0.0
 10
29.62120975239214
 20
-31.07222222222231
 30
0.0
 10
29.60600425282132
 20
-31.04027777777787
 30
0.0
 10
29.59078319483865
 20
-31.00833333333333
 30
0.0
 10
29.56034107887353
 20
-30.94444444444457
 30
0.0
 10
29.52983672909204
 20
-30.88055555555559
 30
0.0
 10
29.49927080843099
 20
-30.81666666666672
 30
0.0
 10
29.48398784810047
 20
-30.78472222222229
 30
0.0
 10
29.46868949509167
 20
-30.75277777777785
 30
0.0
 10
29.45337583252422
 20
-30.72083333333342
 30
0.0
 10
29.42274850738886
 20
-30.65694444444455
 30
0.0
 10
29.39205994385088
 20
-30.59305555555557
 30
0.0
 10
29.36131080885116
 20
-30.5291666666667
 30
0.0
 10
29.34593624135118
 20
-30.49722222222226
 30
0.0
 10
29.33054653102681
 20
-30.46527777777783
 30
0.0
 10
29.31514176149335
 20
-30.4333333333334
 30
0.0
 10
29.2843322224262
 20
-30.36944444444453
 30
0.0
 10
29.25346244635921
 20
-30.30555555555566
 30
0.0
 10
29.22253310417204
 20
-30.24166666666668
 30
0.0
 10
29.19160376198465
 20
-30.17777777777781
 30
0.0
 10
29.16061485367618
 20
-30.11388888888894
 30
0.0
 10
29.12956705271767
 20
-30.05000000000007
 30
0.0
  0
SPLINE
  5
14F
330
2
100
AcDbEntity
  8
GEB-VERDECKT
 48
25.0
100
AcDbSpline
210
0.0
220
0.0
230
1.0
 70
    24
 71
     3
 72
     8
 73
     4
 74
     0
 42
0.0000000001
 43
0.0000000001
 40
0.0
 40
0.0
 40
0.0
 40
0.0
 40
0.2500000000000002
 40
0.2500000000000002
 40
0.2500000000000002
 40
0.2500000000000002
 10
29.12956705271767
 20
-30.05000000000007
 30
0.0
 10
29.87471427572427
 20
-30.05000000000007
 30
0.0
 10
30.5858610840753
 20
-30.05000000000007
 30
0.0
 10
31.25413862904543
 20
-30.05000000000007
 30
0.0
  0
SPLINE
  5
150
330
2
100
AcDbEntity
  8
GEB-VERDECKT
 48
25.0
100
AcDbSpline
210
0.0
220
0.0
230
1.0
 70
     8
 71
     3
 72
    44
 73
    40
 74
     0
 42
0.0000000001
 43
0.0000000001
 40
0.0
 40
0.0
 40
0.0
 40
0.0
 40
0.0218144001878474
 40
0.0218144001878474
 40
0.0218144001878474
 40
0.0436288003756948
 40
0.0436288003756948
 40
0.0436288003756948
 40
0.0545360004696184
 40
0.0545360004696184
 40
0.0545360004696184
 40
0.0763504006574658
 40
0.0763504006574658
 40
0.0763504006574658
 40
0.0872576007513895
 40
0.0872576007513895
 40
0.0872576007513895
 40
0.1090720009392369
 40
0.1090720009392369
 40
0.1090720009392369
 40
0.1199792010331605
 40
0.1199792010331605
 40
0.1199792010331605
 40
0.1417936012210079
 40
0.1417936012210079
 40
0.1417936012210079
 40
0.1527008013149316
 40
0.1527008013149316
 40
0.1527008013149316
 40
0.174515201502779
 40
0.174515201502779
 40
0.174515201502779
 40
0.1854224015967027
 40
0.1854224015967027
 40
0.1854224015967027
 40
0.2181440018784738
 40
0.2181440018784738
 40
0.2181440018784738
 40
0.2617728022541685
 40
0.2617728022541685
 40
0.2617728022541685
 40
0.2617728022541685
 10
31.25413862904543
 20
-30.05000000000007
 30
0.0
 10
31.2262937313385
 20
-30.11388888888894
 30
0.0
 10
31.19837455004404
 20
-30.17777777777781
 30
0.0
 10
31.17038169191983
 20
-30.24166666666679
 30
0.0
 10
31.14238883379562
 20
-30.30555555555566
 30
0.0
 10
31.11432229884144
 20
-30.36944444444453
 30
0.0
 10
31.08618269701447
 20
-30.4333333333334
 30
0.0
 10
31.07211289610109
 20
-30.46527777777783
 30
0.0
 10
31.05802482851914
 20
-30.49722222222226
 30
0.0
 10
31.04391857081214
 20
-30.5291666666667
 30
0.0
 10
31.01570605539791
 20
-30.59305555555557
 30
0.0
 10
30.98742077928501
 20
-30.65694444444455
 30
0.0
 10
30.95906335718428
 20
-30.72083333333342
 30
0.0
 10
30.94488464613391
 20
-30.75277777777785
 30
0.0
 10
30.93068789863583
 20
-30.78472222222229
 30
0.0
 10
30.91647319182334
 20
-30.81666666666672
 30
0.0
 10
30.88804377819838
 20
-30.88055555555559
 30
0.0
 10
30.85954252712168
 20
-30.94444444444457
 30
0.0
 10
30.83097005799777
 20
-31.00833333333333
 30
0.0
 10
30.81668382343583
 20
-31.04027777777787
 30
0.0
 10
30.80237978441028
 20
-31.07222222222231
 30
0.0
 10
30.78805801863814
 20
-31.10416666666675
 30
0.0
 10
30.75941448709341
 20
-31.16805555555561
 30
0.0
 10
30.7307000483695
 20
-31.2319444444446
 30
0.0
 10
30.70191532650301
 20
-31.29583333333346
 30
0.0
 10
30.68752296557
 20
-31.3277777777779
 30
0.0
 10
30.6731130338992
 20
-31.35972222222233
 30
0.0
 10
30.65868560978243
 20
-31.39166666666677
 30
0.0
 10
30.6298307615491
 20
-31.45555555555564
 30
0.0
 10
30.60090594334269
 20
-31.5194444444445
 30
0.0
 10
30.5719117837732
 20
-31.58333333333337
 30
0.0
 10
30.55741470398857
 20
-31.61527777777781
 30
0.0
 10
30.54290028891001
 20
-31.64722222222224
 30
0.0
 10
30.52836861739752
 20
-31.67916666666679
 30
0.0
 10
30.48477360285961
 20
-31.77500000000009
 30
0.0
 10
30.44102327929568
 20
-31.87083333333339
 30
0.0
 10
30.39711978600986
 20
-31.96666666666681
 30
0.0
 10
30.33858179496224
 20
-32.09444444444455
 30
0.0
 10
30.27977150044967
 20
-32.22222222222228
 30
0.0
 10
30.22069401482145
 20
-32.35000000000002
 30
0.0
  0
SPLINE
  5
151
330
2
100
AcDbEntity
  8
GEB-VERDECKT
 48
25.0
100
AcDbSpline
210
0.0
220
0.0
230
1.0
 70
     8
 71
     3
 72
    44
 73
    40
 74
     0
 42
0.0000000001
 43
0.0000000001
 40
0.0
 40
0.0
 40
0.0
 40
0.0
 40
0.0218144001878474
 40
0.0218144001878474
 40
0.0218144001878474
 40
0.0436288003756948
 40
0.0436288003756948
 40
0.0436288003756948
 40
0.0545360004696184
 40
0.0545360004696184
 40
0.0545360004696184
 40
0.0763504006574658
 40
0.0763504006574658
 40
0.0763504006574658
 40
0.0872576007513895
 40
0.0872576007513895
 40
0.0872576007513895
 40
0.1090720009392369
 40
0.1090720009392369
 40
0.1090720009392369
 40
0.1199792010331605
 40
0.1199792010331605
 40
0.1199792010331605
 40
0.1417936012210079
 40
0.1417936012210079
 40
0.1417936012210079
 40
0.1527008013149316
 40
0.1527008013149316
 40
0.1527008013149316
 40
0.174515201502779
 40
0.174515201502779
 40
0.174515201502779
 40
0.1854224015967027
 40
0.1854224015967027
 40
0.1854224015967027
 40
0.2181440018784738
 40
0.2181440018784738
 40
0.2181440018784738
 40
0.2617728022541685
 40
0.2617728022541685
 40
0.2617728022541685
 40
0.2617728022541685
 10
30.93959449931958
 20
-30.05000000000007
 30
0.0
 10
30.9126037395788
 20
-30.11388888888894
 30
0.0
 10
30.88554097493466
 20
-30.17777777777781
 30
0.0
 10
30.85840679344619
 20
-30.24166666666679
 30
0.0
 10
30.83127261195773
 20
-30.30555555555566
 30
0.0
 10
30.80406701362495
 20
-30.36944444444453
 30
0.0
 10
30.77679058982835
 20
-30.4333333333334
 30
0.0
 10
30.76315237793028
 20
-30.46527777777783
 30
0.0
 10
30.74949645966603
 20
-30.49722222222226
 30
0.0
 10
30.73582290922173
 20
-30.5291666666667
 30
0.0
 10
30.70847580833311
 20
-30.59305555555557
 30
0.0
 10
30.68105817872402
 20
-30.65694444444455
 30
0.0
 10
30.65357061625969
 20
-30.72083333333342
 30
0.0
 10
30.63982683502741
 20
-30.75277777777785
 30
0.0
 10
30.62606557058166
 20
-30.78472222222229
 30
0.0
 10
30.61228689768905
 20
-30.81666666666672
 30
0.0
 10
30.58472955190405
 20
-30.88055555555559
 30
0.0
 10
30.55710257233272
 20
-30.94444444444457
 30
0.0
 10
30.52940655937914
 20
-31.00833333333333
 30
0.0
 10
30.51555855290235
 20
-31.04027777777787
 30
0.0
 10
30.5016932880801
 20
-31.07222222222231
 30
0.0
 10
30.48781084024495
 20
-31.10416666666675
 30
0.0
 10
30.46004594457486
 20
-31.16805555555561
 30
0.0
 10
30.43221231685425
 20
-31.2319444444446
 30
0.0
 10
30.40431056197917
 20
-31.29583333333346
 30
0.0
 10
30.39035968454141
 20
-31.3277777777779
 30
0.0
 10
30.37639177531537
 20
-31.35972222222233
 30
0.0
 10
30.36240691018952
 20
-31.39166666666677
 30
0.0
 10
30.33443717993782
 20
-31.45555555555564
 30
0.0
 10
30.30639962608734
 20
-31.5194444444445
 30
0.0
 10
30.27829485799021
 20
-31.58333333333337
 30
0.0
 10
30.26424247394152
 20
-31.61527777777781
 30
0.0
 10
30.25017328633135
 20
-31.64722222222224
 30
0.0
 10
30.23608737157929
 20
-31.67916666666679
 30
0.0
 10
30.19382962732266
 20
-31.77500000000009
 30
0.0
 10
30.15142133878794
 20
-31.87083333333339
 30
0.0
 10
30.10886457819424
 20
-31.96666666666681
 30
0.0
 10
30.0521222307359
 20
-32.09444444444455
 30
0.0
 10
29.99511593295051
 20
-32.22222222222228
 30
0.0
 10
29.93785064013309
 20
-32.35000000000014
 30
0.0
  0
SPLINE
  5
152
330
2
100
AcDbEntity
  8
GEB-VERDECKT
 48
25.0
100
AcDbSpline
210
0.0
220
0.0
230
1.0
 70
     8
 71
     3
 72
    50
 73
    46
 74
     0
 42
0.0000000001
 43
0.0000000001
 40
0.0
 40
0.0
 40
0.0
 40
0.0
 40
0.0218144001878474
 40
0.0218144001878474
 40
0.0218144001878474
 40
0.0436288003756948
 40
0.0436288003756948
 40
0.0436288003756948
 40
0.0545360004696185
 40
0.0545360004696185
 40
0.0545360004696185
 40
0.0763504006574659
 40
0.0763504006574659
 40
0.0763504006574659
 40
0.0872576007513896
 40
0.0872576007513896
 40
0.0872576007513896
 40
0.1090720009392369
 40
0.1090720009392369
 40
0.1090720009392369
 40
0.1199792010331606
 40
0.1199792010331606
 40
0.1199792010331606
 40
0.141793601221008
 40
0.141793601221008
 40
0.141793601221008
 40
0.1527008013149317
 40
0.1527008013149317
 40
0.1527008013149317
 40
0.1745152015027791
 40
0.1745152015027791
 40
0.1745152015027791
 40
0.1854224015967028
 40
0.1854224015967028
 40
0.1854224015967028
 40
0.2072368017845501
 40
0.2072368017845501
 40
0.2072368017845501
 40
0.2181440018784738
 40
0.2181440018784738
 40
0.2181440018784738
 40
0.2399584020663212
 40
0.2399584020663212
 40
0.2399584020663212
 40
0.2617728022541686
 40
0.2617728022541686
 40
0.2617728022541686
 40
0.2617728022541686
 10
29.93785064013309
 20
-32.35000000000014
 30
0.0
 10
29.90921799372427
 20
-32.28611111111116
 30
0.0
 10
29.88052059929464
 20
-32.22222222222228
 30
0.0
 10
29.85175908043629
 20
-32.15833333333342
 30
0.0
 10
29.82299756157841
 20
-32.09444444444455
 30
0.0
 10
29.79417191829202
 20
-32.03055555555568
 30
0.0
 10
29.76528277715193
 20
-31.96666666666681
 30
0.0
 10
29.75083820658188
 20
-31.93472222222226
 30
0.0
 10
29.73637776154829
 20
-31.90277777777783
 30
0.0
 10
29.72190152060944
 20
-31.87083333333339
 30
0.0
 10
29.69294903873151
 20
-31.80694444444453
 30
0.0
 10
29.66393337323188
 20
-31.74305555555554
 30
0.0
 10
29.6348551547037
 20
-31.67916666666679
 30
0.0
 10
29.62031604543972
 20
-31.64722222222224
 30
0.0
 10
29.60576129791866
 20
-31.61527777777792
 30
0.0
 10
29.59119099121881
 20
-31.58333333333337
 30
0.0
 10
29.56205037781933
 20
-31.5194444444445
 30
0.0
 10
29.5328475277056
 20
-31.45555555555564
 30
0.0
 10
29.50358307552824
 20
-31.39166666666677
 30
0.0
 10
29.48895084943956
 20
-31.35972222222233
 30
0.0
 10
29.47430322283526
 20
-31.3277777777779
 30
0.0
 10
29.45964027529885
 20
-31.29583333333346
 30
0.0
 10
29.43031438022627
 20
-31.2319444444446
 30
0.0
 10
29.40092720142593
 20
-31.16805555555561
 30
0.0
 10
29.3714793775539
 20
-31.10416666666675
 30
0.0
 10
29.35675546561788
 20
-31.07222222222231
 30
0.0
 10
29.34201639241405
 20
-31.04027777777787
 30
0.0
 10
29.32726223802297
 20
-31.00833333333333
 30
0.0
 10
29.29775392924103
 20
-30.94444444444457
 30
0.0
 10
29.26818529571119
 20
-30.88055555555559
 30
0.0
 10
29.23855698003149
 20
-30.81666666666672
 30
0.0
 10
29.22374282219175
 20
-30.78472222222229
 30
0.0
 10
29.20891374381472
 20
-30.75277777777785
 30
0.0
 10
29.19406982547048
 20
-30.72083333333342
 30
0.0
 10
29.16438198878268
 20
-30.65694444444455
 30
0.0
 10
29.13463479222719
 20
-30.59305555555557
 30
0.0
 10
29.10482888227489
 20
-30.5291666666667
 30
0.0
 10
29.08992592729874
 20
-30.49722222222226
 30
0.0
 10
29.07500829397327
 20
-30.46527777777783
 30
0.0
 10
29.06007606335743
 20
-30.4333333333334
 30
0.0
 10
29.03021160212574
 20
-30.36944444444453
 30
0.0
 10
29.00028875173234
 20
-30.30555555555566
 30
0.0
 10
28.9703081623677
 20
-30.24166666666668
 30
0.0
 10
28.94032757300306
 20
-30.17777777777781
 30
0.0
 10
28.91028924466695
 20
-30.11388888888894
 30
0.0
 10
28.88019383024107
 20
-30.05000000000007
 30
0.0
  0
LINE
  5
153
330
2
100
AcDbEntity
  8
GEB-VERDECKT
 48
25.0
100
AcDbLine
 10
28.88019383024107
 20
-32.55000000000007
 30
0.0
 11
28.88019383024107
 21
-32.35000000000014
 31
0.0
  0
LINE
  5
154
330
2
100
AcDbEntity
  8
GEB-VERDECKT
 48
25.0
100
AcDbLine
 10
30.93959449931958
 20
-32.35000000000014
 30
0.0
 11
30.93959449931958
 21
-32.55000000000007
 31
0.0
  0
LINE
  5
155
330
2
100
AcDbEntity
  8
GEB-VERDECKT
 48
25.0
100
AcDbLine
 10
11.06040550063539
 20
-32.35000000000014
 30
0.0
 11
10.74586137090932
 21
-32.35000000000014
 31
0.0
  0
SPLINE
  5
156
330
2
100
AcDbEntity
  8
GEB-VERDECKT
 48
25.0
100
AcDbSpline
210
0.0
220
0.0
230
1.0
 70
    24
 71
     3
 72
    41
 73
    37
 74
     0
 42
0.0000000001
 43
0.0000000001
 40
0.0
 40
0.0
 40
0.0
 40
0.0
 40
0.0016666666666667
 40
0.0016666666666667
 40
0.0016666666666667
 40
0.0033333333333333
 40
0.0033333333333333
 40
0.0033333333333333
 40
0.0058333333333333
 40
0.0058333333333333
 40
0.0058333333333333
 40
0.0066666666666667
 40
0.0066666666666667
 40
0.0066666666666667
 40
0.0083333333333333
 40
0.0083333333333333
 40
0.0083333333333333
 40
0.0091666666666667
 40
0.0091666666666667
 40
0.0091666666666667
 40
0.0108333333333334
 40
0.0108333333333334
 40
0.0108333333333334
 40
0.0116666666666667
 40
0.0116666666666667
 40
0.0116666666666667
 40
0.0133333333333334
 40
0.0133333333333334
 40
0.0133333333333334
 40
0.0141666666666667
 40
0.0141666666666667
 40
0.0141666666666667
 40
0.0166666666666667
 40
0.0166666666666667
 40
0.0166666666666667
 40
0.02
 40
0.02
 40
0.02
 40
0.02
 10
12.8704329472373
 20
-32.55000000000007
 30
0.0
 10
12.8704329472373
 20
-32.54444444444448
 30
0.0
 10
12.8704329472373
 20
-32.53888888888901
 30
0.0
 10
12.8704329472373
 20
-32.53333333333342
 30
0.0
 10
12.8704329472373
 20
-32.52777777777783
 30
0.0
 10
12.8704329472373
 20
-32.52222222222224
 30
0.0
 10
12.8704329472373
 20
-32.51666666666677
 30
0.0
 10
12.8704329472373
 20
-32.50833333333333
 30
0.0
 10
12.8704329472373
 20
-32.50000000000011
 30
0.0
 10
12.8704329472373
 20
-32.49166666666667
 30
0.0
 10
12.8704329472373
 20
-32.48888888888894
 30
0.0
 10
12.8704329472373
 20
-32.4861111111112
 30
0.0
 10
12.8704329472373
 20
-32.48333333333335
 30
0.0
 10
12.8704329472373
 20
-32.47777777777776
 30
0.0
 10
12.8704329472373
 20
-32.47222222222229
 30
0.0
 10
12.8704329472373
 20
-32.4666666666667
 30
0.0
 10
12.8704329472373
 20
-32.46388888888896
 30
0.0
 10
12.8704329472373
 20
-32.46111111111111
 30
0.0
 10
12.8704329472373
 20
-32.45833333333337
 30
0.0
 10
12.8704329472373
 20
-32.4527777777779
 30
0.0
 10
12.8704329472373
 20
-32.44722222222231
 30
0.0
 10
12.8704329472373
 20
-32.44166666666672
 30
0.0
 10
12.8704329472373
 20
-32.43888888888899
 30
0.0
 10
12.8704329472373
 20
-32.43611111111125
 30
0.0
 10
12.8704329472373
 20
-32.43333333333339
 30
0.0
 10
12.8704329472373
 20
-32.42777777777781
 30
0.0
 10
12.8704329472373
 20
-32.42222222222233
 30
0.0
 10
12.8704329472373
 20
-32.41666666666674
 30
0.0
 10
12.8704329472373
 20
-32.41388888888901
 30
0.0
 10
12.8704329472373
 20
-32.41111111111115
 30
0.0
 10
12.8704329472373
 20
-32.40833333333342
 30
0.0
 10
12.8704329472373
 20
-32.40000000000009
 30
0.0
 10
12.8704329472373
 20
-32.39166666666676
 30
0.0
 10
12.8704329472373
 20
-32.38333333333344
 30
0.0
 10
12.8704329472373
 20
-32.37222222222226
 30
0.0
 10
12.8704329472373
 20
-32.3611111111112
 30
0.0
 10
12.8704329472373
 20
-32.35000000000002
 30
0.0
  0
SPLINE
  5
157
330
2
100
AcDbEntity
  8
GEB-VERDECKT
 48
25.0
100
AcDbSpline
210
0.0
220
0.0
230
1.0
 70
    24
 71
     3
 72
    41
 73
    37
 74
     0
 42
0.0000000001
 43
0.0000000001
 40
0.0
 40
0.0
 40
0.0
 40
0.0
 40
0.0016666666666667
 40
0.0016666666666667
 40
0.0016666666666667
 40
0.0033333333333333
 40
0.0033333333333333
 40
0.0033333333333333
 40
0.0058333333333333
 40
0.0058333333333333
 40
0.0058333333333333
 40
0.0066666666666667
 40
0.0066666666666667
 40
0.0066666666666667
 40
0.0083333333333333
 40
0.0083333333333333
 40
0.0083333333333333
 40
0.0091666666666667
 40
0.0091666666666667
 40
0.0091666666666667
 40
0.0108333333333334
 40
0.0108333333333334
 40
0.0108333333333334
 40
0.0116666666666667
 40
0.0116666666666667
 40
0.0116666666666667
 40
0.0133333333333334
 40
0.0133333333333334
 40
0.0133333333333334
 40
0.0141666666666667
 40
0.0141666666666667
 40
0.0141666666666667
 40
0.0166666666666667
 40
0.0166666666666667
 40
0.0166666666666667
 40
0.02
 40
0.02
 40
0.02
 40
0.02
 10
10.74586137090932
 20
-32.35000000000014
 30
0.0
 10
10.74586137090932
 20
-32.35555555555561
 30
0.0
 10
10.74586137090932
 20
-32.3611111111112
 30
0.0
 10
10.74586137090932
 20
-32.36666666666679
 30
0.0
 10
10.74586137090932
 20
-32.37222222222238
 30
0.0
 10
10.74586137090932
 20
-32.37777777777785
 30
0.0
 10
10.74586137090932
 20
-32.38333333333344
 30
0.0
 10
10.74586137090932
 20
-32.39166666666676
 30
0.0
 10
10.74586137090932
 20
-32.40000000000009
 30
0.0
 10
10.74586137090932
 20
-32.40833333333342
 30
0.0
 10
10.74586137090932
 20
-32.41111111111115
 30
0.0
 10
10.74586137090932
 20
-32.41388888888901
 30
0.0
 10
10.74586137090932
 20
-32.41666666666674
 30
0.0
 10
10.74586137090932
 20
-32.42222222222233
 30
0.0
 10
10.74586137090932
 20
-32.42777777777781
 30
0.0
 10
10.74586137090932
 20
-32.43333333333339
 30
0.0
 10
10.74586137090932
 20
-32.43611111111125
 30
0.0
 10
10.74586137090932
 20
-32.43888888888899
 30
0.0
 10
10.74586137090932
 20
-32.44166666666672
 30
0.0
 10
10.74586137090932
 20
-32.44722222222231
 30
0.0
 10
10.74586137090932
 20
-32.4527777777779
 30
0.0
 10
10.74586137090932
 20
-32.45833333333337
 30
0.0
 10
10.74586137090932
 20
-32.46111111111111
 30
0.0
 10
10.74586137090932
 20
-32.46388888888896
 30
0.0
 10
10.74586137090932
 20
-32.4666666666667
 30
0.0
 10
10.74586137090932
 20
-32.47222222222229
 30
0.0
 10
10.74586137090932
 20
-32.47777777777776
 30
0.0
 10
10.74586137090932
 20
-32.48333333333335
 30
0.0
 10
10.74586137090932
 20
-32.4861111111112
 30
0.0
 10
10.74586137090932
 20
-32.48888888888894
 30
0.0
 10
10.74586137090932
 20
-32.49166666666667
 30
0.0
 10
10.74586137090932
 20
-32.5
 30
0.0
 10
10.74586137090932
 20
-32.50833333333344
 30
0.0
 10
10.74586137090932
 20
-32.51666666666677
 30
0.0
 10
10.74586137090932
 20
-32.52777777777783
 30
0.0
 10
10.74586137090932
 20
-32.53888888888889
 30
0.0
 10
10.74586137090932
 20
-32.55000000000007
 30
0.0
  0
LINE
  5
158
330
2
100
AcDbEntity
  8
GEB-VERDECKT
 48
25.0
100
AcDbLine
 10
11.06040550063539
 20
-30.05000000000007
 30
0.0
 11
10.74586137090932
 21
-30.05000000000007
 31
0.0
  0
SPLINE
  5
159
330
2
100
AcDbEntity
  8
GEB-VERDECKT
 48
25.0
100
AcDbSpline
210
0.0
220
0.0
230
1.0
 70
     8
 71
     3
 72
    50
 73
    46
 74
     0
 42
0.0000000001
 43
0.0000000001
 40
0.0
 40
0.0
 40
0.0
 40
0.0
 40
0.0218144001878474
 40
0.0218144001878474
 40
0.0218144001878474
 40
0.0436288003756948
 40
0.0436288003756948
 40
0.0436288003756948
 40
0.0545360004696185
 40
0.0545360004696185
 40
0.0545360004696185
 40
0.0763504006574659
 40
0.0763504006574659
 40
0.0763504006574659
 40
0.0872576007513896
 40
0.0872576007513896
 40
0.0872576007513896
 40
0.1090720009392369
 40
0.1090720009392369
 40
0.1090720009392369
 40
0.1199792010331606
 40
0.1199792010331606
 40
0.1199792010331606
 40
0.141793601221008
 40
0.141793601221008
 40
0.141793601221008
 40
0.1527008013149317
 40
0.1527008013149317
 40
0.1527008013149317
 40
0.1745152015027791
 40
0.1745152015027791
 40
0.1745152015027791
 40
0.1854224015967028
 40
0.1854224015967028
 40
0.1854224015967028
 40
0.2072368017845501
 40
0.2072368017845501
 40
0.2072368017845501
 40
0.2181440018784738
 40
0.2181440018784738
 40
0.2181440018784738
 40
0.2399584020663212
 40
0.2399584020663212
 40
0.2399584020663212
 40
0.2617728022541686
 40
0.2617728022541686
 40
0.2617728022541686
 40
0.2617728022541686
 10
11.7793059851333
 20
-32.35000000000014
 30
0.0
 10
11.80884472794741
 20
-32.28611111111116
 30
0.0
 10
11.83845026781341
 20
-32.22222222222228
 30
0.0
 10
11.8681219613245
 20
-32.15833333333342
 30
0.0
 10
11.89779365483559
 20
-32.09444444444455
 30
0.0
 10
11.92753150199246
 20
-32.03055555555568
 30
0.0
 10
11.95733485651544
 20
-31.96666666666681
 30
0.0
 10
11.97223653377705
 20
-31.93472222222226
 30
0.0
 10
11.98715458783522
 20
-31.90277777777783
 30
0.0
 10
12.00208893763806
 20
-31.87083333333339
 30
0.0
 10
12.03195763724352
 20
-31.80694444444453
 30
0.0
 10
12.0618915200032
 20
-31.74305555555554
 30
0.0
 10
12.09188993537805
 20
-31.67916666666679
 30
0.0
 10
12.10688914306547
 20
-31.64722222222224
 30
0.0
 10
12.12190448386286
 20
-31.61527777777792
 30
0.0
 10
12.13693587618854
 20
-31.58333333333337
 30
0.0
 10
12.16699866084036
 20
-31.5194444444445
 30
0.0
 10
12.19712565178065
 20
-31.45555555555564
 30
0.0
 10
12.22731619427395
 20
-31.39166666666677
 30
0.0
 10
12.24241146552049
 20
-31.35972222222233
 30
0.0
 10
12.25752262461196
 20
-31.3277777777779
 30
0.0
 10
12.27264958944693
 20
-31.29583333333346
 30
0.0
 10
12.30290351911617
 20
-31.2319444444446
 30
0.0
 10
12.33322067192944
 20
-31.16805555555561
 30
0.0
 10
12.3636003890183
 20
-31.10416666666675
 30
0.0
 10
12.37879024756284
 20
-31.07222222222231
 30
0.0
 10
12.39399574713366
 20
-31.04027777777787
 30
0.0
 10
12.4092168051161
 20
-31.00833333333333
 30
0.0
 10
12.43965892108122
 20
-30.94444444444457
 30
0.0
 10
12.47016327086271
 20
-30.88055555555559
 30
0.0
 10
12.50072919152399
 20
-30.81666666666672
 30
0.0
 10
12.51601215185451
 20
-30.78472222222229
 30
0.0
 10
12.53131050486308
 20
-30.75277777777785
 30
0.0
 10
12.54662416743076
 20
-30.72083333333342
 30
0.0
 10
12.57725149256612
 20
-30.65694444444455
 30
0.0
 10
12.60794005610387
 20
-30.59305555555557
 30
0.0
 10
12.63868919110382
 20
-30.5291666666667
 30
0.0
 10
12.65406375860379
 20
-30.49722222222226
 30
0.0
 10
12.66945346892794
 20
-30.46527777777783
 30
0.0
 10
12.68485823846163
 20
-30.4333333333334
 30
0.0
 10
12.71566777752878
 20
-30.36944444444453
 30
0.0
 10
12.74653755359554
 20
-30.30555555555566
 30
0.0
 10
12.77746689578293
 20
-30.24166666666668
 30
0.0
 10
12.8083962379701
 20
-30.17777777777781
 30
0.0
 10
12.8393851462788
 20
-30.11388888888894
 30
0.0
 10
12.8704329472373
 20
-30.05000000000007
 30
0.0
  0
SPLINE
  5
15A
330
2
100
AcDbEntity
  8
GEB-VERDECKT
 48
25.0
100
AcDbSpline
210
0.0
220
0.0
230
1.0
 70
     8
 71
     3
 72
    44
 73
    40
 74
     0
 42
0.0000000001
 43
0.0000000001
 40
0.0
 40
0.0
 40
0.0
 40
0.0
 40
0.0218144001878474
 40
0.0218144001878474
 40
0.0218144001878474
 40
0.0436288003756948
 40
0.0436288003756948
 40
0.0436288003756948
 40
0.0545360004696184
 40
0.0545360004696184
 40
0.0545360004696184
 40
0.0763504006574658
 40
0.0763504006574658
 40
0.0763504006574658
 40
0.0872576007513895
 40
0.0872576007513895
 40
0.0872576007513895
 40
0.1090720009392369
 40
0.1090720009392369
 40
0.1090720009392369
 40
0.1199792010331605
 40
0.1199792010331605
 40
0.1199792010331605
 40
0.1417936012210079
 40
0.1417936012210079
 40
0.1417936012210079
 40
0.1527008013149316
 40
0.1527008013149316
 40
0.1527008013149316
 40
0.174515201502779
 40
0.174515201502779
 40
0.174515201502779
 40
0.1854224015967027
 40
0.1854224015967027
 40
0.1854224015967027
 40
0.2181440018784738
 40
0.2181440018784738
 40
0.2181440018784738
 40
0.2617728022541685
 40
0.2617728022541685
 40
0.2617728022541685
 40
0.2617728022541685
 10
10.74586137090932
 20
-30.05000000000007
 30
0.0
 10
10.77370626861648
 20
-30.11388888888894
 30
0.0
 10
10.80162544991094
 20
-30.17777777777781
 30
0.0
 10
10.82961830803515
 20
-30.24166666666679
 30
0.0
 10
10.85761116615913
 20
-30.30555555555566
 30
0.0
 10
10.88567770111353
 20
-30.36944444444453
 30
0.0
 10
10.91381730294028
 20
-30.4333333333334
 30
0.0
 10
10.92788710385389
 20
-30.46527777777783
 30
0.0
 10
10.94197517143584
 20
-30.49722222222226
 30
0.0
 10
10.95608142914284
 20
-30.5291666666667
 30
0.0
 10
10.98429394455706
 20
-30.59305555555557
 30
0.0
 10
11.01257922066975
 20
-30.65694444444455
 30
0.0
 10
11.04093664277047
 20
-30.72083333333342
 30
0.0
 10
11.05511535382084
 20
-30.75277777777785
 30
0.0
 10
11.06931210131915
 20
-30.78472222222229
 30
0.0
 10
11.08352680813164
 20
-30.81666666666672
 30
0.0
 10
11.11195622175637
 20
-30.88055555555559
 30
0.0
 10
11.14045747283308
 20
-30.94444444444457
 30
0.0
 10
11.16902994195698
 20
-31.00833333333333
 30
0.0
 10
11.18331617651915
 20
-31.04027777777787
 30
0.0
 10
11.19762021554447
 20
-31.07222222222231
 30
0.0
 10
11.21194198131684
 20
-31.10416666666675
 30
0.0
 10
11.24058551286134
 20
-31.16805555555561
 30
0.0
 10
11.26929995158548
 20
-31.2319444444446
 30
0.0
 10
11.29808467345174
 20
-31.29583333333346
 30
0.0
 10
11.31247703438475
 20
-31.3277777777779
 30
0.0
 10
11.32688696605578
 20
-31.35972222222233
 30
0.0
 10
11.34131439017255
 20
-31.39166666666677
 30
0.0
 10
11.37016923840565
 20
-31.45555555555564
 30
0.0
 10
11.39909405661206
 20
-31.5194444444445
 30
0.0
 10
11.42808821618155
 20
-31.58333333333337
 30
0.0
 10
11.44258529596641
 20
-31.61527777777781
 30
0.0
 10
11.45709971104497
 20
-31.64722222222224
 30
0.0
 10
11.47163138255746
 20
-31.67916666666679
 30
0.0
 10
11.51522639709537
 20
-31.77500000000009
 30
0.0
 10
11.5589767206593
 20
-31.87083333333339
 30
0.0
 10
11.60288021394513
 20
-31.96666666666681
 30
0.0
 10
11.66141820499251
 20
-32.09444444444455
 30
0.0
 10
11.72022849950508
 20
-32.22222222222228
 30
0.0
 10
11.7793059851333
 20
-32.35000000000002
 30
0.0
  0
LINE
  5
15B
330
2
100
AcDbEntity
  8
GEB-VERDECKT
 48
25.0
100
AcDbLine
 10
12.06214935982188
 20
-32.34999999999991
 30
0.0
 11
11.06040550063539
 21
-32.34999999999991
 31
0.0
  0
SPLINE
  5
15C
330
2
100
AcDbEntity
  8
GEB-VERDECKT
 48
25.0
100
AcDbSpline
210
0.0
220
0.0
230
1.0
 70
     8
 71
     3
 72
    44
 73
    40
 74
     0
 42
0.0000000001
 43
0.0000000001
 40
0.0
 40
0.0
 40
0.0
 40
0.0
 40
0.0218144001878474
 40
0.0218144001878474
 40
0.0218144001878474
 40
0.0436288003756948
 40
0.0436288003756948
 40
0.0436288003756948
 40
0.0545360004696184
 40
0.0545360004696184
 40
0.0545360004696184
 40
0.0763504006574658
 40
0.0763504006574658
 40
0.0763504006574658
 40
0.0872576007513895
 40
0.0872576007513895
 40
0.0872576007513895
 40
0.1090720009392369
 40
0.1090720009392369
 40
0.1090720009392369
 40
0.1199792010331605
 40
0.1199792010331605
 40
0.1199792010331605
 40
0.1417936012210079
 40
0.1417936012210079
 40
0.1417936012210079
 40
0.1527008013149316
 40
0.1527008013149316
 40
0.1527008013149316
 40
0.174515201502779
 40
0.174515201502779
 40
0.174515201502779
 40
0.1854224015967027
 40
0.1854224015967027
 40
0.1854224015967027
 40
0.2181440018784738
 40
0.2181440018784738
 40
0.2181440018784738
 40
0.2617728022541685
 40
0.2617728022541685
 40
0.2617728022541685
 40
0.2617728022541685
 10
11.06040550063539
 20
-30.05000000000007
 30
0.0
 10
11.08739626037595
 20
-30.11388888888894
 30
0.0
 10
11.11445902502032
 20
-30.17777777777781
 30
0.0
 10
11.14159320650856
 20
-30.24166666666679
 30
0.0
 10
11.16872738799702
 20
-30.30555555555566
 30
0.0
 10
11.19593298632981
 20
-30.36944444444453
 30
0.0
 10
11.2232094101264
 20
-30.4333333333334
 30
0.0
 10
11.23684762202469
 20
-30.46527777777783
 30
0.0
 10
11.25050354028872
 20
-30.49722222222226
 30
0.0
 10
11.26417709073325
 20
-30.5291666666667
 30
0.0
 10
11.29152419162187
 20
-30.59305555555557
 30
0.0
 10
11.31894182123073
 20
-30.65694444444455
 30
0.0
 10
11.34642938369529
 20
-30.72083333333342
 30
0.0
 10
11.36017316492734
 20
-30.75277777777785
 30
0.0
 10
11.37393442937332
 20
-30.78472222222229
 30
0.0
 10
11.3877131022657
 20
-30.81666666666672
 30
0.0
 10
11.41527044805093
 20
-30.88055555555559
 30
0.0
 10
11.44289742762203
 20
-30.94444444444457
 30
0.0
 10
11.47059344057561
 20
-31.00833333333333
 30
0.0
 10
11.4844414470524
 20
-31.04027777777787
 30
0.0
 10
11.49830671187487
 20
-31.07222222222231
 30
0.0
 10
11.51218915971003
 20
-31.10416666666675
 30
0.0
 10
11.53995405537989
 20
-31.16805555555561
 30
0.0
 10
11.5677876831005
 20
-31.2319444444446
 30
0.0
 10
11.5956894379758
 20
-31.29583333333346
 30
0.0
 10
11.60964031541334
 20
-31.3277777777779
 30
0.0
 10
11.62360822463938
 20
-31.35972222222233
 30
0.0
 10
11.63759308976523
 20
-31.39166666666677
 30
0.0
 10
11.66556282001716
 20
-31.45555555555564
 30
0.0
 10
11.69360037386764
 20
-31.5194444444445
 30
0.0
 10
11.72170514196477
 20
-31.58333333333337
 30
0.0
 10
11.73575752601323
 20
-31.61527777777781
 30
0.0
 10
11.74982671362363
 20
-31.64722222222224
 30
0.0
 10
11.76391262837569
 20
-31.67916666666679
 30
0.0
 10
11.80617037263232
 20
-31.77500000000009
 30
0.0
 10
11.84857866116704
 20
-31.87083333333339
 30
0.0
 10
11.89113542176073
 20
-31.96666666666681
 30
0.0
 10
11.94787776921885
 20
-32.09444444444455
 30
0.0
 10
12.00488406700447
 20
-32.22222222222228
 30
0.0
 10
12.06214935982188
 20
-32.35000000000014
 30
0.0
  0
LINE
  5
15D
330
2
100
AcDbEntity
  8
GEB-VERDECKT
 48
25.0
100
AcDbLine
 10
13.11980616971391
 20
-30.05000000000007
 30
0.0
 11
11.06040550063539
 21
-30.05000000000007
 31
0.0
  0
SPLINE
  5
15E
330
2
100
AcDbEntity
  8
GEB-VERDECKT
 48
25.0
100
AcDbSpline
210
0.0
220
0.0
230
1.0
 70
     8
 71
     3
 72
    50
 73
    46
 74
     0
 42
0.0000000001
 43
0.0000000001
 40
0.0
 40
0.0
 40
0.0
 40
0.0
 40
0.0218144001878474
 40
0.0218144001878474
 40
0.0218144001878474
 40
0.0436288003756948
 40
0.0436288003756948
 40
0.0436288003756948
 40
0.0545360004696185
 40
0.0545360004696185
 40
0.0545360004696185
 40
0.0763504006574659
 40
0.0763504006574659
 40
0.0763504006574659
 40
0.0872576007513896
 40
0.0872576007513896
 40
0.0872576007513896
 40
0.1090720009392369
 40
0.1090720009392369
 40
0.1090720009392369
 40
0.1199792010331606
 40
0.1199792010331606
 40
0.1199792010331606
 40
0.141793601221008
 40
0.141793601221008
 40
0.141793601221008
 40
0.1527008013149317
 40
0.1527008013149317
 40
0.1527008013149317
 40
0.1745152015027791
 40
0.1745152015027791
 40
0.1745152015027791
 40
0.1854224015967028
 40
0.1854224015967028
 40
0.1854224015967028
 40
0.2072368017845501
 40
0.2072368017845501
 40
0.2072368017845501
 40
0.2181440018784738
 40
0.2181440018784738
 40
0.2181440018784738
 40
0.2399584020663212
 40
0.2399584020663212
 40
0.2399584020663212
 40
0.2617728022541686
 40
0.2617728022541686
 40
0.2617728022541686
 40
0.2617728022541686
 10
12.06214935982188
 20
-32.35000000000014
 30
0.0
 10
12.09078200623071
 20
-32.28611111111116
 30
0.0
 10
12.11947940066034
 20
-32.22222222222228
 30
0.0
 10
12.14824091951846
 20
-32.15833333333342
 30
0.0
 10
12.17700243837657
 20
-32.09444444444455
 30
0.0
 10
12.20582808166296
 20
-32.03055555555568
 30
0.0
 10
12.23471722280305
 20
-31.96666666666681
 30
0.0
 10
12.2491617933731
 20
-31.93472222222226
 30
0.0
 10
12.26362223840669
 20
-31.90277777777783
 30
0.0
 10
12.27809847934554
 20
-31.87083333333339
 30
0.0
 10
12.30705096122324
 20
-31.80694444444453
 30
0.0
 10
12.33606662672287
 20
-31.74305555555554
 30
0.0
 10
12.36514484525105
 20
-31.67916666666679
 30
0.0
 10
12.37968395451503
 20
-31.64722222222224
 30
0.0
 10
12.39423870203609
 20
-31.61527777777792
 30
0.0
 10
12.40880900873594
 20
-31.58333333333337
 30
0.0
 10
12.43794962213542
 20
-31.5194444444445
 30
0.0
 10
12.46715247224938
 20
-31.45555555555564
 30
0.0
 10
12.49641692442651
 20
-31.39166666666677
 30
0.0
 10
12.51104915051519
 20
-31.35972222222233
 30
0.0
 10
12.52569677711949
 20
-31.3277777777779
 30
0.0
 10
12.5403597246559
 20
-31.29583333333346
 30
0.0
 10
12.56968561972871
 20
-31.2319444444446
 30
0.0
 10
12.59907279852882
 20
-31.16805555555561
 30
0.0
 10
12.62852062240085
 20
-31.10416666666675
 30
0.0
 10
12.64324453433687
 20
-31.07222222222231
 30
0.0
 10
12.65798360754093
 20
-31.04027777777787
 30
0.0
 10
12.67273776193178
 20
-31.00833333333333
 30
0.0
 10
12.70224607071372
 20
-30.94444444444457
 30
0.0
 10
12.73181470424379
 20
-30.88055555555559
 30
0.0
 10
12.76144301992326
 20
-30.81666666666672
 30
0.0
 10
12.77625717776323
 20
-30.78472222222229
 30
0.0
 10
12.79108625614026
 20
-30.75277777777785
 30
0.0
 10
12.80593017448427
 20
-30.72083333333342
 30
0.0
 10
12.8356180111723
 20
-30.65694444444455
 30
0.0
 10
12.86536520772756
 20
-30.59305555555557
 30
0.0
 10
12.89517111768009
 20
-30.5291666666667
 30
0.0
 10
12.91007407265624
 20
-30.49722222222226
 30
0.0
 10
12.92499170598148
 20
-30.46527777777783
 30
0.0
 10
12.93992393659732
 20
-30.4333333333334
 30
0.0
 10
12.96978839782923
 20
-30.36944444444453
 30
0.0
 10
12.99971124822241
 20
-30.30555555555566
 30
0.0
 10
13.02969183758705
 20
-30.24166666666668
 30
0.0
 10
13.05967242695192
 20
-30.17777777777781
 30
0.0
 10
13.0897107552878
 20
-30.11388888888894
 30
0.0
 10
13.11980616971391
 20
-30.05000000000007
 30
0.0
  0
LINE
  5
15F
330
2
100
AcDbEntity
  8
GEB-VERDECKT
 48
25.0
100
AcDbLine
 10
13.11980616971391
 20
-32.34999999999991
 30
0.0
 11
12.06214935982188
 21
-32.34999999999991
 31
0.0
  0
LINE
  5
160
330
2
100
AcDbEntity
  8
GEB-VERDECKT
 48
25.0
100
AcDbLine
 10
13.11980616971391
 20
-32.55000000000007
 30
0.0
 11
13.11980616971391
 21
-32.35000000000014
 31
0.0
  0
LINE
  5
161
330
2
100
AcDbEntity
  8
GEB-VERDECKT
 48
25.0
100
AcDbLine
 10
11.06040550063539
 20
-32.35000000000014
 30
0.0
 11
11.06040550063539
 21
-32.55000000000007
 31
0.0
  0
LINE
  5
162
330
2
100
AcDbEntity
  8
GEB-VERDECKT
 48
25.0
100
AcDbLine
 10
5.099999999977399
 20
-45.50000000000011
 30
0.0
 11
5.099999999977399
 21
-24.0
 31
0.0
  0
LINE
  5
163
330
2
100
AcDbEntity
  8
GEB-VERDECKT
 48
25.0
100
AcDbLine
 10
6.288951285455141
 20
-50.0
 30
0.0
 11
5.099999999977399
 21
-45.50000000000011
 31
0.0
  0
SPLINE
  5
164
330
2
100
AcDbEntity
  8
GEB-VERDECKT
 48
25.0
100
AcDbSpline
210
0.0
220
0.0
230
1.0
 70
     8
 71
     3
 72
    16
 73
    12
 74
     0
 42
0.0000000001
 43
0.0000000001
 40
0.0
 40
0.0
 40
0.0
 40
0.0
 40
0.1272191589982588
 40
0.1272191589982588
 40
0.2610507027692037
 40
0.2610507027692037
 40
0.3885260193368645
 40
0.3885260193368645
 40
0.453250652876767
 40
0.453250652876767
 40
0.5165933580572986
 40
0.5165933580572986
 40
0.5165933580572986
 40
0.5165933580572986
 10
27.65804799065723
 20
-33.55000000000007
 30
0.0
 10
27.65804799065723
 20
-33.12593613667252
 30
0.0
 10
27.58075311104153
 20
-32.69685728806326
 30
0.0
 10
27.28151145356833
 20
-31.88969272698034
 30
0.0
 10
27.06549042225402
 20
-31.5515811158383
 30
0.0
 10
26.58572095783075
 20
-31.03062755218741
 30
0.0
 10
26.30826201929631
 20
-30.82345662108298
 30
0.0
 10
25.84163432579249
 20
-30.60592082161714
 30
0.0
 10
25.67718065055851
 20
-30.54938975337416
 30
0.0
 10
25.3413549867862
 20
-30.47428137154156
 30
0.0
 10
25.17143036688026
 20
-30.45519540547616
 30
0.0
 10
24.99999999998181
 20
-30.45519540547616
 30
0.0
  0
SPLINE
  5
165
330
2
100
AcDbEntity
  8
GEB-VERDECKT
 48
25.0
100
AcDbSpline
210
0.0
220
0.0
230
1.0
 70
     8
 71
     3
 72
    16
 73
    12
 74
     0
 42
0.0000000001
 43
0.0000000001
 40
0.0
 40
0.0
 40
0.0
 40
0.0
 40
0.0977908214148754
 40
0.0977908214148754
 40
0.190713823421584
 40
0.190713823421584
 40
0.236976833739056
 40
0.236976833739056
 40
0.3230789163999203
 40
0.3230789163999203
 40
0.4085954576778291
 40
0.4085954576778291
 40
0.4085954576778291
 40
0.4085954576778291
 10
16.99999999998204
 20
-30.45519540547616
 30
0.0
 10
16.68464962539565
 20
-30.45519540547616
 30
0.0
 10
16.37543285416359
 20
-30.51998530659375
 30
0.0
 10
15.81371170272314
 20
-30.75598775649178
 30
0.0
 10
15.53582489932387
 20
-30.93125642506971
 30
0.0
 10
15.14995008647588
 20
-31.31325176694077
 30
0.0
 10
15.0336735517983
 20
-31.45316146528103
 30
0.0
 10
14.73747587297294
 20
-31.88197631980415
 30
0.0
 10
14.58861077588267
 20
-32.19534679504784
 30
0.0
 10
14.38986744839371
 20
-32.85785843486895
 30
0.0
 10
14.34060497404516
 20
-33.2020640953233
 30
0.0
 10
14.34060497404516
 20
-33.55000000000007
 30
0.0
  0
LINE
  5
166
330
2
100
AcDbEntity
  8
GEB-VERDECKT
 48
25.0
100
AcDbLine
 10
14.34060497404516
 20
-33.55000000000007
 30
0.0
 11
14.34152639977196
 21
-33.55000000000007
 31
0.0
  0
LINE
  5
167
330
2
100
AcDbEntity
  8
GEB-VERDECKT
 48
25.0
100
AcDbLine
 10
9.757002179107985
 20
-45.50000000000011
 30
0.0
 11
5.099999999977399
 21
-45.50000000000011
 31
0.0
  0
LINE
  5
168
330
2
100
AcDbEntity
  8
GEB-VERDECKT
 48
25.0
100
AcDbLine
 10
10.59771769556983
 20
-50.0
 30
0.0
 11
9.757002179107985
 21
-45.50000000000011
 31
0.0
  0
LINE
  5
169
330
2
100
AcDbEntity
  8
GEB-VERDECKT
 48
25.0
100
AcDbLine
 10
9.757002179107985
 20
-45.50000000000011
 30
0.0
 11
9.757002179107985
 21
-24.0
 31
0.0
  0
LINE
  5
16A
330
2
100
AcDbEntity
  8
GEB-VERDECKT
 48
25.0
100
AcDbLine
 10
9.827712857226742
 20
-24.0
 30
0.0
 11
9.827712857226742
 21
-45.50000000000011
 31
0.0
  0
LINE
  5
16B
330
2
100
AcDbEntity
  8
GEB-VERDECKT
 48
25.0
100
AcDbLine
 10
9.827712857226742
 20
-45.50000000000011
 30
0.0
 11
10.66842837368858
 21
-50.0
 31
0.0
  0
LINE
  5
16C
330
2
100
AcDbEntity
  8
GEB-KONTUR-A
 48
25.0
100
AcDbLine
 10
7.843275630613561
 20
-55.88288152647442
 30
0.0
 11
6.288951285455141
 21
-50.0
 31
0.0
  0
LINE
  5
16D
330
2
100
AcDbEntity
  8
GEB-KONTUR-A
 48
25.0
100
AcDbLine
 10
11.69679098019514
 20
-55.88288152647442
 30
0.0
 11
7.843275630613561
 21
-55.88288152647442
 31
0.0
  0
LINE
  5
16E
330
2
100
AcDbEntity
  8
GEB-KONTUR-A
 48
25.0
100
AcDbLine
 10
11.69679098019514
 20
-55.88288152647442
 30
0.0
 11
10.59771769556983
 21
-50.0
 31
0.0
  0
LINE
  5
16F
330
2
100
AcDbEntity
  8
GEB-KONTUR-A
 48
25.0
100
AcDbLine
 10
10.66842837368858
 20
-50.0
 30
0.0
 11
11.76288760729744
 21
-55.85818443314519
 31
0.0
  0
LINE
  5
170
330
2
100
AcDbEntity
  8
GEB-KONTUR-A
 48
25.0
100
AcDbLine
 10
11.76288760729744
 20
-55.85818443314519
 30
0.0
 11
11.69679098019514
 21
-55.88288152647442
 31
0.0
  0
LINE
  5
171
330
2
100
AcDbEntity
  8
GEB-VERDECKT
 48
25.0
100
AcDbLine
 10
22.69999999997754
 20
-32.55000000000007
 30
0.0
 11
22.69999999997754
 21
-32.65000000000009
 31
0.0
  0
LINE
  5
172
330
2
100
AcDbEntity
  8
GEB-VERDECKT
 48
25.0
100
AcDbLine
 10
7.399999999977353
 20
-32.55000000000007
 30
0.0
 11
7.411810683924613
 21
-32.55000000000007
 31
0.0
  0
LINE
  5
173
330
2
100
AcDbEntity
  8
GEB-VERDECKT
 48
25.0
100
AcDbLine
 10
7.411810683924841
 20
-32.65000000000009
 30
0.0
 11
7.39999999997758
 21
-32.65000000000009
 31
0.0
  0
LINE
  5
174
330
2
100
AcDbEntity
  8
GEB-VERDECKT
 48
25.0
100
AcDbLine
 10
22.69999999997754
 20
-32.65000000000009
 30
0.0
 11
19.39722462928784
 21
-32.65000000000009
 31
0.0
  0
LINE
  5
175
330
2
100
AcDbEntity
  8
GEB-VERDECKT
 48
25.0
100
AcDbLine
 10
7.411810683924613
 20
-32.65000000000009
 30
0.0
 11
7.411810683924613
 21
-32.55000000000007
 31
0.0
  0
LINE
  5
176
330
2
100
AcDbEntity
  8
GEB-VERDECKT
 48
25.0
100
AcDbLine
 10
7.411810683924613
 20
-32.55000000000007
 30
0.0
 11
16.99999999997726
 21
-32.55000000000007
 31
0.0
  0
LINE
  5
177
330
2
100
AcDbEntity
  8
GEB-VERDECKT
 48
25.0
100
AcDbLine
 10
19.39722462928784
 20
-32.55000000000007
 30
0.0
 11
19.39722462928784
 21
-32.65000000000009
 31
0.0
  0
LINE
  5
178
330
2
100
AcDbEntity
  8
GEB-VERDECKT
 48
25.0
100
AcDbLine
 10
7.411810683924613
 20
-32.65000000000009
 30
0.0
 11
19.39722462928784
 21
-32.65000000000009
 31
0.0
  0
ARC
  5
179
330
2
100
AcDbEntity
  8
GEB-VERDECKT
 48
25.0
100
AcDbCircle
 10
27.93909963115471
 20
-57.00000000000011
 30
0.0
 40
1.0
100
AcDbArc
 50
189.9999999999986
 51
270.0
  0
ARC
  5
17A
330
2
100
AcDbEntity
  8
GEB-VERDECKT
 48
25.0
100
AcDbCircle
 10
14.06090036880005
 20
-57.00000000000011
 30
0.0
 40
1.0
100
AcDbArc
 50
270.0
 51
350.0000000000014
  0
LINE
  5
17B
330
2
100
AcDbEntity
  8
GEB-VERDECKT
 48
25.0
100
AcDbLine
 10
28.87499999997749
 20
-57.50000000000011
 30
0.0
 11
28.87499999997749
 21
-50.20000000000004
 31
0.0
  0
LINE
  5
17C
330
2
100
AcDbEntity
  8
GEB-VERDECKT
 48
25.0
100
AcDbLine
 10
13.12499999997749
 20
-57.50000000000011
 30
0.0
 11
13.12499999997749
 21
-50.20000000000004
 31
0.0
  0
LINE
  5
17D
330
2
100
AcDbEntity
  8
GEB-VERDECKT
 48
25.0
100
AcDbLine
 10
27.39999999997735
 20
-50.20000000000004
 30
0.0
 11
27.39999999997735
 21
-47.40000000000009
 31
0.0
  0
LINE
  5
17E
330
2
100
AcDbEntity
  8
GEB-VERDECKT
 48
25.0
100
AcDbLine
 10
14.5999999999774
 20
-50.20000000000004
 30
0.0
 11
14.5999999999774
 21
-47.40000000000009
 31
0.0
  0
LINE
  5
17F
330
2
100
AcDbEntity
  8
GEB-VERDECKT
 48
25.0
100
AcDbLine
 10
28.87499999997749
 20
-47.40000000000009
 30
0.0
 11
28.87499999997749
 21
-46.20000000000004
 31
0.0
  0
LINE
  5
180
330
2
100
AcDbEntity
  8
GEB-VERDECKT
 48
25.0
100
AcDbLine
 10
13.12499999997749
 20
-47.40000000000009
 30
0.0
 11
13.12499999997749
 21
-46.20000000000004
 31
0.0
  0
LINE
  5
181
330
2
100
AcDbEntity
  8
GEB-VERDECKT
 48
25.0
100
AcDbLine
 10
27.49999999997749
 20
-46.20000000000004
 30
0.0
 11
27.49999999997749
 21
-43.30000000000007
 31
0.0
  0
LINE
  5
182
330
2
100
AcDbEntity
  8
GEB-VERDECKT
 48
25.0
100
AcDbLine
 10
14.49999999997749
 20
-46.20000000000004
 30
0.0
 11
14.49999999997749
 21
-43.30000000000007
 31
0.0
  0
LINE
  5
183
330
2
100
AcDbEntity
  8
GEB-VERDECKT
 48
25.0
100
AcDbLine
 10
28.49999999997749
 20
-43.30000000000007
 30
0.0
 11
28.49999999997749
 21
-32.80000000000007
 31
0.0
  0
LINE
  5
184
330
2
100
AcDbEntity
  8
GEB-VERDECKT
 48
25.0
100
AcDbLine
 10
13.49999999997749
 20
-43.30000000000007
 30
0.0
 11
13.49999999997749
 21
-32.80000000000007
 31
0.0
  0
LINE
  5
185
330
2
100
AcDbEntity
  8
GEB-VERDECKT
 48
25.0
100
AcDbLine
 10
29.89999999997735
 20
-31.20000000000004
 30
0.0
 11
29.89999999997735
 21
-29.20000000000005
 31
0.0
  0
LINE
  5
186
330
2
100
AcDbEntity
  8
GEB-VERDECKT
 48
25.0
100
AcDbLine
 10
12.0999999999774
 20
-31.20000000000004
 30
0.0
 11
12.0999999999774
 21
-29.20000000000005
 31
0.0
  0
LINE
  5
187
330
2
100
AcDbEntity
  8
GEB-VERDECKT
 48
25.0
100
AcDbLine
 10
29.89999999997735
 20
-27.00000000000012
 30
0.0
 11
29.89999999997735
 21
-24.00000000000011
 31
0.0
  0
LINE
  5
188
330
2
100
AcDbEntity
  8
GEB-VERDECKT
 48
25.0
100
AcDbLine
 10
12.0999999999774
 20
-27.00000000000012
 30
0.0
 11
12.0999999999774
 21
-24.00000000000011
 31
0.0
  0
ARC
  5
189
330
2
100
AcDbEntity
  8
GEB-VERDECKT
 48
25.0
100
AcDbCircle
 10
13.62499999997749
 20
-57.50000000000011
 30
0.0
 40
0.5000000000000007
100
AcDbArc
 50
180.0
 51
270.0
  0
ARC
  5
18A
330
2
100
AcDbEntity
  8
GEB-VERDECKT
 48
25.0
100
AcDbCircle
 10
28.37499999997749
 20
-57.50000000000011
 30
0.0
 40
0.5000000000000008
100
AcDbArc
 50
270.0
 51
0.0
  0
LINE
  5
18B
330
2
100
AcDbEntity
  8
GEB-VERDECKT
 48
25.0
100
AcDbLine
 10
28.87499999997749
 20
-50.20000000000004
 30
0.0
 11
13.12499999997749
 21
-50.20000000000004
 31
0.0
  0
LINE
  5
18C
330
2
100
AcDbEntity
  8
GEB-VERDECKT
 48
25.0
100
AcDbLine
 10
28.87499999997749
 20
-47.40000000000009
 30
0.0
 11
13.12499999997749
 21
-47.40000000000009
 31
0.0
  0
LINE
  5
18D
330
2
100
AcDbEntity
  8
GEB-VERDECKT
 48
25.0
100
AcDbLine
 10
28.87499999997749
 20
-46.20000000000004
 30
0.0
 11
13.12499999997749
 21
-46.20000000000004
 31
0.0
  0
LINE
  5
18E
330
2
100
AcDbEntity
  8
GEB-VERDECKT
 48
25.0
100
AcDbLine
 10
28.49999999997749
 20
-43.30000000000007
 30
0.0
 11
13.49999999997749
 21
-43.30000000000007
 31
0.0
  0
LINE
  5
18F
330
2
100
AcDbEntity
  8
GEB-VERDECKT
 48
25.0
100
AcDbLine
 10
15.79999999997744
 20
-24.00000000000011
 30
0.0
 11
15.79999999997744
 21
-52.89584636234417
 31
0.0
  0
LINE
  5
190
330
2
100
AcDbEntity
  8
GEB-VERDECKT
 48
25.0
100
AcDbLine
 10
26.19999999997731
 20
-24.00000000000011
 30
0.0
 11
26.19999999997731
 21
-52.89584636234417
 31
0.0
  0
LINE
  5
191
330
2
100
AcDbEntity
  8
GEB-VERDECKT
 48
25.0
100
AcDbLine
 10
10.76249999997731
 20
-27.00000000000012
 30
0.0
 11
10.76249999997731
 21
-29.20000000000005
 31
0.0
  0
LINE
  5
192
330
2
100
AcDbEntity
  8
GEB-VERDECKT
 48
25.0
100
AcDbLine
 10
31.23749999997745
 20
-27.00000000000012
 30
0.0
 11
31.23749999997745
 21
-29.20000000000005
 31
0.0
  0
LINE
  5
193
330
2
100
AcDbEntity
  8
GEB-VERDECKT
 48
25.0
100
AcDbLine
 10
10.76249999997731
 20
-31.20000000000004
 30
0.0
 11
10.76249999997731
 21
-32.80000000000007
 31
0.0
  0
LINE
  5
194
330
2
100
AcDbEntity
  8
GEB-VERDECKT
 48
25.0
100
AcDbLine
 10
31.23749999997745
 20
-31.20000000000004
 30
0.0
 11
31.23749999997745
 21
-32.80000000000007
 31
0.0
  0
LINE
  5
195
330
2
100
AcDbEntity
  8
GEB-VERDECKT
 48
25.0
100
AcDbLine
 10
15.79999999997744
 20
-52.89584636234417
 30
0.0
 11
15.04570812181237
 21
-57.17364817766702
 31
0.0
  0
LINE
  5
196
330
2
100
AcDbEntity
  8
GEB-VERDECKT
 48
25.0
100
AcDbLine
 10
26.19999999997731
 20
-52.89584636234417
 30
0.0
 11
26.95429187814239
 21
-57.17364817766702
 31
0.0
  0
LINE
  5
197
330
2
100
AcDbEntity
  8
GEB-VERDECKT
 48
25.0
100
AcDbLine
 10
31.23749999997745
 20
-32.80000000000007
 30
0.0
 11
10.76249999997731
 21
-32.80000000000007
 31
0.0
  0
LINE
  5
198
330
2
100
AcDbEntity
  8
GEB-VERDECKT
 48
25.0
100
AcDbLine
 10
10.76249999997731
 20
-31.20000000000004
 30
0.0
 11
31.23749999997745
 21
-31.20000000000004
 31
0.0
  0
LINE
  5
199
330
2
100
AcDbEntity
  8
GEB-VERDECKT
 48
25.0
100
AcDbLine
 10
31.23749999997745
 20
-29.20000000000005
 30
0.0
 11
10.76249999997731
 21
-29.20000000000005
 31
0.0
  0
LINE
  5
19A
330
2
100
AcDbEntity
  8
GEB-VERDECKT
 48
25.0
100
AcDbLine
 10
10.76249999997731
 20
-27.00000000000012
 30
0.0
 11
31.23749999997745
 21
-27.00000000000012
 31
0.0
  0
LINE
  5
19B
330
2
100
AcDbEntity
  8
GEB-VERDECKT
 48
25.0
100
AcDbLine
 10
15.79999999997744
 20
-52.89584636234417
 30
0.0
 11
26.19999999997731
 21
-52.89584636234417
 31
0.0
  0
LINE
  5
19C
330
2
100
AcDbEntity
  8
GEB-VERDECKT
 48
25.0
100
AcDbLine
 10
13.62499999997749
 20
-58.00000000000011
 30
0.0
 11
28.37499999997749
 21
-58.00000000000011
 31
0.0
  0
LINE
  5
19D
330
2
100
AcDbEntity
  8
GEB-VERDECKT
 48
25.0
100
AcDbLine
 10
12.69999999997731
 20
-11.34999999999991
 30
0.0
 11
12.69999999997731
 21
-16.88704895708747
 31
0.0
  0
LINE
  5
19E
330
2
100
AcDbEntity
  8
GEB-VERDECKT
 48
25.0
100
AcDbLine
 10
29.29999999997722
 20
-13.55000000000007
 30
0.0
 11
29.29999999997722
 21
-16.88704895708747
 31
0.0
  0
LINE
  5
19F
330
2
100
AcDbEntity
  8
GEB-VERDECKT
 48
25.0
100
AcDbLine
 10
6.499999999977262
 20
26.25
 30
0.0
 11
2.999999999977262
 21
26.25
 31
0.0
  0
LINE
  5
1A0
330
2
100
AcDbEntity
  8
GEB-VERDECKT
 48
25.0
100
AcDbLine
 10
6.644121393005661
 20
23.5
 30
0.0
 11
6.499999999977262
 21
26.25
 31
0.0
  0
LINE
  5
1A1
330
2
100
AcDbEntity
  8
GEB-VERDECKT
 48
25.0
100
AcDbLine
 10
7.280875911294515
 20
11.35000000000002
 30
0.0
 11
7.010975847986856
 21
16.50000000000011
 31
0.0
  0
LINE
  5
1A2
330
2
100
AcDbEntity
  8
GEB-VERDECKT
 48
25.0
100
AcDbLine
 10
6.499999999977262
 20
26.25
 30
0.0
 11
6.499999999969531
 21
-1.243927105436682
 31
0.0
  0
LINE
  5
1A3
330
2
100
AcDbEntity
  8
GEB-VERDECKT
 48
25.0
100
AcDbLine
 10
2.999999999977262
 20
26.25
 30
0.0
 11
2.999999999969531
 21
-1.243927105436682
 31
0.0
  0
LINE
  5
1A4
330
2
100
AcDbEntity
  8
GEB-VERDECKT
 48
25.0
100
AcDbLine
 10
2.999999999977262
 20
16.50000000000011
 30
0.0
 11
7.010975847986856
 21
16.50000000000011
 31
0.0
  0
LINE
  5
1A5
330
2
100
AcDbEntity
  8
GEB-VERDECKT
 48
25.0
100
AcDbLine
 10
2.999999999977262
 20
23.5
 30
0.0
 11
6.644121393005661
 21
23.5
 31
0.0
  0
LINE
  5
1A6
330
2
100
AcDbEntity
  8
GEB-VERDECKT
 48
25.0
100
AcDbLine
 10
2.99999999997135
 20
-3.499999999999886
 30
0.0
 11
6.811619773628763
 21
-3.499999999999886
 31
0.0
  0
LINE
  5
1A7
330
2
100
AcDbEntity
  8
GEB-VERDECKT
 48
25.0
100
AcDbLine
 10
2.99999999997135
 20
3.5
 30
0.0
 11
6.811619773628763
 21
3.5
 31
0.0
  0
LINE
  5
1A8
330
2
100
AcDbEntity
  8
GEB-VERDECKT
 48
25.0
100
AcDbLine
 10
2.999999999977262
 20
-11.34999999999991
 30
0.0
 11
12.69999999997731
 21
-11.34999999999991
 31
0.0
  0
LINE
  5
1A9
330
2
100
AcDbEntity
  8
GEB-VERDECKT
 48
25.0
100
AcDbLine
 10
7.280875911294515
 20
11.35000000000002
 30
0.0
 11
22.79999999997745
 21
11.35000000000002
 31
0.0
  0
SPLINE
  5
1AA
330
2
100
AcDbEntity
  8
GEB-VERDECKT
 48
25.0
100
AcDbSpline
210
0.0
220
0.0
230
1.0
 70
     8
 71
     3
 72
    22
 73
    18
 74
     0
 42
0.0000000001
 43
0.0000000001
 40
0.4663452705627675
 40
0.4663452705627675
 40
0.4663452705661707
 40
0.4663452705661707
 40
0.5828345892679301
 40
0.5828345892679301
 40
0.6993239079696896
 40
0.6993239079696896
 40
0.8160072245510153
 40
0.8160072245510153
 40
0.9326905411323414
 40
0.9326905411323414
 40
1.080264911775732
 40
1.080264911775732
 40
1.227839282419122
 40
1.227839282419122
 40
1.375297519840151
 40
1.375297519840151
 40
1.522755757253822
 40
1.522755757253822
 40
1.52275575726118
 40
1.52275575726118
 10
7.010975847986856
 20
16.50000000000011
 30
0.0
 10
7.010975847986856
 20
16.50000000000011
 30
0.0
 10
7.006578440304792
 20
16.5686824860619
 30
0.0
 10
6.988824728245162
 20
16.85245052201969
 30
0.0
 10
6.975521208757299
 20
17.06753123329554
 30
0.0
 10
6.945589515786195
 20
17.56618097413911
 30
0.0
 10
6.926738113423425
 20
17.88687222973567
 30
0.0
 10
6.885968042606691
 20
18.60632298963924
 30
0.0
 10
6.864079079750808
 20
19.00508244184698
 30
0.0
 10
6.817978483899423
 20
19.87115980776787
 30
0.0
 10
6.790776210472586
 20
20.40214158766162
 30
0.0
 10
6.741275111303821
 20
21.40211976338731
 30
0.0
 10
6.718918854979619
 20
21.87111240279307
 30
0.0
 10
6.68368374725378
 20
22.62442247547836
 30
0.0
 10
6.668744189830931
 20
22.95257838006137
 30
0.0
 10
6.648981193912732
 20
23.39036782685685
 30
0.0
 10
6.644121393006116
 20
23.49999999998897
 30
0.0
 10
6.644121393005661
 20
23.5
 30
0.0
  0
SPLINE
  5
1AB
330
2
100
AcDbEntity
  8
GEB-VERDECKT
 48
25.0
100
AcDbSpline
210
0.0
220
0.0
230
1.0
 70
    11
 71
     3
 72
    38
 73
    34
 74
     0
 42
0.0000000001
 43
0.0000000001
 40
0.0
 40
0.0
 40
0.0
 40
0.0
 40
0.1166833165813259
 40
0.1166833165813259
 40
0.2333666331626518
 40
0.2333666331626518
 40
0.3498559518644112
 40
0.3498559518644112
 40
0.4663452705661707
 40
0.4663452705661707
 40
0.5828345892679301
 40
0.5828345892679301
 40
0.6993239079696896
 40
0.6993239079696896
 40
0.8160072245510153
 40
0.8160072245510153
 40
0.9326905411323412
 40
0.9326905411323412
 40
1.080264911775732
 40
1.080264911775732
 40
1.227839282419122
 40
1.227839282419122
 40
1.375297519840151
 40
1.375297519840151
 40
1.52275575726118
 40
1.52275575726118
 40
1.670213994682209
 40
1.670213994682209
 40
1.817672232103238
 40
1.817672232103238
 40
1.965246602746629
 40
1.965246602746629
 40
2.112820973390019
 40
2.112820973390019
 40
2.112820973390019
 40
2.112820973390019
 10
6.843723303243223
 20
3.445989516815188
 30
0.0
 10
6.864079079746261
 20
3.378017529893668
 30
0.0
 10
6.885968042602144
 20
3.237348450496597
 30
0.0
 10
6.926738113419105
 20
2.820895538530635
 30
0.0
 10
6.945589515781875
 20
2.545108708360885
 30
0.0
 10
6.975521208752752
 20
1.949661112765852
 30
0.0
 10
6.988824728240615
 20
1.586010326649329
 30
0.0
 10
7.006578440300245
 20
0.8053301139083259
 30
0.0
 10
7.010975847982081
 20
0.3882977290058989
 30
0.0
 10
7.010975847982081
 20
-0.3882977290057852
 30
0.0
 10
7.006578440300245
 20
-0.8053301139082122
 30
0.0
 10
6.988824728240615
 20
-1.586010326649329
 30
0.0
 10
6.975521208752752
 20
-1.949661112765852
 30
0.0
 10
6.945589515781875
 20
-2.545108708360771
 30
0.0
 10
6.926738113419105
 20
-2.820895538530521
 30
0.0
 10
6.885968042602144
 20
-3.237348450496597
 30
0.0
 10
6.864079079746261
 20
-3.378017529893554
 30
0.0
 10
6.817978483894648
 20
-3.531956589788592
 30
0.0
 10
6.790776210467583
 20
-3.515118973911739
 30
0.0
 10
6.741275111298591
 20
-3.248359493349767
 30
0.0
 10
6.718918854974162
 20
-2.998434207469472
 30
0.0
 10
6.683683747247641
 20
-2.367212660141831
 30
0.0
 10
6.668744189824792
 20
-1.949380164650847
 30
0.0
 10
6.648981193905683
 20
-1.011537499858263
 30
0.0
 10
6.644121392998613
 20
-0.4915274580699816
 30
0.0
 10
6.644121392998613
 20
0.4915274580700953
 30
0.0
 10
6.648981193905683
 20
1.011537499858263
 30
0.0
 10
6.668744189824792
 20
1.94938016465096
 30
0.0
 10
6.683683747247641
 20
2.367212660141944
 30
0.0
 10
6.718918854974162
 20
2.998434207469585
 30
0.0
 10
6.741275111298591
 20
3.24835949334988
 30
0.0
 10
6.790776210467583
 20
3.515118973911853
 30
0.0
 10
6.817978483894648
 20
3.531956589788592
 30
0.0
 10
6.843723303243223
 20
3.445989516815188
 30
0.0
  0
SPLINE
  5
1AC
330
2
100
AcDbEntity
  8
GEB-VERDECKT
 48
25.0
100
AcDbSpline
210
0.0
220
0.0
230
1.0
 70
    12
 71
     2
 72
     6
 73
     3
 74
     0
 42
0.0000000001
 43
0.0000000001
 40
0.1000511876665786
 40
0.1000511876665786
 40
0.1000511876665786
 40
2.217635884578037
 40
2.217635884578037
 40
2.217635884578037
 10
6.665678843259456
 20
-5.75936224746556
 30
0.0
 41
1.052653845186695
 10
7.280875911292014
 20
-9.248202450493067
 30
0.0
 41
1.597003840639932
 10
7.280875911293833
 20
-10.96325812838085
 30
0.0
 41
1.597003840639931
  0
LINE
  5
1AD
330
2
100
AcDbEntity
  8
GEB-VERDECKT
 48
25.0
100
AcDbLine
 10
2.999999999969531
 20
-1.243927105436682
 30
0.0
 11
6.499999999969531
 21
-1.243927105436682
 31
0.0
  0
SPLINE
  5
1AE
330
2
100
AcDbEntity
  8
GEB-VERDECKT
 48
25.0
100
AcDbSpline
210
0.0
220
0.0
230
1.0
 70
     8
 71
     3
 72
    12
 73
     8
 74
     0
 42
0.0000000001
 43
0.0000000001
 40
0.9644929883245975
 40
0.9644929883245975
 40
0.9644929883245975
 40
0.9644929883245975
 40
1.157835825797595
 40
1.157835825797595
 40
1.389330604781658
 40
1.389330604781658
 40
1.575223907412686
 40
1.575223907412686
 40
1.575223907412686
 40
1.575223907412686
 10
6.499999999969531
 20
-1.243927105436682
 30
0.0
 10
6.502011268285059
 20
-1.895122916243394
 30
0.0
 10
6.509393331041792
 20
-2.556073569132536
 30
0.0
 10
6.537268780597514
 20
-3.867362298289549
 30
0.0
 10
6.560239123576593
 20
-4.489550319815521
 30
0.0
 10
6.609481554216927
 20
-5.304620946334011
 30
0.0
 10
6.636081228313059
 20
-5.591511400469016
 30
0.0
 10
6.665678843259456
 20
-5.75936224746556
 30
0.0
  0
LINE
  5
1AF
330
2
100
AcDbEntity
  8
GEB-VERDECKT
 48
25.0
100
AcDbLine
 10
2.999999999969531
 20
-1.243927105436569
 30
0.0
 11
2.999999999969645
 21
-2.289032718806083
 31
0.0
  0
LINE
  5
1B0
330
2
100
AcDbEntity
  8
GEB-VERDECKT
 48
25.0
100
AcDbLine
 10
7.280875911294515
 20
11.35000000000002
 30
0.0
 11
7.280875911293833
 21
-10.96325812838097
 31
0.0
  0
SPLINE
  5
1B1
330
2
100
AcDbEntity
  8
GEB-VERDECKT
 48
25.0
100
AcDbSpline
210
0.0
220
0.0
230
1.0
 70
     8
 71
     3
 72
    16
 73
    12
 74
     0
 42
0.0000000001
 43
0.0000000001
 40
1.31817069037854
 40
1.31817069037854
 40
1.318170690421099
 40
1.318170690421099
 40
1.64468847516359
 40
1.64468847516359
 40
1.971206259906081
 40
1.971206259906081
 40
2.30377382037414
 40
2.30377382037414
 40
2.636341380842199
 40
2.636341380842199
 40
2.817206664835975
 40
2.817206664835975
 40
2.817206664835975
 40
2.817206664835975
 10
12.69999999997731
 20
-11.34999999999991
 30
0.0
 10
12.69999999997708
 20
-11.34999999999991
 30
0.0
 10
12.92666479714307
 20
-11.18110132504535
 30
0.0
 10
13.78926271951786
 20
-10.57511322791651
 30
0.0
 10
14.4232753713743
 20
-10.14237273189553
 30
0.0
 10
15.85186515443342
 20
-9.279321851560325
 30
0.0
 10
16.7548216680575
 20
-8.780006557798287
 30
0.0
 10
18.77154432861334
 20
-8.002065340769718
 30
0.0
 10
19.89144146508124
 20
-7.741608360024315
 30
0.0
 10
21.60288427995397
 20
-7.741608360024315
 30
0.0
 10
22.21037364003223
 20
-7.814580980453797
 30
0.0
 10
22.79999999997494
 20
-7.948112983595478
 30
0.0
  0
ARC
  5
1B2
330
2
100
AcDbEntity
  8
GEB-KONTUR-A
 48
25.0
100
AcDbCircle
 10
53.20785784960571
 20
-14.0
 30
0.0
 40
1.999999999999999
100
AcDbArc
 50
333.6463391512492
 51
339.9999999999963
  0
ARC
  5
1B3
330
2
100
AcDbEntity
  8
GEB-KONTUR-A
 48
25.0
100
AcDbCircle
 10
53.20785784960571
 20
14.00000000000011
 30
0.0
 40
1.999999999999999
100
AcDbArc
 50
19.99999999999759
 51
26.35366084874495
  0
LINE
  5
1B4
330
2
100
AcDbEntity
  8
GEB-KONTUR-A
 48
25.0
100
AcDbLine
 10
55.49999999997726
 20
13.55000000000007
 30
0.0
 11
55.08724309117747
 21
14.68404028665134
 31
0.0
  0
LINE
  5
1B5
330
2
100
AcDbEntity
  8
GEB-KONTUR-A
 48
25.0
100
AcDbLine
 10
55.49999999997726
 20
-13.55000000000007
 30
0.0
 11
55.08724309117747
 21
-14.68404028665134
 31
0.0
  0
LINE
  5
1B6
330
2
100
AcDbEntity
  8
GEB-KONTUR-A
 48
25.0
100
AcDbLine
 10
55.49999999997726
 20
13.55000000000007
 30
0.0
 11
55.49999999997726
 21
-13.55000000000007
 31
0.0
  0
LINE
  5
1B7
330
2
100
AcDbEntity
  8
GEB-VERDECKT
 48
25.0
100
AcDbLine
 10
22.79999999997745
 20
11.35000000000002
 30
0.0
 11
24.99999999997726
 21
13.55000000000007
 31
0.0
  0
LINE
  5
1B8
330
2
100
AcDbEntity
  8
GEB-VERDECKT
 48
25.0
100
AcDbLine
 10
47.99999999997726
 20
13.55000000000007
 30
0.0
 11
24.99999999997726
 21
13.55000000000007
 31
0.0
  0
LINE
  5
1B9
330
2
100
AcDbEntity
  8
GEB-VERDECKT
 48
25.0
100
AcDbLine
 10
47.99999999997726
 20
-13.55000000000007
 30
0.0
 11
29.29999999997722
 21
-13.55000000000007
 31
0.0
  0
LINE
  5
1BA
330
2
100
AcDbEntity
  8
GEB-VERDECKT
 48
25.0
100
AcDbLine
 10
47.99999999997726
 20
-13.55000000000007
 30
0.0
 11
51.77942286338339
 21
-15.73205080756884
 31
0.0
  0
LINE
  5
1BB
330
2
100
AcDbEntity
  8
GEB-VERDECKT
 48
25.0
100
AcDbLine
 10
47.99999999997726
 20
13.55000000000007
 30
0.0
 11
51.77942286338339
 21
15.73205080756895
 31
0.0
  0
ARC
  5
1BC
330
2
100
AcDbEntity
  8
GEB-VERDECKT
 48
25.0
100
AcDbCircle
 10
52.77942286338316
 20
-14.0
 30
0.0
 40
2.000000000000021
100
AcDbArc
 50
239.9999999999995
 51
270.0
  0
ARC
  5
1BD
330
2
100
AcDbEntity
  8
GEB-VERDECKT
 48
25.0
100
AcDbCircle
 10
52.77942286338316
 20
14.00000000000011
 30
0.0
 40
2.000000000000021
100
AcDbArc
 50
90.0
 51
120.0000000000005
  0
LINE
  5
1BE
330
2
100
AcDbEntity
  8
GEB-VERDECKT
 48
25.0
100
AcDbLine
 10
53.20785784960571
 20
16.0
 30
0.0
 11
52.77942286338316
 21
16.0
 31
0.0
  0
LINE
  5
1BF
330
2
100
AcDbEntity
  8
GEB-VERDECKT
 48
25.0
100
AcDbLine
 10
53.20785784960571
 20
-16.0
 30
0.0
 11
52.77942286338316
 21
-16.0
 31
0.0
  0
ARC
  5
1C0
330
2
100
AcDbEntity
  8
GEB-VERDECKT
 48
25.0
100
AcDbCircle
 10
53.20785784960571
 20
-14.0
 30
0.0
 40
1.999999999999999
100
AcDbArc
 50
270.0
 51
333.646339151255
  0
ARC
  5
1C1
330
2
100
AcDbEntity
  8
GEB-VERDECKT
 48
25.0
100
AcDbCircle
 10
53.20785784960571
 20
14.00000000000011
 30
0.0
 40
1.999999999999999
100
AcDbArc
 50
26.35366084874495
 51
90.0
  0
LINE
  5
1C2
330
2
100
AcDbEntity
  8
GEB-VERDECKT
 48
25.0
100
AcDbLine
 10
24.99999999997726
 20
13.55000000000007
 30
0.0
 11
24.99999999997522
 21
-11.4329567479283
 31
0.0
  0
LINE
  5
1C3
330
2
100
AcDbEntity
  8
GEB-VERDECKT
 48
25.0
100
AcDbLine
 10
47.99999999997726
 20
13.55000000000007
 30
0.0
 11
47.99999999997726
 21
-13.55000000000007
 31
0.0
  0
LINE
  5
1C4
330
2
100
AcDbEntity
  8
GEB-VERDECKT
 48
25.0
100
AcDbLine
 10
22.79999999997745
 20
11.35000000000002
 30
0.0
 11
22.79999999997494
 21
-7.948112983595478
 31
0.0
  0
SPLINE
  5
1C5
330
2
100
AcDbEntity
  8
GEB-VERDECKT
 48
25.0
100
AcDbSpline
210
0.0
220
0.0
230
1.0
 70
     8
 71
     3
 72
    10
 73
     6
 74
     0
 42
0.0000000001
 43
0.0000000001
 40
5.489832282047297
 40
5.489832282047297
 40
5.489832282047297
 40
5.489832282047297
 40
5.723149618699701
 40
5.723149618699701
 40
5.897651032486702
 40
5.897651032486702
 40
5.897651032486702
 40
5.897651032486702
 10
22.79999999997494
 20
-7.948112983595478
 30
0.0
 10
23.21982092775147
 20
-8.642698630736731
 30
0.0
 10
23.64186668870457
 20
-9.317157022340438
 30
0.0
 10
24.3557808058431
 20
-10.43907398566602
 30
0.0
 10
24.67583675513356
 20
-10.93535450273487
 30
0.0
 10
24.99999999997522
 20
-11.4329567479283
 30
0.0
  0
SPLINE
  5
1C6
330
2
100
AcDbEntity
  8
GEB-VERDECKT
 48
25.0
100
AcDbSpline
210
0.0
220
0.0
230
1.0
 70
     8
 71
     3
 72
    12
 73
     8
 74
     0
 42
0.0000000001
 43
0.0000000001
 40
0.4099523842370038
 40
0.4099523842370038
 40
0.4099523842370038
 40
0.4099523842370038
 40
0.6484669980069616
 40
0.6484669980069616
 40
0.970383311770699
 40
0.970383311770699
 40
1.292299625531831
 40
1.292299625531831
 40
1.292299625534436
 40
1.292299625534436
 10
24.99999999997522
 20
-11.4329567479283
 30
0.0
 10
25.7030523127587
 20
-11.67893067340856
 30
0.0
 10
26.33669331605574
 20
-11.95721082003001
 30
0.0
 10
27.58740679197604
 20
-12.55824390049975
 30
0.0
 10
28.22250964406112
 20
-12.9133874109383
 30
0.0
 10
29.07950698448985
 20
-13.41153828509914
 30
0.0
 10
29.29999999997335
 20
-13.54999999999779
 30
0.0
 10
29.29999999997722
 20
-13.55000000000007
 30
0.0
  0
LINE
  5
1C7
330
2
100
AcDbEntity
  8
GEB-VERDECKT
 48
25.0
100
AcDbLine
 10
4.649999999977353
 20
-23.17999999999995
 30
0.0
 11
4.649999999977353
 21
-24.0
 31
0.0
  0
LINE
  5
1C8
330
2
100
AcDbEntity
  8
GEB-VERDECKT
 48
25.0
100
AcDbLine
 10
37.3499999999774
 20
-23.17999999999995
 30
0.0
 11
37.3499999999774
 21
-24.0
 31
0.0
  0
LINE
  5
1C9
330
2
100
AcDbEntity
  8
GEB-VERDECKT
 48
25.0
100
AcDbLine
 10
9.699999999977308
 20
-21.82685657822276
 30
0.0
 11
4.649999999977353
 21
-23.17999999999995
 31
0.0
  0
LINE
  5
1CA
330
2
100
AcDbEntity
  8
GEB-VERDECKT
 48
25.0
100
AcDbLine
 10
32.29999999997744
 20
-21.82685657822276
 30
0.0
 11
37.3499999999774
 21
-23.17999999999995
 31
0.0
  0
LINE
  5
1CB
330
2
100
AcDbEntity
  8
GEB-VERDECKT
 48
25.0
100
AcDbLine
 10
9.699999999977308
 20
-20.42685657822278
 30
0.0
 11
9.699999999977308
 21
-21.82685657822276
 31
0.0
  0
LINE
  5
1CC
330
2
100
AcDbEntity
  8
GEB-VERDECKT
 48
25.0
100
AcDbLine
 10
32.29999999997744
 20
-20.42685657822278
 30
0.0
 11
32.29999999997744
 21
-21.82685657822276
 31
0.0
  0
LINE
  5
1CD
330
2
100
AcDbEntity
  8
GEB-VERDECKT
 48
25.0
100
AcDbLine
 10
32.29999999997744
 20
-20.42685657822278
 30
0.0
 11
34.19999999997731
 21
-19.91775311260369
 31
0.0
  0
LINE
  5
1CE
330
2
100
AcDbEntity
  8
GEB-VERDECKT
 48
25.0
100
AcDbLine
 10
9.699999999977308
 20
-20.42685657822278
 30
0.0
 11
7.799999999977444
 21
-19.91775311260369
 31
0.0
  0
LINE
  5
1CF
330
2
100
AcDbEntity
  8
GEB-VERDECKT
 48
25.0
100
AcDbLine
 10
7.799999999977444
 20
-18.19999999999993
 30
0.0
 11
7.799999999977444
 21
-19.91775311260369
 31
0.0
  0
LINE
  5
1D0
330
2
100
AcDbEntity
  8
GEB-VERDECKT
 48
25.0
100
AcDbLine
 10
34.19999999997731
 20
-18.19999999999993
 30
0.0
 11
34.19999999997731
 21
-19.91775311260369
 31
0.0
  0
LINE
  5
1D1
330
2
100
AcDbEntity
  8
GEB-VERDECKT
 48
25.0
100
AcDbLine
 10
12.69999999997731
 20
-16.88704895708747
 30
0.0
 11
7.799999999977444
 21
-18.19999999999993
 31
0.0
  0
LINE
  5
1D2
330
2
100
AcDbEntity
  8
GEB-VERDECKT
 48
25.0
100
AcDbLine
 10
29.29999999997722
 20
-16.88704895708747
 30
0.0
 11
34.19999999997731
 21
-18.19999999999993
 31
0.0
  0
LINE
  5
1D3
330
2
100
AcDbEntity
  8
GEB-VERDECKT
 48
25.0
100
AcDbLine
 10
4.649999999977239
 20
-24.0
 30
0.0
 11
37.3499999999774
 21
-24.0
 31
0.0
  0
LINE
  5
1D4
330
2
100
AcDbEntity
  8
GEB-VERDECKT
 48
25.0
100
AcDbLine
 10
4.649999999977239
 20
-23.17999999999995
 30
0.0
 11
37.3499999999774
 21
-23.17999999999995
 31
0.0
  0
LINE
  5
1D5
330
2
100
AcDbEntity
  8
GEB-VERDECKT
 48
25.0
100
AcDbLine
 10
9.699999999977308
 20
-21.82685657822276
 30
0.0
 11
32.29999999997722
 21
-21.82685657822276
 31
0.0
  0
LINE
  5
1D6
330
2
100
AcDbEntity
  8
GEB-VERDECKT
 48
25.0
100
AcDbLine
 10
9.699999999977308
 20
-20.42685657822278
 30
0.0
 11
32.29999999997722
 21
-20.42685657822278
 31
0.0
  0
LINE
  5
1D7
330
2
100
AcDbEntity
  8
GEB-VERDECKT
 48
25.0
100
AcDbLine
 10
7.799999999977444
 20
-19.91775311260369
 30
0.0
 11
34.19999999997731
 21
-19.91775311260369
 31
0.0
  0
LINE
  5
1D8
330
2
100
AcDbEntity
  8
GEB-VERDECKT
 48
25.0
100
AcDbLine
 10
29.29999999997722
 20
-16.88704895708747
 30
0.0
 11
12.69999999997731
 21
-16.88704895708747
 31
0.0
  0
LINE
  5
1D9
330
2
100
AcDbEntity
  8
GEB-VERDECKT
 48
25.0
100
AcDbLine
 10
7.799999999977444
 20
-18.19999999999993
 30
0.0
 11
34.19999999997731
 21
-18.19999999999993
 31
0.0
  0
LINE
  5
1DA
330
2
100
AcDbEntity
  8
GEB-VERDECKT
 48
25.0
100
AcDbLine
 10
15.79999999997722
 20
-9.315500000000042
 30
0.0
 11
15.79999999997722
 21
-24.0
 31
0.0
  0
LINE
  5
1DB
330
2
100
AcDbEntity
  8
GEB-VERDECKT
 48
25.0
100
AcDbLine
 10
26.19999999997731
 20
-9.315500000000042
 30
0.0
 11
26.19999999997731
 21
-24.0
 31
0.0
  0
SPLINE
  5
1DC
330
2
100
AcDbEntity
  8
GEB-VERDECKT
 48
25.0
100
AcDbSpline
210
0.0
220
0.0
230
1.0
 70
     8
 71
     3
 72
    22
 73
    18
 74
     0
 42
0.0000000001
 43
0.0000000001
 40
0.8042777542794892
 40
0.8042777542794892
 40
0.8042777542854807
 40
0.8042777542854807
 40
1.004888461406359
 40
1.004888461406359
 40
1.205499168527237
 40
1.205499168527237
 40
1.407027338549099
 40
1.407027338549099
 40
1.608555508570961
 40
1.608555508570961
 40
1.810083678592823
 40
1.810083678592823
 40
2.011611848614684
 40
2.011611848614684
 40
2.212222555735563
 40
2.212222555735563
 40
2.412833262856441
 40
2.412833262856441
 40
2.412833262860316
 40
2.412833262860316
 10
15.79999999997722
 20
-9.315500000000042
 30
0.0
 10
15.79999999997722
 20
-9.315500000000042
 30
0.0
 10
15.93671370983247
 20
-9.237078008086655
 30
0.0
 10
16.4723893062453
 20
-8.954663688499522
 30
0.0
 10
16.87061444649339
 20
-8.753482086356939
 30
0.0
 10
17.77754415101935
 20
-8.363869622230254
 30
0.0
 10
18.35182723778643
 20
-8.146843547165758
 30
0.0
 10
19.62623634896272
 20
-7.825949994105599
 30
0.0
 10
20.32823943323638
 20
-7.72907111171844
 30
0.0
 10
21.67176056671519
 20
-7.72907111171844
 30
0.0
 10
22.37376365098885
 20
-7.825949994105599
 30
0.0
 10
23.64817276216559
 20
-8.146843547165758
 30
0.0
 10
24.2224558489329
 20
-8.363869622230254
 30
0.0
 10
25.12938555345932
 20
-8.753482086356939
 30
0.0
 10
25.52761069370786
 20
-8.954663688499522
 30
0.0
 10
26.06328629012137
 20
-9.237078008086655
 30
0.0
 10
26.19999999997708
 20
-9.315500000000042
 30
0.0
 10
26.19999999997731
 20
-9.315500000000042
 30
0.0
  0
LINE
  5
1DD
330
2
100
AcDbEntity
  8
GEB-VERDECKT
 48
25.0
100
AcDbLine
 10
26.19999999997731
 20
-9.315500000000042
 30
0.0
 11
53.56549999997742
 21
-9.315500000000042
 31
0.0
  0
LINE
  5
1DE
330
2
100
AcDbEntity
  8
GEB-VERDECKT
 48
25.0
100
AcDbLine
 10
15.49999999997726
 20
-9.315500000000042
 30
0.0
 11
15.79999999997722
 21
-9.315500000000042
 31
0.0
  0
LINE
  5
1DF
330
2
100
AcDbEntity
  8
GEB-VERDECKT
 48
25.0
100
AcDbLine
 10
15.49999999997726
 20
9.315500000000042
 30
0.0
 11
53.56549999997742
 21
9.315500000000042
 31
0.0
  0
LINE
  5
1E0
330
2
100
AcDbEntity
  8
GEB-VERDECKT
 48
25.0
100
AcDbLine
 10
53.56549999997742
 20
-9.315500000000042
 30
0.0
 11
55.49999999997726
 21
-11.25
 31
0.0
  0
LINE
  5
1E1
330
2
100
AcDbEntity
  8
GEB-VERDECKT
 48
25.0
100
AcDbLine
 10
53.56549999997742
 20
9.315500000000042
 30
0.0
 11
55.49999999997726
 21
11.25
 31
0.0
  0
LINE
  5
1E2
330
2
100
AcDbEntity
  8
GEB-VERDECKT
 48
25.0
100
AcDbLine
 10
9.902682903426011
 20
0.0
 30
0.0
 11
15.49999999997726
 21
-9.315500000000042
 31
0.0
  0
LINE
  5
1E3
330
2
100
AcDbEntity
  8
GEB-VERDECKT
 48
25.0
100
AcDbLine
 10
9.902682903426011
 20
0.0
 30
0.0
 11
15.49999999997726
 21
9.315500000000042
 31
0.0
  0
LINE
  5
1E4
330
2
100
AcDbEntity
  8
GEB-VERDECKT
 48
25.0
100
AcDbLine
 10
53.56549999997742
 20
-9.315500000000042
 30
0.0
 11
53.56549999997742
 21
9.315500000000042
 31
0.0
  0
LINE
  5
1E5
330
2
100
AcDbEntity
  8
GEB-VERDECKT
 48
25.0
100
AcDbLine
 10
15.49999999997726
 20
-9.315500000000042
 30
0.0
 11
15.49999999997726
 21
9.315500000000042
 31
0.0
  0
SPLINE
  5
1E6
330
2
100
AcDbEntity
  8
GEB-VERDECKT
 48
25.0
100
AcDbSpline
210
0.0
220
0.0
230
1.0
 70
    27
 71
     3
 72
     8
 73
     4
 74
     0
 42
0.0000000001
 43
0.0000000001
 40
1.522751145681777
 40
1.522751145681777
 40
1.522751145681777
 40
1.522751145681777
 40
1.522755757253822
 40
1.522755757253822
 40
1.522755757253822
 40
1.522755757253822
 10
6.644121393051136
 20
23.5
 30
0.0
 10
6.644121393055911
 20
23.49999999989279
 30
0.0
 10
6.644121393051136
 20
23.5
 30
0.0
 10
6.644121393051136
 20
23.5
 30
0.0
  0
SPLINE
  5
1E7
330
2
100
AcDbEntity
  8
GEB-VERDECKT
 48
25.0
100
AcDbSpline
210
0.0
220
0.0
230
1.0
 70
     8
 71
     3
 72
    16
 73
    12
 74
     0
 42
0.0000000001
 43
0.0000000001
 40
1.318174145542829
 40
1.318174145542829
 40
1.318174145542829
 40
1.318174145542829
 40
1.64468847516359
 40
1.64468847516359
 40
1.971206259906081
 40
1.971206259906081
 40
2.30377382037414
 40
2.30377382037414
 40
2.636341380842199
 40
2.636341380842199
 40
2.817206664835975
 40
2.817206664835975
 40
2.817206664835975
 40
2.817206664835975
 10
12.70000000009895
 20
-11.34999999994329
 30
0.0
 10
12.70000479705504
 20
-11.34999642550599
 30
0.0
 10
12.92666936107593
 20
-11.18109811884528
 30
0.0
 10
13.78926271956334
 20
-10.57511322791651
 30
0.0
 10
14.42327537141977
 20
-10.14237273189553
 30
0.0
 10
15.8518651544789
 20
-9.279321851560325
 30
0.0
 10
16.75482166810297
 20
-8.780006557798287
 30
0.0
 10
18.77154432865882
 20
-8.002065340769718
 30
0.0
 10
19.89144146512671
 20
-7.741608360024315
 30
0.0
 10
21.60288427999944
 20
-7.741608360024315
 30
0.0
 10
22.2103736400777
 20
-7.814580980453797
 30
0.0
 10
22.80000000002042
 20
-7.948112983595478
 30
0.0
  0
SPLINE
  5
1E8
330
2
100
AcDbEntity
  8
GEB-VERDECKT
 48
25.0
100
AcDbSpline
210
0.0
220
0.0
230
1.0
 70
     8
 71
     3
 72
    12
 73
     8
 74
     0
 42
0.0000000001
 43
0.0000000001
 40
0.4099523842370038
 40
0.4099523842370038
 40
0.4099523842370038
 40
0.4099523842370038
 40
0.6484669980069616
 40
0.6484669980069616
 40
0.970383311770699
 40
0.970383311770699
 40
1.292297670547352
 40
1.292297670547352
 40
1.292297670547352
 40
1.292297670547352
 10
25.00000000002046
 20
-11.4329567479283
 30
0.0
 10
25.70305231280418
 20
-11.67893067340856
 30
0.0
 10
26.33669331610122
 20
-11.95721082003001
 30
0.0
 10
27.58740679202151
 20
-12.55824390049975
 30
0.0
 10
28.2225096441066
 20
-12.9133874109383
 30
0.0
 10
29.07950438228045
 20
-13.41153677247428
 30
0.0
 10
29.29999732192118
 20
-13.54999831824909
 30
0.0
 10
29.29999999999836
 20
-13.5499999999846
 30
0.0
  0
SPLINE
  5
1E9
330
2
100
AcDbEntity
  8
GEB-VERDECKT
 48
25.0
100
AcDbSpline
210
0.0
220
0.0
230
1.0
 70
     8
 71
     3
 72
    22
 73
    18
 74
     0
 42
0.0000000001
 43
0.0000000001
 40
0.8042777542794892
 40
0.8042777542794892
 40
0.8042777542854807
 40
0.8042777542854807
 40
1.004888461406359
 40
1.004888461406359
 40
1.205499168527237
 40
1.205499168527237
 40
1.407027338549099
 40
1.407027338549099
 40
1.608555508570961
 40
1.608555508570961
 40
1.810083678592823
 40
1.810083678592823
 40
2.011611848614684
 40
2.011611848614684
 40
2.212222555735563
 40
2.212222555735563
 40
2.412833262856441
 40
2.412833262856441
 40
2.412833262860316
 40
2.412833262860316
 10
15.80000000002269
 20
-9.315500000000042
 30
0.0
 10
15.80000000002246
 20
-9.315500000000042
 30
0.0
 10
15.93671370987795
 20
-9.237078008086655
 30
0.0
 10
16.47238930629078
 20
-8.954663688499522
 30
0.0
 10
16.87061444653886
 20
-8.753482086356939
 30
0.0
 10
17.77754415106483
 20
-8.363869622230254
 30
0.0
 10
18.35182723783191
 20
-8.146843547165758
 30
0.0
 10
19.62623634900819
 20
-7.825949994105599
 30
0.0
 10
20.32823943328185
 20
-7.72907111171844
 30
0.0
 10
21.67176056676067
 20
-7.72907111171844
 30
0.0
 10
22.37376365103433
 20
-7.825949994105599
 30
0.0
 10
23.64817276221083
 20
-8.146843547165758
 30
0.0
 10
24.22245584897837
 20
-8.363869622230254
 30
0.0
 10
25.12938555350479
 20
-8.753482086356939
 30
0.0
 10
25.52761069375311
 20
-8.954663688499522
 30
0.0
 10
26.06328629016684
 20
-9.237078008086655
 30
0.0
 10
26.20000000002256
 20
-9.315500000000042
 30
0.0
 10
26.20000000002278
 20
-9.315500000000042
 30
0.0
  0
TEXT
  5
1EA
330
2
100
AcDbEntity
  8
GEB-TEXT
100
AcDbText
 10
-14.25972032743292
 20
-68.70000000000016
 30
0.0
 40
3.5
  1
AnWinSet 2x Mpad PF Ms d20-Rp1/2
 72
     1
 11
26.49999999998863
 21
-68.70000000000016
 31
0.0
100
AcDbText
  0
TEXT
  5
1EC
330
2
100
AcDbEntity
  8
GEB-TEXT
100
AcDbText
 10
9.51568894951114
 20
-63.20000000000016
 30
0.0
 40
3.5
  1
Geberit PushFit
 72
     1
 11
26.49999999998863
 21
-63.20000000000016
 31
0.0
100
AcDbText
  0
TEXT
  5
1ED
330
2
100
AcDbEntity
  8
GEB-ART-NR
100
AcDbText
 10
2.324555200342921
 20
-75.04278125428038
 30
0.0
 40
3.5
  1
GEB-ART-NR 651.300
 72
     1
 11
27.0525565645994
 21
-75.04278125428038
 31
0.0
100
AcDbText
  0
ENDSEC
  0
SECTION
  2
OBJECTS
  0
DICTIONARY
  5
9
330
0
100
AcDbDictionary
281
     1
  3
ACAD_2007HEADERVARS_RT
350
2A4
  3
ACAD_COLOR
350
44
  3
ACAD_GROUP
350
31
  3
ACAD_LAYOUT
350
8
  3
ACAD_MATERIAL
350
13
  3
ACAD_MLEADERSTYLE
350
47
  3
ACAD_MLINESTYLE
350
32
  3
ACAD_PLOTSETTINGS
350
33
  3
ACAD_PLOTSTYLENAME
350
11
  3
ACAD_SCALELIST
350
45
  3
ACAD_TABLESTYLE
350
46
  3
ACAD_VISUALSTYLE
350
2B
  3
ACDB_RECOMPOSE_DATA
350
2A3
  3
AcDbVariableDictionary
350
24D
  3
AcmDictionary
350
200
  3
AcmSystemVariableManager
350
2BB
  3
AMG
350
1F1
  0
DICTIONARY
  5
2C
330
28
100
AcDbDictionary
280
     1
281
     1
  0
DICTIONARY
  5
1C
330
E
100
AcDbDictionary
280
     1
281
     1
  3
ACAD_LAYERFILTERS
360
1D
  3
ACLYDICTIONARY
360
1E
  0
DICTIONARY
  5
3
330
2
100
AcDbDictionary
280
     1
281
     1
  3
ACAD_SORTENTS
360
1EF
  0
DICTIONARY
  5
2A4
102
{ACAD_REACTORS
330
9
102
}
330
9
100
AcDbDictionary
281
     1
  3
DIMARCSYM
350
2A5
  3
DIMLTEX1
350
2A7
  3
DIMLTEX2
350
2A8
  3
DIMLTYPE
350
2A6
  0
DICTIONARY
  5
44
102
{ACAD_REACTORS
330
9
102
}
330
9
100
AcDbDictionary
281
     1
  0
DICTIONARY
  5
31
102
{ACAD_REACTORS
330
9
102
}
330
9
100
AcDbDictionary
281
     1
  0
DICTIONARY
  5
8
102
{ACAD_REACTORS
330
9
102
}
330
9
100
AcDbDictionary
281
     1
  3
Layout1
350
D
  3
Model
350
7
  0
DICTIONARY
  5
13
102
{ACAD_REACTORS
330
9
102
}
330
9
100
AcDbDictionary
281
     1
  3
ByBlock
350
3C
  3
ByLayer
350
34
  3
Global
350
12
  0
DICTIONARY
  5
47
102
{ACAD_REACTORS
330
9
102
}
330
9
100
AcDbDictionary
281
     1
  3
Standard
350
26B
  0
DICTIONARY
  5
32
102
{ACAD_REACTORS
330
9
102
}
330
9
100
AcDbDictionary
281
     1
  3
Standard
350
48
  0
DICTIONARY
  5
33
102
{ACAD_REACTORS
330
9
102
}
330
9
100
AcDbDictionary
281
     1
  0
ACDBDICTIONARYWDFLT
  5
11
102
{ACAD_REACTORS
330
9
102
}
330
9
100
AcDbDictionary
281
     1
  3
Normal
350
10
100
AcDbDictionaryWithDefault
340
10
  0
DICTIONARY
  5
45
102
{ACAD_REACTORS
330
9
102
}
330
9
100
AcDbDictionary
281
     1
  3
A0
350
4D
  3
A1
350
4E
  3
A2
350
4F
  3
A3
350
50
  3
A4
350
51
  3
A5
350
52
  3
A6
350
53
  3
A7
350
54
  3
A8
350
55
  3
A9
350
56
  3
B0
350
57
  3
B1
350
58
  3
B2
350
59
  3
B3
350
5A
  3
B4
350
5B
  3
B5
350
5C
  3
B6
350
5D
  3
B7
350
5E
  3
B8
350
5F
  3
B9
350
60
  3
C0
350
61
  3
C1
350
62
  3
C2
350
63
  3
C3
350
64
  3
C4
350
65
  3
C5
350
66
  3
C6
350
67
  3
C7
350
68
  3
C8
350
69
  3
C9
350
6A
  3
D0
350
6B
  3
D1
350
6C
  3
D2
350
6D
  0
DICTIONARY
  5
46
102
{ACAD_REACTORS
330
9
102
}
330
9
100
AcDbDictionary
281
     1
  3
Standard
350
49
  0
DICTIONARY
  5
2B
102
{ACAD_REACTORS
330
9
102
}
330
9
100
AcDbDictionary
281
     1
  3
2dWireframe
350
2A
  3
Basic
350
25A
  3
Brighten
350
25E
  3
ColorChange
350
262
  3
Conceptual
350
25C
  3
Dim
350
25D
  3
EdgeColorOff
350
26A
  3
Facepattern
350
261
  3
Flat
350
256
  3
FlatWithEdges
350
257
  3
Gouraud
350
258
  3
GouraudWithEdges
350
259
  3
Hidden
350
25B
  3
JitterOff
350
268
  3
Linepattern
350
260
  3
OverhangOff
350
269
  3
Realistic
350
4B
  3
Shaded
350
267
  3
Shaded with edges
350
266
  3
Shades of Gray
350
263
  3
Sketchy
350
264
  3
Thicken
350
25F
  3
Wireframe
350
4C
  3
X-Ray
350
265
  0
XRECORD
  5
2A3
102
{ACAD_REACTORS
330
9
102
}
330
9
100
AcDbXrecord
280
     1
 90
        1
330
49
  0
DICTIONARY
  5
24D
102
{ACAD_REACTORS
330
9
102
}
330
9
100
AcDbDictionary
281
     1
  3
CANNOSCALE
350
251
  3
CMLEADERSTYLE
350
24F
  3
CTABLESTYLE
350
24E
  3
DIMASSOC
350
2A0
  3
HIDETEXT
350
29F
  3
INDEXCTL
350
29E
  3
LAYEREVAL
350
253
  3
LAYERNOTIFY
350
254
  3
LIGHTINGUNITS
350
252
  3
MSLTSCALE
350
250
  3
SORTENTS
350
29D
  3
XCLIPFRAME
350
2A1
  0
DICTIONARY
  5
200
102
{ACAD_REACTORS
330
9
102
}
330
9
100
AcDbDictionary
281
     1
  3
AcmStdDictionary
350
201
  0
DICTIONARY
  5
1F1
102
{ACAD_REACTORS
330
9
102
}
330
9
100
AcDbDictionary
281
     1
  3
AcMgSettings
350
1FB
  0
DICTIONARY
  5
1D
102
{ACAD_REACTORS
330
1C
102
}
330
1C
100
AcDbDictionary
281
     1
  0
DICTIONARY
  5
1E
102
{ACAD_REACTORS
330
1C
102
}
330
1C
100
AcDbDictionary
281
     1
1001
ACAD
1000
<All
  0
SORTENTSTABLE
  5
1EF
102
{ACAD_REACTORS
330
3
102
}
330
3
100
AcDbSortentsTable
330
2
331
B6
  5
1AC
331
12C
  5
136
331
B2
  5
1B0
331
ED
  5
175
331
AE
  5
1B4
331
128
  5
13A
331
167
  5
FB
331
AA
  5
1B8
331
163
  5
FF
331
124
  5
13E
331
E9
  5
179
331
120
  5
142
331
1A5
  5
BD
331
1A1
  5
C1
331
19D
  5
C5
331
1DC
  5
86
331
199
  5
C9
331
1D8
  5
8A
331
E5
  5
17D
331
15F
  5
103
331
A6
  5
1BC
331
E1
  5
181
331
15B
  5
107
331
11C
  5
146
331
A2
  5
1C0
331
DD
  5
185
331
9E
  5
1C4
331
118
  5
14A
331
157
  5
10B
331
9A
  5
1C8
331
153
  5
10F
331
114
  5
14E
331
D9
  5
189
331
110
  5
152
331
6E
  5
1E9
331
1D4
  5
8E
331
195
  5
CD
331
1D0
  5
92
331
191
  5
D1
331
1CC
  5
96
331
18D
  5
D5
331
189
  5
D9
331
1C8
  5
9A
331
96
  5
1CC
331
14F
  5
113
331
D5
  5
18D
331
D1
  5
191
331
14B
  5
117
331
10C
  5
156
331
92
  5
1D0
331
CD
  5
195
331
8E
  5
1D4
331
108
  5
15A
331
147
  5
11B
331
C9
  5
199
331
8A
  5
1D8
331
143
  5
11F
331
104
  5
15E
331
100
  5
162
331
1C4
  5
9E
331
185
  5
DD
331
1C0
  5
A2
331
181
  5
E1
331
1BC
  5
A6
331
17D
  5
E5
331
179
  5
E9
331
1B8
  5
AA
331
86
  5
1DC
331
13F
  5
123
331
C5
  5
19D
331
C1
  5
1A1
331
13B
  5
127
331
FC
  5
166
331
82
  5
1E0
331
BD
  5
1A5
331
7E
  5
1E3
331
F8
  5
16A
331
137
  5
12B
331
B9
  5
1A9
331
7A
  5
1E4
331
133
  5
12F
331
F4
  5
16E
331
F0
  5
172
331
1B4
  5
AE
331
175
  5
ED
331
1B0
  5
B2
331
171
  5
F1
331
1AC
  5
B6
331
1E7
  5
77
331
16D
  5
F5
331
169
  5
F9
331
1E3
  5
7E
331
1A8
  5
BA
331
12F
  5
133
331
B5
  5
1AD
331
12B
  5
137
331
B1
  5
1B1
331
EC
  5
176
331
AD
  5
1B5
331
166
  5
FC
331
127
  5
13B
331
A9
  5
1B9
331
162
  5
100
331
123
  5
13F
331
E8
  5
17A
331
75
  5
1E8
331
1A4
  5
BE
331
1DF
  5
83
331
1A0
  5
C2
331
19C
  5
C6
331
1DB
  5
87
331
198
  5
CA
331
E4
  5
17E
331
15E
  5
104
331
11F
  5
143
331
A5
  5
1BD
331
E0
  5
182
331
A1
  5
1C1
331
11B
  5
147
331
15A
  5
108
331
DC
  5
186
331
9D
  5
1C5
331
117
  5
14B
331
156
  5
10C
331
99
  5
1C9
331
152
  5
110
331
113
  5
14F
331
D8
  5
18A
331
1D7
  5
8B
331
1D3
  5
8F
331
194
  5
CE
331
1CF
  5
93
331
190
  5
D2
331
18C
  5
D6
331
1CB
  5
97
331
188
  5
DA
331
D4
  5
18E
331
14E
  5
114
331
10F
  5
153
331
95
  5
1CD
331
D0
  5
192
331
14A
  5
118
331
10B
  5
157
331
91
  5
1D1
331
CC
  5
196
331
8D
  5
1D5
331
107
  5
15B
331
146
  5
11C
331
89
  5
1D9
331
142
  5
120
331
103
  5
15F
331
C8
  5
19A
331
1C7
  5
9B
331
1C3
  5
9F
331
184
  5
DE
331
1BF
  5
A3
331
180
  5
E2
331
1BB
  5
A7
331
17C
  5
E6
331
178
  5
EA
331
85
  5
1DD
331
13E
  5
124
331
FF
  5
163
331
C4
  5
19E
331
C0
  5
1A2
331
13A
  5
128
331
FB
  5
167
331
81
  5
1E1
331
BC
  5
1A6
331
F7
  5
16B
331
136
  5
12C
331
B8
  5
1AA
331
79
  5
1E5
331
132
  5
130
331
F3
  5
16F
331
1B7
  5
AB
331
1B3
  5
AF
331
174
  5
EE
331
1AF
  5
B3
331
1EA
  5
1ED
331
170
  5
F2
331
1AB
  5
B7
331
16C
  5
F6
331
1E6
  5
78
331
168
  5
FA
331
1E2
  5
7F
331
12E
  5
134
331
B4
  5
1AE
331
EF
  5
173
331
12A
  5
138
331
B0
  5
1B2
331
EB
  5
177
331
AC
  5
1B6
331
165
  5
FD
331
126
  5
13C
331
A8
  5
1BA
331
161
  5
101
331
122
  5
140
331
1A7
  5
BB
331
1A3
  5
BF
331
1DE
  5
84
331
19F
  5
C3
331
19B
  5
C7
331
1DA
  5
88
331
E7
  5
17B
331
E3
  5
17F
331
15D
  5
105
331
11E
  5
144
331
A4
  5
1BE
331
DF
  5
183
331
A0
  5
1C2
331
11A
  5
148
331
159
  5
109
331
DB
  5
187
331
9C
  5
1C6
331
155
  5
10D
331
116
  5
14C
331
98
  5
1CA
331
151
  5
111
331
112
  5
150
331
1D6
  5
8C
331
197
  5
CB
331
1D2
  5
90
331
193
  5
CF
331
1CE
  5
94
331
18F
  5
D3
331
18B
  5
D7
331
1CA
  5
98
331
D7
  5
18B
331
D3
  5
18F
331
14D
  5
115
331
10E
  5
154
331
94
  5
1CE
331
CF
  5
193
331
90
  5
1D2
331
10A
  5
158
331
149
  5
119
331
CB
  5
197
331
8C
  5
1D6
331
106
  5
15C
331
145
  5
11D
331
88
  5
1DA
331
141
  5
121
331
102
  5
160
331
1C6
  5
9C
331
187
  5
DB
331
1C2
  5
A0
331
183
  5
DF
331
1BE
  5
A4
331
17F
  5
E3
331
17B
  5
E7
331
1BA
  5
A8
331
C7
  5
19B
331
C3
  5
19F
331
13D
  5
125
331
FE
  5
164
331
84
  5
1DE
331
139
  5
129
331
FA
  5
168
331
BF
  5
1A3
331
BB
  5
1A7
331
F6
  5
16C
331
135
  5
12D
331
78
  5
1E6
331
F2
  5
170
331
177
  5
EB
331
1B6
  5
AC
331
1B2
  5
B0
331
1ED
  5
1EA
331
173
  5
EF
331
1AE
  5
B4
331
1E9
  5
6E
331
16F
  5
F3
331
1AA
  5
B8
331
16B
  5
F7
331
1E5
  5
79
331
1E1
  5
81
331
B7
  5
1AB
331
12D
  5
135
331
B3
  5
1AF
331
EE
  5
174
331
129
  5
139
331
AF
  5
1B3
331
AB
  5
1B7
331
164
  5
FE
331
125
  5
13D
331
EA
  5
178
331
160
  5
102
331
121
  5
141
331
77
  5
1E7
331
1A6
  5
BC
331
1A2
  5
C0
331
1DD
  5
85
331
19E
  5
C4
331
19A
  5
C8
331
1D9
  5
89
331
A7
  5
1BB
331
E6
  5
17C
331
E2
  5
180
331
15C
  5
106
331
11D
  5
145
331
A3
  5
1BF
331
DE
  5
184
331
9F
  5
1C3
331
119
  5
149
331
158
  5
10A
331
DA
  5
188
331
9B
  5
1C7
331
154
  5
10E
331
115
  5
14D
331
150
  5
112
331
111
  5
151
331
1D5
  5
8D
331
196
  5
CC
331
1D1
  5
91
331
192
  5
D0
331
1CD
  5
95
331
18E
  5
D4
331
18A
  5
D8
331
1C9
  5
99
331
97
  5
1CB
331
D6
  5
18C
331
D2
  5
190
331
14C
  5
116
331
10D
  5
155
331
93
  5
1CF
331
CE
  5
194
331
8F
  5
1D3
331
109
  5
159
331
148
  5
11A
331
CA
  5
198
331
8B
  5
1D7
331
144
  5
11E
331
105
  5
15D
331
140
  5
122
331
101
  5
161
331
1C5
  5
9D
331
186
  5
DC
331
1C1
  5
A1
331
182
  5
E0
331
1BD
  5
A5
331
17E
  5
E4
331
17A
  5
E8
331
1B9
  5
A9
331
87
  5
1DB
331
C6
  5
19C
331
C2
  5
1A0
331
13C
  5
126
331
FD
  5
165
331
83
  5
1DF
331
BE
  5
1A4
331
7F
  5
1E2
331
F9
  5
169
331
138
  5
12A
331
BA
  5
1A8
331
F5
  5
16D
331
134
  5
12E
331
130
  5
132
331
F1
  5
171
331
1B5
  5
AD
331
176
  5
EC
331
1B1
  5
B1
331
172
  5
F0
331
1AD
  5
B5
331
1E8
  5
75
331
16E
  5
F4
331
16A
  5
F8
331
1E4
  5
7A
331
1A9
  5
B9
331
1E0
  5
82
  0
XRECORD
  5
2A5
102
{ACAD_REACTORS
330
2A4
102
}
330
2A4
100
AcDbXrecord
280
     1
 70
     1
  0
XRECORD
  5
2A7
102
{ACAD_REACTORS
330
2A4
102
}
330
2A4
100
AcDbXrecord
280
     1
340
24
  0
XRECORD
  5
2A8
102
{ACAD_REACTORS
330
2A4
102
}
330
2A4
100
AcDbXrecord
280
     1
340
24
  0
XRECORD
  5
2A6
102
{ACAD_REACTORS
330
2A4
102
}
330
2A4
100
AcDbXrecord
280
     1
340
24
  0
LAYOUT
  5
D
102
{ACAD_XDICTIONARY
360
2AB
102
}
102
{ACAD_REACTORS
330
8
102
}
330
8
100
AcDbPlotSettings
  1

  2
\\le-server\HP LaserJet 2100
  4

  6

 40
0.0
 41
0.0
 42
0.0
 43
0.0
 44
0.0
 45
0.0
 46
0.0
 47
0.0
 48
0.0
 49
0.0
140
0.0
141
0.0
142
1.0
143
1.0
 70
   688
 72
     0
 73
     0
 74
     5
  7

 75
    16
147
1.0
148
0.0
149
0.0
100
AcDbLayout
  1
Layout1
 70
     1
 71
     1
 10
0.0
 20
0.0
 11
1189.0
 21
840.9999999999998
 12
0.0
 22
0.0
 32
0.0
 14
0.0
 24
0.0
 34
0.0
 15
1189.0
 25
840.9999999999998
 35
0.0
146
0.0
 13
0.0
 23
0.0
 33
0.0
 16
1.0
 26
0.0
 36
0.0
 17
0.0
 27
1.0
 37
0.0
 76
     0
330
A
  0
LAYOUT
  5
7
102
{ACAD_XDICTIONARY
360
2A9
102
}
102
{ACAD_REACTORS
330
8
102
}
330
8
100
AcDbPlotSettings
  1

  2
\\le-server\HP LaserJet 2100
  4

  6

 40
0.0
 41
0.0
 42
0.0
 43
0.0
 44
0.0
 45
0.0
 46
0.0
 47
0.0
 48
0.0
 49
0.0
140
0.0
141
0.0
142
1.0
143
1.0
 70
  1712
 72
     0
 73
     0
 74
     0
  7

 75
     0
147
1.0
148
0.0
149
0.0
100
AcDbLayout
  1
Model
 70
     1
 71
     0
 10
0.0
 20
0.0
 11
12.0
 21
9.0
 12
0.0
 22
0.0
 32
0.0
 14
0.0
 24
0.0
 34
0.0
 15
0.0
 25
0.0
 35
0.0
146
0.0
 13
0.0
 23
0.0
 33
0.0
 16
1.0
 26
0.0
 36
0.0
 17
0.0
 27
1.0
 37
0.0
 76
     0
330
2
331
29
  0
MATERIAL
  5
3C
102
{ACAD_XDICTIONARY
360
3D
102
}
102
{ACAD_REACTORS
330
13
102
}
330
13
100
AcDbMaterial
  1
ByBlock
 72
     0
 43
0.0208333333333333
 43
0.0
 43
0.0
 43
0.0
 43
0.0
 43
0.0208333333333333
 43
0.0
 43
0.0
 43
0.0
 43
0.0
 43
1.0
 43
0.0
 43
0.0
 43
0.0
 43
0.0
 43
1.0
 77
     0
 47
0.0208333333333333
 47
0.0
 47
0.0
 47
0.0
 47
0.0
 47
0.0208333333333333
 47
0.0
 47
0.0
 47
0.0
 47
0.0
 47
1.0
 47
0.0
 47
0.0
 47
0.0
 47
0.0
 47
1.0
171
     0
 49
0.0208333333333333
 49
0.0
 49
0.0
 49
0.0
 49
0.0
 49
0.0208333333333333
 49
0.0
 49
0.0
 49
0.0
 49
0.0
 49
1.0
 49
0.0
 49
0.0
 49
0.0
 49
0.0
 49
1.0
175
     0
142
0.0208333333333333
142
0.0
142
0.0
142
0.0
142
0.0
142
0.0208333333333333
142
0.0
142
0.0
142
0.0
142
0.0
142
1.0
142
0.0
142
0.0
142
0.0
142
0.0
142
1.0
179
     0
144
0.0208333333333333
144
0.0
144
0.0
144
0.0
144
0.0
144
0.0208333333333333
144
0.0
144
0.0
144
0.0
144
0.0
144
1.0
144
0.0
144
0.0
144
0.0
144
0.0
144
1.0
147
0.0208333333333333
147
0.0
147
0.0
147
0.0
147
0.0
147
0.0208333333333333
147
0.0
147
0.0
147
0.0
147
0.0
147
1.0
147
0.0
147
0.0
147
0.0
147
0.0
147
1.0
  0
MATERIAL
  5
34
102
{ACAD_XDICTIONARY
360
35
102
}
102
{ACAD_REACTORS
330
13
102
}
330
13
100
AcDbMaterial
  1
ByLayer
 72
     0
 43
0.0208333333333333
 43
0.0
 43
0.0
 43
0.0
 43
0.0
 43
0.0208333333333333
 43
0.0
 43
0.0
 43
0.0
 43
0.0
 43
1.0
 43
0.0
 43
0.0
 43
0.0
 43
0.0
 43
1.0
 77
     0
 47
0.0208333333333333
 47
0.0
 47
0.0
 47
0.0
 47
0.0
 47
0.0208333333333333
 47
0.0
 47
0.0
 47
0.0
 47
0.0
 47
1.0
 47
0.0
 47
0.0
 47
0.0
 47
0.0
 47
1.0
171
     0
 49
0.0208333333333333
 49
0.0
 49
0.0
 49
0.0
 49
0.0
 49
0.0208333333333333
 49
0.0
 49
0.0
 49
0.0
 49
0.0
 49
1.0
 49
0.0
 49
0.0
 49
0.0
 49
0.0
 49
1.0
175
     0
142
0.0208333333333333
142
0.0
142
0.0
142
0.0
142
0.0
142
0.0208333333333333
142
0.0
142
0.0
142
0.0
142
0.0
142
1.0
142
0.0
142
0.0
142
0.0
142
0.0
142
1.0
179
     0
144
0.0208333333333333
144
0.0
144
0.0
144
0.0
144
0.0
144
0.0208333333333333
144
0.0
144
0.0
144
0.0
144
0.0
144
1.0
144
0.0
144
0.0
144
0.0
144
0.0
144
1.0
147
0.0208333333333333
147
0.0
147
0.0
147
0.0
147
0.0
147
0.0208333333333333
147
0.0
147
0.0
147
0.0
147
0.0
147
1.0
147
0.0
147
0.0
147
0.0
147
0.0
147
1.0
  0
MATERIAL
  5
12
102
{ACAD_XDICTIONARY
360
14
102
}
102
{ACAD_REACTORS
330
13
102
}
330
13
100
AcDbMaterial
  1
Global
 72
     0
 43
0.0208333333333333
 43
0.0
 43
0.0
 43
0.0
 43
0.0
 43
0.0208333333333333
 43
0.0
 43
0.0
 43
0.0
 43
0.0
 43
1.0
 43
0.0
 43
0.0
 43
0.0
 43
0.0
 43
1.0
 77
     0
 47
0.0208333333333333
 47
0.0
 47
0.0
 47
0.0
 47
0.0
 47
0.0208333333333333
 47
0.0
 47
0.0
 47
0.0
 47
0.0
 47
1.0
 47
0.0
 47
0.0
 47
0.0
 47
0.0
 47
1.0
171
     0
 49
0.0208333333333333
 49
0.0
 49
0.0
 49
0.0
 49
0.0
 49
0.0208333333333333
 49
0.0
 49
0.0
 49
0.0
 49
0.0
 49
1.0
 49
0.0
 49
0.0
 49
0.0
 49
0.0
 49
1.0
175
     0
142
0.0208333333333333
142
0.0
142
0.0
142
0.0
142
0.0
142
0.0208333333333333
142
0.0
142
0.0
142
0.0
142
0.0
142
1.0
142
0.0
142
0.0
142
0.0
142
0.0
142
1.0
179
     0
144
0.0208333333333333
144
0.0
144
0.0
144
0.0
144
0.0
144
0.0208333333333333
144
0.0
144
0.0
144
0.0
144
0.0
144
1.0
144
0.0
144
0.0
144
0.0
144
0.0
144
1.0
147
0.0208333333333333
147
0.0
147
0.0
147
0.0
147
0.0
147
0.0208333333333333
147
0.0
147
0.0
147
0.0
147
0.0
147
1.0
147
0.0
147
0.0
147
0.0
147
0.0
147
1.0
  0
MLEADERSTYLE
  5
26B
102
{ACAD_REACTORS
330
47
102
}
330
47
100
AcDbMLeaderStyle
170
     2
171
     1
172
     0
 90
        2
 40
0.0
 41
0.0
173
     1
 91
-1056964608
340
24
 92
       -2
290
     1
 42
2.0
291
     1
 43
0.36
  3
Standard
 44
4.0
300

342
21
174
     1
178
     6
175
     1
176
     0
 93
-1056964608
 45
4.0
292
     0
297
     0
 46
4.0
 94
-1056964608
 47
1.0
 49
1.0
140
1.0
293
     1
141
0.0
294
     1
177
     0
142
1.0
295
     0
296
     0
143
0.125
1001
ACAD_MLEADERVER
1070
     2
  0
MLINESTYLE
  5
48
102
{ACAD_REACTORS
330
32
102
}
330
32
100
AcDbMlineStyle
  2
STANDARD
 70
     0
  3

 62
   256
 51
90.0
 52
90.0
 71
     2
 49
0.5
 62
   256
  6
BYLAYER
 49
-0.5
 62
   256
  6
BYLAYER
  0
ACDBPLACEHOLDER
  5
10
102
{ACAD_REACTORS
330
11
102
}
330
11
  0
SCALE
  5
4D
102
{ACAD_REACTORS
330
45
102
}
330
45
100
AcDbScale
 70
     0
300
1:1
140
1.0
141
1.0
290
     1
  0
SCALE
  5
4E
102
{ACAD_REACTORS
330
45
102
}
330
45
100
AcDbScale
 70
     0
300
1:2
140
1.0
141
2.0
290
     0
  0
SCALE
  5
4F
102
{ACAD_REACTORS
330
45
102
}
330
45
100
AcDbScale
 70
     0
300
1:4
140
1.0
141
4.0
290
     0
  0
SCALE
  5
50
102
{ACAD_REACTORS
330
45
102
}
330
45
100
AcDbScale
 70
     0
300
1:5
140
1.0
141
5.0
290
     0
  0
SCALE
  5
51
102
{ACAD_REACTORS
330
45
102
}
330
45
100
AcDbScale
 70
     0
300
1:8
140
1.0
141
8.0
290
     0
  0
SCALE
  5
52
102
{ACAD_REACTORS
330
45
102
}
330
45
100
AcDbScale
 70
     0
300
1:10
140
1.0
141
10.0
290
     0
  0
SCALE
  5
53
102
{ACAD_REACTORS
330
45
102
}
330
45
100
AcDbScale
 70
     0
300
1:16
140
1.0
141
16.0
290
     0
  0
SCALE
  5
54
102
{ACAD_REACTORS
330
45
102
}
330
45
100
AcDbScale
 70
     0
300
1:20
140
1.0
141
20.0
290
     0
  0
SCALE
  5
55
102
{ACAD_REACTORS
330
45
102
}
330
45
100
AcDbScale
 70
     0
300
1:30
140
1.0
141
30.0
290
     0
  0
SCALE
  5
56
102
{ACAD_REACTORS
330
45
102
}
330
45
100
AcDbScale
 70
     0
300
1:40
140
1.0
141
40.0
290
     0
  0
SCALE
  5
57
102
{ACAD_REACTORS
330
45
102
}
330
45
100
AcDbScale
 70
     0
300
1:50
140
1.0
141
50.0
290
     0
  0
SCALE
  5
58
102
{ACAD_REACTORS
330
45
102
}
330
45
100
AcDbScale
 70
     0
300
1:100
140
1.0
141
100.0
290
     0
  0
SCALE
  5
59
102
{ACAD_REACTORS
330
45
102
}
330
45
100
AcDbScale
 70
     0
300
2:1
140
2.0
141
1.0
290
     0
  0
SCALE
  5
5A
102
{ACAD_REACTORS
330
45
102
}
330
45
100
AcDbScale
 70
     0
300
4:1
140
4.0
141
1.0
290
     0
  0
SCALE
  5
5B
102
{ACAD_REACTORS
330
45
102
}
330
45
100
AcDbScale
 70
     0
300
8:1
140
8.0
141
1.0
290
     0
  0
SCALE
  5
5C
102
{ACAD_REACTORS
330
45
102
}
330
45
100
AcDbScale
 70
     0
300
10:1
140
10.0
141
1.0
290
     0
  0
SCALE
  5
5D
102
{ACAD_REACTORS
330
45
102
}
330
45
100
AcDbScale
 70
     0
300
100:1
140
100.0
141
1.0
290
     0
  0
SCALE
  5
5E
102
{ACAD_REACTORS
330
45
102
}
330
45
100
AcDbScale
 70
     0
300
1/128" = 1'-0"
140
0.0078125
141
12.0
290
     0
  0
SCALE
  5
5F
102
{ACAD_REACTORS
330
45
102
}
330
45
100
AcDbScale
 70
     0
300
1/64" = 1'-0"
140
0.015625
141
12.0
290
     0
  0
SCALE
  5
60
102
{ACAD_REACTORS
330
45
102
}
330
45
100
AcDbScale
 70
     0
300
1/32" = 1'-0"
140
0.03125
141
12.0
290
     0
  0
SCALE
  5
61
102
{ACAD_REACTORS
330
45
102
}
330
45
100
AcDbScale
 70
     0
300
1/16" = 1'-0"
140
0.0625
141
12.0
290
     0
  0
SCALE
  5
62
102
{ACAD_REACTORS
330
45
102
}
330
45
100
AcDbScale
 70
     0
300
3/32" = 1'-0"
140
0.09375
141
12.0
290
     0
  0
SCALE
  5
63
102
{ACAD_REACTORS
330
45
102
}
330
45
100
AcDbScale
 70
     0
300
1/8" = 1'-0"
140
0.125
141
12.0
290
     0
  0
SCALE
  5
64
102
{ACAD_REACTORS
330
45
102
}
330
45
100
AcDbScale
 70
     0
300
3/16" = 1'-0"
140
0.1875
141
12.0
290
     0
  0
SCALE
  5
65
102
{ACAD_REACTORS
330
45
102
}
330
45
100
AcDbScale
 70
     0
300
1/4" = 1'-0"
140
0.25
141
12.0
290
     0
  0
SCALE
  5
66
102
{ACAD_REACTORS
330
45
102
}
330
45
100
AcDbScale
 70
     0
300
3/8" = 1'-0"
140
0.375
141
12.0
290
     0
  0
SCALE
  5
67
102
{ACAD_REACTORS
330
45
102
}
330
45
100
AcDbScale
 70
     0
300
1/2" = 1'-0"
140
0.5
141
12.0
290
     0
  0
SCALE
  5
68
102
{ACAD_REACTORS
330
45
102
}
330
45
100
AcDbScale
 70
     0
300
3/4" = 1'-0"
140
0.75
141
12.0
290
     0
  0
SCALE
  5
69
102
{ACAD_REACTORS
330
45
102
}
330
45
100
AcDbScale
 70
     0
300
1" = 1'-0"
140
1.0
141
12.0
290
     0
  0
SCALE
  5
6A
102
{ACAD_REACTORS
330
45
102
}
330
45
100
AcDbScale
 70
     0
300
1-1/2" = 1'-0"
140
1.5
141
12.0
290
     0
  0
SCALE
  5
6B
102
{ACAD_REACTORS
330
45
102
}
330
45
100
AcDbScale
 70
     0
300
3" = 1'-0"
140
3.0
141
12.0
290
     0
  0
SCALE
  5
6C
102
{ACAD_REACTORS
330
45
102
}
330
45
100
AcDbScale
 70
     0
300
6" = 1'-0"
140
6.0
141
12.0
290
     0
  0
SCALE
  5
6D
102
{ACAD_REACTORS
330
45
102
}
330
45
100
AcDbScale
 70
     0
300
1'-0" = 1'-0"
140
12.0
141
12.0
290
     0
  0
TABLESTYLE
  5
49
102
{ACAD_XDICTIONARY
360
4A
102
}
102
{ACAD_REACTORS
330
46
102
}
330
46
100
AcDbTableStyle
  3
Standard
 70
     0
 71
     0
 40
0.06
 41
0.06
280
     0
281
     0
  7
STANDARD
140
0.18
170
     2
 62
     0
 63
     7
283
     0
274
    -2
284
     1
 64
     0
275
    -2
285
     1
 65
     0
276
    -2
286
     1
 66
     0
277
    -2
287
     1
 67
     0
278
    -2
288
     1
 68
     0
279
    -2
289
     1
 69
     0
  7
STANDARD
140
0.25
170
     5
 62
     0
 63
     7
283
     0
274
    -2
284
     1
 64
     0
275
    -2
285
     1
 65
     0
276
    -2
286
     1
 66
     0
277
    -2
287
     1
 67
     0
278
    -2
288
     1
 68
     0
279
    -2
289
     1
 69
     0
  7
STANDARD
140
0.18
170
     5
 62
     0
 63
     7
283
     0
274
    -2
284
     1
 64
     0
275
    -2
285
     1
 65
     0
276
    -2
286
     1
 66
     0
277
    -2
287
     1
 67
     0
278
    -2
288
     1
 68
     0
279
    -2
289
     1
 69
     0
  0
VISUALSTYLE
  5
2A
102
{ACAD_XDICTIONARY
360
2AE
102
}
102
{ACAD_REACTORS
330
2B
102
}
330
2B
100
AcDbVisualStyle
  2
2dWireframe
 70
     4
 71
     0
 72
     2
 73
     0
 90
        0
 40
-0.6
 41
-30.0
 62
     5
 63
     7
 74
     1
 91
        4
 64
     7
 65
   257
 75
     1
175
     1
 42
1.0
 92
        0
 66
   257
 43
1.0
 76
     1
 77
     6
 78
     2
 67
     7
 79
     5
170
     0
171
     0
290
     0
174
     0
 93
        1
 44
0.0
173
     0
291
     0
 45
0.0
1001
ACAD
1000
AcDbSavedByObjectVersion
1070
     0
  0
VISUALSTYLE
  5
25A
102
{ACAD_XDICTIONARY
360
2C5
102
}
102
{ACAD_REACTORS
330
2B
102
}
330
2B
100
AcDbVisualStyle
  2
Basic
 70
     7
 71
     1
 72
     0
 73
     1
 90
        0
 40
-0.6
 41
-30.0
 62
     5
 63
     7
 74
     0
 91
        4
 64
     7
 65
   257
 75
     1
175
     1
 42
1.0
 92
        8
 66
     7
 43
1.0
 76
     1
 77
     6
 78
     2
 67
     7
 79
     5
170
     0
171
     0
290
     0
174
     0
 93
        1
 44
0.0
173
     0
291
     1
 45
0.0
1001
ACAD
1000
AcDbSavedByObjectVersion
1070
     0
  0
VISUALSTYLE
  5
25E
102
{ACAD_XDICTIONARY
360
2CD
102
}
102
{ACAD_REACTORS
330
2B
102
}
330
2B
100
AcDbVisualStyle
  2
Brighten
 70
    12
 71
     2
 72
     2
 73
     0
 90
        0
 40
-0.6
 41
-30.0
 62
     5
 63
     7
 74
     1
 91
        4
 64
     7
 65
   257
 75
     1
175
     1
 42
1.0
 92
        8
 66
     7
 43
1.0
 76
     1
 77
     6
 78
     2
 67
     7
 79
     5
170
     0
171
     0
290
     0
174
     0
 93
        1
 44
50.0
173
     0
291
     1
 45
0.0
1001
ACAD
1000
AcDbSavedByObjectVersion
1070
     0
  0
VISUALSTYLE
  5
262
102
{ACAD_XDICTIONARY
360
2D5
102
}
102
{ACAD_REACTORS
330
2B
102
}
330
2B
100
AcDbVisualStyle
  2
ColorChange
 70
    16
 71
     2
 72
     2
 73
     3
 90
        0
 40
-0.6
 41
-30.0
 62
     5
 63
     8
 74
     1
 91
        4
 64
     7
 65
   257
 75
     1
175
     1
 42
1.0
 92
        8
 66
     8
 43
1.0
 76
     1
 77
     6
 78
     2
 67
     7
 79
     5
170
     0
171
     0
290
     0
174
     0
 93
        1
 44
0.0
173
     0
291
     1
 45
0.0
1001
ACAD
1000
AcDbSavedByObjectVersion
1070
     0
  0
VISUALSTYLE
  5
25C
102
{ACAD_XDICTIONARY
360
2C9
102
}
102
{ACAD_REACTORS
330
2B
102
}
330
2B
100
AcDbVisualStyle
  2
Conceptual
 70
     9
 71
     3
 72
     2
 73
     0
 90
        0
 40
-0.6
 41
-30.0
 62
     5
 63
     7
 74
     2
 91
        2
 64
     7
 65
   257
 75
     1
175
     1
 42
179.0
 92
        8
 66
     7
 43
1.0
 76
     1
 77
     6
 78
     2
 67
     7
 79
     3
170
     0
171
     0
290
     0
174
     0
 93
        1
 44
0.0
173
     0
291
     0
 45
0.0
1001
ACAD
1000
AcDbSavedByObjectVersion
1070
     0
  0
VISUALSTYLE
  5
25D
102
{ACAD_XDICTIONARY
360
2CB
102
}
102
{ACAD_REACTORS
330
2B
102
}
330
2B
100
AcDbVisualStyle
  2
Dim
 70
    11
 71
     2
 72
     2
 73
     0
 90
        0
 40
-0.6
 41
-30.0
 62
     5
 63
     7
 74
     1
 91
        4
 64
     7
 65
   257
 75
     1
175
     1
 42
1.0
 92
        8
 66
     7
 43
1.0
 76
     1
 77
     6
 78
     2
 67
     7
 79
     5
170
     0
171
     0
290
     0
174
     0
 93
        1
 44
-50.0
173
     0
291
     1
 45
0.0
1001
ACAD
1000
AcDbSavedByObjectVersion
1070
     0
  0
VISUALSTYLE
  5
26A
102
{ACAD_XDICTIONARY
360
2E5
102
}
102
{ACAD_REACTORS
330
2B
102
}
330
2B
100
AcDbVisualStyle
  2
EdgeColorOff
 70
    22
 71
     2
 72
     2
 73
     0
 90
        0
 40
-0.6
 41
-30.0
 62
     5
 63
     7
 74
     1
 91
        4
 64
     7
 65
   257
 75
     1
175
     1
 42
1.0
 92
        8
 66
     7
 43
1.0
 76
     1
 77
     6
 78
     2
 67
     7
 79
     5
170
     0
171
     0
290
     0
174
     0
 93
        1
 44
0.0
173
     0
291
     1
 45
0.0
1001
ACAD
1000
AcDbSavedByObjectVersion
1070
     0
  0
VISUALSTYLE
  5
261
102
{ACAD_XDICTIONARY
360
2D3
102
}
102
{ACAD_REACTORS
330
2B
102
}
330
2B
100
AcDbVisualStyle
  2
Facepattern
 70
    15
 71
     2
 72
     2
 73
     0
 90
        0
 40
-0.6
 41
-30.0
 62
     5
 63
     7
 74
     1
 91
        4
 64
     7
 65
   257
 75
     1
175
     1
 42
1.0
 92
        8
 66
     7
 43
1.0
 76
     1
 77
     6
 78
     2
 67
     7
 79
     5
170
     0
171
     0
290
     0
174
     0
 93
        1
 44
0.0
173
     0
291
     1
 45
0.0
1001
ACAD
1000
AcDbSavedByObjectVersion
1070
     0
  0
VISUALSTYLE
  5
256
102
{ACAD_XDICTIONARY
360
2BD
102
}
102
{ACAD_REACTORS
330
2B
102
}
330
2B
100
AcDbVisualStyle
  2
Flat
 70
     0
 71
     2
 72
     1
 73
     1
 90
        2
 40
-0.6
 41
30.0
 62
     5
 63
     7
 74
     0
 91
        0
 64
     7
 65
   257
 75
     1
175
     1
 42
1.0
 92
        8
 66
     7
 43
1.0
 76
     1
 77
     6
 78
     2
 67
     7
 79
     5
170
     0
171
     0
290
     0
174
     0
 93
       13
 44
0.0
173
     0
291
     1
 45
0.0
1001
ACAD
1000
AcDbSavedByObjectVersion
1070
     0
  0
VISUALSTYLE
  5
257
102
{ACAD_XDICTIONARY
360
2BF
102
}
102
{ACAD_REACTORS
330
2B
102
}
330
2B
100
AcDbVisualStyle
  2
FlatWithEdges
 70
     1
 71
     2
 72
     1
 73
     1
 90
        2
 40
-0.6
 41
30.0
 62
     5
 63
     7
 74
     1
 91
        0
 64
     7
 65
   257
 75
     1
175
     1
 42
1.0
 92
        0
 66
   257
 43
1.0
 76
     1
 77
     6
 78
     2
 67
     7
 79
     5
170
     0
171
     0
290
     0
174
     0
 93
       13
 44
0.0
173
     0
291
     1
 45
0.0
1001
ACAD
1000
AcDbSavedByObjectVersion
1070
     0
  0
VISUALSTYLE
  5
258
102
{ACAD_XDICTIONARY
360
2C1
102
}
102
{ACAD_REACTORS
330
2B
102
}
330
2B
100
AcDbVisualStyle
  2
Gouraud
 70
     2
 71
     2
 72
     2
 73
     1
 90
        2
 40
-0.6
 41
30.0
 62
     5
 63
     7
 74
     0
 91
        0
 64
     7
 65
   257
 75
     1
175
     1
 42
1.0
 92
        0
 66
     7
 43
1.0
 76
     1
 77
     6
 78
     2
 67
     7
 79
     5
170
     0
171
     0
290
     0
174
     0
 93
       13
 44
0.0
173
     0
291
     1
 45
0.0
1001
ACAD
1000
AcDbSavedByObjectVersion
1070
     0
  0
VISUALSTYLE
  5
259
102
{ACAD_XDICTIONARY
360
2C3
102
}
102
{ACAD_REACTORS
330
2B
102
}
330
2B
100
AcDbVisualStyle
  2
GouraudWithEdges
 70
     3
 71
     2
 72
     2
 73
     1
 90
        2
 40
-0.6
 41
30.0
 62
     5
 63
     7
 74
     1
 91
        0
 64
     7
 65
   257
 75
     1
175
     1
 42
1.0
 92
        0
 66
   257
 43
1.0
 76
     1
 77
     6
 78
     2
 67
     7
 79
     5
170
     0
171
     0
290
     0
174
     0
 93
       13
 44
0.0
173
     0
291
     1
 45
0.0
1001
ACAD
1000
AcDbSavedByObjectVersion
1070
     0
  0
VISUALSTYLE
  5
25B
102
{ACAD_XDICTIONARY
360
2C7
102
}
102
{ACAD_REACTORS
330
2B
102
}
330
2B
100
AcDbVisualStyle
  2
Hidden
 70
     6
 71
     1
 72
     2
 73
     2
 90
        0
 40
-0.6
 41
-30.0
 62
     5
 63
     7
 74
     2
 91
        2
 64
     7
 65
   257
 75
     2
175
     1
 42
40.0
 92
        0
 66
   257
 43
1.0
 76
     1
 77
     6
 78
     2
 67
     7
 79
     3
170
     0
171
     0
290
     0
174
     0
 93
        1
 44
0.0
173
     0
291
     0
 45
0.0
1001
ACAD
1000
AcDbSavedByObjectVersion
1070
     0
  0
VISUALSTYLE
  5
268
102
{ACAD_XDICTIONARY
360
2E1
102
}
102
{ACAD_REACTORS
330
2B
102
}
330
2B
100
AcDbVisualStyle
  2
JitterOff
 70
    20
 71
     2
 72
     2
 73
     0
 90
        0
 40
-0.6
 41
-30.0
 62
     5
 63
     7
 74
     1
 91
        4
 64
     7
 65
   257
 75
     1
175
     1
 42
1.0
 92
       10
 66
     7
 43
1.0
 76
     1
 77
     6
 78
     2
 67
     7
 79
     5
170
     0
171
     0
290
     0
174
     0
 93
        1
 44
0.0
173
     0
291
     1
 45
0.0
1001
ACAD
1000
AcDbSavedByObjectVersion
1070
     0
  0
VISUALSTYLE
  5
260
102
{ACAD_XDICTIONARY
360
2D1
102
}
102
{ACAD_REACTORS
330
2B
102
}
330
2B
100
AcDbVisualStyle
  2
Linepattern
 70
    14
 71
     2
 72
     2
 73
     0
 90
        0
 40
-0.6
 41
-30.0
 62
     5
 63
     7
 74
     1
 91
        4
 64
     7
 65
   257
 75
     7
175
     7
 42
1.0
 92
        8
 66
     7
 43
1.0
 76
     1
 77
     6
 78
     2
 67
     7
 79
     5
170
     0
171
     0
290
     0
174
     0
 93
        1
 44
0.0
173
     0
291
     1
 45
0.0
1001
ACAD
1000
AcDbSavedByObjectVersion
1070
     0
  0
VISUALSTYLE
  5
269
102
{ACAD_XDICTIONARY
360
2E3
102
}
102
{ACAD_REACTORS
330
2B
102
}
330
2B
100
AcDbVisualStyle
  2
OverhangOff
 70
    21
 71
     2
 72
     2
 73
     0
 90
        0
 40
-0.6
 41
-30.0
 62
     5
 63
     7
 74
     1
 91
        4
 64
     7
 65
   257
 75
     1
175
     1
 42
1.0
 92
        9
 66
     7
 43
1.0
 76
     1
 77
     6
 78
     2
 67
     7
 79
     5
170
     0
171
     0
290
     0
174
     0
 93
        1
 44
0.0
173
     0
291
     1
 45
0.0
1001
ACAD
1000
AcDbSavedByObjectVersion
1070
     0
  0
VISUALSTYLE
  5
4B
102
{ACAD_XDICTIONARY
360
2B3
102
}
102
{ACAD_REACTORS
330
2B
102
}
330
2B
100
AcDbVisualStyle
  2
Realistic
 70
     8
 71
     2
 72
     2
 73
     0
 90
        0
 40
-0.6
 41
-30.0
 62
     5
 63
     7
 74
     1
 91
        0
 64
     7
 65
   257
 75
     1
175
     1
 42
1.0
 92
        8
 66
     8
 43
1.0
 76
     1
 77
     6
 78
     2
 67
     7
 79
     5
170
     0
171
     0
290
     0
174
     0
 93
       13
 44
0.0
173
     0
291
     0
 45
0.0
1001
ACAD
1000
AcDbSavedByObjectVersion
1070
     0
  0
VISUALSTYLE
  5
267
102
{ACAD_XDICTIONARY
360
2DF
102
}
102
{ACAD_REACTORS
330
2B
102
}
330
2B
100
AcDbVisualStyle
  2
Shaded
 70
    27
 71
     2
 72
     2
 73
     1
 90
        2
 40
-0.6
 41
30.0
 62
     5
 63
     7
 74
     0
 91
        4
 64
     7
 65
   257
 75
     1
175
     1
 42
1.0
 92
        8
 66
   257
 43
1.0
 76
     1
 77
     6
 78
     2
 67
     8
 79
     3
170
     0
171
     0
290
     0
174
     0
 93
        5
 44
0.0
173
     0
291
     0
 45
0.0
1001
ACAD
1000
AcDbSavedByObjectVersion
1070
     0
  0
VISUALSTYLE
  5
266
102
{ACAD_XDICTIONARY
360
2DD
102
}
102
{ACAD_REACTORS
330
2B
102
}
330
2B
100
AcDbVisualStyle
  2
Shaded with edges
 70
    26
 71
     2
 72
     2
 73
     1
 90
        2
 40
-0.6
 41
30.0
 62
     5
 63
     7
 74
     1
 91
       10
 64
     7
 65
   257
 75
     2
175
     1
 42
1.0
 92
        8
 66
   257
 43
1.0
 76
     1
 77
     6
 78
     2
 67
     7
 79
     3
170
     0
171
     0
290
     0
174
     0
 93
        5
 44
0.0
173
     0
291
     0
 45
0.0
1001
ACAD
1000
AcDbSavedByObjectVersion
1070
     0
  0
VISUALSTYLE
  5
263
102
{ACAD_XDICTIONARY
360
2D7
102
}
102
{ACAD_REACTORS
330
2B
102
}
330
2B
100
AcDbVisualStyle
  2
Shades of Gray
 70
    23
 71
     2
 72
     2
 73
     3
 90
        0
 40
-0.6
 41
-30.0
 62
     5
 63
     7
 74
     2
 91
        2
 64
     7
 65
     7
 75
     1
175
     1
 42
40.0
 92
        8
 66
     7
 43
1.0
 76
     1
 77
     6
 78
     2
 67
     7
 79
     3
170
     0
171
     0
290
     0
174
     0
 93
        1
 44
0.0
173
     0
291
     0
 45
0.0
1001
ACAD
1000
AcDbSavedByObjectVersion
1070
     0
  0
VISUALSTYLE
  5
264
102
{ACAD_XDICTIONARY
360
2D9
102
}
102
{ACAD_REACTORS
330
2B
102
}
330
2B
100
AcDbVisualStyle
  2
Sketchy
 70
    24
 71
     1
 72
     2
 73
     2
 90
        0
 40
-0.6
 41
-30.0
 62
     5
 63
     7
 74
     2
 91
        2
 64
     7
 65
     7
 75
     1
175
     1
 42
40.0
 92
       11
 66
     7
 43
1.0
 76
     1
 77
     6
 78
     2
 67
     7
 79
     6
170
     0
171
     0
290
     0
174
     0
 93
        1
 44
0.0
173
     0
291
     0
 45
0.0
1001
ACAD
1000
AcDbSavedByObjectVersion
1070
     0
  0
VISUALSTYLE
  5
25F
102
{ACAD_XDICTIONARY
360
2CF
102
}
102
{ACAD_REACTORS
330
2B
102
}
330
2B
100
AcDbVisualStyle
  2
Thicken
 70
    13
 71
     2
 72
     2
 73
     0
 90
        0
 40
-0.6
 41
-30.0
 62
     5
 63
     7
 74
     1
 91
        4
 64
     7
 65
   257
 75
     1
175
     1
 42
1.0
 92
       12
 66
     7
 43
1.0
 76
     1
 77
     6
 78
     2
 67
     7
 79
     5
170
     0
171
     0
290
     0
174
     0
 93
        1
 44
0.0
173
     0
291
     1
 45
0.0
1001
ACAD
1000
AcDbSavedByObjectVersion
1070
     0
  0
VISUALSTYLE
  5
4C
102
{ACAD_XDICTIONARY
360
2B5
102
}
102
{ACAD_REACTORS
330
2B
102
}
330
2B
100
AcDbVisualStyle
  2
Wireframe
 70
     5
 71
     0
 72
     2
 73
     0
 90
        0
 40
-0.6
 41
-30.0
 62
     5
 63
     7
 74
     1
 91
        4
 64
     7
 65
   257
 75
     1
175
     1
 42
1.0
 92
        0
 66
   257
 43
1.0
 76
     1
 77
     6
 78
     2
 67
     7
 79
     3
170
     0
171
     0
290
     0
174
     0
 93
        1
 44
0.0
173
     0
291
     0
 45
0.0
1001
ACAD
1000
AcDbSavedByObjectVersion
1070
     0
  0
VISUALSTYLE
  5
265
102
{ACAD_XDICTIONARY
360
2DB
102
}
102
{ACAD_REACTORS
330
2B
102
}
330
2B
100
AcDbVisualStyle
  2
X-Ray
 70
    25
 71
     2
 72
     2
 73
     1
 90
        1
 40
0.5
 41
-30.0
 62
     5
 63
     7
 74
     1
 91
        0
 64
     7
 65
   257
 75
     1
175
     1
 42
1.0
 92
        8
 66
     7
 43
1.0
 76
     1
 77
     6
 78
     2
 67
     7
 79
     3
170
     0
171
     0
290
     0
174
     0
 93
       13
 44
0.0
173
     0
291
     0
 45
0.0
1001
ACAD
1000
AcDbSavedByObjectVersion
1070
     0
  0
DICTIONARYVAR
  5
251
102
{ACAD_REACTORS
330
24D
102
}
330
24D
100
DictionaryVariables
280
     0
  1
1:1
  0
DICTIONARYVAR
  5
24F
102
{ACAD_REACTORS
330
24D
102
}
330
24D
100
DictionaryVariables
280
     0
  1
STANDARD
  0
DICTIONARYVAR
  5
24E
102
{ACAD_REACTORS
330
24D
102
}
330
24D
100
DictionaryVariables
280
     0
  1
STANDARD
  0
DICTIONARYVAR
  5
2A0
102
{ACAD_REACTORS
330
24D
102
}
330
24D
100
DictionaryVariables
280
     0
  1
1
  0
DICTIONARYVAR
  5
29F
102
{ACAD_REACTORS
330
24D
102
}
330
24D
100
DictionaryVariables
280
     0
  1
1
  0
DICTIONARYVAR
  5
29E
102
{ACAD_REACTORS
330
24D
102
}
330
24D
100
DictionaryVariables
280
     0
  1
0
  0
DICTIONARYVAR
  5
253
102
{ACAD_REACTORS
330
24D
102
}
330
24D
100
DictionaryVariables
280
     0
  1
1
  0
DICTIONARYVAR
  5
254
102
{ACAD_REACTORS
330
24D
102
}
330
24D
100
DictionaryVariables
280
     0
  1
15
  0
DICTIONARYVAR
  5
252
102
{ACAD_REACTORS
330
24D
102
}
330
24D
100
DictionaryVariables
280
     0
  1
0
  0
DICTIONARYVAR
  5
250
102
{ACAD_REACTORS
330
24D
102
}
330
24D
100
DictionaryVariables
280
     0
  1
0
  0
DICTIONARYVAR
  5
29D
102
{ACAD_REACTORS
330
24D
102
}
330
24D
100
DictionaryVariables
280
     0
  1
127
  0
DICTIONARYVAR
  5
2A1
102
{ACAD_REACTORS
330
24D
102
}
330
24D
100
DictionaryVariables
280
     0
  1
2
  0
DICTIONARY
  5
201
102
{ACAD_REACTORS
330
200
102
}
330
200
100
AcDbDictionary
281
     1
  0
DICTIONARY
  5
1FB
102
{ACAD_REACTORS
330
1F1
102
}
330
1F1
100
AcDbDictionary
281
     1
  3
DWGSETTINGS
350
1FA
  3
TRANSSETTINGS
350
1FC
  0
DICTIONARY
  5
2AB
330
D
100
AcDbDictionary
280
     1
281
     1
  3
ACAD_XREC_ROUNDTRIP
360
2AC
  0
DICTIONARY
  5
2A9
330
7
100
AcDbDictionary
280
     1
281
     1
  3
ACAD_XREC_ROUNDTRIP
360
2AA
  0
DICTIONARY
  5
3D
330
3C
100
AcDbDictionary
280
     1
281
     1
  3
ACAD_XREC_ROUNDTRIP
360
2B1
  3
BUMPTILE
360
3E
  3
DIFFUSETILE
360
3F
  3
OPACITYTILE
360
40
  3
REFLECTIONTILE
360
41
  3
REFRACTIONTILE
360
42
  3
SPECULARTILE
360
43
  0
DICTIONARY
  5
35
330
34
100
AcDbDictionary
280
     1
281
     1
  3
ACAD_XREC_ROUNDTRIP
360
2B0
  3
BUMPTILE
360
36
  3
DIFFUSETILE
360
37
  3
OPACITYTILE
360
38
  3
REFLECTIONTILE
360
39
  3
REFRACTIONTILE
360
3A
  3
SPECULARTILE
360
3B
  0
DICTIONARY
  5
14
330
12
100
AcDbDictionary
280
     1
281
     1
  3
ACAD_XREC_ROUNDTRIP
360
2AD
  3
BUMPTILE
360
15
  3
DIFFUSETILE
360
16
  3
OPACITYTILE
360
17
  3
REFLECTIONTILE
360
18
  3
REFRACTIONTILE
360
19
  3
SPECULARTILE
360
1A
  0
DICTIONARY
  5
4A
330
49
100
AcDbDictionary
280
     1
281
     1
  3
ACAD_ROUNDTRIP_2008_TABLESTYLE_CELLSTYLEMAP
360
2A2
  3
ACAD_XREC_ROUNDTRIP
360
2B2
  0
DICTIONARY
  5
2AE
330
2A
100
AcDbDictionary
280
     1
281
     1
  3
ACAD_XREC_ROUNDTRIP
360
2AF
  0
DICTIONARY
  5
2C5
330
25A
100
AcDbDictionary
280
     1
281
     1
  3
ACAD_XREC_ROUNDTRIP
360
2C6
  0
DICTIONARY
  5
2CD
330
25E
100
AcDbDictionary
280
     1
281
     1
  3
ACAD_XREC_ROUNDTRIP
360
2CE
  0
DICTIONARY
  5
2D5
330
262
100
AcDbDictionary
280
     1
281
     1
  3
ACAD_XREC_ROUNDTRIP
360
2D6
  0
DICTIONARY
  5
2C9
330
25C
100
AcDbDictionary
280
     1
281
     1
  3
ACAD_XREC_ROUNDTRIP
360
2CA
  0
DICTIONARY
  5
2CB
330
25D
100
AcDbDictionary
280
     1
281
     1
  3
ACAD_XREC_ROUNDTRIP
360
2CC
  0
DICTIONARY
  5
2E5
330
26A
100
AcDbDictionary
280
     1
281
     1
  3
ACAD_XREC_ROUNDTRIP
360
2E6
  0
DICTIONARY
  5
2D3
330
261
100
AcDbDictionary
280
     1
281
     1
  3
ACAD_XREC_ROUNDTRIP
360
2D4
  0
DICTIONARY
  5
2BD
330
256
100
AcDbDictionary
280
     1
281
     1
  3
ACAD_XREC_ROUNDTRIP
360
2BE
  0
DICTIONARY
  5
2BF
330
257
100
AcDbDictionary
280
     1
281
     1
  3
ACAD_XREC_ROUNDTRIP
360
2C0
  0
DICTIONARY
  5
2C1
330
258
100
AcDbDictionary
280
     1
281
     1
  3
ACAD_XREC_ROUNDTRIP
360
2C2
  0
DICTIONARY
  5
2C3
330
259
100
AcDbDictionary
280
     1
281
     1
  3
ACAD_XREC_ROUNDTRIP
360
2C4
  0
DICTIONARY
  5
2C7
330
25B
100
AcDbDictionary
280
     1
281
     1
  3
ACAD_XREC_ROUNDTRIP
360
2C8
  0
DICTIONARY
  5
2E1
330
268
100
AcDbDictionary
280
     1
281
     1
  3
ACAD_XREC_ROUNDTRIP
360
2E2
  0
DICTIONARY
  5
2D1
330
260
100
AcDbDictionary
280
     1
281
     1
  3
ACAD_XREC_ROUNDTRIP
360
2D2
  0
DICTIONARY
  5
2E3
330
269
100
AcDbDictionary
280
     1
281
     1
  3
ACAD_XREC_ROUNDTRIP
360
2E4
  0
DICTIONARY
  5
2B3
330
4B
100
AcDbDictionary
280
     1
281
     1
  3
ACAD_XREC_ROUNDTRIP
360
2B4
  0
DICTIONARY
  5
2DF
330
267
100
AcDbDictionary
280
     1
281
     1
  3
ACAD_XREC_ROUNDTRIP
360
2E0
  0
DICTIONARY
  5
2DD
330
266
100
AcDbDictionary
280
     1
281
     1
  3
ACAD_XREC_ROUNDTRIP
360
2DE
  0
DICTIONARY
  5
2D7
330
263
100
AcDbDictionary
280
     1
281
     1
  3
ACAD_XREC_ROUNDTRIP
360
2D8
  0
DICTIONARY
  5
2D9
330
264
100
AcDbDictionary
280
     1
281
     1
  3
ACAD_XREC_ROUNDTRIP
360
2DA
  0
DICTIONARY
  5
2CF
330
25F
100
AcDbDictionary
280
     1
281
     1
  3
ACAD_XREC_ROUNDTRIP
360
2D0
  0
DICTIONARY
  5
2B5
330
4C
100
AcDbDictionary
280
     1
281
     1
  3
ACAD_XREC_ROUNDTRIP
360
2B6
  0
DICTIONARY
  5
2DB
330
265
100
AcDbDictionary
280
     1
281
     1
  3
ACAD_XREC_ROUNDTRIP
360
2DC
  0
XRECORD
  5
2AC
102
{ACAD_REACTORS
330
2AB
102
}
330
2AB
100
AcDbXrecord
280
     1
102
SHADEPLOT
 70
     0
102
SHADEPLOTRESLEVEL
 70
     2
102
SHADEPLOTCUSTOMDPI
 70
   300
  0
XRECORD
  5
2AA
102
{ACAD_REACTORS
330
2A9
102
}
330
2A9
100
AcDbXrecord
280
     1
102
SHADEPLOT
 70
     0
102
SHADEPLOTRESLEVEL
 70
     2
102
SHADEPLOTCUSTOMDPI
 70
   300
  0
XRECORD
  5
2B1
102
{ACAD_REACTORS
330
3D
102
}
330
3D
100
AcDbXrecord
280
     1
102
MATERIAL
148
0.0
149
0.0
149
0.0
 93
        0
 94
      127
282
     0
 72
     0
 77
     0
171
     0
175
     0
179
     0
273
     0
  0
XRECORD
  5
3E
102
{ACAD_REACTORS
330
3D
102
}
330
3D
100
AcDbXrecord
280
     1
270
     1
271
     1
  0
XRECORD
  5
3F
102
{ACAD_REACTORS
330
3D
102
}
330
3D
100
AcDbXrecord
280
     1
270
     1
271
     1
  0
XRECORD
  5
40
102
{ACAD_REACTORS
330
3D
102
}
330
3D
100
AcDbXrecord
280
     1
270
     1
271
     1
  0
XRECORD
  5
41
102
{ACAD_REACTORS
330
3D
102
}
330
3D
100
AcDbXrecord
280
     1
270
     1
271
     1
  0
XRECORD
  5
42
102
{ACAD_REACTORS
330
3D
102
}
330
3D
100
AcDbXrecord
280
     1
270
     1
271
     1
  0
XRECORD
  5
43
102
{ACAD_REACTORS
330
3D
102
}
330
3D
100
AcDbXrecord
280
     1
270
     1
271
     1
  0
XRECORD
  5
2B0
102
{ACAD_REACTORS
330
35
102
}
330
35
100
AcDbXrecord
280
     1
102
MATERIAL
148
0.0
149
0.0
149
0.0
 93
        0
 94
      127
282
     0
 72
     0
 77
     0
171
     0
175
     0
179
     0
273
     0
  0
XRECORD
  5
36
102
{ACAD_REACTORS
330
35
102
}
330
35
100
AcDbXrecord
280
     1
270
     1
271
     1
  0
XRECORD
  5
37
102
{ACAD_REACTORS
330
35
102
}
330
35
100
AcDbXrecord
280
     1
270
     1
271
     1
  0
XRECORD
  5
38
102
{ACAD_REACTORS
330
35
102
}
330
35
100
AcDbXrecord
280
     1
270
     1
271
     1
  0
XRECORD
  5
39
102
{ACAD_REACTORS
330
35
102
}
330
35
100
AcDbXrecord
280
     1
270
     1
271
     1
  0
XRECORD
  5
3A
102
{ACAD_REACTORS
330
35
102
}
330
35
100
AcDbXrecord
280
     1
270
     1
271
     1
  0
XRECORD
  5
3B
102
{ACAD_REACTORS
330
35
102
}
330
35
100
AcDbXrecord
280
     1
270
     1
271
     1
  0
XRECORD
  5
2AD
102
{ACAD_REACTORS
330
14
102
}
330
14
100
AcDbXrecord
280
     1
102
MATERIAL
148
0.0
149
0.0
149
0.0
 93
        0
 94
      127
282
     0
 72
     0
 77
     0
171
     0
175
     0
179
     0
273
     0
  0
XRECORD
  5
15
102
{ACAD_REACTORS
330
14
102
}
330
14
100
AcDbXrecord
280
     1
270
     1
271
     1
  0
XRECORD
  5
16
102
{ACAD_REACTORS
330
14
102
}
330
14
100
AcDbXrecord
280
     1
270
     1
271
     1
  0
XRECORD
  5
17
102
{ACAD_REACTORS
330
14
102
}
330
14
100
AcDbXrecord
280
     1
270
     1
271
     1
  0
XRECORD
  5
18
102
{ACAD_REACTORS
330
14
102
}
330
14
100
AcDbXrecord
280
     1
270
     1
271
     1
  0
XRECORD
  5
19
102
{ACAD_REACTORS
330
14
102
}
330
14
100
AcDbXrecord
280
     1
270
     1
271
     1
  0
XRECORD
  5
1A
102
{ACAD_REACTORS
330
14
102
}
330
14
100
AcDbXrecord
280
     1
270
     1
271
     1
  0
CELLSTYLEMAP
  5
2A2
102
{ACAD_REACTORS
330
4A
102
}
330
4A
100
AcDbCellStyleMap
 90
        3
300
CELLSTYLE
  1
TABLEFORMAT_BEGIN
 90
        5
170
     1
 91
        0
 92
    32768
 62
   257
 93
        1
300
CONTENTFORMAT
  1
CONTENTFORMAT_BEGIN
 90
        0
 91
        0
 92
      512
 93
        0
300

 40
0.0
140
1.0
 94
        5
 62
     0
340
21
144
0.25
309
CONTENTFORMAT_END
171
     0
 94
        0
309
TABLEFORMAT_END
  1
CELLSTYLE_BEGIN
 90
        1
 91
        1
300
_TITLE
309
CELLSTYLE_END
300
CELLSTYLE
  1
TABLEFORMAT_BEGIN
 90
        5
170
     1
 91
        0
 92
        0
 62
   257
 93
        1
300
CONTENTFORMAT
  1
CONTENTFORMAT_BEGIN
 90
        0
 91
        0
 92
      512
 93
        0
300

 40
0.0
140
1.0
 94
        5
 62
     0
340
21
144
0.18
309
CONTENTFORMAT_END
171
     0
 94
        0
309
TABLEFORMAT_END
  1
CELLSTYLE_BEGIN
 90
        2
 91
        1
300
_HEADER
309
CELLSTYLE_END
300
CELLSTYLE
  1
TABLEFORMAT_BEGIN
 90
        5
170
     1
 91
        0
 92
        0
 62
   257
 93
        1
300
CONTENTFORMAT
  1
CONTENTFORMAT_BEGIN
 90
        0
 91
        0
 92
      512
 93
        0
300

 40
0.0
140
1.0
 94
        2
 62
     0
340
21
144
0.18
309
CONTENTFORMAT_END
171
     0
 94
        0
309
TABLEFORMAT_END
  1
CELLSTYLE_BEGIN
 90
        3
 91
        2
300
_DATA
309
CELLSTYLE_END
  0
XRECORD
  5
2B2
102
{ACAD_REACTORS
330
4A
102
}
330
4A
100
AcDbXrecord
280
     1
102
ACAD_ROUNDTRIP_PRE2007_TABLESTYLE
 90
      512
 91
        0
  1

 92
      512
 93
        0
  2

 94
      512
 95
        0
  3

  0
XRECORD
  5
2AF
102
{ACAD_REACTORS
330
2AE
102
}
330
2AE
100
AcDbXrecord
280
     1
102
RTVSPropertyOp0
 70
     1
102
RTVSPropertyOp1
 70
     1
102
RTVSPropertyOp2
 70
     1
102
RTVSPropertyOp3
 70
     1
102
RTVSPropertyOp4
 70
     1
102
RTVSPropertyOp5
 70
     1
102
RTVSPropertyOp6
 70
     1
102
RTVSPropertyOp7
 70
     1
102
RTVSPropertyOp8
 70
     1
102
RTVSPropertyOp9
 70
     1
102
RTVSPropertyOp10
 70
     1
102
RTVSPropertyOp11
 70
     1
102
RTVSPropertyOp12
 70
     1
102
RTVSPropertyOp13
 70
     1
102
RTVSPropertyOp14
 70
     1
102
RTVSPropertyOp15
 70
     1
102
RTVSPropertyOp16
 70
     1
102
RTVSPropertyOp17
 70
     1
102
RTVSPropertyOp18
 70
     1
102
RTVSPropertyOp19
 70
     1
102
RTVSPropertyOp20
 70
     1
102
RTVSPropertyOp21
 70
     1
102
RTVSPropertyOp22
 70
     1
102
RTVSPropertyOp23
 70
     1
102
RTVSPropertyOp24
 70
     1
102
RTVSPropertyOp25
 70
     1
102
RTVSPropertyOp26
 70
     1
102
RTVSPropertyOp27
 70
     1
102
RTVSPropertyOp28
 70
     1
102
RTVSPropertyOp29
 70
     1
102
RTVSPropertyOp30
 70
     1
102
RTVSPropertyOp31
 70
     1
102
RTVSPropertyOp32
 70
     1
  0
XRECORD
  5
2C6
102
{ACAD_REACTORS
330
2C5
102
}
330
2C5
100
AcDbXrecord
280
     1
102
RTVSPropertyOp0
 70
     1
102
RTVSPropertyOp1
 70
     1
102
RTVSPropertyOp2
 70
     1
102
RTVSPropertyOp3
 70
     1
102
RTVSPropertyOp4
 70
     1
102
RTVSPropertyOp5
 70
     1
102
RTVSPropertyOp6
 70
     1
102
RTVSPropertyOp7
 70
     1
102
RTVSPropertyOp8
 70
     1
102
RTVSPropertyOp9
 70
     1
102
RTVSPropertyOp10
 70
     1
102
RTVSPropertyOp11
 70
     1
102
RTVSPropertyOp12
 70
     1
102
RTVSPropertyOp13
 70
     1
102
RTVSPropertyOp14
 70
     1
102
RTVSPropertyOp15
 70
     1
102
RTVSPropertyOp16
 70
     1
102
RTVSPropertyOp17
 70
     1
102
RTVSPropertyOp18
 70
     1
102
RTVSPropertyOp19
 70
     1
102
RTVSPropertyOp20
 70
     1
102
RTVSPropertyOp21
 70
     1
102
RTVSPropertyOp22
 70
     1
102
RTVSPropertyOp23
 70
     1
102
RTVSPropertyOp24
 70
     1
102
RTVSPropertyOp25
 70
     1
102
RTVSPropertyOp26
 70
     1
102
RTVSPropertyOp27
 70
     1
102
RTVSPropertyOp28
 70
     1
102
RTVSPropertyOp29
 70
     1
102
RTVSPropertyOp30
 70
     1
102
RTVSPropertyOp31
 70
     1
102
RTVSPropertyOp32
 70
     1
  0
XRECORD
  5
2CE
102
{ACAD_REACTORS
330
2CD
102
}
330
2CD
100
AcDbXrecord
280
     1
102
RTVSPropertyOp0
 70
     1
102
RTVSPropertyOp1
 70
     1
102
RTVSPropertyOp2
 70
     1
102
RTVSPropertyOp3
 70
     1
102
RTVSPropertyOp4
 70
     1
102
RTVSPropertyOp5
 70
     1
102
RTVSPropertyOp6
 70
     1
102
RTVSPropertyOp7
 70
     1
102
RTVSPropertyOp8
 70
     1
102
RTVSPropertyOp9
 70
     1
102
RTVSPropertyOp10
 70
     1
102
RTVSPropertyOp11
 70
     1
102
RTVSPropertyOp12
 70
     1
102
RTVSPropertyOp13
 70
     1
102
RTVSPropertyOp14
 70
     1
102
RTVSPropertyOp15
 70
     1
102
RTVSPropertyOp16
 70
     1
102
RTVSPropertyOp17
 70
     1
102
RTVSPropertyOp18
 70
     1
102
RTVSPropertyOp19
 70
     1
102
RTVSPropertyOp20
 70
     1
102
RTVSPropertyOp21
 70
     1
102
RTVSPropertyOp22
 70
     1
102
RTVSPropertyOp23
 70
     1
102
RTVSPropertyOp24
 70
     1
102
RTVSPropertyOp25
 70
     1
102
RTVSPropertyOp26
 70
     1
102
RTVSPropertyOp27
 70
     1
102
RTVSPropertyOp28
 70
     1
102
RTVSPropertyOp29
 70
     1
102
RTVSPropertyOp30
 70
     1
102
RTVSPropertyOp31
 70
     1
102
RTVSPropertyOp32
 70
     1
  0
XRECORD
  5
2D6
102
{ACAD_REACTORS
330
2D5
102
}
330
2D5
100
AcDbXrecord
280
     1
102
RTVSPropertyOp0
 70
     1
102
RTVSPropertyOp1
 70
     1
102
RTVSPropertyOp2
 70
     1
102
RTVSPropertyOp3
 70
     1
102
RTVSPropertyOp4
 70
     1
102
RTVSPropertyOp5
 70
     1
102
RTVSPropertyOp6
 70
     1
102
RTVSPropertyOp7
 70
     1
102
RTVSPropertyOp8
 70
     1
102
RTVSPropertyOp9
 70
     1
102
RTVSPropertyOp10
 70
     1
102
RTVSPropertyOp11
 70
     1
102
RTVSPropertyOp12
 70
     1
102
RTVSPropertyOp13
 70
     1
102
RTVSPropertyOp14
 70
     1
102
RTVSPropertyOp15
 70
     1
102
RTVSPropertyOp16
 70
     1
102
RTVSPropertyOp17
 70
     1
102
RTVSPropertyOp18
 70
     1
102
RTVSPropertyOp19
 70
     1
102
RTVSPropertyOp20
 70
     1
102
RTVSPropertyOp21
 70
     1
102
RTVSPropertyOp22
 70
     1
102
RTVSPropertyOp23
 70
     1
102
RTVSPropertyOp24
 70
     1
102
RTVSPropertyOp25
 70
     1
102
RTVSPropertyOp26
 70
     1
102
RTVSPropertyOp27
 70
     1
102
RTVSPropertyOp28
 70
     1
102
RTVSPropertyOp29
 70
     1
102
RTVSPropertyOp30
 70
     1
102
RTVSPropertyOp31
 70
     1
102
RTVSPropertyOp32
 70
     1
  0
XRECORD
  5
2CA
102
{ACAD_REACTORS
330
2C9
102
}
330
2C9
100
AcDbXrecord
280
     1
102
RTVSPropertyOp0
 70
     1
102
RTVSPropertyOp1
 70
     1
102
RTVSPropertyOp2
 70
     1
102
RTVSPropertyOp3
 70
     1
102
RTVSPropertyOp4
 70
     1
102
RTVSPropertyOp5
 70
     1
102
RTVSPropertyOp6
 70
     1
102
RTVSPropertyOp7
 70
     1
102
RTVSPropertyOp8
 70
     1
102
RTVSPropertyOp9
 70
     1
102
RTVSPropertyOp10
 70
     1
102
RTVSPropertyOp11
 70
     1
102
RTVSPropertyOp12
 70
     1
102
RTVSPropertyOp13
 70
     1
102
RTVSPropertyOp14
 70
     1
102
RTVSPropertyOp15
 70
     1
102
RTVSPropertyOp16
 70
     1
102
RTVSPropertyOp17
 70
     1
102
RTVSPropertyOp18
 70
     1
102
RTVSPropertyOp19
 70
     1
102
RTVSPropertyOp20
 70
     1
102
RTVSPropertyOp21
 70
     1
102
RTVSPropertyOp22
 70
     1
102
RTVSPropertyOp23
 70
     1
102
RTVSPropertyOp24
 70
     1
102
RTVSPropertyOp25
 70
     1
102
RTVSPropertyOp26
 70
     1
102
RTVSPropertyOp27
 70
     1
102
RTVSPropertyOp28
 70
     1
102
RTVSPropertyOp29
 70
     1
102
RTVSPropertyOp30
 70
     1
102
RTVSPropertyOp31
 70
     1
102
RTVSPropertyOp32
 70
     1
  0
XRECORD
  5
2CC
102
{ACAD_REACTORS
330
2CB
102
}
330
2CB
100
AcDbXrecord
280
     1
102
RTVSPropertyOp0
 70
     1
102
RTVSPropertyOp1
 70
     1
102
RTVSPropertyOp2
 70
     1
102
RTVSPropertyOp3
 70
     1
102
RTVSPropertyOp4
 70
     1
102
RTVSPropertyOp5
 70
     1
102
RTVSPropertyOp6
 70
     1
102
RTVSPropertyOp7
 70
     1
102
RTVSPropertyOp8
 70
     1
102
RTVSPropertyOp9
 70
     1
102
RTVSPropertyOp10
 70
     1
102
RTVSPropertyOp11
 70
     1
102
RTVSPropertyOp12
 70
     1
102
RTVSPropertyOp13
 70
     1
102
RTVSPropertyOp14
 70
     1
102
RTVSPropertyOp15
 70
     1
102
RTVSPropertyOp16
 70
     1
102
RTVSPropertyOp17
 70
     1
102
RTVSPropertyOp18
 70
     1
102
RTVSPropertyOp19
 70
     1
102
RTVSPropertyOp20
 70
     1
102
RTVSPropertyOp21
 70
     1
102
RTVSPropertyOp22
 70
     1
102
RTVSPropertyOp23
 70
     1
102
RTVSPropertyOp24
 70
     1
102
RTVSPropertyOp25
 70
     1
102
RTVSPropertyOp26
 70
     1
102
RTVSPropertyOp27
 70
     1
102
RTVSPropertyOp28
 70
     1
102
RTVSPropertyOp29
 70
     1
102
RTVSPropertyOp30
 70
     1
102
RTVSPropertyOp31
 70
     1
102
RTVSPropertyOp32
 70
     1
  0
XRECORD
  5
2E6
102
{ACAD_REACTORS
330
2E5
102
}
330
2E5
100
AcDbXrecord
280
     1
102
RTVSPropertyOp0
 70
     0
102
RTVSPropertyOp1
 70
     0
102
RTVSPropertyOp2
 70
     0
102
RTVSPropertyOp3
 70
     0
102
RTVSPropertyOp4
 70
     0
102
RTVSPropertyOp5
 70
     0
102
RTVSPropertyOp6
 70
     0
102
RTVSPropertyOp7
 70
     0
102
RTVSPropertyOp8
 70
     0
102
RTVSPropertyOp9
 70
     0
102
RTVSPropertyOp10
 70
     0
102
RTVSPropertyOp11
 70
     0
102
RTVSPropertyOp12
 70
     0
102
RTVSPropertyOp13
 70
     0
102
RTVSPropertyOp14
 70
     2
102
RTVSPropertyOp15
 70
     0
102
RTVSPropertyOp16
 70
     0
102
RTVSPropertyOp17
 70
     0
102
RTVSPropertyOp18
 70
     0
102
RTVSPropertyOp19
 70
     0
102
RTVSPropertyOp20
 70
     0
102
RTVSPropertyOp21
 70
     0
102
RTVSPropertyOp22
 70
     0
102
RTVSPropertyOp23
 70
     0
102
RTVSPropertyOp24
 70
     0
102
RTVSPropertyOp25
 70
     0
102
RTVSPropertyOp26
 70
     0
102
RTVSPropertyOp27
 70
     0
102
RTVSPropertyOp28
 70
     0
102
RTVSPropertyOp29
 70
     0
102
RTVSPropertyOp30
 70
     0
102
RTVSPropertyOp31
 70
     0
102
RTVSPropertyOp32
 70
     0
  0
XRECORD
  5
2D4
102
{ACAD_REACTORS
330
2D3
102
}
330
2D3
100
AcDbXrecord
280
     1
102
RTVSPropertyOp0
 70
     1
102
RTVSPropertyOp1
 70
     1
102
RTVSPropertyOp2
 70
     1
102
RTVSPropertyOp3
 70
     1
102
RTVSPropertyOp4
 70
     1
102
RTVSPropertyOp5
 70
     1
102
RTVSPropertyOp6
 70
     1
102
RTVSPropertyOp7
 70
     1
102
RTVSPropertyOp8
 70
     1
102
RTVSPropertyOp9
 70
     1
102
RTVSPropertyOp10
 70
     1
102
RTVSPropertyOp11
 70
     1
102
RTVSPropertyOp12
 70
     1
102
RTVSPropertyOp13
 70
     1
102
RTVSPropertyOp14
 70
     1
102
RTVSPropertyOp15
 70
     1
102
RTVSPropertyOp16
 70
     1
102
RTVSPropertyOp17
 70
     1
102
RTVSPropertyOp18
 70
     1
102
RTVSPropertyOp19
 70
     1
102
RTVSPropertyOp20
 70
     1
102
RTVSPropertyOp21
 70
     1
102
RTVSPropertyOp22
 70
     1
102
RTVSPropertyOp23
 70
     1
102
RTVSPropertyOp24
 70
     1
102
RTVSPropertyOp25
 70
     1
102
RTVSPropertyOp26
 70
     1
102
RTVSPropertyOp27
 70
     1
102
RTVSPropertyOp28
 70
     1
102
RTVSPropertyOp29
 70
     1
102
RTVSPropertyOp30
 70
     1
102
RTVSPropertyOp31
 70
     1
102
RTVSPropertyOp32
 70
     1
  0
XRECORD
  5
2BE
102
{ACAD_REACTORS
330
2BD
102
}
330
2BD
100
AcDbXrecord
280
     1
102
RTVSPropertyOp0
 70
     1
102
RTVSPropertyOp1
 70
     1
102
RTVSPropertyOp2
 70
     1
102
RTVSPropertyOp3
 70
     1
102
RTVSPropertyOp4
 70
     1
102
RTVSPropertyOp5
 70
     1
102
RTVSPropertyOp6
 70
     1
102
RTVSPropertyOp7
 70
     1
102
RTVSPropertyOp8
 70
     1
102
RTVSPropertyOp9
 70
     1
102
RTVSPropertyOp10
 70
     1
102
RTVSPropertyOp11
 70
     1
102
RTVSPropertyOp12
 70
     1
102
RTVSPropertyOp13
 70
     1
102
RTVSPropertyOp14
 70
     1
102
RTVSPropertyOp15
 70
     1
102
RTVSPropertyOp16
 70
     1
102
RTVSPropertyOp17
 70
     1
102
RTVSPropertyOp18
 70
     1
102
RTVSPropertyOp19
 70
     1
102
RTVSPropertyOp20
 70
     1
102
RTVSPropertyOp21
 70
     1
102
RTVSPropertyOp22
 70
     1
102
RTVSPropertyOp23
 70
     1
102
RTVSPropertyOp24
 70
     1
102
RTVSPropertyOp25
 70
     1
102
RTVSPropertyOp26
 70
     1
102
RTVSPropertyOp27
 70
     1
102
RTVSPropertyOp28
 70
     1
102
RTVSPropertyOp29
 70
     1
102
RTVSPropertyOp30
 70
     1
102
RTVSPropertyOp31
 70
     1
102
RTVSPropertyOp32
 70
     1
  0
XRECORD
  5
2C0
102
{ACAD_REACTORS
330
2BF
102
}
330
2BF
100
AcDbXrecord
280
     1
102
RTVSPropertyOp0
 70
     1
102
RTVSPropertyOp1
 70
     1
102
RTVSPropertyOp2
 70
     1
102
RTVSPropertyOp3
 70
     1
102
RTVSPropertyOp4
 70
     1
102
RTVSPropertyOp5
 70
     1
102
RTVSPropertyOp6
 70
     1
102
RTVSPropertyOp7
 70
     1
102
RTVSPropertyOp8
 70
     1
102
RTVSPropertyOp9
 70
     1
102
RTVSPropertyOp10
 70
     1
102
RTVSPropertyOp11
 70
     1
102
RTVSPropertyOp12
 70
     1
102
RTVSPropertyOp13
 70
     1
102
RTVSPropertyOp14
 70
     1
102
RTVSPropertyOp15
 70
     1
102
RTVSPropertyOp16
 70
     1
102
RTVSPropertyOp17
 70
     1
102
RTVSPropertyOp18
 70
     1
102
RTVSPropertyOp19
 70
     1
102
RTVSPropertyOp20
 70
     1
102
RTVSPropertyOp21
 70
     1
102
RTVSPropertyOp22
 70
     1
102
RTVSPropertyOp23
 70
     1
102
RTVSPropertyOp24
 70
     1
102
RTVSPropertyOp25
 70
     1
102
RTVSPropertyOp26
 70
     1
102
RTVSPropertyOp27
 70
     1
102
RTVSPropertyOp28
 70
     1
102
RTVSPropertyOp29
 70
     1
102
RTVSPropertyOp30
 70
     1
102
RTVSPropertyOp31
 70
     1
102
RTVSPropertyOp32
 70
     1
  0
XRECORD
  5
2C2
102
{ACAD_REACTORS
330
2C1
102
}
330
2C1
100
AcDbXrecord
280
     1
102
RTVSPropertyOp0
 70
     1
102
RTVSPropertyOp1
 70
     1
102
RTVSPropertyOp2
 70
     1
102
RTVSPropertyOp3
 70
     1
102
RTVSPropertyOp4
 70
     1
102
RTVSPropertyOp5
 70
     1
102
RTVSPropertyOp6
 70
     1
102
RTVSPropertyOp7
 70
     1
102
RTVSPropertyOp8
 70
     1
102
RTVSPropertyOp9
 70
     1
102
RTVSPropertyOp10
 70
     1
102
RTVSPropertyOp11
 70
     1
102
RTVSPropertyOp12
 70
     1
102
RTVSPropertyOp13
 70
     1
102
RTVSPropertyOp14
 70
     1
102
RTVSPropertyOp15
 70
     1
102
RTVSPropertyOp16
 70
     1
102
RTVSPropertyOp17
 70
     1
102
RTVSPropertyOp18
 70
     1
102
RTVSPropertyOp19
 70
     1
102
RTVSPropertyOp20
 70
     1
102
RTVSPropertyOp21
 70
     1
102
RTVSPropertyOp22
 70
     1
102
RTVSPropertyOp23
 70
     1
102
RTVSPropertyOp24
 70
     1
102
RTVSPropertyOp25
 70
     1
102
RTVSPropertyOp26
 70
     1
102
RTVSPropertyOp27
 70
     1
102
RTVSPropertyOp28
 70
     1
102
RTVSPropertyOp29
 70
     1
102
RTVSPropertyOp30
 70
     1
102
RTVSPropertyOp31
 70
     1
102
RTVSPropertyOp32
 70
     1
  0
XRECORD
  5
2C4
102
{ACAD_REACTORS
330
2C3
102
}
330
2C3
100
AcDbXrecord
280
     1
102
RTVSPropertyOp0
 70
     1
102
RTVSPropertyOp1
 70
     1
102
RTVSPropertyOp2
 70
     1
102
RTVSPropertyOp3
 70
     1
102
RTVSPropertyOp4
 70
     1
102
RTVSPropertyOp5
 70
     1
102
RTVSPropertyOp6
 70
     1
102
RTVSPropertyOp7
 70
     1
102
RTVSPropertyOp8
 70
     1
102
RTVSPropertyOp9
 70
     1
102
RTVSPropertyOp10
 70
     1
102
RTVSPropertyOp11
 70
     1
102
RTVSPropertyOp12
 70
     1
102
RTVSPropertyOp13
 70
     1
102
RTVSPropertyOp14
 70
     1
102
RTVSPropertyOp15
 70
     1
102
RTVSPropertyOp16
 70
     1
102
RTVSPropertyOp17
 70
     1
102
RTVSPropertyOp18
 70
     1
102
RTVSPropertyOp19
 70
     1
102
RTVSPropertyOp20
 70
     1
102
RTVSPropertyOp21
 70
     1
102
RTVSPropertyOp22
 70
     1
102
RTVSPropertyOp23
 70
     1
102
RTVSPropertyOp24
 70
     1
102
RTVSPropertyOp25
 70
     1
102
RTVSPropertyOp26
 70
     1
102
RTVSPropertyOp27
 70
     1
102
RTVSPropertyOp28
 70
     1
102
RTVSPropertyOp29
 70
     1
102
RTVSPropertyOp30
 70
     1
102
RTVSPropertyOp31
 70
     1
102
RTVSPropertyOp32
 70
     1
  0
XRECORD
  5
2C8
102
{ACAD_REACTORS
330
2C7
102
}
330
2C7
100
AcDbXrecord
280
     1
102
RTVSPropertyOp0
 70
     1
102
RTVSPropertyOp1
 70
     1
102
RTVSPropertyOp2
 70
     1
102
RTVSPropertyOp3
 70
     1
102
RTVSPropertyOp4
 70
     1
102
RTVSPropertyOp5
 70
     1
102
RTVSPropertyOp6
 70
     1
102
RTVSPropertyOp7
 70
     1
102
RTVSPropertyOp8
 70
     1
102
RTVSPropertyOp9
 70
     1
102
RTVSPropertyOp10
 70
     1
102
RTVSPropertyOp11
 70
     1
102
RTVSPropertyOp12
 70
     1
102
RTVSPropertyOp13
 70
     1
102
RTVSPropertyOp14
 70
     1
102
RTVSPropertyOp15
 70
     1
102
RTVSPropertyOp16
 70
     1
102
RTVSPropertyOp17
 70
     1
102
RTVSPropertyOp18
 70
     1
102
RTVSPropertyOp19
 70
     1
102
RTVSPropertyOp20
 70
     1
102
RTVSPropertyOp21
 70
     1
102
RTVSPropertyOp22
 70
     1
102
RTVSPropertyOp23
 70
     1
102
RTVSPropertyOp24
 70
     1
102
RTVSPropertyOp25
 70
     1
102
RTVSPropertyOp26
 70
     1
102
RTVSPropertyOp27
 70
     1
102
RTVSPropertyOp28
 70
     1
102
RTVSPropertyOp29
 70
     1
102
RTVSPropertyOp30
 70
     1
102
RTVSPropertyOp31
 70
     1
102
RTVSPropertyOp32
 70
     1
  0
XRECORD
  5
2E2
102
{ACAD_REACTORS
330
2E1
102
}
330
2E1
100
AcDbXrecord
280
     1
102
RTVSPropertyOp0
 70
     0
102
RTVSPropertyOp1
 70
     0
102
RTVSPropertyOp2
 70
     0
102
RTVSPropertyOp3
 70
     0
102
RTVSPropertyOp4
 70
     0
102
RTVSPropertyOp5
 70
     0
102
RTVSPropertyOp6
 70
     0
102
RTVSPropertyOp7
 70
     0
102
RTVSPropertyOp8
 70
     0
102
RTVSPropertyOp9
 70
     0
102
RTVSPropertyOp10
 70
     0
102
RTVSPropertyOp11
 70
     0
102
RTVSPropertyOp12
 70
     0
102
RTVSPropertyOp13
 70
     0
102
RTVSPropertyOp14
 70
     2
102
RTVSPropertyOp15
 70
     0
102
RTVSPropertyOp16
 70
     0
102
RTVSPropertyOp17
 70
     0
102
RTVSPropertyOp18
 70
     0
102
RTVSPropertyOp19
 70
     0
102
RTVSPropertyOp20
 70
     0
102
RTVSPropertyOp21
 70
     0
102
RTVSPropertyOp22
 70
     0
102
RTVSPropertyOp23
 70
     0
102
RTVSPropertyOp24
 70
     0
102
RTVSPropertyOp25
 70
     0
102
RTVSPropertyOp26
 70
     0
102
RTVSPropertyOp27
 70
     0
102
RTVSPropertyOp28
 70
     0
102
RTVSPropertyOp29
 70
     0
102
RTVSPropertyOp30
 70
     0
102
RTVSPropertyOp31
 70
     0
102
RTVSPropertyOp32
 70
     0
  0
XRECORD
  5
2D2
102
{ACAD_REACTORS
330
2D1
102
}
330
2D1
100
AcDbXrecord
280
     1
102
RTVSPropertyOp0
 70
     1
102
RTVSPropertyOp1
 70
     1
102
RTVSPropertyOp2
 70
     1
102
RTVSPropertyOp3
 70
     1
102
RTVSPropertyOp4
 70
     1
102
RTVSPropertyOp5
 70
     1
102
RTVSPropertyOp6
 70
     1
102
RTVSPropertyOp7
 70
     1
102
RTVSPropertyOp8
 70
     1
102
RTVSPropertyOp9
 70
     1
102
RTVSPropertyOp10
 70
     1
102
RTVSPropertyOp11
 70
     1
102
RTVSPropertyOp12
 70
     1
102
RTVSPropertyOp13
 70
     1
102
RTVSPropertyOp14
 70
     1
102
RTVSPropertyOp15
 70
     1
102
RTVSPropertyOp16
 70
     1
102
RTVSPropertyOp17
 70
     1
102
RTVSPropertyOp18
 70
     1
102
RTVSPropertyOp19
 70
     1
102
RTVSPropertyOp20
 70
     1
102
RTVSPropertyOp21
 70
     1
102
RTVSPropertyOp22
 70
     1
102
RTVSPropertyOp23
 70
     1
102
RTVSPropertyOp24
 70
     1
102
RTVSPropertyOp25
 70
     1
102
RTVSPropertyOp26
 70
     1
102
RTVSPropertyOp27
 70
     1
102
RTVSPropertyOp28
 70
     1
102
RTVSPropertyOp29
 70
     1
102
RTVSPropertyOp30
 70
     1
102
RTVSPropertyOp31
 70
     1
102
RTVSPropertyOp32
 70
     1
  0
XRECORD
  5
2E4
102
{ACAD_REACTORS
330
2E3
102
}
330
2E3
100
AcDbXrecord
280
     1
102
RTVSPropertyOp0
 70
     0
102
RTVSPropertyOp1
 70
     0
102
RTVSPropertyOp2
 70
     0
102
RTVSPropertyOp3
 70
     0
102
RTVSPropertyOp4
 70
     0
102
RTVSPropertyOp5
 70
     0
102
RTVSPropertyOp6
 70
     0
102
RTVSPropertyOp7
 70
     0
102
RTVSPropertyOp8
 70
     0
102
RTVSPropertyOp9
 70
     0
102
RTVSPropertyOp10
 70
     0
102
RTVSPropertyOp11
 70
     0
102
RTVSPropertyOp12
 70
     0
102
RTVSPropertyOp13
 70
     0
102
RTVSPropertyOp14
 70
     2
102
RTVSPropertyOp15
 70
     0
102
RTVSPropertyOp16
 70
     0
102
RTVSPropertyOp17
 70
     0
102
RTVSPropertyOp18
 70
     0
102
RTVSPropertyOp19
 70
     0
102
RTVSPropertyOp20
 70
     0
102
RTVSPropertyOp21
 70
     0
102
RTVSPropertyOp22
 70
     0
102
RTVSPropertyOp23
 70
     0
102
RTVSPropertyOp24
 70
     0
102
RTVSPropertyOp25
 70
     0
102
RTVSPropertyOp26
 70
     0
102
RTVSPropertyOp27
 70
     0
102
RTVSPropertyOp28
 70
     0
102
RTVSPropertyOp29
 70
     0
102
RTVSPropertyOp30
 70
     0
102
RTVSPropertyOp31
 70
     0
102
RTVSPropertyOp32
 70
     0
  0
XRECORD
  5
2B4
102
{ACAD_REACTORS
330
2B3
102
}
330
2B3
100
AcDbXrecord
280
     1
102
RTVSPropertyOp0
 70
     1
102
RTVSPropertyOp1
 70
     1
102
RTVSPropertyOp2
 70
     1
102
RTVSPropertyOp3
 70
     1
102
RTVSPropertyOp4
 70
     1
102
RTVSPropertyOp5
 70
     1
102
RTVSPropertyOp6
 70
     1
102
RTVSPropertyOp7
 70
     1
102
RTVSPropertyOp8
 70
     1
102
RTVSPropertyOp9
 70
     1
102
RTVSPropertyOp10
 70
     1
102
RTVSPropertyOp11
 70
     1
102
RTVSPropertyOp12
 70
     1
102
RTVSPropertyOp13
 70
     1
102
RTVSPropertyOp14
 70
     1
102
RTVSPropertyOp15
 70
     1
102
RTVSPropertyOp16
 70
     1
102
RTVSPropertyOp17
 70
     1
102
RTVSPropertyOp18
 70
     1
102
RTVSPropertyOp19
 70
     1
102
RTVSPropertyOp20
 70
     1
102
RTVSPropertyOp21
 70
     1
102
RTVSPropertyOp22
 70
     1
102
RTVSPropertyOp23
 70
     1
102
RTVSPropertyOp24
 70
     1
102
RTVSPropertyOp25
 70
     1
102
RTVSPropertyOp26
 70
     1
102
RTVSPropertyOp27
 70
     1
102
RTVSPropertyOp28
 70
     1
102
RTVSPropertyOp29
 70
     1
102
RTVSPropertyOp30
 70
     1
102
RTVSPropertyOp31
 70
     1
102
RTVSPropertyOp32
 70
     1
  0
XRECORD
  5
2E0
102
{ACAD_REACTORS
330
2DF
102
}
330
2DF
100
AcDbXrecord
280
     1
102
RTVSPropertyOp0
 70
     1
102
RTVSPropertyOp1
 70
     1
102
RTVSPropertyOp2
 70
     1
102
RTVSPropertyOp3
 70
     1
102
RTVSPropertyOp4
 70
     1
102
RTVSPropertyOp5
 70
     1
102
RTVSPropertyOp6
 70
     1
102
RTVSPropertyOp7
 70
     1
102
RTVSPropertyOp8
 70
     1
102
RTVSPropertyOp9
 70
     1
102
RTVSPropertyOp10
 70
     1
102
RTVSPropertyOp11
 70
     1
102
RTVSPropertyOp12
 70
     1
102
RTVSPropertyOp13
 70
     1
102
RTVSPropertyOp14
 70
     1
102
RTVSPropertyOp15
 70
     1
102
RTVSPropertyOp16
 70
     1
102
RTVSPropertyOp17
 70
     1
102
RTVSPropertyOp18
 70
     1
102
RTVSPropertyOp19
 70
     1
102
RTVSPropertyOp20
 70
     1
102
RTVSPropertyOp21
 70
     1
102
RTVSPropertyOp22
 70
     1
102
RTVSPropertyOp23
 70
     1
102
RTVSPropertyOp24
 70
     1
102
RTVSPropertyOp25
 70
     1
102
RTVSPropertyOp26
 70
     1
102
RTVSPropertyOp27
 70
     1
102
RTVSPropertyOp28
 70
     1
102
RTVSPropertyOp29
 70
     1
102
RTVSPropertyOp30
 70
     1
102
RTVSPropertyOp31
 70
     1
102
RTVSPropertyOp32
 70
     1
  0
XRECORD
  5
2DE
102
{ACAD_REACTORS
330
2DD
102
}
330
2DD
100
AcDbXrecord
280
     1
102
RTVSPropertyOp0
 70
     1
102
RTVSPropertyOp1
 70
     1
102
RTVSPropertyOp2
 70
     1
102
RTVSPropertyOp3
 70
     1
102
RTVSPropertyOp4
 70
     1
102
RTVSPropertyOp5
 70
     1
102
RTVSPropertyOp6
 70
     1
102
RTVSPropertyOp7
 70
     1
102
RTVSPropertyOp8
 70
     1
102
RTVSPropertyOp9
 70
     1
102
RTVSPropertyOp10
 70
     1
102
RTVSPropertyOp11
 70
     1
102
RTVSPropertyOp12
 70
     1
102
RTVSPropertyOp13
 70
     1
102
RTVSPropertyOp14
 70
     1
102
RTVSPropertyOp15
 70
     1
102
RTVSPropertyOp16
 70
     1
102
RTVSPropertyOp17
 70
     1
102
RTVSPropertyOp18
 70
     1
102
RTVSPropertyOp19
 70
     1
102
RTVSPropertyOp20
 70
     1
102
RTVSPropertyOp21
 70
     1
102
RTVSPropertyOp22
 70
     1
102
RTVSPropertyOp23
 70
     1
102
RTVSPropertyOp24
 70
     1
102
RTVSPropertyOp25
 70
     1
102
RTVSPropertyOp26
 70
     1
102
RTVSPropertyOp27
 70
     1
102
RTVSPropertyOp28
 70
     1
102
RTVSPropertyOp29
 70
     1
102
RTVSPropertyOp30
 70
     1
102
RTVSPropertyOp31
 70
     1
102
RTVSPropertyOp32
 70
     1
  0
XRECORD
  5
2D8
102
{ACAD_REACTORS
330
2D7
102
}
330
2D7
100
AcDbXrecord
280
     1
102
RTVSPropertyOp0
 70
     1
102
RTVSPropertyOp1
 70
     1
102
RTVSPropertyOp2
 70
     1
102
RTVSPropertyOp3
 70
     1
102
RTVSPropertyOp4
 70
     1
102
RTVSPropertyOp5
 70
     1
102
RTVSPropertyOp6
 70
     1
102
RTVSPropertyOp7
 70
     1
102
RTVSPropertyOp8
 70
     1
102
RTVSPropertyOp9
 70
     1
102
RTVSPropertyOp10
 70
     1
102
RTVSPropertyOp11
 70
     1
102
RTVSPropertyOp12
 70
     1
102
RTVSPropertyOp13
 70
     1
102
RTVSPropertyOp14
 70
     1
102
RTVSPropertyOp15
 70
     1
102
RTVSPropertyOp16
 70
     1
102
RTVSPropertyOp17
 70
     1
102
RTVSPropertyOp18
 70
     1
102
RTVSPropertyOp19
 70
     1
102
RTVSPropertyOp20
 70
     1
102
RTVSPropertyOp21
 70
     1
102
RTVSPropertyOp22
 70
     1
102
RTVSPropertyOp23
 70
     1
102
RTVSPropertyOp24
 70
     1
102
RTVSPropertyOp25
 70
     1
102
RTVSPropertyOp26
 70
     1
102
RTVSPropertyOp27
 70
     1
102
RTVSPropertyOp28
 70
     1
102
RTVSPropertyOp29
 70
     1
102
RTVSPropertyOp30
 70
     1
102
RTVSPropertyOp31
 70
     1
102
RTVSPropertyOp32
 70
     1
  0
XRECORD
  5
2DA
102
{ACAD_REACTORS
330
2D9
102
}
330
2D9
100
AcDbXrecord
280
     1
102
RTVSPropertyOp0
 70
     1
102
RTVSPropertyOp1
 70
     1
102
RTVSPropertyOp2
 70
     1
102
RTVSPropertyOp3
 70
     1
102
RTVSPropertyOp4
 70
     1
102
RTVSPropertyOp5
 70
     1
102
RTVSPropertyOp6
 70
     1
102
RTVSPropertyOp7
 70
     1
102
RTVSPropertyOp8
 70
     1
102
RTVSPropertyOp9
 70
     1
102
RTVSPropertyOp10
 70
     1
102
RTVSPropertyOp11
 70
     1
102
RTVSPropertyOp12
 70
     1
102
RTVSPropertyOp13
 70
     1
102
RTVSPropertyOp14
 70
     1
102
RTVSPropertyOp15
 70
     1
102
RTVSPropertyOp16
 70
     1
102
RTVSPropertyOp17
 70
     1
102
RTVSPropertyOp18
 70
     1
102
RTVSPropertyOp19
 70
     1
102
RTVSPropertyOp20
 70
     1
102
RTVSPropertyOp21
 70
     1
102
RTVSPropertyOp22
 70
     1
102
RTVSPropertyOp23
 70
     1
102
RTVSPropertyOp24
 70
     1
102
RTVSPropertyOp25
 70
     1
102
RTVSPropertyOp26
 70
     1
102
RTVSPropertyOp27
 70
     1
102
RTVSPropertyOp28
 70
     1
102
RTVSPropertyOp29
 70
     1
102
RTVSPropertyOp30
 70
     1
102
RTVSPropertyOp31
 70
     1
102
RTVSPropertyOp32
 70
     1
  0
XRECORD
  5
2D0
102
{ACAD_REACTORS
330
2CF
102
}
330
2CF
100
AcDbXrecord
280
     1
102
RTVSPropertyOp0
 70
     1
102
RTVSPropertyOp1
 70
     1
102
RTVSPropertyOp2
 70
     1
102
RTVSPropertyOp3
 70
     1
102
RTVSPropertyOp4
 70
     1
102
RTVSPropertyOp5
 70
     1
102
RTVSPropertyOp6
 70
     1
102
RTVSPropertyOp7
 70
     1
102
RTVSPropertyOp8
 70
     1
102
RTVSPropertyOp9
 70
     1
102
RTVSPropertyOp10
 70
     1
102
RTVSPropertyOp11
 70
     1
102
RTVSPropertyOp12
 70
     1
102
RTVSPropertyOp13
 70
     1
102
RTVSPropertyOp14
 70
     1
102
RTVSPropertyOp15
 70
     1
102
RTVSPropertyOp16
 70
     1
102
RTVSPropertyOp17
 70
     1
102
RTVSPropertyOp18
 70
     1
102
RTVSPropertyOp19
 70
     1
102
RTVSPropertyOp20
 70
     1
102
RTVSPropertyOp21
 70
     1
102
RTVSPropertyOp22
 70
     1
102
RTVSPropertyOp23
 70
     1
102
RTVSPropertyOp24
 70
     1
102
RTVSPropertyOp25
 70
     1
102
RTVSPropertyOp26
 70
     1
102
RTVSPropertyOp27
 70
     1
102
RTVSPropertyOp28
 70
     1
102
RTVSPropertyOp29
 70
     1
102
RTVSPropertyOp30
 70
     1
102
RTVSPropertyOp31
 70
     1
102
RTVSPropertyOp32
 70
     1
  0
XRECORD
  5
2B6
102
{ACAD_REACTORS
330
2B5
102
}
330
2B5
100
AcDbXrecord
280
     1
102
RTVSPropertyOp0
 70
     1
102
RTVSPropertyOp1
 70
     1
102
RTVSPropertyOp2
 70
     1
102
RTVSPropertyOp3
 70
     1
102
RTVSPropertyOp4
 70
     1
102
RTVSPropertyOp5
 70
     1
102
RTVSPropertyOp6
 70
     1
102
RTVSPropertyOp7
 70
     1
102
RTVSPropertyOp8
 70
     1
102
RTVSPropertyOp9
 70
     1
102
RTVSPropertyOp10
 70
     1
102
RTVSPropertyOp11
 70
     1
102
RTVSPropertyOp12
 70
     1
102
RTVSPropertyOp13
 70
     1
102
RTVSPropertyOp14
 70
     1
102
RTVSPropertyOp15
 70
     1
102
RTVSPropertyOp16
 70
     1
102
RTVSPropertyOp17
 70
     1
102
RTVSPropertyOp18
 70
     1
102
RTVSPropertyOp19
 70
     1
102
RTVSPropertyOp20
 70
     1
102
RTVSPropertyOp21
 70
     1
102
RTVSPropertyOp22
 70
     1
102
RTVSPropertyOp23
 70
     1
102
RTVSPropertyOp24
 70
     1
102
RTVSPropertyOp25
 70
     1
102
RTVSPropertyOp26
 70
     1
102
RTVSPropertyOp27
 70
     1
102
RTVSPropertyOp28
 70
     1
102
RTVSPropertyOp29
 70
     1
102
RTVSPropertyOp30
 70
     1
102
RTVSPropertyOp31
 70
     1
102
RTVSPropertyOp32
 70
     1
  0
XRECORD
  5
2DC
102
{ACAD_REACTORS
330
2DB
102
}
330
2DB
100
AcDbXrecord
280
     1
102
RTVSPropertyOp0
 70
     1
102
RTVSPropertyOp1
 70
     1
102
RTVSPropertyOp2
 70
     1
102
RTVSPropertyOp3
 70
     1
102
RTVSPropertyOp4
 70
     1
102
RTVSPropertyOp5
 70
     1
102
RTVSPropertyOp6
 70
     1
102
RTVSPropertyOp7
 70
     1
102
RTVSPropertyOp8
 70
     1
102
RTVSPropertyOp9
 70
     1
102
RTVSPropertyOp10
 70
     1
102
RTVSPropertyOp11
 70
     1
102
RTVSPropertyOp12
 70
     1
102
RTVSPropertyOp13
 70
     1
102
RTVSPropertyOp14
 70
     1
102
RTVSPropertyOp15
 70
     1
102
RTVSPropertyOp16
 70
     1
102
RTVSPropertyOp17
 70
     1
102
RTVSPropertyOp18
 70
     1
102
RTVSPropertyOp19
 70
     1
102
RTVSPropertyOp20
 70
     1
102
RTVSPropertyOp21
 70
     1
102
RTVSPropertyOp22
 70
     1
102
RTVSPropertyOp23
 70
     1
102
RTVSPropertyOp24
 70
     1
102
RTVSPropertyOp25
 70
     1
102
RTVSPropertyOp26
 70
     1
102
RTVSPropertyOp27
 70
     1
102
RTVSPropertyOp28
 70
     1
102
RTVSPropertyOp29
 70
     1
102
RTVSPropertyOp30
 70
     1
102
RTVSPropertyOp31
 70
     1
102
RTVSPropertyOp32
 70
     1
  0
ENDSEC
  0
EOF
