  0
SECTION
  2
HEADER
  9
$ACADVER
  1
AC1015
  9
$ACADMAINTVER
 70
    18
  9
$DWGCODEPAGE
  3
ANSI_1252
  9
$INSBASE
 10
0.0
 20
0.0
 30
0.0
  9
$EXTMIN
 10
-14.29555884457158
 20
-84.58126564065606
 30
-0.0015258207003583
  9
$EXTMAX
 10
67.06338704594327
 20
35.069840902544
 30
0.0000000349246037
  9
$LIMMIN
 10
0.0
 20
0.0
  9
$LIMMAX
 10
1682.0
 20
1189.0
  9
$ORTHOMODE
 70
     0
  9
$REGENMODE
 70
     1
  9
$FILLMODE
 70
     1
  9
$QTEXTMODE
 70
     0
  9
$MIRRTEXT
 70
     0
  9
$LTSCALE
 40
1.0
  9
$ATTMODE
 70
     1
  9
$TEXTSIZE
 40
0.2
  9
$TRACEWID
 40
0.05
  9
$TEXTSTYLE
  7
STANDARD
  9
$CLAYER
  8
0
  9
$CELTYPE
  6
ByLayer
  9
$CECOLOR
 62
   256
  9
$CELTSCALE
 40
1.0
  9
$DISPSILH
 70
     0
  9
$DIMSCALE
 40
1.0
  9
$DIMASZ
 40
180.0
  9
$DIMEXO
 40
0.0625
  9
$DIMDLI
 40
0.38
  9
$DIMRND
 40
0.0
  9
$DIMDLE
 40
0.0
  9
$DIMEXE
 40
0.18
  9
$DIMTP
 40
0.0
  9
$DIMTM
 40
0.0
  9
$DIMTXT
 40
34.99999940395355
  9
$DIMCEN
 40
0.09
  9
$DIMTSZ
 40
0.0
  9
$DIMTOL
 70
     0
  9
$DIMLIM
 70
     0
  9
$DIMTIH
 70
     1
  9
$DIMTOH
 70
     1
  9
$DIMSE1
 70
     0
  9
$DIMSE2
 70
     0
  9
$DIMTAD
 70
     0
  9
$DIMZIN
 70
     0
  9
$DIMBLK
  1

  9
$DIMASO
 70
     1
  9
$DIMSHO
 70
     1
  9
$DIMPOST
  1

  9
$DIMAPOST
  1

  9
$DIMALT
 70
     0
  9
$DIMALTD
 70
     2
  9
$DIMALTF
 40
25.4
  9
$DIMLFAC
 40
1.0
  9
$DIMTOFL
 70
     0
  9
$DIMTVP
 40
0.0
  9
$DIMTIX
 70
     0
  9
$DIMSOXD
 70
     0
  9
$DIMSAH
 70
     0
  9
$DIMBLK1
  1

  9
$DIMBLK2
  1

  9
$DIMSTYLE
  2
STANDARD
  9
$DIMCLRD
 70
     0
  9
$DIMCLRE
 70
     0
  9
$DIMCLRT
 70
     0
  9
$DIMTFAC
 40
1.0
  9
$DIMGAP
 40
0.09
  9
$DIMJUST
 70
     0
  9
$DIMSD1
 70
     0
  9
$DIMSD2
 70
     0
  9
$DIMTOLJ
 70
     1
  9
$DIMTZIN
 70
     0
  9
$DIMALTZ
 70
     0
  9
$DIMALTTZ
 70
     0
  9
$DIMUPT
 70
     0
  9
$DIMDEC
 70
     4
  9
$DIMTDEC
 70
     4
  9
$DIMALTU
 70
     2
  9
$DIMALTTD
 70
     2
  9
$DIMTXSTY
  7
STANDARD
  9
$DIMAUNIT
 70
     0
  9
$DIMADEC
 70
     0
  9
$DIMALTRND
 40
0.0
  9
$DIMAZIN
 70
     0
  9
$DIMDSEP
 70
    46
  9
$DIMATFIT
 70
     3
  9
$DIMFRAC
 70
     0
  9
$DIMLDRBLK
  1

  9
$DIMLUNIT
 70
     2
  9
$DIMLWD
 70
    -2
  9
$DIMLWE
 70
    -2
  9
$DIMTMOVE
 70
     0
  9
$LUNITS
 70
     2
  9
$LUPREC
 70
     4
  9
$SKETCHINC
 40
0.1
  9
$FILLETRAD
 40
0.0
  9
$AUNITS
 70
     0
  9
$AUPREC
 70
     0
  9
$MENU
  1
.
  9
$ELEVATION
 40
0.0
  9
$PELEVATION
 40
0.0
  9
$THICKNESS
 40
0.0
  9
$LIMCHECK
 70
     0
  9
$CHAMFERA
 40
0.0
  9
$CHAMFERB
 40
0.0
  9
$CHAMFERC
 40
0.0
  9
$CHAMFERD
 40
0.0
  9
$SKPOLY
 70
     0
  9
$TDCREATE
 40
2454871.539305995
  9
$TDUCREATE
 40
2454871.455972662
  9
$TDUPDATE
 40
2455490.913620093
  9
$TDUUPDATE
 40
2455490.830286759
  9
$TDINDWG
 40
0.0121909375
  9
$TDUSRTIMER
 40
0.0121909375
  9
$USRTIMER
 70
     1
  9
$ANGBASE
 50
0.0
  9
$ANGDIR
 70
     0
  9
$PDMODE
 70
     0
  9
$PDSIZE
 40
0.0
  9
$PLINEWID
 40
0.0
  9
$SPLFRAME
 70
     0
  9
$SPLINETYPE
 70
     6
  9
$SPLINESEGS
 70
     8
  9
$HANDSEED
  5
575
  9
$SURFTAB1
 70
     6
  9
$SURFTAB2
 70
     6
  9
$SURFTYPE
 70
     6
  9
$SURFU
 70
     6
  9
$SURFV
 70
     6
  9
$UCSBASE
  2

  9
$UCSNAME
  2

  9
$UCSORG
 10
0.0
 20
0.0
 30
0.0
  9
$UCSXDIR
 10
1.0
 20
0.0
 30
0.0
  9
$UCSYDIR
 10
0.0
 20
1.0
 30
0.0
  9
$UCSORTHOREF
  2

  9
$UCSORTHOVIEW
 70
     0
  9
$UCSORGTOP
 10
0.0
 20
0.0
 30
0.0
  9
$UCSORGBOTTOM
 10
0.0
 20
0.0
 30
0.0
  9
$UCSORGLEFT
 10
0.0
 20
0.0
 30
0.0
  9
$UCSORGRIGHT
 10
0.0
 20
0.0
 30
0.0
  9
$UCSORGFRONT
 10
0.0
 20
0.0
 30
0.0
  9
$UCSORGBACK
 10
0.0
 20
0.0
 30
0.0
  9
$PUCSBASE
  2

  9
$PUCSNAME
  2

  9
$PUCSORG
 10
0.0
 20
0.0
 30
0.0
  9
$PUCSXDIR
 10
1.0
 20
0.0
 30
0.0
  9
$PUCSYDIR
 10
0.0
 20
1.0
 30
0.0
  9
$PUCSORTHOREF
  2

  9
$PUCSORTHOVIEW
 70
     0
  9
$PUCSORGTOP
 10
0.0
 20
0.0
 30
0.0
  9
$PUCSORGBOTTOM
 10
0.0
 20
0.0
 30
0.0
  9
$PUCSORGLEFT
 10
0.0
 20
0.0
 30
0.0
  9
$PUCSORGRIGHT
 10
0.0
 20
0.0
 30
0.0
  9
$PUCSORGFRONT
 10
0.0
 20
0.0
 30
0.0
  9
$PUCSORGBACK
 10
0.0
 20
0.0
 30
0.0
  9
$USERI1
 70
     0
  9
$USERI2
 70
     0
  9
$USERI3
 70
     0
  9
$USERI4
 70
     0
  9
$USERI5
 70
     0
  9
$USERR1
 40
0.0
  9
$USERR2
 40
0.0
  9
$USERR3
 40
0.0
  9
$USERR4
 40
0.0
  9
$USERR5
 40
0.0
  9
$WORLDVIEW
 70
     1
  9
$SHADEDGE
 70
     3
  9
$SHADEDIF
 70
    70
  9
$TILEMODE
 70
     1
  9
$MAXACTVP
 70
    64
  9
$PINSBASE
 10
0.0
 20
0.0
 30
0.0
  9
$PLIMCHECK
 70
     0
  9
$PEXTMIN
 10
0.0
 20
0.0
 30
0.0
  9
$PEXTMAX
 10
1682.0
 20
1189.0
 30
0.0
  9
$PLIMMIN
 10
0.0
 20
0.0
  9
$PLIMMAX
 10
1682.0
 20
1189.0
  9
$UNITMODE
 70
     0
  9
$VISRETAIN
 70
     1
  9
$PLINEGEN
 70
     0
  9
$PSLTSCALE
 70
     1
  9
$TREEDEPTH
 70
  3020
  9
$CMLSTYLE
  2
Standard
  9
$CMLJUST
 70
     0
  9
$CMLSCALE
 40
1.0
  9
$PROXYGRAPHICS
 70
     1
  9
$MEASUREMENT
 70
     1
  9
$CELWEIGHT
370
    -1
  9
$ENDCAPS
280
     0
  9
$JOINSTYLE
280
     0
  9
$LWDISPLAY
290
     0
  9
$INSUNITS
 70
     4
  9
$HYPERLINKBASE
  1

  9
$STYLESHEET
  1

  9
$XEDIT
290
     1
  9
$CEPSNTYPE
380
     0
  9
$PSTYLEMODE
290
     1
  9
$FINGERPRINTGUID
  2
{84090FF5-A470-4E1D-B12A-AEFDC54C042B}
  9
$VERSIONGUID
  2
{A9A62510-ED00-4A1E-81FF-709ADF6FD08D}
  9
$EXTNAMES
290
     1
  9
$PSVPSCALE
 40
0.0
  9
$OLESTARTUP
290
     0
  0
ENDSEC
  0
SECTION
  2
CLASSES
  0
CLASS
  1
ACDBDICTIONARYWDFLT
  2
AcDbDictionaryWithDefault
  3
ObjectDBX Classes
 90
        0
280
     0
281
     0
  0
CLASS
  1
MATERIAL
  2
AcDbMaterial
  3
ObjectDBX Classes
 90
     1153
280
     0
281
     0
  0
CLASS
  1
VISUALSTYLE
  2
AcDbVisualStyle
  3
ObjectDBX Classes
 90
     4095
280
     0
281
     0
  0
CLASS
  1
SCALE
  2
AcDbScale
  3
ObjectDBX Classes
 90
     1153
280
     0
281
     0
  0
CLASS
  1
TABLESTYLE
  2
AcDbTableStyle
  3
ObjectDBX Classes
 90
     4095
280
     0
281
     0
  0
CLASS
  1
MLEADERSTYLE
  2
AcDbMLeaderStyle
  3
ACDB_MLEADERSTYLE_CLASS
 90
     4095
280
     0
281
     0
  0
CLASS
  1
SORTENTSTABLE
  2
AcDbSortentsTable
  3
ObjectDBX Classes
 90
        0
280
     0
281
     0
  0
CLASS
  1
CELLSTYLEMAP
  2
AcDbCellStyleMap
  3
ObjectDBX Classes
 90
     1152
280
     0
281
     0
  0
CLASS
  1
DICTIONARYVAR
  2
AcDbDictionaryVar
  3
ObjectDBX Classes
 90
        0
280
     0
281
     0
  0
CLASS
  1
ACME_DOCUMENT
  2
AcMeDbDoc
  3
AcMeServices
 90
     1024
280
     0
281
     0
  0
CLASS
  1
AMGSETTINGSOBJ
  2
AmgSettingsObj
  3
"AcadM|Product Description: AutoCAD Mechanical|Company: Autodesk, Inc."
 90
     1024
280
     0
281
     0
  0
CLASS
  1
ACMESCOPE
  2
AcMeScope
  3
AcMeServices
 90
     1024
280
     0
281
     0
  0
CLASS
  1
ACMECOMMANDHISTORY
  2
AcMeCommandHistory
  3
AcMeServices
 90
     1024
280
     0
281
     0
  0
CLASS
  1
ACIMSYSVARMAN
  2
AcImSysVarManager
  3
AcMeServices
 90
     1024
280
     0
281
     0
  0
CLASS
  1
ACIMINTSYSVAR
  2
AcImIntSysVar
  3
AcMeServices
 90
     1024
280
     0
281
     0
  0
CLASS
  1
ACMEDRAWINGMAN
  2
AcMeDrawingMan
  3
AcMeServices
 90
     1024
280
     0
281
     0
  0
CLASS
  1
ACMEVIEW
  2
AcMeView
  3
AcMeServices
 90
     1024
280
     0
281
     0
  0
CLASS
  1
ACDBENTITYCACHE
  2
AcMeEntityCache
  3
AcMeServices
 90
     1024
280
     0
281
     0
  0
CLASS
  1
GSMANAGER
  2
AcMeGSManager
  3
AcMeServices
 90
     1024
280
     0
281
     0
  0
CLASS
  1
AMDTINTERNALREACTOR
  2
AmdtInternalReactor
  3
AcMeServices
 90
     1024
280
     0
281
     0
  0
CLASS
  1
ACMESTATEMGR
  2
AcMeStateMgr
  3
AcMeServices
 90
     1024
280
     0
281
     0
  0
CLASS
  1
ACGREFMASTER
  2
AcGrefMaster
  3
AcAttribServices
 90
     1024
280
     0
281
     0
  0
CLASS
  1
AM_DRAWING_MGR
  2
AcDmDwgMgr
  3
AcMechDwgViewMgmt
 90
     1024
280
     0
281
     0
  0
CLASS
  1
AM_DWG_DOCUMENT
  2
AcDmDwgDocument
  3
AcMechDwgViewMgmt
 90
     1024
280
     0
281
     0
  0
CLASS
  1
AM_DWG_SHEET
  2
AcDmSheet
  3
AcMechDwgViewMgmt
 90
     1024
280
     0
281
     0
  0
CLASS
  1
AM_VIEWDIMPARMAP
  2
AcDmViewDimParMap
  3
AcMechDwgViewMgmt
 90
     1024
280
     0
281
     0
  0
CLASS
  1
ACIMREALSYSVAR
  2
AcImRealSysVar
  3
AcMeServices
 90
     1024
280
     0
281
     0
  0
CLASS
  1
AM_DWGMGR_NAME
  2
AcDmDwgMgrName
  3
AcMechDwgViewMgmt
 90
     1024
280
     0
281
     0
  0
CLASS
  1
ACME_DATABASE
  2
AcMeDbDatabase
  3
AcMeServices
 90
     1024
280
     0
281
     0
  0
CLASS
  1
ACRFINSADJUSTERMGR
  2
AcRfInsAdjusterMgr
  3
AcMeServices
 90
     1024
280
     0
281
     0
  0
CLASS
  1
ACGREFACADMASTER
  2
AcGrefacadMaster
  3
AcGrefServices
 90
     1024
280
     0
281
     0
  0
CLASS
  1
AMDTMENUSTATEMGR
  2
AmdtMenuStateMgr
  3
McadcomServices
 90
     1024
280
     0
281
     0
  0
CLASS
  1
AMDTMCOMMENUSTATE
  2
AmdtMcomMenuState
  3
McadcomServices
 90
     1024
280
     0
281
     0
  0
CLASS
  1
AMIMASTER
  2
AmiMaster
  3
AmiServices
 90
     1024
280
     0
281
     0
  0
CLASS
  1
MAPIAMMOUDLE
  2
MApiAmModule
  3
MApiAmServices
 90
     1024
280
     0
281
     0
  0
CLASS
  1
ACIMSTRSYSVAR
  2
AcImStrSysVar
  3
AcMeServices
 90
     1024
280
     0
281
     0
  0
CLASS
  1
AMDTADMENUSTATE
  2
AmdtAdMenuState
  3
DesignerServices
 90
     1024
280
     0
281
     0
  0
CLASS
  1
ADAPPL
  2
AcAdAppl
  3
DesignerServices
 90
     1024
280
     0
281
     0
  0
CLASS
  1
DEPMGR
  2
AcAdDepMgr
  3
DesignerServices
 90
     1024
280
     0
281
     0
  0
CLASS
  1
PARAMMGR
  2
AcAdParamMgr
  3
DesignerServices
 90
     1024
280
     0
281
     0
  0
CLASS
  1
PARAMSCOPE
  2
AcAdParamScope
  3
DesignerServices
 90
     1024
280
     0
281
     0
  0
CLASS
  1
NAMEDAPPL
  2
AcAdNamedAppl
  3
DesignerServices
 90
     1024
280
     0
281
     0
  0
CLASS
  1
AMDTDMMENUSTATE
  2
AmdtDmMenuState
  3
AcMechDwgViewMgmt
 90
     1024
280
     0
281
     0
  0
CLASS
  1
AMDTAMMENUSTATE
  2
AmdtAmMenuState
  3
DesignerAssemblies
 90
     1024
280
     0
281
     0
  0
CLASS
  1
ACAMPROJECT
  2
AcAmProject
  3
DesignerAssemblies
 90
     1024
280
     0
281
     0
  0
CLASS
  1
ACAMGRCOMPDEF
  2
AcAmGrCompDef
  3
DesignerAssemblies
 90
     1024
280
     0
281
     0
  0
CLASS
  1
ACCMCONTEXT
  2
AcCmContext
  3
DesignerAssemblies
 90
     1024
280
     0
281
     0
  0
CLASS
  1
ACAMCOMPDEF
  2
AcAmCompDef
  3
DesignerAssemblies
 90
     1024
280
     0
281
     0
  0
CLASS
  1
ACAMCOMPDEFMGR
  2
AcAmCompDefMgr
  3
DesignerAssemblies
 90
     1024
280
     0
281
     0
  0
CLASS
  1
AMCONTEXTMGR
  2
AcAmContextMgr
  3
DesignerAssemblies
 90
     1024
280
     0
281
     0
  0
CLASS
  1
ACAMCONTEXTMODELER
  2
AcAmContextModeler
  3
DesignerAssemblies
 90
     1024
280
     0
281
     0
  0
CLASS
  1
ACMDATADICTIONARY
  2
AcmDataDictionary
  3
"AcmSymBB|Product Description: AutoCAD Mechanical|Company: Autodesk, Inc."
 90
     1024
280
     0
281
     0
  0
CLASS
  1
CATALOGSTATE
  2
AcAmCatalogState
  3
DesignerAssemblies
 90
     1024
280
     0
281
     0
  0
CLASS
  1
ACAMGRCOMPDEFSET
  2
AcAmGrCompDefSet
  3
DesignerAssemblies
 90
     1024
280
     0
281
     0
  0
CLASS
  1
AMDTBROWSERDBTAB
  2
AmdtBrowserDbTab
  3
McadcomServices
 90
     1024
280
     0
281
     0
  0
CLASS
  1
CBROWSERAPPOBJECT
  2
CBrowserAppObject
  3
McadcomServices
 90
     1024
280
     0
281
     0
  0
CLASS
  1
DM_PLACEHOLDER
  2
AcDmSelsetPlaceholder
  3
AcMechDwgViewMgmt
 90
     1024
280
     0
281
     0
  0
CLASS
  1
EXACXREFPANELOBJECT
  2
ExAcXREFPanelObject
  3
EXAC_ESW
 90
    33793
280
     1
281
     0
  0
CLASS
  1
NPOCOLLECTION
  2
AcDbImpNonPersistentObjectsCollection
  3
ObjectDBX Classes
 90
    33921
280
     0
281
     0
  0
CLASS
  1
ACMSTANDARDANSI
  2
AcmStandardANSI
  3
"Amdt_StdImp|Product Description: AutoCAD Mechanical|Company: Autodesk, Inc."
 90
     1024
280
     0
281
     0
  0
CLASS
  1
ACMSURFSTANDARDANSI
  2
AcmSurfTextStdANSI
  3
"Amdt_StdImp|Product Description: AutoCAD Mechanical|Company: Autodesk, Inc."
 90
     1024
280
     0
281
     0
  0
CLASS
  1
ACMFCFSTANDARDANSI
  2
AcmFCFStdANSI
  3
"Amdt_StdImp|Product Description: AutoCAD Mechanical|Company: Autodesk, Inc."
 90
     1024
280
     0
281
     0
  0
CLASS
  1
ACMWELDSTANDARDANSI
  2
AcmWeldingStdANSI
  3
"Amdt_StdImp|Product Description: AutoCAD Mechanical|Company: Autodesk, Inc."
 90
     1024
280
     0
281
     0
  0
CLASS
  1
ACMIDSTANDARDANSI
  2
AcmIdStdANSI
  3
"Amdt_StdImp|Product Description: AutoCAD Mechanical|Company: Autodesk, Inc."
 90
     1024
280
     0
281
     0
  0
CLASS
  1
ACMDATUMSTANDARDANSI
  2
AcmDatumStdANSI
  3
"Amdt_StdImp|Product Description: AutoCAD Mechanical|Company: Autodesk, Inc."
 90
     1024
280
     0
281
     0
  0
CLASS
  1
ACMBOMSTANDARDANSI
  2
AcmBOMStdANSI
  3
"Amdt_StdImp|Product Description: AutoCAD Mechanical|Company: Autodesk, Inc."
 90
     1024
280
     0
281
     0
  0
CLASS
  1
ACMDETAILSTANDARDANSI
  2
AmdtDetailSymStdANSI
  3
"Amdt_StdImp|Product Description: AutoCAD Mechanical|Company: Autodesk, Inc."
 90
     1024
280
     0
281
     0
  0
CLASS
  1
ACMSECTIONSTANDARDANSI
  2
AmdtSectionSymStdANSI
  3
"Amdt_StdImp|Product Description: AutoCAD Mechanical|Company: Autodesk, Inc."
 90
     1024
280
     0
281
     0
  0
CLASS
  1
ACMCENTERLINESTANDARDANSI
  2
AmdtCenterLineStdANSI
  3
"Amdt_StdImp|Product Description: AutoCAD Mechanical|Company: Autodesk, Inc."
 90
     1024
280
     0
281
     0
  0
CLASS
  1
ACMTHREADLINESTANDARDANSI
  2
AmdtThreadLineStdANSI
  3
"Amdt_StdImp|Product Description: AutoCAD Mechanical|Company: Autodesk, Inc."
 90
     1024
280
     0
281
     0
  0
CLASS
  1
ACMNOTESTANDARDANSI
  2
AmdtNoteStdANSI
  3
"Amdt_StdImp|Product Description: AutoCAD Mechanical|Company: Autodesk, Inc."
 90
     1024
280
     0
281
     0
  0
CLASS
  1
ACMTAPERSTANDARDANSI
  2
AcmTaperStdANSI
  3
"Amdt_StdImp|Product Description: AutoCAD Mechanical|Company: Autodesk, Inc."
 90
     1024
280
     0
281
     0
  0
CLASS
  1
ACMANOOTATIONVIEWSTANDARDANSI
  2
AmdtAnViewStdANSI
  3
"Amdt_StdImp|Product Description: AutoCAD Mechanical|Company: Autodesk, Inc."
 90
     1024
280
     0
281
     0
  0
CLASS
  1
ACAMGLAYSTD
  2
AcAmgLayStd
  3
"AmgLay|Product Description: AutoCAD Mechanical|Company: Autodesk, Inc."
 90
     1024
280
     0
281
     0
  0
CLASS
  1
ACAMGDIMSTD
  2
AcAmgDimStd
  3
"AmgDim|Product Description: AutoCAD Mechanical|Company: Autodesk, Inc."
 90
     1024
280
     0
281
     0
  0
CLASS
  1
AMGOBJPROPCFG
  2
AmgObjPropCfg
  3
"AmgLay|Product Description: AutoCAD Mechanical|Company: Autodesk, Inc."
 90
     1025
280
     0
281
     0
  0
CLASS
  1
ACAMGHOLECHARTSTDANSI
  2
AcAmgHoleChartStdANSI
  3
AmgDim|Product Description: AutoCAD Mechanical|Company: Autodesk, Inc.
 90
     1024
280
     0
281
     0
  0
CLASS
  1
ACAMGTITLESTD
  2
AcAmgTitleStd
  3
"AmgTitle|Product Description: AutoCAD Mechanical|Company: Autodesk, Inc."
 90
     4095
280
     0
281
     0
  0
CLASS
  1
AMDTNOTETEMPLATEDB
  2
AmdtNoteTemplateDB
  3
AcmSymBB|Product Description: AutoCAD Mechanical|Company: Autodesk, Inc.
 90
     1024
280
     0
281
     0
  0
CLASS
  1
ACAMGFILTERDAT
  2
AcAmgFilterDat
  3
"AcadM|Product Description: AutoCAD Mechanical|Company: Autodesk, Inc."
 90
    33792
280
     0
281
     0
  0
CLASS
  1
CAMSSTRUCTBTNSTATE
  2
StructBtnState
  3
DesignerAssemblies
 90
    33792
280
     0
281
     0
  0
CLASS
  1
ACDBPLACEHOLDER
  2
AcDbPlaceHolder
  3
ObjectDBX Classes
 90
        0
280
     0
281
     0
  0
CLASS
  1
LAYOUT
  2
AcDbLayout
  3
ObjectDBX Classes
 90
        0
280
     0
281
     0
  0
CLASS
  1
SOLID_BACKGROUND
  2
AcDbSolidBackground
  3
SCENEOE
 90
    36863
280
     0
281
     0
  0
ENDSEC
  0
SECTION
  2
TABLES
  0
TABLE
  2
VPORT
  5
28
102
{ACAD_XDICTIONARY
360
2C
102
}
330
0
100
AcDbSymbolTable
 70
     1
  0
VPORT
  5
29
330
28
100
AcDbSymbolTableRecord
100
AcDbViewportTableRecord
  2
*ACTIVE
 70
     0
 10
0.0
 20
0.0
 11
1.0
 21
1.0
 12
26.38391410068586
 22
-24.75571236905603
 13
0.0
 23
0.0
 14
1.0
 24
1.0
 15
0.0
 25
0.0
 16
0.0
 26
0.0
 36
1.0
 17
0.0
 27
0.0
 37
0.0
 40
133.9232156570131
 41
1.769325153374233
 42
50.0
 43
0.0
 44
0.0
 50
0.0
 51
0.0
 71
     0
 72
   100
 73
     1
 74
     1
 75
     0
 76
     0
 77
     0
 78
     0
281
     0
 65
     1
110
0.0
120
0.0
130
0.0
111
1.0
121
0.0
131
0.0
112
0.0
122
1.0
132
0.0
 79
     0
146
0.0
  0
ENDTAB
  0
TABLE
  2
LTYPE
  5
23
330
0
100
AcDbSymbolTable
 70
    11
  0
LTYPE
  5
24
330
23
100
AcDbSymbolTableRecord
100
AcDbLinetypeTableRecord
  2
ByBlock
 70
     0
  3

 72
    65
 73
     0
 40
0.0
  0
LTYPE
  5
25
330
23
100
AcDbSymbolTableRecord
100
AcDbLinetypeTableRecord
  2
ByLayer
 70
     0
  3

 72
    65
 73
     0
 40
0.0
  0
LTYPE
  5
1B
330
23
100
AcDbSymbolTableRecord
100
AcDbLinetypeTableRecord
  2
CONTINUOUS
 70
     0
  3
Solid line
 72
    65
 73
     0
 40
0.0
  0
LTYPE
  5
4A8
330
23
100
AcDbSymbolTableRecord
100
AcDbLinetypeTableRecord
  2
HIDDEN
 70
     0
  3
Verdeckt
 72
    65
 73
     2
 40
0.375
 49
0.25
 74
     0
 49
-0.125
 74
     0
  0
LTYPE
  5
4AA
330
23
100
AcDbSymbolTableRecord
100
AcDbLinetypeTableRecord
  2
PHANTOM2
 70
     0
  3
Phantom (.5x) ___ _ _ ___ _ _ ___ _ _ ___ _ _
 72
    65
 73
     6
 40
1.25
 49
0.625
 74
     0
 49
-0.125
 74
     0
 49
0.125
 74
     0
 49
-0.125
 74
     0
 49
0.125
 74
     0
 49
-0.125
 74
     0
  0
LTYPE
  5
4A9
330
23
100
AcDbSymbolTableRecord
100
AcDbLinetypeTableRecord
  2
CENTER
 70
     0
  3
Mitte ____ _ ____ _ ____ _ ____ _ ____ _ ____
 72
    65
 73
     4
 40
2.0
 49
1.25
 74
     0
 49
-0.25
 74
     0
 49
0.25
 74
     0
 49
-0.25
 74
     0
  0
LTYPE
  5
4AB
330
23
100
AcDbSymbolTableRecord
100
AcDbLinetypeTableRecord
  2
Amconstr
 70
     0
  3
_______________________
 72
    65
 73
     2
 40
9999.0
 49
9999.0
 74
     0
 49
0.0
 74
     0
  0
LTYPE
  5
4AC
330
23
100
AcDbSymbolTableRecord
100
AcDbLinetypeTableRecord
  2
CENTER2
 70
     0
  3
Center (.5x) ___ _ ___ _ ___ _ ___ _ ___ _ ___
 72
    65
 73
     4
 40
1.125
 49
0.75
 74
     0
 49
-0.125
 74
     0
 49
0.125
 74
     0
 49
-0.125
 74
     0
  0
LTYPE
  5
4AD
330
23
100
AcDbSymbolTableRecord
100
AcDbLinetypeTableRecord
  2
HIDDEN2
 70
     0
  3
Hidden (.5x) _ _ _ _ _ _ _ _ _ _ _ _ _ _ _ _ _
 72
    65
 73
     2
 40
0.1875
 49
0.125
 74
     0
 49
-0.0625
 74
     0
  0
LTYPE
  5
4AE
330
23
100
AcDbSymbolTableRecord
100
AcDbLinetypeTableRecord
  2
Amzigzag2
 70
     0
  3
/\/-/\/-/\/-/\/-/\/-/\/
 72
    65
 73
     2
 40
0.4401
 49
0.0001
 74
     4
 75
   136
340
4AF
 46
0.0016
 50
0.0
 44
0.0
 45
0.0
 49
-0.4400000000000001
 74
     0
  0
LTYPE
  5
4BF
330
23
100
AcDbSymbolTableRecord
100
AcDbLinetypeTableRecord
  2
ACANSTGB
 70
     0
  3
__ . . __ . .
 72
    65
 73
     6
 40
0.35433070866
 49
0.15748031496
 74
     0
 49
-0.03937007874
 74
     0
 49
0.03937007874
 74
     0
 49
-0.03937007874
 74
     0
 49
0.03937007874
 74
     0
 49
-0.03937007874
 74
     0
  0
LTYPE
  5
4C0
330
23
100
AcDbSymbolTableRecord
100
AcDbLinetypeTableRecord
  2
ACANSTGL
 70
     0
  3
_ _ _ _ _
 72
    65
 73
     2
 40
0.11811023622
 49
0.07874015748
 74
     0
 49
-0.03937007874
 74
     0
  0
LTYPE
  5
7B
330
23
100
AcDbSymbolTableRecord
100
AcDbLinetypeTableRecord
  2
DASHED
 70
     0
  3
Dashed __ __ __ __ __ __ __ __ __ __ __ __ __ _
 72
    65
 73
     2
 40
0.75
 49
0.5
 74
     0
 49
-0.25
 74
     0
  0
ENDTAB
  0
TABLE
  2
LAYER
  5
E
102
{ACAD_XDICTIONARY
360
1C
102
}
330
0
100
AcDbSymbolTable
 70
     7
  0
LAYER
  5
F
330
E
100
AcDbSymbolTableRecord
100
AcDbLayerTableRecord
  2
0
 70
     0
 62
     7
  6
CONTINUOUS
370
    -3
390
10
  0
LAYER
  5
7F
330
E
100
AcDbSymbolTableRecord
100
AcDbLayerTableRecord
  2
GEB-KONTUR-A
 70
     0
 62
     5
  6
CONTINUOUS
370
    -3
390
10
  0
LAYER
  5
7A
330
E
100
AcDbSymbolTableRecord
100
AcDbLayerTableRecord
  2
GEB-VERDECKT
 70
     0
 62
     2
  6
DASHED
370
    -3
390
10
1001
AcAecLayerStandard
1000

1000

  0
LAYER
  5
75
330
E
100
AcDbSymbolTableRecord
100
AcDbLayerTableRecord
  2
Arbeitspunkt(DIN)
 70
     0
 62
     7
  6
CONTINUOUS
370
    25
390
10
  0
LAYER
  5
4A3
330
E
100
AcDbSymbolTableRecord
100
AcDbLayerTableRecord
  2
GEB-ART-NR
 70
     0
 62
     1
  6
CONTINUOUS
370
    18
390
10
  0
LAYER
  5
71
330
E
100
AcDbSymbolTableRecord
100
AcDbLayerTableRecord
  2
GEB-BEZUG
 70
     0
 62
     2
  6
CONTINUOUS
370
    25
390
10
  0
LAYER
  5
4A0
330
E
100
AcDbSymbolTableRecord
100
AcDbLayerTableRecord
  2
GEB-TEXT
 70
     0
 62
     5
  6
CONTINUOUS
370
    18
390
10
  0
ENDTAB
  0
TABLE
  2
STYLE
  5
20
330
0
100
AcDbSymbolTable
 70
     5
  0
STYLE
  5
21
330
20
100
AcDbSymbolTableRecord
100
AcDbTextStyleTableRecord
  2
STANDARD
 70
     0
 40
0.0
 41
1.0
 50
0.0
 71
     0
 42
0.2
  3
ARIAL.TTF
  4

1001
ACAD
1000
Arial
1071
       34
  0
STYLE
  5
4AF
330
20
100
AcDbSymbolTableRecord
100
AcDbTextStyleTableRecord
  2

 70
     1
 40
0.0
 41
1.0
 50
0.0
 71
     0
 42
0.2
  3
genltshp.shx
  4

  0
STYLE
  5
4BB
330
20
100
AcDbSymbolTableRecord
100
AcDbTextStyleTableRecord
  2
ACANSGDT
 70
     0
 40
0.0
 41
1.0
 50
0.0
 71
     0
 42
0.2
  3
amgdt.shx
  4

  0
STYLE
  5
4A4
330
20
100
AcDbSymbolTableRecord
100
AcDbTextStyleTableRecord
  2
GEB-ART-NR
 70
     0
 40
0.0
 41
1.0
 50
0.0
 71
     0
 42
0.2
  3
ARIAL.TTF
  4

1001
ACAD
1000
Arial
1071
      256
  0
STYLE
  5
4A1
330
20
100
AcDbSymbolTableRecord
100
AcDbTextStyleTableRecord
  2
GEB-TEXT
 70
     0
 40
0.0
 41
1.0
 50
0.0
 71
     0
 42
0.2
  3
ARIAL.TTF
  4

1001
ACAD
1000
Arial
1071
      256
  0
ENDTAB
  0
TABLE
  2
VIEW
  5
26
330
0
100
AcDbSymbolTable
 70
     0
  0
ENDTAB
  0
TABLE
  2
UCS
  5
27
330
0
100
AcDbSymbolTable
 70
     0
  0
ENDTAB
  0
TABLE
  2
APPID
  5
2D
330
0
100
AcDbSymbolTable
 70
    14
  0
APPID
  5
1F
330
2D
100
AcDbSymbolTableRecord
100
AcDbRegAppTableRecord
  2
ACAD
 70
     0
  0
APPID
  5
7C
330
2D
100
AcDbSymbolTableRecord
100
AcDbRegAppTableRecord
  2
AcAecLayerStandard
 70
     0
  0
APPID
  5
4E3
330
2D
100
AcDbSymbolTableRecord
100
AcDbRegAppTableRecord
  2
ACATTRIBSERVICES
 70
     0
  0
APPID
  5
523
330
2D
100
AcDbSymbolTableRecord
100
AcDbRegAppTableRecord
  2
ACAD_MLEADERVER
 70
     0
  0
APPID
  5
52D
330
2D
100
AcDbSymbolTableRecord
100
AcDbRegAppTableRecord
  2
MCAD_NO_VIS
 70
     0
  0
APPID
  5
52E
330
2D
100
AcDbSymbolTableRecord
100
AcDbRegAppTableRecord
  2
ACAD_TEMP_GRAPHIC
 70
     0
  0
APPID
  5
536
330
2D
100
AcDbSymbolTableRecord
100
AcDbRegAppTableRecord
  2
AD_DRAW
 70
     0
  0
APPID
  5
551
330
2D
100
AcDbSymbolTableRecord
100
AcDbRegAppTableRecord
  2
DESIGNERASSEMBLIES
 70
     0
  0
APPID
  5
557
330
2D
100
AcDbSymbolTableRecord
100
AcDbRegAppTableRecord
  2
ACADM_DIM_EDIT
 70
     0
  0
APPID
  5
558
330
2D
100
AcDbSymbolTableRecord
100
AcDbRegAppTableRecord
  2
AMDT_DM_ADJ
 70
     0
  0
APPID
  5
56F
330
2D
100
AcDbSymbolTableRecord
100
AcDbRegAppTableRecord
  2
ACAD_DSTYLE_DIMARC_LENGTH_SYMBOL
 70
     0
  0
APPID
  5
570
330
2D
100
AcDbSymbolTableRecord
100
AcDbRegAppTableRecord
  2
ACAD_DSTYLE_DIM_LINETYPE
 70
     0
  0
APPID
  5
571
330
2D
100
AcDbSymbolTableRecord
100
AcDbRegAppTableRecord
  2
ACAD_DSTYLE_DIM_EXT1_LINETYPE
 70
     0
  0
APPID
  5
572
330
2D
100
AcDbSymbolTableRecord
100
AcDbRegAppTableRecord
  2
ACAD_DSTYLE_DIM_EXT2_LINETYPE
 70
     0
  0
ENDTAB
  0
TABLE
  2
DIMSTYLE
  5
2E
330
0
100
AcDbSymbolTable
 70
     7
100
AcDbDimStyleTable
 71
     1
340
2F
  0
DIMSTYLE
105
2F
330
2E
100
AcDbSymbolTableRecord
100
AcDbDimStyleTableRecord
  2
STANDARD
 70
     0
279
     2
340
21
  0
DIMSTYLE
105
4D1
102
{ACAD_REACTORS
330
4B8
102
}
330
2E
100
AcDbSymbolTableRecord
100
AcDbDimStyleTableRecord
  2
AM_ANSI
 70
     0
  4
mm
 41
0.12
 42
0.05
 43
0.5
 44
0.1
 47
0.1
 48
0.1
 78
     7
 79
     2
140
0.12
141
0.0
146
0.71
147
0.06
176
   256
177
   256
178
     2
274
     4
284
     7
340
21
371
    -1
372
    -1
1001
ACAD_DSTYLE_DIMARC_LENGTH_SYMBOL
1070
   379
1070
     1
1001
ACAD_DSTYLE_DIM_LINETYPE
1070
   380
1005
24
1001
ACAD_DSTYLE_DIM_EXT1_LINETYPE
1070
   381
1005
24
1001
ACAD_DSTYLE_DIM_EXT2_LINETYPE
1070
   382
1005
24
  0
DIMSTYLE
105
4D2
330
2E
100
AcDbSymbolTableRecord
100
AcDbDimStyleTableRecord
  2
AM_ANSI$3
 70
     0
  4
mm
 41
0.12
 42
0.05
 43
0.5
 44
0.1
 47
0.1
 48
0.1
 78
     7
 79
     2
140
0.12
141
0.0
146
0.71
147
0.06
176
   256
177
   256
178
     2
274
     4
284
     7
288
     1
289
     0
340
21
371
    -1
372
    -1
1001
ACAD_DSTYLE_DIMARC_LENGTH_SYMBOL
1070
   379
1070
     1
1001
ACAD_DSTYLE_DIM_LINETYPE
1070
   380
1005
24
1001
ACAD_DSTYLE_DIM_EXT1_LINETYPE
1070
   381
1005
24
1001
ACAD_DSTYLE_DIM_EXT2_LINETYPE
1070
   382
1005
24
  0
DIMSTYLE
105
4D3
330
2E
100
AcDbSymbolTableRecord
100
AcDbDimStyleTableRecord
  2
AM_ANSI$4
 70
     0
  4
mm
 41
0.12
 42
0.05
 43
0.5
 44
0.1
 47
0.1
 48
0.1
 78
     7
 79
     2
140
0.12
141
0.0
146
0.71
147
0.06
176
   256
177
   256
178
     2
274
     4
284
     7
288
     1
289
     0
340
21
371
    -1
372
    -1
1001
ACAD_DSTYLE_DIMARC_LENGTH_SYMBOL
1070
   379
1070
     1
1001
ACAD_DSTYLE_DIM_LINETYPE
1070
   380
1005
24
1001
ACAD_DSTYLE_DIM_EXT1_LINETYPE
1070
   381
1005
24
1001
ACAD_DSTYLE_DIM_EXT2_LINETYPE
1070
   382
1005
24
  0
DIMSTYLE
105
4D4
330
2E
100
AcDbSymbolTableRecord
100
AcDbDimStyleTableRecord
  2
AM_ANSI$7
 70
     0
  4
mm
 41
0.12
 42
0.05
 43
0.5
 44
0.1
 47
0.1
 48
0.1
 78
     7
 79
     2
140
0.12
141
0.0
146
0.71
147
0.06
176
   256
177
   256
178
     2
274
     4
284
     7
340
21
371
    -1
372
    -1
1001
ACAD_DSTYLE_DIMARC_LENGTH_SYMBOL
1070
   379
1070
     1
1001
ACAD_DSTYLE_DIM_LINETYPE
1070
   380
1005
24
1001
ACAD_DSTYLE_DIM_EXT1_LINETYPE
1070
   381
1005
24
1001
ACAD_DSTYLE_DIM_EXT2_LINETYPE
1070
   382
1005
24
  0
DIMSTYLE
105
4D5
330
2E
100
AcDbSymbolTableRecord
100
AcDbDimStyleTableRecord
  2
AM_ANSI$SF
 70
     0
  4
mm
 41
0.12
 42
0.05
 43
0.5
 44
0.1
 47
0.1
 48
0.1
 75
     1
 76
     1
 78
     7
 79
     2
140
0.12
141
0.0
146
0.71
147
0.06
176
   256
177
   256
178
     2
274
     4
284
     7
340
21
371
    -1
372
    -1
1001
ACAD_DSTYLE_DIMARC_LENGTH_SYMBOL
1070
   379
1070
     1
1001
ACAD_DSTYLE_DIM_LINETYPE
1070
   380
1005
24
1001
ACAD_DSTYLE_DIM_EXT1_LINETYPE
1070
   381
1005
24
1001
ACAD_DSTYLE_DIM_EXT2_LINETYPE
1070
   382
1005
24
  0
DIMSTYLE
105
4D6
330
2E
100
AcDbSymbolTableRecord
100
AcDbDimStyleTableRecord
  2
AM_ANSI$SH
 70
     0
  4
mm
 41
0.12
 42
0.05
 43
0.5
 44
0.1
 47
0.1
 48
0.1
 75
     1
 76
     1
 78
     7
 79
     2
140
0.12
141
0.0
146
0.71
147
0.06
173
     1
176
   256
177
   256
178
     2
274
     4
284
     7
340
21
343
4D7
371
    -1
372
    -1
1001
ACAD_DSTYLE_DIMARC_LENGTH_SYMBOL
1070
   379
1070
     1
1001
ACAD_DSTYLE_DIM_LINETYPE
1070
   380
1005
24
1001
ACAD_DSTYLE_DIM_EXT1_LINETYPE
1070
   381
1005
24
1001
ACAD_DSTYLE_DIM_EXT2_LINETYPE
1070
   382
1005
24
  0
ENDTAB
  0
TABLE
  2
BLOCK_RECORD
  5
1
330
0
100
AcDbSymbolTable
 70
     3
  0
BLOCK_RECORD
  5
2
102
{ACAD_XDICTIONARY
360
3
102
}
330
1
100
AcDbSymbolTableRecord
100
AcDbBlockTableRecord
  2
*Model_Space
340
7
  0
BLOCK_RECORD
  5
A
330
1
100
AcDbSymbolTableRecord
100
AcDbBlockTableRecord
  2
*Paper_Space
340
D
  0
BLOCK_RECORD
  5
4D7
330
1
100
AcDbSymbolTableRecord
100
AcDbBlockTableRecord
  2
GENAXEH
340
0
  0
BLOCK_RECORD
  5
6E
330
1
100
AcDbSymbolTableRecord
100
AcDbBlockTableRecord
  2
Einfügepunkt
340
0
102
{BLKREFS
331
6D
102
}
  0
ENDTAB
  0
ENDSEC
  0
SECTION
  2
BLOCKS
  0
BLOCK
  5
5
330
2
100
AcDbEntity
  8
0
100
AcDbBlockBegin
  2
*Model_Space
 70
     0
 10
0.0
 20
0.0
 30
0.0
  3
*Model_Space
  1

  0
ENDBLK
  5
6
330
2
100
AcDbEntity
  8
0
100
AcDbBlockEnd
  0
BLOCK
  5
B
330
A
100
AcDbEntity
 67
     1
  8
0
100
AcDbBlockBegin
  2
*Paper_Space
 70
     0
 10
0.0
 20
0.0
 30
0.0
  3
*Paper_Space
  1

  0
ENDBLK
  5
C
330
A
100
AcDbEntity
 67
     1
  8
0
100
AcDbBlockEnd
  0
BLOCK
  5
4D8
330
4D7
100
AcDbEntity
  8
0
100
AcDbBlockBegin
  2
GENAXEH
 70
     0
 10
0.0
 20
0.0
 30
0.0
  3
GENAXEH
  1

  0
LINE
  5
4D9
330
4D7
100
AcDbEntity
  8
0
100
AcDbLine
 10
-1.0
 20
0.0
 30
0.0
 11
1.0
 21
0.0
 31
0.0
  0
ENDBLK
  5
4DA
330
4D7
100
AcDbEntity
  8
0
100
AcDbBlockEnd
  0
BLOCK
  5
6F
330
6E
100
AcDbEntity
  8
0
100
AcDbBlockBegin
  2
Einfügepunkt
 70
     0
 10
0.0
 20
0.0
 30
0.0
  3
Einfügepunkt
  1

  0
LINE
  5
70
330
6E
100
AcDbEntity
  8
GEB-BEZUG
100
AcDbLine
 10
-0.7071067811865817
 20
-0.7071067811865106
 30
0.0
 11
0.7071067811864751
 21
0.7071067811865817
 31
0.0
  0
LINE
  5
72
330
6E
100
AcDbEntity
  8
GEB-BEZUG
100
AcDbLine
 10
-0.7071067811865106
 20
0.7071067811865817
 30
0.0
 11
0.7071067811865462
 21
-0.7071067811865106
 31
0.0
  0
ENDBLK
  5
73
330
6E
100
AcDbEntity
  8
0
100
AcDbBlockEnd
  0
ENDSEC
  0
SECTION
  2
ENTITIES
  0
INSERT
  5
6D
330
2
100
AcDbEntity
  8
0
 48
5.0
100
AcDbBlockReference
  2
Einfügepunkt
 10
0.0
 20
0.0
 30
0.0
  0
LINE
  5
74
330
2
100
AcDbEntity
  8
Arbeitspunkt(DIN)
 48
5.0
100
AcDbLine
 10
0.0
 20
0.0
 30
0.0
 11
0.0
 21
-2.5
 31
0.0
  0
LINE
  5
76
330
2
100
AcDbEntity
  8
Arbeitspunkt(DIN)
 48
5.0
100
AcDbLine
 10
0.0
 20
0.0
 30
0.0
 11
0.0
 21
2.5
 31
0.0
  0
LINE
  5
77
330
2
100
AcDbEntity
  8
Arbeitspunkt(DIN)
 48
5.0
100
AcDbLine
 10
0.0
 20
0.0
 30
0.0
 11
-2.5
 21
0.0
 31
0.0
  0
LINE
  5
78
330
2
100
AcDbEntity
  8
Arbeitspunkt(DIN)
 48
5.0
100
AcDbLine
 10
0.0
 20
0.0
 30
0.0
 11
2.5
 21
0.0
 31
0.0
  0
LINE
  5
79
330
2
100
AcDbEntity
  8
GEB-VERDECKT
 48
5.0
100
AcDbLine
 10
33.49999999997704
 20
-12.5
 30
0.0
 11
54.9999999999768
 21
-12.5
 31
0.0
  0
LINE
  5
7D
330
2
100
AcDbEntity
  8
GEB-VERDECKT
 48
5.0
100
AcDbLine
 10
9.499999999977262
 20
12.5
 30
0.0
 11
54.9999999999768
 21
12.5
 31
0.0
  0
LINE
  5
7E
330
2
100
AcDbEntity
  8
GEB-KONTUR-A
 48
5.0
100
AcDbLine
 10
39.99999999997431
 20
-50.0
 30
0.0
 11
1.999999999974534
 21
-50.0
 31
0.0
  0
LINE
  5
80
330
2
100
AcDbEntity
  8
GEB-KONTUR-A
 48
5.0
100
AcDbLine
 10
1.999999999974534
 20
-30.0
 30
0.0
 11
1.999999999974534
 21
-50.0
 31
0.0
  0
ELLIPSE
  5
81
330
2
100
AcDbEntity
  8
GEB-VERDECKT
 48
5.0
100
AcDbEllipse
 10
20.99999999997704
 20
-19.91892921458384
 30
0.0
 11
-20.9999999999999
 21
0.0
 31
0.0
210
0.0
220
0.0
230
1.0
 40
0.1405408347023922
 41
4.736200754345944
 42
5.843209352376705
  0
LINE
  5
82
330
2
100
AcDbEntity
  8
GEB-VERDECKT
 48
5.0
100
AcDbLine
 10
1.999999999974534
 20
-18.66189377454736
 30
0.0
 11
1.999999999974534
 21
-30.0
 31
0.0
  0
LINE
  5
83
330
2
100
AcDbEntity
  8
GEB-KONTUR-A
 48
5.0
100
AcDbLine
 10
39.99999999997431
 20
-50.0
 30
0.0
 11
39.99999999997431
 21
-30.0
 31
0.0
  0
LINE
  5
84
330
2
100
AcDbEntity
  8
GEB-KONTUR-A
 48
5.0
100
AcDbLine
 10
1.999999999977262
 20
35.0
 30
0.0
 11
20.49999999997703
 21
35.0
 31
0.0
  0
LINE
  5
85
330
2
100
AcDbEntity
  8
GEB-KONTUR-A
 48
5.0
100
AcDbLine
 10
1.999999999977262
 20
35.0
 30
0.0
 11
1.999999999971805
 21
30.0
 31
0.0
  0
LINE
  5
86
330
2
100
AcDbEntity
  8
GEB-KONTUR-A
 48
5.0
100
AcDbLine
 10
20.49999999997703
 20
35.0
 30
0.0
 11
20.49999999997181
 21
30.0
 31
0.0
  0
LINE
  5
87
330
2
100
AcDbEntity
  8
GEB-VERDECKT
 48
5.0
100
AcDbLine
 10
1.999999999971805
 20
30.0
 30
0.0
 11
1.999999999966803
 21
0.0
 31
0.0
  0
LINE
  5
88
330
2
100
AcDbEntity
  8
GEB-VERDECKT
 48
5.0
100
AcDbLine
 10
1.999999999966803
 20
-13.2614265243676
 30
0.0
 11
1.999999999966803
 21
0.0
 31
0.0
  0
LINE
  5
89
330
2
100
AcDbEntity
  8
GEB-VERDECKT
 48
5.0
100
AcDbLine
 10
1.999999999966803
 20
-13.2614265243676
 30
0.0
 11
1.999999999967258
 21
-15.24196266185072
 31
0.0
  0
LINE
  5
8A
330
2
100
AcDbEntity
  8
GEB-VERDECKT
 48
5.0
100
AcDbLine
 10
1.999999999974534
 20
-18.66189377454736
 30
0.0
 11
1.999999999967258
 21
-15.24196266185072
 31
0.0
  0
LINE
  5
8B
330
2
100
AcDbEntity
  8
GEB-VERDECKT
 48
5.0
100
AcDbLine
 10
20.4999999999709
 20
-16.96840835701368
 30
0.0
 11
20.49999999996726
 21
-15.24196266185072
 31
0.0
  0
LINE
  5
8C
330
2
100
AcDbEntity
  8
GEB-VERDECKT
 48
5.0
100
AcDbLine
 10
20.4999999999668
 20
-13.2614265243676
 30
0.0
 11
20.49999999996726
 21
-15.24196266185072
 31
0.0
  0
LINE
  5
8D
330
2
100
AcDbEntity
  8
GEB-VERDECKT
 48
5.0
100
AcDbLine
 10
20.4999999999668
 20
-13.2614265243676
 30
0.0
 11
20.4999999999668
 21
0.0
 31
0.0
  0
LINE
  5
8E
330
2
100
AcDbEntity
  8
GEB-VERDECKT
 48
5.0
100
AcDbLine
 10
20.49999999997181
 20
30.0
 30
0.0
 11
20.4999999999668
 21
0.0
 31
0.0
  0
LINE
  5
8F
330
2
100
AcDbEntity
  8
GEB-VERDECKT
 48
5.0
100
AcDbLine
 10
33.27802915778057
 20
-4.000000000000113
 30
0.0
 11
20.4999999999709
 21
-4.000000000000113
 31
0.0
  0
POLYLINE
  5
90
330
2
100
AcDbEntity
  8
GEB-VERDECKT
 48
5.0
100
AcDb2dPolyline
 66
     1
 10
0.0
 20
0.0
 30
0.0
 70
   128
  0
VERTEX
  5
91
330
90
100
AcDbEntity
  8
GEB-VERDECKT
 48
5.0
100
AcDbVertex
100
AcDb2dVertex
 10
20.50000023839039
 20
-0.5000000074505806
 30
0.0
  0
VERTEX
  5
92
330
90
100
AcDbEntity
  8
GEB-VERDECKT
 48
5.0
100
AcDbVertex
100
AcDb2dVertex
 10
21.01676654812854
 20
-0.4930609464645386
 30
0.0
  0
VERTEX
  5
93
330
90
100
AcDbEntity
  8
GEB-VERDECKT
 48
5.0
100
AcDbVertex
100
AcDb2dVertex
 10
21.53335285183948
 20
-0.5011608451604844
 30
0.0
  0
VERTEX
  5
94
330
90
100
AcDbEntity
  8
GEB-VERDECKT
 48
5.0
100
AcDbVertex
100
AcDb2dVertex
 10
22.04722356793445
 20
-0.5241271853446961
 30
0.0
  0
VERTEX
  5
95
330
90
100
AcDbEntity
  8
GEB-VERDECKT
 48
5.0
100
AcDbVertex
100
AcDb2dVertex
 10
22.5584478378014
 20
-0.561453402042389
 30
0.0
  0
VERTEX
  5
96
330
90
100
AcDbEntity
  8
GEB-VERDECKT
 48
5.0
100
AcDbVertex
100
AcDb2dVertex
 10
23.06710195538562
 20
-0.6126328930258751
 30
0.0
  0
VERTEX
  5
97
330
90
100
AcDbEntity
  8
GEB-VERDECKT
 48
5.0
100
AcDbVertex
100
AcDb2dVertex
 10
23.57325506207508
 20
-0.6771592050790787
 30
0.0
  0
VERTEX
  5
98
330
90
100
AcDbEntity
  8
GEB-VERDECKT
 48
5.0
100
AcDbVertex
100
AcDb2dVertex
 10
24.07698106762928
 20
-0.7545256614685059
 30
0.0
  0
VERTEX
  5
99
330
90
100
AcDbEntity
  8
GEB-VERDECKT
 48
5.0
100
AcDbVertex
100
AcDb2dVertex
 10
24.57835149762195
 20
-0.8442258089780807
 30
0.0
  0
VERTEX
  5
9A
330
90
100
AcDbEntity
  8
GEB-VERDECKT
 48
5.0
100
AcDbVertex
100
AcDb2dVertex
 10
25.07743549344104
 20
-0.9457530826330184
 30
0.0
  0
VERTEX
  5
9B
330
90
100
AcDbEntity
  8
GEB-VERDECKT
 48
5.0
100
AcDbVertex
100
AcDb2dVertex
 10
25.57430934903186
 20
-1.058600917458534
 30
0.0
  0
VERTEX
  5
9C
330
90
100
AcDbEntity
  8
GEB-VERDECKT
 48
5.0
100
AcDbVertex
100
AcDb2dVertex
 10
26.06904220578235
 20
-1.182262673974037
 30
0.0
  0
VERTEX
  5
9D
330
90
100
AcDbEntity
  8
GEB-VERDECKT
 48
5.0
100
AcDbVertex
100
AcDb2dVertex
 10
26.56170797345203
 20
-1.316231936216354
 30
0.0
  0
VERTEX
  5
9E
330
90
100
AcDbEntity
  8
GEB-VERDECKT
 48
5.0
100
AcDbVertex
100
AcDb2dVertex
 10
27.05237817761463
 20
-1.460002064704895
 30
0.0
  0
VERTEX
  5
9F
330
90
100
AcDbEntity
  8
GEB-VERDECKT
 48
5.0
100
AcDbVertex
100
AcDb2dVertex
 10
27.54112195965809
 20
-1.613066494464874
 30
0.0
  0
VERTEX
  5
A0
330
90
100
AcDbEntity
  8
GEB-VERDECKT
 48
5.0
100
AcDbVertex
100
AcDb2dVertex
 10
28.02801561352771
 20
-1.774918735027313
 30
0.0
  0
VERTEX
  5
A1
330
90
100
AcDbEntity
  8
GEB-VERDECKT
 48
5.0
100
AcDbVertex
100
AcDb2dVertex
 10
28.51312828061145
 20
-1.945052146911621
 30
0.0
  0
VERTEX
  5
A2
330
90
100
AcDbEntity
  8
GEB-VERDECKT
 48
5.0
100
AcDbVertex
100
AcDb2dVertex
 10
28.99653387066883
 20
-2.122960239648818
 30
0.0
  0
VERTEX
  5
A3
330
90
100
AcDbEntity
  8
GEB-VERDECKT
 48
5.0
100
AcDbVertex
100
AcDb2dVertex
 10
29.47830867764515
 20
-2.308099418878555
 30
0.0
  0
VERTEX
  5
A4
330
90
100
AcDbEntity
  8
GEB-VERDECKT
 48
5.0
100
AcDbVertex
100
AcDb2dVertex
 10
29.9585075378136
 20
-2.499962896108627
 30
0.0
  0
VERTEX
  5
A5
330
90
100
AcDbEntity
  8
GEB-VERDECKT
 48
5.0
100
AcDbVertex
100
AcDb2dVertex
 10
30.43715906140369
 20
-2.698176503181457
 30
0.0
  0
VERTEX
  5
A6
330
90
100
AcDbEntity
  8
GEB-VERDECKT
 48
5.0
100
AcDbVertex
100
AcDb2dVertex
 10
30.91428947445911
 20
-2.902368307113647
 30
0.0
  0
VERTEX
  5
A7
330
90
100
AcDbEntity
  8
GEB-VERDECKT
 48
5.0
100
AcDbVertex
100
AcDb2dVertex
 10
31.38992261883777
 20
-3.112167119979858
 30
0.0
  0
VERTEX
  5
A8
330
90
100
AcDbEntity
  8
GEB-VERDECKT
 48
5.0
100
AcDbVertex
100
AcDb2dVertex
 10
31.86408948895496
 20
-3.327201306819915
 30
0.0
  0
VERTEX
  5
A9
330
90
100
AcDbEntity
  8
GEB-VERDECKT
 48
5.0
100
AcDbVertex
100
AcDb2dVertex
 10
32.33681154248279
 20
-3.547098934650421
 30
0.0
  0
VERTEX
  5
AA
330
90
100
AcDbEntity
  8
GEB-VERDECKT
 48
5.0
100
AcDbVertex
100
AcDb2dVertex
 10
32.80811500546497
 20
-3.771489262580871
 30
0.0
  0
VERTEX
  5
AB
330
90
100
AcDbEntity
  8
GEB-VERDECKT
 48
5.0
100
AcDbVertex
100
AcDb2dVertex
 10
33.27802848813099
 20
-4.000000059604644
 30
0.0
  0
SEQEND
  5
AC
330
90
100
AcDbEntity
  8
GEB-VERDECKT
 48
5.0
  0
LINE
  5
AD
330
2
100
AcDbEntity
  8
GEB-VERDECKT
 48
5.0
100
AcDbLine
 10
39.99999999997704
 20
-17.5
 30
0.0
 11
41.99999999997703
 21
-17.5
 31
0.0
  0
LINE
  5
AE
330
2
100
AcDbEntity
  8
GEB-VERDECKT
 48
5.0
100
AcDbLine
 10
20.49999999997703
 20
17.5
 30
0.0
 11
41.99999999997703
 21
17.5
 31
0.0
  0
POLYLINE
  5
AF
330
2
100
AcDbEntity
  8
GEB-VERDECKT
 48
5.0
100
AcDb2dPolyline
 66
     1
 10
0.0
 20
0.0
 30
0.0
 70
   128
  0
VERTEX
  5
B0
330
AF
100
AcDbEntity
  8
GEB-VERDECKT
 48
5.0
100
AcDbVertex
100
AcDb2dVertex
 10
39.99999952313715
 20
-15.0416088104248
 30
0.0
  0
VERTEX
  5
B1
330
AF
100
AcDbEntity
  8
GEB-VERDECKT
 48
5.0
100
AcDbVertex
100
AcDb2dVertex
 10
39.80449151990206
 20
-14.79388236999511
 30
0.0
  0
VERTEX
  5
B2
330
AF
100
AcDbEntity
  8
GEB-VERDECKT
 48
5.0
100
AcDbVertex
100
AcDb2dVertex
 10
39.60321378705294
 20
-14.53717947006225
 30
0.0
  0
VERTEX
  5
B3
330
AF
100
AcDbEntity
  8
GEB-VERDECKT
 48
5.0
100
AcDbVertex
100
AcDb2dVertex
 10
39.39677906033785
 20
-14.27204847335815
 30
0.0
  0
VERTEX
  5
B4
330
AF
100
AcDbEntity
  8
GEB-VERDECKT
 48
5.0
100
AcDbVertex
100
AcDb2dVertex
 10
39.18580961224802
 20
-13.99904370307922
 30
0.0
  0
VERTEX
  5
B5
330
AF
100
AcDbEntity
  8
GEB-VERDECKT
 48
5.0
100
AcDbVertex
100
AcDb2dVertex
 10
38.97101354596384
 20
-13.71883392333984
 30
0.0
  0
VERTEX
  5
B6
330
AF
100
AcDbEntity
  8
GEB-VERDECKT
 48
5.0
100
AcDbVertex
100
AcDb2dVertex
 10
38.75309419629321
 20
-13.43209743499756
 30
0.0
  0
VERTEX
  5
B7
330
AF
100
AcDbEntity
  8
GEB-VERDECKT
 48
5.0
100
AcDbVertex
100
AcDb2dVertex
 10
38.5327596664165
 20
-13.13951015472412
 30
0.0
  0
VERTEX
  5
B8
330
AF
100
AcDbEntity
  8
GEB-VERDECKT
 48
5.0
100
AcDbVertex
100
AcDb2dVertex
 10
38.31072044369899
 20
-12.84174799919128
 30
0.0
  0
VERTEX
  5
B9
330
AF
100
AcDbEntity
  8
GEB-VERDECKT
 48
5.0
100
AcDbVertex
100
AcDb2dVertex
 10
38.08768224713526
 20
-12.53948807716369
 30
0.0
  0
VERTEX
  5
BA
330
AF
100
AcDbEntity
  8
GEB-VERDECKT
 48
5.0
100
AcDbVertex
100
AcDb2dVertex
 10
37.86385250088893
 20
-12.23273992538452
 30
0.0
  0
VERTEX
  5
BB
330
AF
100
AcDbEntity
  8
GEB-VERDECKT
 48
5.0
100
AcDbVertex
100
AcDb2dVertex
 10
37.63637971875369
 20
-11.91730141639709
 30
0.0
  0
VERTEX
  5
BC
330
AF
100
AcDbEntity
  8
GEB-VERDECKT
 48
5.0
100
AcDbVertex
100
AcDb2dVertex
 10
37.40521860119998
 20
-11.59253478050232
 30
0.0
  0
VERTEX
  5
BD
330
AF
100
AcDbEntity
  8
GEB-VERDECKT
 48
5.0
100
AcDbVertex
100
AcDb2dVertex
 10
37.17100572583377
 20
-11.25871300697326
 30
0.0
  0
VERTEX
  5
BE
330
AF
100
AcDbEntity
  8
GEB-VERDECKT
 48
5.0
100
AcDbVertex
100
AcDb2dVertex
 10
36.93438720700419
 20
-10.91610789299011
 30
0.0
  0
VERTEX
  5
BF
330
AF
100
AcDbEntity
  8
GEB-VERDECKT
 48
5.0
100
AcDbVertex
100
AcDb2dVertex
 10
36.6960020065037
 20
-10.56498765945434
 30
0.0
  0
VERTEX
  5
C0
330
AF
100
AcDbEntity
  8
GEB-VERDECKT
 48
5.0
100
AcDbVertex
100
AcDb2dVertex
 10
36.45649385449542
 20
-10.20562410354614
 30
0.0
  0
VERTEX
  5
C1
330
AF
100
AcDbEntity
  8
GEB-VERDECKT
 48
5.0
100
AcDbVertex
100
AcDb2dVertex
 10
36.21650171277179
 20
-9.838289618492126
 30
0.0
  0
VERTEX
  5
C2
330
AF
100
AcDbEntity
  8
GEB-VERDECKT
 48
5.0
100
AcDbVertex
100
AcDb2dVertex
 10
35.97670507428302
 20
-9.463270902633666
 30
0.0
  0
VERTEX
  5
C3
330
AF
100
AcDbEntity
  8
GEB-VERDECKT
 48
5.0
100
AcDbVertex
100
AcDb2dVertex
 10
35.7379288673128
 20
-9.08084213733673
 30
0.0
  0
VERTEX
  5
C4
330
AF
100
AcDbEntity
  8
GEB-VERDECKT
 48
5.0
100
AcDbVertex
100
AcDb2dVertex
 10
35.50104093548885
 20
-8.691252470016479
 30
0.0
  0
VERTEX
  5
C5
330
AF
100
AcDbEntity
  8
GEB-VERDECKT
 48
5.0
100
AcDbVertex
100
AcDb2dVertex
 10
35.26691150662532
 20
-8.294751644134521
 30
0.0
  0
VERTEX
  5
C6
330
AF
100
AcDbEntity
  8
GEB-VERDECKT
 48
5.0
100
AcDbVertex
100
AcDb2dVertex
 10
35.0364084243497
 20
-7.891588807106018
 30
0.0
  0
VERTEX
  5
C7
330
AF
100
AcDbEntity
  8
GEB-VERDECKT
 48
5.0
100
AcDbVertex
100
AcDb2dVertex
 10
34.81040430066196
 20
-7.48201310634613
 30
0.0
  0
VERTEX
  5
C8
330
AF
100
AcDbEntity
  8
GEB-VERDECKT
 48
5.0
100
AcDbVertex
100
AcDb2dVertex
 10
34.58976697918979
 20
-7.066273093223571
 30
0.0
  0
VERTEX
  5
C9
330
AF
100
AcDbEntity
  8
GEB-VERDECKT
 48
5.0
100
AcDbVertex
100
AcDb2dVertex
 10
34.3753714561185
 20
-6.644607186317443
 30
0.0
  0
VERTEX
  5
CA
330
AF
100
AcDbEntity
  8
GEB-VERDECKT
 48
5.0
100
AcDbVertex
100
AcDb2dVertex
 10
34.16822147366611
 20
-6.217175126075744
 30
0.0
  0
VERTEX
  5
CB
330
AF
100
AcDbEntity
  8
GEB-VERDECKT
 48
5.0
100
AcDbVertex
100
AcDb2dVertex
 10
33.96936607358043
 20
-5.784156322479248
 30
0.0
  0
VERTEX
  5
CC
330
AF
100
AcDbEntity
  8
GEB-VERDECKT
 48
5.0
100
AcDbVertex
100
AcDb2dVertex
 10
33.77986383435314
 20
-5.345740914344787
 30
0.0
  0
VERTEX
  5
CD
330
AF
100
AcDbEntity
  8
GEB-VERDECKT
 48
5.0
100
AcDbVertex
100
AcDb2dVertex
 10
33.60077095028942
 20
-4.902116954326629
 30
0.0
  0
VERTEX
  5
CE
330
AF
100
AcDbEntity
  8
GEB-VERDECKT
 48
5.0
100
AcDbVertex
100
AcDb2dVertex
 10
33.4331412315089
 20
-4.453473687171936
 30
0.0
  0
VERTEX
  5
CF
330
AF
100
AcDbEntity
  8
GEB-VERDECKT
 48
5.0
100
AcDbVertex
100
AcDb2dVertex
 10
33.27802848813099
 20
-4.000000059604644
 30
0.0
  0
SEQEND
  5
D0
330
AF
100
AcDbEntity
  8
GEB-VERDECKT
 48
5.0
  0
LINE
  5
D1
330
2
100
AcDbEntity
  8
GEB-KONTUR-A
 48
5.0
100
AcDbLine
 10
41.99999999997703
 20
-17.5
 30
0.0
 11
54.9999999999768
 21
-17.5
 31
0.0
  0
LINE
  5
D2
330
2
100
AcDbEntity
  8
GEB-KONTUR-A
 48
5.0
100
AcDbLine
 10
41.99999999997703
 20
17.5
 30
0.0
 11
54.9999999999768
 21
17.5
 31
0.0
  0
LINE
  5
D3
330
2
100
AcDbEntity
  8
GEB-KONTUR-A
 48
5.0
100
AcDbLine
 10
54.9999999999768
 20
17.5
 30
0.0
 11
54.9999999999768
 21
-17.5
 31
0.0
  0
LINE
  5
D4
330
2
100
AcDbEntity
  8
GEB-VERDECKT
 48
5.0
100
AcDbLine
 10
36.99999999997704
 20
-50.0
 30
0.0
 11
36.99999999997704
 21
-21.0
 31
0.0
  0
LINE
  5
D5
330
2
100
AcDbEntity
  8
GEB-VERDECKT
 48
5.0
100
AcDbLine
 10
4.999999999977262
 20
-50.0
 30
0.0
 11
4.999999999977262
 21
-21.0
 31
0.0
  0
LINE
  5
D6
330
2
100
AcDbEntity
  8
GEB-VERDECKT
 48
5.0
100
AcDbLine
 10
33.49999999997704
 20
-17.5
 30
0.0
 11
33.49999999997704
 21
-12.5
 31
0.0
  0
LINE
  5
D7
330
2
100
AcDbEntity
  8
GEB-VERDECKT
 48
5.0
100
AcDbLine
 10
8.499999999977035
 20
-17.5
 30
0.0
 11
8.499999999977035
 21
-15.53562059103524
 31
0.0
  0
LINE
  5
D8
330
2
100
AcDbEntity
  8
GEB-VERDECKT
 48
5.0
100
AcDbLine
 10
8.499999999977035
 20
-17.5
 30
0.0
 11
4.999999999977262
 21
-21.0
 31
0.0
  0
LINE
  5
D9
330
2
100
AcDbEntity
  8
GEB-VERDECKT
 48
5.0
100
AcDbLine
 10
33.49999999997704
 20
-17.5
 30
0.0
 11
36.99999999997704
 21
-21.0
 31
0.0
  0
LINE
  5
DA
330
2
100
AcDbEntity
  8
GEB-VERDECKT
 48
5.0
100
AcDbLine
 10
36.99999999997704
 20
-21.0
 30
0.0
 11
4.999999999977262
 21
-21.0
 31
0.0
  0
LINE
  5
DB
330
2
100
AcDbEntity
  8
GEB-VERDECKT
 48
5.0
100
AcDbLine
 10
33.49999999997704
 20
-17.5
 30
0.0
 11
8.499999999977035
 21
-17.5
 31
0.0
  0
LINE
  5
DC
330
2
100
AcDbEntity
  8
GEB-VERDECKT
 48
5.0
100
AcDbLine
 10
33.49999999997704
 20
-12.5
 30
0.0
 11
9.499999999975671
 21
-12.5
 31
0.0
  0
POLYLINE
  5
DD
330
2
100
AcDbEntity
  8
GEB-VERDECKT
 48
5.0
100
AcDb2dPolyline
 66
     1
 10
0.0
 20
0.0
 30
0.0
 70
   128
  0
VERTEX
  5
DE
330
DD
100
AcDbEntity
  8
GEB-VERDECKT
 48
5.0
100
AcDbVertex
100
AcDb2dVertex
 10
33.50000095365135
 20
-12.5
 30
0.0
  0
VERTEX
  5
DF
330
DD
100
AcDbEntity
  8
GEB-VERDECKT
 48
5.0
100
AcDbVertex
100
AcDb2dVertex
 10
33.48062705991333
 20
-12.49027848243713
 30
0.0
  0
VERTEX
  5
E0
330
DD
100
AcDbEntity
  8
GEB-VERDECKT
 48
5.0
100
AcDbVertex
100
AcDb2dVertex
 10
33.42270088193482
 20
-12.46133804321289
 30
0.0
  0
VERTEX
  5
E1
330
DD
100
AcDbEntity
  8
GEB-VERDECKT
 48
5.0
100
AcDbVertex
100
AcDb2dVertex
 10
33.32651567456764
 20
-12.41351127624511
 30
0.0
  0
VERTEX
  5
E2
330
DD
100
AcDbEntity
  8
GEB-VERDECKT
 48
5.0
100
AcDbVertex
100
AcDb2dVertex
 10
33.19235515592118
 20
-12.34713435173034
 30
0.0
  0
VERTEX
  5
E3
330
DD
100
AcDbEntity
  8
GEB-VERDECKT
 48
5.0
100
AcDbVertex
100
AcDb2dVertex
 10
33.0212659835579
 20
-12.26298689842224
 30
0.0
  0
VERTEX
  5
E4
330
DD
100
AcDbEntity
  8
GEB-VERDECKT
 48
5.0
100
AcDbVertex
100
AcDb2dVertex
 10
32.81830024716851
 20
-12.16397643089294
 30
0.0
  0
VERTEX
  5
E5
330
DD
100
AcDbEntity
  8
GEB-VERDECKT
 48
5.0
100
AcDbVertex
100
AcDb2dVertex
 10
32.58974742887017
 20
-12.0535135269165
 30
0.0
  0
VERTEX
  5
E6
330
DD
100
AcDbEntity
  8
GEB-VERDECKT
 48
5.0
100
AcDbVertex
100
AcDb2dVertex
 10
32.3418779372928
 20
-11.93500161170959
 30
0.0
  0
VERTEX
  5
E7
330
DD
100
AcDbEntity
  8
GEB-VERDECKT
 48
5.0
100
AcDbVertex
100
AcDb2dVertex
 10
32.0771880149598
 20
-11.81004166603088
 30
0.0
  0
VERTEX
  5
E8
330
DD
100
AcDbEntity
  8
GEB-VERDECKT
 48
5.0
100
AcDbVertex
100
AcDb2dVertex
 10
31.78558540341806
 20
-11.67431473731994
 30
0.0
  0
VERTEX
  5
E9
330
DD
100
AcDbEntity
  8
GEB-VERDECKT
 48
5.0
100
AcDbVertex
100
AcDb2dVertex
 10
31.46859836575937
 20
-11.5291428565979
 30
0.0
  0
VERTEX
  5
EA
330
DD
100
AcDbEntity
  8
GEB-VERDECKT
 48
5.0
100
AcDbVertex
100
AcDb2dVertex
 10
31.12920475003648
 20
-11.37653946876526
 30
0.0
  0
VERTEX
  5
EB
330
DD
100
AcDbEntity
  8
GEB-VERDECKT
 48
5.0
100
AcDbVertex
100
AcDb2dVertex
 10
30.77038240430284
 20
-11.21852040290832
 30
0.0
  0
VERTEX
  5
EC
330
DD
100
AcDbEntity
  8
GEB-VERDECKT
 48
5.0
100
AcDbVertex
100
AcDb2dVertex
 10
30.39533090588975
 20
-11.05726242065429
 30
0.0
  0
VERTEX
  5
ED
330
DD
100
AcDbEntity
  8
GEB-VERDECKT
 48
5.0
100
AcDbVertex
100
AcDb2dVertex
 10
30.00838708875085
 20
-10.89522004127502
 30
0.0
  0
VERTEX
  5
EE
330
DD
100
AcDbEntity
  8
GEB-VERDECKT
 48
5.0
100
AcDbVertex
100
AcDb2dVertex
 10
29.61422395703698
 20
-10.73466420173645
 30
0.0
  0
VERTEX
  5
EF
330
DD
100
AcDbEntity
  8
GEB-VERDECKT
 48
5.0
100
AcDbVertex
100
AcDb2dVertex
 10
29.21750736234071
 20
-10.57786107063293
 30
0.0
  0
VERTEX
  5
F0
330
DD
100
AcDbEntity
  8
GEB-VERDECKT
 48
5.0
100
AcDbVertex
100
AcDb2dVertex
 10
28.82286977765443
 20
-10.42706370353698
 30
0.0
  0
VERTEX
  5
F1
330
DD
100
AcDbEntity
  8
GEB-VERDECKT
 48
5.0
100
AcDbVertex
100
AcDb2dVertex
 10
28.42151355740907
 20
-10.27937650680542
 30
0.0
  0
VERTEX
  5
F2
330
DD
100
AcDbEntity
  8
GEB-VERDECKT
 48
5.0
100
AcDbVertex
100
AcDb2dVertex
 10
28.00494623181703
 20
-10.1322853565216
 30
0.0
  0
VERTEX
  5
F3
330
DD
100
AcDbEntity
  8
GEB-VERDECKT
 48
5.0
100
AcDbVertex
100
AcDb2dVertex
 10
27.57446241376261
 20
-9.987140297889709
 30
0.0
  0
VERTEX
  5
F4
330
DD
100
AcDbEntity
  8
GEB-VERDECKT
 48
5.0
100
AcDbVertex
100
AcDb2dVertex
 10
27.13136148450235
 20
-9.845286607742309
 30
0.0
  0
VERTEX
  5
F5
330
DD
100
AcDbEntity
  8
GEB-VERDECKT
 48
5.0
100
AcDbVertex
100
AcDb2dVertex
 10
26.67693805692056
 20
-9.708072543144226
 30
0.0
  0
VERTEX
  5
F6
330
DD
100
AcDbEntity
  8
GEB-VERDECKT
 48
5.0
100
AcDbVertex
100
AcDb2dVertex
 10
26.21248674390154
 20
-9.57684576511383
 30
0.0
  0
VERTEX
  5
F7
330
DD
100
AcDbEntity
  8
GEB-VERDECKT
 48
5.0
100
AcDbVertex
100
AcDb2dVertex
 10
25.73930692670183
 20
-9.452953338623046
 30
0.0
  0
VERTEX
  5
F8
330
DD
100
AcDbEntity
  8
GEB-VERDECKT
 48
5.0
100
AcDbVertex
100
AcDb2dVertex
 10
25.25869321820574
 20
-9.337743520736694
 30
0.0
  0
VERTEX
  5
F9
330
DD
100
AcDbEntity
  8
GEB-VERDECKT
 48
5.0
100
AcDbVertex
100
AcDb2dVertex
 10
24.77191400525408
 20
-9.232739806175231
 30
0.0
  0
VERTEX
  5
FA
330
DD
100
AcDbEntity
  8
GEB-VERDECKT
 48
5.0
100
AcDbVertex
100
AcDb2dVertex
 10
24.28038311002092
 20
-9.139342904090881
 30
0.0
  0
VERTEX
  5
FB
330
DD
100
AcDbEntity
  8
GEB-VERDECKT
 48
5.0
100
AcDbVertex
100
AcDb2dVertex
 10
23.78581237790422
 20
-9.057933688163757
 30
0.0
  0
VERTEX
  5
FC
330
DD
100
AcDbEntity
  8
GEB-VERDECKT
 48
5.0
100
AcDbVertex
100
AcDb2dVertex
 10
23.28993034360246
 20
-8.988838791847229
 30
0.0
  0
VERTEX
  5
FD
330
DD
100
AcDbEntity
  8
GEB-VERDECKT
 48
5.0
100
AcDbVertex
100
AcDb2dVertex
 10
22.79445362088518
 20
-8.932386040687561
 30
0.0
  0
VERTEX
  5
FE
330
DD
100
AcDbEntity
  8
GEB-VERDECKT
 48
5.0
100
AcDbVertex
100
AcDb2dVertex
 10
22.30111312863664
 20
-8.88890266418457
 30
0.0
  0
VERTEX
  5
FF
330
DD
100
AcDbEntity
  8
GEB-VERDECKT
 48
5.0
100
AcDbVertex
100
AcDb2dVertex
 10
21.81163024899797
 20
-8.858714699745178
 30
0.0
  0
VERTEX
  5
100
330
DD
100
AcDbEntity
  8
GEB-VERDECKT
 48
5.0
100
AcDbVertex
100
AcDb2dVertex
 10
21.32772994038896
 20
-8.842150568962097
 30
0.0
  0
VERTEX
  5
101
330
DD
100
AcDbEntity
  8
GEB-VERDECKT
 48
5.0
100
AcDbVertex
100
AcDb2dVertex
 10
20.85029792783098
 20
-8.839532732963562
 30
0.0
  0
VERTEX
  5
102
330
DD
100
AcDbEntity
  8
GEB-VERDECKT
 48
5.0
100
AcDbVertex
100
AcDb2dVertex
 10
20.3689105510457
 20
-8.850952386856079
 30
0.0
  0
VERTEX
  5
103
330
DD
100
AcDbEntity
  8
GEB-VERDECKT
 48
5.0
100
AcDbVertex
100
AcDb2dVertex
 10
19.88130044934587
 20
-8.876116275787353
 30
0.0
  0
VERTEX
  5
104
330
DD
100
AcDbEntity
  8
GEB-VERDECKT
 48
5.0
100
AcDbVertex
100
AcDb2dVertex
 10
19.3891913890584
 20
-8.914697766304016
 30
0.0
  0
VERTEX
  5
105
330
DD
100
AcDbEntity
  8
GEB-VERDECKT
 48
5.0
100
AcDbVertex
100
AcDb2dVertex
 10
18.89430713651018
 20
-8.966370224952697
 30
0.0
  0
VERTEX
  5
106
330
DD
100
AcDbEntity
  8
GEB-VERDECKT
 48
5.0
100
AcDbVertex
100
AcDb2dVertex
 10
18.39837384221391
 20
-9.030805826187133
 30
0.0
  0
VERTEX
  5
107
330
DD
100
AcDbEntity
  8
GEB-VERDECKT
 48
5.0
100
AcDbVertex
100
AcDb2dVertex
 10
17.90311527249651
 20
-9.107677936553955
 30
0.0
  0
VERTEX
  5
108
330
DD
100
AcDbEntity
  8
GEB-VERDECKT
 48
5.0
100
AcDbVertex
100
AcDb2dVertex
 10
17.41025400159196
 20
-9.196658730506896
 30
0.0
  0
VERTEX
  5
109
330
DD
100
AcDbEntity
  8
GEB-VERDECKT
 48
5.0
100
AcDbVertex
100
AcDb2dVertex
 10
16.92151618001298
 20
-9.297422170639038
 30
0.0
  0
VERTEX
  5
10A
330
DD
100
AcDbEntity
  8
GEB-VERDECKT
 48
5.0
100
AcDbVertex
100
AcDb2dVertex
 10
16.43846940991716
 20
-9.409061074256896
 30
0.0
  0
VERTEX
  5
10B
330
DD
100
AcDbEntity
  8
GEB-VERDECKT
 48
5.0
100
AcDbVertex
100
AcDb2dVertex
 10
15.96237611768106
 20
-9.529884457588195
 30
0.0
  0
VERTEX
  5
10C
330
DD
100
AcDbEntity
  8
GEB-VERDECKT
 48
5.0
100
AcDbVertex
100
AcDb2dVertex
 10
15.49453091618875
 20
-9.658543467521667
 30
0.0
  0
VERTEX
  5
10D
330
DD
100
AcDbEntity
  8
GEB-VERDECKT
 48
5.0
100
AcDbVertex
100
AcDb2dVertex
 10
15.03622961041787
 20
-9.793689846992492
 30
0.0
  0
VERTEX
  5
10E
330
DD
100
AcDbEntity
  8
GEB-VERDECKT
 48
5.0
100
AcDbVertex
100
AcDb2dVertex
 10
14.58877038953187
 20
-9.933977127075195
 30
0.0
  0
VERTEX
  5
10F
330
DD
100
AcDbEntity
  8
GEB-VERDECKT
 48
5.0
100
AcDbVertex
100
AcDb2dVertex
 10
14.15344786641481
 20
-10.07805705070495
 30
0.0
  0
VERTEX
  5
110
330
DD
100
AcDbEntity
  8
GEB-VERDECKT
 48
5.0
100
AcDbVertex
100
AcDb2dVertex
 10
13.73155784604432
 20
-10.2245819568634
 30
0.0
  0
VERTEX
  5
111
330
DD
100
AcDbEntity
  8
GEB-VERDECKT
 48
5.0
100
AcDbVertex
100
AcDb2dVertex
 10
13.32439851758363
 20
-10.37220478057861
 30
0.0
  0
VERTEX
  5
112
330
DD
100
AcDbEntity
  8
GEB-VERDECKT
 48
5.0
100
AcDbVertex
100
AcDb2dVertex
 10
12.92960476872827
 20
-10.52101373672485
 30
0.0
  0
VERTEX
  5
113
330
DD
100
AcDbEntity
  8
GEB-VERDECKT
 48
5.0
100
AcDbVertex
100
AcDb2dVertex
 10
12.53313016889001
 20
-10.6758439540863
 30
0.0
  0
VERTEX
  5
114
330
DD
100
AcDbEntity
  8
GEB-VERDECKT
 48
5.0
100
AcDbVertex
100
AcDb2dVertex
 10
12.1374733447783
 20
-10.83526968955993
 30
0.0
  0
VERTEX
  5
115
330
DD
100
AcDbEntity
  8
GEB-VERDECKT
 48
5.0
100
AcDbVertex
100
AcDb2dVertex
 10
11.74730193612504
 20
-10.99702477455139
 30
0.0
  0
VERTEX
  5
116
330
DD
100
AcDbEntity
  8
GEB-VERDECKT
 48
5.0
100
AcDbVertex
100
AcDb2dVertex
 10
11.36728656289506
 20
-11.15884184837341
 30
0.0
  0
VERTEX
  5
117
330
DD
100
AcDbEntity
  8
GEB-VERDECKT
 48
5.0
100
AcDbVertex
100
AcDb2dVertex
 10
11.00200903413247
 20
-11.31835103034973
 30
0.0
  0
VERTEX
  5
118
330
DD
100
AcDbEntity
  8
GEB-VERDECKT
 48
5.0
100
AcDbVertex
100
AcDb2dVertex
 10
10.65504920480202
 20
-11.4732015132904
 30
0.0
  0
VERTEX
  5
119
330
DD
100
AcDbEntity
  8
GEB-VERDECKT
 48
5.0
100
AcDbVertex
100
AcDb2dVertex
 10
10.32938909528207
 20
-11.62137031555176
 30
0.0
  0
VERTEX
  5
11A
330
DD
100
AcDbEntity
  8
GEB-VERDECKT
 48
5.0
100
AcDbVertex
100
AcDb2dVertex
 10
10.02800714967225
 20
-11.76084160804748
 30
0.0
  0
VERTEX
  5
11B
330
DD
100
AcDbEntity
  8
GEB-VERDECKT
 48
5.0
100
AcDbVertex
100
AcDb2dVertex
 10
9.753877043700185
 20
-11.88960194587707
 30
0.0
  0
VERTEX
  5
11C
330
DD
100
AcDbEntity
  8
GEB-VERDECKT
 48
5.0
100
AcDbVertex
100
AcDb2dVertex
 10
9.499999999976125
 20
-12.01041221618652
 30
0.0
  0
SEQEND
  5
11D
330
DD
100
AcDbEntity
  8
GEB-VERDECKT
 48
5.0
  0
LINE
  5
11E
330
2
100
AcDbEntity
  8
GEB-VERDECKT
 48
5.0
100
AcDbLine
 10
9.499999999977262
 20
30.60694165537723
 30
0.0
 11
1.999999999977262
 21
30.99999999999989
 31
0.0
  0
LINE
  5
11F
330
2
100
AcDbEntity
  8
GEB-VERDECKT
 48
5.0
100
AcDbLine
 10
1.99999999996794
 20
-11.52285304873521
 30
0.0
 11
9.499999999968167
 21
-11.18117264256659
 31
0.0
  0
ELLIPSE
  5
120
330
2
100
AcDbEntity
  8
GEB-VERDECKT
 48
5.0
100
AcDbEllipse
 10
20.99999999997704
 20
-14.87408533435405
 30
0.0
 11
-12.49964227255727
 21
-0.6748069543331999
 31
0.0
210
0.0
220
0.0
230
1.0
 40
0.1401404399067101
 41
5.872903973954239
 42
6.275619815534877
  0
LINE
  5
121
330
2
100
AcDbEntity
  8
GEB-VERDECKT
 48
5.0
100
AcDbLine
 10
1.999999999977262
 20
-15.87961892450926
 30
0.0
 11
8.499999999977035
 21
-15.53562059103524
 31
0.0
  0
LINE
  5
122
330
2
100
AcDbEntity
  8
GEB-VERDECKT
 48
5.0
100
AcDbLine
 10
9.499999999977262
 20
30.60694165537723
 30
0.0
 11
9.499999999968167
 21
0.0
 31
0.0
  0
LINE
  5
123
330
2
100
AcDbEntity
  8
GEB-VERDECKT
 48
5.0
100
AcDbLine
 10
9.499999999968167
 20
-11.18117264256659
 30
0.0
 11
9.499999999968167
 21
0.0
 31
0.0
  0
LINE
  5
124
330
2
100
AcDbEntity
  8
GEB-VERDECKT
 48
5.0
100
AcDbLine
 10
9.499999999968622
 20
-11.40701356413126
 30
0.0
 11
9.499999999968167
 21
-11.18117264256659
 31
0.0
  0
LINE
  5
125
330
2
100
AcDbEntity
  8
GEB-VERDECKT
 48
5.0
100
AcDbLine
 10
9.499999999975671
 20
-14.79419110440926
 30
0.0
 11
9.499999999970214
 21
-12.17915486618563
 31
0.0
  0
LINE
  5
126
330
2
100
AcDbEntity
  8
GEB-VERDECKT
 48
5.0
100
AcDbLine
 10
7.299999999981537
 20
16.10755191090288
 30
0.0
 11
6.499999999981582
 21
16.10755191090288
 31
0.0
  0
LINE
  5
127
330
2
100
AcDbEntity
  8
GEB-VERDECKT
 48
5.0
100
AcDbLine
 10
7.299999999981537
 20
13.10755191090288
 30
0.0
 11
6.499999999981582
 21
13.10755191090288
 31
0.0
  0
LINE
  5
128
330
2
100
AcDbEntity
  8
GEB-VERDECKT
 48
5.0
100
AcDbLine
 10
7.299999999971078
 20
1.5
 30
0.0
 11
6.499999999971123
 21
1.5
 31
0.0
  0
LINE
  5
129
330
2
100
AcDbEntity
  8
GEB-VERDECKT
 48
5.0
100
AcDbLine
 10
7.299999999971078
 20
-1.500000000000113
 30
0.0
 11
6.499999999971123
 21
-1.500000000000113
 31
0.0
  0
LINE
  5
12A
330
2
100
AcDbEntity
  8
GEB-VERDECKT
 48
5.0
100
AcDbLine
 10
7.299999999977217
 20
22.15819802546787
 30
0.0
 11
6.499999999977262
 21
22.15819802546787
 31
0.0
  0
LINE
  5
12B
330
2
100
AcDbEntity
  8
GEB-VERDECKT
 48
5.0
100
AcDbLine
 10
7.299999999977217
 20
19.15819802546787
 30
0.0
 11
6.499999999977262
 21
19.15819802546787
 31
0.0
  0
LINE
  5
12C
330
2
100
AcDbEntity
  8
GEB-VERDECKT
 48
5.0
100
AcDbLine
 10
-0.0000000000184173
 20
11.50755191090275
 30
0.0
 11
2.999999999981582
 21
11.50755191090275
 31
0.0
  0
LINE
  5
12D
330
2
100
AcDbEntity
  8
GEB-VERDECKT
 48
5.0
100
AcDbLine
 10
-0.0000000000184173
 20
17.70755191090279
 30
0.0
 11
2.999999999981582
 21
17.70755191090279
 31
0.0
  0
LINE
  5
12E
330
2
100
AcDbEntity
  8
GEB-VERDECKT
 48
5.0
100
AcDbLine
 10
-0.0000000000227374
 20
17.55819802546784
 30
0.0
 11
2.999999999977262
 21
17.55819802546784
 31
0.0
  0
LINE
  5
12F
330
2
100
AcDbEntity
  8
GEB-VERDECKT
 48
5.0
100
AcDbLine
 10
-0.0000000000227374
 20
23.75819802546778
 30
0.0
 11
2.999999999977262
 21
23.75819802546778
 31
0.0
  0
LINE
  5
130
330
2
100
AcDbEntity
  8
GEB-VERDECKT
 48
5.0
100
AcDbLine
 10
-0.0000000000288765
 20
-3.100000000000136
 30
0.0
 11
2.999999999971123
 21
-3.100000000000136
 31
0.0
  0
LINE
  5
131
330
2
100
AcDbEntity
  8
GEB-VERDECKT
 48
5.0
100
AcDbLine
 10
-0.0000000000288765
 20
3.099999999999909
 30
0.0
 11
2.999999999971123
 21
3.099999999999909
 31
0.0
  0
LINE
  5
132
330
2
100
AcDbEntity
  8
GEB-VERDECKT
 48
5.0
100
AcDbLine
 10
-0.0000000000227374
 20
28.99999999999989
 30
0.0
 11
9.499999999977262
 21
28.99999999999989
 31
0.0
  0
LINE
  5
133
330
2
100
AcDbEntity
  8
GEB-VERDECKT
 48
5.0
100
AcDbLine
 10
9.499999999968622
 20
-11.98729768473936
 30
0.0
 11
9.499999999968622
 21
-11.40701356413126
 31
0.0
  0
LINE
  5
134
330
2
100
AcDbEntity
  8
GEB-VERDECKT
 48
5.0
100
AcDbLine
 10
-0.0000000000227374
 20
-13.0
 30
0.0
 11
2.999999999977262
 21
-13.0
 31
0.0
  0
LINE
  5
135
330
2
100
AcDbEntity
  8
GEB-VERDECKT
 48
5.0
100
AcDbLine
 10
-0.0000000000313776
 20
-11.98729768473936
 30
0.0
 11
9.499999999968622
 21
-11.98729768473936
 31
0.0
  0
LINE
  5
136
330
2
100
AcDbEntity
  8
GEB-VERDECKT
 48
5.0
100
AcDbLine
 10
9.499999999970214
 20
-12.17915486618563
 30
0.0
 11
9.499999999968622
 21
-11.98729768473936
 31
0.0
  0
LINE
  5
137
330
2
100
AcDbEntity
  8
GEB-VERDECKT
 48
5.0
100
AcDbLine
 10
9.499999999977262
 20
12.99999999999988
 30
0.0
 11
6.499999999977262
 21
12.99999999999988
 31
0.0
  0
LINE
  5
138
330
2
100
AcDbEntity
  8
GEB-VERDECKT
 48
5.0
100
AcDbLine
 10
6.499999999973397
 20
-12.54602999660721
 30
0.0
 11
9.499999999973397
 21
-12.54602999660721
 31
0.0
  0
LINE
  5
139
330
2
100
AcDbEntity
  8
GEB-VERDECKT
 48
5.0
100
AcDbLine
 10
6.499999999977262
 20
25.99999999999989
 30
0.0
 11
2.999999999977262
 21
25.99999999999989
 31
0.0
  0
LINE
  5
13A
330
2
100
AcDbEntity
  8
GEB-VERDECKT
 48
5.0
100
AcDbLine
 10
2.999999999977035
 20
-12.96833265337773
 30
0.0
 11
2.999999999970441
 21
-12.19682230168973
 31
0.0
  0
LINE
  5
13B
330
2
100
AcDbEntity
  8
GEB-VERDECKT
 48
5.0
100
AcDbLine
 10
2.999999999970441
 20
-12.19682230168973
 30
0.0
 11
6.499999999970441
 21
-12.19682230168973
 31
0.0
  0
LINE
  5
13C
330
2
100
AcDbEntity
  8
GEB-VERDECKT
 48
5.0
100
AcDbLine
 10
2.999999999970441
 20
-9.396822301689894
 30
0.0
 11
2.999999999970441
 21
-12.19682230168973
 31
0.0
  0
LINE
  5
13D
330
2
100
AcDbEntity
  8
GEB-VERDECKT
 48
5.0
100
AcDbLine
 10
6.499999999970441
 20
-9.396822301689894
 30
0.0
 11
2.999999999970441
 21
-9.396822301689894
 31
0.0
  0
LINE
  5
13E
330
2
100
AcDbEntity
  8
GEB-VERDECKT
 48
5.0
100
AcDbLine
 10
2.999999999970441
 20
-9.396822301689894
 30
0.0
 11
2.999999999969531
 21
-6.396822301689894
 31
0.0
  0
LINE
  5
13F
330
2
100
AcDbEntity
  8
GEB-VERDECKT
 48
5.0
100
AcDbLine
 10
2.999999999969531
 20
0.0
 30
0.0
 11
2.999999999969531
 21
-6.39682230168978
 31
0.0
  0
LINE
  5
140
330
2
100
AcDbEntity
  8
GEB-VERDECKT
 48
5.0
100
AcDbLine
 10
2.999999999969531
 20
0.0
 30
0.0
 11
2.999999999977262
 21
25.99999999999989
 31
0.0
  0
LINE
  5
141
330
2
100
AcDbEntity
  8
GEB-VERDECKT
 48
5.0
100
AcDbLine
 10
6.499999999969531
 20
0.0
 30
0.0
 11
6.499999999977262
 21
25.99999999999989
 31
0.0
  0
LINE
  5
142
330
2
100
AcDbEntity
  8
GEB-VERDECKT
 48
5.0
100
AcDbLine
 10
6.499999999969531
 20
0.0
 30
0.0
 11
6.499999999969531
 21
-6.39682230168978
 31
0.0
  0
LINE
  5
143
330
2
100
AcDbEntity
  8
GEB-VERDECKT
 48
5.0
100
AcDbLine
 10
6.499999999970441
 20
-9.396822301689894
 30
0.0
 11
6.499999999969531
 21
-6.396822301689894
 31
0.0
  0
LINE
  5
144
330
2
100
AcDbEntity
  8
GEB-VERDECKT
 48
5.0
100
AcDbLine
 10
6.499999999970441
 20
-9.396822301689894
 30
0.0
 11
6.499999999970441
 21
-12.19682230168973
 31
0.0
  0
LINE
  5
145
330
2
100
AcDbEntity
  8
GEB-VERDECKT
 48
5.0
100
AcDbLine
 10
6.499999999970441
 20
-12.19682230168973
 30
0.0
 11
6.499999999973397
 21
-12.54602999660721
 31
0.0
  0
LINE
  5
146
330
2
100
AcDbEntity
  8
GEB-VERDECKT
 48
5.0
100
AcDbLine
 10
9.499999999977262
 20
23.75819802546778
 30
0.0
 11
7.299999999977217
 21
23.75819802546778
 31
0.0
  0
LINE
  5
147
330
2
100
AcDbEntity
  8
GEB-VERDECKT
 48
5.0
100
AcDbLine
 10
9.499999999977262
 20
17.55819802546784
 30
0.0
 11
7.299999999977217
 21
17.55819802546784
 31
0.0
  0
LINE
  5
148
330
2
100
AcDbEntity
  8
GEB-VERDECKT
 48
5.0
100
AcDbLine
 10
9.499999999971123
 20
3.099999999999909
 30
0.0
 11
7.299999999971078
 21
3.099999999999909
 31
0.0
  0
LINE
  5
149
330
2
100
AcDbEntity
  8
GEB-VERDECKT
 48
5.0
100
AcDbLine
 10
9.499999999971123
 20
-3.100000000000136
 30
0.0
 11
7.299999999971078
 21
-3.100000000000136
 31
0.0
  0
LINE
  5
14A
330
2
100
AcDbEntity
  8
GEB-VERDECKT
 48
5.0
100
AcDbLine
 10
9.499999999981582
 20
17.70755191090279
 30
0.0
 11
7.299999999981537
 21
17.70755191090279
 31
0.0
  0
LINE
  5
14B
330
2
100
AcDbEntity
  8
GEB-VERDECKT
 48
5.0
100
AcDbLine
 10
9.499999999981582
 20
11.50755191090275
 30
0.0
 11
7.299999999981537
 21
11.50755191090275
 31
0.0
  0
LINE
  5
14C
330
2
100
AcDbEntity
  8
GEB-VERDECKT
 48
5.0
100
AcDbLine
 10
7.299999999977217
 20
17.55819802546773
 30
0.0
 11
7.299999999977217
 21
23.75819802546778
 31
0.0
  0
LINE
  5
14D
330
2
100
AcDbEntity
  8
GEB-VERDECKT
 48
5.0
100
AcDbLine
 10
7.299999999971078
 20
-3.100000000000136
 30
0.0
 11
7.299999999971078
 21
3.099999999999909
 31
0.0
  0
LINE
  5
14E
330
2
100
AcDbEntity
  8
GEB-VERDECKT
 48
5.0
100
AcDbLine
 10
7.299999999981537
 20
11.50755191090275
 30
0.0
 11
7.299999999981309
 21
17.55819802546773
 31
0.0
  0
LINE
  5
14F
330
2
100
AcDbEntity
  8
GEB-VERDECKT
 48
5.0
100
AcDbLine
 10
-0.0000000000227374
 20
-17.20000000000004
 30
0.0
 11
-2.000000000022737
 21
-17.20000000000004
 31
0.0
  0
LINE
  5
150
330
2
100
AcDbEntity
  8
GEB-VERDECKT
 48
5.0
100
AcDbLine
 10
-0.0000000000227374
 20
-22.80000000000007
 30
0.0
 11
-2.000000000022737
 21
-22.80000000000007
 31
0.0
  0
LINE
  5
151
330
2
100
AcDbEntity
  8
GEB-VERDECKT
 48
5.0
100
AcDbLine
 10
-0.0000000000268301
 20
-11.342135623731
 30
0.0
 11
-2.00000000002683
 21
-11.342135623731
 31
0.0
  0
LINE
  5
152
330
2
100
AcDbEntity
  8
GEB-VERDECKT
 48
5.0
100
AcDbLine
 10
-0.0000000000268301
 20
-16.94213562373102
 30
0.0
 11
-2.00000000002683
 21
-16.94213562373102
 31
0.0
  0
LINE
  5
153
330
2
100
AcDbEntity
  8
GEB-VERDECKT
 48
5.0
100
AcDbLine
 10
-0.0000000000286491
 20
2.799999999999954
 30
0.0
 11
-2.000000000028649
 21
2.799999999999954
 31
0.0
  0
LINE
  5
154
330
2
100
AcDbEntity
  8
GEB-VERDECKT
 48
5.0
100
AcDbLine
 10
-0.0000000000286491
 20
-2.800000000000068
 30
0.0
 11
-2.000000000028649
 21
-2.800000000000068
 31
0.0
  0
LINE
  5
155
330
2
100
AcDbEntity
  8
GEB-VERDECKT
 48
5.0
100
AcDbLine
 10
-0.0000000000268301
 20
16.9421356237309
 30
0.0
 11
-2.00000000002683
 21
16.9421356237309
 31
0.0
  0
LINE
  5
156
330
2
100
AcDbEntity
  8
GEB-VERDECKT
 48
5.0
100
AcDbLine
 10
-0.0000000000268301
 20
11.34213562373088
 30
0.0
 11
-2.00000000002683
 21
11.34213562373088
 31
0.0
  0
LINE
  5
157
330
2
100
AcDbEntity
  8
GEB-VERDECKT
 48
5.0
100
AcDbLine
 10
-0.0000000000227374
 20
22.79999999999995
 30
0.0
 11
-2.000000000022737
 21
22.79999999999995
 31
0.0
  0
LINE
  5
158
330
2
100
AcDbEntity
  8
GEB-VERDECKT
 48
5.0
100
AcDbLine
 10
-0.0000000000227374
 20
17.19999999999993
 30
0.0
 11
-2.000000000022737
 21
17.19999999999993
 31
0.0
  0
LINE
  5
159
330
2
100
AcDbEntity
  8
GEB-VERDECKT
 48
5.0
100
AcDbLine
 10
-0.0000000000345608
 20
5.0
 30
0.0
 11
-2.00000000003456
 21
5.0
 31
0.0
  0
LINE
  5
15A
330
2
100
AcDbEntity
  8
GEB-VERDECKT
 48
5.0
100
AcDbLine
 10
-0.0000000000345608
 20
-5.0
 30
0.0
 11
-2.00000000003456
 21
-5.0
 31
0.0
  0
LINE
  5
15B
330
2
100
AcDbEntity
  8
GEB-VERDECKT
 48
5.0
100
AcDbLine
 10
-0.0000000000227374
 20
15.25
 30
0.0
 11
-2.000000000022737
 21
15.25
 31
0.0
  0
LINE
  5
15C
330
2
100
AcDbEntity
  8
GEB-VERDECKT
 48
5.0
100
AcDbLine
 10
-0.0000000000227374
 20
-15.25000000000011
 30
0.0
 11
-2.000000000022737
 21
-15.25000000000011
 31
0.0
  0
LINE
  5
15D
330
2
100
AcDbEntity
  8
GEB-VERDECKT
 48
5.0
100
AcDbLine
 10
41.99999999991428
 20
-14.75
 30
0.0
 11
39.99999999991428
 21
-14.75
 31
0.0
  0
LINE
  5
15E
330
2
100
AcDbEntity
  8
GEB-VERDECKT
 48
5.0
100
AcDbLine
 10
41.99999999991428
 20
14.74999999999988
 30
0.0
 11
39.99999999991428
 21
14.74999999999988
 31
0.0
  0
LINE
  5
15F
330
2
100
AcDbEntity
  8
GEB-VERDECKT
 48
5.0
100
AcDbLine
 10
41.99999999991951
 20
-3.250000000000113
 30
0.0
 11
39.99999999991951
 21
-3.250000000000113
 31
0.0
  0
LINE
  5
160
330
2
100
AcDbEntity
  8
GEB-VERDECKT
 48
5.0
100
AcDbLine
 10
41.99999999991951
 20
3.25
 30
0.0
 11
39.99999999991951
 21
3.25
 31
0.0
  0
LINE
  5
161
330
2
100
AcDbEntity
  8
GEB-KONTUR-A
 48
5.0
100
AcDbLine
 10
41.99999999991428
 20
30.0
 30
0.0
 11
41.99999999991132
 21
20.0
 31
0.0
  0
LINE
  5
162
330
2
100
AcDbEntity
  8
GEB-KONTUR-A
 48
5.0
100
AcDbLine
 10
41.99999999991132
 20
20.0
 30
0.0
 11
39.99999999991132
 21
20.0
 31
0.0
  0
LINE
  5
163
330
2
100
AcDbEntity
  8
GEB-KONTUR-A
 48
5.0
100
AcDbLine
 10
39.99999999991132
 20
20.0
 30
0.0
 11
39.99999999991428
 21
30.0
 31
0.0
  0
LINE
  5
164
330
2
100
AcDbEntity
  8
GEB-KONTUR-A
 48
5.0
100
AcDbLine
 10
39.99999999991132
 20
-20.0
 30
0.0
 11
41.99999999991132
 21
-20.0
 31
0.0
  0
LINE
  5
165
330
2
100
AcDbEntity
  8
GEB-KONTUR-A
 48
5.0
100
AcDbLine
 10
41.99999999991132
 20
-20.0
 30
0.0
 11
41.99999999991428
 21
-30.0
 31
0.0
  0
LINE
  5
166
330
2
100
AcDbEntity
  8
GEB-KONTUR-A
 48
5.0
100
AcDbLine
 10
39.99999999991428
 20
-30.0
 30
0.0
 11
39.99999999991132
 21
-20.0
 31
0.0
  0
LINE
  5
167
330
2
100
AcDbEntity
  8
GEB-KONTUR-A
 48
5.0
100
AcDbLine
 10
41.99999999991428
 20
-30.0
 30
0.0
 11
39.99999999991428
 21
-30.0
 31
0.0
  0
LINE
  5
168
330
2
100
AcDbEntity
  8
GEB-KONTUR-A
 48
5.0
100
AcDbLine
 10
39.99999999991428
 20
30.0
 30
0.0
 11
41.99999999991428
 21
30.0
 31
0.0
  0
LINE
  5
169
330
2
100
AcDbEntity
  8
GEB-VERDECKT
 48
5.0
100
AcDbLine
 10
-0.0000000000363798
 20
-30.0
 30
0.0
 11
-0.0000000000363798
 21
30.0
 31
0.0
  0
LINE
  5
16A
330
2
100
AcDbEntity
  8
GEB-KONTUR-A
 48
5.0
100
AcDbLine
 10
39.99999999991132
 20
-20.0
 30
0.0
 11
39.99999999991132
 21
20.0
 31
0.0
  0
LINE
  5
16B
330
2
100
AcDbEntity
  8
GEB-KONTUR-A
 48
5.0
100
AcDbLine
 10
-2.000000000036607
 20
-30.0
 30
0.0
 11
-2.000000000036607
 21
30.0
 31
0.0
  0
LINE
  5
16C
330
2
100
AcDbEntity
  8
GEB-KONTUR-A
 48
5.0
100
AcDbLine
 10
41.99999999991132
 20
-20.0
 30
0.0
 11
41.99999999991132
 21
20.0
 31
0.0
  0
LINE
  5
16D
330
2
100
AcDbEntity
  8
GEB-KONTUR-A
 48
5.0
100
AcDbLine
 10
2.999999999961801
 20
-30.0
 30
0.0
 11
-2.000000000036607
 21
-30.0
 31
0.0
  0
LINE
  5
16E
330
2
100
AcDbEntity
  8
GEB-KONTUR-A
 48
5.0
100
AcDbLine
 10
2.999999999961801
 20
-30.0
 30
0.0
 11
36.9999999999618
 21
-30.0
 31
0.0
  0
LINE
  5
16F
330
2
100
AcDbEntity
  8
GEB-KONTUR-A
 48
5.0
100
AcDbLine
 10
36.9999999999618
 20
-30.0
 30
0.0
 11
39.99999999996089
 21
-30.0
 31
0.0
  0
LINE
  5
170
330
2
100
AcDbEntity
  8
GEB-KONTUR-A
 48
5.0
100
AcDbLine
 10
39.99999999996089
 20
30.0
 30
0.0
 11
36.9999999999618
 21
30.0
 31
0.0
  0
LINE
  5
171
330
2
100
AcDbEntity
  8
GEB-KONTUR-A
 48
5.0
100
AcDbLine
 10
36.9999999999618
 20
30.0
 30
0.0
 11
2.999999999961801
 21
30.0
 31
0.0
  0
LINE
  5
172
330
2
100
AcDbEntity
  8
GEB-KONTUR-A
 48
5.0
100
AcDbLine
 10
-2.000000000036607
 20
30.0
 30
0.0
 11
2.999999999961801
 21
30.0
 31
0.0
  0
LINE
  5
173
330
2
100
AcDbEntity
  8
GEB-VERDECKT
 48
5.0
100
AcDbLine
 10
0.0
 20
15.0
 30
0.0
 11
-2.000000000000227
 21
15.0
 31
0.0
  0
LINE
  5
174
330
2
100
AcDbEntity
  8
GEB-VERDECKT
 48
5.0
100
AcDbLine
 10
0.0
 20
-15.0
 30
0.0
 11
-2.000000000000227
 21
-15.0
 31
0.0
  0
LINE
  5
175
330
2
100
AcDbEntity
  8
GEB-KONTUR-A
 48
5.0
100
AcDbLine
 10
26.49999999997453
 20
-55.78752437509217
 30
0.0
 11
16.49999999997453
 21
-55.78752437509217
 31
0.0
  0
LINE
  5
176
330
2
100
AcDbEntity
  8
GEB-VERDECKT
 48
5.0
100
AcDbLine
 10
26.49999999997386
 20
-44.69999999999993
 30
0.0
 11
16.49999999997362
 21
-44.69999999999993
 31
0.0
  0
POLYLINE
  5
177
330
2
100
AcDbEntity
  8
GEB-VERDECKT
 48
5.0
100
AcDb2dPolyline
 66
     1
 10
0.0
 20
0.0
 30
0.0
 70
   128
  0
VERTEX
  5
178
330
177
100
AcDbEntity
  8
GEB-VERDECKT
 48
5.0
100
AcDbVertex
100
AcDb2dVertex
 10
16.49999999997362
 20
-36.25000066757207
 30
0.0
  0
VERTEX
  5
179
330
177
100
AcDbEntity
  8
GEB-VERDECKT
 48
5.0
100
AcDbVertex
100
AcDb2dVertex
 10
16.50223129985079
 20
-36.31539649963384
 30
0.0
  0
VERTEX
  5
17A
330
177
100
AcDbEntity
  8
GEB-VERDECKT
 48
5.0
100
AcDbVertex
100
AcDb2dVertex
 10
16.5089165568088
 20
-36.38151235580449
 30
0.0
  0
VERTEX
  5
17B
330
177
100
AcDbEntity
  8
GEB-VERDECKT
 48
5.0
100
AcDbVertex
100
AcDb2dVertex
 10
16.52004295584902
 20
-36.4477736473084
 30
0.0
  0
VERTEX
  5
17C
330
177
100
AcDbEntity
  8
GEB-VERDECKT
 48
5.0
100
AcDbVertex
100
AcDb2dVertex
 10
16.5355973839496
 20
-36.51361770629887
 30
0.0
  0
VERTEX
  5
17D
330
177
100
AcDbEntity
  8
GEB-VERDECKT
 48
5.0
100
AcDbVertex
100
AcDb2dVertex
 10
16.55556702611193
 20
-36.57847232818608
 30
0.0
  0
VERTEX
  5
17E
330
177
100
AcDbEntity
  8
GEB-VERDECKT
 48
5.0
100
AcDbVertex
100
AcDb2dVertex
 10
16.57993876931414
 20
-36.64177246093755
 30
0.0
  0
VERTEX
  5
17F
330
177
100
AcDbEntity
  8
GEB-VERDECKT
 48
5.0
100
AcDbVertex
100
AcDb2dVertex
 10
16.60859787461504
 20
-36.70299835205083
 30
0.0
  0
VERTEX
  5
180
330
177
100
AcDbEntity
  8
GEB-VERDECKT
 48
5.0
100
AcDbVertex
100
AcDb2dVertex
 10
16.64114469287142
 20
-36.76177806854253
 30
0.0
  0
VERTEX
  5
181
330
177
100
AcDbEntity
  8
GEB-VERDECKT
 48
5.0
100
AcDbVertex
100
AcDb2dVertex
 10
16.67713040110811
 20
-36.81775636672978
 30
0.0
  0
VERTEX
  5
182
330
177
100
AcDbEntity
  8
GEB-VERDECKT
 48
5.0
100
AcDbVertex
100
AcDb2dVertex
 10
16.71610647437319
 20
-36.87057800292973
 30
0.0
  0
VERTEX
  5
183
330
177
100
AcDbEntity
  8
GEB-VERDECKT
 48
5.0
100
AcDbVertex
100
AcDb2dVertex
 10
16.75762379166826
 20
-36.9198925018311
 30
0.0
  0
VERTEX
  5
184
330
177
100
AcDbEntity
  8
GEB-VERDECKT
 48
5.0
100
AcDbVertex
100
AcDb2dVertex
 10
16.80126929280504
 20
-36.96538038253789
 30
0.0
  0
VERTEX
  5
185
330
177
100
AcDbEntity
  8
GEB-VERDECKT
 48
5.0
100
AcDbVertex
100
AcDb2dVertex
 10
16.8479200601314
 20
-37.0080215454102
 30
0.0
  0
VERTEX
  5
186
330
177
100
AcDbEntity
  8
GEB-VERDECKT
 48
5.0
100
AcDbVertex
100
AcDb2dVertex
 10
16.89788365361437
 20
-37.0481450080872
 30
0.0
  0
VERTEX
  5
187
330
177
100
AcDbEntity
  8
GEB-VERDECKT
 48
5.0
100
AcDbVertex
100
AcDb2dVertex
 10
16.95082271096453
 20
-37.08540983200078
 30
0.0
  0
VERTEX
  5
188
330
177
100
AcDbEntity
  8
GEB-VERDECKT
 48
5.0
100
AcDbVertex
100
AcDb2dVertex
 10
17.00640046593889
 20
-37.11947984695439
 30
0.0
  0
VERTEX
  5
189
330
177
100
AcDbEntity
  8
GEB-VERDECKT
 48
5.0
100
AcDbVertex
100
AcDb2dVertex
 10
17.06427985427126
 20
-37.15001173019414
 30
0.0
  0
VERTEX
  5
18A
330
177
100
AcDbEntity
  8
GEB-VERDECKT
 48
5.0
100
AcDbVertex
100
AcDb2dVertex
 10
17.12412381169542
 20
-37.17666931152348
 30
0.0
  0
VERTEX
  5
18B
330
177
100
AcDbEntity
  8
GEB-VERDECKT
 48
5.0
100
AcDbVertex
100
AcDb2dVertex
 10
17.18556606766924
 20
-37.19918794631963
 30
0.0
  0
VERTEX
  5
18C
330
177
100
AcDbEntity
  8
GEB-VERDECKT
 48
5.0
100
AcDbVertex
100
AcDb2dVertex
 10
17.24813961980089
 20
-37.21755332946782
 30
0.0
  0
VERTEX
  5
18D
330
177
100
AcDbEntity
  8
GEB-VERDECKT
 48
5.0
100
AcDbVertex
100
AcDb2dVertex
 10
17.31135749814257
 20
-37.23178930282597
 30
0.0
  0
VERTEX
  5
18E
330
177
100
AcDbEntity
  8
GEB-VERDECKT
 48
5.0
100
AcDbVertex
100
AcDb2dVertex
 10
17.37473183867678
 20
-37.24192447662358
 30
0.0
  0
VERTEX
  5
18F
330
177
100
AcDbEntity
  8
GEB-VERDECKT
 48
5.0
100
AcDbVertex
100
AcDb2dVertex
 10
17.43777537343248
 20
-37.24798507690434
 30
0.0
  0
VERTEX
  5
190
330
177
100
AcDbEntity
  8
GEB-VERDECKT
 48
5.0
100
AcDbVertex
100
AcDb2dVertex
 10
17.49999994036898
 20
-37.24999971389775
 30
0.0
  0
SEQEND
  5
191
330
177
100
AcDbEntity
  8
GEB-VERDECKT
 48
5.0
  0
POLYLINE
  5
192
330
2
100
AcDbEntity
  8
GEB-VERDECKT
 48
5.0
100
AcDb2dPolyline
 66
     1
 10
0.0
 20
0.0
 30
0.0
 70
   128
  0
VERTEX
  5
193
330
192
100
AcDbEntity
  8
GEB-VERDECKT
 48
5.0
100
AcDbVertex
100
AcDb2dVertex
 10
25.50000005957827
 20
-37.24999971389775
 30
0.0
  0
VERTEX
  5
194
330
192
100
AcDbEntity
  8
GEB-VERDECKT
 48
5.0
100
AcDbVertex
100
AcDb2dVertex
 10
25.56220316884264
 20
-37.24798746109013
 30
0.0
  0
VERTEX
  5
195
330
192
100
AcDbEntity
  8
GEB-VERDECKT
 48
5.0
100
AcDbVertex
100
AcDb2dVertex
 10
25.62519305941805
 20
-37.24193162918095
 30
0.0
  0
VERTEX
  5
196
330
192
100
AcDbEntity
  8
GEB-VERDECKT
 48
5.0
100
AcDbVertex
100
AcDb2dVertex
 10
25.68849438426241
 20
-37.23181076049809
 30
0.0
  0
VERTEX
  5
197
330
192
100
AcDbEntity
  8
GEB-VERDECKT
 48
5.0
100
AcDbVertex
100
AcDb2dVertex
 10
25.75163060424074
 20
-37.21760101318364
 30
0.0
  0
VERTEX
  5
198
330
192
100
AcDbEntity
  8
GEB-VERDECKT
 48
5.0
100
AcDbVertex
100
AcDb2dVertex
 10
25.81412607428774
 20
-37.19927616119389
 30
0.0
  0
VERTEX
  5
199
330
192
100
AcDbEntity
  8
GEB-VERDECKT
 48
5.0
100
AcDbVertex
100
AcDb2dVertex
 10
25.87550544736132
 20
-37.17681713104253
 30
0.0
  0
VERTEX
  5
19A
330
192
100
AcDbEntity
  8
GEB-VERDECKT
 48
5.0
100
AcDbVertex
100
AcDb2dVertex
 10
25.93530708548769
 20
-37.15022630691533
 30
0.0
  0
VERTEX
  5
19B
330
192
100
AcDbEntity
  8
GEB-VERDECKT
 48
5.0
100
AcDbVertex
100
AcDb2dVertex
 10
25.99316650626406
 20
-37.11973733901982
 30
0.0
  0
VERTEX
  5
19C
330
192
100
AcDbEntity
  8
GEB-VERDECKT
 48
5.0
100
AcDbVertex
100
AcDb2dVertex
 10
26.04875618216738
 20
-37.08568401336675
 30
0.0
  0
VERTEX
  5
19D
330
192
100
AcDbEntity
  8
GEB-VERDECKT
 48
5.0
100
AcDbVertex
100
AcDb2dVertex
 10
26.10174888369784
 20
-37.04839773178105
 30
0.0
  0
VERTEX
  5
19E
330
192
100
AcDbEntity
  8
GEB-VERDECKT
 48
5.0
100
AcDbVertex
100
AcDb2dVertex
 10
26.15181767937884
 20
-37.00821228027348
 30
0.0
  0
VERTEX
  5
19F
330
192
100
AcDbEntity
  8
GEB-VERDECKT
 48
5.0
100
AcDbVertex
100
AcDb2dVertex
 10
26.19863504168734
 20
-36.96545906066899
 30
0.0
  0
VERTEX
  5
1A0
330
192
100
AcDbEntity
  8
GEB-VERDECKT
 48
5.0
100
AcDbVertex
100
AcDb2dVertex
 10
26.24223256108507
 20
-36.92008562088017
 30
0.0
  0
VERTEX
  5
1A1
330
192
100
AcDbEntity
  8
GEB-VERDECKT
 48
5.0
100
AcDbVertex
100
AcDb2dVertex
 10
26.28365093466982
 20
-36.87092847824101
 30
0.0
  0
VERTEX
  5
1A2
330
192
100
AcDbEntity
  8
GEB-VERDECKT
 48
5.0
100
AcDbVertex
100
AcDb2dVertex
 10
26.32258230445132
 20
-36.81819267272954
 30
0.0
  0
VERTEX
  5
1A3
330
192
100
AcDbEntity
  8
GEB-VERDECKT
 48
5.0
100
AcDbVertex
100
AcDb2dVertex
 10
26.35856920478091
 20
-36.76224536895757
 30
0.0
  0
VERTEX
  5
1A4
330
192
100
AcDbEntity
  8
GEB-VERDECKT
 48
5.0
100
AcDbVertex
100
AcDb2dVertex
 10
26.39115446803316
 20
-36.7034561157227
 30
0.0
  0
VERTEX
  5
1A5
330
192
100
AcDbEntity
  8
GEB-VERDECKT
 48
5.0
100
AcDbVertex
100
AcDb2dVertex
 10
26.41988033053622
 20
-36.64218730926518
 30
0.0
  0
VERTEX
  5
1A6
330
192
100
AcDbEntity
  8
GEB-VERDECKT
 48
5.0
100
AcDbVertex
100
AcDb2dVertex
 10
26.44432479140505
 20
-36.57882518768315
 30
0.0
  0
VERTEX
  5
1A7
330
192
100
AcDbEntity
  8
GEB-VERDECKT
 48
5.0
100
AcDbVertex
100
AcDb2dVertex
 10
26.46434479949221
 20
-36.51388235092168
 30
0.0
  0
VERTEX
  5
1A8
330
192
100
AcDbEntity
  8
GEB-VERDECKT
 48
5.0
100
AcDbVertex
100
AcDb2dVertex
 10
26.47993081805453
 20
-36.44794530868535
 30
0.0
  0
VERTEX
  5
1A9
330
192
100
AcDbEntity
  8
GEB-VERDECKT
 48
5.0
100
AcDbVertex
100
AcDb2dVertex
 10
26.49107450244173
 20
-36.38159580230718
 30
0.0
  0
VERTEX
  5
1AA
330
192
100
AcDbEntity
  8
GEB-VERDECKT
 48
5.0
100
AcDbVertex
100
AcDb2dVertex
 10
26.49776720998034
 20
-36.31542034149175
 30
0.0
  0
VERTEX
  5
1AB
330
192
100
AcDbEntity
  8
GEB-VERDECKT
 48
5.0
100
AcDbVertex
100
AcDb2dVertex
 10
26.49999999997362
 20
-36.25000066757207
 30
0.0
  0
SEQEND
  5
1AC
330
192
100
AcDbEntity
  8
GEB-VERDECKT
 48
5.0
  0
LINE
  5
1AD
330
2
100
AcDbEntity
  8
GEB-VERDECKT
 48
5.0
100
AcDbLine
 10
16.49999999997408
 20
-50.00000007152562
 30
0.0
 11
16.49999999997362
 21
-44.69999976158146
 31
0.0
  0
POLYLINE
  5
1AE
330
2
100
AcDbEntity
  8
GEB-VERDECKT
 48
5.0
100
AcDb2dPolyline
 66
     1
 10
0.0
 20
0.0
 30
0.0
 70
   128
  0
VERTEX
  5
1AF
330
1AE
100
AcDbEntity
  8
GEB-VERDECKT
 48
5.0
100
AcDbVertex
100
AcDb2dVertex
 10
15.25504553315431
 20
-50.00000007152562
 30
0.0
  0
VERTEX
  5
1B0
330
1AE
100
AcDbEntity
  8
GEB-VERDECKT
 48
5.0
100
AcDbVertex
100
AcDb2dVertex
 10
15.24373733994753
 20
-49.77978892326359
 30
0.0
  0
VERTEX
  5
1B1
330
1AE
100
AcDbEntity
  8
GEB-VERDECKT
 48
5.0
100
AcDbVertex
100
AcDb2dVertex
 10
15.23239099976808
 20
-49.55937809944157
 30
0.0
  0
VERTEX
  5
1B2
330
1AE
100
AcDbEntity
  8
GEB-VERDECKT
 48
5.0
100
AcDbVertex
100
AcDb2dVertex
 10
15.22100889680177
 20
-49.33878786563878
 30
0.0
  0
VERTEX
  5
1B3
330
1AE
100
AcDbEntity
  8
GEB-VERDECKT
 48
5.0
100
AcDbVertex
100
AcDb2dVertex
 10
15.20959103104837
 20
-49.11803729534153
 30
0.0
  0
VERTEX
  5
1B4
330
1AE
100
AcDbEntity
  8
GEB-VERDECKT
 48
5.0
100
AcDbVertex
100
AcDb2dVertex
 10
15.19813978669413
 20
-48.89714665412907
 30
0.0
  0
VERTEX
  5
1B5
330
1AE
100
AcDbEntity
  8
GEB-VERDECKT
 48
5.0
100
AcDbVertex
100
AcDb2dVertex
 10
15.18665575978525
 20
-48.67613620758061
 30
0.0
  0
VERTEX
  5
1B6
330
1AE
100
AcDbEntity
  8
GEB-VERDECKT
 48
5.0
100
AcDbVertex
100
AcDb2dVertex
 10
15.17514014241465
 20
-48.45502502918248
 30
0.0
  0
VERTEX
  5
1B7
330
1AE
100
AcDbEntity
  8
GEB-VERDECKT
 48
5.0
100
AcDbVertex
100
AcDb2dVertex
 10
15.16359472272165
 20
-48.23383398056034
 30
0.0
  0
VERTEX
  5
1B8
330
1AE
100
AcDbEntity
  8
GEB-VERDECKT
 48
5.0
100
AcDbVertex
100
AcDb2dVertex
 10
15.15202009675272
 20
-48.01258153915409
 30
0.0
  0
VERTEX
  5
1B9
330
1AE
100
AcDbEntity
  8
GEB-VERDECKT
 48
5.0
100
AcDbVertex
100
AcDb2dVertex
 10
15.14041745660074
 20
-47.7912885665894
 30
0.0
  0
VERTEX
  5
1BA
330
1AE
100
AcDbEntity
  8
GEB-VERDECKT
 48
5.0
100
AcDbVertex
100
AcDb2dVertex
 10
15.12878859040506
 20
-47.56997413635258
 30
0.0
  0
VERTEX
  5
1BB
330
1AE
100
AcDbEntity
  8
GEB-VERDECKT
 48
5.0
100
AcDbVertex
100
AcDb2dVertex
 10
15.11713469025858
 20
-47.34865970611576
 30
0.0
  0
VERTEX
  5
1BC
330
1AE
100
AcDbEntity
  8
GEB-VERDECKT
 48
5.0
100
AcDbVertex
100
AcDb2dVertex
 10
15.10545635220774
 20
-47.12736315727238
 30
0.0
  0
VERTEX
  5
1BD
330
1AE
100
AcDbEntity
  8
GEB-VERDECKT
 48
5.0
100
AcDbVertex
100
AcDb2dVertex
 10
15.09375536439188
 20
-46.90610475540165
 30
0.0
  0
VERTEX
  5
1BE
330
1AE
100
AcDbEntity
  8
GEB-VERDECKT
 48
5.0
100
AcDbVertex
100
AcDb2dVertex
 10
15.08203232285746
 20
-46.68490476608281
 30
0.0
  0
VERTEX
  5
1BF
330
1AE
100
AcDbEntity
  8
GEB-VERDECKT
 48
5.0
100
AcDbVertex
100
AcDb2dVertex
 10
15.07028961179026
 20
-46.46378226280217
 30
0.0
  0
VERTEX
  5
1C0
330
1AE
100
AcDbEntity
  8
GEB-VERDECKT
 48
5.0
100
AcDbVertex
100
AcDb2dVertex
 10
15.05852782723673
 20
-46.24275870323185
 30
0.0
  0
VERTEX
  5
1C1
330
1AE
100
AcDbEntity
  8
GEB-VERDECKT
 48
5.0
100
AcDbVertex
100
AcDb2dVertex
 10
15.04674756524309
 20
-46.0218531608582
 30
0.0
  0
VERTEX
  5
1C2
330
1AE
100
AcDbEntity
  8
GEB-VERDECKT
 48
5.0
100
AcDbVertex
100
AcDb2dVertex
 10
15.03495120999559
 20
-45.80108470916752
 30
0.0
  0
VERTEX
  5
1C3
330
1AE
100
AcDbEntity
  8
GEB-VERDECKT
 48
5.0
100
AcDbVertex
100
AcDb2dVertex
 10
15.02313876149401
 20
-45.58047361373906
 30
0.0
  0
VERTEX
  5
1C4
330
1AE
100
AcDbEntity
  8
GEB-VERDECKT
 48
5.0
100
AcDbVertex
100
AcDb2dVertex
 10
15.01131260392412
 20
-45.36003894805912
 30
0.0
  0
VERTEX
  5
1C5
330
1AE
100
AcDbEntity
  8
GEB-VERDECKT
 48
5.0
100
AcDbVertex
100
AcDb2dVertex
 10
14.99947333333239
 20
-45.13980216979985
 30
0.0
  0
VERTEX
  5
1C6
330
1AE
100
AcDbEntity
  8
GEB-VERDECKT
 48
5.0
100
AcDbVertex
100
AcDb2dVertex
 10
14.98762273785814
 20
-44.91978354454045
 30
0.0
  0
VERTEX
  5
1C7
330
1AE
100
AcDbEntity
  8
GEB-VERDECKT
 48
5.0
100
AcDbVertex
100
AcDb2dVertex
 10
14.97576141354784
 20
-44.69999976158146
 30
0.0
  0
SEQEND
  5
1C8
330
1AE
100
AcDbEntity
  8
GEB-VERDECKT
 48
5.0
  0
LINE
  5
1C9
330
2
100
AcDbEntity
  8
GEB-KONTUR-A
 48
5.0
100
AcDbLine
 10
16.49999999997453
 20
-55.7875243544579
 30
0.0
 11
16.49999999997408
 21
-50.00000007152562
 31
0.0
  0
POLYLINE
  5
1CA
330
2
100
AcDbEntity
  8
GEB-KONTUR-A
 48
5.0
100
AcDb2dPolyline
 66
     1
 10
0.0
 20
0.0
 30
0.0
 70
   128
  0
VERTEX
  5
1CB
330
1CA
100
AcDbEntity
  8
GEB-KONTUR-A
 48
5.0
100
AcDbVertex
100
AcDb2dVertex
 10
15.54184520242052
 20
-55.79029209613804
 30
0.0
  0
VERTEX
  5
1CC
330
1CA
100
AcDbEntity
  8
GEB-KONTUR-A
 48
5.0
100
AcDbVertex
100
AcDb2dVertex
 10
15.53039693829851
 20
-55.55046058893208
 30
0.0
  0
VERTEX
  5
1CD
330
1CA
100
AcDbEntity
  8
GEB-KONTUR-A
 48
5.0
100
AcDbVertex
100
AcDb2dVertex
 10
15.51888906953172
 20
-55.31022168397908
 30
0.0
  0
VERTEX
  5
1CE
330
1CA
100
AcDbEntity
  8
GEB-KONTUR-A
 48
5.0
100
AcDbVertex
100
AcDb2dVertex
 10
15.50732338425951
 20
-55.06961531639103
 30
0.0
  0
VERTEX
  5
1CF
330
1CA
100
AcDbEntity
  8
GEB-KONTUR-A
 48
5.0
100
AcDbVertex
100
AcDb2dVertex
 10
15.49570226666765
 20
-54.8286820173264
 30
0.0
  0
VERTEX
  5
1D0
330
1CA
100
AcDbEntity
  8
GEB-KONTUR-A
 48
5.0
100
AcDbVertex
100
AcDb2dVertex
 10
15.48402869698839
 20
-54.58746142387394
 30
0.0
  0
VERTEX
  5
1D1
330
1CA
100
AcDbEntity
  8
GEB-KONTUR-A
 48
5.0
100
AcDbVertex
100
AcDb2dVertex
 10
15.47230386731462
 20
-54.3459937691689
 30
0.0
  0
VERTEX
  5
1D2
330
1CA
100
AcDbEntity
  8
GEB-KONTUR-A
 48
5.0
100
AcDbVertex
100
AcDb2dVertex
 10
15.46053135392481
 20
-54.1043195843697
 30
0.0
  0
VERTEX
  5
1D3
330
1CA
100
AcDbEntity
  8
GEB-KONTUR-A
 48
5.0
100
AcDbVertex
100
AcDb2dVertex
 10
15.44871175286585
 20
-53.86247820854191
 30
0.0
  0
VERTEX
  5
1D4
330
1CA
100
AcDbEntity
  8
GEB-KONTUR-A
 48
5.0
100
AcDbVertex
100
AcDb2dVertex
 10
15.43684923646265
 20
-53.62051017284398
 30
0.0
  0
VERTEX
  5
1D5
330
1CA
100
AcDbEntity
  8
GEB-KONTUR-A
 48
5.0
100
AcDbVertex
100
AcDb2dVertex
 10
15.42494440076166
 20
-53.37845571041111
 30
0.0
  0
VERTEX
  5
1D6
330
1CA
100
AcDbEntity
  8
GEB-KONTUR-A
 48
5.0
100
AcDbVertex
100
AcDb2dVertex
 10
15.41300082204157
 20
-53.13635475635533
 30
0.0
  0
VERTEX
  5
1D7
330
1CA
100
AcDbEntity
  8
GEB-KONTUR-A
 48
5.0
100
AcDbVertex
100
AcDb2dVertex
 10
15.40102028844171
 20
-52.89424784183506
 30
0.0
  0
VERTEX
  5
1D8
330
1CA
100
AcDbEntity
  8
GEB-KONTUR-A
 48
5.0
100
AcDbVertex
100
AcDb2dVertex
 10
15.38900518414789
 20
-52.65217430591587
 30
0.0
  0
VERTEX
  5
1D9
330
1CA
100
AcDbEntity
  8
GEB-KONTUR-A
 48
5.0
100
AcDbVertex
100
AcDb2dVertex
 10
15.37695729729944
 20
-52.41017467975621
 30
0.0
  0
VERTEX
  5
1DA
330
1CA
100
AcDbEntity
  8
GEB-KONTUR-A
 48
5.0
100
AcDbVertex
100
AcDb2dVertex
 10
15.3648796081286
 20
-52.16828889846806
 30
0.0
  0
VERTEX
  5
1DB
330
1CA
100
AcDbEntity
  8
GEB-KONTUR-A
 48
5.0
100
AcDbVertex
100
AcDb2dVertex
 10
15.35277390477472
 20
-51.92655689716343
 30
0.0
  0
VERTEX
  5
1DC
330
1CA
100
AcDbEntity
  8
GEB-KONTUR-A
 48
5.0
100
AcDbVertex
100
AcDb2dVertex
 10
15.34064257142359
 20
-51.68501980304722
 30
0.0
  0
VERTEX
  5
1DD
330
1CA
100
AcDbEntity
  8
GEB-KONTUR-A
 48
5.0
100
AcDbVertex
100
AcDb2dVertex
 10
15.32848799226099
 20
-51.44371695518498
 30
0.0
  0
VERTEX
  5
1DE
330
1CA
100
AcDbEntity
  8
GEB-KONTUR-A
 48
5.0
100
AcDbVertex
100
AcDb2dVertex
 10
15.31631255147272
 20
-51.20268769264225
 30
0.0
  0
VERTEX
  5
1DF
330
1CA
100
AcDbEntity
  8
GEB-KONTUR-A
 48
5.0
100
AcDbVertex
100
AcDb2dVertex
 10
15.30411803719812
 20
-50.96197373867039
 30
0.0
  0
VERTEX
  5
1E0
330
1CA
100
AcDbEntity
  8
GEB-KONTUR-A
 48
5.0
100
AcDbVertex
100
AcDb2dVertex
 10
15.29190802571565
 20
-50.72161443233494
 30
0.0
  0
VERTEX
  5
1E1
330
1CA
100
AcDbEntity
  8
GEB-KONTUR-A
 48
5.0
100
AcDbVertex
100
AcDb2dVertex
 10
15.27966940400392
 20
-50.48137731552128
 30
0.0
  0
VERTEX
  5
1E2
330
1CA
100
AcDbEntity
  8
GEB-KONTUR-A
 48
5.0
100
AcDbVertex
100
AcDb2dVertex
 10
15.26738190648348
 20
-50.24083323478703
 30
0.0
  0
VERTEX
  5
1E3
330
1CA
100
AcDbEntity
  8
GEB-KONTUR-A
 48
5.0
100
AcDbVertex
100
AcDb2dVertex
 10
15.25504553315431
 20
-50.00000007152562
 30
0.0
  0
SEQEND
  5
1E4
330
1CA
100
AcDbEntity
  8
GEB-KONTUR-A
 48
5.0
  0
LINE
  5
1E5
330
2
100
AcDbEntity
  8
GEB-KONTUR-A
 48
5.0
100
AcDbLine
 10
16.49999999997453
 20
-55.78752437509217
 30
0.0
 11
15.54184507279615
 21
-55.79029209597241
 31
0.0
  0
LINE
  5
1E6
330
2
100
AcDbEntity
  8
GEB-KONTUR-A
 48
5.0
100
AcDbLine
 10
16.49999999997453
 20
-55.78752437509217
 30
0.0
 11
16.49999999997431
 21
-55.79964018741975
 31
0.0
  0
ELLIPSE
  5
1E7
330
2
100
AcDbEntity
  8
GEB-KONTUR-A
 48
5.0
100
AcDbEllipse
 10
21.49999999997726
 20
-55.64420772476182
 30
0.0
 11
10.72360822307286
 21
-0.0000000000000204
 31
0.0
210
0.0
220
0.0
230
1.0
 40
0.0163844048799152
 41
4.123291300225661
 42
4.227329507707107
  0
LINE
  5
1E8
330
2
100
AcDbEntity
  8
GEB-VERDECKT
 48
5.0
100
AcDbLine
 10
25.49999999997363
 20
-37.25
 30
0.0
 11
17.49999999997362
 21
-37.25
 31
0.0
  0
LINE
  5
1E9
330
2
100
AcDbEntity
  8
GEB-KONTUR-A
 48
5.0
100
AcDbLine
 10
16.49999999997431
 20
-55.95707811117176
 30
0.0
 11
16.49999999997431
 21
-55.79964019060139
 31
0.0
  0
LINE
  5
1EA
330
2
100
AcDbEntity
  8
GEB-KONTUR-A
 48
5.0
100
AcDbLine
 10
26.49999999997431
 20
-55.79964019060139
 30
0.0
 11
26.49999999997431
 21
-55.95707811117176
 31
0.0
  0
LINE
  5
1EB
330
2
100
AcDbEntity
  8
GEB-KONTUR-A
 48
5.0
100
AcDbLine
 10
26.49999999997431
 20
-55.79964018741975
 30
0.0
 11
26.49999999997453
 21
-55.78752437509217
 31
0.0
  0
ELLIPSE
  5
1EC
330
2
100
AcDbEntity
  8
GEB-KONTUR-A
 48
5.0
100
AcDbEllipse
 10
21.49999999997726
 20
-55.64420772476182
 30
0.0
 11
10.72360822307286
 21
-0.0000000000000081
 31
0.0
210
0.0
220
0.0
230
1.0
 40
0.0163844048799152
 41
5.197448453061673
 42
5.301486660543627
  0
LINE
  5
1ED
330
2
100
AcDbEntity
  8
GEB-KONTUR-A
 48
5.0
100
AcDbLine
 10
26.49999999997453
 20
-55.78752437509217
 30
0.0
 11
27.45815492715315
 21
-55.79029209597241
 31
0.0
  0
LINE
  5
1EE
330
2
100
AcDbEntity
  8
GEB-KONTUR-A
 48
5.0
100
AcDbLine
 10
26.49999999997408
 20
-50.00000007152562
 30
0.0
 11
26.49999999997453
 21
-55.7875243544579
 31
0.0
  0
POLYLINE
  5
1EF
330
2
100
AcDbEntity
  8
GEB-KONTUR-A
 48
5.0
100
AcDb2dPolyline
 66
     1
 10
0.0
 20
0.0
 30
0.0
 70
   128
  0
VERTEX
  5
1F0
330
1EF
100
AcDbEntity
  8
GEB-KONTUR-A
 48
5.0
100
AcDbVertex
100
AcDb2dVertex
 10
27.7449538707474
 20
-50.00000007152562
 30
0.0
  0
VERTEX
  5
1F1
330
1EF
100
AcDbEntity
  8
GEB-KONTUR-A
 48
5.0
100
AcDbVertex
100
AcDb2dVertex
 10
27.73262107369692
 20
-50.24078137874607
 30
0.0
  0
VERTEX
  5
1F2
330
1EF
100
AcDbEntity
  8
GEB-KONTUR-A
 48
5.0
100
AcDbVertex
100
AcDb2dVertex
 10
27.72033596036227
 20
-50.48127241134648
 30
0.0
  0
VERTEX
  5
1F3
330
1EF
100
AcDbEntity
  8
GEB-KONTUR-A
 48
5.0
100
AcDbVertex
100
AcDb2dVertex
 10
27.70809912678988
 20
-50.72147257328038
 30
0.0
  0
VERTEX
  5
1F4
330
1EF
100
AcDbEntity
  8
GEB-KONTUR-A
 48
5.0
100
AcDbVertex
100
AcDb2dVertex
 10
27.6958873271683
 20
-50.96186347007756
 30
0.0
  0
VERTEX
  5
1F5
330
1EF
100
AcDbEntity
  8
GEB-KONTUR-A
 48
5.0
100
AcDbVertex
100
AcDb2dVertex
 10
27.68369162080103
 20
-51.20260603427891
 30
0.0
  0
VERTEX
  5
1F6
330
1EF
100
AcDbEntity
  8
GEB-KONTUR-A
 48
5.0
100
AcDbVertex
100
AcDb2dVertex
 10
27.67151498791986
 20
-51.44366033077244
 30
0.0
  0
VERTEX
  5
1F7
330
1EF
100
AcDbEntity
  8
GEB-KONTUR-A
 48
5.0
100
AcDbVertex
100
AcDb2dVertex
 10
27.65935981271082
 20
-51.68498642444615
 30
0.0
  0
VERTEX
  5
1F8
330
1EF
100
AcDbEntity
  8
GEB-KONTUR-A
 48
5.0
100
AcDbVertex
100
AcDb2dVertex
 10
27.64722728726679
 20
-51.92654438018803
 30
0.0
  0
VERTEX
  5
1F9
330
1EF
100
AcDbEntity
  8
GEB-KONTUR-A
 48
5.0
100
AcDbVertex
100
AcDb2dVertex
 10
27.63512098786646
 20
-52.16829366683964
 30
0.0
  0
VERTEX
  5
1FA
330
1EF
100
AcDbEntity
  8
GEB-KONTUR-A
 48
5.0
100
AcDbVertex
100
AcDb2dVertex
 10
27.62304210660273
 20
-52.41019494533543
 30
0.0
  0
VERTEX
  5
1FB
330
1EF
100
AcDbEntity
  8
GEB-KONTUR-A
 48
5.0
100
AcDbVertex
100
AcDb2dVertex
 10
27.61099362370783
 20
-52.65220768451695
 30
0.0
  0
VERTEX
  5
1FC
330
1EF
100
AcDbEntity
  8
GEB-KONTUR-A
 48
5.0
100
AcDbVertex
100
AcDb2dVertex
 10
27.59897792336756
 20
-52.8942919492722
 30
0.0
  0
VERTEX
  5
1FD
330
1EF
100
AcDbEntity
  8
GEB-KONTUR-A
 48
5.0
100
AcDbVertex
100
AcDb2dVertex
 10
27.58699679372126
 20
-53.13640720844273
 30
0.0
  0
VERTEX
  5
1FE
330
1EF
100
AcDbEntity
  8
GEB-KONTUR-A
 48
5.0
100
AcDbVertex
100
AcDb2dVertex
 10
27.57505261895472
 20
-53.37851412296299
 30
0.0
  0
VERTEX
  5
1FF
330
1EF
100
AcDbEntity
  8
GEB-KONTUR-A
 48
5.0
100
AcDbVertex
100
AcDb2dVertex
 10
27.56314778325373
 20
-53.62057216167454
 30
0.0
  0
VERTEX
  5
200
330
1EF
100
AcDbEntity
  8
GEB-KONTUR-A
 48
5.0
100
AcDbVertex
100
AcDb2dVertex
 10
27.55128526685053
 20
-53.8625416874886
 30
0.0
  0
VERTEX
  5
201
330
1EF
100
AcDbEntity
  8
GEB-KONTUR-A
 48
5.0
100
AcDbVertex
100
AcDb2dVertex
 10
27.53946626183802
 20
-54.10438216924672
 30
0.0
  0
VERTEX
  5
202
330
1EF
100
AcDbEntity
  8
GEB-KONTUR-A
 48
5.0
100
AcDbVertex
100
AcDb2dVertex
 10
27.52769315240221
 20
-54.3460536718369
 30
0.0
  0
VERTEX
  5
203
330
1EF
100
AcDbEntity
  8
GEB-KONTUR-A
 48
5.0
100
AcDbVertex
100
AcDb2dVertex
 10
27.51596891877489
 20
-54.58751626014714
 30
0.0
  0
VERTEX
  5
204
330
1EF
100
AcDbEntity
  8
GEB-KONTUR-A
 48
5.0
100
AcDbVertex
100
AcDb2dVertex
 10
27.50429534909563
 20
-54.82872970104222
 30
0.0
  0
VERTEX
  5
205
330
1EF
100
AcDbEntity
  8
GEB-KONTUR-A
 48
5.0
100
AcDbVertex
100
AcDb2dVertex
 10
27.49267482755022
 20
-55.06965405941014
 30
0.0
  0
VERTEX
  5
206
330
1EF
100
AcDbEntity
  8
GEB-KONTUR-A
 48
5.0
100
AcDbVertex
100
AcDb2dVertex
 10
27.48110973832445
 20
-55.3102494001389
 30
0.0
  0
VERTEX
  5
207
330
1EF
100
AcDbEntity
  8
GEB-KONTUR-A
 48
5.0
100
AcDbVertex
100
AcDb2dVertex
 10
27.46960246560411
 20
-55.55047549009327
 30
0.0
  0
VERTEX
  5
208
330
1EF
100
AcDbEntity
  8
GEB-KONTUR-A
 48
5.0
100
AcDbVertex
100
AcDb2dVertex
 10
27.45815479752855
 20
-55.79029209613804
 30
0.0
  0
SEQEND
  5
209
330
1EF
100
AcDbEntity
  8
GEB-KONTUR-A
 48
5.0
  0
LINE
  5
20A
330
2
100
AcDbEntity
  8
GEB-VERDECKT
 48
5.0
100
AcDbLine
 10
26.49999999997362
 20
-44.69999976158146
 30
0.0
 11
26.49999999997408
 21
-50.00000007152562
 31
0.0
  0
POLYLINE
  5
20B
330
2
100
AcDbEntity
  8
GEB-VERDECKT
 48
5.0
100
AcDb2dPolyline
 66
     1
 10
0.0
 20
0.0
 30
0.0
 70
   128
  0
VERTEX
  5
20C
330
20B
100
AcDbEntity
  8
GEB-VERDECKT
 48
5.0
100
AcDbVertex
100
AcDb2dVertex
 10
28.0242385863994
 20
-44.69999976158146
 30
0.0
  0
VERTEX
  5
20D
330
20B
100
AcDbEntity
  8
GEB-VERDECKT
 48
5.0
100
AcDbVertex
100
AcDb2dVertex
 10
28.01237666604265
 20
-44.91979904174809
 30
0.0
  0
VERTEX
  5
20E
330
20B
100
AcDbEntity
  8
GEB-VERDECKT
 48
5.0
100
AcDbVertex
100
AcDb2dVertex
 10
28.00052487847552
 20
-45.13983316421513
 30
0.0
  0
VERTEX
  5
20F
330
20B
100
AcDbEntity
  8
GEB-VERDECKT
 48
5.0
100
AcDbVertex
100
AcDb2dVertex
 10
27.98868501183733
 20
-45.36008305549626
 30
0.0
  0
VERTEX
  5
210
330
20B
100
AcDbEntity
  8
GEB-VERDECKT
 48
5.0
100
AcDbVertex
100
AcDb2dVertex
 10
27.976858258221
 20
-45.58052845001225
 30
0.0
  0
VERTEX
  5
211
330
20B
100
AcDbEntity
  8
GEB-VERDECKT
 48
5.0
100
AcDbVertex
100
AcDb2dVertex
 10
27.96504521367296
 20
-45.80114908218388
 30
0.0
  0
VERTEX
  5
212
330
20B
100
AcDbEntity
  8
GEB-VERDECKT
 48
5.0
100
AcDbVertex
100
AcDb2dVertex
 10
27.95324826237902
 20
-46.02192707061772
 30
0.0
  0
VERTEX
  5
213
330
20B
100
AcDbEntity
  8
GEB-VERDECKT
 48
5.0
100
AcDbVertex
100
AcDb2dVertex
 10
27.94146800038561
 20
-46.24283976554875
 30
0.0
  0
VERTEX
  5
214
330
20B
100
AcDbEntity
  8
GEB-VERDECKT
 48
5.0
100
AcDbVertex
100
AcDb2dVertex
 10
27.92970561978587
 20
-46.46386928558354
 30
0.0
  0
VERTEX
  5
215
330
20B
100
AcDbEntity
  8
GEB-VERDECKT
 48
5.0
100
AcDbVertex
100
AcDb2dVertex
 10
27.91796231267222
 20
-46.68499536514286
 30
0.0
  0
VERTEX
  5
216
330
20B
100
AcDbEntity
  8
GEB-VERDECKT
 48
5.0
100
AcDbVertex
100
AcDb2dVertex
 10
27.90623986718424
 20
-46.9061977386475
 30
0.0
  0
VERTEX
  5
217
330
20B
100
AcDbEntity
  8
GEB-VERDECKT
 48
5.0
100
AcDbVertex
100
AcDb2dVertex
 10
27.89453887936839
 20
-47.12745733261113
 30
0.0
  0
VERTEX
  5
218
330
20B
100
AcDbEntity
  8
GEB-VERDECKT
 48
5.0
100
AcDbVertex
100
AcDb2dVertex
 10
27.88286054131754
 20
-47.34875507354741
 30
0.0
  0
VERTEX
  5
219
330
20B
100
AcDbEntity
  8
GEB-VERDECKT
 48
5.0
100
AcDbVertex
100
AcDb2dVertex
 10
27.87120604512461
 20
-47.57006831169133
 30
0.0
  0
VERTEX
  5
21A
330
20B
100
AcDbEntity
  8
GEB-VERDECKT
 48
5.0
100
AcDbVertex
100
AcDb2dVertex
 10
27.85957717892893
 20
-47.79138035774235
 30
0.0
  0
VERTEX
  5
21B
330
20B
100
AcDbEntity
  8
GEB-VERDECKT
 48
5.0
100
AcDbVertex
100
AcDb2dVertex
 10
27.8479751348234
 20
-48.01266975402836
 30
0.0
  0
VERTEX
  5
21C
330
20B
100
AcDbEntity
  8
GEB-VERDECKT
 48
5.0
100
AcDbVertex
100
AcDb2dVertex
 10
27.83640110490092
 20
-48.23391683101658
 30
0.0
  0
VERTEX
  5
21D
330
20B
100
AcDbEntity
  8
GEB-VERDECKT
 48
5.0
100
AcDbVertex
100
AcDb2dVertex
 10
27.82485568520792
 20
-48.45510191917424
 30
0.0
  0
VERTEX
  5
21E
330
20B
100
AcDbEntity
  8
GEB-VERDECKT
 48
5.0
100
AcDbVertex
100
AcDb2dVertex
 10
27.81334006783732
 20
-48.67620534896855
 30
0.0
  0
VERTEX
  5
21F
330
20B
100
AcDbEntity
  8
GEB-VERDECKT
 48
5.0
100
AcDbVertex
100
AcDb2dVertex
 10
27.80185663697489
 20
-48.89720745086674
 30
0.0
  0
VERTEX
  5
220
330
20B
100
AcDbEntity
  8
GEB-VERDECKT
 48
5.0
100
AcDbVertex
100
AcDb2dVertex
 10
27.79040598866709
 20
-49.11808795928959
 30
0.0
  0
VERTEX
  5
221
330
20B
100
AcDbEntity
  8
GEB-VERDECKT
 48
5.0
100
AcDbVertex
100
AcDb2dVertex
 10
27.77898871896037
 20
-49.33882720470433
 30
0.0
  0
VERTEX
  5
222
330
20B
100
AcDbEntity
  8
GEB-VERDECKT
 48
5.0
100
AcDbVertex
100
AcDb2dVertex
 10
27.76760721204073
 20
-49.55940551757817
 30
0.0
  0
VERTEX
  5
223
330
20B
100
AcDbEntity
  8
GEB-VERDECKT
 48
5.0
100
AcDbVertex
100
AcDb2dVertex
 10
27.75626146790774
 20
-49.77980322837834
 30
0.0
  0
VERTEX
  5
224
330
20B
100
AcDbEntity
  8
GEB-VERDECKT
 48
5.0
100
AcDbVertex
100
AcDb2dVertex
 10
27.7449538707474
 20
-50.00000007152562
 30
0.0
  0
SEQEND
  5
225
330
20B
100
AcDbEntity
  8
GEB-VERDECKT
 48
5.0
  0
LINE
  5
226
330
2
100
AcDbEntity
  8
GEB-KONTUR-A
 48
5.0
100
AcDbLine
 10
10.77154442633013
 20
-55.98312864254172
 30
0.0
 11
9.999999999977262
 21
-56.19999999999993
 31
0.0
  0
LINE
  5
227
330
2
100
AcDbEntity
  8
GEB-KONTUR-A
 48
5.0
100
AcDbLine
 10
32.22845557362416
 20
-55.98312864254172
 30
0.0
 11
32.99999999997704
 21
-56.19999999999993
 31
0.0
  0
LINE
  5
228
330
2
100
AcDbEntity
  8
GEB-KONTUR-A
 48
5.0
100
AcDbLine
 10
32.43782535377227
 20
-58.20000000000004
 30
0.0
 11
32.99999999997726
 21
-56.19999999999993
 31
0.0
  0
LINE
  5
229
330
2
100
AcDbEntity
  8
GEB-KONTUR-A
 48
5.0
100
AcDbLine
 10
10.56217464618225
 20
-58.20000000000004
 30
0.0
 11
9.999999999977262
 21
-56.19999999999993
 31
0.0
  0
LINE
  5
22A
330
2
100
AcDbEntity
  8
GEB-KONTUR-A
 48
5.0
100
AcDbLine
 10
32.99999999997726
 20
-56.19999999999993
 30
0.0
 11
9.999999999977262
 21
-56.19999999999993
 31
0.0
  0
LINE
  5
22B
330
2
100
AcDbEntity
  8
GEB-KONTUR-A
 48
5.0
100
AcDbLine
 10
32.43782535377227
 20
-58.20000000000004
 30
0.0
 11
10.56217464618225
 21
-58.20000000000004
 31
0.0
  0
LINE
  5
22C
330
2
100
AcDbEntity
  8
GEB-KONTUR-A
 48
5.0
100
AcDbLine
 10
16.49999999997431
 20
-55.95707816094978
 30
0.0
 11
13.97936922909184
 21
-55.95707816094978
 31
0.0
  0
LINE
  5
22D
330
2
100
AcDbEntity
  8
GEB-KONTUR-A
 48
5.0
100
AcDbLine
 10
29.02063077085813
 20
-55.95707816094978
 30
0.0
 11
26.49999999997431
 21
-55.95707816094978
 31
0.0
  0
LINE
  5
22E
330
2
100
AcDbEntity
  8
GEB-VERDECKT
 48
5.0
100
AcDbLine
 10
29.74999999997726
 20
-58.20000000000004
 30
0.0
 11
29.74999999997726
 21
-52.20000000000005
 31
0.0
  0
LINE
  5
22F
330
2
100
AcDbEntity
  8
GEB-VERDECKT
 48
5.0
100
AcDbLine
 10
13.24999999997726
 20
-58.20000000000004
 30
0.0
 11
13.24999999997726
 21
-52.20000000000005
 31
0.0
  0
LINE
  5
230
330
2
100
AcDbEntity
  8
GEB-VERDECKT
 48
5.0
100
AcDbLine
 10
29.74999999997726
 20
-52.20000000000005
 30
0.0
 11
30.21492433966523
 21
-50.92263087495201
 31
0.0
  0
LINE
  5
231
330
2
100
AcDbEntity
  8
GEB-VERDECKT
 48
5.0
100
AcDbLine
 10
13.24999999997726
 20
-52.20000000000005
 30
0.0
 11
12.78507566028906
 21
-50.92263087495201
 31
0.0
  0
LINE
  5
232
330
2
100
AcDbEntity
  8
GEB-VERDECKT
 48
5.0
100
AcDbLine
 10
30.21492433966523
 20
-50.92263087495201
 30
0.0
 11
31.74999999997704
 21
-39.99999999999989
 31
0.0
  0
LINE
  5
233
330
2
100
AcDbEntity
  8
GEB-VERDECKT
 48
5.0
100
AcDbLine
 10
12.78507566028906
 20
-50.92263087495201
 30
0.0
 11
11.24999999997726
 21
-39.99999999999989
 31
0.0
  0
LINE
  5
234
330
2
100
AcDbEntity
  8
GEB-VERDECKT
 48
5.0
100
AcDbLine
 10
33.09999999997717
 20
-39.99999999999989
 30
0.0
 11
33.09999999997717
 21
-24.69282032302749
 31
0.0
  0
LINE
  5
235
330
2
100
AcDbEntity
  8
GEB-VERDECKT
 48
5.0
100
AcDbLine
 10
9.899999999977353
 20
-31.74999999999989
 30
0.0
 11
9.899999999977353
 21
-24.69282032302749
 31
0.0
  0
LINE
  5
236
330
2
100
AcDbEntity
  8
GEB-VERDECKT
 48
5.0
100
AcDbLine
 10
9.899999999977353
 20
-39.99999999999989
 30
0.0
 11
9.899999999977353
 21
-31.84999999999991
 31
0.0
  0
LINE
  5
237
330
2
100
AcDbEntity
  8
GEB-VERDECKT
 48
5.0
100
AcDbLine
 10
33.09999999997717
 20
-24.69282032302749
 30
0.0
 11
33.49999999997726
 21
-24.0
 31
0.0
  0
LINE
  5
238
330
2
100
AcDbEntity
  8
GEB-VERDECKT
 48
5.0
100
AcDbLine
 10
9.899999999977353
 20
-24.69282032302749
 30
0.0
 11
9.499999999977262
 21
-24.0
 31
0.0
  0
LINE
  5
239
330
2
100
AcDbEntity
  8
GEB-VERDECKT
 48
5.0
100
AcDbLine
 10
29.74999999997726
 20
-52.20000000000005
 30
0.0
 11
13.24999999997726
 21
-52.20000000000005
 31
0.0
  0
LINE
  5
23A
330
2
100
AcDbEntity
  8
GEB-VERDECKT
 48
5.0
100
AcDbLine
 10
30.21492433966523
 20
-50.92263087495201
 30
0.0
 11
12.78507566028906
 21
-50.92263087495201
 31
0.0
  0
LINE
  5
23B
330
2
100
AcDbEntity
  8
GEB-VERDECKT
 48
5.0
100
AcDbLine
 10
33.09999999997717
 20
-39.99999999999989
 30
0.0
 11
9.899999999977353
 21
-39.99999999999989
 31
0.0
  0
LINE
  5
23C
330
2
100
AcDbEntity
  8
GEB-VERDECKT
 48
5.0
100
AcDbLine
 10
33.09999999997717
 20
-24.69282032302749
 30
0.0
 11
9.899999999977353
 21
-24.69282032302749
 31
0.0
  0
LINE
  5
23D
330
2
100
AcDbEntity
  8
GEB-VERDECKT
 48
5.0
100
AcDbLine
 10
14.97576125287423
 20
-44.69999999999993
 30
0.0
 11
11.74192641960007
 21
-44.69999999999993
 31
0.0
  0
LINE
  5
23E
330
2
100
AcDbEntity
  8
GEB-VERDECKT
 48
5.0
100
AcDbLine
 10
31.25807358034876
 20
-44.69999999999993
 30
0.0
 11
28.02423874707301
 21
-44.69999999999993
 31
0.0
  0
LINE
  5
23F
330
2
100
AcDbEntity
  8
GEB-VERDECKT
 48
5.0
100
AcDbLine
 10
16.49999999997362
 20
-32.75
 30
0.0
 11
16.49999999997362
 21
-36.24999999999989
 31
0.0
  0
LINE
  5
240
330
2
100
AcDbEntity
  8
GEB-VERDECKT
 48
5.0
100
AcDbLine
 10
16.49999999997362
 20
-44.69999999999993
 30
0.0
 11
16.49999999997362
 21
-36.24999999999989
 31
0.0
  0
LINE
  5
241
330
2
100
AcDbEntity
  8
GEB-VERDECKT
 48
5.0
100
AcDbLine
 10
14.97576125287423
 20
-44.69999999999993
 30
0.0
 11
16.49999999997362
 21
-44.69999999999993
 31
0.0
  0
LINE
  5
242
330
2
100
AcDbEntity
  8
GEB-VERDECKT
 48
5.0
100
AcDbLine
 10
26.49999999997362
 20
-36.24999999999989
 30
0.0
 11
26.49999999997362
 21
-44.69999999999993
 31
0.0
  0
LINE
  5
243
330
2
100
AcDbEntity
  8
GEB-VERDECKT
 48
5.0
100
AcDbLine
 10
26.49999999997362
 20
-36.24999999999989
 30
0.0
 11
26.49999999997362
 21
-32.75
 31
0.0
  0
LINE
  5
244
330
2
100
AcDbEntity
  8
GEB-VERDECKT
 48
5.0
100
AcDbLine
 10
28.02423874707301
 20
-44.69999999999993
 30
0.0
 11
26.49999999997362
 21
-44.69999999999993
 31
0.0
  0
LINE
  5
245
330
2
100
AcDbEntity
  8
GEB-VERDECKT
 48
5.0
100
AcDbLine
 10
14.97576125287423
 20
-44.69999999999993
 30
0.0
 11
14.97576125287423
 21
-32.75
 31
0.0
  0
LINE
  5
246
330
2
100
AcDbEntity
  8
GEB-VERDECKT
 48
5.0
100
AcDbLine
 10
28.02423874707301
 20
-32.75
 30
0.0
 11
28.02423874707301
 21
-44.70000000000005
 31
0.0
  0
POLYLINE
  5
247
330
2
100
AcDbEntity
  8
GEB-VERDECKT
 48
5.0
100
AcDb2dPolyline
 66
     1
 10
0.0
 20
0.0
 30
0.0
 70
   128
  0
VERTEX
  5
248
330
247
100
AcDbEntity
  8
GEB-VERDECKT
 48
5.0
100
AcDbVertex
100
AcDb2dVertex
 10
14.96452653405413
 20
-32.74999923706059
 30
0.0
  0
VERTEX
  5
249
330
247
100
AcDbEntity
  8
GEB-VERDECKT
 48
5.0
100
AcDbVertex
100
AcDb2dVertex
 10
14.96966207024797
 20
-32.56161518096928
 30
0.0
  0
VERTEX
  5
24A
330
247
100
AcDbEntity
  8
GEB-VERDECKT
 48
5.0
100
AcDbVertex
100
AcDb2dVertex
 10
14.98494589326128
 20
-32.37349338531499
 30
0.0
  0
VERTEX
  5
24B
330
247
100
AcDbEntity
  8
GEB-VERDECKT
 48
5.0
100
AcDbVertex
100
AcDb2dVertex
 10
15.01019322869524
 20
-32.18646593093877
 30
0.0
  0
VERTEX
  5
24C
330
247
100
AcDbEntity
  8
GEB-VERDECKT
 48
5.0
100
AcDbVertex
100
AcDb2dVertex
 10
15.04522049424395
 20
-32.00136013031011
 30
0.0
  0
VERTEX
  5
24D
330
247
100
AcDbEntity
  8
GEB-VERDECKT
 48
5.0
100
AcDbVertex
100
AcDb2dVertex
 10
15.08984291550859
 20
-31.81900568008428
 30
0.0
  0
VERTEX
  5
24E
330
247
100
AcDbEntity
  8
GEB-VERDECKT
 48
5.0
100
AcDbVertex
100
AcDb2dVertex
 10
15.14387631413683
 20
-31.64023466110234
 30
0.0
  0
VERTEX
  5
24F
330
247
100
AcDbEntity
  8
GEB-VERDECKT
 48
5.0
100
AcDbVertex
100
AcDb2dVertex
 10
15.20711684224352
 20
-31.46593637466435
 30
0.0
  0
VERTEX
  5
250
330
247
100
AcDbEntity
  8
GEB-VERDECKT
 48
5.0
100
AcDbVertex
100
AcDb2dVertex
 10
15.27936959264025
 20
-31.29704065322881
 30
0.0
  0
VERTEX
  5
251
330
247
100
AcDbEntity
  8
GEB-VERDECKT
 48
5.0
100
AcDbVertex
100
AcDb2dVertex
 10
15.36062383649096
 20
-31.1339981079102
 30
0.0
  0
VERTEX
  5
252
330
247
100
AcDbEntity
  8
GEB-VERDECKT
 48
5.0
100
AcDbVertex
100
AcDb2dVertex
 10
15.45088613030657
 20
-30.97720928192143
 30
0.0
  0
VERTEX
  5
253
330
247
100
AcDbEntity
  8
GEB-VERDECKT
 48
5.0
100
AcDbVertex
100
AcDb2dVertex
 10
15.55016183850512
 20
-30.82707948684697
 30
0.0
  0
VERTEX
  5
254
330
247
100
AcDbEntity
  8
GEB-VERDECKT
 48
5.0
100
AcDbVertex
100
AcDb2dVertex
 10
15.65845751759752
 20
-30.6840092658997
 30
0.0
  0
VERTEX
  5
255
330
247
100
AcDbEntity
  8
GEB-VERDECKT
 48
5.0
100
AcDbVertex
100
AcDb2dVertex
 10
15.77575528619036
 20
-30.54843015670781
 30
0.0
  0
VERTEX
  5
256
330
247
100
AcDbEntity
  8
GEB-VERDECKT
 48
5.0
100
AcDbVertex
100
AcDb2dVertex
 10
15.90136611459002
 20
-30.42150802612309
 30
0.0
  0
VERTEX
  5
257
330
247
100
AcDbEntity
  8
GEB-VERDECKT
 48
5.0
100
AcDbVertex
100
AcDb2dVertex
 10
16.03468084332689
 20
-30.3040797233582
 30
0.0
  0
VERTEX
  5
258
330
247
100
AcDbEntity
  8
GEB-VERDECKT
 48
5.0
100
AcDbVertex
100
AcDb2dVertex
 10
16.17531025407038
 20
-30.19666976928716
 30
0.0
  0
VERTEX
  5
259
330
247
100
AcDbEntity
  8
GEB-VERDECKT
 48
5.0
100
AcDbVertex
100
AcDb2dVertex
 10
16.32286393639765
 20
-30.09980745315556
 30
0.0
  0
VERTEX
  5
25A
330
247
100
AcDbEntity
  8
GEB-VERDECKT
 48
5.0
100
AcDbVertex
100
AcDb2dVertex
 10
16.47695207593165
 20
-30.01402206420903
 30
0.0
  0
VERTEX
  5
25B
330
247
100
AcDbEntity
  8
GEB-VERDECKT
 48
5.0
100
AcDbVertex
100
AcDb2dVertex
 10
16.63706177470408
 20
-29.93990964889531
 30
0.0
  0
VERTEX
  5
25C
330
247
100
AcDbEntity
  8
GEB-VERDECKT
 48
5.0
100
AcDbVertex
100
AcDb2dVertex
 10
16.80229657885752
 20
-29.87822122573857
 30
0.0
  0
VERTEX
  5
25D
330
247
100
AcDbEntity
  8
GEB-VERDECKT
 48
5.0
100
AcDbVertex
100
AcDb2dVertex
 10
16.97211527821741
 20
-29.82945508956914
 30
0.0
  0
VERTEX
  5
25E
330
247
100
AcDbEntity
  8
GEB-VERDECKT
 48
5.0
100
AcDbVertex
100
AcDb2dVertex
 10
17.14571887252055
 20
-29.79413576126103
 30
0.0
  0
VERTEX
  5
25F
330
247
100
AcDbEntity
  8
GEB-VERDECKT
 48
5.0
100
AcDbVertex
100
AcDb2dVertex
 10
17.32189232108317
 20
-29.77274007797246
 30
0.0
  0
VERTEX
  5
260
330
247
100
AcDbEntity
  8
GEB-VERDECKT
 48
5.0
100
AcDbVertex
100
AcDb2dVertex
 10
17.49999994036852
 20
-29.76554698944097
 30
0.0
  0
SEQEND
  5
261
330
247
100
AcDbEntity
  8
GEB-VERDECKT
 48
5.0
  0
LINE
  5
262
330
2
100
AcDbEntity
  8
GEB-VERDECKT
 48
5.0
100
AcDbLine
 10
17.81884068248018
 20
-31.75000019073491
 30
0.0
 11
17.49999994036898
 21
-31.75000019073491
 31
0.0
  0
POLYLINE
  5
263
330
2
100
AcDbEntity
  8
GEB-VERDECKT
 48
5.0
100
AcDb2dPolyline
 66
     1
 10
0.0
 20
0.0
 30
0.0
 70
   128
  0
VERTEX
  5
264
330
263
100
AcDbEntity
  8
GEB-VERDECKT
 48
5.0
100
AcDbVertex
100
AcDb2dVertex
 10
17.49999994036898
 20
-31.75000019073491
 30
0.0
  0
VERTEX
  5
265
330
263
100
AcDbEntity
  8
GEB-VERDECKT
 48
5.0
100
AcDbVertex
100
AcDb2dVertex
 10
17.43486815688356
 20
-31.7521245002747
 30
0.0
  0
VERTEX
  5
266
330
263
100
AcDbEntity
  8
GEB-VERDECKT
 48
5.0
100
AcDbVertex
100
AcDb2dVertex
 10
17.37004512545809
 20
-31.75848073959355
 30
0.0
  0
VERTEX
  5
267
330
263
100
AcDbEntity
  8
GEB-VERDECKT
 48
5.0
100
AcDbVertex
100
AcDb2dVertex
 10
17.30573856827959
 20
-31.76904983520512
 30
0.0
  0
VERTEX
  5
268
330
263
100
AcDbEntity
  8
GEB-VERDECKT
 48
5.0
100
AcDbVertex
100
AcDb2dVertex
 10
17.24218451974138
 20
-31.78380556106572
 30
0.0
  0
VERTEX
  5
269
330
263
100
AcDbEntity
  8
GEB-VERDECKT
 48
5.0
100
AcDbVertex
100
AcDb2dVertex
 10
17.1798440217708
 20
-31.80263586044316
 30
0.0
  0
VERTEX
  5
26A
330
263
100
AcDbEntity
  8
GEB-VERDECKT
 48
5.0
100
AcDbVertex
100
AcDb2dVertex
 10
17.11896622178301
 20
-31.82543821334844
 30
0.0
  0
VERTEX
  5
26B
330
263
100
AcDbEntity
  8
GEB-VERDECKT
 48
5.0
100
AcDbVertex
100
AcDb2dVertex
 10
17.05973887440905
 20
-31.85212917327886
 30
0.0
  0
VERTEX
  5
26C
330
263
100
AcDbEntity
  8
GEB-VERDECKT
 48
5.0
100
AcDbVertex
100
AcDb2dVertex
 10
17.00234943625673
 20
-31.88262290954595
 30
0.0
  0
VERTEX
  5
26D
330
263
100
AcDbEntity
  8
GEB-VERDECKT
 48
5.0
100
AcDbVertex
100
AcDb2dVertex
 10
16.94698566195711
 20
-31.91682882308965
 30
0.0
  0
VERTEX
  5
26E
330
263
100
AcDbEntity
  8
GEB-VERDECKT
 48
5.0
100
AcDbVertex
100
AcDb2dVertex
 10
16.89384037253603
 20
-31.9546563148499
 30
0.0
  0
VERTEX
  5
26F
330
263
100
AcDbEntity
  8
GEB-VERDECKT
 48
5.0
100
AcDbVertex
100
AcDb2dVertex
 10
16.84327894446596
 20
-31.99586696624761
 30
0.0
  0
VERTEX
  5
270
330
263
100
AcDbEntity
  8
GEB-VERDECKT
 48
5.0
100
AcDbVertex
100
AcDb2dVertex
 10
16.7955484389995
 20
-32.04024620056157
 30
0.0
  0
VERTEX
  5
271
330
263
100
AcDbEntity
  8
GEB-VERDECKT
 48
5.0
100
AcDbVertex
100
AcDb2dVertex
 10
16.7507993578647
 20
-32.08765573501592
 30
0.0
  0
VERTEX
  5
272
330
263
100
AcDbEntity
  8
GEB-VERDECKT
 48
5.0
100
AcDbVertex
100
AcDb2dVertex
 10
16.70918220278963
 20
-32.1379477500916
 30
0.0
  0
VERTEX
  5
273
330
263
100
AcDbEntity
  8
GEB-VERDECKT
 48
5.0
100
AcDbVertex
100
AcDb2dVertex
 10
16.67084747550234
 20
-32.19097681045537
 30
0.0
  0
VERTEX
  5
274
330
263
100
AcDbEntity
  8
GEB-VERDECKT
 48
5.0
100
AcDbVertex
100
AcDb2dVertex
 10
16.6359483599399
 20
-32.24659748077397
 30
0.0
  0
VERTEX
  5
275
330
263
100
AcDbEntity
  8
GEB-VERDECKT
 48
5.0
100
AcDbVertex
100
AcDb2dVertex
 10
16.60474145409807
 20
-32.30445213317876
 30
0.0
  0
VERTEX
  5
276
330
263
100
AcDbEntity
  8
GEB-VERDECKT
 48
5.0
100
AcDbVertex
100
AcDb2dVertex
 10
16.5773996114467
 20
-32.36424036026006
 30
0.0
  0
VERTEX
  5
277
330
263
100
AcDbEntity
  8
GEB-VERDECKT
 48
5.0
100
AcDbVertex
100
AcDb2dVertex
 10
16.55401909348711
 20
-32.42577619552617
 30
0.0
  0
VERTEX
  5
278
330
263
100
AcDbEntity
  8
GEB-VERDECKT
 48
5.0
100
AcDbVertex
100
AcDb2dVertex
 10
16.53469645974382
 20
-32.48886890411382
 30
0.0
  0
VERTEX
  5
279
330
263
100
AcDbEntity
  8
GEB-VERDECKT
 48
5.0
100
AcDbVertex
100
AcDb2dVertex
 10
16.51956820485338
 20
-32.55313940048222
 30
0.0
  0
VERTEX
  5
27A
330
263
100
AcDbEntity
  8
GEB-VERDECKT
 48
5.0
100
AcDbVertex
100
AcDb2dVertex
 10
16.50871986148104
 20
-32.61822290420537
 30
0.0
  0
VERTEX
  5
27B
330
263
100
AcDbEntity
  8
GEB-VERDECKT
 48
5.0
100
AcDbVertex
100
AcDb2dVertex
 10
16.50218570229754
 20
-32.68391437530522
 30
0.0
  0
VERTEX
  5
27C
330
263
100
AcDbEntity
  8
GEB-VERDECKT
 48
5.0
100
AcDbVertex
100
AcDb2dVertex
 10
16.49999999997362
 20
-32.74999923706059
 30
0.0
  0
SEQEND
  5
27D
330
263
100
AcDbEntity
  8
GEB-VERDECKT
 48
5.0
  0
POLYLINE
  5
27E
330
2
100
AcDbEntity
  8
GEB-VERDECKT
 48
5.0
100
AcDb2dPolyline
 66
     1
 10
0.0
 20
0.0
 30
0.0
 70
   128
  0
VERTEX
  5
27F
330
27E
100
AcDbEntity
  8
GEB-VERDECKT
 48
5.0
100
AcDbVertex
100
AcDb2dVertex
 10
25.50000005957782
 20
-29.76554698944097
 30
0.0
  0
VERTEX
  5
280
330
27E
100
AcDbEntity
  8
GEB-VERDECKT
 48
5.0
100
AcDbVertex
100
AcDb2dVertex
 10
25.65898859498202
 20
-29.7712952613831
 30
0.0
  0
VERTEX
  5
281
330
27E
100
AcDbEntity
  8
GEB-VERDECKT
 48
5.0
100
AcDbVertex
100
AcDb2dVertex
 10
25.81631207463465
 20
-29.78835411071782
 30
0.0
  0
VERTEX
  5
282
330
27E
100
AcDbEntity
  8
GEB-VERDECKT
 48
5.0
100
AcDbVertex
100
AcDb2dVertex
 10
25.97149842974864
 20
-29.81645650863652
 30
0.0
  0
VERTEX
  5
283
330
27E
100
AcDbEntity
  8
GEB-VERDECKT
 48
5.0
100
AcDbVertex
100
AcDb2dVertex
 10
26.12407559153758
 20
-29.85533304214482
 30
0.0
  0
VERTEX
  5
284
330
27E
100
AcDbEntity
  8
GEB-VERDECKT
 48
5.0
100
AcDbVertex
100
AcDb2dVertex
 10
26.27357178923808
 20
-29.90471429824834
 30
0.0
  0
VERTEX
  5
285
330
27E
100
AcDbEntity
  8
GEB-VERDECKT
 48
5.0
100
AcDbVertex
100
AcDb2dVertex
 10
26.4196845292779
 20
-29.96440238952641
 30
0.0
  0
VERTEX
  5
286
330
27E
100
AcDbEntity
  8
GEB-VERDECKT
 48
5.0
100
AcDbVertex
100
AcDb2dVertex
 10
26.56460011002741
 20
-30.03558225631719
 30
0.0
  0
VERTEX
  5
287
330
27E
100
AcDbEntity
  8
GEB-VERDECKT
 48
5.0
100
AcDbVertex
100
AcDb2dVertex
 10
26.70852088925562
 20
-30.11919803619389
 30
0.0
  0
VERTEX
  5
288
330
27E
100
AcDbEntity
  8
GEB-VERDECKT
 48
5.0
100
AcDbVertex
100
AcDb2dVertex
 10
26.85066366193018
 20
-30.21584815979009
 30
0.0
  0
VERTEX
  5
289
330
27E
100
AcDbEntity
  8
GEB-VERDECKT
 48
5.0
100
AcDbVertex
100
AcDb2dVertex
 10
26.99024701115832
 20
-30.3261334419251
 30
0.0
  0
VERTEX
  5
28A
330
27E
100
AcDbEntity
  8
GEB-VERDECKT
 48
5.0
100
AcDbVertex
100
AcDb2dVertex
 10
27.12648653981432
 20
-30.45064992904668
 30
0.0
  0
VERTEX
  5
28B
330
27E
100
AcDbEntity
  8
GEB-VERDECKT
 48
5.0
100
AcDbVertex
100
AcDb2dVertex
 10
27.2570540904735
 20
-30.58826990127568
 30
0.0
  0
VERTEX
  5
28C
330
27E
100
AcDbEntity
  8
GEB-VERDECKT
 48
5.0
100
AcDbVertex
100
AcDb2dVertex
 10
27.37836623189196
 20
-30.7353336334229
 30
0.0
  0
VERTEX
  5
28D
330
27E
100
AcDbEntity
  8
GEB-VERDECKT
 48
5.0
100
AcDbVertex
100
AcDb2dVertex
 10
27.49010586735949
 20
-30.89090175628667
 30
0.0
  0
VERTEX
  5
28E
330
27E
100
AcDbEntity
  8
GEB-VERDECKT
 48
5.0
100
AcDbVertex
100
AcDb2dVertex
 10
27.59208762643084
 20
-31.05414218902593
 30
0.0
  0
VERTEX
  5
28F
330
27E
100
AcDbEntity
  8
GEB-VERDECKT
 48
5.0
100
AcDbVertex
100
AcDb2dVertex
 10
27.68412435052141
 20
-31.22437543869023
 30
0.0
  0
VERTEX
  5
290
330
27E
100
AcDbEntity
  8
GEB-VERDECKT
 48
5.0
100
AcDbVertex
100
AcDb2dVertex
 10
27.76599431035265
 20
-31.40096492767339
 30
0.0
  0
VERTEX
  5
291
330
27E
100
AcDbEntity
  8
GEB-VERDECKT
 48
5.0
100
AcDbVertex
100
AcDb2dVertex
 10
27.83747577664599
 20
-31.58328123092656
 30
0.0
  0
VERTEX
  5
292
330
27E
100
AcDbEntity
  8
GEB-VERDECKT
 48
5.0
100
AcDbVertex
100
AcDb2dVertex
 10
27.89834702012286
 20
-31.77068777084355
 30
0.0
  0
VERTEX
  5
293
330
27E
100
AcDbEntity
  8
GEB-VERDECKT
 48
5.0
100
AcDbVertex
100
AcDb2dVertex
 10
27.94826114175066
 20
-31.96195192337041
 30
0.0
  0
VERTEX
  5
294
330
27E
100
AcDbEntity
  8
GEB-VERDECKT
 48
5.0
100
AcDbVertex
100
AcDb2dVertex
 10
27.98704767224535
 20
-32.15599842071538
 30
0.0
  0
VERTEX
  5
295
330
27E
100
AcDbEntity
  8
GEB-VERDECKT
 48
5.0
100
AcDbVertex
100
AcDb2dVertex
 10
28.0147274732326
 20
-32.35234565734868
 30
0.0
  0
VERTEX
  5
296
330
27E
100
AcDbEntity
  8
GEB-VERDECKT
 48
5.0
100
AcDbVertex
100
AcDb2dVertex
 10
28.03132021424517
 20
-32.55050725936894
 30
0.0
  0
VERTEX
  5
297
330
27E
100
AcDbEntity
  8
GEB-VERDECKT
 48
5.0
100
AcDbVertex
100
AcDb2dVertex
 10
28.03684675690874
 20
-32.74999923706059
 30
0.0
  0
SEQEND
  5
298
330
27E
100
AcDbEntity
  8
GEB-VERDECKT
 48
5.0
  0
POLYLINE
  5
299
330
2
100
AcDbEntity
  8
GEB-VERDECKT
 48
5.0
100
AcDb2dPolyline
 66
     1
 10
0.0
 20
0.0
 30
0.0
 70
   128
  0
VERTEX
  5
29A
330
299
100
AcDbEntity
  8
GEB-VERDECKT
 48
5.0
100
AcDbVertex
100
AcDb2dVertex
 10
26.49999999997362
 20
-32.74999923706059
 30
0.0
  0
VERTEX
  5
29B
330
299
100
AcDbEntity
  8
GEB-VERDECKT
 48
5.0
100
AcDbVertex
100
AcDb2dVertex
 10
26.49781757590517
 20
-32.68395729064946
 30
0.0
  0
VERTEX
  5
29C
330
299
100
AcDbEntity
  8
GEB-VERDECKT
 48
5.0
100
AcDbVertex
100
AcDb2dVertex
 10
26.491302490208
 20
-32.61838502883916
 30
0.0
  0
VERTEX
  5
29D
330
299
100
AcDbEntity
  8
GEB-VERDECKT
 48
5.0
100
AcDbVertex
100
AcDb2dVertex
 10
26.48050361869082
 20
-32.5534898757935
 30
0.0
  0
VERTEX
  5
29E
330
299
100
AcDbEntity
  8
GEB-VERDECKT
 48
5.0
100
AcDbVertex
100
AcDb2dVertex
 10
26.46547013518557
 20
-32.48948163986211
 30
0.0
  0
VERTEX
  5
29F
330
299
100
AcDbEntity
  8
GEB-VERDECKT
 48
5.0
100
AcDbVertex
100
AcDb2dVertex
 10
26.44625061747774
 20
-32.4265629768372
 30
0.0
  0
VERTEX
  5
2A0
330
299
100
AcDbEntity
  8
GEB-VERDECKT
 48
5.0
100
AcDbVertex
100
AcDb2dVertex
 10
26.42289483544573
 20
-32.36494846343999
 30
0.0
  0
VERTEX
  5
2A1
330
299
100
AcDbEntity
  8
GEB-VERDECKT
 48
5.0
100
AcDbVertex
100
AcDb2dVertex
 10
26.39557504651293
 20
-32.30508871078496
 30
0.0
  0
VERTEX
  5
2A2
330
299
100
AcDbEntity
  8
GEB-VERDECKT
 48
5.0
100
AcDbVertex
100
AcDb2dVertex
 10
26.36448198554262
 20
-32.2473341941834
 30
0.0
  0
VERTEX
  5
2A3
330
299
100
AcDbEntity
  8
GEB-VERDECKT
 48
5.0
100
AcDbVertex
100
AcDb2dVertex
 10
26.32974261042818
 20
-32.19185180664067
 30
0.0
  0
VERTEX
  5
2A4
330
299
100
AcDbEntity
  8
GEB-VERDECKT
 48
5.0
100
AcDbVertex
100
AcDb2dVertex
 10
26.29148507115588
 20
-32.13881082534795
 30
0.0
  0
VERTEX
  5
2A5
330
299
100
AcDbEntity
  8
GEB-VERDECKT
 48
5.0
100
AcDbVertex
100
AcDb2dVertex
 10
26.24983632561907
 20
-32.0883757591248
 30
0.0
  0
VERTEX
  5
2A6
330
299
100
AcDbEntity
  8
GEB-VERDECKT
 48
5.0
100
AcDbVertex
100
AcDb2dVertex
 10
26.20494627949938
 20
-32.04073972702031
 30
0.0
  0
VERTEX
  5
2A7
330
299
100
AcDbEntity
  8
GEB-VERDECKT
 48
5.0
100
AcDbVertex
100
AcDb2dVertex
 10
26.15715289113268
 20
-31.99624128341679
 30
0.0
  0
VERTEX
  5
2A8
330
299
100
AcDbEntity
  8
GEB-VERDECKT
 48
5.0
100
AcDbVertex
100
AcDb2dVertex
 10
26.10667282340273
 20
-31.95504732131963
 30
0.0
  0
VERTEX
  5
2A9
330
299
100
AcDbEntity
  8
GEB-VERDECKT
 48
5.0
100
AcDbVertex
100
AcDb2dVertex
 10
26.0536792278026
 20
-31.91726989746098
 30
0.0
  0
VERTEX
  5
2AA
330
299
100
AcDbEntity
  8
GEB-VERDECKT
 48
5.0
100
AcDbVertex
100
AcDb2dVertex
 10
25.99834644791827
 20
-31.88302106857304
 30
0.0
  0
VERTEX
  5
2AB
330
299
100
AcDbEntity
  8
GEB-VERDECKT
 48
5.0
100
AcDbVertex
100
AcDb2dVertex
 10
25.94084763524279
 20
-31.85241765975957
 30
0.0
  0
VERTEX
  5
2AC
330
299
100
AcDbEntity
  8
GEB-VERDECKT
 48
5.0
100
AcDbVertex
100
AcDb2dVertex
 10
25.88144087788805
 20
-31.8256074905396
 30
0.0
  0
VERTEX
  5
2AD
330
299
100
AcDbEntity
  8
GEB-VERDECKT
 48
5.0
100
AcDbVertex
100
AcDb2dVertex
 10
25.82048410174593
 20
-31.80274553298955
 30
0.0
  0
VERTEX
  5
2AE
330
299
100
AcDbEntity
  8
GEB-VERDECKT
 48
5.0
100
AcDbVertex
100
AcDb2dVertex
 10
25.75817966458544
 20
-31.78390331268315
 30
0.0
  0
VERTEX
  5
2AF
330
299
100
AcDbEntity
  8
GEB-VERDECKT
 48
5.0
100
AcDbVertex
100
AcDb2dVertex
 10
25.69472485778078
 20
-31.76914281845097
 30
0.0
  0
VERTEX
  5
2B0
330
299
100
AcDbEntity
  8
GEB-VERDECKT
 48
5.0
100
AcDbVertex
100
AcDb2dVertex
 10
25.63031756875262
 20
-31.75852842330937
 30
0.0
  0
VERTEX
  5
2B1
330
299
100
AcDbEntity
  8
GEB-VERDECKT
 48
5.0
100
AcDbVertex
100
AcDb2dVertex
 10
25.56529068944201
 20
-31.75213403701787
 30
0.0
  0
VERTEX
  5
2B2
330
299
100
AcDbEntity
  8
GEB-VERDECKT
 48
5.0
100
AcDbVertex
100
AcDb2dVertex
 10
25.50000005957827
 20
-31.75000019073491
 30
0.0
  0
SEQEND
  5
2B3
330
299
100
AcDbEntity
  8
GEB-VERDECKT
 48
5.0
  0
LINE
  5
2B4
330
2
100
AcDbEntity
  8
GEB-VERDECKT
 48
5.0
100
AcDbLine
 10
25.50000005957827
 20
-31.75000019073491
 30
0.0
 11
25.18115931746706
 21
-31.75000019073491
 31
0.0
  0
LINE
  5
2B5
330
2
100
AcDbEntity
  8
GEB-VERDECKT
 48
5.0
100
AcDbLine
 10
28.02423874707211
 20
-32.75
 30
0.0
 11
28.03684695201241
 21
-32.75
 31
0.0
  0
LINE
  5
2B6
330
2
100
AcDbEntity
  8
GEB-VERDECKT
 48
5.0
100
AcDbLine
 10
28.02423874707301
 20
-32.75
 30
0.0
 11
26.49999999997362
 21
-32.75
 31
0.0
  0
LINE
  5
2B7
330
2
100
AcDbEntity
  8
GEB-VERDECKT
 48
5.0
100
AcDbLine
 10
17.81884057968386
 20
-31.74999999999989
 30
0.0
 11
25.18115942026339
 21
-31.74999999999989
 31
0.0
  0
LINE
  5
2B8
330
2
100
AcDbEntity
  8
GEB-VERDECKT
 48
5.0
100
AcDbLine
 10
25.49999999997317
 20
-29.76554746920135
 30
0.0
 11
17.4999999999734
 21
-29.76554746920135
 31
0.0
  0
LINE
  5
2B9
330
2
100
AcDbEntity
  8
GEB-VERDECKT
 48
5.0
100
AcDbLine
 10
14.97576125287423
 20
-32.75
 30
0.0
 11
16.49999999997362
 21
-32.75
 31
0.0
  0
LINE
  5
2BA
330
2
100
AcDbEntity
  8
GEB-VERDECKT
 48
5.0
100
AcDbLine
 10
14.96452625990719
 20
-32.75
 30
0.0
 11
14.97576125287423
 21
-32.75
 31
0.0
  0
LINE
  5
2BB
330
2
100
AcDbEntity
  8
GEB-KONTUR-A
 48
5.0
100
AcDbLine
 10
32.22845557362416
 20
-55.98312864254172
 30
0.0
 11
33.910237187534
 21
-49.99999999999989
 31
0.0
  0
LINE
  5
2BC
330
2
100
AcDbEntity
  8
GEB-KONTUR-A
 48
5.0
100
AcDbLine
 10
29.02063077085813
 20
-55.95707816094978
 30
0.0
 11
30.20465219331095
 21
-49.99999999999989
 31
0.0
  0
LINE
  5
2BD
330
2
100
AcDbEntity
  8
GEB-KONTUR-A
 48
5.0
100
AcDbLine
 10
29.08616368775938
 20
-55.98312864254172
 30
0.0
 11
29.02063077085813
 21
-55.95707816094978
 31
0.0
  0
LINE
  5
2BE
330
2
100
AcDbEntity
  8
GEB-KONTUR-A
 48
5.0
100
AcDbLine
 10
32.22845557362416
 20
-55.98312864254172
 30
0.0
 11
29.08616368775938
 21
-55.98312864254172
 31
0.0
  0
LINE
  5
2BF
330
2
100
AcDbEntity
  8
GEB-KONTUR-A
 48
5.0
100
AcDbLine
 10
30.27536287142948
 20
-49.99999999999989
 30
0.0
 11
29.08616368775938
 21
-55.98312864254172
 31
0.0
  0
LINE
  5
2C0
330
2
100
AcDbEntity
  8
GEB-VERDECKT
 48
5.0
100
AcDbLine
 10
35.39999999997713
 20
-44.69999999999993
 30
0.0
 11
35.39999999997713
 21
-24.0
 31
0.0
  0
LINE
  5
2C1
330
2
100
AcDbEntity
  8
GEB-VERDECKT
 48
5.0
100
AcDbLine
 10
33.910237187534
 20
-49.99999999999989
 30
0.0
 11
35.39999999997713
 21
-44.69999999999993
 31
0.0
  0
LINE
  5
2C2
330
2
100
AcDbEntity
  8
GEB-VERDECKT
 48
5.0
100
AcDbLine
 10
30.20465219331095
 20
-49.99999999999989
 30
0.0
 11
31.25807358034854
 21
-44.69999999999993
 31
0.0
  0
LINE
  5
2C3
330
2
100
AcDbEntity
  8
GEB-VERDECKT
 48
5.0
100
AcDbLine
 10
31.25807358034854
 20
-44.69999999999993
 30
0.0
 11
31.25807358034854
 21
-24.0
 31
0.0
  0
LINE
  5
2C4
330
2
100
AcDbEntity
  8
GEB-VERDECKT
 48
5.0
100
AcDbLine
 10
31.3287842584673
 20
-24.0
 30
0.0
 11
31.3287842584673
 21
-44.69999999999993
 31
0.0
  0
LINE
  5
2C5
330
2
100
AcDbEntity
  8
GEB-VERDECKT
 48
5.0
100
AcDbLine
 10
31.3287842584673
 20
-44.69999999999993
 30
0.0
 11
30.27536287142948
 21
-49.99999999999989
 31
0.0
  0
LINE
  5
2C6
330
2
100
AcDbEntity
  8
GEB-VERDECKT
 48
5.0
100
AcDbLine
 10
35.39999999997713
 20
-44.70000000000005
 30
0.0
 11
31.3287842584673
 21
-44.70000000000005
 31
0.0
  0
LINE
  5
2C7
330
2
100
AcDbEntity
  8
GEB-VERDECKT
 48
5.0
100
AcDbLine
 10
28.84899982082652
 20
-31.74999999999989
 30
0.0
 11
29.11526793027747
 21
-31.74999999999989
 31
0.0
  0
LINE
  5
2C8
330
2
100
AcDbEntity
  8
GEB-VERDECKT
 48
5.0
100
AcDbLine
 10
31.17135906216891
 20
-31.75000019073491
 30
0.0
 11
29.11526763436541
 21
-31.75000019073491
 31
0.0
  0
LINE
  5
2C9
330
2
100
AcDbEntity
  8
GEB-VERDECKT
 48
5.0
100
AcDbLine
 10
29.11526763436541
 20
-31.75000019073491
 30
0.0
 11
29.11526763436541
 21
-31.55000038146977
 31
0.0
  0
LINE
  5
2CA
330
2
100
AcDbEntity
  8
GEB-VERDECKT
 48
5.0
100
AcDbLine
 10
30.17889285084971
 20
-31.55000038146977
 30
0.0
 11
31.17135906216891
 21
-31.55000038146977
 31
0.0
  0
LINE
  5
2CB
330
2
100
AcDbEntity
  8
GEB-VERDECKT
 48
5.0
100
AcDbLine
 10
31.17135906216891
 20
-31.55000038146977
 30
0.0
 11
31.17135906216891
 21
-31.75000019073491
 31
0.0
  0
LINE
  5
2CC
330
2
100
AcDbEntity
  8
GEB-VERDECKT
 48
5.0
100
AcDbLine
 10
29.11526763436541
 20
-31.55000038146977
 30
0.0
 11
30.17889285084971
 21
-31.55000038146977
 31
0.0
  0
LINE
  5
2CD
330
2
100
AcDbEntity
  8
GEB-VERDECKT
 48
5.0
100
AcDbLine
 10
28.84899982082652
 20
-31.54999999999996
 30
0.0
 11
29.11526793027747
 21
-31.54999999999996
 31
0.0
  0
LINE
  5
2CE
330
2
100
AcDbEntity
  8
GEB-VERDECKT
 48
5.0
100
AcDbLine
 10
28.84899982082652
 20
-29.24999999999989
 30
0.0
 11
29.11526793027747
 21
-29.24999999999989
 31
0.0
  0
POLYLINE
  5
2CF
330
2
100
AcDbEntity
  8
GEB-VERDECKT
 48
5.0
100
AcDb2dPolyline
 66
     1
 10
0.0
 20
0.0
 30
0.0
 70
   128
  0
VERTEX
  5
2D0
330
2CF
100
AcDbEntity
  8
GEB-VERDECKT
 48
5.0
100
AcDbVertex
100
AcDb2dVertex
 10
30.17889285084971
 20
-31.55000038146977
 30
0.0
  0
VERTEX
  5
2D1
330
2CF
100
AcDbEntity
  8
GEB-VERDECKT
 48
5.0
100
AcDbVertex
100
AcDb2dVertex
 10
30.13593757149943
 20
-31.45416564941411
 30
0.0
  0
VERTEX
  5
2D2
330
2CF
100
AcDbEntity
  8
GEB-VERDECKT
 48
5.0
100
AcDbVertex
100
AcDb2dVertex
 10
30.09285891053446
 20
-31.35833330154424
 30
0.0
  0
VERTEX
  5
2D3
330
2CF
100
AcDbEntity
  8
GEB-VERDECKT
 48
5.0
100
AcDbVertex
100
AcDb2dVertex
 10
30.04965806004771
 20
-31.26250095367436
 30
0.0
  0
VERTEX
  5
2D4
330
2CF
100
AcDbEntity
  8
GEB-VERDECKT
 48
5.0
100
AcDbVertex
100
AcDb2dVertex
 10
30.00633502003916
 20
-31.1666662216187
 30
0.0
  0
VERTEX
  5
2D5
330
2CF
100
AcDbEntity
  8
GEB-VERDECKT
 48
5.0
100
AcDbVertex
100
AcDb2dVertex
 10
29.96289098260172
 20
-31.07083387374883
 30
0.0
  0
VERTEX
  5
2D6
330
2CF
100
AcDbEntity
  8
GEB-VERDECKT
 48
5.0
100
AcDbVertex
100
AcDb2dVertex
 10
29.91932654378184
 20
-30.97499914169316
 30
0.0
  0
VERTEX
  5
2D7
330
2CF
100
AcDbEntity
  8
GEB-VERDECKT
 48
5.0
100
AcDbVertex
100
AcDb2dVertex
 10
29.87564229962595
 20
-30.87916679382329
 30
0.0
  0
VERTEX
  5
2D8
330
2CF
100
AcDbEntity
  8
GEB-VERDECKT
 48
5.0
100
AcDbVertex
100
AcDb2dVertex
 10
29.83183825013407
 20
-30.78333444595342
 30
0.0
  0
VERTEX
  5
2D9
330
2CF
100
AcDbEntity
  8
GEB-VERDECKT
 48
5.0
100
AcDbVertex
100
AcDb2dVertex
 10
29.78791618344553
 20
-30.68749971389775
 30
0.0
  0
VERTEX
  5
2DA
330
2CF
100
AcDbEntity
  8
GEB-VERDECKT
 48
5.0
100
AcDbVertex
100
AcDb2dVertex
 10
29.74387550351389
 20
-30.59166736602788
 30
0.0
  0
VERTEX
  5
2DB
330
2CF
100
AcDbEntity
  8
GEB-VERDECKT
 48
5.0
100
AcDbVertex
100
AcDb2dVertex
 10
29.69971799847826
 20
-30.49583263397221
 30
0.0
  0
VERTEX
  5
2DC
330
2CF
100
AcDbEntity
  8
GEB-VERDECKT
 48
5.0
100
AcDbVertex
100
AcDb2dVertex
 10
29.65544307229265
 20
-30.40000028610234
 30
0.0
  0
VERTEX
  5
2DD
330
2CF
100
AcDbEntity
  8
GEB-VERDECKT
 48
5.0
100
AcDbVertex
100
AcDb2dVertex
 10
29.61105251309618
 20
-30.30416555404668
 30
0.0
  0
VERTEX
  5
2DE
330
2CF
100
AcDbEntity
  8
GEB-VERDECKT
 48
5.0
100
AcDbVertex
100
AcDb2dVertex
 10
29.5665457248424
 20
-30.2083332061768
 30
0.0
  0
VERTEX
  5
2DF
330
2CF
100
AcDbEntity
  8
GEB-VERDECKT
 48
5.0
100
AcDbVertex
100
AcDb2dVertex
 10
29.52192449567064
 20
-30.11250085830693
 30
0.0
  0
VERTEX
  5
2E0
330
2CF
100
AcDbEntity
  8
GEB-VERDECKT
 48
5.0
100
AcDbVertex
100
AcDb2dVertex
 10
29.47718882558092
 20
-30.01666612625127
 30
0.0
  0
VERTEX
  5
2E1
330
2CF
100
AcDbEntity
  8
GEB-VERDECKT
 48
5.0
100
AcDbVertex
100
AcDb2dVertex
 10
29.43233990666613
 20
-29.9208337783814
 30
0.0
  0
VERTEX
  5
2E2
330
2CF
100
AcDbEntity
  8
GEB-VERDECKT
 48
5.0
100
AcDbVertex
100
AcDb2dVertex
 10
29.38737773892626
 20
-29.82499904632573
 30
0.0
  0
VERTEX
  5
2E3
330
2CF
100
AcDbEntity
  8
GEB-VERDECKT
 48
5.0
100
AcDbVertex
100
AcDb2dVertex
 10
29.34230351445421
 20
-29.72916669845586
 30
0.0
  0
VERTEX
  5
2E4
330
2CF
100
AcDbEntity
  8
GEB-VERDECKT
 48
5.0
100
AcDbVertex
100
AcDb2dVertex
 10
29.29711723324999
 20
-29.63333435058599
 30
0.0
  0
VERTEX
  5
2E5
330
2CF
100
AcDbEntity
  8
GEB-VERDECKT
 48
5.0
100
AcDbVertex
100
AcDb2dVertex
 10
29.25181949136004
 20
-29.53749961853032
 30
0.0
  0
VERTEX
  5
2E6
330
2CF
100
AcDbEntity
  8
GEB-VERDECKT
 48
5.0
100
AcDbVertex
100
AcDb2dVertex
 10
29.2064120769237
 20
-29.44166727066045
 30
0.0
  0
VERTEX
  5
2E7
330
2CF
100
AcDbEntity
  8
GEB-VERDECKT
 48
5.0
100
AcDbVertex
100
AcDb2dVertex
 10
29.16089439389452
 20
-29.34583253860478
 30
0.0
  0
VERTEX
  5
2E8
330
2CF
100
AcDbEntity
  8
GEB-VERDECKT
 48
5.0
100
AcDbVertex
100
AcDb2dVertex
 10
29.11526763436541
 20
-29.25000019073491
 30
0.0
  0
SEQEND
  5
2E9
330
2CF
100
AcDbEntity
  8
GEB-VERDECKT
 48
5.0
  0
LINE
  5
2EA
330
2
100
AcDbEntity
  8
GEB-VERDECKT
 48
5.0
100
AcDbLine
 10
29.11526763436541
 20
-29.25000019073491
 30
0.0
 11
31.17135906216891
 21
-29.25000019073491
 31
0.0
  0
POLYLINE
  5
2EB
330
2
100
AcDbEntity
  8
GEB-VERDECKT
 48
5.0
100
AcDb2dPolyline
 66
     1
 10
0.0
 20
0.0
 30
0.0
 70
   128
  0
VERTEX
  5
2EC
330
2EB
100
AcDbEntity
  8
GEB-VERDECKT
 48
5.0
100
AcDbVertex
100
AcDb2dVertex
 10
31.17135906216891
 20
-29.25000019073491
 30
0.0
  0
VERTEX
  5
2ED
330
2EB
100
AcDbEntity
  8
GEB-VERDECKT
 48
5.0
100
AcDbVertex
100
AcDb2dVertex
 10
31.13153541085512
 20
-29.34583253860478
 30
0.0
  0
VERTEX
  5
2EE
330
2EB
100
AcDbEntity
  8
GEB-VERDECKT
 48
5.0
100
AcDbVertex
100
AcDb2dVertex
 10
31.09157407281191
 20
-29.44166727066045
 30
0.0
  0
VERTEX
  5
2EF
330
2EB
100
AcDbEntity
  8
GEB-VERDECKT
 48
5.0
100
AcDbVertex
100
AcDb2dVertex
 10
31.05147624013216
 20
-29.53749961853032
 30
0.0
  0
VERTEX
  5
2F0
330
2EB
100
AcDbEntity
  8
GEB-VERDECKT
 48
5.0
100
AcDbVertex
100
AcDb2dVertex
 10
31.01124250886233
 20
-29.63333435058599
 30
0.0
  0
VERTEX
  5
2F1
330
2EB
100
AcDbEntity
  8
GEB-VERDECKT
 48
5.0
100
AcDbVertex
100
AcDb2dVertex
 10
30.97087347504885
 20
-29.72916669845586
 30
0.0
  0
VERTEX
  5
2F2
330
2EB
100
AcDbEntity
  8
GEB-VERDECKT
 48
5.0
100
AcDbVertex
100
AcDb2dVertex
 10
30.93036913869151
 20
-29.82499904632573
 30
0.0
  0
VERTEX
  5
2F3
330
2EB
100
AcDbEntity
  8
GEB-VERDECKT
 48
5.0
100
AcDbVertex
100
AcDb2dVertex
 10
30.88973069188365
 20
-29.9208337783814
 30
0.0
  0
VERTEX
  5
2F4
330
2EB
100
AcDbEntity
  8
GEB-VERDECKT
 48
5.0
100
AcDbVertex
100
AcDb2dVertex
 10
30.84895873067149
 20
-30.01666612625127
 30
0.0
  0
VERTEX
  5
2F5
330
2EB
100
AcDbEntity
  8
GEB-VERDECKT
 48
5.0
100
AcDbVertex
100
AcDb2dVertex
 10
30.80805325505503
 20
-30.11250085830693
 30
0.0
  0
VERTEX
  5
2F6
330
2EB
100
AcDbEntity
  8
GEB-VERDECKT
 48
5.0
100
AcDbVertex
100
AcDb2dVertex
 10
30.76701545712718
 20
-30.2083332061768
 30
0.0
  0
VERTEX
  5
2F7
330
2EB
100
AcDbEntity
  8
GEB-VERDECKT
 48
5.0
100
AcDbVertex
100
AcDb2dVertex
 10
30.72584533688792
 20
-30.30416555404668
 30
0.0
  0
VERTEX
  5
2F8
330
2EB
100
AcDbEntity
  8
GEB-VERDECKT
 48
5.0
100
AcDbVertex
100
AcDb2dVertex
 10
30.68454408643015
 20
-30.40000028610234
 30
0.0
  0
VERTEX
  5
2F9
330
2EB
100
AcDbEntity
  8
GEB-VERDECKT
 48
5.0
100
AcDbVertex
100
AcDb2dVertex
 10
30.64311170575388
 20
-30.49583263397221
 30
0.0
  0
VERTEX
  5
2FA
330
2EB
100
AcDbEntity
  8
GEB-VERDECKT
 48
5.0
100
AcDbVertex
100
AcDb2dVertex
 10
30.601549386952
 20
-30.59166736602788
 30
0.0
  0
VERTEX
  5
2FB
330
2EB
100
AcDbEntity
  8
GEB-VERDECKT
 48
5.0
100
AcDbVertex
100
AcDb2dVertex
 10
30.55985713002451
 20
-30.68749971389775
 30
0.0
  0
VERTEX
  5
2FC
330
2EB
100
AcDbEntity
  8
GEB-VERDECKT
 48
5.0
100
AcDbVertex
100
AcDb2dVertex
 10
30.51803612706431
 20
-30.78333444595342
 30
0.0
  0
VERTEX
  5
2FD
330
2EB
100
AcDbEntity
  8
GEB-VERDECKT
 48
5.0
100
AcDbVertex
100
AcDb2dVertex
 10
30.47608637807139
 20
-30.87916679382329
 30
0.0
  0
VERTEX
  5
2FE
330
2EB
100
AcDbEntity
  8
GEB-VERDECKT
 48
5.0
100
AcDbVertex
100
AcDb2dVertex
 10
30.43400907513865
 20
-30.97499914169316
 30
0.0
  0
VERTEX
  5
2FF
330
2EB
100
AcDbEntity
  8
GEB-VERDECKT
 48
5.0
100
AcDbVertex
100
AcDb2dVertex
 10
30.39180421826609
 20
-31.07083387374883
 30
0.0
  0
VERTEX
  5
300
330
2EB
100
AcDbEntity
  8
GEB-VERDECKT
 48
5.0
100
AcDbVertex
100
AcDb2dVertex
 10
30.34947299954661
 20
-31.1666662216187
 30
0.0
  0
VERTEX
  5
301
330
2EB
100
AcDbEntity
  8
GEB-VERDECKT
 48
5.0
100
AcDbVertex
100
AcDb2dVertex
 10
30.3070154189802
 20
-31.26250095367436
 30
0.0
  0
VERTEX
  5
302
330
2EB
100
AcDbEntity
  8
GEB-VERDECKT
 48
5.0
100
AcDbVertex
100
AcDb2dVertex
 10
30.26443266865977
 20
-31.35833330154424
 30
0.0
  0
VERTEX
  5
303
330
2EB
100
AcDbEntity
  8
GEB-VERDECKT
 48
5.0
100
AcDbVertex
100
AcDb2dVertex
 10
30.22172474858531
 20
-31.45416564941411
 30
0.0
  0
VERTEX
  5
304
330
2EB
100
AcDbEntity
  8
GEB-VERDECKT
 48
5.0
100
AcDbVertex
100
AcDb2dVertex
 10
30.17889285084971
 20
-31.55000038146977
 30
0.0
  0
SEQEND
  5
305
330
2EB
100
AcDbEntity
  8
GEB-VERDECKT
 48
5.0
  0
POLYLINE
  5
306
330
2
100
AcDbEntity
  8
GEB-VERDECKT
 48
5.0
100
AcDb2dPolyline
 66
     1
 10
0.0
 20
0.0
 30
0.0
 70
   128
  0
VERTEX
  5
307
330
306
100
AcDbEntity
  8
GEB-VERDECKT
 48
5.0
100
AcDbVertex
100
AcDb2dVertex
 10
30.83319985863977
 20
-29.25000019073491
 30
0.0
  0
VERTEX
  5
308
330
306
100
AcDbEntity
  8
GEB-VERDECKT
 48
5.0
100
AcDbVertex
100
AcDb2dVertex
 10
30.7947679757815
 20
-29.34583253860478
 30
0.0
  0
VERTEX
  5
309
330
306
100
AcDbEntity
  8
GEB-VERDECKT
 48
5.0
100
AcDbVertex
100
AcDb2dVertex
 10
30.75620436665827
 20
-29.44166727066045
 30
0.0
  0
VERTEX
  5
30A
330
306
100
AcDbEntity
  8
GEB-VERDECKT
 48
5.0
100
AcDbVertex
100
AcDb2dVertex
 10
30.71750843522341
 20
-29.53749961853032
 30
0.0
  0
VERTEX
  5
30B
330
306
100
AcDbEntity
  8
GEB-VERDECKT
 48
5.0
100
AcDbVertex
100
AcDb2dVertex
 10
30.67868196961672
 20
-29.63333435058599
 30
0.0
  0
VERTEX
  5
30C
330
306
100
AcDbEntity
  8
GEB-VERDECKT
 48
5.0
100
AcDbVertex
100
AcDb2dVertex
 10
30.63972377774508
 20
-29.72916669845586
 30
0.0
  0
VERTEX
  5
30D
330
306
100
AcDbEntity
  8
GEB-VERDECKT
 48
5.0
100
AcDbVertex
100
AcDb2dVertex
 10
30.60063624379427
 20
-29.82499904632573
 30
0.0
  0
VERTEX
  5
30E
330
306
100
AcDbEntity
  8
GEB-VERDECKT
 48
5.0
100
AcDbVertex
100
AcDb2dVertex
 10
30.56141877171786
 20
-29.9208337783814
 30
0.0
  0
VERTEX
  5
30F
330
306
100
AcDbEntity
  8
GEB-VERDECKT
 48
5.0
100
AcDbVertex
100
AcDb2dVertex
 10
30.52207195756228
 20
-30.01666612625127
 30
0.0
  0
VERTEX
  5
310
330
306
100
AcDbEntity
  8
GEB-VERDECKT
 48
5.0
100
AcDbVertex
100
AcDb2dVertex
 10
30.48259699342043
 20
-30.11250085830693
 30
0.0
  0
VERTEX
  5
311
330
306
100
AcDbEntity
  8
GEB-VERDECKT
 48
5.0
100
AcDbVertex
100
AcDb2dVertex
 10
30.44299387929232
 20
-30.2083332061768
 30
0.0
  0
VERTEX
  5
312
330
306
100
AcDbEntity
  8
GEB-VERDECKT
 48
5.0
100
AcDbVertex
100
AcDb2dVertex
 10
30.40326321122439
 20
-30.30416555404668
 30
0.0
  0
VERTEX
  5
313
330
306
100
AcDbEntity
  8
GEB-VERDECKT
 48
5.0
100
AcDbVertex
100
AcDb2dVertex
 10
30.36340618130953
 20
-30.40000028610234
 30
0.0
  0
VERTEX
  5
314
330
306
100
AcDbEntity
  8
GEB-VERDECKT
 48
5.0
100
AcDbVertex
100
AcDb2dVertex
 10
30.32342278954775
 20
-30.49583263397221
 30
0.0
  0
VERTEX
  5
315
330
306
100
AcDbEntity
  8
GEB-VERDECKT
 48
5.0
100
AcDbVertex
100
AcDb2dVertex
 10
30.28331303593905
 20
-30.59166736602788
 30
0.0
  0
VERTEX
  5
316
330
306
100
AcDbEntity
  8
GEB-VERDECKT
 48
5.0
100
AcDbVertex
100
AcDb2dVertex
 10
30.24307870862276
 20
-30.68749971389775
 30
0.0
  0
VERTEX
  5
317
330
306
100
AcDbEntity
  8
GEB-VERDECKT
 48
5.0
100
AcDbVertex
100
AcDb2dVertex
 10
30.2027198075989
 20
-30.78333444595342
 30
0.0
  0
VERTEX
  5
318
330
306
100
AcDbEntity
  8
GEB-VERDECKT
 48
5.0
100
AcDbVertex
100
AcDb2dVertex
 10
30.16223752496012
 20
-30.87916679382329
 30
0.0
  0
VERTEX
  5
319
330
306
100
AcDbEntity
  8
GEB-VERDECKT
 48
5.0
100
AcDbVertex
100
AcDb2dVertex
 10
30.12163126466044
 20
-30.97499914169316
 30
0.0
  0
VERTEX
  5
31A
330
306
100
AcDbEntity
  8
GEB-VERDECKT
 48
5.0
100
AcDbVertex
100
AcDb2dVertex
 10
30.08090221879252
 20
-31.07083387374883
 30
0.0
  0
VERTEX
  5
31B
330
306
100
AcDbEntity
  8
GEB-VERDECKT
 48
5.0
100
AcDbVertex
100
AcDb2dVertex
 10
30.04005098340281
 20
-31.1666662216187
 30
0.0
  0
VERTEX
  5
31C
330
306
100
AcDbEntity
  8
GEB-VERDECKT
 48
5.0
100
AcDbVertex
100
AcDb2dVertex
 10
29.99907815453776
 20
-31.26250095367436
 30
0.0
  0
VERTEX
  5
31D
330
306
100
AcDbEntity
  8
GEB-VERDECKT
 48
5.0
100
AcDbVertex
100
AcDb2dVertex
 10
29.95798373219736
 20
-31.35833330154424
 30
0.0
  0
VERTEX
  5
31E
330
306
100
AcDbEntity
  8
GEB-VERDECKT
 48
5.0
100
AcDbVertex
100
AcDb2dVertex
 10
29.91676950452097
 20
-31.45416564941411
 30
0.0
  0
VERTEX
  5
31F
330
306
100
AcDbEntity
  8
GEB-VERDECKT
 48
5.0
100
AcDbVertex
100
AcDb2dVertex
 10
29.87543487546214
 20
-31.55000038146977
 30
0.0
  0
SEQEND
  5
320
330
306
100
AcDbEntity
  8
GEB-VERDECKT
 48
5.0
  0
POLYLINE
  5
321
330
2
100
AcDbEntity
  8
GEB-VERDECKT
 48
5.0
100
AcDb2dPolyline
 66
     1
 10
0.0
 20
0.0
 30
0.0
 70
   128
  0
VERTEX
  5
322
330
321
100
AcDbEntity
  8
GEB-VERDECKT
 48
5.0
100
AcDbVertex
100
AcDb2dVertex
 10
29.87543487546214
 20
-31.55000038146977
 30
0.0
  0
VERTEX
  5
323
330
321
100
AcDbEntity
  8
GEB-VERDECKT
 48
5.0
100
AcDbVertex
100
AcDb2dVertex
 10
29.83398163316019
 20
-31.45416564941411
 30
0.0
  0
VERTEX
  5
324
330
321
100
AcDbEntity
  8
GEB-VERDECKT
 48
5.0
100
AcDbVertex
100
AcDb2dVertex
 10
29.7924091815687
 20
-31.35833330154424
 30
0.0
  0
VERTEX
  5
325
330
321
100
AcDbEntity
  8
GEB-VERDECKT
 48
5.0
100
AcDbVertex
100
AcDb2dVertex
 10
29.75071871278056
 20
-31.26250095367436
 30
0.0
  0
VERTEX
  5
326
330
321
100
AcDbEntity
  8
GEB-VERDECKT
 48
5.0
100
AcDbVertex
100
AcDb2dVertex
 10
29.7089108228422
 20
-31.1666662216187
 30
0.0
  0
VERTEX
  5
327
330
321
100
AcDbEntity
  8
GEB-VERDECKT
 48
5.0
100
AcDbVertex
100
AcDb2dVertex
 10
29.66698610780009
 20
-31.07083387374883
 30
0.0
  0
VERTEX
  5
328
330
321
100
AcDbEntity
  8
GEB-VERDECKT
 48
5.0
100
AcDbVertex
100
AcDb2dVertex
 10
29.62494456765421
 20
-30.97499914169316
 30
0.0
  0
VERTEX
  5
329
330
321
100
AcDbEntity
  8
GEB-VERDECKT
 48
5.0
100
AcDbVertex
100
AcDb2dVertex
 10
29.58278739449747
 20
-30.87916679382329
 30
0.0
  0
VERTEX
  5
32A
330
321
100
AcDbEntity
  8
GEB-VERDECKT
 48
5.0
100
AcDbVertex
100
AcDb2dVertex
 10
29.54051578042277
 20
-30.78333444595342
 30
0.0
  0
VERTEX
  5
32B
330
321
100
AcDbEntity
  8
GEB-VERDECKT
 48
5.0
100
AcDbVertex
100
AcDb2dVertex
 10
29.49812912938364
 20
-30.68749971389775
 30
0.0
  0
VERTEX
  5
32C
330
321
100
AcDbEntity
  8
GEB-VERDECKT
 48
5.0
100
AcDbVertex
100
AcDb2dVertex
 10
29.45562803742655
 20
-30.59166736602788
 30
0.0
  0
VERTEX
  5
32D
330
321
100
AcDbEntity
  8
GEB-VERDECKT
 48
5.0
100
AcDbVertex
100
AcDb2dVertex
 10
29.41301429269083
 20
-30.49583263397221
 30
0.0
  0
VERTEX
  5
32E
330
321
100
AcDbEntity
  8
GEB-VERDECKT
 48
5.0
100
AcDbVertex
100
AcDb2dVertex
 10
29.37028789517649
 20
-30.40000028610234
 30
0.0
  0
VERTEX
  5
32F
330
321
100
AcDbEntity
  8
GEB-VERDECKT
 48
5.0
100
AcDbVertex
100
AcDb2dVertex
 10
29.32744884488352
 20
-30.30416555404668
 30
0.0
  0
VERTEX
  5
330
330
321
100
AcDbEntity
  8
GEB-VERDECKT
 48
5.0
100
AcDbVertex
100
AcDb2dVertex
 10
29.28449892995127
 20
-30.2083332061768
 30
0.0
  0
VERTEX
  5
331
330
321
100
AcDbEntity
  8
GEB-VERDECKT
 48
5.0
100
AcDbVertex
100
AcDb2dVertex
 10
29.24143755433329
 20
-30.11250085830693
 30
0.0
  0
VERTEX
  5
332
330
321
100
AcDbEntity
  8
GEB-VERDECKT
 48
5.0
100
AcDbVertex
100
AcDb2dVertex
 10
29.19826650616892
 20
-30.01666612625127
 30
0.0
  0
VERTEX
  5
333
330
321
100
AcDbEntity
  8
GEB-VERDECKT
 48
5.0
100
AcDbVertex
100
AcDb2dVertex
 10
29.15498518941172
 20
-29.9208337783814
 30
0.0
  0
VERTEX
  5
334
330
321
100
AcDbEntity
  8
GEB-VERDECKT
 48
5.0
100
AcDbVertex
100
AcDb2dVertex
 10
29.11159539220103
 20
-29.82499904632573
 30
0.0
  0
VERTEX
  5
335
330
321
100
AcDbEntity
  8
GEB-VERDECKT
 48
5.0
100
AcDbVertex
100
AcDb2dVertex
 10
29.06809651849039
 20
-29.72916669845586
 30
0.0
  0
VERTEX
  5
336
330
321
100
AcDbEntity
  8
GEB-VERDECKT
 48
5.0
100
AcDbVertex
100
AcDb2dVertex
 10
29.02449035641917
 20
-29.63333435058599
 30
0.0
  0
VERTEX
  5
337
330
321
100
AcDbEntity
  8
GEB-VERDECKT
 48
5.0
100
AcDbVertex
100
AcDb2dVertex
 10
28.98077690598734
 20
-29.53749961853032
 30
0.0
  0
VERTEX
  5
338
330
321
100
AcDbEntity
  8
GEB-VERDECKT
 48
5.0
100
AcDbVertex
100
AcDb2dVertex
 10
28.93695676324137
 20
-29.44166727066045
 30
0.0
  0
VERTEX
  5
339
330
321
100
AcDbEntity
  8
GEB-VERDECKT
 48
5.0
100
AcDbVertex
100
AcDb2dVertex
 10
28.89303112027415
 20
-29.34583253860478
 30
0.0
  0
VERTEX
  5
33A
330
321
100
AcDbEntity
  8
GEB-VERDECKT
 48
5.0
100
AcDbVertex
100
AcDb2dVertex
 10
28.84899997708567
 20
-29.25000019073491
 30
0.0
  0
SEQEND
  5
33B
330
321
100
AcDbEntity
  8
GEB-VERDECKT
 48
5.0
  0
LINE
  5
33C
330
2
100
AcDbEntity
  8
GEB-VERDECKT
 48
5.0
100
AcDbLine
 10
28.84899982082652
 20
-31.74999999999989
 30
0.0
 11
28.84899982082652
 21
-31.54999999999996
 31
0.0
  0
LINE
  5
33D
330
2
100
AcDbEntity
  8
GEB-VERDECKT
 48
5.0
100
AcDbLine
 10
30.83319967227203
 20
-31.54999999999996
 30
0.0
 11
30.83319967227203
 21
-31.74999999999989
 31
0.0
  0
LINE
  5
33E
330
2
100
AcDbEntity
  8
GEB-VERDECKT
 48
5.0
100
AcDbLine
 10
12.16680032768249
 20
-31.54999999999996
 30
0.0
 11
11.82864091926603
 21
-31.54999999999996
 31
0.0
  0
LINE
  5
33F
330
2
100
AcDbEntity
  8
GEB-VERDECKT
 48
5.0
100
AcDbLine
 10
13.88473236558889
 20
-31.75000019073491
 30
0.0
 11
13.88473236558889
 21
-31.55000038146977
 31
0.0
  0
LINE
  5
340
330
2
100
AcDbEntity
  8
GEB-VERDECKT
 48
5.0
100
AcDbLine
 10
11.82864093778562
 20
-31.55000038146977
 30
0.0
 11
11.82864093778562
 21
-31.75000019073491
 31
0.0
  0
LINE
  5
341
330
2
100
AcDbEntity
  8
GEB-VERDECKT
 48
5.0
100
AcDbLine
 10
12.16680032768249
 20
-29.24999999999989
 30
0.0
 11
11.82864091926603
 21
-29.24999999999989
 31
0.0
  0
POLYLINE
  5
342
330
2
100
AcDbEntity
  8
GEB-VERDECKT
 48
5.0
100
AcDb2dPolyline
 66
     1
 10
0.0
 20
0.0
 30
0.0
 70
   128
  0
VERTEX
  5
343
330
342
100
AcDbEntity
  8
GEB-VERDECKT
 48
5.0
100
AcDbVertex
100
AcDb2dVertex
 10
12.82110714910482
 20
-31.55000038146977
 30
0.0
  0
VERTEX
  5
344
330
342
100
AcDbEntity
  8
GEB-VERDECKT
 48
5.0
100
AcDbVertex
100
AcDb2dVertex
 10
12.8640624284551
 20
-31.45416564941411
 30
0.0
  0
VERTEX
  5
345
330
342
100
AcDbEntity
  8
GEB-VERDECKT
 48
5.0
100
AcDbVertex
100
AcDb2dVertex
 10
12.90714108942006
 20
-31.35833330154424
 30
0.0
  0
VERTEX
  5
346
330
342
100
AcDbEntity
  8
GEB-VERDECKT
 48
5.0
100
AcDbVertex
100
AcDb2dVertex
 10
12.95034193990682
 20
-31.26250095367436
 30
0.0
  0
VERTEX
  5
347
330
342
100
AcDbEntity
  8
GEB-VERDECKT
 48
5.0
100
AcDbVertex
100
AcDb2dVertex
 10
12.99366497991536
 20
-31.1666662216187
 30
0.0
  0
VERTEX
  5
348
330
342
100
AcDbEntity
  8
GEB-VERDECKT
 48
5.0
100
AcDbVertex
100
AcDb2dVertex
 10
13.0371090173528
 20
-31.07083387374883
 30
0.0
  0
VERTEX
  5
349
330
342
100
AcDbEntity
  8
GEB-VERDECKT
 48
5.0
100
AcDbVertex
100
AcDb2dVertex
 10
13.08067345617269
 20
-30.97499914169316
 30
0.0
  0
VERTEX
  5
34A
330
342
100
AcDbEntity
  8
GEB-VERDECKT
 48
5.0
100
AcDbVertex
100
AcDb2dVertex
 10
13.12435770032857
 20
-30.87916679382329
 30
0.0
  0
VERTEX
  5
34B
330
342
100
AcDbEntity
  8
GEB-VERDECKT
 48
5.0
100
AcDbVertex
100
AcDb2dVertex
 10
13.16816174982045
 20
-30.78333444595342
 30
0.0
  0
VERTEX
  5
34C
330
342
100
AcDbEntity
  8
GEB-VERDECKT
 48
5.0
100
AcDbVertex
100
AcDb2dVertex
 10
13.21208381650899
 20
-30.68749971389775
 30
0.0
  0
VERTEX
  5
34D
330
342
100
AcDbEntity
  8
GEB-VERDECKT
 48
5.0
100
AcDbVertex
100
AcDb2dVertex
 10
13.25612449644063
 20
-30.59166736602788
 30
0.0
  0
VERTEX
  5
34E
330
342
100
AcDbEntity
  8
GEB-VERDECKT
 48
5.0
100
AcDbVertex
100
AcDb2dVertex
 10
13.30028200147603
 20
-30.49583263397221
 30
0.0
  0
VERTEX
  5
34F
330
342
100
AcDbEntity
  8
GEB-VERDECKT
 48
5.0
100
AcDbVertex
100
AcDb2dVertex
 10
13.34455692766164
 20
-30.40000028610234
 30
0.0
  0
VERTEX
  5
350
330
342
100
AcDbEntity
  8
GEB-VERDECKT
 48
5.0
100
AcDbVertex
100
AcDb2dVertex
 10
13.38894748685811
 20
-30.30416555404668
 30
0.0
  0
VERTEX
  5
351
330
342
100
AcDbEntity
  8
GEB-VERDECKT
 48
5.0
100
AcDbVertex
100
AcDb2dVertex
 10
13.4334542751119
 20
-30.2083332061768
 30
0.0
  0
VERTEX
  5
352
330
342
100
AcDbEntity
  8
GEB-VERDECKT
 48
5.0
100
AcDbVertex
100
AcDb2dVertex
 10
13.47807550428365
 20
-30.11250085830693
 30
0.0
  0
VERTEX
  5
353
330
342
100
AcDbEntity
  8
GEB-VERDECKT
 48
5.0
100
AcDbVertex
100
AcDb2dVertex
 10
13.52281117437337
 20
-30.01666612625127
 30
0.0
  0
VERTEX
  5
354
330
342
100
AcDbEntity
  8
GEB-VERDECKT
 48
5.0
100
AcDbVertex
100
AcDb2dVertex
 10
13.56766009328817
 20
-29.9208337783814
 30
0.0
  0
VERTEX
  5
355
330
342
100
AcDbEntity
  8
GEB-VERDECKT
 48
5.0
100
AcDbVertex
100
AcDb2dVertex
 10
13.61262226102804
 20
-29.82499904632573
 30
0.0
  0
VERTEX
  5
356
330
342
100
AcDbEntity
  8
GEB-VERDECKT
 48
5.0
100
AcDbVertex
100
AcDb2dVertex
 10
13.65769648550008
 20
-29.72916669845586
 30
0.0
  0
VERTEX
  5
357
330
342
100
AcDbEntity
  8
GEB-VERDECKT
 48
5.0
100
AcDbVertex
100
AcDb2dVertex
 10
13.7028827667043
 20
-29.63333435058599
 30
0.0
  0
VERTEX
  5
358
330
342
100
AcDbEntity
  8
GEB-VERDECKT
 48
5.0
100
AcDbVertex
100
AcDb2dVertex
 10
13.74818050859426
 20
-29.53749961853032
 30
0.0
  0
VERTEX
  5
359
330
342
100
AcDbEntity
  8
GEB-VERDECKT
 48
5.0
100
AcDbVertex
100
AcDb2dVertex
 10
13.7935879230306
 20
-29.44166727066045
 30
0.0
  0
VERTEX
  5
35A
330
342
100
AcDbEntity
  8
GEB-VERDECKT
 48
5.0
100
AcDbVertex
100
AcDb2dVertex
 10
13.83910560605977
 20
-29.34583253860478
 30
0.0
  0
VERTEX
  5
35B
330
342
100
AcDbEntity
  8
GEB-VERDECKT
 48
5.0
100
AcDbVertex
100
AcDb2dVertex
 10
13.88473236558889
 20
-29.25000019073491
 30
0.0
  0
SEQEND
  5
35C
330
342
100
AcDbEntity
  8
GEB-VERDECKT
 48
5.0
  0
POLYLINE
  5
35D
330
2
100
AcDbEntity
  8
GEB-VERDECKT
 48
5.0
100
AcDb2dPolyline
 66
     1
 10
0.0
 20
0.0
 30
0.0
 70
   128
  0
VERTEX
  5
35E
330
35D
100
AcDbEntity
  8
GEB-VERDECKT
 48
5.0
100
AcDbVertex
100
AcDb2dVertex
 10
11.82864093778562
 20
-29.25000019073491
 30
0.0
  0
VERTEX
  5
35F
330
35D
100
AcDbEntity
  8
GEB-VERDECKT
 48
5.0
100
AcDbVertex
100
AcDb2dVertex
 10
11.8684645890994
 20
-29.34583253860478
 30
0.0
  0
VERTEX
  5
360
330
35D
100
AcDbEntity
  8
GEB-VERDECKT
 48
5.0
100
AcDbVertex
100
AcDb2dVertex
 10
11.90842592714261
 20
-29.44166727066045
 30
0.0
  0
VERTEX
  5
361
330
35D
100
AcDbEntity
  8
GEB-VERDECKT
 48
5.0
100
AcDbVertex
100
AcDb2dVertex
 10
11.94852375982236
 20
-29.53749961853032
 30
0.0
  0
VERTEX
  5
362
330
35D
100
AcDbEntity
  8
GEB-VERDECKT
 48
5.0
100
AcDbVertex
100
AcDb2dVertex
 10
11.9887574910922
 20
-29.63333435058599
 30
0.0
  0
VERTEX
  5
363
330
35D
100
AcDbEntity
  8
GEB-VERDECKT
 48
5.0
100
AcDbVertex
100
AcDb2dVertex
 10
12.02912652490568
 20
-29.72916669845586
 30
0.0
  0
VERTEX
  5
364
330
35D
100
AcDbEntity
  8
GEB-VERDECKT
 48
5.0
100
AcDbVertex
100
AcDb2dVertex
 10
12.06963086126279
 20
-29.82499904632573
 30
0.0
  0
VERTEX
  5
365
330
35D
100
AcDbEntity
  8
GEB-VERDECKT
 48
5.0
100
AcDbVertex
100
AcDb2dVertex
 10
12.11026930807065
 20
-29.9208337783814
 30
0.0
  0
VERTEX
  5
366
330
35D
100
AcDbEntity
  8
GEB-VERDECKT
 48
5.0
100
AcDbVertex
100
AcDb2dVertex
 10
12.15104126928281
 20
-30.01666612625127
 30
0.0
  0
VERTEX
  5
367
330
35D
100
AcDbEntity
  8
GEB-VERDECKT
 48
5.0
100
AcDbVertex
100
AcDb2dVertex
 10
12.19194674489927
 20
-30.11250085830693
 30
0.0
  0
VERTEX
  5
368
330
35D
100
AcDbEntity
  8
GEB-VERDECKT
 48
5.0
100
AcDbVertex
100
AcDb2dVertex
 10
12.23298454282712
 20
-30.2083332061768
 30
0.0
  0
VERTEX
  5
369
330
35D
100
AcDbEntity
  8
GEB-VERDECKT
 48
5.0
100
AcDbVertex
100
AcDb2dVertex
 10
12.27415466306638
 20
-30.30416555404668
 30
0.0
  0
VERTEX
  5
36A
330
35D
100
AcDbEntity
  8
GEB-VERDECKT
 48
5.0
100
AcDbVertex
100
AcDb2dVertex
 10
12.31545591352414
 20
-30.40000028610234
 30
0.0
  0
VERTEX
  5
36B
330
35D
100
AcDbEntity
  8
GEB-VERDECKT
 48
5.0
100
AcDbVertex
100
AcDb2dVertex
 10
12.35688829420041
 20
-30.49583263397221
 30
0.0
  0
VERTEX
  5
36C
330
35D
100
AcDbEntity
  8
GEB-VERDECKT
 48
5.0
100
AcDbVertex
100
AcDb2dVertex
 10
12.39845061300229
 20
-30.59166736602788
 30
0.0
  0
VERTEX
  5
36D
330
35D
100
AcDbEntity
  8
GEB-VERDECKT
 48
5.0
100
AcDbVertex
100
AcDb2dVertex
 10
12.44014286992978
 20
-30.68749971389775
 30
0.0
  0
VERTEX
  5
36E
330
35D
100
AcDbEntity
  8
GEB-VERDECKT
 48
5.0
100
AcDbVertex
100
AcDb2dVertex
 10
12.48196387288999
 20
-30.78333444595342
 30
0.0
  0
VERTEX
  5
36F
330
35D
100
AcDbEntity
  8
GEB-VERDECKT
 48
5.0
100
AcDbVertex
100
AcDb2dVertex
 10
12.52391362188291
 20
-30.87916679382329
 30
0.0
  0
VERTEX
  5
370
330
35D
100
AcDbEntity
  8
GEB-VERDECKT
 48
5.0
100
AcDbVertex
100
AcDb2dVertex
 10
12.56599092481565
 20
-30.97499914169316
 30
0.0
  0
VERTEX
  5
371
330
35D
100
AcDbEntity
  8
GEB-VERDECKT
 48
5.0
100
AcDbVertex
100
AcDb2dVertex
 10
12.60819578168821
 20
-31.07083387374883
 30
0.0
  0
VERTEX
  5
372
330
35D
100
AcDbEntity
  8
GEB-VERDECKT
 48
5.0
100
AcDbVertex
100
AcDb2dVertex
 10
12.65052700040792
 20
-31.1666662216187
 30
0.0
  0
VERTEX
  5
373
330
35D
100
AcDbEntity
  8
GEB-VERDECKT
 48
5.0
100
AcDbVertex
100
AcDb2dVertex
 10
12.69298458097432
 20
-31.26250095367436
 30
0.0
  0
VERTEX
  5
374
330
35D
100
AcDbEntity
  8
GEB-VERDECKT
 48
5.0
100
AcDbVertex
100
AcDb2dVertex
 10
12.73556733129476
 20
-31.35833330154424
 30
0.0
  0
VERTEX
  5
375
330
35D
100
AcDbEntity
  8
GEB-VERDECKT
 48
5.0
100
AcDbVertex
100
AcDb2dVertex
 10
12.77827525136922
 20
-31.45416564941411
 30
0.0
  0
VERTEX
  5
376
330
35D
100
AcDbEntity
  8
GEB-VERDECKT
 48
5.0
100
AcDbVertex
100
AcDb2dVertex
 10
12.82110714910482
 20
-31.55000038146977
 30
0.0
  0
SEQEND
  5
377
330
35D
100
AcDbEntity
  8
GEB-VERDECKT
 48
5.0
  0
LINE
  5
378
330
2
100
AcDbEntity
  8
GEB-VERDECKT
 48
5.0
100
AcDbLine
 10
13.12456484000927
 20
-31.55000000000007
 30
0.0
 11
12.16680032768249
 21
-31.55000000000007
 31
0.0
  0
POLYLINE
  5
379
330
2
100
AcDbEntity
  8
GEB-VERDECKT
 48
5.0
100
AcDb2dPolyline
 66
     1
 10
0.0
 20
0.0
 30
0.0
 70
   128
  0
VERTEX
  5
37A
330
379
100
AcDbEntity
  8
GEB-VERDECKT
 48
5.0
100
AcDbVertex
100
AcDb2dVertex
 10
12.16680014131475
 20
-29.25000019073491
 30
0.0
  0
VERTEX
  5
37B
330
379
100
AcDbEntity
  8
GEB-VERDECKT
 48
5.0
100
AcDbVertex
100
AcDb2dVertex
 10
12.20523202417303
 20
-29.34583253860478
 30
0.0
  0
VERTEX
  5
37C
330
379
100
AcDbEntity
  8
GEB-VERDECKT
 48
5.0
100
AcDbVertex
100
AcDb2dVertex
 10
12.24379563329626
 20
-29.44166727066045
 30
0.0
  0
VERTEX
  5
37D
330
379
100
AcDbEntity
  8
GEB-VERDECKT
 48
5.0
100
AcDbVertex
100
AcDb2dVertex
 10
12.28249156473111
 20
-29.53749961853032
 30
0.0
  0
VERTEX
  5
37E
330
379
100
AcDbEntity
  8
GEB-VERDECKT
 48
5.0
100
AcDbVertex
100
AcDb2dVertex
 10
12.3213180303378
 20
-29.63333435058599
 30
0.0
  0
VERTEX
  5
37F
330
379
100
AcDbEntity
  8
GEB-VERDECKT
 48
5.0
100
AcDbVertex
100
AcDb2dVertex
 10
12.36027622220945
 20
-29.72916669845586
 30
0.0
  0
VERTEX
  5
380
330
379
100
AcDbEntity
  8
GEB-VERDECKT
 48
5.0
100
AcDbVertex
100
AcDb2dVertex
 10
12.39936375616025
 20
-29.82499904632573
 30
0.0
  0
VERTEX
  5
381
330
379
100
AcDbEntity
  8
GEB-VERDECKT
 48
5.0
100
AcDbVertex
100
AcDb2dVertex
 10
12.43858122823667
 20
-29.9208337783814
 30
0.0
  0
VERTEX
  5
382
330
379
100
AcDbEntity
  8
GEB-VERDECKT
 48
5.0
100
AcDbVertex
100
AcDb2dVertex
 10
12.47792804239225
 20
-30.01666612625127
 30
0.0
  0
VERTEX
  5
383
330
379
100
AcDbEntity
  8
GEB-VERDECKT
 48
5.0
100
AcDbVertex
100
AcDb2dVertex
 10
12.51740300653409
 20
-30.11250085830693
 30
0.0
  0
VERTEX
  5
384
330
379
100
AcDbEntity
  8
GEB-VERDECKT
 48
5.0
100
AcDbVertex
100
AcDb2dVertex
 10
12.55700612066221
 20
-30.2083332061768
 30
0.0
  0
VERTEX
  5
385
330
379
100
AcDbEntity
  8
GEB-VERDECKT
 48
5.0
100
AcDbVertex
100
AcDb2dVertex
 10
12.59673678873014
 20
-30.30416555404668
 30
0.0
  0
VERTEX
  5
386
330
379
100
AcDbEntity
  8
GEB-VERDECKT
 48
5.0
100
AcDbVertex
100
AcDb2dVertex
 10
12.63659381864499
 20
-30.40000028610234
 30
0.0
  0
VERTEX
  5
387
330
379
100
AcDbEntity
  8
GEB-VERDECKT
 48
5.0
100
AcDbVertex
100
AcDb2dVertex
 10
12.67657721040677
 20
-30.49583263397221
 30
0.0
  0
VERTEX
  5
388
330
379
100
AcDbEntity
  8
GEB-VERDECKT
 48
5.0
100
AcDbVertex
100
AcDb2dVertex
 10
12.71668696401548
 20
-30.59166736602788
 30
0.0
  0
VERTEX
  5
389
330
379
100
AcDbEntity
  8
GEB-VERDECKT
 48
5.0
100
AcDbVertex
100
AcDb2dVertex
 10
12.75692129133176
 20
-30.68749971389775
 30
0.0
  0
VERTEX
  5
38A
330
379
100
AcDbEntity
  8
GEB-VERDECKT
 48
5.0
100
AcDbVertex
100
AcDb2dVertex
 10
12.79728019235563
 20
-30.78333444595342
 30
0.0
  0
VERTEX
  5
38B
330
379
100
AcDbEntity
  8
GEB-VERDECKT
 48
5.0
100
AcDbVertex
100
AcDb2dVertex
 10
12.83776247499418
 20
-30.87916679382329
 30
0.0
  0
VERTEX
  5
38C
330
379
100
AcDbEntity
  8
GEB-VERDECKT
 48
5.0
100
AcDbVertex
100
AcDb2dVertex
 10
12.87836873529386
 20
-30.97499914169316
 30
0.0
  0
VERTEX
  5
38D
330
379
100
AcDbEntity
  8
GEB-VERDECKT
 48
5.0
100
AcDbVertex
100
AcDb2dVertex
 10
12.91909778116178
 20
-31.07083387374883
 30
0.0
  0
VERTEX
  5
38E
330
379
100
AcDbEntity
  8
GEB-VERDECKT
 48
5.0
100
AcDbVertex
100
AcDb2dVertex
 10
12.95994901655149
 20
-31.1666662216187
 30
0.0
  0
VERTEX
  5
38F
330
379
100
AcDbEntity
  8
GEB-VERDECKT
 48
5.0
100
AcDbVertex
100
AcDb2dVertex
 10
13.00092184541654
 20
-31.26250095367436
 30
0.0
  0
VERTEX
  5
390
330
379
100
AcDbEntity
  8
GEB-VERDECKT
 48
5.0
100
AcDbVertex
100
AcDb2dVertex
 10
13.04201626775693
 20
-31.35833330154424
 30
0.0
  0
VERTEX
  5
391
330
379
100
AcDbEntity
  8
GEB-VERDECKT
 48
5.0
100
AcDbVertex
100
AcDb2dVertex
 10
13.08323049543332
 20
-31.45416564941411
 30
0.0
  0
VERTEX
  5
392
330
379
100
AcDbEntity
  8
GEB-VERDECKT
 48
5.0
100
AcDbVertex
100
AcDb2dVertex
 10
13.12456512449216
 20
-31.55000038146977
 30
0.0
  0
SEQEND
  5
393
330
379
100
AcDbEntity
  8
GEB-VERDECKT
 48
5.0
  0
LINE
  5
394
330
2
100
AcDbEntity
  8
GEB-VERDECKT
 48
5.0
100
AcDbLine
 10
14.151000179128
 20
-29.24999999999989
 30
0.0
 11
12.16680032768249
 21
-29.24999999999989
 31
0.0
  0
POLYLINE
  5
395
330
2
100
AcDbEntity
  8
GEB-VERDECKT
 48
5.0
100
AcDb2dPolyline
 66
     1
 10
0.0
 20
0.0
 30
0.0
 70
   128
  0
VERTEX
  5
396
330
395
100
AcDbEntity
  8
GEB-VERDECKT
 48
5.0
100
AcDbVertex
100
AcDb2dVertex
 10
13.12456512449216
 20
-31.55000038146977
 30
0.0
  0
VERTEX
  5
397
330
395
100
AcDbEntity
  8
GEB-VERDECKT
 48
5.0
100
AcDbVertex
100
AcDb2dVertex
 10
13.1660183667941
 20
-31.45416564941411
 30
0.0
  0
VERTEX
  5
398
330
395
100
AcDbEntity
  8
GEB-VERDECKT
 48
5.0
100
AcDbVertex
100
AcDb2dVertex
 10
13.20759081838559
 20
-31.35833330154424
 30
0.0
  0
VERTEX
  5
399
330
395
100
AcDbEntity
  8
GEB-VERDECKT
 48
5.0
100
AcDbVertex
100
AcDb2dVertex
 10
13.24928128717374
 20
-31.26250095367436
 30
0.0
  0
VERTEX
  5
39A
330
395
100
AcDbEntity
  8
GEB-VERDECKT
 48
5.0
100
AcDbVertex
100
AcDb2dVertex
 10
13.2910891771121
 20
-31.1666662216187
 30
0.0
  0
VERTEX
  5
39B
330
395
100
AcDbEntity
  8
GEB-VERDECKT
 48
5.0
100
AcDbVertex
100
AcDb2dVertex
 10
13.33301389215421
 20
-31.07083387374883
 30
0.0
  0
VERTEX
  5
39C
330
395
100
AcDbEntity
  8
GEB-VERDECKT
 48
5.0
100
AcDbVertex
100
AcDb2dVertex
 10
13.37505543230008
 20
-30.97499914169316
 30
0.0
  0
VERTEX
  5
39D
330
395
100
AcDbEntity
  8
GEB-VERDECKT
 48
5.0
100
AcDbVertex
100
AcDb2dVertex
 10
13.41721260545682
 20
-30.87916679382329
 30
0.0
  0
VERTEX
  5
39E
330
395
100
AcDbEntity
  8
GEB-VERDECKT
 48
5.0
100
AcDbVertex
100
AcDb2dVertex
 10
13.45948421953153
 20
-30.78333444595342
 30
0.0
  0
VERTEX
  5
39F
330
395
100
AcDbEntity
  8
GEB-VERDECKT
 48
5.0
100
AcDbVertex
100
AcDb2dVertex
 10
13.50187087057088
 20
-30.68749971389775
 30
0.0
  0
VERTEX
  5
3A0
330
395
100
AcDbEntity
  8
GEB-VERDECKT
 48
5.0
100
AcDbVertex
100
AcDb2dVertex
 10
13.54437196252797
 20
-30.59166736602788
 30
0.0
  0
VERTEX
  5
3A1
330
395
100
AcDbEntity
  8
GEB-VERDECKT
 48
5.0
100
AcDbVertex
100
AcDb2dVertex
 10
13.58698570726369
 20
-30.49583263397221
 30
0.0
  0
VERTEX
  5
3A2
330
395
100
AcDbEntity
  8
GEB-VERDECKT
 48
5.0
100
AcDbVertex
100
AcDb2dVertex
 10
13.62971210477804
 20
-30.40000028610234
 30
0.0
  0
VERTEX
  5
3A3
330
395
100
AcDbEntity
  8
GEB-VERDECKT
 48
5.0
100
AcDbVertex
100
AcDb2dVertex
 10
13.672551155071
 20
-30.30416555404668
 30
0.0
  0
VERTEX
  5
3A4
330
395
100
AcDbEntity
  8
GEB-VERDECKT
 48
5.0
100
AcDbVertex
100
AcDb2dVertex
 10
13.71550107000325
 20
-30.2083332061768
 30
0.0
  0
VERTEX
  5
3A5
330
395
100
AcDbEntity
  8
GEB-VERDECKT
 48
5.0
100
AcDbVertex
100
AcDb2dVertex
 10
13.75856244562124
 20
-30.11250085830693
 30
0.0
  0
VERTEX
  5
3A6
330
395
100
AcDbEntity
  8
GEB-VERDECKT
 48
5.0
100
AcDbVertex
100
AcDb2dVertex
 10
13.8017334937856
 20
-30.01666612625127
 30
0.0
  0
VERTEX
  5
3A7
330
395
100
AcDbEntity
  8
GEB-VERDECKT
 48
5.0
100
AcDbVertex
100
AcDb2dVertex
 10
13.84501481054281
 20
-29.9208337783814
 30
0.0
  0
VERTEX
  5
3A8
330
395
100
AcDbEntity
  8
GEB-VERDECKT
 48
5.0
100
AcDbVertex
100
AcDb2dVertex
 10
13.8884046077535
 20
-29.82499904632573
 30
0.0
  0
VERTEX
  5
3A9
330
395
100
AcDbEntity
  8
GEB-VERDECKT
 48
5.0
100
AcDbVertex
100
AcDb2dVertex
 10
13.93190348146413
 20
-29.72916669845586
 30
0.0
  0
VERTEX
  5
3AA
330
395
100
AcDbEntity
  8
GEB-VERDECKT
 48
5.0
100
AcDbVertex
100
AcDb2dVertex
 10
13.97550964353536
 20
-29.63333435058599
 30
0.0
  0
VERTEX
  5
3AB
330
395
100
AcDbEntity
  8
GEB-VERDECKT
 48
5.0
100
AcDbVertex
100
AcDb2dVertex
 10
14.01922309396718
 20
-29.53749961853032
 30
0.0
  0
VERTEX
  5
3AC
330
395
100
AcDbEntity
  8
GEB-VERDECKT
 48
5.0
100
AcDbVertex
100
AcDb2dVertex
 10
14.06304323671315
 20
-29.44166727066045
 30
0.0
  0
VERTEX
  5
3AD
330
395
100
AcDbEntity
  8
GEB-VERDECKT
 48
5.0
100
AcDbVertex
100
AcDb2dVertex
 10
14.10696887968038
 20
-29.34583253860478
 30
0.0
  0
VERTEX
  5
3AE
330
395
100
AcDbEntity
  8
GEB-VERDECKT
 48
5.0
100
AcDbVertex
100
AcDb2dVertex
 10
14.15100002286886
 20
-29.25000019073491
 30
0.0
  0
SEQEND
  5
3AF
330
395
100
AcDbEntity
  8
GEB-VERDECKT
 48
5.0
  0
LINE
  5
3B0
330
2
100
AcDbEntity
  8
GEB-VERDECKT
 48
5.0
100
AcDbLine
 10
14.15100017912777
 20
-31.54999999999996
 30
0.0
 11
13.12456484000927
 21
-31.54999999999996
 31
0.0
  0
LINE
  5
3B1
330
2
100
AcDbEntity
  8
GEB-VERDECKT
 48
5.0
100
AcDbLine
 10
14.151000179128
 20
-31.74999999999989
 30
0.0
 11
14.151000179128
 21
-31.54999999999996
 31
0.0
  0
LINE
  5
3B2
330
2
100
AcDbEntity
  8
GEB-VERDECKT
 48
5.0
100
AcDbLine
 10
12.16680032768249
 20
-31.54999999999996
 30
0.0
 11
12.16680032768249
 21
-31.74999999999989
 31
0.0
  0
LINE
  5
3B3
330
2
100
AcDbEntity
  8
GEB-VERDECKT
 48
5.0
100
AcDbLine
 10
7.599999999977171
 20
-44.69999999999993
 30
0.0
 11
7.599999999977171
 21
-24.0
 31
0.0
  0
LINE
  5
3B4
330
2
100
AcDbEntity
  8
GEB-VERDECKT
 48
5.0
100
AcDbLine
 10
9.089762812420303
 20
-49.99999999999989
 30
0.0
 11
7.599999999977171
 21
-44.69999999999993
 31
0.0
  0
POLYLINE
  5
3B5
330
2
100
AcDbEntity
  8
GEB-VERDECKT
 48
5.0
100
AcDb2dPolyline
 66
     1
 10
0.0
 20
0.0
 30
0.0
 70
   128
  0
VERTEX
  5
3B6
330
3B5
100
AcDbEntity
  8
GEB-VERDECKT
 48
5.0
100
AcDbVertex
100
AcDb2dVertex
 10
28.03547346590017
 20
-32.74999923706059
 30
0.0
  0
VERTEX
  5
3B7
330
3B5
100
AcDbEntity
  8
GEB-VERDECKT
 48
5.0
100
AcDbVertex
100
AcDb2dVertex
 10
28.03033792970632
 20
-32.56161518096928
 30
0.0
  0
VERTEX
  5
3B8
330
3B5
100
AcDbEntity
  8
GEB-VERDECKT
 48
5.0
100
AcDbVertex
100
AcDb2dVertex
 10
28.01505410669302
 20
-32.37349338531499
 30
0.0
  0
VERTEX
  5
3B9
330
3B5
100
AcDbEntity
  8
GEB-VERDECKT
 48
5.0
100
AcDbVertex
100
AcDb2dVertex
 10
27.98980677125906
 20
-32.18646593093877
 30
0.0
  0
VERTEX
  5
3BA
330
3B5
100
AcDbEntity
  8
GEB-VERDECKT
 48
5.0
100
AcDbVertex
100
AcDb2dVertex
 10
27.95477950571035
 20
-32.00136013031011
 30
0.0
  0
VERTEX
  5
3BB
330
3B5
100
AcDbEntity
  8
GEB-VERDECKT
 48
5.0
100
AcDbVertex
100
AcDb2dVertex
 10
27.9101570844457
 20
-31.81900568008428
 30
0.0
  0
VERTEX
  5
3BC
330
3B5
100
AcDbEntity
  8
GEB-VERDECKT
 48
5.0
100
AcDbVertex
100
AcDb2dVertex
 10
27.85612368581747
 20
-31.64023466110234
 30
0.0
  0
VERTEX
  5
3BD
330
3B5
100
AcDbEntity
  8
GEB-VERDECKT
 48
5.0
100
AcDbVertex
100
AcDb2dVertex
 10
27.79288315771101
 20
-31.46593637466435
 30
0.0
  0
VERTEX
  5
3BE
330
3B5
100
AcDbEntity
  8
GEB-VERDECKT
 48
5.0
100
AcDbVertex
100
AcDb2dVertex
 10
27.72063040731428
 20
-31.29704065322881
 30
0.0
  0
VERTEX
  5
3BF
330
3B5
100
AcDbEntity
  8
GEB-VERDECKT
 48
5.0
100
AcDbVertex
100
AcDb2dVertex
 10
27.63937616346357
 20
-31.1339981079102
 30
0.0
  0
VERTEX
  5
3C0
330
3B5
100
AcDbEntity
  8
GEB-VERDECKT
 48
5.0
100
AcDbVertex
100
AcDb2dVertex
 10
27.54911386964796
 20
-30.97720928192143
 30
0.0
  0
VERTEX
  5
3C1
330
3B5
100
AcDbEntity
  8
GEB-VERDECKT
 48
5.0
100
AcDbVertex
100
AcDb2dVertex
 10
27.44983816144941
 20
-30.82707948684697
 30
0.0
  0
VERTEX
  5
3C2
330
3B5
100
AcDbEntity
  8
GEB-VERDECKT
 48
5.0
100
AcDbVertex
100
AcDb2dVertex
 10
27.341542482357
 20
-30.6840092658997
 30
0.0
  0
VERTEX
  5
3C3
330
3B5
100
AcDbEntity
  8
GEB-VERDECKT
 48
5.0
100
AcDbVertex
100
AcDb2dVertex
 10
27.22424471376417
 20
-30.54843015670781
 30
0.0
  0
VERTEX
  5
3C4
330
3B5
100
AcDbEntity
  8
GEB-VERDECKT
 48
5.0
100
AcDbVertex
100
AcDb2dVertex
 10
27.09863388536451
 20
-30.42150802612309
 30
0.0
  0
VERTEX
  5
3C5
330
3B5
100
AcDbEntity
  8
GEB-VERDECKT
 48
5.0
100
AcDbVertex
100
AcDb2dVertex
 10
26.96531915662763
 20
-30.3040797233582
 30
0.0
  0
VERTEX
  5
3C6
330
3B5
100
AcDbEntity
  8
GEB-VERDECKT
 48
5.0
100
AcDbVertex
100
AcDb2dVertex
 10
26.82468974588414
 20
-30.19666976928716
 30
0.0
  0
VERTEX
  5
3C7
330
3B5
100
AcDbEntity
  8
GEB-VERDECKT
 48
5.0
100
AcDbVertex
100
AcDb2dVertex
 10
26.67713606355687
 20
-30.09980745315556
 30
0.0
  0
VERTEX
  5
3C8
330
3B5
100
AcDbEntity
  8
GEB-VERDECKT
 48
5.0
100
AcDbVertex
100
AcDb2dVertex
 10
26.52304792402288
 20
-30.01402206420903
 30
0.0
  0
VERTEX
  5
3C9
330
3B5
100
AcDbEntity
  8
GEB-VERDECKT
 48
5.0
100
AcDbVertex
100
AcDb2dVertex
 10
26.36293822525045
 20
-29.93990964889531
 30
0.0
  0
VERTEX
  5
3CA
330
3B5
100
AcDbEntity
  8
GEB-VERDECKT
 48
5.0
100
AcDbVertex
100
AcDb2dVertex
 10
26.197703421097
 20
-29.87822122573857
 30
0.0
  0
VERTEX
  5
3CB
330
3B5
100
AcDbEntity
  8
GEB-VERDECKT
 48
5.0
100
AcDbVertex
100
AcDb2dVertex
 10
26.02788472173711
 20
-29.82945508956914
 30
0.0
  0
VERTEX
  5
3CC
330
3B5
100
AcDbEntity
  8
GEB-VERDECKT
 48
5.0
100
AcDbVertex
100
AcDb2dVertex
 10
25.85428112743398
 20
-29.79413576126103
 30
0.0
  0
VERTEX
  5
3CD
330
3B5
100
AcDbEntity
  8
GEB-VERDECKT
 48
5.0
100
AcDbVertex
100
AcDb2dVertex
 10
25.67810767887136
 20
-29.77274007797246
 30
0.0
  0
VERTEX
  5
3CE
330
3B5
100
AcDbEntity
  8
GEB-VERDECKT
 48
5.0
100
AcDbVertex
100
AcDb2dVertex
 10
25.50000005958577
 20
-29.76554698944097
 30
0.0
  0
SEQEND
  5
3CF
330
3B5
100
AcDbEntity
  8
GEB-VERDECKT
 48
5.0
  0
POLYLINE
  5
3D0
330
2
100
AcDbEntity
  8
GEB-VERDECKT
 48
5.0
100
AcDb2dPolyline
 66
     1
 10
0.0
 20
0.0
 30
0.0
 70
   128
  0
VERTEX
  5
3D1
330
3D0
100
AcDbEntity
  8
GEB-VERDECKT
 48
5.0
100
AcDbVertex
100
AcDb2dVertex
 10
17.49999994037648
 20
-29.76554698944097
 30
0.0
  0
VERTEX
  5
3D2
330
3D0
100
AcDbEntity
  8
GEB-VERDECKT
 48
5.0
100
AcDbVertex
100
AcDb2dVertex
 10
17.34101140497228
 20
-29.7712952613831
 30
0.0
  0
VERTEX
  5
3D3
330
3D0
100
AcDbEntity
  8
GEB-VERDECKT
 48
5.0
100
AcDbVertex
100
AcDb2dVertex
 10
17.18368792531987
 20
-29.78835411071782
 30
0.0
  0
VERTEX
  5
3D4
330
3D0
100
AcDbEntity
  8
GEB-VERDECKT
 48
5.0
100
AcDbVertex
100
AcDb2dVertex
 10
17.02850157020589
 20
-29.81645650863652
 30
0.0
  0
VERTEX
  5
3D5
330
3D0
100
AcDbEntity
  8
GEB-VERDECKT
 48
5.0
100
AcDbVertex
100
AcDb2dVertex
 10
16.87592440841695
 20
-29.85533304214482
 30
0.0
  0
VERTEX
  5
3D6
330
3D0
100
AcDbEntity
  8
GEB-VERDECKT
 48
5.0
100
AcDbVertex
100
AcDb2dVertex
 10
16.72642821071645
 20
-29.90471429824834
 30
0.0
  0
VERTEX
  5
3D7
330
3D0
100
AcDbEntity
  8
GEB-VERDECKT
 48
5.0
100
AcDbVertex
100
AcDb2dVertex
 10
16.58031547067662
 20
-29.96440238952641
 30
0.0
  0
VERTEX
  5
3D8
330
3D0
100
AcDbEntity
  8
GEB-VERDECKT
 48
5.0
100
AcDbVertex
100
AcDb2dVertex
 10
16.43539988992711
 20
-30.03558225631719
 30
0.0
  0
VERTEX
  5
3D9
330
3D0
100
AcDbEntity
  8
GEB-VERDECKT
 48
5.0
100
AcDbVertex
100
AcDb2dVertex
 10
16.2914791106989
 20
-30.11919803619389
 30
0.0
  0
VERTEX
  5
3DA
330
3D0
100
AcDbEntity
  8
GEB-VERDECKT
 48
5.0
100
AcDbVertex
100
AcDb2dVertex
 10
16.14933633802434
 20
-30.21584815979009
 30
0.0
  0
VERTEX
  5
3DB
330
3D0
100
AcDbEntity
  8
GEB-VERDECKT
 48
5.0
100
AcDbVertex
100
AcDb2dVertex
 10
16.00975298879621
 20
-30.3261334419251
 30
0.0
  0
VERTEX
  5
3DC
330
3D0
100
AcDbEntity
  8
GEB-VERDECKT
 48
5.0
100
AcDbVertex
100
AcDb2dVertex
 10
15.8735134601402
 20
-30.45064992904668
 30
0.0
  0
VERTEX
  5
3DD
330
3D0
100
AcDbEntity
  8
GEB-VERDECKT
 48
5.0
100
AcDbVertex
100
AcDb2dVertex
 10
15.74294590948102
 20
-30.58826990127568
 30
0.0
  0
VERTEX
  5
3DE
330
3D0
100
AcDbEntity
  8
GEB-VERDECKT
 48
5.0
100
AcDbVertex
100
AcDb2dVertex
 10
15.62163376806256
 20
-30.7353336334229
 30
0.0
  0
VERTEX
  5
3DF
330
3D0
100
AcDbEntity
  8
GEB-VERDECKT
 48
5.0
100
AcDbVertex
100
AcDb2dVertex
 10
15.50989413259503
 20
-30.89090175628667
 30
0.0
  0
VERTEX
  5
3E0
330
3D0
100
AcDbEntity
  8
GEB-VERDECKT
 48
5.0
100
AcDbVertex
100
AcDb2dVertex
 10
15.40791237352368
 20
-31.05414218902593
 30
0.0
  0
VERTEX
  5
3E1
330
3D0
100
AcDbEntity
  8
GEB-VERDECKT
 48
5.0
100
AcDbVertex
100
AcDb2dVertex
 10
15.31587564943311
 20
-31.22437543869023
 30
0.0
  0
VERTEX
  5
3E2
330
3D0
100
AcDbEntity
  8
GEB-VERDECKT
 48
5.0
100
AcDbVertex
100
AcDb2dVertex
 10
15.23400568960187
 20
-31.40096492767339
 30
0.0
  0
VERTEX
  5
3E3
330
3D0
100
AcDbEntity
  8
GEB-VERDECKT
 48
5.0
100
AcDbVertex
100
AcDb2dVertex
 10
15.16252422330853
 20
-31.58328123092656
 30
0.0
  0
VERTEX
  5
3E4
330
3D0
100
AcDbEntity
  8
GEB-VERDECKT
 48
5.0
100
AcDbVertex
100
AcDb2dVertex
 10
15.10165297983167
 20
-31.77068777084355
 30
0.0
  0
VERTEX
  5
3E5
330
3D0
100
AcDbEntity
  8
GEB-VERDECKT
 48
5.0
100
AcDbVertex
100
AcDb2dVertex
 10
15.05173885820386
 20
-31.96195192337041
 30
0.0
  0
VERTEX
  5
3E6
330
3D0
100
AcDbEntity
  8
GEB-VERDECKT
 48
5.0
100
AcDbVertex
100
AcDb2dVertex
 10
15.01295232770894
 20
-32.15599842071538
 30
0.0
  0
VERTEX
  5
3E7
330
3D0
100
AcDbEntity
  8
GEB-VERDECKT
 48
5.0
100
AcDbVertex
100
AcDb2dVertex
 10
14.9852725267217
 20
-32.35234565734868
 30
0.0
  0
VERTEX
  5
3E8
330
3D0
100
AcDbEntity
  8
GEB-VERDECKT
 48
5.0
100
AcDbVertex
100
AcDb2dVertex
 10
14.96867978570913
 20
-32.55050725936894
 30
0.0
  0
VERTEX
  5
3E9
330
3D0
100
AcDbEntity
  8
GEB-VERDECKT
 48
5.0
100
AcDbVertex
100
AcDb2dVertex
 10
14.96315324304555
 20
-32.74999923706059
 30
0.0
  0
SEQEND
  5
3EA
330
3D0
100
AcDbEntity
  8
GEB-VERDECKT
 48
5.0
  0
LINE
  5
3EB
330
2
100
AcDbEntity
  8
GEB-VERDECKT
 48
5.0
100
AcDbLine
 10
14.96315304794189
 20
-32.75
 30
0.0
 11
14.96452625991628
 21
-32.75
 31
0.0
  0
LINE
  5
3EC
330
2
100
AcDbEntity
  8
GEB-VERDECKT
 48
5.0
100
AcDbLine
 10
11.67121574148132
 20
-44.70000000000005
 30
0.0
 11
7.599999999977171
 21
-44.70000000000005
 31
0.0
  0
LINE
  5
3ED
330
2
100
AcDbEntity
  8
GEB-VERDECKT
 48
5.0
100
AcDbLine
 10
12.72463712851959
 20
-49.99999999999989
 30
0.0
 11
11.67121574148132
 21
-44.69999999999993
 31
0.0
  0
LINE
  5
3EE
330
2
100
AcDbEntity
  8
GEB-VERDECKT
 48
5.0
100
AcDbLine
 10
11.67121574148132
 20
-44.69999999999993
 30
0.0
 11
11.67121574148132
 21
-24.0
 31
0.0
  0
LINE
  5
3EF
330
2
100
AcDbEntity
  8
GEB-VERDECKT
 48
5.0
100
AcDbLine
 10
11.74192641959985
 20
-24.0
 30
0.0
 11
11.74192641959985
 21
-44.69999999999993
 31
0.0
  0
LINE
  5
3F0
330
2
100
AcDbEntity
  8
GEB-VERDECKT
 48
5.0
100
AcDbLine
 10
11.74192641959985
 20
-44.69999999999993
 30
0.0
 11
12.79534780663835
 21
-49.99999999999989
 31
0.0
  0
LINE
  5
3F1
330
2
100
AcDbEntity
  8
GEB-KONTUR-A
 48
5.0
100
AcDbLine
 10
10.77154442633013
 20
-55.98312864254172
 30
0.0
 11
9.089762812420303
 21
-49.99999999999989
 31
0.0
  0
LINE
  5
3F2
330
2
100
AcDbEntity
  8
GEB-KONTUR-A
 48
5.0
100
AcDbLine
 10
13.91383631219037
 20
-55.98312864254172
 30
0.0
 11
10.77154442633013
 21
-55.98312864254172
 31
0.0
  0
LINE
  5
3F3
330
2
100
AcDbEntity
  8
GEB-KONTUR-A
 48
5.0
100
AcDbLine
 10
13.91383631219037
 20
-55.98312864254172
 30
0.0
 11
12.72463712851959
 21
-49.99999999999989
 31
0.0
  0
LINE
  5
3F4
330
2
100
AcDbEntity
  8
GEB-KONTUR-A
 48
5.0
100
AcDbLine
 10
12.79534780663835
 20
-49.99999999999989
 30
0.0
 11
13.97936922909184
 21
-55.95707816094978
 31
0.0
  0
LINE
  5
3F5
330
2
100
AcDbEntity
  8
GEB-KONTUR-A
 48
5.0
100
AcDbLine
 10
13.97936922909184
 20
-55.95707816094978
 30
0.0
 11
13.91383631219037
 21
-55.98312864254172
 31
0.0
  0
LINE
  5
3F6
330
2
100
AcDbEntity
  8
GEB-VERDECKT
 48
5.0
100
AcDbLine
 10
22.94999999997708
 20
-31.74999999999989
 30
0.0
 11
22.94999999997708
 21
-31.84999999999991
 31
0.0
  0
LINE
  5
3F7
330
2
100
AcDbEntity
  8
GEB-VERDECKT
 48
5.0
100
AcDbLine
 10
9.899999999977353
 20
-31.74999999999989
 30
0.0
 11
9.910073818638011
 21
-31.74999999999989
 31
0.0
  0
LINE
  5
3F8
330
2
100
AcDbEntity
  8
GEB-VERDECKT
 48
5.0
100
AcDbLine
 10
9.910073818638011
 20
-31.84999999999991
 30
0.0
 11
9.899999999977353
 21
-31.84999999999991
 31
0.0
  0
LINE
  5
3F9
330
2
100
AcDbEntity
  8
GEB-VERDECKT
 48
5.0
100
AcDbLine
 10
22.94999999997708
 20
-31.84999999999991
 30
0.0
 11
20.13292688968318
 21
-31.84999999999991
 31
0.0
  0
LINE
  5
3FA
330
2
100
AcDbEntity
  8
GEB-VERDECKT
 48
5.0
100
AcDbLine
 10
9.910073818638011
 20
-31.84999999999991
 30
0.0
 11
9.910073818638011
 21
-31.74999999999989
 31
0.0
  0
LINE
  5
3FB
330
2
100
AcDbEntity
  8
GEB-VERDECKT
 48
5.0
100
AcDbLine
 10
9.910073818638011
 20
-31.74999999999989
 30
0.0
 11
17.49999999997703
 21
-31.74999999999989
 31
0.0
  0
LINE
  5
3FC
330
2
100
AcDbEntity
  8
GEB-VERDECKT
 48
5.0
100
AcDbLine
 10
20.13292688968318
 20
-31.74999999999989
 30
0.0
 11
20.13292688968318
 21
-31.84999999999991
 31
0.0
  0
LINE
  5
3FD
330
2
100
AcDbEntity
  8
GEB-VERDECKT
 48
5.0
100
AcDbLine
 10
9.910073818638011
 20
-31.84999999999991
 30
0.0
 11
20.13292688968318
 21
-31.84999999999991
 31
0.0
  0
ARC
  5
3FE
330
2
100
AcDbEntity
  8
GEB-VERDECKT
 48
5.0
100
AcDbCircle
 10
26.53909963115439
 20
-55.70000000000004
 30
0.0
 40
1.0
100
AcDbArc
 50
189.9999999999975
 51
270.0
  0
ARC
  5
3FF
330
2
100
AcDbEntity
  8
GEB-VERDECKT
 48
5.0
100
AcDbCircle
 10
16.46090036879991
 20
-55.70000000000004
 30
0.0
 40
1.0
100
AcDbArc
 50
270.0
 51
350.0000000000025
  0
LINE
  5
400
330
2
100
AcDbEntity
  8
GEB-VERDECKT
 48
5.0
100
AcDbLine
 10
27.37499999997726
 20
-56.19999999999993
 30
0.0
 11
27.37499999997726
 21
-49.09999999999991
 31
0.0
  0
LINE
  5
401
330
2
100
AcDbEntity
  8
GEB-VERDECKT
 48
5.0
100
AcDbLine
 10
15.62499999997726
 20
-56.19999999999993
 30
0.0
 11
15.62499999997726
 21
-49.09999999999991
 31
0.0
  0
LINE
  5
402
330
2
100
AcDbEntity
  8
GEB-VERDECKT
 48
5.0
100
AcDbLine
 10
26.04999999997722
 20
-49.09999999999991
 30
0.0
 11
26.04999999997722
 21
-46.29999999999983
 31
0.0
  0
LINE
  5
403
330
2
100
AcDbEntity
  8
GEB-VERDECKT
 48
5.0
100
AcDbLine
 10
16.94999999997731
 20
-49.09999999999991
 30
0.0
 11
16.94999999997731
 21
-46.29999999999983
 31
0.0
  0
LINE
  5
404
330
2
100
AcDbEntity
  8
GEB-VERDECKT
 48
5.0
100
AcDbLine
 10
27.37499999997726
 20
-46.29999999999983
 30
0.0
 11
27.37499999997726
 21
-45.29999999999995
 31
0.0
  0
LINE
  5
405
330
2
100
AcDbEntity
  8
GEB-VERDECKT
 48
5.0
100
AcDbLine
 10
15.62499999997726
 20
-46.29999999999995
 30
0.0
 11
15.62499999997726
 21
-45.29999999999995
 31
0.0
  0
LINE
  5
406
330
2
100
AcDbEntity
  8
GEB-VERDECKT
 48
5.0
100
AcDbLine
 10
26.14999999997735
 20
-45.29999999999995
 30
0.0
 11
26.14999999997735
 21
-42.39999999999986
 31
0.0
  0
LINE
  5
407
330
2
100
AcDbEntity
  8
GEB-VERDECKT
 48
5.0
100
AcDbLine
 10
16.84999999997717
 20
-45.29999999999995
 30
0.0
 11
16.84999999997717
 21
-42.39999999999986
 31
0.0
  0
LINE
  5
408
330
2
100
AcDbEntity
  8
GEB-VERDECKT
 48
5.0
100
AcDbLine
 10
26.99999999997726
 20
-42.39999999999986
 30
0.0
 11
26.99999999997726
 21
-32.0
 31
0.0
  0
LINE
  5
409
330
2
100
AcDbEntity
  8
GEB-VERDECKT
 48
5.0
100
AcDbLine
 10
15.99999999997726
 20
-42.39999999999986
 30
0.0
 11
15.99999999997726
 21
-32.0
 31
0.0
  0
LINE
  5
40A
330
2
100
AcDbEntity
  8
GEB-VERDECKT
 48
5.0
100
AcDbLine
 10
29.97499999997717
 20
-32.0
 30
0.0
 11
29.97499999997717
 21
-30.59999999999991
 31
0.0
  0
LINE
  5
40B
330
2
100
AcDbEntity
  8
GEB-VERDECKT
 48
5.0
100
AcDbLine
 10
13.02499999997735
 20
-32.0
 30
0.0
 11
13.02499999997735
 21
-30.59999999999991
 31
0.0
  0
LINE
  5
40C
330
2
100
AcDbEntity
  8
GEB-VERDECKT
 48
5.0
100
AcDbLine
 10
28.39999999997713
 20
-30.59999999999991
 30
0.0
 11
28.39999999997713
 21
-28.79999999999984
 31
0.0
  0
LINE
  5
40D
330
2
100
AcDbEntity
  8
GEB-VERDECKT
 48
5.0
100
AcDbLine
 10
14.59999999997717
 20
-30.59999999999991
 30
0.0
 11
14.59999999997717
 21
-28.79999999999984
 31
0.0
  0
LINE
  5
40E
330
2
100
AcDbEntity
  8
GEB-VERDECKT
 48
5.0
100
AcDbLine
 10
29.97499999997717
 20
-28.79999999999984
 30
0.0
 11
29.97499999997717
 21
-26.79999999999996
 31
0.0
  0
LINE
  5
40F
330
2
100
AcDbEntity
  8
GEB-VERDECKT
 48
5.0
100
AcDbLine
 10
13.02499999997735
 20
-28.79999999999984
 30
0.0
 11
13.02499999997735
 21
-26.79999999999996
 31
0.0
  0
LINE
  5
410
330
2
100
AcDbEntity
  8
GEB-VERDECKT
 48
5.0
100
AcDbLine
 10
28.39999999997713
 20
-26.79999999999996
 30
0.0
 11
28.39999999997713
 21
-24.0
 31
0.0
  0
LINE
  5
411
330
2
100
AcDbEntity
  8
GEB-VERDECKT
 48
5.0
100
AcDbLine
 10
14.59999999997717
 20
-26.79999999999996
 30
0.0
 11
14.59999999997717
 21
-24.0
 31
0.0
  0
ARC
  5
412
330
2
100
AcDbEntity
  8
GEB-VERDECKT
 48
5.0
100
AcDbCircle
 10
16.12499999997726
 20
-56.19999999999993
 30
0.0
 40
0.5000000000000007
100
AcDbArc
 50
180.0
 51
270.0
  0
ARC
  5
413
330
2
100
AcDbEntity
  8
GEB-VERDECKT
 48
5.0
100
AcDbCircle
 10
26.87499999997726
 20
-56.19999999999993
 30
0.0
 40
0.5000000000000008
100
AcDbArc
 50
270.0
 51
0.0
  0
LINE
  5
414
330
2
100
AcDbEntity
  8
GEB-VERDECKT
 48
5.0
100
AcDbLine
 10
27.37499999997726
 20
-49.09999999999991
 30
0.0
 11
15.62499999997726
 21
-49.09999999999991
 31
0.0
  0
LINE
  5
415
330
2
100
AcDbEntity
  8
GEB-VERDECKT
 48
5.0
100
AcDbLine
 10
27.37499999997726
 20
-46.29999999999983
 30
0.0
 11
15.62499999997726
 21
-46.29999999999983
 31
0.0
  0
LINE
  5
416
330
2
100
AcDbEntity
  8
GEB-VERDECKT
 48
5.0
100
AcDbLine
 10
27.37499999997726
 20
-45.29999999999995
 30
0.0
 11
15.62499999997726
 21
-45.29999999999995
 31
0.0
  0
LINE
  5
417
330
2
100
AcDbEntity
  8
GEB-VERDECKT
 48
5.0
100
AcDbLine
 10
26.99999999997726
 20
-42.39999999999986
 30
0.0
 11
15.99999999997726
 21
-42.39999999999986
 31
0.0
  0
LINE
  5
418
330
2
100
AcDbEntity
  8
GEB-VERDECKT
 48
5.0
100
AcDbLine
 10
29.97499999997717
 20
-32.0
 30
0.0
 11
13.02499999997735
 21
-32.0
 31
0.0
  0
LINE
  5
419
330
2
100
AcDbEntity
  8
GEB-VERDECKT
 48
5.0
100
AcDbLine
 10
29.97499999997717
 20
-30.59999999999991
 30
0.0
 11
13.02499999997735
 21
-30.59999999999991
 31
0.0
  0
LINE
  5
41A
330
2
100
AcDbEntity
  8
GEB-VERDECKT
 48
5.0
100
AcDbLine
 10
29.97499999997717
 20
-28.79999999999984
 30
0.0
 11
13.02499999997735
 21
-28.79999999999984
 31
0.0
  0
LINE
  5
41B
330
2
100
AcDbEntity
  8
GEB-VERDECKT
 48
5.0
100
AcDbLine
 10
29.97499999997717
 20
-26.79999999999996
 30
0.0
 11
13.02499999997735
 21
-26.79999999999996
 31
0.0
  0
LINE
  5
41C
330
2
100
AcDbEntity
  8
GEB-VERDECKT
 48
5.0
100
AcDbLine
 10
17.94999999997708
 20
-24.0
 30
0.0
 11
17.94999999997708
 21
-53.01366681724847
 31
0.0
  0
LINE
  5
41D
330
2
100
AcDbEntity
  8
GEB-VERDECKT
 48
5.0
100
AcDbLine
 10
25.04999999997722
 20
-24.0
 30
0.0
 11
25.04999999997722
 21
-53.01366681724847
 31
0.0
  0
LINE
  5
41E
330
2
100
AcDbEntity
  8
GEB-VERDECKT
 48
5.0
100
AcDbLine
 10
17.94999999997708
 20
-53.01366681724847
 30
0.0
 11
17.445708121812
 21
-55.87364817766683
 31
0.0
  0
LINE
  5
41F
330
2
100
AcDbEntity
  8
GEB-VERDECKT
 48
5.0
100
AcDbLine
 10
25.04999999997722
 20
-53.01366681724847
 30
0.0
 11
25.5542918781423
 21
-55.87364817766683
 31
0.0
  0
LINE
  5
420
330
2
100
AcDbEntity
  8
GEB-VERDECKT
 48
5.0
100
AcDbLine
 10
17.94999999997708
 20
-53.01366681724847
 30
0.0
 11
25.04999999997722
 21
-53.01366681724847
 31
0.0
  0
LINE
  5
421
330
2
100
AcDbEntity
  8
GEB-VERDECKT
 48
5.0
100
AcDbLine
 10
16.12499999997726
 20
-56.69999999999993
 30
0.0
 11
26.87499999997726
 21
-56.69999999999993
 31
0.0
  0
LINE
  5
422
330
2
100
AcDbEntity
  8
GEB-VERDECKT
 48
5.0
100
AcDbLine
 10
13.19999999997731
 20
-13.0
 30
0.0
 11
13.19999999997731
 21
-16.88704895708758
 31
0.0
  0
LINE
  5
423
330
2
100
AcDbEntity
  8
GEB-VERDECKT
 48
5.0
100
AcDbLine
 10
29.79999999997744
 20
-13.0
 30
0.0
 11
29.79999999997744
 21
-16.88704895708758
 31
0.0
  0
LINE
  5
424
330
2
100
AcDbEntity
  8
GEB-VERDECKT
 48
5.0
100
AcDbLine
 10
6.499999999977262
 20
25.99999999999989
 30
0.0
 11
2.999999999977262
 21
25.99999999999989
 31
0.0
  0
LINE
  5
425
330
2
100
AcDbEntity
  8
GEB-VERDECKT
 48
5.0
100
AcDbLine
 10
6.499999999977262
 20
25.99999999999989
 30
0.0
 11
6.499999999969531
 21
0.0
 31
0.0
  0
LINE
  5
426
330
2
100
AcDbEntity
  8
GEB-VERDECKT
 48
5.0
100
AcDbLine
 10
2.999999999977262
 20
25.99999999999989
 30
0.0
 11
2.999999999969531
 21
0.0
 31
0.0
  0
LINE
  5
427
330
2
100
AcDbEntity
  8
GEB-VERDECKT
 48
5.0
100
AcDbLine
 10
2.999999999977262
 20
16.5
 30
0.0
 11
6.499999999977262
 21
16.5
 31
0.0
  0
LINE
  5
428
330
2
100
AcDbEntity
  8
GEB-VERDECKT
 48
5.0
100
AcDbLine
 10
2.999999999977262
 20
23.49999999999988
 30
0.0
 11
6.499999999977262
 21
23.49999999999988
 31
0.0
  0
LINE
  5
429
330
2
100
AcDbEntity
  8
GEB-VERDECKT
 48
5.0
100
AcDbLine
 10
2.99999999997135
 20
-3.5
 30
0.0
 11
6.49999999997135
 21
-3.5
 31
0.0
  0
LINE
  5
42A
330
2
100
AcDbEntity
  8
GEB-VERDECKT
 48
5.0
100
AcDbLine
 10
2.99999999997135
 20
3.499999999999886
 30
0.0
 11
6.49999999997135
 21
3.499999999999886
 31
0.0
  0
LINE
  5
42B
330
2
100
AcDbEntity
  8
GEB-VERDECKT
 48
5.0
100
AcDbLine
 10
29.79999999997744
 20
-13.0
 30
0.0
 11
54.99999999997726
 21
-13.0
 31
0.0
  0
LINE
  5
42C
330
2
100
AcDbEntity
  8
GEB-VERDECKT
 48
5.0
100
AcDbLine
 10
2.999999999977262
 20
-13.0
 30
0.0
 11
13.19999999997731
 21
-13.0
 31
0.0
  0
LINE
  5
42D
330
2
100
AcDbEntity
  8
GEB-VERDECKT
 48
5.0
100
AcDbLine
 10
6.499999999977262
 20
12.99999999999988
 30
0.0
 11
54.99999999997726
 21
12.99999999999988
 31
0.0
  0
LINE
  5
42E
330
2
100
AcDbEntity
  8
GEB-VERDECKT
 48
5.0
100
AcDbLine
 10
6.499999999976125
 20
-12.54602999660733
 30
0.0
 11
6.499999999976125
 21
-12.55703574175788
 31
0.0
  0
LINE
  5
42F
330
2
100
AcDbEntity
  8
GEB-VERDECKT
 48
5.0
100
AcDbLine
 10
2.999999999969759
 20
-4.421090101954632
 30
0.0
 11
6.499999999969759
 21
-4.421090101954632
 31
0.0
  0
LINE
  5
430
330
2
100
AcDbEntity
  8
GEB-VERDECKT
 48
5.0
100
AcDbLine
 10
2.999999999977035
 20
-12.96833265337773
 30
0.0
 11
2.999999999977262
 21
-13.0
 31
0.0
  0
POLYLINE
  5
431
330
2
100
AcDbEntity
  8
GEB-VERDECKT
 48
5.0
100
AcDb2dPolyline
 66
     1
 10
0.0
 20
0.0
 30
0.0
 70
   128
  0
VERTEX
  5
432
330
431
100
AcDbEntity
  8
GEB-VERDECKT
 48
5.0
100
AcDbVertex
100
AcDb2dVertex
 10
13.1999998092424
 20
-12.99999952316284
 30
0.0
  0
VERTEX
  5
433
330
431
100
AcDbEntity
  8
GEB-VERDECKT
 48
5.0
100
AcDbVertex
100
AcDb2dVertex
 10
13.21523833272545
 20
-12.99010753631592
 30
0.0
  0
VERTEX
  5
434
330
431
100
AcDbEntity
  8
GEB-VERDECKT
 48
5.0
100
AcDbVertex
100
AcDb2dVertex
 10
13.26075124738304
 20
-12.96083927154541
 30
0.0
  0
VERTEX
  5
435
330
431
100
AcDbEntity
  8
GEB-VERDECKT
 48
5.0
100
AcDbVertex
100
AcDb2dVertex
 10
13.33624052999084
 20
-12.91280746459961
 30
0.0
  0
VERTEX
  5
436
330
431
100
AcDbEntity
  8
GEB-VERDECKT
 48
5.0
100
AcDbVertex
100
AcDb2dVertex
 10
13.44140338895386
 20
-12.8466248512268
 30
0.0
  0
VERTEX
  5
437
330
431
100
AcDbEntity
  8
GEB-VERDECKT
 48
5.0
100
AcDbVertex
100
AcDb2dVertex
 10
13.57594299314064
 20
-12.76290297508239
 30
0.0
  0
VERTEX
  5
438
330
431
100
AcDbEntity
  8
GEB-VERDECKT
 48
5.0
100
AcDbVertex
100
AcDb2dVertex
 10
13.73955655095597
 20
-12.66225337982177
 30
0.0
  0
VERTEX
  5
439
330
431
100
AcDbEntity
  8
GEB-VERDECKT
 48
5.0
100
AcDbVertex
100
AcDb2dVertex
 10
13.93190312383194
 20
-12.54536271095276
 30
0.0
  0
VERTEX
  5
43A
330
431
100
AcDbEntity
  8
GEB-VERDECKT
 48
5.0
100
AcDbVertex
100
AcDb2dVertex
 10
14.15154266355034
 20
-12.41412043571472
 30
0.0
  0
VERTEX
  5
43B
330
431
100
AcDbEntity
  8
GEB-VERDECKT
 48
5.0
100
AcDbVertex
100
AcDb2dVertex
 10
14.39592051503632
 20
-12.27108836174011
 30
0.0
  0
VERTEX
  5
43C
330
431
100
AcDbEntity
  8
GEB-VERDECKT
 48
5.0
100
AcDbVertex
100
AcDb2dVertex
 10
14.6624379157779
 20
-12.11878180503845
 30
0.0
  0
VERTEX
  5
43D
330
431
100
AcDbEntity
  8
GEB-VERDECKT
 48
5.0
100
AcDbVertex
100
AcDb2dVertex
 10
14.94849729535531
 20
-11.95971488952636
 30
0.0
  0
VERTEX
  5
43E
330
431
100
AcDbEntity
  8
GEB-VERDECKT
 48
5.0
100
AcDbVertex
100
AcDb2dVertex
 10
15.2514986991639
 20
-11.79640412330627
 30
0.0
  0
VERTEX
  5
43F
330
431
100
AcDbEntity
  8
GEB-VERDECKT
 48
5.0
100
AcDbVertex
100
AcDb2dVertex
 10
15.56884455678391
 20
-11.63136601448059
 30
0.0
  0
VERTEX
  5
440
330
431
100
AcDbEntity
  8
GEB-VERDECKT
 48
5.0
100
AcDbVertex
100
AcDb2dVertex
 10
15.90266275403428
 20
-11.46469116210937
 30
0.0
  0
VERTEX
  5
441
330
431
100
AcDbEntity
  8
GEB-VERDECKT
 48
5.0
100
AcDbVertex
100
AcDb2dVertex
 10
16.26030135152268
 20
-11.29430651664734
 30
0.0
  0
VERTEX
  5
442
330
431
100
AcDbEntity
  8
GEB-VERDECKT
 48
5.0
100
AcDbVertex
100
AcDb2dVertex
 10
16.64029407498742
 20
-11.12308025360107
 30
0.0
  0
VERTEX
  5
443
330
431
100
AcDbEntity
  8
GEB-VERDECKT
 48
5.0
100
AcDbVertex
100
AcDb2dVertex
 10
17.04091477391625
 20
-10.95401525497436
 30
0.0
  0
VERTEX
  5
444
330
431
100
AcDbEntity
  8
GEB-VERDECKT
 48
5.0
100
AcDbVertex
100
AcDb2dVertex
 10
17.46044087407495
 20
-10.79011797904968
 30
0.0
  0
VERTEX
  5
445
330
431
100
AcDbEntity
  8
GEB-VERDECKT
 48
5.0
100
AcDbVertex
100
AcDb2dVertex
 10
17.89714622495057
 20
-10.6343936920166
 30
0.0
  0
VERTEX
  5
446
330
431
100
AcDbEntity
  8
GEB-VERDECKT
 48
5.0
100
AcDbVertex
100
AcDb2dVertex
 10
18.34931182858827
 20
-10.48986911773681
 30
0.0
  0
VERTEX
  5
447
330
431
100
AcDbEntity
  8
GEB-VERDECKT
 48
5.0
100
AcDbVertex
100
AcDb2dVertex
 10
18.81528425214174
 20
-10.36043524742126
 30
0.0
  0
VERTEX
  5
448
330
431
100
AcDbEntity
  8
GEB-VERDECKT
 48
5.0
100
AcDbVertex
100
AcDb2dVertex
 10
19.29246592519143
 20
-10.24854898452759
 30
0.0
  0
VERTEX
  5
449
330
431
100
AcDbEntity
  8
GEB-VERDECKT
 48
5.0
100
AcDbVertex
100
AcDb2dVertex
 10
19.77793145177225
 20
-10.1558244228363
 30
0.0
  0
VERTEX
  5
44A
330
431
100
AcDbEntity
  8
GEB-VERDECKT
 48
5.0
100
AcDbVertex
100
AcDb2dVertex
 10
20.26875066754678
 20
-10.08387684822082
 30
0.0
  0
VERTEX
  5
44B
330
431
100
AcDbEntity
  8
GEB-VERDECKT
 48
5.0
100
AcDbVertex
100
AcDb2dVertex
 10
20.76199460027078
 20
-10.03432035446167
 30
0.0
  0
VERTEX
  5
44C
330
431
100
AcDbEntity
  8
GEB-VERDECKT
 48
5.0
100
AcDbVertex
100
AcDb2dVertex
 10
21.25473427769998
 20
-10.00876784324646
 30
0.0
  0
VERTEX
  5
44D
330
431
100
AcDbEntity
  8
GEB-VERDECKT
 48
5.0
100
AcDbVertex
100
AcDb2dVertex
 10
21.7452661990867
 20
-10.00876784324646
 30
0.0
  0
VERTEX
  5
44E
330
431
100
AcDbEntity
  8
GEB-VERDECKT
 48
5.0
100
AcDbVertex
100
AcDb2dVertex
 10
22.2380058765159
 20
-10.03432035446167
 30
0.0
  0
VERTEX
  5
44F
330
431
100
AcDbEntity
  8
GEB-VERDECKT
 48
5.0
100
AcDbVertex
100
AcDb2dVertex
 10
22.7312498092399
 20
-10.08387684822082
 30
0.0
  0
VERTEX
  5
450
330
431
100
AcDbEntity
  8
GEB-VERDECKT
 48
5.0
100
AcDbVertex
100
AcDb2dVertex
 10
23.22206783292154
 20
-10.1558244228363
 30
0.0
  0
VERTEX
  5
451
330
431
100
AcDbEntity
  8
GEB-VERDECKT
 48
5.0
100
AcDbVertex
100
AcDb2dVertex
 10
23.70753335950235
 20
-10.24854898452759
 30
0.0
  0
VERTEX
  5
452
330
431
100
AcDbEntity
  8
GEB-VERDECKT
 48
5.0
100
AcDbVertex
100
AcDb2dVertex
 10
24.1847162246454
 20
-10.36043524742126
 30
0.0
  0
VERTEX
  5
453
330
431
100
AcDbEntity
  8
GEB-VERDECKT
 48
5.0
100
AcDbVertex
100
AcDb2dVertex
 10
24.65068864819887
 20
-10.48986911773681
 30
0.0
  0
VERTEX
  5
454
330
431
100
AcDbEntity
  8
GEB-VERDECKT
 48
5.0
100
AcDbVertex
100
AcDb2dVertex
 10
25.10285425183656
 20
-10.6343936920166
 30
0.0
  0
VERTEX
  5
455
330
431
100
AcDbEntity
  8
GEB-VERDECKT
 48
5.0
100
AcDbVertex
100
AcDb2dVertex
 10
25.53955841061975
 20
-10.79011797904968
 30
0.0
  0
VERTEX
  5
456
330
431
100
AcDbEntity
  8
GEB-VERDECKT
 48
5.0
100
AcDbVertex
100
AcDb2dVertex
 10
25.95908451077844
 20
-10.95401525497436
 30
0.0
  0
VERTEX
  5
457
330
431
100
AcDbEntity
  8
GEB-VERDECKT
 48
5.0
100
AcDbVertex
100
AcDb2dVertex
 10
26.35970640180017
 20
-11.12308025360107
 30
0.0
  0
VERTEX
  5
458
330
431
100
AcDbEntity
  8
GEB-VERDECKT
 48
5.0
100
AcDbVertex
100
AcDb2dVertex
 10
26.73969793317247
 20
-11.29430651664734
 30
0.0
  0
VERTEX
  5
459
330
431
100
AcDbEntity
  8
GEB-VERDECKT
 48
5.0
100
AcDbVertex
100
AcDb2dVertex
 10
27.09733772275376
 20
-11.46469116210937
 30
0.0
  0
VERTEX
  5
45A
330
431
100
AcDbEntity
  8
GEB-VERDECKT
 48
5.0
100
AcDbVertex
100
AcDb2dVertex
 10
27.43115472791123
 20
-11.63136601448059
 30
0.0
  0
VERTEX
  5
45B
330
431
100
AcDbEntity
  8
GEB-VERDECKT
 48
5.0
100
AcDbVertex
100
AcDb2dVertex
 10
27.7485017776246
 20
-11.79640412330627
 30
0.0
  0
VERTEX
  5
45C
330
431
100
AcDbEntity
  8
GEB-VERDECKT
 48
5.0
100
AcDbVertex
100
AcDb2dVertex
 10
28.05150318143319
 20
-11.95971488952636
 30
0.0
  0
VERTEX
  5
45D
330
431
100
AcDbEntity
  8
GEB-VERDECKT
 48
5.0
100
AcDbVertex
100
AcDb2dVertex
 10
28.33756256101106
 20
-12.11878180503845
 30
0.0
  0
VERTEX
  5
45E
330
431
100
AcDbEntity
  8
GEB-VERDECKT
 48
5.0
100
AcDbVertex
100
AcDb2dVertex
 10
28.60407876965974
 20
-12.27108836174011
 30
0.0
  0
VERTEX
  5
45F
330
431
100
AcDbEntity
  8
GEB-VERDECKT
 48
5.0
100
AcDbVertex
100
AcDb2dVertex
 10
28.84845781323907
 20
-12.41412043571472
 30
0.0
  0
VERTEX
  5
460
330
431
100
AcDbEntity
  8
GEB-VERDECKT
 48
5.0
100
AcDbVertex
100
AcDb2dVertex
 10
29.06809616086503
 20
-12.54536271095276
 30
0.0
  0
VERTEX
  5
461
330
431
100
AcDbEntity
  8
GEB-VERDECKT
 48
5.0
100
AcDbVertex
100
AcDb2dVertex
 10
29.260442733741
 20
-12.66225337982177
 30
0.0
  0
VERTEX
  5
462
330
431
100
AcDbEntity
  8
GEB-VERDECKT
 48
5.0
100
AcDbVertex
100
AcDb2dVertex
 10
29.42405748364968
 20
-12.76290297508239
 30
0.0
  0
VERTEX
  5
463
330
431
100
AcDbEntity
  8
GEB-VERDECKT
 48
5.0
100
AcDbVertex
100
AcDb2dVertex
 10
29.55859708783691
 20
-12.8466248512268
 30
0.0
  0
VERTEX
  5
464
330
431
100
AcDbEntity
  8
GEB-VERDECKT
 48
5.0
100
AcDbVertex
100
AcDb2dVertex
 10
29.66376113889282
 20
-12.91280746459961
 30
0.0
  0
VERTEX
  5
465
330
431
100
AcDbEntity
  8
GEB-VERDECKT
 48
5.0
100
AcDbVertex
100
AcDb2dVertex
 10
29.73924922940819
 20
-12.96083927154541
 30
0.0
  0
VERTEX
  5
466
330
431
100
AcDbEntity
  8
GEB-VERDECKT
 48
5.0
100
AcDbVertex
100
AcDb2dVertex
 10
29.78476333615868
 20
-12.99010753631592
 30
0.0
  0
VERTEX
  5
467
330
431
100
AcDbEntity
  8
GEB-VERDECKT
 48
5.0
100
AcDbVertex
100
AcDb2dVertex
 10
29.80000066754929
 20
-12.99999952316284
 30
0.0
  0
SEQEND
  5
468
330
431
100
AcDbEntity
  8
GEB-VERDECKT
 48
5.0
  0
LINE
  5
469
330
2
100
AcDbEntity
  8
GEB-VERDECKT
 48
5.0
100
AcDbLine
 10
7.249999999977262
 20
-23.18000000000006
 30
0.0
 11
7.249999999977262
 21
-24.00000000000011
 31
0.0
  0
LINE
  5
46A
330
2
100
AcDbEntity
  8
GEB-VERDECKT
 48
5.0
100
AcDbLine
 10
35.74999999997726
 20
-23.18000000000006
 30
0.0
 11
35.74999999997726
 21
-24.00000000000011
 31
0.0
  0
LINE
  5
46B
330
2
100
AcDbEntity
  8
GEB-VERDECKT
 48
5.0
100
AcDbLine
 10
10.19999999997731
 20
-22.38954988232831
 30
0.0
 11
7.249999999977262
 21
-23.18000000000006
 31
0.0
  0
LINE
  5
46C
330
2
100
AcDbEntity
  8
GEB-VERDECKT
 48
5.0
100
AcDbLine
 10
32.79999999997722
 20
-22.38954988232831
 30
0.0
 11
35.74999999997726
 21
-23.18000000000006
 31
0.0
  0
LINE
  5
46D
330
2
100
AcDbEntity
  8
GEB-VERDECKT
 48
5.0
100
AcDbLine
 10
10.19999999997731
 20
-20.98954988232822
 30
0.0
 11
10.19999999997731
 21
-22.38954988232831
 31
0.0
  0
LINE
  5
46E
330
2
100
AcDbEntity
  8
GEB-VERDECKT
 48
5.0
100
AcDbLine
 10
32.79999999997722
 20
-20.98954988232822
 30
0.0
 11
32.79999999997722
 21
-22.38954988232831
 31
0.0
  0
LINE
  5
46F
330
2
100
AcDbEntity
  8
GEB-VERDECKT
 48
5.0
100
AcDbLine
 10
32.79999999997722
 20
-20.98954988232822
 30
0.0
 11
34.69999999997731
 21
-20.48044641670902
 31
0.0
  0
LINE
  5
470
330
2
100
AcDbEntity
  8
GEB-VERDECKT
 48
5.0
100
AcDbLine
 10
10.19999999997731
 20
-20.98954988232822
 30
0.0
 11
8.299999999977217
 21
-20.48044641670902
 31
0.0
  0
LINE
  5
471
330
2
100
AcDbEntity
  8
GEB-VERDECKT
 48
5.0
100
AcDbLine
 10
8.299999999977217
 20
-18.20000000000004
 30
0.0
 11
8.299999999977217
 21
-20.48044641670913
 31
0.0
  0
LINE
  5
472
330
2
100
AcDbEntity
  8
GEB-VERDECKT
 48
5.0
100
AcDbLine
 10
34.69999999997731
 20
-18.20000000000004
 30
0.0
 11
34.69999999997731
 21
-20.48044641670902
 31
0.0
  0
LINE
  5
473
330
2
100
AcDbEntity
  8
GEB-VERDECKT
 48
5.0
100
AcDbLine
 10
13.19999999997731
 20
-16.88704895708758
 30
0.0
 11
8.299999999977217
 21
-18.20000000000004
 31
0.0
  0
LINE
  5
474
330
2
100
AcDbEntity
  8
GEB-VERDECKT
 48
5.0
100
AcDbLine
 10
29.79999999997744
 20
-16.88704895708758
 30
0.0
 11
34.69999999997731
 21
-18.20000000000004
 31
0.0
  0
LINE
  5
475
330
2
100
AcDbEntity
  8
GEB-VERDECKT
 48
5.0
100
AcDbLine
 10
7.249999999977262
 20
-24.00000000000011
 30
0.0
 11
35.74999999997726
 21
-24.00000000000011
 31
0.0
  0
LINE
  5
476
330
2
100
AcDbEntity
  8
GEB-VERDECKT
 48
5.0
100
AcDbLine
 10
7.249999999977262
 20
-23.18000000000006
 30
0.0
 11
35.74999999997726
 21
-23.18000000000006
 31
0.0
  0
LINE
  5
477
330
2
100
AcDbEntity
  8
GEB-VERDECKT
 48
5.0
100
AcDbLine
 10
10.19999999997731
 20
-22.38954988232831
 30
0.0
 11
32.79999999997722
 21
-22.38954988232831
 31
0.0
  0
LINE
  5
478
330
2
100
AcDbEntity
  8
GEB-VERDECKT
 48
5.0
100
AcDbLine
 10
10.19999999997731
 20
-20.98954988232822
 30
0.0
 11
32.79999999997722
 21
-20.98954988232822
 31
0.0
  0
LINE
  5
479
330
2
100
AcDbEntity
  8
GEB-VERDECKT
 48
5.0
100
AcDbLine
 10
8.299999999977217
 20
-20.48044641670902
 30
0.0
 11
34.69999999997708
 21
-20.48044641670902
 31
0.0
  0
LINE
  5
47A
330
2
100
AcDbEntity
  8
GEB-VERDECKT
 48
5.0
100
AcDbLine
 10
29.79999999997722
 20
-16.88704895708758
 30
0.0
 11
13.19999999997731
 21
-16.88704895708758
 31
0.0
  0
LINE
  5
47B
330
2
100
AcDbEntity
  8
GEB-VERDECKT
 48
5.0
100
AcDbLine
 10
8.299999999977217
 20
-18.20000000000004
 30
0.0
 11
34.69999999997708
 21
-18.20000000000004
 31
0.0
  0
LINE
  5
47C
330
2
100
AcDbEntity
  8
GEB-VERDECKT
 48
5.0
100
AcDbLine
 10
17.94999999997731
 20
-9.315500000000042
 30
0.0
 11
17.94999999997731
 21
-24.00000000000011
 31
0.0
  0
LINE
  5
47D
330
2
100
AcDbEntity
  8
GEB-VERDECKT
 48
5.0
100
AcDbLine
 10
25.04999999997722
 20
-9.315500000000042
 30
0.0
 11
25.04999999997722
 21
-24.00000000000011
 31
0.0
  0
POLYLINE
  5
47E
330
2
100
AcDbEntity
  8
GEB-VERDECKT
 48
5.0
100
AcDb2dPolyline
 66
     1
 10
0.0
 20
0.0
 30
0.0
 70
   128
  0
VERTEX
  5
47F
330
47E
100
AcDbEntity
  8
GEB-VERDECKT
 48
5.0
100
AcDbVertex
100
AcDb2dVertex
 10
17.95000004766098
 20
-9.315500259399414
 30
0.0
  0
VERTEX
  5
480
330
47E
100
AcDbEntity
  8
GEB-VERDECKT
 48
5.0
100
AcDbVertex
100
AcDb2dVertex
 10
17.9803447723159
 20
-9.303802847862243
 30
0.0
  0
VERTEX
  5
481
330
47E
100
AcDbEntity
  8
GEB-VERDECKT
 48
5.0
100
AcDbVertex
100
AcDb2dVertex
 10
18.07136940953819
 20
-9.269749522209167
 30
0.0
  0
VERTEX
  5
482
330
47E
100
AcDbEntity
  8
GEB-VERDECKT
 48
5.0
100
AcDbVertex
100
AcDb2dVertex
 10
18.22306084630554
 20
-9.214898943901062
 30
0.0
  0
VERTEX
  5
483
330
47E
100
AcDbEntity
  8
GEB-VERDECKT
 48
5.0
100
AcDbVertex
100
AcDb2dVertex
 10
18.43344259259765
 20
-9.142259359359741
 30
0.0
  0
VERTEX
  5
484
330
47E
100
AcDbEntity
  8
GEB-VERDECKT
 48
5.0
100
AcDbVertex
100
AcDb2dVertex
 10
18.69302797315163
 20
-9.058504700660705
 30
0.0
  0
VERTEX
  5
485
330
47E
100
AcDbEntity
  8
GEB-VERDECKT
 48
5.0
100
AcDbVertex
100
AcDb2dVertex
 10
18.9905409812693
 20
-8.970698118209838
 30
0.0
  0
VERTEX
  5
486
330
47E
100
AcDbEntity
  8
GEB-VERDECKT
 48
5.0
100
AcDbVertex
100
AcDb2dVertex
 10
19.32947921750565
 20
-8.881970643997192
 30
0.0
  0
VERTEX
  5
487
330
47E
100
AcDbEntity
  8
GEB-VERDECKT
 48
5.0
100
AcDbVertex
100
AcDb2dVertex
 10
19.71437025067826
 20
-8.795850872993469
 30
0.0
  0
VERTEX
  5
488
330
47E
100
AcDbEntity
  8
GEB-VERDECKT
 48
5.0
100
AcDbVertex
100
AcDb2dVertex
 10
20.13569641110917
 20
-8.719940781593322
 30
0.0
  0
VERTEX
  5
489
330
47E
100
AcDbEntity
  8
GEB-VERDECKT
 48
5.0
100
AcDbVertex
100
AcDb2dVertex
 10
20.58318543431779
 20
-8.661756515502929
 30
0.0
  0
VERTEX
  5
48A
330
47E
100
AcDbEntity
  8
GEB-VERDECKT
 48
5.0
100
AcDbVertex
100
AcDb2dVertex
 10
21.04293870923539
 20
-8.625221848487854
 30
0.0
  0
VERTEX
  5
48B
330
47E
100
AcDbEntity
  8
GEB-VERDECKT
 48
5.0
100
AcDbVertex
100
AcDb2dVertex
 10
21.50000023839493
 20
-8.612551093101501
 30
0.0
  0
VERTEX
  5
48C
330
47E
100
AcDbEntity
  8
GEB-VERDECKT
 48
5.0
100
AcDbVertex
100
AcDb2dVertex
 10
21.95706057546158
 20
-8.625221848487854
 30
0.0
  0
VERTEX
  5
48D
330
47E
100
AcDbEntity
  8
GEB-VERDECKT
 48
5.0
100
AcDbVertex
100
AcDb2dVertex
 10
22.41681385037919
 20
-8.661756515502929
 30
0.0
  0
VERTEX
  5
48E
330
47E
100
AcDbEntity
  8
GEB-VERDECKT
 48
5.0
100
AcDbVertex
100
AcDb2dVertex
 10
22.8643028735878
 20
-8.719940781593322
 30
0.0
  0
VERTEX
  5
48F
330
47E
100
AcDbEntity
  8
GEB-VERDECKT
 48
5.0
100
AcDbVertex
100
AcDb2dVertex
 10
23.28563022611161
 20
-8.795850872993469
 30
0.0
  0
VERTEX
  5
490
330
47E
100
AcDbEntity
  8
GEB-VERDECKT
 48
5.0
100
AcDbVertex
100
AcDb2dVertex
 10
23.67052125928422
 20
-8.881970643997192
 30
0.0
  0
VERTEX
  5
491
330
47E
100
AcDbEntity
  8
GEB-VERDECKT
 48
5.0
100
AcDbVertex
100
AcDb2dVertex
 10
24.00945949552101
 20
-8.970698118209838
 30
0.0
  0
VERTEX
  5
492
330
47E
100
AcDbEntity
  8
GEB-VERDECKT
 48
5.0
100
AcDbVertex
100
AcDb2dVertex
 10
24.30697250363869
 20
-9.058504700660705
 30
0.0
  0
VERTEX
  5
493
330
47E
100
AcDbEntity
  8
GEB-VERDECKT
 48
5.0
100
AcDbVertex
100
AcDb2dVertex
 10
24.56655788419312
 20
-9.142259359359741
 30
0.0
  0
VERTEX
  5
494
330
47E
100
AcDbEntity
  8
GEB-VERDECKT
 48
5.0
100
AcDbVertex
100
AcDb2dVertex
 10
24.77693843839233
 20
-9.214898943901062
 30
0.0
  0
VERTEX
  5
495
330
47E
100
AcDbEntity
  8
GEB-VERDECKT
 48
5.0
100
AcDbVertex
100
AcDb2dVertex
 10
24.92862987516014
 20
-9.269749522209167
 30
0.0
  0
VERTEX
  5
496
330
47E
100
AcDbEntity
  8
GEB-VERDECKT
 48
5.0
100
AcDbVertex
100
AcDb2dVertex
 10
25.01965570447533
 20
-9.303802847862243
 30
0.0
  0
VERTEX
  5
497
330
47E
100
AcDbEntity
  8
GEB-VERDECKT
 48
5.0
100
AcDbVertex
100
AcDb2dVertex
 10
25.04999923703781
 20
-9.315500259399414
 30
0.0
  0
SEQEND
  5
498
330
47E
100
AcDbEntity
  8
GEB-VERDECKT
 48
5.0
  0
LINE
  5
499
330
2
100
AcDbEntity
  8
GEB-VERDECKT
 48
5.0
100
AcDbLine
 10
25.04999999997722
 20
-9.315500000000042
 30
0.0
 11
53.06549999997741
 21
-9.315500000000042
 31
0.0
  0
LINE
  5
49A
330
2
100
AcDbEntity
  8
GEB-VERDECKT
 48
5.0
100
AcDbLine
 10
6.499999999977262
 20
-9.315500000000042
 30
0.0
 11
17.94999999997731
 21
-9.315500000000042
 31
0.0
  0
LINE
  5
49B
330
2
100
AcDbEntity
  8
GEB-VERDECKT
 48
5.0
100
AcDbLine
 10
6.499999999977262
 20
9.315499999999929
 30
0.0
 11
53.06549999997741
 21
9.315499999999929
 31
0.0
  0
LINE
  5
49C
330
2
100
AcDbEntity
  8
GEB-VERDECKT
 48
5.0
100
AcDbLine
 10
53.06549999997741
 20
-9.315500000000042
 30
0.0
 11
54.99999999997726
 21
-11.25
 31
0.0
  0
LINE
  5
49D
330
2
100
AcDbEntity
  8
GEB-VERDECKT
 48
5.0
100
AcDbLine
 10
53.06549999997741
 20
9.315499999999929
 30
0.0
 11
54.99999999997726
 21
11.25
 31
0.0
  0
LINE
  5
49E
330
2
100
AcDbEntity
  8
GEB-VERDECKT
 48
5.0
100
AcDbLine
 10
53.06549999997741
 20
-9.315500000000042
 30
0.0
 11
53.06549999997741
 21
9.315499999999929
 31
0.0
  0
MTEXT
  5
49F
330
2
100
AcDbEntity
  8
GEB-TEXT
 48
5.0
100
AcDbMText
 10
26.24999999998863
 20
-68.20000000000004
 30
0.0
 40
3.499999940395355
 41
95.20694873696598
 71
     2
 72
     1
  1
{Geberit PushFit \PAnWinSet 2x Mpad PF Rg d16-Rp1/2}
  7
GEB-TEXT
 73
     2
 44
0.9442214965820312
1001
ACAD
1000
MTEXTBEGIN
1070
    73
1070
     2
1070
    44
1040
0.9442214965820312
1070
    74
1070
     0
1000
MTEXTEND
  0
MTEXT
  5
4A2
330
2
100
AcDbEntity
  8
GEB-ART-NR
 48
5.0
100
AcDbMText
 10
26.80255656459986
 20
-80.04278125428028
 30
0.0
 40
3.499999940395355
 41
68.47765133677086
 71
     2
 72
     1
  1
{GEB-ART-NR: 650.290\P }
  7
GEB-ART-NR
 73
     2
 44
0.9442214965820312
1001
ACAD
1000
MTEXTBEGIN
1070
    73
1070
     2
1070
    44
1040
0.9442214965820312
1070
    74
1070
     0
1000
MTEXTEND
  0
ENDSEC
  0
SECTION
  2
OBJECTS
  0
DICTIONARY
  5
9
330
0
100
AcDbDictionary
281
     1
  3
ACAD_2007HEADERVARS_RT
350
562
  3
ACAD_COLOR
350
44
  3
ACAD_GROUP
350
31
  3
ACAD_LAYOUT
350
8
  3
ACAD_MATERIAL
350
13
  3
ACAD_MLEADERSTYLE
350
521
  3
ACAD_MLINESTYLE
350
32
  3
ACAD_PLOTSETTINGS
350
33
  3
ACAD_PLOTSTYLENAME
350
11
  3
ACAD_SCALELIST
350
45
  3
ACAD_TABLESTYLE
350
46
  3
ACAD_VISUALSTYLE
350
2B
  3
ACDB_RECOMPOSE_DATA
350
50A
  3
AcDbVariableDictionary
350
50B
  3
AcmDictionary
350
4B6
  3
AcmSystemVariableManager
350
573
  3
AMG
350
4A7
  0
DICTIONARY
  5
2C
330
28
100
AcDbDictionary
280
     1
281
     1
  0
DICTIONARY
  5
1C
330
E
100
AcDbDictionary
280
     1
281
     1
  3
ACAD_LAYERFILTERS
360
1D
  3
ACLYDICTIONARY
360
1E
  0
DICTIONARY
  5
3
330
2
100
AcDbDictionary
280
     1
281
     1
  3
ACAD_SORTENTS
360
4A5
  0
DICTIONARY
  5
562
102
{ACAD_REACTORS
330
9
102
}
330
9
100
AcDbDictionary
281
     1
  3
DIMARCSYM
350
563
  3
DIMLTEX1
350
565
  3
DIMLTEX2
350
566
  3
DIMLTYPE
350
564
  0
DICTIONARY
  5
44
102
{ACAD_REACTORS
330
9
102
}
330
9
100
AcDbDictionary
281
     1
  0
DICTIONARY
  5
31
102
{ACAD_REACTORS
330
9
102
}
330
9
100
AcDbDictionary
281
     1
  0
DICTIONARY
  5
8
102
{ACAD_REACTORS
330
9
102
}
330
9
100
AcDbDictionary
281
     1
  3
Layout1
350
D
  3
Model
350
7
  0
DICTIONARY
  5
13
102
{ACAD_REACTORS
330
9
102
}
330
9
100
AcDbDictionary
281
     1
  3
ByBlock
350
3C
  3
ByLayer
350
34
  3
Global
350
12
  0
DICTIONARY
  5
521
102
{ACAD_REACTORS
330
9
102
}
330
9
100
AcDbDictionary
281
     1
  3
Standard
350
522
  0
DICTIONARY
  5
32
102
{ACAD_REACTORS
330
9
102
}
330
9
100
AcDbDictionary
281
     1
  3
Standard
350
47
  0
DICTIONARY
  5
33
102
{ACAD_REACTORS
330
9
102
}
330
9
100
AcDbDictionary
281
     1
  0
ACDBDICTIONARYWDFLT
  5
11
102
{ACAD_REACTORS
330
9
102
}
330
9
100
AcDbDictionary
281
     1
  3
Normal
350
10
100
AcDbDictionaryWithDefault
340
10
  0
DICTIONARY
  5
45
102
{ACAD_REACTORS
330
9
102
}
330
9
100
AcDbDictionary
281
     1
  3
A0
350
4C
  3
A1
350
4D
  3
A2
350
4E
  3
A3
350
4F
  3
A4
350
50
  3
A5
350
51
  3
A6
350
52
  3
A7
350
53
  3
A8
350
54
  3
A9
350
55
  3
B0
350
56
  3
B1
350
57
  3
B2
350
58
  3
B3
350
59
  3
B4
350
5A
  3
B5
350
5B
  3
B6
350
5C
  3
B7
350
5D
  3
B8
350
5E
  3
B9
350
5F
  3
C0
350
60
  3
C1
350
61
  3
C2
350
62
  3
C3
350
63
  3
C4
350
64
  3
C5
350
65
  3
C6
350
66
  3
C7
350
67
  3
C8
350
68
  3
C9
350
69
  3
D0
350
6A
  3
D1
350
6B
  3
D2
350
6C
  0
DICTIONARY
  5
46
102
{ACAD_REACTORS
330
9
102
}
330
9
100
AcDbDictionary
281
     1
  3
Standard
350
48
  0
DICTIONARY
  5
2B
102
{ACAD_REACTORS
330
9
102
}
330
9
100
AcDbDictionary
281
     1
  3
2dWireframe
350
2A
  3
3D Hidden
350
519
  3
3dWireframe
350
4B
  3
Basic
350
518
  3
Brighten
350
51C
  3
ColorChange
350
520
  3
Conceptual
350
51A
  3
Dim
350
51B
  3
Facepattern
350
51F
  3
Flat
350
514
  3
FlatWithEdges
350
515
  3
Gouraud
350
516
  3
GouraudWithEdges
350
517
  3
Linepattern
350
51E
  3
Realistic
350
4A
  3
Thicken
350
51D
  0
XRECORD
  5
50A
102
{ACAD_REACTORS
330
9
102
}
330
9
100
AcDbXrecord
280
     1
 90
        1
330
48
  0
DICTIONARY
  5
50B
102
{ACAD_REACTORS
330
9
102
}
330
9
100
AcDbDictionary
281
     1
  3
CANNOSCALE
350
50F
  3
CMLEADERSTYLE
350
50D
  3
CTABLESTYLE
350
50C
  3
DIMASSOC
350
560
  3
HIDETEXT
350
55F
  3
INDEXCTL
350
55E
  3
LAYEREVAL
350
511
  3
LAYERNOTIFY
350
512
  3
LIGHTINGUNITS
350
510
  3
MSLTSCALE
350
50E
  3
SORTENTS
350
55D
  0
DICTIONARY
  5
4B6
102
{ACAD_REACTORS
330
9
102
}
330
9
100
AcDbDictionary
281
     1
  3
AcmStdDictionary
350
4B7
  0
DICTIONARY
  5
4A7
102
{ACAD_REACTORS
330
9
102
}
330
9
100
AcDbDictionary
281
     1
  3
AcMgSettings
350
4B1
  0
DICTIONARY
  5
1D
102
{ACAD_REACTORS
330
1C
102
}
330
1C
100
AcDbDictionary
281
     1
  0
DICTIONARY
  5
1E
102
{ACAD_REACTORS
330
1C
102
}
330
1C
100
AcDbDictionary
281
     1
1001
ACAD
1000
<All
  0
SORTENTSTABLE
  5
4A5
102
{ACAD_REACTORS
330
3
102
}
330
3
100
AcDbSortentsTable
330
2
331
169
  5
33F
331
132
  5
412
331
7D
  5
49A
331
226
  5
2B6
331
171
  5
2CF
331
13A
  5
40A
331
85
  5
479
331
1E7
  5
2C1
331
1EF
  5
2B9
331
142
  5
402
331
8D
  5
471
331
22E
  5
246
331
14A
  5
3FA
331
D4
  5
430
331
236
  5
23E
331
23E
  5
236
331
406
  5
13E
331
40E
  5
136
331
2EB
  5
16F
331
2B4
  5
228
331
416
  5
12E
331
41E
  5
126
331
47E
  5
80
331
DC
  5
428
331
152
  5
3F2
331
246
  5
22E
331
15A
  5
3D0
331
162
  5
394
331
AD
  5
46D
331
123
  5
421
331
12B
  5
419
331
2BC
  5
1EC
331
426
  5
11E
331
2C4
  5
1CA
331
3B0
  5
160
331
3EF
  5
155
331
2CC
  5
174
331
342
  5
166
331
379
  5
163
331
42E
  5
D6
331
3F7
  5
14D
331
3FF
  5
145
331
49E
  5
76
331
46F
  5
8F
331
477
  5
87
331
133
  5
411
331
7E
  5
499
331
16A
  5
33E
331
227
  5
2B5
331
172
  5
2CE
331
86
  5
478
331
13B
  5
409
331
1E8
  5
2C0
331
22F
  5
245
331
143
  5
401
331
8E
  5
470
331
237
  5
23D
331
D5
  5
42F
331
14B
  5
3F9
331
23F
  5
235
331
407
  5
13D
331
40F
  5
135
331
3D0
  5
15A
331
417
  5
12D
331
2B5
  5
227
331
41F
  5
125
331
153
  5
3F1
331
DD
  5
427
331
1C9
  5
2C5
331
247
  5
22D
331
15B
  5
3B5
331
192
  5
2C8
331
124
  5
420
331
AE
  5
46C
331
163
  5
379
331
12C
  5
418
331
27E
  5
22A
331
2BD
  5
1EB
331
3B1
  5
15F
331
2C5
  5
1C9
331
427
  5
DD
331
42F
  5
D5
331
2CD
  5
173
331
3F0
  5
154
331
3F8
  5
14C
331
49F
  5
6D
331
470
  5
8E
331
16B
  5
33D
331
134
  5
410
331
228
  5
2B4
331
173
  5
2CD
331
13C
  5
408
331
87
  5
477
331
1E9
  5
2BF
331
144
  5
400
331
8F
  5
46F
331
230
  5
244
331
238
  5
23C
331
D6
  5
42E
331
14C
  5
3F8
331
400
  5
144
331
408
  5
13C
331
410
  5
134
331
418
  5
12C
331
2B6
  5
226
331
478
  5
86
331
1CA
  5
2C4
331
154
  5
3F0
331
240
  5
234
331
15C
  5
3B4
331
164
  5
378
331
AF
  5
46B
331
125
  5
41F
331
12D
  5
417
331
420
  5
124
331
2BE
  5
1EA
331
428
  5
DC
331
2C6
  5
1AE
331
33C
  5
16C
331
3B2
  5
15E
331
3F1
  5
153
331
2CE
  5
172
331
430
  5
D4
331
3F9
  5
14B
331
469
  5
D2
331
471
  5
8D
331
74
  5
49F
331
78
  5
49C
331
135
  5
40F
331
80
  5
47E
331
16C
  5
33C
331
229
  5
299
331
174
  5
2CC
331
13D
  5
407
331
88
  5
476
331
1EA
  5
2BE
331
231
  5
243
331
145
  5
3FF
331
90
  5
46E
331
239
  5
23B
331
D7
  5
42D
331
14D
  5
3F7
331
401
  5
143
331
409
  5
13B
331
411
  5
133
331
419
  5
12B
331
2B7
  5
20B
331
479
  5
85
331
155
  5
3EF
331
241
  5
233
331
20A
  5
2B8
331
11E
  5
426
331
15D
  5
3B3
331
126
  5
41E
331
165
  5
35D
331
12E
  5
416
331
421
  5
123
331
2BF
  5
1E9
331
3B3
  5
15D
331
2C7
  5
1AD
331
33D
  5
16B
331
429
  5
DB
331
431
  5
D3
331
306
  5
16E
331
2CF
  5
171
331
3F2
  5
152
331
3FA
  5
14A
331
499
  5
7E
331
46A
  5
D1
331
472
  5
8C
331
6D
  5
4A2
331
79
  5
49B
331
16D
  5
321
331
136
  5
40E
331
81
  5
47D
331
175
  5
2CB
331
13E
  5
406
331
89
  5
475
331
1EB
  5
2BD
331
22A
  5
27E
331
146
  5
3FE
331
232
  5
242
331
14E
  5
3F6
331
402
  5
142
331
394
  5
162
331
40A
  5
13A
331
412
  5
132
331
35D
  5
165
331
41A
  5
12A
331
47A
  5
84
331
D8
  5
42C
331
242
  5
232
331
156
  5
3EE
331
20B
  5
2B7
331
15E
  5
3B2
331
11F
  5
425
331
166
  5
342
331
127
  5
41D
331
12F
  5
415
331
2B8
  5
20A
331
422
  5
122
331
2C0
  5
1E8
331
42A
  5
DA
331
3EB
  5
159
331
2C8
  5
192
331
33E
  5
16A
331
3B4
  5
15C
331
3F3
  5
151
331
3FB
  5
149
331
49A
  5
7D
331
4A2
  5
74
331
46B
  5
AF
331
473
  5
8B
331
76
  5
49E
331
1AD
  5
2C7
331
137
  5
40D
331
82
  5
47C
331
16E
  5
306
331
22B
  5
263
331
176
  5
2CA
331
13F
  5
405
331
8A
  5
474
331
1EC
  5
2BC
331
233
  5
241
331
D1
  5
46A
331
147
  5
3FD
331
14F
  5
3F5
331
23B
  5
239
331
299
  5
229
331
262
  5
22C
331
403
  5
141
331
395
  5
161
331
40B
  5
139
331
413
  5
131
331
41B
  5
129
331
47B
  5
83
331
D9
  5
42B
331
157
  5
3ED
331
243
  5
231
331
120
  5
424
331
15F
  5
3B1
331
128
  5
41C
331
167
  5
341
331
2B9
  5
1EF
331
423
  5
121
331
2C1
  5
1E7
331
42B
  5
D9
331
3B5
  5
15B
331
2C9
  5
177
331
33F
  5
169
331
3EC
  5
158
331
3F4
  5
150
331
3FC
  5
148
331
49B
  5
79
331
46C
  5
AE
331
474
  5
8A
331
77
  5
49D
331
130
  5
414
331
1E5
  5
2C3
331
16F
  5
2EB
331
138
  5
40C
331
83
  5
47B
331
1AE
  5
2C6
331
1ED
  5
2BB
331
140
  5
404
331
8B
  5
473
331
177
  5
2C9
331
22C
  5
262
331
148
  5
3FC
331
D2
  5
469
331
234
  5
240
331
23C
  5
238
331
404
  5
140
331
263
  5
22B
331
40C
  5
138
331
414
  5
130
331
41C
  5
128
331
47C
  5
82
331
DA
  5
42A
331
150
  5
3F4
331
244
  5
230
331
158
  5
3EC
331
160
  5
3B0
331
121
  5
423
331
129
  5
41B
331
2BA
  5
1EE
331
424
  5
120
331
2C2
  5
1E6
331
3ED
  5
157
331
2CA
  5
176
331
340
  5
168
331
42C
  5
D8
331
3F5
  5
14F
331
3FD
  5
147
331
49C
  5
78
331
46D
  5
AD
331
475
  5
89
331
131
  5
413
331
168
  5
340
331
139
  5
40B
331
84
  5
47A
331
170
  5
2EA
331
1E6
  5
2C2
331
22D
  5
247
331
1EE
  5
2BA
331
141
  5
403
331
8C
  5
472
331
235
  5
23F
331
D3
  5
431
331
149
  5
3FB
331
23D
  5
237
331
405
  5
13F
331
40D
  5
137
331
321
  5
16D
331
415
  5
12F
331
2EA
  5
170
331
41D
  5
127
331
47D
  5
81
331
DB
  5
429
331
151
  5
3F3
331
159
  5
3EB
331
245
  5
22F
331
122
  5
422
331
161
  5
395
331
12A
  5
41A
331
2BB
  5
1ED
331
425
  5
11F
331
2C3
  5
1E5
331
42D
  5
D7
331
378
  5
164
331
2CB
  5
175
331
341
  5
167
331
3EE
  5
156
331
3F6
  5
14E
331
3FE
  5
146
331
49D
  5
77
331
46E
  5
90
331
476
  5
88
  0
XRECORD
  5
563
102
{ACAD_REACTORS
330
562
102
}
330
562
100
AcDbXrecord
280
     1
 70
     1
  0
XRECORD
  5
565
102
{ACAD_REACTORS
330
562
102
}
330
562
100
AcDbXrecord
280
     1
340
24
  0
XRECORD
  5
566
102
{ACAD_REACTORS
330
562
102
}
330
562
100
AcDbXrecord
280
     1
340
24
  0
XRECORD
  5
564
102
{ACAD_REACTORS
330
562
102
}
330
562
100
AcDbXrecord
280
     1
340
24
  0
LAYOUT
  5
D
102
{ACAD_XDICTIONARY
360
569
102
}
102
{ACAD_REACTORS
330
8
102
}
330
8
100
AcDbPlotSettings
  1

  2
\\le-server\HP LaserJet 2100
  4

  6

 40
0.0
 41
0.0
 42
0.0
 43
0.0
 44
0.0
 45
0.0
 46
0.0
 47
0.0
 48
0.0
 49
0.0
140
0.0
141
0.0
142
1.0
143
1.0
 70
   688
 72
     0
 73
     0
 74
     5
  7

 75
    16
147
1.0
148
0.0
149
0.0
100
AcDbLayout
  1
Layout1
 70
     1
 71
     1
 10
0.0
 20
0.0
 11
1682.0
 21
1189.0
 12
0.0
 22
0.0
 32
0.0
 14
0.0
 24
0.0
 34
0.0
 15
1682.0
 25
1189.0
 35
0.0
146
0.0
 13
0.0
 23
0.0
 33
0.0
 16
1.0
 26
0.0
 36
0.0
 17
0.0
 27
1.0
 37
0.0
 76
     0
330
A
  0
LAYOUT
  5
7
102
{ACAD_XDICTIONARY
360
567
102
}
102
{ACAD_REACTORS
330
8
102
}
330
8
100
AcDbPlotSettings
  1

  2
\\le-server\HP LaserJet 2100
  4

  6

 40
0.0
 41
0.0
 42
0.0
 43
0.0
 44
0.0
 45
0.0
 46
0.0
 47
0.0
 48
0.0
 49
0.0
140
0.0
141
0.0
142
1.0
143
1.0
 70
  1712
 72
     0
 73
     0
 74
     0
  7

 75
     0
147
1.0
148
0.0
149
0.0
100
AcDbLayout
  1
Model
 70
     1
 71
     0
 10
0.0
 20
0.0
 11
12.0
 21
9.0
 12
0.0
 22
0.0
 32
0.0
 14
0.0
 24
0.0
 34
0.0
 15
0.0
 25
0.0
 35
0.0
146
0.0
 13
0.0
 23
0.0
 33
0.0
 16
1.0
 26
0.0
 36
0.0
 17
0.0
 27
1.0
 37
0.0
 76
     0
330
2
331
29
  0
MATERIAL
  5
3C
102
{ACAD_XDICTIONARY
360
3D
102
}
102
{ACAD_REACTORS
330
13
102
}
330
13
100
AcDbMaterial
  1
ByBlock
 72
     0
 43
0.0208333333333333
 43
0.0
 43
0.0
 43
0.0
 43
0.0
 43
0.0208333333333333
 43
0.0
 43
0.0
 43
0.0
 43
0.0
 43
1.0
 43
0.0
 43
0.0
 43
0.0
 43
0.0
 43
1.0
 77
     0
 47
0.0208333333333333
 47
0.0
 47
0.0
 47
0.0
 47
0.0
 47
0.0208333333333333
 47
0.0
 47
0.0
 47
0.0
 47
0.0
 47
1.0
 47
0.0
 47
0.0
 47
0.0
 47
0.0
 47
1.0
171
     0
 49
0.0208333333333333
 49
0.0
 49
0.0
 49
0.0
 49
0.0
 49
0.0208333333333333
 49
0.0
 49
0.0
 49
0.0
 49
0.0
 49
1.0
 49
0.0
 49
0.0
 49
0.0
 49
0.0
 49
1.0
175
     0
142
0.0208333333333333
142
0.0
142
0.0
142
0.0
142
0.0
142
0.0208333333333333
142
0.0
142
0.0
142
0.0
142
0.0
142
1.0
142
0.0
142
0.0
142
0.0
142
0.0
142
1.0
179
     0
144
0.0208333333333333
144
0.0
144
0.0
144
0.0
144
0.0
144
0.0208333333333333
144
0.0
144
0.0
144
0.0
144
0.0
144
1.0
144
0.0
144
0.0
144
0.0
144
0.0
144
1.0
147
0.0208333333333333
147
0.0
147
0.0
147
0.0
147
0.0
147
0.0208333333333333
147
0.0
147
0.0
147
0.0
147
0.0
147
1.0
147
0.0
147
0.0
147
0.0
147
0.0
147
1.0
  0
MATERIAL
  5
34
102
{ACAD_XDICTIONARY
360
35
102
}
102
{ACAD_REACTORS
330
13
102
}
330
13
100
AcDbMaterial
  1
ByLayer
 72
     0
 43
0.0208333333333333
 43
0.0
 43
0.0
 43
0.0
 43
0.0
 43
0.0208333333333333
 43
0.0
 43
0.0
 43
0.0
 43
0.0
 43
1.0
 43
0.0
 43
0.0
 43
0.0
 43
0.0
 43
1.0
 77
     0
 47
0.0208333333333333
 47
0.0
 47
0.0
 47
0.0
 47
0.0
 47
0.0208333333333333
 47
0.0
 47
0.0
 47
0.0
 47
0.0
 47
1.0
 47
0.0
 47
0.0
 47
0.0
 47
0.0
 47
1.0
171
     0
 49
0.0208333333333333
 49
0.0
 49
0.0
 49
0.0
 49
0.0
 49
0.0208333333333333
 49
0.0
 49
0.0
 49
0.0
 49
0.0
 49
1.0
 49
0.0
 49
0.0
 49
0.0
 49
0.0
 49
1.0
175
     0
142
0.0208333333333333
142
0.0
142
0.0
142
0.0
142
0.0
142
0.0208333333333333
142
0.0
142
0.0
142
0.0
142
0.0
142
1.0
142
0.0
142
0.0
142
0.0
142
0.0
142
1.0
179
     0
144
0.0208333333333333
144
0.0
144
0.0
144
0.0
144
0.0
144
0.0208333333333333
144
0.0
144
0.0
144
0.0
144
0.0
144
1.0
144
0.0
144
0.0
144
0.0
144
0.0
144
1.0
147
0.0208333333333333
147
0.0
147
0.0
147
0.0
147
0.0
147
0.0208333333333333
147
0.0
147
0.0
147
0.0
147
0.0
147
1.0
147
0.0
147
0.0
147
0.0
147
0.0
147
1.0
  0
MATERIAL
  5
12
102
{ACAD_XDICTIONARY
360
14
102
}
102
{ACAD_REACTORS
330
13
102
}
330
13
100
AcDbMaterial
  1
Global
 72
     0
 43
0.0208333333333333
 43
0.0
 43
0.0
 43
0.0
 43
0.0
 43
0.0208333333333333
 43
0.0
 43
0.0
 43
0.0
 43
0.0
 43
1.0
 43
0.0
 43
0.0
 43
0.0
 43
0.0
 43
1.0
 77
     0
 47
0.0208333333333333
 47
0.0
 47
0.0
 47
0.0
 47
0.0
 47
0.0208333333333333
 47
0.0
 47
0.0
 47
0.0
 47
0.0
 47
1.0
 47
0.0
 47
0.0
 47
0.0
 47
0.0
 47
1.0
171
     0
 49
0.0208333333333333
 49
0.0
 49
0.0
 49
0.0
 49
0.0
 49
0.0208333333333333
 49
0.0
 49
0.0
 49
0.0
 49
0.0
 49
1.0
 49
0.0
 49
0.0
 49
0.0
 49
0.0
 49
1.0
175
     0
142
0.0208333333333333
142
0.0
142
0.0
142
0.0
142
0.0
142
0.0208333333333333
142
0.0
142
0.0
142
0.0
142
0.0
142
1.0
142
0.0
142
0.0
142
0.0
142
0.0
142
1.0
179
     0
144
0.0208333333333333
144
0.0
144
0.0
144
0.0
144
0.0
144
0.0208333333333333
144
0.0
144
0.0
144
0.0
144
0.0
144
1.0
144
0.0
144
0.0
144
0.0
144
0.0
144
1.0
147
0.0208333333333333
147
0.0
147
0.0
147
0.0
147
0.0
147
0.0208333333333333
147
0.0
147
0.0
147
0.0
147
0.0
147
1.0
147
0.0
147
0.0
147
0.0
147
0.0
147
1.0
  0
MLEADERSTYLE
  5
522
102
{ACAD_REACTORS
330
521
102
}
330
521
100
AcDbMLeaderStyle
170
     2
171
     1
172
     0
 90
        2
 40
0.0
 41
0.0
173
     1
 91
-1056964608
340
24
 92
       -2
290
     1
 42
2.0
291
     1
 43
0.36
  3
Standard
 44
4.0
300

342
21
174
     1
178
     6
175
     1
176
     0
 93
-1056964608
 45
4.0
292
     0
297
     0
 46
4.0
 94
-1056964608
 47
1.0
 49
1.0
140
1.0
293
     1
141
0.0
294
     1
177
     0
142
1.0
295
     0
296
     0
143
0.125
1001
ACAD_MLEADERVER
1070
     2
  0
MLINESTYLE
  5
47
102
{ACAD_REACTORS
330
32
102
}
330
32
100
AcDbMlineStyle
  2
STANDARD
 70
     0
  3

 62
   256
 51
90.0
 52
90.0
 71
     2
 49
0.5
 62
   256
  6
BYLAYER
 49
-0.5
 62
   256
  6
BYLAYER
  0
ACDBPLACEHOLDER
  5
10
102
{ACAD_REACTORS
330
11
102
}
330
11
  0
SCALE
  5
4C
102
{ACAD_REACTORS
330
45
102
}
330
45
100
AcDbScale
 70
     0
300
1:1
140
1.0
141
1.0
290
     1
  0
SCALE
  5
4D
102
{ACAD_REACTORS
330
45
102
}
330
45
100
AcDbScale
 70
     0
300
1:2
140
1.0
141
2.0
290
     0
  0
SCALE
  5
4E
102
{ACAD_REACTORS
330
45
102
}
330
45
100
AcDbScale
 70
     0
300
1:4
140
1.0
141
4.0
290
     0
  0
SCALE
  5
4F
102
{ACAD_REACTORS
330
45
102
}
330
45
100
AcDbScale
 70
     0
300
1:5
140
1.0
141
5.0
290
     0
  0
SCALE
  5
50
102
{ACAD_REACTORS
330
45
102
}
330
45
100
AcDbScale
 70
     0
300
1:8
140
1.0
141
8.0
290
     0
  0
SCALE
  5
51
102
{ACAD_REACTORS
330
45
102
}
330
45
100
AcDbScale
 70
     0
300
1:10
140
1.0
141
10.0
290
     0
  0
SCALE
  5
52
102
{ACAD_REACTORS
330
45
102
}
330
45
100
AcDbScale
 70
     0
300
1:16
140
1.0
141
16.0
290
     0
  0
SCALE
  5
53
102
{ACAD_REACTORS
330
45
102
}
330
45
100
AcDbScale
 70
     0
300
1:20
140
1.0
141
20.0
290
     0
  0
SCALE
  5
54
102
{ACAD_REACTORS
330
45
102
}
330
45
100
AcDbScale
 70
     0
300
1:30
140
1.0
141
30.0
290
     0
  0
SCALE
  5
55
102
{ACAD_REACTORS
330
45
102
}
330
45
100
AcDbScale
 70
     0
300
1:40
140
1.0
141
40.0
290
     0
  0
SCALE
  5
56
102
{ACAD_REACTORS
330
45
102
}
330
45
100
AcDbScale
 70
     0
300
1:50
140
1.0
141
50.0
290
     0
  0
SCALE
  5
57
102
{ACAD_REACTORS
330
45
102
}
330
45
100
AcDbScale
 70
     0
300
1:100
140
1.0
141
100.0
290
     0
  0
SCALE
  5
58
102
{ACAD_REACTORS
330
45
102
}
330
45
100
AcDbScale
 70
     0
300
2:1
140
2.0
141
1.0
290
     0
  0
SCALE
  5
59
102
{ACAD_REACTORS
330
45
102
}
330
45
100
AcDbScale
 70
     0
300
4:1
140
4.0
141
1.0
290
     0
  0
SCALE
  5
5A
102
{ACAD_REACTORS
330
45
102
}
330
45
100
AcDbScale
 70
     0
300
8:1
140
8.0
141
1.0
290
     0
  0
SCALE
  5
5B
102
{ACAD_REACTORS
330
45
102
}
330
45
100
AcDbScale
 70
     0
300
10:1
140
10.0
141
1.0
290
     0
  0
SCALE
  5
5C
102
{ACAD_REACTORS
330
45
102
}
330
45
100
AcDbScale
 70
     0
300
100:1
140
100.0
141
1.0
290
     0
  0
SCALE
  5
5D
102
{ACAD_REACTORS
330
45
102
}
330
45
100
AcDbScale
 70
     0
300
1/128" = 1'-0"
140
0.0078125
141
12.0
290
     0
  0
SCALE
  5
5E
102
{ACAD_REACTORS
330
45
102
}
330
45
100
AcDbScale
 70
     0
300
1/64" = 1'-0"
140
0.015625
141
12.0
290
     0
  0
SCALE
  5
5F
102
{ACAD_REACTORS
330
45
102
}
330
45
100
AcDbScale
 70
     0
300
1/32" = 1'-0"
140
0.03125
141
12.0
290
     0
  0
SCALE
  5
60
102
{ACAD_REACTORS
330
45
102
}
330
45
100
AcDbScale
 70
     0
300
1/16" = 1'-0"
140
0.0625
141
12.0
290
     0
  0
SCALE
  5
61
102
{ACAD_REACTORS
330
45
102
}
330
45
100
AcDbScale
 70
     0
300
3/32" = 1'-0"
140
0.09375
141
12.0
290
     0
  0
SCALE
  5
62
102
{ACAD_REACTORS
330
45
102
}
330
45
100
AcDbScale
 70
     0
300
1/8" = 1'-0"
140
0.125
141
12.0
290
     0
  0
SCALE
  5
63
102
{ACAD_REACTORS
330
45
102
}
330
45
100
AcDbScale
 70
     0
300
3/16" = 1'-0"
140
0.1875
141
12.0
290
     0
  0
SCALE
  5
64
102
{ACAD_REACTORS
330
45
102
}
330
45
100
AcDbScale
 70
     0
300
1/4" = 1'-0"
140
0.25
141
12.0
290
     0
  0
SCALE
  5
65
102
{ACAD_REACTORS
330
45
102
}
330
45
100
AcDbScale
 70
     0
300
3/8" = 1'-0"
140
0.375
141
12.0
290
     0
  0
SCALE
  5
66
102
{ACAD_REACTORS
330
45
102
}
330
45
100
AcDbScale
 70
     0
300
1/2" = 1'-0"
140
0.5
141
12.0
290
     0
  0
SCALE
  5
67
102
{ACAD_REACTORS
330
45
102
}
330
45
100
AcDbScale
 70
     0
300
3/4" = 1'-0"
140
0.75
141
12.0
290
     0
  0
SCALE
  5
68
102
{ACAD_REACTORS
330
45
102
}
330
45
100
AcDbScale
 70
     0
300
1" = 1'-0"
140
1.0
141
12.0
290
     0
  0
SCALE
  5
69
102
{ACAD_REACTORS
330
45
102
}
330
45
100
AcDbScale
 70
     0
300
1-1/2" = 1'-0"
140
1.5
141
12.0
290
     0
  0
SCALE
  5
6A
102
{ACAD_REACTORS
330
45
102
}
330
45
100
AcDbScale
 70
     0
300
3" = 1'-0"
140
3.0
141
12.0
290
     0
  0
SCALE
  5
6B
102
{ACAD_REACTORS
330
45
102
}
330
45
100
AcDbScale
 70
     0
300
6" = 1'-0"
140
6.0
141
12.0
290
     0
  0
SCALE
  5
6C
102
{ACAD_REACTORS
330
45
102
}
330
45
100
AcDbScale
 70
     0
300
1'-0" = 1'-0"
140
12.0
141
12.0
290
     0
  0
TABLESTYLE
  5
48
102
{ACAD_XDICTIONARY
360
49
102
}
102
{ACAD_REACTORS
330
46
102
}
330
46
100
AcDbTableStyle
  3
Standard
 70
     0
 71
     0
 40
0.06
 41
0.06
280
     0
281
     0
  7
STANDARD
140
0.18
170
     2
 62
     0
 63
     7
283
     0
274
    -2
284
     1
 64
     0
275
    -2
285
     1
 65
     0
276
    -2
286
     1
 66
     0
277
    -2
287
     1
 67
     0
278
    -2
288
     1
 68
     0
279
    -2
289
     1
 69
     0
  7
STANDARD
140
0.25
170
     5
 62
     0
 63
     7
283
     0
274
    -2
284
     1
 64
     0
275
    -2
285
     1
 65
     0
276
    -2
286
     1
 66
     0
277
    -2
287
     1
 67
     0
278
    -2
288
     1
 68
     0
279
    -2
289
     1
 69
     0
  7
STANDARD
140
0.18
170
     5
 62
     0
 63
     7
283
     0
274
    -2
284
     1
 64
     0
275
    -2
285
     1
 65
     0
276
    -2
286
     1
 66
     0
277
    -2
287
     1
 67
     0
278
    -2
288
     1
 68
     0
279
    -2
289
     1
 69
     0
  0
VISUALSTYLE
  5
2A
102
{ACAD_REACTORS
330
2B
102
}
330
2B
100
AcDbVisualStyle
  2
2dWireframe
 70
     4
 71
     0
 72
     2
 73
     0
 90
        0
 40
-0.6
 41
-30.0
 62
     5
 63
     7
 74
     1
 91
        4
 64
     7
 65
   257
 75
     1
175
     1
 42
1.0
 92
        0
 66
   257
 43
1.0
 76
     1
 77
     6
 78
     2
 67
     7
 79
     5
170
     0
171
     0
290
     0
174
     0
 93
        1
 44
0.0
173
     0
291
     0
 45
0.0
1001
ACAD
1000
AcDbSavedByObjectVersion
1070
     0
  0
VISUALSTYLE
  5
519
102
{ACAD_REACTORS
330
2B
102
}
330
2B
100
AcDbVisualStyle
  2
3D Hidden
 70
     6
 71
     1
 72
     2
 73
     2
 90
        0
 40
-0.6
 41
-30.0
 62
     5
 63
     7
 74
     2
 91
        2
 64
     7
 65
   257
 75
     2
175
     1
 42
40.0
 92
        0
 66
   257
 43
1.0
 76
     1
 77
     6
 78
     2
 67
     7
 79
     3
170
     0
171
     0
290
     0
174
     0
 93
        1
 44
0.0
173
     0
291
     0
 45
0.0
1001
ACAD
1000
AcDbSavedByObjectVersion
1070
     0
  0
VISUALSTYLE
  5
4B
102
{ACAD_REACTORS
330
2B
102
}
330
2B
100
AcDbVisualStyle
  2
3dWireframe
 70
     5
 71
     0
 72
     2
 73
     0
 90
        0
 40
-0.6
 41
-30.0
 62
     5
 63
     7
 74
     1
 91
        4
 64
     7
 65
   257
 75
     1
175
     1
 42
1.0
 92
        0
 66
   257
 43
1.0
 76
     1
 77
     6
 78
     2
 67
     7
 79
     5
170
     0
171
     0
290
     0
174
     0
 93
        1
 44
0.0
173
     0
291
     0
 45
0.0
1001
ACAD
1000
AcDbSavedByObjectVersion
1070
     0
  0
VISUALSTYLE
  5
518
102
{ACAD_REACTORS
330
2B
102
}
330
2B
100
AcDbVisualStyle
  2
Basic
 70
     7
 71
     1
 72
     0
 73
     1
 90
        0
 40
-0.6
 41
-30.0
 62
     5
 63
     7
 74
     0
 91
        4
 64
     7
 65
   257
 75
     1
175
     1
 42
1.0
 92
        8
 66
     7
 43
1.0
 76
     1
 77
     6
 78
     2
 67
     7
 79
     5
170
     0
171
     0
290
     0
174
     0
 93
        1
 44
0.0
173
     0
291
     1
 45
0.0
1001
ACAD
1000
AcDbSavedByObjectVersion
1070
     0
  0
VISUALSTYLE
  5
51C
102
{ACAD_REACTORS
330
2B
102
}
330
2B
100
AcDbVisualStyle
  2
Brighten
 70
    12
 71
     2
 72
     2
 73
     0
 90
        0
 40
-0.6
 41
-30.0
 62
     5
 63
     7
 74
     1
 91
        4
 64
     7
 65
   257
 75
     1
175
     1
 42
1.0
 92
        8
 66
     7
 43
1.0
 76
     1
 77
     6
 78
     2
 67
     7
 79
     5
170
     0
171
     0
290
     0
174
     0
 93
        1
 44
50.0
173
     0
291
     1
 45
0.0
1001
ACAD
1000
AcDbSavedByObjectVersion
1070
     0
  0
VISUALSTYLE
  5
520
102
{ACAD_REACTORS
330
2B
102
}
330
2B
100
AcDbVisualStyle
  2
ColorChange
 70
    16
 71
     2
 72
     2
 73
     3
 90
        0
 40
-0.6
 41
-30.0
 62
     5
 63
     8
 74
     1
 91
        4
 64
     7
 65
   257
 75
     1
175
     1
 42
1.0
 92
        8
 66
     8
 43
1.0
 76
     1
 77
     6
 78
     2
 67
     7
 79
     5
170
     0
171
     0
290
     0
174
     0
 93
        1
 44
0.0
173
     0
291
     1
 45
0.0
1001
ACAD
1000
AcDbSavedByObjectVersion
1070
     0
  0
VISUALSTYLE
  5
51A
102
{ACAD_REACTORS
330
2B
102
}
330
2B
100
AcDbVisualStyle
  2
Conceptual
 70
     9
 71
     3
 72
     2
 73
     0
 90
        0
 40
-0.6
 41
-30.0
 62
     5
 63
     7
 74
     2
 91
        2
 64
     7
 65
   257
 75
     1
175
     1
 42
40.0
 92
        8
 66
     7
 43
1.0
 76
     1
 77
     6
 78
     2
 67
     7
 79
     3
170
     0
171
     0
290
     0
174
     0
 93
        1
 44
0.0
173
     0
291
     0
 45
0.0
1001
ACAD
1000
AcDbSavedByObjectVersion
1070
     0
  0
VISUALSTYLE
  5
51B
102
{ACAD_REACTORS
330
2B
102
}
330
2B
100
AcDbVisualStyle
  2
Dim
 70
    11
 71
     2
 72
     2
 73
     0
 90
        0
 40
-0.6
 41
-30.0
 62
     5
 63
     7
 74
     1
 91
        4
 64
     7
 65
   257
 75
     1
175
     1
 42
1.0
 92
        8
 66
     7
 43
1.0
 76
     1
 77
     6
 78
     2
 67
     7
 79
     5
170
     0
171
     0
290
     0
174
     0
 93
        1
 44
-50.0
173
     0
291
     1
 45
0.0
1001
ACAD
1000
AcDbSavedByObjectVersion
1070
     0
  0
VISUALSTYLE
  5
51F
102
{ACAD_REACTORS
330
2B
102
}
330
2B
100
AcDbVisualStyle
  2
Facepattern
 70
    15
 71
     2
 72
     2
 73
     0
 90
        0
 40
-0.6
 41
-30.0
 62
     5
 63
     7
 74
     1
 91
        4
 64
     7
 65
   257
 75
     1
175
     1
 42
1.0
 92
        8
 66
     7
 43
1.0
 76
     1
 77
     6
 78
     2
 67
     7
 79
     5
170
     0
171
     0
290
     0
174
     0
 93
        1
 44
0.0
173
     0
291
     1
 45
0.0
1001
ACAD
1000
AcDbSavedByObjectVersion
1070
     0
  0
VISUALSTYLE
  5
514
102
{ACAD_REACTORS
330
2B
102
}
330
2B
100
AcDbVisualStyle
  2
Flat
 70
     0
 71
     2
 72
     1
 73
     1
 90
        2
 40
-0.6
 41
30.0
 62
     5
 63
     7
 74
     0
 91
        4
 64
     7
 65
   257
 75
     1
175
     1
 42
1.0
 92
        8
 66
     7
 43
1.0
 76
     1
 77
     6
 78
     2
 67
     7
 79
     5
170
     0
171
     0
290
     0
174
     0
 93
       13
 44
0.0
173
     0
291
     1
 45
0.0
1001
ACAD
1000
AcDbSavedByObjectVersion
1070
     0
  0
VISUALSTYLE
  5
515
102
{ACAD_REACTORS
330
2B
102
}
330
2B
100
AcDbVisualStyle
  2
FlatWithEdges
 70
     1
 71
     2
 72
     1
 73
     1
 90
        2
 40
-0.6
 41
30.0
 62
     5
 63
     7
 74
     1
 91
        4
 64
     7
 65
   257
 75
     1
175
     1
 42
1.0
 92
        0
 66
   257
 43
1.0
 76
     1
 77
     6
 78
     2
 67
     7
 79
     5
170
     0
171
     0
290
     0
174
     0
 93
       13
 44
0.0
173
     0
291
     1
 45
0.0
1001
ACAD
1000
AcDbSavedByObjectVersion
1070
     0
  0
VISUALSTYLE
  5
516
102
{ACAD_REACTORS
330
2B
102
}
330
2B
100
AcDbVisualStyle
  2
Gouraud
 70
     2
 71
     2
 72
     2
 73
     1
 90
        2
 40
-0.6
 41
30.0
 62
     5
 63
     7
 74
     0
 91
        4
 64
     7
 65
   257
 75
     1
175
     1
 42
1.0
 92
        0
 66
     7
 43
1.0
 76
     1
 77
     6
 78
     2
 67
     7
 79
     5
170
     0
171
     0
290
     0
174
     0
 93
       13
 44
0.0
173
     0
291
     1
 45
0.0
1001
ACAD
1000
AcDbSavedByObjectVersion
1070
     0
  0
VISUALSTYLE
  5
517
102
{ACAD_REACTORS
330
2B
102
}
330
2B
100
AcDbVisualStyle
  2
GouraudWithEdges
 70
     3
 71
     2
 72
     2
 73
     1
 90
        2
 40
-0.6
 41
30.0
 62
     5
 63
     7
 74
     1
 91
        4
 64
     7
 65
   257
 75
     1
175
     1
 42
1.0
 92
        0
 66
   257
 43
1.0
 76
     1
 77
     6
 78
     2
 67
     7
 79
     5
170
     0
171
     0
290
     0
174
     0
 93
       13
 44
0.0
173
     0
291
     1
 45
0.0
1001
ACAD
1000
AcDbSavedByObjectVersion
1070
     0
  0
VISUALSTYLE
  5
51E
102
{ACAD_REACTORS
330
2B
102
}
330
2B
100
AcDbVisualStyle
  2
Linepattern
 70
    14
 71
     2
 72
     2
 73
     0
 90
        0
 40
-0.6
 41
-30.0
 62
     5
 63
     7
 74
     1
 91
        4
 64
     7
 65
   257
 75
     7
175
     7
 42
1.0
 92
        8
 66
     7
 43
1.0
 76
     1
 77
     6
 78
     2
 67
     7
 79
     5
170
     0
171
     0
290
     0
174
     0
 93
        1
 44
0.0
173
     0
291
     1
 45
0.0
1001
ACAD
1000
AcDbSavedByObjectVersion
1070
     0
  0
VISUALSTYLE
  5
4A
102
{ACAD_REACTORS
330
2B
102
}
330
2B
100
AcDbVisualStyle
  2
Realistic
 70
     8
 71
     2
 72
     2
 73
     0
 90
        0
 40
-0.6
 41
-30.0
 62
     5
 63
     7
 74
     1
 91
        0
 64
     7
 65
   257
 75
     1
175
     1
 42
1.0
 92
        8
 66
     8
 43
1.0
 76
     1
 77
     6
 78
     2
 67
     7
 79
     5
170
     0
171
     0
290
     0
174
     0
 93
       13
 44
0.0
173
     0
291
     0
 45
0.0
1001
ACAD
1000
AcDbSavedByObjectVersion
1070
     0
  0
VISUALSTYLE
  5
51D
102
{ACAD_REACTORS
330
2B
102
}
330
2B
100
AcDbVisualStyle
  2
Thicken
 70
    13
 71
     2
 72
     2
 73
     0
 90
        0
 40
-0.6
 41
-30.0
 62
     5
 63
     7
 74
     1
 91
        4
 64
     7
 65
   257
 75
     1
175
     1
 42
1.0
 92
       12
 66
     7
 43
1.0
 76
     1
 77
     6
 78
     2
 67
     7
 79
     5
170
     0
171
     0
290
     0
174
     0
 93
        1
 44
0.0
173
     0
291
     1
 45
0.0
1001
ACAD
1000
AcDbSavedByObjectVersion
1070
     0
  0
DICTIONARYVAR
  5
50F
102
{ACAD_REACTORS
330
50B
102
}
330
50B
100
DictionaryVariables
280
     0
  1
1:1
  0
DICTIONARYVAR
  5
50D
102
{ACAD_REACTORS
330
50B
102
}
330
50B
100
DictionaryVariables
280
     0
  1
STANDARD
  0
DICTIONARYVAR
  5
50C
102
{ACAD_REACTORS
330
50B
102
}
330
50B
100
DictionaryVariables
280
     0
  1
STANDARD
  0
DICTIONARYVAR
  5
560
102
{ACAD_REACTORS
330
50B
102
}
330
50B
100
DictionaryVariables
280
     0
  1
1
  0
DICTIONARYVAR
  5
55F
102
{ACAD_REACTORS
330
50B
102
}
330
50B
100
DictionaryVariables
280
     0
  1
1
  0
DICTIONARYVAR
  5
55E
102
{ACAD_REACTORS
330
50B
102
}
330
50B
100
DictionaryVariables
280
     0
  1
0
  0
DICTIONARYVAR
  5
511
102
{ACAD_REACTORS
330
50B
102
}
330
50B
100
DictionaryVariables
280
     0
  1
1
  0
DICTIONARYVAR
  5
512
102
{ACAD_REACTORS
330
50B
102
}
330
50B
100
DictionaryVariables
280
     0
  1
15
  0
DICTIONARYVAR
  5
510
102
{ACAD_REACTORS
330
50B
102
}
330
50B
100
DictionaryVariables
280
     0
  1
0
  0
DICTIONARYVAR
  5
50E
102
{ACAD_REACTORS
330
50B
102
}
330
50B
100
DictionaryVariables
280
     0
  1
0
  0
DICTIONARYVAR
  5
55D
102
{ACAD_REACTORS
330
50B
102
}
330
50B
100
DictionaryVariables
280
     0
  1
127
  0
DICTIONARY
  5
4B7
102
{ACAD_REACTORS
330
4B6
102
}
330
4B6
100
AcDbDictionary
281
     1
  0
DICTIONARY
  5
4B1
102
{ACAD_REACTORS
330
4A7
102
}
330
4A7
100
AcDbDictionary
281
     1
  3
DWGSETTINGS
350
4B0
  3
TRANSSETTINGS
350
4B2
  0
DICTIONARY
  5
569
330
D
100
AcDbDictionary
280
     1
281
     1
  3
ACAD_XREC_ROUNDTRIP
360
56A
  0
DICTIONARY
  5
567
330
7
100
AcDbDictionary
280
     1
281
     1
  3
ACAD_XREC_ROUNDTRIP
360
568
  0
DICTIONARY
  5
3D
330
3C
100
AcDbDictionary
280
     1
281
     1
  3
ACAD_XREC_ROUNDTRIP
360
56D
  3
BUMPTILE
360
3E
  3
DIFFUSETILE
360
3F
  3
OPACITYTILE
360
40
  3
REFLECTIONTILE
360
41
  3
REFRACTIONTILE
360
42
  3
SPECULARTILE
360
43
  0
DICTIONARY
  5
35
330
34
100
AcDbDictionary
280
     1
281
     1
  3
ACAD_XREC_ROUNDTRIP
360
56C
  3
BUMPTILE
360
36
  3
DIFFUSETILE
360
37
  3
OPACITYTILE
360
38
  3
REFLECTIONTILE
360
39
  3
REFRACTIONTILE
360
3A
  3
SPECULARTILE
360
3B
  0
DICTIONARY
  5
14
330
12
100
AcDbDictionary
280
     1
281
     1
  3
ACAD_XREC_ROUNDTRIP
360
56B
  3
BUMPTILE
360
15
  3
DIFFUSETILE
360
16
  3
OPACITYTILE
360
17
  3
REFLECTIONTILE
360
18
  3
REFRACTIONTILE
360
19
  3
SPECULARTILE
360
1A
  0
DICTIONARY
  5
49
330
48
100
AcDbDictionary
280
     1
281
     1
  3
ACAD_ROUNDTRIP_2008_TABLESTYLE_CELLSTYLEMAP
360
561
  3
ACAD_XREC_ROUNDTRIP
360
56E
  0
XRECORD
  5
56A
102
{ACAD_REACTORS
330
569
102
}
330
569
100
AcDbXrecord
280
     1
102
SHADEPLOT
 70
     0
102
SHADEPLOTRESLEVEL
 70
     2
102
SHADEPLOTCUSTOMDPI
 70
   300
  0
XRECORD
  5
568
102
{ACAD_REACTORS
330
567
102
}
330
567
100
AcDbXrecord
280
     1
102
SHADEPLOT
 70
     0
102
SHADEPLOTRESLEVEL
 70
     2
102
SHADEPLOTCUSTOMDPI
 70
   300
  0
XRECORD
  5
56D
102
{ACAD_REACTORS
330
3D
102
}
330
3D
100
AcDbXrecord
280
     1
102
MATERIAL
148
0.0
149
0.0
149
0.0
 93
        0
 94
      127
282
     0
 72
     0
 77
     0
171
     0
175
     0
179
     0
273
     0
  0
XRECORD
  5
3E
102
{ACAD_REACTORS
330
3D
102
}
330
3D
100
AcDbXrecord
280
     1
270
     1
271
     1
  0
XRECORD
  5
3F
102
{ACAD_REACTORS
330
3D
102
}
330
3D
100
AcDbXrecord
280
     1
270
     1
271
     1
  0
XRECORD
  5
40
102
{ACAD_REACTORS
330
3D
102
}
330
3D
100
AcDbXrecord
280
     1
270
     1
271
     1
  0
XRECORD
  5
41
102
{ACAD_REACTORS
330
3D
102
}
330
3D
100
AcDbXrecord
280
     1
270
     1
271
     1
  0
XRECORD
  5
42
102
{ACAD_REACTORS
330
3D
102
}
330
3D
100
AcDbXrecord
280
     1
270
     1
271
     1
  0
XRECORD
  5
43
102
{ACAD_REACTORS
330
3D
102
}
330
3D
100
AcDbXrecord
280
     1
270
     1
271
     1
  0
XRECORD
  5
56C
102
{ACAD_REACTORS
330
35
102
}
330
35
100
AcDbXrecord
280
     1
102
MATERIAL
148
0.0
149
0.0
149
0.0
 93
        0
 94
      127
282
     0
 72
     0
 77
     0
171
     0
175
     0
179
     0
273
     0
  0
XRECORD
  5
36
102
{ACAD_REACTORS
330
35
102
}
330
35
100
AcDbXrecord
280
     1
270
     1
271
     1
  0
XRECORD
  5
37
102
{ACAD_REACTORS
330
35
102
}
330
35
100
AcDbXrecord
280
     1
270
     1
271
     1
  0
XRECORD
  5
38
102
{ACAD_REACTORS
330
35
102
}
330
35
100
AcDbXrecord
280
     1
270
     1
271
     1
  0
XRECORD
  5
39
102
{ACAD_REACTORS
330
35
102
}
330
35
100
AcDbXrecord
280
     1
270
     1
271
     1
  0
XRECORD
  5
3A
102
{ACAD_REACTORS
330
35
102
}
330
35
100
AcDbXrecord
280
     1
270
     1
271
     1
  0
XRECORD
  5
3B
102
{ACAD_REACTORS
330
35
102
}
330
35
100
AcDbXrecord
280
     1
270
     1
271
     1
  0
XRECORD
  5
56B
102
{ACAD_REACTORS
330
14
102
}
330
14
100
AcDbXrecord
280
     1
102
MATERIAL
148
0.0
149
0.0
149
0.0
 93
        0
 94
      127
282
     0
 72
     0
 77
     0
171
     0
175
     0
179
     0
273
     0
  0
XRECORD
  5
15
102
{ACAD_REACTORS
330
14
102
}
330
14
100
AcDbXrecord
280
     1
270
     1
271
     1
  0
XRECORD
  5
16
102
{ACAD_REACTORS
330
14
102
}
330
14
100
AcDbXrecord
280
     1
270
     1
271
     1
  0
XRECORD
  5
17
102
{ACAD_REACTORS
330
14
102
}
330
14
100
AcDbXrecord
280
     1
270
     1
271
     1
  0
XRECORD
  5
18
102
{ACAD_REACTORS
330
14
102
}
330
14
100
AcDbXrecord
280
     1
270
     1
271
     1
  0
XRECORD
  5
19
102
{ACAD_REACTORS
330
14
102
}
330
14
100
AcDbXrecord
280
     1
270
     1
271
     1
  0
XRECORD
  5
1A
102
{ACAD_REACTORS
330
14
102
}
330
14
100
AcDbXrecord
280
     1
270
     1
271
     1
  0
CELLSTYLEMAP
  5
561
102
{ACAD_REACTORS
330
49
102
}
330
49
100
AcDbCellStyleMap
 90
        3
300
CELLSTYLE
  1
TABLEFORMAT_BEGIN
 90
        5
170
     1
 91
        0
 92
    32768
 62
   257
 93
        1
300
CONTENTFORMAT
  1
CONTENTFORMAT_BEGIN
 90
        0
 91
        0
 92
      512
 93
        0
300

 40
0.0
140
1.0
 94
        5
 62
     0
340
21
144
0.25
309
CONTENTFORMAT_END
171
     0
 94
        0
309
TABLEFORMAT_END
  1
CELLSTYLE_BEGIN
 90
        1
 91
        1
300
_TITLE
309
CELLSTYLE_END
300
CELLSTYLE
  1
TABLEFORMAT_BEGIN
 90
        5
170
     1
 91
        0
 92
        0
 62
   257
 93
        1
300
CONTENTFORMAT
  1
CONTENTFORMAT_BEGIN
 90
        0
 91
        0
 92
      512
 93
        0
300

 40
0.0
140
1.0
 94
        5
 62
     0
340
21
144
0.18
309
CONTENTFORMAT_END
171
     0
 94
        0
309
TABLEFORMAT_END
  1
CELLSTYLE_BEGIN
 90
        2
 91
        1
300
_HEADER
309
CELLSTYLE_END
300
CELLSTYLE
  1
TABLEFORMAT_BEGIN
 90
        5
170
     1
 91
        0
 92
        0
 62
   257
 93
        1
300
CONTENTFORMAT
  1
CONTENTFORMAT_BEGIN
 90
        0
 91
        0
 92
      512
 93
        0
300

 40
0.0
140
1.0
 94
        2
 62
     0
340
21
144
0.18
309
CONTENTFORMAT_END
171
     0
 94
        0
309
TABLEFORMAT_END
  1
CELLSTYLE_BEGIN
 90
        3
 91
        2
300
_DATA
309
CELLSTYLE_END
  0
XRECORD
  5
56E
102
{ACAD_REACTORS
330
49
102
}
330
49
100
AcDbXrecord
280
     1
102
ACAD_ROUNDTRIP_PRE2007_TABLESTYLE
 90
      512
 91
        0
  1

 92
      512
 93
        0
  2

 94
      512
 95
        0
  3

  0
ENDSEC
  0
EOF
