  0
SECTION
  2
HEADER
  9
$ACADVER
  1
AC1027
  9
$ACADMAINTVER
 70
   105
  9
$DWGCODEPAGE
  3
ANSI_1252
  9
$REQUIREDVERSIONS
160
                 0
  9
$COMMENTS
  1
File was created by Cadenas
  9
$CUSTOMPROPERTYTAG
  1
NN
  9
$CUSTOMPROPERTY
  1
Geberit Mepla ball valve with actuator lever
  9
$CUSTOMPROPERTYTAG
  1
NT
  9
$CUSTOMPROPERTY
  1

  9
$CUSTOMPROPERTYTAG
  1
NB
  9
$CUSTOMPROPERTY
  1
615061
  9
$CUSTOMPROPERTYTAG
  1
NBSYN
  9
$CUSTOMPROPERTY
  1
$ARTNRTX.
  9
$CUSTOMPROPERTYTAG
  1
LINA
  9
$CUSTOMPROPERTY
  1
615061
  9
$CUSTOMPROPERTYTAG
  1
CATALOG
  9
$CUSTOMPROPERTY
  1
GEBERIT
  9
$CUSTOMPROPERTYTAG
  1
ARTNRT
  9
$CUSTOMPROPERTY
  1
615.061.00.2
  9
$CUSTOMPROPERTYTAG
  1
D
  9
$CUSTOMPROPERTY
  1
40
  9
$CUSTOMPROPERTYTAG
  1
DN
  9
$CUSTOMPROPERTY
  1
32
  9
$CUSTOMPROPERTYTAG
  1
DNV
  9
$CUSTOMPROPERTY
  1
25
  9
$CUSTOMPROPERTYTAG
  1
L
  9
$CUSTOMPROPERTY
  1
139
  9
$CUSTOMPROPERTYTAG
  1
L1
  9
$CUSTOMPROPERTY
  1
71
  9
$CUSTOMPROPERTYTAG
  1
L2
  9
$CUSTOMPROPERTY
  1
124
  9
$CUSTOMPROPERTYTAG
  1
Z
  9
$CUSTOMPROPERTY
  1
35
  9
$CUSTOMPROPERTYTAG
  1
ARTNRTX
  9
$CUSTOMPROPERTY
  1
615061
  9
$CUSTOMPROPERTYTAG
  1
COMPANY
  9
$CUSTOMPROPERTY
  1
geberit
  9
$INSBASE
 10
0.0
 20
0.0
 30
0.0
  9
$EXTMIN
 10
1.000000000000000E+20
 20
1.000000000000000E+20
 30
1.000000000000000E+20
  9
$EXTMAX
 10
-1.000000000000000E+20
 20
-1.000000000000000E+20
 30
-1.000000000000000E+20
  9
$LIMMIN
 10
0.0
 20
0.0
  9
$LIMMAX
 10
420.0
 20
297.0
  9
$ORTHOMODE
 70
     0
  9
$REGENMODE
 70
     1
  9
$FILLMODE
 70
     1
  9
$QTEXTMODE
 70
     0
  9
$MIRRTEXT
 70
     1
  9
$LTSCALE
 40
1.0
  9
$ATTMODE
 70
     1
  9
$TEXTSIZE
 40
2.5
  9
$TRACEWID
 40
1.0
  9
$TEXTSTYLE
  7
Standard
  9
$CLAYER
  8
0
  9
$CELTYPE
  6
ByLayer
  9
$CECOLOR
 62
   256
  9
$CELTSCALE
 40
1.0
  9
$DISPSILH
 70
     0
  9
$DIMSCALE
 40
1.0
  9
$DIMASZ
 40
2.5
  9
$DIMEXO
 40
0.625
  9
$DIMDLI
 40
3.75
  9
$DIMRND
 40
0.0
  9
$DIMDLE
 40
0.0
  9
$DIMEXE
 40
1.25
  9
$DIMTP
 40
0.0
  9
$DIMTM
 40
0.0
  9
$DIMTXT
 40
2.5
  9
$DIMCEN
 40
2.5
  9
$DIMTSZ
 40
0.0
  9
$DIMTOL
 70
     0
  9
$DIMLIM
 70
     0
  9
$DIMTIH
 70
     0
  9
$DIMTOH
 70
     0
  9
$DIMSE1
 70
     0
  9
$DIMSE2
 70
     0
  9
$DIMTAD
 70
     1
  9
$DIMZIN
 70
     8
  9
$DIMBLK
  1

  9
$DIMASO
 70
     1
  9
$DIMSHO
 70
     1
  9
$DIMPOST
  1

  9
$DIMAPOST
  1

  9
$DIMALT
 70
     0
  9
$DIMALTD
 70
     3
  9
$DIMALTF
 40
0.03937007874016
  9
$DIMLFAC
 40
1.0
  9
$DIMTOFL
 70
     1
  9
$DIMTVP
 40
0.0
  9
$DIMTIX
 70
     0
  9
$DIMSOXD
 70
     0
  9
$DIMSAH
 70
     0
  9
$DIMBLK1
  1

  9
$DIMBLK2
  1

  9
$DIMSTYLE
  2
ISO-25
  9
$DIMCLRD
 70
     0
  9
$DIMCLRE
 70
     0
  9
$DIMCLRT
 70
     0
  9
$DIMTFAC
 40
1.0
  9
$DIMGAP
 40
0.625
  9
$DIMJUST
 70
     0
  9
$DIMSD1
 70
     0
  9
$DIMSD2
 70
     0
  9
$DIMTOLJ
 70
     0
  9
$DIMTZIN
 70
     8
  9
$DIMALTZ
 70
     0
  9
$DIMALTTZ
 70
     0
  9
$DIMUPT
 70
     0
  9
$DIMDEC
 70
     2
  9
$DIMTDEC
 70
     2
  9
$DIMALTU
 70
     2
  9
$DIMALTTD
 70
     3
  9
$DIMTXSTY
  7
Standard
  9
$DIMAUNIT
 70
     0
  9
$DIMADEC
 70
     0
  9
$DIMALTRND
 40
0.0
  9
$DIMAZIN
 70
     0
  9
$DIMDSEP
 70
    44
  9
$DIMATFIT
 70
     3
  9
$DIMFRAC
 70
     0
  9
$DIMLDRBLK
  1

  9
$DIMLUNIT
 70
     2
  9
$DIMLWD
 70
    -2
  9
$DIMLWE
 70
    -2
  9
$DIMTMOVE
 70
     0
  9
$DIMFXL
 40
1.0
  9
$DIMFXLON
 70
     0
  9
$DIMJOGANG
 40
0.7853981633974483
  9
$DIMTFILL
 70
     0
  9
$DIMTFILLCLR
 70
     0
  9
$DIMARCSYM
 70
     0
  9
$DIMLTYPE
  6

  9
$DIMLTEX1
  6

  9
$DIMLTEX2
  6

  9
$DIMTXTDIRECTION
 70
     0
  9
$LUNITS
 70
     2
  9
$LUPREC
 70
     4
  9
$SKETCHINC
 40
1.0
  9
$FILLETRAD
 40
10.0
  9
$AUNITS
 70
     0
  9
$AUPREC
 70
     0
  9
$MENU
  1
.
  9
$ELEVATION
 40
0.0
  9
$PELEVATION
 40
0.0
  9
$THICKNESS
 40
0.0
  9
$LIMCHECK
 70
     0
  9
$CHAMFERA
 40
0.0
  9
$CHAMFERB
 40
0.0
  9
$CHAMFERC
 40
0.0
  9
$CHAMFERD
 40
0.0
  9
$SKPOLY
 70
     0
  9
$TDCREATE
 40
2458934.710168438
  9
$TDUCREATE
 40
2458934.668501771
  9
$TDUPDATE
 40
2458934.710168495
  9
$TDUUPDATE
 40
2458934.668501829
  9
$TDINDWG
 40
0.0000000116
  9
$TDUSRTIMER
 40
0.0000000116
  9
$USRTIMER
 70
     1
  9
$ANGBASE
 50
0.0
  9
$ANGDIR
 70
     0
  9
$PDMODE
 70
     0
  9
$PDSIZE
 40
0.0
  9
$PLINEWID
 40
0.0
  9
$SPLFRAME
 70
     0
  9
$SPLINETYPE
 70
     6
  9
$SPLINESEGS
 70
     8
  9
$HANDSEED
  5
105
  9
$SURFTAB1
 70
     6
  9
$SURFTAB2
 70
     6
  9
$SURFTYPE
 70
     6
  9
$SURFU
 70
     6
  9
$SURFV
 70
     6
  9
$UCSBASE
  2

  9
$UCSNAME
  2

  9
$UCSORG
 10
0.0
 20
0.0
 30
0.0
  9
$UCSXDIR
 10
1.0
 20
0.0
 30
0.0
  9
$UCSYDIR
 10
0.0
 20
1.0
 30
0.0
  9
$UCSORTHOREF
  2

  9
$UCSORTHOVIEW
 70
     0
  9
$UCSORGTOP
 10
0.0
 20
0.0
 30
0.0
  9
$UCSORGBOTTOM
 10
0.0
 20
0.0
 30
0.0
  9
$UCSORGLEFT
 10
0.0
 20
0.0
 30
0.0
  9
$UCSORGRIGHT
 10
0.0
 20
0.0
 30
0.0
  9
$UCSORGFRONT
 10
0.0
 20
0.0
 30
0.0
  9
$UCSORGBACK
 10
0.0
 20
0.0
 30
0.0
  9
$PUCSBASE
  2

  9
$PUCSNAME
  2

  9
$PUCSORG
 10
0.0
 20
0.0
 30
0.0
  9
$PUCSXDIR
 10
1.0
 20
0.0
 30
0.0
  9
$PUCSYDIR
 10
0.0
 20
1.0
 30
0.0
  9
$PUCSORTHOREF
  2

  9
$PUCSORTHOVIEW
 70
     0
  9
$PUCSORGTOP
 10
0.0
 20
0.0
 30
0.0
  9
$PUCSORGBOTTOM
 10
0.0
 20
0.0
 30
0.0
  9
$PUCSORGLEFT
 10
0.0
 20
0.0
 30
0.0
  9
$PUCSORGRIGHT
 10
0.0
 20
0.0
 30
0.0
  9
$PUCSORGFRONT
 10
0.0
 20
0.0
 30
0.0
  9
$PUCSORGBACK
 10
0.0
 20
0.0
 30
0.0
  9
$USERI1
 70
     0
  9
$USERI2
 70
     0
  9
$USERI3
 70
     0
  9
$USERI4
 70
     0
  9
$USERI5
 70
     0
  9
$USERR1
 40
0.0
  9
$USERR2
 40
0.0
  9
$USERR3
 40
0.0
  9
$USERR4
 40
0.0
  9
$USERR5
 40
0.0
  9
$WORLDVIEW
 70
     1
  9
$SHADEDGE
 70
     3
  9
$SHADEDIF
 70
    70
  9
$TILEMODE
 70
     1
  9
$MAXACTVP
 70
    64
  9
$PINSBASE
 10
0.0
 20
0.0
 30
0.0
  9
$PLIMCHECK
 70
     0
  9
$PEXTMIN
 10
1.000000000000000E+20
 20
1.000000000000000E+20
 30
1.000000000000000E+20
  9
$PEXTMAX
 10
-1.000000000000000E+20
 20
-1.000000000000000E+20
 30
-1.000000000000000E+20
  9
$PLIMMIN
 10
0.0
 20
0.0
  9
$PLIMMAX
 10
420.0
 20
297.0
  9
$UNITMODE
 70
     0
  9
$VISRETAIN
 70
     1
  9
$PLINEGEN
 70
     0
  9
$PSLTSCALE
 70
     1
  9
$TREEDEPTH
 70
  3020
  9
$CMLSTYLE
  2
Standard
  9
$CMLJUST
 70
     0
  9
$CMLSCALE
 40
20.0
  9
$PROXYGRAPHICS
 70
     1
  9
$MEASUREMENT
 70
     1
  9
$CELWEIGHT
370
    -1
  9
$ENDCAPS
280
     0
  9
$JOINSTYLE
280
     0
  9
$LWDISPLAY
290
     0
  9
$INSUNITS
 70
     4
  9
$HYPERLINKBASE
  1

  9
$STYLESHEET
  1

  9
$XEDIT
290
     1
  9
$CEPSNTYPE
380
     0
  9
$PSTYLEMODE
290
     1
  9
$FINGERPRINTGUID
  2
{63603F92-D9B0-4ADB-A553-DE3923251970}
  9
$VERSIONGUID
  2
{FAEB1C32-E019-11D5-929B-00C0DF256EC4}
  9
$EXTNAMES
290
     1
  9
$PSVPSCALE
 40
0.0
  9
$OLESTARTUP
290
     0
  9
$SORTENTS
280
   127
  9
$INDEXCTL
280
     0
  9
$HIDETEXT
280
     1
  9
$XCLIPFRAME
280
     2
  9
$HALOGAP
280
     0
  9
$OBSCOLOR
 70
   257
  9
$OBSLTYPE
280
     0
  9
$INTERSECTIONDISPLAY
280
     0
  9
$INTERSECTIONCOLOR
 70
   257
  9
$DIMASSOC
280
     2
  9
$PROJECTNAME
  1

  9
$CAMERADISPLAY
290
     0
  9
$LENSLENGTH
 40
50.0
  9
$CAMERAHEIGHT
 40
0.0
  9
$STEPSPERSEC
 40
2.0
  9
$STEPSIZE
 40
6.0
  9
$3DDWFPREC
 40
2.0
  9
$PSOLWIDTH
 40
5.0
  9
$PSOLHEIGHT
 40
80.0
  9
$LOFTANG1
 40
1.570796326794897
  9
$LOFTANG2
 40
1.570796326794897
  9
$LOFTMAG1
 40
0.0
  9
$LOFTMAG2
 40
0.0
  9
$LOFTPARAM
 70
     7
  9
$LOFTNORMALS
280
     1
  9
$LATITUDE
 40
37.795
  9
$LONGITUDE
 40
-122.394
  9
$NORTHDIRECTION
 40
0.0
  9
$TIMEZONE
 70
 -8000
  9
$LIGHTGLYPHDISPLAY
280
     1
  9
$TILEMODELIGHTSYNCH
280
     1
  9
$CMATERIAL
347
44
  9
$SOLIDHIST
280
     0
  9
$SHOWHIST
280
     1
  9
$DWFFRAME
280
     2
  9
$DGNFRAME
280
     2
  9
$REALWORLDSCALE
290
     1
  9
$INTERFERECOLOR
 62
   256
  9
$CSHADOW
280
     0
  9
$SHADOWPLANELOCATION
 40
0.0
  0
ENDSEC
  0
SECTION
  2
CLASSES
  0
CLASS
  1
ACDBDICTIONARYWDFLT
  2
AcDbDictionaryWithDefault
  3
ObjectDBX Classes
 90
        0
 91
        4
280
     0
281
     0
  0
CLASS
  1
VISUALSTYLE
  2
AcDbVisualStyle
  3
ObjectDBX Classes
 90
     4095
 91
        4
280
     0
281
     0
  0
CLASS
  1
MATERIAL
  2
AcDbMaterial
  3
ObjectDBX Classes
 90
     1153
 91
        4
280
     0
281
     0
  0
CLASS
  1
SCALE
  2
AcDbScale
  3
ObjectDBX Classes
 90
     1153
 91
        4
280
     0
281
     0
  0
CLASS
  1
TABLESTYLE
  2
AcDbTableStyle
  3
ObjectDBX Classes
 90
     4095
 91
        4
280
     0
281
     0
  0
CLASS
  1
MLEADERSTYLE
  2
AcDbMLeaderStyle
  3
ACDB_MLEADERSTYLE_CLASS
 90
     4095
 91
        4
280
     0
281
     0
  0
CLASS
  1
SUN
  2
AcDbSun
  3
SCENEOE
 90
     1153
 91
        4
280
     0
281
     0
  0
CLASS
  1
DICTIONARYVAR
  2
AcDbDictionaryVar
  3
ObjectDBX Classes
 90
        0
 91
        4
280
     0
281
     0
  0
CLASS
  1
CELLSTYLEMAP
  2
AcDbCellStyleMap
  3
ObjectDBX Classes
 90
     1152
 91
        4
280
     0
281
     0
  0
ENDSEC
  0
SECTION
  2
TABLES
  0
TABLE
  2
VPORT
  5
8
330
0
100
AcDbSymbolTable
 70
     1
  0
VPORT
  5
29
330
8
100
AcDbSymbolTableRecord
100
AcDbViewportTableRecord
  2
*Active
 70
     0
 10
0.0
 20
0.0
 11
1.0
 21
1.0
 12
4.25
 22
25.04418305151395
 13
0.0
 23
0.0
 14
10.0
 24
10.0
 15
10.0
 25
10.0
 16
0.0
 26
0.0
 36
1.0
 17
0.0
 27
0.0
 37
0.0
 40
98.4895334250885
 41
0.6162076099808214
 42
50.0
 43
0.0
 44
0.0
 50
0.0
 51
0.0
 71
     0
 72
   100
 73
     1
 74
     3
 75
     0
 76
     0
 77
     0
 78
     0
281
     0
 65
     1
110
0.0
120
0.0
130
0.0
111
1.0
121
0.0
131
0.0
112
0.0
122
1.0
132
0.0
 79
     0
146
0.0
348
2F
 60
     3
 61
     5
292
     1
282
     1
141
0.0
142
0.0
 63
   250
361
6D
  0
ENDTAB
  0
TABLE
  2
LTYPE
  5
5
330
0
100
AcDbSymbolTable
 70
     3
  0
LTYPE
  5
14
330
5
100
AcDbSymbolTableRecord
100
AcDbLinetypeTableRecord
  2
ByBlock
 70
     0
  3

 72
    65
 73
     0
 40
0.0
  0
LTYPE
  5
15
330
5
100
AcDbSymbolTableRecord
100
AcDbLinetypeTableRecord
  2
ByLayer
 70
     0
  3

 72
    65
 73
     0
 40
0.0
  0
LTYPE
  5
16
330
5
100
AcDbSymbolTableRecord
100
AcDbLinetypeTableRecord
  2
Continuous
 70
     0
  3
Solid line
 72
    65
 73
     0
 40
0.0
  0
LTYPE
  5
7F
330
5
100
AcDbSymbolTableRecord
100
AcDbLinetypeTableRecord
  2
Dashed
 70
     0
  3

 72
    65
 73
     2
 40
2.0
 49
1.0
 74
     0
 49
-1.0
 74
     0
  0
LTYPE
  5
F7
330
5
100
AcDbSymbolTableRecord
100
AcDbLinetypeTableRecord
  2
Center
 70
     0
  3

 72
    65
 73
     4
 40
1.5
 49
0.45
 74
     0
 49
-0.5
 74
     0
 49
0.05
 74
     0
 49
-0.5
 74
     0
  0
ENDTAB
  0
TABLE
  2
LAYER
  5
2
330
0
100
AcDbSymbolTable
 70
     5
  0
LAYER
  5
10
330
2
100
AcDbSymbolTableRecord
100
AcDbLayerTableRecord
  2
0
 70
     0
 62
     7
  6
Continuous
370
    -3
390
F
347
46
348
0
  0
LAYER
  5
6E
330
2
100
AcDbSymbolTableRecord
100
AcDbLayerTableRecord
  2
AM_6
 70
     0
 62
    -2
  6
Continuous
370
    35
390
F
347
46
348
0
  0
LAYER
  5
80
330
2
100
AcDbSymbolTableRecord
100
AcDbLayerTableRecord
  2
VER
 70
     0
 62
    -6
  6
Dashed
370
    25
390
F
347
46
348
0
  0
LAYER
  5
8C
330
2
100
AcDbSymbolTableRecord
100
AcDbLayerTableRecord
  2
050
 70
     0
 62
     7
  6
Continuous
370
    50
390
F
347
46
348
0
  0
LAYER
  5
F8
330
2
100
AcDbSymbolTableRecord
100
AcDbLayerTableRecord
  2
MITTE
 70
     0
 62
     7
  6
Center
370
    25
390
F
347
46
348
0
  0
ENDTAB
  0
TABLE
  2
STYLE
  5
3
330
0
100
AcDbSymbolTable
 70
     1
  0
STYLE
  5
11
330
3
100
AcDbSymbolTableRecord
100
AcDbTextStyleTableRecord
  2
Standard
 70
     0
 40
0.0
 41
1.0
 50
0.0
 71
     0
 42
2.5
  3
txt
  4

  0
ENDTAB
  0
TABLE
  2
VIEW
  5
6
330
0
100
AcDbSymbolTable
 70
     0
  0
ENDTAB
  0
TABLE
  2
UCS
  5
7
330
0
100
AcDbSymbolTable
 70
     0
  0
ENDTAB
  0
TABLE
  2
APPID
  5
9
330
0
100
AcDbSymbolTable
 70
     1
  0
APPID
  5
12
330
9
100
AcDbSymbolTableRecord
100
AcDbRegAppTableRecord
  2
ACAD
 70
     0
  0
ENDTAB
  0
TABLE
  2
DIMSTYLE
  5
A
330
0
100
AcDbSymbolTable
 70
     1
100
AcDbDimStyleTable
  0
DIMSTYLE
105
27
330
A
100
AcDbSymbolTableRecord
100
AcDbDimStyleTableRecord
  2
ISO-25
 70
     0
 41
2.5
 42
0.625
 43
3.75
 44
1.25
 73
     0
 74
     0
 77
     1
 78
     8
140
2.5
141
2.5
143
0.03937007874016
147
0.625
171
     3
172
     1
178
     0
271
     2
272
     2
274
     3
278
    44
283
     0
284
     8
340
11
  0
ENDTAB
  0
TABLE
  2
BLOCK_RECORD
  5
1
330
0
100
AcDbSymbolTable
 70
     1
  0
BLOCK_RECORD
  5
1F
330
1
100
AcDbSymbolTableRecord
100
AcDbBlockTableRecord
  2
*Model_Space
340
22
 70
     0
280
     1
281
     0
  0
BLOCK_RECORD
  5
1B
330
1
100
AcDbSymbolTableRecord
100
AcDbBlockTableRecord
  2
*Paper_Space
340
1E
 70
     0
280
     1
281
     0
  0
BLOCK_RECORD
  5
23
330
1
100
AcDbSymbolTableRecord
100
AcDbBlockTableRecord
  2
*Paper_Space0
340
26
 70
     0
280
     1
281
     0
  0
ENDTAB
  0
ENDSEC
  0
SECTION
  2
BLOCKS
  0
BLOCK
  5
20
330
1F
100
AcDbEntity
  8
0
100
AcDbBlockBegin
  2
*Model_Space
 70
     0
 10
0.0
 20
0.0
 30
0.0
  3
*Model_Space
  1

  0
ENDBLK
  5
21
330
1F
100
AcDbEntity
  8
0
100
AcDbBlockEnd
  0
BLOCK
  5
1C
330
1B
100
AcDbEntity
 67
     1
  8
0
100
AcDbBlockBegin
  2
*Paper_Space
 70
     0
 10
0.0
 20
0.0
 30
0.0
  3
*Paper_Space
  1

  0
ENDBLK
  5
1D
330
1B
100
AcDbEntity
 67
     1
  8
0
100
AcDbBlockEnd
  0
BLOCK
  5
24
330
23
100
AcDbEntity
  8
0
100
AcDbBlockBegin
  2
*Paper_Space0
 70
     0
 10
0.0
 20
0.0
 30
0.0
  3
*Paper_Space0
  1

  0
ENDBLK
  5
25
330
23
100
AcDbEntity
  8
0
100
AcDbBlockEnd
  0
ENDSEC
  0
SECTION
  2
ENTITIES
  0
ATTDEF
  5
6F
330
1F
100
AcDbEntity
  8
AM_6
100
AcDbText
 10
30.5
 20
72.72000000000001
 30
0.0
 40
0.5
  1
Geberit Mepla ball valve with actuator lever
100
AcDbAttributeDefinition
  3

  2
NN
 70
     8
280
     0
  0
ATTDEF
  5
70
330
1F
100
AcDbEntity
  8
AM_6
100
AcDbText
 10
30.5
 20
72.22000000000001
 30
0.0
 40
0.5
  1

100
AcDbAttributeDefinition
  3

  2
NT
 70
     8
280
     0
  0
ATTDEF
  5
71
330
1F
100
AcDbEntity
  8
AM_6
100
AcDbText
 10
30.5
 20
71.72000000000001
 30
0.0
 40
0.5
  1
615061
100
AcDbAttributeDefinition
  3

  2
NB
 70
     8
280
     0
  0
ATTDEF
  5
72
330
1F
100
AcDbEntity
  8
AM_6
100
AcDbText
 10
30.5
 20
71.22000000000001
 30
0.0
 40
0.5
  1
$ARTNRTX.
100
AcDbAttributeDefinition
  3

  2
NBSYN
 70
     8
280
     0
  0
ATTDEF
  5
73
330
1F
100
AcDbEntity
  8
AM_6
100
AcDbText
 10
30.5
 20
70.72000000000001
 30
0.0
 40
0.5
  1
615061
100
AcDbAttributeDefinition
  3

  2
LINA
 70
     8
280
     0
  0
ATTDEF
  5
74
330
1F
100
AcDbEntity
  8
AM_6
100
AcDbText
 10
30.5
 20
70.22000000000001
 30
0.0
 40
0.5
  1
GEBERIT
100
AcDbAttributeDefinition
  3

  2
CATALOG
 70
     8
280
     0
  0
ATTDEF
  5
75
330
1F
100
AcDbEntity
  8
AM_6
100
AcDbText
 10
30.5
 20
69.72000000000001
 30
0.0
 40
0.5
  1
615.061.00.2
100
AcDbAttributeDefinition
  3

  2
ARTNRT
 70
     8
280
     0
  0
ATTDEF
  5
76
330
1F
100
AcDbEntity
  8
AM_6
100
AcDbText
 10
30.5
 20
69.22000000000001
 30
0.0
 40
0.5
  1
40
100
AcDbAttributeDefinition
  3

  2
D
 70
     8
280
     0
  0
ATTDEF
  5
77
330
1F
100
AcDbEntity
  8
AM_6
100
AcDbText
 10
30.5
 20
68.72000000000001
 30
0.0
 40
0.5
  1
32
100
AcDbAttributeDefinition
  3

  2
DN
 70
     8
280
     0
  0
ATTDEF
  5
78
330
1F
100
AcDbEntity
  8
AM_6
100
AcDbText
 10
30.5
 20
68.22000000000001
 30
0.0
 40
0.5
  1
25
100
AcDbAttributeDefinition
  3

  2
DNV
 70
     8
280
     0
  0
ATTDEF
  5
79
330
1F
100
AcDbEntity
  8
AM_6
100
AcDbText
 10
30.5
 20
67.72000000000001
 30
0.0
 40
0.5
  1
139
100
AcDbAttributeDefinition
  3

  2
L
 70
     8
280
     0
  0
ATTDEF
  5
7A
330
1F
100
AcDbEntity
  8
AM_6
100
AcDbText
 10
30.5
 20
67.22000000000001
 30
0.0
 40
0.5
  1
71
100
AcDbAttributeDefinition
  3

  2
L1
 70
     8
280
     0
  0
ATTDEF
  5
7B
330
1F
100
AcDbEntity
  8
AM_6
100
AcDbText
 10
30.5
 20
66.72000000000001
 30
0.0
 40
0.5
  1
124
100
AcDbAttributeDefinition
  3

  2
L2
 70
     8
280
     0
  0
ATTDEF
  5
7C
330
1F
100
AcDbEntity
  8
AM_6
100
AcDbText
 10
30.5
 20
66.22000000000001
 30
0.0
 40
0.5
  1
35
100
AcDbAttributeDefinition
  3

  2
Z
 70
     8
280
     0
  0
ATTDEF
  5
7D
330
1F
100
AcDbEntity
  8
AM_6
100
AcDbText
 10
30.5
 20
65.72000000000001
 30
0.0
 40
0.5
  1
615061
100
AcDbAttributeDefinition
  3

  2
ARTNRTX
 70
     8
280
     0
  0
ATTDEF
  5
7E
330
1F
100
AcDbEntity
  8
AM_6
100
AcDbText
 10
30.5
 20
65.22000000000001
 30
0.0
 40
0.5
  1
geberit
100
AcDbAttributeDefinition
  3

  2
COMPANY
 70
     8
280
     0
  0
LINE
  5
81
330
1F
100
AcDbEntity
  8
VER
100
AcDbLine
 10
-10.75
 20
58.7
 30
0.0
 11
-10.75
 21
71.00000000000001
 31
0.0
  0
LINE
  5
82
330
1F
100
AcDbEntity
  8
VER
100
AcDbLine
 10
1.25000000000001
 20
58.7
 30
0.0
 11
1.25000000000001
 21
71.00000000000001
 31
0.0
  0
LINE
  5
83
330
1F
100
AcDbEntity
  8
VER
100
AcDbLine
 10
-12.45
 20
68.2
 30
0.0
 11
-12.45
 21
58.7
 31
0.0
  0
LINE
  5
84
330
1F
100
AcDbEntity
  8
VER
100
AcDbLine
 10
-0.049999999999997
 20
68.2
 30
0.0
 11
-0.049999999999997
 21
58.7
 31
0.0
  0
LINE
  5
85
330
1F
100
AcDbEntity
  8
VER
100
AcDbLine
 10
1.950000000000002
 20
68.2
 30
0.0
 11
1.950000000000002
 21
58.7
 31
0.0
  0
LINE
  5
86
330
1F
100
AcDbEntity
  8
VER
100
AcDbLine
 10
3.054748777635441
 20
68.2
 30
0.0
 11
3.054748777635441
 21
58.4095724513551
 31
0.0
  0
LINE
  5
87
330
1F
100
AcDbEntity
  8
VER
100
AcDbLine
 10
3.203369635832934
 20
58.03606350674154
 30
0.0
 11
3.203369635832934
 21
68.2
 31
0.0
  0
LWPOLYLINE
  5
88
330
1F
100
AcDbEntity
  8
VER
100
AcDbPolyline
 90
       15
 70
     0
 43
0.0
 10
3.203369633245712
 20
58.03625732106926
 10
3.203366533568416
 20
58.03412912415285
 10
3.170741168451776
 20
57.78568255556721
 10
3.078617078240671
 20
57.49400172558721
 10
2.867758846231276
 20
57.02626868874284
 10
2.580457319430689
 20
56.4962413127909
 10
2.343776470254295
 20
56.09350507353257
 10
2.086920598098929
 20
55.6733552518423
 10
1.810986501712286
 20
55.23332955403372
 10
1.523371568795445
 20
54.78213762788932
 10
1.197970325690069
 20
54.27710983136954
 10
0.8652110064775058
 20
53.7640484974224
 10
0.5245100665869342
 20
53.24048531764984
 10
0.1809315148505427
 20
52.71298203963799
 10
0.1724780455798366
 20
52.70000000000001
  0
LINE
  5
89
330
1F
100
AcDbEntity
  8
VER
100
AcDbLine
 10
-5.35
 20
68.2
 30
0.0
 11
3.203369635832934
 21
68.2
 31
0.0
  0
LINE
  5
8A
330
1F
100
AcDbEntity
  8
VER
100
AcDbLine
 10
-5.35
 20
68.2
 30
0.0
 11
-5.35
 21
57.54324739898082
 31
0.0
  0
LINE
  5
8B
330
1F
100
AcDbEntity
  8
VER
100
AcDbLine
 10
-7.149999999999996
 20
68.2
 30
0.0
 11
-7.149999999999996
 21
56.17609231654958
 31
0.0
  0
LINE
  5
8D
330
1F
100
AcDbEntity
  8
050
100
AcDbLine
 10
-16.75
 20
71.00000000000001
 30
0.0
 11
6.187298552024514
 21
71.00000000000001
 31
0.0
  0
LWPOLYLINE
  5
8E
330
1F
100
AcDbEntity
  8
VER
100
AcDbPolyline
 90
       10
 70
     0
 43
0.0
 10
-2.992666829929069
 20
52.70000000000001
 10
-2.999970533059905
 20
52.7135989550648
 10
-3.446610668469368
 20
53.529995105544
 10
-3.900274794911021
 20
54.34255672602899
 10
-4.34335373347772
 20
55.13789935360447
 10
-4.678570300009149
 20
55.75628383845665
 10
-4.977076721819827
 20
56.34954347866293
 10
-5.166977806718733
 20
56.78402566654329
 10
-5.299547514523418
 20
57.18619229299512
 10
-5.35
 20
57.54324739898082
  0
LWPOLYLINE
  5
8F
330
1F
100
AcDbEntity
  8
VER
100
AcDbPolyline
 90
        8
 70
     0
 43
0.0
 10
-7.149999999999996
 20
56.17609231654958
 10
-7.16792827957899
 20
55.81528123363721
 10
-7.218073200406431
 20
55.44505757993942
 10
-7.402066397162564
 20
54.66535487240536
 10
-7.555370051087632
 20
54.18707641792911
 10
-7.734861961639289
 20
53.70444592935777
 10
-8.167529511633346
 20
52.71359895506236
 10
-8.173999999999944
 20
52.7
  0
LWPOLYLINE
  5
90
330
1F
100
AcDbEntity
  8
050
100
AcDbPolyline
 90
        5
 70
     0
 43
0.0
 10
6.187298552024514
 20
71.00000000000001
 10
6.795157289798436
 20
70.95992609703018
 10
7.482730174467048
 20
70.84430496713281
 10
8.257399785819988
 20
70.65783245428838
 10
9.104663219533148
 20
70.41085753653799
  0
LINE
  5
91
330
1F
100
AcDbEntity
  8
VER
100
AcDbLine
 10
4.250000000000002
 20
58.7
 30
0.0
 11
4.250000000000002
 21
71.00000000000001
 31
0.0
  0
LWPOLYLINE
  5
92
330
1F
100
AcDbEntity
  8
VER
100
AcDbPolyline
 90
        3
 70
     0
 43
0.0
 10
3.054748777634764
 20
58.40957245134757
 10
3.166547727461628
 20
58.2474575430417
 10
3.203369633245712
 20
58.03625732106926
  0
LWPOLYLINE
  5
93
330
1F
100
AcDbEntity
  8
VER
100
AcDbPolyline
 90
        4
 70
     0
 43
0.0
 10
3.054748777635441
 20
58.4095724513551
 10
2.7706009974781
 20
58.62374027597426
 10
2.639597673579166
 20
58.68057861934954
 10
2.518510787298442
 20
58.7
  0
LINE
  5
94
330
1F
100
AcDbEntity
  8
VER
100
AcDbLine
 10
-16.75
 20
58.7
 30
0.0
 11
4.998201439434377
 21
58.7
 31
0.0
  0
LWPOLYLINE
  5
95
330
1F
100
AcDbEntity
  8
VER
100
AcDbPolyline
 90
       15
 70
     0
 43
0.0
 10
4.998201439434377
 20
58.7
 10
5.182082396522398
 20
58.67403988445963
 10
5.385836843922079
 20
58.59829902079193
 10
5.611016062137701
 20
58.47451463711036
 10
5.853400429116846
 20
58.30748725494197
 10
6.175054625312224
 20
58.04692743823161
 10
6.517918432555946
 20
57.73404893390535
 10
6.883028622723263
 20
57.37243418683722
 10
7.264804561840863
 20
56.97187498326622
 10
7.682222755805831
 20
56.51554266154683
 10
8.113564771991348
 20
56.03053211108469
 10
9.02274478336437
 20
54.98693840516183
 10
10.00118244939545
 20
53.86582460843621
 10
11.04158262272536
 20
52.71203055968229
 10
11.05272108843538
 20
52.70000000000001
  0
LINE
  5
96
330
1F
100
AcDbEntity
  8
VER
100
AcDbLine
 10
-14.45
 20
68.2
 30
0.0
 11
-7.149999999999996
 21
68.2
 31
0.0
  0
LINE
  5
97
330
1F
100
AcDbEntity
  8
VER
100
AcDbLine
 10
-14.45
 20
68.2
 30
0.0
 11
-14.45
 21
58.09949401737711
 31
0.0
  0
LWPOLYLINE
  5
98
330
1F
100
AcDbEntity
  8
VER
100
AcDbPolyline
 90
       14
 70
     0
 43
0.0
 10
-11.122
 20
52.7
 10
-11.12755792274352
 20
52.71359895506612
 10
-11.49406905822481
 20
53.52999510547667
 10
-11.92045180954932
 20
54.34255672594569
 10
-12.3964889538358
 20
55.13789935350788
 10
-12.80798859030039
 20
55.75628383839498
 10
-13.23562279978777
 20
56.34954347863457
 10
-13.56795943627086
 20
56.78402566651572
 10
-13.88356998450721
 20
57.18619229296915
 10
-14.09245841870881
 20
57.45495576463252
 10
-14.26639398355956
 20
57.69423250415286
 10
-14.37435734236561
 20
57.86881679806042
 10
-14.43735243774573
 20
58.0164474613608
 10
-14.45
 20
58.09949401737711
  0
LINE
  5
99
330
1F
100
AcDbEntity
  8
VER
100
AcDbLine
 10
-13.0
 20
66.07896585842464
 30
0.0
 11
-13.0
 21
58.0
 31
0.0
  0
LINE
  5
9A
330
1F
100
AcDbEntity
  8
050
100
AcDbLine
 10
-13.0
 20
66.5118510267787
 30
0.0
 11
-13.0
 21
66.07896585842464
 31
0.0
  0
LINE
  5
9B
330
1F
100
AcDbEntity
  8
050
100
AcDbLine
 10
13.0
 20
66.07896585842464
 30
0.0
 11
13.0
 21
66.5118510267787
 31
0.0
  0
LINE
  5
9C
330
1F
100
AcDbEntity
  8
VER
100
AcDbLine
 10
13.0
 20
58.0
 30
0.0
 11
13.0
 21
66.07896585842464
 31
0.0
  0
LWPOLYLINE
  5
9D
330
1F
100
AcDbEntity
  8
050
100
AcDbPolyline
 90
       37
 70
     0
 43
0.0
 10
13.0
 20
66.5118510267787
 10
12.95053107519269
 20
66.81544406828331
 10
12.8025007891587
 20
67.11672658342758
 10
12.55703574175789
 20
67.41340563035189
 10
12.21600407021681
 20
67.70322330236947
 10
11.78200123147645
 20
67.98397391199954
 10
11.25833024919771
 20
68.253520777581
 10
10.6489765757569
 20
68.5098124847099
 10
9.958577760546719
 20
68.75089849874183
 10
9.192388155425123
 20
68.97494400953828
 10
8.356238925925018
 20
69.18024389547973
 10
7.456493672563608
 20
69.3652357004707
 10
6.500000000000012
 20
69.52851152517411
 10
5.494037402629105
 20
69.66882874197532
 10
4.446261863233707
 20
69.78511945212861
 10
3.364647586332786
 20
69.87649861311148
 10
2.257426309670111
 20
69.9422707743326
 10
1.133024655719575
 20
69.98193536993075
 10
0.0000000000000197
 20
69.9951905283833
 10
-1.133024655719535
 20
69.98193536993075
 10
-2.257426309670073
 20
69.9422707743326
 10
-3.364647586332747
 20
69.8764986131115
 10
-4.44626186323367
 20
69.78511945212861
 10
-5.494037402629069
 20
69.66882874197532
 10
-6.499999999999976
 20
69.52851152517411
 10
-7.456493672563575
 20
69.36523570047072
 10
-8.35623892592499
 20
69.18024389547975
 10
-9.192388155425098
 20
68.97494400953829
 10
-9.958577760546698
 20
68.75089849874183
 10
-10.64897657575688
 20
68.5098124847099
 10
-11.25833024919769
 20
68.25352077758102
 10
-11.78200123147644
 20
67.98397391199956
 10
-12.2160040702168
 20
67.70322330236948
 10
-12.55703574175788
 20
67.4134056303519
 10
-12.8025007891587
 20
67.11672658342759
 10
-12.95053107519269
 20
66.81544406828331
 10
-13.0
 20
66.51185102677871
  0
LWPOLYLINE
  5
9E
330
1F
100
AcDbEntity
  8
050
100
AcDbPolyline
 90
       19
 70
     0
 43
0.0
 10
-13.0
 20
66.5118510267787
 10
-12.95053107519269
 20
66.20825798527409
 10
-12.80250078915871
 20
65.90697547012984
 10
-12.55703574175789
 20
65.61029642320551
 10
-12.21600407021681
 20
65.32047875118793
 10
-11.78200123147646
 20
65.03972814155786
 10
-11.25833024919771
 20
64.7701812759764
 10
-10.6489765757569
 20
64.5138895688475
 10
-9.958577760546724
 20
64.27280355481557
 10
-9.192388155425128
 20
64.04875804401912
 10
-8.356238925925025
 20
63.84345815807767
 10
-7.456493672563615
 20
63.65846635308669
 10
-6.500000000000017
 20
63.49519052838329
 10
-5.494037402629112
 20
63.35487331158208
 10
-4.446261863233715
 20
63.2385826014288
 10
-3.364647586332792
 20
63.14720344044593
 10
-2.257426309670119
 20
63.0814312792248
 10
-1.133024655719582
 20
63.04176668362665
 10
-0.0000000000000271
 20
63.0285115251741
  0
LWPOLYLINE
  5
9F
330
1F
100
AcDbEntity
  8
050
100
AcDbPolyline
 90
       19
 70
     0
 43
0.0
 10
-0.0000000000000008
 20
63.0285115251741
 10
1.133024655719555
 20
63.04176668362665
 10
2.257426309670094
 20
63.0814312792248
 10
3.364647586332769
 20
63.14720344044593
 10
4.446261863233693
 20
63.2385826014288
 10
5.494037402629092
 20
63.35487331158208
 10
6.499999999999999
 20
63.49519052838329
 10
7.456493672563599
 20
63.65846635308669
 10
8.35623892592501
 20
63.84345815807767
 10
9.19238815542512
 20
64.04875804401912
 10
9.958577760546715
 20
64.27280355481557
 10
10.64897657575689
 20
64.5138895688475
 10
11.2583302491977
 20
64.7701812759764
 10
11.78200123147645
 20
65.03972814155786
 10
12.21600407021681
 20
65.32047875118793
 10
12.55703574175789
 20
65.61029642320551
 10
12.8025007891587
 20
65.90697547012984
 10
12.95053107519269
 20
66.20825798527409
 10
13.0
 20
66.5118510267787
  0
LINE
  5
A0
330
1F
100
AcDbEntity
  8
VER
100
AcDbLine
 10
13.1
 20
58.0
 30
0.0
 11
-13.1
 21
58.0
 31
0.0
  0
LINE
  5
A1
330
1F
100
AcDbEntity
  8
VER
100
AcDbLine
 10
-13.1
 20
66.5118510267787
 30
0.0
 11
-13.1
 21
58.0
 31
0.0
  0
LINE
  5
A2
330
1F
100
AcDbEntity
  8
VER
100
AcDbLine
 10
13.1
 20
58.0
 30
0.0
 11
13.1
 21
66.5118510267787
 31
0.0
  0
LWPOLYLINE
  5
A3
330
1F
100
AcDbEntity
  8
050
100
AcDbPolyline
 90
       19
 70
     0
 43
0.0
 10
0.0931401149942668
 20
70.02189672585807
 10
1.234497060231828
 20
70.00636481219998
 10
2.366458737431319
 20
69.96423753858971
 10
3.480410234732105
 20
69.8958355190166
 10
4.567873708617423
 20
69.80167933415186
 10
5.620572905422605
 20
69.68248556941535
 10
6.630496148622813
 20
69.53916136132791
 10
7.589957312528962
 20
69.37279749365459
 10
8.491654318345239
 20
69.18466009588163
 10
9.328724707397843
 20
68.97618100720656
 10
10.09479786858916
 20
68.74894687937731
 10
10.78404352259492
 20
68.50468710131439
 10
11.39121609381021
 20
68.24526063741692
 10
11.91169463234727
 20
67.97264187972114
 10
12.3415179822543
 20
67.68890562158485
 10
12.67741492830407
 20
67.39621126725707
 10
12.91682909191703
 20
67.09678639750797
 10
13.05793838674585
 20
66.79290981639396
 10
13.1
 20
66.5118510267787
  0
LINE
  5
A4
330
1F
100
AcDbEntity
  8
050
100
AcDbLine
 10
-0.5633958141282308
 20
70.0187377218407
 30
0.0
 11
0.0931401149942668
 21
70.02189672585807
 31
0.0
  0
LWPOLYLINE
  5
A5
330
1F
100
AcDbEntity
  8
050
100
AcDbPolyline
 90
       19
 70
     0
 43
0.0
 10
-13.1
 20
66.5118510267787
 10
-13.05015054500187
 20
66.8177793993718
 10
-12.90098156445993
 20
67.12137947232488
 10
-12.6536283243868
 20
67.420340665764
 10
-12.3099733322954
 20
67.7123877044894
 10
-11.87263201018012
 20
67.99529793419356
 10
-11.34493278957615
 20
68.26691823720256
 10
-10.7308917801858
 20
68.52518141900167
 10
-10.03518220485862
 20
68.76812194083384
 10
-9.263098833543781
 20
68.99389087863644
 10
-8.420517686893676
 20
69.20076999446974
 10
-7.513851316198716
 20
69.38718481334526
 10
-6.550000000000014
 20
69.551716605931
 10
-5.536299228803179
 20
69.69311318593836
 10
-4.480463877566278
 20
69.81029844001591
 10
-3.390529490843041
 20
69.90238051762172
 10
-2.274791127436809
 20
69.96865861854455
 10
-1.141740229994345
 20
70.00862832641654
 10
-0.5633958141282308
 20
70.0187377218407
  0
LWPOLYLINE
  5
A6
330
1F
100
AcDbEntity
  8
050
100
AcDbPolyline
 90
       19
 70
     0
 43
0.0
 10
13.1
 20
66.5118510267787
 10
13.05015054500187
 20
66.2059226541856
 10
12.90098156445993
 20
65.90232258123254
 10
12.6536283243868
 20
65.60336138779341
 10
12.3099733322954
 20
65.311314349068
 10
11.87263201018012
 20
65.02840411936386
 10
11.34493278957615
 20
64.75678381635484
 10
10.7308917801858
 20
64.49852063455573
 10
10.03518220485862
 20
64.25558011272356
 10
9.263098833543783
 20
64.02981117492098
 10
8.420517686893678
 20
63.82293205908766
 10
7.513851316198718
 20
63.63651724021214
 10
6.550000000000015
 20
63.4719854476264
 10
5.53629922880318
 20
63.33058886761904
 10
4.48046387756628
 20
63.21340361354148
 10
3.390529490843043
 20
63.12132153593568
 10
2.27479112743681
 20
63.05504343501285
 10
1.141740229994346
 20
63.01507372714087
 10
0.0000000000000257
 20
63.00171660593099
  0
LINE
  5
A7
330
1F
100
AcDbEntity
  8
050
100
AcDbLine
 10
-12.0
 20
34.2
 30
0.0
 11
-12.0
 21
36.6
 31
0.0
  0
LINE
  5
A8
330
1F
100
AcDbEntity
  8
VER
100
AcDbLine
 10
-12.0
 20
32.2
 30
0.0
 11
-12.0
 21
34.2
 31
0.0
  0
LINE
  5
A9
330
1F
100
AcDbEntity
  8
050
100
AcDbLine
 10
12.0
 20
34.2
 30
0.0
 11
12.0
 21
36.6
 31
0.0
  0
LINE
  5
AA
330
1F
100
AcDbEntity
  8
VER
100
AcDbLine
 10
12.0
 20
32.2
 30
0.0
 11
12.0
 21
34.2
 31
0.0
  0
LINE
  5
AB
330
1F
100
AcDbEntity
  8
050
100
AcDbLine
 10
-0.0000000000000008
 20
34.2
 30
0.0
 11
-0.0000000000000008
 21
36.6
 31
0.0
  0
LINE
  5
AC
330
1F
100
AcDbEntity
  8
VER
100
AcDbLine
 10
-0.0000000000000008
 20
32.2
 30
0.0
 11
-0.0000000000000008
 21
34.2
 31
0.0
  0
LWPOLYLINE
  5
AD
330
1F
100
AcDbEntity
  8
050
100
AcDbPolyline
 90
       19
 70
     0
 43
0.0
 10
-0.0000001952052124
 20
63.00171660593099
 10
-1.14174042445672
 20
63.01507373169955
 10
-2.274791319676394
 20
63.05504344409553
 10
-3.390529679396778
 20
63.12132154947322
 10
-4.480464060999157
 20
63.21340363143088
 10
-5.536299405719166
 20
63.33058888972412
 10
-6.550000169052671
 20
63.47198547377894
 10
-7.513851476101452
 20
63.6365172702131
 10
-8.42051783642953
 20
63.82293209270871
 10
-9.2630989715747
 20
64.02981121190625
 10
-10.0351823303341
 20
64.25558015279157
 10
-10.7308918921509
 20
64.49852067740154
 10
-11.34493288717875
 20
64.75678386165237
 10
-11.8726320926774
 20
65.02840416676835
 10
-12.30997339905951
 20
65.3113143982187
 10
-12.65362837490962
 20
65.60336143831623
 10
-12.90098159835695
 20
65.90232263274297
 10
-13.05015056201512
 20
66.20592270629163
 10
-13.1
 20
66.5118510267787
  0
LWPOLYLINE
  5
AE
330
1F
100
AcDbEntity
  8
050
100
AcDbPolyline
 90
        3
 70
     0
 43
0.0
 10
11.05272108843538
 20
69.88417930624452
 10
9.793190183865427
 20
70.20770212288954
 10
9.104663219533153
 20
70.41085753653799
  0
LINE
  5
AF
330
1F
100
AcDbEntity
  8
050
100
AcDbLine
 10
-16.75
 20
70.41085753653799
 30
0.0
 11
9.104663219533142
 21
70.41085753653799
 31
0.0
  0
LINE
  5
B0
330
1F
100
AcDbEntity
  8
050
100
AcDbLine
 10
16.75
 20
36.6
 30
0.0
 11
-16.75
 21
36.6
 31
0.0
  0
LINE
  5
B1
330
1F
100
AcDbEntity
  8
VER
100
AcDbLine
 10
-8.173999999999996
 20
52.7
 30
0.0
 11
-2.992666829929069
 21
52.70000000000001
 31
0.0
  0
LINE
  5
B2
330
1F
100
AcDbEntity
  8
VER
100
AcDbLine
 10
-2.992666829929069
 20
68.2
 30
0.0
 11
-2.992666829929069
 21
52.70000000000001
 31
0.0
  0
LINE
  5
B3
330
1F
100
AcDbEntity
  8
VER
100
AcDbLine
 10
0.1724780455798353
 20
68.2
 30
0.0
 11
0.1724780455798353
 21
52.70000000000001
 31
0.0
  0
LINE
  5
B4
330
1F
100
AcDbEntity
  8
VER
100
AcDbLine
 10
0.1724780455798353
 20
52.70000000000001
 30
0.0
 11
11.05272108843538
 21
52.70000000000001
 31
0.0
  0
LINE
  5
B5
330
1F
100
AcDbEntity
  8
VER
100
AcDbLine
 10
11.05272108843538
 20
52.70000000000001
 30
0.0
 11
11.05272108843538
 21
69.88417930624452
 31
0.0
  0
LWPOLYLINE
  5
B6
330
1F
100
AcDbEntity
  8
050
100
AcDbPolyline
 90
       37
 70
     0
 43
0.0
 10
-16.75
 20
66.5118510267787
 10
-16.68626119303674
 20
66.12068306945545
 10
-16.49552986295449
 20
65.73249213648113
 10
-16.17925759034189
 20
65.3502325952517
 10
-15.73985139816397
 20
64.9768136716906
 10
-15.18065543286389
 20
64.61507730928261
 10
-14.50592551338936
 20
64.26777654016804
 10
-13.72079674184062
 20
63.93755453290581
 10
-12.83124442224289
 20
63.62692447636467
 10
-11.84403858487469
 20
63.33825045283847
 10
-10.76669246224955
 20
63.07372944595237
 10
-9.607405308880042
 20
62.83537462029093
 10
-8.375000000000023
 20
62.625
 10
-7.078855884156741
 20
62.44420666296768
 10
-5.728837400704978
 20
62.29437055565478
 10
-4.335219005467251
 20
62.17663202131147
 10
-2.908606975921114
 20
62.09188712127657
 10
-1.459858691023307
 20
62.04078081540972
 10
-0.0000000000000349
 20
62.02370205355738
 10
1.459858691023238
 20
62.04078081540972
 10
2.908606975921046
 20
62.09188712127656
 10
4.335219005467184
 20
62.17663202131146
 10
5.728837400704912
 20
62.29437055565477
 10
7.078855884156677
 20
62.44420666296767
 10
8.374999999999961
 20
62.62499999999999
 10
9.607405308879985
 20
62.83537462029091
 10
10.7666924622495
 20
63.07372944595235
 10
11.84403858487464
 20
63.33825045283846
 10
12.83124442224285
 20
63.62692447636466
 10
13.72079674184058
 20
63.9375545329058
 10
14.50592551338932
 20
64.26777654016803
 10
15.18065543286387
 20
64.6150773092826
 10
15.73985139816395
 20
64.97681367169058
 10
16.17925759034188
 20
65.35023259525168
 10
16.49552986295448
 20
65.7324921364811
 10
16.68626119303674
 20
66.12068306945544
 10
16.75
 20
66.51185102677869
  0
LINE
  5
B7
330
1F
100
AcDbEntity
  8
VER
100
AcDbLine
 10
-16.75
 20
52.70000000000001
 30
0.0
 11
-11.122
 21
52.7
 31
0.0
  0
LINE
  5
B8
330
1F
100
AcDbEntity
  8
VER
100
AcDbLine
 10
-11.122
 20
68.2
 30
0.0
 11
-11.122
 21
52.7
 31
0.0
  0
LINE
  5
B9
330
1F
100
AcDbEntity
  8
VER
100
AcDbLine
 10
-8.173999999999996
 20
68.2
 30
0.0
 11
-8.173999999999996
 21
52.7
 31
0.0
  0
LINE
  5
BA
330
1F
100
AcDbEntity
  8
050
100
AcDbLine
 10
-16.75
 20
71.00000000000001
 30
0.0
 11
-16.75
 21
36.6
 31
0.0
  0
LINE
  5
BB
330
1F
100
AcDbEntity
  8
050
100
AcDbLine
 10
16.75
 20
36.6
 30
0.0
 11
16.75
 21
66.5118510267787
 31
0.0
  0
LWPOLYLINE
  5
BC
330
1F
100
AcDbEntity
  8
050
100
AcDbPolyline
 90
       11
 70
     0
 43
0.0
 10
16.75
 20
66.5118510267787
 10
16.68626119303674
 20
66.90301898410195
 10
16.49552986295448
 20
67.29120991707629
 10
16.17925759034189
 20
67.6734694583057
 10
15.73985139816397
 20
68.04688838186681
 10
15.18065543286389
 20
68.40862474427479
 10
14.50592551338935
 20
68.75592551338936
 10
13.72079674184062
 20
69.0861475206516
 10
12.83124442224289
 20
69.39677757719274
 10
11.84403858487468
 20
69.68545160071893
 10
11.05272108843539
 20
69.88417930624453
  0
ARC
  5
BD
330
1F
100
AcDbEntity
  8
050
100
AcDbCircle
 10
-0.0000000000000604
 20
-0.9999999999999698
 30
0.0
 40
24.15000000000006
100
AcDbArc
 50
306.1521357201984
 51
359.6999999999999
  0
ARC
  5
BE
330
1F
100
AcDbEntity
  8
050
100
AcDbCircle
 10
-0.0000000000004476
 20
-1.000000000000194
 30
0.0
 40
24.14999999999961
100
AcDbArc
 50
180.2999999999996
 51
233.8478642798021
  0
LINE
  5
BF
330
1F
100
AcDbEntity
  8
050
100
AcDbLine
 10
-14.24684175528042
 20
-20.5
 30
0.0
 11
14.24684175528037
 21
-20.5
 31
0.0
  0
LINE
  5
C0
330
1F
100
AcDbEntity
  8
VER
100
AcDbLine
 10
17.5
 20
32.2
 30
0.0
 11
19.5
 21
34.2
 31
0.0
  0
LINE
  5
C1
330
1F
100
AcDbEntity
  8
VER
100
AcDbLine
 10
-19.5
 20
34.2
 30
0.0
 11
-17.5
 21
32.2
 31
0.0
  0
LINE
  5
C2
330
1F
100
AcDbEntity
  8
VER
100
AcDbLine
 10
-17.5
 20
32.2
 30
0.0
 11
17.5
 21
32.2
 31
0.0
  0
LINE
  5
C3
330
1F
100
AcDbEntity
  8
050
100
AcDbLine
 10
-24.24853289454746
 20
17.755
 30
0.0
 11
-24.14966895777536
 21
-1.12644852652879
 31
0.0
  0
LINE
  5
C4
330
1F
100
AcDbEntity
  8
VER
100
AcDbLine
 10
-19.96825264556419
 20
-1.126448526528789
 30
0.0
 11
-18.46567393075815
 21
-1.126448526528789
 31
0.0
  0
LINE
  5
C5
330
1F
100
AcDbEntity
  8
050
100
AcDbLine
 10
-24.14966895777536
 20
-1.12644852652879
 30
0.0
 11
-19.96825264556419
 21
-1.126448526528789
 31
0.0
  0
LINE
  5
C6
330
1F
100
AcDbEntity
  8
050
100
AcDbLine
 10
24.5
 20
31.50000000000001
 30
0.0
 11
24.8
 21
31.8
 31
0.0
  0
LINE
  5
C7
330
1F
100
AcDbEntity
  8
050
100
AcDbLine
 10
-24.80000000000001
 20
31.8
 30
0.0
 11
-24.5
 21
31.50000000000001
 31
0.0
  0
LINE
  5
C8
330
1F
100
AcDbEntity
  8
050
100
AcDbLine
 10
24.8
 20
31.8
 30
0.0
 11
24.8
 21
34.2
 31
0.0
  0
LINE
  5
C9
330
1F
100
AcDbEntity
  8
050
100
AcDbLine
 10
-24.80000000000001
 20
34.2
 30
0.0
 11
-24.80000000000001
 21
31.8
 31
0.0
  0
LINE
  5
CA
330
1F
100
AcDbEntity
  8
050
100
AcDbLine
 10
-24.80000000000001
 20
34.2
 30
0.0
 11
24.8
 21
34.2
 31
0.0
  0
LINE
  5
CB
330
1F
100
AcDbEntity
  8
050
100
AcDbLine
 10
-24.80000000000001
 20
31.8
 30
0.0
 11
24.8
 21
31.8
 31
0.0
  0
LINE
  5
CC
330
1F
100
AcDbEntity
  8
050
100
AcDbLine
 10
25.0
 20
18.50646710545254
 30
0.0
 11
25.0
 21
26.99991
 31
0.0
  0
LINE
  5
CD
330
1F
100
AcDbEntity
  8
050
100
AcDbLine
 10
-25.0
 20
26.99991
 30
0.0
 11
-25.0
 21
18.50646710545254
 31
0.0
  0
LINE
  5
CE
330
1F
100
AcDbEntity
  8
050
100
AcDbLine
 10
19.96825264556419
 20
-1.126448526528787
 30
0.0
 11
24.14966895777536
 21
-1.126448526528786
 31
0.0
  0
LINE
  5
CF
330
1F
100
AcDbEntity
  8
VER
100
AcDbLine
 10
18.46567393075815
 20
-1.126448526528787
 30
0.0
 11
19.96825264556419
 21
-1.126448526528787
 31
0.0
  0
LINE
  5
D0
330
1F
100
AcDbEntity
  8
050
100
AcDbLine
 10
24.14966895777536
 20
-1.126448526528786
 30
0.0
 11
24.24853289454746
 21
17.755
 31
0.0
  0
LINE
  5
D1
330
1F
100
AcDbEntity
  8
VER
100
AcDbLine
 10
-2.000000000000001
 20
-19.8997487421324
 30
0.0
 11
-2.000000000000002
 21
-18.39157415774952
 31
0.0
  0
LINE
  5
D2
330
1F
100
AcDbEntity
  8
VER
100
AcDbLine
 10
1.999999999999999
 20
-19.8997487421324
 30
0.0
 11
1.999999999999998
 21
-18.39157415774952
 31
0.0
  0
LINE
  5
D3
330
1F
100
AcDbEntity
  8
050
100
AcDbLine
 10
1.999999999999999
 20
-20.5
 30
0.0
 11
1.999999999999999
 21
-19.8997487421324
 31
0.0
  0
LINE
  5
D4
330
1F
100
AcDbEntity
  8
VER
100
AcDbLine
 10
-2.000000000000002
 20
-18.5
 30
0.0
 11
1.999999999999998
 21
-18.5
 31
0.0
  0
LINE
  5
D5
330
1F
100
AcDbEntity
  8
050
100
AcDbLine
 10
-2.000000000000001
 20
-20.5
 30
0.0
 11
-2.000000000000001
 21
-19.8997487421324
 31
0.0
  0
LINE
  5
D6
330
1F
100
AcDbEntity
  8
050
100
AcDbLine
 10
25.5
 20
27.49991
 30
0.0
 11
25.5
 21
31.50000000000001
 31
0.0
  0
LINE
  5
D7
330
1F
100
AcDbEntity
  8
050
100
AcDbLine
 10
-25.5
 20
31.50000000000001
 30
0.0
 11
-25.5
 21
27.49991
 31
0.0
  0
LINE
  5
D8
330
1F
100
AcDbEntity
  8
050
100
AcDbLine
 10
-25.5
 20
31.50000000000001
 30
0.0
 11
25.5
 21
31.50000000000001
 31
0.0
  0
LINE
  5
D9
330
1F
100
AcDbEntity
  8
050
100
AcDbLine
 10
25.0
 20
26.99991
 30
0.0
 11
25.5
 21
27.49991
 31
0.0
  0
LINE
  5
DA
330
1F
100
AcDbEntity
  8
050
100
AcDbLine
 10
-25.50000000000001
 20
27.49991
 30
0.0
 11
-25.00000000000001
 21
26.99991
 31
0.0
  0
LINE
  5
DB
330
1F
100
AcDbEntity
  8
050
100
AcDbLine
 10
-25.50000000000001
 20
27.49991
 30
0.0
 11
25.5
 21
27.49991
 31
0.0
  0
LINE
  5
DC
330
1F
100
AcDbEntity
  8
050
100
AcDbLine
 10
-25.00000000000001
 20
26.99991
 30
0.0
 11
25.0
 21
26.99991
 31
0.0
  0
LINE
  5
DD
330
1F
100
AcDbEntity
  8
050
100
AcDbLine
 10
9.206518071453512
 20
17.755
 30
0.0
 11
24.24853289454746
 21
17.755
 31
0.0
  0
LINE
  5
DE
330
1F
100
AcDbEntity
  8
VER
100
AcDbLine
 10
5.197112178893208
 20
17.755
 30
0.0
 11
9.206518071453512
 21
17.755
 31
0.0
  0
LINE
  5
DF
330
1F
100
AcDbEntity
  8
050
100
AcDbLine
 10
24.24853289454746
 20
17.755
 30
0.0
 11
25.0
 21
18.50646710545254
 31
0.0
  0
LINE
  5
E0
330
1F
100
AcDbEntity
  8
050
100
AcDbLine
 10
-25.0
 20
18.50646710545254
 30
0.0
 11
-24.24853289454746
 21
17.755
 31
0.0
  0
LINE
  5
E1
330
1F
100
AcDbEntity
  8
050
100
AcDbLine
 10
7.583579318158601
 20
18.50646710545254
 30
0.0
 11
25.0
 21
18.50646710545254
 31
0.0
  0
LINE
  5
E2
330
1F
100
AcDbEntity
  8
VER
100
AcDbLine
 10
-7.58357931815861
 20
18.50646710545254
 30
0.0
 11
7.583579318158601
 21
18.50646710545254
 31
0.0
  0
LINE
  5
E3
330
1F
100
AcDbEntity
  8
050
100
AcDbLine
 10
-25.0
 20
18.50646710545254
 30
0.0
 11
-7.58357931815861
 21
18.50646710545254
 31
0.0
  0
LINE
  5
E4
330
1F
100
AcDbEntity
  8
VER
100
AcDbLine
 10
-9.20651807145352
 20
17.755
 30
0.0
 11
-5.197112178893213
 21
17.755
 31
0.0
  0
LINE
  5
E5
330
1F
100
AcDbEntity
  8
050
100
AcDbLine
 10
-24.24853289454746
 20
17.755
 30
0.0
 11
-9.20651807145352
 21
17.755
 31
0.0
  0
CIRCLE
  5
E6
330
1F
100
AcDbEntity
  8
VER
100
AcDbCircle
 10
-0.0000000000000016
 20
0.0
 30
0.0
 40
18.5
  0
CIRCLE
  5
E7
330
1F
100
AcDbEntity
  8
VER
100
AcDbCircle
 10
-0.0000000000000016
 20
0.0
 30
0.0
 40
18.0
  0
CIRCLE
  5
E8
330
1F
100
AcDbEntity
  8
VER
100
AcDbCircle
 10
-0.0000000000000019
 20
0.0
 30
0.0
 40
16.0
  0
CIRCLE
  5
E9
330
1F
100
AcDbEntity
  8
VER
100
AcDbCircle
 10
-0.0000000000000019
 20
0.0
 30
0.0
 40
18.44
  0
CIRCLE
  5
EA
330
1F
100
AcDbEntity
  8
050
100
AcDbCircle
 10
-0.0000000000000021
 20
0.0
 30
0.0
 40
20.0
  0
CIRCLE
  5
EB
330
1F
100
AcDbEntity
  8
050
100
AcDbCircle
 10
-0.0000000000000021
 20
0.0
 30
0.0
 40
18.75
  0
CIRCLE
  5
EC
330
1F
100
AcDbEntity
  8
VER
100
AcDbCircle
 10
-0.0000000000000024
 20
0.0
 30
0.0
 40
15.5
  0
CIRCLE
  5
ED
330
1F
100
AcDbEntity
  8
VER
100
AcDbCircle
 10
-0.0000000000000025
 20
0.0
 30
0.0
 40
15.85020753820971
  0
CIRCLE
  5
EE
330
1F
100
AcDbEntity
  8
VER
100
AcDbCircle
 10
-0.0000000000000025
 20
0.0
 30
0.0
 40
15.15
  0
CIRCLE
  5
EF
330
1F
100
AcDbEntity
  8
VER
100
AcDbCircle
 10
-0.0000000000000034
 20
0.0
 30
0.0
 40
14.3
  0
CIRCLE
  5
F0
330
1F
100
AcDbEntity
  8
VER
100
AcDbCircle
 10
-0.0000000000000038
 20
0.0
 30
0.0
 40
15.22760489911372
  0
CIRCLE
  5
F1
330
1F
100
AcDbEntity
  8
050
100
AcDbCircle
 10
-0.0000000000000037
 20
0.0
 30
0.0
 40
12.4
  0
CIRCLE
  5
F2
330
1F
100
AcDbEntity
  8
050
100
AcDbCircle
 10
-0.000000000000004
 20
0.0
 30
0.0
 40
16.325
  0
CIRCLE
  5
F3
330
1F
100
AcDbEntity
  8
050
100
AcDbCircle
 10
-0.0000000000000042
 20
0.0
 30
0.0
 40
13.92643165410831
  0
CIRCLE
  5
F4
330
1F
100
AcDbEntity
  8
050
100
AcDbCircle
 10
-0.0000000000000043
 20
0.0
 30
0.0
 40
14.41883553061441
  0
CIRCLE
  5
F5
330
1F
100
AcDbEntity
  8
050
100
AcDbCircle
 10
-0.0000000000000043
 20
0.0
 30
0.0
 40
15.28436014752909
  0
CIRCLE
  5
F6
330
1F
100
AcDbEntity
  8
050
100
AcDbCircle
 10
-0.0000000000000042
 20
0.0
 30
0.0
 40
15.67828324873397
  0
LINE
  5
F9
330
1F
100
AcDbEntity
  8
MITTE
100
AcDbLine
 10
-21.0
 20
0.0
 30
0.0
 11
21.0
 21
0.0
 31
0.0
  0
LINE
  5
FA
330
1F
100
AcDbEntity
  8
MITTE
100
AcDbLine
 10
0.0
 20
72.72000000000001
 30
0.0
 11
0.0000000000000014
 21
-23.235
 31
0.0
  0
ENDSEC
  0
SECTION
  2
OBJECTS
  0
DICTIONARY
  5
C
330
0
100
AcDbDictionary
281
     1
  3
ACAD_DETAILVIEWSTYLE
350
102
  3
ACAD_GROUP
350
D
  3
ACAD_LAYOUT
350
1A
  3
ACAD_MATERIAL
350
43
  3
ACAD_MLEADERSTYLE
350
6B
  3
ACAD_MLINESTYLE
350
17
  3
ACAD_PLOTSETTINGS
350
19
  3
ACAD_PLOTSTYLENAME
350
E
  3
ACAD_SCALELIST
350
47
  3
ACAD_SECTIONVIEWSTYLE
350
103
  3
ACAD_TABLESTYLE
350
69
  3
ACAD_VISUALSTYLE
350
2A
  3
ACDB_RECOMPOSE_DATA
350
FF
  3
AcDbVariableDictionary
350
FB
  0
SUN
  5
6D
330
29
100
AcDbSun
 90
        1
290
     0
 63
     7
421
 16777215
 40
1.0
291
     1
 91
  2455826
 92
 54000000
292
     0
 70
     2
 71
   256
280
     1
  0
DICTIONARY
  5
102
102
{ACAD_REACTORS
330
C
102
}
330
C
100
AcDbDictionary
281
     1
  0
DICTIONARY
  5
D
102
{ACAD_REACTORS
330
C
102
}
330
C
100
AcDbDictionary
281
     1
  0
DICTIONARY
  5
1A
102
{ACAD_REACTORS
330
C
102
}
330
C
100
AcDbDictionary
281
     1
  3
Layout1
350
1E
  3
Layout2
350
26
  3
Model
350
22
  0
DICTIONARY
  5
43
102
{ACAD_REACTORS
330
C
102
}
330
C
100
AcDbDictionary
281
     1
  3
ByBlock
350
45
  3
ByLayer
350
44
  3
Global
350
46
  0
DICTIONARY
  5
6B
102
{ACAD_REACTORS
330
C
102
}
330
C
100
AcDbDictionary
281
     1
  3
Standard
350
6C
  0
DICTIONARY
  5
17
102
{ACAD_REACTORS
330
C
102
}
330
C
100
AcDbDictionary
281
     1
  3
Standard
350
18
  0
DICTIONARY
  5
19
102
{ACAD_REACTORS
330
C
102
}
330
C
100
AcDbDictionary
281
     1
  0
ACDBDICTIONARYWDFLT
  5
E
102
{ACAD_REACTORS
330
C
102
}
330
C
100
AcDbDictionary
281
     1
  3
Normal
350
F
100
AcDbDictionaryWithDefault
340
F
  0
DICTIONARY
  5
47
102
{ACAD_REACTORS
330
C
102
}
330
C
100
AcDbDictionary
281
     1
  3
A0
350
48
  3
A1
350
49
  3
A2
350
4A
  3
A3
350
4B
  3
A4
350
4C
  3
A5
350
4D
  3
A6
350
4E
  3
A7
350
4F
  3
A8
350
50
  3
A9
350
51
  3
B0
350
52
  3
B1
350
53
  3
B2
350
54
  3
B3
350
55
  3
B4
350
56
  3
B5
350
57
  3
B6
350
58
  3
B7
350
59
  3
B8
350
5A
  3
B9
350
5B
  3
C0
350
5C
  3
C1
350
5D
  3
C2
350
5E
  3
C3
350
5F
  3
C4
350
60
  3
C5
350
61
  3
C6
350
62
  3
C7
350
63
  3
C8
350
64
  3
C9
350
65
  3
D0
350
66
  3
D1
350
67
  3
D2
350
68
  0
DICTIONARY
  5
103
102
{ACAD_REACTORS
330
C
102
}
330
C
100
AcDbDictionary
281
     1
  0
DICTIONARY
  5
69
102
{ACAD_REACTORS
330
C
102
}
330
C
100
AcDbDictionary
281
     1
  3
Standard
350
6A
  0
DICTIONARY
  5
2A
102
{ACAD_REACTORS
330
C
102
}
330
C
100
AcDbDictionary
281
     1
  3
2dWireframe
350
2F
  3
Basic
350
32
  3
Brighten
350
36
  3
ColorChange
350
3A
  3
Conceptual
350
34
  3
Dim
350
35
  3
EdgeColorOff
350
3D
  3
Facepattern
350
39
  3
Flat
350
2B
  3
FlatWithEdges
350
2C
  3
Gouraud
350
2D
  3
GouraudWithEdges
350
2E
  3
Hidden
350
31
  3
JitterOff
350
3B
  3
Linepattern
350
38
  3
OverhangOff
350
3C
  3
Realistic
350
33
  3
Shaded
350
42
  3
Shaded with edges
350
41
  3
Shades of Gray
350
3E
  3
Sketchy
350
3F
  3
Thicken
350
37
  3
Wireframe
350
30
  3
X-Ray
350
40
  0
XRECORD
  5
FF
102
{ACAD_REACTORS
330
C
102
}
330
C
100
AcDbXrecord
280
     1
 90
        1
330
6A
  0
DICTIONARY
  5
FB
102
{ACAD_REACTORS
330
C
102
}
330
C
100
AcDbDictionary
281
     1
  3
CANNOSCALE
350
FC
  3
CMLEADERSTYLE
350
101
  3
CTABLESTYLE
350
100
  3
SECTIONTHICKNESSINC
350
104
  0
LAYOUT
  5
1E
102
{ACAD_REACTORS
330
1A
102
}
330
1A
100
AcDbPlotSettings
  1

  2
none_device
  4

  6

 40
0.0
 41
0.0
 42
0.0
 43
0.0
 44
0.0
 45
0.0
 46
0.0
 47
0.0
 48
0.0
 49
0.0
140
0.0
141
0.0
142
1.0
143
1.0
 70
   688
 72
     1
 73
     0
 74
     5
  7

 75
    16
 76
     0
 77
     2
 78
   300
147
1.0
148
0.0
149
0.0
100
AcDbLayout
  1
Layout1
 70
     1
 71
     1
 10
0.0
 20
0.0
 11
420.0
 21
297.0
 12
0.0
 22
0.0
 32
0.0
 14
1.000000000000000E+20
 24
1.000000000000000E+20
 34
1.000000000000000E+20
 15
-1.000000000000000E+20
 25
-1.000000000000000E+20
 35
-1.000000000000000E+20
146
0.0
 13
0.0
 23
0.0
 33
0.0
 16
1.0
 26
0.0
 36
0.0
 17
0.0
 27
1.0
 37
0.0
 76
     0
330
1B
  0
LAYOUT
  5
26
102
{ACAD_REACTORS
330
1A
102
}
330
1A
100
AcDbPlotSettings
  1

  2
none_device
  4

  6

 40
0.0
 41
0.0
 42
0.0
 43
0.0
 44
0.0
 45
0.0
 46
0.0
 47
0.0
 48
0.0
 49
0.0
140
0.0
141
0.0
142
1.0
143
1.0
 70
   688
 72
     1
 73
     0
 74
     5
  7

 75
    16
 76
     0
 77
     2
 78
   300
147
1.0
148
0.0
149
0.0
100
AcDbLayout
  1
Layout2
 70
     1
 71
     2
 10
0.0
 20
0.0
 11
0.0
 21
0.0
 12
0.0
 22
0.0
 32
0.0
 14
0.0
 24
0.0
 34
0.0
 15
0.0
 25
0.0
 35
0.0
146
0.0
 13
0.0
 23
0.0
 33
0.0
 16
1.0
 26
0.0
 36
0.0
 17
0.0
 27
1.0
 37
0.0
 76
     0
330
23
  0
LAYOUT
  5
22
102
{ACAD_REACTORS
330
1A
102
}
330
1A
100
AcDbPlotSettings
  1

  2
none_device
  4
Letter_(8.50_x_11.00_Inches)
  6

 40
6.35
 41
6.35
 42
6.35000508
 43
6.35000508
 44
215.9
 45
279.4
 46
0.0
 47
0.0
 48
0.0
 49
0.0
140
0.0
141
0.0
142
1.0
143
1.0
 70
  1712
 72
     1
 73
     0
 74
     0
  7

 75
     0
 76
     0
 77
     2
 78
   300
147
1.0
148
0.0
149
0.0
100
AcDbLayout
  1
Model
 70
     1
 71
     0
 10
0.0
 20
0.0
 11
420.0
 21
297.0
 12
0.0
 22
0.0
 32
0.0
 14
1.000000000000000E+20
 24
1.000000000000000E+20
 34
1.000000000000000E+20
 15
-1.000000000000000E+20
 25
-1.000000000000000E+20
 35
-1.000000000000000E+20
146
0.0
 13
0.0
 23
0.0
 33
0.0
 16
1.0
 26
0.0
 36
0.0
 17
0.0
 27
1.0
 37
0.0
 76
     0
330
1F
331
29
  0
MATERIAL
  5
45
102
{ACAD_REACTORS
330
43
102
}
330
43
100
AcDbMaterial
  1
ByBlock
 72
     1
 94
      127
  0
MATERIAL
  5
44
102
{ACAD_REACTORS
330
43
102
}
330
43
100
AcDbMaterial
  1
ByLayer
 72
     1
 94
      127
  0
MATERIAL
  5
46
102
{ACAD_REACTORS
330
43
102
}
330
43
100
AcDbMaterial
  1
Global
 72
     1
 94
      127
  0
MLEADERSTYLE
  5
6C
102
{ACAD_REACTORS
330
6B
102
}
330
6B
100
AcDbMLeaderStyle
179
     2
170
     2
171
     1
172
     0
 90
        2
 40
0.0
 41
0.0
173
     1
 91
-1056964608
340
14
 92
       -2
290
     1
 42
2.0
291
     1
 43
8.0
  3
Standard
341
0
 44
4.0
300

342
11
174
     1
178
     6
175
     1
176
     0
 93
-1056964608
 45
4.0
292
     0
297
     0
 46
4.0
343
0
 94
-1056964608
 47
1.0
 49
1.0
140
1.0
293
     1
141
0.0
294
     1
177
     0
142
1.0
295
     0
296
     0
143
3.75
271
     0
272
     9
273
     9
298
     0
  0
MLINESTYLE
  5
18
102
{ACAD_REACTORS
330
17
102
}
330
17
100
AcDbMlineStyle
  2
Standard
 70
     0
  3

 62
   256
 51
90.0
 52
90.0
 71
     2
 49
0.5
 62
   256
  6
BYLAYER
 49
-0.5
 62
   256
  6
BYLAYER
  0
ACDBPLACEHOLDER
  5
F
102
{ACAD_REACTORS
330
E
102
}
330
E
  0
SCALE
  5
48
102
{ACAD_REACTORS
330
47
102
}
330
47
100
AcDbScale
 70
     0
300
1:1
140
1.0
141
1.0
290
     1
  0
SCALE
  5
49
102
{ACAD_REACTORS
330
47
102
}
330
47
100
AcDbScale
 70
     0
300
1:2
140
1.0
141
2.0
290
     0
  0
SCALE
  5
4A
102
{ACAD_REACTORS
330
47
102
}
330
47
100
AcDbScale
 70
     0
300
1:4
140
1.0
141
4.0
290
     0
  0
SCALE
  5
4B
102
{ACAD_REACTORS
330
47
102
}
330
47
100
AcDbScale
 70
     0
300
1:5
140
1.0
141
5.0
290
     0
  0
SCALE
  5
4C
102
{ACAD_REACTORS
330
47
102
}
330
47
100
AcDbScale
 70
     0
300
1:8
140
1.0
141
8.0
290
     0
  0
SCALE
  5
4D
102
{ACAD_REACTORS
330
47
102
}
330
47
100
AcDbScale
 70
     0
300
1:10
140
1.0
141
10.0
290
     0
  0
SCALE
  5
4E
102
{ACAD_REACTORS
330
47
102
}
330
47
100
AcDbScale
 70
     0
300
1:16
140
1.0
141
16.0
290
     0
  0
SCALE
  5
4F
102
{ACAD_REACTORS
330
47
102
}
330
47
100
AcDbScale
 70
     0
300
1:20
140
1.0
141
20.0
290
     0
  0
SCALE
  5
50
102
{ACAD_REACTORS
330
47
102
}
330
47
100
AcDbScale
 70
     0
300
1:30
140
1.0
141
30.0
290
     0
  0
SCALE
  5
51
102
{ACAD_REACTORS
330
47
102
}
330
47
100
AcDbScale
 70
     0
300
1:40
140
1.0
141
40.0
290
     0
  0
SCALE
  5
52
102
{ACAD_REACTORS
330
47
102
}
330
47
100
AcDbScale
 70
     0
300
1:50
140
1.0
141
50.0
290
     0
  0
SCALE
  5
53
102
{ACAD_REACTORS
330
47
102
}
330
47
100
AcDbScale
 70
     0
300
1:100
140
1.0
141
100.0
290
     0
  0
SCALE
  5
54
102
{ACAD_REACTORS
330
47
102
}
330
47
100
AcDbScale
 70
     0
300
2:1
140
2.0
141
1.0
290
     0
  0
SCALE
  5
55
102
{ACAD_REACTORS
330
47
102
}
330
47
100
AcDbScale
 70
     0
300
4:1
140
4.0
141
1.0
290
     0
  0
SCALE
  5
56
102
{ACAD_REACTORS
330
47
102
}
330
47
100
AcDbScale
 70
     0
300
8:1
140
8.0
141
1.0
290
     0
  0
SCALE
  5
57
102
{ACAD_REACTORS
330
47
102
}
330
47
100
AcDbScale
 70
     0
300
10:1
140
10.0
141
1.0
290
     0
  0
SCALE
  5
58
102
{ACAD_REACTORS
330
47
102
}
330
47
100
AcDbScale
 70
     0
300
100:1
140
100.0
141
1.0
290
     0
  0
SCALE
  5
59
102
{ACAD_REACTORS
330
47
102
}
330
47
100
AcDbScale
 70
     0
300
1/128" = 1'-0"
140
0.0078125
141
12.0
290
     0
  0
SCALE
  5
5A
102
{ACAD_REACTORS
330
47
102
}
330
47
100
AcDbScale
 70
     0
300
1/64" = 1'-0"
140
0.015625
141
12.0
290
     0
  0
SCALE
  5
5B
102
{ACAD_REACTORS
330
47
102
}
330
47
100
AcDbScale
 70
     0
300
1/32" = 1'-0"
140
0.03125
141
12.0
290
     0
  0
SCALE
  5
5C
102
{ACAD_REACTORS
330
47
102
}
330
47
100
AcDbScale
 70
     0
300
1/16" = 1'-0"
140
0.0625
141
12.0
290
     0
  0
SCALE
  5
5D
102
{ACAD_REACTORS
330
47
102
}
330
47
100
AcDbScale
 70
     0
300
3/32" = 1'-0"
140
0.09375
141
12.0
290
     0
  0
SCALE
  5
5E
102
{ACAD_REACTORS
330
47
102
}
330
47
100
AcDbScale
 70
     0
300
1/8" = 1'-0"
140
0.125
141
12.0
290
     0
  0
SCALE
  5
5F
102
{ACAD_REACTORS
330
47
102
}
330
47
100
AcDbScale
 70
     0
300
3/16" = 1'-0"
140
0.1875
141
12.0
290
     0
  0
SCALE
  5
60
102
{ACAD_REACTORS
330
47
102
}
330
47
100
AcDbScale
 70
     0
300
1/4" = 1'-0"
140
0.25
141
12.0
290
     0
  0
SCALE
  5
61
102
{ACAD_REACTORS
330
47
102
}
330
47
100
AcDbScale
 70
     0
300
3/8" = 1'-0"
140
0.375
141
12.0
290
     0
  0
SCALE
  5
62
102
{ACAD_REACTORS
330
47
102
}
330
47
100
AcDbScale
 70
     0
300
1/2" = 1'-0"
140
0.5
141
12.0
290
     0
  0
SCALE
  5
63
102
{ACAD_REACTORS
330
47
102
}
330
47
100
AcDbScale
 70
     0
300
3/4" = 1'-0"
140
0.75
141
12.0
290
     0
  0
SCALE
  5
64
102
{ACAD_REACTORS
330
47
102
}
330
47
100
AcDbScale
 70
     0
300
1" = 1'-0"
140
1.0
141
12.0
290
     0
  0
SCALE
  5
65
102
{ACAD_REACTORS
330
47
102
}
330
47
100
AcDbScale
 70
     0
300
1-1/2" = 1'-0"
140
1.5
141
12.0
290
     0
  0
SCALE
  5
66
102
{ACAD_REACTORS
330
47
102
}
330
47
100
AcDbScale
 70
     0
300
3" = 1'-0"
140
3.0
141
12.0
290
     0
  0
SCALE
  5
67
102
{ACAD_REACTORS
330
47
102
}
330
47
100
AcDbScale
 70
     0
300
6" = 1'-0"
140
6.0
141
12.0
290
     0
  0
SCALE
  5
68
102
{ACAD_REACTORS
330
47
102
}
330
47
100
AcDbScale
 70
     0
300
1'-0" = 1'-0"
140
12.0
141
12.0
290
     0
  0
TABLESTYLE
  5
6A
102
{ACAD_REACTORS
330
69
102
}
102
{ACAD_XDICTIONARY
360
FD
102
}
330
69
100
AcDbTableStyle
  3
Standard
 70
     0
 71
     0
 40
0.06
 41
0.06
280
     0
281
     0
  7
Standard
140
4.5
170
     2
 62
     0
 63
   257
283
     0
 90
        4
 91
        0
  1

274
    -2
284
     1
 64
     0
275
    -2
285
     1
 65
     0
276
    -2
286
     1
 66
     0
277
    -2
287
     1
 67
     0
278
    -2
288
     1
 68
     0
279
    -2
289
     1
 69
     0
  7
Standard
140
6.0
170
     5
 62
     0
 63
   257
283
     0
 90
        4
 91
        0
  1

274
    -2
284
     1
 64
     0
275
    -2
285
     1
 65
     0
276
    -2
286
     1
 66
     0
277
    -2
287
     1
 67
     0
278
    -2
288
     1
 68
     0
279
    -2
289
     1
 69
     0
  7
Standard
140
4.5
170
     5
 62
     0
 63
   257
283
     0
 90
        4
 91
        0
  1

274
    -2
284
     1
 64
     0
275
    -2
285
     1
 65
     0
276
    -2
286
     1
 66
     0
277
    -2
287
     1
 67
     0
278
    -2
288
     1
 68
     0
279
    -2
289
     1
 69
     0
  0
VISUALSTYLE
  5
2F
102
{ACAD_REACTORS
330
2A
102
}
330
2A
100
AcDbVisualStyle
  2
2dWireframe
 70
     4
177
     3
291
     0
 70
    58
 90
        0
176
     1
 90
        2
176
     1
 90
        0
176
     1
 90
        0
176
     1
 40
0.6
176
     1
 40
30.0
176
     1
 62
     7
420
 16777215
176
     1
 90
        1
176
     1
 90
        4
176
     1
 62
     7
176
     1
 62
   257
176
     1
 90
        1
176
     1
 90
        1
176
     1
 40
1.0
176
     1
 90
        0
176
     1
 62
   257
176
     1
 40
1.0
176
     1
 90
        1
176
     1
 90
        6
176
     1
 90
        2
176
     1
 62
     7
176
     1
 90
        5
176
     1
 90
        0
176
     1
 90
        0
176
     1
290
     0
176
     1
 90
        1
176
     1
 40
0.0
176
     1
 90
        0
176
     1
290
     1
176
     1
290
     1
176
     1
290
     0
176
     1
290
     0
176
     1
290
     0
176
     1
290
     0
176
     1
290
     0
176
     1
290
     0
176
     1
290
     0
176
     1
 90
       50
176
     1
 40
0.0
176
     1
 40
1.0
176
     1
 90
        0
176
     1
 62
    18
420
        0
176
     1
 90
       50
176
     1
 90
        3
176
     1
 62
     5
420
      255
176
     1
290
     0
176
     1
 90
       50
176
     1
 90
       50
176
     1
 90
       50
176
     1
290
     0
176
     1
 90
       50
176
     1
 62
   256
176
     0
 40
1.0
176
     0
 90
        2
176
     1
  1
strokes_ogs.tif
176
     1
290
     0
176
     1
 40
1.0
176
     1
 40
1.0
176
     1
  0
VISUALSTYLE
  5
32
102
{ACAD_REACTORS
330
2A
102
}
330
2A
100
AcDbVisualStyle
  2
Basic
 70
     7
177
     3
291
     1
 70
    58
 90
        1
176
     1
 90
        0
176
     1
 90
        1
176
     1
 90
        0
176
     1
 40
0.6
176
     1
 40
30.0
176
     1
 62
     7
420
 16777215
176
     1
 90
        0
176
     1
 90
        4
176
     1
 62
     7
176
     1
 62
   257
176
     1
 90
        1
176
     1
 90
        1
176
     1
 40
1.0
176
     1
 90
        8
176
     1
 62
     7
176
     1
 40
1.0
176
     1
 90
        1
176
     1
 90
        6
176
     1
 90
        2
176
     1
 62
     7
176
     1
 90
        5
176
     1
 90
        0
176
     1
 90
        0
176
     1
290
     0
176
     1
 90
        1
176
     1
 40
0.0
176
     1
 90
        0
176
     1
290
     0
176
     1
290
     1
176
     1
290
     1
176
     1
290
     0
176
     1
290
     0
176
     1
290
     0
176
     1
290
     0
176
     1
290
     0
176
     1
290
     0
176
     1
 90
       50
176
     1
 40
0.0
176
     1
 40
1.0
176
     1
 90
        0
176
     1
 62
    18
420
        0
176
     1
 90
       50
176
     1
 90
        3
176
     1
 62
     5
420
      255
176
     1
290
     0
176
     1
 90
       50
176
     1
 90
       50
176
     1
 90
       50
176
     1
290
     0
176
     1
 90
       50
176
     1
 62
   256
176
     0
 40
1.0
176
     0
 90
        2
176
     1
  1
strokes_ogs.tif
176
     1
290
     0
176
     1
 40
1.0
176
     1
 40
1.0
176
     1
  0
VISUALSTYLE
  5
36
102
{ACAD_REACTORS
330
2A
102
}
330
2A
100
AcDbVisualStyle
  2
Brighten
 70
    12
177
     3
291
     1
 70
    58
 90
        2
176
     1
 90
        2
176
     1
 90
        0
176
     1
 90
        0
176
     1
 40
0.6
176
     1
 40
30.0
176
     1
 62
     7
420
 16777215
176
     1
 90
        1
176
     1
 90
        4
176
     1
 62
     7
176
     1
 62
   257
176
     1
 90
        1
176
     1
 90
        1
176
     1
 40
1.0
176
     1
 90
        8
176
     1
 62
     7
176
     1
 40
1.0
176
     1
 90
        1
176
     1
 90
        6
176
     1
 90
        2
176
     1
 62
     7
176
     1
 90
        5
176
     1
 90
        0
176
     1
 90
        0
176
     1
290
     0
176
     1
 90
        1
176
     1
 40
50.0
176
     1
 90
        0
176
     1
290
     0
176
     1
290
     1
176
     1
290
     1
176
     1
290
     0
176
     1
290
     0
176
     1
290
     0
176
     1
290
     0
176
     1
290
     0
176
     1
290
     0
176
     1
 90
       50
176
     1
 40
0.0
176
     1
 40
1.0
176
     1
 90
        0
176
     1
 62
    18
420
        0
176
     1
 90
       50
176
     1
 90
        3
176
     1
 62
     5
420
      255
176
     1
290
     0
176
     1
 90
       50
176
     1
 90
       50
176
     1
 90
       50
176
     1
290
     0
176
     1
 90
       50
176
     1
 62
   256
176
     0
 40
1.0
176
     0
 90
        2
176
     1
  1
strokes_ogs.tif
176
     1
290
     0
176
     1
 40
1.0
176
     1
 40
1.0
176
     1
  0
VISUALSTYLE
  5
3A
102
{ACAD_REACTORS
330
2A
102
}
330
2A
100
AcDbVisualStyle
  2
ColorChange
 70
    16
177
     3
291
     1
 70
    58
 90
        2
176
     1
 90
        2
176
     1
 90
        3
176
     1
 90
        0
176
     1
 40
0.6
176
     1
 40
30.0
176
     1
 62
     8
420
  8421504
176
     1
 90
        1
176
     1
 90
        4
176
     1
 62
     7
176
     1
 62
   257
176
     1
 90
        1
176
     1
 90
        1
176
     1
 40
1.0
176
     1
 90
        8
176
     1
 62
     8
420
  8421504
176
     1
 40
1.0
176
     1
 90
        1
176
     1
 90
        6
176
     1
 90
        2
176
     1
 62
     7
176
     1
 90
        5
176
     1
 90
        0
176
     1
 90
        0
176
     1
290
     0
176
     1
 90
        1
176
     1
 40
0.0
176
     1
 90
        0
176
     1
290
     0
176
     1
290
     1
176
     1
290
     1
176
     1
290
     0
176
     1
290
     0
176
     1
290
     0
176
     1
290
     0
176
     1
290
     0
176
     1
290
     0
176
     1
 90
       50
176
     1
 40
0.0
176
     1
 40
1.0
176
     1
 90
        0
176
     1
 62
    18
420
        0
176
     1
 90
       50
176
     1
 90
        3
176
     1
 62
     5
420
      255
176
     1
290
     0
176
     1
 90
       50
176
     1
 90
       50
176
     1
 90
       50
176
     1
290
     0
176
     1
 90
       50
176
     1
 62
   256
176
     0
 40
1.0
176
     0
 90
        2
176
     1
  1
strokes_ogs.tif
176
     1
290
     0
176
     1
 40
1.0
176
     1
 40
1.0
176
     1
  0
VISUALSTYLE
  5
34
102
{ACAD_REACTORS
330
2A
102
}
330
2A
100
AcDbVisualStyle
  2
Conceptual
 70
     9
177
     3
291
     0
 70
    58
 90
        3
176
     1
 90
        2
176
     1
 90
        0
176
     1
 90
        0
176
     1
 40
0.6
176
     1
 40
30.0
176
     1
 62
     7
420
 16777215
176
     1
 90
        2
176
     1
 90
        2
176
     1
 62
     7
176
     1
 62
   257
176
     1
 90
        1
176
     1
 90
        1
176
     1
 40
179.0
176
     1
 90
        8
176
     1
 62
     7
176
     1
 40
1.0
176
     1
 90
        1
176
     1
 90
        6
176
     1
 90
        2
176
     1
 62
     7
176
     1
 90
        3
176
     1
 90
        0
176
     1
 90
        0
176
     1
290
     0
176
     1
 90
        1
176
     1
 40
0.0
176
     1
 90
        0
176
     1
290
     0
176
     1
290
     1
176
     1
290
     1
176
     1
290
     0
176
     1
290
     0
176
     1
290
     0
176
     1
290
     0
176
     1
290
     0
176
     1
290
     0
176
     1
 90
       50
176
     1
 40
0.0
176
     1
 40
1.0
176
     1
 90
        0
176
     1
 62
    18
420
        0
176
     1
 90
       50
176
     1
 90
        3
176
     1
 62
     5
420
      255
176
     1
290
     0
176
     1
 90
       50
176
     1
 90
       50
176
     1
 90
       50
176
     1
290
     0
176
     1
 90
       50
176
     1
 62
   256
176
     0
 40
1.0
176
     0
 90
        2
176
     1
  1
strokes_ogs.tif
176
     1
290
     0
176
     1
 40
1.0
176
     1
 40
1.0
176
     1
  0
VISUALSTYLE
  5
35
102
{ACAD_REACTORS
330
2A
102
}
330
2A
100
AcDbVisualStyle
  2
Dim
 70
    11
177
     3
291
     1
 70
    58
 90
        2
176
     1
 90
        2
176
     1
 90
        0
176
     1
 90
        0
176
     1
 40
0.6
176
     1
 40
30.0
176
     1
 62
     7
420
 16777215
176
     1
 90
        1
176
     1
 90
        4
176
     1
 62
     7
176
     1
 62
   257
176
     1
 90
        1
176
     1
 90
        1
176
     1
 40
1.0
176
     1
 90
        8
176
     1
 62
     7
176
     1
 40
1.0
176
     1
 90
        1
176
     1
 90
        6
176
     1
 90
        2
176
     1
 62
     7
176
     1
 90
        5
176
     1
 90
        0
176
     1
 90
        0
176
     1
290
     0
176
     1
 90
        1
176
     1
 40
-50.0
176
     1
 90
        0
176
     1
290
     0
176
     1
290
     1
176
     1
290
     1
176
     1
290
     0
176
     1
290
     0
176
     1
290
     0
176
     1
290
     0
176
     1
290
     0
176
     1
290
     0
176
     1
 90
       50
176
     1
 40
0.0
176
     1
 40
1.0
176
     1
 90
        0
176
     1
 62
    18
420
        0
176
     1
 90
       50
176
     1
 90
        3
176
     1
 62
     5
420
      255
176
     1
290
     0
176
     1
 90
       50
176
     1
 90
       50
176
     1
 90
       50
176
     1
290
     0
176
     1
 90
       50
176
     1
 62
   256
176
     0
 40
1.0
176
     0
 90
        2
176
     1
  1
strokes_ogs.tif
176
     1
290
     0
176
     1
 40
1.0
176
     1
 40
1.0
176
     1
  0
VISUALSTYLE
  5
3D
102
{ACAD_REACTORS
330
2A
102
}
330
2A
100
AcDbVisualStyle
  2
EdgeColorOff
 70
    22
177
     3
291
     1
 70
    58
 90
        2
176
     0
 90
        2
176
     0
 90
        0
176
     0
 90
        0
176
     0
 40
0.6
176
     0
 40
30.0
176
     0
 62
     7
420
 16777215
176
     0
 90
        1
176
     0
 90
        4
176
     0
 62
     7
176
     0
 62
   257
176
     0
 90
        1
176
     0
 90
        1
176
     0
 40
1.0
176
     0
 90
        8
176
     2
 62
     7
176
     0
 40
1.0
176
     0
 90
        1
176
     0
 90
        6
176
     0
 90
        2
176
     0
 62
     7
176
     0
 90
        5
176
     0
 90
        0
176
     0
 90
        0
176
     0
290
     0
176
     0
 90
        1
176
     0
 40
0.0
176
     0
 90
        0
176
     0
290
     0
176
     0
290
     1
176
     0
290
     1
176
     0
290
     0
176
     0
290
     0
176
     0
290
     0
176
     0
290
     0
176
     0
290
     0
176
     0
290
     0
176
     0
 90
       50
176
     0
 40
0.0
176
     0
 40
1.0
176
     0
 90
        0
176
     0
 62
    18
420
        0
176
     0
 90
       50
176
     0
 90
        3
176
     0
 62
     5
420
      255
176
     0
290
     0
176
     0
 90
       50
176
     0
 90
       50
176
     0
 90
       50
176
     0
290
     0
176
     0
 90
       50
176
     0
 62
   256
176
     0
 40
1.0
176
     0
 90
        2
176
     0
  1
strokes_ogs.tif
176
     0
290
     0
176
     0
 40
1.0
176
     0
 40
1.0
176
     0
  0
VISUALSTYLE
  5
39
102
{ACAD_REACTORS
330
2A
102
}
330
2A
100
AcDbVisualStyle
  2
Facepattern
 70
    15
177
     3
291
     1
 70
    58
 90
        2
176
     1
 90
        2
176
     1
 90
        0
176
     1
 90
        0
176
     1
 40
0.6
176
     1
 40
30.0
176
     1
 62
     7
420
 16777215
176
     1
 90
        1
176
     1
 90
        4
176
     1
 62
     7
176
     1
 62
   257
176
     1
 90
        1
176
     1
 90
        1
176
     1
 40
1.0
176
     1
 90
        8
176
     1
 62
     7
176
     1
 40
1.0
176
     1
 90
        1
176
     1
 90
        6
176
     1
 90
        2
176
     1
 62
     7
176
     1
 90
        5
176
     1
 90
        0
176
     1
 90
        0
176
     1
290
     0
176
     1
 90
        1
176
     1
 40
0.0
176
     1
 90
        0
176
     1
290
     0
176
     1
290
     1
176
     1
290
     1
176
     1
290
     0
176
     1
290
     0
176
     1
290
     0
176
     1
290
     0
176
     1
290
     0
176
     1
290
     0
176
     1
 90
       50
176
     1
 40
0.0
176
     1
 40
1.0
176
     1
 90
        0
176
     1
 62
    18
420
        0
176
     1
 90
       50
176
     1
 90
        3
176
     1
 62
     5
420
      255
176
     1
290
     0
176
     1
 90
       50
176
     1
 90
       50
176
     1
 90
       50
176
     1
290
     0
176
     1
 90
       50
176
     1
 62
   256
176
     0
 40
1.0
176
     0
 90
        2
176
     1
  1
strokes_ogs.tif
176
     1
290
     0
176
     1
 40
1.0
176
     1
 40
1.0
176
     1
  0
VISUALSTYLE
  5
2B
102
{ACAD_REACTORS
330
2A
102
}
330
2A
100
AcDbVisualStyle
  2
Flat
 70
     0
177
     3
291
     1
 70
    58
 90
        2
176
     1
 90
        1
176
     1
 90
        1
176
     1
 90
        2
176
     1
 40
0.6
176
     1
 40
30.0
176
     1
 62
     7
420
 16777215
176
     1
 90
        0
176
     1
 90
        0
176
     1
 62
     7
176
     1
 62
   257
176
     1
 90
        1
176
     1
 90
        1
176
     1
 40
1.0
176
     1
 90
        8
176
     1
 62
     7
176
     1
 40
1.0
176
     1
 90
        1
176
     1
 90
        6
176
     1
 90
        2
176
     1
 62
     7
176
     1
 90
        5
176
     1
 90
        0
176
     1
 90
        0
176
     1
290
     0
176
     1
 90
       13
176
     1
 40
0.0
176
     1
 90
        0
176
     1
290
     0
176
     1
290
     1
176
     1
290
     1
176
     1
290
     0
176
     1
290
     0
176
     1
290
     0
176
     1
290
     0
176
     1
290
     0
176
     1
290
     0
176
     1
 90
       50
176
     1
 40
0.0
176
     1
 40
1.0
176
     1
 90
        0
176
     1
 62
    18
420
        0
176
     1
 90
       50
176
     1
 90
        3
176
     1
 62
     5
420
      255
176
     1
290
     0
176
     1
 90
       50
176
     1
 90
       50
176
     1
 90
       50
176
     1
290
     0
176
     1
 90
       50
176
     1
 62
   256
176
     0
 40
1.0
176
     0
 90
        2
176
     1
  1
strokes_ogs.tif
176
     1
290
     0
176
     1
 40
1.0
176
     1
 40
1.0
176
     1
  0
VISUALSTYLE
  5
2C
102
{ACAD_REACTORS
330
2A
102
}
330
2A
100
AcDbVisualStyle
  2
FlatWithEdges
 70
     1
177
     3
291
     1
 70
    58
 90
        2
176
     1
 90
        1
176
     1
 90
        1
176
     1
 90
        2
176
     1
 40
0.6
176
     1
 40
30.0
176
     1
 62
     7
420
 16777215
176
     1
 90
        1
176
     1
 90
        0
176
     1
 62
     7
176
     1
 62
   257
176
     1
 90
        1
176
     1
 90
        1
176
     1
 40
1.0
176
     1
 90
        0
176
     1
 62
   257
176
     1
 40
1.0
176
     1
 90
        1
176
     1
 90
        6
176
     1
 90
        2
176
     1
 62
     7
176
     1
 90
        5
176
     1
 90
        0
176
     1
 90
        0
176
     1
290
     0
176
     1
 90
       13
176
     1
 40
0.0
176
     1
 90
        0
176
     1
290
     0
176
     1
290
     1
176
     1
290
     1
176
     1
290
     0
176
     1
290
     0
176
     1
290
     0
176
     1
290
     0
176
     1
290
     0
176
     1
290
     0
176
     1
 90
       50
176
     1
 40
0.0
176
     1
 40
1.0
176
     1
 90
        0
176
     1
 62
    18
420
        0
176
     1
 90
       50
176
     1
 90
        3
176
     1
 62
     5
420
      255
176
     1
290
     0
176
     1
 90
       50
176
     1
 90
       50
176
     1
 90
       50
176
     1
290
     0
176
     1
 90
       50
176
     1
 62
   256
176
     0
 40
1.0
176
     0
 90
        2
176
     1
  1
strokes_ogs.tif
176
     1
290
     0
176
     1
 40
1.0
176
     1
 40
1.0
176
     1
  0
VISUALSTYLE
  5
2D
102
{ACAD_REACTORS
330
2A
102
}
330
2A
100
AcDbVisualStyle
  2
Gouraud
 70
     2
177
     3
291
     1
 70
    58
 90
        2
176
     1
 90
        2
176
     1
 90
        1
176
     1
 90
        2
176
     1
 40
0.6
176
     1
 40
30.0
176
     1
 62
     7
420
 16777215
176
     1
 90
        0
176
     1
 90
        0
176
     1
 62
     7
176
     1
 62
   257
176
     1
 90
        1
176
     1
 90
        1
176
     1
 40
1.0
176
     1
 90
        0
176
     1
 62
     7
176
     1
 40
1.0
176
     1
 90
        1
176
     1
 90
        6
176
     1
 90
        2
176
     1
 62
     7
176
     1
 90
        5
176
     1
 90
        0
176
     1
 90
        0
176
     1
290
     0
176
     1
 90
       13
176
     1
 40
0.0
176
     1
 90
        0
176
     1
290
     0
176
     1
290
     1
176
     1
290
     1
176
     1
290
     0
176
     1
290
     0
176
     1
290
     0
176
     1
290
     0
176
     1
290
     0
176
     1
290
     0
176
     1
 90
       50
176
     1
 40
0.0
176
     1
 40
1.0
176
     1
 90
        0
176
     1
 62
    18
420
        0
176
     1
 90
       50
176
     1
 90
        3
176
     1
 62
     5
420
      255
176
     1
290
     0
176
     1
 90
       50
176
     1
 90
       50
176
     1
 90
       50
176
     1
290
     0
176
     1
 90
       50
176
     1
 62
   256
176
     0
 40
1.0
176
     0
 90
        2
176
     1
  1
strokes_ogs.tif
176
     1
290
     0
176
     1
 40
1.0
176
     1
 40
1.0
176
     1
  0
VISUALSTYLE
  5
2E
102
{ACAD_REACTORS
330
2A
102
}
330
2A
100
AcDbVisualStyle
  2
GouraudWithEdges
 70
     3
177
     3
291
     1
 70
    58
 90
        2
176
     1
 90
        2
176
     1
 90
        1
176
     1
 90
        2
176
     1
 40
0.6
176
     1
 40
30.0
176
     1
 62
     7
420
 16777215
176
     1
 90
        1
176
     1
 90
        0
176
     1
 62
     7
176
     1
 62
   257
176
     1
 90
        1
176
     1
 90
        1
176
     1
 40
1.0
176
     1
 90
        0
176
     1
 62
   257
176
     1
 40
1.0
176
     1
 90
        1
176
     1
 90
        6
176
     1
 90
        2
176
     1
 62
     7
176
     1
 90
        5
176
     1
 90
        0
176
     1
 90
        0
176
     1
290
     0
176
     1
 90
       13
176
     1
 40
0.0
176
     1
 90
        0
176
     1
290
     0
176
     1
290
     1
176
     1
290
     1
176
     1
290
     0
176
     1
290
     0
176
     1
290
     0
176
     1
290
     0
176
     1
290
     0
176
     1
290
     0
176
     1
 90
       50
176
     1
 40
0.0
176
     1
 40
1.0
176
     1
 90
        0
176
     1
 62
    18
420
        0
176
     1
 90
       50
176
     1
 90
        3
176
     1
 62
     5
420
      255
176
     1
290
     0
176
     1
 90
       50
176
     1
 90
       50
176
     1
 90
       50
176
     1
290
     0
176
     1
 90
       50
176
     1
 62
   256
176
     0
 40
1.0
176
     0
 90
        2
176
     1
  1
strokes_ogs.tif
176
     1
290
     0
176
     1
 40
1.0
176
     1
 40
1.0
176
     1
  0
VISUALSTYLE
  5
31
102
{ACAD_REACTORS
330
2A
102
}
330
2A
100
AcDbVisualStyle
  2
Hidden
 70
     6
177
     3
291
     0
 70
    58
 90
        1
176
     1
 90
        2
176
     1
 90
        2
176
     1
 90
        0
176
     1
 40
0.6
176
     1
 40
30.0
176
     1
 62
     7
420
 16777215
176
     1
 90
        2
176
     1
 90
        2
176
     1
 62
     7
176
     1
 62
   257
176
     1
 90
        2
176
     1
 90
        1
176
     1
 40
40.0
176
     1
 90
        0
176
     1
 62
   257
176
     1
 40
1.0
176
     1
 90
        1
176
     1
 90
        6
176
     1
 90
        2
176
     1
 62
     7
176
     1
 90
        3
176
     1
 90
        0
176
     1
 90
        0
176
     1
290
     0
176
     1
 90
        1
176
     1
 40
0.0
176
     1
 90
        0
176
     1
290
     0
176
     1
290
     1
176
     1
290
     1
176
     1
290
     0
176
     1
290
     0
176
     1
290
     0
176
     1
290
     0
176
     1
290
     0
176
     1
290
     0
176
     1
 90
       50
176
     1
 40
0.0
176
     1
 40
1.0
176
     1
 90
        0
176
     1
 62
    18
420
        0
176
     1
 90
       50
176
     1
 90
        3
176
     1
 62
     5
420
      255
176
     1
290
     0
176
     1
 90
       50
176
     1
 90
       50
176
     1
 90
       50
176
     1
290
     0
176
     1
 90
       50
176
     1
 62
   256
176
     0
 40
1.0
176
     0
 90
        2
176
     1
  1
strokes_ogs.tif
176
     1
290
     0
176
     1
 40
1.0
176
     1
 40
1.0
176
     1
  0
VISUALSTYLE
  5
3B
102
{ACAD_REACTORS
330
2A
102
}
330
2A
100
AcDbVisualStyle
  2
JitterOff
 70
    20
177
     3
291
     1
 70
    58
 90
        2
176
     0
 90
        2
176
     0
 90
        0
176
     0
 90
        0
176
     0
 40
0.6
176
     0
 40
30.0
176
     0
 62
     7
420
 16777215
176
     0
 90
        1
176
     0
 90
        4
176
     0
 62
     7
176
     0
 62
   257
176
     0
 90
        1
176
     0
 90
        1
176
     0
 40
1.0
176
     0
 90
       10
176
     2
 62
     7
176
     0
 40
1.0
176
     0
 90
        1
176
     0
 90
        6
176
     0
 90
        2
176
     0
 62
     7
176
     0
 90
        5
176
     0
 90
        0
176
     0
 90
        0
176
     0
290
     0
176
     0
 90
        1
176
     0
 40
0.0
176
     0
 90
        0
176
     0
290
     0
176
     0
290
     1
176
     0
290
     1
176
     0
290
     0
176
     0
290
     0
176
     0
290
     0
176
     0
290
     0
176
     0
290
     0
176
     0
290
     0
176
     0
 90
       50
176
     0
 40
0.0
176
     0
 40
1.0
176
     0
 90
        0
176
     0
 62
    18
420
        0
176
     0
 90
       50
176
     0
 90
        3
176
     0
 62
     5
420
      255
176
     0
290
     0
176
     0
 90
       50
176
     0
 90
       50
176
     0
 90
       50
176
     0
290
     0
176
     0
 90
       50
176
     0
 62
   256
176
     0
 40
1.0
176
     0
 90
        2
176
     0
  1
strokes_ogs.tif
176
     0
290
     0
176
     0
 40
1.0
176
     0
 40
1.0
176
     0
  0
VISUALSTYLE
  5
38
102
{ACAD_REACTORS
330
2A
102
}
330
2A
100
AcDbVisualStyle
  2
Linepattern
 70
    14
177
     3
291
     1
 70
    58
 90
        2
176
     1
 90
        2
176
     1
 90
        0
176
     1
 90
        0
176
     1
 40
0.6
176
     1
 40
30.0
176
     1
 62
     7
420
 16777215
176
     1
 90
        1
176
     1
 90
        4
176
     1
 62
     7
176
     1
 62
   257
176
     1
 90
        7
176
     1
 90
        7
176
     1
 40
1.0
176
     1
 90
        8
176
     1
 62
     7
176
     1
 40
1.0
176
     1
 90
        1
176
     1
 90
        6
176
     1
 90
        2
176
     1
 62
     7
176
     1
 90
        5
176
     1
 90
        0
176
     1
 90
        0
176
     1
290
     0
176
     1
 90
        1
176
     1
 40
0.0
176
     1
 90
        0
176
     1
290
     0
176
     1
290
     1
176
     1
290
     1
176
     1
290
     0
176
     1
290
     0
176
     1
290
     0
176
     1
290
     0
176
     1
290
     0
176
     1
290
     0
176
     1
 90
       50
176
     1
 40
0.0
176
     1
 40
1.0
176
     1
 90
        0
176
     1
 62
    18
420
        0
176
     1
 90
       50
176
     1
 90
        3
176
     1
 62
     5
420
      255
176
     1
290
     0
176
     1
 90
       50
176
     1
 90
       50
176
     1
 90
       50
176
     1
290
     0
176
     1
 90
       50
176
     1
 62
   256
176
     0
 40
1.0
176
     0
 90
        2
176
     1
  1
strokes_ogs.tif
176
     1
290
     0
176
     1
 40
1.0
176
     1
 40
1.0
176
     1
  0
VISUALSTYLE
  5
3C
102
{ACAD_REACTORS
330
2A
102
}
330
2A
100
AcDbVisualStyle
  2
OverhangOff
 70
    21
177
     3
291
     1
 70
    58
 90
        2
176
     0
 90
        2
176
     0
 90
        0
176
     0
 90
        0
176
     0
 40
0.6
176
     0
 40
30.0
176
     0
 62
     7
420
 16777215
176
     0
 90
        1
176
     0
 90
        4
176
     0
 62
     7
176
     0
 62
   257
176
     0
 90
        1
176
     0
 90
        1
176
     0
 40
1.0
176
     0
 90
        9
176
     2
 62
     7
176
     0
 40
1.0
176
     0
 90
        1
176
     0
 90
        6
176
     0
 90
        2
176
     0
 62
     7
176
     0
 90
        5
176
     0
 90
        0
176
     0
 90
        0
176
     0
290
     0
176
     0
 90
        1
176
     0
 40
0.0
176
     0
 90
        0
176
     0
290
     0
176
     0
290
     1
176
     0
290
     1
176
     0
290
     0
176
     0
290
     0
176
     0
290
     0
176
     0
290
     0
176
     0
290
     0
176
     0
290
     0
176
     0
 90
       50
176
     0
 40
0.0
176
     0
 40
1.0
176
     0
 90
        0
176
     0
 62
    18
420
        0
176
     0
 90
       50
176
     0
 90
        3
176
     0
 62
     5
420
      255
176
     0
290
     0
176
     0
 90
       50
176
     0
 90
       50
176
     0
 90
       50
176
     0
290
     0
176
     0
 90
       50
176
     0
 62
   256
176
     0
 40
1.0
176
     0
 90
        2
176
     0
  1
strokes_ogs.tif
176
     0
290
     0
176
     0
 40
1.0
176
     0
 40
1.0
176
     0
  0
VISUALSTYLE
  5
33
102
{ACAD_REACTORS
330
2A
102
}
330
2A
100
AcDbVisualStyle
  2
Realistic
 70
     8
177
     3
291
     0
 70
    58
 90
        2
176
     1
 90
        3
176
     1
 90
        0
176
     1
 90
        2
176
     1
 40
0.6
176
     1
 40
30.0
176
     1
 62
     7
420
 16777215
176
     1
 90
        0
176
     1
 90
        0
176
     1
 62
     7
176
     1
 62
   257
176
     1
 90
        1
176
     1
 90
        1
176
     1
 40
1.0
176
     1
 90
        8
176
     1
 62
   257
176
     1
 40
1.0
176
     1
 90
        1
176
     1
 90
        6
176
     1
 90
        2
176
     1
 62
     7
176
     1
 90
        3
176
     1
 90
        0
176
     1
 90
        0
176
     1
290
     0
176
     1
 90
       13
176
     1
 40
0.0
176
     1
 90
        0
176
     1
290
     0
176
     1
290
     1
176
     1
290
     1
176
     1
290
     0
176
     1
290
     0
176
     1
290
     0
176
     1
290
     0
176
     1
290
     0
176
     1
290
     0
176
     1
 90
       50
176
     1
 40
0.0
176
     1
 40
1.0
176
     1
 90
        0
176
     1
 62
    18
420
        0
176
     1
 90
       50
176
     1
 90
        3
176
     1
 62
     5
420
      255
176
     1
290
     0
176
     1
 90
       50
176
     1
 90
       50
176
     1
 90
       50
176
     1
290
     0
176
     1
 90
       50
176
     1
 62
   256
176
     0
 40
1.0
176
     0
 90
        2
176
     1
  1
strokes_ogs.tif
176
     1
290
     0
176
     1
 40
1.0
176
     1
 40
1.0
176
     1
  0
VISUALSTYLE
  5
42
102
{ACAD_REACTORS
330
2A
102
}
330
2A
100
AcDbVisualStyle
  2
Shaded
 70
    27
177
     3
291
     0
 70
    58
 90
        2
176
     1
 90
        2
176
     1
 90
        1
176
     1
 90
        2
176
     1
 40
0.6
176
     1
 40
30.0
176
     1
 62
     7
420
 16777215
176
     1
 90
        0
176
     1
 90
        4
176
     1
 62
     7
176
     1
 62
   257
176
     1
 90
        1
176
     1
 90
        1
176
     1
 40
1.0
176
     1
 90
        8
176
     1
 62
   257
176
     1
 40
1.0
176
     1
 90
        1
176
     1
 90
        6
176
     1
 90
        2
176
     1
 62
     8
420
  7895160
176
     1
 90
        3
176
     1
 90
        0
176
     1
 90
        0
176
     1
290
     0
176
     1
 90
        5
176
     1
 40
0.0
176
     1
 90
        0
176
     1
290
     0
176
     1
290
     1
176
     1
290
     1
176
     1
290
     0
176
     1
290
     0
176
     1
290
     0
176
     1
290
     0
176
     1
290
     0
176
     1
290
     0
176
     1
 90
       50
176
     1
 40
0.0
176
     1
 40
1.0
176
     1
 90
        0
176
     1
 62
    18
420
        0
176
     1
 90
       50
176
     1
 90
        3
176
     1
 62
     5
420
      255
176
     1
290
     0
176
     1
 90
       50
176
     1
 90
       50
176
     1
 90
       50
176
     1
290
     0
176
     1
 90
       50
176
     1
 62
   256
176
     0
 40
1.0
176
     0
 90
        2
176
     1
  1
strokes_ogs.tif
176
     1
290
     0
176
     1
 40
1.0
176
     1
 40
1.0
176
     1
  0
VISUALSTYLE
  5
41
102
{ACAD_REACTORS
330
2A
102
}
330
2A
100
AcDbVisualStyle
  2
Shaded with edges
 70
    26
177
     3
291
     0
 70
    58
 90
        2
176
     1
 90
        2
176
     1
 90
        1
176
     1
 90
        2
176
     1
 40
0.6
176
     1
 40
30.0
176
     1
 62
     7
420
 16777215
176
     1
 90
        1
176
     1
 90
       10
176
     1
 62
     7
176
     1
 62
   257
176
     1
 90
        2
176
     1
 90
        1
176
     1
 40
1.0
176
     1
 90
        8
176
     1
 62
   257
176
     1
 40
1.0
176
     1
 90
        1
176
     1
 90
        6
176
     1
 90
        2
176
     1
 62
     7
176
     1
 90
        3
176
     1
 90
        0
176
     1
 90
        0
176
     1
290
     0
176
     1
 90
        5
176
     1
 40
0.0
176
     1
 90
        0
176
     1
290
     0
176
     1
290
     1
176
     1
290
     1
176
     1
290
     0
176
     1
290
     0
176
     1
290
     0
176
     1
290
     0
176
     1
290
     0
176
     1
290
     0
176
     1
 90
       50
176
     1
 40
0.0
176
     1
 40
1.0
176
     1
 90
        0
176
     1
 62
    18
420
        0
176
     1
 90
       50
176
     1
 90
        3
176
     1
 62
     5
420
      255
176
     1
290
     0
176
     1
 90
       50
176
     1
 90
       50
176
     1
 90
       50
176
     1
290
     0
176
     1
 90
       50
176
     1
 62
   256
176
     0
 40
1.0
176
     0
 90
        2
176
     1
  1
strokes_ogs.tif
176
     1
290
     0
176
     1
 40
1.0
176
     1
 40
1.0
176
     1
  0
VISUALSTYLE
  5
3E
102
{ACAD_REACTORS
330
2A
102
}
330
2A
100
AcDbVisualStyle
  2
Shades of Gray
 70
    23
177
     3
291
     0
 70
    58
 90
        2
176
     1
 90
        2
176
     1
 90
        3
176
     1
 90
        0
176
     1
 40
0.6
176
     1
 40
30.0
176
     1
 62
     7
420
 16777215
176
     1
 90
        2
176
     1
 90
        2
176
     1
 62
     7
176
     1
 62
     7
176
     1
 90
        1
176
     1
 90
        1
176
     1
 40
40.0
176
     1
 90
        8
176
     1
 62
     7
176
     1
 40
1.0
176
     1
 90
        1
176
     1
 90
        6
176
     1
 90
        2
176
     1
 62
     7
176
     1
 90
        3
176
     1
 90
        0
176
     1
 90
        0
176
     1
290
     0
176
     1
 90
        1
176
     1
 40
0.0
176
     1
 90
        0
176
     1
290
     0
176
     1
290
     1
176
     1
290
     1
176
     1
290
     0
176
     1
290
     0
176
     1
290
     0
176
     1
290
     0
176
     1
290
     0
176
     1
290
     0
176
     1
 90
       50
176
     1
 40
0.0
176
     1
 40
1.0
176
     1
 90
        0
176
     1
 62
    18
420
        0
176
     1
 90
       50
176
     1
 90
        3
176
     1
 62
     5
420
      255
176
     1
290
     0
176
     1
 90
       50
176
     1
 90
       50
176
     1
 90
       50
176
     1
290
     0
176
     1
 90
       50
176
     1
 62
   256
176
     0
 40
1.0
176
     0
 90
        2
176
     1
  1
strokes_ogs.tif
176
     1
290
     0
176
     1
 40
1.0
176
     1
 40
1.0
176
     1
  0
VISUALSTYLE
  5
3F
102
{ACAD_REACTORS
330
2A
102
}
330
2A
100
AcDbVisualStyle
  2
Sketchy
 70
    24
177
     3
291
     0
 70
    58
 90
        1
176
     1
 90
        2
176
     1
 90
        2
176
     1
 90
        0
176
     1
 40
0.6
176
     1
 40
30.0
176
     1
 62
     7
420
 16777215
176
     1
 90
        2
176
     1
 90
        2
176
     1
 62
     7
176
     1
 62
     7
176
     1
 90
        1
176
     1
 90
        1
176
     1
 40
40.0
176
     1
 90
       11
176
     1
 62
     7
176
     1
 40
1.0
176
     1
 90
        1
176
     1
 90
        6
176
     1
 90
        2
176
     1
 62
     7
176
     1
 90
        6
176
     1
 90
        0
176
     1
 90
        0
176
     1
290
     0
176
     1
 90
        1
176
     1
 40
0.0
176
     1
 90
        0
176
     1
290
     0
176
     1
290
     1
176
     1
290
     1
176
     1
290
     0
176
     1
290
     0
176
     1
290
     0
176
     1
290
     0
176
     1
290
     0
176
     1
290
     0
176
     1
 90
       50
176
     1
 40
0.0
176
     1
 40
1.0
176
     1
 90
        0
176
     1
 62
    18
420
        0
176
     1
 90
       50
176
     1
 90
        3
176
     1
 62
     5
420
      255
176
     1
290
     0
176
     1
 90
       50
176
     1
 90
       50
176
     1
 90
       50
176
     1
290
     0
176
     1
 90
       50
176
     1
 62
   256
176
     0
 40
1.0
176
     0
 90
        2
176
     1
  1
strokes_ogs.tif
176
     1
290
     0
176
     1
 40
1.0
176
     1
 40
1.0
176
     1
  0
VISUALSTYLE
  5
37
102
{ACAD_REACTORS
330
2A
102
}
330
2A
100
AcDbVisualStyle
  2
Thicken
 70
    13
177
     3
291
     1
 70
    58
 90
        2
176
     1
 90
        2
176
     1
 90
        0
176
     1
 90
        0
176
     1
 40
0.6
176
     1
 40
30.0
176
     1
 62
     7
420
 16777215
176
     1
 90
        1
176
     1
 90
        4
176
     1
 62
     7
176
     1
 62
   257
176
     1
 90
        1
176
     1
 90
        1
176
     1
 40
1.0
176
     1
 90
       12
176
     1
 62
     7
176
     1
 40
1.0
176
     1
 90
        1
176
     1
 90
        6
176
     1
 90
        2
176
     1
 62
     7
176
     1
 90
        5
176
     1
 90
        0
176
     1
 90
        0
176
     1
290
     0
176
     1
 90
        1
176
     1
 40
0.0
176
     1
 90
        0
176
     1
290
     0
176
     1
290
     1
176
     1
290
     1
176
     1
290
     0
176
     1
290
     0
176
     1
290
     0
176
     1
290
     0
176
     1
290
     0
176
     1
290
     0
176
     1
 90
       50
176
     1
 40
0.0
176
     1
 40
1.0
176
     1
 90
        0
176
     1
 62
    18
420
        0
176
     1
 90
       50
176
     1
 90
        3
176
     1
 62
     5
420
      255
176
     1
290
     0
176
     1
 90
       50
176
     1
 90
       50
176
     1
 90
       50
176
     1
290
     0
176
     1
 90
       50
176
     1
 62
   256
176
     0
 40
1.0
176
     0
 90
        2
176
     1
  1
strokes_ogs.tif
176
     1
290
     0
176
     1
 40
1.0
176
     1
 40
1.0
176
     1
  0
VISUALSTYLE
  5
30
102
{ACAD_REACTORS
330
2A
102
}
330
2A
100
AcDbVisualStyle
  2
Wireframe
 70
     5
177
     3
291
     0
 70
    58
 90
        0
176
     1
 90
        2
176
     1
 90
        0
176
     1
 90
        0
176
     1
 40
0.6
176
     1
 40
30.0
176
     1
 62
     7
420
 16777215
176
     1
 90
        1
176
     1
 90
        4
176
     1
 62
     7
176
     1
 62
   257
176
     1
 90
        1
176
     1
 90
        1
176
     1
 40
1.0
176
     1
 90
        0
176
     1
 62
   257
176
     1
 40
1.0
176
     1
 90
        1
176
     1
 90
        6
176
     1
 90
        2
176
     1
 62
     7
176
     1
 90
        3
176
     1
 90
        0
176
     1
 90
        0
176
     1
290
     0
176
     1
 90
        1
176
     1
 40
0.0
176
     1
 90
        0
176
     1
290
     0
176
     1
290
     1
176
     1
290
     1
176
     1
290
     0
176
     1
290
     0
176
     1
290
     0
176
     1
290
     0
176
     1
290
     0
176
     1
290
     0
176
     1
 90
       50
176
     1
 40
0.0
176
     1
 40
1.0
176
     1
 90
        0
176
     1
 62
    18
420
        0
176
     1
 90
       50
176
     1
 90
        3
176
     1
 62
     5
420
      255
176
     1
290
     0
176
     1
 90
       50
176
     1
 90
       50
176
     1
 90
       50
176
     1
290
     0
176
     1
 90
       50
176
     1
 62
   256
176
     0
 40
1.0
176
     0
 90
        2
176
     1
  1
strokes_ogs.tif
176
     1
290
     0
176
     1
 40
1.0
176
     1
 40
1.0
176
     1
  0
VISUALSTYLE
  5
40
102
{ACAD_REACTORS
330
2A
102
}
330
2A
100
AcDbVisualStyle
  2
X-Ray
 70
    25
177
     3
291
     0
 70
    58
 90
        2
176
     1
 90
        2
176
     1
 90
        1
176
     1
 90
        1
176
     1
 40
0.5
176
     1
 40
30.0
176
     1
 62
     7
420
 16777215
176
     1
 90
        1
176
     1
 90
        0
176
     1
 62
     7
176
     1
 62
   257
176
     1
 90
        1
176
     1
 90
        1
176
     1
 40
1.0
176
     1
 90
        8
176
     1
 62
     7
176
     1
 40
1.0
176
     1
 90
        1
176
     1
 90
        6
176
     1
 90
        2
176
     1
 62
     7
176
     1
 90
        3
176
     1
 90
        0
176
     1
 90
        0
176
     1
290
     0
176
     1
 90
       13
176
     1
 40
0.0
176
     1
 90
        0
176
     1
290
     0
176
     1
290
     1
176
     1
290
     1
176
     1
290
     0
176
     1
290
     0
176
     1
290
     0
176
     1
290
     0
176
     1
290
     0
176
     1
290
     0
176
     1
 90
       50
176
     1
 40
0.0
176
     1
 40
1.0
176
     1
 90
        0
176
     1
 62
    18
420
        0
176
     1
 90
       50
176
     1
 90
        3
176
     1
 62
     5
420
      255
176
     1
290
     0
176
     1
 90
       50
176
     1
 90
       50
176
     1
 90
       50
176
     1
290
     0
176
     1
 90
       50
176
     1
 62
   256
176
     0
 40
1.0
176
     0
 90
        2
176
     1
  1
strokes_ogs.tif
176
     1
290
     0
176
     1
 40
1.0
176
     1
 40
1.0
176
     1
  0
DICTIONARYVAR
  5
FC
102
{ACAD_REACTORS
330
FB
102
}
330
FB
100
DictionaryVariables
280
     0
  1
1:1
  0
DICTIONARYVAR
  5
101
102
{ACAD_REACTORS
330
FB
102
}
330
FB
100
DictionaryVariables
280
     0
  1
Standard
  0
DICTIONARYVAR
  5
100
102
{ACAD_REACTORS
330
FB
102
}
330
FB
100
DictionaryVariables
280
     0
  1
Standard
  0
DICTIONARYVAR
  5
104
102
{ACAD_REACTORS
330
FB
102
}
330
FB
100
DictionaryVariables
280
     0
  1
6.000000
  0
DICTIONARY
  5
FD
330
6A
100
AcDbDictionary
280
     1
281
     1
  3
ACAD_ROUNDTRIP_2008_TABLESTYLE_CELLSTYLEMAP
360
FE
  0
CELLSTYLEMAP
  5
FE
102
{ACAD_REACTORS
330
FD
102
}
330
FD
100
AcDbCellStyleMap
 90
        3
300
CELLSTYLE
  1
TABLEFORMAT_BEGIN
 90
        5
170
     1
 91
        0
 92
    32768
 62
   257
 93
        1
300
CONTENTFORMAT
  1
CONTENTFORMAT_BEGIN
 90
        0
 91
        0
 92
        4
 93
        0
300

 40
0.0
140
1.0
 94
        5
 62
     0
340
11
144
6.0
309
CONTENTFORMAT_END
171
     1
301
MARGIN
  1
CELLMARGIN_BEGIN
 40
1.5
 40
1.5
 40
1.5
 40
1.5
 40
1.5
 40
1.5
309
CELLMARGIN_END
 94
        6
 95
        1
302
GRIDFORMAT
  1
GRIDFORMAT_BEGIN
 90
        0
 91
        1
 62
     0
 92
       -2
340
14
 93
        0
 40
0.045
309
GRIDFORMAT_END
 95
        2
302
GRIDFORMAT
  1
GRIDFORMAT_BEGIN
 90
        0
 91
        1
 62
     0
 92
       -2
340
14
 93
        0
 40
0.045
309
GRIDFORMAT_END
 95
        4
302
GRIDFORMAT
  1
GRIDFORMAT_BEGIN
 90
        0
 91
        1
 62
     0
 92
       -2
340
14
 93
        0
 40
0.045
309
GRIDFORMAT_END
 95
        8
302
GRIDFORMAT
  1
GRIDFORMAT_BEGIN
 90
        0
 91
        1
 62
     0
 92
       -2
340
14
 93
        0
 40
0.045
309
GRIDFORMAT_END
 95
       16
302
GRIDFORMAT
  1
GRIDFORMAT_BEGIN
 90
        0
 91
        1
 62
     0
 92
       -2
340
14
 93
        0
 40
0.045
309
GRIDFORMAT_END
 95
       32
302
GRIDFORMAT
  1
GRIDFORMAT_BEGIN
 90
        0
 91
        1
 62
     0
 92
       -2
340
14
 93
        0
 40
0.045
309
GRIDFORMAT_END
309
TABLEFORMAT_END
  1
CELLSTYLE_BEGIN
 90
        1
 91
        1
300
_TITLE
309
CELLSTYLE_END
300
CELLSTYLE
  1
TABLEFORMAT_BEGIN
 90
        5
170
     1
 91
        0
 92
        0
 62
   257
 93
        1
300
CONTENTFORMAT
  1
CONTENTFORMAT_BEGIN
 90
        0
 91
        0
 92
        4
 93
        0
300

 40
0.0
140
1.0
 94
        5
 62
     0
340
11
144
4.5
309
CONTENTFORMAT_END
171
     1
301
MARGIN
  1
CELLMARGIN_BEGIN
 40
1.5
 40
1.5
 40
1.5
 40
1.5
 40
1.5
 40
1.5
309
CELLMARGIN_END
 94
        6
 95
        1
302
GRIDFORMAT
  1
GRIDFORMAT_BEGIN
 90
        0
 91
        1
 62
     0
 92
       -2
340
14
 93
        0
 40
0.045
309
GRIDFORMAT_END
 95
        2
302
GRIDFORMAT
  1
GRIDFORMAT_BEGIN
 90
        0
 91
        1
 62
     0
 92
       -2
340
14
 93
        0
 40
0.045
309
GRIDFORMAT_END
 95
        4
302
GRIDFORMAT
  1
GRIDFORMAT_BEGIN
 90
        0
 91
        1
 62
     0
 92
       -2
340
14
 93
        0
 40
0.045
309
GRIDFORMAT_END
 95
        8
302
GRIDFORMAT
  1
GRIDFORMAT_BEGIN
 90
        0
 91
        1
 62
     0
 92
       -2
340
14
 93
        0
 40
0.045
309
GRIDFORMAT_END
 95
       16
302
GRIDFORMAT
  1
GRIDFORMAT_BEGIN
 90
        0
 91
        1
 62
     0
 92
       -2
340
14
 93
        0
 40
0.045
309
GRIDFORMAT_END
 95
       32
302
GRIDFORMAT
  1
GRIDFORMAT_BEGIN
 90
        0
 91
        1
 62
     0
 92
       -2
340
14
 93
        0
 40
0.045
309
GRIDFORMAT_END
309
TABLEFORMAT_END
  1
CELLSTYLE_BEGIN
 90
        2
 91
        1
300
_HEADER
309
CELLSTYLE_END
300
CELLSTYLE
  1
TABLEFORMAT_BEGIN
 90
        5
170
     1
 91
        0
 92
        0
 62
   257
 93
        1
300
CONTENTFORMAT
  1
CONTENTFORMAT_BEGIN
 90
        0
 91
        0
 92
        4
 93
        0
300

 40
0.0
140
1.0
 94
        2
 62
     0
340
11
144
4.5
309
CONTENTFORMAT_END
171
     1
301
MARGIN
  1
CELLMARGIN_BEGIN
 40
1.5
 40
1.5
 40
1.5
 40
1.5
 40
1.5
 40
1.5
309
CELLMARGIN_END
 94
        6
 95
        1
302
GRIDFORMAT
  1
GRIDFORMAT_BEGIN
 90
        0
 91
        1
 62
     0
 92
       -2
340
14
 93
        0
 40
0.045
309
GRIDFORMAT_END
 95
        2
302
GRIDFORMAT
  1
GRIDFORMAT_BEGIN
 90
        0
 91
        1
 62
     0
 92
       -2
340
14
 93
        0
 40
0.045
309
GRIDFORMAT_END
 95
        4
302
GRIDFORMAT
  1
GRIDFORMAT_BEGIN
 90
        0
 91
        1
 62
     0
 92
       -2
340
14
 93
        0
 40
0.045
309
GRIDFORMAT_END
 95
        8
302
GRIDFORMAT
  1
GRIDFORMAT_BEGIN
 90
        0
 91
        1
 62
     0
 92
       -2
340
14
 93
        0
 40
0.045
309
GRIDFORMAT_END
 95
       16
302
GRIDFORMAT
  1
GRIDFORMAT_BEGIN
 90
        0
 91
        1
 62
     0
 92
       -2
340
14
 93
        0
 40
0.045
309
GRIDFORMAT_END
 95
       32
302
GRIDFORMAT
  1
GRIDFORMAT_BEGIN
 90
        0
 91
        1
 62
     0
 92
       -2
340
14
 93
        0
 40
0.045
309
GRIDFORMAT_END
309
TABLEFORMAT_END
  1
CELLSTYLE_BEGIN
 90
        3
 91
        2
300
_DATA
309
CELLSTYLE_END
  0
ENDSEC
  0
EOF
