  0
SECTION
  2
HEADER
  9
$ACADVER
  1
AC1027
  9
$ACADMAINTVER
 70
   105
  9
$DWGCODEPAGE
  3
ANSI_1252
  9
$REQUIREDVERSIONS
160
                 0
  9
$COMMENTS
  1
File was created by Cadenas
  9
$CUSTOMPROPERTYTAG
  1
NN
  9
$CUSTOMPROPERTY
  1
Geberit Mepla angle-seat stop valve
  9
$CUSTOMPROPERTYTAG
  1
NT
  9
$CUSTOMPROPERTY
  1

  9
$CUSTOMPROPERTYTAG
  1
NB
  9
$CUSTOMPROPERTY
  1
605032
  9
$CUSTOMPROPERTYTAG
  1
NBSYN
  9
$CUSTOMPROPERTY
  1
$ARTNRTX.
  9
$CUSTOMPROPERTYTAG
  1
LINA
  9
$CUSTOMPROPERTY
  1
605032
  9
$CUSTOMPROPERTYTAG
  1
CATALOG
  9
$CUSTOMPROPERTY
  1
GEBERIT
  9
$CUSTOMPROPERTYTAG
  1
ARTNRT
  9
$CUSTOMPROPERTY
  1
605.032.00.1
  9
$CUSTOMPROPERTYTAG
  1
DD
  9
$CUSTOMPROPERTY
  1
70
  9
$CUSTOMPROPERTYTAG
  1
D
  9
$CUSTOMPROPERTY
  1
40
  9
$CUSTOMPROPERTYTAG
  1
DN
  9
$CUSTOMPROPERTY
  1
32
  9
$CUSTOMPROPERTYTAG
  1
DNV
  9
$CUSTOMPROPERTY
  1
32
  9
$CUSTOMPROPERTYTAG
  1
L
  9
$CUSTOMPROPERTY
  1
186
  9
$CUSTOMPROPERTYTAG
  1
L1
  9
$CUSTOMPROPERTY
  1
68
  9
$CUSTOMPROPERTYTAG
  1
L2
  9
$CUSTOMPROPERTY
  1
150
  9
$CUSTOMPROPERTYTAG
  1
Z
  9
$CUSTOMPROPERTY
  1
32
  9
$CUSTOMPROPERTYTAG
  1
Z1
  9
$CUSTOMPROPERTY
  1
84
  9
$CUSTOMPROPERTYTAG
  1
ARTNRTX
  9
$CUSTOMPROPERTY
  1
605032
  9
$CUSTOMPROPERTYTAG
  1
COMPANY
  9
$CUSTOMPROPERTY
  1
geberit
  9
$INSBASE
 10
0.0
 20
0.0
 30
0.0
  9
$EXTMIN
 10
1.000000000000000E+20
 20
1.000000000000000E+20
 30
1.000000000000000E+20
  9
$EXTMAX
 10
-1.000000000000000E+20
 20
-1.000000000000000E+20
 30
-1.000000000000000E+20
  9
$LIMMIN
 10
0.0
 20
0.0
  9
$LIMMAX
 10
420.0
 20
297.0
  9
$ORTHOMODE
 70
     0
  9
$REGENMODE
 70
     1
  9
$FILLMODE
 70
     1
  9
$QTEXTMODE
 70
     0
  9
$MIRRTEXT
 70
     1
  9
$LTSCALE
 40
1.0
  9
$ATTMODE
 70
     1
  9
$TEXTSIZE
 40
2.5
  9
$TRACEWID
 40
1.0
  9
$TEXTSTYLE
  7
Standard
  9
$CLAYER
  8
0
  9
$CELTYPE
  6
ByLayer
  9
$CECOLOR
 62
   256
  9
$CELTSCALE
 40
1.0
  9
$DISPSILH
 70
     0
  9
$DIMSCALE
 40
1.0
  9
$DIMASZ
 40
2.5
  9
$DIMEXO
 40
0.625
  9
$DIMDLI
 40
3.75
  9
$DIMRND
 40
0.0
  9
$DIMDLE
 40
0.0
  9
$DIMEXE
 40
1.25
  9
$DIMTP
 40
0.0
  9
$DIMTM
 40
0.0
  9
$DIMTXT
 40
2.5
  9
$DIMCEN
 40
2.5
  9
$DIMTSZ
 40
0.0
  9
$DIMTOL
 70
     0
  9
$DIMLIM
 70
     0
  9
$DIMTIH
 70
     0
  9
$DIMTOH
 70
     0
  9
$DIMSE1
 70
     0
  9
$DIMSE2
 70
     0
  9
$DIMTAD
 70
     1
  9
$DIMZIN
 70
     8
  9
$DIMBLK
  1

  9
$DIMASO
 70
     1
  9
$DIMSHO
 70
     1
  9
$DIMPOST
  1

  9
$DIMAPOST
  1

  9
$DIMALT
 70
     0
  9
$DIMALTD
 70
     3
  9
$DIMALTF
 40
0.03937007874016
  9
$DIMLFAC
 40
1.0
  9
$DIMTOFL
 70
     1
  9
$DIMTVP
 40
0.0
  9
$DIMTIX
 70
     0
  9
$DIMSOXD
 70
     0
  9
$DIMSAH
 70
     0
  9
$DIMBLK1
  1

  9
$DIMBLK2
  1

  9
$DIMSTYLE
  2
ISO-25
  9
$DIMCLRD
 70
     0
  9
$DIMCLRE
 70
     0
  9
$DIMCLRT
 70
     0
  9
$DIMTFAC
 40
1.0
  9
$DIMGAP
 40
0.625
  9
$DIMJUST
 70
     0
  9
$DIMSD1
 70
     0
  9
$DIMSD2
 70
     0
  9
$DIMTOLJ
 70
     0
  9
$DIMTZIN
 70
     8
  9
$DIMALTZ
 70
     0
  9
$DIMALTTZ
 70
     0
  9
$DIMUPT
 70
     0
  9
$DIMDEC
 70
     2
  9
$DIMTDEC
 70
     2
  9
$DIMALTU
 70
     2
  9
$DIMALTTD
 70
     3
  9
$DIMTXSTY
  7
Standard
  9
$DIMAUNIT
 70
     0
  9
$DIMADEC
 70
     0
  9
$DIMALTRND
 40
0.0
  9
$DIMAZIN
 70
     0
  9
$DIMDSEP
 70
    44
  9
$DIMATFIT
 70
     3
  9
$DIMFRAC
 70
     0
  9
$DIMLDRBLK
  1

  9
$DIMLUNIT
 70
     2
  9
$DIMLWD
 70
    -2
  9
$DIMLWE
 70
    -2
  9
$DIMTMOVE
 70
     0
  9
$DIMFXL
 40
1.0
  9
$DIMFXLON
 70
     0
  9
$DIMJOGANG
 40
0.7853981633974483
  9
$DIMTFILL
 70
     0
  9
$DIMTFILLCLR
 70
     0
  9
$DIMARCSYM
 70
     0
  9
$DIMLTYPE
  6

  9
$DIMLTEX1
  6

  9
$DIMLTEX2
  6

  9
$DIMTXTDIRECTION
 70
     0
  9
$LUNITS
 70
     2
  9
$LUPREC
 70
     4
  9
$SKETCHINC
 40
1.0
  9
$FILLETRAD
 40
10.0
  9
$AUNITS
 70
     0
  9
$AUPREC
 70
     0
  9
$MENU
  1
.
  9
$ELEVATION
 40
0.0
  9
$PELEVATION
 40
0.0
  9
$THICKNESS
 40
0.0
  9
$LIMCHECK
 70
     0
  9
$CHAMFERA
 40
0.0
  9
$CHAMFERB
 40
0.0
  9
$CHAMFERC
 40
0.0
  9
$CHAMFERD
 40
0.0
  9
$SKPOLY
 70
     0
  9
$TDCREATE
 40
2458934.710001099
  9
$TDUCREATE
 40
2458934.668334433
  9
$TDUPDATE
 40
2458934.710001227
  9
$TDUUPDATE
 40
2458934.66833456
  9
$TDINDWG
 40
0.0000000116
  9
$TDUSRTIMER
 40
0.0000000116
  9
$USRTIMER
 70
     1
  9
$ANGBASE
 50
0.0
  9
$ANGDIR
 70
     0
  9
$PDMODE
 70
     0
  9
$PDSIZE
 40
0.0
  9
$PLINEWID
 40
0.0
  9
$SPLFRAME
 70
     0
  9
$SPLINETYPE
 70
     6
  9
$SPLINESEGS
 70
     8
  9
$HANDSEED
  5
1AE
  9
$SURFTAB1
 70
     6
  9
$SURFTAB2
 70
     6
  9
$SURFTYPE
 70
     6
  9
$SURFU
 70
     6
  9
$SURFV
 70
     6
  9
$UCSBASE
  2

  9
$UCSNAME
  2

  9
$UCSORG
 10
0.0
 20
0.0
 30
0.0
  9
$UCSXDIR
 10
1.0
 20
0.0
 30
0.0
  9
$UCSYDIR
 10
0.0
 20
1.0
 30
0.0
  9
$UCSORTHOREF
  2

  9
$UCSORTHOVIEW
 70
     0
  9
$UCSORGTOP
 10
0.0
 20
0.0
 30
0.0
  9
$UCSORGBOTTOM
 10
0.0
 20
0.0
 30
0.0
  9
$UCSORGLEFT
 10
0.0
 20
0.0
 30
0.0
  9
$UCSORGRIGHT
 10
0.0
 20
0.0
 30
0.0
  9
$UCSORGFRONT
 10
0.0
 20
0.0
 30
0.0
  9
$UCSORGBACK
 10
0.0
 20
0.0
 30
0.0
  9
$PUCSBASE
  2

  9
$PUCSNAME
  2

  9
$PUCSORG
 10
0.0
 20
0.0
 30
0.0
  9
$PUCSXDIR
 10
1.0
 20
0.0
 30
0.0
  9
$PUCSYDIR
 10
0.0
 20
1.0
 30
0.0
  9
$PUCSORTHOREF
  2

  9
$PUCSORTHOVIEW
 70
     0
  9
$PUCSORGTOP
 10
0.0
 20
0.0
 30
0.0
  9
$PUCSORGBOTTOM
 10
0.0
 20
0.0
 30
0.0
  9
$PUCSORGLEFT
 10
0.0
 20
0.0
 30
0.0
  9
$PUCSORGRIGHT
 10
0.0
 20
0.0
 30
0.0
  9
$PUCSORGFRONT
 10
0.0
 20
0.0
 30
0.0
  9
$PUCSORGBACK
 10
0.0
 20
0.0
 30
0.0
  9
$USERI1
 70
     0
  9
$USERI2
 70
     0
  9
$USERI3
 70
     0
  9
$USERI4
 70
     0
  9
$USERI5
 70
     0
  9
$USERR1
 40
0.0
  9
$USERR2
 40
0.0
  9
$USERR3
 40
0.0
  9
$USERR4
 40
0.0
  9
$USERR5
 40
0.0
  9
$WORLDVIEW
 70
     1
  9
$SHADEDGE
 70
     3
  9
$SHADEDIF
 70
    70
  9
$TILEMODE
 70
     1
  9
$MAXACTVP
 70
    64
  9
$PINSBASE
 10
0.0
 20
0.0
 30
0.0
  9
$PLIMCHECK
 70
     0
  9
$PEXTMIN
 10
1.000000000000000E+20
 20
1.000000000000000E+20
 30
1.000000000000000E+20
  9
$PEXTMAX
 10
-1.000000000000000E+20
 20
-1.000000000000000E+20
 30
-1.000000000000000E+20
  9
$PLIMMIN
 10
0.0
 20
0.0
  9
$PLIMMAX
 10
420.0
 20
297.0
  9
$UNITMODE
 70
     0
  9
$VISRETAIN
 70
     1
  9
$PLINEGEN
 70
     0
  9
$PSLTSCALE
 70
     1
  9
$TREEDEPTH
 70
  3020
  9
$CMLSTYLE
  2
Standard
  9
$CMLJUST
 70
     0
  9
$CMLSCALE
 40
20.0
  9
$PROXYGRAPHICS
 70
     1
  9
$MEASUREMENT
 70
     1
  9
$CELWEIGHT
370
    -1
  9
$ENDCAPS
280
     0
  9
$JOINSTYLE
280
     0
  9
$LWDISPLAY
290
     0
  9
$INSUNITS
 70
     4
  9
$HYPERLINKBASE
  1

  9
$STYLESHEET
  1

  9
$XEDIT
290
     1
  9
$CEPSNTYPE
380
     0
  9
$PSTYLEMODE
290
     1
  9
$FINGERPRINTGUID
  2
{B9004B9A-204B-4FC7-9BBA-98E96F990BA9}
  9
$VERSIONGUID
  2
{FAEB1C32-E019-11D5-929B-00C0DF256EC4}
  9
$EXTNAMES
290
     1
  9
$PSVPSCALE
 40
0.0
  9
$OLESTARTUP
290
     0
  9
$SORTENTS
280
   127
  9
$INDEXCTL
280
     0
  9
$HIDETEXT
280
     1
  9
$XCLIPFRAME
280
     2
  9
$HALOGAP
280
     0
  9
$OBSCOLOR
 70
   257
  9
$OBSLTYPE
280
     0
  9
$INTERSECTIONDISPLAY
280
     0
  9
$INTERSECTIONCOLOR
 70
   257
  9
$DIMASSOC
280
     2
  9
$PROJECTNAME
  1

  9
$CAMERADISPLAY
290
     0
  9
$LENSLENGTH
 40
50.0
  9
$CAMERAHEIGHT
 40
0.0
  9
$STEPSPERSEC
 40
2.0
  9
$STEPSIZE
 40
6.0
  9
$3DDWFPREC
 40
2.0
  9
$PSOLWIDTH
 40
5.0
  9
$PSOLHEIGHT
 40
80.0
  9
$LOFTANG1
 40
1.570796326794897
  9
$LOFTANG2
 40
1.570796326794897
  9
$LOFTMAG1
 40
0.0
  9
$LOFTMAG2
 40
0.0
  9
$LOFTPARAM
 70
     7
  9
$LOFTNORMALS
280
     1
  9
$LATITUDE
 40
37.795
  9
$LONGITUDE
 40
-122.394
  9
$NORTHDIRECTION
 40
0.0
  9
$TIMEZONE
 70
 -8000
  9
$LIGHTGLYPHDISPLAY
280
     1
  9
$TILEMODELIGHTSYNCH
280
     1
  9
$CMATERIAL
347
44
  9
$SOLIDHIST
280
     0
  9
$SHOWHIST
280
     1
  9
$DWFFRAME
280
     2
  9
$DGNFRAME
280
     2
  9
$REALWORLDSCALE
290
     1
  9
$INTERFERECOLOR
 62
   256
  9
$CSHADOW
280
     0
  9
$SHADOWPLANELOCATION
 40
0.0
  0
ENDSEC
  0
SECTION
  2
CLASSES
  0
CLASS
  1
ACDBDICTIONARYWDFLT
  2
AcDbDictionaryWithDefault
  3
ObjectDBX Classes
 90
        0
 91
        4
280
     0
281
     0
  0
CLASS
  1
VISUALSTYLE
  2
AcDbVisualStyle
  3
ObjectDBX Classes
 90
     4095
 91
        4
280
     0
281
     0
  0
CLASS
  1
MATERIAL
  2
AcDbMaterial
  3
ObjectDBX Classes
 90
     1153
 91
        4
280
     0
281
     0
  0
CLASS
  1
SCALE
  2
AcDbScale
  3
ObjectDBX Classes
 90
     1153
 91
        4
280
     0
281
     0
  0
CLASS
  1
TABLESTYLE
  2
AcDbTableStyle
  3
ObjectDBX Classes
 90
     4095
 91
        4
280
     0
281
     0
  0
CLASS
  1
MLEADERSTYLE
  2
AcDbMLeaderStyle
  3
ACDB_MLEADERSTYLE_CLASS
 90
     4095
 91
        4
280
     0
281
     0
  0
CLASS
  1
SUN
  2
AcDbSun
  3
SCENEOE
 90
     1153
 91
        4
280
     0
281
     0
  0
CLASS
  1
DICTIONARYVAR
  2
AcDbDictionaryVar
  3
ObjectDBX Classes
 90
        0
 91
        4
280
     0
281
     0
  0
CLASS
  1
CELLSTYLEMAP
  2
AcDbCellStyleMap
  3
ObjectDBX Classes
 90
     1152
 91
        4
280
     0
281
     0
  0
ENDSEC
  0
SECTION
  2
TABLES
  0
TABLE
  2
VPORT
  5
8
330
0
100
AcDbSymbolTable
 70
     1
  0
VPORT
  5
29
330
8
100
AcDbSymbolTableRecord
100
AcDbViewportTableRecord
  2
*Active
 70
     0
 10
0.0
 20
0.0
 11
1.0
 21
1.0
 12
4.167607799707582
 22
64.9872348131406
 13
0.0
 23
0.0
 14
10.0
 24
10.0
 15
10.0
 25
10.0
 16
0.0
 26
0.0
 36
1.0
 17
0.0
 27
0.0
 37
0.0
 40
175.4139590188068
 41
0.4555049116862871
 42
50.0
 43
0.0
 44
0.0
 50
0.0
 51
0.0
 71
     0
 72
   100
 73
     1
 74
     3
 75
     0
 76
     0
 77
     0
 78
     0
281
     0
 65
     1
110
0.0
120
0.0
130
0.0
111
1.0
121
0.0
131
0.0
112
0.0
122
1.0
132
0.0
 79
     0
146
0.0
348
2F
 60
     3
 61
     5
292
     1
282
     1
141
0.0
142
0.0
 63
   250
361
6D
  0
ENDTAB
  0
TABLE
  2
LTYPE
  5
5
330
0
100
AcDbSymbolTable
 70
     3
  0
LTYPE
  5
14
330
5
100
AcDbSymbolTableRecord
100
AcDbLinetypeTableRecord
  2
ByBlock
 70
     0
  3

 72
    65
 73
     0
 40
0.0
  0
LTYPE
  5
15
330
5
100
AcDbSymbolTableRecord
100
AcDbLinetypeTableRecord
  2
ByLayer
 70
     0
  3

 72
    65
 73
     0
 40
0.0
  0
LTYPE
  5
16
330
5
100
AcDbSymbolTableRecord
100
AcDbLinetypeTableRecord
  2
Continuous
 70
     0
  3
Solid line
 72
    65
 73
     0
 40
0.0
  0
LTYPE
  5
81
330
5
100
AcDbSymbolTableRecord
100
AcDbLinetypeTableRecord
  2
Dashed
 70
     0
  3

 72
    65
 73
     2
 40
2.0
 49
1.0
 74
     0
 49
-1.0
 74
     0
  0
LTYPE
  5
19C
330
5
100
AcDbSymbolTableRecord
100
AcDbLinetypeTableRecord
  2
Center
 70
     0
  3

 72
    65
 73
     4
 40
1.5
 49
0.45
 74
     0
 49
-0.5
 74
     0
 49
0.05
 74
     0
 49
-0.5
 74
     0
  0
ENDTAB
  0
TABLE
  2
LAYER
  5
2
330
0
100
AcDbSymbolTable
 70
     5
  0
LAYER
  5
10
330
2
100
AcDbSymbolTableRecord
100
AcDbLayerTableRecord
  2
0
 70
     0
 62
     7
  6
Continuous
370
    -3
390
F
347
46
348
0
  0
LAYER
  5
6E
330
2
100
AcDbSymbolTableRecord
100
AcDbLayerTableRecord
  2
AM_6
 70
     0
 62
    -2
  6
Continuous
370
    35
390
F
347
46
348
0
  0
LAYER
  5
82
330
2
100
AcDbSymbolTableRecord
100
AcDbLayerTableRecord
  2
VER
 70
     0
 62
    -6
  6
Dashed
370
    25
390
F
347
46
348
0
  0
LAYER
  5
93
330
2
100
AcDbSymbolTableRecord
100
AcDbLayerTableRecord
  2
050
 70
     0
 62
     7
  6
Continuous
370
    50
390
F
347
46
348
0
  0
LAYER
  5
19D
330
2
100
AcDbSymbolTableRecord
100
AcDbLayerTableRecord
  2
MITTE
 70
     0
 62
     7
  6
Center
370
    25
390
F
347
46
348
0
  0
ENDTAB
  0
TABLE
  2
STYLE
  5
3
330
0
100
AcDbSymbolTable
 70
     1
  0
STYLE
  5
11
330
3
100
AcDbSymbolTableRecord
100
AcDbTextStyleTableRecord
  2
Standard
 70
     0
 40
0.0
 41
1.0
 50
0.0
 71
     0
 42
2.5
  3
txt
  4

  0
ENDTAB
  0
TABLE
  2
VIEW
  5
6
330
0
100
AcDbSymbolTable
 70
     0
  0
ENDTAB
  0
TABLE
  2
UCS
  5
7
330
0
100
AcDbSymbolTable
 70
     0
  0
ENDTAB
  0
TABLE
  2
APPID
  5
9
330
0
100
AcDbSymbolTable
 70
     1
  0
APPID
  5
12
330
9
100
AcDbSymbolTableRecord
100
AcDbRegAppTableRecord
  2
ACAD
 70
     0
  0
ENDTAB
  0
TABLE
  2
DIMSTYLE
  5
A
330
0
100
AcDbSymbolTable
 70
     1
100
AcDbDimStyleTable
  0
DIMSTYLE
105
27
330
A
100
AcDbSymbolTableRecord
100
AcDbDimStyleTableRecord
  2
ISO-25
 70
     0
 41
2.5
 42
0.625
 43
3.75
 44
1.25
 73
     0
 74
     0
 77
     1
 78
     8
140
2.5
141
2.5
143
0.03937007874016
147
0.625
171
     3
172
     1
178
     0
271
     2
272
     2
274
     3
278
    44
283
     0
284
     8
340
11
  0
ENDTAB
  0
TABLE
  2
BLOCK_RECORD
  5
1
330
0
100
AcDbSymbolTable
 70
     1
  0
BLOCK_RECORD
  5
1F
330
1
100
AcDbSymbolTableRecord
100
AcDbBlockTableRecord
  2
*Model_Space
340
22
 70
     0
280
     1
281
     0
  0
BLOCK_RECORD
  5
1B
330
1
100
AcDbSymbolTableRecord
100
AcDbBlockTableRecord
  2
*Paper_Space
340
1E
 70
     0
280
     1
281
     0
  0
BLOCK_RECORD
  5
23
330
1
100
AcDbSymbolTableRecord
100
AcDbBlockTableRecord
  2
*Paper_Space0
340
26
 70
     0
280
     1
281
     0
  0
ENDTAB
  0
ENDSEC
  0
SECTION
  2
BLOCKS
  0
BLOCK
  5
20
330
1F
100
AcDbEntity
  8
0
100
AcDbBlockBegin
  2
*Model_Space
 70
     0
 10
0.0
 20
0.0
 30
0.0
  3
*Model_Space
  1

  0
ENDBLK
  5
21
330
1F
100
AcDbEntity
  8
0
100
AcDbBlockEnd
  0
BLOCK
  5
1C
330
1B
100
AcDbEntity
 67
     1
  8
0
100
AcDbBlockBegin
  2
*Paper_Space
 70
     0
 10
0.0
 20
0.0
 30
0.0
  3
*Paper_Space
  1

  0
ENDBLK
  5
1D
330
1B
100
AcDbEntity
 67
     1
  8
0
100
AcDbBlockEnd
  0
BLOCK
  5
24
330
23
100
AcDbEntity
  8
0
100
AcDbBlockBegin
  2
*Paper_Space0
 70
     0
 10
0.0
 20
0.0
 30
0.0
  3
*Paper_Space0
  1

  0
ENDBLK
  5
25
330
23
100
AcDbEntity
  8
0
100
AcDbBlockEnd
  0
ENDSEC
  0
SECTION
  2
ENTITIES
  0
ATTDEF
  5
6F
330
1F
100
AcDbEntity
  8
AM_6
100
AcDbText
 10
39.83521559941521
 20
150.3711035232533
 30
0.0
 40
0.5
  1
Geberit Mepla angle-seat stop valve
100
AcDbAttributeDefinition
  3

  2
NN
 70
     8
280
     0
  0
ATTDEF
  5
70
330
1F
100
AcDbEntity
  8
AM_6
100
AcDbText
 10
39.83521559941521
 20
149.8711035232533
 30
0.0
 40
0.5
  1

100
AcDbAttributeDefinition
  3

  2
NT
 70
     8
280
     0
  0
ATTDEF
  5
71
330
1F
100
AcDbEntity
  8
AM_6
100
AcDbText
 10
39.83521559941521
 20
149.3711035232533
 30
0.0
 40
0.5
  1
605032
100
AcDbAttributeDefinition
  3

  2
NB
 70
     8
280
     0
  0
ATTDEF
  5
72
330
1F
100
AcDbEntity
  8
AM_6
100
AcDbText
 10
39.83521559941521
 20
148.8711035232533
 30
0.0
 40
0.5
  1
$ARTNRTX.
100
AcDbAttributeDefinition
  3

  2
NBSYN
 70
     8
280
     0
  0
ATTDEF
  5
73
330
1F
100
AcDbEntity
  8
AM_6
100
AcDbText
 10
39.83521559941521
 20
148.3711035232533
 30
0.0
 40
0.5
  1
605032
100
AcDbAttributeDefinition
  3

  2
LINA
 70
     8
280
     0
  0
ATTDEF
  5
74
330
1F
100
AcDbEntity
  8
AM_6
100
AcDbText
 10
39.83521559941521
 20
147.8711035232533
 30
0.0
 40
0.5
  1
GEBERIT
100
AcDbAttributeDefinition
  3

  2
CATALOG
 70
     8
280
     0
  0
ATTDEF
  5
75
330
1F
100
AcDbEntity
  8
AM_6
100
AcDbText
 10
39.83521559941521
 20
147.3711035232533
 30
0.0
 40
0.5
  1
605.032.00.1
100
AcDbAttributeDefinition
  3

  2
ARTNRT
 70
     8
280
     0
  0
ATTDEF
  5
76
330
1F
100
AcDbEntity
  8
AM_6
100
AcDbText
 10
39.83521559941521
 20
146.8711035232533
 30
0.0
 40
0.5
  1
70
100
AcDbAttributeDefinition
  3

  2
DD
 70
     8
280
     0
  0
ATTDEF
  5
77
330
1F
100
AcDbEntity
  8
AM_6
100
AcDbText
 10
39.83521559941521
 20
146.3711035232533
 30
0.0
 40
0.5
  1
40
100
AcDbAttributeDefinition
  3

  2
D
 70
     8
280
     0
  0
ATTDEF
  5
78
330
1F
100
AcDbEntity
  8
AM_6
100
AcDbText
 10
39.83521559941521
 20
145.8711035232533
 30
0.0
 40
0.5
  1
32
100
AcDbAttributeDefinition
  3

  2
DN
 70
     8
280
     0
  0
ATTDEF
  5
79
330
1F
100
AcDbEntity
  8
AM_6
100
AcDbText
 10
39.83521559941521
 20
145.3711035232533
 30
0.0
 40
0.5
  1
32
100
AcDbAttributeDefinition
  3

  2
DNV
 70
     8
280
     0
  0
ATTDEF
  5
7A
330
1F
100
AcDbEntity
  8
AM_6
100
AcDbText
 10
39.83521559941521
 20
144.8711035232533
 30
0.0
 40
0.5
  1
186
100
AcDbAttributeDefinition
  3

  2
L
 70
     8
280
     0
  0
ATTDEF
  5
7B
330
1F
100
AcDbEntity
  8
AM_6
100
AcDbText
 10
39.83521559941521
 20
144.3711035232533
 30
0.0
 40
0.5
  1
68
100
AcDbAttributeDefinition
  3

  2
L1
 70
     8
280
     0
  0
ATTDEF
  5
7C
330
1F
100
AcDbEntity
  8
AM_6
100
AcDbText
 10
39.83521559941521
 20
143.8711035232533
 30
0.0
 40
0.5
  1
150
100
AcDbAttributeDefinition
  3

  2
L2
 70
     8
280
     0
  0
ATTDEF
  5
7D
330
1F
100
AcDbEntity
  8
AM_6
100
AcDbText
 10
39.83521559941521
 20
143.3711035232533
 30
0.0
 40
0.5
  1
32
100
AcDbAttributeDefinition
  3

  2
Z
 70
     8
280
     0
  0
ATTDEF
  5
7E
330
1F
100
AcDbEntity
  8
AM_6
100
AcDbText
 10
39.83521559941521
 20
142.8711035232533
 30
0.0
 40
0.5
  1
84
100
AcDbAttributeDefinition
  3

  2
Z1
 70
     8
280
     0
  0
ATTDEF
  5
7F
330
1F
100
AcDbEntity
  8
AM_6
100
AcDbText
 10
39.83521559941521
 20
142.3711035232533
 30
0.0
 40
0.5
  1
605032
100
AcDbAttributeDefinition
  3

  2
ARTNRTX
 70
     8
280
     0
  0
ATTDEF
  5
80
330
1F
100
AcDbEntity
  8
AM_6
100
AcDbText
 10
39.83521559941521
 20
141.8711035232533
 30
0.0
 40
0.5
  1
geberit
100
AcDbAttributeDefinition
  3

  2
COMPANY
 70
     8
280
     0
  0
LINE
  5
83
330
1F
100
AcDbEntity
  8
VER
100
AcDbLine
 10
-12.5
 20
65.22500000000001
 30
0.0
 11
12.5
 21
65.22500000000001
 31
0.0
  0
LINE
  5
84
330
1F
100
AcDbEntity
  8
VER
100
AcDbLine
 10
-12.5
 20
65.22500000000001
 30
0.0
 11
-12.5
 21
56.892
 31
0.0
  0
LINE
  5
85
330
1F
100
AcDbEntity
  8
VER
100
AcDbLine
 10
-12.5
 20
56.892
 30
0.0
 11
12.5
 21
56.892
 31
0.0
  0
LINE
  5
86
330
1F
100
AcDbEntity
  8
VER
100
AcDbLine
 10
12.5
 20
65.22500000000001
 30
0.0
 11
12.5
 21
56.892
 31
0.0
  0
LINE
  5
87
330
1F
100
AcDbEntity
  8
VER
100
AcDbLine
 10
-11.3145
 20
56.892
 30
0.0
 11
-12.3145
 21
55.892
 31
0.0
  0
LINE
  5
88
330
1F
100
AcDbEntity
  8
VER
100
AcDbLine
 10
12.3145
 20
55.892
 30
0.0
 11
11.3145
 21
56.892
 31
0.0
  0
LINE
  5
89
330
1F
100
AcDbEntity
  8
VER
100
AcDbLine
 10
-12.3145
 20
55.892
 30
0.0
 11
-12.3145
 21
22.29650763037951
 31
0.0
  0
LINE
  5
8A
330
1F
100
AcDbEntity
  8
VER
100
AcDbLine
 10
12.3145
 20
22.29425278574948
 30
0.0
 11
12.3145
 21
55.892
 31
0.0
  0
LWPOLYLINE
  5
8B
330
1F
100
AcDbEntity
  8
VER
100
AcDbPolyline
 90
       38
 70
     0
 43
0.0
 10
12.31449949566655
 20
22.29043094365111
 10
12.25488439693799
 20
23.56550270582929
 10
12.06115282819425
 20
25.04735152366471
 10
11.74179853165255
 20
26.60927892963588
 10
11.3104125215772
 20
28.19747454655379
 10
10.73379697630612
 20
29.90225352241449
 10
10.03486088346865
 20
31.6041876135307
 10
9.190332907118107
 20
33.31873776007401
 10
8.196067556294508
 20
34.99100518569033
 10
7.274313042305845
 20
36.28344369012198
 10
6.214818686658658
 20
37.51527309664777
 10
5.632647865949928
 20
38.09024447598952
 10
5.00944034904485
 20
38.6322291617409
 10
4.326986072965162
 20
39.14366474144854
 10
3.596190907764751
 20
39.60098282922796
 10
2.625130762981778
 20
40.07101014777246
 10
1.560645323995999
 20
40.41323539769548
 10
0.4669788714154298
 20
40.58220293165294
 10
-0.6843697598938724
 20
40.56317590880142
 10
-1.650779282423559
 20
40.39111429566829
 10
-2.598764267548669
 20
40.08164454483659
 10
-3.23788323051436
 20
39.7923081604087
 10
-3.845889692572333
 20
39.45495818328659
 10
-4.437309715825447
 20
39.06661891226131
 10
-4.996130031319536
 20
38.64300996223726
 10
-5.861057167950784
 20
37.87294348336783
 10
-6.647373210925356
 20
37.04255737121039
 10
-7.379999817326806
 20
36.14651910610718
 10
-8.046746673708652
 20
35.21585379616591
 10
-8.798013332056092
 20
34.01794368679609
 10
-9.467043467963837
 20
32.7912721865751
 10
-10.06027564799896
 20
31.54743935626031
 10
-10.83898667705665
 20
29.61640306642968
 10
-11.46074747308934
 20
27.68513708912133
 10
-11.82564779250994
 20
26.24612389309507
 10
-12.09640937028472
 20
24.83184874915779
 10
-12.26645720306881
 20
23.42900645167187
 10
-12.31449912504026
 20
22.29154910820983
  0
LWPOLYLINE
  5
8C
330
1F
100
AcDbEntity
  8
VER
100
AcDbPolyline
 90
       11
 70
     0
 43
0.0
 10
-12.31449912504026
 20
22.29154910820983
 10
-12.31281719811086
 20
22.08519016701078
 10
-12.27152476511702
 20
21.30625298642701
 10
-12.170030807405
 20
20.56429900659338
 10
-11.99672247974009
 20
19.85166199269532
 10
-11.74549139711842
 20
19.19289730652586
 10
-11.47526447151846
 20
18.69736237240569
 10
-11.14410598271291
 20
18.24671576726582
 10
-10.73728050362517
 20
17.83302679538156
 10
-10.26260141212598
 20
17.47038225086741
 10
-10.01055948656936
 20
17.31440726002067
  0
LINE
  5
8D
330
1F
100
AcDbEntity
  8
VER
100
AcDbLine
 10
12.3145
 20
55.892
 30
0.0
 11
-12.3145
 21
55.892
 31
0.0
  0
LINE
  5
8E
330
1F
100
AcDbEntity
  8
VER
100
AcDbLine
 10
-11.21078370824612
 20
65.22500000000001
 30
0.0
 11
-11.21078370824612
 21
56.892
 31
0.0
  0
LINE
  5
8F
330
1F
100
AcDbEntity
  8
VER
100
AcDbLine
 10
11.21078370824611
 20
65.22500000000001
 30
0.0
 11
11.21078370824611
 21
56.892
 31
0.0
  0
LINE
  5
90
330
1F
100
AcDbEntity
  8
VER
100
AcDbLine
 10
1.289216291753875
 20
65.22500000000001
 30
0.0
 11
1.289216291753875
 21
56.892
 31
0.0
  0
LINE
  5
91
330
1F
100
AcDbEntity
  8
VER
100
AcDbLine
 10
-1.289216291753887
 20
65.22500000000001
 30
0.0
 11
-1.289216291753887
 21
56.892
 31
0.0
  0
LWPOLYLINE
  5
92
330
1F
100
AcDbEntity
  8
VER
100
AcDbPolyline
 90
       11
 70
     0
 43
0.0
 10
10.01055948656936
 20
17.31440726002067
 10
10.20866744890092
 20
17.43518875753291
 10
10.66728249430272
 20
17.77270351877254
 10
11.06483202208682
 20
18.15616764143717
 10
11.41019163009165
 20
18.59791636997305
 10
11.69373863586357
 20
19.08537956506354
 10
11.96736399332831
 20
19.75898421938535
 10
12.15614776776127
 20
20.49160381295013
 10
12.27068738936631
 20
21.2971892260029
 10
12.31369238673341
 20
22.1467663409719
 10
12.31449949566655
 20
22.29043094365111
  0
LINE
  5
94
330
1F
100
AcDbEntity
  8
050
100
AcDbLine
 10
-20.0
 20
25.59528286712332
 30
0.0
 11
-20.0
 21
-0.0000000000000001
 31
0.0
  0
LINE
  5
95
330
1F
100
AcDbEntity
  8
VER
100
AcDbLine
 10
-20.0
 20
32.91440645067141
 30
0.0
 11
-20.0
 21
25.59528286712332
 31
0.0
  0
LINE
  5
96
330
1F
100
AcDbEntity
  8
VER
100
AcDbLine
 10
20.0
 20
25.59528286712332
 30
0.0
 11
20.0
 21
32.9144064506714
 31
0.0
  0
LINE
  5
97
330
1F
100
AcDbEntity
  8
050
100
AcDbLine
 10
20.0
 20
0.0000000000000122
 30
0.0
 11
20.0
 21
25.59528286712332
 31
0.0
  0
ELLIPSE
  5
98
330
1F
100
AcDbEntity
  8
VER
100
AcDbEllipse
 10
-0.0000000000000568
 20
32.91440645067142
 30
0.0
 11
-20.00000000000008
 21
-1.531427479570786E-14
 31
0.0
210
0.0
220
0.0
230
1.0
 40
0.7071067811865472
 41
1.839783160107626
 42
7.584994800661756
  0
ELLIPSE
  5
99
330
1F
100
AcDbEntity
  8
050
100
AcDbEllipse
 10
-0.0000000000000639
 20
32.91440645067141
 30
0.0
 11
-22.51974999999993
 21
1.275865195903077E-14
 31
0.0
210
0.0
220
0.0
230
1.0
 40
0.7071067811865474
 41
0.0000000000000008
 42
1.187864705587642
  0
LINE
  5
9A
330
1F
100
AcDbEntity
  8
050
100
AcDbLine
 10
-22.51975
 20
39.87100507491991
 30
0.0
 11
-22.51975
 21
32.91440645067143
 31
0.0
  0
LINE
  5
9B
330
1F
100
AcDbEntity
  8
VER
100
AcDbLine
 10
-22.51975
 20
45.1049273583275
 30
0.0
 11
-22.51975
 21
39.87100507491991
 31
0.0
  0
LINE
  5
9C
330
1F
100
AcDbEntity
  8
VER
100
AcDbLine
 10
22.51974999999999
 20
39.8710050749199
 30
0.0
 11
22.51975
 21
45.1049273583275
 31
0.0
  0
LINE
  5
9D
330
1F
100
AcDbEntity
  8
050
100
AcDbLine
 10
22.51975
 20
32.91440645067143
 30
0.0
 11
22.51974999999999
 21
39.8710050749199
 31
0.0
  0
ELLIPSE
  5
9E
330
1F
100
AcDbEntity
  8
VER
100
AcDbEllipse
 10
0.000000000000016
 20
32.91440645067143
 30
0.0
 11
-22.51974999999998
 21
2.757873975509858E-15
 31
0.0
210
0.0
220
0.0
230
1.0
 40
0.7071067811865477
 41
3.141592653589793
 42
6.283185307179588
  0
ELLIPSE
  5
9F
330
1F
100
AcDbEntity
  8
050
100
AcDbEllipse
 10
-0.0000000000000338
 20
32.91440645067142
 30
0.0
 11
-22.51975000000002
 21
2.757873975509864E-15
 31
0.0
210
0.0
220
0.0
230
1.0
 40
0.7071067811865476
 41
1.953727948002155
 42
3.141592653589793
  0
LINE
  5
A0
330
1F
100
AcDbEntity
  8
VER
100
AcDbLine
 10
-0.0000000000000014
 20
79.3154987146595
 30
0.0
 11
-0.0000000000000006
 21
66.60402129869841
 31
0.0
  0
ELLIPSE
  5
A1
330
1F
100
AcDbEntity
  8
VER
100
AcDbEllipse
 10
0.0000000000000249
 20
45.10492735832753
 30
0.0
 11
-23.70499999999997
 21
-1.815124420161265E-14
 31
0.0
210
0.0
220
0.0
230
1.0
 40
0.7071067811865482
 41
3.14159265358979
 42
6.283185307179588
  0
LINE
  5
A2
330
1F
100
AcDbEntity
  8
050
100
AcDbLine
 10
-23.70500000000001
 20
48.96926591751199
 30
0.0
 11
-23.70500000000001
 21
45.1049273583275
 31
0.0
  0
LINE
  5
A3
330
1F
100
AcDbEntity
  8
050
100
AcDbLine
 10
23.70500000000001
 20
45.1049273583275
 30
0.0
 11
23.70500000000001
 21
48.96926591751199
 31
0.0
  0
ELLIPSE
  5
A4
330
1F
100
AcDbEntity
  8
050
100
AcDbEllipse
 10
0.0000000000000036
 20
45.10492735832749
 30
0.0
 11
-23.70500000000002
 21
2.903025237378803E-15
 31
0.0
210
0.0
220
0.0
230
1.0
 40
0.7071067811865478
 41
0.0000000000000002
 42
3.141592653589793
  0
ELLIPSE
  5
A5
330
1F
100
AcDbEntity
  8
050
100
AcDbEllipse
 10
0.0000000000000444
 20
48.969265917512
 30
0.0
 11
-23.70500000000004
 21
2.903025237378806E-15
 31
0.0
210
0.0
220
0.0
230
1.0
 40
0.7071067811865475
 41
6.26209114635702
 42
9.445872121591945
  0
ELLIPSE
  5
A6
330
1F
100
AcDbEntity
  8
VER
100
AcDbEllipse
 10
-0.0000000000000015
 20
49.67637269869854
 30
0.0
 11
22.70500000000002
 21
-5.561121114928135E-15
 31
0.0
210
0.0
220
0.0
230
1.0
 40
0.7071067811865477
 41
0.0
 42
6.283185307179586
  0
ELLIPSE
  5
A7
330
1F
100
AcDbEntity
  8
VER
100
AcDbEllipse
 10
-0.0000000000000107
 20
48.96926591751198
 30
0.0
 11
-23.70500000000001
 21
-6.025978307959562E-14
 31
0.0
210
0.0
220
0.0
230
1.0
 40
0.7071067811865476
 41
3.162686814412357
 42
6.262091146357016
  0
LINE
  5
A8
330
1F
100
AcDbEntity
  8
VER
100
AcDbLine
 10
-0.0000000000000006
 20
66.60402129869841
 30
0.0
 11
-19.0
 21
58.84730377988502
 31
0.0
  0
LINE
  5
A9
330
1F
100
AcDbEntity
  8
VER
100
AcDbLine
 10
19.0
 20
58.84730377988502
 30
0.0
 11
-0.0000000000000006
 21
66.60402129869841
 31
0.0
  0
ELLIPSE
  5
AA
330
1F
100
AcDbEntity
  8
VER
100
AcDbEllipse
 10
0.0000000000000107
 20
49.67637269869858
 30
0.0
 11
-23.70499999999996
 21
-1.815124420161264E-14
 31
0.0
210
0.0
220
0.0
230
1.0
 40
0.7071067811865478
 41
3.14159265358979
 42
6.283185307179587
  0
ELLIPSE
  5
AB
330
1F
100
AcDbEntity
  8
VER
100
AcDbEllipse
 10
-0.000000000000032
 20
51.09058626107162
 30
0.0
 11
-23.70500000000005
 21
3.448442939586607E-14
 31
0.0
210
0.0
220
0.0
230
1.0
 40
0.7071067811865466
 41
3.780961814142842
 42
5.642607216572716
  0
LINE
  5
AC
330
1F
100
AcDbEntity
  8
050
100
AcDbLine
 10
-23.705
 20
51.09058626107164
 30
0.0
 11
-23.705
 21
49.67637269869856
 31
0.0
  0
LINE
  5
AD
330
1F
100
AcDbEntity
  8
050
100
AcDbLine
 10
23.705
 20
49.67637269869856
 30
0.0
 11
23.705
 21
51.09058626107164
 31
0.0
  0
ELLIPSE
  5
AE
330
1F
100
AcDbEntity
  8
050
100
AcDbEllipse
 10
0.0000000000000036
 20
49.67637269869855
 30
0.0
 11
-23.705
 21
2.903025237378800E-15
 31
0.0
210
0.0
220
0.0
230
1.0
 40
0.7071067811865472
 41
0.0000000000000002
 42
3.141592653589793
  0
ELLIPSE
  5
AF
330
1F
100
AcDbEntity
  8
050
100
AcDbEllipse
 10
0.0000000000002132
 20
51.09058626107156
 30
0.0
 11
-23.70500000000023
 21
1.343015995687467E-14
 31
0.0
210
0.0
220
0.0
230
1.0
 40
0.7071067811865477
 41
5.642607216572719
 42
10.06414712132243
  0
CIRCLE
  5
B0
330
1F
100
AcDbEntity
  8
VER
100
AcDbCircle
 10
-0.0000000000000033
 20
0.0
 30
0.0
 40
16.0
  0
CIRCLE
  5
B1
330
1F
100
AcDbEntity
  8
VER
100
AcDbCircle
 10
-0.0000000000000033
 20
0.0
 30
0.0
 40
18.44
  0
LINE
  5
B2
330
1F
100
AcDbEntity
  8
050
100
AcDbLine
 10
17.49999999999999
 20
69.47536257192185
 30
0.0
 11
17.49999999999999
 21
70.88957613429494
 31
0.0
  0
LINE
  5
B3
330
1F
100
AcDbEntity
  8
050
100
AcDbLine
 10
-17.5
 20
70.88957613429494
 30
0.0
 11
-17.5
 21
69.47536257192185
 31
0.0
  0
ELLIPSE
  5
B4
330
1F
100
AcDbEntity
  8
VER
100
AcDbEllipse
 10
0.0000000000000018
 20
70.88957613429494
 30
0.0
 11
17.5
 21
0.0
 31
0.0
210
0.0
220
0.0
230
1.0
 40
0.7071067811865476
 41
0.7334681181845477
 42
2.408124535405246
  0
ELLIPSE
  5
B5
330
1F
100
AcDbEntity
  8
050
100
AcDbEllipse
 10
0.0000000000002185
 20
70.88957613429491
 30
0.0
 11
17.49999999999974
 21
1.847411112976260E-13
 31
0.0
210
0.0
220
0.0
230
1.0
 40
0.7071067811865506
 41
6.283185307179574
 42
7.01665342536413
  0
ELLIPSE
  5
B6
330
1F
100
AcDbEntity
  8
VER
100
AcDbEllipse
 10
0.0000000000000142
 20
69.47536257192185
 30
0.0
 11
17.50000000000001
 21
0.0
 31
0.0
210
0.0
220
0.0
230
1.0
 40
0.707106781186548
 41
0.0
 42
3.141592653589793
  0
ELLIPSE
  5
B7
330
1F
100
AcDbEntity
  8
050
100
AcDbEllipse
 10
0.0000000000000169
 20
69.47536257192189
 30
0.0
 11
17.50000000000005
 21
-5.091563083127244E-14
 31
0.0
210
0.0
220
0.0
230
1.0
 40
0.7071067811865472
 41
3.141592653589801
 42
4.71238898038469
  0
ELLIPSE
  5
B8
330
1F
100
AcDbEntity
  8
050
100
AcDbEllipse
 10
0.0000000000000551
 20
70.8895761342948
 30
0.0
 11
17.49999999999986
 21
4.263256414560600E-14
 31
0.0
210
0.0
220
0.0
230
1.0
 40
0.7071067811865468
 41
2.408124535405235
 42
6.283185307179594
  0
LINE
  5
B9
330
1F
100
AcDbEntity
  8
VER
100
AcDbLine
 10
-0.0003395092833725
 20
97.70041362332456
 30
0.0
 11
-11.25816049071664
 21
93.10442745330623
 31
0.0
  0
LINE
  5
BA
330
1F
100
AcDbEntity
  8
VER
100
AcDbLine
 10
11.25816049071664
 20
93.1044274533062
 30
0.0
 11
0.0003395092833468
 21
97.70041362332456
 31
0.0
  0
CIRCLE
  5
BB
330
1F
100
AcDbEntity
  8
050
100
AcDbCircle
 10
-0.0000000000000036
 20
0.0
 30
0.0
 40
18.74999999999999
  0
CIRCLE
  5
BC
330
1F
100
AcDbEntity
  8
050
100
AcDbCircle
 10
-0.0000000000000035
 20
0.0
 30
0.0
 40
20.0
  0
LINE
  5
BD
330
1F
100
AcDbEntity
  8
050
100
AcDbLine
 10
-19.0
 20
75.41973927882326
 30
0.0
 11
-19.0
 21
43.33386874225823
 31
0.0
  0
LINE
  5
BE
330
1F
100
AcDbEntity
  8
050
100
AcDbLine
 10
-19.0
 20
43.33386874225823
 30
0.0
 11
-0.0000000000000025
 21
35.57715122344484
 31
0.0
  0
LINE
  5
BF
330
1F
100
AcDbEntity
  8
050
100
AcDbLine
 10
-0.0000000000000035
 20
52.14958672238307
 30
0.0
 11
-0.0000000000000025
 21
35.57715122344484
 31
0.0
  0
LINE
  5
C0
330
1F
100
AcDbEntity
  8
050
100
AcDbLine
 10
-0.0000000000000025
 20
35.57715122344484
 30
0.0
 11
19.0
 21
43.33386874225823
 31
0.0
  0
LINE
  5
C1
330
1F
100
AcDbEntity
  8
050
100
AcDbLine
 10
19.0
 20
75.41973927882326
 30
0.0
 11
19.0
 21
43.33386874225823
 31
0.0
  0
ELLIPSE
  5
C2
330
1F
100
AcDbEntity
  8
050
100
AcDbEllipse
 10
-0.0000000000000249
 20
69.47536257192196
 30
0.0
 11
17.50000000000005
 21
2.842170943040401E-14
 31
0.0
210
0.0
220
0.0
230
1.0
 40
0.7071067811865471
 41
4.71238898038469
 42
6.283185307179574
  0
LWPOLYLINE
  5
C3
330
1F
100
AcDbEntity
  8
050
100
AcDbPolyline
 90
       10
 70
     0
 43
0.0
 10
-19.0
 20
59.90630424119646
 10
-16.52950489817821
 20
59.4194389325915
 10
-14.02366383826154
 20
58.78690079503671
 10
-12.29846266705549
 20
58.25832848940835
 10
-10.56246649533661
 20
57.64481474642845
 10
-8.824262246426413
 20
56.94550695529981
 10
-6.606950904412283
 20
55.92746130421336
 10
-4.40516951587538
 20
54.78464136445112
 10
-2.188472758242592
 20
53.51167663372298
 10
-0.0000000000000035
 20
52.14958672238307
  0
LWPOLYLINE
  5
C4
330
1F
100
AcDbEntity
  8
050
100
AcDbPolyline
 90
       10
 70
     0
 43
0.0
 10
-0.0000000000000035
 20
52.14958672238307
 10
2.470495101821789
 20
53.67987221761428
 10
4.97633616173846
 20
55.09334473782977
 10
6.701537332944511
 20
55.97339328990367
 10
8.437533504663389
 20
56.77731448563586
 10
10.17573775357358
 20
57.49724452069643
 10
12.39304909558772
 20
58.28962599921677
 10
14.59483048412462
 20
58.94455303514522
 10
16.81152724175741
 20
59.48151362797783
 10
19.0
 20
59.90630424119646
  0
LWPOLYLINE
  5
C5
330
1F
100
AcDbEntity
  8
VER
100
AcDbPolyline
 90
        8
 70
     0
 43
0.0
 10
13.00144808216207
 20
78.89493018520302
 10
12.29846266705547
 20
79.24354584634385
 10
10.56246649533659
 20
80.04746704207605
 10
8.8242622464264
 20
80.76739707713662
 10
6.60695090441227
 20
81.55977855565696
 10
4.405169515875368
 20
82.2147055915854
 10
2.188472758242585
 20
82.75166618441803
 10
-0.0000000000000016
 20
83.17645679763665
  0
LINE
  5
C6
330
1F
100
AcDbEntity
  8
VER
100
AcDbLine
 10
13.77568298088949
 20
78.49493056766858
 30
0.0
 11
13.00144808216207
 21
78.89493018520302
 31
0.0
  0
LWPOLYLINE
  5
C7
330
1F
100
AcDbEntity
  8
050
100
AcDbPolyline
 90
        4
 70
     0
 43
0.0
 10
19.0
 20
75.41973927882326
 10
16.5295048981782
 20
76.95002477405447
 10
14.02366383826153
 20
78.36349729426995
 10
13.77568298088949
 20
78.49493056766858
  0
LWPOLYLINE
  5
C8
330
1F
100
AcDbEntity
  8
050
100
AcDbPolyline
 90
        4
 70
     0
 43
0.0
 10
-13.83302294339944
 20
78.46468091641046
 10
-14.59483048412462
 20
78.0547939208913
 10
-16.81152724175741
 20
76.78182919016318
 10
-19.0
 20
75.41973927882326
  0
LINE
  5
C9
330
1F
100
AcDbEntity
  8
VER
100
AcDbLine
 10
-13.00189835937635
 20
78.89470217812199
 30
0.0
 11
-13.83302294339944
 21
78.46468091641046
 31
0.0
  0
LWPOLYLINE
  5
CA
330
1F
100
AcDbEntity
  8
VER
100
AcDbPolyline
 90
        8
 70
     0
 43
0.0
 10
-0.0000000000000016
 20
83.17645679763665
 10
-2.470495101821794
 20
82.68959148903166
 10
-4.976336161738465
 20
82.05705335147688
 10
-6.70153733294452
 20
81.52848104584855
 10
-8.437533504663401
 20
80.91496730286863
 10
-10.1757377535736
 20
80.21565951173999
 10
-12.39304909558772
 20
79.19761386065355
 10
-13.00189835937635
 20
78.89470217812199
  0
CIRCLE
  5
CB
330
1F
100
AcDbEntity
  8
VER
100
AcDbCircle
 10
-0.0000000000000038
 20
0.0
 30
0.0
 40
15.5
  0
CIRCLE
  5
CC
330
1F
100
AcDbEntity
  8
VER
100
AcDbCircle
 10
-0.0000000000000039
 20
0.0
 30
0.0
 40
15.85020753820971
  0
CIRCLE
  5
CD
330
1F
100
AcDbEntity
  8
VER
100
AcDbCircle
 10
-0.000000000000004
 20
0.0
 30
0.0
 40
15.15
  0
LINE
  5
CE
330
1F
100
AcDbEntity
  8
VER
100
AcDbLine
 10
-0.0000000000000033
 20
97.70055222740909
 30
0.0
 11
-0.000000000000004
 21
109.249727284529
 31
0.0
  0
ELLIPSE
  5
CF
330
1F
100
AcDbEntity
  8
050
100
AcDbEllipse
 10
0.0000000000000329
 20
88.50802547103434
 30
0.0
 11
13.00000000000008
 21
2.842170943040401E-14
 31
0.0
210
0.0
220
0.0
230
1.0
 40
0.7071067811865466
 41
3.665217545286817
 42
4.712362864285963
  0
ELLIPSE
  5
D0
330
1F
100
AcDbEntity
  8
050
100
AcDbEllipse
 10
-0.0000000000003073
 20
88.5080254710343
 30
0.0
 11
12.99999999999967
 21
-9.555463732659369E-14
 31
0.0
210
0.0
220
0.0
230
1.0
 40
0.7071067811865496
 41
2.618019994090218
 42
3.665165313089389
  0
ELLIPSE
  5
D1
330
1F
100
AcDbEntity
  8
VER
100
AcDbEllipse
 10
-0.0000000000001457
 20
88.50802547103417
 30
0.0
 11
12.99999999999981
 21
-3.957589431852328E-13
 31
0.0
210
0.0
220
0.0
230
1.0
 40
0.7071067811865525
 41
2.344939271239071
 42
2.617967761892795
  0
ELLIPSE
  5
D2
330
1F
100
AcDbEntity
  8
VER
100
AcDbEllipse
 10
-0.0000000000000142
 20
88.50802547103433
 30
0.0
 11
12.99999999999991
 21
2.842170943040401E-14
 31
0.0
210
0.0
220
0.0
230
1.0
 40
0.707106781186548
 41
1.570822442893618
 42
2.344939271239052
  0
ELLIPSE
  5
D3
330
1F
100
AcDbEntity
  8
VER
100
AcDbEllipse
 10
-0.0000000000000213
 20
88.50802547103434
 30
0.0
 11
12.99999999999997
 21
-3.782304004608791E-14
 31
0.0
210
0.0
220
0.0
230
1.0
 40
0.7071067811865485
 41
0.7966533823507387
 42
1.570770210696175
  0
ELLIPSE
  5
D4
330
1F
100
AcDbEntity
  8
VER
100
AcDbEllipse
 10
0.0000000000000213
 20
88.50802547103409
 30
0.0
 11
12.99999999999996
 21
3.552713678800501E-13
 31
0.0
210
0.0
220
0.0
230
1.0
 40
0.7071067811865542
 41
0.5236248916970023
 42
0.796653382350725
  0
ELLIPSE
  5
D5
330
1F
100
AcDbEntity
  8
050
100
AcDbEllipse
 10
0.0000000000002025
 20
88.50802547103427
 30
0.0
 11
12.99999999999979
 21
-1.473040113388450E-14
 31
0.0
210
0.0
220
0.0
230
1.0
 40
0.7071067811865452
 41
5.759612647680004
 42
6.283185307179588
  0
ELLIPSE
  5
D6
330
1F
100
AcDbEntity
  8
050
100
AcDbEllipse
 10
0.0000000000000036
 20
88.5080254710343
 30
0.0
 11
13.00000000000002
 21
0.0
 31
0.0
210
0.0
220
0.0
230
1.0
 40
0.7071067811865479
 41
4.71241509648341
 42
5.759560415482563
  0
ELLIPSE
  5
D7
330
1F
100
AcDbEntity
  8
050
100
AcDbEllipse
 10
-0.0000000000000604
 20
74.0715566496345
 30
0.0
 11
13.00000000000008
 21
0.0
 31
0.0
210
0.0
220
0.0
230
1.0
 40
0.7071067811865479
 41
3.141592653589803
 42
6.283185307179577
  0
LINE
  5
D8
330
1F
100
AcDbEntity
  8
050
100
AcDbLine
 10
12.99999999999999
 20
74.07155664963442
 30
0.0
 11
12.99999999999999
 21
88.50802547103429
 31
0.0
  0
LINE
  5
D9
330
1F
100
AcDbEntity
  8
050
100
AcDbLine
 10
-13.0
 20
88.50802547103429
 30
0.0
 11
-13.0
 21
74.07155664963442
 31
0.0
  0
ELLIPSE
  5
DA
330
1F
100
AcDbEntity
  8
050
100
AcDbEllipse
 10
0.0000000000002878
 20
88.5080254710343
 30
0.0
 11
12.99999999999968
 21
8.526512829121202E-14
 31
0.0
210
0.0
220
0.0
230
1.0
 40
0.7071067811865497
 41
6.283185307179574
 42
6.806757966679162
  0
ELLIPSE
  5
DB
330
1F
100
AcDbEntity
  8
VER
100
AcDbEllipse
 10
-0.0000000000000018
 20
74.07155664963442
 30
0.0
 11
12.99999999999998
 21
0.0
 31
0.0
210
0.0
220
0.0
230
1.0
 40
0.7071067811865476
 41
0.0
 42
3.141592653589793
  0
ELLIPSE
  5
DC
330
1F
100
AcDbEntity
  8
VER
100
AcDbEllipse
 10
-0.0000000000000041
 20
140.3855972546799
 30
0.0
 11
-2.000000000000056
 21
2.449293598294775E-16
 31
0.0
210
0.0
220
0.0
230
1.0
 40
0.707106781186448
 41
4.319689898685978
 42
5.105088062083402
  0
LINE
  5
DD
330
1F
100
AcDbEntity
  8
VER
100
AcDbLine
 10
0.7653668647301758
 20
141.6921602195561
 30
0.0
 11
0.7653668647301752
 21
150.0647244235334
 31
0.0
  0
LINE
  5
DE
330
1F
100
AcDbEntity
  8
VER
100
AcDbLine
 10
-0.7653668647301839
 20
141.6921602195561
 30
0.0
 11
-0.7653668647301844
 21
150.0647244235333
 31
0.0
  0
LINE
  5
DF
330
1F
100
AcDbEntity
  8
VER
100
AcDbLine
 10
-1.576916273239388
 20
143.7372525896436
 30
0.0
 11
1.576916273239378
 21
143.7372525896436
 31
0.0
  0
LINE
  5
E0
330
1F
100
AcDbEntity
  8
VER
100
AcDbLine
 10
1.576916273239378
 20
143.6982208963618
 30
0.0
 11
1.576916273239378
 21
143.7372525896436
 31
0.0
  0
LINE
  5
E1
330
1F
100
AcDbEntity
  8
VER
100
AcDbLine
 10
-1.576916273239388
 20
143.6982208963618
 30
0.0
 11
-1.576916273239388
 21
143.7372525896436
 31
0.0
  0
LINE
  5
E2
330
1F
100
AcDbEntity
  8
VER
100
AcDbLine
 10
-1.576916273239388
 20
143.6982208963618
 30
0.0
 11
1.576916273239378
 21
143.6982208963618
 31
0.0
  0
CIRCLE
  5
E3
330
1F
100
AcDbEntity
  8
VER
100
AcDbCircle
 10
-0.0000000000000048
 20
0.0
 30
0.0
 40
14.3
  0
ELLIPSE
  5
E4
330
1F
100
AcDbEntity
  8
VER
100
AcDbEllipse
 10
-23.21800361206878
 20
133.5852014423187
 30
0.0
 11
-2.000000000000018
 21
-2.830839865245130E-13
 31
0.0
210
0.0
220
0.0
230
1.0
 40
0.7071067811864901
 41
5.105088062083313
 42
5.890486225480752
  0
LINE
  5
E5
330
1F
100
AcDbEntity
  8
VER
100
AcDbLine
 10
-25.06576267709138
 20
134.1263975424648
 30
0.0
 11
-25.06576267709138
 21
142.4989617464485
 31
0.0
  0
LINE
  5
E6
330
1F
100
AcDbEntity
  8
VER
100
AcDbLine
 10
-23.98337047679899
 20
134.891764407195
 30
0.0
 11
-23.98337047679899
 21
143.2643286111722
 31
0.0
  0
ELLIPSE
  5
E7
330
1F
100
AcDbEntity
  8
VER
100
AcDbEllipse
 10
23.21800361206877
 20
133.5852014423187
 30
0.0
 11
-2.000000000000028
 21
2.844620236638736E-13
 31
0.0
210
0.0
220
0.0
230
1.0
 40
0.7071067811864863
 41
3.534291735288605
 42
4.319689898686046
  0
LINE
  5
E8
330
1F
100
AcDbEntity
  8
VER
100
AcDbLine
 10
25.06576267709137
 20
134.1263975424648
 30
0.0
 11
25.06576267709137
 21
142.498961746442
 31
0.0
  0
LINE
  5
E9
330
1F
100
AcDbEntity
  8
VER
100
AcDbLine
 10
23.98337047679898
 20
134.891764407195
 30
0.0
 11
23.98337047679898
 21
143.2643286111721
 31
0.0
  0
LINE
  5
EA
330
1F
100
AcDbEntity
  8
VER
100
AcDbLine
 10
-23.98337047679899
 20
134.891764407195
 30
0.0
 11
-0.7653668647301839
 21
141.6921602195561
 31
0.0
  0
LINE
  5
EB
330
1F
100
AcDbEntity
  8
VER
100
AcDbLine
 10
0.7653668647301758
 20
141.6921602195561
 30
0.0
 11
23.98337047679898
 21
134.891764407195
 31
0.0
  0
LINE
  5
EC
330
1F
100
AcDbEntity
  8
VER
100
AcDbLine
 10
11.2585
 20
104.6534639063416
 30
0.0
 11
-0.000000000000004
 21
109.249727284529
 31
0.0
  0
LINE
  5
ED
330
1F
100
AcDbEntity
  8
VER
100
AcDbLine
 10
-0.000000000000004
 20
109.249727284529
 30
0.0
 11
-11.2585
 21
104.6534639063416
 31
0.0
  0
LINE
  5
EE
330
1F
100
AcDbEntity
  8
050
100
AcDbLine
 10
-11.25850000000001
 20
95.71639460509303
 30
0.0
 11
-11.2585
 21
83.91176209284687
 31
0.0
  0
LINE
  5
EF
330
1F
100
AcDbEntity
  8
VER
100
AcDbLine
 10
-11.2585
 20
104.6534639063416
 30
0.0
 11
-11.25850000000001
 21
95.71639460509303
 31
0.0
  0
LINE
  5
F0
330
1F
100
AcDbEntity
  8
VER
100
AcDbLine
 10
11.25849999999999
 20
95.71639460509304
 30
0.0
 11
11.2585
 21
104.6534639063416
 31
0.0
  0
LINE
  5
F1
330
1F
100
AcDbEntity
  8
050
100
AcDbLine
 10
11.2585
 20
83.91176209284687
 30
0.0
 11
11.25849999999999
 21
95.71639460509304
 31
0.0
  0
LINE
  5
F2
330
1F
100
AcDbEntity
  8
050
100
AcDbLine
 10
-0.0000000000000051
 20
90.86467377177935
 30
0.0
 11
11.25849999999999
 21
95.46093714996675
 31
0.0
  0
LINE
  5
F3
330
1F
100
AcDbEntity
  8
050
100
AcDbLine
 10
0.0003395092833535
 20
79.315637318744
 30
0.0
 11
11.25816049071664
 21
83.91162348876236
 31
0.0
  0
LINE
  5
F4
330
1F
100
AcDbEntity
  8
050
100
AcDbLine
 10
-11.25850000000001
 20
95.46093714996675
 30
0.0
 11
-0.0000000000000051
 21
90.86467377177935
 31
0.0
  0
LINE
  5
F5
330
1F
100
AcDbEntity
  8
050
100
AcDbLine
 10
-11.25816049071664
 20
83.91162348876234
 30
0.0
 11
-0.0003395092833589
 21
79.315637318744
 31
0.0
  0
LINE
  5
F6
330
1F
100
AcDbEntity
  8
050
100
AcDbLine
 10
-0.0000000000000044
 20
79.31549871465948
 30
0.0
 11
-0.0000000000000051
 21
90.86467377177935
 31
0.0
  0
CIRCLE
  5
F7
330
1F
100
AcDbEntity
  8
VER
100
AcDbCircle
 10
-0.0000000000000053
 20
0.0
 30
0.0
 40
15.22760489911372
  0
LINE
  5
F8
330
1F
100
AcDbEntity
  8
VER
100
AcDbLine
 10
1.576916273239378
 20
143.6982208963618
 30
0.0
 11
5.917723263273867
 21
127.3885733500072
 31
0.0
  0
LINE
  5
F9
330
1F
100
AcDbEntity
  8
VER
100
AcDbLine
 10
-5.917723263273874
 20
127.3885733500072
 30
0.0
 11
-1.576916273239388
 21
143.6982208963618
 31
0.0
  0
CIRCLE
  5
FA
330
1F
100
AcDbEntity
  8
050
100
AcDbCircle
 10
-0.0000000000000051
 20
0.0
 30
0.0
 40
12.4
  0
CIRCLE
  5
FB
330
1F
100
AcDbEntity
  8
050
100
AcDbCircle
 10
-0.0000000000000054
 20
0.0
 30
0.0
 40
16.32500000000001
  0
CIRCLE
  5
FC
330
1F
100
AcDbEntity
  8
050
100
AcDbCircle
 10
-0.0000000000000057
 20
0.0
 30
0.0
 40
15.67828324873397
  0
CIRCLE
  5
FD
330
1F
100
AcDbEntity
  8
050
100
AcDbCircle
 10
-0.0000000000000057
 20
0.0
 30
0.0
 40
15.28436014752909
  0
CIRCLE
  5
FE
330
1F
100
AcDbEntity
  8
050
100
AcDbCircle
 10
-0.0000000000000057
 20
0.0
 30
0.0
 40
14.41883553061442
  0
CIRCLE
  5
FF
330
1F
100
AcDbEntity
  8
050
100
AcDbCircle
 10
-0.0000000000000057
 20
0.0
 30
0.0
 40
13.92643165410832
  0
LINE
  5
100
330
1F
100
AcDbEntity
  8
VER
100
AcDbLine
 10
-2.939279776629969
 20
139.160570867467
 30
0.0
 11
-1.576916273239388
 21
143.7372525896436
 31
0.0
  0
LINE
  5
101
330
1F
100
AcDbEntity
  8
VER
100
AcDbLine
 10
1.576916273239378
 20
143.7372525896436
 30
0.0
 11
2.939279776629954
 21
139.160570867467
 31
0.0
  0
LINE
  5
102
330
1F
100
AcDbEntity
  8
VER
100
AcDbLine
 10
5.591884508223238
 20
131.0201024009034
 30
0.0
 11
5.776361010617671
 21
130.3269716670226
 31
0.0
  0
LINE
  5
103
330
1F
100
AcDbEntity
  8
050
100
AcDbLine
 10
2.705478426484167
 20
141.8651517147511
 30
0.0
 11
5.591884508223238
 21
131.0201024009034
 31
0.0
  0
LINE
  5
104
330
1F
100
AcDbEntity
  8
050
100
AcDbLine
 10
-5.59188450822325
 20
131.0201024009034
 30
0.0
 11
-2.705478426484164
 21
141.8651517147511
 31
0.0
  0
LINE
  5
105
330
1F
100
AcDbEntity
  8
VER
100
AcDbLine
 10
-5.776361010617683
 20
130.3269716670226
 30
0.0
 11
-5.59188450822325
 21
131.0201024009034
 31
0.0
  0
LINE
  5
106
330
1F
100
AcDbEntity
  8
VER
100
AcDbLine
 10
5.999999999999988
 20
100.0572005281541
 30
0.0
 11
5.999999999999988
 21
115.0816286381106
 31
0.0
  0
LINE
  5
107
330
1F
100
AcDbEntity
  8
VER
100
AcDbLine
 10
-5.999999999999998
 20
115.0816286381106
 30
0.0
 11
-5.999999999999997
 21
100.0572005281541
 31
0.0
  0
LINE
  5
108
330
1F
100
AcDbEntity
  8
VER
100
AcDbLine
 10
-35.00000000000001
 20
117.167593642611
 30
0.0
 11
-25.06576267709138
 21
134.1263975424648
 31
0.0
  0
ELLIPSE
  5
109
330
1F
100
AcDbEntity
  8
VER
100
AcDbEllipse
 10
32.83521559941503
 20
117.1675936426111
 30
0.0
 11
-2.000000000000181
 21
3.706153303748153E-13
 31
0.0
210
0.0
220
0.0
230
1.0
 40
0.7071067811865389
 41
3.141592653589955
 42
3.534291735288636
  0
LINE
  5
10A
330
1F
100
AcDbEntity
  8
VER
100
AcDbLine
 10
34.68297466443778
 20
124.9989617464421
 30
0.0
 11
34.68297466443778
 21
126.0813539467476
 31
0.0
  0
LINE
  5
10B
330
1F
100
AcDbEntity
  8
050
100
AcDbLine
 10
34.83521559941521
 20
117.167593642611
 30
0.0
 11
34.83521559941521
 21
125.2556485877506
 31
0.0
  0
LWPOLYLINE
  5
10C
330
1F
100
AcDbEntity
  8
050
100
AcDbPolyline
 90
        5
 70
     0
 43
0.0
 10
34.83521559920418
 20
125.2542408340548
 10
34.83517554843181
 20
125.2454015498998
 10
34.82288830796447
 20
125.1247187616418
 10
34.76941812109646
 20
125.0300210324039
 10
34.68297466443777
 20
124.998961746442
  0
ELLIPSE
  5
10D
330
1F
100
AcDbEntity
  8
050
100
AcDbEllipse
 10
32.83521559941498
 20
117.167593642611
 30
0.0
 11
-2.000000000000227
 21
2.449293598294985E-16
 31
0.0
210
0.0
220
0.0
230
1.0
 40
0.707106781186551
 41
2.748893571891088
 42
3.141592653589763
  0
LINE
  5
10E
330
1F
100
AcDbEntity
  8
VER
100
AcDbLine
 10
25.06576267709137
 20
134.1263975424648
 30
0.0
 11
34.68297466443778
 21
117.7087897427571
 31
0.0
  0
ELLIPSE
  5
10F
330
1F
100
AcDbEntity
  8
050
100
AcDbEllipse
 10
-0.0000000000000062
 20
127.2792206135786
 30
0.0
 11
-2.99999999999999
 21
3.673940397442047E-16
 31
0.0
210
0.0
220
0.0
230
1.0
 40
0.7071067811865509
 41
0.0
 42
6.283185307179586
  0
LWPOLYLINE
  5
110
330
1F
100
AcDbEntity
  8
050
100
AcDbPolyline
 90
       35
 70
     0
 43
0.0
 10
5.999999708580846
 20
125.1562807724734
 10
5.993703366990103
 20
125.3958848504334
 10
5.942154559793423
 20
125.8774994215843
 10
5.840075386816566
 20
126.348722999152
 10
5.689247486011691
 20
126.8061327403386
 10
5.491455061025019
 20
127.2466823538982
 10
5.248416081633948
 20
127.6676306392526
 10
4.961756955935957
 20
128.0664433877638
 10
4.633054527464453
 20
128.4406689341923
 10
4.263965434806757
 20
128.7878081120622
 10
3.856443177087338
 20
129.1052162554284
 10
3.413002056484656
 20
129.3900857670177
 10
2.936936314783656
 20
129.6395454162817
 10
2.432381797287334
 20
129.8508648147249
 10
1.904160362320518
 20
130.0216879775133
 10
1.357461179247249
 20
130.1501909956937
 10
0.7975919952423192
 20
130.2350904115201
 10
0.2295481865791289
 20
130.2755815148536
 10
-0.3420672029623219
 20
130.2711356058198
 10
-0.9127929954743712
 20
130.2213343896782
 10
-1.478074703729966
 20
130.1258307374913
 10
-2.033342288202077
 20
129.9843332470326
 10
-2.573691212560462
 20
129.7967045196264
 10
-3.093472279583038
 20
129.5632982983862
 10
-3.586507010372471
 20
129.2852511574541
 10
-4.046366502471492
 20
128.9647506464107
 10
-4.466797859660025
 20
128.6051835961084
 10
-4.842294449439164
 20
128.2110049835534
 10
-5.168523190415835
 20
127.7873926215631
 10
-5.442463209482804
 20
127.339855183707
 10
-5.662295513292939
 20
126.8739359879067
 10
-5.827183315982936
 20
126.395044505194
 10
-5.937054934653049
 20
125.9083714104386
 10
-5.992429396202573
 20
125.4188364266401
 10
-5.999999999800215
 20
125.1578578650961
  0
ELLIPSE
  5
111
330
1F
100
AcDbEntity
  8
VER
100
AcDbEllipse
 10
-0.0000000000000364
 20
125.1579002700189
 30
0.0
 11
6.000000000000012
 21
1.421085471520201E-14
 31
0.0
210
0.0
220
0.0
230
1.0
 40
0.7071067811866253
 41
0.0146506031044833
 42
3.141540528364108
  0
ELLIPSE
  5
112
330
1F
100
AcDbEntity
  8
VER
100
AcDbEllipse
 10
-0.0000000000225677
 20
125.1579002700188
 30
0.0
 11
6.000000000022569
 21
-7.607656341407350E-14
 31
0.0
210
0.0
220
0.0
230
1.0
 40
0.7071067811867049
 41
6.282841285609415
 42
6.297835910284068
  0
ELLIPSE
  5
113
330
1F
100
AcDbEntity
  8
050
100
AcDbEllipse
 10
0.0000000000000342
 20
125.1579002700189
 30
0.0
 11
6.00000000000005
 21
-1.745678771357922E-14
 31
0.0
210
0.0
220
0.0
230
1.0
 40
0.7071067811865474
 41
3.141540528364113
 42
6.282841285609369
  0
LWPOLYLINE
  5
114
330
1F
100
AcDbEntity
  8
VER
100
AcDbPolyline
 90
       16
 70
     0
 43
0.0
 10
9.745823124887808
 20
119.5259685181775
 10
9.513482557670782
 20
119.0149413537616
 10
9.208738643792058
 20
118.5181652098109
 10
8.833910668445661
 20
118.0394208527423
 10
8.391851298851288
 20
117.5823518161871
 10
7.885924873734303
 20
117.1504366714991
 10
7.319981798676572
 20
116.7469625537269
 10
6.69832924220506
 20
116.3750001445312
 10
6.025698355638586
 20
116.0373803024429
 10
5.30720826616956
 20
115.7366725183208
 10
4.548327117215015
 20
115.4751653599744
 10
3.754830452543462
 20
115.2548490547809
 10
2.932757260899439
 20
115.0774003428537
 10
2.088364015652719
 20
114.9441697160369
 10
1.228077059258213
 20
114.8561711398473
 10
0.9071836581536604
 20
114.8352281593281
  0
LWPOLYLINE
  5
115
330
1F
100
AcDbEntity
  8
VER
100
AcDbPolyline
 90
       16
 70
     0
 43
0.0
 10
-1.239849482138964
 20
114.8570607715918
 10
-2.099964056964204
 20
114.9456795136533
 10
-2.944096637322982
 20
115.0795188158705
 10
-3.765822864577578
 20
115.2575600803394
 10
-4.558888905966725
 20
115.478448305533
 10
-5.31725905004908
 20
115.7405023986816
 10
-6.035161642111765
 20
116.0417279699037
 10
-6.707133009947746
 20
116.3798325107175
 10
-7.328059045700385
 20
116.7522428414142
 10
-7.893214127312215
 20
117.1561246945097
 10
-8.398297083362202
 20
117.5884042852313
 10
-8.839463927577372
 20
118.0457917048763
 10
-9.213357113889433
 20
118.5248059590029
 10
-9.517131089387664
 20
119.0218014599007
 10
-9.748473950694788
 20
119.5329957717136
 10
-9.813328599837874
 20
119.718696219507
  0
LINE
  5
116
330
1F
100
AcDbEntity
  8
VER
100
AcDbLine
 10
9.745823124887803
 20
119.5259685181775
 30
0.0
 11
9.832736792725273
 21
122.636803538872
 31
0.0
  0
LINE
  5
117
330
1F
100
AcDbEntity
  8
VER
100
AcDbLine
 10
-9.890013985556157
 20
122.8448174525023
 30
0.0
 11
-9.81332859983787
 21
119.718696219507
 31
0.0
  0
LINE
  5
118
330
1F
100
AcDbEntity
  8
VER
100
AcDbLine
 10
-5.917723263273881
 20
127.3885733500071
 30
0.0
 11
-5.776361010617683
 21
130.3269716670226
 31
0.0
  0
LWPOLYLINE
  5
119
330
1F
100
AcDbEntity
  8
VER
100
AcDbPolyline
 90
       16
 70
     0
 43
0.0
 10
-5.91772326327387
 20
127.3885733500072
 10
-5.192637608331691
 20
127.7797898082151
 10
-4.428032845789796
 20
128.1185514977896
 10
-3.629728079572106
 20
128.402280237723
 10
-2.803798890979134
 20
128.6288166809844
 10
-1.956531099845754
 20
128.7964367484541
 10
-1.094372925656769
 20
128.903864750207
 10
-0.2238859127030964
 20
128.9502830942828
 10
0.6483050072322568
 20
128.935338509055
 10
1.515561934605306
 20
128.8591447318409
 10
2.371284520534692
 20
128.7222816432922
 10
3.208960199442069
 20
128.5257908541531
 10
4.022213753608547
 20
128.2711677779731
 10
4.804855832430997
 20
127.9603502501077
 10
5.550930057117371
 20
127.5957037796206
 10
5.91772326327387
 20
127.3885733500072
  0
LINE
  5
11A
330
1F
100
AcDbEntity
  8
VER
100
AcDbLine
 10
5.776361010617669
 20
130.3269716670226
 30
0.0
 11
5.917723263273864
 21
127.3885733500072
 31
0.0
  0
LWPOLYLINE
  5
11B
330
1F
100
AcDbEntity
  8
VER
100
AcDbPolyline
 90
       16
 70
     0
 43
0.0
 10
-5.776361010617669
 20
130.3269716670226
 10
-5.042932772504872
 20
130.7079391120101
 10
-4.27112477098725
 20
131.0359043910697
 10
-3.466810930986767
 20
131.3083714903971
 10
-2.636112566483801
 20
131.5232667708462
 10
-1.785351793621608
 20
131.6789547495755
 10
-0.9210034155850658
 20
131.7742505470598
 10
-0.0496456454388547
 20
131.8084289047392
 10
0.8220899580460064
 20
131.7812297046742
 10
1.687568960558649
 20
131.6928599492007
 10
2.540204544299442
 20
131.5439921855169
 10
3.373507637640676
 20
131.3357593871932
 10
4.181136300879858
 20
131.0697463315595
 10
4.956943992230222
 20
130.7479775385919
 10
5.695026346715098
 20
130.3729018630945
 10
5.776361010617654
 20
130.3269716670226
  0
ELLIPSE
  5
11C
330
1F
100
AcDbEntity
  8
VER
100
AcDbEllipse
 10
0.0000000000003251
 20
115.0816286381104
 30
0.0
 11
9.999999999999648
 21
2.273736754432321E-13
 31
0.0
210
0.0
220
0.0
230
1.0
 40
0.7071067811865468
 41
5.776995118001982
 42
9.424777960769319
  0
ELLIPSE
  5
11D
330
1F
100
AcDbEntity
  8
050
100
AcDbEllipse
 10
0.0000000000025313
 20
115.0816286381015
 30
0.0
 11
9.999999999996991
 21
1.337241428700509E-11
 31
0.0
210
0.0
220
0.0
230
1.0
 40
0.7071067811861194
 41
-0.5907344288608494
 42
-0.5061901891785077
  0
ELLIPSE
  5
11E
330
1F
100
AcDbEntity
  8
VER
100
AcDbEllipse
 10
0.0000000000000302
 20
115.0816286381105
 30
0.0
 11
9.999999999999858
 21
0.0
 31
0.0
210
0.0
220
0.0
230
1.0
 40
0.7071067811865477
 41
4.712388980384684
 42
5.6924508783197
  0
LINE
  5
11F
330
1F
100
AcDbEntity
  8
050
100
AcDbLine
 10
9.999999999999996
 20
122.4757114471397
 30
0.0
 11
9.999999999999996
 21
125.1579002700189
 31
0.0
  0
LINE
  5
120
330
1F
100
AcDbEntity
  8
VER
100
AcDbLine
 10
9.999999999999998
 20
115.0816286381106
 30
0.0
 11
9.999999999999996
 21
122.4757114471397
 31
0.0
  0
LINE
  5
121
330
1F
100
AcDbEntity
  8
VER
100
AcDbLine
 10
-10.00000000000001
 20
122.7466849098048
 30
0.0
 11
-10.00000000000001
 21
115.0816286381106
 31
0.0
  0
LINE
  5
122
330
1F
100
AcDbEntity
  8
050
100
AcDbLine
 10
-10.00000000000001
 20
125.1579002700189
 30
0.0
 11
-10.00000000000001
 21
122.7466849098048
 31
0.0
  0
ELLIPSE
  5
123
330
1F
100
AcDbEntity
  8
VER
100
AcDbEllipse
 10
-0.0000000000000187
 20
115.0816286381106
 30
0.0
 11
9.999999999999968
 21
0.0
 31
0.0
210
0.0
220
0.0
230
1.0
 40
0.7071067811865469
 41
3.730923132115004
 42
4.712388980384691
  0
ELLIPSE
  5
124
330
1F
100
AcDbEntity
  8
050
100
AcDbEllipse
 10
-0.000000000001549
 20
115.0816286381134
 30
0.0
 11
9.99999999999824
 21
5.769607014372015E-12
 31
0.0
210
0.0
220
0.0
230
1.0
 40
0.7071067811867132
 41
3.600191746863761
 42
3.730923132114615
  0
ELLIPSE
  5
125
330
1F
100
AcDbEntity
  8
VER
100
AcDbEllipse
 10
-0.0000000000005222
 20
115.0816286381104
 30
0.0
 11
9.999999999999455
 21
-2.689028195083176E-13
 31
0.0
210
0.0
220
0.0
230
1.0
 40
0.7071067811865435
 41
3.141592653589799
 42
3.600191746864203
  0
ELLIPSE
  5
126
330
1F
100
AcDbEntity
  8
VER
100
AcDbEllipse
 10
0.000000000069317
 20
123.7436867076454
 30
0.0
 11
22.00000000006933
 21
0.0
 31
0.0
210
0.0
220
0.0
230
1.0
 40
0.7071067811865469
 41
3.127142547309011
 42
3.141592653589766
  0
ELLIPSE
  5
127
330
1F
100
AcDbEntity
  8
050
100
AcDbEllipse
 10
-0.0000000000001918
 20
123.7436867076459
 30
0.0
 11
21.99999999999977
 21
2.842170943040400E-14
 31
0.0
210
0.0
220
0.0
230
1.0
 40
0.7071067811865466
 41
1.727762072386795
 42
3.127142547308997
  0
ELLIPSE
  5
128
330
1F
100
AcDbEntity
  8
VER
100
AcDbEllipse
 10
-0.0000000000099254
 20
123.7436867077944
 30
0.0
 11
21.9999999999413
 21
2.881961336242966E-11
 31
0.0
210
0.0
220
0.0
230
1.0
 40
0.7071067811816911
 41
-4.578384657971553
 42
-4.555423234793745
  0
LINE
  5
129
330
1F
100
AcDbEntity
  8
VER
100
AcDbLine
 10
-17.65249111623426
 20
114.4595723882485
 30
0.0
 11
-17.70185731546178
 21
115.2137959359737
 31
0.0
  0
LINE
  5
12A
330
1F
100
AcDbEntity
  8
VER
100
AcDbLine
 10
-2.908838357916521
 20
139.870564229792
 30
0.0
 11
-2.939279776629974
 21
139.1605708674669
 31
0.0
  0
LINE
  5
12B
330
1F
100
AcDbEntity
  8
VER
100
AcDbLine
 10
-22.00000000000001
 20
124.4507934888324
 30
0.0
 11
-22.00000000000001
 21
123.7436867076458
 31
0.0
  0
ELLIPSE
  5
12C
330
1F
100
AcDbEntity
  8
VER
100
AcDbEllipse
 10
0.0000000000001812
 20
123.7436867076459
 30
0.0
 11
22.00000000000022
 21
1.421085471520200E-13
 31
0.0
210
0.0
220
0.0
230
1.0
 40
0.7071067811865481
 41
3.14159265358979
 42
3.781106553561615
  0
ELLIPSE
  5
12D
330
1F
100
AcDbEntity
  8
VER
100
AcDbEllipse
 10
-0.0000000000000036
 20
123.7436867076459
 30
0.0
 11
22.00000000000005
 21
1.136868377216160E-13
 31
0.0
210
0.0
220
0.0
230
1.0
 40
0.7071067811865466
 41
5.608794077807524
 42
6.283185307179571
  0
LINE
  5
12E
330
1F
100
AcDbEntity
  8
VER
100
AcDbLine
 10
17.23286150102465
 20
114.7805172651017
 30
0.0
 11
17.18391896265461
 21
114.0299611328491
 31
0.0
  0
LINE
  5
12F
330
1F
100
AcDbEntity
  8
VER
100
AcDbLine
 10
2.939279776629969
 20
139.1605708674667
 30
0.0
 11
2.908838357916506
 21
139.870564229792
 31
0.0
  0
LINE
  5
130
330
1F
100
AcDbEntity
  8
VER
100
AcDbLine
 10
22.0
 20
123.7436867076458
 30
0.0
 11
22.0
 21
124.4507934888324
 31
0.0
  0
ELLIPSE
  5
131
330
1F
100
AcDbEntity
  8
VER
100
AcDbEllipse
 10
0.0000000000096385
 20
123.7436867075817
 30
0.0
 11
21.9999999999374
 21
3.248601387895178E-11
 31
0.0
210
0.0
220
0.0
230
1.0
 40
0.7071067811913919
 41
1.41383058120194
 42
1.436792004379753
  0
ELLIPSE
  5
132
330
1F
100
AcDbEntity
  8
050
100
AcDbEllipse
 10
0.0000000000000568
 20
123.7436867076457
 30
0.0
 11
21.99999999999994
 21
8.526512829121202E-14
 31
0.0
210
0.0
220
0.0
230
1.0
 40
0.7071067811865488
 41
0.0000000000000027
 42
1.413830581202991
  0
LINE
  5
133
330
1F
100
AcDbEntity
  8
VER
100
AcDbLine
 10
-21.23693249820099
 20
110.6649700364715
 30
0.0
 11
-17.65249111623427
 21
114.4595723882486
 31
0.0
  0
LINE
  5
134
330
1F
100
AcDbEntity
  8
VER
100
AcDbLine
 10
-21.23693249820099
 20
109.5262430882157
 30
0.0
 11
-9.813328599837876
 21
119.718696219507
 31
0.0
  0
LINE
  5
135
330
1F
100
AcDbEntity
  8
VER
100
AcDbLine
 10
17.18391896265461
 20
114.0299611328491
 30
0.0
 11
20.58477300999471
 21
110.1437087939293
 31
0.0
  0
LINE
  5
136
330
1F
100
AcDbEntity
  8
VER
100
AcDbLine
 10
9.745823124887805
 20
119.5259685181775
 30
0.0
 11
20.5847730099947
 21
109.0869177692202
 31
0.0
  0
LINE
  5
137
330
1F
100
AcDbEntity
  8
050
100
AcDbLine
 10
-17.62595090639324
 20
115.9426020751331
 30
0.0
 11
-9.890013985556163
 21
122.8448174525023
 31
0.0
  0
LINE
  5
138
330
1F
100
AcDbEntity
  8
VER
100
AcDbLine
 10
-17.79573177112733
 20
115.7911189248253
 30
0.0
 11
-17.62595090639324
 21
115.9426020751331
 31
0.0
  0
LWPOLYLINE
  5
139
330
1F
100
AcDbEntity
  8
050
100
AcDbPolyline
 90
       16
 70
     0
 43
0.0
 10
-1.95299732338507
 20
117.7834194558625
 10
-2.800339950465328
 20
117.9095446915593
 10
-3.626370299631053
 20
118.0800712707497
 10
-4.424801781154332
 20
118.2937013831994
 10
-5.18955784935466
 20
118.5488091747592
 10
-5.914818248780698
 20
118.8434531210971
 10
-6.595063309868609
 20
119.1753908038706
 10
-7.225115956960314
 20
119.5420959768844
 10
-7.800181108975259
 20
119.940777792349
 10
-8.315882172872776
 20
120.3684020409183
 10
-8.768294352167786
 20
120.8217142438539
 10
-9.153974517001917
 20
121.2972644215742
 10
-9.469987408440726
 20
121.7914333500817
 10
-9.713927977566566
 20
122.300460105443
 10
-9.883939689353046
 20
122.8204706866912
 10
-9.890013985556163
 20
122.8448174525023
  0
LINE
  5
13A
330
1F
100
AcDbEntity
  8
VER
100
AcDbLine
 10
17.17960721941544
 20
115.5609932396094
 30
0.0
 11
17.33920576926638
 21
115.407283020537
 31
0.0
  0
LINE
  5
13B
330
1F
100
AcDbEntity
  8
050
100
AcDbLine
 10
9.832736792725271
 20
122.6368035388721
 30
0.0
 11
17.17960721941544
 21
115.5609932396094
 31
0.0
  0
LWPOLYLINE
  5
13C
330
1F
100
AcDbEntity
  8
050
100
AcDbPolyline
 90
       16
 70
     0
 43
0.0
 10
9.832736792725276
 20
122.6368035388721
 10
9.636579834256208
 20
122.1202039359066
 10
9.367082684522456
 20
121.6159600171197
 10
9.026296379560321
 20
121.1279093832042
 10
8.616814508922968
 20
120.6597663941773
 10
8.141753476897854
 20
120.2150939008579
 10
7.604728784788386
 20
119.7972761294207
 10
7.009827514765893
 20
119.4094929253916
 10
6.361577224706452
 20
119.0546955531033
 10
5.664911490741646
 20
118.7355842347913
 10
4.925132359765215
 20
118.4545876002727
 10
4.147869997654743
 20
118.2138442036065
 10
3.339039840309737
 20
118.0151862474063
 10
2.504797573612595
 20
117.8601256386717
 10
1.651492284942135
 20
117.7498424822632
 10
1.607627359219428
 20
117.7454395371524
  0
LINE
  5
13D
330
1F
100
AcDbEntity
  8
VER
100
AcDbLine
 10
-19.0460963207635
 20
109.0450075883137
 30
0.0
 11
-21.23693249820099
 21
110.6649700364715
 31
0.0
  0
LINE
  5
13E
330
1F
100
AcDbEntity
  8
VER
100
AcDbLine
 10
-21.23693249820099
 20
109.5262430882157
 30
0.0
 11
-21.23693249820099
 21
110.6649700364715
 31
0.0
  0
LINE
  5
13F
330
1F
100
AcDbEntity
  8
VER
100
AcDbLine
 10
-19.0460963207635
 20
108.160919021867
 30
0.0
 11
-21.23693249820099
 21
109.5262430882157
 31
0.0
  0
LINE
  5
140
330
1F
100
AcDbEntity
  8
VER
100
AcDbLine
 10
-13.55919959763442
 20
111.4932151601602
 30
0.0
 11
-19.0460963207635
 21
109.0450075883137
 31
0.0
  0
LINE
  5
141
330
1F
100
AcDbEntity
  8
VER
100
AcDbLine
 10
-13.65829132702122
 20
112.2554854151054
 30
0.0
 11
-13.55919959763442
 21
111.4932151601602
 31
0.0
  0
LINE
  5
142
330
1F
100
AcDbEntity
  8
VER
100
AcDbLine
 10
-19.0460963207635
 20
108.160919021867
 30
0.0
 11
-19.0460963207635
 21
109.0450075883137
 31
0.0
  0
LINE
  5
143
330
1F
100
AcDbEntity
  8
VER
100
AcDbLine
 10
-9.839891314690838
 20
111.6229654742372
 30
0.0
 11
-19.0460963207635
 21
108.160919021867
 31
0.0
  0
LINE
  5
144
330
1F
100
AcDbEntity
  8
050
100
AcDbLine
 10
-1.239849482138985
 20
114.8570607715918
 30
0.0
 11
-9.839891314690838
 21
111.6229654742372
 31
0.0
  0
LINE
  5
145
330
1F
100
AcDbEntity
  8
050
100
AcDbLine
 10
-1.239849482138984
 20
114.8570607715918
 30
0.0
 11
-1.95299732338509
 21
117.7834194558625
 31
0.0
  0
LINE
  5
146
330
1F
100
AcDbEntity
  8
VER
100
AcDbLine
 10
-13.80745272143823
 20
113.3254831804332
 30
0.0
 11
-14.03457865851364
 21
113.2400711627587
 31
0.0
  0
LINE
  5
147
330
1F
100
AcDbEntity
  8
050
100
AcDbLine
 10
-1.952997323385104
 20
117.7834194558625
 30
0.0
 11
-13.80745272143823
 21
113.3254831804332
 31
0.0
  0
LINE
  5
148
330
1F
100
AcDbEntity
  8
VER
100
AcDbLine
 10
18.31609573570913
 20
108.5793292421343
 30
0.0
 11
12.9458574346857
 21
111.1658336459983
 31
0.0
  0
LINE
  5
149
330
1F
100
AcDbEntity
  8
VER
100
AcDbLine
 10
12.9458574346857
 20
111.1658336459982
 30
0.0
 11
13.04530423874952
 21
111.9244205637102
 31
0.0
  0
LINE
  5
14A
330
1F
100
AcDbEntity
  8
050
100
AcDbLine
 10
13.23179435152256
 20
113.0268488847801
 30
0.0
 11
1.607627359219409
 21
117.7454395371524
 31
0.0
  0
LINE
  5
14B
330
1F
100
AcDbEntity
  8
VER
100
AcDbLine
 10
13.44749590164517
 20
112.9392892928725
 30
0.0
 11
13.23179435152256
 21
113.0268488847801
 31
0.0
  0
LINE
  5
14C
330
1F
100
AcDbEntity
  8
050
100
AcDbLine
 10
1.607627359219421
 20
117.7454395371524
 30
0.0
 11
0.9071836581536372
 21
114.8352281593281
 31
0.0
  0
LINE
  5
14D
330
1F
100
AcDbEntity
  8
050
100
AcDbLine
 10
9.267705193701063
 20
111.4414470141749
 30
0.0
 11
0.9071836581536422
 21
114.8352281593281
 31
0.0
  0
LINE
  5
14E
330
1F
100
AcDbEntity
  8
VER
100
AcDbLine
 10
18.31609573570913
 20
107.7684396443734
 30
0.0
 11
9.267705193701063
 21
111.4414470141749
 31
0.0
  0
LINE
  5
14F
330
1F
100
AcDbEntity
  8
VER
100
AcDbLine
 10
20.58477300999471
 20
110.1437087939293
 30
0.0
 11
18.31609573570913
 21
108.5793292421343
 31
0.0
  0
LINE
  5
150
330
1F
100
AcDbEntity
  8
VER
100
AcDbLine
 10
20.5847730099947
 20
109.0869177692202
 30
0.0
 11
20.58477300999471
 21
110.1437087939293
 31
0.0
  0
LINE
  5
151
330
1F
100
AcDbEntity
  8
VER
100
AcDbLine
 10
18.31609573570913
 20
107.7684396443734
 30
0.0
 11
18.31609573570913
 21
108.5793292421343
 31
0.0
  0
LINE
  5
152
330
1F
100
AcDbEntity
  8
VER
100
AcDbLine
 10
20.5847730099947
 20
109.0869177692202
 30
0.0
 11
18.31609573570913
 21
107.7684396443734
 31
0.0
  0
ELLIPSE
  5
153
330
1F
100
AcDbEntity
  8
VER
100
AcDbEllipse
 10
0.0000000000000107
 20
123.7436867076458
 30
0.0
 11
21.99999999999992
 21
2.842170943040401E-14
 31
0.0
210
0.0
220
0.0
230
1.0
 40
0.7071067811865481
 41
4.048318699667906
 42
5.341527037001717
  0
ELLIPSE
  5
154
330
1F
100
AcDbEntity
  8
050
100
AcDbEllipse
 10
23.21800361206889
 20
100.7499858429034
 30
0.0
 11
-1.999999999999901
 21
5.708834822063465E-14
 31
0.0
210
0.0
220
0.0
230
1.0
 40
0.7071067811865671
 41
1.96349540849361
 42
2.748893571891091
  0
ELLIPSE
  5
155
330
1F
100
AcDbEntity
  8
050
100
AcDbEllipse
 10
-23.21800361206886
 20
100.7499858429034
 30
0.0
 11
-1.99999999999995
 21
-5.659848950097714E-14
 31
0.0
210
0.0
220
0.0
230
1.0
 40
0.7071067811865708
 41
0.3926990816987006
 42
1.178097245096164
  0
LINE
  5
156
330
1F
100
AcDbEntity
  8
050
100
AcDbLine
 10
-35.00000000000001
 20
117.167593642611
 30
0.0
 11
-35.00000000000001
 21
124.4507934888324
 31
0.0
  0
LINE
  5
157
330
1F
100
AcDbEntity
  8
050
100
AcDbLine
 10
-25.06576267709139
 20
100.2087897427571
 30
0.0
 11
-35.00000000000001
 21
117.167593642611
 31
0.0
  0
LINE
  5
158
330
1F
100
AcDbEntity
  8
050
100
AcDbLine
 10
-25.06576267709139
 20
100.2087897427571
 30
0.0
 11
-25.06576267709139
 21
108.5813539467345
 31
0.0
  0
ELLIPSE
  5
159
330
1F
100
AcDbEntity
  8
VER
100
AcDbEllipse
 10
-0.0000000000001634
 20
117.1675936426111
 30
0.0
 11
28.50000000000032
 21
-3.229357171659384E-14
 31
0.0
210
0.0
220
0.0
230
1.0
 40
0.7071067811865474
 41
4.712388980384696
 42
7.18166454441414
  0
LINE
  5
15A
330
1F
100
AcDbEntity
  8
VER
100
AcDbLine
 10
28.5
 20
117.1675936426109
 30
0.0
 11
28.5
 21
123.7436867076458
 31
0.0
  0
LINE
  5
15B
330
1F
100
AcDbEntity
  8
VER
100
AcDbLine
 10
-28.50000000000001
 20
123.7436867076458
 30
0.0
 11
-28.50000000000001
 21
117.1675936426109
 31
0.0
  0
ELLIPSE
  5
15C
330
1F
100
AcDbEntity
  8
VER
100
AcDbEllipse
 10
-0.0000000000000551
 20
123.7436867076463
 30
0.0
 11
28.50000000000012
 21
3.979039320256561E-13
 31
0.0
210
0.0
220
0.0
230
1.0
 40
0.7071067811865637
 41
4.135289845345955
 42
4.471524530927869
  0
ELLIPSE
  5
15D
330
1F
100
AcDbEntity
  8
VER
100
AcDbEllipse
 10
-0.0000000000004938
 20
123.7436867076457
 30
0.0
 11
28.49999999999947
 21
2.842170943040401E-14
 31
0.0
210
0.0
220
0.0
230
1.0
 40
0.7071067811865469
 41
4.471524530927892
 42
10.41847515252556
  0
ELLIPSE
  5
15E
330
1F
100
AcDbEntity
  8
VER
100
AcDbEllipse
 10
-0.000000000000135
 20
117.1675936426109
 30
0.0
 11
28.4999999999999
 21
-8.291974163950033E-14
 31
0.0
210
0.0
220
0.0
230
1.0
 40
0.7071067811865467
 41
2.243113416355227
 42
3.141592653589795
  0
ELLIPSE
  5
15F
330
1F
100
AcDbEntity
  8
050
100
AcDbEllipse
 10
0.0000000000002096
 20
117.1675936426108
 30
0.0
 11
28.50000000000041
 21
5.684341886080801E-14
 31
0.0
210
0.0
220
0.0
230
1.0
 40
0.7071067811865445
 41
1.710455323163127
 42
2.243113416355227
  0
ELLIPSE
  5
160
330
1F
100
AcDbEntity
  8
VER
100
AcDbEllipse
 10
0.0000000000000002
 20
117.1675936426102
 30
0.0
 11
28.49999999999984
 21
0.0
 31
0.0
210
0.0
220
0.0
230
1.0
 40
0.7071067811865731
 41
1.431137330426671
 42
1.710455323163123
  0
ELLIPSE
  5
161
330
1F
100
AcDbEntity
  8
050
100
AcDbEllipse
 10
-0.0000000000001625
 20
117.1675936426109
 30
0.0
 11
28.50000000000024
 21
-8.291974163950132E-14
 31
0.0
210
0.0
220
0.0
230
1.0
 40
0.7071067811865444
 41
0.8984792372345636
 42
1.431137330426667
  0
ELLIPSE
  5
162
330
1F
100
AcDbEntity
  8
VER
100
AcDbEllipse
 10
0.0000000000000995
 20
117.1675936426111
 30
0.0
 11
28.50000000000027
 21
2.842170943040401E-14
 31
0.0
210
0.0
220
0.0
230
1.0
 40
0.7071067811865466
 41
3.141592653589801
 42
4.712388980384684
  0
LINE
  5
163
330
1F
100
AcDbEntity
  8
050
100
AcDbLine
 10
25.06576267709137
 20
100.2087897427571
 30
0.0
 11
25.06576267709137
 21
108.5813539467477
 31
0.0
  0
LINE
  5
164
330
1F
100
AcDbEntity
  8
050
100
AcDbLine
 10
34.68297466443778
 20
116.6263975424648
 30
0.0
 11
25.06576267709137
 21
100.2087897427571
 31
0.0
  0
LINE
  5
165
330
1F
100
AcDbEntity
  8
050
100
AcDbLine
 10
34.68297466443778
 20
116.6263975424648
 30
0.0
 11
34.68297466443778
 21
124.9989617464421
 31
0.0
  0
LWPOLYLINE
  5
166
330
1F
100
AcDbEntity
  8
VER
100
AcDbPolyline
 90
        5
 70
     0
 43
0.0
 10
-2.705478426484164
 20
141.8651517147511
 10
-2.729396767249399
 20
141.6957678375317
 10
-2.811356874181844
 20
141.0471142254275
 10
-2.872979891269178
 20
140.4258193426983
 10
-2.908838357916516
 20
139.8705642297921
  0
LWPOLYLINE
  5
167
330
1F
100
AcDbEntity
  8
050
100
AcDbPolyline
 90
        4
 70
     0
 43
0.0
 10
2.705478426484167
 20
141.8651517147511
 10
0.8148623170739927
 20
141.9960888564556
 10
-1.099466126616545
 20
141.985401615926
 10
-2.705478426484164
 20
141.8651517147511
  0
LWPOLYLINE
  5
168
330
1F
100
AcDbEntity
  8
VER
100
AcDbPolyline
 90
        5
 70
     0
 43
0.0
 10
2.908838357916506
 20
139.8705642297921
 10
2.883992165602542
 20
140.286375123552
 10
2.842359376526841
 20
140.7580708186154
 10
2.782397439598906
 20
141.2912486401617
 10
2.705478426484167
 20
141.8651517147511
  0
ELLIPSE
  5
169
330
1F
100
AcDbEntity
  8
VER
100
AcDbEllipse
 10
-0.0000000000023768
 20
124.450793488859
 30
0.0
 11
22.00000000000237
 21
-5.334938433311152E-11
 31
0.0
210
0.0
220
0.0
230
1.0
 40
0.707106781186563
 41
6.236376240372484
 42
6.282511401017175
  0
ELLIPSE
  5
16A
330
1F
100
AcDbEntity
  8
VER
100
AcDbEllipse
 10
-0.000000000000842
 20
124.4507934888326
 30
0.0
 11
22.00000000000092
 21
-2.492837114965216E-14
 31
0.0
210
0.0
220
0.0
230
1.0
 40
0.7071067811865461
 41
5.612364812515334
 42
6.184832356718274
  0
LWPOLYLINE
  5
16B
330
1F
100
AcDbEntity
  8
VER
100
AcDbPolyline
 90
        3
 70
     0
 43
0.0
 10
17.33920576926638
 20
115.407283020537
 10
17.25346700001406
 20
114.9958011913711
 10
17.23286150102465
 20
114.7805172651017
  0
LWPOLYLINE
  5
16C
330
1F
100
AcDbEntity
  8
VER
100
AcDbPolyline
 90
        6
 70
     0
 43
0.0
 10
13.44749590164517
 20
112.9392892928725
 10
14.17642434770007
 20
113.3159127683123
 10
15.02690180393614
 20
113.7985978018661
 10
15.83763435895252
 20
114.3079807436692
 10
16.61048436894476
 20
114.84554160817
 10
17.33920576926638
 20
115.407283020537
  0
LWPOLYLINE
  5
16D
330
1F
100
AcDbEntity
  8
VER
100
AcDbPolyline
 90
        5
 70
     0
 43
0.0
 10
13.04530423874953
 20
111.9244205637103
 10
13.07260668707575
 20
112.0898097877921
 10
13.20577550420673
 20
112.5229072161035
 10
13.42348540346149
 20
112.9071328675998
 10
13.44749590164517
 20
112.9392892928725
  0
ELLIPSE
  5
16E
330
1F
100
AcDbEntity
  8
VER
100
AcDbEllipse
 10
0.0000000000000204
 20
124.4507934888323
 30
0.0
 11
21.99999999999997
 21
-2.492837114965107E-14
 31
0.0
210
0.0
220
0.0
230
1.0
 40
0.7071067811865478
 41
4.042586156626793
 42
5.347129227297943
  0
LWPOLYLINE
  5
16F
330
1F
100
AcDbEntity
  8
VER
100
AcDbPolyline
 90
        3
 70
     0
 43
0.0
 10
-14.03457865851364
 20
113.2400711627587
 10
-13.77673010845906
 20
112.7488441673286
 10
-13.65829132702122
 20
112.2554854151055
  0
LWPOLYLINE
  5
170
330
1F
100
AcDbEntity
  8
VER
100
AcDbPolyline
 90
        5
 70
     0
 43
0.0
 10
-17.79573177112733
 20
115.7911189248253
 10
-16.96181650717507
 20
115.1091142690169
 10
-16.05841771543718
 20
114.4560092355457
 10
-15.07981235887253
 20
113.8302994027624
 10
-14.03457865851364
 20
113.2400711627587
  0
LWPOLYLINE
  5
171
330
1F
100
AcDbEntity
  8
VER
100
AcDbPolyline
 90
        3
 70
     0
 43
0.0
 10
-17.70185731546178
 20
115.2137959359737
 10
-17.7331392834607
 20
115.5013582301116
 10
-17.79573177112733
 20
115.7911189248253
  0
ELLIPSE
  5
172
330
1F
100
AcDbEntity
  8
050
100
AcDbEllipse
 10
-0.0000000000001883
 20
124.4507934888325
 30
0.0
 11
21.99999999999975
 21
0.0
 31
0.0
210
0.0
220
0.0
230
1.0
 40
0.7071067811865469
 41
1.718849402397083
 42
3.141227449189845
  0
ELLIPSE
  5
173
330
1F
100
AcDbEntity
  8
VER
100
AcDbEllipse
 10
-0.0000000000004756
 20
124.450793489076
 30
0.0
 11
21.99999999999231
 21
6.848210887255846E-11
 31
0.0
210
0.0
220
0.0
230
1.0
 40
0.7071067811758283
 41
-4.579780745205535
 42
-4.564335904784667
  0
LWPOLYLINE
  5
174
330
1F
100
AcDbEntity
  8
050
100
AcDbPolyline
 90
       35
 70
     0
 43
0.0
 10
-0.0000000000000072
 20
110.0660171779821
 10
-0.5473916145158565
 20
110.0705897449684
 10
-1.614998519216539
 20
110.1058649908027
 10
-2.678604754041557
 20
110.1758835485526
 10
-3.735460459549357
 20
110.2804120386839
 10
-4.782918300375941
 20
110.419104898587
 10
-5.818361381843927
 20
110.5915038245369
 10
-6.839212518614378
 20
110.7970389810301
 10
-7.842943700796934
 20
111.035030690325
 10
-8.827085769873849
 20
111.3046916897654
 10
-9.789238319418775
 20
111.6051300699786
 10
-10.72707981780162
 20
111.9353530343734
 10
-11.63837792562941
 20
112.2942716504059
 10
-12.52099994778148
 20
112.6807067957115
 10
-13.37292331626142
 20
113.0933965369111
 10
-14.192245943023
 20
113.531005214578
 10
-14.97719620807886
 20
113.9921345424226
 10
-15.72609308567288
 20
114.4753038230588
 10
-16.43741509403548
 20
114.9789950041629
 10
-17.10982505020856
 20
115.5016876680104
 10
-17.74214738247427
 20
116.0418660429174
 10
-18.33336972428361
 20
116.5980452665492
 10
-18.88263987728645
 20
117.1688014937319
 10
-19.38925658277516
 20
117.7528055942315
 10
-19.85265220459132
 20
118.3488595474762
 10
-20.27236516622194
 20
118.9559335717271
 10
-20.64799993805719
 20
119.5732002684773
 10
-20.97917285613677
 20
120.2000592987362
 10
-21.26544367491998
 20
120.8361420358557
 10
-21.50623653817344
 20
121.4812803261732
 10
-21.70076141396432
 20
122.1354182821327
 10
-21.84795906284705
 20
122.7984453875968
 10
-21.94650747252324
 20
123.4699428693502
 10
-21.99493551153114
 20
124.14887683578
 10
-21.99999888726671
 20
124.455268888125
  0
LWPOLYLINE
  5
175
330
1F
100
AcDbEntity
  8
050
100
AcDbPolyline
 90
       34
 70
     0
 43
0.0
 10
21.99999589681377
 20
124.4421994590886
 10
21.97585378846585
 20
123.7916504072667
 10
21.89920957179013
 20
123.104915397728
 10
21.77039490378241
 20
122.4214984214846
 10
21.59042795171654
 20
121.7444047966874
 10
21.36068008338924
 20
121.0758956443329
 10
21.08257808350411
 20
120.4174887850014
 10
20.75741661310002
 20
119.7701660611575
 10
20.38629529101789
 20
119.1346282917886
 10
19.97013972574768
 20
118.5115007735209
 10
19.50976063489476
 20
117.9014627628962
 10
19.00592060277591
 20
117.3053117731354
 10
18.45939358663387
 20
116.723983404386
 10
17.87101206994475
 20
116.1585448852696
 10
17.2417015814557
 20
115.6101749889678
 10
16.57250419343144
 20
115.0801381687527
 10
15.8645930882283
 20
114.5697574065532
 10
15.11928017161301
 20
114.0803881684002
 10
14.33801840990297
 20
113.6133946203737
 10
13.52240024251796
 20
113.1701285552476
 10
12.67416879656727
 20
112.7519184438155
 10
11.79523714176044
 20
112.3600610927981
 10
10.88756705845426
 20
111.995756769917
 10
9.953232343003577
 20
111.6601385075843
 10
8.994409824976666
 20
111.3542624695671
 10
8.013369895748705
 20
111.0790999282519
 10
7.012466830174116
 20
110.8355306582922
 10
5.99412904842692
 20
110.6243375369038
 10
4.960849416616794
 20
110.4462021654335
 10
3.915175646898595
 20
110.3017013514767
 10
2.859700828345586
 20
110.1913043147698
 10
1.797054097138262
 20
110.1153705028307
 10
0.7298914372853561
 20
110.0741479237119
 10
-0.0000000000000072
 20
110.0660171779821
  0
ELLIPSE
  5
176
330
1F
100
AcDbEntity
  8
VER
100
AcDbEllipse
 10
0.0000000000002864
 20
124.4507934890752
 30
0.0
 11
21.99999999999355
 21
-6.851236631420622E-11
 31
0.0
210
0.0
220
0.0
230
1.0
 40
0.7071067811758273
 41
1.422743251194875
 42
1.438188091615743
  0
ELLIPSE
  5
177
330
1F
100
AcDbEntity
  8
050
100
AcDbEllipse
 10
-0.000000000000222
 20
124.4507934888321
 30
0.0
 11
22.00000000000036
 21
1.421085471520200E-14
 31
0.0
210
0.0
220
0.0
230
1.0
 40
0.7071067811865474
 41
6.282511401015475
 42
7.705928558372282
  0
ELLIPSE
  5
178
330
1F
100
AcDbEntity
  8
VER
100
AcDbEllipse
 10
0.000000000000032
 20
124.4507934888321
 30
0.0
 11
22.00000000000005
 21
-4.938865767513182E-13
 31
0.0
210
0.0
220
0.0
230
1.0
 40
0.7071067811865427
 41
3.220647335112613
 42
3.777337111084984
  0
ELLIPSE
  5
179
330
1F
100
AcDbEntity
  8
VER
100
AcDbEllipse
 10
-0.0000000002426006
 20
124.4507934881141
 30
0.0
 11
21.9999999997574
 21
-1.434841638244092E-9
 31
0.0
210
0.0
220
0.0
230
1.0
 40
0.7071067811865082
 41
3.141227449235901
 42
3.147520466476698
  0
ELLIPSE
  5
17A
330
1F
100
AcDbEntity
  8
050
100
AcDbEllipse
 10
-0.0000000000000062
 20
127.2792206135785
 30
0.0
 11
-26.00000000000002
 21
3.184081677783121E-15
 31
0.0
210
0.0
220
0.0
230
1.0
 40
0.7071067811865466
 41
0.0
 42
6.283185307179586
  0
ELLIPSE
  5
17B
330
1F
100
AcDbEntity
  8
050
100
AcDbEllipse
 10
-0.0000000000000038
 20
93.94959003054217
 30
0.0
 11
-2.000000000000036
 21
2.449293598294750E-16
 31
0.0
210
0.0
220
0.0
230
1.0
 40
0.7071067811865476
 41
1.178097245096181
 42
1.963495408493612
  0
LINE
  5
17C
330
1F
100
AcDbEntity
  8
050
100
AcDbLine
 10
-23.983370476799
 20
99.44342287802696
 30
0.0
 11
-23.983370476799
 21
107.8159870820043
 31
0.0
  0
LINE
  5
17D
330
1F
100
AcDbEntity
  8
050
100
AcDbLine
 10
-0.7653668647301833
 20
92.64302706566576
 30
0.0
 11
-23.983370476799
 21
99.44342287802696
 31
0.0
  0
LINE
  5
17E
330
1F
100
AcDbEntity
  8
050
100
AcDbLine
 10
-0.7653668647301833
 20
92.64302706566576
 30
0.0
 11
-0.7653668647301838
 21
101.0155912696431
 31
0.0
  0
LWPOLYLINE
  5
17F
330
1F
100
AcDbEntity
  8
050
100
AcDbPolyline
 90
        7
 70
     0
 43
0.0
 10
0.7653668647301753
 20
101.0155912696345
 10
0.4704839823258373
 20
100.7787045268372
 10
0.1973709466317243
 20
100.6505948005759
 10
-0.0127897076209971
 20
100.6221651152324
 10
-0.2218232060727884
 20
100.6580289192028
 10
-0.5089528267660838
 20
100.804209975907
 10
-0.7653668647301838
 20
101.0155912696431
  0
LWPOLYLINE
  5
180
330
1F
100
AcDbEntity
  8
050
100
AcDbPolyline
 90
        7
 70
     0
 43
0.0
 10
25.06576267709137
 20
108.5813539467477
 10
24.92533801103221
 20
108.2171876174544
 10
24.76496550004569
 20
107.9619751046291
 10
24.62323903035531
 20
107.8304352170765
 10
24.4667249135712
 20
107.7591931537309
 10
24.22592726234768
 20
107.7506844519359
 10
23.98337047679898
 20
107.8159870820043
  0
LWPOLYLINE
  5
181
330
1F
100
AcDbEntity
  8
050
100
AcDbPolyline
 90
       19
 70
     0
 43
0.0
 10
34.68297466443778
 20
124.9989617464421
 10
34.53068135354251
 20
124.9539777303611
 10
34.36501596256173
 20
124.8576965230768
 10
34.00269213098039
 20
124.5462403850074
 10
33.50776183052142
 20
123.9896837312112
 10
32.99516737646587
 20
123.3180457121943
 10
32.46767543990772
 20
122.5615204965395
 10
31.93584617446604
 20
121.7523989300798
 10
31.15189001583414
 20
120.5014862517574
 10
30.36582763095906
 20
119.1993648370759
 10
28.78902123882591
 20
116.481297594443
 10
28.004728706531
 20
115.0684668784248
 10
27.2216474080604
 20
113.592364006562
 10
26.82714536531441
 20
112.8121800142209
 10
26.43584367077953
 20
112.0035869268795
 10
26.04415353752175
 20
111.1477008606181
 10
25.66298723590094
 20
110.2482483107908
 10
25.35385050164167
 20
109.4437912822095
 10
25.06576267709137
 20
108.5813539467477
  0
LWPOLYLINE
  5
182
330
1F
100
AcDbEntity
  8
050
100
AcDbPolyline
 90
        4
 70
     0
 43
0.0
 10
34.68297466443423
 20
126.0813539467461
 10
34.77903252464836
 20
125.7041925658091
 10
34.82543906747856
 20
125.4156003651413
 10
34.83521559920418
 20
125.2542408340548
  0
LWPOLYLINE
  5
183
330
1F
100
AcDbEntity
  8
VER
100
AcDbPolyline
 90
        4
 70
     0
 43
0.0
 10
25.06576267709139
 20
142.498961746442
 10
25.21805598798665
 20
142.453977730361
 10
25.38372137896743
 20
142.3576965230768
 10
25.47582758611018
 20
142.2894446468344
  0
LWPOLYLINE
  5
184
330
1F
100
AcDbEntity
  8
VER
100
AcDbPolyline
 90
        7
 70
     0
 43
0.0
 10
23.98337047679898
 20
143.2643286111721
 10
24.25984745398229
 20
142.9960210052961
 10
24.48575160711909
 20
142.7873206840889
 10
24.64123194955613
 20
142.6655458693979
 10
24.78034456165451
 20
142.5820472564384
 10
24.9455438204593
 20
142.5200801648303
 10
25.06576267709137
 20
142.498961746442
  0
LINE
  5
185
330
1F
100
AcDbEntity
  8
VER
100
AcDbLine
 10
3.158460212640828
 20
150.2666176765535
 30
0.0
 11
3.189476953780607
 21
150.2645503361928
 31
0.0
  0
LWPOLYLINE
  5
186
330
1F
100
AcDbEntity
  8
VER
100
AcDbPolyline
 90
        5
 70
     0
 43
0.0
 10
0.7653668647301789
 20
150.0647244235334
 10
1.424920002592347
 20
150.2263812373616
 10
2.033362595830472
 20
150.2837121344007
 10
2.674061543461668
 20
150.2889925729465
 10
3.158460212640828
 20
150.2666176765535
  0
LWPOLYLINE
  5
187
330
1F
100
AcDbEntity
  8
VER
100
AcDbPolyline
 90
        7
 70
     0
 43
0.0
 10
-0.7653668647301844
 20
150.0647244235333
 10
-0.470483982325851
 20
149.9637642504279
 10
-0.1973709466317307
 20
149.9012226774572
 10
0.0127897076209898
 20
149.8865416304559
 10
0.2218232060727788
 20
149.9050126516903
 10
0.5089528267660736
 20
149.9755296210037
 10
0.7653668647301752
 20
150.0647244235334
  0
LWPOLYLINE
  5
188
330
1F
100
AcDbEntity
  8
VER
100
AcDbPolyline
 90
        4
 70
     0
 43
0.0
 10
-23.98337047679898
 20
143.2643286111722
 10
-23.61563254210749
 20
143.5870694567719
 10
-23.21560114655893
 20
143.8907900406439
 10
-22.64836930523357
 20
144.2681439648842
  0
LWPOLYLINE
  5
189
330
1F
100
AcDbEntity
  8
VER
100
AcDbPolyline
 90
        7
 70
     0
 43
0.0
 10
-25.06576267709138
 20
142.4989617464485
 10
-24.92533801103222
 20
142.5255014825099
 10
-24.76496550004571
 20
142.5899031278015
 10
-24.62323903035536
 20
142.6782677294649
 10
-24.46672491357126
 20
142.80379559622
 10
-24.22592726234778
 20
143.0288858946208
 10
-23.98337047679899
 20
143.2643286111722
  0
LWPOLYLINE
  5
18A
330
1F
100
AcDbEntity
  8
050
100
AcDbPolyline
 90
       22
 70
     0
 43
0.0
 10
-35.00000000000002
 20
124.4507934888323
 10
-34.98224013703077
 20
124.7471511476564
 10
-34.90621668692923
 20
125.2174120617936
 10
-34.81281960741624
 20
125.618868400429
 10
-34.69705772200528
 20
126.0344182759945
 10
-34.46600605300345
 20
126.7442512687565
 10
-34.2066811553902
 20
127.4437813008226
 10
-33.82531819802087
 20
128.3708990236092
 10
-33.42703338412664
 20
129.2596423463474
 10
-33.01403712482776
 20
130.1245345213478
 10
-32.5958103291886
 20
130.9585439692812
 10
-31.68774332311543
 20
132.6716614125921
 10
-30.77350965156108
 20
134.3097875567358
 10
-29.85396013863348
 20
135.9016754722573
 10
-28.93371891530326
 20
137.4483388515406
 10
-27.91817096415398
 20
139.0879422132099
 10
-27.41053066306402
 20
139.8682373008062
 10
-26.90446016062159
 20
140.6073277861404
 10
-26.31385939062552
 20
141.3990608162481
 10
-26.02115617934859
 20
141.7508516463906
 10
-25.73315446665651
 20
142.0590398618301
 10
-25.475694304457
 20
142.2895496794394
  0
LWPOLYLINE
  5
18B
330
1F
100
AcDbEntity
  8
050
100
AcDbPolyline
 90
       24
 70
     0
 43
0.0
 10
-25.06576267709139
 20
108.5813539467345
 10
-25.21805598798666
 20
109.0563318181708
 10
-25.38372137896744
 20
109.525667635589
 10
-25.74604521054878
 20
110.4512624372756
 10
-26.24097551100775
 20
111.5845035277358
 10
-26.7535699650633
 20
112.6629724457526
 10
-27.28106190162147
 20
113.707417353937
 10
-27.81289116706314
 20
114.7140744784152
 10
-28.71514753120078
 20
116.35032058192
 10
-29.62006255419296
 20
117.9310038689687
 10
-30.52800735452134
 20
119.4711693650274
 10
-31.43615061784099
 20
120.9615852969268
 10
-32.05526897995155
 20
121.9373773731674
 10
-32.672963041057
 20
122.8623040097655
 10
-33.28320055567317
 20
123.7048670715824
 10
-33.58616785682769
 20
124.0850356186642
 10
-33.88517996441469
 20
124.4249814223688
 10
-34.15282601014759
 20
124.6883418055381
 10
-34.41147522292208
 20
124.8885003651281
 10
-34.60924410546573
 20
124.9838149333343
 10
-34.7886551235779
 20
124.9893738776157
 10
-34.9330085502486
 20
124.8504838063889
 10
-34.9955705138248
 20
124.5762792666876
 10
-35.00000000000001
 20
124.4507934888324
  0
LWPOLYLINE
  5
18C
330
1F
100
AcDbEntity
  8
050
100
AcDbPolyline
 90
        7
 70
     0
 43
0.0
 10
-23.983370476799
 20
107.8159870820043
 10
-24.25984745398229
 20
107.7464477649889
 10
-24.48575160711909
 20
107.764496792019
 10
-24.64123194955613
 20
107.8431608764115
 10
-24.78034456165453
 20
107.9809943161294
 10
-24.94554382045933
 20
108.2596594374465
 10
-25.06576267709139
 20
108.5813539467345
  0
LWPOLYLINE
  5
18D
330
1F
100
AcDbEntity
  8
050
100
AcDbPolyline
 90
       20
 70
     0
 43
0.0
 10
-0.7653668647301838
 20
101.0155912696431
 10
-1.42492000259267
 20
101.5636053665255
 10
-2.033362595830029
 20
101.9773536827575
 10
-2.674061543460376
 20
102.357946875427
 10
-3.38896528679825
 20
102.7373491726332
 10
-4.118598198040426
 20
103.0888164408814
 10
-5.611072385180478
 20
103.7287686939024
 10
-7.103877661906803
 20
104.2959221421085
 10
-8.605602264528015
 20
104.8173129912096
 10
-10.78633016621784
 20
105.5156947256221
 10
-12.97057871894206
 20
106.165486724348
 10
-15.16050064075048
 20
106.7712583358206
 10
-17.3498595760902
 20
107.3162403947715
 10
-18.60689591642042
 20
107.5881822991788
 10
-19.85926852511269
 20
107.8150695846757
 10
-21.11050384457545
 20
107.9784778233061
 10
-22.34069276572593
 20
108.0435486621432
 10
-23.19093334823237
 20
107.9957971586831
 10
-23.59951020098727
 20
107.9269120926932
 10
-23.983370476799
 20
107.8159870820043
  0
ELLIPSE
  5
18E
330
1F
100
AcDbEntity
  8
050
100
AcDbEllipse
 10
-0.0000000000000062
 20
127.2792206135785
 30
0.0
 11
-31.00000000000002
 21
3.796405077356797E-15
 31
0.0
210
0.0
220
0.0
230
1.0
 40
0.7071067811865468
 41
0.0
 42
6.283185307179586
  0
LWPOLYLINE
  5
18F
330
1F
100
AcDbEntity
  8
050
100
AcDbPolyline
 90
        4
 70
     0
 43
0.0
 10
25.48365400878738
 20
142.2833264948775
 10
24.59819599867231
 20
142.9523257708316
 10
23.60547835129319
 20
143.6474122655209
 10
22.64879105345433
 20
144.2678980323476
  0
LWPOLYLINE
  5
190
330
1F
100
AcDbEntity
  8
050
100
AcDbPolyline
 90
        7
 70
     0
 43
0.0
 10
3.191367105211554
 20
150.2644304549161
 10
2.712740909551324
 20
150.2940736253964
 10
1.355282451385357
 20
150.3518993425259
 10
-0.0041771550241744
 20
150.3711035232533
 10
-1.363678498424248
 20
150.3516605683641
 10
-2.721252675591259
 20
150.2935887186184
 10
-3.191718726882744
 20
150.2644068968719
  0
LWPOLYLINE
  5
191
330
1F
100
AcDbEntity
  8
050
100
AcDbPolyline
 90
        4
 70
     0
 43
0.0
 10
-22.64835697205827
 20
144.2681692984372
 10
-23.63758227236792
 20
143.6257789542902
 10
-24.63388110232886
 20
142.9262948347708
 10
-25.48303843085498
 20
142.2838089163496
  0
LWPOLYLINE
  5
192
330
1F
100
AcDbEntity
  8
050
100
AcDbPolyline
 90
       17
 70
     0
 43
0.0
 10
25.47582758611018
 20
142.2894446468344
 10
25.74604521054878
 20
142.0462403850074
 10
26.24097551100775
 20
141.4896837312112
 10
26.75356996506329
 20
140.8180457121943
 10
27.28106190162146
 20
140.0615204965394
 10
27.81289116706314
 20
139.2523989300797
 10
28.59684732569502
 20
138.0014862517573
 10
29.38290971057009
 20
136.6993648370758
 10
30.95971610270324
 20
133.981297594443
 10
31.74400863499813
 20
132.5684668784248
 10
32.52708993346871
 20
131.0923640065621
 10
32.92159197621469
 20
130.3121800142209
 10
33.31289367074957
 20
129.5035869268796
 10
33.70458380400735
 20
128.6477008606181
 10
34.08575010562816
 20
127.7482483107909
 10
34.39488683988746
 20
126.9437912822095
 10
34.68297466443423
 20
126.0813539467461
  0
LWPOLYLINE
  5
193
330
1F
100
AcDbEntity
  8
050
100
AcDbPolyline
 90
       15
 70
     0
 43
0.0
 10
3.189476953780607
 20
150.2645503361928
 10
3.388965286799367
 20
150.2496139530966
 10
4.118598198041347
 20
150.1736721574928
 10
5.611072385180951
 20
149.939353273179
 10
7.103877661906967
 20
149.6320416362611
 10
8.60560226452788
 20
149.273742580096
 10
10.78633016621777
 20
148.694683485544
 10
12.97057871894202
 20
148.0649723056779
 10
15.16050064075049
 20
147.3879173558933
 10
17.34985957609026
 20
146.6504026434248
 10
18.60689591642047
 20
146.1859897080625
 10
19.85926852511271
 20
145.6792541045321
 10
21.11050384457546
 20
145.1097056627414
 10
22.34069276572592
 20
144.4541485158497
 10
22.64870121186692
 20
144.2679371099904
  0
LWPOLYLINE
  5
194
330
1F
100
AcDbEntity
  8
VER
100
AcDbPolyline
 90
        4
 70
     0
 43
0.0
 10
22.64870121186692
 20
144.2679371099904
 10
23.19093334823236
 20
143.9083376104373
 10
23.59951020098726
 20
143.6001137653753
 10
23.98337047679898
 20
143.2643286111721
  0
LWPOLYLINE
  5
195
330
1F
100
AcDbEntity
  8
050
100
AcDbPolyline
 90
       15
 70
     0
 43
0.0
 10
-22.64836930523357
 20
144.2681439648842
 10
-22.34069276572593
 20
144.4541485158497
 10
-21.14557306908354
 20
145.0925510059143
 10
-19.90780397664245
 20
145.6584995319689
 10
-18.63406672588294
 20
146.1755165783877
 10
-17.34985957609031
 20
146.6504026434248
 10
-15.17237562772484
 20
147.3841032904542
 10
-12.98848121396809
 20
148.0596299213479
 10
-10.79728116712153
 20
148.6916391348267
 10
-8.60560226452797
 20
149.273742580096
 10
-7.10660790381927
 20
149.6314293423079
 10
-5.611072385180868
 20
149.939353273179
 10
-4.132461312669117
 20
150.1719419858393
 10
-3.398407869443481
 20
150.248838925806
 10
-3.189753580266605
 20
150.2645315808151
  0
LWPOLYLINE
  5
196
330
1F
100
AcDbEntity
  8
VER
100
AcDbPolyline
 90
        5
 70
     0
 43
0.0
 10
-3.189753580266605
 20
150.2645315808151
 10
-2.674061543461361
 20
150.2889925729465
 10
-2.038904251870583
 20
150.2839665182439
 10
-1.424920002592449
 20
150.2263812373616
 10
-0.7653668647301785
 20
150.0647244235333
  0
LWPOLYLINE
  5
197
330
1F
100
AcDbEntity
  8
VER
100
AcDbPolyline
 90
        4
 70
     0
 43
0.0
 10
-25.475694304457
 20
142.2895496794394
 10
-25.38770498311285
 20
142.3549350778722
 10
-25.22174827649225
 20
142.452285698863
 10
-25.06576267709313
 20
142.4989617464418
  0
LWPOLYLINE
  5
198
330
1F
100
AcDbEntity
  8
050
100
AcDbPolyline
 90
       20
 70
     0
 43
0.0
 10
23.98337047679898
 20
107.8159870820043
 10
23.61355215746525
 20
107.9239068266632
 10
23.2156011465589
 20
107.9926996505955
 10
22.3406927657259
 20
108.0435486621432
 10
21.1403502132175
 20
107.9821903101939
 10
19.90780397664232
 20
107.8227464213627
 10
18.63270924824824
 20
107.5935973014666
 10
17.34985957609008
 20
107.3162403947714
 10
15.17096770506002
 20
106.7749084569256
 10
12.98848121396807
 20
106.170631378804
 10
10.79625025730535
 20
105.5195532957976
 10
8.605602264528182
 20
104.8173129912096
 10
7.105202421093413
 20
104.2967242072405
 10
5.611072385179807
 20
103.7287686939021
 10
4.132461312667278
 20
103.0952070937596
 10
3.397049682736434
 20
102.7415424050094
 10
2.674061543458785
 20
102.3579468754261
 10
2.036013770521528
 20
101.9792756061928
 10
1.424920002592986
 20
101.5636053665257
 10
0.7653668647301753
 20
101.0155912696345
  0
LINE
  5
199
330
1F
100
AcDbEntity
  8
050
100
AcDbLine
 10
0.7653668647301758
 20
92.64302706566576
 30
0.0
 11
0.7653668647301753
 21
101.0155912696345
 31
0.0
  0
LINE
  5
19A
330
1F
100
AcDbEntity
  8
050
100
AcDbLine
 10
23.98337047679898
 20
99.44342287802698
 30
0.0
 11
0.7653668647301758
 21
92.64302706566576
 31
0.0
  0
LINE
  5
19B
330
1F
100
AcDbEntity
  8
050
100
AcDbLine
 10
23.98337047679898
 20
99.44342287802698
 30
0.0
 11
23.98337047679898
 21
107.8159870820043
 31
0.0
  0
LINE
  5
19E
330
1F
100
AcDbEntity
  8
MITTE
100
AcDbLine
 10
-21.0
 20
0.0
 30
0.0
 11
21.0
 21
0.0
 31
0.0
  0
LINE
  5
19F
330
1F
100
AcDbEntity
  8
MITTE
100
AcDbLine
 10
-0.0000000000000035
 20
-21.0
 30
0.0
 11
-0.0000000000000065
 21
130.9860136337009
 31
0.0
  0
ELLIPSE
  5
1A0
330
1F
100
AcDbEntity
  8
VER
100
AcDbEllipse
 10
0.0000000000000178
 20
45.10492735832752
 30
0.0
 11
-22.51974999999998
 21
2.757873975509859E-15
 31
0.0
210
0.0
220
0.0
230
1.0
 40
0.7071067811865476
 41
0.0
 42
6.283185307179586
  0
ELLIPSE
  5
1A1
330
1F
100
AcDbEntity
  8
VER
100
AcDbEllipse
 10
-0.000000000000016
 20
115.0816286381107
 30
0.0
 11
5.999999999999994
 21
-1.745678771357906E-14
 31
0.0
210
0.0
220
0.0
230
1.0
 40
0.7071067811865492
 41
0.0
 42
6.283185307179586
  0
ELLIPSE
  5
1A2
330
1F
100
AcDbEntity
  8
VER
100
AcDbEllipse
 10
0.0
 20
100.0572005281542
 30
0.0
 11
6.000000000000025
 21
0.0
 31
0.0
210
0.0
220
0.0
230
1.0
 40
0.7071067811865479
 41
0.0
 42
6.283185307179586
  0
ELLIPSE
  5
1A3
330
1F
100
AcDbEntity
  8
050
100
AcDbEllipse
 10
0.0000000000000231
 20
125.1579002700188
 30
0.0
 11
9.999999999999982
 21
4.263256414560600E-14
 31
0.0
210
0.0
220
0.0
230
1.0
 40
0.7071067811865446
 41
0.0
 42
6.283185307179586
  0
ENDSEC
  0
SECTION
  2
OBJECTS
  0
DICTIONARY
  5
C
330
0
100
AcDbDictionary
281
     1
  3
ACAD_DETAILVIEWSTYLE
350
1AB
  3
ACAD_GROUP
350
D
  3
ACAD_LAYOUT
350
1A
  3
ACAD_MATERIAL
350
43
  3
ACAD_MLEADERSTYLE
350
6B
  3
ACAD_MLINESTYLE
350
17
  3
ACAD_PLOTSETTINGS
350
19
  3
ACAD_PLOTSTYLENAME
350
E
  3
ACAD_SCALELIST
350
47
  3
ACAD_SECTIONVIEWSTYLE
350
1AC
  3
ACAD_TABLESTYLE
350
69
  3
ACAD_VISUALSTYLE
350
2A
  3
ACDB_RECOMPOSE_DATA
350
1A8
  3
AcDbVariableDictionary
350
1A4
  0
SUN
  5
6D
330
29
100
AcDbSun
 90
        1
290
     0
 63
     7
421
 16777215
 40
1.0
291
     1
 91
  2455826
 92
 54000000
292
     0
 70
     2
 71
   256
280
     1
  0
DICTIONARY
  5
1AB
102
{ACAD_REACTORS
330
C
102
}
330
C
100
AcDbDictionary
281
     1
  0
DICTIONARY
  5
D
102
{ACAD_REACTORS
330
C
102
}
330
C
100
AcDbDictionary
281
     1
  0
DICTIONARY
  5
1A
102
{ACAD_REACTORS
330
C
102
}
330
C
100
AcDbDictionary
281
     1
  3
Layout1
350
1E
  3
Layout2
350
26
  3
Model
350
22
  0
DICTIONARY
  5
43
102
{ACAD_REACTORS
330
C
102
}
330
C
100
AcDbDictionary
281
     1
  3
ByBlock
350
45
  3
ByLayer
350
44
  3
Global
350
46
  0
DICTIONARY
  5
6B
102
{ACAD_REACTORS
330
C
102
}
330
C
100
AcDbDictionary
281
     1
  3
Standard
350
6C
  0
DICTIONARY
  5
17
102
{ACAD_REACTORS
330
C
102
}
330
C
100
AcDbDictionary
281
     1
  3
Standard
350
18
  0
DICTIONARY
  5
19
102
{ACAD_REACTORS
330
C
102
}
330
C
100
AcDbDictionary
281
     1
  0
ACDBDICTIONARYWDFLT
  5
E
102
{ACAD_REACTORS
330
C
102
}
330
C
100
AcDbDictionary
281
     1
  3
Normal
350
F
100
AcDbDictionaryWithDefault
340
F
  0
DICTIONARY
  5
47
102
{ACAD_REACTORS
330
C
102
}
330
C
100
AcDbDictionary
281
     1
  3
A0
350
48
  3
A1
350
49
  3
A2
350
4A
  3
A3
350
4B
  3
A4
350
4C
  3
A5
350
4D
  3
A6
350
4E
  3
A7
350
4F
  3
A8
350
50
  3
A9
350
51
  3
B0
350
52
  3
B1
350
53
  3
B2
350
54
  3
B3
350
55
  3
B4
350
56
  3
B5
350
57
  3
B6
350
58
  3
B7
350
59
  3
B8
350
5A
  3
B9
350
5B
  3
C0
350
5C
  3
C1
350
5D
  3
C2
350
5E
  3
C3
350
5F
  3
C4
350
60
  3
C5
350
61
  3
C6
350
62
  3
C7
350
63
  3
C8
350
64
  3
C9
350
65
  3
D0
350
66
  3
D1
350
67
  3
D2
350
68
  0
DICTIONARY
  5
1AC
102
{ACAD_REACTORS
330
C
102
}
330
C
100
AcDbDictionary
281
     1
  0
DICTIONARY
  5
69
102
{ACAD_REACTORS
330
C
102
}
330
C
100
AcDbDictionary
281
     1
  3
Standard
350
6A
  0
DICTIONARY
  5
2A
102
{ACAD_REACTORS
330
C
102
}
330
C
100
AcDbDictionary
281
     1
  3
2dWireframe
350
2F
  3
Basic
350
32
  3
Brighten
350
36
  3
ColorChange
350
3A
  3
Conceptual
350
34
  3
Dim
350
35
  3
EdgeColorOff
350
3D
  3
Facepattern
350
39
  3
Flat
350
2B
  3
FlatWithEdges
350
2C
  3
Gouraud
350
2D
  3
GouraudWithEdges
350
2E
  3
Hidden
350
31
  3
JitterOff
350
3B
  3
Linepattern
350
38
  3
OverhangOff
350
3C
  3
Realistic
350
33
  3
Shaded
350
42
  3
Shaded with edges
350
41
  3
Shades of Gray
350
3E
  3
Sketchy
350
3F
  3
Thicken
350
37
  3
Wireframe
350
30
  3
X-Ray
350
40
  0
XRECORD
  5
1A8
102
{ACAD_REACTORS
330
C
102
}
330
C
100
AcDbXrecord
280
     1
 90
        1
330
6A
  0
DICTIONARY
  5
1A4
102
{ACAD_REACTORS
330
C
102
}
330
C
100
AcDbDictionary
281
     1
  3
CANNOSCALE
350
1A5
  3
CMLEADERSTYLE
350
1AA
  3
CTABLESTYLE
350
1A9
  3
SECTIONTHICKNESSINC
350
1AD
  0
LAYOUT
  5
1E
102
{ACAD_REACTORS
330
1A
102
}
330
1A
100
AcDbPlotSettings
  1

  2
none_device
  4

  6

 40
0.0
 41
0.0
 42
0.0
 43
0.0
 44
0.0
 45
0.0
 46
0.0
 47
0.0
 48
0.0
 49
0.0
140
0.0
141
0.0
142
1.0
143
1.0
 70
   688
 72
     1
 73
     0
 74
     5
  7

 75
    16
 76
     0
 77
     2
 78
   300
147
1.0
148
0.0
149
0.0
100
AcDbLayout
  1
Layout1
 70
     1
 71
     1
 10
0.0
 20
0.0
 11
420.0
 21
297.0
 12
0.0
 22
0.0
 32
0.0
 14
1.000000000000000E+20
 24
1.000000000000000E+20
 34
1.000000000000000E+20
 15
-1.000000000000000E+20
 25
-1.000000000000000E+20
 35
-1.000000000000000E+20
146
0.0
 13
0.0
 23
0.0
 33
0.0
 16
1.0
 26
0.0
 36
0.0
 17
0.0
 27
1.0
 37
0.0
 76
     0
330
1B
  0
LAYOUT
  5
26
102
{ACAD_REACTORS
330
1A
102
}
330
1A
100
AcDbPlotSettings
  1

  2
none_device
  4

  6

 40
0.0
 41
0.0
 42
0.0
 43
0.0
 44
0.0
 45
0.0
 46
0.0
 47
0.0
 48
0.0
 49
0.0
140
0.0
141
0.0
142
1.0
143
1.0
 70
   688
 72
     1
 73
     0
 74
     5
  7

 75
    16
 76
     0
 77
     2
 78
   300
147
1.0
148
0.0
149
0.0
100
AcDbLayout
  1
Layout2
 70
     1
 71
     2
 10
0.0
 20
0.0
 11
0.0
 21
0.0
 12
0.0
 22
0.0
 32
0.0
 14
0.0
 24
0.0
 34
0.0
 15
0.0
 25
0.0
 35
0.0
146
0.0
 13
0.0
 23
0.0
 33
0.0
 16
1.0
 26
0.0
 36
0.0
 17
0.0
 27
1.0
 37
0.0
 76
     0
330
23
  0
LAYOUT
  5
22
102
{ACAD_REACTORS
330
1A
102
}
330
1A
100
AcDbPlotSettings
  1

  2
none_device
  4
Letter_(8.50_x_11.00_Inches)
  6

 40
6.35
 41
6.35
 42
6.35000508
 43
6.35000508
 44
215.9
 45
279.4
 46
0.0
 47
0.0
 48
0.0
 49
0.0
140
0.0
141
0.0
142
1.0
143
1.0
 70
  1712
 72
     1
 73
     0
 74
     0
  7

 75
     0
 76
     0
 77
     2
 78
   300
147
1.0
148
0.0
149
0.0
100
AcDbLayout
  1
Model
 70
     1
 71
     0
 10
0.0
 20
0.0
 11
420.0
 21
297.0
 12
0.0
 22
0.0
 32
0.0
 14
1.000000000000000E+20
 24
1.000000000000000E+20
 34
1.000000000000000E+20
 15
-1.000000000000000E+20
 25
-1.000000000000000E+20
 35
-1.000000000000000E+20
146
0.0
 13
0.0
 23
0.0
 33
0.0
 16
1.0
 26
0.0
 36
0.0
 17
0.0
 27
1.0
 37
0.0
 76
     0
330
1F
331
29
  0
MATERIAL
  5
45
102
{ACAD_REACTORS
330
43
102
}
330
43
100
AcDbMaterial
  1
ByBlock
 72
     1
 94
      127
  0
MATERIAL
  5
44
102
{ACAD_REACTORS
330
43
102
}
330
43
100
AcDbMaterial
  1
ByLayer
 72
     1
 94
      127
  0
MATERIAL
  5
46
102
{ACAD_REACTORS
330
43
102
}
330
43
100
AcDbMaterial
  1
Global
 72
     1
 94
      127
  0
MLEADERSTYLE
  5
6C
102
{ACAD_REACTORS
330
6B
102
}
330
6B
100
AcDbMLeaderStyle
179
     2
170
     2
171
     1
172
     0
 90
        2
 40
0.0
 41
0.0
173
     1
 91
-1056964608
340
14
 92
       -2
290
     1
 42
2.0
291
     1
 43
8.0
  3
Standard
341
0
 44
4.0
300

342
11
174
     1
178
     6
175
     1
176
     0
 93
-1056964608
 45
4.0
292
     0
297
     0
 46
4.0
343
0
 94
-1056964608
 47
1.0
 49
1.0
140
1.0
293
     1
141
0.0
294
     1
177
     0
142
1.0
295
     0
296
     0
143
3.75
271
     0
272
     9
273
     9
298
     0
  0
MLINESTYLE
  5
18
102
{ACAD_REACTORS
330
17
102
}
330
17
100
AcDbMlineStyle
  2
Standard
 70
     0
  3

 62
   256
 51
90.0
 52
90.0
 71
     2
 49
0.5
 62
   256
  6
BYLAYER
 49
-0.5
 62
   256
  6
BYLAYER
  0
ACDBPLACEHOLDER
  5
F
102
{ACAD_REACTORS
330
E
102
}
330
E
  0
SCALE
  5
48
102
{ACAD_REACTORS
330
47
102
}
330
47
100
AcDbScale
 70
     0
300
1:1
140
1.0
141
1.0
290
     1
  0
SCALE
  5
49
102
{ACAD_REACTORS
330
47
102
}
330
47
100
AcDbScale
 70
     0
300
1:2
140
1.0
141
2.0
290
     0
  0
SCALE
  5
4A
102
{ACAD_REACTORS
330
47
102
}
330
47
100
AcDbScale
 70
     0
300
1:4
140
1.0
141
4.0
290
     0
  0
SCALE
  5
4B
102
{ACAD_REACTORS
330
47
102
}
330
47
100
AcDbScale
 70
     0
300
1:5
140
1.0
141
5.0
290
     0
  0
SCALE
  5
4C
102
{ACAD_REACTORS
330
47
102
}
330
47
100
AcDbScale
 70
     0
300
1:8
140
1.0
141
8.0
290
     0
  0
SCALE
  5
4D
102
{ACAD_REACTORS
330
47
102
}
330
47
100
AcDbScale
 70
     0
300
1:10
140
1.0
141
10.0
290
     0
  0
SCALE
  5
4E
102
{ACAD_REACTORS
330
47
102
}
330
47
100
AcDbScale
 70
     0
300
1:16
140
1.0
141
16.0
290
     0
  0
SCALE
  5
4F
102
{ACAD_REACTORS
330
47
102
}
330
47
100
AcDbScale
 70
     0
300
1:20
140
1.0
141
20.0
290
     0
  0
SCALE
  5
50
102
{ACAD_REACTORS
330
47
102
}
330
47
100
AcDbScale
 70
     0
300
1:30
140
1.0
141
30.0
290
     0
  0
SCALE
  5
51
102
{ACAD_REACTORS
330
47
102
}
330
47
100
AcDbScale
 70
     0
300
1:40
140
1.0
141
40.0
290
     0
  0
SCALE
  5
52
102
{ACAD_REACTORS
330
47
102
}
330
47
100
AcDbScale
 70
     0
300
1:50
140
1.0
141
50.0
290
     0
  0
SCALE
  5
53
102
{ACAD_REACTORS
330
47
102
}
330
47
100
AcDbScale
 70
     0
300
1:100
140
1.0
141
100.0
290
     0
  0
SCALE
  5
54
102
{ACAD_REACTORS
330
47
102
}
330
47
100
AcDbScale
 70
     0
300
2:1
140
2.0
141
1.0
290
     0
  0
SCALE
  5
55
102
{ACAD_REACTORS
330
47
102
}
330
47
100
AcDbScale
 70
     0
300
4:1
140
4.0
141
1.0
290
     0
  0
SCALE
  5
56
102
{ACAD_REACTORS
330
47
102
}
330
47
100
AcDbScale
 70
     0
300
8:1
140
8.0
141
1.0
290
     0
  0
SCALE
  5
57
102
{ACAD_REACTORS
330
47
102
}
330
47
100
AcDbScale
 70
     0
300
10:1
140
10.0
141
1.0
290
     0
  0
SCALE
  5
58
102
{ACAD_REACTORS
330
47
102
}
330
47
100
AcDbScale
 70
     0
300
100:1
140
100.0
141
1.0
290
     0
  0
SCALE
  5
59
102
{ACAD_REACTORS
330
47
102
}
330
47
100
AcDbScale
 70
     0
300
1/128" = 1'-0"
140
0.0078125
141
12.0
290
     0
  0
SCALE
  5
5A
102
{ACAD_REACTORS
330
47
102
}
330
47
100
AcDbScale
 70
     0
300
1/64" = 1'-0"
140
0.015625
141
12.0
290
     0
  0
SCALE
  5
5B
102
{ACAD_REACTORS
330
47
102
}
330
47
100
AcDbScale
 70
     0
300
1/32" = 1'-0"
140
0.03125
141
12.0
290
     0
  0
SCALE
  5
5C
102
{ACAD_REACTORS
330
47
102
}
330
47
100
AcDbScale
 70
     0
300
1/16" = 1'-0"
140
0.0625
141
12.0
290
     0
  0
SCALE
  5
5D
102
{ACAD_REACTORS
330
47
102
}
330
47
100
AcDbScale
 70
     0
300
3/32" = 1'-0"
140
0.09375
141
12.0
290
     0
  0
SCALE
  5
5E
102
{ACAD_REACTORS
330
47
102
}
330
47
100
AcDbScale
 70
     0
300
1/8" = 1'-0"
140
0.125
141
12.0
290
     0
  0
SCALE
  5
5F
102
{ACAD_REACTORS
330
47
102
}
330
47
100
AcDbScale
 70
     0
300
3/16" = 1'-0"
140
0.1875
141
12.0
290
     0
  0
SCALE
  5
60
102
{ACAD_REACTORS
330
47
102
}
330
47
100
AcDbScale
 70
     0
300
1/4" = 1'-0"
140
0.25
141
12.0
290
     0
  0
SCALE
  5
61
102
{ACAD_REACTORS
330
47
102
}
330
47
100
AcDbScale
 70
     0
300
3/8" = 1'-0"
140
0.375
141
12.0
290
     0
  0
SCALE
  5
62
102
{ACAD_REACTORS
330
47
102
}
330
47
100
AcDbScale
 70
     0
300
1/2" = 1'-0"
140
0.5
141
12.0
290
     0
  0
SCALE
  5
63
102
{ACAD_REACTORS
330
47
102
}
330
47
100
AcDbScale
 70
     0
300
3/4" = 1'-0"
140
0.75
141
12.0
290
     0
  0
SCALE
  5
64
102
{ACAD_REACTORS
330
47
102
}
330
47
100
AcDbScale
 70
     0
300
1" = 1'-0"
140
1.0
141
12.0
290
     0
  0
SCALE
  5
65
102
{ACAD_REACTORS
330
47
102
}
330
47
100
AcDbScale
 70
     0
300
1-1/2" = 1'-0"
140
1.5
141
12.0
290
     0
  0
SCALE
  5
66
102
{ACAD_REACTORS
330
47
102
}
330
47
100
AcDbScale
 70
     0
300
3" = 1'-0"
140
3.0
141
12.0
290
     0
  0
SCALE
  5
67
102
{ACAD_REACTORS
330
47
102
}
330
47
100
AcDbScale
 70
     0
300
6" = 1'-0"
140
6.0
141
12.0
290
     0
  0
SCALE
  5
68
102
{ACAD_REACTORS
330
47
102
}
330
47
100
AcDbScale
 70
     0
300
1'-0" = 1'-0"
140
12.0
141
12.0
290
     0
  0
TABLESTYLE
  5
6A
102
{ACAD_REACTORS
330
69
102
}
102
{ACAD_XDICTIONARY
360
1A6
102
}
330
69
100
AcDbTableStyle
  3
Standard
 70
     0
 71
     0
 40
0.06
 41
0.06
280
     0
281
     0
  7
Standard
140
4.5
170
     2
 62
     0
 63
   257
283
     0
 90
        4
 91
        0
  1

274
    -2
284
     1
 64
     0
275
    -2
285
     1
 65
     0
276
    -2
286
     1
 66
     0
277
    -2
287
     1
 67
     0
278
    -2
288
     1
 68
     0
279
    -2
289
     1
 69
     0
  7
Standard
140
6.0
170
     5
 62
     0
 63
   257
283
     0
 90
        4
 91
        0
  1

274
    -2
284
     1
 64
     0
275
    -2
285
     1
 65
     0
276
    -2
286
     1
 66
     0
277
    -2
287
     1
 67
     0
278
    -2
288
     1
 68
     0
279
    -2
289
     1
 69
     0
  7
Standard
140
4.5
170
     5
 62
     0
 63
   257
283
     0
 90
        4
 91
        0
  1

274
    -2
284
     1
 64
     0
275
    -2
285
     1
 65
     0
276
    -2
286
     1
 66
     0
277
    -2
287
     1
 67
     0
278
    -2
288
     1
 68
     0
279
    -2
289
     1
 69
     0
  0
VISUALSTYLE
  5
2F
102
{ACAD_REACTORS
330
2A
102
}
330
2A
100
AcDbVisualStyle
  2
2dWireframe
 70
     4
177
     3
291
     0
 70
    58
 90
        0
176
     1
 90
        2
176
     1
 90
        0
176
     1
 90
        0
176
     1
 40
0.6
176
     1
 40
30.0
176
     1
 62
     7
420
 16777215
176
     1
 90
        1
176
     1
 90
        4
176
     1
 62
     7
176
     1
 62
   257
176
     1
 90
        1
176
     1
 90
        1
176
     1
 40
1.0
176
     1
 90
        0
176
     1
 62
   257
176
     1
 40
1.0
176
     1
 90
        1
176
     1
 90
        6
176
     1
 90
        2
176
     1
 62
     7
176
     1
 90
        5
176
     1
 90
        0
176
     1
 90
        0
176
     1
290
     0
176
     1
 90
        1
176
     1
 40
0.0
176
     1
 90
        0
176
     1
290
     1
176
     1
290
     1
176
     1
290
     0
176
     1
290
     0
176
     1
290
     0
176
     1
290
     0
176
     1
290
     0
176
     1
290
     0
176
     1
290
     0
176
     1
 90
       50
176
     1
 40
0.0
176
     1
 40
1.0
176
     1
 90
        0
176
     1
 62
    18
420
        0
176
     1
 90
       50
176
     1
 90
        3
176
     1
 62
     5
420
      255
176
     1
290
     0
176
     1
 90
       50
176
     1
 90
       50
176
     1
 90
       50
176
     1
290
     0
176
     1
 90
       50
176
     1
 62
   256
176
     0
 40
1.0
176
     0
 90
        2
176
     1
  1
strokes_ogs.tif
176
     1
290
     0
176
     1
 40
1.0
176
     1
 40
1.0
176
     1
  0
VISUALSTYLE
  5
32
102
{ACAD_REACTORS
330
2A
102
}
330
2A
100
AcDbVisualStyle
  2
Basic
 70
     7
177
     3
291
     1
 70
    58
 90
        1
176
     1
 90
        0
176
     1
 90
        1
176
     1
 90
        0
176
     1
 40
0.6
176
     1
 40
30.0
176
     1
 62
     7
420
 16777215
176
     1
 90
        0
176
     1
 90
        4
176
     1
 62
     7
176
     1
 62
   257
176
     1
 90
        1
176
     1
 90
        1
176
     1
 40
1.0
176
     1
 90
        8
176
     1
 62
     7
176
     1
 40
1.0
176
     1
 90
        1
176
     1
 90
        6
176
     1
 90
        2
176
     1
 62
     7
176
     1
 90
        5
176
     1
 90
        0
176
     1
 90
        0
176
     1
290
     0
176
     1
 90
        1
176
     1
 40
0.0
176
     1
 90
        0
176
     1
290
     0
176
     1
290
     1
176
     1
290
     1
176
     1
290
     0
176
     1
290
     0
176
     1
290
     0
176
     1
290
     0
176
     1
290
     0
176
     1
290
     0
176
     1
 90
       50
176
     1
 40
0.0
176
     1
 40
1.0
176
     1
 90
        0
176
     1
 62
    18
420
        0
176
     1
 90
       50
176
     1
 90
        3
176
     1
 62
     5
420
      255
176
     1
290
     0
176
     1
 90
       50
176
     1
 90
       50
176
     1
 90
       50
176
     1
290
     0
176
     1
 90
       50
176
     1
 62
   256
176
     0
 40
1.0
176
     0
 90
        2
176
     1
  1
strokes_ogs.tif
176
     1
290
     0
176
     1
 40
1.0
176
     1
 40
1.0
176
     1
  0
VISUALSTYLE
  5
36
102
{ACAD_REACTORS
330
2A
102
}
330
2A
100
AcDbVisualStyle
  2
Brighten
 70
    12
177
     3
291
     1
 70
    58
 90
        2
176
     1
 90
        2
176
     1
 90
        0
176
     1
 90
        0
176
     1
 40
0.6
176
     1
 40
30.0
176
     1
 62
     7
420
 16777215
176
     1
 90
        1
176
     1
 90
        4
176
     1
 62
     7
176
     1
 62
   257
176
     1
 90
        1
176
     1
 90
        1
176
     1
 40
1.0
176
     1
 90
        8
176
     1
 62
     7
176
     1
 40
1.0
176
     1
 90
        1
176
     1
 90
        6
176
     1
 90
        2
176
     1
 62
     7
176
     1
 90
        5
176
     1
 90
        0
176
     1
 90
        0
176
     1
290
     0
176
     1
 90
        1
176
     1
 40
50.0
176
     1
 90
        0
176
     1
290
     0
176
     1
290
     1
176
     1
290
     1
176
     1
290
     0
176
     1
290
     0
176
     1
290
     0
176
     1
290
     0
176
     1
290
     0
176
     1
290
     0
176
     1
 90
       50
176
     1
 40
0.0
176
     1
 40
1.0
176
     1
 90
        0
176
     1
 62
    18
420
        0
176
     1
 90
       50
176
     1
 90
        3
176
     1
 62
     5
420
      255
176
     1
290
     0
176
     1
 90
       50
176
     1
 90
       50
176
     1
 90
       50
176
     1
290
     0
176
     1
 90
       50
176
     1
 62
   256
176
     0
 40
1.0
176
     0
 90
        2
176
     1
  1
strokes_ogs.tif
176
     1
290
     0
176
     1
 40
1.0
176
     1
 40
1.0
176
     1
  0
VISUALSTYLE
  5
3A
102
{ACAD_REACTORS
330
2A
102
}
330
2A
100
AcDbVisualStyle
  2
ColorChange
 70
    16
177
     3
291
     1
 70
    58
 90
        2
176
     1
 90
        2
176
     1
 90
        3
176
     1
 90
        0
176
     1
 40
0.6
176
     1
 40
30.0
176
     1
 62
     8
420
  8421504
176
     1
 90
        1
176
     1
 90
        4
176
     1
 62
     7
176
     1
 62
   257
176
     1
 90
        1
176
     1
 90
        1
176
     1
 40
1.0
176
     1
 90
        8
176
     1
 62
     8
420
  8421504
176
     1
 40
1.0
176
     1
 90
        1
176
     1
 90
        6
176
     1
 90
        2
176
     1
 62
     7
176
     1
 90
        5
176
     1
 90
        0
176
     1
 90
        0
176
     1
290
     0
176
     1
 90
        1
176
     1
 40
0.0
176
     1
 90
        0
176
     1
290
     0
176
     1
290
     1
176
     1
290
     1
176
     1
290
     0
176
     1
290
     0
176
     1
290
     0
176
     1
290
     0
176
     1
290
     0
176
     1
290
     0
176
     1
 90
       50
176
     1
 40
0.0
176
     1
 40
1.0
176
     1
 90
        0
176
     1
 62
    18
420
        0
176
     1
 90
       50
176
     1
 90
        3
176
     1
 62
     5
420
      255
176
     1
290
     0
176
     1
 90
       50
176
     1
 90
       50
176
     1
 90
       50
176
     1
290
     0
176
     1
 90
       50
176
     1
 62
   256
176
     0
 40
1.0
176
     0
 90
        2
176
     1
  1
strokes_ogs.tif
176
     1
290
     0
176
     1
 40
1.0
176
     1
 40
1.0
176
     1
  0
VISUALSTYLE
  5
34
102
{ACAD_REACTORS
330
2A
102
}
330
2A
100
AcDbVisualStyle
  2
Conceptual
 70
     9
177
     3
291
     0
 70
    58
 90
        3
176
     1
 90
        2
176
     1
 90
        0
176
     1
 90
        0
176
     1
 40
0.6
176
     1
 40
30.0
176
     1
 62
     7
420
 16777215
176
     1
 90
        2
176
     1
 90
        2
176
     1
 62
     7
176
     1
 62
   257
176
     1
 90
        1
176
     1
 90
        1
176
     1
 40
179.0
176
     1
 90
        8
176
     1
 62
     7
176
     1
 40
1.0
176
     1
 90
        1
176
     1
 90
        6
176
     1
 90
        2
176
     1
 62
     7
176
     1
 90
        3
176
     1
 90
        0
176
     1
 90
        0
176
     1
290
     0
176
     1
 90
        1
176
     1
 40
0.0
176
     1
 90
        0
176
     1
290
     0
176
     1
290
     1
176
     1
290
     1
176
     1
290
     0
176
     1
290
     0
176
     1
290
     0
176
     1
290
     0
176
     1
290
     0
176
     1
290
     0
176
     1
 90
       50
176
     1
 40
0.0
176
     1
 40
1.0
176
     1
 90
        0
176
     1
 62
    18
420
        0
176
     1
 90
       50
176
     1
 90
        3
176
     1
 62
     5
420
      255
176
     1
290
     0
176
     1
 90
       50
176
     1
 90
       50
176
     1
 90
       50
176
     1
290
     0
176
     1
 90
       50
176
     1
 62
   256
176
     0
 40
1.0
176
     0
 90
        2
176
     1
  1
strokes_ogs.tif
176
     1
290
     0
176
     1
 40
1.0
176
     1
 40
1.0
176
     1
  0
VISUALSTYLE
  5
35
102
{ACAD_REACTORS
330
2A
102
}
330
2A
100
AcDbVisualStyle
  2
Dim
 70
    11
177
     3
291
     1
 70
    58
 90
        2
176
     1
 90
        2
176
     1
 90
        0
176
     1
 90
        0
176
     1
 40
0.6
176
     1
 40
30.0
176
     1
 62
     7
420
 16777215
176
     1
 90
        1
176
     1
 90
        4
176
     1
 62
     7
176
     1
 62
   257
176
     1
 90
        1
176
     1
 90
        1
176
     1
 40
1.0
176
     1
 90
        8
176
     1
 62
     7
176
     1
 40
1.0
176
     1
 90
        1
176
     1
 90
        6
176
     1
 90
        2
176
     1
 62
     7
176
     1
 90
        5
176
     1
 90
        0
176
     1
 90
        0
176
     1
290
     0
176
     1
 90
        1
176
     1
 40
-50.0
176
     1
 90
        0
176
     1
290
     0
176
     1
290
     1
176
     1
290
     1
176
     1
290
     0
176
     1
290
     0
176
     1
290
     0
176
     1
290
     0
176
     1
290
     0
176
     1
290
     0
176
     1
 90
       50
176
     1
 40
0.0
176
     1
 40
1.0
176
     1
 90
        0
176
     1
 62
    18
420
        0
176
     1
 90
       50
176
     1
 90
        3
176
     1
 62
     5
420
      255
176
     1
290
     0
176
     1
 90
       50
176
     1
 90
       50
176
     1
 90
       50
176
     1
290
     0
176
     1
 90
       50
176
     1
 62
   256
176
     0
 40
1.0
176
     0
 90
        2
176
     1
  1
strokes_ogs.tif
176
     1
290
     0
176
     1
 40
1.0
176
     1
 40
1.0
176
     1
  0
VISUALSTYLE
  5
3D
102
{ACAD_REACTORS
330
2A
102
}
330
2A
100
AcDbVisualStyle
  2
EdgeColorOff
 70
    22
177
     3
291
     1
 70
    58
 90
        2
176
     0
 90
        2
176
     0
 90
        0
176
     0
 90
        0
176
     0
 40
0.6
176
     0
 40
30.0
176
     0
 62
     7
420
 16777215
176
     0
 90
        1
176
     0
 90
        4
176
     0
 62
     7
176
     0
 62
   257
176
     0
 90
        1
176
     0
 90
        1
176
     0
 40
1.0
176
     0
 90
        8
176
     2
 62
     7
176
     0
 40
1.0
176
     0
 90
        1
176
     0
 90
        6
176
     0
 90
        2
176
     0
 62
     7
176
     0
 90
        5
176
     0
 90
        0
176
     0
 90
        0
176
     0
290
     0
176
     0
 90
        1
176
     0
 40
0.0
176
     0
 90
        0
176
     0
290
     0
176
     0
290
     1
176
     0
290
     1
176
     0
290
     0
176
     0
290
     0
176
     0
290
     0
176
     0
290
     0
176
     0
290
     0
176
     0
290
     0
176
     0
 90
       50
176
     0
 40
0.0
176
     0
 40
1.0
176
     0
 90
        0
176
     0
 62
    18
420
        0
176
     0
 90
       50
176
     0
 90
        3
176
     0
 62
     5
420
      255
176
     0
290
     0
176
     0
 90
       50
176
     0
 90
       50
176
     0
 90
       50
176
     0
290
     0
176
     0
 90
       50
176
     0
 62
   256
176
     0
 40
1.0
176
     0
 90
        2
176
     0
  1
strokes_ogs.tif
176
     0
290
     0
176
     0
 40
1.0
176
     0
 40
1.0
176
     0
  0
VISUALSTYLE
  5
39
102
{ACAD_REACTORS
330
2A
102
}
330
2A
100
AcDbVisualStyle
  2
Facepattern
 70
    15
177
     3
291
     1
 70
    58
 90
        2
176
     1
 90
        2
176
     1
 90
        0
176
     1
 90
        0
176
     1
 40
0.6
176
     1
 40
30.0
176
     1
 62
     7
420
 16777215
176
     1
 90
        1
176
     1
 90
        4
176
     1
 62
     7
176
     1
 62
   257
176
     1
 90
        1
176
     1
 90
        1
176
     1
 40
1.0
176
     1
 90
        8
176
     1
 62
     7
176
     1
 40
1.0
176
     1
 90
        1
176
     1
 90
        6
176
     1
 90
        2
176
     1
 62
     7
176
     1
 90
        5
176
     1
 90
        0
176
     1
 90
        0
176
     1
290
     0
176
     1
 90
        1
176
     1
 40
0.0
176
     1
 90
        0
176
     1
290
     0
176
     1
290
     1
176
     1
290
     1
176
     1
290
     0
176
     1
290
     0
176
     1
290
     0
176
     1
290
     0
176
     1
290
     0
176
     1
290
     0
176
     1
 90
       50
176
     1
 40
0.0
176
     1
 40
1.0
176
     1
 90
        0
176
     1
 62
    18
420
        0
176
     1
 90
       50
176
     1
 90
        3
176
     1
 62
     5
420
      255
176
     1
290
     0
176
     1
 90
       50
176
     1
 90
       50
176
     1
 90
       50
176
     1
290
     0
176
     1
 90
       50
176
     1
 62
   256
176
     0
 40
1.0
176
     0
 90
        2
176
     1
  1
strokes_ogs.tif
176
     1
290
     0
176
     1
 40
1.0
176
     1
 40
1.0
176
     1
  0
VISUALSTYLE
  5
2B
102
{ACAD_REACTORS
330
2A
102
}
330
2A
100
AcDbVisualStyle
  2
Flat
 70
     0
177
     3
291
     1
 70
    58
 90
        2
176
     1
 90
        1
176
     1
 90
        1
176
     1
 90
        2
176
     1
 40
0.6
176
     1
 40
30.0
176
     1
 62
     7
420
 16777215
176
     1
 90
        0
176
     1
 90
        0
176
     1
 62
     7
176
     1
 62
   257
176
     1
 90
        1
176
     1
 90
        1
176
     1
 40
1.0
176
     1
 90
        8
176
     1
 62
     7
176
     1
 40
1.0
176
     1
 90
        1
176
     1
 90
        6
176
     1
 90
        2
176
     1
 62
     7
176
     1
 90
        5
176
     1
 90
        0
176
     1
 90
        0
176
     1
290
     0
176
     1
 90
       13
176
     1
 40
0.0
176
     1
 90
        0
176
     1
290
     0
176
     1
290
     1
176
     1
290
     1
176
     1
290
     0
176
     1
290
     0
176
     1
290
     0
176
     1
290
     0
176
     1
290
     0
176
     1
290
     0
176
     1
 90
       50
176
     1
 40
0.0
176
     1
 40
1.0
176
     1
 90
        0
176
     1
 62
    18
420
        0
176
     1
 90
       50
176
     1
 90
        3
176
     1
 62
     5
420
      255
176
     1
290
     0
176
     1
 90
       50
176
     1
 90
       50
176
     1
 90
       50
176
     1
290
     0
176
     1
 90
       50
176
     1
 62
   256
176
     0
 40
1.0
176
     0
 90
        2
176
     1
  1
strokes_ogs.tif
176
     1
290
     0
176
     1
 40
1.0
176
     1
 40
1.0
176
     1
  0
VISUALSTYLE
  5
2C
102
{ACAD_REACTORS
330
2A
102
}
330
2A
100
AcDbVisualStyle
  2
FlatWithEdges
 70
     1
177
     3
291
     1
 70
    58
 90
        2
176
     1
 90
        1
176
     1
 90
        1
176
     1
 90
        2
176
     1
 40
0.6
176
     1
 40
30.0
176
     1
 62
     7
420
 16777215
176
     1
 90
        1
176
     1
 90
        0
176
     1
 62
     7
176
     1
 62
   257
176
     1
 90
        1
176
     1
 90
        1
176
     1
 40
1.0
176
     1
 90
        0
176
     1
 62
   257
176
     1
 40
1.0
176
     1
 90
        1
176
     1
 90
        6
176
     1
 90
        2
176
     1
 62
     7
176
     1
 90
        5
176
     1
 90
        0
176
     1
 90
        0
176
     1
290
     0
176
     1
 90
       13
176
     1
 40
0.0
176
     1
 90
        0
176
     1
290
     0
176
     1
290
     1
176
     1
290
     1
176
     1
290
     0
176
     1
290
     0
176
     1
290
     0
176
     1
290
     0
176
     1
290
     0
176
     1
290
     0
176
     1
 90
       50
176
     1
 40
0.0
176
     1
 40
1.0
176
     1
 90
        0
176
     1
 62
    18
420
        0
176
     1
 90
       50
176
     1
 90
        3
176
     1
 62
     5
420
      255
176
     1
290
     0
176
     1
 90
       50
176
     1
 90
       50
176
     1
 90
       50
176
     1
290
     0
176
     1
 90
       50
176
     1
 62
   256
176
     0
 40
1.0
176
     0
 90
        2
176
     1
  1
strokes_ogs.tif
176
     1
290
     0
176
     1
 40
1.0
176
     1
 40
1.0
176
     1
  0
VISUALSTYLE
  5
2D
102
{ACAD_REACTORS
330
2A
102
}
330
2A
100
AcDbVisualStyle
  2
Gouraud
 70
     2
177
     3
291
     1
 70
    58
 90
        2
176
     1
 90
        2
176
     1
 90
        1
176
     1
 90
        2
176
     1
 40
0.6
176
     1
 40
30.0
176
     1
 62
     7
420
 16777215
176
     1
 90
        0
176
     1
 90
        0
176
     1
 62
     7
176
     1
 62
   257
176
     1
 90
        1
176
     1
 90
        1
176
     1
 40
1.0
176
     1
 90
        0
176
     1
 62
     7
176
     1
 40
1.0
176
     1
 90
        1
176
     1
 90
        6
176
     1
 90
        2
176
     1
 62
     7
176
     1
 90
        5
176
     1
 90
        0
176
     1
 90
        0
176
     1
290
     0
176
     1
 90
       13
176
     1
 40
0.0
176
     1
 90
        0
176
     1
290
     0
176
     1
290
     1
176
     1
290
     1
176
     1
290
     0
176
     1
290
     0
176
     1
290
     0
176
     1
290
     0
176
     1
290
     0
176
     1
290
     0
176
     1
 90
       50
176
     1
 40
0.0
176
     1
 40
1.0
176
     1
 90
        0
176
     1
 62
    18
420
        0
176
     1
 90
       50
176
     1
 90
        3
176
     1
 62
     5
420
      255
176
     1
290
     0
176
     1
 90
       50
176
     1
 90
       50
176
     1
 90
       50
176
     1
290
     0
176
     1
 90
       50
176
     1
 62
   256
176
     0
 40
1.0
176
     0
 90
        2
176
     1
  1
strokes_ogs.tif
176
     1
290
     0
176
     1
 40
1.0
176
     1
 40
1.0
176
     1
  0
VISUALSTYLE
  5
2E
102
{ACAD_REACTORS
330
2A
102
}
330
2A
100
AcDbVisualStyle
  2
GouraudWithEdges
 70
     3
177
     3
291
     1
 70
    58
 90
        2
176
     1
 90
        2
176
     1
 90
        1
176
     1
 90
        2
176
     1
 40
0.6
176
     1
 40
30.0
176
     1
 62
     7
420
 16777215
176
     1
 90
        1
176
     1
 90
        0
176
     1
 62
     7
176
     1
 62
   257
176
     1
 90
        1
176
     1
 90
        1
176
     1
 40
1.0
176
     1
 90
        0
176
     1
 62
   257
176
     1
 40
1.0
176
     1
 90
        1
176
     1
 90
        6
176
     1
 90
        2
176
     1
 62
     7
176
     1
 90
        5
176
     1
 90
        0
176
     1
 90
        0
176
     1
290
     0
176
     1
 90
       13
176
     1
 40
0.0
176
     1
 90
        0
176
     1
290
     0
176
     1
290
     1
176
     1
290
     1
176
     1
290
     0
176
     1
290
     0
176
     1
290
     0
176
     1
290
     0
176
     1
290
     0
176
     1
290
     0
176
     1
 90
       50
176
     1
 40
0.0
176
     1
 40
1.0
176
     1
 90
        0
176
     1
 62
    18
420
        0
176
     1
 90
       50
176
     1
 90
        3
176
     1
 62
     5
420
      255
176
     1
290
     0
176
     1
 90
       50
176
     1
 90
       50
176
     1
 90
       50
176
     1
290
     0
176
     1
 90
       50
176
     1
 62
   256
176
     0
 40
1.0
176
     0
 90
        2
176
     1
  1
strokes_ogs.tif
176
     1
290
     0
176
     1
 40
1.0
176
     1
 40
1.0
176
     1
  0
VISUALSTYLE
  5
31
102
{ACAD_REACTORS
330
2A
102
}
330
2A
100
AcDbVisualStyle
  2
Hidden
 70
     6
177
     3
291
     0
 70
    58
 90
        1
176
     1
 90
        2
176
     1
 90
        2
176
     1
 90
        0
176
     1
 40
0.6
176
     1
 40
30.0
176
     1
 62
     7
420
 16777215
176
     1
 90
        2
176
     1
 90
        2
176
     1
 62
     7
176
     1
 62
   257
176
     1
 90
        2
176
     1
 90
        1
176
     1
 40
40.0
176
     1
 90
        0
176
     1
 62
   257
176
     1
 40
1.0
176
     1
 90
        1
176
     1
 90
        6
176
     1
 90
        2
176
     1
 62
     7
176
     1
 90
        3
176
     1
 90
        0
176
     1
 90
        0
176
     1
290
     0
176
     1
 90
        1
176
     1
 40
0.0
176
     1
 90
        0
176
     1
290
     0
176
     1
290
     1
176
     1
290
     1
176
     1
290
     0
176
     1
290
     0
176
     1
290
     0
176
     1
290
     0
176
     1
290
     0
176
     1
290
     0
176
     1
 90
       50
176
     1
 40
0.0
176
     1
 40
1.0
176
     1
 90
        0
176
     1
 62
    18
420
        0
176
     1
 90
       50
176
     1
 90
        3
176
     1
 62
     5
420
      255
176
     1
290
     0
176
     1
 90
       50
176
     1
 90
       50
176
     1
 90
       50
176
     1
290
     0
176
     1
 90
       50
176
     1
 62
   256
176
     0
 40
1.0
176
     0
 90
        2
176
     1
  1
strokes_ogs.tif
176
     1
290
     0
176
     1
 40
1.0
176
     1
 40
1.0
176
     1
  0
VISUALSTYLE
  5
3B
102
{ACAD_REACTORS
330
2A
102
}
330
2A
100
AcDbVisualStyle
  2
JitterOff
 70
    20
177
     3
291
     1
 70
    58
 90
        2
176
     0
 90
        2
176
     0
 90
        0
176
     0
 90
        0
176
     0
 40
0.6
176
     0
 40
30.0
176
     0
 62
     7
420
 16777215
176
     0
 90
        1
176
     0
 90
        4
176
     0
 62
     7
176
     0
 62
   257
176
     0
 90
        1
176
     0
 90
        1
176
     0
 40
1.0
176
     0
 90
       10
176
     2
 62
     7
176
     0
 40
1.0
176
     0
 90
        1
176
     0
 90
        6
176
     0
 90
        2
176
     0
 62
     7
176
     0
 90
        5
176
     0
 90
        0
176
     0
 90
        0
176
     0
290
     0
176
     0
 90
        1
176
     0
 40
0.0
176
     0
 90
        0
176
     0
290
     0
176
     0
290
     1
176
     0
290
     1
176
     0
290
     0
176
     0
290
     0
176
     0
290
     0
176
     0
290
     0
176
     0
290
     0
176
     0
290
     0
176
     0
 90
       50
176
     0
 40
0.0
176
     0
 40
1.0
176
     0
 90
        0
176
     0
 62
    18
420
        0
176
     0
 90
       50
176
     0
 90
        3
176
     0
 62
     5
420
      255
176
     0
290
     0
176
     0
 90
       50
176
     0
 90
       50
176
     0
 90
       50
176
     0
290
     0
176
     0
 90
       50
176
     0
 62
   256
176
     0
 40
1.0
176
     0
 90
        2
176
     0
  1
strokes_ogs.tif
176
     0
290
     0
176
     0
 40
1.0
176
     0
 40
1.0
176
     0
  0
VISUALSTYLE
  5
38
102
{ACAD_REACTORS
330
2A
102
}
330
2A
100
AcDbVisualStyle
  2
Linepattern
 70
    14
177
     3
291
     1
 70
    58
 90
        2
176
     1
 90
        2
176
     1
 90
        0
176
     1
 90
        0
176
     1
 40
0.6
176
     1
 40
30.0
176
     1
 62
     7
420
 16777215
176
     1
 90
        1
176
     1
 90
        4
176
     1
 62
     7
176
     1
 62
   257
176
     1
 90
        7
176
     1
 90
        7
176
     1
 40
1.0
176
     1
 90
        8
176
     1
 62
     7
176
     1
 40
1.0
176
     1
 90
        1
176
     1
 90
        6
176
     1
 90
        2
176
     1
 62
     7
176
     1
 90
        5
176
     1
 90
        0
176
     1
 90
        0
176
     1
290
     0
176
     1
 90
        1
176
     1
 40
0.0
176
     1
 90
        0
176
     1
290
     0
176
     1
290
     1
176
     1
290
     1
176
     1
290
     0
176
     1
290
     0
176
     1
290
     0
176
     1
290
     0
176
     1
290
     0
176
     1
290
     0
176
     1
 90
       50
176
     1
 40
0.0
176
     1
 40
1.0
176
     1
 90
        0
176
     1
 62
    18
420
        0
176
     1
 90
       50
176
     1
 90
        3
176
     1
 62
     5
420
      255
176
     1
290
     0
176
     1
 90
       50
176
     1
 90
       50
176
     1
 90
       50
176
     1
290
     0
176
     1
 90
       50
176
     1
 62
   256
176
     0
 40
1.0
176
     0
 90
        2
176
     1
  1
strokes_ogs.tif
176
     1
290
     0
176
     1
 40
1.0
176
     1
 40
1.0
176
     1
  0
VISUALSTYLE
  5
3C
102
{ACAD_REACTORS
330
2A
102
}
330
2A
100
AcDbVisualStyle
  2
OverhangOff
 70
    21
177
     3
291
     1
 70
    58
 90
        2
176
     0
 90
        2
176
     0
 90
        0
176
     0
 90
        0
176
     0
 40
0.6
176
     0
 40
30.0
176
     0
 62
     7
420
 16777215
176
     0
 90
        1
176
     0
 90
        4
176
     0
 62
     7
176
     0
 62
   257
176
     0
 90
        1
176
     0
 90
        1
176
     0
 40
1.0
176
     0
 90
        9
176
     2
 62
     7
176
     0
 40
1.0
176
     0
 90
        1
176
     0
 90
        6
176
     0
 90
        2
176
     0
 62
     7
176
     0
 90
        5
176
     0
 90
        0
176
     0
 90
        0
176
     0
290
     0
176
     0
 90
        1
176
     0
 40
0.0
176
     0
 90
        0
176
     0
290
     0
176
     0
290
     1
176
     0
290
     1
176
     0
290
     0
176
     0
290
     0
176
     0
290
     0
176
     0
290
     0
176
     0
290
     0
176
     0
290
     0
176
     0
 90
       50
176
     0
 40
0.0
176
     0
 40
1.0
176
     0
 90
        0
176
     0
 62
    18
420
        0
176
     0
 90
       50
176
     0
 90
        3
176
     0
 62
     5
420
      255
176
     0
290
     0
176
     0
 90
       50
176
     0
 90
       50
176
     0
 90
       50
176
     0
290
     0
176
     0
 90
       50
176
     0
 62
   256
176
     0
 40
1.0
176
     0
 90
        2
176
     0
  1
strokes_ogs.tif
176
     0
290
     0
176
     0
 40
1.0
176
     0
 40
1.0
176
     0
  0
VISUALSTYLE
  5
33
102
{ACAD_REACTORS
330
2A
102
}
330
2A
100
AcDbVisualStyle
  2
Realistic
 70
     8
177
     3
291
     0
 70
    58
 90
        2
176
     1
 90
        3
176
     1
 90
        0
176
     1
 90
        2
176
     1
 40
0.6
176
     1
 40
30.0
176
     1
 62
     7
420
 16777215
176
     1
 90
        0
176
     1
 90
        0
176
     1
 62
     7
176
     1
 62
   257
176
     1
 90
        1
176
     1
 90
        1
176
     1
 40
1.0
176
     1
 90
        8
176
     1
 62
   257
176
     1
 40
1.0
176
     1
 90
        1
176
     1
 90
        6
176
     1
 90
        2
176
     1
 62
     7
176
     1
 90
        3
176
     1
 90
        0
176
     1
 90
        0
176
     1
290
     0
176
     1
 90
       13
176
     1
 40
0.0
176
     1
 90
        0
176
     1
290
     0
176
     1
290
     1
176
     1
290
     1
176
     1
290
     0
176
     1
290
     0
176
     1
290
     0
176
     1
290
     0
176
     1
290
     0
176
     1
290
     0
176
     1
 90
       50
176
     1
 40
0.0
176
     1
 40
1.0
176
     1
 90
        0
176
     1
 62
    18
420
        0
176
     1
 90
       50
176
     1
 90
        3
176
     1
 62
     5
420
      255
176
     1
290
     0
176
     1
 90
       50
176
     1
 90
       50
176
     1
 90
       50
176
     1
290
     0
176
     1
 90
       50
176
     1
 62
   256
176
     0
 40
1.0
176
     0
 90
        2
176
     1
  1
strokes_ogs.tif
176
     1
290
     0
176
     1
 40
1.0
176
     1
 40
1.0
176
     1
  0
VISUALSTYLE
  5
42
102
{ACAD_REACTORS
330
2A
102
}
330
2A
100
AcDbVisualStyle
  2
Shaded
 70
    27
177
     3
291
     0
 70
    58
 90
        2
176
     1
 90
        2
176
     1
 90
        1
176
     1
 90
        2
176
     1
 40
0.6
176
     1
 40
30.0
176
     1
 62
     7
420
 16777215
176
     1
 90
        0
176
     1
 90
        4
176
     1
 62
     7
176
     1
 62
   257
176
     1
 90
        1
176
     1
 90
        1
176
     1
 40
1.0
176
     1
 90
        8
176
     1
 62
   257
176
     1
 40
1.0
176
     1
 90
        1
176
     1
 90
        6
176
     1
 90
        2
176
     1
 62
     8
420
  7895160
176
     1
 90
        3
176
     1
 90
        0
176
     1
 90
        0
176
     1
290
     0
176
     1
 90
        5
176
     1
 40
0.0
176
     1
 90
        0
176
     1
290
     0
176
     1
290
     1
176
     1
290
     1
176
     1
290
     0
176
     1
290
     0
176
     1
290
     0
176
     1
290
     0
176
     1
290
     0
176
     1
290
     0
176
     1
 90
       50
176
     1
 40
0.0
176
     1
 40
1.0
176
     1
 90
        0
176
     1
 62
    18
420
        0
176
     1
 90
       50
176
     1
 90
        3
176
     1
 62
     5
420
      255
176
     1
290
     0
176
     1
 90
       50
176
     1
 90
       50
176
     1
 90
       50
176
     1
290
     0
176
     1
 90
       50
176
     1
 62
   256
176
     0
 40
1.0
176
     0
 90
        2
176
     1
  1
strokes_ogs.tif
176
     1
290
     0
176
     1
 40
1.0
176
     1
 40
1.0
176
     1
  0
VISUALSTYLE
  5
41
102
{ACAD_REACTORS
330
2A
102
}
330
2A
100
AcDbVisualStyle
  2
Shaded with edges
 70
    26
177
     3
291
     0
 70
    58
 90
        2
176
     1
 90
        2
176
     1
 90
        1
176
     1
 90
        2
176
     1
 40
0.6
176
     1
 40
30.0
176
     1
 62
     7
420
 16777215
176
     1
 90
        1
176
     1
 90
       10
176
     1
 62
     7
176
     1
 62
   257
176
     1
 90
        2
176
     1
 90
        1
176
     1
 40
1.0
176
     1
 90
        8
176
     1
 62
   257
176
     1
 40
1.0
176
     1
 90
        1
176
     1
 90
        6
176
     1
 90
        2
176
     1
 62
     7
176
     1
 90
        3
176
     1
 90
        0
176
     1
 90
        0
176
     1
290
     0
176
     1
 90
        5
176
     1
 40
0.0
176
     1
 90
        0
176
     1
290
     0
176
     1
290
     1
176
     1
290
     1
176
     1
290
     0
176
     1
290
     0
176
     1
290
     0
176
     1
290
     0
176
     1
290
     0
176
     1
290
     0
176
     1
 90
       50
176
     1
 40
0.0
176
     1
 40
1.0
176
     1
 90
        0
176
     1
 62
    18
420
        0
176
     1
 90
       50
176
     1
 90
        3
176
     1
 62
     5
420
      255
176
     1
290
     0
176
     1
 90
       50
176
     1
 90
       50
176
     1
 90
       50
176
     1
290
     0
176
     1
 90
       50
176
     1
 62
   256
176
     0
 40
1.0
176
     0
 90
        2
176
     1
  1
strokes_ogs.tif
176
     1
290
     0
176
     1
 40
1.0
176
     1
 40
1.0
176
     1
  0
VISUALSTYLE
  5
3E
102
{ACAD_REACTORS
330
2A
102
}
330
2A
100
AcDbVisualStyle
  2
Shades of Gray
 70
    23
177
     3
291
     0
 70
    58
 90
        2
176
     1
 90
        2
176
     1
 90
        3
176
     1
 90
        0
176
     1
 40
0.6
176
     1
 40
30.0
176
     1
 62
     7
420
 16777215
176
     1
 90
        2
176
     1
 90
        2
176
     1
 62
     7
176
     1
 62
     7
176
     1
 90
        1
176
     1
 90
        1
176
     1
 40
40.0
176
     1
 90
        8
176
     1
 62
     7
176
     1
 40
1.0
176
     1
 90
        1
176
     1
 90
        6
176
     1
 90
        2
176
     1
 62
     7
176
     1
 90
        3
176
     1
 90
        0
176
     1
 90
        0
176
     1
290
     0
176
     1
 90
        1
176
     1
 40
0.0
176
     1
 90
        0
176
     1
290
     0
176
     1
290
     1
176
     1
290
     1
176
     1
290
     0
176
     1
290
     0
176
     1
290
     0
176
     1
290
     0
176
     1
290
     0
176
     1
290
     0
176
     1
 90
       50
176
     1
 40
0.0
176
     1
 40
1.0
176
     1
 90
        0
176
     1
 62
    18
420
        0
176
     1
 90
       50
176
     1
 90
        3
176
     1
 62
     5
420
      255
176
     1
290
     0
176
     1
 90
       50
176
     1
 90
       50
176
     1
 90
       50
176
     1
290
     0
176
     1
 90
       50
176
     1
 62
   256
176
     0
 40
1.0
176
     0
 90
        2
176
     1
  1
strokes_ogs.tif
176
     1
290
     0
176
     1
 40
1.0
176
     1
 40
1.0
176
     1
  0
VISUALSTYLE
  5
3F
102
{ACAD_REACTORS
330
2A
102
}
330
2A
100
AcDbVisualStyle
  2
Sketchy
 70
    24
177
     3
291
     0
 70
    58
 90
        1
176
     1
 90
        2
176
     1
 90
        2
176
     1
 90
        0
176
     1
 40
0.6
176
     1
 40
30.0
176
     1
 62
     7
420
 16777215
176
     1
 90
        2
176
     1
 90
        2
176
     1
 62
     7
176
     1
 62
     7
176
     1
 90
        1
176
     1
 90
        1
176
     1
 40
40.0
176
     1
 90
       11
176
     1
 62
     7
176
     1
 40
1.0
176
     1
 90
        1
176
     1
 90
        6
176
     1
 90
        2
176
     1
 62
     7
176
     1
 90
        6
176
     1
 90
        0
176
     1
 90
        0
176
     1
290
     0
176
     1
 90
        1
176
     1
 40
0.0
176
     1
 90
        0
176
     1
290
     0
176
     1
290
     1
176
     1
290
     1
176
     1
290
     0
176
     1
290
     0
176
     1
290
     0
176
     1
290
     0
176
     1
290
     0
176
     1
290
     0
176
     1
 90
       50
176
     1
 40
0.0
176
     1
 40
1.0
176
     1
 90
        0
176
     1
 62
    18
420
        0
176
     1
 90
       50
176
     1
 90
        3
176
     1
 62
     5
420
      255
176
     1
290
     0
176
     1
 90
       50
176
     1
 90
       50
176
     1
 90
       50
176
     1
290
     0
176
     1
 90
       50
176
     1
 62
   256
176
     0
 40
1.0
176
     0
 90
        2
176
     1
  1
strokes_ogs.tif
176
     1
290
     0
176
     1
 40
1.0
176
     1
 40
1.0
176
     1
  0
VISUALSTYLE
  5
37
102
{ACAD_REACTORS
330
2A
102
}
330
2A
100
AcDbVisualStyle
  2
Thicken
 70
    13
177
     3
291
     1
 70
    58
 90
        2
176
     1
 90
        2
176
     1
 90
        0
176
     1
 90
        0
176
     1
 40
0.6
176
     1
 40
30.0
176
     1
 62
     7
420
 16777215
176
     1
 90
        1
176
     1
 90
        4
176
     1
 62
     7
176
     1
 62
   257
176
     1
 90
        1
176
     1
 90
        1
176
     1
 40
1.0
176
     1
 90
       12
176
     1
 62
     7
176
     1
 40
1.0
176
     1
 90
        1
176
     1
 90
        6
176
     1
 90
        2
176
     1
 62
     7
176
     1
 90
        5
176
     1
 90
        0
176
     1
 90
        0
176
     1
290
     0
176
     1
 90
        1
176
     1
 40
0.0
176
     1
 90
        0
176
     1
290
     0
176
     1
290
     1
176
     1
290
     1
176
     1
290
     0
176
     1
290
     0
176
     1
290
     0
176
     1
290
     0
176
     1
290
     0
176
     1
290
     0
176
     1
 90
       50
176
     1
 40
0.0
176
     1
 40
1.0
176
     1
 90
        0
176
     1
 62
    18
420
        0
176
     1
 90
       50
176
     1
 90
        3
176
     1
 62
     5
420
      255
176
     1
290
     0
176
     1
 90
       50
176
     1
 90
       50
176
     1
 90
       50
176
     1
290
     0
176
     1
 90
       50
176
     1
 62
   256
176
     0
 40
1.0
176
     0
 90
        2
176
     1
  1
strokes_ogs.tif
176
     1
290
     0
176
     1
 40
1.0
176
     1
 40
1.0
176
     1
  0
VISUALSTYLE
  5
30
102
{ACAD_REACTORS
330
2A
102
}
330
2A
100
AcDbVisualStyle
  2
Wireframe
 70
     5
177
     3
291
     0
 70
    58
 90
        0
176
     1
 90
        2
176
     1
 90
        0
176
     1
 90
        0
176
     1
 40
0.6
176
     1
 40
30.0
176
     1
 62
     7
420
 16777215
176
     1
 90
        1
176
     1
 90
        4
176
     1
 62
     7
176
     1
 62
   257
176
     1
 90
        1
176
     1
 90
        1
176
     1
 40
1.0
176
     1
 90
        0
176
     1
 62
   257
176
     1
 40
1.0
176
     1
 90
        1
176
     1
 90
        6
176
     1
 90
        2
176
     1
 62
     7
176
     1
 90
        3
176
     1
 90
        0
176
     1
 90
        0
176
     1
290
     0
176
     1
 90
        1
176
     1
 40
0.0
176
     1
 90
        0
176
     1
290
     0
176
     1
290
     1
176
     1
290
     1
176
     1
290
     0
176
     1
290
     0
176
     1
290
     0
176
     1
290
     0
176
     1
290
     0
176
     1
290
     0
176
     1
 90
       50
176
     1
 40
0.0
176
     1
 40
1.0
176
     1
 90
        0
176
     1
 62
    18
420
        0
176
     1
 90
       50
176
     1
 90
        3
176
     1
 62
     5
420
      255
176
     1
290
     0
176
     1
 90
       50
176
     1
 90
       50
176
     1
 90
       50
176
     1
290
     0
176
     1
 90
       50
176
     1
 62
   256
176
     0
 40
1.0
176
     0
 90
        2
176
     1
  1
strokes_ogs.tif
176
     1
290
     0
176
     1
 40
1.0
176
     1
 40
1.0
176
     1
  0
VISUALSTYLE
  5
40
102
{ACAD_REACTORS
330
2A
102
}
330
2A
100
AcDbVisualStyle
  2
X-Ray
 70
    25
177
     3
291
     0
 70
    58
 90
        2
176
     1
 90
        2
176
     1
 90
        1
176
     1
 90
        1
176
     1
 40
0.5
176
     1
 40
30.0
176
     1
 62
     7
420
 16777215
176
     1
 90
        1
176
     1
 90
        0
176
     1
 62
     7
176
     1
 62
   257
176
     1
 90
        1
176
     1
 90
        1
176
     1
 40
1.0
176
     1
 90
        8
176
     1
 62
     7
176
     1
 40
1.0
176
     1
 90
        1
176
     1
 90
        6
176
     1
 90
        2
176
     1
 62
     7
176
     1
 90
        3
176
     1
 90
        0
176
     1
 90
        0
176
     1
290
     0
176
     1
 90
       13
176
     1
 40
0.0
176
     1
 90
        0
176
     1
290
     0
176
     1
290
     1
176
     1
290
     1
176
     1
290
     0
176
     1
290
     0
176
     1
290
     0
176
     1
290
     0
176
     1
290
     0
176
     1
290
     0
176
     1
 90
       50
176
     1
 40
0.0
176
     1
 40
1.0
176
     1
 90
        0
176
     1
 62
    18
420
        0
176
     1
 90
       50
176
     1
 90
        3
176
     1
 62
     5
420
      255
176
     1
290
     0
176
     1
 90
       50
176
     1
 90
       50
176
     1
 90
       50
176
     1
290
     0
176
     1
 90
       50
176
     1
 62
   256
176
     0
 40
1.0
176
     0
 90
        2
176
     1
  1
strokes_ogs.tif
176
     1
290
     0
176
     1
 40
1.0
176
     1
 40
1.0
176
     1
  0
DICTIONARYVAR
  5
1A5
102
{ACAD_REACTORS
330
1A4
102
}
330
1A4
100
DictionaryVariables
280
     0
  1
1:1
  0
DICTIONARYVAR
  5
1AA
102
{ACAD_REACTORS
330
1A4
102
}
330
1A4
100
DictionaryVariables
280
     0
  1
Standard
  0
DICTIONARYVAR
  5
1A9
102
{ACAD_REACTORS
330
1A4
102
}
330
1A4
100
DictionaryVariables
280
     0
  1
Standard
  0
DICTIONARYVAR
  5
1AD
102
{ACAD_REACTORS
330
1A4
102
}
330
1A4
100
DictionaryVariables
280
     0
  1
6.000000
  0
DICTIONARY
  5
1A6
330
6A
100
AcDbDictionary
280
     1
281
     1
  3
ACAD_ROUNDTRIP_2008_TABLESTYLE_CELLSTYLEMAP
360
1A7
  0
CELLSTYLEMAP
  5
1A7
102
{ACAD_REACTORS
330
1A6
102
}
330
1A6
100
AcDbCellStyleMap
 90
        3
300
CELLSTYLE
  1
TABLEFORMAT_BEGIN
 90
        5
170
     1
 91
        0
 92
    32768
 62
   257
 93
        1
300
CONTENTFORMAT
  1
CONTENTFORMAT_BEGIN
 90
        0
 91
        0
 92
        4
 93
        0
300

 40
0.0
140
1.0
 94
        5
 62
     0
340
11
144
6.0
309
CONTENTFORMAT_END
171
     1
301
MARGIN
  1
CELLMARGIN_BEGIN
 40
1.5
 40
1.5
 40
1.5
 40
1.5
 40
1.5
 40
1.5
309
CELLMARGIN_END
 94
        6
 95
        1
302
GRIDFORMAT
  1
GRIDFORMAT_BEGIN
 90
        0
 91
        1
 62
     0
 92
       -2
340
14
 93
        0
 40
0.045
309
GRIDFORMAT_END
 95
        2
302
GRIDFORMAT
  1
GRIDFORMAT_BEGIN
 90
        0
 91
        1
 62
     0
 92
       -2
340
14
 93
        0
 40
0.045
309
GRIDFORMAT_END
 95
        4
302
GRIDFORMAT
  1
GRIDFORMAT_BEGIN
 90
        0
 91
        1
 62
     0
 92
       -2
340
14
 93
        0
 40
0.045
309
GRIDFORMAT_END
 95
        8
302
GRIDFORMAT
  1
GRIDFORMAT_BEGIN
 90
        0
 91
        1
 62
     0
 92
       -2
340
14
 93
        0
 40
0.045
309
GRIDFORMAT_END
 95
       16
302
GRIDFORMAT
  1
GRIDFORMAT_BEGIN
 90
        0
 91
        1
 62
     0
 92
       -2
340
14
 93
        0
 40
0.045
309
GRIDFORMAT_END
 95
       32
302
GRIDFORMAT
  1
GRIDFORMAT_BEGIN
 90
        0
 91
        1
 62
     0
 92
       -2
340
14
 93
        0
 40
0.045
309
GRIDFORMAT_END
309
TABLEFORMAT_END
  1
CELLSTYLE_BEGIN
 90
        1
 91
        1
300
_TITLE
309
CELLSTYLE_END
300
CELLSTYLE
  1
TABLEFORMAT_BEGIN
 90
        5
170
     1
 91
        0
 92
        0
 62
   257
 93
        1
300
CONTENTFORMAT
  1
CONTENTFORMAT_BEGIN
 90
        0
 91
        0
 92
        4
 93
        0
300

 40
0.0
140
1.0
 94
        5
 62
     0
340
11
144
4.5
309
CONTENTFORMAT_END
171
     1
301
MARGIN
  1
CELLMARGIN_BEGIN
 40
1.5
 40
1.5
 40
1.5
 40
1.5
 40
1.5
 40
1.5
309
CELLMARGIN_END
 94
        6
 95
        1
302
GRIDFORMAT
  1
GRIDFORMAT_BEGIN
 90
        0
 91
        1
 62
     0
 92
       -2
340
14
 93
        0
 40
0.045
309
GRIDFORMAT_END
 95
        2
302
GRIDFORMAT
  1
GRIDFORMAT_BEGIN
 90
        0
 91
        1
 62
     0
 92
       -2
340
14
 93
        0
 40
0.045
309
GRIDFORMAT_END
 95
        4
302
GRIDFORMAT
  1
GRIDFORMAT_BEGIN
 90
        0
 91
        1
 62
     0
 92
       -2
340
14
 93
        0
 40
0.045
309
GRIDFORMAT_END
 95
        8
302
GRIDFORMAT
  1
GRIDFORMAT_BEGIN
 90
        0
 91
        1
 62
     0
 92
       -2
340
14
 93
        0
 40
0.045
309
GRIDFORMAT_END
 95
       16
302
GRIDFORMAT
  1
GRIDFORMAT_BEGIN
 90
        0
 91
        1
 62
     0
 92
       -2
340
14
 93
        0
 40
0.045
309
GRIDFORMAT_END
 95
       32
302
GRIDFORMAT
  1
GRIDFORMAT_BEGIN
 90
        0
 91
        1
 62
     0
 92
       -2
340
14
 93
        0
 40
0.045
309
GRIDFORMAT_END
309
TABLEFORMAT_END
  1
CELLSTYLE_BEGIN
 90
        2
 91
        1
300
_HEADER
309
CELLSTYLE_END
300
CELLSTYLE
  1
TABLEFORMAT_BEGIN
 90
        5
170
     1
 91
        0
 92
        0
 62
   257
 93
        1
300
CONTENTFORMAT
  1
CONTENTFORMAT_BEGIN
 90
        0
 91
        0
 92
        4
 93
        0
300

 40
0.0
140
1.0
 94
        2
 62
     0
340
11
144
4.5
309
CONTENTFORMAT_END
171
     1
301
MARGIN
  1
CELLMARGIN_BEGIN
 40
1.5
 40
1.5
 40
1.5
 40
1.5
 40
1.5
 40
1.5
309
CELLMARGIN_END
 94
        6
 95
        1
302
GRIDFORMAT
  1
GRIDFORMAT_BEGIN
 90
        0
 91
        1
 62
     0
 92
       -2
340
14
 93
        0
 40
0.045
309
GRIDFORMAT_END
 95
        2
302
GRIDFORMAT
  1
GRIDFORMAT_BEGIN
 90
        0
 91
        1
 62
     0
 92
       -2
340
14
 93
        0
 40
0.045
309
GRIDFORMAT_END
 95
        4
302
GRIDFORMAT
  1
GRIDFORMAT_BEGIN
 90
        0
 91
        1
 62
     0
 92
       -2
340
14
 93
        0
 40
0.045
309
GRIDFORMAT_END
 95
        8
302
GRIDFORMAT
  1
GRIDFORMAT_BEGIN
 90
        0
 91
        1
 62
     0
 92
       -2
340
14
 93
        0
 40
0.045
309
GRIDFORMAT_END
 95
       16
302
GRIDFORMAT
  1
GRIDFORMAT_BEGIN
 90
        0
 91
        1
 62
     0
 92
       -2
340
14
 93
        0
 40
0.045
309
GRIDFORMAT_END
 95
       32
302
GRIDFORMAT
  1
GRIDFORMAT_BEGIN
 90
        0
 91
        1
 62
     0
 92
       -2
340
14
 93
        0
 40
0.045
309
GRIDFORMAT_END
309
TABLEFORMAT_END
  1
CELLSTYLE_BEGIN
 90
        3
 91
        2
300
_DATA
309
CELLSTYLE_END
  0
ENDSEC
  0
EOF
