  0
SECTION
  2
HEADER
  9
$ACADVER
  1
AC1027
  9
$ACADMAINTVER
 70
   105
  9
$DWGCODEPAGE
  3
ANSI_1252
  9
$REQUIREDVERSIONS
160
                 0
  9
$COMMENTS
  1
File was created by Cadenas
  9
$CUSTOMPROPERTYTAG
  1
NN
  9
$CUSTOMPROPERTY
  1
Geberit Mepla angle-seat stop valve
  9
$CUSTOMPROPERTYTAG
  1
NT
  9
$CUSTOMPROPERTY
  1

  9
$CUSTOMPROPERTYTAG
  1
NB
  9
$CUSTOMPROPERTY
  1
604032
  9
$CUSTOMPROPERTYTAG
  1
NBSYN
  9
$CUSTOMPROPERTY
  1
$ARTNRTX.
  9
$CUSTOMPROPERTYTAG
  1
LINA
  9
$CUSTOMPROPERTY
  1
604032
  9
$CUSTOMPROPERTYTAG
  1
CATALOG
  9
$CUSTOMPROPERTY
  1
GEBERIT
  9
$CUSTOMPROPERTYTAG
  1
ARTNRT
  9
$CUSTOMPROPERTY
  1
604.032.00.1
  9
$CUSTOMPROPERTYTAG
  1
DD
  9
$CUSTOMPROPERTY
  1
70
  9
$CUSTOMPROPERTYTAG
  1
D
  9
$CUSTOMPROPERTY
  1
32
  9
$CUSTOMPROPERTYTAG
  1
DN
  9
$CUSTOMPROPERTY
  1
25
  9
$CUSTOMPROPERTYTAG
  1
DNV
  9
$CUSTOMPROPERTY
  1
25
  9
$CUSTOMPROPERTYTAG
  1
L
  9
$CUSTOMPROPERTY
  1
154
  9
$CUSTOMPROPERTYTAG
  1
L1
  9
$CUSTOMPROPERTY
  1
56
  9
$CUSTOMPROPERTYTAG
  1
L2
  9
$CUSTOMPROPERTY
  1
132
  9
$CUSTOMPROPERTYTAG
  1
Z
  9
$CUSTOMPROPERTY
  1
26
  9
$CUSTOMPROPERTYTAG
  1
Z1
  9
$CUSTOMPROPERTY
  1
69
  9
$CUSTOMPROPERTYTAG
  1
ARTNRTX
  9
$CUSTOMPROPERTY
  1
604032
  9
$CUSTOMPROPERTYTAG
  1
COMPANY
  9
$CUSTOMPROPERTY
  1
geberit
  9
$INSBASE
 10
0.0
 20
0.0
 30
0.0
  9
$EXTMIN
 10
1.000000000000000E+20
 20
1.000000000000000E+20
 30
1.000000000000000E+20
  9
$EXTMAX
 10
-1.000000000000000E+20
 20
-1.000000000000000E+20
 30
-1.000000000000000E+20
  9
$LIMMIN
 10
0.0
 20
0.0
  9
$LIMMAX
 10
420.0
 20
297.0
  9
$ORTHOMODE
 70
     0
  9
$REGENMODE
 70
     1
  9
$FILLMODE
 70
     1
  9
$QTEXTMODE
 70
     0
  9
$MIRRTEXT
 70
     1
  9
$LTSCALE
 40
1.0
  9
$ATTMODE
 70
     1
  9
$TEXTSIZE
 40
2.5
  9
$TRACEWID
 40
1.0
  9
$TEXTSTYLE
  7
Standard
  9
$CLAYER
  8
0
  9
$CELTYPE
  6
ByLayer
  9
$CECOLOR
 62
   256
  9
$CELTSCALE
 40
1.0
  9
$DISPSILH
 70
     0
  9
$DIMSCALE
 40
1.0
  9
$DIMASZ
 40
2.5
  9
$DIMEXO
 40
0.625
  9
$DIMDLI
 40
3.75
  9
$DIMRND
 40
0.0
  9
$DIMDLE
 40
0.0
  9
$DIMEXE
 40
1.25
  9
$DIMTP
 40
0.0
  9
$DIMTM
 40
0.0
  9
$DIMTXT
 40
2.5
  9
$DIMCEN
 40
2.5
  9
$DIMTSZ
 40
0.0
  9
$DIMTOL
 70
     0
  9
$DIMLIM
 70
     0
  9
$DIMTIH
 70
     0
  9
$DIMTOH
 70
     0
  9
$DIMSE1
 70
     0
  9
$DIMSE2
 70
     0
  9
$DIMTAD
 70
     1
  9
$DIMZIN
 70
     8
  9
$DIMBLK
  1

  9
$DIMASO
 70
     1
  9
$DIMSHO
 70
     1
  9
$DIMPOST
  1

  9
$DIMAPOST
  1

  9
$DIMALT
 70
     0
  9
$DIMALTD
 70
     3
  9
$DIMALTF
 40
0.03937007874016
  9
$DIMLFAC
 40
1.0
  9
$DIMTOFL
 70
     1
  9
$DIMTVP
 40
0.0
  9
$DIMTIX
 70
     0
  9
$DIMSOXD
 70
     0
  9
$DIMSAH
 70
     0
  9
$DIMBLK1
  1

  9
$DIMBLK2
  1

  9
$DIMSTYLE
  2
ISO-25
  9
$DIMCLRD
 70
     0
  9
$DIMCLRE
 70
     0
  9
$DIMCLRT
 70
     0
  9
$DIMTFAC
 40
1.0
  9
$DIMGAP
 40
0.625
  9
$DIMJUST
 70
     0
  9
$DIMSD1
 70
     0
  9
$DIMSD2
 70
     0
  9
$DIMTOLJ
 70
     0
  9
$DIMTZIN
 70
     8
  9
$DIMALTZ
 70
     0
  9
$DIMALTTZ
 70
     0
  9
$DIMUPT
 70
     0
  9
$DIMDEC
 70
     2
  9
$DIMTDEC
 70
     2
  9
$DIMALTU
 70
     2
  9
$DIMALTTD
 70
     3
  9
$DIMTXSTY
  7
Standard
  9
$DIMAUNIT
 70
     0
  9
$DIMADEC
 70
     0
  9
$DIMALTRND
 40
0.0
  9
$DIMAZIN
 70
     0
  9
$DIMDSEP
 70
    44
  9
$DIMATFIT
 70
     3
  9
$DIMFRAC
 70
     0
  9
$DIMLDRBLK
  1

  9
$DIMLUNIT
 70
     2
  9
$DIMLWD
 70
    -2
  9
$DIMLWE
 70
    -2
  9
$DIMTMOVE
 70
     0
  9
$DIMFXL
 40
1.0
  9
$DIMFXLON
 70
     0
  9
$DIMJOGANG
 40
0.7853981633974483
  9
$DIMTFILL
 70
     0
  9
$DIMTFILLCLR
 70
     0
  9
$DIMARCSYM
 70
     0
  9
$DIMLTYPE
  6

  9
$DIMLTEX1
  6

  9
$DIMLTEX2
  6

  9
$DIMTXTDIRECTION
 70
     0
  9
$LUNITS
 70
     2
  9
$LUPREC
 70
     4
  9
$SKETCHINC
 40
1.0
  9
$FILLETRAD
 40
10.0
  9
$AUNITS
 70
     0
  9
$AUPREC
 70
     0
  9
$MENU
  1
.
  9
$ELEVATION
 40
0.0
  9
$PELEVATION
 40
0.0
  9
$THICKNESS
 40
0.0
  9
$LIMCHECK
 70
     0
  9
$CHAMFERA
 40
0.0
  9
$CHAMFERB
 40
0.0
  9
$CHAMFERC
 40
0.0
  9
$CHAMFERD
 40
0.0
  9
$SKPOLY
 70
     0
  9
$TDCREATE
 40
2458934.709966852
  9
$TDUCREATE
 40
2458934.668300185
  9
$TDUPDATE
 40
2458934.709966956
  9
$TDUUPDATE
 40
2458934.668300289
  9
$TDINDWG
 40
0.0000000116
  9
$TDUSRTIMER
 40
0.0000000116
  9
$USRTIMER
 70
     1
  9
$ANGBASE
 50
0.0
  9
$ANGDIR
 70
     0
  9
$PDMODE
 70
     0
  9
$PDSIZE
 40
0.0
  9
$PLINEWID
 40
0.0
  9
$SPLFRAME
 70
     0
  9
$SPLINETYPE
 70
     6
  9
$SPLINESEGS
 70
     8
  9
$HANDSEED
  5
1AF
  9
$SURFTAB1
 70
     6
  9
$SURFTAB2
 70
     6
  9
$SURFTYPE
 70
     6
  9
$SURFU
 70
     6
  9
$SURFV
 70
     6
  9
$UCSBASE
  2

  9
$UCSNAME
  2

  9
$UCSORG
 10
0.0
 20
0.0
 30
0.0
  9
$UCSXDIR
 10
1.0
 20
0.0
 30
0.0
  9
$UCSYDIR
 10
0.0
 20
1.0
 30
0.0
  9
$UCSORTHOREF
  2

  9
$UCSORTHOVIEW
 70
     0
  9
$UCSORGTOP
 10
0.0
 20
0.0
 30
0.0
  9
$UCSORGBOTTOM
 10
0.0
 20
0.0
 30
0.0
  9
$UCSORGLEFT
 10
0.0
 20
0.0
 30
0.0
  9
$UCSORGRIGHT
 10
0.0
 20
0.0
 30
0.0
  9
$UCSORGFRONT
 10
0.0
 20
0.0
 30
0.0
  9
$UCSORGBACK
 10
0.0
 20
0.0
 30
0.0
  9
$PUCSBASE
  2

  9
$PUCSNAME
  2

  9
$PUCSORG
 10
0.0
 20
0.0
 30
0.0
  9
$PUCSXDIR
 10
1.0
 20
0.0
 30
0.0
  9
$PUCSYDIR
 10
0.0
 20
1.0
 30
0.0
  9
$PUCSORTHOREF
  2

  9
$PUCSORTHOVIEW
 70
     0
  9
$PUCSORGTOP
 10
0.0
 20
0.0
 30
0.0
  9
$PUCSORGBOTTOM
 10
0.0
 20
0.0
 30
0.0
  9
$PUCSORGLEFT
 10
0.0
 20
0.0
 30
0.0
  9
$PUCSORGRIGHT
 10
0.0
 20
0.0
 30
0.0
  9
$PUCSORGFRONT
 10
0.0
 20
0.0
 30
0.0
  9
$PUCSORGBACK
 10
0.0
 20
0.0
 30
0.0
  9
$USERI1
 70
     0
  9
$USERI2
 70
     0
  9
$USERI3
 70
     0
  9
$USERI4
 70
     0
  9
$USERI5
 70
     0
  9
$USERR1
 40
0.0
  9
$USERR2
 40
0.0
  9
$USERR3
 40
0.0
  9
$USERR4
 40
0.0
  9
$USERR5
 40
0.0
  9
$WORLDVIEW
 70
     1
  9
$SHADEDGE
 70
     3
  9
$SHADEDIF
 70
    70
  9
$TILEMODE
 70
     1
  9
$MAXACTVP
 70
    64
  9
$PINSBASE
 10
0.0
 20
0.0
 30
0.0
  9
$PLIMCHECK
 70
     0
  9
$PEXTMIN
 10
1.000000000000000E+20
 20
1.000000000000000E+20
 30
1.000000000000000E+20
  9
$PEXTMAX
 10
-1.000000000000000E+20
 20
-1.000000000000000E+20
 30
-1.000000000000000E+20
  9
$PLIMMIN
 10
0.0
 20
0.0
  9
$PLIMMAX
 10
420.0
 20
297.0
  9
$UNITMODE
 70
     0
  9
$VISRETAIN
 70
     1
  9
$PLINEGEN
 70
     0
  9
$PSLTSCALE
 70
     1
  9
$TREEDEPTH
 70
  3020
  9
$CMLSTYLE
  2
Standard
  9
$CMLJUST
 70
     0
  9
$CMLSCALE
 40
20.0
  9
$PROXYGRAPHICS
 70
     1
  9
$MEASUREMENT
 70
     1
  9
$CELWEIGHT
370
    -1
  9
$ENDCAPS
280
     0
  9
$JOINSTYLE
280
     0
  9
$LWDISPLAY
290
     0
  9
$INSUNITS
 70
     4
  9
$HYPERLINKBASE
  1

  9
$STYLESHEET
  1

  9
$XEDIT
290
     1
  9
$CEPSNTYPE
380
     0
  9
$PSTYLEMODE
290
     1
  9
$FINGERPRINTGUID
  2
{37854E0A-FEE6-47F8-8B54-FFE43E4F1F5A}
  9
$VERSIONGUID
  2
{FAEB1C32-E019-11D5-929B-00C0DF256EC4}
  9
$EXTNAMES
290
     1
  9
$PSVPSCALE
 40
0.0
  9
$OLESTARTUP
290
     0
  9
$SORTENTS
280
   127
  9
$INDEXCTL
280
     0
  9
$HIDETEXT
280
     1
  9
$XCLIPFRAME
280
     2
  9
$HALOGAP
280
     0
  9
$OBSCOLOR
 70
   257
  9
$OBSLTYPE
280
     0
  9
$INTERSECTIONDISPLAY
280
     0
  9
$INTERSECTIONCOLOR
 70
   257
  9
$DIMASSOC
280
     2
  9
$PROJECTNAME
  1

  9
$CAMERADISPLAY
290
     0
  9
$LENSLENGTH
 40
50.0
  9
$CAMERAHEIGHT
 40
0.0
  9
$STEPSPERSEC
 40
2.0
  9
$STEPSIZE
 40
6.0
  9
$3DDWFPREC
 40
2.0
  9
$PSOLWIDTH
 40
5.0
  9
$PSOLHEIGHT
 40
80.0
  9
$LOFTANG1
 40
1.570796326794897
  9
$LOFTANG2
 40
1.570796326794897
  9
$LOFTMAG1
 40
0.0
  9
$LOFTMAG2
 40
0.0
  9
$LOFTPARAM
 70
     7
  9
$LOFTNORMALS
280
     1
  9
$LATITUDE
 40
37.795
  9
$LONGITUDE
 40
-122.394
  9
$NORTHDIRECTION
 40
0.0
  9
$TIMEZONE
 70
 -8000
  9
$LIGHTGLYPHDISPLAY
280
     1
  9
$TILEMODELIGHTSYNCH
280
     1
  9
$CMATERIAL
347
44
  9
$SOLIDHIST
280
     0
  9
$SHOWHIST
280
     1
  9
$DWFFRAME
280
     2
  9
$DGNFRAME
280
     2
  9
$REALWORLDSCALE
290
     1
  9
$INTERFERECOLOR
 62
   256
  9
$CSHADOW
280
     0
  9
$SHADOWPLANELOCATION
 40
0.0
  0
ENDSEC
  0
SECTION
  2
CLASSES
  0
CLASS
  1
ACDBDICTIONARYWDFLT
  2
AcDbDictionaryWithDefault
  3
ObjectDBX Classes
 90
        0
 91
        4
280
     0
281
     0
  0
CLASS
  1
VISUALSTYLE
  2
AcDbVisualStyle
  3
ObjectDBX Classes
 90
     4095
 91
        4
280
     0
281
     0
  0
CLASS
  1
MATERIAL
  2
AcDbMaterial
  3
ObjectDBX Classes
 90
     1153
 91
        4
280
     0
281
     0
  0
CLASS
  1
SCALE
  2
AcDbScale
  3
ObjectDBX Classes
 90
     1153
 91
        4
280
     0
281
     0
  0
CLASS
  1
TABLESTYLE
  2
AcDbTableStyle
  3
ObjectDBX Classes
 90
     4095
 91
        4
280
     0
281
     0
  0
CLASS
  1
MLEADERSTYLE
  2
AcDbMLeaderStyle
  3
ACDB_MLEADERSTYLE_CLASS
 90
     4095
 91
        4
280
     0
281
     0
  0
CLASS
  1
SUN
  2
AcDbSun
  3
SCENEOE
 90
     1153
 91
        4
280
     0
281
     0
  0
CLASS
  1
DICTIONARYVAR
  2
AcDbDictionaryVar
  3
ObjectDBX Classes
 90
        0
 91
        4
280
     0
281
     0
  0
CLASS
  1
CELLSTYLEMAP
  2
AcDbCellStyleMap
  3
ObjectDBX Classes
 90
     1152
 91
        4
280
     0
281
     0
  0
ENDSEC
  0
SECTION
  2
TABLES
  0
TABLE
  2
VPORT
  5
8
330
0
100
AcDbSymbolTable
 70
     1
  0
VPORT
  5
29
330
8
100
AcDbSymbolTableRecord
100
AcDbViewportTableRecord
  2
*Active
 70
     0
 10
0.0
 20
0.0
 11
1.0
 21
1.0
 12
4.167607799707582
 22
58.24840004830878
 13
0.0
 23
0.0
 14
10.0
 24
10.0
 15
10.0
 25
10.0
 16
0.0
 26
0.0
 36
1.0
 17
0.0
 27
0.0
 37
0.0
 40
153.0987360985499
 41
0.5218979721685655
 42
50.0
 43
0.0
 44
0.0
 50
0.0
 51
0.0
 71
     0
 72
   100
 73
     1
 74
     3
 75
     0
 76
     0
 77
     0
 78
     0
281
     0
 65
     1
110
0.0
120
0.0
130
0.0
111
1.0
121
0.0
131
0.0
112
0.0
122
1.0
132
0.0
 79
     0
146
0.0
348
2F
 60
     3
 61
     5
292
     1
282
     1
141
0.0
142
0.0
 63
   250
361
6D
  0
ENDTAB
  0
TABLE
  2
LTYPE
  5
5
330
0
100
AcDbSymbolTable
 70
     3
  0
LTYPE
  5
14
330
5
100
AcDbSymbolTableRecord
100
AcDbLinetypeTableRecord
  2
ByBlock
 70
     0
  3

 72
    65
 73
     0
 40
0.0
  0
LTYPE
  5
15
330
5
100
AcDbSymbolTableRecord
100
AcDbLinetypeTableRecord
  2
ByLayer
 70
     0
  3

 72
    65
 73
     0
 40
0.0
  0
LTYPE
  5
16
330
5
100
AcDbSymbolTableRecord
100
AcDbLinetypeTableRecord
  2
Continuous
 70
     0
  3
Solid line
 72
    65
 73
     0
 40
0.0
  0
LTYPE
  5
81
330
5
100
AcDbSymbolTableRecord
100
AcDbLinetypeTableRecord
  2
Dashed
 70
     0
  3

 72
    65
 73
     2
 40
2.0
 49
1.0
 74
     0
 49
-1.0
 74
     0
  0
LTYPE
  5
19D
330
5
100
AcDbSymbolTableRecord
100
AcDbLinetypeTableRecord
  2
Center
 70
     0
  3

 72
    65
 73
     4
 40
1.5
 49
0.45
 74
     0
 49
-0.5
 74
     0
 49
0.05
 74
     0
 49
-0.5
 74
     0
  0
ENDTAB
  0
TABLE
  2
LAYER
  5
2
330
0
100
AcDbSymbolTable
 70
     5
  0
LAYER
  5
10
330
2
100
AcDbSymbolTableRecord
100
AcDbLayerTableRecord
  2
0
 70
     0
 62
     7
  6
Continuous
370
    -3
390
F
347
46
348
0
  0
LAYER
  5
6E
330
2
100
AcDbSymbolTableRecord
100
AcDbLayerTableRecord
  2
AM_6
 70
     0
 62
    -2
  6
Continuous
370
    35
390
F
347
46
348
0
  0
LAYER
  5
82
330
2
100
AcDbSymbolTableRecord
100
AcDbLayerTableRecord
  2
VER
 70
     0
 62
    -6
  6
Dashed
370
    25
390
F
347
46
348
0
  0
LAYER
  5
93
330
2
100
AcDbSymbolTableRecord
100
AcDbLayerTableRecord
  2
050
 70
     0
 62
     7
  6
Continuous
370
    50
390
F
347
46
348
0
  0
LAYER
  5
19E
330
2
100
AcDbSymbolTableRecord
100
AcDbLayerTableRecord
  2
MITTE
 70
     0
 62
     7
  6
Center
370
    25
390
F
347
46
348
0
  0
ENDTAB
  0
TABLE
  2
STYLE
  5
3
330
0
100
AcDbSymbolTable
 70
     1
  0
STYLE
  5
11
330
3
100
AcDbSymbolTableRecord
100
AcDbTextStyleTableRecord
  2
Standard
 70
     0
 40
0.0
 41
1.0
 50
0.0
 71
     0
 42
2.5
  3
txt
  4

  0
ENDTAB
  0
TABLE
  2
VIEW
  5
6
330
0
100
AcDbSymbolTable
 70
     0
  0
ENDTAB
  0
TABLE
  2
UCS
  5
7
330
0
100
AcDbSymbolTable
 70
     0
  0
ENDTAB
  0
TABLE
  2
APPID
  5
9
330
0
100
AcDbSymbolTable
 70
     1
  0
APPID
  5
12
330
9
100
AcDbSymbolTableRecord
100
AcDbRegAppTableRecord
  2
ACAD
 70
     0
  0
ENDTAB
  0
TABLE
  2
DIMSTYLE
  5
A
330
0
100
AcDbSymbolTable
 70
     1
100
AcDbDimStyleTable
  0
DIMSTYLE
105
27
330
A
100
AcDbSymbolTableRecord
100
AcDbDimStyleTableRecord
  2
ISO-25
 70
     0
 41
2.5
 42
0.625
 43
3.75
 44
1.25
 73
     0
 74
     0
 77
     1
 78
     8
140
2.5
141
2.5
143
0.03937007874016
147
0.625
171
     3
172
     1
178
     0
271
     2
272
     2
274
     3
278
    44
283
     0
284
     8
340
11
  0
ENDTAB
  0
TABLE
  2
BLOCK_RECORD
  5
1
330
0
100
AcDbSymbolTable
 70
     1
  0
BLOCK_RECORD
  5
1F
330
1
100
AcDbSymbolTableRecord
100
AcDbBlockTableRecord
  2
*Model_Space
340
22
 70
     0
280
     1
281
     0
  0
BLOCK_RECORD
  5
1B
330
1
100
AcDbSymbolTableRecord
100
AcDbBlockTableRecord
  2
*Paper_Space
340
1E
 70
     0
280
     1
281
     0
  0
BLOCK_RECORD
  5
23
330
1
100
AcDbSymbolTableRecord
100
AcDbBlockTableRecord
  2
*Paper_Space0
340
26
 70
     0
280
     1
281
     0
  0
ENDTAB
  0
ENDSEC
  0
SECTION
  2
BLOCKS
  0
BLOCK
  5
20
330
1F
100
AcDbEntity
  8
0
100
AcDbBlockBegin
  2
*Model_Space
 70
     0
 10
0.0
 20
0.0
 30
0.0
  3
*Model_Space
  1

  0
ENDBLK
  5
21
330
1F
100
AcDbEntity
  8
0
100
AcDbBlockEnd
  0
BLOCK
  5
1C
330
1B
100
AcDbEntity
 67
     1
  8
0
100
AcDbBlockBegin
  2
*Paper_Space
 70
     0
 10
0.0
 20
0.0
 30
0.0
  3
*Paper_Space
  1

  0
ENDBLK
  5
1D
330
1B
100
AcDbEntity
 67
     1
  8
0
100
AcDbBlockEnd
  0
BLOCK
  5
24
330
23
100
AcDbEntity
  8
0
100
AcDbBlockBegin
  2
*Paper_Space0
 70
     0
 10
0.0
 20
0.0
 30
0.0
  3
*Paper_Space0
  1

  0
ENDBLK
  5
25
330
23
100
AcDbEntity
  8
0
100
AcDbBlockEnd
  0
ENDSEC
  0
SECTION
  2
ENTITIES
  0
ATTDEF
  5
6F
330
1F
100
AcDbEntity
  8
AM_6
100
AcDbText
 10
39.83521559941521
 20
132.6934339935897
 30
0.0
 40
0.5
  1
Geberit Mepla angle-seat stop valve
100
AcDbAttributeDefinition
  3

  2
NN
 70
     8
280
     0
  0
ATTDEF
  5
70
330
1F
100
AcDbEntity
  8
AM_6
100
AcDbText
 10
39.83521559941521
 20
132.1934339935897
 30
0.0
 40
0.5
  1

100
AcDbAttributeDefinition
  3

  2
NT
 70
     8
280
     0
  0
ATTDEF
  5
71
330
1F
100
AcDbEntity
  8
AM_6
100
AcDbText
 10
39.83521559941521
 20
131.6934339935897
 30
0.0
 40
0.5
  1
604032
100
AcDbAttributeDefinition
  3

  2
NB
 70
     8
280
     0
  0
ATTDEF
  5
72
330
1F
100
AcDbEntity
  8
AM_6
100
AcDbText
 10
39.83521559941521
 20
131.1934339935897
 30
0.0
 40
0.5
  1
$ARTNRTX.
100
AcDbAttributeDefinition
  3

  2
NBSYN
 70
     8
280
     0
  0
ATTDEF
  5
73
330
1F
100
AcDbEntity
  8
AM_6
100
AcDbText
 10
39.83521559941521
 20
130.6934339935897
 30
0.0
 40
0.5
  1
604032
100
AcDbAttributeDefinition
  3

  2
LINA
 70
     8
280
     0
  0
ATTDEF
  5
74
330
1F
100
AcDbEntity
  8
AM_6
100
AcDbText
 10
39.83521559941521
 20
130.1934339935897
 30
0.0
 40
0.5
  1
GEBERIT
100
AcDbAttributeDefinition
  3

  2
CATALOG
 70
     8
280
     0
  0
ATTDEF
  5
75
330
1F
100
AcDbEntity
  8
AM_6
100
AcDbText
 10
39.83521559941521
 20
129.6934339935897
 30
0.0
 40
0.5
  1
604.032.00.1
100
AcDbAttributeDefinition
  3

  2
ARTNRT
 70
     8
280
     0
  0
ATTDEF
  5
76
330
1F
100
AcDbEntity
  8
AM_6
100
AcDbText
 10
39.83521559941521
 20
129.1934339935897
 30
0.0
 40
0.5
  1
70
100
AcDbAttributeDefinition
  3

  2
DD
 70
     8
280
     0
  0
ATTDEF
  5
77
330
1F
100
AcDbEntity
  8
AM_6
100
AcDbText
 10
39.83521559941521
 20
128.6934339935897
 30
0.0
 40
0.5
  1
32
100
AcDbAttributeDefinition
  3

  2
D
 70
     8
280
     0
  0
ATTDEF
  5
78
330
1F
100
AcDbEntity
  8
AM_6
100
AcDbText
 10
39.83521559941521
 20
128.1934339935897
 30
0.0
 40
0.5
  1
25
100
AcDbAttributeDefinition
  3

  2
DN
 70
     8
280
     0
  0
ATTDEF
  5
79
330
1F
100
AcDbEntity
  8
AM_6
100
AcDbText
 10
39.83521559941521
 20
127.6934339935897
 30
0.0
 40
0.5
  1
25
100
AcDbAttributeDefinition
  3

  2
DNV
 70
     8
280
     0
  0
ATTDEF
  5
7A
330
1F
100
AcDbEntity
  8
AM_6
100
AcDbText
 10
39.83521559941521
 20
127.1934339935897
 30
0.0
 40
0.5
  1
154
100
AcDbAttributeDefinition
  3

  2
L
 70
     8
280
     0
  0
ATTDEF
  5
7B
330
1F
100
AcDbEntity
  8
AM_6
100
AcDbText
 10
39.83521559941521
 20
126.6934339935897
 30
0.0
 40
0.5
  1
56
100
AcDbAttributeDefinition
  3

  2
L1
 70
     8
280
     0
  0
ATTDEF
  5
7C
330
1F
100
AcDbEntity
  8
AM_6
100
AcDbText
 10
39.83521559941521
 20
126.1934339935897
 30
0.0
 40
0.5
  1
132
100
AcDbAttributeDefinition
  3

  2
L2
 70
     8
280
     0
  0
ATTDEF
  5
7D
330
1F
100
AcDbEntity
  8
AM_6
100
AcDbText
 10
39.83521559941521
 20
125.6934339935897
 30
0.0
 40
0.5
  1
26
100
AcDbAttributeDefinition
  3

  2
Z
 70
     8
280
     0
  0
ATTDEF
  5
7E
330
1F
100
AcDbEntity
  8
AM_6
100
AcDbText
 10
39.83521559941521
 20
125.1934339935897
 30
0.0
 40
0.5
  1
69
100
AcDbAttributeDefinition
  3

  2
Z1
 70
     8
280
     0
  0
ATTDEF
  5
7F
330
1F
100
AcDbEntity
  8
AM_6
100
AcDbText
 10
39.83521559941521
 20
124.6934339935897
 30
0.0
 40
0.5
  1
604032
100
AcDbAttributeDefinition
  3

  2
ARTNRTX
 70
     8
280
     0
  0
ATTDEF
  5
80
330
1F
100
AcDbEntity
  8
AM_6
100
AcDbText
 10
39.83521559941521
 20
124.1934339935897
 30
0.0
 40
0.5
  1
geberit
100
AcDbAttributeDefinition
  3

  2
COMPANY
 70
     8
280
     0
  0
LINE
  5
83
330
1F
100
AcDbEntity
  8
VER
100
AcDbLine
 10
-10.5
 20
47.26000000000001
 30
0.0
 11
10.50000000000001
 21
47.26000000000001
 31
0.0
  0
LINE
  5
84
330
1F
100
AcDbEntity
  8
VER
100
AcDbLine
 10
-10.5
 20
54.26000000000001
 30
0.0
 11
10.50000000000001
 21
54.26000000000001
 31
0.0
  0
LINE
  5
85
330
1F
100
AcDbEntity
  8
VER
100
AcDbLine
 10
-10.5
 20
54.26000000000001
 30
0.0
 11
-10.5
 21
47.26000000000001
 31
0.0
  0
LINE
  5
86
330
1F
100
AcDbEntity
  8
VER
100
AcDbLine
 10
10.50000000000001
 20
54.26000000000001
 30
0.0
 11
10.50000000000001
 21
47.26000000000001
 31
0.0
  0
LINE
  5
87
330
1F
100
AcDbEntity
  8
VER
100
AcDbLine
 10
-9.228499999999999
 20
47.26000000000001
 30
0.0
 11
-10.2285
 21
46.26000000000001
 31
0.0
  0
LINE
  5
88
330
1F
100
AcDbEntity
  8
VER
100
AcDbLine
 10
10.2285
 20
46.26000000000001
 30
0.0
 11
9.228500000000002
 21
47.26000000000001
 31
0.0
  0
LINE
  5
89
330
1F
100
AcDbEntity
  8
VER
100
AcDbLine
 10
-10.2285
 20
46.26000000000001
 30
0.0
 11
-10.2285
 21
17.40473645458397
 31
0.0
  0
LINE
  5
8A
330
1F
100
AcDbEntity
  8
VER
100
AcDbLine
 10
10.2285
 20
17.40735394789097
 30
0.0
 11
10.2285
 21
46.26000000000001
 31
0.0
  0
LWPOLYLINE
  5
8B
330
1F
100
AcDbEntity
  8
VER
100
AcDbPolyline
 90
       35
 70
     0
 43
0.0
 10
10.22849936278059
 20
17.40348409224472
 10
10.18349695391765
 20
18.41344144641042
 10
10.03231345676224
 20
19.62055160171649
 10
9.782330493728455
 20
20.89432259836976
 10
9.444762365688495
 20
22.19118869399404
 10
8.862672822664937
 20
23.94654763804818
 10
8.129215203191533
 20
25.69717595872448
 10
7.532922482347577
 20
26.88374697082321
 10
6.850243599828914
 20
28.04614687189318
 10
6.07106881208759
 20
29.16714896157578
 10
5.481317112645306
 20
29.89415006791837
 10
4.833748627259785
 20
30.58438365375432
 10
4.099076759718146
 20
31.24359201000501
 10
3.288282101703585
 20
31.82992483465549
 10
2.511235986576591
 20
32.26241491259741
 10
1.655880845736149
 20
32.59948866264207
 10
0.7643681796039764
 20
32.80148110014739
 10
-0.1871103711215708
 20
32.85265814212541
 10
-1.006725147810896
 20
32.76141868948533
 10
-1.820795619222036
 20
32.54555639974406
 10
-2.802340178272302
 20
32.11478074570329
 10
-3.718684575045803
 20
31.53635628061509
 10
-4.391164858793029
 20
30.99661722280473
 10
-5.008380422485707
 20
30.40870958071409
 10
-5.588768557731693
 20
29.76892830209203
 10
-6.121740893798298
 20
29.10000363982224
 10
-7.024820141036505
 20
27.7653977950768
 10
-7.796368296144522
 20
26.3804762509157
 10
-8.46925461268594
 20
24.93340282433467
 10
-9.0336658059681
 20
23.47321188326141
 10
-9.529243541484743
 20
21.89454238105896
 10
-9.902227892703467
 20
20.33617373451245
 10
-10.08311928497524
 20
19.28991170305141
 10
-10.19503526441492
 20
18.27156435553369
 10
-10.22849972818983
 20
17.40223123270055
  0
LWPOLYLINE
  5
8C
330
1F
100
AcDbEntity
  8
VER
100
AcDbPolyline
 90
       10
 70
     0
 43
0.0
 10
-10.22849972818983
 20
17.40223123270055
 10
-10.22795732559617
 20
17.29514863914088
 10
-10.20142095843127
 20
16.68773443364596
 10
-10.13159036784526
 20
16.10823566142615
 10
-10.01056082952606
 20
15.55150894567459
 10
-9.833737956399926
 20
15.03501944609601
 10
-9.611692818014626
 20
14.5915208603691
 10
-9.331886245675582
 20
14.1923484229473
 10
-8.978684311932074
 20
13.82947391893531
 10
-8.559839127340949
 20
13.51773479966385
  0
LINE
  5
8D
330
1F
100
AcDbEntity
  8
VER
100
AcDbLine
 10
10.2285
 20
46.26000000000001
 30
0.0
 11
-10.2285
 21
46.26000000000001
 31
0.0
  0
LINE
  5
8E
330
1F
100
AcDbEntity
  8
VER
100
AcDbLine
 10
9.41705831492673
 20
54.26000000000001
 30
0.0
 11
9.41705831492673
 21
47.26000000000001
 31
0.0
  0
LINE
  5
8F
330
1F
100
AcDbEntity
  8
VER
100
AcDbLine
 10
-9.41705831492673
 20
54.26000000000001
 30
0.0
 11
-9.41705831492673
 21
47.26000000000001
 31
0.0
  0
LINE
  5
90
330
1F
100
AcDbEntity
  8
VER
100
AcDbLine
 10
1.082941685073266
 20
54.26000000000001
 30
0.0
 11
1.082941685073266
 21
47.26000000000001
 31
0.0
  0
LINE
  5
91
330
1F
100
AcDbEntity
  8
VER
100
AcDbLine
 10
-1.082941685073264
 20
54.26000000000001
 30
0.0
 11
-1.082941685073264
 21
47.26000000000001
 31
0.0
  0
LWPOLYLINE
  5
92
330
1F
100
AcDbEntity
  8
VER
100
AcDbPolyline
 90
       10
 70
     0
 43
0.0
 10
8.55983912734095
 20
13.51773479966385
 10
8.922042280966256
 20
13.78101324583551
 10
9.236178958150338
 20
14.08172646076668
 10
9.509138544615654
 20
14.42966714566384
 10
9.733431989270457
 20
14.81521203125337
 10
9.950319498308405
 20
15.35055893759985
 10
10.1003448201235
 20
15.9348843675781
 10
10.19200302087166
 20
16.57924060362279
 10
10.22753136910523
 20
17.26024815254726
 10
10.22849936278059
 20
17.40348409224472
  0
LINE
  5
94
330
1F
100
AcDbEntity
  8
050
100
AcDbLine
 10
-16.0
 20
23.29706061061953
 30
0.0
 11
-16.0
 21
-0.0000000000000012
 31
0.0
  0
LINE
  5
95
330
1F
100
AcDbEntity
  8
VER
100
AcDbLine
 10
-16.0
 20
30.14891182945086
 30
0.0
 11
-16.0
 21
23.29706061061953
 31
0.0
  0
LINE
  5
96
330
1F
100
AcDbEntity
  8
VER
100
AcDbLine
 10
16.0
 20
23.29706061061952
 30
0.0
 11
16.0
 21
30.14891182945086
 31
0.0
  0
LINE
  5
97
330
1F
100
AcDbEntity
  8
050
100
AcDbLine
 10
16.0
 20
0.0000000000000147
 30
0.0
 11
16.0
 21
23.29706061061952
 31
0.0
  0
ELLIPSE
  5
98
330
1F
100
AcDbEntity
  8
VER
100
AcDbEllipse
 10
-0.0000000000000213
 20
30.14891182945084
 30
0.0
 11
-18.70550000000003
 21
1.059767378499544E-14
 31
0.0
210
0.0
220
0.0
230
1.0
 40
0.707106781186547
 41
3.141592653589794
 42
6.283185307179588
  0
LINE
  5
99
330
1F
100
AcDbEntity
  8
050
100
AcDbLine
 10
-18.70550000000001
 20
35.92724664959233
 30
0.0
 11
-18.70550000000001
 21
30.14891182945085
 31
0.0
  0
LINE
  5
9A
330
1F
100
AcDbEntity
  8
VER
100
AcDbLine
 10
-18.70550000000001
 20
40.27468093604222
 30
0.0
 11
-18.70550000000001
 21
35.92724664959233
 31
0.0
  0
LINE
  5
9B
330
1F
100
AcDbEntity
  8
VER
100
AcDbLine
 10
18.7055
 20
35.92724664959232
 30
0.0
 11
18.70550000000001
 21
40.27468093604221
 31
0.0
  0
LINE
  5
9C
330
1F
100
AcDbEntity
  8
050
100
AcDbLine
 10
18.70550000000001
 20
30.14891182945085
 30
0.0
 11
18.7055
 21
35.92724664959232
 31
0.0
  0
ELLIPSE
  5
9D
330
1F
100
AcDbEntity
  8
050
100
AcDbEllipse
 10
-0.0000000000000142
 20
30.14891182945082
 30
0.0
 11
-18.70549999999998
 21
2.290763070145079E-15
 31
0.0
210
0.0
220
0.0
230
1.0
 40
0.7071067811865475
 41
6.283185307179585
 42
9.42477796076938
  0
LINE
  5
9E
330
1F
100
AcDbEntity
  8
VER
100
AcDbLine
 10
0.0000000000000024
 20
65.04886044218185
 30
0.0
 11
0.0000000000000028
 21
58.55000320823066
 31
0.0
  0
ELLIPSE
  5
9F
330
1F
100
AcDbEntity
  8
VER
100
AcDbEllipse
 10
-0.0000000000000014
 20
44.07184435101395
 30
0.0
 11
18.69
 21
-4.577729735212806E-15
 31
0.0
210
0.0
220
0.0
230
1.0
 40
0.7071067811865476
 41
0.0
 42
6.283185307179586
  0
ELLIPSE
  5
A0
330
1F
100
AcDbEntity
  8
VER
100
AcDbEllipse
 10
0.0000000000000568
 20
40.27468093604223
 30
0.0
 11
-19.68999999999994
 21
1.115544608946884E-14
 31
0.0
210
0.0
220
0.0
230
1.0
 40
0.7071067811865476
 41
3.14159265358979
 42
6.28318530717959
  0
LINE
  5
A1
330
1F
100
AcDbEntity
  8
050
100
AcDbLine
 10
-19.68999999999999
 20
43.36473756982743
 30
0.0
 11
-19.68999999999999
 21
40.27468093604222
 31
0.0
  0
LINE
  5
A2
330
1F
100
AcDbEntity
  8
050
100
AcDbLine
 10
19.68999999999999
 20
40.27468093604221
 30
0.0
 11
19.68999999999999
 21
43.36473756982742
 31
0.0
  0
ELLIPSE
  5
A3
330
1F
100
AcDbEntity
  8
050
100
AcDbEllipse
 10
0.0000000000000213
 20
40.2746809360422
 30
0.0
 11
-19.69000000000001
 21
2.411329547521140E-15
 31
0.0
210
0.0
220
0.0
230
1.0
 40
0.7071067811865474
 41
0.0000000000000007
 42
3.141592653589793
  0
ELLIPSE
  5
A4
330
1F
100
AcDbEntity
  8
VER
100
AcDbEllipse
 10
-0.0000000000000213
 20
43.3647375698274
 30
0.0
 11
-19.68999999999996
 21
2.864367917336428E-14
 31
0.0
210
0.0
220
0.0
230
1.0
 40
0.7071067811865485
 41
3.166988984308777
 42
6.257788976460607
  0
ELLIPSE
  5
A5
330
1F
100
AcDbEntity
  8
050
100
AcDbEllipse
 10
-0.0000000000076916
 20
43.36473756982756
 30
0.0
 11
-19.6899999999923
 21
2.411329547520195E-15
 31
0.0
210
0.0
220
0.0
230
1.0
 40
0.7071067811865548
 41
6.257788976460607
 42
9.450174291488338
  0
ELLIPSE
  5
A6
330
1F
100
AcDbEntity
  8
VER
100
AcDbEllipse
 10
0.0000000000000284
 20
44.07184435101398
 30
0.0
 11
-19.68999999999994
 21
1.115544608946884E-14
 31
0.0
210
0.0
220
0.0
230
1.0
 40
0.7071067811865476
 41
3.141592653589792
 42
6.283185307179588
  0
LINE
  5
A7
330
1F
100
AcDbEntity
  8
050
100
AcDbLine
 10
-19.68999999999999
 20
45.48605791338706
 30
0.0
 11
-19.68999999999999
 21
44.07184435101396
 31
0.0
  0
LINE
  5
A8
330
1F
100
AcDbEntity
  8
050
100
AcDbLine
 10
19.68999999999999
 20
44.07184435101396
 30
0.0
 11
19.68999999999999
 21
45.48605791338705
 31
0.0
  0
ELLIPSE
  5
A9
330
1F
100
AcDbEntity
  8
050
100
AcDbEllipse
 10
-0.0000000000000142
 20
44.07184435101394
 30
0.0
 11
-19.68999999999997
 21
2.411329547521135E-15
 31
0.0
210
0.0
220
0.0
230
1.0
 40
0.7071067811865475
 41
6.283185307179585
 42
9.42477796076938
  0
ELLIPSE
  5
AA
330
1F
100
AcDbEntity
  8
050
100
AcDbEllipse
 10
0.0000000000000213
 20
45.48605791338706
 30
0.0
 11
-19.69000000000002
 21
2.411329547521141E-15
 31
0.0
210
0.0
220
0.0
230
1.0
 40
0.7071067811865475
 41
5.661686001735553
 42
10.04544009849086
  0
ELLIPSE
  5
AB
330
1F
100
AcDbEntity
  8
VER
100
AcDbEllipse
 10
0.0000000000000222
 20
45.48605791338702
 30
0.0
 11
-19.69000000000006
 21
2.411329547521146E-15
 31
0.0
210
0.0
220
0.0
230
1.0
 40
0.7071067811865474
 41
3.762254791311278
 42
5.661686001735552
  0
LINE
  5
AC
330
1F
100
AcDbEntity
  8
VER
100
AcDbLine
 10
0.0000000000000028
 20
58.55000320823066
 30
0.0
 11
-16.0
 21
52.01803056080886
 31
0.0
  0
LINE
  5
AD
330
1F
100
AcDbEntity
  8
VER
100
AcDbLine
 10
16.0
 20
52.01803056080885
 30
0.0
 11
0.0000000000000028
 21
58.55000320823066
 31
0.0
  0
CIRCLE
  5
AE
330
1F
100
AcDbEntity
  8
VER
100
AcDbCircle
 10
-0.0000000000000027
 20
0.0
 30
0.0
 40
12.8
  0
CIRCLE
  5
AF
330
1F
100
AcDbEntity
  8
VER
100
AcDbCircle
 10
-0.0000000000000027
 20
0.0
 30
0.0
 40
14.43999999999999
  0
LINE
  5
B0
330
1F
100
AcDbEntity
  8
VER
100
AcDbLine
 10
-0.0004665384789587
 20
79.89829329597794
 30
0.0
 11
-9.09303346152105
 21
76.18626839371774
 31
0.0
  0
LINE
  5
B1
330
1F
100
AcDbEntity
  8
VER
100
AcDbLine
 10
9.09303346152105
 20
76.18626839371773
 30
0.0
 11
0.000466538478956
 21
79.89829329597795
 31
0.0
  0
CIRCLE
  5
B2
330
1F
100
AcDbEntity
  8
050
100
AcDbCircle
 10
-0.0000000000000029
 20
0.0
 30
0.0
 40
16.0
  0
CIRCLE
  5
B3
330
1F
100
AcDbEntity
  8
050
100
AcDbCircle
 10
-0.0000000000000029
 20
0.0
 30
0.0
 40
14.75
  0
LINE
  5
B4
330
1F
100
AcDbEntity
  8
050
100
AcDbLine
 10
14.0
 20
60.33530031830454
 30
0.0
 11
14.0
 21
61.74951388067765
 31
0.0
  0
LINE
  5
B5
330
1F
100
AcDbEntity
  8
050
100
AcDbLine
 10
-14.00000000000001
 20
61.74951388067765
 30
0.0
 11
-14.00000000000001
 21
60.33530031830454
 31
0.0
  0
ELLIPSE
  5
B6
330
1F
100
AcDbEntity
  8
050
100
AcDbEllipse
 10
0.0000000000002149
 20
61.74951388067755
 30
0.0
 11
14.00000000000022
 21
-1.029049940440283E-13
 31
0.0
210
0.0
220
0.0
230
1.0
 40
0.707106781186549
 41
2.418858405776389
 42
3.141592653589794
  0
ELLIPSE
  5
B7
330
1F
100
AcDbEntity
  8
VER
100
AcDbEllipse
 10
0.0000000000007869
 20
61.74951388067922
 30
0.0
 11
14.00000000000112
 21
3.041122909053229E-12
 31
0.0
210
0.0
220
0.0
230
1.0
 40
0.7071067811864399
 41
-4.005415339291902
 42
-3.864326901403369
  0
ELLIPSE
  5
B8
330
1F
100
AcDbEntity
  8
VER
100
AcDbEllipse
 10
-0.0000000000000071
 20
61.74951388067769
 30
0.0
 11
13.99999999999999
 21
0.0
 31
0.0
210
0.0
220
0.0
230
1.0
 40
0.7071067811865459
 41
0.7227342478134151
 42
2.277769967887834
  0
ELLIPSE
  5
B9
330
1F
100
AcDbEntity
  8
050
100
AcDbEllipse
 10
-0.0000000000000959
 20
61.74951388067761
 30
0.0
 11
14.0000000000001
 21
4.973799150320701E-14
 31
0.0
210
0.0
220
0.0
230
1.0
 40
0.7071067811865489
 41
4.712388980384694
 42
7.005919554992996
  0
ELLIPSE
  5
BA
330
1F
100
AcDbEntity
  8
050
100
AcDbEllipse
 10
-0.0000000000000089
 20
61.74951388067762
 30
0.0
 11
13.99999999999997
 21
0.0
 31
0.0
210
0.0
220
0.0
230
1.0
 40
0.7071067811865472
 41
3.14159265358979
 42
4.71238898038469
  0
ELLIPSE
  5
BB
330
1F
100
AcDbEntity
  8
VER
100
AcDbEllipse
 10
-0.0000000000000115
 20
60.33530031830455
 30
0.0
 11
14.00000000000001
 21
0.0
 31
0.0
210
0.0
220
0.0
230
1.0
 40
0.7071067811865476
 41
6.283185307179585
 42
9.42477796076938
  0
ELLIPSE
  5
BC
330
1F
100
AcDbEntity
  8
050
100
AcDbEllipse
 10
-0.0000000000000151
 20
60.33530031830453
 30
0.0
 11
14.0
 21
-1.586350891341434E-14
 31
0.0
210
0.0
220
0.0
230
1.0
 40
0.7071067811865474
 41
3.141592653589794
 42
6.28318530717959
  0
CIRCLE
  5
BD
330
1F
100
AcDbEntity
  8
VER
100
AcDbCircle
 10
-0.0000000000000031
 20
0.0
 30
0.0
 40
12.15
  0
LINE
  5
BE
330
1F
100
AcDbEntity
  8
050
100
AcDbLine
 10
-16.0
 20
65.04027669956393
 30
0.0
 11
-16.0
 21
38.95408526596523
 31
0.0
  0
LINE
  5
BF
330
1F
100
AcDbEntity
  8
050
100
AcDbLine
 10
-16.0
 20
38.95408526596523
 30
0.0
 11
-0.000000000000004
 21
32.42211261854342
 31
0.0
  0
LINE
  5
C0
330
1F
100
AcDbEntity
  8
050
100
AcDbLine
 10
-0.0000000000000048
 20
45.4443587572985
 30
0.0
 11
-0.000000000000004
 21
32.42211261854342
 31
0.0
  0
LINE
  5
C1
330
1F
100
AcDbEntity
  8
050
100
AcDbLine
 10
-0.000000000000004
 20
32.42211261854342
 30
0.0
 11
15.99999999999999
 21
38.95408526596523
 31
0.0
  0
LINE
  5
C2
330
1F
100
AcDbEntity
  8
050
100
AcDbLine
 10
16.0
 20
65.04027669956393
 30
0.0
 11
15.99999999999999
 21
38.95408526596523
 31
0.0
  0
LWPOLYLINE
  5
C3
330
1F
100
AcDbEntity
  8
050
100
AcDbPolyline
 90
       10
 70
     0
 43
0.0
 10
-16.0
 20
51.97633140472032
 10
-13.91958884397709
 20
51.56634085472142
 10
-11.80941282174301
 20
51.03367918408144
 10
-10.35661614896346
 20
50.5885676288457
 10
-8.894728960101071
 20
50.07192688996241
 10
-7.430982272312709
 20
49.48303894205574
 10
-5.563766680631881
 20
48.62573590809001
 10
-3.709628939208161
 20
47.66335898870319
 10
-1.842930605508506
 20
46.5913855442687
 10
-0.0000000000000048
 20
45.4443587572985
  0
LWPOLYLINE
  5
C4
330
1F
100
AcDbEntity
  8
050
100
AcDbPolyline
 90
       10
 70
     0
 43
0.0
 10
-0.0000000000000048
 20
45.4443587572985
 10
2.080411156022911
 20
46.73301680311621
 10
4.190587178256989
 20
47.92330663978603
 10
5.643383851036543
 20
48.66439860065798
 10
7.105271039898935
 20
49.34138375318285
 10
8.569017727687296
 20
49.94763997119966
 10
10.43623331936812
 20
50.61491208369628
 10
12.29037106079184
 20
51.16643229075098
 10
14.1570693944915
 20
51.61861165340575
 10
15.99999999999999
 20
51.97633140472031
  0
LWPOLYLINE
  5
C5
330
1F
100
AcDbEntity
  8
VER
100
AcDbPolyline
 90
        7
 70
     0
 43
0.0
 10
9.093765533276207
 20
68.84991653205365
 10
8.894728960101059
 20
68.93730169544828
 10
7.430982272312692
 20
69.54355791346511
 10
5.563766680631869
 20
70.21083002596173
 10
3.709628939208155
 20
70.76235023301642
 10
1.842930605508501
 20
71.21452959567118
 10
0.000000000000002
 20
71.57224934698574
  0
LWPOLYLINE
  5
C6
330
1F
100
AcDbEntity
  8
VER
100
AcDbPolyline
 90
        3
 70
     0
 43
0.0
 10
10.5004354614406
 20
68.19046448479719
 10
10.35661614896345
 20
68.26031654292339
 10
9.093765533276207
 20
68.84991653205365
  0
LINE
  5
C7
330
1F
100
AcDbEntity
  8
VER
100
AcDbLine
 10
10.75150655608856
 20
68.06592821150062
 30
0.0
 11
10.5004354614406
 21
68.19046448479719
 31
0.0
  0
LWPOLYLINE
  5
C8
330
1F
100
AcDbEntity
  8
050
100
AcDbPolyline
 90
        4
 70
     0
 43
0.0
 10
16.0
 20
65.04027669956393
 10
13.91958884397709
 20
66.32893474538163
 10
11.80941282174301
 20
67.51922458205145
 10
10.75150655608856
 20
68.06592821150062
  0
LWPOLYLINE
  5
C9
330
1F
100
AcDbEntity
  8
050
100
AcDbPolyline
 90
        4
 70
     0
 43
0.0
 10
-10.78292594517902
 20
68.05020067504306
 10
-12.29037106079185
 20
67.25927693096861
 10
-14.1570693944915
 20
66.18730348653413
 10
-16.0
 20
65.04027669956393
  0
LINE
  5
CA
330
1F
100
AcDbEntity
  8
VER
100
AcDbLine
 10
-10.50026373636206
 20
68.19054896665872
 30
0.0
 11
-10.78292594517902
 21
68.05020067504306
 31
0.0
  0
LWPOLYLINE
  5
CB
330
1F
100
AcDbEntity
  8
VER
100
AcDbPolyline
 90
        3
 70
     0
 43
0.0
 10
-9.094160233635256
 20
68.84974075216459
 10
-10.43623331936813
 20
68.22165385035545
 10
-10.50026373636206
 20
68.19054896665872
  0
LWPOLYLINE
  5
CC
330
1F
100
AcDbEntity
  8
VER
100
AcDbPolyline
 90
        7
 70
     0
 43
0.0
 10
0.000000000000002
 20
71.57224934698574
 10
-2.080411156022914
 20
71.16225879698685
 10
-4.190587178256992
 20
70.62959712634687
 10
-5.643383851036548
 20
70.18448557111114
 10
-7.10527103989894
 20
69.66784483222783
 10
-8.569017727687303
 20
69.07895688432116
 10
-9.094160233635256
 20
68.84974075216459
  0
CIRCLE
  5
CD
330
1F
100
AcDbEntity
  8
VER
100
AcDbCircle
 10
-0.0000000000000032
 20
0.0
 30
0.0
 40
12.55217848286035
  0
CIRCLE
  5
CE
330
1F
100
AcDbEntity
  8
VER
100
AcDbCircle
 10
-0.0000000000000033
 20
0.0
 30
0.0
 40
11.95
  0
LINE
  5
CF
330
1F
100
AcDbEntity
  8
VER
100
AcDbLine
 10
-0.0000000000000027
 20
79.8984837595144
 30
0.0
 11
-0.0000000000000031
 21
86.49791134832844
 31
0.0
  0
ELLIPSE
  5
D0
330
1F
100
AcDbEntity
  8
050
100
AcDbEllipse
 10
-0.0000000000003268
 20
72.47367210084826
 30
0.0
 11
10.49999999999965
 21
9.947598300641401E-14
 31
0.0
210
0.0
220
0.0
230
1.0
 40
0.7071067811865471
 41
2.618038310227588
 42
3.141592653589799
  0
ELLIPSE
  5
D1
330
1F
100
AcDbEntity
  8
VER
100
AcDbEllipse
 10
0.0000000000020464
 20
72.47367210084708
 30
0.0
 11
10.50000000000253
 21
0.0
 31
0.0
210
0.0
220
0.0
230
1.0
 40
0.7071067811865481
 41
-3.82033367559733
 42
-3.665235861424223
  0
ELLIPSE
  5
D2
330
1F
100
AcDbEntity
  8
VER
100
AcDbEllipse
 10
0.000000000000079
 20
72.473672100848
 30
0.0
 11
10.50000000000016
 21
1.421085471520200E-14
 31
0.0
210
0.0
220
0.0
230
1.0
 40
0.7071067811865462
 41
1.570840759031009
 42
2.462851631582233
  0
ELLIPSE
  5
D3
330
1F
100
AcDbEntity
  8
VER
100
AcDbEllipse
 10
-0.0000000000001377
 20
72.47367210084799
 30
0.0
 11
10.50000000000026
 21
-3.054937849876413E-14
 31
0.0
210
0.0
220
0.0
230
1.0
 40
0.7071067811865455
 41
0.5236432078344171
 42
1.57075189455878
  0
ELLIPSE
  5
D4
330
1F
100
AcDbEntity
  8
050
100
AcDbEllipse
 10
-0.0000000000002007
 20
72.47367210084803
 30
0.0
 11
10.50000000000019
 21
2.984279490192421E-13
 31
0.0
210
0.0
220
0.0
230
1.0
 40
0.7071067811865429
 41
3.141592653589742
 42
6.806739650541749
  0
ELLIPSE
  5
D5
330
1F
100
AcDbEntity
  8
050
100
AcDbEllipse
 10
0.0000000000000036
 20
64.22438761483056
 30
0.0
 11
10.49999999999998
 21
-1.189763168506074E-14
 31
0.0
210
0.0
220
0.0
230
1.0
 40
0.7071067811865476
 41
3.141592653589793
 42
6.28318530717959
  0
LINE
  5
D6
330
1F
100
AcDbEntity
  8
050
100
AcDbLine
 10
10.49999999999999
 20
64.22438761483058
 30
0.0
 11
10.49999999999999
 21
72.47367210084812
 31
0.0
  0
LINE
  5
D7
330
1F
100
AcDbEntity
  8
050
100
AcDbLine
 10
-10.49999999999999
 20
72.47367210084812
 30
0.0
 11
-10.49999999999999
 21
64.22438761483058
 31
0.0
  0
ELLIPSE
  5
D8
330
1F
100
AcDbEntity
  8
VER
100
AcDbEllipse
 10
-0.000000000000008
 20
64.22438761483056
 30
0.0
 11
10.5
 21
0.0
 31
0.0
210
0.0
220
0.0
230
1.0
 40
0.7071067811865478
 41
0.0000000000000019
 42
3.141592653589791
  0
ELLIPSE
  5
D9
330
1F
100
AcDbEntity
  8
VER
100
AcDbEllipse
 10
-0.0000000000000031
 20
122.707927725016
 30
0.0
 11
-2.000000000000051
 21
2.449293598294769E-16
 31
0.0
210
0.0
220
0.0
230
1.0
 40
0.7071067811865493
 41
4.319689898685972
 42
5.105088062083405
  0
LINE
  5
DA
330
1F
100
AcDbEntity
  8
VER
100
AcDbLine
 10
0.7653668647301767
 20
124.0144906898924
 30
0.0
 11
0.7653668647301761
 21
132.3870548938697
 31
0.0
  0
LINE
  5
DB
330
1F
100
AcDbEntity
  8
VER
100
AcDbLine
 10
-0.765366864730183
 20
124.0144906898924
 30
0.0
 11
-0.7653668647301836
 21
132.3870548938697
 31
0.0
  0
CIRCLE
  5
DC
330
1F
100
AcDbEntity
  8
VER
100
AcDbCircle
 10
-0.0000000000000039
 20
0.0
 30
0.0
 40
11.0
  0
LINE
  5
DD
330
1F
100
AcDbEntity
  8
VER
100
AcDbLine
 10
-1.576916273239387
 20
126.05958305998
 30
0.0
 11
1.576916273239379
 21
126.05958305998
 31
0.0
  0
LINE
  5
DE
330
1F
100
AcDbEntity
  8
VER
100
AcDbLine
 10
1.576916273239379
 20
126.0205513666982
 30
0.0
 11
1.576916273239379
 21
126.05958305998
 31
0.0
  0
LINE
  5
DF
330
1F
100
AcDbEntity
  8
VER
100
AcDbLine
 10
-1.576916273239387
 20
126.0205513666982
 30
0.0
 11
-1.576916273239387
 21
126.05958305998
 31
0.0
  0
LINE
  5
E0
330
1F
100
AcDbEntity
  8
VER
100
AcDbLine
 10
-1.576916273239387
 20
126.0205513666982
 30
0.0
 11
1.576916273239379
 21
126.0205513666982
 31
0.0
  0
LINE
  5
E1
330
1F
100
AcDbEntity
  8
050
100
AcDbLine
 10
0.0004665384789273
 20
65.0490509057183
 30
0.0
 11
9.09303346152105
 21
68.76107580797853
 31
0.0
  0
LINE
  5
E2
330
1F
100
AcDbEntity
  8
050
100
AcDbLine
 10
9.093499999999997
 20
68.76126627151498
 30
0.0
 11
9.093499999999997
 21
77.4046112566982
 31
0.0
  0
LINE
  5
E3
330
1F
100
AcDbEntity
  8
VER
100
AcDbLine
 10
9.093499999999997
 20
82.7855055189953
 30
0.0
 11
-0.0000000000000031
 21
86.49791134832844
 31
0.0
  0
LINE
  5
E4
330
1F
100
AcDbEntity
  8
VER
100
AcDbLine
 10
-0.0000000000000031
 20
86.49791134832844
 30
0.0
 11
-9.093500000000004
 21
82.78550551899532
 31
0.0
  0
LINE
  5
E5
330
1F
100
AcDbEntity
  8
050
100
AcDbLine
 10
-9.093500000000004
 20
77.4046112566982
 30
0.0
 11
-9.093500000000004
 21
68.761266271515
 31
0.0
  0
LINE
  5
E6
330
1F
100
AcDbEntity
  8
VER
100
AcDbLine
 10
-9.093500000000004
 20
82.78550551899532
 30
0.0
 11
-9.093500000000004
 21
77.4046112566982
 31
0.0
  0
LINE
  5
E7
330
1F
100
AcDbEntity
  8
050
100
AcDbLine
 10
-0.000000000000004
 20
71.64828803099589
 30
0.0
 11
9.093499999999997
 21
75.36069386032902
 31
0.0
  0
LINE
  5
E8
330
1F
100
AcDbEntity
  8
VER
100
AcDbLine
 10
9.093499999999997
 20
77.4046112566982
 30
0.0
 11
9.093499999999997
 21
82.7855055189953
 31
0.0
  0
LINE
  5
E9
330
1F
100
AcDbEntity
  8
050
100
AcDbLine
 10
-9.093500000000004
 20
75.36069386032904
 30
0.0
 11
-0.000000000000004
 21
71.64828803099589
 31
0.0
  0
LINE
  5
EA
330
1F
100
AcDbEntity
  8
050
100
AcDbLine
 10
-9.093033461521058
 20
68.76107580797854
 30
0.0
 11
-0.0004665384789327
 21
65.04905090571832
 31
0.0
  0
LINE
  5
EB
330
1F
100
AcDbEntity
  8
050
100
AcDbLine
 10
-0.0000000000000036
 20
65.04886044218185
 30
0.0
 11
-0.000000000000004
 21
71.64828803099589
 31
0.0
  0
ELLIPSE
  5
EC
330
1F
100
AcDbEntity
  8
VER
100
AcDbEllipse
 10
-23.21800361206878
 20
115.9075319126549
 30
0.0
 11
-2.000000000000028
 21
-5.659848950097935E-14
 31
0.0
210
0.0
220
0.0
230
1.0
 40
0.7071067811865431
 41
5.105088062083402
 42
5.890486225480848
  0
LINE
  5
ED
330
1F
100
AcDbEntity
  8
VER
100
AcDbLine
 10
-25.06576267709138
 20
116.448728012801
 30
0.0
 11
-25.06576267709138
 21
124.8212922167848
 31
0.0
  0
LINE
  5
EE
330
1F
100
AcDbEntity
  8
VER
100
AcDbLine
 10
-23.98337047679899
 20
117.2140948775312
 30
0.0
 11
-23.98337047679899
 21
125.5866590815085
 31
0.0
  0
ELLIPSE
  5
EF
330
1F
100
AcDbEntity
  8
VER
100
AcDbEllipse
 10
23.21800361206874
 20
115.9075319126549
 30
0.0
 11
-2.000000000000064
 21
4.287749350543685E-14
 31
0.0
210
0.0
220
0.0
230
1.0
 40
0.7071067811865377
 41
3.534291735288527
 42
4.319689898685957
  0
LINE
  5
F0
330
1F
100
AcDbEntity
  8
VER
100
AcDbLine
 10
25.06576267709137
 20
116.448728012801
 30
0.0
 11
25.06576267709137
 21
124.8212922167784
 31
0.0
  0
LINE
  5
F1
330
1F
100
AcDbEntity
  8
VER
100
AcDbLine
 10
23.98337047679898
 20
117.2140948775312
 30
0.0
 11
23.98337047679898
 21
125.5866590815085
 31
0.0
  0
LINE
  5
F2
330
1F
100
AcDbEntity
  8
VER
100
AcDbLine
 10
-23.98337047679899
 20
117.2140948775312
 30
0.0
 11
-0.765366864730183
 21
124.0144906898924
 31
0.0
  0
LINE
  5
F3
330
1F
100
AcDbEntity
  8
VER
100
AcDbLine
 10
0.7653668647301767
 20
124.0144906898924
 30
0.0
 11
23.98337047679898
 21
117.2140948775312
 31
0.0
  0
CIRCLE
  5
F4
330
1F
100
AcDbEntity
  8
VER
100
AcDbCircle
 10
-0.0000000000000043
 20
0.0
 30
0.0
 40
11.50004824520569
  0
CIRCLE
  5
F5
330
1F
100
AcDbEntity
  8
050
100
AcDbCircle
 10
-0.0000000000000042
 20
0.0
 30
0.0
 40
9.4
  0
CIRCLE
  5
F6
330
1F
100
AcDbEntity
  8
050
100
AcDbCircle
 10
-0.0000000000000045
 20
0.0
 30
0.0
 40
12.85
  0
LINE
  5
F7
330
1F
100
AcDbEntity
  8
VER
100
AcDbLine
 10
1.576916273239379
 20
126.0205513666982
 30
0.0
 11
5.917723263273873
 21
109.7109038203435
 31
0.0
  0
LINE
  5
F8
330
1F
100
AcDbEntity
  8
VER
100
AcDbLine
 10
-5.917723263273865
 20
109.7109038203436
 30
0.0
 11
-1.576916273239387
 21
126.0205513666982
 31
0.0
  0
CIRCLE
  5
F9
330
1F
100
AcDbEntity
  8
050
100
AcDbCircle
 10
-0.0000000000000047
 20
0.0
 30
0.0
 40
10.82768854491158
  0
CIRCLE
  5
FA
330
1F
100
AcDbEntity
  8
050
100
AcDbCircle
 10
-0.0000000000000047
 20
0.0
 30
0.0
 40
12.37930230660857
  0
CIRCLE
  5
FB
330
1F
100
AcDbEntity
  8
050
100
AcDbCircle
 10
-0.0000000000000047
 20
0.0
 30
0.0
 40
11.98537920540369
  0
CIRCLE
  5
FC
330
1F
100
AcDbEntity
  8
050
100
AcDbCircle
 10
-0.0000000000000047
 20
0.0
 30
0.0
 40
11.32009242141768
  0
LINE
  5
FD
330
1F
100
AcDbEntity
  8
VER
100
AcDbLine
 10
-2.93927977662997
 20
121.4829013378034
 30
0.0
 11
-1.576916273239387
 21
126.05958305998
 31
0.0
  0
LINE
  5
FE
330
1F
100
AcDbEntity
  8
VER
100
AcDbLine
 10
5.591884508223243
 20
113.3424328712397
 30
0.0
 11
5.776361010617673
 21
112.6493021373589
 31
0.0
  0
LINE
  5
FF
330
1F
100
AcDbEntity
  8
050
100
AcDbLine
 10
2.705478426484197
 20
124.1874821850873
 30
0.0
 11
5.591884508223243
 21
113.3424328712397
 31
0.0
  0
LINE
  5
100
330
1F
100
AcDbEntity
  8
050
100
AcDbLine
 10
-5.591884508223253
 20
113.3424328712397
 30
0.0
 11
-2.705478426484188
 21
124.1874821850873
 31
0.0
  0
LINE
  5
101
330
1F
100
AcDbEntity
  8
VER
100
AcDbLine
 10
-5.776361010617683
 20
112.6493021373589
 30
0.0
 11
-5.591884508223253
 21
113.3424328712397
 31
0.0
  0
LINE
  5
102
330
1F
100
AcDbEntity
  8
VER
100
AcDbLine
 10
1.576916273239379
 20
126.05958305998
 30
0.0
 11
2.939279776629961
 21
121.4829013378034
 31
0.0
  0
ELLIPSE
  5
103
330
1F
100
AcDbEntity
  8
050
100
AcDbEllipse
 10
-0.0000000000000582
 20
79.07309968966214
 30
0.0
 11
6.000000000000091
 21
7.105427357601002E-14
 31
0.0
210
0.0
220
0.0
230
1.0
 40
0.7071067811865355
 41
3.981387689013134
 42
5.443390271756235
  0
LINE
  5
104
330
1F
100
AcDbEntity
  8
VER
100
AcDbLine
 10
5.999999999999993
 20
79.07309968966219
 30
0.0
 11
5.999999999999992
 21
97.40395910844693
 31
0.0
  0
LINE
  5
105
330
1F
100
AcDbEntity
  8
VER
100
AcDbLine
 10
-6.000000000000001
 20
97.40395910844693
 30
0.0
 11
-6.0
 21
79.07309968966219
 31
0.0
  0
ELLIPSE
  5
106
330
1F
100
AcDbEntity
  8
VER
100
AcDbEllipse
 10
0.0000000000000524
 20
79.0730996896622
 30
0.0
 11
6.000000000000051
 21
4.263256414560602E-14
 31
0.0
210
0.0
220
0.0
230
1.0
 40
0.7071067811865472
 41
5.443390271756228
 42
10.26457299619271
  0
LINE
  5
107
330
1F
100
AcDbEntity
  8
VER
100
AcDbLine
 10
-35.00000000000001
 20
99.48992411294724
 30
0.0
 11
-25.06576267709138
 21
116.448728012801
 31
0.0
  0
ELLIPSE
  5
108
330
1F
100
AcDbEntity
  8
VER
100
AcDbEllipse
 10
32.83521559941498
 20
99.48992411294684
 30
0.0
 11
-2.000000000000227
 21
-7.253968395352553E-13
 31
0.0
210
0.0
220
0.0
230
1.0
 40
0.7071067811865865
 41
3.141592653589562
 42
3.534291735288238
  0
LINE
  5
109
330
1F
100
AcDbEntity
  8
VER
100
AcDbLine
 10
34.68297466443778
 20
107.3212922167784
 30
0.0
 11
34.68297466443778
 21
108.4036844170839
 31
0.0
  0
LINE
  5
10A
330
1F
100
AcDbEntity
  8
050
100
AcDbLine
 10
34.83521559941521
 20
99.48992411294724
 30
0.0
 11
34.83521559941521
 21
107.5779790580869
 31
0.0
  0
LWPOLYLINE
  5
10B
330
1F
100
AcDbEntity
  8
050
100
AcDbPolyline
 90
        5
 70
     0
 43
0.0
 10
34.83521559920418
 20
107.5765713043912
 10
34.83517554843181
 20
107.5677320202362
 10
34.82288830796448
 20
107.4470492319781
 10
34.76941812109649
 20
107.3523515027402
 10
34.68297466443777
 20
107.3212922167783
  0
ELLIPSE
  5
10C
330
1F
100
AcDbEntity
  8
050
100
AcDbEllipse
 10
32.83521559941498
 20
99.48992411294748
 30
0.0
 11
-2.000000000000231
 21
3.706153303748245E-13
 31
0.0
210
0.0
220
0.0
230
1.0
 40
0.7071067811865568
 41
2.748893571891213
 42
3.141592653589884
  0
LINE
  5
10D
330
1F
100
AcDbEntity
  8
VER
100
AcDbLine
 10
25.06576267709137
 20
116.448728012801
 30
0.0
 11
34.68297466443778
 21
100.0311202130934
 31
0.0
  0
ELLIPSE
  5
10E
330
1F
100
AcDbEntity
  8
050
100
AcDbEllipse
 10
-0.0000000000000054
 20
109.6015510839149
 30
0.0
 11
-2.999999999999979
 21
3.673940397442034E-16
 31
0.0
210
0.0
220
0.0
230
1.0
 40
0.7071067811865487
 41
0.0
 42
6.283185307179586
  0
LWPOLYLINE
  5
10F
330
1F
100
AcDbEntity
  8
050
100
AcDbPolyline
 90
       35
 70
     0
 43
0.0
 10
5.999999708580832
 20
107.4786112428098
 10
5.993703366990077
 20
107.7182153207699
 10
5.94215455979338
 20
108.1998298919208
 10
5.840075386816498
 20
108.6710534694885
 10
5.68924748601159
 20
109.1284632106751
 10
5.491455061024878
 20
109.5690128242347
 10
5.24841608163386
 20
109.989961109589
 10
4.961756955935798
 20
110.3887738581003
 10
4.633054527464301
 20
110.7629994045288
 10
4.26396543480656
 20
111.1101385823986
 10
3.856443177087133
 20
111.4275467257649
 10
3.41300205648446
 20
111.7124162373541
 10
2.936936314783421
 20
111.9618758866182
 10
2.432381797287061
 20
112.1731952850613
 10
1.904160362320279
 20
112.3440184478496
 10
1.357461179247044
 20
112.47252146603
 10
0.797591995242081
 20
112.5574208818564
 10
0.2295481865790491
 20
112.5979119851899
 10
-0.3420672029625809
 20
112.5934660761561
 10
-0.9127929954747301
 20
112.5436648600144
 10
-1.478074703730548
 20
112.4481612078274
 10
-2.033342288202484
 20
112.3066637173688
 10
-2.573691212560828
 20
112.1190349899625
 10
-3.093472279583465
 20
111.8856287687223
 10
-3.586507010372868
 20
111.6075816277901
 10
-4.046366502471821
 20
111.2870811167468
 10
-4.466797859660359
 20
110.9275140664443
 10
-4.84229444943941
 20
110.5333354538893
 10
-5.168523190416024
 20
110.1097230918991
 10
-5.442463209482883
 20
109.6621856540431
 10
-5.662295513293031
 20
109.1962664582428
 10
-5.827183315982971
 20
108.7173749755302
 10
-5.937054934653064
 20
108.2307018807746
 10
-5.992429396202568
 20
107.7411668969761
 10
-5.999999999800198
 20
107.4801883354324
  0
ELLIPSE
  5
110
330
1F
100
AcDbEntity
  8
VER
100
AcDbEllipse
 10
0.0000000000000062
 20
107.4802307403552
 30
0.0
 11
5.99999999999999
 21
0.0
 31
0.0
210
0.0
220
0.0
230
1.0
 40
0.7071067811865472
 41
6.282841285609382
 42
9.424725835543681
  0
ELLIPSE
  5
111
330
1F
100
AcDbEntity
  8
050
100
AcDbEllipse
 10
-0.0000000000000284
 20
107.4802307403552
 30
0.0
 11
5.999999999999942
 21
4.263256414560600E-14
 31
0.0
210
0.0
220
0.0
230
1.0
 40
0.7071067811865529
 41
3.141540528364085
 42
4.712388980384688
  0
ELLIPSE
  5
112
330
1F
100
AcDbEntity
  8
050
100
AcDbEllipse
 10
-0.0000000000000133
 20
107.4802307403553
 30
0.0
 11
6.00000000000001
 21
-4.410214030458290E-14
 31
0.0
210
0.0
220
0.0
230
1.0
 40
0.7071067811865521
 41
4.712388980384696
 42
6.282841285609382
  0
LWPOLYLINE
  5
113
330
1F
100
AcDbEntity
  8
VER
100
AcDbPolyline
 90
       16
 70
     0
 43
0.0
 10
9.745823124887806
 20
101.8482989885138
 10
9.513482557670784
 20
101.3372718240979
 10
9.208738643792064
 20
100.8404956801472
 10
8.833910668445665
 20
100.3617513230787
 10
8.391851298851293
 20
99.90468228652338
 10
7.885924873734312
 20
99.47276714183539
 10
7.319981798676582
 20
99.06929302406324
 10
6.69832924220507
 20
98.69733061486752
 10
6.025698355638599
 20
98.35971077277924
 10
5.307208266169574
 20
98.05900298865713
 10
4.548327117215029
 20
97.79749583031068
 10
3.754830452543478
 20
97.57717952511727
 10
2.932757260899454
 20
97.39973081319002
 10
2.088364015652736
 20
97.26650018637318
 10
1.228077059258231
 20
97.17850161018364
 10
0.9071836581535724
 20
97.15755862966444
  0
LWPOLYLINE
  5
114
330
1F
100
AcDbEntity
  8
VER
100
AcDbPolyline
 90
       16
 70
     0
 43
0.0
 10
-1.239849482138953
 20
97.1793912419281
 10
-2.099964056964194
 20
97.26800998398959
 10
-2.944096637322972
 20
97.40184928620688
 10
-3.765822864577568
 20
97.57989055067573
 10
-4.558888905966715
 20
97.80077877586929
 10
-5.31725905004907
 20
98.06283286901787
 10
-6.035161642111754
 20
98.36405844024006
 10
-6.707133009947735
 20
98.70216298105382
 10
-7.328059045700376
 20
99.0745733117505
 10
-7.893214127312205
 20
99.47845516484598
 10
-8.39829708336219
 20
99.91073475556766
 10
-8.839463927577363
 20
100.3681221752126
 10
-9.213357113889423
 20
100.8471364293393
 10
-9.517131089387657
 20
101.344131930237
 10
-9.74847395069478
 20
101.8553262420499
 10
-9.81332859983787
 20
102.0410266898433
  0
LINE
  5
115
330
1F
100
AcDbEntity
  8
VER
100
AcDbLine
 10
9.745823124887801
 20
101.8482989885138
 30
0.0
 11
9.832736792725273
 21
104.9591340092084
 31
0.0
  0
LINE
  5
116
330
1F
100
AcDbEntity
  8
VER
100
AcDbLine
 10
-9.89001398555616
 20
105.1671479228387
 30
0.0
 11
-9.813328599837874
 21
102.0410266898433
 31
0.0
  0
LINE
  5
117
330
1F
100
AcDbEntity
  8
VER
100
AcDbLine
 10
-5.917723263273881
 20
109.7109038203435
 30
0.0
 11
-5.776361010617686
 21
112.6493021373589
 31
0.0
  0
LWPOLYLINE
  5
118
330
1F
100
AcDbEntity
  8
VER
100
AcDbPolyline
 90
       16
 70
     0
 43
0.0
 10
-5.917723263273794
 20
109.7109038203436
 10
-5.192637608331611
 20
110.1021202785515
 10
-4.428032845789713
 20
110.4408819681259
 10
-3.629728079572021
 20
110.7246107080593
 10
-2.803798890979047
 20
110.9511471513208
 10
-1.956531099845665
 20
111.1187672187905
 10
-1.094372925656679
 20
111.2261952205433
 10
-0.2238859127030066
 20
111.2726135646191
 10
0.6483050072323457
 20
111.2576689793912
 10
1.515561934605394
 20
111.1814752021772
 10
2.371284520534779
 20
111.0446121136285
 10
3.208960199442152
 20
110.8481213244894
 10
4.022213753608627
 20
110.5934982483094
 10
4.804855832431073
 20
110.2826807204439
 10
5.550930057117444
 20
109.9180342499569
 10
5.917723263273904
 20
109.7109038203435
  0
LINE
  5
119
330
1F
100
AcDbEntity
  8
VER
100
AcDbLine
 10
5.776361010617677
 20
112.6493021373588
 30
0.0
 11
5.917723263273869
 21
109.7109038203435
 31
0.0
  0
LWPOLYLINE
  5
11A
330
1F
100
AcDbEntity
  8
VER
100
AcDbPolyline
 90
       16
 70
     0
 43
0.0
 10
-5.776361010617688
 20
112.6493021373589
 10
-5.042932772504891
 20
113.0302695823464
 10
-4.271124770987272
 20
113.358234861406
 10
-3.466810930986789
 20
113.6307019607334
 10
-2.636112566483825
 20
113.8455972411825
 10
-1.785351793621632
 20
114.0012852199118
 10
-0.9210034155850909
 20
114.0965810173961
 10
-0.0496456454388805
 20
114.1307593750755
 10
0.8220899580459804
 20
114.1035601750105
 10
1.687568960558622
 20
114.015190419537
 10
2.540204544299415
 20
113.8663226558532
 10
3.37350763764065
 20
113.6580898575296
 10
4.181136300879833
 20
113.3920768018958
 10
4.956943992230198
 20
113.0703080089283
 10
5.695026346715074
 20
112.6952323334308
 10
5.776361010617673
 20
112.6493021373589
  0
ELLIPSE
  5
11B
330
1F
100
AcDbEntity
  8
VER
100
AcDbEllipse
 10
-0.0000000000000995
 20
97.40395910844691
 30
0.0
 11
10.00000000000009
 21
0.0
 31
0.0
210
0.0
220
0.0
230
1.0
 40
0.7071067811865468
 41
5.776995118002008
 42
6.283185307179588
  0
ELLIPSE
  5
11C
330
1F
100
AcDbEntity
  8
050
100
AcDbEllipse
 10
-0.000000000007212
 20
97.40395910845396
 30
0.0
 11
10.0000000000084
 21
-6.681551009748849E-12
 31
0.0
210
0.0
220
0.0
230
1.0
 40
0.7071067811867623
 41
-0.5907344288593901
 42
-0.5061901891771399
  0
ELLIPSE
  5
11D
330
1F
100
AcDbEntity
  8
VER
100
AcDbEllipse
 10
0.0000000000000195
 20
97.40395910844683
 30
0.0
 11
9.999999999999952
 21
7.105427357601002E-14
 31
0.0
210
0.0
220
0.0
230
1.0
 40
0.7071067811865396
 41
3.730923132114983
 42
5.692450878319678
  0
LINE
  5
11E
330
1F
100
AcDbEntity
  8
050
100
AcDbLine
 10
9.999999999999993
 20
104.798041917476
 30
0.0
 11
9.999999999999993
 21
107.4802307403552
 31
0.0
  0
LINE
  5
11F
330
1F
100
AcDbEntity
  8
VER
100
AcDbLine
 10
9.999999999999993
 20
97.40395910844693
 30
0.0
 11
9.999999999999993
 21
104.798041917476
 31
0.0
  0
LINE
  5
120
330
1F
100
AcDbEntity
  8
VER
100
AcDbLine
 10
-10.0
 20
105.0690153801411
 30
0.0
 11
-10.0
 21
97.40395910844693
 31
0.0
  0
LINE
  5
121
330
1F
100
AcDbEntity
  8
050
100
AcDbLine
 10
-10.0
 20
107.4802307403552
 30
0.0
 11
-10.0
 21
105.0690153801411
 31
0.0
  0
ELLIPSE
  5
122
330
1F
100
AcDbEntity
  8
VER
100
AcDbEllipse
 10
-0.000000000000008
 20
97.40395910844693
 30
0.0
 11
10.0
 21
0.0
 31
0.0
210
0.0
220
0.0
230
1.0
 40
0.7071067811865476
 41
0.0
 42
3.141592653589793
  0
ELLIPSE
  5
123
330
1F
100
AcDbEntity
  8
050
100
AcDbEllipse
 10
0.0000000000015454
 20
97.40395910844919
 30
0.0
 11
10.00000000000178
 21
2.827960088325199E-12
 31
0.0
210
0.0
220
0.0
230
1.0
 40
0.7071067811866362
 41
3.600191746863977
 42
3.730923132114785
  0
ELLIPSE
  5
124
330
1F
100
AcDbEntity
  8
VER
100
AcDbEllipse
 10
-0.0000000000006448
 20
97.40395910844697
 30
0.0
 11
9.999999999999346
 21
2.700062395888381E-13
 31
0.0
210
0.0
220
0.0
230
1.0
 40
0.7071067811865497
 41
3.141592653589761
 42
3.600191746864168
  0
ELLIPSE
  5
125
330
1F
100
AcDbEntity
  8
VER
100
AcDbEllipse
 10
-0.0000000000599236
 20
106.0660171779823
 30
0.0
 11
21.99999999994008
 21
0.0
 31
0.0
210
0.0
220
0.0
230
1.0
 40
0.7071067811865472
 41
3.127142547308972
 42
3.781106553563258
  0
ELLIPSE
  5
126
330
1F
100
AcDbEntity
  8
050
100
AcDbEllipse
 10
-0.0000000000001243
 20
106.0660171779822
 30
0.0
 11
21.99999999999986
 21
1.421085471520200E-14
 31
0.0
210
0.0
220
0.0
230
1.0
 40
0.7071067811865481
 41
1.727762072386797
 42
3.127142547308999
  0
ELLIPSE
  5
127
330
1F
100
AcDbEntity
  8
VER
100
AcDbEllipse
 10
0.0000000000136731
 20
106.0660171779178
 30
0.0
 11
22.00000000009198
 21
2.444267011014745E-12
 31
0.0
210
0.0
220
0.0
230
1.0
 40
0.7071067811865567
 41
-4.578384657970546
 42
-4.555423234792894
  0
LINE
  5
128
330
1F
100
AcDbEntity
  8
VER
100
AcDbLine
 10
-17.65249111623426
 20
96.78190285858504
 30
0.0
 11
-17.70185731546178
 21
97.53612640631002
 31
0.0
  0
LINE
  5
129
330
1F
100
AcDbEntity
  8
VER
100
AcDbLine
 10
-2.908838357916516
 20
122.1928947001285
 30
0.0
 11
-2.93927977662997
 21
121.4829013378034
 31
0.0
  0
LINE
  5
12A
330
1F
100
AcDbEntity
  8
VER
100
AcDbLine
 10
-22.0
 20
106.7731239591687
 30
0.0
 11
-22.0
 21
106.0660171779822
 31
0.0
  0
ELLIPSE
  5
12B
330
1F
100
AcDbEntity
  8
VER
100
AcDbEllipse
 10
0.0000000000004832
 20
106.0660171779818
 30
0.0
 11
21.99999999999948
 21
1.278976924368180E-13
 31
0.0
210
0.0
220
0.0
230
1.0
 40
0.7071067811865471
 41
5.608794077807529
 42
6.283185307179597
  0
LINE
  5
12C
330
1F
100
AcDbEntity
  8
VER
100
AcDbLine
 10
17.23286150102465
 20
97.10284773543798
 30
0.0
 11
17.18391896265461
 21
96.35229160318542
 31
0.0
  0
LINE
  5
12D
330
1F
100
AcDbEntity
  8
VER
100
AcDbLine
 10
2.939279776629967
 20
121.4829013378032
 30
0.0
 11
2.908838357916504
 21
122.1928947001285
 31
0.0
  0
LINE
  5
12E
330
1F
100
AcDbEntity
  8
VER
100
AcDbLine
 10
21.99999999999999
 20
106.0660171779821
 30
0.0
 11
21.99999999999999
 21
106.7731239591687
 31
0.0
  0
ELLIPSE
  5
12F
330
1F
100
AcDbEntity
  8
VER
100
AcDbEllipse
 10
-0.000000000013864
 20
106.0660171779169
 30
0.0
 11
22.00000000009329
 21
0.0
 31
0.0
210
0.0
220
0.0
230
1.0
 40
0.7071067811865476
 41
1.413830581203023
 42
1.436792004380674
  0
ELLIPSE
  5
130
330
1F
100
AcDbEntity
  8
050
100
AcDbEllipse
 10
-0.0000000000001439
 20
106.0660171779821
 30
0.0
 11
22.00000000000017
 21
-2.492837114965130E-14
 31
0.0
210
0.0
220
0.0
230
1.0
 40
0.7071067811865478
 41
0.0000000000000053
 42
1.413830581202985
  0
LINE
  5
131
330
1F
100
AcDbEntity
  8
VER
100
AcDbLine
 10
-21.23693249820099
 20
92.98730050680786
 30
0.0
 11
-17.65249111623427
 21
96.78190285858498
 31
0.0
  0
LINE
  5
132
330
1F
100
AcDbEntity
  8
VER
100
AcDbLine
 10
-21.23693249820099
 20
91.84857355855206
 30
0.0
 11
-9.813328599837877
 21
102.0410266898433
 31
0.0
  0
LINE
  5
133
330
1F
100
AcDbEntity
  8
VER
100
AcDbLine
 10
17.18391896265461
 20
96.35229160318542
 30
0.0
 11
20.58477300999471
 21
92.46603926426566
 31
0.0
  0
LINE
  5
134
330
1F
100
AcDbEntity
  8
VER
100
AcDbLine
 10
9.745823124887796
 20
101.8482989885138
 30
0.0
 11
20.5847730099947
 21
91.40924823955655
 31
0.0
  0
LINE
  5
135
330
1F
100
AcDbEntity
  8
050
100
AcDbLine
 10
-17.62595090639323
 20
98.26493254546938
 30
0.0
 11
-9.890013985556157
 21
105.1671479228387
 31
0.0
  0
LINE
  5
136
330
1F
100
AcDbEntity
  8
VER
100
AcDbLine
 10
-17.79573177112733
 20
98.11344939516167
 30
0.0
 11
-17.62595090639323
 21
98.26493254546938
 31
0.0
  0
LWPOLYLINE
  5
137
330
1F
100
AcDbEntity
  8
050
100
AcDbPolyline
 90
       16
 70
     0
 43
0.0
 10
-1.952997323385111
 20
100.1057499261989
 10
-2.800339950465369
 20
100.2318751618956
 10
-3.626370299631092
 20
100.402401741086
 10
-4.424801781154367
 20
100.6160318535357
 10
-5.189557849354696
 20
100.8711396450955
 10
-5.914818248780731
 20
101.1657835914335
 10
-6.595063309868638
 20
101.497721274207
 10
-7.22511595696034
 20
101.8644264472207
 10
-7.800181108975281
 20
102.2631082626853
 10
-8.315882172872795
 20
102.6907325112546
 10
-8.768294352167803
 20
103.1440447141902
 10
-9.153974517001929
 20
103.6195948919106
 10
-9.469987408440735
 20
104.1137638204181
 10
-9.713927977566572
 20
104.6227905757794
 10
-9.883939689353046
 20
105.1428011570276
 10
-9.890013985556157
 20
105.1671479228387
  0
LINE
  5
138
330
1F
100
AcDbEntity
  8
VER
100
AcDbLine
 10
17.1796072194154
 20
97.88332370994573
 30
0.0
 11
17.33920576926638
 21
97.72961349087333
 31
0.0
  0
LINE
  5
139
330
1F
100
AcDbEntity
  8
050
100
AcDbLine
 10
9.832736792725274
 20
104.9591340092084
 30
0.0
 11
17.1796072194154
 21
97.88332370994573
 31
0.0
  0
LWPOLYLINE
  5
13A
330
1F
100
AcDbEntity
  8
050
100
AcDbPolyline
 90
       16
 70
     0
 43
0.0
 10
9.832736792725274
 20
104.9591340092084
 10
9.636579834256208
 20
104.4425344062429
 10
9.367082684522458
 20
103.938290487456
 10
9.026296379560327
 20
103.4502398535405
 10
8.616814508922973
 20
102.9820968645136
 10
8.141753476897861
 20
102.5374243711942
 10
7.604728784788394
 20
102.119606599757
 10
7.009827514765901
 20
101.7318233957279
 10
6.361577224706464
 20
101.3770260234396
 10
5.664911490741658
 20
101.0579147051276
 10
4.925132359765229
 20
100.776918070609
 10
4.147869997654758
 20
100.5361746739428
 10
3.339039840309753
 20
100.3375167177426
 10
2.504797573612612
 20
100.182456109008
 10
1.651492284942152
 20
100.0721729525995
 10
1.607627359219401
 20
100.0677700074887
  0
LINE
  5
13B
330
1F
100
AcDbEntity
  8
VER
100
AcDbLine
 10
-19.0460963207635
 20
91.36733805865
 30
0.0
 11
-21.23693249820099
 21
92.98730050680786
 31
0.0
  0
LINE
  5
13C
330
1F
100
AcDbEntity
  8
VER
100
AcDbLine
 10
-21.23693249820099
 20
91.84857355855206
 30
0.0
 11
-21.23693249820099
 21
92.98730050680786
 31
0.0
  0
LINE
  5
13D
330
1F
100
AcDbEntity
  8
VER
100
AcDbLine
 10
-19.0460963207635
 20
90.48324949220336
 30
0.0
 11
-21.23693249820099
 21
91.84857355855206
 31
0.0
  0
LINE
  5
13E
330
1F
100
AcDbEntity
  8
VER
100
AcDbLine
 10
-13.55919959763444
 20
93.81554563049649
 30
0.0
 11
-19.0460963207635
 21
91.36733805865
 31
0.0
  0
LINE
  5
13F
330
1F
100
AcDbEntity
  8
VER
100
AcDbLine
 10
-13.65829132702123
 20
94.57781588544177
 30
0.0
 11
-13.55919959763443
 21
93.81554563049649
 31
0.0
  0
LINE
  5
140
330
1F
100
AcDbEntity
  8
VER
100
AcDbLine
 10
-19.0460963207635
 20
90.48324949220336
 30
0.0
 11
-19.0460963207635
 21
91.36733805865
 31
0.0
  0
LINE
  5
141
330
1F
100
AcDbEntity
  8
VER
100
AcDbLine
 10
-9.839891314690858
 20
93.94529594457356
 30
0.0
 11
-19.0460963207635
 21
90.48324949220336
 31
0.0
  0
LINE
  5
142
330
1F
100
AcDbEntity
  8
050
100
AcDbLine
 10
-1.239849482138993
 20
97.1793912419281
 30
0.0
 11
-9.839891314690858
 21
93.94529594457356
 31
0.0
  0
LINE
  5
143
330
1F
100
AcDbEntity
  8
050
100
AcDbLine
 10
-1.239849482138992
 20
97.17939124192807
 30
0.0
 11
-1.95299732338511
 21
100.1057499261988
 31
0.0
  0
LINE
  5
144
330
1F
100
AcDbEntity
  8
VER
100
AcDbLine
 10
-13.80745272143821
 20
95.64781365076949
 30
0.0
 11
-14.03457865851363
 21
95.56240163309505
 31
0.0
  0
LINE
  5
145
330
1F
100
AcDbEntity
  8
050
100
AcDbLine
 10
-1.952997323385097
 20
100.1057499261989
 30
0.0
 11
-13.80745272143821
 21
95.64781365076949
 31
0.0
  0
LINE
  5
146
330
1F
100
AcDbEntity
  8
VER
100
AcDbLine
 10
18.31609573570913
 20
90.90165971247065
 30
0.0
 11
12.94585743468572
 21
93.48816411633459
 31
0.0
  0
LINE
  5
147
330
1F
100
AcDbEntity
  8
VER
100
AcDbLine
 10
12.94585743468571
 20
93.48816411633457
 30
0.0
 11
13.04530423874954
 21
94.24675103404654
 31
0.0
  0
LINE
  5
148
330
1F
100
AcDbEntity
  8
050
100
AcDbLine
 10
13.23179435152251
 20
95.34917935511643
 30
0.0
 11
1.607627359219416
 21
100.0677700074887
 31
0.0
  0
LINE
  5
149
330
1F
100
AcDbEntity
  8
VER
100
AcDbLine
 10
13.44749590164516
 20
95.26161976320886
 30
0.0
 11
13.23179435152251
 21
95.34917935511643
 31
0.0
  0
LINE
  5
14A
330
1F
100
AcDbEntity
  8
050
100
AcDbLine
 10
1.607627359219432
 20
100.0677700074887
 30
0.0
 11
0.9071836581536424
 21
97.15755862966444
 31
0.0
  0
LINE
  5
14B
330
1F
100
AcDbEntity
  8
050
100
AcDbLine
 10
9.267705193701083
 20
93.76377748451118
 30
0.0
 11
0.9071836581536291
 21
97.15755862966442
 31
0.0
  0
LINE
  5
14C
330
1F
100
AcDbEntity
  8
VER
100
AcDbLine
 10
18.31609573570913
 20
90.09077011470967
 30
0.0
 11
9.267705193701083
 21
93.76377748451118
 31
0.0
  0
LINE
  5
14D
330
1F
100
AcDbEntity
  8
VER
100
AcDbLine
 10
20.58477300999471
 20
92.46603926426566
 30
0.0
 11
18.31609573570913
 21
90.90165971247065
 31
0.0
  0
LINE
  5
14E
330
1F
100
AcDbEntity
  8
VER
100
AcDbLine
 10
20.5847730099947
 20
91.40924823955655
 30
0.0
 11
20.58477300999471
 21
92.46603926426566
 31
0.0
  0
LINE
  5
14F
330
1F
100
AcDbEntity
  8
VER
100
AcDbLine
 10
18.31609573570913
 20
90.09077011470967
 30
0.0
 11
18.31609573570913
 21
90.90165971247065
 31
0.0
  0
LINE
  5
150
330
1F
100
AcDbEntity
  8
VER
100
AcDbLine
 10
20.5847730099947
 20
91.40924823955655
 30
0.0
 11
18.31609573570913
 21
90.09077011470967
 31
0.0
  0
ELLIPSE
  5
151
330
1F
100
AcDbEntity
  8
VER
100
AcDbEllipse
 10
-0.0000000000000009
 20
106.0660171779821
 30
0.0
 11
22.00000000000001
 21
0.0
 31
0.0
210
0.0
220
0.0
230
1.0
 40
0.7071067811865505
 41
4.048318699667906
 42
5.341527037001718
  0
ELLIPSE
  5
152
330
1F
100
AcDbEntity
  8
050
100
AcDbEllipse
 10
23.21800361206889
 20
83.07231631323948
 30
0.0
 11
-1.999999999999883
 21
-1.258764062375809E-13
 31
0.0
210
0.0
220
0.0
230
1.0
 40
0.7071067811865165
 41
1.963495408493551
 42
2.748893571891059
  0
ELLIPSE
  5
153
330
1F
100
AcDbEntity
  8
050
100
AcDbEllipse
 10
-23.21800361206873
 20
83.07231631323958
 30
0.0
 11
-2.000000000000103
 21
1.272544433769539E-13
 31
0.0
210
0.0
220
0.0
230
1.0
 40
0.7071067811865168
 41
0.3926990816987761
 42
1.178097245096193
  0
LINE
  5
154
330
1F
100
AcDbEntity
  8
050
100
AcDbLine
 10
-35.00000000000001
 20
99.48992411294724
 30
0.0
 11
-35.00000000000001
 21
106.7731239591687
 31
0.0
  0
LINE
  5
155
330
1F
100
AcDbEntity
  8
050
100
AcDbLine
 10
-25.06576267709139
 20
82.53112021309343
 30
0.0
 11
-35.00000000000001
 21
99.48992411294724
 31
0.0
  0
LINE
  5
156
330
1F
100
AcDbEntity
  8
050
100
AcDbLine
 10
-25.06576267709139
 20
82.53112021309343
 30
0.0
 11
-25.06576267709139
 21
90.90368441707078
 31
0.0
  0
ELLIPSE
  5
157
330
1F
100
AcDbEntity
  8
VER
100
AcDbEllipse
 10
-0.000000000000103
 20
106.0660171779821
 30
0.0
 11
28.50000000000004
 21
1.421085471520201E-14
 31
0.0
210
0.0
220
0.0
230
1.0
 40
0.7071067811865479
 41
5.288340733722583
 42
9.424777960769376
  0
ELLIPSE
  5
158
330
1F
100
AcDbEntity
  8
VER
100
AcDbEllipse
 10
-0.0000000000000107
 20
106.066017177982
 30
0.0
 11
28.49999999999979
 21
0.0
 31
0.0
210
0.0
220
0.0
230
1.0
 40
0.7071067811865476
 41
4.71238898038469
 42
5.288340733722584
  0
ELLIPSE
  5
159
330
1F
100
AcDbEntity
  8
VER
100
AcDbEllipse
 10
-0.000000000000032
 20
99.4899241129474
 30
0.0
 11
28.50000000000018
 21
1.421085471520200E-14
 31
0.0
210
0.0
220
0.0
230
1.0
 40
0.7071067811865477
 41
4.71238898038469
 42
7.181664544414168
  0
LINE
  5
15A
330
1F
100
AcDbEntity
  8
VER
100
AcDbLine
 10
28.49999999999998
 20
99.48992411294724
 30
0.0
 11
28.49999999999998
 21
106.0660171779821
 31
0.0
  0
LINE
  5
15B
330
1F
100
AcDbEntity
  8
VER
100
AcDbLine
 10
-28.49999999999999
 20
106.0660171779821
 30
0.0
 11
-28.49999999999999
 21
99.48992411294724
 31
0.0
  0
ELLIPSE
  5
15C
330
1F
100
AcDbEntity
  8
VER
100
AcDbEllipse
 10
-0.0000000000000169
 20
106.0660171779821
 30
0.0
 11
28.49999999999994
 21
0.0
 31
0.0
210
0.0
220
0.0
230
1.0
 40
0.7071067811865478
 41
4.471524530927873
 42
4.71238898038469
  0
ELLIPSE
  5
15D
330
1F
100
AcDbEntity
  8
VER
100
AcDbEllipse
 10
0.0000000000001172
 20
106.0660171779824
 30
0.0
 11
28.50000000000008
 21
1.563194018672220E-13
 31
0.0
210
0.0
220
0.0
230
1.0
 40
0.7071067811865562
 41
4.135289845345962
 42
4.471524530927865
  0
ELLIPSE
  5
15E
330
1F
100
AcDbEntity
  8
VER
100
AcDbEllipse
 10
-0.000000000000405
 20
106.066017177982
 30
0.0
 11
28.49999999999952
 21
-8.291974163949922E-14
 31
0.0
210
0.0
220
0.0
230
1.0
 40
0.7071067811865471
 41
3.141592653589789
 42
4.135289845345981
  0
ELLIPSE
  5
15F
330
1F
100
AcDbEntity
  8
VER
100
AcDbEllipse
 10
-0.0000000000003197
 20
99.48992411294735
 30
0.0
 11
28.49999999999965
 21
-1.082328266009529E-13
 31
0.0
210
0.0
220
0.0
230
1.0
 40
0.7071067811865495
 41
2.243113416355205
 42
3.141592653589803
  0
ELLIPSE
  5
160
330
1F
100
AcDbEntity
  8
050
100
AcDbEllipse
 10
-0.0000000000001119
 20
99.48992411294743
 30
0.0
 11
28.49999999999973
 21
2.842170943040401E-14
 31
0.0
210
0.0
220
0.0
230
1.0
 40
0.7071067811865475
 41
1.710455323163119
 42
2.243113416355207
  0
ELLIPSE
  5
161
330
1F
100
AcDbEntity
  8
VER
100
AcDbEllipse
 10
0.0000000000000007
 20
99.48992411294762
 30
0.0
 11
28.49999999999991
 21
0.0
 31
0.0
210
0.0
220
0.0
230
1.0
 40
0.7071067811865349
 41
1.431137330426671
 42
1.710455323163122
  0
ELLIPSE
  5
162
330
1F
100
AcDbEntity
  8
050
100
AcDbEllipse
 10
0.0000000000000684
 20
99.48992411294739
 30
0.0
 11
28.49999999999978
 21
0.0
 31
0.0
210
0.0
220
0.0
230
1.0
 40
0.7071067811865495
 41
0.898479237234584
 42
1.431137330426673
  0
ELLIPSE
  5
163
330
1F
100
AcDbEntity
  8
VER
100
AcDbEllipse
 10
0.0000000000000924
 20
99.4899241129474
 30
0.0
 11
28.50000000000025
 21
-3.229357171659376E-14
 31
0.0
210
0.0
220
0.0
230
1.0
 40
0.7071067811865477
 41
3.141592653589803
 42
4.712388980384687
  0
LINE
  5
164
330
1F
100
AcDbEntity
  8
050
100
AcDbLine
 10
25.06576267709137
 20
82.53112021309344
 30
0.0
 11
25.06576267709137
 21
90.90368441708397
 31
0.0
  0
LINE
  5
165
330
1F
100
AcDbEntity
  8
050
100
AcDbLine
 10
34.68297466443778
 20
98.94872801280106
 30
0.0
 11
25.06576267709137
 21
82.53112021309344
 31
0.0
  0
LINE
  5
166
330
1F
100
AcDbEntity
  8
050
100
AcDbLine
 10
34.68297466443778
 20
98.94872801280106
 30
0.0
 11
34.68297466443778
 21
107.3212922167784
 31
0.0
  0
LWPOLYLINE
  5
167
330
1F
100
AcDbEntity
  8
VER
100
AcDbPolyline
 90
        5
 70
     0
 43
0.0
 10
-2.705478426484188
 20
124.1874821850873
 10
-2.729396767249396
 20
124.0180983078681
 10
-2.811356874181841
 20
123.3694446957639
 10
-2.872979891269174
 20
122.7481498130347
 10
-2.908838357916522
 20
122.1928947001284
  0
LWPOLYLINE
  5
168
330
1F
100
AcDbEntity
  8
050
100
AcDbPolyline
 90
        4
 70
     0
 43
0.0
 10
2.705478426484197
 20
124.1874821850873
 10
0.8148623170739739
 20
124.3184193267919
 10
-1.099466126616612
 20
124.3077320862622
 10
-2.705478426484188
 20
124.1874821850873
  0
LWPOLYLINE
  5
169
330
1F
100
AcDbEntity
  8
VER
100
AcDbPolyline
 90
        5
 70
     0
 43
0.0
 10
2.908838357916513
 20
122.1928947001284
 10
2.883992165602545
 20
122.6087055938884
 10
2.842359376526843
 20
123.0804012889518
 10
2.782397439598917
 20
123.613579110498
 10
2.705478426484197
 20
124.1874821850873
  0
ELLIPSE
  5
16A
330
1F
100
AcDbEntity
  8
VER
100
AcDbEllipse
 10
0.0000000000004867
 20
106.7731239591554
 30
0.0
 11
21.9999999999995
 21
2.665956344571896E-11
 31
0.0
210
0.0
220
0.0
230
1.0
 40
0.7071067811865402
 41
6.236376240369934
 42
6.282511401014625
  0
ELLIPSE
  5
16B
330
1F
100
AcDbEntity
  8
VER
100
AcDbEllipse
 10
0.0000000000001421
 20
106.7731239591689
 30
0.0
 11
21.99999999999983
 21
-2.984873244172874E-13
 31
0.0
210
0.0
220
0.0
230
1.0
 40
0.7071067811865515
 41
5.612364812515326
 42
6.184832356718357
  0
LWPOLYLINE
  5
16C
330
1F
100
AcDbEntity
  8
VER
100
AcDbPolyline
 90
        3
 70
     0
 43
0.0
 10
17.33920576926638
 20
97.72961349087333
 10
17.25346700001407
 20
97.31813166170743
 10
17.23286150102465
 20
97.10284773543798
  0
LWPOLYLINE
  5
16D
330
1F
100
AcDbEntity
  8
VER
100
AcDbPolyline
 90
        6
 70
     0
 43
0.0
 10
13.44749590164516
 20
95.26161976320886
 10
14.17642434770002
 20
95.63824323864863
 10
15.02690180393609
 20
96.12092827220233
 10
15.83763435895249
 20
96.63031121400543
 10
16.61048436894474
 20
97.16787207850635
 10
17.33920576926638
 20
97.72961349087333
  0
LWPOLYLINE
  5
16E
330
1F
100
AcDbEntity
  8
VER
100
AcDbPolyline
 90
        5
 70
     0
 43
0.0
 10
13.04530423874954
 20
94.24675103404658
 10
13.07260668707576
 20
94.41214025812847
 10
13.20577550420674
 20
94.84523768643976
 10
13.42348540346148
 20
95.22946333793617
 10
13.44749590164516
 20
95.26161976320886
  0
ELLIPSE
  5
16F
330
1F
100
AcDbEntity
  8
VER
100
AcDbEllipse
 10
0.0000000000000364
 20
106.7731239591686
 30
0.0
 11
21.99999999999996
 21
-2.492837114965106E-14
 31
0.0
210
0.0
220
0.0
230
1.0
 40
0.7071067811865468
 41
4.042586156626793
 42
5.347129227297943
  0
LWPOLYLINE
  5
170
330
1F
100
AcDbEntity
  8
VER
100
AcDbPolyline
 90
        3
 70
     0
 43
0.0
 10
-14.03457865851363
 20
95.56240163309505
 10
-13.77673010845907
 20
95.0711746376649
 10
-13.65829132702123
 20
94.57781588544178
  0
LWPOLYLINE
  5
171
330
1F
100
AcDbEntity
  8
VER
100
AcDbPolyline
 90
        5
 70
     0
 43
0.0
 10
-17.79573177112733
 20
98.11344939516167
 10
-16.96181650717507
 20
97.4314447393532
 10
-16.05841771543718
 20
96.778339705882
 10
-15.07981235887253
 20
96.15262987309869
 10
-14.03457865851363
 20
95.56240163309505
  0
LWPOLYLINE
  5
172
330
1F
100
AcDbEntity
  8
VER
100
AcDbPolyline
 90
        3
 70
     0
 43
0.0
 10
-17.70185731546178
 20
97.53612640631006
 10
-17.73313928346069
 20
97.82368870044787
 10
-17.79573177112733
 20
98.11344939516167
  0
ELLIPSE
  5
173
330
1F
100
AcDbEntity
  8
050
100
AcDbEllipse
 10
0.0000000000001741
 20
106.7731239591686
 30
0.0
 11
22.0000000000002
 21
-2.492837114965134E-14
 31
0.0
210
0.0
220
0.0
230
1.0
 40
0.7071067811865488
 41
1.718849402397098
 42
3.141227449189816
  0
ELLIPSE
  5
174
330
1F
100
AcDbEntity
  8
VER
100
AcDbEllipse
 10
-0.0000000000023017
 20
106.7731239591774
 30
0.0
 11
21.99999999998751
 21
-1.861681343088453E-12
 31
0.0
210
0.0
220
0.0
230
1.0
 40
0.7071067811865415
 41
-4.579780745203328
 42
-4.564335904782458
  0
LWPOLYLINE
  5
175
330
1F
100
AcDbEntity
  8
050
100
AcDbPolyline
 90
       35
 70
     0
 43
0.0
 10
-0.0000000000000063
 20
92.38834764831843
 10
-0.5473916145158554
 20
92.39292021530478
 10
-1.614998519217234
 20
92.42819546113908
 10
-2.678604754042371
 20
92.49821401888899
 10
-3.735460459550469
 20
92.60274250902035
 10
-4.78291830037672
 20
92.74143536892348
 10
-5.818361381844418
 20
92.91383429487328
 10
-6.839212518614976
 20
93.11936945136652
 10
-7.842943700797617
 20
93.35736116066153
 10
-8.827085769874406
 20
93.62702216010194
 10
-9.789238319419393
 20
93.92746054031508
 10
-10.72707981780197
 20
94.25768350470985
 10
-11.63837792562967
 20
94.61660212074237
 10
-12.52099994778186
 20
95.00303726604797
 10
-13.37292331626166
 20
95.4157270072475
 10
-14.19224594302314
 20
95.8533356849144
 10
-14.9771962080792
 20
96.31446501275917
 10
-15.72609308567309
 20
96.79763429339525
 10
-16.43741509403574
 20
97.30132547449941
 10
-17.10982505020874
 20
97.82401813834693
 10
-17.74214738247438
 20
98.36419651325386
 10
-18.33336972428372
 20
98.92037573688567
 10
-18.88263987728662
 20
99.49113196406843
 10
-19.38925658277529
 20
100.075136064568
 10
-19.85265220459137
 20
100.6711900178126
 10
-20.27236516622194
 20
101.2782640420635
 10
-20.64799993805716
 20
101.8955307388135
 10
-20.97917285613675
 20
102.5223897690725
 10
-21.26544367491996
 20
103.158472506192
 10
-21.50623653817344
 20
103.8036107965096
 10
-21.70076141396432
 20
104.457748752469
 10
-21.84795906284704
 20
105.1207758579331
 10
-21.94650747252323
 20
105.7922733396865
 10
-21.99493551153114
 20
106.4712073061163
 10
-21.99999888726671
 20
106.7775993584617
  0
LWPOLYLINE
  5
176
330
1F
100
AcDbEntity
  8
050
100
AcDbPolyline
 90
       34
 70
     0
 43
0.0
 10
21.99999589681377
 20
106.7645299294253
 10
21.97585378846599
 20
106.1139808776048
 10
21.89920957179041
 20
105.4272458680663
 10
21.77039490378281
 20
104.7438288918228
 10
21.59042795171706
 20
104.0667352670255
 10
21.36068008338992
 20
103.398226114671
 10
21.08257808350492
 20
102.7398192553395
 10
20.75741661310093
 20
102.0924965314956
 10
20.38629529101891
 20
101.4569587621266
 10
19.97013972574889
 20
100.833831243859
 10
19.5097606348961
 20
100.2237932332342
 10
19.00592060277736
 20
99.62764224347335
 10
18.45939358663548
 20
99.04631387472396
 10
17.87101206994637
 20
98.48087535560747
 10
17.24170158145756
 20
97.93250545930564
 10
16.57250419343348
 20
97.40246863909056
 10
15.86459308823057
 20
96.8920878768911
 10
15.11928017161532
 20
96.40271863873794
 10
14.33801840990554
 20
95.93572509071147
 10
13.52240024252062
 20
95.49245902558533
 10
12.67416879657007
 20
95.07424891415316
 10
11.79523714176343
 20
94.68239156313571
 10
10.88756705845744
 20
94.31808724025457
 10
9.953232343006928
 20
93.98246897792177
 10
8.994409824980048
 20
93.67659293990441
 10
8.013369895752172
 20
93.40143039858916
 10
7.012466830177334
 20
93.15786112862921
 10
5.994129048430316
 20
92.94666800724077
 10
4.960849416620353
 20
92.76853263577038
 10
3.915175646902536
 20
92.62403182181346
 10
2.859700828349147
 20
92.51363478510648
 10
1.797054097141848
 20
92.43770097316727
 10
0.7298914372889472
 20
92.39647839404827
 10
-0.0000000000000063
 20
92.38834764831843
  0
ELLIPSE
  5
177
330
1F
100
AcDbEntity
  8
VER
100
AcDbEllipse
 10
0.0000000000017497
 20
106.7731239591747
 30
0.0
 11
21.99999999999127
 21
1.818989403545856E-12
 31
0.0
210
0.0
220
0.0
230
1.0
 40
0.7071067811865424
 41
1.422743251192667
 42
1.438188091613534
  0
ELLIPSE
  5
178
330
1F
100
AcDbEntity
  8
050
100
AcDbEllipse
 10
-0.0000000000000124
 20
106.7731239591688
 30
0.0
 11
21.99999999999989
 21
2.842170943040401E-14
 31
0.0
210
0.0
220
0.0
230
1.0
 40
0.7071067811865489
 41
6.282511401015475
 42
7.705928558372288
  0
ELLIPSE
  5
179
330
1F
100
AcDbEntity
  8
VER
100
AcDbEllipse
 10
0.000000000000469
 20
106.7731239591691
 30
0.0
 11
22.00000000000052
 21
5.115907697472721E-13
 31
0.0
210
0.0
220
0.0
230
1.0
 40
0.7071067811865527
 41
3.220647335112599
 42
3.777337111084949
  0
ELLIPSE
  5
17A
330
1F
100
AcDbEntity
  8
VER
100
AcDbEllipse
 10
-0.000000000916458
 20
106.7731239584495
 30
0.0
 11
21.99999999908354
 21
-1.434841638200143E-9
 31
0.0
210
0.0
220
0.0
230
1.0
 40
0.7071067811865082
 41
3.141227449235807
 42
3.147520466476808
  0
ELLIPSE
  5
17B
330
1F
100
AcDbEntity
  8
050
100
AcDbEllipse
 10
-0.0000000000000054
 20
109.6015510839149
 30
0.0
 11
-25.99999999999998
 21
3.184081677783115E-15
 31
0.0
210
0.0
220
0.0
230
1.0
 40
0.7071067811865479
 41
0.0
 42
6.283185307179586
  0
ELLIPSE
  5
17C
330
1F
100
AcDbEntity
  8
050
100
AcDbEllipse
 10
-0.0000000000000029
 20
76.27192050087848
 30
0.0
 11
-2.000000000000057
 21
2.449293598294776E-16
 31
0.0
210
0.0
220
0.0
230
1.0
 40
0.7071067811865474
 41
1.178097245096184
 42
1.963495408493609
  0
LINE
  5
17D
330
1F
100
AcDbEntity
  8
050
100
AcDbLine
 10
-23.98337047679899
 20
81.76575334836325
 30
0.0
 11
-23.98337047679899
 21
90.13831755234054
 31
0.0
  0
LINE
  5
17E
330
1F
100
AcDbEntity
  8
050
100
AcDbLine
 10
-0.7653668647301825
 20
74.96535753600206
 30
0.0
 11
-23.98337047679899
 21
81.76575334836325
 31
0.0
  0
LINE
  5
17F
330
1F
100
AcDbEntity
  8
050
100
AcDbLine
 10
-0.7653668647301825
 20
74.96535753600206
 30
0.0
 11
-0.765366864730183
 21
83.33792173997936
 31
0.0
  0
LWPOLYLINE
  5
180
330
1F
100
AcDbEntity
  8
050
100
AcDbPolyline
 90
        7
 70
     0
 43
0.0
 10
0.7653668647301761
 20
83.3379217399708
 10
0.4704839823258307
 20
83.10103499717344
 10
0.1973709466317298
 20
82.97292527091219
 10
-0.0127897076209828
 20
82.94449558556876
 10
-0.2218232060727675
 20
82.98035938953912
 10
-0.5089528267660425
 20
83.12654044624328
 10
-0.765366864730183
 20
83.33792173997936
  0
LWPOLYLINE
  5
181
330
1F
100
AcDbEntity
  8
050
100
AcDbPolyline
 90
        7
 70
     0
 43
0.0
 10
25.06576267709137
 20
90.90368441708397
 10
24.92533801103222
 20
90.53951808779074
 10
24.7649655000457
 20
90.28430557496539
 10
24.62323903035534
 20
90.15276568741278
 10
24.46672491357125
 20
90.08152362406724
 10
24.22592726234778
 20
90.07301492227214
 10
23.98337047679898
 20
90.13831755234057
  0
LWPOLYLINE
  5
182
330
1F
100
AcDbEntity
  8
050
100
AcDbPolyline
 90
       19
 70
     0
 43
0.0
 10
34.68297466443778
 20
107.3212922167784
 10
34.53068135354251
 20
107.2763082006974
 10
34.36501596256174
 20
107.1800269934132
 10
34.00269213098041
 20
106.8685708553438
 10
33.50776183052147
 20
106.3120142015476
 10
32.99516737646596
 20
105.6403761825308
 10
32.46767543990781
 20
104.883850966876
 10
31.93584617446617
 20
104.0747294004163
 10
31.15189001583428
 20
102.823816722094
 10
30.36582763095921
 20
101.5216953074125
 10
28.78902123882606
 20
98.80362806477956
 10
28.00472870653115
 20
97.3907973487614
 10
27.22164740806056
 20
95.91469447689867
 10
26.82714536531457
 20
95.13451048455752
 10
26.43584367077969
 20
94.3259173972162
 10
26.04415353752191
 20
93.47003133095477
 10
25.6629872359011
 20
92.5705787811275
 10
25.35385050164174
 20
91.76612175254601
 10
25.06576267709137
 20
90.90368441708397
  0
LWPOLYLINE
  5
183
330
1F
100
AcDbEntity
  8
050
100
AcDbPolyline
 90
        4
 70
     0
 43
0.0
 10
34.68297466443425
 20
108.4036844170824
 10
34.77903252464835
 20
108.0265230361455
 10
34.82543906747855
 20
107.7379308354777
 10
34.83521559920418
 20
107.5765713043912
  0
LWPOLYLINE
  5
184
330
1F
100
AcDbEntity
  8
VER
100
AcDbPolyline
 90
        4
 70
     0
 43
0.0
 10
25.0657626770914
 20
124.8212922167783
 10
25.21805598798665
 20
124.7763082006974
 10
25.38372137896742
 20
124.6800269934132
 10
25.47582758611019
 20
124.6117751171708
  0
LWPOLYLINE
  5
185
330
1F
100
AcDbEntity
  8
VER
100
AcDbPolyline
 90
        7
 70
     0
 43
0.0
 10
23.98337047679898
 20
125.5866590815085
 10
24.25984745398228
 20
125.3183514756325
 10
24.48575160711907
 20
125.1096511544254
 10
24.64123194955609
 20
124.9878763397343
 10
24.78034456165451
 20
124.9043777267748
 10
24.9455438204593
 20
124.8424106351667
 10
25.06576267709137
 20
124.8212922167784
  0
LINE
  5
186
330
1F
100
AcDbEntity
  8
VER
100
AcDbLine
 10
3.158460212642022
 20
132.5889481468898
 30
0.0
 11
3.189476953780702
 21
132.5868808065292
 31
0.0
  0
LWPOLYLINE
  5
187
330
1F
100
AcDbEntity
  8
VER
100
AcDbPolyline
 90
        5
 70
     0
 43
0.0
 10
0.7653668647301921
 20
132.3870548938697
 10
1.424920002591372
 20
132.5487117076979
 10
2.033362595832198
 20
132.6060426047372
 10
2.674061543466385
 20
132.6113230432828
 10
3.158460212642022
 20
132.5889481468898
  0
LWPOLYLINE
  5
188
330
1F
100
AcDbEntity
  8
VER
100
AcDbPolyline
 90
        7
 70
     0
 43
0.0
 10
-0.7653668647301836
 20
132.3870548938697
 10
-0.4704839823258372
 20
132.2860947207642
 10
-0.1973709466317636
 20
132.2235531477935
 10
0.0127897076209399
 20
132.2088721007923
 10
0.221823206072714
 20
132.2273431220267
 10
0.5089528267659559
 20
132.2978600913401
 10
0.7653668647301761
 20
132.3870548938697
  0
LWPOLYLINE
  5
189
330
1F
100
AcDbEntity
  8
VER
100
AcDbPolyline
 90
        4
 70
     0
 43
0.0
 10
-23.98337047679898
 20
125.5866590815085
 10
-23.6156325421075
 20
125.9093999271083
 10
-23.21560114655894
 20
126.2131205109802
 10
-22.64836930523352
 20
126.5904744352206
  0
LWPOLYLINE
  5
18A
330
1F
100
AcDbEntity
  8
VER
100
AcDbPolyline
 90
        7
 70
     0
 43
0.0
 10
-25.06576267709138
 20
124.8212922167848
 10
-24.92533801103223
 20
124.8478319528462
 10
-24.76496550004572
 20
124.9122335981379
 10
-24.62323903035538
 20
125.0005981998012
 10
-24.46672491357129
 20
125.1261260665563
 10
-24.22592726234787
 20
125.3512163649571
 10
-23.98337047679899
 20
125.5866590815085
  0
LWPOLYLINE
  5
18B
330
1F
100
AcDbEntity
  8
050
100
AcDbPolyline
 90
       22
 70
     0
 43
0.0
 10
-35.0
 20
106.7731239591687
 10
-34.98224013703084
 20
107.069481617992
 10
-34.90621668692938
 20
107.5397425321291
 10
-34.81281960741652
 20
107.9411988707643
 10
-34.69705772200569
 20
108.3567487463295
 10
-34.46600605300416
 20
109.0665817390908
 10
-34.20668115539121
 20
109.7661117711563
 10
-33.82531819802254
 20
110.6932294939416
 10
-33.42703338412897
 20
111.5819728166788
 10
-33.01403712483075
 20
112.4468649916781
 10
-32.59581032919227
 20
113.2808744396103
 10
-31.68774332311881
 20
114.9939918829223
 10
-30.77350965156413
 20
116.6321180270668
 10
-29.85396013863619
 20
118.224005942589
 10
-28.93371891530564
 20
119.770669321873
 10
-27.91817096415586
 20
121.4102726835434
 10
-27.41053066306564
 20
122.1905677711401
 10
-26.90446016062297
 20
122.9296582564749
 10
-26.31385939062663
 20
123.721391286583
 10
-26.02115617934956
 20
124.0731821167258
 10
-25.73315446665734
 20
124.3813703321657
 10
-25.475694304457
 20
124.6118801497758
  0
LWPOLYLINE
  5
18C
330
1F
100
AcDbEntity
  8
050
100
AcDbPolyline
 90
       24
 70
     0
 43
0.0
 10
-25.06576267709139
 20
90.90368441707078
 10
-25.21805598798665
 20
91.3786622885071
 10
-25.38372137896743
 20
91.84799810592527
 10
-25.74604521054876
 20
92.77359290761183
 10
-26.2409755110077
 20
93.90683399807199
 10
-26.75356996506323
 20
94.98530291608877
 10
-27.28106190162137
 20
96.02974782427319
 10
-27.81289116706303
 20
97.03640494875135
 10
-28.71514753120076
 20
98.67265105225631
 10
-29.62006255419302
 20
100.2533343393051
 10
-30.52800735452148
 20
101.793499835364
 10
-31.43615061784122
 20
103.2839157672636
 10
-32.05526897995122
 20
104.2597078435033
 10
-32.67296304105612
 20
105.1846344801005
 10
-33.2832005556716
 20
106.0271975419167
 10
-33.58616785682577
 20
106.4073660889982
 10
-33.88517996441247
 20
106.7473118927027
 10
-34.15282601014678
 20
107.0106722758737
 10
-34.4114752229226
 20
107.2108308354647
 10
-34.6092441054655
 20
107.3061454036706
 10
-34.78865512357708
 20
107.3117043479523
 10
-34.93300855024834
 20
107.1728142767257
 10
-34.99557051382472
 20
106.8986097370247
 10
-35.00000000000001
 20
106.7731239591687
  0
LWPOLYLINE
  5
18D
330
1F
100
AcDbEntity
  8
050
100
AcDbPolyline
 90
        7
 70
     0
 43
0.0
 10
-23.98337047679899
 20
90.13831755234054
 10
-24.25984745398229
 20
90.0687782353252
 10
-24.48575160711908
 20
90.08682726235531
 10
-24.64123194955611
 20
90.16549134674781
 10
-24.78034456165452
 20
90.3033247864657
 10
-24.94554382045932
 20
90.58198990778278
 10
-25.06576267709139
 20
90.90368441707078
  0
LWPOLYLINE
  5
18E
330
1F
100
AcDbEntity
  8
050
100
AcDbPolyline
 90
       20
 70
     0
 43
0.0
 10
-0.765366864730183
 20
83.33792173997936
 10
-1.42492000259163
 20
83.88593583686105
 10
-2.033362595831604
 20
84.29968415309477
 10
-2.674061543464846
 20
84.68027734576583
 10
-3.388965286802124
 20
85.05967964297145
 10
-4.118598198043627
 20
85.41114691121916
 10
-5.611072385182191
 20
86.05109916423936
 10
-7.103877661907435
 20
86.61825261244506
 10
-8.605602264527546
 20
87.13964346154572
 10
-10.78633016621755
 20
87.83802519595827
 10
-12.97057871894192
 20
88.48781719468427
 10
-15.16050064075051
 20
89.09358880615693
 10
-17.34985957609041
 20
89.63857086510782
 10
-18.60689591642059
 20
89.91051276951514
 10
-19.8592685251128
 20
90.13740005501205
 10
-21.11050384457552
 20
90.30080829364238
 10
-22.34069276572596
 20
90.36587913247949
 10
-23.19093334823239
 20
90.31812762901937
 10
-23.59951020098728
 20
90.2492425630295
 10
-23.98337047679899
 20
90.13831755234054
  0
ELLIPSE
  5
18F
330
1F
100
AcDbEntity
  8
050
100
AcDbEllipse
 10
-0.0000000000000054
 20
109.6015510839149
 30
0.0
 11
-30.99999999999999
 21
3.796405077356794E-15
 31
0.0
210
0.0
220
0.0
230
1.0
 40
0.707106781186548
 41
0.0
 42
6.283185307179586
  0
LWPOLYLINE
  5
190
330
1F
100
AcDbEntity
  8
050
100
AcDbPolyline
 90
        4
 70
     0
 43
0.0
 10
25.48365400878738
 20
124.6056569652139
 10
24.59819599867245
 20
125.2746562411679
 10
23.60547835129344
 20
125.9697427358571
 10
22.64879105345428
 20
126.590228502684
  0
LWPOLYLINE
  5
191
330
1F
100
AcDbEntity
  8
050
100
AcDbPolyline
 90
        7
 70
     0
 43
0.0
 10
3.191367105211691
 20
132.5867609252525
 10
2.712740909551101
 20
132.6164040957328
 10
1.355282451385208
 20
132.6742298128623
 10
-0.0041771550239632
 20
132.6934339935897
 10
-1.363678498425253
 20
132.6739910387004
 10
-2.721252675592996
 20
132.6159191889546
 10
-3.191718726882849
 20
132.5867373672083
  0
LWPOLYLINE
  5
192
330
1F
100
AcDbEntity
  8
050
100
AcDbPolyline
 90
        4
 70
     0
 43
0.0
 10
-22.64835697205821
 20
126.5904997687736
 10
-23.63758227236715
 20
125.9481094246271
 10
-24.63388110232858
 20
125.2486253051074
 10
-25.48303843085496
 20
124.6061393866861
  0
LWPOLYLINE
  5
193
330
1F
100
AcDbEntity
  8
050
100
AcDbPolyline
 90
       17
 70
     0
 43
0.0
 10
25.47582758611019
 20
124.6117751171708
 10
25.74604521054874
 20
124.3685708553438
 10
26.24097551100767
 20
123.8120142015476
 10
26.75356996506318
 20
123.1403761825308
 10
27.28106190162132
 20
122.383850966876
 10
27.81289116706296
 20
121.5747294004164
 10
28.59684732569484
 20
120.323816722094
 10
29.38290971056992
 20
119.0216953074125
 10
30.95971610270307
 20
116.3036280647796
 10
31.74400863499797
 20
114.8907973487615
 10
32.52708993346856
 20
113.4146944768987
 10
32.92159197621454
 20
112.6345104845576
 10
33.31289367074943
 20
111.8259173972163
 10
33.70458380400721
 20
110.9700313309548
 10
34.08575010562801
 20
110.0705787811276
 10
34.3948868398874
 20
109.2661217525461
 10
34.68297466443425
 20
108.4036844170824
  0
LWPOLYLINE
  5
194
330
1F
100
AcDbEntity
  8
050
100
AcDbPolyline
 90
       15
 70
     0
 43
0.0
 10
3.189476953780702
 20
132.5868808065292
 10
3.388965286803462
 20
132.5719444234327
 10
4.118598198044761
 20
132.4960026278288
 10
5.611072385182847
 20
132.261683743515
 10
7.103877661907712
 20
131.9543721065973
 10
8.60560226452743
 20
131.5960730504325
 10
10.78633016621751
 20
131.0170139558805
 10
12.97057871894195
 20
130.3873027760143
 10
15.16050064075062
 20
129.7102478262296
 10
17.34985957609059
 20
128.9727331137611
 10
18.60689591642073
 20
128.5083201783988
 10
19.8592685251129
 20
128.0015845748684
 10
21.11050384457558
 20
127.4320361330777
 10
22.34069276572595
 20
126.7764789861861
 10
22.64870121186687
 20
126.5902675803269
  0
LWPOLYLINE
  5
195
330
1F
100
AcDbEntity
  8
VER
100
AcDbPolyline
 90
        4
 70
     0
 43
0.0
 10
22.64870121186687
 20
126.5902675803269
 10
23.19093334823238
 20
126.2306680807737
 10
23.59951020098728
 20
125.9224442357117
 10
23.98337047679898
 20
125.5866590815085
  0
LWPOLYLINE
  5
196
330
1F
100
AcDbEntity
  8
050
100
AcDbPolyline
 90
       15
 70
     0
 43
0.0
 10
-22.64836930523352
 20
126.5904744352206
 10
-22.34069276572596
 20
126.7764789861861
 10
-21.14557306908362
 20
127.4148814762506
 10
-19.90780397664261
 20
127.9808300023052
 10
-18.63406672588316
 20
128.497847048724
 10
-17.34985957609059
 20
128.9727331137611
 10
-15.17237562772491
 20
129.7064337607906
 10
-12.98848121396794
 20
130.3819603916843
 10
-10.79728116712117
 20
131.0139696051632
 10
-8.6056022645274
 20
131.5960730504325
 10
-7.106607903820053
 20
131.9537598126441
 10
-5.611072385183004
 20
132.261683743515
 10
-4.13246131267295
 20
132.4942724561751
 10
-3.398407869448151
 20
132.571169396142
 10
-3.189753580266678
 20
132.5868620511515
  0
LWPOLYLINE
  5
197
330
1F
100
AcDbEntity
  8
VER
100
AcDbPolyline
 90
        5
 70
     0
 43
0.0
 10
-3.189753580266678
 20
132.5868620511515
 10
-2.674061543466808
 20
132.6113230432828
 10
-2.038904251872635
 20
132.6062969885805
 10
-1.424920002591278
 20
132.5487117076979
 10
-0.7653668647301872
 20
132.3870548938697
  0
LWPOLYLINE
  5
198
330
1F
100
AcDbEntity
  8
VER
100
AcDbPolyline
 90
        4
 70
     0
 43
0.0
 10
-25.475694304457
 20
124.6118801497758
 10
-25.38770498311325
 20
124.6772655482083
 10
-25.22174827649244
 20
124.7746161691993
 10
-25.06576267709312
 20
124.8212922167782
  0
LWPOLYLINE
  5
199
330
1F
100
AcDbEntity
  8
050
100
AcDbPolyline
 90
       20
 70
     0
 43
0.0
 10
23.98337047679898
 20
90.13831755234057
 10
23.61355215746526
 20
90.24623729699954
 10
23.21560114655894
 20
90.31503012093175
 10
22.34069276572594
 20
90.3658791324795
 10
21.1403502132176
 20
90.3045207805302
 10
19.90780397664247
 20
90.14507689169905
 10
18.63270924824844
 20
89.915927771803
 10
17.34985957609033
 20
89.63857086510782
 10
15.17096770506007
 20
89.09723892726196
 10
12.98848121396792
 20
88.49296184914026
 10
10.79625025730501
 20
87.84188376613376
 10
8.605602264527635
 20
87.13964346154576
 10
7.105202421094124
 20
86.61905467757703
 10
5.611072385181761
 20
86.0510991642392
 10
4.132461312670776
 20
85.41753756409749
 10
3.397049682740698
 20
85.06387287534785
 10
2.674061543463752
 20
84.68027734576522
 10
2.03601377052335
 20
84.30160607653026
 10
1.424920002591893
 20
83.88593583686125
 10
0.7653668647301761
 20
83.3379217399708
  0
LINE
  5
19A
330
1F
100
AcDbEntity
  8
050
100
AcDbLine
 10
0.7653668647301767
 20
74.96535753600206
 30
0.0
 11
0.7653668647301761
 21
83.3379217399708
 31
0.0
  0
LINE
  5
19B
330
1F
100
AcDbEntity
  8
050
100
AcDbLine
 10
23.98337047679898
 20
81.76575334836326
 30
0.0
 11
0.7653668647301767
 21
74.96535753600206
 31
0.0
  0
LINE
  5
19C
330
1F
100
AcDbEntity
  8
050
100
AcDbLine
 10
23.98337047679898
 20
81.76575334836326
 30
0.0
 11
23.98337047679898
 21
90.13831755234057
 31
0.0
  0
LINE
  5
19F
330
1F
100
AcDbEntity
  8
MITTE
100
AcDbLine
 10
-16.8
 20
0.0
 30
0.0
 11
16.8
 21
0.0
 31
0.0
  0
LINE
  5
1A0
330
1F
100
AcDbEntity
  8
MITTE
100
AcDbLine
 10
-0.0000000000000029
 20
-16.8
 30
0.0
 11
-0.0000000000000056
 21
113.3047562892639
 31
0.0
  0
ELLIPSE
  5
1A1
330
1F
100
AcDbEntity
  8
VER
100
AcDbEllipse
 10
0.0000000000000444
 20
30.14891182945087
 30
0.0
 11
-15.99999999999996
 21
9.064862236236744E-15
 31
0.0
210
0.0
220
0.0
230
1.0
 40
0.7071067811865474
 41
0.0
 42
6.283185307179586
  0
ELLIPSE
  5
1A2
330
1F
100
AcDbEntity
  8
VER
100
AcDbEllipse
 10
-0.0000000000000178
 20
40.27468093604221
 30
0.0
 11
-18.70550000000002
 21
2.290763070145084E-15
 31
0.0
210
0.0
220
0.0
230
1.0
 40
0.7071067811865475
 41
0.0
 42
6.283185307179586
  0
ELLIPSE
  5
1A3
330
1F
100
AcDbEntity
  8
VER
100
AcDbEllipse
 10
0.0000000000000071
 20
97.40395910844697
 30
0.0
 11
6.00000000000005
 21
0.0
 31
0.0
210
0.0
220
0.0
230
1.0
 40
0.7071067811865474
 41
0.0
 42
6.283185307179586
  0
ELLIPSE
  5
1A4
330
1F
100
AcDbEntity
  8
050
100
AcDbEllipse
 10
-0.0000000000000426
 20
107.4802307403553
 30
0.0
 11
10.00000000000009
 21
-1.133107779529606E-14
 31
0.0
210
0.0
220
0.0
230
1.0
 40
0.7071067811865483
 41
0.0
 42
6.283185307179586
  0
ENDSEC
  0
SECTION
  2
OBJECTS
  0
DICTIONARY
  5
C
330
0
100
AcDbDictionary
281
     1
  3
ACAD_DETAILVIEWSTYLE
350
1AC
  3
ACAD_GROUP
350
D
  3
ACAD_LAYOUT
350
1A
  3
ACAD_MATERIAL
350
43
  3
ACAD_MLEADERSTYLE
350
6B
  3
ACAD_MLINESTYLE
350
17
  3
ACAD_PLOTSETTINGS
350
19
  3
ACAD_PLOTSTYLENAME
350
E
  3
ACAD_SCALELIST
350
47
  3
ACAD_SECTIONVIEWSTYLE
350
1AD
  3
ACAD_TABLESTYLE
350
69
  3
ACAD_VISUALSTYLE
350
2A
  3
ACDB_RECOMPOSE_DATA
350
1A9
  3
AcDbVariableDictionary
350
1A5
  0
SUN
  5
6D
330
29
100
AcDbSun
 90
        1
290
     0
 63
     7
421
 16777215
 40
1.0
291
     1
 91
  2455826
 92
 54000000
292
     0
 70
     2
 71
   256
280
     1
  0
DICTIONARY
  5
1AC
102
{ACAD_REACTORS
330
C
102
}
330
C
100
AcDbDictionary
281
     1
  0
DICTIONARY
  5
D
102
{ACAD_REACTORS
330
C
102
}
330
C
100
AcDbDictionary
281
     1
  0
DICTIONARY
  5
1A
102
{ACAD_REACTORS
330
C
102
}
330
C
100
AcDbDictionary
281
     1
  3
Layout1
350
1E
  3
Layout2
350
26
  3
Model
350
22
  0
DICTIONARY
  5
43
102
{ACAD_REACTORS
330
C
102
}
330
C
100
AcDbDictionary
281
     1
  3
ByBlock
350
45
  3
ByLayer
350
44
  3
Global
350
46
  0
DICTIONARY
  5
6B
102
{ACAD_REACTORS
330
C
102
}
330
C
100
AcDbDictionary
281
     1
  3
Standard
350
6C
  0
DICTIONARY
  5
17
102
{ACAD_REACTORS
330
C
102
}
330
C
100
AcDbDictionary
281
     1
  3
Standard
350
18
  0
DICTIONARY
  5
19
102
{ACAD_REACTORS
330
C
102
}
330
C
100
AcDbDictionary
281
     1
  0
ACDBDICTIONARYWDFLT
  5
E
102
{ACAD_REACTORS
330
C
102
}
330
C
100
AcDbDictionary
281
     1
  3
Normal
350
F
100
AcDbDictionaryWithDefault
340
F
  0
DICTIONARY
  5
47
102
{ACAD_REACTORS
330
C
102
}
330
C
100
AcDbDictionary
281
     1
  3
A0
350
48
  3
A1
350
49
  3
A2
350
4A
  3
A3
350
4B
  3
A4
350
4C
  3
A5
350
4D
  3
A6
350
4E
  3
A7
350
4F
  3
A8
350
50
  3
A9
350
51
  3
B0
350
52
  3
B1
350
53
  3
B2
350
54
  3
B3
350
55
  3
B4
350
56
  3
B5
350
57
  3
B6
350
58
  3
B7
350
59
  3
B8
350
5A
  3
B9
350
5B
  3
C0
350
5C
  3
C1
350
5D
  3
C2
350
5E
  3
C3
350
5F
  3
C4
350
60
  3
C5
350
61
  3
C6
350
62
  3
C7
350
63
  3
C8
350
64
  3
C9
350
65
  3
D0
350
66
  3
D1
350
67
  3
D2
350
68
  0
DICTIONARY
  5
1AD
102
{ACAD_REACTORS
330
C
102
}
330
C
100
AcDbDictionary
281
     1
  0
DICTIONARY
  5
69
102
{ACAD_REACTORS
330
C
102
}
330
C
100
AcDbDictionary
281
     1
  3
Standard
350
6A
  0
DICTIONARY
  5
2A
102
{ACAD_REACTORS
330
C
102
}
330
C
100
AcDbDictionary
281
     1
  3
2dWireframe
350
2F
  3
Basic
350
32
  3
Brighten
350
36
  3
ColorChange
350
3A
  3
Conceptual
350
34
  3
Dim
350
35
  3
EdgeColorOff
350
3D
  3
Facepattern
350
39
  3
Flat
350
2B
  3
FlatWithEdges
350
2C
  3
Gouraud
350
2D
  3
GouraudWithEdges
350
2E
  3
Hidden
350
31
  3
JitterOff
350
3B
  3
Linepattern
350
38
  3
OverhangOff
350
3C
  3
Realistic
350
33
  3
Shaded
350
42
  3
Shaded with edges
350
41
  3
Shades of Gray
350
3E
  3
Sketchy
350
3F
  3
Thicken
350
37
  3
Wireframe
350
30
  3
X-Ray
350
40
  0
XRECORD
  5
1A9
102
{ACAD_REACTORS
330
C
102
}
330
C
100
AcDbXrecord
280
     1
 90
        1
330
6A
  0
DICTIONARY
  5
1A5
102
{ACAD_REACTORS
330
C
102
}
330
C
100
AcDbDictionary
281
     1
  3
CANNOSCALE
350
1A6
  3
CMLEADERSTYLE
350
1AB
  3
CTABLESTYLE
350
1AA
  3
SECTIONTHICKNESSINC
350
1AE
  0
LAYOUT
  5
1E
102
{ACAD_REACTORS
330
1A
102
}
330
1A
100
AcDbPlotSettings
  1

  2
none_device
  4

  6

 40
0.0
 41
0.0
 42
0.0
 43
0.0
 44
0.0
 45
0.0
 46
0.0
 47
0.0
 48
0.0
 49
0.0
140
0.0
141
0.0
142
1.0
143
1.0
 70
   688
 72
     1
 73
     0
 74
     5
  7

 75
    16
 76
     0
 77
     2
 78
   300
147
1.0
148
0.0
149
0.0
100
AcDbLayout
  1
Layout1
 70
     1
 71
     1
 10
0.0
 20
0.0
 11
420.0
 21
297.0
 12
0.0
 22
0.0
 32
0.0
 14
1.000000000000000E+20
 24
1.000000000000000E+20
 34
1.000000000000000E+20
 15
-1.000000000000000E+20
 25
-1.000000000000000E+20
 35
-1.000000000000000E+20
146
0.0
 13
0.0
 23
0.0
 33
0.0
 16
1.0
 26
0.0
 36
0.0
 17
0.0
 27
1.0
 37
0.0
 76
     0
330
1B
  0
LAYOUT
  5
26
102
{ACAD_REACTORS
330
1A
102
}
330
1A
100
AcDbPlotSettings
  1

  2
none_device
  4

  6

 40
0.0
 41
0.0
 42
0.0
 43
0.0
 44
0.0
 45
0.0
 46
0.0
 47
0.0
 48
0.0
 49
0.0
140
0.0
141
0.0
142
1.0
143
1.0
 70
   688
 72
     1
 73
     0
 74
     5
  7

 75
    16
 76
     0
 77
     2
 78
   300
147
1.0
148
0.0
149
0.0
100
AcDbLayout
  1
Layout2
 70
     1
 71
     2
 10
0.0
 20
0.0
 11
0.0
 21
0.0
 12
0.0
 22
0.0
 32
0.0
 14
0.0
 24
0.0
 34
0.0
 15
0.0
 25
0.0
 35
0.0
146
0.0
 13
0.0
 23
0.0
 33
0.0
 16
1.0
 26
0.0
 36
0.0
 17
0.0
 27
1.0
 37
0.0
 76
     0
330
23
  0
LAYOUT
  5
22
102
{ACAD_REACTORS
330
1A
102
}
330
1A
100
AcDbPlotSettings
  1

  2
none_device
  4
Letter_(8.50_x_11.00_Inches)
  6

 40
6.35
 41
6.35
 42
6.35000508
 43
6.35000508
 44
215.9
 45
279.4
 46
0.0
 47
0.0
 48
0.0
 49
0.0
140
0.0
141
0.0
142
1.0
143
1.0
 70
  1712
 72
     1
 73
     0
 74
     0
  7

 75
     0
 76
     0
 77
     2
 78
   300
147
1.0
148
0.0
149
0.0
100
AcDbLayout
  1
Model
 70
     1
 71
     0
 10
0.0
 20
0.0
 11
420.0
 21
297.0
 12
0.0
 22
0.0
 32
0.0
 14
1.000000000000000E+20
 24
1.000000000000000E+20
 34
1.000000000000000E+20
 15
-1.000000000000000E+20
 25
-1.000000000000000E+20
 35
-1.000000000000000E+20
146
0.0
 13
0.0
 23
0.0
 33
0.0
 16
1.0
 26
0.0
 36
0.0
 17
0.0
 27
1.0
 37
0.0
 76
     0
330
1F
331
29
  0
MATERIAL
  5
45
102
{ACAD_REACTORS
330
43
102
}
330
43
100
AcDbMaterial
  1
ByBlock
 72
     1
 94
      127
  0
MATERIAL
  5
44
102
{ACAD_REACTORS
330
43
102
}
330
43
100
AcDbMaterial
  1
ByLayer
 72
     1
 94
      127
  0
MATERIAL
  5
46
102
{ACAD_REACTORS
330
43
102
}
330
43
100
AcDbMaterial
  1
Global
 72
     1
 94
      127
  0
MLEADERSTYLE
  5
6C
102
{ACAD_REACTORS
330
6B
102
}
330
6B
100
AcDbMLeaderStyle
179
     2
170
     2
171
     1
172
     0
 90
        2
 40
0.0
 41
0.0
173
     1
 91
-1056964608
340
14
 92
       -2
290
     1
 42
2.0
291
     1
 43
8.0
  3
Standard
341
0
 44
4.0
300

342
11
174
     1
178
     6
175
     1
176
     0
 93
-1056964608
 45
4.0
292
     0
297
     0
 46
4.0
343
0
 94
-1056964608
 47
1.0
 49
1.0
140
1.0
293
     1
141
0.0
294
     1
177
     0
142
1.0
295
     0
296
     0
143
3.75
271
     0
272
     9
273
     9
298
     0
  0
MLINESTYLE
  5
18
102
{ACAD_REACTORS
330
17
102
}
330
17
100
AcDbMlineStyle
  2
Standard
 70
     0
  3

 62
   256
 51
90.0
 52
90.0
 71
     2
 49
0.5
 62
   256
  6
BYLAYER
 49
-0.5
 62
   256
  6
BYLAYER
  0
ACDBPLACEHOLDER
  5
F
102
{ACAD_REACTORS
330
E
102
}
330
E
  0
SCALE
  5
48
102
{ACAD_REACTORS
330
47
102
}
330
47
100
AcDbScale
 70
     0
300
1:1
140
1.0
141
1.0
290
     1
  0
SCALE
  5
49
102
{ACAD_REACTORS
330
47
102
}
330
47
100
AcDbScale
 70
     0
300
1:2
140
1.0
141
2.0
290
     0
  0
SCALE
  5
4A
102
{ACAD_REACTORS
330
47
102
}
330
47
100
AcDbScale
 70
     0
300
1:4
140
1.0
141
4.0
290
     0
  0
SCALE
  5
4B
102
{ACAD_REACTORS
330
47
102
}
330
47
100
AcDbScale
 70
     0
300
1:5
140
1.0
141
5.0
290
     0
  0
SCALE
  5
4C
102
{ACAD_REACTORS
330
47
102
}
330
47
100
AcDbScale
 70
     0
300
1:8
140
1.0
141
8.0
290
     0
  0
SCALE
  5
4D
102
{ACAD_REACTORS
330
47
102
}
330
47
100
AcDbScale
 70
     0
300
1:10
140
1.0
141
10.0
290
     0
  0
SCALE
  5
4E
102
{ACAD_REACTORS
330
47
102
}
330
47
100
AcDbScale
 70
     0
300
1:16
140
1.0
141
16.0
290
     0
  0
SCALE
  5
4F
102
{ACAD_REACTORS
330
47
102
}
330
47
100
AcDbScale
 70
     0
300
1:20
140
1.0
141
20.0
290
     0
  0
SCALE
  5
50
102
{ACAD_REACTORS
330
47
102
}
330
47
100
AcDbScale
 70
     0
300
1:30
140
1.0
141
30.0
290
     0
  0
SCALE
  5
51
102
{ACAD_REACTORS
330
47
102
}
330
47
100
AcDbScale
 70
     0
300
1:40
140
1.0
141
40.0
290
     0
  0
SCALE
  5
52
102
{ACAD_REACTORS
330
47
102
}
330
47
100
AcDbScale
 70
     0
300
1:50
140
1.0
141
50.0
290
     0
  0
SCALE
  5
53
102
{ACAD_REACTORS
330
47
102
}
330
47
100
AcDbScale
 70
     0
300
1:100
140
1.0
141
100.0
290
     0
  0
SCALE
  5
54
102
{ACAD_REACTORS
330
47
102
}
330
47
100
AcDbScale
 70
     0
300
2:1
140
2.0
141
1.0
290
     0
  0
SCALE
  5
55
102
{ACAD_REACTORS
330
47
102
}
330
47
100
AcDbScale
 70
     0
300
4:1
140
4.0
141
1.0
290
     0
  0
SCALE
  5
56
102
{ACAD_REACTORS
330
47
102
}
330
47
100
AcDbScale
 70
     0
300
8:1
140
8.0
141
1.0
290
     0
  0
SCALE
  5
57
102
{ACAD_REACTORS
330
47
102
}
330
47
100
AcDbScale
 70
     0
300
10:1
140
10.0
141
1.0
290
     0
  0
SCALE
  5
58
102
{ACAD_REACTORS
330
47
102
}
330
47
100
AcDbScale
 70
     0
300
100:1
140
100.0
141
1.0
290
     0
  0
SCALE
  5
59
102
{ACAD_REACTORS
330
47
102
}
330
47
100
AcDbScale
 70
     0
300
1/128" = 1'-0"
140
0.0078125
141
12.0
290
     0
  0
SCALE
  5
5A
102
{ACAD_REACTORS
330
47
102
}
330
47
100
AcDbScale
 70
     0
300
1/64" = 1'-0"
140
0.015625
141
12.0
290
     0
  0
SCALE
  5
5B
102
{ACAD_REACTORS
330
47
102
}
330
47
100
AcDbScale
 70
     0
300
1/32" = 1'-0"
140
0.03125
141
12.0
290
     0
  0
SCALE
  5
5C
102
{ACAD_REACTORS
330
47
102
}
330
47
100
AcDbScale
 70
     0
300
1/16" = 1'-0"
140
0.0625
141
12.0
290
     0
  0
SCALE
  5
5D
102
{ACAD_REACTORS
330
47
102
}
330
47
100
AcDbScale
 70
     0
300
3/32" = 1'-0"
140
0.09375
141
12.0
290
     0
  0
SCALE
  5
5E
102
{ACAD_REACTORS
330
47
102
}
330
47
100
AcDbScale
 70
     0
300
1/8" = 1'-0"
140
0.125
141
12.0
290
     0
  0
SCALE
  5
5F
102
{ACAD_REACTORS
330
47
102
}
330
47
100
AcDbScale
 70
     0
300
3/16" = 1'-0"
140
0.1875
141
12.0
290
     0
  0
SCALE
  5
60
102
{ACAD_REACTORS
330
47
102
}
330
47
100
AcDbScale
 70
     0
300
1/4" = 1'-0"
140
0.25
141
12.0
290
     0
  0
SCALE
  5
61
102
{ACAD_REACTORS
330
47
102
}
330
47
100
AcDbScale
 70
     0
300
3/8" = 1'-0"
140
0.375
141
12.0
290
     0
  0
SCALE
  5
62
102
{ACAD_REACTORS
330
47
102
}
330
47
100
AcDbScale
 70
     0
300
1/2" = 1'-0"
140
0.5
141
12.0
290
     0
  0
SCALE
  5
63
102
{ACAD_REACTORS
330
47
102
}
330
47
100
AcDbScale
 70
     0
300
3/4" = 1'-0"
140
0.75
141
12.0
290
     0
  0
SCALE
  5
64
102
{ACAD_REACTORS
330
47
102
}
330
47
100
AcDbScale
 70
     0
300
1" = 1'-0"
140
1.0
141
12.0
290
     0
  0
SCALE
  5
65
102
{ACAD_REACTORS
330
47
102
}
330
47
100
AcDbScale
 70
     0
300
1-1/2" = 1'-0"
140
1.5
141
12.0
290
     0
  0
SCALE
  5
66
102
{ACAD_REACTORS
330
47
102
}
330
47
100
AcDbScale
 70
     0
300
3" = 1'-0"
140
3.0
141
12.0
290
     0
  0
SCALE
  5
67
102
{ACAD_REACTORS
330
47
102
}
330
47
100
AcDbScale
 70
     0
300
6" = 1'-0"
140
6.0
141
12.0
290
     0
  0
SCALE
  5
68
102
{ACAD_REACTORS
330
47
102
}
330
47
100
AcDbScale
 70
     0
300
1'-0" = 1'-0"
140
12.0
141
12.0
290
     0
  0
TABLESTYLE
  5
6A
102
{ACAD_REACTORS
330
69
102
}
102
{ACAD_XDICTIONARY
360
1A7
102
}
330
69
100
AcDbTableStyle
  3
Standard
 70
     0
 71
     0
 40
0.06
 41
0.06
280
     0
281
     0
  7
Standard
140
4.5
170
     2
 62
     0
 63
   257
283
     0
 90
        4
 91
        0
  1

274
    -2
284
     1
 64
     0
275
    -2
285
     1
 65
     0
276
    -2
286
     1
 66
     0
277
    -2
287
     1
 67
     0
278
    -2
288
     1
 68
     0
279
    -2
289
     1
 69
     0
  7
Standard
140
6.0
170
     5
 62
     0
 63
   257
283
     0
 90
        4
 91
        0
  1

274
    -2
284
     1
 64
     0
275
    -2
285
     1
 65
     0
276
    -2
286
     1
 66
     0
277
    -2
287
     1
 67
     0
278
    -2
288
     1
 68
     0
279
    -2
289
     1
 69
     0
  7
Standard
140
4.5
170
     5
 62
     0
 63
   257
283
     0
 90
        4
 91
        0
  1

274
    -2
284
     1
 64
     0
275
    -2
285
     1
 65
     0
276
    -2
286
     1
 66
     0
277
    -2
287
     1
 67
     0
278
    -2
288
     1
 68
     0
279
    -2
289
     1
 69
     0
  0
VISUALSTYLE
  5
2F
102
{ACAD_REACTORS
330
2A
102
}
330
2A
100
AcDbVisualStyle
  2
2dWireframe
 70
     4
177
     3
291
     0
 70
    58
 90
        0
176
     1
 90
        2
176
     1
 90
        0
176
     1
 90
        0
176
     1
 40
0.6
176
     1
 40
30.0
176
     1
 62
     7
420
 16777215
176
     1
 90
        1
176
     1
 90
        4
176
     1
 62
     7
176
     1
 62
   257
176
     1
 90
        1
176
     1
 90
        1
176
     1
 40
1.0
176
     1
 90
        0
176
     1
 62
   257
176
     1
 40
1.0
176
     1
 90
        1
176
     1
 90
        6
176
     1
 90
        2
176
     1
 62
     7
176
     1
 90
        5
176
     1
 90
        0
176
     1
 90
        0
176
     1
290
     0
176
     1
 90
        1
176
     1
 40
0.0
176
     1
 90
        0
176
     1
290
     1
176
     1
290
     1
176
     1
290
     0
176
     1
290
     0
176
     1
290
     0
176
     1
290
     0
176
     1
290
     0
176
     1
290
     0
176
     1
290
     0
176
     1
 90
       50
176
     1
 40
0.0
176
     1
 40
1.0
176
     1
 90
        0
176
     1
 62
    18
420
        0
176
     1
 90
       50
176
     1
 90
        3
176
     1
 62
     5
420
      255
176
     1
290
     0
176
     1
 90
       50
176
     1
 90
       50
176
     1
 90
       50
176
     1
290
     0
176
     1
 90
       50
176
     1
 62
   256
176
     0
 40
1.0
176
     0
 90
        2
176
     1
  1
strokes_ogs.tif
176
     1
290
     0
176
     1
 40
1.0
176
     1
 40
1.0
176
     1
  0
VISUALSTYLE
  5
32
102
{ACAD_REACTORS
330
2A
102
}
330
2A
100
AcDbVisualStyle
  2
Basic
 70
     7
177
     3
291
     1
 70
    58
 90
        1
176
     1
 90
        0
176
     1
 90
        1
176
     1
 90
        0
176
     1
 40
0.6
176
     1
 40
30.0
176
     1
 62
     7
420
 16777215
176
     1
 90
        0
176
     1
 90
        4
176
     1
 62
     7
176
     1
 62
   257
176
     1
 90
        1
176
     1
 90
        1
176
     1
 40
1.0
176
     1
 90
        8
176
     1
 62
     7
176
     1
 40
1.0
176
     1
 90
        1
176
     1
 90
        6
176
     1
 90
        2
176
     1
 62
     7
176
     1
 90
        5
176
     1
 90
        0
176
     1
 90
        0
176
     1
290
     0
176
     1
 90
        1
176
     1
 40
0.0
176
     1
 90
        0
176
     1
290
     0
176
     1
290
     1
176
     1
290
     1
176
     1
290
     0
176
     1
290
     0
176
     1
290
     0
176
     1
290
     0
176
     1
290
     0
176
     1
290
     0
176
     1
 90
       50
176
     1
 40
0.0
176
     1
 40
1.0
176
     1
 90
        0
176
     1
 62
    18
420
        0
176
     1
 90
       50
176
     1
 90
        3
176
     1
 62
     5
420
      255
176
     1
290
     0
176
     1
 90
       50
176
     1
 90
       50
176
     1
 90
       50
176
     1
290
     0
176
     1
 90
       50
176
     1
 62
   256
176
     0
 40
1.0
176
     0
 90
        2
176
     1
  1
strokes_ogs.tif
176
     1
290
     0
176
     1
 40
1.0
176
     1
 40
1.0
176
     1
  0
VISUALSTYLE
  5
36
102
{ACAD_REACTORS
330
2A
102
}
330
2A
100
AcDbVisualStyle
  2
Brighten
 70
    12
177
     3
291
     1
 70
    58
 90
        2
176
     1
 90
        2
176
     1
 90
        0
176
     1
 90
        0
176
     1
 40
0.6
176
     1
 40
30.0
176
     1
 62
     7
420
 16777215
176
     1
 90
        1
176
     1
 90
        4
176
     1
 62
     7
176
     1
 62
   257
176
     1
 90
        1
176
     1
 90
        1
176
     1
 40
1.0
176
     1
 90
        8
176
     1
 62
     7
176
     1
 40
1.0
176
     1
 90
        1
176
     1
 90
        6
176
     1
 90
        2
176
     1
 62
     7
176
     1
 90
        5
176
     1
 90
        0
176
     1
 90
        0
176
     1
290
     0
176
     1
 90
        1
176
     1
 40
50.0
176
     1
 90
        0
176
     1
290
     0
176
     1
290
     1
176
     1
290
     1
176
     1
290
     0
176
     1
290
     0
176
     1
290
     0
176
     1
290
     0
176
     1
290
     0
176
     1
290
     0
176
     1
 90
       50
176
     1
 40
0.0
176
     1
 40
1.0
176
     1
 90
        0
176
     1
 62
    18
420
        0
176
     1
 90
       50
176
     1
 90
        3
176
     1
 62
     5
420
      255
176
     1
290
     0
176
     1
 90
       50
176
     1
 90
       50
176
     1
 90
       50
176
     1
290
     0
176
     1
 90
       50
176
     1
 62
   256
176
     0
 40
1.0
176
     0
 90
        2
176
     1
  1
strokes_ogs.tif
176
     1
290
     0
176
     1
 40
1.0
176
     1
 40
1.0
176
     1
  0
VISUALSTYLE
  5
3A
102
{ACAD_REACTORS
330
2A
102
}
330
2A
100
AcDbVisualStyle
  2
ColorChange
 70
    16
177
     3
291
     1
 70
    58
 90
        2
176
     1
 90
        2
176
     1
 90
        3
176
     1
 90
        0
176
     1
 40
0.6
176
     1
 40
30.0
176
     1
 62
     8
420
  8421504
176
     1
 90
        1
176
     1
 90
        4
176
     1
 62
     7
176
     1
 62
   257
176
     1
 90
        1
176
     1
 90
        1
176
     1
 40
1.0
176
     1
 90
        8
176
     1
 62
     8
420
  8421504
176
     1
 40
1.0
176
     1
 90
        1
176
     1
 90
        6
176
     1
 90
        2
176
     1
 62
     7
176
     1
 90
        5
176
     1
 90
        0
176
     1
 90
        0
176
     1
290
     0
176
     1
 90
        1
176
     1
 40
0.0
176
     1
 90
        0
176
     1
290
     0
176
     1
290
     1
176
     1
290
     1
176
     1
290
     0
176
     1
290
     0
176
     1
290
     0
176
     1
290
     0
176
     1
290
     0
176
     1
290
     0
176
     1
 90
       50
176
     1
 40
0.0
176
     1
 40
1.0
176
     1
 90
        0
176
     1
 62
    18
420
        0
176
     1
 90
       50
176
     1
 90
        3
176
     1
 62
     5
420
      255
176
     1
290
     0
176
     1
 90
       50
176
     1
 90
       50
176
     1
 90
       50
176
     1
290
     0
176
     1
 90
       50
176
     1
 62
   256
176
     0
 40
1.0
176
     0
 90
        2
176
     1
  1
strokes_ogs.tif
176
     1
290
     0
176
     1
 40
1.0
176
     1
 40
1.0
176
     1
  0
VISUALSTYLE
  5
34
102
{ACAD_REACTORS
330
2A
102
}
330
2A
100
AcDbVisualStyle
  2
Conceptual
 70
     9
177
     3
291
     0
 70
    58
 90
        3
176
     1
 90
        2
176
     1
 90
        0
176
     1
 90
        0
176
     1
 40
0.6
176
     1
 40
30.0
176
     1
 62
     7
420
 16777215
176
     1
 90
        2
176
     1
 90
        2
176
     1
 62
     7
176
     1
 62
   257
176
     1
 90
        1
176
     1
 90
        1
176
     1
 40
179.0
176
     1
 90
        8
176
     1
 62
     7
176
     1
 40
1.0
176
     1
 90
        1
176
     1
 90
        6
176
     1
 90
        2
176
     1
 62
     7
176
     1
 90
        3
176
     1
 90
        0
176
     1
 90
        0
176
     1
290
     0
176
     1
 90
        1
176
     1
 40
0.0
176
     1
 90
        0
176
     1
290
     0
176
     1
290
     1
176
     1
290
     1
176
     1
290
     0
176
     1
290
     0
176
     1
290
     0
176
     1
290
     0
176
     1
290
     0
176
     1
290
     0
176
     1
 90
       50
176
     1
 40
0.0
176
     1
 40
1.0
176
     1
 90
        0
176
     1
 62
    18
420
        0
176
     1
 90
       50
176
     1
 90
        3
176
     1
 62
     5
420
      255
176
     1
290
     0
176
     1
 90
       50
176
     1
 90
       50
176
     1
 90
       50
176
     1
290
     0
176
     1
 90
       50
176
     1
 62
   256
176
     0
 40
1.0
176
     0
 90
        2
176
     1
  1
strokes_ogs.tif
176
     1
290
     0
176
     1
 40
1.0
176
     1
 40
1.0
176
     1
  0
VISUALSTYLE
  5
35
102
{ACAD_REACTORS
330
2A
102
}
330
2A
100
AcDbVisualStyle
  2
Dim
 70
    11
177
     3
291
     1
 70
    58
 90
        2
176
     1
 90
        2
176
     1
 90
        0
176
     1
 90
        0
176
     1
 40
0.6
176
     1
 40
30.0
176
     1
 62
     7
420
 16777215
176
     1
 90
        1
176
     1
 90
        4
176
     1
 62
     7
176
     1
 62
   257
176
     1
 90
        1
176
     1
 90
        1
176
     1
 40
1.0
176
     1
 90
        8
176
     1
 62
     7
176
     1
 40
1.0
176
     1
 90
        1
176
     1
 90
        6
176
     1
 90
        2
176
     1
 62
     7
176
     1
 90
        5
176
     1
 90
        0
176
     1
 90
        0
176
     1
290
     0
176
     1
 90
        1
176
     1
 40
-50.0
176
     1
 90
        0
176
     1
290
     0
176
     1
290
     1
176
     1
290
     1
176
     1
290
     0
176
     1
290
     0
176
     1
290
     0
176
     1
290
     0
176
     1
290
     0
176
     1
290
     0
176
     1
 90
       50
176
     1
 40
0.0
176
     1
 40
1.0
176
     1
 90
        0
176
     1
 62
    18
420
        0
176
     1
 90
       50
176
     1
 90
        3
176
     1
 62
     5
420
      255
176
     1
290
     0
176
     1
 90
       50
176
     1
 90
       50
176
     1
 90
       50
176
     1
290
     0
176
     1
 90
       50
176
     1
 62
   256
176
     0
 40
1.0
176
     0
 90
        2
176
     1
  1
strokes_ogs.tif
176
     1
290
     0
176
     1
 40
1.0
176
     1
 40
1.0
176
     1
  0
VISUALSTYLE
  5
3D
102
{ACAD_REACTORS
330
2A
102
}
330
2A
100
AcDbVisualStyle
  2
EdgeColorOff
 70
    22
177
     3
291
     1
 70
    58
 90
        2
176
     0
 90
        2
176
     0
 90
        0
176
     0
 90
        0
176
     0
 40
0.6
176
     0
 40
30.0
176
     0
 62
     7
420
 16777215
176
     0
 90
        1
176
     0
 90
        4
176
     0
 62
     7
176
     0
 62
   257
176
     0
 90
        1
176
     0
 90
        1
176
     0
 40
1.0
176
     0
 90
        8
176
     2
 62
     7
176
     0
 40
1.0
176
     0
 90
        1
176
     0
 90
        6
176
     0
 90
        2
176
     0
 62
     7
176
     0
 90
        5
176
     0
 90
        0
176
     0
 90
        0
176
     0
290
     0
176
     0
 90
        1
176
     0
 40
0.0
176
     0
 90
        0
176
     0
290
     0
176
     0
290
     1
176
     0
290
     1
176
     0
290
     0
176
     0
290
     0
176
     0
290
     0
176
     0
290
     0
176
     0
290
     0
176
     0
290
     0
176
     0
 90
       50
176
     0
 40
0.0
176
     0
 40
1.0
176
     0
 90
        0
176
     0
 62
    18
420
        0
176
     0
 90
       50
176
     0
 90
        3
176
     0
 62
     5
420
      255
176
     0
290
     0
176
     0
 90
       50
176
     0
 90
       50
176
     0
 90
       50
176
     0
290
     0
176
     0
 90
       50
176
     0
 62
   256
176
     0
 40
1.0
176
     0
 90
        2
176
     0
  1
strokes_ogs.tif
176
     0
290
     0
176
     0
 40
1.0
176
     0
 40
1.0
176
     0
  0
VISUALSTYLE
  5
39
102
{ACAD_REACTORS
330
2A
102
}
330
2A
100
AcDbVisualStyle
  2
Facepattern
 70
    15
177
     3
291
     1
 70
    58
 90
        2
176
     1
 90
        2
176
     1
 90
        0
176
     1
 90
        0
176
     1
 40
0.6
176
     1
 40
30.0
176
     1
 62
     7
420
 16777215
176
     1
 90
        1
176
     1
 90
        4
176
     1
 62
     7
176
     1
 62
   257
176
     1
 90
        1
176
     1
 90
        1
176
     1
 40
1.0
176
     1
 90
        8
176
     1
 62
     7
176
     1
 40
1.0
176
     1
 90
        1
176
     1
 90
        6
176
     1
 90
        2
176
     1
 62
     7
176
     1
 90
        5
176
     1
 90
        0
176
     1
 90
        0
176
     1
290
     0
176
     1
 90
        1
176
     1
 40
0.0
176
     1
 90
        0
176
     1
290
     0
176
     1
290
     1
176
     1
290
     1
176
     1
290
     0
176
     1
290
     0
176
     1
290
     0
176
     1
290
     0
176
     1
290
     0
176
     1
290
     0
176
     1
 90
       50
176
     1
 40
0.0
176
     1
 40
1.0
176
     1
 90
        0
176
     1
 62
    18
420
        0
176
     1
 90
       50
176
     1
 90
        3
176
     1
 62
     5
420
      255
176
     1
290
     0
176
     1
 90
       50
176
     1
 90
       50
176
     1
 90
       50
176
     1
290
     0
176
     1
 90
       50
176
     1
 62
   256
176
     0
 40
1.0
176
     0
 90
        2
176
     1
  1
strokes_ogs.tif
176
     1
290
     0
176
     1
 40
1.0
176
     1
 40
1.0
176
     1
  0
VISUALSTYLE
  5
2B
102
{ACAD_REACTORS
330
2A
102
}
330
2A
100
AcDbVisualStyle
  2
Flat
 70
     0
177
     3
291
     1
 70
    58
 90
        2
176
     1
 90
        1
176
     1
 90
        1
176
     1
 90
        2
176
     1
 40
0.6
176
     1
 40
30.0
176
     1
 62
     7
420
 16777215
176
     1
 90
        0
176
     1
 90
        0
176
     1
 62
     7
176
     1
 62
   257
176
     1
 90
        1
176
     1
 90
        1
176
     1
 40
1.0
176
     1
 90
        8
176
     1
 62
     7
176
     1
 40
1.0
176
     1
 90
        1
176
     1
 90
        6
176
     1
 90
        2
176
     1
 62
     7
176
     1
 90
        5
176
     1
 90
        0
176
     1
 90
        0
176
     1
290
     0
176
     1
 90
       13
176
     1
 40
0.0
176
     1
 90
        0
176
     1
290
     0
176
     1
290
     1
176
     1
290
     1
176
     1
290
     0
176
     1
290
     0
176
     1
290
     0
176
     1
290
     0
176
     1
290
     0
176
     1
290
     0
176
     1
 90
       50
176
     1
 40
0.0
176
     1
 40
1.0
176
     1
 90
        0
176
     1
 62
    18
420
        0
176
     1
 90
       50
176
     1
 90
        3
176
     1
 62
     5
420
      255
176
     1
290
     0
176
     1
 90
       50
176
     1
 90
       50
176
     1
 90
       50
176
     1
290
     0
176
     1
 90
       50
176
     1
 62
   256
176
     0
 40
1.0
176
     0
 90
        2
176
     1
  1
strokes_ogs.tif
176
     1
290
     0
176
     1
 40
1.0
176
     1
 40
1.0
176
     1
  0
VISUALSTYLE
  5
2C
102
{ACAD_REACTORS
330
2A
102
}
330
2A
100
AcDbVisualStyle
  2
FlatWithEdges
 70
     1
177
     3
291
     1
 70
    58
 90
        2
176
     1
 90
        1
176
     1
 90
        1
176
     1
 90
        2
176
     1
 40
0.6
176
     1
 40
30.0
176
     1
 62
     7
420
 16777215
176
     1
 90
        1
176
     1
 90
        0
176
     1
 62
     7
176
     1
 62
   257
176
     1
 90
        1
176
     1
 90
        1
176
     1
 40
1.0
176
     1
 90
        0
176
     1
 62
   257
176
     1
 40
1.0
176
     1
 90
        1
176
     1
 90
        6
176
     1
 90
        2
176
     1
 62
     7
176
     1
 90
        5
176
     1
 90
        0
176
     1
 90
        0
176
     1
290
     0
176
     1
 90
       13
176
     1
 40
0.0
176
     1
 90
        0
176
     1
290
     0
176
     1
290
     1
176
     1
290
     1
176
     1
290
     0
176
     1
290
     0
176
     1
290
     0
176
     1
290
     0
176
     1
290
     0
176
     1
290
     0
176
     1
 90
       50
176
     1
 40
0.0
176
     1
 40
1.0
176
     1
 90
        0
176
     1
 62
    18
420
        0
176
     1
 90
       50
176
     1
 90
        3
176
     1
 62
     5
420
      255
176
     1
290
     0
176
     1
 90
       50
176
     1
 90
       50
176
     1
 90
       50
176
     1
290
     0
176
     1
 90
       50
176
     1
 62
   256
176
     0
 40
1.0
176
     0
 90
        2
176
     1
  1
strokes_ogs.tif
176
     1
290
     0
176
     1
 40
1.0
176
     1
 40
1.0
176
     1
  0
VISUALSTYLE
  5
2D
102
{ACAD_REACTORS
330
2A
102
}
330
2A
100
AcDbVisualStyle
  2
Gouraud
 70
     2
177
     3
291
     1
 70
    58
 90
        2
176
     1
 90
        2
176
     1
 90
        1
176
     1
 90
        2
176
     1
 40
0.6
176
     1
 40
30.0
176
     1
 62
     7
420
 16777215
176
     1
 90
        0
176
     1
 90
        0
176
     1
 62
     7
176
     1
 62
   257
176
     1
 90
        1
176
     1
 90
        1
176
     1
 40
1.0
176
     1
 90
        0
176
     1
 62
     7
176
     1
 40
1.0
176
     1
 90
        1
176
     1
 90
        6
176
     1
 90
        2
176
     1
 62
     7
176
     1
 90
        5
176
     1
 90
        0
176
     1
 90
        0
176
     1
290
     0
176
     1
 90
       13
176
     1
 40
0.0
176
     1
 90
        0
176
     1
290
     0
176
     1
290
     1
176
     1
290
     1
176
     1
290
     0
176
     1
290
     0
176
     1
290
     0
176
     1
290
     0
176
     1
290
     0
176
     1
290
     0
176
     1
 90
       50
176
     1
 40
0.0
176
     1
 40
1.0
176
     1
 90
        0
176
     1
 62
    18
420
        0
176
     1
 90
       50
176
     1
 90
        3
176
     1
 62
     5
420
      255
176
     1
290
     0
176
     1
 90
       50
176
     1
 90
       50
176
     1
 90
       50
176
     1
290
     0
176
     1
 90
       50
176
     1
 62
   256
176
     0
 40
1.0
176
     0
 90
        2
176
     1
  1
strokes_ogs.tif
176
     1
290
     0
176
     1
 40
1.0
176
     1
 40
1.0
176
     1
  0
VISUALSTYLE
  5
2E
102
{ACAD_REACTORS
330
2A
102
}
330
2A
100
AcDbVisualStyle
  2
GouraudWithEdges
 70
     3
177
     3
291
     1
 70
    58
 90
        2
176
     1
 90
        2
176
     1
 90
        1
176
     1
 90
        2
176
     1
 40
0.6
176
     1
 40
30.0
176
     1
 62
     7
420
 16777215
176
     1
 90
        1
176
     1
 90
        0
176
     1
 62
     7
176
     1
 62
   257
176
     1
 90
        1
176
     1
 90
        1
176
     1
 40
1.0
176
     1
 90
        0
176
     1
 62
   257
176
     1
 40
1.0
176
     1
 90
        1
176
     1
 90
        6
176
     1
 90
        2
176
     1
 62
     7
176
     1
 90
        5
176
     1
 90
        0
176
     1
 90
        0
176
     1
290
     0
176
     1
 90
       13
176
     1
 40
0.0
176
     1
 90
        0
176
     1
290
     0
176
     1
290
     1
176
     1
290
     1
176
     1
290
     0
176
     1
290
     0
176
     1
290
     0
176
     1
290
     0
176
     1
290
     0
176
     1
290
     0
176
     1
 90
       50
176
     1
 40
0.0
176
     1
 40
1.0
176
     1
 90
        0
176
     1
 62
    18
420
        0
176
     1
 90
       50
176
     1
 90
        3
176
     1
 62
     5
420
      255
176
     1
290
     0
176
     1
 90
       50
176
     1
 90
       50
176
     1
 90
       50
176
     1
290
     0
176
     1
 90
       50
176
     1
 62
   256
176
     0
 40
1.0
176
     0
 90
        2
176
     1
  1
strokes_ogs.tif
176
     1
290
     0
176
     1
 40
1.0
176
     1
 40
1.0
176
     1
  0
VISUALSTYLE
  5
31
102
{ACAD_REACTORS
330
2A
102
}
330
2A
100
AcDbVisualStyle
  2
Hidden
 70
     6
177
     3
291
     0
 70
    58
 90
        1
176
     1
 90
        2
176
     1
 90
        2
176
     1
 90
        0
176
     1
 40
0.6
176
     1
 40
30.0
176
     1
 62
     7
420
 16777215
176
     1
 90
        2
176
     1
 90
        2
176
     1
 62
     7
176
     1
 62
   257
176
     1
 90
        2
176
     1
 90
        1
176
     1
 40
40.0
176
     1
 90
        0
176
     1
 62
   257
176
     1
 40
1.0
176
     1
 90
        1
176
     1
 90
        6
176
     1
 90
        2
176
     1
 62
     7
176
     1
 90
        3
176
     1
 90
        0
176
     1
 90
        0
176
     1
290
     0
176
     1
 90
        1
176
     1
 40
0.0
176
     1
 90
        0
176
     1
290
     0
176
     1
290
     1
176
     1
290
     1
176
     1
290
     0
176
     1
290
     0
176
     1
290
     0
176
     1
290
     0
176
     1
290
     0
176
     1
290
     0
176
     1
 90
       50
176
     1
 40
0.0
176
     1
 40
1.0
176
     1
 90
        0
176
     1
 62
    18
420
        0
176
     1
 90
       50
176
     1
 90
        3
176
     1
 62
     5
420
      255
176
     1
290
     0
176
     1
 90
       50
176
     1
 90
       50
176
     1
 90
       50
176
     1
290
     0
176
     1
 90
       50
176
     1
 62
   256
176
     0
 40
1.0
176
     0
 90
        2
176
     1
  1
strokes_ogs.tif
176
     1
290
     0
176
     1
 40
1.0
176
     1
 40
1.0
176
     1
  0
VISUALSTYLE
  5
3B
102
{ACAD_REACTORS
330
2A
102
}
330
2A
100
AcDbVisualStyle
  2
JitterOff
 70
    20
177
     3
291
     1
 70
    58
 90
        2
176
     0
 90
        2
176
     0
 90
        0
176
     0
 90
        0
176
     0
 40
0.6
176
     0
 40
30.0
176
     0
 62
     7
420
 16777215
176
     0
 90
        1
176
     0
 90
        4
176
     0
 62
     7
176
     0
 62
   257
176
     0
 90
        1
176
     0
 90
        1
176
     0
 40
1.0
176
     0
 90
       10
176
     2
 62
     7
176
     0
 40
1.0
176
     0
 90
        1
176
     0
 90
        6
176
     0
 90
        2
176
     0
 62
     7
176
     0
 90
        5
176
     0
 90
        0
176
     0
 90
        0
176
     0
290
     0
176
     0
 90
        1
176
     0
 40
0.0
176
     0
 90
        0
176
     0
290
     0
176
     0
290
     1
176
     0
290
     1
176
     0
290
     0
176
     0
290
     0
176
     0
290
     0
176
     0
290
     0
176
     0
290
     0
176
     0
290
     0
176
     0
 90
       50
176
     0
 40
0.0
176
     0
 40
1.0
176
     0
 90
        0
176
     0
 62
    18
420
        0
176
     0
 90
       50
176
     0
 90
        3
176
     0
 62
     5
420
      255
176
     0
290
     0
176
     0
 90
       50
176
     0
 90
       50
176
     0
 90
       50
176
     0
290
     0
176
     0
 90
       50
176
     0
 62
   256
176
     0
 40
1.0
176
     0
 90
        2
176
     0
  1
strokes_ogs.tif
176
     0
290
     0
176
     0
 40
1.0
176
     0
 40
1.0
176
     0
  0
VISUALSTYLE
  5
38
102
{ACAD_REACTORS
330
2A
102
}
330
2A
100
AcDbVisualStyle
  2
Linepattern
 70
    14
177
     3
291
     1
 70
    58
 90
        2
176
     1
 90
        2
176
     1
 90
        0
176
     1
 90
        0
176
     1
 40
0.6
176
     1
 40
30.0
176
     1
 62
     7
420
 16777215
176
     1
 90
        1
176
     1
 90
        4
176
     1
 62
     7
176
     1
 62
   257
176
     1
 90
        7
176
     1
 90
        7
176
     1
 40
1.0
176
     1
 90
        8
176
     1
 62
     7
176
     1
 40
1.0
176
     1
 90
        1
176
     1
 90
        6
176
     1
 90
        2
176
     1
 62
     7
176
     1
 90
        5
176
     1
 90
        0
176
     1
 90
        0
176
     1
290
     0
176
     1
 90
        1
176
     1
 40
0.0
176
     1
 90
        0
176
     1
290
     0
176
     1
290
     1
176
     1
290
     1
176
     1
290
     0
176
     1
290
     0
176
     1
290
     0
176
     1
290
     0
176
     1
290
     0
176
     1
290
     0
176
     1
 90
       50
176
     1
 40
0.0
176
     1
 40
1.0
176
     1
 90
        0
176
     1
 62
    18
420
        0
176
     1
 90
       50
176
     1
 90
        3
176
     1
 62
     5
420
      255
176
     1
290
     0
176
     1
 90
       50
176
     1
 90
       50
176
     1
 90
       50
176
     1
290
     0
176
     1
 90
       50
176
     1
 62
   256
176
     0
 40
1.0
176
     0
 90
        2
176
     1
  1
strokes_ogs.tif
176
     1
290
     0
176
     1
 40
1.0
176
     1
 40
1.0
176
     1
  0
VISUALSTYLE
  5
3C
102
{ACAD_REACTORS
330
2A
102
}
330
2A
100
AcDbVisualStyle
  2
OverhangOff
 70
    21
177
     3
291
     1
 70
    58
 90
        2
176
     0
 90
        2
176
     0
 90
        0
176
     0
 90
        0
176
     0
 40
0.6
176
     0
 40
30.0
176
     0
 62
     7
420
 16777215
176
     0
 90
        1
176
     0
 90
        4
176
     0
 62
     7
176
     0
 62
   257
176
     0
 90
        1
176
     0
 90
        1
176
     0
 40
1.0
176
     0
 90
        9
176
     2
 62
     7
176
     0
 40
1.0
176
     0
 90
        1
176
     0
 90
        6
176
     0
 90
        2
176
     0
 62
     7
176
     0
 90
        5
176
     0
 90
        0
176
     0
 90
        0
176
     0
290
     0
176
     0
 90
        1
176
     0
 40
0.0
176
     0
 90
        0
176
     0
290
     0
176
     0
290
     1
176
     0
290
     1
176
     0
290
     0
176
     0
290
     0
176
     0
290
     0
176
     0
290
     0
176
     0
290
     0
176
     0
290
     0
176
     0
 90
       50
176
     0
 40
0.0
176
     0
 40
1.0
176
     0
 90
        0
176
     0
 62
    18
420
        0
176
     0
 90
       50
176
     0
 90
        3
176
     0
 62
     5
420
      255
176
     0
290
     0
176
     0
 90
       50
176
     0
 90
       50
176
     0
 90
       50
176
     0
290
     0
176
     0
 90
       50
176
     0
 62
   256
176
     0
 40
1.0
176
     0
 90
        2
176
     0
  1
strokes_ogs.tif
176
     0
290
     0
176
     0
 40
1.0
176
     0
 40
1.0
176
     0
  0
VISUALSTYLE
  5
33
102
{ACAD_REACTORS
330
2A
102
}
330
2A
100
AcDbVisualStyle
  2
Realistic
 70
     8
177
     3
291
     0
 70
    58
 90
        2
176
     1
 90
        3
176
     1
 90
        0
176
     1
 90
        2
176
     1
 40
0.6
176
     1
 40
30.0
176
     1
 62
     7
420
 16777215
176
     1
 90
        0
176
     1
 90
        0
176
     1
 62
     7
176
     1
 62
   257
176
     1
 90
        1
176
     1
 90
        1
176
     1
 40
1.0
176
     1
 90
        8
176
     1
 62
   257
176
     1
 40
1.0
176
     1
 90
        1
176
     1
 90
        6
176
     1
 90
        2
176
     1
 62
     7
176
     1
 90
        3
176
     1
 90
        0
176
     1
 90
        0
176
     1
290
     0
176
     1
 90
       13
176
     1
 40
0.0
176
     1
 90
        0
176
     1
290
     0
176
     1
290
     1
176
     1
290
     1
176
     1
290
     0
176
     1
290
     0
176
     1
290
     0
176
     1
290
     0
176
     1
290
     0
176
     1
290
     0
176
     1
 90
       50
176
     1
 40
0.0
176
     1
 40
1.0
176
     1
 90
        0
176
     1
 62
    18
420
        0
176
     1
 90
       50
176
     1
 90
        3
176
     1
 62
     5
420
      255
176
     1
290
     0
176
     1
 90
       50
176
     1
 90
       50
176
     1
 90
       50
176
     1
290
     0
176
     1
 90
       50
176
     1
 62
   256
176
     0
 40
1.0
176
     0
 90
        2
176
     1
  1
strokes_ogs.tif
176
     1
290
     0
176
     1
 40
1.0
176
     1
 40
1.0
176
     1
  0
VISUALSTYLE
  5
42
102
{ACAD_REACTORS
330
2A
102
}
330
2A
100
AcDbVisualStyle
  2
Shaded
 70
    27
177
     3
291
     0
 70
    58
 90
        2
176
     1
 90
        2
176
     1
 90
        1
176
     1
 90
        2
176
     1
 40
0.6
176
     1
 40
30.0
176
     1
 62
     7
420
 16777215
176
     1
 90
        0
176
     1
 90
        4
176
     1
 62
     7
176
     1
 62
   257
176
     1
 90
        1
176
     1
 90
        1
176
     1
 40
1.0
176
     1
 90
        8
176
     1
 62
   257
176
     1
 40
1.0
176
     1
 90
        1
176
     1
 90
        6
176
     1
 90
        2
176
     1
 62
     8
420
  7895160
176
     1
 90
        3
176
     1
 90
        0
176
     1
 90
        0
176
     1
290
     0
176
     1
 90
        5
176
     1
 40
0.0
176
     1
 90
        0
176
     1
290
     0
176
     1
290
     1
176
     1
290
     1
176
     1
290
     0
176
     1
290
     0
176
     1
290
     0
176
     1
290
     0
176
     1
290
     0
176
     1
290
     0
176
     1
 90
       50
176
     1
 40
0.0
176
     1
 40
1.0
176
     1
 90
        0
176
     1
 62
    18
420
        0
176
     1
 90
       50
176
     1
 90
        3
176
     1
 62
     5
420
      255
176
     1
290
     0
176
     1
 90
       50
176
     1
 90
       50
176
     1
 90
       50
176
     1
290
     0
176
     1
 90
       50
176
     1
 62
   256
176
     0
 40
1.0
176
     0
 90
        2
176
     1
  1
strokes_ogs.tif
176
     1
290
     0
176
     1
 40
1.0
176
     1
 40
1.0
176
     1
  0
VISUALSTYLE
  5
41
102
{ACAD_REACTORS
330
2A
102
}
330
2A
100
AcDbVisualStyle
  2
Shaded with edges
 70
    26
177
     3
291
     0
 70
    58
 90
        2
176
     1
 90
        2
176
     1
 90
        1
176
     1
 90
        2
176
     1
 40
0.6
176
     1
 40
30.0
176
     1
 62
     7
420
 16777215
176
     1
 90
        1
176
     1
 90
       10
176
     1
 62
     7
176
     1
 62
   257
176
     1
 90
        2
176
     1
 90
        1
176
     1
 40
1.0
176
     1
 90
        8
176
     1
 62
   257
176
     1
 40
1.0
176
     1
 90
        1
176
     1
 90
        6
176
     1
 90
        2
176
     1
 62
     7
176
     1
 90
        3
176
     1
 90
        0
176
     1
 90
        0
176
     1
290
     0
176
     1
 90
        5
176
     1
 40
0.0
176
     1
 90
        0
176
     1
290
     0
176
     1
290
     1
176
     1
290
     1
176
     1
290
     0
176
     1
290
     0
176
     1
290
     0
176
     1
290
     0
176
     1
290
     0
176
     1
290
     0
176
     1
 90
       50
176
     1
 40
0.0
176
     1
 40
1.0
176
     1
 90
        0
176
     1
 62
    18
420
        0
176
     1
 90
       50
176
     1
 90
        3
176
     1
 62
     5
420
      255
176
     1
290
     0
176
     1
 90
       50
176
     1
 90
       50
176
     1
 90
       50
176
     1
290
     0
176
     1
 90
       50
176
     1
 62
   256
176
     0
 40
1.0
176
     0
 90
        2
176
     1
  1
strokes_ogs.tif
176
     1
290
     0
176
     1
 40
1.0
176
     1
 40
1.0
176
     1
  0
VISUALSTYLE
  5
3E
102
{ACAD_REACTORS
330
2A
102
}
330
2A
100
AcDbVisualStyle
  2
Shades of Gray
 70
    23
177
     3
291
     0
 70
    58
 90
        2
176
     1
 90
        2
176
     1
 90
        3
176
     1
 90
        0
176
     1
 40
0.6
176
     1
 40
30.0
176
     1
 62
     7
420
 16777215
176
     1
 90
        2
176
     1
 90
        2
176
     1
 62
     7
176
     1
 62
     7
176
     1
 90
        1
176
     1
 90
        1
176
     1
 40
40.0
176
     1
 90
        8
176
     1
 62
     7
176
     1
 40
1.0
176
     1
 90
        1
176
     1
 90
        6
176
     1
 90
        2
176
     1
 62
     7
176
     1
 90
        3
176
     1
 90
        0
176
     1
 90
        0
176
     1
290
     0
176
     1
 90
        1
176
     1
 40
0.0
176
     1
 90
        0
176
     1
290
     0
176
     1
290
     1
176
     1
290
     1
176
     1
290
     0
176
     1
290
     0
176
     1
290
     0
176
     1
290
     0
176
     1
290
     0
176
     1
290
     0
176
     1
 90
       50
176
     1
 40
0.0
176
     1
 40
1.0
176
     1
 90
        0
176
     1
 62
    18
420
        0
176
     1
 90
       50
176
     1
 90
        3
176
     1
 62
     5
420
      255
176
     1
290
     0
176
     1
 90
       50
176
     1
 90
       50
176
     1
 90
       50
176
     1
290
     0
176
     1
 90
       50
176
     1
 62
   256
176
     0
 40
1.0
176
     0
 90
        2
176
     1
  1
strokes_ogs.tif
176
     1
290
     0
176
     1
 40
1.0
176
     1
 40
1.0
176
     1
  0
VISUALSTYLE
  5
3F
102
{ACAD_REACTORS
330
2A
102
}
330
2A
100
AcDbVisualStyle
  2
Sketchy
 70
    24
177
     3
291
     0
 70
    58
 90
        1
176
     1
 90
        2
176
     1
 90
        2
176
     1
 90
        0
176
     1
 40
0.6
176
     1
 40
30.0
176
     1
 62
     7
420
 16777215
176
     1
 90
        2
176
     1
 90
        2
176
     1
 62
     7
176
     1
 62
     7
176
     1
 90
        1
176
     1
 90
        1
176
     1
 40
40.0
176
     1
 90
       11
176
     1
 62
     7
176
     1
 40
1.0
176
     1
 90
        1
176
     1
 90
        6
176
     1
 90
        2
176
     1
 62
     7
176
     1
 90
        6
176
     1
 90
        0
176
     1
 90
        0
176
     1
290
     0
176
     1
 90
        1
176
     1
 40
0.0
176
     1
 90
        0
176
     1
290
     0
176
     1
290
     1
176
     1
290
     1
176
     1
290
     0
176
     1
290
     0
176
     1
290
     0
176
     1
290
     0
176
     1
290
     0
176
     1
290
     0
176
     1
 90
       50
176
     1
 40
0.0
176
     1
 40
1.0
176
     1
 90
        0
176
     1
 62
    18
420
        0
176
     1
 90
       50
176
     1
 90
        3
176
     1
 62
     5
420
      255
176
     1
290
     0
176
     1
 90
       50
176
     1
 90
       50
176
     1
 90
       50
176
     1
290
     0
176
     1
 90
       50
176
     1
 62
   256
176
     0
 40
1.0
176
     0
 90
        2
176
     1
  1
strokes_ogs.tif
176
     1
290
     0
176
     1
 40
1.0
176
     1
 40
1.0
176
     1
  0
VISUALSTYLE
  5
37
102
{ACAD_REACTORS
330
2A
102
}
330
2A
100
AcDbVisualStyle
  2
Thicken
 70
    13
177
     3
291
     1
 70
    58
 90
        2
176
     1
 90
        2
176
     1
 90
        0
176
     1
 90
        0
176
     1
 40
0.6
176
     1
 40
30.0
176
     1
 62
     7
420
 16777215
176
     1
 90
        1
176
     1
 90
        4
176
     1
 62
     7
176
     1
 62
   257
176
     1
 90
        1
176
     1
 90
        1
176
     1
 40
1.0
176
     1
 90
       12
176
     1
 62
     7
176
     1
 40
1.0
176
     1
 90
        1
176
     1
 90
        6
176
     1
 90
        2
176
     1
 62
     7
176
     1
 90
        5
176
     1
 90
        0
176
     1
 90
        0
176
     1
290
     0
176
     1
 90
        1
176
     1
 40
0.0
176
     1
 90
        0
176
     1
290
     0
176
     1
290
     1
176
     1
290
     1
176
     1
290
     0
176
     1
290
     0
176
     1
290
     0
176
     1
290
     0
176
     1
290
     0
176
     1
290
     0
176
     1
 90
       50
176
     1
 40
0.0
176
     1
 40
1.0
176
     1
 90
        0
176
     1
 62
    18
420
        0
176
     1
 90
       50
176
     1
 90
        3
176
     1
 62
     5
420
      255
176
     1
290
     0
176
     1
 90
       50
176
     1
 90
       50
176
     1
 90
       50
176
     1
290
     0
176
     1
 90
       50
176
     1
 62
   256
176
     0
 40
1.0
176
     0
 90
        2
176
     1
  1
strokes_ogs.tif
176
     1
290
     0
176
     1
 40
1.0
176
     1
 40
1.0
176
     1
  0
VISUALSTYLE
  5
30
102
{ACAD_REACTORS
330
2A
102
}
330
2A
100
AcDbVisualStyle
  2
Wireframe
 70
     5
177
     3
291
     0
 70
    58
 90
        0
176
     1
 90
        2
176
     1
 90
        0
176
     1
 90
        0
176
     1
 40
0.6
176
     1
 40
30.0
176
     1
 62
     7
420
 16777215
176
     1
 90
        1
176
     1
 90
        4
176
     1
 62
     7
176
     1
 62
   257
176
     1
 90
        1
176
     1
 90
        1
176
     1
 40
1.0
176
     1
 90
        0
176
     1
 62
   257
176
     1
 40
1.0
176
     1
 90
        1
176
     1
 90
        6
176
     1
 90
        2
176
     1
 62
     7
176
     1
 90
        3
176
     1
 90
        0
176
     1
 90
        0
176
     1
290
     0
176
     1
 90
        1
176
     1
 40
0.0
176
     1
 90
        0
176
     1
290
     0
176
     1
290
     1
176
     1
290
     1
176
     1
290
     0
176
     1
290
     0
176
     1
290
     0
176
     1
290
     0
176
     1
290
     0
176
     1
290
     0
176
     1
 90
       50
176
     1
 40
0.0
176
     1
 40
1.0
176
     1
 90
        0
176
     1
 62
    18
420
        0
176
     1
 90
       50
176
     1
 90
        3
176
     1
 62
     5
420
      255
176
     1
290
     0
176
     1
 90
       50
176
     1
 90
       50
176
     1
 90
       50
176
     1
290
     0
176
     1
 90
       50
176
     1
 62
   256
176
     0
 40
1.0
176
     0
 90
        2
176
     1
  1
strokes_ogs.tif
176
     1
290
     0
176
     1
 40
1.0
176
     1
 40
1.0
176
     1
  0
VISUALSTYLE
  5
40
102
{ACAD_REACTORS
330
2A
102
}
330
2A
100
AcDbVisualStyle
  2
X-Ray
 70
    25
177
     3
291
     0
 70
    58
 90
        2
176
     1
 90
        2
176
     1
 90
        1
176
     1
 90
        1
176
     1
 40
0.5
176
     1
 40
30.0
176
     1
 62
     7
420
 16777215
176
     1
 90
        1
176
     1
 90
        0
176
     1
 62
     7
176
     1
 62
   257
176
     1
 90
        1
176
     1
 90
        1
176
     1
 40
1.0
176
     1
 90
        8
176
     1
 62
     7
176
     1
 40
1.0
176
     1
 90
        1
176
     1
 90
        6
176
     1
 90
        2
176
     1
 62
     7
176
     1
 90
        3
176
     1
 90
        0
176
     1
 90
        0
176
     1
290
     0
176
     1
 90
       13
176
     1
 40
0.0
176
     1
 90
        0
176
     1
290
     0
176
     1
290
     1
176
     1
290
     1
176
     1
290
     0
176
     1
290
     0
176
     1
290
     0
176
     1
290
     0
176
     1
290
     0
176
     1
290
     0
176
     1
 90
       50
176
     1
 40
0.0
176
     1
 40
1.0
176
     1
 90
        0
176
     1
 62
    18
420
        0
176
     1
 90
       50
176
     1
 90
        3
176
     1
 62
     5
420
      255
176
     1
290
     0
176
     1
 90
       50
176
     1
 90
       50
176
     1
 90
       50
176
     1
290
     0
176
     1
 90
       50
176
     1
 62
   256
176
     0
 40
1.0
176
     0
 90
        2
176
     1
  1
strokes_ogs.tif
176
     1
290
     0
176
     1
 40
1.0
176
     1
 40
1.0
176
     1
  0
DICTIONARYVAR
  5
1A6
102
{ACAD_REACTORS
330
1A5
102
}
330
1A5
100
DictionaryVariables
280
     0
  1
1:1
  0
DICTIONARYVAR
  5
1AB
102
{ACAD_REACTORS
330
1A5
102
}
330
1A5
100
DictionaryVariables
280
     0
  1
Standard
  0
DICTIONARYVAR
  5
1AA
102
{ACAD_REACTORS
330
1A5
102
}
330
1A5
100
DictionaryVariables
280
     0
  1
Standard
  0
DICTIONARYVAR
  5
1AE
102
{ACAD_REACTORS
330
1A5
102
}
330
1A5
100
DictionaryVariables
280
     0
  1
6.000000
  0
DICTIONARY
  5
1A7
330
6A
100
AcDbDictionary
280
     1
281
     1
  3
ACAD_ROUNDTRIP_2008_TABLESTYLE_CELLSTYLEMAP
360
1A8
  0
CELLSTYLEMAP
  5
1A8
102
{ACAD_REACTORS
330
1A7
102
}
330
1A7
100
AcDbCellStyleMap
 90
        3
300
CELLSTYLE
  1
TABLEFORMAT_BEGIN
 90
        5
170
     1
 91
        0
 92
    32768
 62
   257
 93
        1
300
CONTENTFORMAT
  1
CONTENTFORMAT_BEGIN
 90
        0
 91
        0
 92
        4
 93
        0
300

 40
0.0
140
1.0
 94
        5
 62
     0
340
11
144
6.0
309
CONTENTFORMAT_END
171
     1
301
MARGIN
  1
CELLMARGIN_BEGIN
 40
1.5
 40
1.5
 40
1.5
 40
1.5
 40
1.5
 40
1.5
309
CELLMARGIN_END
 94
        6
 95
        1
302
GRIDFORMAT
  1
GRIDFORMAT_BEGIN
 90
        0
 91
        1
 62
     0
 92
       -2
340
14
 93
        0
 40
0.045
309
GRIDFORMAT_END
 95
        2
302
GRIDFORMAT
  1
GRIDFORMAT_BEGIN
 90
        0
 91
        1
 62
     0
 92
       -2
340
14
 93
        0
 40
0.045
309
GRIDFORMAT_END
 95
        4
302
GRIDFORMAT
  1
GRIDFORMAT_BEGIN
 90
        0
 91
        1
 62
     0
 92
       -2
340
14
 93
        0
 40
0.045
309
GRIDFORMAT_END
 95
        8
302
GRIDFORMAT
  1
GRIDFORMAT_BEGIN
 90
        0
 91
        1
 62
     0
 92
       -2
340
14
 93
        0
 40
0.045
309
GRIDFORMAT_END
 95
       16
302
GRIDFORMAT
  1
GRIDFORMAT_BEGIN
 90
        0
 91
        1
 62
     0
 92
       -2
340
14
 93
        0
 40
0.045
309
GRIDFORMAT_END
 95
       32
302
GRIDFORMAT
  1
GRIDFORMAT_BEGIN
 90
        0
 91
        1
 62
     0
 92
       -2
340
14
 93
        0
 40
0.045
309
GRIDFORMAT_END
309
TABLEFORMAT_END
  1
CELLSTYLE_BEGIN
 90
        1
 91
        1
300
_TITLE
309
CELLSTYLE_END
300
CELLSTYLE
  1
TABLEFORMAT_BEGIN
 90
        5
170
     1
 91
        0
 92
        0
 62
   257
 93
        1
300
CONTENTFORMAT
  1
CONTENTFORMAT_BEGIN
 90
        0
 91
        0
 92
        4
 93
        0
300

 40
0.0
140
1.0
 94
        5
 62
     0
340
11
144
4.5
309
CONTENTFORMAT_END
171
     1
301
MARGIN
  1
CELLMARGIN_BEGIN
 40
1.5
 40
1.5
 40
1.5
 40
1.5
 40
1.5
 40
1.5
309
CELLMARGIN_END
 94
        6
 95
        1
302
GRIDFORMAT
  1
GRIDFORMAT_BEGIN
 90
        0
 91
        1
 62
     0
 92
       -2
340
14
 93
        0
 40
0.045
309
GRIDFORMAT_END
 95
        2
302
GRIDFORMAT
  1
GRIDFORMAT_BEGIN
 90
        0
 91
        1
 62
     0
 92
       -2
340
14
 93
        0
 40
0.045
309
GRIDFORMAT_END
 95
        4
302
GRIDFORMAT
  1
GRIDFORMAT_BEGIN
 90
        0
 91
        1
 62
     0
 92
       -2
340
14
 93
        0
 40
0.045
309
GRIDFORMAT_END
 95
        8
302
GRIDFORMAT
  1
GRIDFORMAT_BEGIN
 90
        0
 91
        1
 62
     0
 92
       -2
340
14
 93
        0
 40
0.045
309
GRIDFORMAT_END
 95
       16
302
GRIDFORMAT
  1
GRIDFORMAT_BEGIN
 90
        0
 91
        1
 62
     0
 92
       -2
340
14
 93
        0
 40
0.045
309
GRIDFORMAT_END
 95
       32
302
GRIDFORMAT
  1
GRIDFORMAT_BEGIN
 90
        0
 91
        1
 62
     0
 92
       -2
340
14
 93
        0
 40
0.045
309
GRIDFORMAT_END
309
TABLEFORMAT_END
  1
CELLSTYLE_BEGIN
 90
        2
 91
        1
300
_HEADER
309
CELLSTYLE_END
300
CELLSTYLE
  1
TABLEFORMAT_BEGIN
 90
        5
170
     1
 91
        0
 92
        0
 62
   257
 93
        1
300
CONTENTFORMAT
  1
CONTENTFORMAT_BEGIN
 90
        0
 91
        0
 92
        4
 93
        0
300

 40
0.0
140
1.0
 94
        2
 62
     0
340
11
144
4.5
309
CONTENTFORMAT_END
171
     1
301
MARGIN
  1
CELLMARGIN_BEGIN
 40
1.5
 40
1.5
 40
1.5
 40
1.5
 40
1.5
 40
1.5
309
CELLMARGIN_END
 94
        6
 95
        1
302
GRIDFORMAT
  1
GRIDFORMAT_BEGIN
 90
        0
 91
        1
 62
     0
 92
       -2
340
14
 93
        0
 40
0.045
309
GRIDFORMAT_END
 95
        2
302
GRIDFORMAT
  1
GRIDFORMAT_BEGIN
 90
        0
 91
        1
 62
     0
 92
       -2
340
14
 93
        0
 40
0.045
309
GRIDFORMAT_END
 95
        4
302
GRIDFORMAT
  1
GRIDFORMAT_BEGIN
 90
        0
 91
        1
 62
     0
 92
       -2
340
14
 93
        0
 40
0.045
309
GRIDFORMAT_END
 95
        8
302
GRIDFORMAT
  1
GRIDFORMAT_BEGIN
 90
        0
 91
        1
 62
     0
 92
       -2
340
14
 93
        0
 40
0.045
309
GRIDFORMAT_END
 95
       16
302
GRIDFORMAT
  1
GRIDFORMAT_BEGIN
 90
        0
 91
        1
 62
     0
 92
       -2
340
14
 93
        0
 40
0.045
309
GRIDFORMAT_END
 95
       32
302
GRIDFORMAT
  1
GRIDFORMAT_BEGIN
 90
        0
 91
        1
 62
     0
 92
       -2
340
14
 93
        0
 40
0.045
309
GRIDFORMAT_END
309
TABLEFORMAT_END
  1
CELLSTYLE_BEGIN
 90
        3
 91
        2
300
_DATA
309
CELLSTYLE_END
  0
ENDSEC
  0
EOF
