  0
SECTION
  2
HEADER
  9
$ACADVER
  1
AC1015
  9
$ACADMAINTVER
 70
    18
  9
$DWGCODEPAGE
  3
ANSI_1252
  9
$INSBASE
 10
0.0
 20
0.0
 30
0.0
  9
$EXTMIN
 10
-72.96993750213869
 20
-17.92719838014727
 30
-0.0015258207003583
  9
$EXTMAX
 10
72.98808435488945
 20
289.3504041479321
 30
0.0000000349246037
  9
$LIMMIN
 10
0.0
 20
0.0
  9
$LIMMAX
 10
1189.0
 20
840.9999999999998
  9
$ORTHOMODE
 70
     0
  9
$REGENMODE
 70
     1
  9
$FILLMODE
 70
     1
  9
$QTEXTMODE
 70
     0
  9
$MIRRTEXT
 70
     0
  9
$LTSCALE
 40
1.0
  9
$ATTMODE
 70
     1
  9
$TEXTSIZE
 40
0.2
  9
$TRACEWID
 40
0.05
  9
$TEXTSTYLE
  7
STANDARD
  9
$CLAYER
  8
0
  9
$CELTYPE
  6
ByLayer
  9
$CECOLOR
 62
   256
  9
$CELTSCALE
 40
1.0
  9
$DISPSILH
 70
     0
  9
$DIMSCALE
 40
1.0
  9
$DIMASZ
 40
180.0
  9
$DIMEXO
 40
0.0625
  9
$DIMDLI
 40
0.38
  9
$DIMRND
 40
0.0
  9
$DIMDLE
 40
0.0
  9
$DIMEXE
 40
0.18
  9
$DIMTP
 40
0.0
  9
$DIMTM
 40
0.0
  9
$DIMTXT
 40
34.99999940395355
  9
$DIMCEN
 40
0.09
  9
$DIMTSZ
 40
0.0
  9
$DIMTOL
 70
     0
  9
$DIMLIM
 70
     0
  9
$DIMTIH
 70
     1
  9
$DIMTOH
 70
     1
  9
$DIMSE1
 70
     0
  9
$DIMSE2
 70
     0
  9
$DIMTAD
 70
     0
  9
$DIMZIN
 70
     0
  9
$DIMBLK
  1

  9
$DIMASO
 70
     1
  9
$DIMSHO
 70
     1
  9
$DIMPOST
  1

  9
$DIMAPOST
  1

  9
$DIMALT
 70
     0
  9
$DIMALTD
 70
     2
  9
$DIMALTF
 40
25.4
  9
$DIMLFAC
 40
1.0
  9
$DIMTOFL
 70
     0
  9
$DIMTVP
 40
0.0
  9
$DIMTIX
 70
     0
  9
$DIMSOXD
 70
     0
  9
$DIMSAH
 70
     0
  9
$DIMBLK1
  1

  9
$DIMBLK2
  1

  9
$DIMSTYLE
  2
STANDARD
  9
$DIMCLRD
 70
     0
  9
$DIMCLRE
 70
     0
  9
$DIMCLRT
 70
     0
  9
$DIMTFAC
 40
1.0
  9
$DIMGAP
 40
0.09
  9
$DIMJUST
 70
     0
  9
$DIMSD1
 70
     0
  9
$DIMSD2
 70
     0
  9
$DIMTOLJ
 70
     1
  9
$DIMTZIN
 70
     0
  9
$DIMALTZ
 70
     0
  9
$DIMALTTZ
 70
     0
  9
$DIMUPT
 70
     0
  9
$DIMDEC
 70
     4
  9
$DIMTDEC
 70
     4
  9
$DIMALTU
 70
     2
  9
$DIMALTTD
 70
     2
  9
$DIMTXSTY
  7
STANDARD
  9
$DIMAUNIT
 70
     0
  9
$DIMADEC
 70
     0
  9
$DIMALTRND
 40
0.0
  9
$DIMAZIN
 70
     0
  9
$DIMDSEP
 70
    46
  9
$DIMATFIT
 70
     3
  9
$DIMFRAC
 70
     0
  9
$DIMLDRBLK
  1

  9
$DIMLUNIT
 70
     2
  9
$DIMLWD
 70
    -2
  9
$DIMLWE
 70
    -2
  9
$DIMTMOVE
 70
     0
  9
$LUNITS
 70
     2
  9
$LUPREC
 70
     4
  9
$SKETCHINC
 40
0.1
  9
$FILLETRAD
 40
0.0
  9
$AUNITS
 70
     0
  9
$AUPREC
 70
     0
  9
$MENU
  1
.
  9
$ELEVATION
 40
0.0
  9
$PELEVATION
 40
0.0
  9
$THICKNESS
 40
0.0
  9
$LIMCHECK
 70
     0
  9
$CHAMFERA
 40
0.0
  9
$CHAMFERB
 40
0.0
  9
$CHAMFERC
 40
0.0
  9
$CHAMFERD
 40
0.0
  9
$SKPOLY
 70
     0
  9
$TDCREATE
 40
2454871.497639329
  9
$TDUCREATE
 40
2454871.455972662
  9
$TDUPDATE
 40
2455943.982652986
  9
$TDUUPDATE
 40
2455943.940986319
  9
$TDINDWG
 40
0.0125657755
  9
$TDUSRTIMER
 40
0.0125657755
  9
$USRTIMER
 70
     1
  9
$ANGBASE
 50
0.0
  9
$ANGDIR
 70
     0
  9
$PDMODE
 70
     0
  9
$PDSIZE
 40
0.0
  9
$PLINEWID
 40
0.0
  9
$SPLFRAME
 70
     0
  9
$SPLINETYPE
 70
     6
  9
$SPLINESEGS
 70
     8
  9
$HANDSEED
  5
1E7
  9
$SURFTAB1
 70
     6
  9
$SURFTAB2
 70
     6
  9
$SURFTYPE
 70
     6
  9
$SURFU
 70
     6
  9
$SURFV
 70
     6
  9
$UCSBASE
  2

  9
$UCSNAME
  2

  9
$UCSORG
 10
0.0
 20
0.0
 30
0.0
  9
$UCSXDIR
 10
1.0
 20
0.0
 30
0.0
  9
$UCSYDIR
 10
0.0
 20
1.0
 30
0.0
  9
$UCSORTHOREF
  2

  9
$UCSORTHOVIEW
 70
     0
  9
$UCSORGTOP
 10
0.0
 20
0.0
 30
0.0
  9
$UCSORGBOTTOM
 10
0.0
 20
0.0
 30
0.0
  9
$UCSORGLEFT
 10
0.0
 20
0.0
 30
0.0
  9
$UCSORGRIGHT
 10
0.0
 20
0.0
 30
0.0
  9
$UCSORGFRONT
 10
0.0
 20
0.0
 30
0.0
  9
$UCSORGBACK
 10
0.0
 20
0.0
 30
0.0
  9
$PUCSBASE
  2

  9
$PUCSNAME
  2

  9
$PUCSORG
 10
0.0
 20
0.0
 30
0.0
  9
$PUCSXDIR
 10
1.0
 20
0.0
 30
0.0
  9
$PUCSYDIR
 10
0.0
 20
1.0
 30
0.0
  9
$PUCSORTHOREF
  2

  9
$PUCSORTHOVIEW
 70
     0
  9
$PUCSORGTOP
 10
0.0
 20
0.0
 30
0.0
  9
$PUCSORGBOTTOM
 10
0.0
 20
0.0
 30
0.0
  9
$PUCSORGLEFT
 10
0.0
 20
0.0
 30
0.0
  9
$PUCSORGRIGHT
 10
0.0
 20
0.0
 30
0.0
  9
$PUCSORGFRONT
 10
0.0
 20
0.0
 30
0.0
  9
$PUCSORGBACK
 10
0.0
 20
0.0
 30
0.0
  9
$USERI1
 70
     0
  9
$USERI2
 70
     0
  9
$USERI3
 70
     0
  9
$USERI4
 70
     0
  9
$USERI5
 70
     0
  9
$USERR1
 40
0.0
  9
$USERR2
 40
0.0
  9
$USERR3
 40
0.0
  9
$USERR4
 40
0.0
  9
$USERR5
 40
0.0
  9
$WORLDVIEW
 70
     1
  9
$SHADEDGE
 70
     3
  9
$SHADEDIF
 70
    70
  9
$TILEMODE
 70
     1
  9
$MAXACTVP
 70
    64
  9
$PINSBASE
 10
0.0
 20
0.0
 30
0.0
  9
$PLIMCHECK
 70
     0
  9
$PEXTMIN
 10
0.0
 20
0.0
 30
0.0
  9
$PEXTMAX
 10
1189.0
 20
840.9999999999998
 30
0.0
  9
$PLIMMIN
 10
0.0
 20
0.0
  9
$PLIMMAX
 10
1189.0
 20
840.9999999999998
  9
$UNITMODE
 70
     0
  9
$VISRETAIN
 70
     1
  9
$PLINEGEN
 70
     0
  9
$PSLTSCALE
 70
     1
  9
$TREEDEPTH
 70
  3020
  9
$CMLSTYLE
  2
Standard
  9
$CMLJUST
 70
     0
  9
$CMLSCALE
 40
1.0
  9
$PROXYGRAPHICS
 70
     1
  9
$MEASUREMENT
 70
     1
  9
$CELWEIGHT
370
    -1
  9
$ENDCAPS
280
     0
  9
$JOINSTYLE
280
     0
  9
$LWDISPLAY
290
     0
  9
$INSUNITS
 70
     4
  9
$HYPERLINKBASE
  1

  9
$STYLESHEET
  1

  9
$XEDIT
290
     1
  9
$CEPSNTYPE
380
     0
  9
$PSTYLEMODE
290
     1
  9
$FINGERPRINTGUID
  2
{7D2AC08A-E6A6-4888-AD07-D04D347D787B}
  9
$VERSIONGUID
  2
{55E230B8-D6F7-4606-A12E-829075D9E534}
  9
$EXTNAMES
290
     1
  9
$PSVPSCALE
 40
0.0
  9
$OLESTARTUP
290
     0
  0
ENDSEC
  0
SECTION
  2
CLASSES
  0
CLASS
  1
ACDBDICTIONARYWDFLT
  2
AcDbDictionaryWithDefault
  3
ObjectDBX Classes
 90
        0
280
     0
281
     0
  0
CLASS
  1
MATERIAL
  2
AcDbMaterial
  3
ObjectDBX Classes
 90
     1153
280
     0
281
     0
  0
CLASS
  1
VISUALSTYLE
  2
AcDbVisualStyle
  3
ObjectDBX Classes
 90
     4095
280
     0
281
     0
  0
CLASS
  1
SCALE
  2
AcDbScale
  3
ObjectDBX Classes
 90
     1153
280
     0
281
     0
  0
CLASS
  1
TABLESTYLE
  2
AcDbTableStyle
  3
ObjectDBX Classes
 90
     4095
280
     0
281
     0
  0
CLASS
  1
MLEADERSTYLE
  2
AcDbMLeaderStyle
  3
ACDB_MLEADERSTYLE_CLASS
 90
     4095
280
     0
281
     0
  0
CLASS
  1
SORTENTSTABLE
  2
AcDbSortentsTable
  3
ObjectDBX Classes
 90
        0
280
     0
281
     0
  0
CLASS
  1
CELLSTYLEMAP
  2
AcDbCellStyleMap
  3
ObjectDBX Classes
 90
     1152
280
     0
281
     0
  0
CLASS
  1
DICTIONARYVAR
  2
AcDbDictionaryVar
  3
ObjectDBX Classes
 90
        0
280
     0
281
     0
  0
CLASS
  1
ACME_DOCUMENT
  2
AcMeDbDoc
  3
AcMeServices
 90
    33792
280
     1
281
     0
  0
CLASS
  1
AMGSETTINGSOBJ
  2
AmgSettingsObj
  3
"AcadM|Product Description: AutoCAD Mechanical|Company: Autodesk, Inc."
 90
    33792
280
     1
281
     0
  0
CLASS
  1
ACMESCOPE
  2
AcMeScope
  3
AcMeServices
 90
    33792
280
     1
281
     0
  0
CLASS
  1
ACMECOMMANDHISTORY
  2
AcMeCommandHistory
  3
AcMeServices
 90
    33792
280
     1
281
     0
  0
CLASS
  1
ACIMSYSVARMAN
  2
AcImSysVarManager
  3
AcMeServices
 90
    33792
280
     1
281
     0
  0
CLASS
  1
ACIMINTSYSVAR
  2
AcImIntSysVar
  3
AcMeServices
 90
    33792
280
     1
281
     0
  0
CLASS
  1
ACMEDRAWINGMAN
  2
AcMeDrawingMan
  3
AcMeServices
 90
    33792
280
     1
281
     0
  0
CLASS
  1
ACMEVIEW
  2
AcMeView
  3
AcMeServices
 90
    33792
280
     1
281
     0
  0
CLASS
  1
ACDBENTITYCACHE
  2
AcMeEntityCache
  3
AcMeServices
 90
    33792
280
     1
281
     0
  0
CLASS
  1
GSMANAGER
  2
AcMeGSManager
  3
AcMeServices
 90
    33792
280
     1
281
     0
  0
CLASS
  1
AMDTINTERNALREACTOR
  2
AmdtInternalReactor
  3
AcMeServices
 90
    33792
280
     1
281
     0
  0
CLASS
  1
ACMESTATEMGR
  2
AcMeStateMgr
  3
AcMeServices
 90
    33792
280
     1
281
     0
  0
CLASS
  1
ACGREFMASTER
  2
AcGrefMaster
  3
AcAttribServices
 90
    33792
280
     1
281
     0
  0
CLASS
  1
AM_DRAWING_MGR
  2
AcDmDwgMgr
  3
AcMechDwgViewMgmt
 90
    33792
280
     1
281
     0
  0
CLASS
  1
AM_DWG_DOCUMENT
  2
AcDmDwgDocument
  3
AcMechDwgViewMgmt
 90
    33792
280
     1
281
     0
  0
CLASS
  1
AM_DWG_SHEET
  2
AcDmSheet
  3
AcMechDwgViewMgmt
 90
    33792
280
     1
281
     0
  0
CLASS
  1
AM_VIEWDIMPARMAP
  2
AcDmViewDimParMap
  3
AcMechDwgViewMgmt
 90
    33792
280
     1
281
     0
  0
CLASS
  1
ACIMREALSYSVAR
  2
AcImRealSysVar
  3
AcMeServices
 90
    33792
280
     1
281
     0
  0
CLASS
  1
AM_DWGMGR_NAME
  2
AcDmDwgMgrName
  3
AcMechDwgViewMgmt
 90
    33792
280
     1
281
     0
  0
CLASS
  1
ACME_DATABASE
  2
AcMeDbDatabase
  3
AcMeServices
 90
    33792
280
     1
281
     0
  0
CLASS
  1
ACRFINSADJUSTERMGR
  2
AcRfInsAdjusterMgr
  3
AcMeServices
 90
    33792
280
     1
281
     0
  0
CLASS
  1
ACGREFACADMASTER
  2
AcGrefacadMaster
  3
AcGrefServices
 90
    33792
280
     1
281
     0
  0
CLASS
  1
AMDTMENUSTATEMGR
  2
AmdtMenuStateMgr
  3
McadcomServices
 90
    33792
280
     1
281
     0
  0
CLASS
  1
AMDTMCOMMENUSTATE
  2
AmdtMcomMenuState
  3
McadcomServices
 90
    33792
280
     1
281
     0
  0
CLASS
  1
AMIMASTER
  2
AmiMaster
  3
AmiServices
 90
    33792
280
     1
281
     0
  0
CLASS
  1
MAPIAMMOUDLE
  2
MApiAmModule
  3
MApiAmServices
 90
    33792
280
     1
281
     0
  0
CLASS
  1
ACIMSTRSYSVAR
  2
AcImStrSysVar
  3
AcMeServices
 90
    33792
280
     1
281
     0
  0
CLASS
  1
AMDTADMENUSTATE
  2
AmdtAdMenuState
  3
DesignerServices
 90
    33792
280
     1
281
     0
  0
CLASS
  1
ADAPPL
  2
AcAdAppl
  3
DesignerServices
 90
    33792
280
     1
281
     0
  0
CLASS
  1
DEPMGR
  2
AcAdDepMgr
  3
DesignerServices
 90
    33792
280
     1
281
     0
  0
CLASS
  1
PARAMMGR
  2
AcAdParamMgr
  3
DesignerServices
 90
    33792
280
     1
281
     0
  0
CLASS
  1
PARAMSCOPE
  2
AcAdParamScope
  3
DesignerServices
 90
    33792
280
     1
281
     0
  0
CLASS
  1
NAMEDAPPL
  2
AcAdNamedAppl
  3
DesignerServices
 90
    33792
280
     1
281
     0
  0
CLASS
  1
AMDTDMMENUSTATE
  2
AmdtDmMenuState
  3
AcMechDwgViewMgmt
 90
    33792
280
     1
281
     0
  0
CLASS
  1
AMDTAMMENUSTATE
  2
AmdtAmMenuState
  3
DesignerAssemblies
 90
    33792
280
     1
281
     0
  0
CLASS
  1
ACAMPROJECT
  2
AcAmProject
  3
DesignerAssemblies
 90
    33792
280
     1
281
     0
  0
CLASS
  1
ACAMGRCOMPDEF
  2
AcAmGrCompDef
  3
DesignerAssemblies
 90
    33792
280
     1
281
     0
  0
CLASS
  1
ACCMCONTEXT
  2
AcCmContext
  3
DesignerAssemblies
 90
    33792
280
     1
281
     0
  0
CLASS
  1
ACAMCOMPDEF
  2
AcAmCompDef
  3
DesignerAssemblies
 90
    33792
280
     1
281
     0
  0
CLASS
  1
ACAMCOMPDEFMGR
  2
AcAmCompDefMgr
  3
DesignerAssemblies
 90
    33792
280
     1
281
     0
  0
CLASS
  1
AMCONTEXTMGR
  2
AcAmContextMgr
  3
DesignerAssemblies
 90
    33792
280
     1
281
     0
  0
CLASS
  1
ACAMCONTEXTMODELER
  2
AcAmContextModeler
  3
DesignerAssemblies
 90
    33792
280
     1
281
     0
  0
CLASS
  1
ACMDATADICTIONARY
  2
AcmDataDictionary
  3
"AcmSymBB|Product Description: AutoCAD Mechanical|Company: Autodesk, Inc."
 90
    33792
280
     1
281
     0
  0
CLASS
  1
CATALOGSTATE
  2
AcAmCatalogState
  3
DesignerAssemblies
 90
    33792
280
     1
281
     0
  0
CLASS
  1
ACAMGRCOMPDEFSET
  2
AcAmGrCompDefSet
  3
DesignerAssemblies
 90
    33792
280
     1
281
     0
  0
CLASS
  1
AMDTBROWSERDBTAB
  2
AmdtBrowserDbTab
  3
McadcomServices
 90
    33792
280
     1
281
     0
  0
CLASS
  1
CBROWSERAPPOBJECT
  2
CBrowserAppObject
  3
McadcomServices
 90
    33792
280
     1
281
     0
  0
CLASS
  1
DM_PLACEHOLDER
  2
AcDmSelsetPlaceholder
  3
AcMechDwgViewMgmt
 90
    33792
280
     1
281
     0
  0
CLASS
  1
EXACXREFPANELOBJECT
  2
ExAcXREFPanelObject
  3
EXAC_ESW
 90
     1025
280
     0
281
     0
  0
CLASS
  1
NPOCOLLECTION
  2
AcDbImpNonPersistentObjectsCollection
  3
ObjectDBX Classes
 90
     1153
280
     0
281
     0
  0
CLASS
  1
ACMSTANDARDANSI
  2
AcmStandardANSI
  3
"Amdt_StdImp|Product Description: AutoCAD Mechanical|Company: Autodesk, Inc."
 90
    33792
280
     1
281
     0
  0
CLASS
  1
ACMSURFSTANDARDANSI
  2
AcmSurfTextStdANSI
  3
"Amdt_StdImp|Product Description: AutoCAD Mechanical|Company: Autodesk, Inc."
 90
    33792
280
     1
281
     0
  0
CLASS
  1
ACMFCFSTANDARDANSI
  2
AcmFCFStdANSI
  3
"Amdt_StdImp|Product Description: AutoCAD Mechanical|Company: Autodesk, Inc."
 90
    33792
280
     1
281
     0
  0
CLASS
  1
ACMWELDSTANDARDANSI
  2
AcmWeldingStdANSI
  3
"Amdt_StdImp|Product Description: AutoCAD Mechanical|Company: Autodesk, Inc."
 90
    33792
280
     1
281
     0
  0
CLASS
  1
ACMIDSTANDARDANSI
  2
AcmIdStdANSI
  3
"Amdt_StdImp|Product Description: AutoCAD Mechanical|Company: Autodesk, Inc."
 90
    33792
280
     1
281
     0
  0
CLASS
  1
ACMDATUMSTANDARDANSI
  2
AcmDatumStdANSI
  3
"Amdt_StdImp|Product Description: AutoCAD Mechanical|Company: Autodesk, Inc."
 90
    33792
280
     1
281
     0
  0
CLASS
  1
ACMBOMSTANDARDANSI
  2
AcmBOMStdANSI
  3
"Amdt_StdImp|Product Description: AutoCAD Mechanical|Company: Autodesk, Inc."
 90
    33792
280
     1
281
     0
  0
CLASS
  1
ACMDETAILSTANDARDANSI
  2
AmdtDetailSymStdANSI
  3
"Amdt_StdImp|Product Description: AutoCAD Mechanical|Company: Autodesk, Inc."
 90
    33792
280
     1
281
     0
  0
CLASS
  1
ACMSECTIONSTANDARDANSI
  2
AmdtSectionSymStdANSI
  3
"Amdt_StdImp|Product Description: AutoCAD Mechanical|Company: Autodesk, Inc."
 90
    33792
280
     1
281
     0
  0
CLASS
  1
ACMCENTERLINESTANDARDANSI
  2
AmdtCenterLineStdANSI
  3
"Amdt_StdImp|Product Description: AutoCAD Mechanical|Company: Autodesk, Inc."
 90
    33792
280
     1
281
     0
  0
CLASS
  1
ACMTHREADLINESTANDARDANSI
  2
AmdtThreadLineStdANSI
  3
"Amdt_StdImp|Product Description: AutoCAD Mechanical|Company: Autodesk, Inc."
 90
    33792
280
     1
281
     0
  0
CLASS
  1
ACMNOTESTANDARDANSI
  2
AmdtNoteStdANSI
  3
"Amdt_StdImp|Product Description: AutoCAD Mechanical|Company: Autodesk, Inc."
 90
    33792
280
     1
281
     0
  0
CLASS
  1
ACMTAPERSTANDARDANSI
  2
AcmTaperStdANSI
  3
"Amdt_StdImp|Product Description: AutoCAD Mechanical|Company: Autodesk, Inc."
 90
    33792
280
     1
281
     0
  0
CLASS
  1
ACMANOOTATIONVIEWSTANDARDANSI
  2
AmdtAnViewStdANSI
  3
"Amdt_StdImp|Product Description: AutoCAD Mechanical|Company: Autodesk, Inc."
 90
    33792
280
     1
281
     0
  0
CLASS
  1
ACAMGLAYSTD
  2
AcAmgLayStd
  3
"AmgLay|Product Description: AutoCAD Mechanical|Company: Autodesk, Inc."
 90
    33792
280
     1
281
     0
  0
CLASS
  1
ACAMGDIMSTD
  2
AcAmgDimStd
  3
"AmgDim|Product Description: AutoCAD Mechanical|Company: Autodesk, Inc."
 90
    33792
280
     1
281
     0
  0
CLASS
  1
AMGOBJPROPCFG
  2
AmgObjPropCfg
  3
"AmgLay|Product Description: AutoCAD Mechanical|Company: Autodesk, Inc."
 90
    33793
280
     1
281
     0
  0
CLASS
  1
ACAMGHOLECHARTSTDANSI
  2
AcAmgHoleChartStdANSI
  3
AmgDim|Product Description: AutoCAD Mechanical|Company: Autodesk, Inc.
 90
    33792
280
     1
281
     0
  0
CLASS
  1
ACAMGTITLESTD
  2
AcAmgTitleStd
  3
"AmgTitle|Product Description: AutoCAD Mechanical|Company: Autodesk, Inc."
 90
    36863
280
     1
281
     0
  0
CLASS
  1
AMDTNOTETEMPLATEDB
  2
AmdtNoteTemplateDB
  3
AcmSymBB|Product Description: AutoCAD Mechanical|Company: Autodesk, Inc.
 90
    33792
280
     1
281
     0
  0
CLASS
  1
ACAMGFILTERDAT
  2
AcAmgFilterDat
  3
"AcadM|Product Description: AutoCAD Mechanical|Company: Autodesk, Inc."
 90
    33792
280
     1
281
     0
  0
CLASS
  1
CAMSSTRUCTBTNSTATE
  2
StructBtnState
  3
DesignerAssemblies
 90
    33792
280
     1
281
     0
  0
CLASS
  1
ACDBPLACEHOLDER
  2
AcDbPlaceHolder
  3
ObjectDBX Classes
 90
        0
280
     0
281
     0
  0
CLASS
  1
LAYOUT
  2
AcDbLayout
  3
ObjectDBX Classes
 90
        0
280
     0
281
     0
  0
CLASS
  1
SOLID_BACKGROUND
  2
AcDbSolidBackground
  3
SCENEOE
 90
    36863
280
     0
281
     0
  0
ENDSEC
  0
SECTION
  2
TABLES
  0
TABLE
  2
VPORT
  5
28
102
{ACAD_XDICTIONARY
360
2C
102
}
330
0
100
AcDbSymbolTable
 70
     1
  0
VPORT
  5
29
330
28
100
AcDbSymbolTableRecord
100
AcDbViewportTableRecord
  2
*ACTIVE
 70
     0
 10
0.0
 20
0.0
 11
1.0
 21
1.0
 12
0.009073426375366
 22
135.7116028838924
 13
0.0
 23
0.0
 14
1.0
 24
1.0
 15
0.0
 25
0.0
 16
0.0
 26
0.0
 36
1.0
 17
0.0
 27
0.0
 37
0.0
 40
344.0324631479346
 41
1.141762452107279
 42
50.0
 43
0.0
 44
0.0
 50
0.0
 51
0.0
 71
     0
 72
   100
 73
     1
 74
     1
 75
     0
 76
     0
 77
     0
 78
     0
281
     0
 65
     1
110
0.0
120
0.0
130
0.0
111
1.0
121
0.0
131
0.0
112
0.0
122
1.0
132
0.0
 79
     0
146
0.0
  0
ENDTAB
  0
TABLE
  2
LTYPE
  5
23
330
0
100
AcDbSymbolTable
 70
     3
  0
LTYPE
  5
24
330
23
100
AcDbSymbolTableRecord
100
AcDbLinetypeTableRecord
  2
ByBlock
 70
     0
  3

 72
    65
 73
     0
 40
0.0
  0
LTYPE
  5
25
330
23
100
AcDbSymbolTableRecord
100
AcDbLinetypeTableRecord
  2
ByLayer
 70
     0
  3

 72
    65
 73
     0
 40
0.0
  0
LTYPE
  5
13
330
23
100
AcDbSymbolTableRecord
100
AcDbLinetypeTableRecord
  2
CONTINUOUS
 70
     0
  3
Solid line
 72
    65
 73
     0
 40
0.0
  0
LTYPE
  5
77
330
23
100
AcDbSymbolTableRecord
100
AcDbLinetypeTableRecord
  2
DASHDOT
 70
     0
  3
Dash dot __ . __ . __ . __ . __ . __ . __ . __
 72
    65
 73
     4
 40
1.0
 49
0.5
 74
     0
 49
-0.25
 74
     0
 49
0.0
 74
     0
 49
-0.25
 74
     0
  0
LTYPE
  5
7F
330
23
100
AcDbSymbolTableRecord
100
AcDbLinetypeTableRecord
  2
DASHED
 70
     0
  3
Dashed __ __ __ __ __ __ __ __ __ __ __ __ __ _
 72
    65
 73
     2
 40
0.75
 49
0.5
 74
     0
 49
-0.25
 74
     0
  0
ENDTAB
  0
TABLE
  2
LAYER
  5
1B
102
{ACAD_XDICTIONARY
360
1C
102
}
330
0
100
AcDbSymbolTable
 70
     7
  0
LAYER
  5
6
330
1B
100
AcDbSymbolTableRecord
100
AcDbLayerTableRecord
  2
0
 70
     0
 62
     7
  6
CONTINUOUS
370
    -3
390
7
  0
LAYER
  5
91
330
1B
100
AcDbSymbolTableRecord
100
AcDbLayerTableRecord
  2
GEB-KONTUR-A
 70
     0
 62
     5
  6
CONTINUOUS
370
    -3
390
7
  0
LAYER
  5
76
330
1B
100
AcDbSymbolTableRecord
100
AcDbLayerTableRecord
  2
GEB-SYMMETRIE
 70
     0
 62
     3
  6
DASHDOT
370
    -3
390
7
1001
AcAecLayerStandard
1000

1000

  0
LAYER
  5
7E
330
1B
100
AcDbSymbolTableRecord
100
AcDbLayerTableRecord
  2
GEB-VERDECKT
 70
     0
 62
     2
  6
DASHED
370
    -3
390
7
1001
AcAecLayerStandard
1000

1000

  0
LAYER
  5
17B
330
1B
100
AcDbSymbolTableRecord
100
AcDbLayerTableRecord
  2
GEB-ART-NR
 70
     0
 62
     1
  6
CONTINUOUS
370
    18
390
7
  0
LAYER
  5
72
330
1B
100
AcDbSymbolTableRecord
100
AcDbLayerTableRecord
  2
GEB-BEZUG
 70
     0
 62
     2
  6
CONTINUOUS
370
    25
390
7
  0
LAYER
  5
178
330
1B
100
AcDbSymbolTableRecord
100
AcDbLayerTableRecord
  2
GEB-TEXT
 70
     0
 62
     5
  6
CONTINUOUS
370
    18
390
7
  0
ENDTAB
  0
TABLE
  2
STYLE
  5
20
330
0
100
AcDbSymbolTable
 70
     1
  0
STYLE
  5
21
330
20
100
AcDbSymbolTableRecord
100
AcDbTextStyleTableRecord
  2
STANDARD
 70
     0
 40
0.0
 41
1.0
 50
0.0
 71
     0
 42
0.2
  3
ARIAL.TTF
  4

1001
ACAD
1000
Arial
1071
       34
  0
ENDTAB
  0
TABLE
  2
VIEW
  5
26
330
0
100
AcDbSymbolTable
 70
     0
  0
ENDTAB
  0
TABLE
  2
UCS
  5
27
330
0
100
AcDbSymbolTable
 70
     0
  0
ENDTAB
  0
TABLE
  2
APPID
  5
2D
330
0
100
AcDbSymbolTable
 70
     3
  0
APPID
  5
1F
330
2D
100
AcDbSymbolTableRecord
100
AcDbRegAppTableRecord
  2
ACAD
 70
     0
  0
APPID
  5
78
330
2D
100
AcDbSymbolTableRecord
100
AcDbRegAppTableRecord
  2
AcAecLayerStandard
 70
     0
  0
APPID
  5
1E6
330
2D
100
AcDbSymbolTableRecord
100
AcDbRegAppTableRecord
  2
ACAD_MLEADERVER
 70
     0
  0
ENDTAB
  0
TABLE
  2
DIMSTYLE
  5
2E
330
0
100
AcDbSymbolTable
 70
     1
100
AcDbDimStyleTable
 71
     1
340
2F
  0
DIMSTYLE
105
2F
330
2E
100
AcDbSymbolTableRecord
100
AcDbDimStyleTableRecord
  2
STANDARD
 70
     0
279
     2
340
21
  0
ENDTAB
  0
TABLE
  2
BLOCK_RECORD
  5
1
330
0
100
AcDbSymbolTable
 70
     1
  0
BLOCK_RECORD
  5
2
102
{ACAD_XDICTIONARY
360
3
102
}
330
1
100
AcDbSymbolTableRecord
100
AcDbBlockTableRecord
  2
*Model_Space
340
15
  0
BLOCK_RECORD
  5
17
330
1
100
AcDbSymbolTableRecord
100
AcDbBlockTableRecord
  2
*Paper_Space
340
1A
  0
BLOCK_RECORD
  5
6F
330
1
100
AcDbSymbolTableRecord
100
AcDbBlockTableRecord
  2
Einfügepunkt
340
0
102
{BLKREFS
331
6E
102
}
  0
ENDTAB
  0
ENDSEC
  0
SECTION
  2
BLOCKS
  0
BLOCK
  5
5
330
2
100
AcDbEntity
  8
0
100
AcDbBlockBegin
  2
*Model_Space
 70
     0
 10
0.0
 20
0.0
 30
0.0
  3
*Model_Space
  1

  0
ENDBLK
  5
14
330
2
100
AcDbEntity
  8
0
100
AcDbBlockEnd
  0
BLOCK
  5
18
330
17
100
AcDbEntity
 67
     1
  8
0
100
AcDbBlockBegin
  2
*Paper_Space
 70
     0
 10
0.0
 20
0.0
 30
0.0
  3
*Paper_Space
  1

  0
ENDBLK
  5
19
330
17
100
AcDbEntity
 67
     1
  8
0
100
AcDbBlockEnd
  0
BLOCK
  5
70
330
6F
100
AcDbEntity
  8
0
100
AcDbBlockBegin
  2
Einfügepunkt
 70
     0
 10
0.0
 20
0.0
 30
0.0
  3
Einfügepunkt
  1

  0
LINE
  5
71
330
6F
100
AcDbEntity
  8
GEB-BEZUG
100
AcDbLine
 10
-0.7071067811865817
 20
-0.7071067811865106
 30
0.0
 11
0.7071067811864751
 21
0.7071067811865817
 31
0.0
  0
LINE
  5
73
330
6F
100
AcDbEntity
  8
GEB-BEZUG
100
AcDbLine
 10
-0.7071067811865106
 20
0.7071067811865817
 30
0.0
 11
0.7071067811865462
 21
-0.7071067811865106
 31
0.0
  0
ENDBLK
  5
74
330
6F
100
AcDbEntity
  8
0
100
AcDbBlockEnd
  0
ENDSEC
  0
SECTION
  2
ENTITIES
  0
INSERT
  5
6E
330
2
100
AcDbEntity
  8
0
 48
25.0
100
AcDbBlockReference
  2
Einfügepunkt
 10
0.0
 20
0.0
 30
0.0
  0
LINE
  5
75
330
2
100
AcDbEntity
  8
GEB-SYMMETRIE
 48
25.0
100
AcDbLine
 10
0.0
 20
274.8999999999992
 30
0.0
 11
0.0
 21
289.2999999999995
 31
0.0
  0
LINE
  5
79
330
2
100
AcDbEntity
  8
GEB-SYMMETRIE
 48
25.0
100
AcDbLine
 10
0.0
 20
263.4999999999995
 30
0.0
 11
0.0
 21
279.8999999999992
 31
0.0
  0
LINE
  5
7A
330
2
100
AcDbEntity
  8
GEB-SYMMETRIE
 48
25.0
100
AcDbLine
 10
0.0
 20
182.2899999999993
 30
0.0
 11
0.0
 21
208.8499999999994
 31
0.0
  0
LINE
  5
7B
330
2
100
AcDbEntity
  8
GEB-SYMMETRIE
 48
25.0
100
AcDbLine
 10
-62.65000000004341
 20
146.5338992412091
 30
0.0
 11
62.64999999995666
 21
146.5338992412091
 31
0.0
  0
LINE
  5
7C
330
2
100
AcDbEntity
  8
GEB-SYMMETRIE
 48
25.0
100
AcDbLine
 10
-0.0000000000427463
 20
209.1838992412093
 30
0.0
 11
-0.0000000000441105
 21
83.88389924120918
 31
0.0
  0
LINE
  5
7D
330
2
100
AcDbEntity
  8
GEB-VERDECKT
 48
25.0
100
AcDbLine
 10
58.5
 20
203.3499999999995
 30
0.0
 11
58.5
 21
208.7593612044254
 31
0.0
  0
LINE
  5
80
330
2
100
AcDbEntity
  8
GEB-VERDECKT
 48
25.0
100
AcDbLine
 10
-58.5
 20
203.3499999999995
 30
0.0
 11
-58.5
 21
208.7593612044254
 31
0.0
  0
LINE
  5
81
330
2
100
AcDbEntity
  8
GEB-VERDECKT
 48
25.0
100
AcDbLine
 10
58.5
 20
208.7593612044254
 30
0.0
 11
63.19999999999982
 21
216.8999999999994
 31
0.0
  0
LINE
  5
82
330
2
100
AcDbEntity
  8
GEB-VERDECKT
 48
25.0
100
AcDbLine
 10
-58.5
 20
208.7593612044254
 30
0.0
 11
-63.20000000000004
 21
216.8999999999994
 31
0.0
  0
LINE
  5
83
330
2
100
AcDbEntity
  8
GEB-VERDECKT
 48
25.0
100
AcDbLine
 10
63.19999999999982
 20
216.8999999999994
 30
0.0
 11
63.20000000000004
 21
265.9999999999991
 31
0.0
  0
LINE
  5
84
330
2
100
AcDbEntity
  8
GEB-VERDECKT
 48
25.0
100
AcDbLine
 10
-63.20000000000004
 20
216.8999999999994
 30
0.0
 11
-63.19999999999982
 21
265.9999999999991
 31
0.0
  0
LINE
  5
85
330
2
100
AcDbEntity
  8
GEB-VERDECKT
 48
25.0
100
AcDbLine
 10
68.8499999999999
 20
265.9999999999991
 30
0.0
 11
68.8499999999999
 21
277.399999999999
 31
0.0
  0
LINE
  5
86
330
2
100
AcDbEntity
  8
GEB-VERDECKT
 48
25.0
100
AcDbLine
 10
-68.8499999999999
 20
265.9999999999991
 30
0.0
 11
-68.8499999999998
 21
277.399999999999
 31
0.0
  0
LINE
  5
87
330
2
100
AcDbEntity
  8
GEB-VERDECKT
 48
25.0
100
AcDbLine
 10
63.20000000000004
 20
277.399999999999
 30
0.0
 11
63.20000000000004
 21
286.7999999999993
 31
0.0
  0
LINE
  5
88
330
2
100
AcDbEntity
  8
GEB-VERDECKT
 48
25.0
100
AcDbLine
 10
-63.19999999999982
 20
277.399999999999
 30
0.0
 11
-63.19999999999982
 21
286.7999999999991
 31
0.0
  0
LINE
  5
89
330
2
100
AcDbEntity
  8
GEB-VERDECKT
 48
25.0
100
AcDbLine
 10
-63.20000000000004
 20
184.7899999999995
 30
0.0
 11
-63.20000000000004
 21
206.3499999999995
 31
0.0
  0
LINE
  5
8A
330
2
100
AcDbEntity
  8
GEB-VERDECKT
 48
25.0
100
AcDbLine
 10
63.19999999999982
 20
184.7899999999995
 30
0.0
 11
63.19999999999982
 21
206.3499999999995
 31
0.0
  0
LINE
  5
8B
330
2
100
AcDbEntity
  8
GEB-VERDECKT
 48
25.0
100
AcDbLine
 10
58.5
 20
208.7593612044257
 30
0.0
 11
-58.5
 21
208.7593612044257
 31
0.0
  0
LINE
  5
8C
330
2
100
AcDbEntity
  8
GEB-VERDECKT
 48
25.0
100
AcDbLine
 10
63.19999999999982
 20
216.8999999999994
 30
0.0
 11
-63.20000000000004
 21
216.8999999999994
 31
0.0
  0
LINE
  5
8D
330
2
100
AcDbEntity
  8
GEB-VERDECKT
 48
25.0
100
AcDbLine
 10
68.8499999999999
 20
265.9999999999991
 30
0.0
 11
-68.8499999999998
 21
265.9999999999991
 31
0.0
  0
LINE
  5
8E
330
2
100
AcDbEntity
  8
GEB-VERDECKT
 48
25.0
100
AcDbLine
 10
68.8499999999999
 20
277.399999999999
 30
0.0
 11
-68.8499999999998
 21
277.399999999999
 31
0.0
  0
LINE
  5
8F
330
2
100
AcDbEntity
  8
GEB-VERDECKT
 48
25.0
100
AcDbLine
 10
22.38003873048467
 20
206.349999999999
 30
0.0
 11
-22.38003873052083
 21
206.349999999999
 31
0.0
  0
LINE
  5
90
330
2
100
AcDbEntity
  8
GEB-KONTUR-A
 48
25.0
100
AcDbLine
 10
67.29999999999995
 20
281.4999999999991
 30
0.0
 11
67.29999999999995
 21
286.899999999999
 31
0.0
  0
LINE
  5
92
330
2
100
AcDbEntity
  8
GEB-KONTUR-A
 48
25.0
100
AcDbLine
 10
-67.29999999999984
 20
281.4999999999991
 30
0.0
 11
-67.29999999999984
 21
286.899999999999
 31
0.0
  0
LINE
  5
93
330
2
100
AcDbEntity
  8
GEB-KONTUR-A
 48
25.0
100
AcDbLine
 10
72.95000000000005
 20
261.899999999999
 30
0.0
 11
72.95000000000005
 21
281.4999999999991
 31
0.0
  0
LINE
  5
94
330
2
100
AcDbEntity
  8
GEB-KONTUR-A
 48
25.0
100
AcDbLine
 10
-72.94999999999993
 20
261.899999999999
 30
0.0
 11
-72.94999999999993
 21
281.4999999999991
 31
0.0
  0
LINE
  5
95
330
2
100
AcDbEntity
  8
GEB-KONTUR-A
 48
25.0
100
AcDbLine
 10
67.29999999999995
 20
286.899999999999
 30
0.0
 11
-67.29999999999984
 21
286.899999999999
 31
0.0
  0
LINE
  5
96
330
2
100
AcDbEntity
  8
GEB-KONTUR-A
 48
25.0
100
AcDbLine
 10
72.95000000000005
 20
281.4999999999991
 30
0.0
 11
-72.94999999999982
 21
281.4999999999991
 31
0.0
  0
LINE
  5
97
330
2
100
AcDbEntity
  8
GEB-KONTUR-A
 48
25.0
100
AcDbLine
 10
63.50246058224366
 20
206.3499999999995
 30
0.0
 11
22.38003873048467
 21
206.349999999999
 31
0.0
  0
LINE
  5
98
330
2
100
AcDbEntity
  8
GEB-KONTUR-A
 48
25.0
100
AcDbLine
 10
-22.38003873052083
 20
206.349999999999
 30
0.0
 11
-63.50246058225275
 21
206.3499999999992
 31
0.0
  0
LINE
  5
99
330
2
100
AcDbEntity
  8
GEB-KONTUR-A
 48
25.0
100
AcDbLine
 10
-63.50246058225275
 20
212.3499999999992
 30
0.0
 11
-63.50246058225275
 21
206.3499999999992
 31
0.0
  0
LINE
  5
9A
330
2
100
AcDbEntity
  8
GEB-KONTUR-A
 48
25.0
100
AcDbLine
 10
-67.30000000000439
 20
261.899999999999
 30
0.0
 11
-67.3000000000045
 21
184.7899999999992
 31
0.0
  0
LINE
  5
9B
330
2
100
AcDbEntity
  8
GEB-KONTUR-A
 48
25.0
100
AcDbLine
 10
-67.3000000000045
 20
184.7899999999992
 30
0.0
 11
-61.39413652785219
 21
184.7899999999992
 31
0.0
  0
LINE
  5
9C
330
2
100
AcDbEntity
  8
GEB-KONTUR-A
 48
25.0
100
AcDbLine
 10
-61.39413652785219
 20
184.7899999999992
 30
0.0
 11
-61.39413652785219
 21
206.3499999999992
 31
0.0
  0
LINE
  5
9D
330
2
100
AcDbEntity
  8
GEB-KONTUR-A
 48
25.0
100
AcDbLine
 10
65.60708803170133
 20
212.3499999999995
 30
0.0
 11
-65.60708803171031
 21
212.3499999999992
 31
0.0
  0
LINE
  5
9E
330
2
100
AcDbEntity
  8
GEB-KONTUR-A
 48
25.0
100
AcDbLine
 10
-65.60708803171019
 20
261.899999999999
 30
0.0
 11
-65.60708803171031
 21
212.3499999999992
 31
0.0
  0
SPLINE
  5
9F
330
2
100
AcDbEntity
  8
GEB-KONTUR-A
 48
25.0
100
AcDbSpline
210
0.0
220
0.0
230
1.0
 70
     8
 71
     3
 72
    28
 73
    24
 74
     0
 42
0.0000000001
 43
0.0000000001
 40
0.000498937143298
 40
0.000498937143298
 40
0.000498937143298
 40
0.000498937143298
 40
0.3097928673345961
 40
0.3097928673345961
 40
0.4426463348404388
 40
0.4426463348404388
 40
0.4569216764128086
 40
0.4569216764128086
 40
0.464372710839295
 40
0.464372710839295
 40
0.4693499348367589
 40
0.4693499348367589
 40
0.4739314946461365
 40
0.4739314946461365
 40
0.4797999009226541
 40
0.4797999009226541
 40
0.4906728439368808
 40
0.4906728439368808
 40
0.5188612208423465
 40
0.5188612208423465
 40
0.6281794509616951
 40
0.6281794509616951
 40
1.00118065358644
 40
1.00118065358644
 40
1.00118065358644
 40
1.00118065358644
 10
57.79516490845708
 20
228.1129080118685
 30
0.0
 10
58.32253378130918
 20
228.0651126103662
 30
0.0
 10
58.73657585939418
 20
227.9979047556408
 30
0.0
 10
59.14365241974429
 20
227.881074260524
 30
0.0
 10
59.33984090108356
 20
227.8150021294459
 30
0.0
 10
59.42345185300405
 20
227.7151853159001
 30
0.0
 10
59.43129296912866
 20
227.703908891091
 30
0.0
 10
59.44010850041014
 20
227.6846490731602
 30
0.0
 10
59.44286598863164
 20
227.6770266587298
 30
0.0
 10
59.44576511733931
 20
227.6629100191235
 30
0.0
 10
59.44645011800663
 20
227.6569883353332
 30
0.0
 10
59.44655720341029
 20
227.6451368825846
 30
0.0
 10
59.44607191636101
 20
227.6396277049725
 30
0.0
 10
59.44396166999331
 20
227.627475806275
 30
0.0
 10
59.44209788555326
 20
227.6212000562452
 30
0.0
 10
59.43595511184731
 20
227.6051071207016
 30
0.0
 10
59.43061660201556
 20
227.5959174662055
 30
0.0
 10
59.41189868162791
 20
227.5686808091227
 30
0.0
 10
59.39366448455803
 20
227.5516810429942
 30
0.0
 10
59.30756872566826
 20
227.4841092925085
 30
0.0
 10
59.2019649646918
 20
227.4421028198153
 30
0.0
 10
58.83449486539302
 20
227.3182885526383
 30
0.0
 10
58.3854199760965
 20
227.240586760762
 30
0.0
 10
57.79516490845731
 20
227.1870919881296
 30
0.0
  0
SPLINE
  5
A0
330
2
100
AcDbEntity
  8
GEB-KONTUR-A
 48
25.0
100
AcDbSpline
210
0.0
220
0.0
230
1.0
 70
     8
 71
     3
 72
    18
 73
    14
 74
     0
 42
0.0000000001
 43
0.0000000001
 40
6.967499064267225
 40
6.967499064267225
 40
6.967499064267225
 40
6.967499064267225
 40
7.202898006892143
 40
7.202898006892143
 40
7.768252488074455
 40
7.768252488074455
 40
8.807218467260383
 40
8.807218467260383
 40
10.10142440917676
 40
10.10142440917676
 40
12.17795843093957
 40
12.17795843093957
 40
13.92453479079923
 40
13.92453479079923
 40
13.92453479079923
 40
13.92453479079923
 10
-0.0000000000201226
 20
228.9499999999989
 30
0.0
 10
0.784986067185514
 20
228.9499999999989
 30
0.0
 10
1.569973331394521
 20
228.9500004278131
 30
0.0
 10
4.239031640156099
 20
228.9499946061358
 30
0.0
 10
6.119857149973086
 20
228.9499897281114
 30
0.0
 10
11.43276332066341
 20
228.9495325761045
 30
0.0
 10
14.83650973753947
 20
228.9488103731674
 30
0.0
 10
22.32906048343057
 20
228.9409042392142
 30
0.0
 10
26.36338687001444
 20
228.9322611491471
 30
0.0
 10
36.40817706783355
 20
228.8780636117508
 30
0.0
 10
42.0786921857416
 20
228.8146842497054
 30
0.0
 10
51.19670108072523
 20
228.5547962530704
 30
0.0
 10
54.81470137237966
 20
228.3830271992213
 30
0.0
 10
57.79516490845708
 20
228.1129080118685
 30
0.0
  0
SPLINE
  5
A1
330
2
100
AcDbEntity
  8
GEB-KONTUR-A
 48
25.0
100
AcDbSpline
210
0.0
220
0.0
230
1.0
 70
     8
 71
     3
 72
    16
 73
    12
 74
     0
 42
0.0000000001
 43
0.0000000001
 40
0.0021551240713014
 40
0.0021551240713014
 40
0.0021551240713014
 40
0.0021551240713014
 40
2.540499600665145
 40
2.540499600665145
 40
5.111814293382343
 40
5.111814293382343
 40
6.160085419930047
 40
6.160085419930047
 40
6.727406573759195
 40
6.727406573759195
 40
6.967499064267225
 40
6.967499064267225
 40
6.967499064267225
 40
6.967499064267225
 10
-57.79516490847777
 20
228.1129080118685
 30
0.0
 10
-53.46472078669967
 20
228.5053758387326
 30
0.0
 10
-47.80069149705695
 20
228.693957267574
 30
0.0
 10
-34.30769826675646
 20
228.9131728254517
 30
0.0
 10
-26.57835181360679
 20
228.9361873012515
 30
0.0
 10
-14.96248478681673
 20
228.9487694532788
 30
0.0
 10
-11.52931431339016
 20
228.9495166698807
 30
0.0
 10
-6.179716225567744
 20
228.9499885795285
 30
0.0
 10
-4.292465742820695
 20
228.9499942347993
 30
0.0
 10
-1.601274085850604
 20
228.9500004629526
 30
0.0
 10
-0.8006376655416715
 20
228.9499999999989
 30
0.0
 10
-0.0000000000201226
 20
228.9499999999989
 30
0.0
  0
SPLINE
  5
A2
330
2
100
AcDbEntity
  8
GEB-KONTUR-A
 48
25.0
100
AcDbSpline
210
0.0
220
0.0
230
1.0
 70
     8
 71
     3
 72
    28
 73
    24
 74
     0
 42
0.0000000001
 43
0.0000000001
 40
0.0004989371433235
 40
0.0004989371433235
 40
0.0004989371433235
 40
0.0004989371433235
 40
0.3097928673347692
 40
0.3097928673347692
 40
0.4426463348387014
 40
0.4426463348387014
 40
0.4569216764256275
 40
0.4569216764256275
 40
0.4643727108648683
 40
0.4643727108648683
 40
0.469349934870918
 40
0.469349934870918
 40
0.4739314946880985
 40
0.4739314946880985
 40
0.4797999009743661
 40
0.4797999009743661
 40
0.4906728440070522
 40
0.4906728440070522
 40
0.5188612209563761
 40
0.5188612209563761
 40
0.628179451222853
 40
0.628179451222853
 40
1.001180654352769
 40
1.001180654352769
 40
1.001180654352769
 40
1.001180654352769
 10
-57.79516490847789
 20
227.1870919881296
 30
0.0
 10
-58.32253378132953
 20
227.2348873896322
 30
0.0
 10
-58.73657585941373
 20
227.3020952443574
 30
0.0
 10
-59.14365241976156
 20
227.4189257394737
 30
0.0
 10
-59.33984090110209
 20
227.4849978705518
 30
0.0
 10
-59.42345185303134
 20
227.5848146841081
 30
0.0
 10
-59.4312929691514
 20
227.5960911089153
 30
0.0
 10
-59.440108500429
 20
227.6153509268381
 30
0.0
 10
-59.4428659886504
 20
227.6229733412683
 30
0.0
 10
-59.44576511735817
 20
227.6370899808746
 30
0.0
 10
-59.44645011802549
 20
227.6430116646647
 30
0.0
 10
-59.44655720342893
 20
227.6548631174132
 30
0.0
 10
-59.44607191637988
 20
227.6603722950251
 30
0.0
 10
-59.44396167001219
 20
227.6725241937234
 30
0.0
 10
-59.44209788557214
 20
227.6787999437531
 30
0.0
 10
-59.43595511186618
 20
227.6948928792963
 30
0.0
 10
-59.43061660203444
 20
227.7040825337924
 30
0.0
 10
-59.41189868164838
 20
227.7313191908729
 30
0.0
 10
-59.39366448458065
 20
227.7483189570007
 30
0.0
 10
-59.30756872568702
 20
227.8158907074896
 30
0.0
 10
-59.2019649647101
 20
227.857897180183
 30
0.0
 10
-58.8344948654127
 20
227.9817114473599
 30
0.0
 10
-58.38541997611662
 20
228.0594132392362
 30
0.0
 10
-57.79516490847777
 20
228.1129080118685
 30
0.0
  0
SPLINE
  5
A3
330
2
100
AcDbEntity
  8
GEB-KONTUR-A
 48
25.0
100
AcDbSpline
210
0.0
220
0.0
230
1.0
 70
     8
 71
     3
 72
    18
 73
    14
 74
     0
 42
0.0000000001
 43
0.0000000001
 40
6.967499064267363
 40
6.967499064267363
 40
6.967499064267363
 40
6.967499064267363
 40
7.202898006892297
 40
7.202898006892297
 40
7.768252488074609
 40
7.768252488074609
 40
8.807218467260661
 40
8.807218467260661
 40
10.10142440917722
 40
10.10142440917722
 40
12.17795843094012
 40
12.17795843094012
 40
13.92453479079974
 40
13.92453479079974
 40
13.92453479079974
 40
13.92453479079974
 10
-0.0000000000201226
 20
226.3499999999988
 30
0.0
 10
-0.7849860672255318
 20
226.3499999999988
 30
0.0
 10
-1.569973331434766
 20
226.3499995721845
 30
0.0
 10
-4.239031640196685
 20
226.3500053938619
 30
0.0
 10
-6.119857150013558
 20
226.3500102718863
 30
0.0
 10
-11.43276332070366
 20
226.3504674238932
 30
0.0
 10
-14.83650973757938
 20
226.3511896268303
 30
0.0
 10
-22.32906048346968
 20
226.3590957607837
 30
0.0
 10
-26.36338687005287
 20
226.3677388508506
 30
0.0
 10
-36.40817706786868
 20
226.4219363882471
 30
0.0
 10
-42.07869218577434
 20
226.4853157502926
 30
0.0
 10
-51.19670108075229
 20
226.7452037469275
 30
0.0
 10
-54.81470137240376
 20
226.9169728007769
 30
0.0
 10
-57.79516490847789
 20
227.1870919881296
 30
0.0
  0
SPLINE
  5
A4
330
2
100
AcDbEntity
  8
GEB-KONTUR-A
 48
25.0
100
AcDbSpline
210
0.0
220
0.0
230
1.0
 70
     8
 71
     3
 72
    16
 73
    12
 74
     0
 42
0.0000000001
 43
0.0000000001
 40
0.0021551240712615
 40
0.0021551240712615
 40
0.0021551240712615
 40
0.0021551240712615
 40
2.540499600665186
 40
2.540499600665186
 40
5.11181429338246
 40
5.11181429338246
 40
6.160085419930142
 40
6.160085419930142
 40
6.727406573759338
 40
6.727406573759338
 40
6.967499064267363
 40
6.967499064267363
 40
6.967499064267363
 40
6.967499064267363
 10
57.79516490845731
 20
227.1870919881296
 30
0.0
 10
53.46472078667466
 20
226.7946241612654
 30
0.0
 10
47.80069149702831
 20
226.6060427324242
 30
0.0
 10
34.30769826672099
 20
226.3868271745462
 30
0.0
 10
26.57835181356882
 20
226.3638126987462
 30
0.0
 10
14.96248478677671
 20
226.3512305467191
 30
0.0
 10
11.52931431334969
 20
226.350483330117
 30
0.0
 10
6.179716225527272
 20
226.3500114204692
 30
0.0
 10
4.292465742780223
 20
226.3500057651986
 30
0.0
 10
1.601274085810246
 20
226.349999537045
 30
0.0
 10
0.8006376655014264
 20
226.3499999999988
 30
0.0
 10
-0.0000000000201226
 20
226.3499999999988
 30
0.0
  0
SPLINE
  5
A5
330
2
100
AcDbEntity
  8
GEB-KONTUR-A
 48
25.0
100
AcDbSpline
210
0.0
220
0.0
230
1.0
 70
     8
 71
     3
 72
    28
 73
    24
 74
     0
 42
0.0000000001
 43
0.0000000001
 40
0.0004989371432979
 40
0.0004989371432979
 40
0.0004989371432979
 40
0.0004989371432979
 40
0.3097928673344945
 40
0.3097928673344945
 40
0.4426463348404785
 40
0.4426463348404785
 40
0.4569216764299562
 40
0.4569216764299562
 40
0.4643727108719906
 40
0.4643727108719906
 40
0.4693499348794454
 40
0.4693499348794454
 40
0.4739314946976311
 40
0.4739314946976311
 40
0.4797999009850105
 40
0.4797999009850105
 40
0.4906728440198935
 40
0.4906728440198935
 40
0.5188612209765895
 40
0.5188612209765895
 40
0.6281794512770162
 40
0.6281794512770162
 40
1.001180654521911
 40
1.001180654521911
 40
1.001180654521911
 40
1.001180654521911
 10
57.79516490845708
 20
236.6129080118685
 30
0.0
 10
58.32253378130895
 20
236.565112610366
 30
0.0
 10
58.73657585939395
 20
236.4979047556408
 30
0.0
 10
59.14365241974451
 20
236.381074260524
 30
0.0
 10
59.33984090108356
 20
236.3150021294459
 30
0.0
 10
59.42345185301383
 20
236.2151853158884
 30
0.0
 10
59.43129296913321
 20
236.2039088910815
 30
0.0
 10
59.44010850041059
 20
236.1846490731593
 30
0.0
 10
59.44286598863164
 20
236.1770266587296
 30
0.0
 10
59.44576511733931
 20
236.1629100191242
 30
0.0
 10
59.44645011800685
 20
236.1569883353336
 30
0.0
 10
59.44655720341029
 20
236.1451368825849
 30
0.0
 10
59.44607191636123
 20
236.1396277049732
 30
0.0
 10
59.44396166999331
 20
236.1274758062748
 30
0.0
 10
59.44209788555326
 20
236.1212000562448
 30
0.0
 10
59.43595511184731
 20
236.1051071207016
 30
0.0
 10
59.43061660201556
 20
236.0959174662053
 30
0.0
 10
59.41189868162928
 20
236.0686808091245
 30
0.0
 10
59.39366448456098
 20
236.0516810429965
 30
0.0
 10
59.30756872566803
 20
235.9841092925085
 30
0.0
 10
59.20196496469134
 20
235.9421028198151
 30
0.0
 10
58.83449486539302
 20
235.818288552638
 30
0.0
 10
58.38541997609627
 20
235.740586760762
 30
0.0
 10
57.79516490845731
 20
235.6870919881296
 30
0.0
  0
SPLINE
  5
A6
330
2
100
AcDbEntity
  8
GEB-KONTUR-A
 48
25.0
100
AcDbSpline
210
0.0
220
0.0
230
1.0
 70
     8
 71
     3
 72
    18
 73
    14
 74
     0
 42
0.0000000001
 43
0.0000000001
 40
6.967499064267222
 40
6.967499064267222
 40
6.967499064267222
 40
6.967499064267222
 40
7.202898006892141
 40
7.202898006892141
 40
7.768252488074452
 40
7.768252488074452
 40
8.80721846726038
 40
8.80721846726038
 40
10.10142440917676
 40
10.10142440917676
 40
12.17795843093957
 40
12.17795843093957
 40
13.92453479079923
 40
13.92453479079923
 40
13.92453479079923
 40
13.92453479079923
 10
-0.0000000000201226
 20
237.4499999999989
 30
0.0
 10
0.784986067185514
 20
237.4499999999989
 30
0.0
 10
1.569973331394521
 20
237.4500004278129
 30
0.0
 10
4.239031640156099
 20
237.4499946061355
 30
0.0
 10
6.119857149973086
 20
237.4499897281116
 30
0.0
 10
11.43276332066341
 20
237.4495325761045
 30
0.0
 10
14.83650973753947
 20
237.4488103731674
 30
0.0
 10
22.32906048343057
 20
237.4409042392142
 30
0.0
 10
26.36338687001444
 20
237.4322611491471
 30
0.0
 10
36.40817706783355
 20
237.3780636117506
 30
0.0
 10
42.0786921857416
 20
237.3146842497054
 30
0.0
 10
51.19670108072523
 20
237.0547962530704
 30
0.0
 10
54.81470137237966
 20
236.8830271992213
 30
0.0
 10
57.79516490845708
 20
236.6129080118685
 30
0.0
  0
SPLINE
  5
A7
330
2
100
AcDbEntity
  8
GEB-KONTUR-A
 48
25.0
100
AcDbSpline
210
0.0
220
0.0
230
1.0
 70
     8
 71
     3
 72
    16
 73
    12
 74
     0
 42
0.0000000001
 43
0.0000000001
 40
0.0021551240713014
 40
0.0021551240713014
 40
0.0021551240713014
 40
0.0021551240713014
 40
2.540499600665145
 40
2.540499600665145
 40
5.111814293382341
 40
5.111814293382341
 40
6.160085419930044
 40
6.160085419930044
 40
6.727406573759193
 40
6.727406573759193
 40
6.967499064267222
 40
6.967499064267222
 40
6.967499064267222
 40
6.967499064267222
 10
-57.79516490847777
 20
236.6129080118685
 30
0.0
 10
-53.46472078669967
 20
237.0053758387326
 30
0.0
 10
-47.80069149705695
 20
237.193957267574
 30
0.0
 10
-34.30769826675646
 20
237.4131728254515
 30
0.0
 10
-26.57835181360679
 20
237.4361873012515
 30
0.0
 10
-14.96248478681673
 20
237.4487694532788
 30
0.0
 10
-11.52931431339016
 20
237.4495166698807
 30
0.0
 10
-6.179716225567744
 20
237.4499885795285
 30
0.0
 10
-4.292465742820695
 20
237.4499942347991
 30
0.0
 10
-1.601274085850604
 20
237.4500004629526
 30
0.0
 10
-0.8006376655416715
 20
237.4499999999989
 30
0.0
 10
-0.0000000000201226
 20
237.4499999999989
 30
0.0
  0
SPLINE
  5
A8
330
2
100
AcDbEntity
  8
GEB-KONTUR-A
 48
25.0
100
AcDbSpline
210
0.0
220
0.0
230
1.0
 70
     8
 71
     3
 72
    28
 73
    24
 74
     0
 42
0.0000000001
 43
0.0000000001
 40
0.0004989371433234
 40
0.0004989371433234
 40
0.0004989371433234
 40
0.0004989371433234
 40
0.3097928673346006
 40
0.3097928673346006
 40
0.4426463348401639
 40
0.4426463348401639
 40
0.456921676414013
 40
0.456921676414013
 40
0.4643727108417756
 40
0.4643727108417756
 40
0.4693499348395032
 40
0.4693499348395032
 40
0.4739314946489608
 40
0.4739314946489608
 40
0.4797999009258742
 40
0.4797999009258742
 40
0.4906728439414052
 40
0.4906728439414052
 40
0.5188612208451782
 40
0.5188612208451782
 40
0.6281794509301958
 40
0.6281794509301958
 40
1.001180653435621
 40
1.001180653435621
 40
1.001180653435621
 40
1.001180653435621
 10
-57.79516490847789
 20
235.6870919881296
 30
0.0
 10
-58.32253378132918
 20
235.7348873896319
 30
0.0
 10
-58.73657585941362
 20
235.8020952443571
 30
0.0
 10
-59.14365241976316
 20
235.9189257394739
 30
0.0
 10
-59.33984090110232
 20
235.984997870552
 30
0.0
 10
-59.42345185302361
 20
236.084814684099
 30
0.0
 10
-59.43129296914776
 20
236.0960911089076
 30
0.0
 10
-59.44010850042889
 20
236.1153509268379
 30
0.0
 10
-59.4428659886504
 20
236.1229733412681
 30
0.0
 10
-59.44576511735795
 20
236.1370899808737
 30
0.0
 10
-59.44645011802549
 20
236.1430116646645
 30
0.0
 10
-59.44655720342893
 20
236.1548631174135
 30
0.0
 10
-59.44607191637977
 20
236.1603722950256
 30
0.0
 10
-59.44396167001207
 20
236.1725241937234
 30
0.0
 10
-59.44209788557191
 20
236.1787999437531
 30
0.0
 10
-59.43595511186618
 20
236.1948928792963
 30
0.0
 10
-59.43061660203466
 20
236.2040825337922
 30
0.0
 10
-59.41189868164861
 20
236.2313191908727
 30
0.0
 10
-59.39366448458134
 20
236.2483189570003
 30
0.0
 10
-59.30756872568725
 20
236.3158907074894
 30
0.0
 10
-59.20196496471112
 20
236.3578971801826
 30
0.0
 10
-58.83449486541258
 20
236.4817114473599
 30
0.0
 10
-58.38541997611662
 20
236.5594132392362
 30
0.0
 10
-57.79516490847777
 20
236.6129080118685
 30
0.0
  0
SPLINE
  5
A9
330
2
100
AcDbEntity
  8
GEB-KONTUR-A
 48
25.0
100
AcDbSpline
210
0.0
220
0.0
230
1.0
 70
     8
 71
     3
 72
    18
 73
    14
 74
     0
 42
0.0000000001
 43
0.0000000001
 40
6.967499064267231
 40
6.967499064267231
 40
6.967499064267231
 40
6.967499064267231
 40
7.202898006892165
 40
7.202898006892165
 40
7.768252488074476
 40
7.768252488074476
 40
8.807218467260454
 40
8.807218467260454
 40
10.10142440917684
 40
10.10142440917684
 40
12.1779584309396
 40
12.1779584309396
 40
13.92453479079915
 40
13.92453479079915
 40
13.92453479079915
 40
13.92453479079915
 10
-0.0000000000201226
 20
234.8499999999988
 30
0.0
 10
-0.7849860672256455
 20
234.8499999999988
 30
0.0
 10
-1.569973331434766
 20
234.8499995721845
 30
0.0
 10
-4.239031640196344
 20
234.8500053938619
 30
0.0
 10
-6.119857150013331
 20
234.8500102718863
 30
0.0
 10
-11.43276332070331
 20
234.8504674238932
 30
0.0
 10
-14.83650973757892
 20
234.8511896268303
 30
0.0
 10
-22.32906048346899
 20
234.8590957607837
 30
0.0
 10
-26.36338687005196
 20
234.8677388508506
 30
0.0
 10
-36.408177067868
 20
234.9219363882471
 30
0.0
 10
-42.07869218577366
 20
234.9853157502926
 30
0.0
 10
-51.19670108075183
 20
235.2452037469275
 30
0.0
 10
-54.81470137240354
 20
235.4169728007769
 30
0.0
 10
-57.79516490847789
 20
235.6870919881296
 30
0.0
  0
SPLINE
  5
AA
330
2
100
AcDbEntity
  8
GEB-KONTUR-A
 48
25.0
100
AcDbSpline
210
0.0
220
0.0
230
1.0
 70
     8
 71
     3
 72
    16
 73
    12
 74
     0
 42
0.0000000001
 43
0.0000000001
 40
0.0021551240712496
 40
0.0021551240712496
 40
0.0021551240712496
 40
0.0021551240712496
 40
2.540499600665167
 40
2.540499600665167
 40
5.111814293382407
 40
5.111814293382407
 40
6.160085419930073
 40
6.160085419930073
 40
6.727406573759211
 40
6.727406573759211
 40
6.967499064267231
 40
6.967499064267231
 40
6.967499064267231
 40
6.967499064267231
 10
57.79516490845731
 20
235.6870919881296
 30
0.0
 10
53.46472078667466
 20
235.2946241612654
 30
0.0
 10
47.80069149702831
 20
235.1060427324239
 30
0.0
 10
34.30769826672122
 20
234.8868271745462
 30
0.0
 10
26.57835181356882
 20
234.8638126987462
 30
0.0
 10
14.96248478677705
 20
234.8512305467188
 30
0.0
 10
11.52931431335025
 20
234.8504833301169
 30
0.0
 10
6.179716225527386
 20
234.8500114204692
 30
0.0
 10
4.292465742780223
 20
234.8500057651986
 30
0.0
 10
1.601274085810246
 20
234.849999537045
 30
0.0
 10
0.8006376655014264
 20
234.8499999999988
 30
0.0
 10
-0.0000000000201226
 20
234.8499999999988
 30
0.0
  0
SPLINE
  5
AB
330
2
100
AcDbEntity
  8
GEB-KONTUR-A
 48
25.0
100
AcDbSpline
210
0.0
220
0.0
230
1.0
 70
     8
 71
     3
 72
    28
 73
    24
 74
     0
 42
0.0000000001
 43
0.0000000001
 40
0.0004989371433128
 40
0.0004989371433128
 40
0.0004989371433128
 40
0.0004989371433128
 40
0.3097928673344023
 40
0.3097928673344023
 40
0.4426463348400195
 40
0.4426463348400195
 40
0.4569216764225796
 40
0.4569216764225796
 40
0.4643727108578075
 40
0.4643727108578075
 40
0.4693499348611132
 40
0.4693499348611132
 40
0.47393149467587
 40
0.47393149467587
 40
0.4797999009592869
 40
0.4797999009592869
 40
0.4906728439862781
 40
0.4906728439862781
 40
0.5188612209245501
 40
0.5188612209245501
 40
0.6281794511683714
 40
0.6281794511683714
 40
1.001180654211213
 40
1.001180654211213
 40
1.001180654211213
 40
1.001180654211213
 10
57.79516490845708
 20
245.1129080118683
 30
0.0
 10
58.32253378130872
 20
245.0651126103662
 30
0.0
 10
58.73657585939373
 20
244.9979047556408
 30
0.0
 10
59.14365241974429
 20
244.8810742605238
 30
0.0
 10
59.33984090108356
 20
244.8150021294459
 30
0.0
 10
59.42345185300997
 20
244.715185315893
 30
0.0
 10
59.43129296913139
 20
244.7039088910853
 30
0.0
 10
59.44010850041014
 20
244.68464907316
 30
0.0
 10
59.44286598863164
 20
244.6770266587298
 30
0.0
 10
59.44576511733931
 20
244.6629100191235
 30
0.0
 10
59.44645011800685
 20
244.6569883353332
 30
0.0
 10
59.44655720341029
 20
244.6451368825847
 30
0.0
 10
59.44607191636101
 20
244.6396277049725
 30
0.0
 10
59.44396166999331
 20
244.6274758062748
 30
0.0
 10
59.44209788555326
 20
244.621200056245
 30
0.0
 10
59.43595511184731
 20
244.6051071207016
 30
0.0
 10
59.43061660201556
 20
244.5959174662053
 30
0.0
 10
59.41189868162791
 20
244.5686808091227
 30
0.0
 10
59.39366448455849
 20
244.5516810429944
 30
0.0
 10
59.30756872566871
 20
244.484109292509
 30
0.0
 10
59.20196496469316
 20
244.4421028198158
 30
0.0
 10
58.83449486539302
 20
244.318288552638
 30
0.0
 10
58.38541997609673
 20
244.240586760762
 30
0.0
 10
57.79516490845731
 20
244.1870919881296
 30
0.0
  0
SPLINE
  5
AC
330
2
100
AcDbEntity
  8
GEB-KONTUR-A
 48
25.0
100
AcDbSpline
210
0.0
220
0.0
230
1.0
 70
     8
 71
     3
 72
    18
 73
    14
 74
     0
 42
0.0000000001
 43
0.0000000001
 40
6.967499064267225
 40
6.967499064267225
 40
6.967499064267225
 40
6.967499064267225
 40
7.202898006892143
 40
7.202898006892143
 40
7.768252488074455
 40
7.768252488074455
 40
8.807218467260383
 40
8.807218467260383
 40
10.10142440917676
 40
10.10142440917676
 40
12.17795843093957
 40
12.17795843093957
 40
13.92453479079923
 40
13.92453479079923
 40
13.92453479079923
 40
13.92453479079923
 10
-0.0000000000201226
 20
245.9499999999987
 30
0.0
 10
0.784986067185514
 20
245.9499999999987
 30
0.0
 10
1.569973331394521
 20
245.950000427813
 30
0.0
 10
4.239031640156099
 20
245.9499946061356
 30
0.0
 10
6.119857149973086
 20
245.9499897281114
 30
0.0
 10
11.43276332066341
 20
245.9495325761043
 30
0.0
 10
14.83650973753947
 20
245.9488103731674
 30
0.0
 10
22.32906048343057
 20
245.940904239214
 30
0.0
 10
26.36338687001444
 20
245.9322611491471
 30
0.0
 10
36.40817706783355
 20
245.8780636117506
 30
0.0
 10
42.0786921857416
 20
245.8146842497054
 30
0.0
 10
51.19670108072523
 20
245.5547962530705
 30
0.0
 10
54.81470137237966
 20
245.3830271992213
 30
0.0
 10
57.79516490845708
 20
245.1129080118683
 30
0.0
  0
SPLINE
  5
AD
330
2
100
AcDbEntity
  8
GEB-KONTUR-A
 48
25.0
100
AcDbSpline
210
0.0
220
0.0
230
1.0
 70
     8
 71
     3
 72
    16
 73
    12
 74
     0
 42
0.0000000001
 43
0.0000000001
 40
0.0021551240713028
 40
0.0021551240713028
 40
0.0021551240713028
 40
0.0021551240713028
 40
2.540499600665145
 40
2.540499600665145
 40
5.111814293382343
 40
5.111814293382343
 40
6.160085419930047
 40
6.160085419930047
 40
6.727406573759195
 40
6.727406573759195
 40
6.967499064267225
 40
6.967499064267225
 40
6.967499064267225
 40
6.967499064267225
 10
-57.79516490847777
 20
245.1129080118683
 30
0.0
 10
-53.46472078669967
 20
245.5053758387326
 30
0.0
 10
-47.80069149705695
 20
245.6939572675738
 30
0.0
 10
-34.30769826675646
 20
245.9131728254515
 30
0.0
 10
-26.57835181360679
 20
245.9361873012515
 30
0.0
 10
-14.96248478681673
 20
245.9487694532788
 30
0.0
 10
-11.52931431339016
 20
245.9495166698807
 30
0.0
 10
-6.179716225567744
 20
245.9499885795285
 30
0.0
 10
-4.292465742820468
 20
245.9499942347991
 30
0.0
 10
-1.601274085850604
 20
245.9500004629524
 30
0.0
 10
-0.8006376655416715
 20
245.9499999999987
 30
0.0
 10
-0.0000000000201226
 20
245.9499999999987
 30
0.0
  0
SPLINE
  5
AE
330
2
100
AcDbEntity
  8
GEB-KONTUR-A
 48
25.0
100
AcDbSpline
210
0.0
220
0.0
230
1.0
 70
     8
 71
     3
 72
    28
 73
    24
 74
     0
 42
0.0000000001
 43
0.0000000001
 40
0.0004989371433408
 40
0.0004989371433408
 40
0.0004989371433408
 40
0.0004989371433408
 40
0.3097928673344901
 40
0.3097928673344901
 40
0.4426463348392132
 40
0.4426463348392132
 40
0.4569216764268699
 40
0.4569216764268699
 40
0.4643727108667087
 40
0.4643727108667087
 40
0.469349934873149
 40
0.469349934873149
 40
0.4739314946906874
 40
0.4739314946906874
 40
0.4797999009774092
 40
0.4797999009774092
 40
0.4906728440109001
 40
0.4906728440109001
 40
0.51886122096222
 40
0.51886122096222
 40
0.6281794512357008
 40
0.6281794512357008
 40
1.001180654387249
 40
1.001180654387249
 40
1.001180654387249
 40
1.001180654387249
 10
-57.79516490847789
 20
244.1870919881296
 30
0.0
 10
-58.32253378132907
 20
244.2348873896317
 30
0.0
 10
-58.73657585941351
 20
244.3020952443571
 30
0.0
 10
-59.14365241976248
 20
244.4189257394737
 30
0.0
 10
-59.33984090110221
 20
244.484997870552
 30
0.0
 10
-59.42345185303157
 20
244.5848146841086
 30
0.0
 10
-59.43129296915151
 20
244.5960911089155
 30
0.0
 10
-59.440108500429
 20
244.6153509268381
 30
0.0
 10
-59.4428659886504
 20
244.6229733412683
 30
0.0
 10
-59.44576511735807
 20
244.6370899808744
 30
0.0
 10
-59.44645011802549
 20
244.643011664665
 30
0.0
 10
-59.44655720342893
 20
244.6548631174132
 30
0.0
 10
-59.44607191637988
 20
244.6603722950251
 30
0.0
 10
-59.44396167001207
 20
244.6725241937231
 30
0.0
 10
-59.44209788557191
 20
244.6787999437531
 30
0.0
 10
-59.43595511186618
 20
244.6948928792963
 30
0.0
 10
-59.43061660203444
 20
244.7040825337924
 30
0.0
 10
-59.41189868164838
 20
244.7313191908729
 30
0.0
 10
-59.39366448458065
 20
244.7483189570007
 30
0.0
 10
-59.30756872568713
 20
244.8158907074896
 30
0.0
 10
-59.20196496471056
 20
244.8578971801828
 30
0.0
 10
-58.83449486541258
 20
244.9817114473599
 30
0.0
 10
-58.38541997611628
 20
245.0594132392359
 30
0.0
 10
-57.79516490847777
 20
245.1129080118683
 30
0.0
  0
SPLINE
  5
AF
330
2
100
AcDbEntity
  8
GEB-KONTUR-A
 48
25.0
100
AcDbSpline
210
0.0
220
0.0
230
1.0
 70
     8
 71
     3
 72
    18
 73
    14
 74
     0
 42
0.0000000001
 43
0.0000000001
 40
6.967499064267231
 40
6.967499064267231
 40
6.967499064267231
 40
6.967499064267231
 40
7.202898006892165
 40
7.202898006892165
 40
7.768252488074476
 40
7.768252488074476
 40
8.807218467260454
 40
8.807218467260454
 40
10.10142440917684
 40
10.10142440917684
 40
12.1779584309396
 40
12.1779584309396
 40
13.92453479079915
 40
13.92453479079915
 40
13.92453479079915
 40
13.92453479079915
 10
-0.0000000000201226
 20
243.3499999999988
 30
0.0
 10
-0.7849860672255318
 20
243.3499999999988
 30
0.0
 10
-1.569973331434766
 20
243.3499995721845
 30
0.0
 10
-4.23903164019623
 20
243.3500053938619
 30
0.0
 10
-6.119857150013331
 20
243.3500102718863
 30
0.0
 10
-11.43276332070331
 20
243.3504674238932
 30
0.0
 10
-14.83650973757892
 20
243.3511896268303
 30
0.0
 10
-22.32906048346877
 20
243.3590957607835
 30
0.0
 10
-26.36338687005196
 20
243.3677388508506
 30
0.0
 10
-36.408177067868
 20
243.4219363882471
 30
0.0
 10
-42.07869218577366
 20
243.4853157502926
 30
0.0
 10
-51.19670108075183
 20
243.7452037469275
 30
0.0
 10
-54.81470137240342
 20
243.9169728007767
 30
0.0
 10
-57.79516490847789
 20
244.1870919881296
 30
0.0
  0
SPLINE
  5
B0
330
2
100
AcDbEntity
  8
GEB-KONTUR-A
 48
25.0
100
AcDbSpline
210
0.0
220
0.0
230
1.0
 70
     8
 71
     3
 72
    16
 73
    12
 74
     0
 42
0.0000000001
 43
0.0000000001
 40
0.0021551240712497
 40
0.0021551240712497
 40
0.0021551240712497
 40
0.0021551240712497
 40
2.540499600665167
 40
2.540499600665167
 40
5.111814293382407
 40
5.111814293382407
 40
6.160085419930073
 40
6.160085419930073
 40
6.727406573759211
 40
6.727406573759211
 40
6.967499064267231
 40
6.967499064267231
 40
6.967499064267231
 40
6.967499064267231
 10
57.79516490845731
 20
244.1870919881296
 30
0.0
 10
53.46472078667488
 20
243.7946241612651
 30
0.0
 10
47.80069149702831
 20
243.6060427324239
 30
0.0
 10
34.30769826672122
 20
243.3868271745462
 30
0.0
 10
26.57835181356882
 20
243.3638126987462
 30
0.0
 10
14.96248478677705
 20
243.3512305467189
 30
0.0
 10
11.52931431335025
 20
243.3504833301169
 30
0.0
 10
6.179716225527386
 20
243.3500114204692
 30
0.0
 10
4.292465742780223
 20
243.3500057651986
 30
0.0
 10
1.601274085810473
 20
243.349999537045
 30
0.0
 10
0.8006376655014264
 20
243.3499999999988
 30
0.0
 10
-0.0000000000201226
 20
243.3499999999988
 30
0.0
  0
SPLINE
  5
B1
330
2
100
AcDbEntity
  8
GEB-KONTUR-A
 48
25.0
100
AcDbSpline
210
0.0
220
0.0
230
1.0
 70
     8
 71
     3
 72
    28
 73
    24
 74
     0
 42
0.0000000001
 43
0.0000000001
 40
0.0004989371433128
 40
0.0004989371433128
 40
0.0004989371433128
 40
0.0004989371433128
 40
0.3097928673344475
 40
0.3097928673344475
 40
0.4426463348397804
 40
0.4426463348397804
 40
0.4569216764126402
 40
0.4569216764126402
 40
0.4643727108395581
 40
0.4643727108395581
 40
0.4693499348373181
 40
0.4693499348373181
 40
0.4739314946469707
 40
0.4739314946469707
 40
0.4797999009238487
 40
0.4797999009238487
 40
0.4906728439387179
 40
0.4906728439387179
 40
0.5188612208461335
 40
0.5188612208461335
 40
0.6281794509746256
 40
0.6281794509746256
 40
1.001180653622915
 40
1.001180653622915
 40
1.001180653622915
 40
1.001180653622915
 10
57.79516490845708
 20
253.6129080118683
 30
0.0
 10
58.32253378130895
 20
253.565112610366
 30
0.0
 10
58.73657585939395
 20
253.4979047556408
 30
0.0
 10
59.14365241974405
 20
253.381074260524
 30
0.0
 10
59.33984090108356
 20
253.3150021294459
 30
0.0
 10
59.4234518530045
 20
253.2151853158996
 30
0.0
 10
59.43129296912889
 20
253.2039088910906
 30
0.0
 10
59.44010850041014
 20
253.18464907316
 30
0.0
 10
59.44286598863164
 20
253.1770266587298
 30
0.0
 10
59.44576511733931
 20
253.1629100191235
 30
0.0
 10
59.44645011800685
 20
253.1569883353331
 30
0.0
 10
59.44655720341029
 20
253.1451368825845
 30
0.0
 10
59.44607191636101
 20
253.1396277049726
 30
0.0
 10
59.44396166999331
 20
253.1274758062748
 30
0.0
 10
59.44209788555326
 20
253.121200056245
 30
0.0
 10
59.43595511184731
 20
253.1051071207014
 30
0.0
 10
59.43061660201556
 20
253.0959174662053
 30
0.0
 10
59.41189868162769
 20
253.0686808091223
 30
0.0
 10
59.39366448455757
 20
253.051681042994
 30
0.0
 10
59.30756872566871
 20
252.984109292509
 30
0.0
 10
59.20196496469339
 20
252.9421028198158
 30
0.0
 10
58.83449486539302
 20
252.818288552638
 30
0.0
 10
58.3854199760965
 20
252.7405867607618
 30
0.0
 10
57.79516490845731
 20
252.6870919881294
 30
0.0
  0
SPLINE
  5
B2
330
2
100
AcDbEntity
  8
GEB-KONTUR-A
 48
25.0
100
AcDbSpline
210
0.0
220
0.0
230
1.0
 70
     8
 71
     3
 72
    18
 73
    14
 74
     0
 42
0.0000000001
 43
0.0000000001
 40
6.967499064267226
 40
6.967499064267226
 40
6.967499064267226
 40
6.967499064267226
 40
7.202898006892144
 40
7.202898006892144
 40
7.768252488074455
 40
7.768252488074455
 40
8.807218467260385
 40
8.807218467260385
 40
10.10142440917676
 40
10.10142440917676
 40
12.17795843093958
 40
12.17795843093958
 40
13.92453479079923
 40
13.92453479079923
 40
13.92453479079923
 40
13.92453479079923
 10
-0.0000000000201226
 20
254.4499999999987
 30
0.0
 10
0.784986067185514
 20
254.4499999999987
 30
0.0
 10
1.569973331394521
 20
254.450000427813
 30
0.0
 10
4.239031640156099
 20
254.4499946061355
 30
0.0
 10
6.119857149973086
 20
254.4499897281114
 30
0.0
 10
11.43276332066352
 20
254.4495325761043
 30
0.0
 10
14.83650973753947
 20
254.4488103731674
 30
0.0
 10
22.32906048343057
 20
254.440904239214
 30
0.0
 10
26.36338687001444
 20
254.432261149147
 30
0.0
 10
36.40817706783355
 20
254.3780636117506
 30
0.0
 10
42.0786921857416
 20
254.3146842497054
 30
0.0
 10
51.19670108072523
 20
254.0547962530702
 30
0.0
 10
54.81470137237966
 20
253.883027199221
 30
0.0
 10
57.79516490845708
 20
253.6129080118683
 30
0.0
  0
SPLINE
  5
B3
330
2
100
AcDbEntity
  8
GEB-KONTUR-A
 48
25.0
100
AcDbSpline
210
0.0
220
0.0
230
1.0
 70
     8
 71
     3
 72
    16
 73
    12
 74
     0
 42
0.0000000001
 43
0.0000000001
 40
0.0021551240713014
 40
0.0021551240713014
 40
0.0021551240713014
 40
0.0021551240713014
 40
2.540499600665145
 40
2.540499600665145
 40
5.111814293382343
 40
5.111814293382343
 40
6.160085419930048
 40
6.160085419930048
 40
6.727406573759196
 40
6.727406573759196
 40
6.967499064267226
 40
6.967499064267226
 40
6.967499064267226
 40
6.967499064267226
 10
-57.79516490847777
 20
253.6129080118683
 30
0.0
 10
-53.46472078669956
 20
254.0053758387326
 30
0.0
 10
-47.80069149705695
 20
254.1939572675738
 30
0.0
 10
-34.30769826675646
 20
254.4131728254515
 30
0.0
 10
-26.57835181360679
 20
254.4361873012515
 30
0.0
 10
-14.96248478681673
 20
254.4487694532786
 30
0.0
 10
-11.52931431339016
 20
254.4495166698807
 30
0.0
 10
-6.179716225567744
 20
254.4499885795285
 30
0.0
 10
-4.292465742820468
 20
254.4499942347991
 30
0.0
 10
-1.601274085850604
 20
254.4500004629524
 30
0.0
 10
-0.8006376655416715
 20
254.4499999999987
 30
0.0
 10
-0.0000000000201226
 20
254.4499999999987
 30
0.0
  0
SPLINE
  5
B4
330
2
100
AcDbEntity
  8
GEB-KONTUR-A
 48
25.0
100
AcDbSpline
210
0.0
220
0.0
230
1.0
 70
     8
 71
     3
 72
    28
 73
    24
 74
     0
 42
0.0000000001
 43
0.0000000001
 40
0.0004989371433409
 40
0.0004989371433409
 40
0.0004989371433409
 40
0.0004989371433409
 40
0.3097928673345628
 40
0.3097928673345628
 40
0.4426463348408362
 40
0.4426463348408362
 40
0.456921676413
 40
0.456921676413
 40
0.4643727108390105
 40
0.4643727108390105
 40
0.4693499348364584
 40
0.4693499348364584
 40
0.4739314946458048
 40
0.4739314946458048
 40
0.4797999009219662
 40
0.4797999009219662
 40
0.4906728439360861
 40
0.4906728439360861
 40
0.5188612208364615
 40
0.5188612208364615
 40
0.6281794509111441
 40
0.6281794509111441
 40
1.001180653391013
 40
1.001180653391013
 40
1.001180653391013
 40
1.001180653391013
 10
-57.79516490847789
 20
252.6870919881294
 30
0.0
 10
-58.32253378132907
 20
252.7348873896319
 30
0.0
 10
-58.73657585941351
 20
252.8020952443571
 30
0.0
 10
-59.14365241976383
 20
252.9189257394742
 30
0.0
 10
-59.33984090110243
 20
252.9849978705522
 30
0.0
 10
-59.42345185302269
 20
253.0848146840979
 30
0.0
 10
-59.43129296914742
 20
253.0960911089064
 30
0.0
 10
-59.44010850042878
 20
253.1153509268377
 30
0.0
 10
-59.4428659886504
 20
253.1229733412681
 30
0.0
 10
-59.44576511735817
 20
253.1370899808746
 30
0.0
 10
-59.44645011802549
 20
253.143011664665
 30
0.0
 10
-59.44655720342893
 20
253.154863117413
 30
0.0
 10
-59.44607191637988
 20
253.1603722950249
 30
0.0
 10
-59.44396167001207
 20
253.1725241937234
 30
0.0
 10
-59.44209788557191
 20
253.1787999437534
 30
0.0
 10
-59.43595511186607
 20
253.1948928792963
 30
0.0
 10
-59.43061660203466
 20
253.2040825337922
 30
0.0
 10
-59.41189868164849
 20
253.2313191908727
 30
0.0
 10
-59.39366448458099
 20
253.2483189570005
 30
0.0
 10
-59.30756872568657
 20
253.3158907074898
 30
0.0
 10
-59.20196496470897
 20
253.3578971801833
 30
0.0
 10
-58.83449486541246
 20
253.4817114473599
 30
0.0
 10
-58.38541997611617
 20
253.5594132392359
 30
0.0
 10
-57.79516490847777
 20
253.6129080118683
 30
0.0
  0
SPLINE
  5
B5
330
2
100
AcDbEntity
  8
GEB-KONTUR-A
 48
25.0
100
AcDbSpline
210
0.0
220
0.0
230
1.0
 70
     8
 71
     3
 72
    18
 73
    14
 74
     0
 42
0.0000000001
 43
0.0000000001
 40
6.967499064267363
 40
6.967499064267363
 40
6.967499064267363
 40
6.967499064267363
 40
7.202898006892297
 40
7.202898006892297
 40
7.768252488074609
 40
7.768252488074609
 40
8.807218467260661
 40
8.807218467260661
 40
10.10142440917722
 40
10.10142440917722
 40
12.17795843094011
 40
12.17795843094011
 40
13.92453479079974
 40
13.92453479079974
 40
13.92453479079974
 40
13.92453479079974
 10
-0.0000000000201226
 20
251.8499999999988
 30
0.0
 10
-0.7849860672255318
 20
251.8499999999988
 30
0.0
 10
-1.569973331434766
 20
251.8499995721845
 30
0.0
 10
-4.239031640196685
 20
251.8500053938619
 30
0.0
 10
-6.119857150013558
 20
251.850010271886
 30
0.0
 10
-11.43276332070354
 20
251.8504674238932
 30
0.0
 10
-14.83650973757926
 20
251.8511896268303
 30
0.0
 10
-22.32906048346956
 20
251.8590957607835
 30
0.0
 10
-26.36338687005287
 20
251.8677388508504
 30
0.0
 10
-36.40817706786868
 20
251.9219363882471
 30
0.0
 10
-42.07869218577434
 20
251.9853157502923
 30
0.0
 10
-51.19670108075229
 20
252.2452037469275
 30
0.0
 10
-54.81470137240376
 20
252.4169728007767
 30
0.0
 10
-57.79516490847789
 20
252.6870919881294
 30
0.0
  0
SPLINE
  5
B6
330
2
100
AcDbEntity
  8
GEB-KONTUR-A
 48
25.0
100
AcDbSpline
210
0.0
220
0.0
230
1.0
 70
     8
 71
     3
 72
    16
 73
    12
 74
     0
 42
0.0000000001
 43
0.0000000001
 40
0.0021551240712615
 40
0.0021551240712615
 40
0.0021551240712615
 40
0.0021551240712615
 40
2.540499600665186
 40
2.540499600665186
 40
5.11181429338246
 40
5.11181429338246
 40
6.160085419930142
 40
6.160085419930142
 40
6.727406573759338
 40
6.727406573759338
 40
6.967499064267363
 40
6.967499064267363
 40
6.967499064267363
 40
6.967499064267363
 10
57.79516490845731
 20
252.6870919881294
 30
0.0
 10
53.46472078667488
 20
252.2946241612651
 30
0.0
 10
47.80069149702831
 20
252.1060427324239
 30
0.0
 10
34.30769826672122
 20
251.8868271745459
 30
0.0
 10
26.57835181356882
 20
251.8638126987462
 30
0.0
 10
14.96248478677671
 20
251.8512305467189
 30
0.0
 10
11.52931431334991
 20
251.8504833301167
 30
0.0
 10
6.179716225527386
 20
251.850011420469
 30
0.0
 10
4.292465742780223
 20
251.8500057651984
 30
0.0
 10
1.601274085810246
 20
251.8499995370451
 30
0.0
 10
0.8006376655014264
 20
251.8499999999988
 30
0.0
 10
-0.0000000000201226
 20
251.8499999999988
 30
0.0
  0
LINE
  5
B7
330
2
100
AcDbEntity
  8
GEB-KONTUR-A
 48
25.0
100
AcDbLine
 10
72.95000000000005
 20
261.899999999999
 30
0.0
 11
-72.94999999999982
 21
261.899999999999
 31
0.0
  0
LINE
  5
B8
330
2
100
AcDbEntity
  8
GEB-KONTUR-A
 48
25.0
100
AcDbLine
 10
67.29999999999518
 20
184.7899999999992
 30
0.0
 11
67.29999999999541
 21
261.899999999999
 31
0.0
  0
LINE
  5
B9
330
2
100
AcDbEntity
  8
GEB-KONTUR-A
 48
25.0
100
AcDbLine
 10
67.29999999999518
 20
184.7899999999992
 30
0.0
 11
61.3941365278431
 21
184.7899999999992
 31
0.0
  0
LINE
  5
BA
330
2
100
AcDbEntity
  8
GEB-KONTUR-A
 48
25.0
100
AcDbLine
 10
61.3941365278431
 20
206.3499999999992
 30
0.0
 11
61.3941365278431
 21
184.7899999999992
 31
0.0
  0
LINE
  5
BB
330
2
100
AcDbEntity
  8
GEB-KONTUR-A
 48
25.0
100
AcDbLine
 10
63.50246058224366
 20
206.3499999999992
 30
0.0
 11
63.50246058224366
 21
212.3499999999992
 31
0.0
  0
LINE
  5
BC
330
2
100
AcDbEntity
  8
GEB-KONTUR-A
 48
25.0
100
AcDbLine
 10
65.60708803170133
 20
212.3499999999992
 30
0.0
 11
65.60708803170133
 21
261.899999999999
 31
0.0
  0
LINE
  5
BD
330
2
100
AcDbEntity
  8
GEB-KONTUR-A
 48
25.0
100
AcDbLine
 10
61.39413652784401
 20
203.3499999999995
 30
0.0
 11
29.19364360675104
 21
203.3499999999992
 31
0.0
  0
LINE
  5
BE
330
2
100
AcDbEntity
  8
GEB-KONTUR-A
 48
25.0
100
AcDbLine
 10
-29.19364360678378
 20
203.3499999999992
 30
0.0
 11
-61.39413652785129
 21
203.3499999999995
 31
0.0
  0
LINE
  5
BF
330
2
100
AcDbEntity
  8
GEB-VERDECKT
 48
25.0
100
AcDbLine
 10
-62.5999999999999
 20
206.3499999999995
 30
0.0
 11
-62.5999999999999
 21
203.3499999999995
 31
0.0
  0
LINE
  5
C0
330
2
100
AcDbEntity
  8
GEB-VERDECKT
 48
25.0
100
AcDbLine
 10
62.5999999999999
 20
206.3499999999995
 30
0.0
 11
62.5999999999999
 21
203.3499999999995
 31
0.0
  0
LINE
  5
C1
330
2
100
AcDbEntity
  8
GEB-VERDECKT
 48
25.0
100
AcDbLine
 10
62.5999999999999
 20
203.3499999999992
 30
0.0
 11
61.39413652784401
 21
203.3499999999992
 31
0.0
  0
LINE
  5
C2
330
2
100
AcDbEntity
  8
GEB-VERDECKT
 48
25.0
100
AcDbLine
 10
29.19364360675104
 20
203.3499999999992
 30
0.0
 11
-29.19364360678367
 21
203.3499999999992
 31
0.0
  0
LINE
  5
C3
330
2
100
AcDbEntity
  8
GEB-VERDECKT
 48
25.0
100
AcDbLine
 10
-61.3941365278514
 20
203.3499999999992
 30
0.0
 11
-62.60000000000013
 21
203.3499999999992
 31
0.0
  0
LINE
  5
C4
330
2
100
AcDbEntity
  8
GEB-VERDECKT
 48
25.0
100
AcDbLine
 10
63.19999999999982
 20
286.7999999999995
 30
0.0
 11
63.29999999999927
 21
286.8999999999987
 31
0.0
  0
LINE
  5
C5
330
2
100
AcDbEntity
  8
GEB-VERDECKT
 48
25.0
100
AcDbLine
 10
-63.19999999999982
 20
286.7999999999991
 30
0.0
 11
-63.29999999999995
 21
286.899999999999
 31
0.0
  0
LINE
  5
C6
330
2
100
AcDbEntity
  8
GEB-VERDECKT
 48
25.0
100
AcDbLine
 10
63.20000000000004
 20
286.7999999999993
 30
0.0
 11
-63.19999999999982
 21
286.7999999999993
 31
0.0
  0
LINE
  5
C7
330
2
100
AcDbEntity
  8
GEB-KONTUR-A
 48
25.0
100
AcDbLine
 10
60.14999999995734
 20
146.3943172016396
 30
0.0
 11
60.14999999995644
 21
146.5338992412087
 31
0.0
  0
LINE
  5
C8
330
2
100
AcDbEntity
  8
GEB-KONTUR-A
 48
25.0
100
AcDbLine
 10
-60.15000000004227
 20
146.3943172016407
 30
0.0
 11
-60.15000000004329
 21
146.5338992412098
 31
0.0
  0
LINE
  5
C9
330
2
100
AcDbEntity
  8
GEB-KONTUR-A
 48
25.0
100
AcDbLine
 10
64.04999999996267
 20
145.6397018002192
 30
0.0
 11
64.04999999995744
 21
146.3943172016395
 31
0.0
  0
LINE
  5
CA
330
2
100
AcDbEntity
  8
GEB-KONTUR-A
 48
25.0
100
AcDbLine
 10
-64.05000000003713
 20
145.6397018002204
 30
0.0
 11
-64.05000000004225
 21
146.3943172016407
 31
0.0
  0
SPLINE
  5
CB
330
2
100
AcDbEntity
  8
GEB-KONTUR-A
 48
25.0
100
AcDbSpline
210
0.0
220
0.0
230
1.0
 70
     8
 71
     3
 72
    12
 73
     8
 74
     0
 42
0.0000000001
 43
0.0000000001
 40
2.885130570465261
 40
2.885130570465261
 40
2.885130570465261
 40
2.885130570465261
 40
2.953337951573779
 40
2.953337951573779
 40
3.273342832209495
 40
3.273342832209495
 40
3.39805473671433
 40
3.39805473671433
 40
3.39805473671433
 40
3.39805473671433
 10
14.64070313160528
 20
83.34480068166476
 30
0.0
 10
13.37136047402657
 20
83.01224913977421
 30
0.0
 10
12.09066236240994
 20
82.72296267971
 30
0.0
 10
4.753694237071385
 20
81.32652290743397
 30
0.0
 10
-1.479046210448927
 20
81.15055488300276
 30
0.0
 10
-9.960924680475955
 20
82.27348513116316
 30
0.0
 10
-12.31980856390726
 20
82.73675598824366
 30
0.0
 10
-14.64070313166678
 20
83.34480068166488
 30
0.0
  0
SPLINE
  5
CC
330
2
100
AcDbEntity
  8
GEB-KONTUR-A
 48
25.0
100
AcDbSpline
210
0.0
220
0.0
230
1.0
 70
     8
 71
     3
 72
    12
 73
     8
 74
     0
 42
0.0000000001
 43
0.0000000001
 40
2.715542652350859
 40
2.715542652350859
 40
2.715542652350859
 40
2.715542652350859
 40
2.953337951573779
 40
2.953337951573779
 40
3.273342832209495
 40
3.273342832209495
 40
3.567642654828725
 40
3.567642654828725
 40
3.567642654828725
 40
3.567642654828725
 10
23.85348371336568
 20
86.25375260709075
 30
0.0
 10
19.68743994409465
 20
84.36479810004403
 30
0.0
 10
15.2957675903034
 20
82.97312806567664
 30
0.0
 10
4.753694237073887
 20
80.96666296166995
 30
0.0
 10
-1.47904621044654
 20
80.79069493723887
 30
0.0
 10
-13.19539695472463
 20
82.34184244486915
 30
0.0
 10
-18.6975115544808
 20
83.91594787261396
 30
0.0
 10
-23.85348371342195
 20
86.25375260709052
 30
0.0
  0
ELLIPSE
  5
CD
330
2
100
AcDbEntity
  8
GEB-KONTUR-A
 48
25.0
100
AcDbEllipse
 10
-0.0000000000242153
 20
143.7204487561449
 30
0.0
 11
56.64999999999989
 21
0.0000000003583786
 31
0.0
210
0.0
220
0.0
230
1.0
 40
0.9990482215818607
 41
0.024858083528176
 42
3.116734570048937
  0
ELLIPSE
  5
CE
330
2
100
AcDbEntity
  8
GEB-KONTUR-A
 48
25.0
100
AcDbEllipse
 10
-0.0000000000383125
 20
145.7923696559985
 30
0.0
 11
56.64999999999989
 21
0.0000000003586996
 31
0.0
210
0.0
220
0.0
230
1.0
 40
0.9990482215818607
 41
0.0065511150737546
 42
3.13504153850336
  0
ELLIPSE
  5
CF
330
2
100
AcDbEntity
  8
GEB-KONTUR-A
 48
25.0
100
AcDbEllipse
 10
-0.000000000041382
 20
146.2416493458615
 30
0.0
 11
56.6499999999999
 21
0.0000000003586819
 31
0.0
210
0.0
220
0.0
230
1.0
 40
0.9990482215818605
 41
0.002581894455215
 42
3.139010759121898
  0
ELLIPSE
  5
D0
330
2
100
AcDbEntity
  8
GEB-KONTUR-A
 48
25.0
100
AcDbEllipse
 10
-0.0000000000434284
 20
146.5338992412091
 30
0.0
 11
-56.64999999999987
 21
-0.0000000000000069
 31
0.0
210
0.0
220
0.0
230
1.0
 40
0.9990482215818605
 41
0.0
 42
6.283185307179586
  0
ELLIPSE
  5
D1
330
2
100
AcDbEntity
  8
GEB-KONTUR-A
 48
25.0
100
AcDbEllipse
 10
-0.0000000000434284
 20
146.5338992412091
 30
0.0
 11
-60.14999999999988
 21
-0.0000000000000074
 31
0.0
210
0.0
220
0.0
230
1.0
 40
0.9990482215818607
 41
0.0
 42
6.283185307179586
  0
ELLIPSE
  5
D2
330
2
100
AcDbEntity
  8
GEB-KONTUR-A
 48
25.0
100
AcDbEllipse
 10
-0.0000000000424052
 20
146.3943172016402
 30
0.0
 11
-60.14999999999986
 21
0.0000000000005342
 31
0.0
210
0.0
220
0.0
230
1.0
 40
0.9990482215818607
 41
0.0000000000000234
 42
3.141592653589816
  0
ELLIPSE
  5
D3
330
2
100
AcDbEntity
  8
GEB-KONTUR-A
 48
25.0
100
AcDbEllipse
 10
-0.0000000000424052
 20
146.3943172016402
 30
0.0
 11
-64.04999999999986
 21
-0.0000000000000078
 31
0.0
210
0.0
220
0.0
230
1.0
 40
0.9990482215818607
 41
0.0
 42
6.283185307179586
  0
ELLIPSE
  5
D4
330
2
100
AcDbEntity
  8
GEB-KONTUR-A
 48
25.0
100
AcDbEllipse
 10
-0.0000000000372893
 20
145.6397018002198
 30
0.0
 11
-64.0499999999999
 21
0.0000000000007216
 31
0.0
210
0.0
220
0.0
230
1.0
 40
0.9990482215818607
 41
0.0000000000000256
 42
3.141592653589818
  0
LINE
  5
D5
330
2
100
AcDbEntity
  8
GEB-VERDECKT
 48
25.0
100
AcDbLine
 10
51.59999999997944
 20
143.1664825366048
 30
0.0
 11
51.59999999997808
 21
143.3389162308301
 31
0.0
  0
LINE
  5
D6
330
2
100
AcDbEntity
  8
GEB-VERDECKT
 48
25.0
100
AcDbLine
 10
-51.60000000002037
 20
143.1664825366058
 30
0.0
 11
-51.60000000002151
 21
143.3389162308309
 31
0.0
  0
LINE
  5
D7
330
2
100
AcDbEntity
  8
GEB-VERDECKT
 48
25.0
100
AcDbLine
 10
56.64999999997553
 20
143.7204487561446
 30
0.0
 11
56.64999999996144
 21
145.7923696559979
 31
0.0
  0
LINE
  5
D8
330
2
100
AcDbEntity
  8
GEB-VERDECKT
 48
25.0
100
AcDbLine
 10
-56.65000000002419
 20
143.7204487561455
 30
0.0
 11
-56.65000000003818
 21
145.7923696559991
 31
0.0
  0
LINE
  5
D9
330
2
100
AcDbEntity
  8
GEB-VERDECKT
 48
25.0
100
AcDbLine
 10
60.54999999996153
 20
145.7923696559979
 30
0.0
 11
60.54999999995857
 21
146.241649345861
 31
0.0
  0
LINE
  5
DA
330
2
100
AcDbEntity
  8
GEB-VERDECKT
 48
25.0
100
AcDbLine
 10
-60.55000000003815
 20
145.792369655999
 30
0.0
 11
-60.55000000004122
 21
146.241649345862
 31
0.0
  0
LINE
  5
DB
330
2
100
AcDbEntity
  8
GEB-VERDECKT
 48
25.0
100
AcDbLine
 10
56.64999999995848
 20
146.241649345861
 30
0.0
 11
56.64999999995643
 21
146.5338992412087
 31
0.0
  0
LINE
  5
DC
330
2
100
AcDbEntity
  8
GEB-VERDECKT
 48
25.0
100
AcDbLine
 10
-56.65000000004124
 20
146.241649345862
 30
0.0
 11
-56.65000000004318
 21
146.5338992412098
 31
0.0
  0
SPLINE
  5
DD
330
2
100
AcDbEntity
  8
GEB-VERDECKT
 48
25.0
100
AcDbSpline
210
0.0
220
0.0
230
1.0
 70
     8
 71
     3
 72
    22
 73
    18
 74
     0
 42
0.0000000001
 43
0.0000000001
 40
5.134931764921022
 40
5.134931764921022
 40
5.134931764921022
 40
5.134931764921022
 40
5.454928278931123
 40
5.454928278931123
 40
5.774927836463216
 40
5.774927836463216
 40
6.094930605163575
 40
6.094930605163575
 40
6.414935485799292
 40
6.414935485799292
 40
6.734940552116898
 40
6.734940552116898
 40
7.054943805370283
 40
7.054943805370283
 40
7.374943956117379
 40
7.374943956117379
 40
7.43143884943815
 40
7.43143884943815
 40
7.43143884943815
 40
7.43143884943815
 10
-52.64183647475988
 20
174.3424812810539
 30
0.0
 10
-50.11712175755611
 20
179.9522820564064
 30
0.0
 10
-46.68685234164081
 20
185.1541152333427
 30
0.0
 10
-38.36113294926315
 20
194.2172957226332
 30
0.0
 10
-33.46711764985537
 20
198.0770546299243
 30
0.0
 10
-22.7103392972424
 20
204.0636642722361
 30
0.0
 10
-16.84943717439853
 20
206.1894573176933
 30
0.0
 10
-4.75369423713596
 20
208.491631216267
 30
0.0
 10
1.479046210384581
 20
208.6675992406981
 30
0.0
 10
13.68566123156222
 20
207.0515448155648
 30
0.0
 10
19.65741357695515
 20
205.2598018943184
 30
0.0
 10
30.73551594906917
 20
199.8895821074184
 30
0.0
 10
35.83994443272627
 20
196.3120484473979
 30
0.0
 10
44.6647395003547
 20
187.7329362496645
 30
0.0
 10
48.38358416894948
 20
182.7328629113108
 30
0.0
 10
51.72235735054915
 20
176.3107018006087
 30
0.0
 10
52.19610196706662
 20
175.3328829963185
 30
0.0
 10
52.64183647469099
 20
174.3424812810539
 30
0.0
  0
SPLINE
  5
DE
330
2
100
AcDbEntity
  8
GEB-VERDECKT
 48
25.0
100
AcDbSpline
210
0.0
220
0.0
230
1.0
 70
     8
 71
     3
 72
    22
 73
    18
 74
     0
 42
0.0000000001
 43
0.0000000001
 40
1.99333911133123
 40
1.99333911133123
 40
1.99333911133123
 40
1.99333911133123
 40
2.313335625341331
 40
2.313335625341331
 40
2.633335182873424
 40
2.633335182873424
 40
2.953337951573783
 40
2.953337951573783
 40
3.273342832209499
 40
3.273342832209499
 40
3.593347898527106
 40
3.593347898527106
 40
3.913351151780492
 40
3.913351151780492
 40
4.233351302527587
 40
4.233351302527587
 40
4.289846195848357
 40
4.289846195848357
 40
4.289846195848357
 40
4.289846195848357
 10
52.64183647469031
 20
116.1953927341749
 30
0.0
 10
50.11712175748653
 20
110.5855919588224
 30
0.0
 10
46.68685234157123
 20
105.3837587818861
 30
0.0
 10
38.36113294919346
 20
96.32057829259565
 30
0.0
 10
33.46711764978568
 20
92.46081938530437
 30
0.0
 10
22.71033929717282
 20
86.47420974299269
 30
0.0
 10
16.84943717432895
 20
84.34841669753565
 30
0.0
 10
4.753694237066383
 20
82.04624279896199
 30
0.0
 10
-1.479046210454157
 20
81.8702747745309
 30
0.0
 10
-13.6856612316318
 20
83.48632919966428
 30
0.0
 10
-19.65741357702473
 20
85.27807212091067
 30
0.0
 10
-30.73551594913875
 20
90.64829190781052
 30
0.0
 10
-35.83994443279585
 20
94.22582556783117
 30
0.0
 10
-44.66473950042427
 20
102.8049377655643
 30
0.0
 10
-48.38358416901917
 20
107.805011103918
 30
0.0
 10
-51.72235735061883
 20
114.2271722146201
 30
0.0
 10
-52.1961019671362
 20
115.2049910189104
 30
0.0
 10
-52.64183647476068
 20
116.1953927341751
 30
0.0
  0
SPLINE
  5
DF
330
2
100
AcDbEntity
  8
GEB-VERDECKT
 48
25.0
100
AcDbSpline
210
0.0
220
0.0
230
1.0
 70
     8
 71
     3
 72
    22
 73
    18
 74
     0
 42
0.0000000001
 43
0.0000000001
 40
5.134931764921026
 40
5.134931764921026
 40
5.134931764921026
 40
5.134931764921026
 40
5.454928278931127
 40
5.454928278931127
 40
5.774927836463221
 40
5.774927836463221
 40
6.09493060516358
 40
6.09493060516358
 40
6.414935485799296
 40
6.414935485799296
 40
6.734940552116903
 40
6.734940552116903
 40
7.054943805370288
 40
7.054943805370288
 40
7.374943956117384
 40
7.374943956117384
 40
7.431438849438148
 40
7.431438849438148
 40
7.431438849438148
 40
7.431438849438148
 10
-52.64183647475738
 20
173.9826213352901
 30
0.0
 10
-50.1171217575536
 20
179.5924221106425
 30
0.0
 10
-46.68685234163809
 20
184.7942552875788
 30
0.0
 10
-38.36113294926042
 20
193.8574357768693
 30
0.0
 10
-33.46711764985264
 20
197.7171946841606
 30
0.0
 10
-22.71033929723978
 20
203.7038043264722
 30
0.0
 10
-16.84943717439591
 20
205.8295973719294
 30
0.0
 10
-4.753694237133231
 20
208.1317712705029
 30
0.0
 10
1.479046210387309
 20
208.307739294934
 30
0.0
 10
13.68566123156495
 20
206.6916848698006
 30
0.0
 10
19.65741357695788
 20
204.899941948554
 30
0.0
 10
30.7355159490719
 20
199.5297221616545
 30
0.0
 10
35.83994443272877
 20
195.9521885016336
 30
0.0
 10
44.66473950035743
 20
187.3730763039004
 30
0.0
 10
48.38358416895221
 20
182.3730029655466
 30
0.0
 10
51.72235735055164
 20
175.9508418548446
 30
0.0
 10
52.19610196706913
 20
174.9730230505546
 30
0.0
 10
52.64183647469349
 20
173.9826213352901
 30
0.0
  0
SPLINE
  5
E0
330
2
100
AcDbEntity
  8
GEB-VERDECKT
 48
25.0
100
AcDbSpline
210
0.0
220
0.0
230
1.0
 70
     8
 71
     3
 72
    22
 73
    18
 74
     0
 42
0.0000000001
 43
0.0000000001
 40
5.134931764921025
 40
5.134931764921025
 40
5.134931764921025
 40
5.134931764921025
 40
5.454928278931126
 40
5.454928278931126
 40
5.77492783646322
 40
5.77492783646322
 40
6.094930605163579
 40
6.094930605163579
 40
6.414935485799295
 40
6.414935485799295
 40
6.734940552116902
 40
6.734940552116902
 40
7.054943805370287
 40
7.054943805370287
 40
7.374943956117383
 40
7.374943956117383
 40
7.431438849438147
 40
7.431438849438147
 40
7.431438849438147
 40
7.431438849438147
 10
-52.64183647475499
 20
173.6227613895262
 30
0.0
 10
-50.11712175755111
 20
179.2325621648785
 30
0.0
 10
-46.6868523416357
 20
184.4343953418149
 30
0.0
 10
-38.36113294925804
 20
193.4975758311052
 30
0.0
 10
-33.46711764985025
 20
197.3573347383965
 30
0.0
 10
-22.7103392972374
 20
203.3439443807083
 30
0.0
 10
-16.84943717439341
 20
205.4697374261654
 30
0.0
 10
-4.753694237130844
 20
207.771911324739
 30
0.0
 10
1.479046210389697
 20
207.9478793491701
 30
0.0
 10
13.68566123156734
 20
206.3318249240367
 30
0.0
 10
19.65741357696026
 20
204.5400820027901
 30
0.0
 10
30.73551594907417
 20
199.1698622158903
 30
0.0
 10
35.83994443273127
 20
195.5923285558697
 30
0.0
 10
44.6647395003597
 20
187.0132163581365
 30
0.0
 10
48.38358416895449
 20
182.0131430197827
 30
0.0
 10
51.72235735055415
 20
175.5909819090807
 30
0.0
 10
52.19610196707162
 20
174.6131631047906
 30
0.0
 10
52.64183647469599
 20
173.6227613895259
 30
0.0
  0
SPLINE
  5
E1
330
2
100
AcDbEntity
  8
GEB-VERDECKT
 48
25.0
100
AcDbSpline
210
0.0
220
0.0
230
1.0
 70
     8
 71
     3
 72
    22
 73
    18
 74
     0
 42
0.0000000001
 43
0.0000000001
 40
5.134931764921022
 40
5.134931764921022
 40
5.134931764921022
 40
5.134931764921022
 40
5.454928278931123
 40
5.454928278931123
 40
5.774927836463216
 40
5.774927836463216
 40
6.094930605163575
 40
6.094930605163575
 40
6.414935485799292
 40
6.414935485799292
 40
6.734940552116898
 40
6.734940552116898
 40
7.054943805370283
 40
7.054943805370283
 40
7.374943956117379
 40
7.374943956117379
 40
7.431438849438149
 40
7.431438849438149
 40
7.431438849438149
 40
7.431438849438149
 10
-52.64183647475261
 20
173.262901443762
 30
0.0
 10
-50.11712175754872
 20
178.8727022191142
 30
0.0
 10
-46.68685234163342
 20
184.0745353960506
 30
0.0
 10
-38.36113294925576
 20
193.1377158853411
 30
0.0
 10
-33.46711764984798
 20
196.9974747926324
 30
0.0
 10
-22.71033929723512
 20
202.9840844349442
 30
0.0
 10
-16.84943717439114
 20
205.1098774804013
 30
0.0
 10
-4.75369423712857
 20
207.4120513789749
 30
0.0
 10
1.479046210391857
 20
207.5880194034062
 30
0.0
 10
13.68566123156961
 20
205.9719649782728
 30
0.0
 10
19.65741357696242
 20
204.1802220570262
 30
0.0
 10
30.73551594907645
 20
198.8100022701264
 30
0.0
 10
35.83994443273355
 20
195.2324686101058
 30
0.0
 10
44.6647395003622
 20
186.6533564123724
 30
0.0
 10
48.38358416895698
 20
181.6532830740188
 30
0.0
 10
51.72235735055664
 20
175.2311219633167
 30
0.0
 10
52.1961019670739
 20
174.2533031590264
 30
0.0
 10
52.64183647469827
 20
173.262901443762
 30
0.0
  0
SPLINE
  5
E2
330
2
100
AcDbEntity
  8
GEB-VERDECKT
 48
25.0
100
AcDbSpline
210
0.0
220
0.0
230
1.0
 70
     8
 71
     3
 72
    22
 73
    18
 74
     0
 42
0.0000000001
 43
0.0000000001
 40
1.993339111331226
 40
1.993339111331226
 40
1.993339111331226
 40
1.993339111331226
 40
2.313335625341327
 40
2.313335625341327
 40
2.63333518287342
 40
2.63333518287342
 40
2.953337951573779
 40
2.953337951573779
 40
3.273342832209495
 40
3.273342832209495
 40
3.593347898527102
 40
3.593347898527102
 40
3.913351151780487
 40
3.913351151780487
 40
4.233351302527583
 40
4.233351302527583
 40
4.289846195848359
 40
4.289846195848359
 40
4.289846195848359
 40
4.289846195848359
 10
52.6418364746928
 20
115.8355327884111
 30
0.0
 10
50.11712175748903
 20
110.2257320130586
 30
0.0
 10
46.68685234157374
 20
105.0238988361222
 30
0.0
 10
38.36113294919596
 20
95.96071834683199
 30
0.0
 10
33.46711764978818
 20
92.10095943954071
 30
0.0
 10
22.71033929717555
 20
86.11434979722877
 30
0.0
 10
16.84943717433168
 20
83.98855675177163
 30
0.0
 10
4.753694237068998
 20
81.6863828531981
 30
0.0
 10
-1.479046210451542
 20
81.5104148287669
 30
0.0
 10
-13.68566123162918
 20
83.12646925390016
 30
0.0
 10
-19.65741357702199
 20
84.91821217514667
 30
0.0
 10
-30.73551594913613
 20
90.28843196204627
 30
0.0
 10
-35.83994443279312
 20
93.86596562206694
 30
0.0
 10
-44.66473950042177
 20
102.4450778198001
 30
0.0
 10
-48.38358416901655
 20
107.4451511581537
 30
0.0
 10
-51.72235735061622
 20
113.867312268856
 30
0.0
 10
-52.19610196713381
 20
114.8451310731464
 30
0.0
 10
-52.64183647475829
 20
115.8355327884111
 30
0.0
  0
SPLINE
  5
E3
330
2
100
AcDbEntity
  8
GEB-VERDECKT
 48
25.0
100
AcDbSpline
210
0.0
220
0.0
230
1.0
 70
     8
 71
     3
 72
    14
 73
    10
 74
     0
 42
0.0000000001
 43
0.0000000001
 40
3.39805473671433
 40
3.39805473671433
 40
3.39805473671433
 40
3.39805473671433
 40
3.593347898527102
 40
3.593347898527102
 40
3.913351151780487
 40
3.913351151780487
 40
4.233351302527583
 40
4.233351302527583
 40
4.289846195848358
 40
4.289846195848358
 40
4.289846195848358
 40
4.289846195848358
 10
-14.64070313166678
 20
83.34480068166488
 30
0.0
 10
-18.27511830775984
 20
84.29697097505584
 30
0.0
 10
-21.8160905861746
 20
85.60479227829125
 30
0.0
 10
-30.73551594913374
 20
89.92857201628215
 30
0.0
 10
-35.83994443279073
 20
93.50610567630292
 30
0.0
 10
-44.66473950041927
 20
102.0852178740361
 30
0.0
 10
-48.38358416901417
 20
107.0852912123897
 30
0.0
 10
-51.72235735061383
 20
113.507452323092
 30
0.0
 10
-52.19610196713142
 20
114.4852711273822
 30
0.0
 10
-52.64183647475568
 20
115.4756728426471
 30
0.0
  0
SPLINE
  5
E4
330
2
100
AcDbEntity
  8
GEB-VERDECKT
 48
25.0
100
AcDbSpline
210
0.0
220
0.0
230
1.0
 70
     8
 71
     3
 72
    12
 73
     8
 74
     0
 42
0.0000000001
 43
0.0000000001
 40
1.993339111331226
 40
1.993339111331226
 40
1.993339111331226
 40
1.993339111331226
 40
2.313335625341327
 40
2.313335625341327
 40
2.63333518287342
 40
2.63333518287342
 40
2.885130570465261
 40
2.885130570465261
 40
2.885130570465261
 40
2.885130570465261
 10
52.64183647469531
 20
115.4756728426471
 30
0.0
 10
50.11712175749153
 20
109.8658720672947
 30
0.0
 10
46.68685234157623
 20
104.6640388903582
 30
0.0
 10
38.36113294919869
 20
95.60085840106784
 30
0.0
 10
33.46711764979091
 20
91.74109949377657
 30
0.0
 10
23.85672838128585
 20
86.39250466591841
 30
0.0
 10
19.32662745911125
 20
84.57245292433617
 30
0.0
 10
14.64070313160528
 20
83.34480068166476
 30
0.0
  0
SPLINE
  5
E5
330
2
100
AcDbEntity
  8
GEB-VERDECKT
 48
25.0
100
AcDbSpline
210
0.0
220
0.0
230
1.0
 70
     8
 71
     3
 72
    14
 73
    10
 74
     0
 42
0.0000000001
 43
0.0000000001
 40
3.567642654828725
 40
3.567642654828725
 40
3.567642654828725
 40
3.567642654828725
 40
3.593347898527102
 40
3.593347898527102
 40
3.913351151780487
 40
3.913351151780487
 40
4.233351302527583
 40
4.233351302527583
 40
4.28984619584836
 40
4.28984619584836
 40
4.28984619584836
 40
4.28984619584836
 10
-23.85348371342195
 20
86.25375260709052
 30
0.0
 10
-24.30382554396761
 20
86.4579451882621
 30
0.0
 10
-24.75154042408099
 20
86.66792069944017
 30
0.0
 10
-30.73551594913124
 20
89.56871207051824
 30
0.0
 10
-35.83994443278835
 20
93.1462457305388
 30
0.0
 10
-44.66473950041677
 20
101.7253579282721
 30
0.0
 10
-48.38358416901167
 20
106.7254312666258
 30
0.0
 10
-51.72235735061144
 20
113.147592377328
 30
0.0
 10
-52.19610196712892
 20
114.1254111816183
 30
0.0
 10
-52.6418364747534
 20
115.1158128968832
 30
0.0
  0
SPLINE
  5
E6
330
2
100
AcDbEntity
  8
GEB-VERDECKT
 48
25.0
100
AcDbSpline
210
0.0
220
0.0
230
1.0
 70
     8
 71
     3
 72
    12
 73
     8
 74
     0
 42
0.0000000001
 43
0.0000000001
 40
1.993339111331226
 40
1.993339111331226
 40
1.993339111331226
 40
1.993339111331226
 40
2.313335625341327
 40
2.313335625341327
 40
2.63333518287342
 40
2.63333518287342
 40
2.715542652350859
 40
2.715542652350859
 40
2.715542652350859
 40
2.715542652350859
 10
52.64183647469781
 20
115.1158128968832
 30
0.0
 10
50.1171217574938
 20
109.5060121215306
 30
0.0
 10
46.68685234157851
 20
104.3041789445942
 30
0.0
 10
38.36113294920096
 20
95.24099845530372
 30
0.0
 10
33.46711764979318
 20
91.38123954801244
 30
0.0
 10
26.70706121863338
 20
87.61897749456762
 30
0.0
 10
25.29371368058219
 20
86.9067771643032
 30
0.0
 10
23.85348371336568
 20
86.25375260709075
 30
0.0
  0
LINE
  5
E7
330
2
100
AcDbEntity
  8
GEB-VERDECKT
 48
25.0
100
AcDbLine
 10
56.64999999998372
 20
142.5191708281031
 30
0.0
 11
56.64999999997849
 21
143.2973406987007
 31
0.0
  0
LINE
  5
E8
330
2
100
AcDbEntity
  8
GEB-VERDECKT
 48
25.0
100
AcDbLine
 10
-56.65000000001601
 20
142.5191708281041
 30
0.0
 11
-56.65000000002123
 21
143.2973406987017
 31
0.0
  0
ELLIPSE
  5
E9
330
2
100
AcDbEntity
  8
GEB-VERDECKT
 48
25.0
100
AcDbEllipse
 10
-0.0000000000216005
 20
143.3389162308306
 30
0.0
 11
-51.5999999999999
 21
-0.0000000000000063
 31
0.0
210
0.0
220
0.0
230
1.0
 40
0.9990482215818605
 41
0.0
 42
6.283185307179586
  0
ELLIPSE
  5
EA
330
2
100
AcDbEntity
  8
GEB-VERDECKT
 48
25.0
100
AcDbEllipse
 10
-0.0000000000242153
 20
143.720448756145
 30
0.0
 11
-56.64999999999988
 21
-0.0000000003584108
 31
0.0
210
0.0
220
0.0
230
1.0
 40
0.9990482215818607
 41
6.258327223638727
 42
9.449636044297546
  0
ELLIPSE
  5
EB
330
2
100
AcDbEntity
  8
GEB-VERDECKT
 48
25.0
100
AcDbEllipse
 10
-0.0000000000383125
 20
145.7923696559985
 30
0.0
 11
-56.64999999999989
 21
-0.0000000003585196
 31
0.0
210
0.0
220
0.0
230
1.0
 40
0.9990482215818607
 41
6.276634192093141
 42
9.431329075843121
  0
ELLIPSE
  5
EC
330
2
100
AcDbEntity
  8
GEB-VERDECKT
 48
25.0
100
AcDbEllipse
 10
-0.0000000000383125
 20
145.7923696559985
 30
0.0
 11
-60.54999999999987
 21
-0.0000000000000074
 31
0.0
210
0.0
220
0.0
230
1.0
 40
0.9990482215818607
 41
0.0
 42
6.283185307179586
  0
ELLIPSE
  5
ED
330
2
100
AcDbEntity
  8
GEB-VERDECKT
 48
25.0
100
AcDbEllipse
 10
-0.000000000041382
 20
146.2416493458615
 30
0.0
 11
-60.54999999999987
 21
-0.0000000000000074
 31
0.0
210
0.0
220
0.0
230
1.0
 40
0.9990482215818607
 41
0.0
 42
6.283185307179586
  0
ELLIPSE
  5
EE
330
2
100
AcDbEntity
  8
GEB-VERDECKT
 48
25.0
100
AcDbEllipse
 10
-0.000000000041382
 20
146.2416493458615
 30
0.0
 11
-56.64999999999988
 21
-0.0000000003584793
 31
0.0
210
0.0
220
0.0
230
1.0
 40
0.9990482215818607
 41
6.280603412711681
 42
9.427359855224629
  0
ELLIPSE
  5
EF
330
2
100
AcDbEntity
  8
GEB-VERDECKT
 48
25.0
100
AcDbEllipse
 10
-0.0000000000424052
 20
146.3943172016402
 30
0.0
 11
60.14999999999986
 21
-0.0000000000005148
 31
0.0
210
0.0
220
0.0
230
1.0
 40
0.9990482215818607
 41
0.000000000000023
 42
3.141592653589816
  0
ELLIPSE
  5
F0
330
2
100
AcDbEntity
  8
GEB-VERDECKT
 48
25.0
100
AcDbEllipse
 10
-0.0000000000230784
 20
143.5372473292106
 30
0.0
 11
58.39999999999989
 21
0.0000000003717848
 31
0.0
210
0.0
220
0.0
230
1.0
 40
0.9990482215818603
 41
0.2157100697935003
 42
2.925882583783547
  0
ELLIPSE
  5
F1
330
2
100
AcDbEntity
  8
GEB-VERDECKT
 48
25.0
100
AcDbEllipse
 10
-0.0000000000213731
 20
143.2973406987012
 30
0.0
 11
58.39999999999989
 21
0.0000000003717848
 31
0.0
210
0.0
220
0.0
230
1.0
 40
0.9990482215818603
 41
0.2157100697935003
 42
2.925882583783547
  0
LINE
  5
F2
330
2
100
AcDbEntity
  8
GEB-VERDECKT
 48
25.0
100
AcDbLine
 10
58.8368294522852
 20
156.0253500989838
 30
0.0
 11
57.04655993131723
 21
156.0253500989839
 31
0.0
  0
LINE
  5
F3
330
2
100
AcDbEntity
  8
GEB-VERDECKT
 48
25.0
100
AcDbLine
 10
57.04655993131723
 20
156.0253500989838
 30
0.0
 11
57.04655993131883
 21
155.7854434684746
 31
0.0
  0
LINE
  5
F4
330
2
100
AcDbEntity
  8
GEB-VERDECKT
 48
25.0
100
AcDbLine
 10
57.04655993131883
 20
155.7854434684746
 30
0.0
 11
55.25371028263748
 21
155.7854434684746
 31
0.0
  0
LINE
  5
F5
330
2
100
AcDbEntity
  8
GEB-VERDECKT
 48
25.0
100
AcDbLine
 10
60.14999999998394
 20
155.007273597877
 30
0.0
 11
55.25371028264271
 21
155.007273597877
 31
0.0
  0
ELLIPSE
  5
F6
330
2
100
AcDbEntity
  8
GEB-VERDECKT
 48
25.0
100
AcDbEllipse
 10
-0.0000000000159162
 20
142.5191708281037
 30
0.0
 11
56.64999999999979
 21
0.0000000003572853
 31
0.0
210
0.0
220
0.0
230
1.0
 40
0.9990482215818607
 41
6.060701249052352
 42
6.505669365294193
  0
LINE
  5
F7
330
2
100
AcDbEntity
  8
GEB-VERDECKT
 48
25.0
100
AcDbLine
 10
55.25371028264271
 20
155.007273597877
 30
0.0
 11
55.25371028263748
 21
155.7854434684746
 31
0.0
  0
ELLIPSE
  5
F8
330
2
100
AcDbEntity
  8
GEB-VERDECKT
 48
25.0
100
AcDbEllipse
 10
-0.0000000000212594
 20
143.2973406987012
 30
0.0
 11
56.64999999999978
 21
0.0000000003592771
 31
0.0
210
0.0
220
0.0
230
1.0
 40
0.9990482215818607
 41
6.060701249052318
 42
6.505669365294158
  0
LINE
  5
F9
330
2
100
AcDbEntity
  8
GEB-VERDECKT
 48
25.0
100
AcDbLine
 10
60.14999999998372
 20
130.0310680583304
 30
0.0
 11
60.14999999996234
 21
133.1515990304466
 31
0.0
  0
LINE
  5
FA
330
2
100
AcDbEntity
  8
GEB-VERDECKT
 48
25.0
100
AcDbLine
 10
60.14999999998372
 20
130.0310680583304
 30
0.0
 11
55.25371028264249
 21
130.0310680583304
 31
0.0
  0
LINE
  5
FB
330
2
100
AcDbEntity
  8
GEB-VERDECKT
 48
25.0
100
AcDbLine
 10
55.25371028263726
 20
130.809237928928
 30
0.0
 11
55.25371028264249
 21
130.0310680583304
 31
0.0
  0
LINE
  5
FC
330
2
100
AcDbEntity
  8
GEB-VERDECKT
 48
25.0
100
AcDbLine
 10
55.25371028263726
 20
130.809237928928
 30
0.0
 11
57.0465599313186
 21
130.809237928928
 31
0.0
  0
LINE
  5
FD
330
2
100
AcDbEntity
  8
GEB-VERDECKT
 48
25.0
100
AcDbLine
 10
57.0465599313186
 20
130.809237928928
 30
0.0
 11
57.04655993131701
 21
131.0491445594375
 31
0.0
  0
ELLIPSE
  5
FE
330
2
100
AcDbEntity
  8
GEB-VERDECKT
 48
25.0
100
AcDbEllipse
 10
-0.0000000000213731
 20
143.2973406987012
 30
0.0
 11
-58.39999999999989
 21
-0.0000000003697842
 31
0.0
210
0.0
220
0.0
230
1.0
 40
0.9990482215818607
 41
0.2157100697935346
 42
2.925882583783582
  0
LINE
  5
FF
330
2
100
AcDbEntity
  8
GEB-VERDECKT
 48
25.0
100
AcDbLine
 10
57.04655993131701
 20
131.0491445594375
 30
0.0
 11
58.83682945228497
 21
131.0491445594375
 31
0.0
  0
ELLIPSE
  5
100
330
2
100
AcDbEntity
  8
GEB-VERDECKT
 48
25.0
100
AcDbEllipse
 10
-0.0000000000230784
 20
143.5372473292106
 30
0.0
 11
-58.39999999999989
 21
-0.0000000003697842
 31
0.0
210
0.0
220
0.0
230
1.0
 40
0.9990482215818607
 41
0.2157100697935346
 42
2.925882583783582
  0
SPLINE
  5
101
330
2
100
AcDbEntity
  8
GEB-VERDECKT
 48
25.0
100
AcDbSpline
210
0.0
220
0.0
230
1.0
 70
     8
 71
     3
 72
    28
 73
    24
 74
     0
 42
0.0000000001
 43
0.0000000001
 40
0.0003135965776807
 40
0.0003135965776807
 40
0.0003135965776807
 40
0.0003135965776807
 40
0.2718281047685484
 40
0.2718281047685484
 40
0.3877372981810514
 40
0.3877372981810514
 40
0.4023246078222999
 40
0.4023246078222999
 40
0.4094618536811402
 40
0.4094618536811402
 40
0.4141700486462444
 40
0.4141700486462444
 40
0.4184552481618232
 40
0.4184552481618232
 40
0.4238538387117052
 40
0.4238538387117052
 40
0.4337033556307786
 40
0.4337033556307786
 40
0.4587932382629688
 40
0.4587932382629688
 40
0.5538885019029778
 40
0.5538885019029778
 40
0.8728530398577539
 40
0.8728530398577539
 40
0.8728530398577539
 40
0.8728530398577539
 10
51.15055768859929
 20
113.6689549180314
 30
0.0
 10
51.62600203776719
 20
114.4347099344313
 30
0.0
 10
52.00017345998322
 20
115.0747411162282
 30
0.0
 10
52.36776230091436
 20
115.7143631163271
 30
0.0
 10
52.53648523811785
 20
116.0125906125457
 30
0.0
 10
52.61712202234616
 20
116.1540398863507
 30
0.0
 10
52.6259233927326
 20
116.1694117966733
 30
0.0
 10
52.63548538356918
 20
116.1858197945096
 30
0.0
 10
52.63837763595233
 20
116.1907180088812
 30
0.0
 10
52.641443216595
 20
116.1956533426669
 30
0.0
 10
52.64218896200919
 20
116.1967487017361
 30
0.0
 10
52.64239006360594
 20
116.1966080688659
 30
0.0
 10
52.6419489454795
 20
116.1955772278194
 30
0.0
 10
52.63993827015656
 20
116.191431731659
 30
0.0
 10
52.6381492684643
 20
116.1879361212366
 30
0.0
 10
52.63225620147682
 20
116.1766212455379
 30
0.0
 10
52.62715137474152
 20
116.1670229503235
 30
0.0
 10
52.60936725000056
 20
116.1338146237697
 30
0.0
 10
52.59217590633079
 20
116.1021444781518
 30
0.0
 10
52.51217595034359
 20
115.9556141634292
 30
0.0
 10
52.41556800091757
 20
115.7816911229492
 30
0.0
 10
52.08135499700006
 20
115.1871969527966
 30
0.0
 10
51.67806708107764
 20
114.485560126884
 30
0.0
 10
51.15055768859974
 20
113.631677815476
 30
0.0
  0
SPLINE
  5
102
330
2
100
AcDbEntity
  8
GEB-VERDECKT
 48
25.0
100
AcDbSpline
210
0.0
220
0.0
230
1.0
 70
     8
 71
     3
 72
    18
 73
    14
 74
     0
 42
0.0000000001
 43
0.0000000001
 40
6.130712173490198
 40
6.130712173490198
 40
6.130712173490198
 40
6.130712173490198
 40
6.358283137277772
 40
6.358283137277772
 40
6.861022006813966
 40
6.861022006813966
 40
7.812083211287662
 40
7.812083211287662
 40
9.010772298241615
 40
9.010772298241615
 40
10.87123066565453
 40
10.87123066565453
 40
12.25035599329303
 40
12.25035599329303
 40
12.25035599329303
 40
12.25035599329303
 10
-0.000000000035925
 20
85.22852974430406
 30
0.0
 10
0.7589881251716406
 20
85.22852974430406
 30
0.0
 10
1.517963102778935
 20
85.24288175691674
 30
0.0
 10
3.952277875330651
 20
85.33499205821362
 30
0.0
 10
5.624651577945769
 20
85.4683849036569
 30
0.0
 10
10.43828255684002
 20
86.05547364038818
 30
0.0
 10
13.55196233554443
 20
86.68781005994594
 30
0.0
 10
20.44422148831791
 20
88.66465818118877
 30
0.0
 10
24.16768890713013
 20
90.14682001777487
 30
0.0
 10
33.22377669224398
 20
94.84160263286605
 30
0.0
 10
38.25509050174401
 20
98.52951299154632
 30
0.0
 10
45.87546450367608
 20
106.167097191444
 30
0.0
 10
48.73374569786188
 20
109.7764154255723
 30
0.0
 10
51.15055768859929
 20
113.6689549180314
 30
0.0
  0
SPLINE
  5
103
330
2
100
AcDbEntity
  8
GEB-VERDECKT
 48
25.0
100
AcDbSpline
210
0.0
220
0.0
230
1.0
 70
     8
 71
     3
 72
    16
 73
    12
 74
     0
 42
0.0000000001
 43
0.0000000001
 40
0.0026009342830052
 40
0.0026009342830052
 40
0.0026009342830052
 40
0.0026009342830052
 40
2.288447646738548
 40
2.288447646738548
 40
4.621313960225682
 40
4.621313960225682
 40
5.46277531789885
 40
5.46277531789885
 40
5.947182010080226
 40
5.947182010080226
 40
6.130712173490198
 40
6.130712173490198
 40
6.130712173490198
 40
6.130712173490198
 10
-51.15055768867001
 20
113.6689549180314
 30
0.0
 10
-47.14631402874033
 20
107.2196834631381
 30
0.0
 10
-41.94489604411501
 20
101.5721684596961
 30
0.0
 10
-29.57067199810012
 20
92.41644839530602
 30
0.0
 10
-22.47978695316124
 20
89.04298387072413
 30
0.0
 10
-12.22327506087595
 20
86.41557504756361
 30
0.0
 10
-9.45896469145839
 20
85.90998574049525
 30
0.0
 10
-5.06360113979997
 20
85.42008414141003
 30
0.0
 10
-3.451184830008514
 20
85.30581100609799
 30
0.0
 10
-1.224217583254471
 20
85.23786430179848
 30
0.0
 10
-0.6121045160389258
 20
85.22852974430406
 30
0.0
 10
-0.000000000035925
 20
85.22852974430406
 30
0.0
  0
SPLINE
  5
104
330
2
100
AcDbEntity
  8
GEB-VERDECKT
 48
25.0
100
AcDbSpline
210
0.0
220
0.0
230
1.0
 70
     8
 71
     3
 72
    28
 73
    24
 74
     0
 42
0.0000000001
 43
0.0000000001
 40
0.0003135965776966
 40
0.0003135965776966
 40
0.0003135965776966
 40
0.0003135965776966
 40
0.2718281047685813
 40
0.2718281047685813
 40
0.3877372981802412
 40
0.3877372981802412
 40
0.4023246078334032
 40
0.4023246078334032
 40
0.4094618537022258
 40
0.4094618537022258
 40
0.4141700486735726
 40
0.4141700486735726
 40
0.4184552481946902
 40
0.4184552481946902
 40
0.4238538387516468
 40
0.4238538387516468
 40
0.4337033556841512
 40
0.4337033556841512
 40
0.4587932383512742
 40
0.4587932383512742
 40
0.5538885021223808
 40
0.5538885021223808
 40
0.872853040524146
 40
0.872853040524146
 40
0.872853040524146
 40
0.872853040524146
 10
-51.15055768866977
 20
113.631677815476
 30
0.0
 10
-51.62600203783757
 20
114.4012821592134
 30
0.0
 10
-52.00017346005324
 20
115.046725601084
 30
0.0
 10
-52.36776230098371
 20
115.6957453338843
 30
0.0
 10
-52.53648523818788
 20
115.9990622298298
 30
0.0
 10
-52.61712202242382
 20
116.1482749789627
 30
0.0
 10
-52.62592339280638
 20
116.1646686204038
 30
0.0
 10
-52.63548538363966
 20
116.182795323323
 30
0.0
 10
-52.6383776360226
 20
116.1883477855513
 30
0.0
 10
-52.64144321666515
 20
116.1944913793965
 30
0.0
 10
-52.64218896207944
 20
116.1960916887436
 30
0.0
 10
-52.6423900636762
 20
116.1969592195525
 30
0.0
 10
-52.64194894554975
 20
116.1963955049467
 30
0.0
 10
-52.63993827022682
 20
116.1932739814334
 30
0.0
 10
-52.63814926853445
 20
116.1903043527539
 30
0.0
 10
-52.63225620154719
 20
116.1803290293312
 30
0.0
 10
-52.62715137481143
 20
116.1714927978607
 30
0.0
 10
-52.60936725007081
 20
116.1405239341325
 30
0.0
 10
-52.59217590640139
 20
116.110246540366
 30
0.0
 10
-52.51217595041317
 20
115.9691690521515
 30
0.0
 10
-52.41556800098613
 20
115.7986239821954
 30
0.0
 10
-52.08135499706987
 20
115.2140188029942
 30
0.0
 10
-51.67806708114688
 20
114.5185663692859
 30
0.0
 10
-51.15055768867001
 20
113.6689549180314
 30
0.0
  0
SPLINE
  5
105
330
2
100
AcDbEntity
  8
GEB-VERDECKT
 48
25.0
100
AcDbSpline
210
0.0
220
0.0
230
1.0
 70
     8
 71
     3
 72
    18
 73
    14
 74
     0
 42
0.0000000001
 43
0.0000000001
 40
6.130712173490306
 40
6.130712173490306
 40
6.130712173490306
 40
6.130712173490306
 40
6.358283137277893
 40
6.358283137277893
 40
6.861022006813983
 40
6.861022006813983
 40
7.812083211287353
 40
7.812083211287353
 40
9.010772298240878
 40
9.010772298240878
 40
10.8712306656534
 40
10.8712306656534
 40
12.25035599329195
 40
12.25035599329195
 40
12.25035599329195
 40
12.25035599329195
 10
-0.0000000000351292
 20
85.12384321462718
 30
0.0
 10
-0.7589881252424675
 20
85.12384321462718
 30
0.0
 10
-1.517963102849762
 20
85.13819517718388
 30
0.0
 10
-3.952277875400682
 20
85.23030612113666
 30
0.0
 10
-5.624651578015914
 20
85.36369970023498
 30
0.0
 10
-10.43828255690982
 20
85.9508305292328
 30
0.0
 10
-13.551962335614
 20
86.58323422650221
 30
0.0
 10
-20.44422148838657
 20
88.5608262771491
 30
0.0
 10
-24.16768890719823
 20
90.04381017963124
 30
0.0
 10
-33.22377669231173
 20
94.74368642304966
 30
0.0
 10
-38.25509050181188
 20
98.43740104883375
 30
0.0
 10
-45.87546450374498
 20
106.0971301468369
 30
0.0
 10
-48.73374569793168
 20
109.7195711528892
 30
0.0
 10
-51.15055768866977
 20
113.631677815476
 30
0.0
  0
SPLINE
  5
106
330
2
100
AcDbEntity
  8
GEB-VERDECKT
 48
25.0
100
AcDbSpline
210
0.0
220
0.0
230
1.0
 70
     8
 71
     3
 72
    16
 73
    12
 74
     0
 42
0.0000000001
 43
0.0000000001
 40
0.0026009342830063
 40
0.0026009342830063
 40
0.0026009342830063
 40
0.0026009342830063
 40
2.288447646738543
 40
2.288447646738543
 40
4.621313960225665
 40
4.621313960225665
 40
5.462775317898823
 40
5.462775317898823
 40
5.94718201008025
 40
5.94718201008025
 40
6.130712173490306
 40
6.130712173490306
 40
6.130712173490306
 40
6.130712173490306
 10
51.15055768859974
 20
113.631677815476
 30
0.0
 10
47.14631402866984
 20
107.1499869099916
 30
0.0
 10
41.94489604404452
 20
101.4873246186868
 30
0.0
 10
29.57067199802964
 20
92.31417544713735
 30
0.0
 10
22.47978695309052
 20
88.93917090786477
 30
0.0
 10
12.22327506080546
 20
86.31096345168646
 30
0.0
 10
9.458964691387791
 20
85.80532898385319
 30
0.0
 10
5.063601139729144
 20
85.31539799220729
 30
0.0
 10
3.451184829937346
 20
85.20112476360385
 30
0.0
 10
1.224217583183758
 20
85.13317775094003
 30
0.0
 10
0.6121045159682126
 20
85.12384321462718
 30
0.0
 10
-0.0000000000351292
 20
85.12384321462718
 30
0.0
  0
SPLINE
  5
107
330
2
100
AcDbEntity
  8
GEB-VERDECKT
 48
25.0
100
AcDbSpline
210
0.0
220
0.0
230
1.0
 70
     8
 71
     3
 72
    28
 73
    24
 74
     0
 42
0.0000000001
 43
0.0000000001
 40
0.0003135965776805
 40
0.0003135965776805
 40
0.0003135965776805
 40
0.0003135965776805
 40
0.2718281047685725
 40
0.2718281047685725
 40
0.3877372981818239
 40
0.3877372981818239
 40
0.4023246078212745
 40
0.4023246078212745
 40
0.4094618536788143
 40
0.4094618536788143
 40
0.4141700486430022
 40
0.4141700486430022
 40
0.4184552481577143
 40
0.4184552481577143
 40
0.4238538387064911
 40
0.4238538387064911
 40
0.4337033556235263
 40
0.4337033556235263
 40
0.4587932382526708
 40
0.4587932382526708
 40
0.5538885018951829
 40
0.5538885018951829
 40
0.8728530398507752
 40
0.8728530398507752
 40
0.8728530398507752
 40
0.8728530398507752
 10
51.15055768860179
 20
113.3090949722675
 30
0.0
 10
51.62600203776992
 20
114.0748499886672
 30
0.0
 10
52.00017345998549
 20
114.7148811704641
 30
0.0
 10
52.36776230091755
 20
115.3545031705644
 30
0.0
 10
52.53648523812035
 20
115.6527306667819
 30
0.0
 10
52.6171220223473
 20
115.7941799405846
 30
0.0
 10
52.62592339273465
 20
115.8095518509083
 30
0.0
 10
52.63548538357167
 20
115.8259598487457
 30
0.0
 10
52.63837763595461
 20
115.8308580631173
 30
0.0
 10
52.64144321659728
 20
115.8357933969027
 30
0.0
 10
52.64218896201146
 20
115.836888755972
 30
0.0
 10
52.64239006360821
 20
115.8367481231018
 30
0.0
 10
52.641948945482
 20
115.8357172820555
 30
0.0
 10
52.63993827015884
 20
115.831571785895
 30
0.0
 10
52.63814926846681
 20
115.8280761754724
 30
0.0
 10
52.63225620147932
 20
115.816761299774
 30
0.0
 10
52.62715137474379
 20
115.8071630045593
 30
0.0
 10
52.6093672500017
 20
115.7739546780035
 30
0.0
 10
52.59217590633056
 20
115.742284532383
 30
0.0
 10
52.51217595034677
 20
115.5957542176665
 30
0.0
 10
52.41556800092166
 20
115.4218311771883
 30
0.0
 10
52.08135499700233
 20
114.8273370070322
 30
0.0
 10
51.67806708107992
 20
114.1257001811198
 30
0.0
 10
51.15055768860202
 20
113.2718178697118
 30
0.0
  0
SPLINE
  5
108
330
2
100
AcDbEntity
  8
GEB-VERDECKT
 48
25.0
100
AcDbSpline
210
0.0
220
0.0
230
1.0
 70
     8
 71
     3
 72
    18
 73
    14
 74
     0
 42
0.0000000001
 43
0.0000000001
 40
6.130712173490197
 40
6.130712173490197
 40
6.130712173490197
 40
6.130712173490197
 40
6.358283137277771
 40
6.358283137277771
 40
6.861022006813965
 40
6.861022006813965
 40
7.812083211287662
 40
7.812083211287662
 40
9.010772298241615
 40
9.010772298241615
 40
10.87123066565453
 40
10.87123066565453
 40
12.25035599329303
 40
12.25035599329303
 40
12.25035599329303
 40
12.25035599329303
 10
-0.0000000000334239
 20
84.86866979854005
 30
0.0
 10
0.7589881251740281
 20
84.86866979854005
 30
0.0
 10
1.517963102781322
 20
84.88302181115262
 30
0.0
 10
3.952277875333038
 20
84.9751321124495
 30
0.0
 10
5.624651577948156
 20
85.10852495789299
 30
0.0
 10
10.43828255684241
 20
85.69561369462418
 30
0.0
 10
13.55196233554704
 20
86.32795011418194
 30
0.0
 10
20.44422148832052
 20
88.30479823542464
 30
0.0
 10
24.16768890713252
 20
89.78696007201097
 30
0.0
 10
33.22377669224625
 20
94.48174268710193
 30
0.0
 10
38.25509050174651
 20
98.16965304578241
 30
0.0
 10
45.87546450367836
 20
105.8072372456799
 30
0.0
 10
48.73374569786438
 20
109.4165554798082
 30
0.0
 10
51.15055768860179
 20
113.3090949722675
 30
0.0
  0
SPLINE
  5
109
330
2
100
AcDbEntity
  8
GEB-VERDECKT
 48
25.0
100
AcDbSpline
210
0.0
220
0.0
230
1.0
 70
     8
 71
     3
 72
    16
 73
    12
 74
     0
 42
0.0000000001
 43
0.0000000001
 40
0.0026009342830055
 40
0.0026009342830055
 40
0.0026009342830055
 40
0.0026009342830055
 40
2.288447646738548
 40
2.288447646738548
 40
4.621313960225681
 40
4.621313960225681
 40
5.462775317898849
 40
5.462775317898849
 40
5.947182010080225
 40
5.947182010080225
 40
6.130712173490197
 40
6.130712173490197
 40
6.130712173490197
 40
6.130712173490197
 10
-51.15055768866762
 20
113.3090949722675
 30
0.0
 10
-47.14631402873783
 20
106.8598235173741
 30
0.0
 10
-41.94489604411262
 20
101.2123085139321
 30
0.0
 10
-29.57067199809774
 20
92.056588449542
 30
0.0
 10
-22.47978695315874
 20
88.68312392495999
 30
0.0
 10
-12.22327506087356
 20
86.05571510179947
 30
0.0
 10
-9.458964691456003
 20
85.55012579473123
 30
0.0
 10
-5.063601139797583
 20
85.06022419564601
 30
0.0
 10
-3.451184830006127
 20
84.94595106033399
 30
0.0
 10
-1.22421758325197
 20
84.87800435603436
 30
0.0
 10
-0.6121045160364247
 20
84.86866979854005
 30
0.0
 10
-0.0000000000334239
 20
84.86866979854005
 30
0.0
  0
SPLINE
  5
10A
330
2
100
AcDbEntity
  8
GEB-VERDECKT
 48
25.0
100
AcDbSpline
210
0.0
220
0.0
230
1.0
 70
     8
 71
     3
 72
    28
 73
    24
 74
     0
 42
0.0000000001
 43
0.0000000001
 40
0.0003135965776972
 40
0.0003135965776972
 40
0.0003135965776972
 40
0.0003135965776972
 40
0.2718281047683244
 40
0.2718281047683244
 40
0.3877372981776429
 40
0.3877372981776429
 40
0.4023246078302649
 40
0.4023246078302649
 40
0.4094618536987931
 40
0.4094618536987931
 40
0.4141700486699519
 40
0.4141700486699519
 40
0.4184552481908977
 40
0.4184552481908977
 40
0.423853838747831
 40
0.423853838747831
 40
0.4337033556810461
 40
0.4337033556810461
 40
0.4587932383474159
 40
0.4587932383474159
 40
0.553888502114328
 40
0.553888502114328
 40
0.8728530404944914
 40
0.8728530404944914
 40
0.8728530404944914
 40
0.8728530404944914
 10
-51.15055768866728
 20
113.2718178697118
 30
0.0
 10
-51.62600203783461
 20
114.0414222134486
 30
0.0
 10
-52.00017346005075
 20
114.6868656553197
 30
0.0
 10
-52.36776230097951
 20
115.335885388117
 30
0.0
 10
-52.53648523818504
 20
115.6392022840653
 30
0.0
 10
-52.61712202242131
 20
115.7884150331986
 30
0.0
 10
-52.62592339280377
 20
115.8048086746398
 30
0.0
 10
-52.63548538363727
 20
115.8229353775589
 30
0.0
 10
-52.63837763602021
 20
115.8284878397872
 30
0.0
 10
-52.64144321666254
 20
115.8346314336323
 30
0.0
 10
-52.64218896207683
 20
115.8362317429797
 30
0.0
 10
-52.64239006367382
 20
115.8370992737886
 30
0.0
 10
-52.64194894554737
 20
115.8365355591828
 30
0.0
 10
-52.63993827022421
 20
115.8334140356694
 30
0.0
 10
-52.63814926853183
 20
115.8304444069895
 30
0.0
 10
-52.6322562015448
 20
115.8204690835673
 30
0.0
 10
-52.6271513748095
 20
115.8116328520977
 30
0.0
 10
-52.60936725006854
 20
115.7806639883686
 30
0.0
 10
-52.59217590639912
 20
115.7503865946022
 30
0.0
 10
-52.51217595041146
 20
115.6093091063887
 30
0.0
 10
-52.41556800098556
 20
115.4387640364347
 30
0.0
 10
-52.08135499706759
 20
114.8541588572307
 30
0.0
 10
-51.67806708114472
 20
114.1587064235224
 30
0.0
 10
-51.15055768866762
 20
113.3090949722675
 30
0.0
  0
SPLINE
  5
10B
330
2
100
AcDbEntity
  8
GEB-VERDECKT
 48
25.0
100
AcDbSpline
210
0.0
220
0.0
230
1.0
 70
     8
 71
     3
 72
    18
 73
    14
 74
     0
 42
0.0000000001
 43
0.0000000001
 40
6.130712173490306
 40
6.130712173490306
 40
6.130712173490306
 40
6.130712173490306
 40
6.358283137277893
 40
6.358283137277893
 40
6.861022006813983
 40
6.861022006813983
 40
7.812083211287353
 40
7.812083211287353
 40
9.010772298240878
 40
9.010772298240878
 40
10.8712306656534
 40
10.8712306656534
 40
12.25035599329195
 40
12.25035599329195
 40
12.25035599329195
 40
12.25035599329195
 10
-0.0000000000327418
 20
84.76398326886316
 30
0.0
 10
-0.7589881252400801
 20
84.76398326886316
 30
0.0
 10
-1.517963102847261
 20
84.77833523141999
 30
0.0
 10
-3.952277875398294
 20
84.87044617537277
 30
0.0
 10
-5.624651578013526
 20
85.00383975447084
 30
0.0
 10
-10.43828255690744
 20
85.59097058346868
 30
0.0
 10
-13.5519623356115
 20
86.22337428073819
 30
0.0
 10
-20.44422148838407
 20
88.20096633138495
 30
0.0
 10
-24.16768890719573
 20
89.6839502338671
 30
0.0
 10
-33.22377669230923
 20
94.38382647728564
 30
0.0
 10
-38.25509050180949
 20
98.07754110306962
 30
0.0
 10
-45.87546450374247
 20
105.7372702010729
 30
0.0
 10
-48.73374569792918
 20
109.3597112071252
 30
0.0
 10
-51.15055768866728
 20
113.2718178697118
 30
0.0
  0
SPLINE
  5
10C
330
2
100
AcDbEntity
  8
GEB-VERDECKT
 48
25.0
100
AcDbSpline
210
0.0
220
0.0
230
1.0
 70
     8
 71
     3
 72
    16
 73
    12
 74
     0
 42
0.0000000001
 43
0.0000000001
 40
0.0026009342830061
 40
0.0026009342830061
 40
0.0026009342830061
 40
0.0026009342830061
 40
2.288447646738543
 40
2.288447646738543
 40
4.621313960225665
 40
4.621313960225665
 40
5.462775317898823
 40
5.462775317898823
 40
5.94718201008025
 40
5.94718201008025
 40
6.130712173490306
 40
6.130712173490306
 40
6.130712173490306
 40
6.130712173490306
 10
51.15055768860202
 20
113.2718178697118
 30
0.0
 10
47.14631402867235
 20
106.7901269642276
 30
0.0
 10
41.94489604404679
 20
101.1274646729227
 30
0.0
 10
29.57067199803203
 20
91.95431550137334
 30
0.0
 10
22.47978695309303
 20
88.57931096210075
 30
0.0
 10
12.22327506080785
 20
85.95110350592255
 30
0.0
 10
9.458964691390292
 20
85.44546903808919
 30
0.0
 10
5.063601139731531
 20
84.95553804644329
 30
0.0
 10
3.451184829939734
 20
84.84126481783993
 30
0.0
 10
1.224217583186145
 20
84.77331780517591
 30
0.0
 10
0.6121045159706
 20
84.76398326886316
 30
0.0
 10
-0.0000000000327418
 20
84.76398326886316
 30
0.0
  0
SPLINE
  5
10D
330
2
100
AcDbEntity
  8
GEB-VERDECKT
 48
25.0
100
AcDbSpline
210
0.0
220
0.0
230
1.0
 70
     8
 71
     3
 72
    28
 73
    24
 74
     0
 42
0.0000000001
 43
0.0000000001
 40
0.0003135965776806
 40
0.0003135965776806
 40
0.0003135965776806
 40
0.0003135965776806
 40
0.2718281047685783
 40
0.2718281047685783
 40
0.3877372981810988
 40
0.3877372981810988
 40
0.4023246078226141
 40
0.4023246078226141
 40
0.4094618536817348
 40
0.4094618536817348
 40
0.4141700486469477
 40
0.4141700486469477
 40
0.4184552481625926
 40
0.4184552481625926
 40
0.4238538387125447
 40
0.4238538387125447
 40
0.433703355631724
 40
0.433703355631724
 40
0.4587932382663304
 40
0.4587932382663304
 40
0.5538885019295441
 40
0.5538885019295441
 40
0.8728530399546361
 40
0.8728530399546361
 40
0.8728530399546361
 40
0.8728530399546361
 10
51.15055768860429
 20
112.9492350265034
 30
0.0
 10
51.6260020377722
 20
113.7149900429033
 30
0.0
 10
52.00017345998799
 20
114.3550212247002
 30
0.0
 10
52.36776230091937
 20
114.994643224799
 30
0.0
 10
52.53648523812262
 20
115.2928707210177
 30
0.0
 10
52.61712202235116
 20
115.4343199948229
 30
0.0
 10
52.6259233927376
 20
115.4496919051453
 30
0.0
 10
52.63548538357418
 20
115.4660999029816
 30
0.0
 10
52.63837763595711
 20
115.4709981173532
 30
0.0
 10
52.64144321659978
 20
115.4759334511388
 30
0.0
 10
52.64218896201396
 20
115.4770288102081
 30
0.0
 10
52.64239006361094
 20
115.4768881773379
 30
0.0
 10
52.64194894548428
 20
115.4758573362913
 30
0.0
 10
52.63993827016133
 20
115.471711840131
 30
0.0
 10
52.63814926846908
 20
115.4682162297084
 30
0.0
 10
52.63225620148159
 20
115.4569013540099
 30
0.0
 10
52.62715137474629
 20
115.4473030587954
 30
0.0
 10
52.60936725000419
 20
115.4140947322394
 30
0.0
 10
52.59217590633307
 20
115.3824245866188
 30
0.0
 10
52.51217595034905
 20
115.2358942719023
 30
0.0
 10
52.41556800092417
 20
115.0619712314242
 30
0.0
 10
52.08135499700484
 20
114.4674770612682
 30
0.0
 10
51.67806708108241
 20
113.7658402353556
 30
0.0
 10
51.15055768860452
 20
112.9119579239479
 30
0.0
  0
SPLINE
  5
10E
330
2
100
AcDbEntity
  8
GEB-VERDECKT
 48
25.0
100
AcDbSpline
210
0.0
220
0.0
230
1.0
 70
     8
 71
     3
 72
    18
 73
    14
 74
     0
 42
0.0000000001
 43
0.0000000001
 40
6.130712173490197
 40
6.130712173490197
 40
6.130712173490197
 40
6.130712173490197
 40
6.358283137277771
 40
6.358283137277771
 40
6.861022006813965
 40
6.861022006813965
 40
7.812083211287662
 40
7.812083211287662
 40
9.010772298241615
 40
9.010772298241615
 40
10.87123066565453
 40
10.87123066565453
 40
12.25035599329303
 40
12.25035599329303
 40
12.25035599329303
 40
12.25035599329303
 10
-0.0000000000309228
 20
84.50880985277605
 30
0.0
 10
0.7589881251765292
 20
84.50880985277605
 30
0.0
 10
1.517963102783937
 20
84.5231618653886
 30
0.0
 10
3.952277875335539
 20
84.61527216668548
 30
0.0
 10
5.624651577950544
 20
84.74866501212886
 30
0.0
 10
10.4382825568448
 20
85.33575374886016
 30
0.0
 10
13.55196233554943
 20
85.96809016841792
 30
0.0
 10
20.44422148832291
 20
87.94493828966073
 30
0.0
 10
24.16768890713502
 20
89.42710012624695
 30
0.0
 10
33.22377669224875
 20
94.12188274133791
 30
0.0
 10
38.25509050174878
 20
97.80979310001828
 30
0.0
 10
45.87546450368108
 20
105.4473772999158
 30
0.0
 10
48.73374569786688
 20
109.0566955340442
 30
0.0
 10
51.15055768860429
 20
112.9492350265034
 30
0.0
  0
SPLINE
  5
10F
330
2
100
AcDbEntity
  8
GEB-VERDECKT
 48
25.0
100
AcDbSpline
210
0.0
220
0.0
230
1.0
 70
     8
 71
     3
 72
    16
 73
    12
 74
     0
 42
0.0000000001
 43
0.0000000001
 40
0.0026009342830053
 40
0.0026009342830053
 40
0.0026009342830053
 40
0.0026009342830053
 40
2.288447646738548
 40
2.288447646738548
 40
4.621313960225681
 40
4.621313960225681
 40
5.462775317898849
 40
5.462775317898849
 40
5.947182010080225
 40
5.947182010080225
 40
6.130712173490197
 40
6.130712173490197
 40
6.130712173490197
 40
6.130712173490197
 10
-51.15055768866501
 20
112.9492350265034
 30
0.0
 10
-47.14631402873544
 20
106.4999635716102
 30
0.0
 10
-41.94489604411012
 20
100.8524485681682
 30
0.0
 10
-29.57067199809535
 20
91.69672850377798
 30
0.0
 10
-22.47978695315623
 20
88.32326397919587
 30
0.0
 10
-12.22327506087117
 20
85.69585515603534
 30
0.0
 10
-9.458964691453616
 20
85.1902658489671
 30
0.0
 10
-5.063601139795196
 20
84.70036424988199
 30
0.0
 10
-3.451184830003512
 20
84.58609111456997
 30
0.0
 10
-1.224217583249583
 20
84.51814441027044
 30
0.0
 10
-0.6121045160340373
 20
84.50880985277605
 30
0.0
 10
-0.0000000000309228
 20
84.50880985277605
 30
0.0
  0
SPLINE
  5
110
330
2
100
AcDbEntity
  8
GEB-VERDECKT
 48
25.0
100
AcDbSpline
210
0.0
220
0.0
230
1.0
 70
     8
 71
     3
 72
    28
 73
    24
 74
     0
 42
0.0000000001
 43
0.0000000001
 40
0.0003135965776966
 40
0.0003135965776966
 40
0.0003135965776966
 40
0.0003135965776966
 40
0.27182810476832
 40
0.27182810476832
 40
0.3877372981811838
 40
0.3877372981811838
 40
0.4023246078318479
 40
0.4023246078318479
 40
0.4094618536992356
 40
0.4094618536992356
 40
0.4141700486694376
 40
0.4141700486694376
 40
0.4184552481893958
 40
0.4184552481893958
 40
0.4238538387450838
 40
0.4238538387450838
 40
0.4337033556760258
 40
0.4337033556760258
 40
0.4587932383366095
 40
0.4587932383366095
 40
0.5538885020816426
 40
0.5538885020816426
 40
0.8728530403884468
 40
0.8728530403884468
 40
0.8728530403884468
 40
0.8728530403884468
 10
-51.15055768866489
 20
112.9119579239479
 30
0.0
 10
-51.62600203783222
 20
113.6815622676845
 30
0.0
 10
-52.00017346004824
 20
114.3270057095556
 30
0.0
 10
-52.3677623009803
 20
114.9760254423588
 30
0.0
 10
-52.53648523818333
 20
115.2793423383025
 30
0.0
 10
-52.61712202241733
 20
115.4285550874317
 30
0.0
 10
-52.6259233928007
 20
115.4449487288744
 30
0.0
 10
-52.635485383635
 20
115.4630754317954
 30
0.0
 10
-52.6383776360176
 20
115.4686278940231
 30
0.0
 10
-52.64144321666003
 20
115.4747714878681
 30
0.0
 10
-52.64218896207444
 20
115.4763717972157
 30
0.0
 10
-52.64239006367143
 20
115.4772393280245
 30
0.0
 10
-52.64194894554487
 20
115.4766756134187
 30
0.0
 10
-52.63993827022182
 20
115.4735540899055
 30
0.0
 10
-52.63814926852922
 20
115.4705844612254
 30
0.0
 10
-52.6322562015423
 20
115.4606091378033
 30
0.0
 10
-52.627151374807
 20
115.4517729063336
 30
0.0
 10
-52.60936725006605
 20
115.4208040426047
 30
0.0
 10
-52.59217590639673
 20
115.3905266488382
 30
0.0
 10
-52.51217595040884
 20
115.2494491606247
 30
0.0
 10
-52.41556800098305
 20
115.0789040906706
 30
0.0
 10
-52.08135499706521
 20
114.4942989114665
 30
0.0
 10
-51.67806708114233
 20
113.7988464777584
 30
0.0
 10
-51.15055768866501
 20
112.9492350265034
 30
0.0
  0
SPLINE
  5
111
330
2
100
AcDbEntity
  8
GEB-VERDECKT
 48
25.0
100
AcDbSpline
210
0.0
220
0.0
230
1.0
 70
     8
 71
     3
 72
    18
 73
    14
 74
     0
 42
0.0000000001
 43
0.0000000001
 40
6.130712173490306
 40
6.130712173490306
 40
6.130712173490306
 40
6.130712173490306
 40
6.358283137277893
 40
6.358283137277893
 40
6.861022006813983
 40
6.861022006813983
 40
7.812083211287353
 40
7.812083211287353
 40
9.010772298240878
 40
9.010772298240878
 40
10.8712306656534
 40
10.8712306656534
 40
12.25035599329195
 40
12.25035599329195
 40
12.25035599329195
 40
12.25035599329195
 10
-0.0000000000302407
 20
84.40412332309927
 30
0.0
 10
-0.7589881252374653
 20
84.40412332309927
 30
0.0
 10
-1.517963102844873
 20
84.41847528565597
 30
0.0
 10
-3.952277875395907
 20
84.51058622960863
 30
0.0
 10
-5.624651578010912
 20
84.64397980870694
 30
0.0
 10
-10.43828255690505
 20
85.23111063770466
 30
0.0
 10
-13.55196233560912
 20
85.86351433497418
 30
0.0
 10
-20.44422148838157
 20
87.84110638562083
 30
0.0
 10
-24.16768890719334
 20
89.32409028810297
 30
0.0
 10
-33.22377669230685
 20
94.02396653152164
 30
0.0
 10
-38.25509050180699
 20
97.71768115730573
 30
0.0
 10
-45.87546450374008
 20
105.3774102553088
 30
0.0
 10
-48.73374569792679
 20
108.9998512613612
 30
0.0
 10
-51.15055768866489
 20
112.9119579239479
 30
0.0
  0
SPLINE
  5
112
330
2
100
AcDbEntity
  8
GEB-VERDECKT
 48
25.0
100
AcDbSpline
210
0.0
220
0.0
230
1.0
 70
     8
 71
     3
 72
    16
 73
    12
 74
     0
 42
0.0000000001
 43
0.0000000001
 40
0.0026009342830062
 40
0.0026009342830062
 40
0.0026009342830062
 40
0.0026009342830062
 40
2.288447646738543
 40
2.288447646738543
 40
4.621313960225665
 40
4.621313960225665
 40
5.462775317898823
 40
5.462775317898823
 40
5.94718201008025
 40
5.94718201008025
 40
6.130712173490306
 40
6.130712173490306
 40
6.130712173490306
 40
6.130712173490306
 10
51.15055768860452
 20
112.9119579239479
 30
0.0
 10
47.14631402867484
 20
106.4302670184636
 30
0.0
 10
41.9448960440493
 20
100.7676047271586
 30
0.0
 10
29.57067199803442
 20
91.59445555560944
 30
0.0
 10
22.47978695309553
 20
88.21945101633662
 30
0.0
 10
12.22327506081024
 20
85.59124356015855
 30
0.0
 10
9.458964691392679
 20
85.08560909232505
 30
0.0
 10
5.063601139733918
 20
84.59567810067914
 30
0.0
 10
3.451184829942121
 20
84.48140487207593
 30
0.0
 10
1.224217583188647
 20
84.41345785941189
 30
0.0
 10
0.6121045159729875
 20
84.40412332309927
 30
0.0
 10
-0.0000000000302407
 20
84.40412332309927
 30
0.0
  0
SPLINE
  5
113
330
2
100
AcDbEntity
  8
GEB-VERDECKT
 48
25.0
100
AcDbSpline
210
0.0
220
0.0
230
1.0
 70
     8
 71
     3
 72
    28
 73
    24
 74
     0
 42
0.0000000001
 43
0.0000000001
 40
0.0003135965776806
 40
0.0003135965776806
 40
0.0003135965776806
 40
0.0003135965776806
 40
0.2718281047685708
 40
0.2718281047685708
 40
0.3877372981814107
 40
0.3877372981814107
 40
0.4023246078280381
 40
0.4023246078280381
 40
0.4094618536916007
 40
0.4094618536916007
 40
0.4141700486598125
 40
0.4141700486598125
 40
0.4184552481781835
 40
0.4184552481781835
 40
0.4238538387315718
 40
0.4238538387315718
 40
0.4337033556570193
 40
0.4337033556570193
 40
0.4587932383075966
 40
0.4587932383075966
 40
0.5538885020313815
 40
0.5538885020313815
 40
0.8728530402595895
 40
0.8728530402595895
 40
0.8728530402595895
 40
0.8728530402595895
 10
51.15055768860679
 20
112.5893750807392
 30
0.0
 10
51.62600203777469
 20
113.3551300971393
 30
0.0
 10
52.00017345999049
 20
113.9951612789361
 30
0.0
 10
52.3677623009221
 20
114.6347832790354
 30
0.0
 10
52.53648523812535
 20
114.9330107752538
 30
0.0
 10
52.61712202235685
 20
115.0744600490643
 30
0.0
 10
52.62592339274147
 20
115.0898319593838
 30
0.0
 10
52.63548538357667
 20
115.1062399572179
 30
0.0
 10
52.63837763595962
 20
115.1111381715893
 30
0.0
 10
52.64144321660229
 20
115.1160735053747
 30
0.0
 10
52.64218896201646
 20
115.1171688644441
 30
0.0
 10
52.64239006361322
 20
115.1170282315738
 30
0.0
 10
52.641948945487
 20
115.1159973905273
 30
0.0
 10
52.63993827016384
 20
115.1118518943669
 30
0.0
 10
52.63814926847158
 20
115.1083562839445
 30
0.0
 10
52.63225620148432
 20
115.0970414082459
 30
0.0
 10
52.62715137474856
 20
115.0874431130314
 30
0.0
 10
52.60936725000647
 20
115.0542347864755
 30
0.0
 10
52.59217590633557
 20
115.0225646408549
 30
0.0
 10
52.51217595035154
 20
114.8760343261383
 30
0.0
 10
52.41556800092666
 20
114.7021112856603
 30
0.0
 10
52.08135499700734
 20
114.1076171155042
 30
0.0
 10
51.67806708108492
 20
113.4059802895919
 30
0.0
 10
51.15055768860703
 20
112.5520979781838
 30
0.0
  0
SPLINE
  5
114
330
2
100
AcDbEntity
  8
GEB-VERDECKT
 48
25.0
100
AcDbSpline
210
0.0
220
0.0
230
1.0
 70
     8
 71
     3
 72
    18
 73
    14
 74
     0
 42
0.0000000001
 43
0.0000000001
 40
6.130712173490197
 40
6.130712173490197
 40
6.130712173490197
 40
6.130712173490197
 40
6.358283137277771
 40
6.358283137277771
 40
6.861022006813965
 40
6.861022006813965
 40
7.812083211287662
 40
7.812083211287662
 40
9.010772298241615
 40
9.010772298241615
 40
10.87123066565453
 40
10.87123066565453
 40
12.25035599329303
 40
12.25035599329303
 40
12.25035599329303
 40
12.25035599329303
 10
-0.0000000000284217
 20
84.14894990701203
 30
0.0
 10
0.7589881251790303
 20
84.14894990701203
 30
0.0
 10
1.517963102786325
 20
84.16330191962471
 30
0.0
 10
3.95227787533804
 20
84.25541222092158
 30
0.0
 10
5.624651577953045
 20
84.38880506636484
 30
0.0
 10
10.43828255684741
 20
84.97589380309614
 30
0.0
 10
13.55196233555182
 20
85.6082302226539
 30
0.0
 10
20.4442214883253
 20
87.58507834389661
 30
0.0
 10
24.16768890713752
 20
89.06724018048283
 30
0.0
 10
33.22377669225125
 20
93.76202279557402
 30
0.0
 10
38.25509050175128
 20
97.44993315425427
 30
0.0
 10
45.87546450368336
 20
105.0875173541519
 30
0.0
 10
48.73374569786938
 20
108.6968355882802
 30
0.0
 10
51.15055768860679
 20
112.5893750807392
 30
0.0
  0
SPLINE
  5
115
330
2
100
AcDbEntity
  8
GEB-VERDECKT
 48
25.0
100
AcDbSpline
210
0.0
220
0.0
230
1.0
 70
     8
 71
     3
 72
    16
 73
    12
 74
     0
 42
0.0000000001
 43
0.0000000001
 40
0.0026009342830054
 40
0.0026009342830054
 40
0.0026009342830054
 40
0.0026009342830054
 40
2.288447646738548
 40
2.288447646738548
 40
4.621313960225681
 40
4.621313960225681
 40
5.462775317898849
 40
5.462775317898849
 40
5.947182010080225
 40
5.947182010080225
 40
6.130712173490197
 40
6.130712173490197
 40
6.130712173490197
 40
6.130712173490197
 10
-51.15055768866262
 20
112.5893750807392
 30
0.0
 10
-47.14631402873306
 20
106.1401036258461
 30
0.0
 10
-41.94489604410773
 20
100.4925886224041
 30
0.0
 10
-29.57067199809296
 20
91.33686855801398
 30
0.0
 10
-22.47978695315385
 20
87.96340403343197
 30
0.0
 10
-12.22327506086879
 20
85.33599521027145
 30
0.0
 10
-9.458964691451228
 20
84.83040590320319
 30
0.0
 10
-5.063601139792581
 20
84.3405043041181
 30
0.0
 10
-3.451184830001125
 20
84.22623116880595
 30
0.0
 10
-1.224217583247082
 20
84.15828446450632
 30
0.0
 10
-0.6121045160316499
 20
84.14894990701203
 30
0.0
 10
-0.0000000000284217
 20
84.14894990701203
 30
0.0
  0
SPLINE
  5
116
330
2
100
AcDbEntity
  8
GEB-VERDECKT
 48
25.0
100
AcDbSpline
210
0.0
220
0.0
230
1.0
 70
     8
 71
     3
 72
    28
 73
    24
 74
     0
 42
0.0000000001
 43
0.0000000001
 40
0.0003135965776971
 40
0.0003135965776971
 40
0.0003135965776971
 40
0.0003135965776971
 40
0.2718281047684877
 40
0.2718281047684877
 40
0.3877372981793499
 40
0.3877372981793499
 40
0.4023246078319258
 40
0.4023246078319258
 40
0.4094618537003204
 40
0.4094618537003204
 40
0.4141700486713876
 40
0.4141700486713876
 40
0.4184552481922495
 40
0.4184552481922495
 40
0.4238538387490756
 40
0.4238538387490756
 40
0.4337033556820933
 40
0.4337033556820933
 40
0.4587932383479674
 40
0.4587932383479674
 40
0.5538885021130751
 40
0.5538885021130751
 40
0.8728530404872195
 40
0.8728530404872195
 40
0.8728530404872195
 40
0.8728530404872195
 10
-51.15055768866227
 20
112.5520979781838
 30
0.0
 10
-51.62600203783006
 20
113.321702321921
 30
0.0
 10
-52.00017346004597
 20
113.9671457637919
 30
0.0
 10
-52.36776230097598
 20
114.6161654965911
 30
0.0
 10
-52.53648523818049
 20
114.9194823925377
 30
0.0
 10
-52.61712202241631
 20
115.0686951416703
 30
0.0
 10
-52.62592339279876
 20
115.0850887831116
 30
0.0
 10
-52.63548538363227
 20
115.1032154860309
 30
0.0
 10
-52.63837763601521
 20
115.1087679482592
 30
0.0
 10
-52.64144321665776
 20
115.1149115421044
 30
0.0
 10
-52.64218896207205
 20
115.1165118514516
 30
0.0
 10
-52.64239006366882
 20
115.1173793822605
 30
0.0
 10
-52.64194894554248
 20
115.1168156676547
 30
0.0
 10
-52.63993827021943
 20
115.1136941441414
 30
0.0
 10
-52.63814926852683
 20
115.1107245154613
 30
0.0
 10
-52.6322562015398
 20
115.1007491920393
 30
0.0
 10
-52.62715137480461
 20
115.0919129605696
 30
0.0
 10
-52.60936725006366
 20
115.0609440968405
 30
0.0
 10
-52.59217590639423
 20
115.0306667030743
 30
0.0
 10
-52.51217595040646
 20
114.8895892148607
 30
0.0
 10
-52.41556800098056
 20
114.7190441449067
 30
0.0
 10
-52.08135499706282
 20
114.1344389657024
 30
0.0
 10
-51.67806708113994
 20
113.4389865319944
 30
0.0
 10
-51.15055768866262
 20
112.5893750807392
 30
0.0
  0
SPLINE
  5
117
330
2
100
AcDbEntity
  8
GEB-VERDECKT
 48
25.0
100
AcDbSpline
210
0.0
220
0.0
230
1.0
 70
     8
 71
     3
 72
    18
 73
    14
 74
     0
 42
0.0000000001
 43
0.0000000001
 40
6.130712173490305
 40
6.130712173490305
 40
6.130712173490305
 40
6.130712173490305
 40
6.358283137277892
 40
6.358283137277892
 40
6.861022006813982
 40
6.861022006813982
 40
7.812083211287352
 40
7.812083211287352
 40
9.010772298240876
 40
9.010772298240876
 40
10.87123066565339
 40
10.87123066565339
 40
12.25035599329195
 40
12.25035599329195
 40
12.25035599329195
 40
12.25035599329195
 10
-0.0000000000277396
 20
84.04426337733514
 30
0.0
 10
-0.7589881252350779
 20
84.04426337733514
 30
0.0
 10
-1.517963102842486
 20
84.05861533989195
 30
0.0
 10
-3.952277875393519
 20
84.15072628384473
 30
0.0
 10
-5.624651578008524
 20
84.28411986294282
 30
0.0
 10
-10.43828255690266
 20
84.87125069194076
 30
0.0
 10
-13.55196233560673
 20
85.50365438921017
 30
0.0
 10
-20.44422148837918
 20
87.48124643985693
 30
0.0
 10
-24.16768890719095
 20
88.96423034233908
 30
0.0
 10
-33.22377669230446
 20
93.66410658575762
 30
0.0
 10
-38.2550905018046
 20
97.35782121154171
 30
0.0
 10
-45.8754645037377
 20
105.0175503095447
 30
0.0
 10
-48.7337456979244
 20
108.6399913155972
 30
0.0
 10
-51.15055768866227
 20
112.5520979781838
 30
0.0
  0
SPLINE
  5
118
330
2
100
AcDbEntity
  8
GEB-VERDECKT
 48
25.0
100
AcDbSpline
210
0.0
220
0.0
230
1.0
 70
     8
 71
     3
 72
    16
 73
    12
 74
     0
 42
0.0000000001
 43
0.0000000001
 40
0.0026009342830062
 40
0.0026009342830062
 40
0.0026009342830062
 40
0.0026009342830062
 40
2.288447646738542
 40
2.288447646738542
 40
4.621313960225664
 40
4.621313960225664
 40
5.462775317898822
 40
5.462775317898822
 40
5.947182010080249
 40
5.947182010080249
 40
6.130712173490305
 40
6.130712173490305
 40
6.130712173490305
 40
6.130712173490305
 10
51.15055768860703
 20
112.5520979781838
 30
0.0
 10
47.14631402867712
 20
106.0704070726995
 30
0.0
 10
41.9448960440518
 20
100.4077447813947
 30
0.0
 10
29.5706719980368
 20
91.23459560984532
 30
0.0
 10
22.47978695309791
 20
87.85959107057271
 30
0.0
 10
12.22327506081262
 20
85.23138361439441
 30
0.0
 10
9.458964691395067
 20
84.72574914656116
 30
0.0
 10
5.06360113973642
 20
84.23581815491502
 30
0.0
 10
3.451184829944736
 20
84.12154492631179
 30
0.0
 10
1.224217583191034
 20
84.053597913648
 30
0.0
 10
0.6121045159753749
 20
84.04426337733514
 30
0.0
 10
-0.0000000000277396
 20
84.04426337733514
 30
0.0
  0
LINE
  5
119
330
2
100
AcDbEntity
  8
GEB-VERDECKT
 48
25.0
100
AcDbLine
 10
58.83682945228497
 20
131.0491445594375
 30
0.0
 11
58.83682945227064
 21
133.1515990304466
 31
0.0
  0
ELLIPSE
  5
11A
330
2
100
AcDbEntity
  8
GEB-VERDECKT
 48
25.0
100
AcDbEllipse
 10
-0.0000000000230784
 20
143.5372473292107
 30
0.0
 11
-60.14999999999989
 21
-0.0000000003804357
 31
0.0
210
0.0
220
0.0
230
1.0
 40
0.9990482215818607
 41
0.2093394323506445
 42
2.932253221226487
  0
ELLIPSE
  5
11B
330
2
100
AcDbEntity
  8
GEB-VERDECKT
 48
25.0
100
AcDbEllipse
 10
-0.0000000000230784
 20
143.5372473292106
 30
0.0
 11
60.14999999999988
 21
0.0000000003829714
 31
0.0
210
0.0
220
0.0
230
1.0
 40
0.9990482215818603
 41
0.2093394323506024
 42
2.932253221226445
  0
LINE
  5
11C
330
2
100
AcDbEntity
  8
GEB-VERDECKT
 48
25.0
100
AcDbLine
 10
58.83682945227088
 20
158.1278045699931
 30
0.0
 11
58.8368294522852
 21
156.0253500989839
 31
0.0
  0
SPLINE
  5
11D
330
2
100
AcDbEntity
  8
GEB-VERDECKT
 48
25.0
100
AcDbSpline
210
0.0
220
0.0
230
1.0
 70
     8
 71
     3
 72
    28
 73
    24
 74
     0
 42
0.0000000001
 43
0.0000000001
 40
0.0003135965776838
 40
0.0003135965776838
 40
0.0003135965776838
 40
0.0003135965776838
 40
0.27182810476805
 40
0.27182810476805
 40
0.387737298180165
 40
0.387737298180165
 40
0.4023246078165032
 40
0.4023246078165032
 40
0.4094618536715683
 40
0.4094618536715683
 40
0.4141700486340024
 40
0.4141700486340024
 40
0.4184552481471301
 40
0.4184552481471301
 40
0.423853838693815
 40
0.423853838693815
 40
0.4337033556057762
 40
0.4337033556057762
 40
0.4587932382218421
 40
0.4587932382218421
 40
0.5538885018049973
 40
0.5538885018049973
 40
0.8728530395660232
 40
0.8728530395660232
 40
0.8728530395660232
 40
0.8728530395660232
 10
-51.15055768866193
 20
175.8266163624609
 30
0.0
 10
-51.62600203782881
 20
175.0570120187249
 30
0.0
 10
-52.00017346004506
 20
174.4115685768535
 30
0.0
 10
-52.36776230097689
 20
173.7625488440508
 30
0.0
 10
-52.53648523818014
 20
173.4592319481065
 30
0.0
 10
-52.6171220224054
 20
173.3100191989932
 30
0.0
 10
-52.62592339279354
 20
173.2936255575419
 30
0.0
 10
-52.63548538363147
 20
173.2754988546143
 30
0.0
 10
-52.63837763601452
 20
173.2699463923857
 30
0.0
 10
-52.64144321665719
 20
173.2638027985404
 30
0.0
 10
-52.64218896207125
 20
173.2622024891932
 30
0.0
 10
-52.64239006366813
 20
173.2613349583844
 30
0.0
 10
-52.64194894554169
 20
173.2618986729902
 30
0.0
 10
-52.63993827021863
 20
173.2650201965032
 30
0.0
 10
-52.63814926852683
 20
173.2679898251822
 30
0.0
 10
-52.63225620153912
 20
173.2779651486054
 30
0.0
 10
-52.62715137480336
 20
173.286801380076
 30
0.0
 10
-52.60936725006217
 20
173.3177702438051
 30
0.0
 10
-52.5921759063923
 20
173.3480476375728
 30
0.0
 10
-52.51217595040589
 20
173.4891251257836
 30
0.0
 10
-52.41556800098044
 20
173.6596701957371
 30
0.0
 10
-52.08135499706213
 20
174.2442753749417
 30
0.0
 10
-51.67806708113949
 20
174.9397278086494
 30
0.0
 10
-51.15055768866159
 20
175.7893392599054
 30
0.0
  0
SPLINE
  5
11E
330
2
100
AcDbEntity
  8
GEB-VERDECKT
 48
25.0
100
AcDbSpline
210
0.0
220
0.0
230
1.0
 70
     8
 71
     3
 72
    18
 73
    14
 74
     0
 42
0.0000000001
 43
0.0000000001
 40
6.130712173490141
 40
6.130712173490141
 40
6.130712173490141
 40
6.130712173490141
 40
6.358283137277722
 40
6.358283137277722
 40
6.861022006813825
 40
6.861022006813825
 40
7.812083211287131
 40
7.812083211287131
 40
9.010772298240615
 40
9.010772298240615
 40
10.87123066565299
 40
10.87123066565299
 40
12.25035599329147
 40
12.25035599329147
 40
12.25035599329147
 40
12.25035599329147
 10
-0.0000000000270575
 20
204.3344509633095
 30
0.0
 10
-0.7589881252345095
 20
204.3344509633095
 30
0.0
 10
-1.517963102841804
 20
204.3200990007528
 30
0.0
 10
-3.952277875392724
 20
204.2279880568003
 30
0.0
 10
-5.624651578007956
 20
204.094594477702
 30
0.0
 10
-10.43828255690187
 20
203.5074636487041
 30
0.0
 10
-13.55196233560605
 20
202.8750599514347
 30
0.0
 10
-20.44422148837873
 20
200.8974679007879
 30
0.0
 10
-24.1676889071905
 20
199.4144839983055
 30
0.0
 10
-33.22377669230377
 20
194.7146077548871
 30
0.0
 10
-38.25509050180404
 20
191.0208931291031
 30
0.0
 10
-45.87546450373714
 20
183.3611640311001
 30
0.0
 10
-48.73374569792384
 20
179.7387230250476
 30
0.0
 10
-51.15055768866193
 20
175.8266163624609
 30
0.0
  0
SPLINE
  5
11F
330
2
100
AcDbEntity
  8
GEB-VERDECKT
 48
25.0
100
AcDbSpline
210
0.0
220
0.0
230
1.0
 70
     8
 71
     3
 72
    16
 73
    12
 74
     0
 42
0.0000000001
 43
0.0000000001
 40
0.0026009342830066
 40
0.0026009342830066
 40
0.0026009342830066
 40
0.0026009342830066
 40
2.288447646738537
 40
2.288447646738537
 40
4.621313960225662
 40
4.621313960225662
 40
5.462775317898775
 40
5.462775317898775
 40
5.947182010080139
 40
5.947182010080139
 40
6.130712173490141
 40
6.130712173490141
 40
6.130712173490141
 40
6.130712173490141
 10
51.15055768860748
 20
175.8266163624609
 30
0.0
 10
47.14631402867758
 20
182.3083072679453
 30
0.0
 10
41.94489604405226
 20
187.9709695592501
 30
0.0
 10
29.57067199803726
 20
197.1441187307996
 30
0.0
 10
22.47978695309825
 20
200.5191232700722
 30
0.0
 10
12.22327506081319
 20
203.1473307262502
 30
0.0
 10
9.458964691395976
 20
203.6529651940837
 30
0.0
 10
5.063601139737784
 20
204.1428961857296
 30
0.0
 10
3.451184829946328
 20
204.257169414333
 30
0.0
 10
1.224217583191716
 20
204.3251164269971
 30
0.0
 10
0.6121045159761707
 20
204.3344509633095
 30
0.0
 10
-0.0000000000270575
 20
204.3344509633095
 30
0.0
  0
SPLINE
  5
120
330
2
100
AcDbEntity
  8
GEB-VERDECKT
 48
25.0
100
AcDbSpline
210
0.0
220
0.0
230
1.0
 70
     8
 71
     3
 72
    28
 73
    24
 74
     0
 42
0.0000000001
 43
0.0000000001
 40
0.0003135965776946
 40
0.0003135965776946
 40
0.0003135965776946
 40
0.0003135965776946
 40
0.2718281047685646
 40
0.2718281047685646
 40
0.3877372981792213
 40
0.3877372981792213
 40
0.4023246078318028
 40
0.4023246078318028
 40
0.4094618537003959
 40
0.4094618537003959
 40
0.4141700486716501
 40
0.4141700486716501
 40
0.418455248192727
 40
0.418455248192727
 40
0.4238538387497428
 40
0.4238538387497428
 40
0.4337033556822327
 40
0.4337033556822327
 40
0.4587932383512804
 40
0.4587932383512804
 40
0.5538885021516902
 40
0.5538885021516902
 40
0.8728530406378743
 40
0.8728530406378743
 40
0.8728530406378743
 40
0.8728530406378743
 10
51.1505576886077
 20
175.7893392599054
 30
0.0
 10
51.62600203777561
 20
175.0235842435056
 30
0.0
 10
52.0001734599914
 20
174.3835530617086
 30
0.0
 10
52.36776230092073
 20
173.743931061613
 30
0.0
 10
52.53648523812557
 20
173.4457035653918
 30
0.0
 10
52.6171220223614
 20
173.3042542915737
 30
0.0
 10
52.62592339274397
 20
173.2888823812582
 30
0.0
 10
52.63548538357736
 20
173.2724743834267
 30
0.0
 10
52.63837763596029
 20
173.2675761690556
 30
0.0
 10
52.64144321660296
 20
173.2626408352703
 30
0.0
 10
52.64218896201715
 20
173.2615454762007
 30
0.0
 10
52.64239006361413
 20
173.261686109071
 30
0.0
 10
52.64194894548746
 20
173.2627169501174
 30
0.0
 10
52.63993827016452
 20
173.2668624462778
 30
0.0
 10
52.63814926847203
 20
173.2703580567006
 30
0.0
 10
52.63225620148478
 20
173.2816729323989
 30
0.0
 10
52.62715137474947
 20
173.2912712276132
 30
0.0
 10
52.6093672500067
 20
173.3244795541702
 30
0.0
 10
52.59217590633511
 20
173.356149699792
 30
0.0
 10
52.512175950352
 20
173.5026800145067
 30
0.0
 10
52.41556800092689
 20
173.6766030549852
 30
0.0
 10
52.08135499700756
 20
174.2710972251408
 30
0.0
 10
51.67806708108514
 20
174.9727340510534
 30
0.0
 10
51.15055768860748
 20
175.8266163624609
 30
0.0
  0
SPLINE
  5
121
330
2
100
AcDbEntity
  8
GEB-VERDECKT
 48
25.0
100
AcDbSpline
210
0.0
220
0.0
230
1.0
 70
     8
 71
     3
 72
    18
 73
    14
 74
     0
 42
0.0000000001
 43
0.0000000001
 40
6.130712173490147
 40
6.130712173490147
 40
6.130712173490147
 40
6.130712173490147
 40
6.358283137277687
 40
6.358283137277687
 40
6.861022006813815
 40
6.861022006813815
 40
7.812083211287264
 40
7.812083211287264
 40
9.010772298240867
 40
9.010772298240867
 40
10.87123066565347
 40
10.87123066565347
 40
12.25035599329209
 40
12.25035599329209
 40
12.25035599329209
 40
12.25035599329209
 10
-0.0000000000263753
 20
204.2297644336327
 30
0.0
 10
0.758988125180963
 20
204.2297644336327
 30
0.0
 10
1.517963102788144
 20
204.2154124210201
 30
0.0
 10
3.952277875339746
 20
204.1233021197233
 30
0.0
 10
5.624651577954637
 20
203.9899092742798
 30
0.0
 10
10.43828255684821
 20
203.4028205375489
 30
0.0
 10
13.55196233555261
 20
202.7704841179911
 30
0.0
 10
20.44422148832518
 20
200.7936359967489
 30
0.0
 10
24.16768890713695
 20
199.311474160163
 30
0.0
 10
33.22377669225011
 20
194.6166915450728
 30
0.0
 10
38.25509050175014
 20
190.9287811863928
 30
0.0
 10
45.87546450368336
 20
183.2911969864949
 30
0.0
 10
48.73374569786983
 20
179.6818787523657
 30
0.0
 10
51.1505576886077
 20
175.7893392599054
 30
0.0
  0
SPLINE
  5
122
330
2
100
AcDbEntity
  8
GEB-VERDECKT
 48
25.0
100
AcDbSpline
210
0.0
220
0.0
230
1.0
 70
     8
 71
     3
 72
    16
 73
    12
 74
     0
 42
0.0000000001
 43
0.0000000001
 40
0.0026009342830057
 40
0.0026009342830057
 40
0.0026009342830057
 40
0.0026009342830057
 40
2.288447646738526
 40
2.288447646738526
 40
4.62131396022564
 40
4.62131396022564
 40
5.462775317898763
 40
5.462775317898763
 40
5.947182010080127
 40
5.947182010080127
 40
6.130712173490147
 40
6.130712173490147
 40
6.130712173490147
 40
6.130712173490147
 10
-51.15055768866159
 20
175.7893392599054
 30
0.0
 10
-47.14631402873158
 20
182.2386107147986
 30
0.0
 10
-41.94489604410626
 20
187.8861257182404
 30
0.0
 10
-29.57067199809103
 20
197.0418457826308
 30
0.0
 10
-22.47978695315214
 20
200.4153103072126
 30
0.0
 10
-12.22327506086708
 20
203.0427191303731
 30
0.0
 10
-9.458964691449637
 20
203.5483084374416
 30
0.0
 10
-5.063601139790648
 20
204.0382100365268
 30
0.0
 10
-3.451184829998851
 20
204.1524831718389
 30
0.0
 10
-1.224217583245263
 20
204.2204298761385
 30
0.0
 10
-0.6121045160296035
 20
204.2297644336327
 30
0.0
 10
-0.0000000000263753
 20
204.2297644336327
 30
0.0
  0
SPLINE
  5
123
330
2
100
AcDbEntity
  8
GEB-VERDECKT
 48
25.0
100
AcDbSpline
210
0.0
220
0.0
230
1.0
 70
     8
 71
     3
 72
    28
 73
    24
 74
     0
 42
0.0000000001
 43
0.0000000001
 40
0.0003135965776838
 40
0.0003135965776838
 40
0.0003135965776838
 40
0.0003135965776838
 40
0.2718281047683098
 40
0.2718281047683098
 40
0.3877372981820208
 40
0.3877372981820208
 40
0.4023246078199079
 40
0.4023246078199079
 40
0.4094618536761372
 40
0.4094618536761372
 40
0.4141700486393469
 40
0.4141700486393469
 40
0.4184552481531843
 40
0.4184552481531843
 40
0.4238538387007652
 40
0.4238538387007652
 40
0.4337033556144
 40
0.4337033556144
 40
0.4587932382340488
 40
0.4587932382340488
 40
0.5538885018260409
 40
0.5538885018260409
 40
0.8728530396201261
 40
0.8728530396201261
 40
0.8728530396201261
 40
0.8728530396201261
 10
-51.15055768866432
 20
176.1864763082249
 30
0.0
 10
-51.62600203783177
 20
175.4168719644882
 30
0.0
 10
-52.00017346004779
 20
174.7714285226171
 30
0.0
 10
-52.36776230098064
 20
174.1224087898126
 30
0.0
 10
-52.53648523818288
 20
173.8190918938701
 30
0.0
 10
-52.61712202240869
 20
173.6698791447559
 30
0.0
 10
-52.62592339279638
 20
173.6534855033051
 30
0.0
 10
-52.63548538363386
 20
173.6353588003783
 30
0.0
 10
-52.63837763601691
 20
173.6298063381498
 30
0.0
 10
-52.64144321665958
 20
173.6236627443043
 30
0.0
 10
-52.64218896207376
 20
173.6220624349572
 30
0.0
 10
-52.64239006367052
 20
173.6211949041483
 30
0.0
 10
-52.64194894554407
 20
173.6217586187542
 30
0.0
 10
-52.63993827022125
 20
173.6248801422673
 30
0.0
 10
-52.63814926852922
 20
173.6278497709462
 30
0.0
 10
-52.63225620154151
 20
173.6378250943694
 30
0.0
 10
-52.62715137480575
 20
173.6466613258401
 30
0.0
 10
-52.60936725006513
 20
173.6776301895686
 30
0.0
 10
-52.59217590639559
 20
173.7079075833352
 30
0.0
 10
-52.51217595040817
 20
173.8489850715481
 30
0.0
 10
-52.41556800098215
 20
174.0195301415023
 30
0.0
 10
-52.08135499706464
 20
174.6041353207056
 30
0.0
 10
-51.67806708114188
 20
175.2995877544135
 30
0.0
 10
-51.15055768866409
 20
176.1491992056694
 30
0.0
  0
SPLINE
  5
124
330
2
100
AcDbEntity
  8
GEB-VERDECKT
 48
25.0
100
AcDbSpline
210
0.0
220
0.0
230
1.0
 70
     8
 71
     3
 72
    18
 73
    14
 74
     0
 42
0.0000000001
 43
0.0000000001
 40
6.130712173490141
 40
6.130712173490141
 40
6.130712173490141
 40
6.130712173490141
 40
6.358283137277722
 40
6.358283137277722
 40
6.861022006813825
 40
6.861022006813825
 40
7.812083211287131
 40
7.812083211287131
 40
9.010772298240615
 40
9.010772298240615
 40
10.87123066565299
 40
10.87123066565299
 40
12.25035599329147
 40
12.25035599329147
 40
12.25035599329147
 40
12.25035599329147
 10
-0.0000000000294449
 20
204.6943109090735
 30
0.0
 10
-0.7589881252370106
 20
204.6943109090735
 30
0.0
 10
-1.517963102844191
 20
204.6799589465168
 30
0.0
 10
-3.952277875395111
 20
204.5878480025642
 30
0.0
 10
-5.624651578010343
 20
204.4544544234659
 30
0.0
 10
-10.43828255690437
 20
203.8673235944682
 30
0.0
 10
-13.55196233560855
 20
203.2349198971985
 30
0.0
 10
-20.44422148838135
 20
201.257327846552
 30
0.0
 10
-24.16768890719288
 20
199.7743439440696
 30
0.0
 10
-33.22377669230628
 20
195.0744677006512
 30
0.0
 10
-38.25509050180654
 20
191.3807530748672
 30
0.0
 10
-45.87546450373952
 20
183.7210239768642
 30
0.0
 10
-48.73374569792622
 20
180.0985829708118
 30
0.0
 10
-51.15055768866432
 20
176.1864763082249
 30
0.0
  0
SPLINE
  5
125
330
2
100
AcDbEntity
  8
GEB-VERDECKT
 48
25.0
100
AcDbSpline
210
0.0
220
0.0
230
1.0
 70
     8
 71
     3
 72
    16
 73
    12
 74
     0
 42
0.0000000001
 43
0.0000000001
 40
0.0026009342830066
 40
0.0026009342830066
 40
0.0026009342830066
 40
0.0026009342830066
 40
2.288447646738537
 40
2.288447646738537
 40
4.621313960225662
 40
4.621313960225662
 40
5.462775317898775
 40
5.462775317898775
 40
5.947182010080139
 40
5.947182010080139
 40
6.130712173490141
 40
6.130712173490141
 40
6.130712173490141
 40
6.130712173490141
 10
51.1505576886052
 20
176.1864763082249
 30
0.0
 10
47.14631402867508
 20
182.6681672137092
 30
0.0
 10
41.94489604404998
 20
188.3308295050142
 30
0.0
 10
29.57067199803487
 20
197.5039786765637
 30
0.0
 10
22.47978695309575
 20
200.8789832158363
 30
0.0
 10
12.2232750608108
 20
203.5071906720143
 30
0.0
 10
9.458964691393362
 20
204.0128251398478
 30
0.0
 10
5.063601139735396
 20
204.5027561314937
 30
0.0
 10
3.45118482994394
 20
204.6170293600969
 30
0.0
 10
1.224217583189329
 20
204.6849763727609
 30
0.0
 10
0.6121045159736696
 20
204.6943109090735
 30
0.0
 10
-0.0000000000294449
 20
204.6943109090735
 30
0.0
  0
SPLINE
  5
126
330
2
100
AcDbEntity
  8
GEB-VERDECKT
 48
25.0
100
AcDbSpline
210
0.0
220
0.0
230
1.0
 70
     8
 71
     3
 72
    28
 73
    24
 74
     0
 42
0.0000000001
 43
0.0000000001
 40
0.0003135965776941
 40
0.0003135965776941
 40
0.0003135965776941
 40
0.0003135965776941
 40
0.2718281047685033
 40
0.2718281047685033
 40
0.3877372981797977
 40
0.3877372981797977
 40
0.4023246078276994
 40
0.4023246078276994
 40
0.4094618536919893
 40
0.4094618536919893
 40
0.4141700486610051
 40
0.4141700486610051
 40
0.4184552481801078
 40
0.4184552481801078
 40
0.4238538387340866
 40
0.4238538387340866
 40
0.4337033556610864
 40
0.4337033556610864
 40
0.4587932383144921
 40
0.4587932383144921
 40
0.5538885020434936
 40
0.5538885020434936
 40
0.8728530403033174
 40
0.8728530403033174
 40
0.8728530403033174
 40
0.8728530403033174
 10
51.15055768860543
 20
176.1491992056694
 30
0.0
 10
51.62600203777287
 20
175.3834441892698
 30
0.0
 10
52.0001734599889
 20
174.7434130074729
 30
0.0
 10
52.36776230091891
 20
174.1037910073758
 30
0.0
 10
52.5364852381233
 20
173.8055635111557
 30
0.0
 10
52.61712202235594
 20
173.6641142373428
 30
0.0
 10
52.62592339274011
 20
173.6487423270243
 30
0.0
 10
52.63548538357486
 20
173.6323343291912
 30
0.0
 10
52.6383776359578
 20
173.6274361148195
 30
0.0
 10
52.64144321660069
 20
173.622500781034
 30
0.0
 10
52.64218896201464
 20
173.6214054219647
 30
0.0
 10
52.6423900636114
 20
173.621546054835
 30
0.0
 10
52.64194894548518
 20
173.6225768958813
 30
0.0
 10
52.63993827016202
 20
173.6267223920419
 30
0.0
 10
52.63814926846976
 20
173.6302180024646
 30
0.0
 10
52.63225620148251
 20
173.6415328781629
 30
0.0
 10
52.62715137474697
 20
173.6511311733775
 30
0.0
 10
52.60936725000533
 20
173.6843394999323
 30
0.0
 10
52.59217590633511
 20
173.7160096455518
 30
0.0
 10
52.51217595034859
 20
173.8625399602726
 30
0.0
 10
52.41556800092144
 20
174.0364630007544
 30
0.0
 10
52.08135499700529
 20
174.6309571709047
 30
0.0
 10
51.67806708108265
 20
175.3325939968176
 30
0.0
 10
51.1505576886052
 20
176.1864763082249
 30
0.0
  0
SPLINE
  5
127
330
2
100
AcDbEntity
  8
GEB-VERDECKT
 48
25.0
100
AcDbSpline
210
0.0
220
0.0
230
1.0
 70
     8
 71
     3
 72
    18
 73
    14
 74
     0
 42
0.0000000001
 43
0.0000000001
 40
6.130712173490252
 40
6.130712173490252
 40
6.130712173490252
 40
6.130712173490252
 40
6.358283137277815
 40
6.358283137277815
 40
6.861022006813891
 40
6.861022006813891
 40
7.812083211287187
 40
7.812083211287187
 40
9.010772298240585
 40
9.010772298240585
 40
10.87123066565289
 40
10.87123066565289
 40
12.25035599329128
 40
12.25035599329128
 40
12.25035599329128
 40
12.25035599329128
 10
-0.0000000000287628
 20
204.5896243793968
 30
0.0
 10
0.7589881251785755
 20
204.5896243793968
 30
0.0
 10
1.517963102785756
 20
204.5752723667842
 30
0.0
 10
3.952277875336903
 20
204.4831620654873
 30
0.0
 10
5.624651577952135
 20
204.349769220044
 30
0.0
 10
10.43828255684593
 20
203.7626804833128
 30
0.0
 10
13.55196233555034
 20
203.1303440637553
 30
0.0
 10
20.4442214883228
 20
201.1534959425128
 30
0.0
 10
24.16768890713456
 20
199.6713341059269
 30
0.0
 10
33.22377669224784
 20
194.9765514908367
 30
0.0
 10
38.25509050174787
 20
191.2886411321567
 30
0.0
 10
45.87546450368086
 20
183.6510569322588
 30
0.0
 10
48.73374569786733
 20
180.0417386981296
 30
0.0
 10
51.15055768860543
 20
176.1491992056694
 30
0.0
  0
SPLINE
  5
128
330
2
100
AcDbEntity
  8
GEB-VERDECKT
 48
25.0
100
AcDbSpline
210
0.0
220
0.0
230
1.0
 70
     8
 71
     3
 72
    16
 73
    12
 74
     0
 42
0.0000000001
 43
0.0000000001
 40
0.0026009342830058
 40
0.0026009342830058
 40
0.0026009342830058
 40
0.0026009342830058
 40
2.288447646738528
 40
2.288447646738528
 40
4.621313960225682
 40
4.621313960225682
 40
5.462775317898788
 40
5.462775317898788
 40
5.947182010080212
 40
5.947182010080212
 40
6.130712173490252
 40
6.130712173490252
 40
6.130712173490252
 40
6.130712173490252
 10
-51.15055768866409
 20
176.1491992056694
 30
0.0
 10
-47.14631402873419
 20
182.5984706605625
 30
0.0
 10
-41.94489604410864
 20
188.2459856640046
 30
0.0
 10
-29.57067199809353
 20
197.4017057283947
 30
0.0
 10
-22.4797869531543
 20
200.7751702529767
 30
0.0
 10
-12.22327506086901
 20
203.4025790761373
 30
0.0
 10
-9.458964691451683
 20
203.9081683832055
 30
0.0
 10
-5.063601139793149
 20
204.3980699822907
 30
0.0
 10
-3.451184830001466
 20
204.512343117603
 30
0.0
 10
-1.22421758324765
 20
204.5802898219024
 30
0.0
 10
-0.6121045160321046
 20
204.5896243793968
 30
0.0
 10
-0.0000000000287628
 20
204.5896243793968
 30
0.0
  0
SPLINE
  5
129
330
2
100
AcDbEntity
  8
GEB-VERDECKT
 48
25.0
100
AcDbSpline
210
0.0
220
0.0
230
1.0
 70
     8
 71
     3
 72
    28
 73
    24
 74
     0
 42
0.0000000001
 43
0.0000000001
 40
0.0003135965776837
 40
0.0003135965776837
 40
0.0003135965776837
 40
0.0003135965776837
 40
0.2718281047680524
 40
0.2718281047680524
 40
0.3877372981799651
 40
0.3877372981799651
 40
0.4023246078170608
 40
0.4023246078170608
 40
0.4094618536727485
 40
0.4094618536727485
 40
0.414170048635601
 40
0.414170048635601
 40
0.4184552481491135
 40
0.4184552481491135
 40
0.4238538386962853
 40
0.4238538386962853
 40
0.4337033556091737
 40
0.4337033556091737
 40
0.4587932382269192
 40
0.4587932382269192
 40
0.5538885018116801
 40
0.5538885018116801
 40
0.8728530395814338
 40
0.8728530395814338
 40
0.8728530395814338
 40
0.8728530395814338
 10
-51.15055768866671
 20
176.546336253989
 30
0.0
 10
-51.62600203783381
 20
175.7767319102529
 30
0.0
 10
-52.00017346005006
 20
175.1312884683815
 30
0.0
 10
-52.36776230098167
 20
174.482268735579
 30
0.0
 10
-52.53648523818504
 20
174.1789518396346
 30
0.0
 10
-52.61712202241074
 20
174.0297390905205
 30
0.0
 10
-52.62592339279866
 20
174.0133454490694
 30
0.0
 10
-52.63548538363625
 20
173.9952187461423
 30
0.0
 10
-52.63837763601941
 20
173.9896662839137
 30
0.0
 10
-52.64144321666197
 20
173.9835226900684
 30
0.0
 10
-52.64218896207615
 20
173.9819223807212
 30
0.0
 10
-52.64239006367313
 20
173.9810548499124
 30
0.0
 10
-52.64194894554657
 20
173.9816185645183
 30
0.0
 10
-52.63993827022364
 20
173.9847400880314
 30
0.0
 10
-52.63814926853161
 20
173.9877097167102
 30
0.0
 10
-52.6322562015439
 20
173.9976850401334
 30
0.0
 10
-52.62715137480814
 20
174.0065212716042
 30
0.0
 10
-52.60936725006752
 20
174.0374901353325
 30
0.0
 10
-52.59217590639798
 20
174.0677675290992
 30
0.0
 10
-52.51217595041066
 20
174.2088450173121
 30
0.0
 10
-52.41556800098454
 20
174.3793900872662
 30
0.0
 10
-52.08135499706713
 20
174.9639952664696
 30
0.0
 10
-51.67806708114449
 20
175.6594477001774
 30
0.0
 10
-51.1505576886666
 20
176.5090591514336
 30
0.0
  0
SPLINE
  5
12A
330
2
100
AcDbEntity
  8
GEB-VERDECKT
 48
25.0
100
AcDbSpline
210
0.0
220
0.0
230
1.0
 70
     8
 71
     3
 72
    18
 73
    14
 74
     0
 42
0.0000000001
 43
0.0000000001
 40
6.130712173490141
 40
6.130712173490141
 40
6.130712173490141
 40
6.130712173490141
 40
6.358283137277722
 40
6.358283137277722
 40
6.861022006813825
 40
6.861022006813825
 40
7.812083211287131
 40
7.812083211287131
 40
9.010772298240615
 40
9.010772298240615
 40
10.87123066565299
 40
10.87123066565299
 40
12.25035599329147
 40
12.25035599329147
 40
12.25035599329147
 40
12.25035599329147
 10
-0.0000000000318323
 20
205.0541708548376
 30
0.0
 10
-0.758988125239398
 20
205.0541708548376
 30
0.0
 10
-1.517963102846692
 20
205.0398188922809
 30
0.0
 10
-3.952277875397612
 20
204.9477079483281
 30
0.0
 10
-5.624651578012731
 20
204.81431436923
 30
0.0
 10
-10.43828255690675
 20
204.2271835402323
 30
0.0
 10
-13.55196233561094
 20
203.5947798429624
 30
0.0
 10
-20.44422148838373
 20
201.6171877923159
 30
0.0
 10
-24.1676889071955
 20
200.1342038898338
 30
0.0
 10
-33.22377669230866
 20
195.4343276464151
 30
0.0
 10
-38.25509050180892
 20
191.7406130206313
 30
0.0
 10
-45.87546450374214
 20
184.0808839226281
 30
0.0
 10
-48.73374569792872
 20
180.4584429165757
 30
0.0
 10
-51.15055768866671
 20
176.546336253989
 30
0.0
  0
SPLINE
  5
12B
330
2
100
AcDbEntity
  8
GEB-VERDECKT
 48
25.0
100
AcDbSpline
210
0.0
220
0.0
230
1.0
 70
     8
 71
     3
 72
    16
 73
    12
 74
     0
 42
0.0000000001
 43
0.0000000001
 40
0.0026009342830067
 40
0.0026009342830067
 40
0.0026009342830067
 40
0.0026009342830067
 40
2.288447646738537
 40
2.288447646738537
 40
4.621313960225662
 40
4.621313960225662
 40
5.462775317898775
 40
5.462775317898775
 40
5.947182010080139
 40
5.947182010080139
 40
6.130712173490141
 40
6.130712173490141
 40
6.130712173490141
 40
6.130712173490141
 10
51.1505576886027
 20
176.546336253989
 30
0.0
 10
47.1463140286728
 20
183.0280271594734
 30
0.0
 10
41.94489604404748
 20
188.6906894507781
 30
0.0
 10
29.57067199803237
 20
197.8638386223276
 30
0.0
 10
22.47978695309337
 20
201.2388431616003
 30
0.0
 10
12.22327506080842
 20
203.8670506177784
 30
0.0
 10
9.458964691390974
 20
204.3726850856117
 30
0.0
 10
5.063601139732782
 20
204.8626160772576
 30
0.0
 10
3.451184829941439
 20
204.976889305861
 30
0.0
 10
1.224217583186828
 20
205.0448363185251
 30
0.0
 10
0.6121045159712822
 20
205.0541708548376
 30
0.0
 10
-0.0000000000318323
 20
205.0541708548376
 30
0.0
  0
SPLINE
  5
12C
330
2
100
AcDbEntity
  8
GEB-VERDECKT
 48
25.0
100
AcDbSpline
210
0.0
220
0.0
230
1.0
 70
     8
 71
     3
 72
    28
 73
    24
 74
     0
 42
0.0000000001
 43
0.0000000001
 40
0.0003135965776947
 40
0.0003135965776947
 40
0.0003135965776947
 40
0.0003135965776947
 40
0.2718281047685369
 40
0.2718281047685369
 40
0.387737298179117
 40
0.387737298179117
 40
0.4023246078316326
 40
0.4023246078316326
 40
0.4094618537001659
 40
0.4094618537001659
 40
0.4141700486713896
 40
0.4141700486713896
 40
0.4184552481924415
 40
0.4184552481924415
 40
0.4238538387494375
 40
0.4238538387494375
 40
0.4337033556819361
 40
0.4337033556819361
 40
0.4587932383515679
 40
0.4587932383515679
 40
0.5538885021561292
 40
0.5538885021561292
 40
0.8728530406591755
 40
0.8728530406591755
 40
0.8728530406591755
 40
0.8728530406591755
 10
51.15055768860293
 20
176.5090591514336
 30
0.0
 10
51.6260020377706
 20
175.7433041350338
 30
0.0
 10
52.0001734599864
 20
175.1032729532368
 30
0.0
 10
52.36776230091596
 20
174.4636509531411
 30
0.0
 10
52.5364852381208
 20
174.1654234569198
 30
0.0
 10
52.61712202235639
 20
174.0239741831018
 30
0.0
 10
52.62592339273897
 20
174.0086022727862
 30
0.0
 10
52.63548538357259
 20
173.9921942749547
 30
0.0
 10
52.63837763595529
 20
173.9872960605836
 30
0.0
 10
52.64144321659796
 20
173.9823607267983
 30
0.0
 10
52.64218896201214
 20
173.9812653677287
 30
0.0
 10
52.64239006360913
 20
173.981406000599
 30
0.0
 10
52.64194894548268
 20
173.9824368416456
 30
0.0
 10
52.63993827015951
 20
173.986582337806
 30
0.0
 10
52.63814926846726
 20
173.9900779482285
 30
0.0
 10
52.63225620148
 20
174.0013928239269
 30
0.0
 10
52.62715137474447
 20
174.0109911191414
 30
0.0
 10
52.6093672500017
 20
174.0441994456986
 30
0.0
 10
52.59217590632989
 20
174.0758695913207
 30
0.0
 10
52.51217595034677
 20
174.2223999060352
 30
0.0
 10
52.41556800092144
 20
174.3963229465143
 30
0.0
 10
52.08135499700301
 20
174.9908171166687
 30
0.0
 10
51.67806708108037
 20
175.6924539425812
 30
0.0
 10
51.1505576886027
 20
176.546336253989
 30
0.0
  0
SPLINE
  5
12D
330
2
100
AcDbEntity
  8
GEB-VERDECKT
 48
25.0
100
AcDbSpline
210
0.0
220
0.0
230
1.0
 70
     8
 71
     3
 72
    18
 73
    14
 74
     0
 42
0.0000000001
 43
0.0000000001
 40
6.130712173490252
 40
6.130712173490252
 40
6.130712173490252
 40
6.130712173490252
 40
6.358283137277815
 40
6.358283137277815
 40
6.861022006813891
 40
6.861022006813891
 40
7.812083211287187
 40
7.812083211287187
 40
9.010772298240585
 40
9.010772298240585
 40
10.87123066565289
 40
10.87123066565289
 40
12.25035599329128
 40
12.25035599329128
 40
12.25035599329128
 40
12.25035599329128
 10
-0.0000000000311502
 20
204.949484325161
 30
0.0
 10
0.7589881251761881
 20
204.949484325161
 30
0.0
 10
1.517963102783369
 20
204.9351323125484
 30
0.0
 10
3.952277875334516
 20
204.8430220112514
 30
0.0
 10
5.624651577949634
 20
204.7096291658081
 30
0.0
 10
10.43828255684354
 20
204.122540429077
 30
0.0
 10
13.55196233554773
 20
203.4902040095192
 30
0.0
 10
20.44422148832041
 20
201.5133558882769
 30
0.0
 10
24.16768890713206
 20
200.031194051691
 30
0.0
 10
33.22377669224534
 20
195.3364114366009
 30
0.0
 10
38.2550905017456
 20
191.6485010779206
 30
0.0
 10
45.87546450367836
 20
184.0109168780227
 30
0.0
 10
48.73374569786506
 20
180.4015986438937
 30
0.0
 10
51.15055768860293
 20
176.5090591514336
 30
0.0
  0
SPLINE
  5
12E
330
2
100
AcDbEntity
  8
GEB-VERDECKT
 48
25.0
100
AcDbSpline
210
0.0
220
0.0
230
1.0
 70
     8
 71
     3
 72
    16
 73
    12
 74
     0
 42
0.0000000001
 43
0.0000000001
 40
0.0026009342830056
 40
0.0026009342830056
 40
0.0026009342830056
 40
0.0026009342830056
 40
2.288447646738528
 40
2.288447646738528
 40
4.621313960225682
 40
4.621313960225682
 40
5.462775317898788
 40
5.462775317898788
 40
5.947182010080212
 40
5.947182010080212
 40
6.130712173490252
 40
6.130712173490252
 40
6.130712173490252
 40
6.130712173490252
 10
-51.1505576886666
 20
176.5090591514336
 30
0.0
 10
-47.14631402873658
 20
182.9583306063266
 30
0.0
 10
-41.94489604411114
 20
188.6058456097685
 30
0.0
 10
-29.57067199809592
 20
197.7615656741589
 30
0.0
 10
-22.47978695315692
 20
201.1350301987409
 30
0.0
 10
-12.22327506087163
 20
203.7624390219014
 30
0.0
 10
-9.458964691454184
 20
204.2680283289696
 30
0.0
 10
-5.063601139795537
 20
204.7579299280549
 30
0.0
 10
-3.451184830003853
 20
204.8722030633669
 30
0.0
 10
-1.224217583250037
 20
204.9401497676663
 30
0.0
 10
-0.612104516034492
 20
204.949484325161
 30
0.0
 10
-0.0000000000311502
 20
204.949484325161
 30
0.0
  0
SPLINE
  5
12F
330
2
100
AcDbEntity
  8
GEB-VERDECKT
 48
25.0
100
AcDbSpline
210
0.0
220
0.0
230
1.0
 70
     8
 71
     3
 72
    28
 73
    24
 74
     0
 42
0.0000000001
 43
0.0000000001
 40
0.0003135965776839
 40
0.0003135965776839
 40
0.0003135965776839
 40
0.0003135965776839
 40
0.2718281047680473
 40
0.2718281047680473
 40
0.3877372981787153
 40
0.3877372981787153
 40
0.4023246078281107
 40
0.4023246078281107
 40
0.4094618536937226
 40
0.4094618536937226
 40
0.4141700486636421
 40
0.4141700486636421
 40
0.4184552481835528
 40
0.4184552481835528
 40
0.4238538387384246
 40
0.4238538387384246
 40
0.4337033556666886
 40
0.4337033556666886
 40
0.4587932383214158
 40
0.4587932383214158
 40
0.5538885020421047
 40
0.5538885020421047
 40
0.8728530402747518
 40
0.8728530402747518
 40
0.8728530402747518
 40
0.8728530402747518
 10
-51.15055768866909
 20
176.9061961997529
 30
0.0
 10
-51.6260020378362
 20
176.136591856017
 30
0.0
 10
-52.00017346005245
 20
175.4911484141455
 30
0.0
 10
-52.36776230098292
 20
174.8421286813452
 30
0.0
 10
-52.5364852381872
 20
174.5388117853992
 30
0.0
 10
-52.61712202242086
 20
174.3895990362703
 30
0.0
 10
-52.62592339280468
 20
174.3732053948269
 30
0.0
 10
-52.63548538363886
 20
174.3550786919062
 30
0.0
 10
-52.63837763602191
 20
174.3495262296776
 30
0.0
 10
-52.64144321666458
 20
174.3433826358321
 30
0.0
 10
-52.64218896207854
 20
174.3417823264852
 30
0.0
 10
-52.64239006367552
 20
174.3409147956764
 30
0.0
 10
-52.64194894554908
 20
174.341478510282
 30
0.0
 10
-52.63993827022614
 20
174.3446000337953
 30
0.0
 10
-52.63814926853377
 20
174.3475696624748
 30
0.0
 10
-52.63225620154651
 20
174.3575449858974
 30
0.0
 10
-52.62715137481086
 20
174.3663812173677
 30
0.0
 10
-52.60936725007048
 20
174.3973500810958
 30
0.0
 10
-52.59217590640139
 20
174.4276274748616
 30
0.0
 10
-52.5121759504126
 20
174.5687049630769
 30
0.0
 10
-52.41556800098556
 20
174.7392500330328
 30
0.0
 10
-52.08135499706964
 20
175.3238552122335
 30
0.0
 10
-51.67806708114688
 20
176.0193076459415
 30
0.0
 10
-51.15055768866898
 20
176.8689190971975
 30
0.0
  0
SPLINE
  5
130
330
2
100
AcDbEntity
  8
GEB-VERDECKT
 48
25.0
100
AcDbSpline
210
0.0
220
0.0
230
1.0
 70
     8
 71
     3
 72
    18
 73
    14
 74
     0
 42
0.0000000001
 43
0.0000000001
 40
6.130712173490135
 40
6.130712173490135
 40
6.130712173490135
 40
6.130712173490135
 40
6.358283137277716
 40
6.358283137277716
 40
6.861022006813818
 40
6.861022006813818
 40
7.812083211287122
 40
7.812083211287122
 40
9.010772298240604
 40
9.010772298240604
 40
10.87123066565298
 40
10.87123066565298
 40
12.25035599329146
 40
12.25035599329146
 40
12.25035599329146
 40
12.25035599329146
 10
-0.0000000000344471
 20
205.4140308006017
 30
0.0
 10
-0.7589881252417854
 20
205.4140308006017
 30
0.0
 10
-1.51796310284908
 20
205.399678838045
 30
0.0
 10
-3.9522778754
 20
205.3075678940922
 30
0.0
 10
-5.624651578015118
 20
205.1741743149939
 30
0.0
 10
-10.43828255690914
 20
204.5870434859962
 30
0.0
 10
-13.55196233561332
 20
203.9546397887266
 30
0.0
 10
-20.44422148838612
 20
201.9770477380798
 30
0.0
 10
-24.16768890719789
 20
200.4940638355977
 30
0.0
 10
-33.22377669231128
 20
195.7941875921792
 30
0.0
 10
-38.25509050181131
 20
192.1004729663953
 30
0.0
 10
-45.87546450374452
 20
184.440743868392
 30
0.0
 10
-48.73374569793123
 20
180.8183028623398
 30
0.0
 10
-51.15055768866909
 20
176.9061961997529
 30
0.0
  0
SPLINE
  5
131
330
2
100
AcDbEntity
  8
GEB-VERDECKT
 48
25.0
100
AcDbSpline
210
0.0
220
0.0
230
1.0
 70
     8
 71
     3
 72
    16
 73
    12
 74
     0
 42
0.0000000001
 43
0.0000000001
 40
0.0026009342830065
 40
0.0026009342830065
 40
0.0026009342830065
 40
0.0026009342830065
 40
2.288447646738537
 40
2.288447646738537
 40
4.621313960225658
 40
4.621313960225658
 40
5.46277531789877
 40
5.46277531789877
 40
5.947182010080132
 40
5.947182010080132
 40
6.130712173490135
 40
6.130712173490135
 40
6.130712173490135
 40
6.130712173490135
 10
51.1505576886002
 20
176.9061961997529
 30
0.0
 10
47.1463140286703
 20
183.3878871052372
 30
0.0
 10
41.94489604404497
 20
189.0505493965422
 30
0.0
 10
29.57067199802998
 20
198.2236985680915
 30
0.0
 10
22.47978695309098
 20
201.5987031073644
 30
0.0
 10
12.22327506080592
 20
204.2269105635423
 30
0.0
 10
9.458964691388473
 20
204.7325450313758
 30
0.0
 10
5.063601139730394
 20
205.2224760230217
 30
0.0
 10
3.451184829939052
 20
205.336749251625
 30
0.0
 10
1.22421758318444
 20
205.404696264289
 30
0.0
 10
0.6121045159686674
 20
205.4140308006017
 30
0.0
 10
-0.0000000000344471
 20
205.4140308006017
 30
0.0
  0
SPLINE
  5
132
330
2
100
AcDbEntity
  8
GEB-VERDECKT
 48
25.0
100
AcDbSpline
210
0.0
220
0.0
230
1.0
 70
     8
 71
     3
 72
    28
 73
    24
 74
     0
 42
0.0000000001
 43
0.0000000001
 40
0.0003135965776942
 40
0.0003135965776942
 40
0.0003135965776942
 40
0.0003135965776942
 40
0.2718281047686017
 40
0.2718281047686017
 40
0.3877372981810163
 40
0.3877372981810163
 40
0.4023246078311834
 40
0.4023246078311834
 40
0.4094618536978117
 40
0.4094618536978117
 40
0.4141700486678527
 40
0.4141700486678527
 40
0.4184552481878479
 40
0.4184552481878479
 40
0.423853838743504
 40
0.423853838743504
 40
0.4337033556735145
 40
0.4337033556735145
 40
0.4587932383359704
 40
0.4587932383359704
 40
0.5538885021105539
 40
0.5538885021105539
 40
0.8728530405182555
 40
0.8728530405182555
 40
0.8728530405182555
 40
0.8728530405182555
 10
51.15055768860043
 20
176.8689190971975
 30
0.0
 10
51.62600203776833
 20
176.1031640807976
 30
0.0
 10
52.00017345998389
 20
175.4631328990008
 30
0.0
 10
52.36776230091527
 20
174.8235108989022
 30
0.0
 10
52.53648523811853
 20
174.5252834026832
 30
0.0
 10
52.6171220223523
 20
174.3838341288685
 30
0.0
 10
52.62592339273578
 20
174.3684622185513
 30
0.0
 10
52.63548538357031
 20
174.3520542207188
 30
0.0
 10
52.63837763595302
 20
174.3471560063475
 30
0.0
 10
52.64144321659546
 20
174.3422206725622
 30
0.0
 10
52.64218896200986
 20
174.3411253134927
 30
0.0
 10
52.64239006360662
 20
174.341265946363
 30
0.0
 10
52.64194894548018
 20
174.3422967874095
 30
0.0
 10
52.63993827015724
 20
174.3464422835699
 30
0.0
 10
52.63814926846476
 20
174.3499378939926
 30
0.0
 10
52.6322562014775
 20
174.3612527696909
 30
0.0
 10
52.6271513747422
 20
174.3708510649053
 30
0.0
 10
52.60936724999965
 20
174.4040593914621
 30
0.0
 10
52.59217590632807
 20
174.4357295370835
 30
0.0
 10
52.51217595034404
 20
174.5822598518
 30
0.0
 10
52.41556800091757
 20
174.7561828922805
 30
0.0
 10
52.08135499700052
 20
175.3506770624328
 30
0.0
 10
51.67806708107764
 20
176.0523138883456
 30
0.0
 10
51.1505576886002
 20
176.9061961997529
 30
0.0
  0
SPLINE
  5
133
330
2
100
AcDbEntity
  8
GEB-VERDECKT
 48
25.0
100
AcDbSpline
210
0.0
220
0.0
230
1.0
 70
     8
 71
     3
 72
    18
 73
    14
 74
     0
 42
0.0000000001
 43
0.0000000001
 40
6.130712173490252
 40
6.130712173490252
 40
6.130712173490252
 40
6.130712173490252
 40
6.358283137277815
 40
6.358283137277815
 40
6.861022006813891
 40
6.861022006813891
 40
7.812083211287187
 40
7.812083211287187
 40
9.010772298240585
 40
9.010772298240585
 40
10.8712306656529
 40
10.8712306656529
 40
12.25035599329129
 40
12.25035599329129
 40
12.25035599329129
 40
12.25035599329129
 10
-0.000000000033765
 20
205.3093442709248
 30
0.0
 10
0.7589881251735733
 20
205.3093442709248
 30
0.0
 10
1.517963102780981
 20
205.2949922583123
 30
0.0
 10
3.952277875332129
 20
205.2028819570155
 30
0.0
 10
5.624651577947247
 20
205.069489111572
 30
0.0
 10
10.43828255684116
 20
204.4824003748408
 30
0.0
 10
13.55196233554534
 20
203.8500639552833
 30
0.0
 10
20.44422148831791
 20
201.8732158340408
 30
0.0
 10
24.16768890712968
 20
200.3910539974549
 30
0.0
 10
33.22377669224284
 20
195.6962713823648
 30
0.0
 10
38.2550905017431
 20
192.0083610236847
 30
0.0
 10
45.87546450367585
 20
184.3707768237868
 30
0.0
 10
48.73374569786256
 20
180.7614585896576
 30
0.0
 10
51.15055768860043
 20
176.8689190971975
 30
0.0
  0
SPLINE
  5
134
330
2
100
AcDbEntity
  8
GEB-VERDECKT
 48
25.0
100
AcDbSpline
210
0.0
220
0.0
230
1.0
 70
     8
 71
     3
 72
    16
 73
    12
 74
     0
 42
0.0000000001
 43
0.0000000001
 40
0.0026009342830058
 40
0.0026009342830058
 40
0.0026009342830058
 40
0.0026009342830058
 40
2.288447646738528
 40
2.288447646738528
 40
4.621313960225682
 40
4.621313960225682
 40
5.462775317898788
 40
5.462775317898788
 40
5.947182010080212
 40
5.947182010080212
 40
6.130712173490252
 40
6.130712173490252
 40
6.130712173490252
 40
6.130712173490252
 10
-51.15055768866898
 20
176.8689190971975
 30
0.0
 10
-47.14631402873897
 20
183.3181905520905
 30
0.0
 10
-41.94489604411353
 20
188.9657055555326
 30
0.0
 10
-29.57067199809831
 20
198.1214256199228
 30
0.0
 10
-22.4797869531593
 20
201.4948901445048
 30
0.0
 10
-12.22327506087401
 20
204.1222989676653
 30
0.0
 10
-9.458964691456571
 20
204.6278882747338
 30
0.0
 10
-5.063601139798038
 20
205.1177898738188
 30
0.0
 10
-3.451184830006354
 20
205.232063009131
 30
0.0
 10
-1.224217583252539
 20
205.3000097134304
 30
0.0
 10
-0.6121045160368795
 20
205.3093442709248
 30
0.0
 10
-0.000000000033765
 20
205.3093442709248
 30
0.0
  0
ELLIPSE
  5
135
330
2
100
AcDbEntity
  8
GEB-VERDECKT
 48
25.0
100
AcDbEllipse
 10
-0.0000000000372893
 20
145.6397018002198
 30
0.0
 11
60.14999999999988
 21
0.0000000003804468
 31
0.0
210
0.0
220
0.0
230
1.0
 40
0.9990482215818605
 41
0.2093394323506444
 42
2.932253221226486
  0
LINE
  5
136
330
2
100
AcDbEntity
  8
GEB-VERDECKT
 48
25.0
100
AcDbLine
 10
60.1499999999628
 20
158.1278045699931
 30
0.0
 11
58.83682945227088
 21
158.1278045699931
 31
0.0
  0
LINE
  5
137
330
2
100
AcDbEntity
  8
GEB-VERDECKT
 48
25.0
100
AcDbLine
 10
60.14999999996257
 20
146.5338992412087
 30
0.0
 11
60.1499999999628
 21
158.1278045699931
 31
0.0
  0
LINE
  5
138
330
2
100
AcDbEntity
  8
GEB-VERDECKT
 48
25.0
100
AcDbLine
 10
60.14999999996234
 20
133.1515990304466
 30
0.0
 11
60.14999999996257
 21
146.3943172016396
 31
0.0
  0
LINE
  5
139
330
2
100
AcDbEntity
  8
GEB-VERDECKT
 48
25.0
100
AcDbLine
 10
58.83682945227064
 20
133.1515990304466
 30
0.0
 11
60.14999999996234
 21
133.1515990304466
 31
0.0
  0
ELLIPSE
  5
13A
330
2
100
AcDbEntity
  8
GEB-VERDECKT
 48
25.0
100
AcDbEllipse
 10
-0.0000000000372893
 20
145.6397018002198
 30
0.0
 11
-60.14999999999989
 21
-0.0000000003805889
 31
0.0
210
0.0
220
0.0
230
1.0
 40
0.9990482215818607
 41
0.209339432350642
 42
2.932253221226484
  0
ELLIPSE
  5
13B
330
2
100
AcDbEntity
  8
GEB-VERDECKT
 48
25.0
100
AcDbEllipse
 10
-0.0000000000372893
 20
145.6397018002198
 30
0.0
 11
64.0499999999999
 21
-0.0000000000004493
 31
0.0
210
0.0
220
0.0
230
1.0
 40
0.9990482215818607
 41
0.0000000000000258
 42
3.141592653589818
  0
LINE
  5
13C
330
2
100
AcDbEntity
  8
GEB-VERDECKT
 48
25.0
100
AcDbLine
 10
-60.15000000003715
 20
146.3943172016407
 30
0.0
 11
-60.15000000003727
 21
133.1515990304466
 31
0.0
  0
LINE
  5
13D
330
2
100
AcDbEntity
  8
GEB-VERDECKT
 48
25.0
100
AcDbLine
 10
-60.15000000003704
 20
158.1278045699931
 30
0.0
 11
-60.15000000003715
 21
146.5338992412098
 31
0.0
  0
LINE
  5
13E
330
2
100
AcDbEntity
  8
GEB-VERDECKT
 48
25.0
100
AcDbLine
 10
-58.83682945233124
 20
131.0491445594373
 30
0.0
 11
-57.04655993136339
 21
131.0491445594373
 31
0.0
  0
LINE
  5
13F
330
2
100
AcDbEntity
  8
GEB-VERDECKT
 48
25.0
100
AcDbLine
 10
-57.04655993136339
 20
131.0491445594373
 30
0.0
 11
-57.0465599313618
 21
130.809237928928
 31
0.0
  0
LINE
  5
140
330
2
100
AcDbEntity
  8
GEB-VERDECKT
 48
25.0
100
AcDbLine
 10
-57.0465599313618
 20
130.8092379289279
 30
0.0
 11
-55.25371028268034
 21
130.8092379289279
 31
0.0
  0
LINE
  5
141
330
2
100
AcDbEntity
  8
GEB-VERDECKT
 48
25.0
100
AcDbLine
 10
-60.15000000003727
 20
133.1515990304466
 30
0.0
 11
-60.15000000001612
 21
130.0310680583304
 31
0.0
  0
LINE
  5
142
330
2
100
AcDbEntity
  8
GEB-VERDECKT
 48
25.0
100
AcDbLine
 10
-60.15000000003727
 20
133.1515990304466
 30
0.0
 11
-58.83682945234546
 21
133.1515990304466
 31
0.0
  0
LINE
  5
143
330
2
100
AcDbEntity
  8
GEB-VERDECKT
 48
25.0
100
AcDbLine
 10
-58.83682945234546
 20
133.1515990304466
 30
0.0
 11
-58.83682945233124
 21
131.0491445594373
 31
0.0
  0
LINE
  5
144
330
2
100
AcDbEntity
  8
GEB-VERDECKT
 48
25.0
100
AcDbLine
 10
-60.15000000001612
 20
130.0310680583304
 30
0.0
 11
-55.253710282675
 21
130.0310680583304
 31
0.0
  0
ELLIPSE
  5
145
330
2
100
AcDbEntity
  8
GEB-VERDECKT
 48
25.0
100
AcDbEllipse
 10
-0.0000000000162572
 20
142.5191708281037
 30
0.0
 11
-56.64999999999979
 21
-0.0000000003572853
 31
0.0
210
0.0
220
0.0
230
1.0
 40
0.9990482215818607
 41
6.060701249052352
 42
6.505669365294193
  0
LINE
  5
146
330
2
100
AcDbEntity
  8
GEB-VERDECKT
 48
25.0
100
AcDbLine
 10
-55.253710282675
 20
130.0310680583304
 30
0.0
 11
-55.25371028268034
 21
130.809237928928
 31
0.0
  0
ELLIPSE
  5
147
330
2
100
AcDbEntity
  8
GEB-VERDECKT
 48
25.0
100
AcDbEllipse
 10
-0.0000000000214868
 20
143.2973406987012
 30
0.0
 11
-56.64999999999978
 21
-0.0000000003592771
 31
0.0
210
0.0
220
0.0
230
1.0
 40
0.9990482215818607
 41
6.060701249052318
 42
6.505669365294158
  0
LINE
  5
148
330
2
100
AcDbEntity
  8
GEB-VERDECKT
 48
25.0
100
AcDbLine
 10
-58.83682945234522
 20
158.1278045699931
 30
0.0
 11
-60.15000000003704
 21
158.1278045699931
 31
0.0
  0
LINE
  5
149
330
2
100
AcDbEntity
  8
GEB-VERDECKT
 48
25.0
100
AcDbLine
 10
-60.15000000001577
 20
155.007273597877
 30
0.0
 11
-55.25371028267466
 21
155.007273597877
 31
0.0
  0
LINE
  5
14A
330
2
100
AcDbEntity
  8
GEB-VERDECKT
 48
25.0
100
AcDbLine
 10
-55.25371028268001
 20
155.7854434684744
 30
0.0
 11
-55.25371028267477
 21
155.007273597877
 31
0.0
  0
LINE
  5
14B
330
2
100
AcDbEntity
  8
GEB-VERDECKT
 48
25.0
100
AcDbLine
 10
-55.25371028268001
 20
155.7854434684744
 30
0.0
 11
-57.04655993136134
 21
155.7854434684744
 31
0.0
  0
LINE
  5
14C
330
2
100
AcDbEntity
  8
GEB-VERDECKT
 48
25.0
100
AcDbLine
 10
-57.04655993136134
 20
155.7854434684744
 30
0.0
 11
-57.04655993136305
 21
156.0253500989838
 31
0.0
  0
LINE
  5
14D
330
2
100
AcDbEntity
  8
GEB-VERDECKT
 48
25.0
100
AcDbLine
 10
-57.04655993136305
 20
156.0253500989838
 30
0.0
 11
-58.8368294523309
 21
156.0253500989838
 31
0.0
  0
LINE
  5
14E
330
2
100
AcDbEntity
  8
GEB-VERDECKT
 48
25.0
100
AcDbLine
 10
-58.8368294523309
 20
156.0253500989838
 30
0.0
 11
-58.83682945234522
 21
158.1278045699931
 31
0.0
  0
LINE
  5
14F
330
2
100
AcDbEntity
  8
GEB-VERDECKT
 48
25.0
100
AcDbLine
 10
-55.10000000002128
 20
143.2973406987017
 30
0.0
 11
-55.10000000002037
 21
143.1664825366056
 31
0.0
  0
LINE
  5
150
330
2
100
AcDbEntity
  8
GEB-VERDECKT
 48
25.0
100
AcDbLine
 10
55.09999999997853
 20
143.2973406987007
 30
0.0
 11
55.09999999997944
 21
143.1664825366047
 31
0.0
  0
ELLIPSE
  5
151
330
2
100
AcDbEntity
  8
GEB-VERDECKT
 48
25.0
100
AcDbEllipse
 10
-0.0000000000204636
 20
143.1664825366052
 30
0.0
 11
-51.59999999999989
 21
-0.0000000000000063
 31
0.0
210
0.0
220
0.0
230
1.0
 40
0.9990482215818605
 41
0.0
 42
6.283185307179586
  0
ELLIPSE
  5
152
330
2
100
AcDbEntity
  8
GEB-VERDECKT
 48
25.0
100
AcDbEllipse
 10
-0.0000000000213731
 20
143.2973406987012
 30
0.0
 11
-55.09999999999988
 21
-0.0000000000000067
 31
0.0
210
0.0
220
0.0
230
1.0
 40
0.9990482215818609
 41
0.0
 42
6.283185307179586
  0
ELLIPSE
  5
153
330
2
100
AcDbEntity
  8
GEB-VERDECKT
 48
25.0
100
AcDbEllipse
 10
-0.0000000000204636
 20
143.1664825366052
 30
0.0
 11
-55.09999999999988
 21
-0.0000000000000067
 31
0.0
210
0.0
220
0.0
230
1.0
 40
0.9990482215818609
 41
0.0
 42
6.283185307179586
  0
LINE
  5
154
330
2
100
AcDbEntity
  8
GEB-VERDECKT
 48
25.0
100
AcDbLine
 10
-62.60000000000013
 20
207.0600000000001
 30
0.0
 11
62.5999999999999
 21
207.0600000000001
 31
0.0
  0
LINE
  5
155
330
2
100
AcDbEntity
  8
GEB-VERDECKT
 48
25.0
100
AcDbLine
 10
62.5999999999999
 20
184.789999999999
 30
0.0
 11
62.5999999999999
 21
207.0600000000001
 31
0.0
  0
LINE
  5
156
330
2
100
AcDbEntity
  8
GEB-VERDECKT
 48
25.0
100
AcDbLine
 10
62.5999999999999
 20
132.1011238681709
 30
0.0
 11
62.5999999999999
 21
159.9328951336891
 31
0.0
  0
LINE
  5
157
330
2
100
AcDbEntity
  8
GEB-VERDECKT
 48
25.0
100
AcDbLine
 10
-62.60000000000013
 20
184.7899999999992
 30
0.0
 11
-62.60000000000013
 21
207.0600000000001
 31
0.0
  0
LINE
  5
158
330
2
100
AcDbEntity
  8
GEB-VERDECKT
 48
25.0
100
AcDbLine
 10
-62.60000000000013
 20
132.101123868171
 30
0.0
 11
-62.60000000000013
 21
159.9328951336888
 31
0.0
  0
LINE
  5
159
330
2
100
AcDbEntity
  8
GEB-VERDECKT
 48
25.0
100
AcDbLine
 10
-55.10000000002242
 20
143.4576256848195
 30
0.0
 11
-55.10000000000889
 21
141.4572150352598
 31
0.0
  0
LINE
  5
15A
330
2
100
AcDbEntity
  8
GEB-VERDECKT
 48
25.0
100
AcDbLine
 10
55.09999999997763
 20
143.4576256848195
 30
0.0
 11
55.09999999999127
 21
141.4572150352598
 31
0.0
  0
LINE
  5
15B
330
2
100
AcDbEntity
  8
GEB-VERDECKT
 48
25.0
100
AcDbLine
 10
51.49999999999181
 20
141.368567785935
 30
0.0
 11
51.49999999997749
 21
143.4576256848195
 31
0.0
  0
LINE
  5
15C
330
2
100
AcDbEntity
  8
GEB-VERDECKT
 48
25.0
100
AcDbLine
 10
-51.50000000000819
 20
141.368567785935
 30
0.0
 11
-51.5000000000224
 21
143.4576256848195
 31
0.0
  0
SPLINE
  5
15D
330
2
100
AcDbEntity
  8
GEB-VERDECKT
 48
25.0
100
AcDbSpline
210
0.0
220
0.0
230
1.0
 70
    11
 71
     3
 72
    70
 73
    66
 74
     0
 42
0.0000000001
 43
0.0000000001
 40
0.0
 40
0.0
 40
0.0
 40
0.0
 40
1.196827505238349
 40
1.196827505238349
 40
2.393655010476698
 40
2.393655010476698
 40
3.590482515715047
 40
3.590482515715047
 40
4.787310020953396
 40
4.787310020953396
 40
5.905195650412421
 40
5.905195650412421
 40
7.023081279871447
 40
7.023081279871447
 40
8.140966909330472
 40
8.140966909330472
 40
9.258852538789497
 40
9.258852538789497
 40
10.36888101184098
 40
10.36888101184098
 40
11.47890948489246
 40
11.47890948489246
 40
12.58893795794394
 40
12.58893795794394
 40
13.69896643099542
 40
13.69896643099542
 40
14.90399632046151
 40
14.90399632046151
 40
16.1090262099276
 40
16.1090262099276
 40
17.31405609939369
 40
17.31405609939369
 40
18.51908598885977
 40
18.51908598885977
 40
19.67904063270218
 40
19.67904063270218
 40
20.83899527654459
 40
20.83899527654459
 40
21.998949920387
 40
21.998949920387
 40
23.15890456422941
 40
23.15890456422941
 40
24.26931867938974
 40
24.26931867938974
 40
25.37973279455006
 40
25.37973279455006
 40
26.49014690971038
 40
26.49014690971038
 40
27.6005610248707
 40
27.6005610248707
 40
28.71097514003102
 40
28.71097514003102
 40
29.82138925519135
 40
29.82138925519135
 40
30.93180337035167
 40
30.93180337035167
 40
32.04221748551199
 40
32.04221748551199
 40
33.20217212935439
 40
33.20217212935439
 40
34.36212677319681
 40
34.36212677319681
 40
35.52208141703922
 40
35.52208141703922
 40
36.68203606088163
 40
36.68203606088163
 40
36.68203606088163
 40
36.68203606088163
 10
-55.10000000000889
 20
141.4572150352598
 30
0.0
 10
-55.10000000000889
 20
145.446640052721
 30
0.0
 10
-54.67573283583238
 20
149.2499418283937
 30
0.0
 10
-53.16351971203857
 20
156.5565601483066
 30
0.0
 10
-52.07131963932273
 20
160.0626939261065
 30
0.0
 10
-49.27555656714776
 20
166.7845344953123
 30
0.0
 10
-47.57022874134429
 20
169.9931062332928
 30
0.0
 10
-43.62693314196826
 20
175.9947453065849
 30
0.0
 10
-41.38726262702426
 20
178.7857739867638
 30
0.0
 10
-36.69590068940602
 20
183.644480428489
 30
0.0
 10
-34.10428379234054
 20
185.9157037994775
 30
0.0
 10
-28.34916226188773
 20
190.0227930399175
 30
0.0
 10
-25.18508315285056
 20
191.8585439872638
 30
0.0
 10
-18.44494487657653
 20
194.8767175194343
 30
0.0
 10
-14.86052167954767
 20
196.0618618529072
 30
0.0
 10
-7.501332439893531
 20
197.6467013145866
 30
0.0
 10
-3.726285431548603
 20
198.0456679785718
 30
0.0
 10
3.700094910152984
 20
198.0456679785718
 30
0.0
 10
7.450615694388829
 20
197.6522365579485
 30
0.0
 10
14.76593875660262
 20
196.0875116861882
 30
0.0
 10
18.33101821365074
 20
194.9169417876778
 30
0.0
 10
25.03888838909393
 20
191.9343889647998
 30
0.0
 10
28.18996593419047
 20
190.1197382223472
 30
0.0
 10
33.92577014805238
 20
186.058807980356
 30
0.0
 10
36.511069761822
 20
183.8126510777279
 30
0.0
 10
41.22956431893681
 20
178.9724011967803
 30
0.0
 10
43.49591550948412
 20
176.1711069603218
 30
0.0
 10
47.48504831777995
 20
170.1445758794879
 30
0.0
 10
49.20954472114591
 20
166.9214177179058
 30
0.0
 10
52.03650319197254
 20
160.1674625142377
 30
0.0
 10
53.14070030526796
 20
156.6441919402946
 30
0.0
 10
54.67021279110304
 20
149.2988222462372
 30
0.0
 10
55.09999999999127
 20
145.4739813334802
 30
0.0
 10
55.09999999999127
 20
137.5906995557851
 30
0.0
 10
54.69770435983491
 20
133.9022192335962
 30
0.0
 10
53.22093984363414
 20
126.8606567400543
 30
0.0
 10
52.14434570270509
 20
123.5026132232568
 30
0.0
 10
49.37617249544905
 20
117.1081026591807
 30
0.0
 10
47.68229880437366
 20
114.0749056667777
 30
0.0
 10
43.76537954256991
 20
108.427279855642
 30
0.0
 10
41.54066674722253
 20
105.8148361640055
 30
0.0
 10
36.84071563080488
 20
101.2315607701137
 30
0.0
 10
34.21451514758883
 20
99.07778248198077
 30
0.0
 10
28.39618798845913
 20
95.20360978007193
 30
0.0
 10
25.20356021346584
 20
93.48325588972034
 30
0.0
 10
18.42237596592861
 20
90.66716956644654
 30
0.0
 10
14.82563040494062
 20
89.56888337070541
 30
0.0
 10
7.465251315186719
 20
88.10532124626581
 30
0.0
 10
3.701380383849141
 20
87.74068207357391
 30
0.0
 10
-3.701380383886316
 20
87.74068207357391
 30
0.0
 10
-7.465251315223781
 20
88.10532124626581
 30
0.0
 10
-14.82563040497689
 20
89.56888337070541
 30
0.0
 10
-18.42237596596419
 20
90.66716956644654
 30
0.0
 10
-25.20356021350006
 20
93.48325588972034
 30
0.0
 10
-28.39618798849233
 20
95.20360978007193
 30
0.0
 10
-34.21451514762032
 20
99.07778248198077
 30
0.0
 10
-36.84071563083501
 20
101.2315607701137
 30
0.0
 10
-41.5406667472505
 20
105.8148361640055
 30
0.0
 10
-43.76537954259663
 20
108.427279855642
 30
0.0
 10
-47.68229880439799
 20
114.0749056667777
 30
0.0
 10
-49.37617249547201
 20
117.1081026591806
 30
0.0
 10
-52.14434570272579
 20
123.5026132232567
 30
0.0
 10
-53.22093984365392
 20
126.8606567400541
 30
0.0
 10
-54.6977043598531
 20
133.9022192335962
 30
0.0
 10
-55.10000000000889
 20
137.5906995557851
 30
0.0
 10
-55.10000000000889
 20
141.4572150352598
 30
0.0
  0
ELLIPSE
  5
15E
330
2
100
AcDbEntity
  8
GEB-VERDECKT
 48
25.0
100
AcDbEllipse
 10
-0.00000000002251
 20
143.4576256848195
 30
0.0
 11
-55.10000000000001
 21
0.0
 31
0.0
210
0.0
220
0.0
230
1.0
 40
0.9990482215818579
 41
0.0
 42
6.283185307179586
  0
LINE
  5
15F
330
2
100
AcDbEntity
  8
GEB-KONTUR-A
 48
25.0
100
AcDbLine
 10
62.5999999999999
 20
159.9328951336891
 30
0.0
 11
62.5999999999999
 21
184.789999999999
 31
0.0
  0
LINE
  5
160
330
2
100
AcDbEntity
  8
GEB-KONTUR-A
 48
25.0
100
AcDbLine
 10
62.5999999999999
 20
78.5
 30
0.0
 11
62.5999999999999
 21
132.1011238681709
 31
0.0
  0
LINE
  5
161
330
2
100
AcDbEntity
  8
GEB-KONTUR-A
 48
25.0
100
AcDbLine
 10
-62.60000000000013
 20
159.9328951336888
 30
0.0
 11
-62.60000000000013
 21
184.7899999999992
 31
0.0
  0
LINE
  5
162
330
2
100
AcDbEntity
  8
GEB-KONTUR-A
 48
25.0
100
AcDbLine
 10
-62.60000000000013
 20
78.5
 30
0.0
 11
-62.60000000000013
 21
132.101123868171
 31
0.0
  0
ARC
  5
163
330
2
100
AcDbEntity
  8
GEB-KONTUR-A
 48
25.0
100
AcDbCircle
 10
-64.40000000000009
 20
76.70000000000005
 30
0.0
 40
1.199999999999995
100
AcDbArc
 50
110.9642300195925
 51
253.1255057020532
  0
ARC
  5
164
330
2
100
AcDbEntity
  8
GEB-KONTUR-A
 48
25.0
100
AcDbCircle
 10
64.39999999999987
 20
76.70000000000005
 30
0.0
 40
1.199999999999995
100
AcDbArc
 50
286.8744942979469
 51
69.03576998040136
  0
LINE
  5
165
330
2
100
AcDbEntity
  8
GEB-KONTUR-A
 48
25.0
100
AcDbLine
 10
62.5999999999999
 20
74.89999999999998
 30
0.0
 11
64.74833147735466
 21
75.55166852264528
 31
0.0
  0
LINE
  5
166
330
2
100
AcDbEntity
  8
GEB-KONTUR-A
 48
25.0
100
AcDbLine
 10
-62.60000000000013
 20
74.89999999999998
 30
0.0
 11
-64.74833147735489
 21
75.55166852264528
 31
0.0
  0
ARC
  5
167
330
2
100
AcDbEntity
  8
GEB-KONTUR-A
 48
25.0
100
AcDbCircle
 10
-58.87422412363594
 20
62.27795638265547
 30
0.0
 40
16.64440161147055
100
AcDbArc
 50
102.9350039149956
 51
110.9642300195986
  0
ARC
  5
168
330
2
100
AcDbEntity
  8
GEB-KONTUR-A
 48
25.0
100
AcDbCircle
 10
58.87422412363594
 20
62.27795638265547
 30
0.0
 40
16.64440161147055
100
AcDbArc
 50
69.03576998040136
 51
77.06499608500434
  0
LINE
  5
169
330
2
100
AcDbEntity
  8
GEB-KONTUR-A
 48
25.0
100
AcDbLine
 10
62.5999999999999
 20
2.000000000000113
 30
0.0
 11
62.5999999999999
 21
74.89999999999998
 31
0.0
  0
LINE
  5
16A
330
2
100
AcDbEntity
  8
GEB-KONTUR-A
 48
25.0
100
AcDbLine
 10
-62.60000000000013
 20
2.000000000000113
 30
0.0
 11
-62.60000000000013
 21
74.89999999999998
 31
0.0
  0
LINE
  5
16B
330
2
100
AcDbEntity
  8
GEB-KONTUR-A
 48
25.0
100
AcDbLine
 10
61.98853863708269
 20
0.0
 30
0.0
 11
62.5999999999999
 21
2.000000000000113
 31
0.0
  0
LINE
  5
16C
330
2
100
AcDbEntity
  8
GEB-KONTUR-A
 48
25.0
100
AcDbLine
 10
-61.98853863708269
 20
0.0
 30
0.0
 11
-62.60000000000013
 21
2.000000000000113
 31
0.0
  0
ELLIPSE
  5
16D
330
2
100
AcDbEntity
  8
GEB-KONTUR-A
 48
25.0
100
AcDbEllipse
 10
-0.00000000002251
 20
143.4576256848195
 30
0.0
 11
-51.49999999999999
 21
0.0
 31
0.0
210
0.0
220
0.0
230
1.0
 40
0.9990482215818577
 41
0.0
 42
6.283185307179586
  0
LINE
  5
16E
330
2
100
AcDbEntity
  8
GEB-KONTUR-A
 48
25.0
100
AcDbLine
 10
62.5999999999999
 20
78.5
 30
0.0
 11
-62.60000000000013
 21
78.5
 31
0.0
  0
LINE
  5
16F
330
2
100
AcDbEntity
  8
GEB-KONTUR-A
 48
25.0
100
AcDbLine
 10
-62.60000000000013
 20
74.89999999999998
 30
0.0
 11
62.5999999999999
 21
74.89999999999998
 31
0.0
  0
LINE
  5
170
330
2
100
AcDbEntity
  8
GEB-KONTUR-A
 48
25.0
100
AcDbLine
 10
61.98853863708269
 20
0.0
 30
0.0
 11
-61.98853863708269
 21
0.0
 31
0.0
  0
LINE
  5
171
330
2
100
AcDbEntity
  8
GEB-KONTUR-A
 48
25.0
100
AcDbLine
 10
-62.60000000000013
 20
2.000000000000113
 30
0.0
 11
62.5999999999999
 21
2.000000000000113
 31
0.0
  0
SPLINE
  5
172
330
2
100
AcDbEntity
  8
GEB-KONTUR-A
 48
25.0
100
AcDbSpline
210
0.0
220
0.0
230
1.0
 70
     8
 71
     3
 72
    38
 73
    34
 74
     0
 42
0.0000000001
 43
0.0000000001
 40
0.107256319045108
 40
0.107256319045108
 40
0.107256319045108
 40
0.107256319045108
 40
1.119628728127653
 40
1.119628728127653
 40
2.239257456255307
 40
2.239257456255307
 40
3.35888618438296
 40
3.35888618438296
 40
4.478514912510614
 40
4.478514912510614
 40
5.523846665467374
 40
5.523846665467374
 40
6.569178418424135
 40
6.569178418424135
 40
7.614510171380896
 40
7.614510171380896
 40
8.659841924337657
 40
8.659841924337657
 40
9.705173677294418
 40
9.705173677294418
 40
10.75050543025118
 40
10.75050543025118
 40
11.79583718320794
 40
11.79583718320794
 40
12.8411689361647
 40
12.8411689361647
 40
13.96079766429235
 40
13.96079766429235
 40
15.08042639242001
 40
15.08042639242001
 40
16.20005512054766
 40
16.20005512054766
 40
17.2124275296302
 40
17.2124275296302
 40
17.2124275296302
 40
17.2124275296302
 10
-51.48958971637137
 20
142.4145414272609
 30
0.0
 10
-51.42292859503334
 20
145.7588995763266
 30
0.0
 10
-51.03835861422362
 20
148.9620512401636
 30
0.0
 10
-49.6946141400349
 20
155.4658341307614
 30
0.0
 10
-48.67481699563928
 20
158.7434373680926
 30
0.0
 10
-46.06337902244638
 20
165.0280569747867
 30
0.0
 10
-44.47010598505676
 20
168.028230158371
 30
0.0
 10
-40.78496913397498
 20
173.6406838324614
 30
0.0
 10
-38.69151398726695
 20
176.2510465622681
 30
0.0
 10
-34.30635250239311
 20
180.7947621777378
 30
0.0
 10
-31.88418741754925
 20
182.9184823313585
 30
0.0
 10
-26.5048353725191
 20
186.7591129226823
 30
0.0
 10
-23.54711143901034
 20
188.4759149025742
 30
0.0
 10
-17.24607230194544
 20
191.298691860976
 30
0.0
 10
-13.89493366483327
 20
192.4072146197072
 30
0.0
 10
-7.014248542652921
 20
193.8896717775296
 30
0.0
 10
-3.484439176540035
 20
194.2629252605834
 30
0.0
 10
3.48443917650502
 20
194.2629252605834
 30
0.0
 10
7.014248542618247
 20
193.8896717775296
 30
0.0
 10
13.89493366479928
 20
192.4072146197072
 30
0.0
 10
17.24607230191202
 20
191.298691860976
 30
0.0
 10
23.54711143897839
 20
188.4759149025742
 30
0.0
 10
26.50483537248795
 20
186.7591129226823
 30
0.0
 10
31.88418741752002
 20
182.9184823313585
 30
0.0
 10
34.30635250236492
 20
180.7947621777378
 30
0.0
 10
38.69151398724057
 20
176.2510465622681
 30
0.0
 10
40.78496913394997
 20
173.6406838324614
 30
0.0
 10
44.47010598503425
 20
168.0282301583709
 30
0.0
 10
46.06337902242489
 20
165.0280569747867
 30
0.0
 10
48.67481699561995
 20
158.7434373680926
 30
0.0
 10
49.69461414001648
 20
155.4658341307614
 30
0.0
 10
51.03835861420657
 20
148.9620512401636
 30
0.0
 10
51.42292859501686
 20
145.7588995763266
 30
0.0
 10
51.48958971635488
 20
142.4145414272609
 30
0.0
  0
LINE
  5
173
330
2
100
AcDbEntity
  8
GEB-VERDECKT
 48
25.0
100
AcDbLine
 10
58.40000000000009
 20
0.0
 30
0.0
 11
58.49918597125657
 21
207.0600000000001
 31
0.0
  0
LINE
  5
174
330
2
100
AcDbEntity
  8
GEB-VERDECKT
 48
25.0
100
AcDbLine
 10
-58.40000000000009
 20
0.0
 30
0.0
 11
-58.49918597125679
 21
207.0600000000001
 31
0.0
  0
SPLINE
  5
175
330
2
100
AcDbEntity
  8
GEB-VERDECKT
 48
25.0
100
AcDbSpline
210
0.0
220
0.0
230
1.0
 70
     8
 71
     3
 72
    40
 73
    36
 74
     0
 42
0.0000000001
 43
0.0000000001
 40
17.2124275296302
 40
17.2124275296302
 40
17.2124275296302
 40
17.2124275296302
 40
17.31968384867531
 40
17.31968384867531
 40
18.40390714865109
 40
18.40390714865109
 40
19.48813044862687
 40
19.48813044862687
 40
20.57235374860265
 40
20.57235374860265
 40
21.65657704857843
 40
21.65657704857843
 40
22.69427157176894
 40
22.69427157176894
 40
23.73196609495945
 40
23.73196609495945
 40
24.76966061814996
 40
24.76966061814996
 40
25.80735514134047
 40
25.80735514134047
 40
26.84504966453097
 40
26.84504966453097
 40
27.88274418772149
 40
27.88274418772149
 40
28.920438710912
 40
28.920438710912
 40
29.95813323410251
 40
29.95813323410251
 40
31.04235653407828
 40
31.04235653407828
 40
32.12657983405406
 40
32.12657983405406
 40
33.21080313402983
 40
33.21080313402983
 40
34.29502643400561
 40
34.29502643400561
 40
34.29502643400561
 40
34.29502643400561
 10
51.48958971635488
 20
142.4145414272609
 30
0.0
 10
51.49665216336939
 20
142.0602216715868
 30
0.0
 10
51.50014625741732
 20
141.7043169503936
 30
0.0
 10
51.49847050260587
 20
137.7327186759865
 30
0.0
 10
51.12104144718092
 20
134.2866425157568
 30
0.0
 10
49.73883465021277
 20
127.7086073408471
 30
0.0
 10
48.73202847432958
 20
124.5720078099144
 30
0.0
 10
46.14400939710868
 20
118.5987246452713
 30
0.0
 10
44.56066656468124
 20
115.7652159823133
 30
0.0
 10
40.8994937185821
 20
110.4890754636324
 30
0.0
 10
38.82010733933725
 20
108.0483099638903
 30
0.0
 10
34.42750694808456
 20
103.7664576226104
 30
0.0
 10
31.97334527306271
 20
101.7544347449765
 30
0.0
 10
26.53617876224553
 20
98.13512640867282
 30
0.0
 10
23.55270543033578
 20
96.52788038626432
 30
0.0
 10
17.21574676319426
 20
93.89689012617145
 30
0.0
 10
13.85460794786559
 20
92.87076009198472
 30
0.0
 10
6.976336362423353
 20
91.5033387359556
 30
0.0
 10
3.458981743950971
 20
91.16264239955944
 30
0.0
 10
-3.458981743985759
 20
91.16264239955944
 30
0.0
 10
-6.976336362457914
 20
91.5033387359556
 30
0.0
 10
-13.85460794789958
 20
92.87076009198472
 30
0.0
 10
-17.21574676322757
 20
93.89689012617157
 30
0.0
 10
-23.55270543036772
 20
96.52788038626432
 30
0.0
 10
-26.53617876227668
 20
98.13512640867282
 30
0.0
 10
-31.97334527309181
 20
101.7544347449765
 30
0.0
 10
-34.42750694811275
 20
103.7664576226104
 30
0.0
 10
-38.82010733936329
 20
108.0483099638903
 30
0.0
 10
-40.899493718607
 20
110.4890754636324
 30
0.0
 10
-44.56066656470375
 20
115.7652159823133
 30
0.0
 10
-46.14400939713005
 20
118.5987246452713
 30
0.0
 10
-48.73202847434891
 20
124.5720078099143
 30
0.0
 10
-49.73883465023096
 20
127.708607340847
 30
0.0
 10
-51.12104144719774
 20
134.2866425157567
 30
0.0
 10
-51.49847050262247
 20
137.7327186759865
 30
0.0
 10
-51.49999540693693
 20
141.3467959279284
 30
0.0
  0
SPLINE
  5
176
330
2
100
AcDbEntity
  8
GEB-VERDECKT
 48
25.0
100
AcDbSpline
210
0.0
220
0.0
230
1.0
 70
     8
 71
     3
 72
     8
 73
     4
 74
     0
 42
0.0000000001
 43
0.0000000001
 40
0.0
 40
0.0
 40
0.0
 40
0.0
 40
0.107256319045108
 40
0.107256319045108
 40
0.107256319045108
 40
0.107256319045108
 10
-51.49999540693693
 20
141.3467959279284
 30
0.0
 10
-51.50014625743392
 20
141.7043169503936
 30
0.0
 10
-51.49665216338599
 20
142.0602216715868
 30
0.0
 10
-51.48958971637137
 20
142.4145414272609
 30
0.0
  0
TEXT
  5
177
330
2
100
AcDbEntity
  8
GEB-TEXT
100
AcDbText
 10
-36.0086971350614
 20
-10.5
 30
0.0
 40
3.5
  1
Abzweig PP-MD 87.5G d125/110
 72
     1
 11
0.0
 21
-10.5
 31
0.0
100
AcDbText
  0
TEXT
  5
179
330
2
100
AcDbEntity
  8
GEB-TEXT
100
AcDbText
 10
-18.75221691678035
 20
-5.0
 30
0.0
 40
3.5
  1
Geberit Silent PP
 72
     1
 11
0.0
 21
-5.0
 31
0.0
100
AcDbText
  0
TEXT
  5
17A
330
2
100
AcDbEntity
  8
GEB-ART-NR
100
AcDbText
 10
-24.1754447996456
 20
-16.84278125428022
 30
0.0
 40
3.5
  1
GEB-ART-NR 390.651
 72
     1
 11
0.5525565646108817
 21
-16.84278125428022
 31
0.0
100
AcDbText
  0
ENDSEC
  0
SECTION
  2
OBJECTS
  0
DICTIONARY
  5
9
330
0
100
AcDbDictionary
281
     1
  3
ACAD_2007HEADERVARS_RT
350
1A9
  3
ACAD_COLOR
350
44
  3
ACAD_GROUP
350
31
  3
ACAD_LAYOUT
350
16
  3
ACAD_MATERIAL
350
B
  3
ACAD_MLEADERSTYLE
350
47
  3
ACAD_MLINESTYLE
350
32
  3
ACAD_PLOTSETTINGS
350
33
  3
ACAD_PLOTSTYLENAME
350
8
  3
ACAD_SCALELIST
350
45
  3
ACAD_TABLESTYLE
350
46
  3
ACAD_VISUALSTYLE
350
2B
  3
ACDB_RECOMPOSE_DATA
350
1A8
  3
AcDbVariableDictionary
350
17E
  0
DICTIONARY
  5
2C
330
28
100
AcDbDictionary
280
     1
281
     1
  0
DICTIONARY
  5
1C
330
1B
100
AcDbDictionary
280
     1
281
     1
  3
ACAD_LAYERFILTERS
360
1D
  3
ACLYDICTIONARY
360
1E
  0
DICTIONARY
  5
3
330
2
100
AcDbDictionary
280
     1
281
     1
  3
ACAD_SORTENTS
360
17C
  0
DICTIONARY
  5
1A9
102
{ACAD_REACTORS
330
9
102
}
330
9
100
AcDbDictionary
281
     1
  3
DIMARCSYM
350
1AA
  3
DIMLTEX1
350
1AC
  3
DIMLTEX2
350
1AD
  3
DIMLTYPE
350
1AB
  0
DICTIONARY
  5
44
102
{ACAD_REACTORS
330
9
102
}
330
9
100
AcDbDictionary
281
     1
  0
DICTIONARY
  5
31
102
{ACAD_REACTORS
330
9
102
}
330
9
100
AcDbDictionary
281
     1
  0
DICTIONARY
  5
16
102
{ACAD_REACTORS
330
9
102
}
330
9
100
AcDbDictionary
281
     1
  3
Layout1
350
1A
  3
Model
350
15
  0
DICTIONARY
  5
B
102
{ACAD_REACTORS
330
9
102
}
330
9
100
AcDbDictionary
281
     1
  3
ByBlock
350
3C
  3
ByLayer
350
34
  3
Global
350
A
  0
DICTIONARY
  5
47
102
{ACAD_REACTORS
330
9
102
}
330
9
100
AcDbDictionary
281
     1
  3
Standard
350
19C
  0
DICTIONARY
  5
32
102
{ACAD_REACTORS
330
9
102
}
330
9
100
AcDbDictionary
281
     1
  3
Standard
350
48
  0
DICTIONARY
  5
33
102
{ACAD_REACTORS
330
9
102
}
330
9
100
AcDbDictionary
281
     1
  0
ACDBDICTIONARYWDFLT
  5
8
102
{ACAD_REACTORS
330
9
102
}
330
9
100
AcDbDictionary
281
     1
  3
Normal
350
7
100
AcDbDictionaryWithDefault
340
7
  0
DICTIONARY
  5
45
102
{ACAD_REACTORS
330
9
102
}
330
9
100
AcDbDictionary
281
     1
  3
A0
350
4D
  3
A1
350
4E
  3
A2
350
4F
  3
A3
350
50
  3
A4
350
51
  3
A5
350
52
  3
A6
350
53
  3
A7
350
54
  3
A8
350
55
  3
A9
350
56
  3
B0
350
57
  3
B1
350
58
  3
B2
350
59
  3
B3
350
5A
  3
B4
350
5B
  3
B5
350
5C
  3
B6
350
5D
  3
B7
350
5E
  3
B8
350
5F
  3
B9
350
60
  3
C0
350
61
  3
C1
350
62
  3
C2
350
63
  3
C3
350
64
  3
C4
350
65
  3
C5
350
66
  3
C6
350
67
  3
C7
350
68
  3
C8
350
69
  3
C9
350
6A
  3
D0
350
6B
  3
D1
350
6C
  3
D2
350
6D
  0
DICTIONARY
  5
46
102
{ACAD_REACTORS
330
9
102
}
330
9
100
AcDbDictionary
281
     1
  3
Standard
350
49
  0
DICTIONARY
  5
2B
102
{ACAD_REACTORS
330
9
102
}
330
9
100
AcDbDictionary
281
     1
  3
2dWireframe
350
2A
  3
Basic
350
18B
  3
Brighten
350
18F
  3
ColorChange
350
193
  3
Conceptual
350
18D
  3
Dim
350
18E
  3
EdgeColorOff
350
19B
  3
Facepattern
350
192
  3
Flat
350
187
  3
FlatWithEdges
350
188
  3
Gouraud
350
189
  3
GouraudWithEdges
350
18A
  3
Hidden
350
18C
  3
JitterOff
350
199
  3
Linepattern
350
191
  3
OverhangOff
350
19A
  3
Realistic
350
4B
  3
Shaded
350
198
  3
Shaded with edges
350
197
  3
Shades of Gray
350
194
  3
Sketchy
350
195
  3
Thicken
350
190
  3
Wireframe
350
4C
  3
X-Ray
350
196
  0
XRECORD
  5
1A8
102
{ACAD_REACTORS
330
9
102
}
330
9
100
AcDbXrecord
280
     1
 90
        1
330
49
  0
DICTIONARY
  5
17E
102
{ACAD_REACTORS
330
9
102
}
330
9
100
AcDbDictionary
281
     1
  3
CANNOSCALE
350
182
  3
CMLEADERSTYLE
350
180
  3
CTABLESTYLE
350
17F
  3
DIMASSOC
350
1A5
  3
HIDETEXT
350
1A4
  3
INDEXCTL
350
1A3
  3
LAYEREVAL
350
184
  3
LAYERNOTIFY
350
185
  3
LIGHTINGUNITS
350
183
  3
MSLTSCALE
350
181
  3
SORTENTS
350
1A2
  3
XCLIPFRAME
350
1A6
  0
DICTIONARY
  5
1D
102
{ACAD_REACTORS
330
1C
102
}
330
1C
100
AcDbDictionary
281
     1
  0
DICTIONARY
  5
1E
102
{ACAD_REACTORS
330
1C
102
}
330
1C
100
AcDbDictionary
281
     1
1001
ACAD
1000
<All
  0
SORTENTSTABLE
  5
17C
102
{ACAD_REACTORS
330
3
102
}
330
3
100
AcDbSortentsTable
330
2
331
79
  5
174
331
B8
  5
138
331
16D
  5
82
331
F7
  5
F9
331
C0
  5
130
331
81
  5
16E
331
136
  5
BA
331
175
  5
75
331
13E
  5
B2
331
C8
  5
128
331
89
  5
166
331
FF
  5
F1
331
146
  5
AA
331
107
  5
E9
331
D0
  5
120
331
14E
  5
A2
331
10F
  5
E1
331
99
  5
157
331
D8
  5
118
331
117
  5
D9
331
E0
  5
110
331
A1
  5
14F
331
156
  5
9A
331
15E
  5
92
331
E8
  5
108
331
A9
  5
147
331
11F
  5
D1
331
166
  5
89
331
B1
  5
13F
331
127
  5
C9
331
12F
  5
C1
331
B9
  5
137
331
7A
  5
173
331
F0
  5
100
331
137
  5
B9
331
82
  5
16D
331
C1
  5
12F
331
16E
  5
81
331
176
  5
6E
331
100
  5
F0
331
8A
  5
165
331
C9
  5
127
331
13F
  5
B1
331
108
  5
E8
331
D1
  5
11F
331
92
  5
15E
331
147
  5
A9
331
14F
  5
A1
331
D9
  5
117
331
9A
  5
156
331
110
  5
E0
331
157
  5
99
331
118
  5
D8
331
A2
  5
14E
331
E1
  5
10F
331
15F
  5
90
331
120
  5
D0
331
AA
  5
146
331
E9
  5
107
331
128
  5
C8
331
B2
  5
13E
331
167
  5
88
331
F1
  5
FF
331
BA
  5
136
331
7B
  5
172
331
130
  5
C0
331
16F
  5
80
331
F9
  5
F7
331
C2
  5
12E
331
83
  5
16C
331
138
  5
B8
331
177
  5
17A
331
140
  5
B0
331
CA
  5
126
331
8B
  5
164
331
101
  5
EF
331
148
  5
A8
331
109
  5
E7
331
93
  5
15D
331
D2
  5
11E
331
111
  5
DF
331
9B
  5
155
331
DA
  5
116
331
150
  5
A0
331
119
  5
D7
331
E2
  5
10E
331
A3
  5
14D
331
158
  5
98
331
160
  5
8F
331
EA
  5
106
331
AB
  5
145
331
121
  5
CF
331
B3
  5
13D
331
129
  5
C7
331
168
  5
87
331
131
  5
BF
331
BB
  5
135
331
7C
  5
171
331
F2
  5
FE
331
139
  5
B7
331
FA
  5
F6
331
84
  5
16B
331
C3
  5
12D
331
170
  5
7D
331
102
  5
EE
331
CB
  5
125
331
8C
  5
163
331
141
  5
AF
331
10A
  5
E6
331
D3
  5
11D
331
94
  5
15C
331
149
  5
A7
331
151
  5
9F
331
DB
  5
115
331
9C
  5
154
331
112
  5
DE
331
159
  5
97
331
11A
  5
D6
331
A4
  5
14C
331
E3
  5
10D
331
122
  5
CE
331
AC
  5
144
331
EB
  5
105
331
161
  5
8E
331
12A
  5
C6
331
B4
  5
13C
331
75
  5
175
331
169
  5
86
331
F3
  5
FD
331
BC
  5
134
331
7D
  5
170
331
132
  5
BE
331
171
  5
7C
331
13A
  5
B6
331
C4
  5
12C
331
85
  5
16A
331
FB
  5
F5
331
142
  5
AE
331
CC
  5
124
331
8D
  5
162
331
103
  5
ED
331
14A
  5
A6
331
10B
  5
E5
331
95
  5
15B
331
D4
  5
11C
331
113
  5
DD
331
DC
  5
114
331
9D
  5
153
331
152
  5
9E
331
11B
  5
D5
331
E4
  5
10C
331
A5
  5
14B
331
15A
  5
96
331
162
  5
8D
331
EC
  5
104
331
AD
  5
143
331
123
  5
CD
331
B5
  5
13B
331
12B
  5
C5
331
6E
  5
176
331
133
  5
BD
331
BD
  5
133
331
F4
  5
FC
331
16A
  5
85
331
13B
  5
B5
331
FC
  5
F4
331
86
  5
169
331
C5
  5
12B
331
172
  5
7B
331
17A
  5
177
331
104
  5
EC
331
CD
  5
123
331
8E
  5
161
331
143
  5
AD
331
14B
  5
A5
331
D5
  5
11B
331
96
  5
15A
331
10C
  5
E4
331
153
  5
9D
331
DD
  5
113
331
9E
  5
152
331
114
  5
DC
331
15B
  5
95
331
11C
  5
D4
331
A6
  5
14A
331
E5
  5
10B
331
124
  5
CC
331
ED
  5
103
331
AE
  5
142
331
163
  5
8C
331
12C
  5
C4
331
B6
  5
13A
331
16B
  5
84
331
F5
  5
FB
331
BE
  5
132
331
134
  5
BC
331
173
  5
7A
331
13C
  5
B4
331
C6
  5
12A
331
87
  5
168
331
FD
  5
F3
331
144
  5
AC
331
CE
  5
122
331
8F
  5
160
331
105
  5
EB
331
14C
  5
A4
331
10D
  5
E3
331
97
  5
159
331
D6
  5
11A
331
115
  5
DB
331
DE
  5
112
331
9F
  5
151
331
154
  5
9C
331
15C
  5
94
331
E6
  5
10A
331
A7
  5
149
331
11D
  5
D3
331
164
  5
8B
331
EE
  5
102
331
AF
  5
141
331
125
  5
CB
331
B7
  5
139
331
12D
  5
C3
331
135
  5
BB
331
F6
  5
FA
331
80
  5
16F
331
BF
  5
131
331
16C
  5
83
331
13D
  5
B3
331
FE
  5
F2
331
88
  5
167
331
C7
  5
129
331
174
  5
79
331
106
  5
EA
331
CF
  5
121
331
90
  5
15F
331
145
  5
AB
331
14D
  5
A3
331
D7
  5
119
331
10E
  5
E2
331
98
  5
158
331
155
  5
9B
331
DF
  5
111
331
A0
  5
150
331
116
  5
DA
331
15D
  5
93
331
11E
  5
D2
331
A8
  5
148
331
E7
  5
109
331
126
  5
CA
331
EF
  5
101
331
B0
  5
140
331
165
  5
8A
331
12E
  5
C2
  0
XRECORD
  5
1AA
102
{ACAD_REACTORS
330
1A9
102
}
330
1A9
100
AcDbXrecord
280
     1
 70
     1
  0
XRECORD
  5
1AC
102
{ACAD_REACTORS
330
1A9
102
}
330
1A9
100
AcDbXrecord
280
     1
340
24
  0
XRECORD
  5
1AD
102
{ACAD_REACTORS
330
1A9
102
}
330
1A9
100
AcDbXrecord
280
     1
340
24
  0
XRECORD
  5
1AB
102
{ACAD_REACTORS
330
1A9
102
}
330
1A9
100
AcDbXrecord
280
     1
340
24
  0
LAYOUT
  5
1A
102
{ACAD_XDICTIONARY
360
1B1
102
}
102
{ACAD_REACTORS
330
16
102
}
330
16
100
AcDbPlotSettings
  1

  2
\\le-server\HP LaserJet 2100
  4

  6

 40
0.0
 41
0.0
 42
0.0
 43
0.0
 44
0.0
 45
0.0
 46
0.0
 47
0.0
 48
0.0
 49
0.0
140
0.0
141
0.0
142
1.0
143
1.0
 70
   688
 72
     0
 73
     0
 74
     5
  7

 75
    16
147
1.0
148
0.0
149
0.0
100
AcDbLayout
  1
Layout1
 70
     1
 71
     1
 10
0.0
 20
0.0
 11
1189.0
 21
840.9999999999998
 12
0.0
 22
0.0
 32
0.0
 14
0.0
 24
0.0
 34
0.0
 15
1189.0
 25
840.9999999999998
 35
0.0
146
0.0
 13
0.0
 23
0.0
 33
0.0
 16
1.0
 26
0.0
 36
0.0
 17
0.0
 27
1.0
 37
0.0
 76
     0
330
17
  0
LAYOUT
  5
15
102
{ACAD_XDICTIONARY
360
1AF
102
}
102
{ACAD_REACTORS
330
16
102
}
330
16
100
AcDbPlotSettings
  1

  2
\\le-server\HP LaserJet 2100
  4

  6

 40
0.0
 41
0.0
 42
0.0
 43
0.0
 44
0.0
 45
0.0
 46
0.0
 47
0.0
 48
0.0
 49
0.0
140
0.0
141
0.0
142
1.0
143
1.0
 70
  1712
 72
     0
 73
     0
 74
     0
  7

 75
     0
147
1.0
148
0.0
149
0.0
100
AcDbLayout
  1
Model
 70
     1
 71
     0
 10
0.0
 20
0.0
 11
12.0
 21
9.0
 12
0.0
 22
0.0
 32
0.0
 14
0.0
 24
0.0
 34
0.0
 15
0.0
 25
0.0
 35
0.0
146
0.0
 13
0.0
 23
0.0
 33
0.0
 16
1.0
 26
0.0
 36
0.0
 17
0.0
 27
1.0
 37
0.0
 76
     0
330
2
331
29
  0
MATERIAL
  5
3C
102
{ACAD_XDICTIONARY
360
3D
102
}
102
{ACAD_REACTORS
330
B
102
}
330
B
100
AcDbMaterial
  1
ByBlock
 72
     0
 43
0.0208333333333333
 43
0.0
 43
0.0
 43
0.0
 43
0.0
 43
0.0208333333333333
 43
0.0
 43
0.0
 43
0.0
 43
0.0
 43
1.0
 43
0.0
 43
0.0
 43
0.0
 43
0.0
 43
1.0
 77
     0
 47
0.0208333333333333
 47
0.0
 47
0.0
 47
0.0
 47
0.0
 47
0.0208333333333333
 47
0.0
 47
0.0
 47
0.0
 47
0.0
 47
1.0
 47
0.0
 47
0.0
 47
0.0
 47
0.0
 47
1.0
171
     0
 49
0.0208333333333333
 49
0.0
 49
0.0
 49
0.0
 49
0.0
 49
0.0208333333333333
 49
0.0
 49
0.0
 49
0.0
 49
0.0
 49
1.0
 49
0.0
 49
0.0
 49
0.0
 49
0.0
 49
1.0
175
     0
142
0.0208333333333333
142
0.0
142
0.0
142
0.0
142
0.0
142
0.0208333333333333
142
0.0
142
0.0
142
0.0
142
0.0
142
1.0
142
0.0
142
0.0
142
0.0
142
0.0
142
1.0
179
     0
144
0.0208333333333333
144
0.0
144
0.0
144
0.0
144
0.0
144
0.0208333333333333
144
0.0
144
0.0
144
0.0
144
0.0
144
1.0
144
0.0
144
0.0
144
0.0
144
0.0
144
1.0
147
0.0208333333333333
147
0.0
147
0.0
147
0.0
147
0.0
147
0.0208333333333333
147
0.0
147
0.0
147
0.0
147
0.0
147
1.0
147
0.0
147
0.0
147
0.0
147
0.0
147
1.0
  0
MATERIAL
  5
34
102
{ACAD_XDICTIONARY
360
35
102
}
102
{ACAD_REACTORS
330
B
102
}
330
B
100
AcDbMaterial
  1
ByLayer
 72
     0
 43
0.0208333333333333
 43
0.0
 43
0.0
 43
0.0
 43
0.0
 43
0.0208333333333333
 43
0.0
 43
0.0
 43
0.0
 43
0.0
 43
1.0
 43
0.0
 43
0.0
 43
0.0
 43
0.0
 43
1.0
 77
     0
 47
0.0208333333333333
 47
0.0
 47
0.0
 47
0.0
 47
0.0
 47
0.0208333333333333
 47
0.0
 47
0.0
 47
0.0
 47
0.0
 47
1.0
 47
0.0
 47
0.0
 47
0.0
 47
0.0
 47
1.0
171
     0
 49
0.0208333333333333
 49
0.0
 49
0.0
 49
0.0
 49
0.0
 49
0.0208333333333333
 49
0.0
 49
0.0
 49
0.0
 49
0.0
 49
1.0
 49
0.0
 49
0.0
 49
0.0
 49
0.0
 49
1.0
175
     0
142
0.0208333333333333
142
0.0
142
0.0
142
0.0
142
0.0
142
0.0208333333333333
142
0.0
142
0.0
142
0.0
142
0.0
142
1.0
142
0.0
142
0.0
142
0.0
142
0.0
142
1.0
179
     0
144
0.0208333333333333
144
0.0
144
0.0
144
0.0
144
0.0
144
0.0208333333333333
144
0.0
144
0.0
144
0.0
144
0.0
144
1.0
144
0.0
144
0.0
144
0.0
144
0.0
144
1.0
147
0.0208333333333333
147
0.0
147
0.0
147
0.0
147
0.0
147
0.0208333333333333
147
0.0
147
0.0
147
0.0
147
0.0
147
1.0
147
0.0
147
0.0
147
0.0
147
0.0
147
1.0
  0
MATERIAL
  5
A
102
{ACAD_XDICTIONARY
360
C
102
}
102
{ACAD_REACTORS
330
B
102
}
330
B
100
AcDbMaterial
  1
Global
 72
     0
 43
0.0208333333333333
 43
0.0
 43
0.0
 43
0.0
 43
0.0
 43
0.0208333333333333
 43
0.0
 43
0.0
 43
0.0
 43
0.0
 43
1.0
 43
0.0
 43
0.0
 43
0.0
 43
0.0
 43
1.0
 77
     0
 47
0.0208333333333333
 47
0.0
 47
0.0
 47
0.0
 47
0.0
 47
0.0208333333333333
 47
0.0
 47
0.0
 47
0.0
 47
0.0
 47
1.0
 47
0.0
 47
0.0
 47
0.0
 47
0.0
 47
1.0
171
     0
 49
0.0208333333333333
 49
0.0
 49
0.0
 49
0.0
 49
0.0
 49
0.0208333333333333
 49
0.0
 49
0.0
 49
0.0
 49
0.0
 49
1.0
 49
0.0
 49
0.0
 49
0.0
 49
0.0
 49
1.0
175
     0
142
0.0208333333333333
142
0.0
142
0.0
142
0.0
142
0.0
142
0.0208333333333333
142
0.0
142
0.0
142
0.0
142
0.0
142
1.0
142
0.0
142
0.0
142
0.0
142
0.0
142
1.0
179
     0
144
0.0208333333333333
144
0.0
144
0.0
144
0.0
144
0.0
144
0.0208333333333333
144
0.0
144
0.0
144
0.0
144
0.0
144
1.0
144
0.0
144
0.0
144
0.0
144
0.0
144
1.0
147
0.0208333333333333
147
0.0
147
0.0
147
0.0
147
0.0
147
0.0208333333333333
147
0.0
147
0.0
147
0.0
147
0.0
147
1.0
147
0.0
147
0.0
147
0.0
147
0.0
147
1.0
  0
MLEADERSTYLE
  5
19C
102
{ACAD_REACTORS
330
47
102
}
330
47
100
AcDbMLeaderStyle
170
     2
171
     1
172
     0
 90
        2
 40
0.0
 41
0.0
173
     1
 91
-1056964608
340
24
 92
       -2
290
     1
 42
2.0
291
     1
 43
0.36
  3
Standard
 44
4.0
300

342
21
174
     1
178
     6
175
     1
176
     0
 93
-1056964608
 45
4.0
292
     0
297
     0
 46
4.0
 94
-1056964608
 47
1.0
 49
1.0
140
1.0
293
     1
141
0.0
294
     1
177
     0
142
1.0
295
     0
296
     0
143
0.125
1001
ACAD_MLEADERVER
1070
     2
  0
MLINESTYLE
  5
48
102
{ACAD_REACTORS
330
32
102
}
330
32
100
AcDbMlineStyle
  2
STANDARD
 70
     0
  3

 62
   256
 51
90.0
 52
90.0
 71
     2
 49
0.5
 62
   256
  6
BYLAYER
 49
-0.5
 62
   256
  6
BYLAYER
  0
ACDBPLACEHOLDER
  5
7
102
{ACAD_REACTORS
330
8
102
}
330
8
  0
SCALE
  5
4D
102
{ACAD_REACTORS
330
45
102
}
330
45
100
AcDbScale
 70
     0
300
1:1
140
1.0
141
1.0
290
     1
  0
SCALE
  5
4E
102
{ACAD_REACTORS
330
45
102
}
330
45
100
AcDbScale
 70
     0
300
1:2
140
1.0
141
2.0
290
     0
  0
SCALE
  5
4F
102
{ACAD_REACTORS
330
45
102
}
330
45
100
AcDbScale
 70
     0
300
1:4
140
1.0
141
4.0
290
     0
  0
SCALE
  5
50
102
{ACAD_REACTORS
330
45
102
}
330
45
100
AcDbScale
 70
     0
300
1:5
140
1.0
141
5.0
290
     0
  0
SCALE
  5
51
102
{ACAD_REACTORS
330
45
102
}
330
45
100
AcDbScale
 70
     0
300
1:8
140
1.0
141
8.0
290
     0
  0
SCALE
  5
52
102
{ACAD_REACTORS
330
45
102
}
330
45
100
AcDbScale
 70
     0
300
1:10
140
1.0
141
10.0
290
     0
  0
SCALE
  5
53
102
{ACAD_REACTORS
330
45
102
}
330
45
100
AcDbScale
 70
     0
300
1:16
140
1.0
141
16.0
290
     0
  0
SCALE
  5
54
102
{ACAD_REACTORS
330
45
102
}
330
45
100
AcDbScale
 70
     0
300
1:20
140
1.0
141
20.0
290
     0
  0
SCALE
  5
55
102
{ACAD_REACTORS
330
45
102
}
330
45
100
AcDbScale
 70
     0
300
1:30
140
1.0
141
30.0
290
     0
  0
SCALE
  5
56
102
{ACAD_REACTORS
330
45
102
}
330
45
100
AcDbScale
 70
     0
300
1:40
140
1.0
141
40.0
290
     0
  0
SCALE
  5
57
102
{ACAD_REACTORS
330
45
102
}
330
45
100
AcDbScale
 70
     0
300
1:50
140
1.0
141
50.0
290
     0
  0
SCALE
  5
58
102
{ACAD_REACTORS
330
45
102
}
330
45
100
AcDbScale
 70
     0
300
1:100
140
1.0
141
100.0
290
     0
  0
SCALE
  5
59
102
{ACAD_REACTORS
330
45
102
}
330
45
100
AcDbScale
 70
     0
300
2:1
140
2.0
141
1.0
290
     0
  0
SCALE
  5
5A
102
{ACAD_REACTORS
330
45
102
}
330
45
100
AcDbScale
 70
     0
300
4:1
140
4.0
141
1.0
290
     0
  0
SCALE
  5
5B
102
{ACAD_REACTORS
330
45
102
}
330
45
100
AcDbScale
 70
     0
300
8:1
140
8.0
141
1.0
290
     0
  0
SCALE
  5
5C
102
{ACAD_REACTORS
330
45
102
}
330
45
100
AcDbScale
 70
     0
300
10:1
140
10.0
141
1.0
290
     0
  0
SCALE
  5
5D
102
{ACAD_REACTORS
330
45
102
}
330
45
100
AcDbScale
 70
     0
300
100:1
140
100.0
141
1.0
290
     0
  0
SCALE
  5
5E
102
{ACAD_REACTORS
330
45
102
}
330
45
100
AcDbScale
 70
     0
300
1/128" = 1'-0"
140
0.0078125
141
12.0
290
     0
  0
SCALE
  5
5F
102
{ACAD_REACTORS
330
45
102
}
330
45
100
AcDbScale
 70
     0
300
1/64" = 1'-0"
140
0.015625
141
12.0
290
     0
  0
SCALE
  5
60
102
{ACAD_REACTORS
330
45
102
}
330
45
100
AcDbScale
 70
     0
300
1/32" = 1'-0"
140
0.03125
141
12.0
290
     0
  0
SCALE
  5
61
102
{ACAD_REACTORS
330
45
102
}
330
45
100
AcDbScale
 70
     0
300
1/16" = 1'-0"
140
0.0625
141
12.0
290
     0
  0
SCALE
  5
62
102
{ACAD_REACTORS
330
45
102
}
330
45
100
AcDbScale
 70
     0
300
3/32" = 1'-0"
140
0.09375
141
12.0
290
     0
  0
SCALE
  5
63
102
{ACAD_REACTORS
330
45
102
}
330
45
100
AcDbScale
 70
     0
300
1/8" = 1'-0"
140
0.125
141
12.0
290
     0
  0
SCALE
  5
64
102
{ACAD_REACTORS
330
45
102
}
330
45
100
AcDbScale
 70
     0
300
3/16" = 1'-0"
140
0.1875
141
12.0
290
     0
  0
SCALE
  5
65
102
{ACAD_REACTORS
330
45
102
}
330
45
100
AcDbScale
 70
     0
300
1/4" = 1'-0"
140
0.25
141
12.0
290
     0
  0
SCALE
  5
66
102
{ACAD_REACTORS
330
45
102
}
330
45
100
AcDbScale
 70
     0
300
3/8" = 1'-0"
140
0.375
141
12.0
290
     0
  0
SCALE
  5
67
102
{ACAD_REACTORS
330
45
102
}
330
45
100
AcDbScale
 70
     0
300
1/2" = 1'-0"
140
0.5
141
12.0
290
     0
  0
SCALE
  5
68
102
{ACAD_REACTORS
330
45
102
}
330
45
100
AcDbScale
 70
     0
300
3/4" = 1'-0"
140
0.75
141
12.0
290
     0
  0
SCALE
  5
69
102
{ACAD_REACTORS
330
45
102
}
330
45
100
AcDbScale
 70
     0
300
1" = 1'-0"
140
1.0
141
12.0
290
     0
  0
SCALE
  5
6A
102
{ACAD_REACTORS
330
45
102
}
330
45
100
AcDbScale
 70
     0
300
1-1/2" = 1'-0"
140
1.5
141
12.0
290
     0
  0
SCALE
  5
6B
102
{ACAD_REACTORS
330
45
102
}
330
45
100
AcDbScale
 70
     0
300
3" = 1'-0"
140
3.0
141
12.0
290
     0
  0
SCALE
  5
6C
102
{ACAD_REACTORS
330
45
102
}
330
45
100
AcDbScale
 70
     0
300
6" = 1'-0"
140
6.0
141
12.0
290
     0
  0
SCALE
  5
6D
102
{ACAD_REACTORS
330
45
102
}
330
45
100
AcDbScale
 70
     0
300
1'-0" = 1'-0"
140
12.0
141
12.0
290
     0
  0
TABLESTYLE
  5
49
102
{ACAD_XDICTIONARY
360
4A
102
}
102
{ACAD_REACTORS
330
46
102
}
330
46
100
AcDbTableStyle
  3
Standard
 70
     0
 71
     0
 40
0.06
 41
0.06
280
     0
281
     0
  7
STANDARD
140
0.18
170
     2
 62
     0
 63
     7
283
     0
274
    -2
284
     1
 64
     0
275
    -2
285
     1
 65
     0
276
    -2
286
     1
 66
     0
277
    -2
287
     1
 67
     0
278
    -2
288
     1
 68
     0
279
    -2
289
     1
 69
     0
  7
STANDARD
140
0.25
170
     5
 62
     0
 63
     7
283
     0
274
    -2
284
     1
 64
     0
275
    -2
285
     1
 65
     0
276
    -2
286
     1
 66
     0
277
    -2
287
     1
 67
     0
278
    -2
288
     1
 68
     0
279
    -2
289
     1
 69
     0
  7
STANDARD
140
0.18
170
     5
 62
     0
 63
     7
283
     0
274
    -2
284
     1
 64
     0
275
    -2
285
     1
 65
     0
276
    -2
286
     1
 66
     0
277
    -2
287
     1
 67
     0
278
    -2
288
     1
 68
     0
279
    -2
289
     1
 69
     0
  0
VISUALSTYLE
  5
2A
102
{ACAD_XDICTIONARY
360
1B3
102
}
102
{ACAD_REACTORS
330
2B
102
}
330
2B
100
AcDbVisualStyle
  2
2dWireframe
 70
     4
 71
     0
 72
     2
 73
     0
 90
        0
 40
-0.6
 41
-30.0
 62
     5
 63
     7
 74
     1
 91
        4
 64
     7
 65
   257
 75
     1
175
     1
 42
1.0
 92
        0
 66
   257
 43
1.0
 76
     1
 77
     6
 78
     2
 67
     7
 79
     5
170
     0
171
     0
290
     0
174
     0
 93
        1
 44
0.0
173
     0
291
     0
 45
0.0
1001
ACAD
1000
AcDbSavedByObjectVersion
1070
     0
  0
VISUALSTYLE
  5
18B
102
{ACAD_XDICTIONARY
360
1C4
102
}
102
{ACAD_REACTORS
330
2B
102
}
330
2B
100
AcDbVisualStyle
  2
Basic
 70
     7
 71
     1
 72
     0
 73
     1
 90
        0
 40
-0.6
 41
-30.0
 62
     5
 63
     7
 74
     0
 91
        4
 64
     7
 65
   257
 75
     1
175
     1
 42
1.0
 92
        8
 66
     7
 43
1.0
 76
     1
 77
     6
 78
     2
 67
     7
 79
     5
170
     0
171
     0
290
     0
174
     0
 93
        1
 44
0.0
173
     0
291
     1
 45
0.0
1001
ACAD
1000
AcDbSavedByObjectVersion
1070
     0
  0
VISUALSTYLE
  5
18F
102
{ACAD_XDICTIONARY
360
1CC
102
}
102
{ACAD_REACTORS
330
2B
102
}
330
2B
100
AcDbVisualStyle
  2
Brighten
 70
    12
 71
     2
 72
     2
 73
     0
 90
        0
 40
-0.6
 41
-30.0
 62
     5
 63
     7
 74
     1
 91
        4
 64
     7
 65
   257
 75
     1
175
     1
 42
1.0
 92
        8
 66
     7
 43
1.0
 76
     1
 77
     6
 78
     2
 67
     7
 79
     5
170
     0
171
     0
290
     0
174
     0
 93
        1
 44
50.0
173
     0
291
     1
 45
0.0
1001
ACAD
1000
AcDbSavedByObjectVersion
1070
     0
  0
VISUALSTYLE
  5
193
102
{ACAD_XDICTIONARY
360
1D4
102
}
102
{ACAD_REACTORS
330
2B
102
}
330
2B
100
AcDbVisualStyle
  2
ColorChange
 70
    16
 71
     2
 72
     2
 73
     3
 90
        0
 40
-0.6
 41
-30.0
 62
     5
 63
     8
 74
     1
 91
        4
 64
     7
 65
   257
 75
     1
175
     1
 42
1.0
 92
        8
 66
     8
 43
1.0
 76
     1
 77
     6
 78
     2
 67
     7
 79
     5
170
     0
171
     0
290
     0
174
     0
 93
        1
 44
0.0
173
     0
291
     1
 45
0.0
1001
ACAD
1000
AcDbSavedByObjectVersion
1070
     0
  0
VISUALSTYLE
  5
18D
102
{ACAD_XDICTIONARY
360
1C8
102
}
102
{ACAD_REACTORS
330
2B
102
}
330
2B
100
AcDbVisualStyle
  2
Conceptual
 70
     9
 71
     3
 72
     2
 73
     0
 90
        0
 40
-0.6
 41
-30.0
 62
     5
 63
     7
 74
     2
 91
        2
 64
     7
 65
   257
 75
     1
175
     1
 42
179.0
 92
        8
 66
     7
 43
1.0
 76
     1
 77
     6
 78
     2
 67
     7
 79
     3
170
     0
171
     0
290
     0
174
     0
 93
        1
 44
0.0
173
     0
291
     0
 45
0.0
1001
ACAD
1000
AcDbSavedByObjectVersion
1070
     0
  0
VISUALSTYLE
  5
18E
102
{ACAD_XDICTIONARY
360
1CA
102
}
102
{ACAD_REACTORS
330
2B
102
}
330
2B
100
AcDbVisualStyle
  2
Dim
 70
    11
 71
     2
 72
     2
 73
     0
 90
        0
 40
-0.6
 41
-30.0
 62
     5
 63
     7
 74
     1
 91
        4
 64
     7
 65
   257
 75
     1
175
     1
 42
1.0
 92
        8
 66
     7
 43
1.0
 76
     1
 77
     6
 78
     2
 67
     7
 79
     5
170
     0
171
     0
290
     0
174
     0
 93
        1
 44
-50.0
173
     0
291
     1
 45
0.0
1001
ACAD
1000
AcDbSavedByObjectVersion
1070
     0
  0
VISUALSTYLE
  5
19B
102
{ACAD_XDICTIONARY
360
1E4
102
}
102
{ACAD_REACTORS
330
2B
102
}
330
2B
100
AcDbVisualStyle
  2
EdgeColorOff
 70
    22
 71
     2
 72
     2
 73
     0
 90
        0
 40
-0.6
 41
-30.0
 62
     5
 63
     7
 74
     1
 91
        4
 64
     7
 65
   257
 75
     1
175
     1
 42
1.0
 92
        8
 66
     7
 43
1.0
 76
     1
 77
     6
 78
     2
 67
     7
 79
     5
170
     0
171
     0
290
     0
174
     0
 93
        1
 44
0.0
173
     0
291
     1
 45
0.0
1001
ACAD
1000
AcDbSavedByObjectVersion
1070
     0
  0
VISUALSTYLE
  5
192
102
{ACAD_XDICTIONARY
360
1D2
102
}
102
{ACAD_REACTORS
330
2B
102
}
330
2B
100
AcDbVisualStyle
  2
Facepattern
 70
    15
 71
     2
 72
     2
 73
     0
 90
        0
 40
-0.6
 41
-30.0
 62
     5
 63
     7
 74
     1
 91
        4
 64
     7
 65
   257
 75
     1
175
     1
 42
1.0
 92
        8
 66
     7
 43
1.0
 76
     1
 77
     6
 78
     2
 67
     7
 79
     5
170
     0
171
     0
290
     0
174
     0
 93
        1
 44
0.0
173
     0
291
     1
 45
0.0
1001
ACAD
1000
AcDbSavedByObjectVersion
1070
     0
  0
VISUALSTYLE
  5
187
102
{ACAD_XDICTIONARY
360
1BC
102
}
102
{ACAD_REACTORS
330
2B
102
}
330
2B
100
AcDbVisualStyle
  2
Flat
 70
     0
 71
     2
 72
     1
 73
     1
 90
        2
 40
-0.6
 41
30.0
 62
     5
 63
     7
 74
     0
 91
        0
 64
     7
 65
   257
 75
     1
175
     1
 42
1.0
 92
        8
 66
     7
 43
1.0
 76
     1
 77
     6
 78
     2
 67
     7
 79
     5
170
     0
171
     0
290
     0
174
     0
 93
       13
 44
0.0
173
     0
291
     1
 45
0.0
1001
ACAD
1000
AcDbSavedByObjectVersion
1070
     0
  0
VISUALSTYLE
  5
188
102
{ACAD_XDICTIONARY
360
1BE
102
}
102
{ACAD_REACTORS
330
2B
102
}
330
2B
100
AcDbVisualStyle
  2
FlatWithEdges
 70
     1
 71
     2
 72
     1
 73
     1
 90
        2
 40
-0.6
 41
30.0
 62
     5
 63
     7
 74
     1
 91
        0
 64
     7
 65
   257
 75
     1
175
     1
 42
1.0
 92
        0
 66
   257
 43
1.0
 76
     1
 77
     6
 78
     2
 67
     7
 79
     5
170
     0
171
     0
290
     0
174
     0
 93
       13
 44
0.0
173
     0
291
     1
 45
0.0
1001
ACAD
1000
AcDbSavedByObjectVersion
1070
     0
  0
VISUALSTYLE
  5
189
102
{ACAD_XDICTIONARY
360
1C0
102
}
102
{ACAD_REACTORS
330
2B
102
}
330
2B
100
AcDbVisualStyle
  2
Gouraud
 70
     2
 71
     2
 72
     2
 73
     1
 90
        2
 40
-0.6
 41
30.0
 62
     5
 63
     7
 74
     0
 91
        0
 64
     7
 65
   257
 75
     1
175
     1
 42
1.0
 92
        0
 66
     7
 43
1.0
 76
     1
 77
     6
 78
     2
 67
     7
 79
     5
170
     0
171
     0
290
     0
174
     0
 93
       13
 44
0.0
173
     0
291
     1
 45
0.0
1001
ACAD
1000
AcDbSavedByObjectVersion
1070
     0
  0
VISUALSTYLE
  5
18A
102
{ACAD_XDICTIONARY
360
1C2
102
}
102
{ACAD_REACTORS
330
2B
102
}
330
2B
100
AcDbVisualStyle
  2
GouraudWithEdges
 70
     3
 71
     2
 72
     2
 73
     1
 90
        2
 40
-0.6
 41
30.0
 62
     5
 63
     7
 74
     1
 91
        0
 64
     7
 65
   257
 75
     1
175
     1
 42
1.0
 92
        0
 66
   257
 43
1.0
 76
     1
 77
     6
 78
     2
 67
     7
 79
     5
170
     0
171
     0
290
     0
174
     0
 93
       13
 44
0.0
173
     0
291
     1
 45
0.0
1001
ACAD
1000
AcDbSavedByObjectVersion
1070
     0
  0
VISUALSTYLE
  5
18C
102
{ACAD_XDICTIONARY
360
1C6
102
}
102
{ACAD_REACTORS
330
2B
102
}
330
2B
100
AcDbVisualStyle
  2
Hidden
 70
     6
 71
     1
 72
     2
 73
     2
 90
        0
 40
-0.6
 41
-30.0
 62
     5
 63
     7
 74
     2
 91
        2
 64
     7
 65
   257
 75
     2
175
     1
 42
40.0
 92
        0
 66
   257
 43
1.0
 76
     1
 77
     6
 78
     2
 67
     7
 79
     3
170
     0
171
     0
290
     0
174
     0
 93
        1
 44
0.0
173
     0
291
     0
 45
0.0
1001
ACAD
1000
AcDbSavedByObjectVersion
1070
     0
  0
VISUALSTYLE
  5
199
102
{ACAD_XDICTIONARY
360
1E0
102
}
102
{ACAD_REACTORS
330
2B
102
}
330
2B
100
AcDbVisualStyle
  2
JitterOff
 70
    20
 71
     2
 72
     2
 73
     0
 90
        0
 40
-0.6
 41
-30.0
 62
     5
 63
     7
 74
     1
 91
        4
 64
     7
 65
   257
 75
     1
175
     1
 42
1.0
 92
       10
 66
     7
 43
1.0
 76
     1
 77
     6
 78
     2
 67
     7
 79
     5
170
     0
171
     0
290
     0
174
     0
 93
        1
 44
0.0
173
     0
291
     1
 45
0.0
1001
ACAD
1000
AcDbSavedByObjectVersion
1070
     0
  0
VISUALSTYLE
  5
191
102
{ACAD_XDICTIONARY
360
1D0
102
}
102
{ACAD_REACTORS
330
2B
102
}
330
2B
100
AcDbVisualStyle
  2
Linepattern
 70
    14
 71
     2
 72
     2
 73
     0
 90
        0
 40
-0.6
 41
-30.0
 62
     5
 63
     7
 74
     1
 91
        4
 64
     7
 65
   257
 75
     7
175
     7
 42
1.0
 92
        8
 66
     7
 43
1.0
 76
     1
 77
     6
 78
     2
 67
     7
 79
     5
170
     0
171
     0
290
     0
174
     0
 93
        1
 44
0.0
173
     0
291
     1
 45
0.0
1001
ACAD
1000
AcDbSavedByObjectVersion
1070
     0
  0
VISUALSTYLE
  5
19A
102
{ACAD_XDICTIONARY
360
1E2
102
}
102
{ACAD_REACTORS
330
2B
102
}
330
2B
100
AcDbVisualStyle
  2
OverhangOff
 70
    21
 71
     2
 72
     2
 73
     0
 90
        0
 40
-0.6
 41
-30.0
 62
     5
 63
     7
 74
     1
 91
        4
 64
     7
 65
   257
 75
     1
175
     1
 42
1.0
 92
        9
 66
     7
 43
1.0
 76
     1
 77
     6
 78
     2
 67
     7
 79
     5
170
     0
171
     0
290
     0
174
     0
 93
        1
 44
0.0
173
     0
291
     1
 45
0.0
1001
ACAD
1000
AcDbSavedByObjectVersion
1070
     0
  0
VISUALSTYLE
  5
4B
102
{ACAD_XDICTIONARY
360
1B8
102
}
102
{ACAD_REACTORS
330
2B
102
}
330
2B
100
AcDbVisualStyle
  2
Realistic
 70
     8
 71
     2
 72
     2
 73
     0
 90
        0
 40
-0.6
 41
-30.0
 62
     5
 63
     7
 74
     1
 91
        0
 64
     7
 65
   257
 75
     1
175
     1
 42
1.0
 92
        8
 66
     8
 43
1.0
 76
     1
 77
     6
 78
     2
 67
     7
 79
     5
170
     0
171
     0
290
     0
174
     0
 93
       13
 44
0.0
173
     0
291
     0
 45
0.0
1001
ACAD
1000
AcDbSavedByObjectVersion
1070
     0
  0
VISUALSTYLE
  5
198
102
{ACAD_XDICTIONARY
360
1DE
102
}
102
{ACAD_REACTORS
330
2B
102
}
330
2B
100
AcDbVisualStyle
  2
Shaded
 70
    27
 71
     2
 72
     2
 73
     1
 90
        2
 40
-0.6
 41
30.0
 62
     5
 63
     7
 74
     0
 91
        4
 64
     7
 65
   257
 75
     1
175
     1
 42
1.0
 92
        8
 66
   257
 43
1.0
 76
     1
 77
     6
 78
     2
 67
     8
 79
     3
170
     0
171
     0
290
     0
174
     0
 93
        5
 44
0.0
173
     0
291
     0
 45
0.0
1001
ACAD
1000
AcDbSavedByObjectVersion
1070
     0
  0
VISUALSTYLE
  5
197
102
{ACAD_XDICTIONARY
360
1DC
102
}
102
{ACAD_REACTORS
330
2B
102
}
330
2B
100
AcDbVisualStyle
  2
Shaded with edges
 70
    26
 71
     2
 72
     2
 73
     1
 90
        2
 40
-0.6
 41
30.0
 62
     5
 63
     7
 74
     1
 91
       10
 64
     7
 65
   257
 75
     2
175
     1
 42
1.0
 92
        8
 66
   257
 43
1.0
 76
     1
 77
     6
 78
     2
 67
     7
 79
     3
170
     0
171
     0
290
     0
174
     0
 93
        5
 44
0.0
173
     0
291
     0
 45
0.0
1001
ACAD
1000
AcDbSavedByObjectVersion
1070
     0
  0
VISUALSTYLE
  5
194
102
{ACAD_XDICTIONARY
360
1D6
102
}
102
{ACAD_REACTORS
330
2B
102
}
330
2B
100
AcDbVisualStyle
  2
Shades of Gray
 70
    23
 71
     2
 72
     2
 73
     3
 90
        0
 40
-0.6
 41
-30.0
 62
     5
 63
     7
 74
     2
 91
        2
 64
     7
 65
     7
 75
     1
175
     1
 42
40.0
 92
        8
 66
     7
 43
1.0
 76
     1
 77
     6
 78
     2
 67
     7
 79
     3
170
     0
171
     0
290
     0
174
     0
 93
        1
 44
0.0
173
     0
291
     0
 45
0.0
1001
ACAD
1000
AcDbSavedByObjectVersion
1070
     0
  0
VISUALSTYLE
  5
195
102
{ACAD_XDICTIONARY
360
1D8
102
}
102
{ACAD_REACTORS
330
2B
102
}
330
2B
100
AcDbVisualStyle
  2
Sketchy
 70
    24
 71
     1
 72
     2
 73
     2
 90
        0
 40
-0.6
 41
-30.0
 62
     5
 63
     7
 74
     2
 91
        2
 64
     7
 65
     7
 75
     1
175
     1
 42
40.0
 92
       11
 66
     7
 43
1.0
 76
     1
 77
     6
 78
     2
 67
     7
 79
     6
170
     0
171
     0
290
     0
174
     0
 93
        1
 44
0.0
173
     0
291
     0
 45
0.0
1001
ACAD
1000
AcDbSavedByObjectVersion
1070
     0
  0
VISUALSTYLE
  5
190
102
{ACAD_XDICTIONARY
360
1CE
102
}
102
{ACAD_REACTORS
330
2B
102
}
330
2B
100
AcDbVisualStyle
  2
Thicken
 70
    13
 71
     2
 72
     2
 73
     0
 90
        0
 40
-0.6
 41
-30.0
 62
     5
 63
     7
 74
     1
 91
        4
 64
     7
 65
   257
 75
     1
175
     1
 42
1.0
 92
       12
 66
     7
 43
1.0
 76
     1
 77
     6
 78
     2
 67
     7
 79
     5
170
     0
171
     0
290
     0
174
     0
 93
        1
 44
0.0
173
     0
291
     1
 45
0.0
1001
ACAD
1000
AcDbSavedByObjectVersion
1070
     0
  0
VISUALSTYLE
  5
4C
102
{ACAD_XDICTIONARY
360
1BA
102
}
102
{ACAD_REACTORS
330
2B
102
}
330
2B
100
AcDbVisualStyle
  2
Wireframe
 70
     5
 71
     0
 72
     2
 73
     0
 90
        0
 40
-0.6
 41
-30.0
 62
     5
 63
     7
 74
     1
 91
        4
 64
     7
 65
   257
 75
     1
175
     1
 42
1.0
 92
        0
 66
   257
 43
1.0
 76
     1
 77
     6
 78
     2
 67
     7
 79
     3
170
     0
171
     0
290
     0
174
     0
 93
        1
 44
0.0
173
     0
291
     0
 45
0.0
1001
ACAD
1000
AcDbSavedByObjectVersion
1070
     0
  0
VISUALSTYLE
  5
196
102
{ACAD_XDICTIONARY
360
1DA
102
}
102
{ACAD_REACTORS
330
2B
102
}
330
2B
100
AcDbVisualStyle
  2
X-Ray
 70
    25
 71
     2
 72
     2
 73
     1
 90
        1
 40
0.5
 41
-30.0
 62
     5
 63
     7
 74
     1
 91
        0
 64
     7
 65
   257
 75
     1
175
     1
 42
1.0
 92
        8
 66
     7
 43
1.0
 76
     1
 77
     6
 78
     2
 67
     7
 79
     3
170
     0
171
     0
290
     0
174
     0
 93
       13
 44
0.0
173
     0
291
     0
 45
0.0
1001
ACAD
1000
AcDbSavedByObjectVersion
1070
     0
  0
DICTIONARYVAR
  5
182
102
{ACAD_REACTORS
330
17E
102
}
330
17E
100
DictionaryVariables
280
     0
  1
1:1
  0
DICTIONARYVAR
  5
180
102
{ACAD_REACTORS
330
17E
102
}
330
17E
100
DictionaryVariables
280
     0
  1
STANDARD
  0
DICTIONARYVAR
  5
17F
102
{ACAD_REACTORS
330
17E
102
}
330
17E
100
DictionaryVariables
280
     0
  1
STANDARD
  0
DICTIONARYVAR
  5
1A5
102
{ACAD_REACTORS
330
17E
102
}
330
17E
100
DictionaryVariables
280
     0
  1
1
  0
DICTIONARYVAR
  5
1A4
102
{ACAD_REACTORS
330
17E
102
}
330
17E
100
DictionaryVariables
280
     0
  1
1
  0
DICTIONARYVAR
  5
1A3
102
{ACAD_REACTORS
330
17E
102
}
330
17E
100
DictionaryVariables
280
     0
  1
0
  0
DICTIONARYVAR
  5
184
102
{ACAD_REACTORS
330
17E
102
}
330
17E
100
DictionaryVariables
280
     0
  1
1
  0
DICTIONARYVAR
  5
185
102
{ACAD_REACTORS
330
17E
102
}
330
17E
100
DictionaryVariables
280
     0
  1
15
  0
DICTIONARYVAR
  5
183
102
{ACAD_REACTORS
330
17E
102
}
330
17E
100
DictionaryVariables
280
     0
  1
0
  0
DICTIONARYVAR
  5
181
102
{ACAD_REACTORS
330
17E
102
}
330
17E
100
DictionaryVariables
280
     0
  1
0
  0
DICTIONARYVAR
  5
1A2
102
{ACAD_REACTORS
330
17E
102
}
330
17E
100
DictionaryVariables
280
     0
  1
127
  0
DICTIONARYVAR
  5
1A6
102
{ACAD_REACTORS
330
17E
102
}
330
17E
100
DictionaryVariables
280
     0
  1
2
  0
DICTIONARY
  5
1B1
330
1A
100
AcDbDictionary
280
     1
281
     1
  3
ACAD_XREC_ROUNDTRIP
360
1B2
  0
DICTIONARY
  5
1AF
330
15
100
AcDbDictionary
280
     1
281
     1
  3
ACAD_XREC_ROUNDTRIP
360
1B0
  0
DICTIONARY
  5
3D
330
3C
100
AcDbDictionary
280
     1
281
     1
  3
ACAD_XREC_ROUNDTRIP
360
1B6
  3
BUMPTILE
360
3E
  3
DIFFUSETILE
360
3F
  3
OPACITYTILE
360
40
  3
REFLECTIONTILE
360
41
  3
REFRACTIONTILE
360
42
  3
SPECULARTILE
360
43
  0
DICTIONARY
  5
35
330
34
100
AcDbDictionary
280
     1
281
     1
  3
ACAD_XREC_ROUNDTRIP
360
1B5
  3
BUMPTILE
360
36
  3
DIFFUSETILE
360
37
  3
OPACITYTILE
360
38
  3
REFLECTIONTILE
360
39
  3
REFRACTIONTILE
360
3A
  3
SPECULARTILE
360
3B
  0
DICTIONARY
  5
C
330
A
100
AcDbDictionary
280
     1
281
     1
  3
ACAD_XREC_ROUNDTRIP
360
1AE
  3
BUMPTILE
360
D
  3
DIFFUSETILE
360
E
  3
OPACITYTILE
360
F
  3
REFLECTIONTILE
360
10
  3
REFRACTIONTILE
360
11
  3
SPECULARTILE
360
12
  0
DICTIONARY
  5
4A
330
49
100
AcDbDictionary
280
     1
281
     1
  3
ACAD_ROUNDTRIP_2008_TABLESTYLE_CELLSTYLEMAP
360
1A7
  3
ACAD_XREC_ROUNDTRIP
360
1B7
  0
DICTIONARY
  5
1B3
330
2A
100
AcDbDictionary
280
     1
281
     1
  3
ACAD_XREC_ROUNDTRIP
360
1B4
  0
DICTIONARY
  5
1C4
330
18B
100
AcDbDictionary
280
     1
281
     1
  3
ACAD_XREC_ROUNDTRIP
360
1C5
  0
DICTIONARY
  5
1CC
330
18F
100
AcDbDictionary
280
     1
281
     1
  3
ACAD_XREC_ROUNDTRIP
360
1CD
  0
DICTIONARY
  5
1D4
330
193
100
AcDbDictionary
280
     1
281
     1
  3
ACAD_XREC_ROUNDTRIP
360
1D5
  0
DICTIONARY
  5
1C8
330
18D
100
AcDbDictionary
280
     1
281
     1
  3
ACAD_XREC_ROUNDTRIP
360
1C9
  0
DICTIONARY
  5
1CA
330
18E
100
AcDbDictionary
280
     1
281
     1
  3
ACAD_XREC_ROUNDTRIP
360
1CB
  0
DICTIONARY
  5
1E4
330
19B
100
AcDbDictionary
280
     1
281
     1
  3
ACAD_XREC_ROUNDTRIP
360
1E5
  0
DICTIONARY
  5
1D2
330
192
100
AcDbDictionary
280
     1
281
     1
  3
ACAD_XREC_ROUNDTRIP
360
1D3
  0
DICTIONARY
  5
1BC
330
187
100
AcDbDictionary
280
     1
281
     1
  3
ACAD_XREC_ROUNDTRIP
360
1BD
  0
DICTIONARY
  5
1BE
330
188
100
AcDbDictionary
280
     1
281
     1
  3
ACAD_XREC_ROUNDTRIP
360
1BF
  0
DICTIONARY
  5
1C0
330
189
100
AcDbDictionary
280
     1
281
     1
  3
ACAD_XREC_ROUNDTRIP
360
1C1
  0
DICTIONARY
  5
1C2
330
18A
100
AcDbDictionary
280
     1
281
     1
  3
ACAD_XREC_ROUNDTRIP
360
1C3
  0
DICTIONARY
  5
1C6
330
18C
100
AcDbDictionary
280
     1
281
     1
  3
ACAD_XREC_ROUNDTRIP
360
1C7
  0
DICTIONARY
  5
1E0
330
199
100
AcDbDictionary
280
     1
281
     1
  3
ACAD_XREC_ROUNDTRIP
360
1E1
  0
DICTIONARY
  5
1D0
330
191
100
AcDbDictionary
280
     1
281
     1
  3
ACAD_XREC_ROUNDTRIP
360
1D1
  0
DICTIONARY
  5
1E2
330
19A
100
AcDbDictionary
280
     1
281
     1
  3
ACAD_XREC_ROUNDTRIP
360
1E3
  0
DICTIONARY
  5
1B8
330
4B
100
AcDbDictionary
280
     1
281
     1
  3
ACAD_XREC_ROUNDTRIP
360
1B9
  0
DICTIONARY
  5
1DE
330
198
100
AcDbDictionary
280
     1
281
     1
  3
ACAD_XREC_ROUNDTRIP
360
1DF
  0
DICTIONARY
  5
1DC
330
197
100
AcDbDictionary
280
     1
281
     1
  3
ACAD_XREC_ROUNDTRIP
360
1DD
  0
DICTIONARY
  5
1D6
330
194
100
AcDbDictionary
280
     1
281
     1
  3
ACAD_XREC_ROUNDTRIP
360
1D7
  0
DICTIONARY
  5
1D8
330
195
100
AcDbDictionary
280
     1
281
     1
  3
ACAD_XREC_ROUNDTRIP
360
1D9
  0
DICTIONARY
  5
1CE
330
190
100
AcDbDictionary
280
     1
281
     1
  3
ACAD_XREC_ROUNDTRIP
360
1CF
  0
DICTIONARY
  5
1BA
330
4C
100
AcDbDictionary
280
     1
281
     1
  3
ACAD_XREC_ROUNDTRIP
360
1BB
  0
DICTIONARY
  5
1DA
330
196
100
AcDbDictionary
280
     1
281
     1
  3
ACAD_XREC_ROUNDTRIP
360
1DB
  0
XRECORD
  5
1B2
102
{ACAD_REACTORS
330
1B1
102
}
330
1B1
100
AcDbXrecord
280
     1
102
SHADEPLOT
 70
     0
102
SHADEPLOTRESLEVEL
 70
     2
102
SHADEPLOTCUSTOMDPI
 70
   300
  0
XRECORD
  5
1B0
102
{ACAD_REACTORS
330
1AF
102
}
330
1AF
100
AcDbXrecord
280
     1
102
SHADEPLOT
 70
     0
102
SHADEPLOTRESLEVEL
 70
     2
102
SHADEPLOTCUSTOMDPI
 70
   300
  0
XRECORD
  5
1B6
102
{ACAD_REACTORS
330
3D
102
}
330
3D
100
AcDbXrecord
280
     1
102
MATERIAL
148
0.0
149
0.0
149
0.0
 93
        0
 94
      127
282
     0
 72
     0
 77
     0
171
     0
175
     0
179
     0
273
     0
  0
XRECORD
  5
3E
102
{ACAD_REACTORS
330
3D
102
}
330
3D
100
AcDbXrecord
280
     1
270
     1
271
     1
  0
XRECORD
  5
3F
102
{ACAD_REACTORS
330
3D
102
}
330
3D
100
AcDbXrecord
280
     1
270
     1
271
     1
  0
XRECORD
  5
40
102
{ACAD_REACTORS
330
3D
102
}
330
3D
100
AcDbXrecord
280
     1
270
     1
271
     1
  0
XRECORD
  5
41
102
{ACAD_REACTORS
330
3D
102
}
330
3D
100
AcDbXrecord
280
     1
270
     1
271
     1
  0
XRECORD
  5
42
102
{ACAD_REACTORS
330
3D
102
}
330
3D
100
AcDbXrecord
280
     1
270
     1
271
     1
  0
XRECORD
  5
43
102
{ACAD_REACTORS
330
3D
102
}
330
3D
100
AcDbXrecord
280
     1
270
     1
271
     1
  0
XRECORD
  5
1B5
102
{ACAD_REACTORS
330
35
102
}
330
35
100
AcDbXrecord
280
     1
102
MATERIAL
148
0.0
149
0.0
149
0.0
 93
        0
 94
      127
282
     0
 72
     0
 77
     0
171
     0
175
     0
179
     0
273
     0
  0
XRECORD
  5
36
102
{ACAD_REACTORS
330
35
102
}
330
35
100
AcDbXrecord
280
     1
270
     1
271
     1
  0
XRECORD
  5
37
102
{ACAD_REACTORS
330
35
102
}
330
35
100
AcDbXrecord
280
     1
270
     1
271
     1
  0
XRECORD
  5
38
102
{ACAD_REACTORS
330
35
102
}
330
35
100
AcDbXrecord
280
     1
270
     1
271
     1
  0
XRECORD
  5
39
102
{ACAD_REACTORS
330
35
102
}
330
35
100
AcDbXrecord
280
     1
270
     1
271
     1
  0
XRECORD
  5
3A
102
{ACAD_REACTORS
330
35
102
}
330
35
100
AcDbXrecord
280
     1
270
     1
271
     1
  0
XRECORD
  5
3B
102
{ACAD_REACTORS
330
35
102
}
330
35
100
AcDbXrecord
280
     1
270
     1
271
     1
  0
XRECORD
  5
1AE
102
{ACAD_REACTORS
330
C
102
}
330
C
100
AcDbXrecord
280
     1
102
MATERIAL
148
0.0
149
0.0
149
0.0
 93
        0
 94
      127
282
     0
 72
     0
 77
     0
171
     0
175
     0
179
     0
273
     0
  0
XRECORD
  5
D
102
{ACAD_REACTORS
330
C
102
}
330
C
100
AcDbXrecord
280
     1
270
     1
271
     1
  0
XRECORD
  5
E
102
{ACAD_REACTORS
330
C
102
}
330
C
100
AcDbXrecord
280
     1
270
     1
271
     1
  0
XRECORD
  5
F
102
{ACAD_REACTORS
330
C
102
}
330
C
100
AcDbXrecord
280
     1
270
     1
271
     1
  0
XRECORD
  5
10
102
{ACAD_REACTORS
330
C
102
}
330
C
100
AcDbXrecord
280
     1
270
     1
271
     1
  0
XRECORD
  5
11
102
{ACAD_REACTORS
330
C
102
}
330
C
100
AcDbXrecord
280
     1
270
     1
271
     1
  0
XRECORD
  5
12
102
{ACAD_REACTORS
330
C
102
}
330
C
100
AcDbXrecord
280
     1
270
     1
271
     1
  0
CELLSTYLEMAP
  5
1A7
102
{ACAD_REACTORS
330
4A
102
}
330
4A
100
AcDbCellStyleMap
 90
        3
300
CELLSTYLE
  1
TABLEFORMAT_BEGIN
 90
        5
170
     1
 91
        0
 92
    32768
 62
   257
 93
        1
300
CONTENTFORMAT
  1
CONTENTFORMAT_BEGIN
 90
        0
 91
        0
 92
      512
 93
        0
300

 40
0.0
140
1.0
 94
        5
 62
     0
340
21
144
0.25
309
CONTENTFORMAT_END
171
     0
 94
        0
309
TABLEFORMAT_END
  1
CELLSTYLE_BEGIN
 90
        1
 91
        1
300
_TITLE
309
CELLSTYLE_END
300
CELLSTYLE
  1
TABLEFORMAT_BEGIN
 90
        5
170
     1
 91
        0
 92
        0
 62
   257
 93
        1
300
CONTENTFORMAT
  1
CONTENTFORMAT_BEGIN
 90
        0
 91
        0
 92
      512
 93
        0
300

 40
0.0
140
1.0
 94
        5
 62
     0
340
21
144
0.18
309
CONTENTFORMAT_END
171
     0
 94
        0
309
TABLEFORMAT_END
  1
CELLSTYLE_BEGIN
 90
        2
 91
        1
300
_HEADER
309
CELLSTYLE_END
300
CELLSTYLE
  1
TABLEFORMAT_BEGIN
 90
        5
170
     1
 91
        0
 92
        0
 62
   257
 93
        1
300
CONTENTFORMAT
  1
CONTENTFORMAT_BEGIN
 90
        0
 91
        0
 92
      512
 93
        0
300

 40
0.0
140
1.0
 94
        2
 62
     0
340
21
144
0.18
309
CONTENTFORMAT_END
171
     0
 94
        0
309
TABLEFORMAT_END
  1
CELLSTYLE_BEGIN
 90
        3
 91
        2
300
_DATA
309
CELLSTYLE_END
  0
XRECORD
  5
1B7
102
{ACAD_REACTORS
330
4A
102
}
330
4A
100
AcDbXrecord
280
     1
102
ACAD_ROUNDTRIP_PRE2007_TABLESTYLE
 90
      512
 91
        0
  1

 92
      512
 93
        0
  2

 94
      512
 95
        0
  3

  0
XRECORD
  5
1B4
102
{ACAD_REACTORS
330
1B3
102
}
330
1B3
100
AcDbXrecord
280
     1
102
RTVSPropertyOp0
 70
     1
102
RTVSPropertyOp1
 70
     1
102
RTVSPropertyOp2
 70
     1
102
RTVSPropertyOp3
 70
     1
102
RTVSPropertyOp4
 70
     1
102
RTVSPropertyOp5
 70
     1
102
RTVSPropertyOp6
 70
     1
102
RTVSPropertyOp7
 70
     1
102
RTVSPropertyOp8
 70
     1
102
RTVSPropertyOp9
 70
     1
102
RTVSPropertyOp10
 70
     1
102
RTVSPropertyOp11
 70
     1
102
RTVSPropertyOp12
 70
     1
102
RTVSPropertyOp13
 70
     1
102
RTVSPropertyOp14
 70
     1
102
RTVSPropertyOp15
 70
     1
102
RTVSPropertyOp16
 70
     1
102
RTVSPropertyOp17
 70
     1
102
RTVSPropertyOp18
 70
     1
102
RTVSPropertyOp19
 70
     1
102
RTVSPropertyOp20
 70
     1
102
RTVSPropertyOp21
 70
     1
102
RTVSPropertyOp22
 70
     1
102
RTVSPropertyOp23
 70
     1
102
RTVSPropertyOp24
 70
     1
102
RTVSPropertyOp25
 70
     1
102
RTVSPropertyOp26
 70
     1
102
RTVSPropertyOp27
 70
     1
102
RTVSPropertyOp28
 70
     1
102
RTVSPropertyOp29
 70
     1
102
RTVSPropertyOp30
 70
     1
102
RTVSPropertyOp31
 70
     1
102
RTVSPropertyOp32
 70
     1
  0
XRECORD
  5
1C5
102
{ACAD_REACTORS
330
1C4
102
}
330
1C4
100
AcDbXrecord
280
     1
102
RTVSPropertyOp0
 70
     1
102
RTVSPropertyOp1
 70
     1
102
RTVSPropertyOp2
 70
     1
102
RTVSPropertyOp3
 70
     1
102
RTVSPropertyOp4
 70
     1
102
RTVSPropertyOp5
 70
     1
102
RTVSPropertyOp6
 70
     1
102
RTVSPropertyOp7
 70
     1
102
RTVSPropertyOp8
 70
     1
102
RTVSPropertyOp9
 70
     1
102
RTVSPropertyOp10
 70
     1
102
RTVSPropertyOp11
 70
     1
102
RTVSPropertyOp12
 70
     1
102
RTVSPropertyOp13
 70
     1
102
RTVSPropertyOp14
 70
     1
102
RTVSPropertyOp15
 70
     1
102
RTVSPropertyOp16
 70
     1
102
RTVSPropertyOp17
 70
     1
102
RTVSPropertyOp18
 70
     1
102
RTVSPropertyOp19
 70
     1
102
RTVSPropertyOp20
 70
     1
102
RTVSPropertyOp21
 70
     1
102
RTVSPropertyOp22
 70
     1
102
RTVSPropertyOp23
 70
     1
102
RTVSPropertyOp24
 70
     1
102
RTVSPropertyOp25
 70
     1
102
RTVSPropertyOp26
 70
     1
102
RTVSPropertyOp27
 70
     1
102
RTVSPropertyOp28
 70
     1
102
RTVSPropertyOp29
 70
     1
102
RTVSPropertyOp30
 70
     1
102
RTVSPropertyOp31
 70
     1
102
RTVSPropertyOp32
 70
     1
  0
XRECORD
  5
1CD
102
{ACAD_REACTORS
330
1CC
102
}
330
1CC
100
AcDbXrecord
280
     1
102
RTVSPropertyOp0
 70
     1
102
RTVSPropertyOp1
 70
     1
102
RTVSPropertyOp2
 70
     1
102
RTVSPropertyOp3
 70
     1
102
RTVSPropertyOp4
 70
     1
102
RTVSPropertyOp5
 70
     1
102
RTVSPropertyOp6
 70
     1
102
RTVSPropertyOp7
 70
     1
102
RTVSPropertyOp8
 70
     1
102
RTVSPropertyOp9
 70
     1
102
RTVSPropertyOp10
 70
     1
102
RTVSPropertyOp11
 70
     1
102
RTVSPropertyOp12
 70
     1
102
RTVSPropertyOp13
 70
     1
102
RTVSPropertyOp14
 70
     1
102
RTVSPropertyOp15
 70
     1
102
RTVSPropertyOp16
 70
     1
102
RTVSPropertyOp17
 70
     1
102
RTVSPropertyOp18
 70
     1
102
RTVSPropertyOp19
 70
     1
102
RTVSPropertyOp20
 70
     1
102
RTVSPropertyOp21
 70
     1
102
RTVSPropertyOp22
 70
     1
102
RTVSPropertyOp23
 70
     1
102
RTVSPropertyOp24
 70
     1
102
RTVSPropertyOp25
 70
     1
102
RTVSPropertyOp26
 70
     1
102
RTVSPropertyOp27
 70
     1
102
RTVSPropertyOp28
 70
     1
102
RTVSPropertyOp29
 70
     1
102
RTVSPropertyOp30
 70
     1
102
RTVSPropertyOp31
 70
     1
102
RTVSPropertyOp32
 70
     1
  0
XRECORD
  5
1D5
102
{ACAD_REACTORS
330
1D4
102
}
330
1D4
100
AcDbXrecord
280
     1
102
RTVSPropertyOp0
 70
     1
102
RTVSPropertyOp1
 70
     1
102
RTVSPropertyOp2
 70
     1
102
RTVSPropertyOp3
 70
     1
102
RTVSPropertyOp4
 70
     1
102
RTVSPropertyOp5
 70
     1
102
RTVSPropertyOp6
 70
     1
102
RTVSPropertyOp7
 70
     1
102
RTVSPropertyOp8
 70
     1
102
RTVSPropertyOp9
 70
     1
102
RTVSPropertyOp10
 70
     1
102
RTVSPropertyOp11
 70
     1
102
RTVSPropertyOp12
 70
     1
102
RTVSPropertyOp13
 70
     1
102
RTVSPropertyOp14
 70
     1
102
RTVSPropertyOp15
 70
     1
102
RTVSPropertyOp16
 70
     1
102
RTVSPropertyOp17
 70
     1
102
RTVSPropertyOp18
 70
     1
102
RTVSPropertyOp19
 70
     1
102
RTVSPropertyOp20
 70
     1
102
RTVSPropertyOp21
 70
     1
102
RTVSPropertyOp22
 70
     1
102
RTVSPropertyOp23
 70
     1
102
RTVSPropertyOp24
 70
     1
102
RTVSPropertyOp25
 70
     1
102
RTVSPropertyOp26
 70
     1
102
RTVSPropertyOp27
 70
     1
102
RTVSPropertyOp28
 70
     1
102
RTVSPropertyOp29
 70
     1
102
RTVSPropertyOp30
 70
     1
102
RTVSPropertyOp31
 70
     1
102
RTVSPropertyOp32
 70
     1
  0
XRECORD
  5
1C9
102
{ACAD_REACTORS
330
1C8
102
}
330
1C8
100
AcDbXrecord
280
     1
102
RTVSPropertyOp0
 70
     1
102
RTVSPropertyOp1
 70
     1
102
RTVSPropertyOp2
 70
     1
102
RTVSPropertyOp3
 70
     1
102
RTVSPropertyOp4
 70
     1
102
RTVSPropertyOp5
 70
     1
102
RTVSPropertyOp6
 70
     1
102
RTVSPropertyOp7
 70
     1
102
RTVSPropertyOp8
 70
     1
102
RTVSPropertyOp9
 70
     1
102
RTVSPropertyOp10
 70
     1
102
RTVSPropertyOp11
 70
     1
102
RTVSPropertyOp12
 70
     1
102
RTVSPropertyOp13
 70
     1
102
RTVSPropertyOp14
 70
     1
102
RTVSPropertyOp15
 70
     1
102
RTVSPropertyOp16
 70
     1
102
RTVSPropertyOp17
 70
     1
102
RTVSPropertyOp18
 70
     1
102
RTVSPropertyOp19
 70
     1
102
RTVSPropertyOp20
 70
     1
102
RTVSPropertyOp21
 70
     1
102
RTVSPropertyOp22
 70
     1
102
RTVSPropertyOp23
 70
     1
102
RTVSPropertyOp24
 70
     1
102
RTVSPropertyOp25
 70
     1
102
RTVSPropertyOp26
 70
     1
102
RTVSPropertyOp27
 70
     1
102
RTVSPropertyOp28
 70
     1
102
RTVSPropertyOp29
 70
     1
102
RTVSPropertyOp30
 70
     1
102
RTVSPropertyOp31
 70
     1
102
RTVSPropertyOp32
 70
     1
  0
XRECORD
  5
1CB
102
{ACAD_REACTORS
330
1CA
102
}
330
1CA
100
AcDbXrecord
280
     1
102
RTVSPropertyOp0
 70
     1
102
RTVSPropertyOp1
 70
     1
102
RTVSPropertyOp2
 70
     1
102
RTVSPropertyOp3
 70
     1
102
RTVSPropertyOp4
 70
     1
102
RTVSPropertyOp5
 70
     1
102
RTVSPropertyOp6
 70
     1
102
RTVSPropertyOp7
 70
     1
102
RTVSPropertyOp8
 70
     1
102
RTVSPropertyOp9
 70
     1
102
RTVSPropertyOp10
 70
     1
102
RTVSPropertyOp11
 70
     1
102
RTVSPropertyOp12
 70
     1
102
RTVSPropertyOp13
 70
     1
102
RTVSPropertyOp14
 70
     1
102
RTVSPropertyOp15
 70
     1
102
RTVSPropertyOp16
 70
     1
102
RTVSPropertyOp17
 70
     1
102
RTVSPropertyOp18
 70
     1
102
RTVSPropertyOp19
 70
     1
102
RTVSPropertyOp20
 70
     1
102
RTVSPropertyOp21
 70
     1
102
RTVSPropertyOp22
 70
     1
102
RTVSPropertyOp23
 70
     1
102
RTVSPropertyOp24
 70
     1
102
RTVSPropertyOp25
 70
     1
102
RTVSPropertyOp26
 70
     1
102
RTVSPropertyOp27
 70
     1
102
RTVSPropertyOp28
 70
     1
102
RTVSPropertyOp29
 70
     1
102
RTVSPropertyOp30
 70
     1
102
RTVSPropertyOp31
 70
     1
102
RTVSPropertyOp32
 70
     1
  0
XRECORD
  5
1E5
102
{ACAD_REACTORS
330
1E4
102
}
330
1E4
100
AcDbXrecord
280
     1
102
RTVSPropertyOp0
 70
     0
102
RTVSPropertyOp1
 70
     0
102
RTVSPropertyOp2
 70
     0
102
RTVSPropertyOp3
 70
     0
102
RTVSPropertyOp4
 70
     0
102
RTVSPropertyOp5
 70
     0
102
RTVSPropertyOp6
 70
     0
102
RTVSPropertyOp7
 70
     0
102
RTVSPropertyOp8
 70
     0
102
RTVSPropertyOp9
 70
     0
102
RTVSPropertyOp10
 70
     0
102
RTVSPropertyOp11
 70
     0
102
RTVSPropertyOp12
 70
     0
102
RTVSPropertyOp13
 70
     0
102
RTVSPropertyOp14
 70
     2
102
RTVSPropertyOp15
 70
     0
102
RTVSPropertyOp16
 70
     0
102
RTVSPropertyOp17
 70
     0
102
RTVSPropertyOp18
 70
     0
102
RTVSPropertyOp19
 70
     0
102
RTVSPropertyOp20
 70
     0
102
RTVSPropertyOp21
 70
     0
102
RTVSPropertyOp22
 70
     0
102
RTVSPropertyOp23
 70
     0
102
RTVSPropertyOp24
 70
     0
102
RTVSPropertyOp25
 70
     0
102
RTVSPropertyOp26
 70
     0
102
RTVSPropertyOp27
 70
     0
102
RTVSPropertyOp28
 70
     0
102
RTVSPropertyOp29
 70
     0
102
RTVSPropertyOp30
 70
     0
102
RTVSPropertyOp31
 70
     0
102
RTVSPropertyOp32
 70
     0
  0
XRECORD
  5
1D3
102
{ACAD_REACTORS
330
1D2
102
}
330
1D2
100
AcDbXrecord
280
     1
102
RTVSPropertyOp0
 70
     1
102
RTVSPropertyOp1
 70
     1
102
RTVSPropertyOp2
 70
     1
102
RTVSPropertyOp3
 70
     1
102
RTVSPropertyOp4
 70
     1
102
RTVSPropertyOp5
 70
     1
102
RTVSPropertyOp6
 70
     1
102
RTVSPropertyOp7
 70
     1
102
RTVSPropertyOp8
 70
     1
102
RTVSPropertyOp9
 70
     1
102
RTVSPropertyOp10
 70
     1
102
RTVSPropertyOp11
 70
     1
102
RTVSPropertyOp12
 70
     1
102
RTVSPropertyOp13
 70
     1
102
RTVSPropertyOp14
 70
     1
102
RTVSPropertyOp15
 70
     1
102
RTVSPropertyOp16
 70
     1
102
RTVSPropertyOp17
 70
     1
102
RTVSPropertyOp18
 70
     1
102
RTVSPropertyOp19
 70
     1
102
RTVSPropertyOp20
 70
     1
102
RTVSPropertyOp21
 70
     1
102
RTVSPropertyOp22
 70
     1
102
RTVSPropertyOp23
 70
     1
102
RTVSPropertyOp24
 70
     1
102
RTVSPropertyOp25
 70
     1
102
RTVSPropertyOp26
 70
     1
102
RTVSPropertyOp27
 70
     1
102
RTVSPropertyOp28
 70
     1
102
RTVSPropertyOp29
 70
     1
102
RTVSPropertyOp30
 70
     1
102
RTVSPropertyOp31
 70
     1
102
RTVSPropertyOp32
 70
     1
  0
XRECORD
  5
1BD
102
{ACAD_REACTORS
330
1BC
102
}
330
1BC
100
AcDbXrecord
280
     1
102
RTVSPropertyOp0
 70
     1
102
RTVSPropertyOp1
 70
     1
102
RTVSPropertyOp2
 70
     1
102
RTVSPropertyOp3
 70
     1
102
RTVSPropertyOp4
 70
     1
102
RTVSPropertyOp5
 70
     1
102
RTVSPropertyOp6
 70
     1
102
RTVSPropertyOp7
 70
     1
102
RTVSPropertyOp8
 70
     1
102
RTVSPropertyOp9
 70
     1
102
RTVSPropertyOp10
 70
     1
102
RTVSPropertyOp11
 70
     1
102
RTVSPropertyOp12
 70
     1
102
RTVSPropertyOp13
 70
     1
102
RTVSPropertyOp14
 70
     1
102
RTVSPropertyOp15
 70
     1
102
RTVSPropertyOp16
 70
     1
102
RTVSPropertyOp17
 70
     1
102
RTVSPropertyOp18
 70
     1
102
RTVSPropertyOp19
 70
     1
102
RTVSPropertyOp20
 70
     1
102
RTVSPropertyOp21
 70
     1
102
RTVSPropertyOp22
 70
     1
102
RTVSPropertyOp23
 70
     1
102
RTVSPropertyOp24
 70
     1
102
RTVSPropertyOp25
 70
     1
102
RTVSPropertyOp26
 70
     1
102
RTVSPropertyOp27
 70
     1
102
RTVSPropertyOp28
 70
     1
102
RTVSPropertyOp29
 70
     1
102
RTVSPropertyOp30
 70
     1
102
RTVSPropertyOp31
 70
     1
102
RTVSPropertyOp32
 70
     1
  0
XRECORD
  5
1BF
102
{ACAD_REACTORS
330
1BE
102
}
330
1BE
100
AcDbXrecord
280
     1
102
RTVSPropertyOp0
 70
     1
102
RTVSPropertyOp1
 70
     1
102
RTVSPropertyOp2
 70
     1
102
RTVSPropertyOp3
 70
     1
102
RTVSPropertyOp4
 70
     1
102
RTVSPropertyOp5
 70
     1
102
RTVSPropertyOp6
 70
     1
102
RTVSPropertyOp7
 70
     1
102
RTVSPropertyOp8
 70
     1
102
RTVSPropertyOp9
 70
     1
102
RTVSPropertyOp10
 70
     1
102
RTVSPropertyOp11
 70
     1
102
RTVSPropertyOp12
 70
     1
102
RTVSPropertyOp13
 70
     1
102
RTVSPropertyOp14
 70
     1
102
RTVSPropertyOp15
 70
     1
102
RTVSPropertyOp16
 70
     1
102
RTVSPropertyOp17
 70
     1
102
RTVSPropertyOp18
 70
     1
102
RTVSPropertyOp19
 70
     1
102
RTVSPropertyOp20
 70
     1
102
RTVSPropertyOp21
 70
     1
102
RTVSPropertyOp22
 70
     1
102
RTVSPropertyOp23
 70
     1
102
RTVSPropertyOp24
 70
     1
102
RTVSPropertyOp25
 70
     1
102
RTVSPropertyOp26
 70
     1
102
RTVSPropertyOp27
 70
     1
102
RTVSPropertyOp28
 70
     1
102
RTVSPropertyOp29
 70
     1
102
RTVSPropertyOp30
 70
     1
102
RTVSPropertyOp31
 70
     1
102
RTVSPropertyOp32
 70
     1
  0
XRECORD
  5
1C1
102
{ACAD_REACTORS
330
1C0
102
}
330
1C0
100
AcDbXrecord
280
     1
102
RTVSPropertyOp0
 70
     1
102
RTVSPropertyOp1
 70
     1
102
RTVSPropertyOp2
 70
     1
102
RTVSPropertyOp3
 70
     1
102
RTVSPropertyOp4
 70
     1
102
RTVSPropertyOp5
 70
     1
102
RTVSPropertyOp6
 70
     1
102
RTVSPropertyOp7
 70
     1
102
RTVSPropertyOp8
 70
     1
102
RTVSPropertyOp9
 70
     1
102
RTVSPropertyOp10
 70
     1
102
RTVSPropertyOp11
 70
     1
102
RTVSPropertyOp12
 70
     1
102
RTVSPropertyOp13
 70
     1
102
RTVSPropertyOp14
 70
     1
102
RTVSPropertyOp15
 70
     1
102
RTVSPropertyOp16
 70
     1
102
RTVSPropertyOp17
 70
     1
102
RTVSPropertyOp18
 70
     1
102
RTVSPropertyOp19
 70
     1
102
RTVSPropertyOp20
 70
     1
102
RTVSPropertyOp21
 70
     1
102
RTVSPropertyOp22
 70
     1
102
RTVSPropertyOp23
 70
     1
102
RTVSPropertyOp24
 70
     1
102
RTVSPropertyOp25
 70
     1
102
RTVSPropertyOp26
 70
     1
102
RTVSPropertyOp27
 70
     1
102
RTVSPropertyOp28
 70
     1
102
RTVSPropertyOp29
 70
     1
102
RTVSPropertyOp30
 70
     1
102
RTVSPropertyOp31
 70
     1
102
RTVSPropertyOp32
 70
     1
  0
XRECORD
  5
1C3
102
{ACAD_REACTORS
330
1C2
102
}
330
1C2
100
AcDbXrecord
280
     1
102
RTVSPropertyOp0
 70
     1
102
RTVSPropertyOp1
 70
     1
102
RTVSPropertyOp2
 70
     1
102
RTVSPropertyOp3
 70
     1
102
RTVSPropertyOp4
 70
     1
102
RTVSPropertyOp5
 70
     1
102
RTVSPropertyOp6
 70
     1
102
RTVSPropertyOp7
 70
     1
102
RTVSPropertyOp8
 70
     1
102
RTVSPropertyOp9
 70
     1
102
RTVSPropertyOp10
 70
     1
102
RTVSPropertyOp11
 70
     1
102
RTVSPropertyOp12
 70
     1
102
RTVSPropertyOp13
 70
     1
102
RTVSPropertyOp14
 70
     1
102
RTVSPropertyOp15
 70
     1
102
RTVSPropertyOp16
 70
     1
102
RTVSPropertyOp17
 70
     1
102
RTVSPropertyOp18
 70
     1
102
RTVSPropertyOp19
 70
     1
102
RTVSPropertyOp20
 70
     1
102
RTVSPropertyOp21
 70
     1
102
RTVSPropertyOp22
 70
     1
102
RTVSPropertyOp23
 70
     1
102
RTVSPropertyOp24
 70
     1
102
RTVSPropertyOp25
 70
     1
102
RTVSPropertyOp26
 70
     1
102
RTVSPropertyOp27
 70
     1
102
RTVSPropertyOp28
 70
     1
102
RTVSPropertyOp29
 70
     1
102
RTVSPropertyOp30
 70
     1
102
RTVSPropertyOp31
 70
     1
102
RTVSPropertyOp32
 70
     1
  0
XRECORD
  5
1C7
102
{ACAD_REACTORS
330
1C6
102
}
330
1C6
100
AcDbXrecord
280
     1
102
RTVSPropertyOp0
 70
     1
102
RTVSPropertyOp1
 70
     1
102
RTVSPropertyOp2
 70
     1
102
RTVSPropertyOp3
 70
     1
102
RTVSPropertyOp4
 70
     1
102
RTVSPropertyOp5
 70
     1
102
RTVSPropertyOp6
 70
     1
102
RTVSPropertyOp7
 70
     1
102
RTVSPropertyOp8
 70
     1
102
RTVSPropertyOp9
 70
     1
102
RTVSPropertyOp10
 70
     1
102
RTVSPropertyOp11
 70
     1
102
RTVSPropertyOp12
 70
     1
102
RTVSPropertyOp13
 70
     1
102
RTVSPropertyOp14
 70
     1
102
RTVSPropertyOp15
 70
     1
102
RTVSPropertyOp16
 70
     1
102
RTVSPropertyOp17
 70
     1
102
RTVSPropertyOp18
 70
     1
102
RTVSPropertyOp19
 70
     1
102
RTVSPropertyOp20
 70
     1
102
RTVSPropertyOp21
 70
     1
102
RTVSPropertyOp22
 70
     1
102
RTVSPropertyOp23
 70
     1
102
RTVSPropertyOp24
 70
     1
102
RTVSPropertyOp25
 70
     1
102
RTVSPropertyOp26
 70
     1
102
RTVSPropertyOp27
 70
     1
102
RTVSPropertyOp28
 70
     1
102
RTVSPropertyOp29
 70
     1
102
RTVSPropertyOp30
 70
     1
102
RTVSPropertyOp31
 70
     1
102
RTVSPropertyOp32
 70
     1
  0
XRECORD
  5
1E1
102
{ACAD_REACTORS
330
1E0
102
}
330
1E0
100
AcDbXrecord
280
     1
102
RTVSPropertyOp0
 70
     0
102
RTVSPropertyOp1
 70
     0
102
RTVSPropertyOp2
 70
     0
102
RTVSPropertyOp3
 70
     0
102
RTVSPropertyOp4
 70
     0
102
RTVSPropertyOp5
 70
     0
102
RTVSPropertyOp6
 70
     0
102
RTVSPropertyOp7
 70
     0
102
RTVSPropertyOp8
 70
     0
102
RTVSPropertyOp9
 70
     0
102
RTVSPropertyOp10
 70
     0
102
RTVSPropertyOp11
 70
     0
102
RTVSPropertyOp12
 70
     0
102
RTVSPropertyOp13
 70
     0
102
RTVSPropertyOp14
 70
     2
102
RTVSPropertyOp15
 70
     0
102
RTVSPropertyOp16
 70
     0
102
RTVSPropertyOp17
 70
     0
102
RTVSPropertyOp18
 70
     0
102
RTVSPropertyOp19
 70
     0
102
RTVSPropertyOp20
 70
     0
102
RTVSPropertyOp21
 70
     0
102
RTVSPropertyOp22
 70
     0
102
RTVSPropertyOp23
 70
     0
102
RTVSPropertyOp24
 70
     0
102
RTVSPropertyOp25
 70
     0
102
RTVSPropertyOp26
 70
     0
102
RTVSPropertyOp27
 70
     0
102
RTVSPropertyOp28
 70
     0
102
RTVSPropertyOp29
 70
     0
102
RTVSPropertyOp30
 70
     0
102
RTVSPropertyOp31
 70
     0
102
RTVSPropertyOp32
 70
     0
  0
XRECORD
  5
1D1
102
{ACAD_REACTORS
330
1D0
102
}
330
1D0
100
AcDbXrecord
280
     1
102
RTVSPropertyOp0
 70
     1
102
RTVSPropertyOp1
 70
     1
102
RTVSPropertyOp2
 70
     1
102
RTVSPropertyOp3
 70
     1
102
RTVSPropertyOp4
 70
     1
102
RTVSPropertyOp5
 70
     1
102
RTVSPropertyOp6
 70
     1
102
RTVSPropertyOp7
 70
     1
102
RTVSPropertyOp8
 70
     1
102
RTVSPropertyOp9
 70
     1
102
RTVSPropertyOp10
 70
     1
102
RTVSPropertyOp11
 70
     1
102
RTVSPropertyOp12
 70
     1
102
RTVSPropertyOp13
 70
     1
102
RTVSPropertyOp14
 70
     1
102
RTVSPropertyOp15
 70
     1
102
RTVSPropertyOp16
 70
     1
102
RTVSPropertyOp17
 70
     1
102
RTVSPropertyOp18
 70
     1
102
RTVSPropertyOp19
 70
     1
102
RTVSPropertyOp20
 70
     1
102
RTVSPropertyOp21
 70
     1
102
RTVSPropertyOp22
 70
     1
102
RTVSPropertyOp23
 70
     1
102
RTVSPropertyOp24
 70
     1
102
RTVSPropertyOp25
 70
     1
102
RTVSPropertyOp26
 70
     1
102
RTVSPropertyOp27
 70
     1
102
RTVSPropertyOp28
 70
     1
102
RTVSPropertyOp29
 70
     1
102
RTVSPropertyOp30
 70
     1
102
RTVSPropertyOp31
 70
     1
102
RTVSPropertyOp32
 70
     1
  0
XRECORD
  5
1E3
102
{ACAD_REACTORS
330
1E2
102
}
330
1E2
100
AcDbXrecord
280
     1
102
RTVSPropertyOp0
 70
     0
102
RTVSPropertyOp1
 70
     0
102
RTVSPropertyOp2
 70
     0
102
RTVSPropertyOp3
 70
     0
102
RTVSPropertyOp4
 70
     0
102
RTVSPropertyOp5
 70
     0
102
RTVSPropertyOp6
 70
     0
102
RTVSPropertyOp7
 70
     0
102
RTVSPropertyOp8
 70
     0
102
RTVSPropertyOp9
 70
     0
102
RTVSPropertyOp10
 70
     0
102
RTVSPropertyOp11
 70
     0
102
RTVSPropertyOp12
 70
     0
102
RTVSPropertyOp13
 70
     0
102
RTVSPropertyOp14
 70
     2
102
RTVSPropertyOp15
 70
     0
102
RTVSPropertyOp16
 70
     0
102
RTVSPropertyOp17
 70
     0
102
RTVSPropertyOp18
 70
     0
102
RTVSPropertyOp19
 70
     0
102
RTVSPropertyOp20
 70
     0
102
RTVSPropertyOp21
 70
     0
102
RTVSPropertyOp22
 70
     0
102
RTVSPropertyOp23
 70
     0
102
RTVSPropertyOp24
 70
     0
102
RTVSPropertyOp25
 70
     0
102
RTVSPropertyOp26
 70
     0
102
RTVSPropertyOp27
 70
     0
102
RTVSPropertyOp28
 70
     0
102
RTVSPropertyOp29
 70
     0
102
RTVSPropertyOp30
 70
     0
102
RTVSPropertyOp31
 70
     0
102
RTVSPropertyOp32
 70
     0
  0
XRECORD
  5
1B9
102
{ACAD_REACTORS
330
1B8
102
}
330
1B8
100
AcDbXrecord
280
     1
102
RTVSPropertyOp0
 70
     1
102
RTVSPropertyOp1
 70
     1
102
RTVSPropertyOp2
 70
     1
102
RTVSPropertyOp3
 70
     1
102
RTVSPropertyOp4
 70
     1
102
RTVSPropertyOp5
 70
     1
102
RTVSPropertyOp6
 70
     1
102
RTVSPropertyOp7
 70
     1
102
RTVSPropertyOp8
 70
     1
102
RTVSPropertyOp9
 70
     1
102
RTVSPropertyOp10
 70
     1
102
RTVSPropertyOp11
 70
     1
102
RTVSPropertyOp12
 70
     1
102
RTVSPropertyOp13
 70
     1
102
RTVSPropertyOp14
 70
     1
102
RTVSPropertyOp15
 70
     1
102
RTVSPropertyOp16
 70
     1
102
RTVSPropertyOp17
 70
     1
102
RTVSPropertyOp18
 70
     1
102
RTVSPropertyOp19
 70
     1
102
RTVSPropertyOp20
 70
     1
102
RTVSPropertyOp21
 70
     1
102
RTVSPropertyOp22
 70
     1
102
RTVSPropertyOp23
 70
     1
102
RTVSPropertyOp24
 70
     1
102
RTVSPropertyOp25
 70
     1
102
RTVSPropertyOp26
 70
     1
102
RTVSPropertyOp27
 70
     1
102
RTVSPropertyOp28
 70
     1
102
RTVSPropertyOp29
 70
     1
102
RTVSPropertyOp30
 70
     1
102
RTVSPropertyOp31
 70
     1
102
RTVSPropertyOp32
 70
     1
  0
XRECORD
  5
1DF
102
{ACAD_REACTORS
330
1DE
102
}
330
1DE
100
AcDbXrecord
280
     1
102
RTVSPropertyOp0
 70
     1
102
RTVSPropertyOp1
 70
     1
102
RTVSPropertyOp2
 70
     1
102
RTVSPropertyOp3
 70
     1
102
RTVSPropertyOp4
 70
     1
102
RTVSPropertyOp5
 70
     1
102
RTVSPropertyOp6
 70
     1
102
RTVSPropertyOp7
 70
     1
102
RTVSPropertyOp8
 70
     1
102
RTVSPropertyOp9
 70
     1
102
RTVSPropertyOp10
 70
     1
102
RTVSPropertyOp11
 70
     1
102
RTVSPropertyOp12
 70
     1
102
RTVSPropertyOp13
 70
     1
102
RTVSPropertyOp14
 70
     1
102
RTVSPropertyOp15
 70
     1
102
RTVSPropertyOp16
 70
     1
102
RTVSPropertyOp17
 70
     1
102
RTVSPropertyOp18
 70
     1
102
RTVSPropertyOp19
 70
     1
102
RTVSPropertyOp20
 70
     1
102
RTVSPropertyOp21
 70
     1
102
RTVSPropertyOp22
 70
     1
102
RTVSPropertyOp23
 70
     1
102
RTVSPropertyOp24
 70
     1
102
RTVSPropertyOp25
 70
     1
102
RTVSPropertyOp26
 70
     1
102
RTVSPropertyOp27
 70
     1
102
RTVSPropertyOp28
 70
     1
102
RTVSPropertyOp29
 70
     1
102
RTVSPropertyOp30
 70
     1
102
RTVSPropertyOp31
 70
     1
102
RTVSPropertyOp32
 70
     1
  0
XRECORD
  5
1DD
102
{ACAD_REACTORS
330
1DC
102
}
330
1DC
100
AcDbXrecord
280
     1
102
RTVSPropertyOp0
 70
     1
102
RTVSPropertyOp1
 70
     1
102
RTVSPropertyOp2
 70
     1
102
RTVSPropertyOp3
 70
     1
102
RTVSPropertyOp4
 70
     1
102
RTVSPropertyOp5
 70
     1
102
RTVSPropertyOp6
 70
     1
102
RTVSPropertyOp7
 70
     1
102
RTVSPropertyOp8
 70
     1
102
RTVSPropertyOp9
 70
     1
102
RTVSPropertyOp10
 70
     1
102
RTVSPropertyOp11
 70
     1
102
RTVSPropertyOp12
 70
     1
102
RTVSPropertyOp13
 70
     1
102
RTVSPropertyOp14
 70
     1
102
RTVSPropertyOp15
 70
     1
102
RTVSPropertyOp16
 70
     1
102
RTVSPropertyOp17
 70
     1
102
RTVSPropertyOp18
 70
     1
102
RTVSPropertyOp19
 70
     1
102
RTVSPropertyOp20
 70
     1
102
RTVSPropertyOp21
 70
     1
102
RTVSPropertyOp22
 70
     1
102
RTVSPropertyOp23
 70
     1
102
RTVSPropertyOp24
 70
     1
102
RTVSPropertyOp25
 70
     1
102
RTVSPropertyOp26
 70
     1
102
RTVSPropertyOp27
 70
     1
102
RTVSPropertyOp28
 70
     1
102
RTVSPropertyOp29
 70
     1
102
RTVSPropertyOp30
 70
     1
102
RTVSPropertyOp31
 70
     1
102
RTVSPropertyOp32
 70
     1
  0
XRECORD
  5
1D7
102
{ACAD_REACTORS
330
1D6
102
}
330
1D6
100
AcDbXrecord
280
     1
102
RTVSPropertyOp0
 70
     1
102
RTVSPropertyOp1
 70
     1
102
RTVSPropertyOp2
 70
     1
102
RTVSPropertyOp3
 70
     1
102
RTVSPropertyOp4
 70
     1
102
RTVSPropertyOp5
 70
     1
102
RTVSPropertyOp6
 70
     1
102
RTVSPropertyOp7
 70
     1
102
RTVSPropertyOp8
 70
     1
102
RTVSPropertyOp9
 70
     1
102
RTVSPropertyOp10
 70
     1
102
RTVSPropertyOp11
 70
     1
102
RTVSPropertyOp12
 70
     1
102
RTVSPropertyOp13
 70
     1
102
RTVSPropertyOp14
 70
     1
102
RTVSPropertyOp15
 70
     1
102
RTVSPropertyOp16
 70
     1
102
RTVSPropertyOp17
 70
     1
102
RTVSPropertyOp18
 70
     1
102
RTVSPropertyOp19
 70
     1
102
RTVSPropertyOp20
 70
     1
102
RTVSPropertyOp21
 70
     1
102
RTVSPropertyOp22
 70
     1
102
RTVSPropertyOp23
 70
     1
102
RTVSPropertyOp24
 70
     1
102
RTVSPropertyOp25
 70
     1
102
RTVSPropertyOp26
 70
     1
102
RTVSPropertyOp27
 70
     1
102
RTVSPropertyOp28
 70
     1
102
RTVSPropertyOp29
 70
     1
102
RTVSPropertyOp30
 70
     1
102
RTVSPropertyOp31
 70
     1
102
RTVSPropertyOp32
 70
     1
  0
XRECORD
  5
1D9
102
{ACAD_REACTORS
330
1D8
102
}
330
1D8
100
AcDbXrecord
280
     1
102
RTVSPropertyOp0
 70
     1
102
RTVSPropertyOp1
 70
     1
102
RTVSPropertyOp2
 70
     1
102
RTVSPropertyOp3
 70
     1
102
RTVSPropertyOp4
 70
     1
102
RTVSPropertyOp5
 70
     1
102
RTVSPropertyOp6
 70
     1
102
RTVSPropertyOp7
 70
     1
102
RTVSPropertyOp8
 70
     1
102
RTVSPropertyOp9
 70
     1
102
RTVSPropertyOp10
 70
     1
102
RTVSPropertyOp11
 70
     1
102
RTVSPropertyOp12
 70
     1
102
RTVSPropertyOp13
 70
     1
102
RTVSPropertyOp14
 70
     1
102
RTVSPropertyOp15
 70
     1
102
RTVSPropertyOp16
 70
     1
102
RTVSPropertyOp17
 70
     1
102
RTVSPropertyOp18
 70
     1
102
RTVSPropertyOp19
 70
     1
102
RTVSPropertyOp20
 70
     1
102
RTVSPropertyOp21
 70
     1
102
RTVSPropertyOp22
 70
     1
102
RTVSPropertyOp23
 70
     1
102
RTVSPropertyOp24
 70
     1
102
RTVSPropertyOp25
 70
     1
102
RTVSPropertyOp26
 70
     1
102
RTVSPropertyOp27
 70
     1
102
RTVSPropertyOp28
 70
     1
102
RTVSPropertyOp29
 70
     1
102
RTVSPropertyOp30
 70
     1
102
RTVSPropertyOp31
 70
     1
102
RTVSPropertyOp32
 70
     1
  0
XRECORD
  5
1CF
102
{ACAD_REACTORS
330
1CE
102
}
330
1CE
100
AcDbXrecord
280
     1
102
RTVSPropertyOp0
 70
     1
102
RTVSPropertyOp1
 70
     1
102
RTVSPropertyOp2
 70
     1
102
RTVSPropertyOp3
 70
     1
102
RTVSPropertyOp4
 70
     1
102
RTVSPropertyOp5
 70
     1
102
RTVSPropertyOp6
 70
     1
102
RTVSPropertyOp7
 70
     1
102
RTVSPropertyOp8
 70
     1
102
RTVSPropertyOp9
 70
     1
102
RTVSPropertyOp10
 70
     1
102
RTVSPropertyOp11
 70
     1
102
RTVSPropertyOp12
 70
     1
102
RTVSPropertyOp13
 70
     1
102
RTVSPropertyOp14
 70
     1
102
RTVSPropertyOp15
 70
     1
102
RTVSPropertyOp16
 70
     1
102
RTVSPropertyOp17
 70
     1
102
RTVSPropertyOp18
 70
     1
102
RTVSPropertyOp19
 70
     1
102
RTVSPropertyOp20
 70
     1
102
RTVSPropertyOp21
 70
     1
102
RTVSPropertyOp22
 70
     1
102
RTVSPropertyOp23
 70
     1
102
RTVSPropertyOp24
 70
     1
102
RTVSPropertyOp25
 70
     1
102
RTVSPropertyOp26
 70
     1
102
RTVSPropertyOp27
 70
     1
102
RTVSPropertyOp28
 70
     1
102
RTVSPropertyOp29
 70
     1
102
RTVSPropertyOp30
 70
     1
102
RTVSPropertyOp31
 70
     1
102
RTVSPropertyOp32
 70
     1
  0
XRECORD
  5
1BB
102
{ACAD_REACTORS
330
1BA
102
}
330
1BA
100
AcDbXrecord
280
     1
102
RTVSPropertyOp0
 70
     1
102
RTVSPropertyOp1
 70
     1
102
RTVSPropertyOp2
 70
     1
102
RTVSPropertyOp3
 70
     1
102
RTVSPropertyOp4
 70
     1
102
RTVSPropertyOp5
 70
     1
102
RTVSPropertyOp6
 70
     1
102
RTVSPropertyOp7
 70
     1
102
RTVSPropertyOp8
 70
     1
102
RTVSPropertyOp9
 70
     1
102
RTVSPropertyOp10
 70
     1
102
RTVSPropertyOp11
 70
     1
102
RTVSPropertyOp12
 70
     1
102
RTVSPropertyOp13
 70
     1
102
RTVSPropertyOp14
 70
     1
102
RTVSPropertyOp15
 70
     1
102
RTVSPropertyOp16
 70
     1
102
RTVSPropertyOp17
 70
     1
102
RTVSPropertyOp18
 70
     1
102
RTVSPropertyOp19
 70
     1
102
RTVSPropertyOp20
 70
     1
102
RTVSPropertyOp21
 70
     1
102
RTVSPropertyOp22
 70
     1
102
RTVSPropertyOp23
 70
     1
102
RTVSPropertyOp24
 70
     1
102
RTVSPropertyOp25
 70
     1
102
RTVSPropertyOp26
 70
     1
102
RTVSPropertyOp27
 70
     1
102
RTVSPropertyOp28
 70
     1
102
RTVSPropertyOp29
 70
     1
102
RTVSPropertyOp30
 70
     1
102
RTVSPropertyOp31
 70
     1
102
RTVSPropertyOp32
 70
     1
  0
XRECORD
  5
1DB
102
{ACAD_REACTORS
330
1DA
102
}
330
1DA
100
AcDbXrecord
280
     1
102
RTVSPropertyOp0
 70
     1
102
RTVSPropertyOp1
 70
     1
102
RTVSPropertyOp2
 70
     1
102
RTVSPropertyOp3
 70
     1
102
RTVSPropertyOp4
 70
     1
102
RTVSPropertyOp5
 70
     1
102
RTVSPropertyOp6
 70
     1
102
RTVSPropertyOp7
 70
     1
102
RTVSPropertyOp8
 70
     1
102
RTVSPropertyOp9
 70
     1
102
RTVSPropertyOp10
 70
     1
102
RTVSPropertyOp11
 70
     1
102
RTVSPropertyOp12
 70
     1
102
RTVSPropertyOp13
 70
     1
102
RTVSPropertyOp14
 70
     1
102
RTVSPropertyOp15
 70
     1
102
RTVSPropertyOp16
 70
     1
102
RTVSPropertyOp17
 70
     1
102
RTVSPropertyOp18
 70
     1
102
RTVSPropertyOp19
 70
     1
102
RTVSPropertyOp20
 70
     1
102
RTVSPropertyOp21
 70
     1
102
RTVSPropertyOp22
 70
     1
102
RTVSPropertyOp23
 70
     1
102
RTVSPropertyOp24
 70
     1
102
RTVSPropertyOp25
 70
     1
102
RTVSPropertyOp26
 70
     1
102
RTVSPropertyOp27
 70
     1
102
RTVSPropertyOp28
 70
     1
102
RTVSPropertyOp29
 70
     1
102
RTVSPropertyOp30
 70
     1
102
RTVSPropertyOp31
 70
     1
102
RTVSPropertyOp32
 70
     1
  0
ENDSEC
  0
EOF
