  0
SECTION
  2
HEADER
  9
$ACADVER
  1
AC1015
  9
$ACADMAINTVER
 70
    18
  9
$DWGCODEPAGE
  3
ANSI_1252
  9
$INSBASE
 10
0.0
 20
0.0
 30
0.0
  9
$EXTMIN
 10
-64.08001439608643
 20
-17.92719838014727
 30
-0.0015258207003583
  9
$EXTMAX
 10
64.09816124883718
 20
224.2247479441862
 30
0.0000000349246037
  9
$LIMMIN
 10
0.0
 20
0.0
  9
$LIMMAX
 10
1189.0
 20
840.9999999999998
  9
$ORTHOMODE
 70
     0
  9
$REGENMODE
 70
     1
  9
$FILLMODE
 70
     1
  9
$QTEXTMODE
 70
     0
  9
$MIRRTEXT
 70
     0
  9
$LTSCALE
 40
1.0
  9
$ATTMODE
 70
     1
  9
$TEXTSIZE
 40
0.2
  9
$TRACEWID
 40
0.05
  9
$TEXTSTYLE
  7
STANDARD
  9
$CLAYER
  8
0
  9
$CELTYPE
  6
ByLayer
  9
$CECOLOR
 62
   256
  9
$CELTSCALE
 40
1.0
  9
$DISPSILH
 70
     0
  9
$DIMSCALE
 40
1.0
  9
$DIMASZ
 40
180.0
  9
$DIMEXO
 40
0.0625
  9
$DIMDLI
 40
0.38
  9
$DIMRND
 40
0.0
  9
$DIMDLE
 40
0.0
  9
$DIMEXE
 40
0.18
  9
$DIMTP
 40
0.0
  9
$DIMTM
 40
0.0
  9
$DIMTXT
 40
34.99999940395355
  9
$DIMCEN
 40
0.09
  9
$DIMTSZ
 40
0.0
  9
$DIMTOL
 70
     0
  9
$DIMLIM
 70
     0
  9
$DIMTIH
 70
     1
  9
$DIMTOH
 70
     1
  9
$DIMSE1
 70
     0
  9
$DIMSE2
 70
     0
  9
$DIMTAD
 70
     0
  9
$DIMZIN
 70
     0
  9
$DIMBLK
  1

  9
$DIMASO
 70
     1
  9
$DIMSHO
 70
     1
  9
$DIMPOST
  1

  9
$DIMAPOST
  1

  9
$DIMALT
 70
     0
  9
$DIMALTD
 70
     2
  9
$DIMALTF
 40
25.4
  9
$DIMLFAC
 40
1.0
  9
$DIMTOFL
 70
     0
  9
$DIMTVP
 40
0.0
  9
$DIMTIX
 70
     0
  9
$DIMSOXD
 70
     0
  9
$DIMSAH
 70
     0
  9
$DIMBLK1
  1

  9
$DIMBLK2
  1

  9
$DIMSTYLE
  2
STANDARD
  9
$DIMCLRD
 70
     0
  9
$DIMCLRE
 70
     0
  9
$DIMCLRT
 70
     0
  9
$DIMTFAC
 40
1.0
  9
$DIMGAP
 40
0.09
  9
$DIMJUST
 70
     0
  9
$DIMSD1
 70
     0
  9
$DIMSD2
 70
     0
  9
$DIMTOLJ
 70
     1
  9
$DIMTZIN
 70
     0
  9
$DIMALTZ
 70
     0
  9
$DIMALTTZ
 70
     0
  9
$DIMUPT
 70
     0
  9
$DIMDEC
 70
     4
  9
$DIMTDEC
 70
     4
  9
$DIMALTU
 70
     2
  9
$DIMALTTD
 70
     2
  9
$DIMTXSTY
  7
STANDARD
  9
$DIMAUNIT
 70
     0
  9
$DIMADEC
 70
     0
  9
$DIMALTRND
 40
0.0
  9
$DIMAZIN
 70
     0
  9
$DIMDSEP
 70
    46
  9
$DIMATFIT
 70
     3
  9
$DIMFRAC
 70
     0
  9
$DIMLDRBLK
  1

  9
$DIMLUNIT
 70
     2
  9
$DIMLWD
 70
    -2
  9
$DIMLWE
 70
    -2
  9
$DIMTMOVE
 70
     0
  9
$LUNITS
 70
     2
  9
$LUPREC
 70
     4
  9
$SKETCHINC
 40
0.1
  9
$FILLETRAD
 40
0.0
  9
$AUNITS
 70
     0
  9
$AUPREC
 70
     0
  9
$MENU
  1
.
  9
$ELEVATION
 40
0.0
  9
$PELEVATION
 40
0.0
  9
$THICKNESS
 40
0.0
  9
$LIMCHECK
 70
     0
  9
$CHAMFERA
 40
0.0
  9
$CHAMFERB
 40
0.0
  9
$CHAMFERC
 40
0.0
  9
$CHAMFERD
 40
0.0
  9
$SKPOLY
 70
     0
  9
$TDCREATE
 40
2454871.497639329
  9
$TDUCREATE
 40
2454871.455972662
  9
$TDUPDATE
 40
2455943.981674618
  9
$TDUUPDATE
 40
2455943.940007952
  9
$TDINDWG
 40
0.0125117130
  9
$TDUSRTIMER
 40
0.0125117130
  9
$USRTIMER
 70
     1
  9
$ANGBASE
 50
0.0
  9
$ANGDIR
 70
     0
  9
$PDMODE
 70
     0
  9
$PDSIZE
 40
0.0
  9
$PLINEWID
 40
0.0
  9
$SPLFRAME
 70
     0
  9
$SPLINETYPE
 70
     6
  9
$SPLINESEGS
 70
     8
  9
$HANDSEED
  5
1EA
  9
$SURFTAB1
 70
     6
  9
$SURFTAB2
 70
     6
  9
$SURFTYPE
 70
     6
  9
$SURFU
 70
     6
  9
$SURFV
 70
     6
  9
$UCSBASE
  2

  9
$UCSNAME
  2

  9
$UCSORG
 10
0.0
 20
0.0
 30
0.0
  9
$UCSXDIR
 10
1.0
 20
0.0
 30
0.0
  9
$UCSYDIR
 10
0.0
 20
1.0
 30
0.0
  9
$UCSORTHOREF
  2

  9
$UCSORTHOVIEW
 70
     0
  9
$UCSORGTOP
 10
0.0
 20
0.0
 30
0.0
  9
$UCSORGBOTTOM
 10
0.0
 20
0.0
 30
0.0
  9
$UCSORGLEFT
 10
0.0
 20
0.0
 30
0.0
  9
$UCSORGRIGHT
 10
0.0
 20
0.0
 30
0.0
  9
$UCSORGFRONT
 10
0.0
 20
0.0
 30
0.0
  9
$UCSORGBACK
 10
0.0
 20
0.0
 30
0.0
  9
$PUCSBASE
  2

  9
$PUCSNAME
  2

  9
$PUCSORG
 10
0.0
 20
0.0
 30
0.0
  9
$PUCSXDIR
 10
1.0
 20
0.0
 30
0.0
  9
$PUCSYDIR
 10
0.0
 20
1.0
 30
0.0
  9
$PUCSORTHOREF
  2

  9
$PUCSORTHOVIEW
 70
     0
  9
$PUCSORGTOP
 10
0.0
 20
0.0
 30
0.0
  9
$PUCSORGBOTTOM
 10
0.0
 20
0.0
 30
0.0
  9
$PUCSORGLEFT
 10
0.0
 20
0.0
 30
0.0
  9
$PUCSORGRIGHT
 10
0.0
 20
0.0
 30
0.0
  9
$PUCSORGFRONT
 10
0.0
 20
0.0
 30
0.0
  9
$PUCSORGBACK
 10
0.0
 20
0.0
 30
0.0
  9
$USERI1
 70
     0
  9
$USERI2
 70
     0
  9
$USERI3
 70
     0
  9
$USERI4
 70
     0
  9
$USERI5
 70
     0
  9
$USERR1
 40
0.0
  9
$USERR2
 40
0.0
  9
$USERR3
 40
0.0
  9
$USERR4
 40
0.0
  9
$USERR5
 40
0.0
  9
$WORLDVIEW
 70
     1
  9
$SHADEDGE
 70
     3
  9
$SHADEDIF
 70
    70
  9
$TILEMODE
 70
     1
  9
$MAXACTVP
 70
    64
  9
$PINSBASE
 10
0.0
 20
0.0
 30
0.0
  9
$PLIMCHECK
 70
     0
  9
$PEXTMIN
 10
0.0
 20
0.0
 30
0.0
  9
$PEXTMAX
 10
1189.0
 20
840.9999999999998
 30
0.0
  9
$PLIMMIN
 10
0.0
 20
0.0
  9
$PLIMMAX
 10
1189.0
 20
840.9999999999998
  9
$UNITMODE
 70
     0
  9
$VISRETAIN
 70
     1
  9
$PLINEGEN
 70
     0
  9
$PSLTSCALE
 70
     1
  9
$TREEDEPTH
 70
  3020
  9
$CMLSTYLE
  2
Standard
  9
$CMLJUST
 70
     0
  9
$CMLSCALE
 40
1.0
  9
$PROXYGRAPHICS
 70
     1
  9
$MEASUREMENT
 70
     1
  9
$CELWEIGHT
370
    -1
  9
$ENDCAPS
280
     0
  9
$JOINSTYLE
280
     0
  9
$LWDISPLAY
290
     0
  9
$INSUNITS
 70
     4
  9
$HYPERLINKBASE
  1

  9
$STYLESHEET
  1

  9
$XEDIT
290
     1
  9
$CEPSNTYPE
380
     0
  9
$PSTYLEMODE
290
     1
  9
$FINGERPRINTGUID
  2
{18C624BF-73A0-4D95-9187-86FD60A2F06E}
  9
$VERSIONGUID
  2
{7FE86E7E-2214-41E2-B812-36B6D7A654DB}
  9
$EXTNAMES
290
     1
  9
$PSVPSCALE
 40
0.0
  9
$OLESTARTUP
290
     0
  0
ENDSEC
  0
SECTION
  2
CLASSES
  0
CLASS
  1
ACDBDICTIONARYWDFLT
  2
AcDbDictionaryWithDefault
  3
ObjectDBX Classes
 90
        0
280
     0
281
     0
  0
CLASS
  1
MATERIAL
  2
AcDbMaterial
  3
ObjectDBX Classes
 90
     1153
280
     0
281
     0
  0
CLASS
  1
VISUALSTYLE
  2
AcDbVisualStyle
  3
ObjectDBX Classes
 90
     4095
280
     0
281
     0
  0
CLASS
  1
SCALE
  2
AcDbScale
  3
ObjectDBX Classes
 90
     1153
280
     0
281
     0
  0
CLASS
  1
TABLESTYLE
  2
AcDbTableStyle
  3
ObjectDBX Classes
 90
     4095
280
     0
281
     0
  0
CLASS
  1
MLEADERSTYLE
  2
AcDbMLeaderStyle
  3
ACDB_MLEADERSTYLE_CLASS
 90
     4095
280
     0
281
     0
  0
CLASS
  1
SORTENTSTABLE
  2
AcDbSortentsTable
  3
ObjectDBX Classes
 90
        0
280
     0
281
     0
  0
CLASS
  1
CELLSTYLEMAP
  2
AcDbCellStyleMap
  3
ObjectDBX Classes
 90
     1152
280
     0
281
     0
  0
CLASS
  1
DICTIONARYVAR
  2
AcDbDictionaryVar
  3
ObjectDBX Classes
 90
        0
280
     0
281
     0
  0
CLASS
  1
ACME_DOCUMENT
  2
AcMeDbDoc
  3
AcMeServices
 90
    33792
280
     1
281
     0
  0
CLASS
  1
AMGSETTINGSOBJ
  2
AmgSettingsObj
  3
"AcadM|Product Description: AutoCAD Mechanical|Company: Autodesk, Inc."
 90
    33792
280
     1
281
     0
  0
CLASS
  1
ACMESCOPE
  2
AcMeScope
  3
AcMeServices
 90
    33792
280
     1
281
     0
  0
CLASS
  1
ACMECOMMANDHISTORY
  2
AcMeCommandHistory
  3
AcMeServices
 90
    33792
280
     1
281
     0
  0
CLASS
  1
ACIMSYSVARMAN
  2
AcImSysVarManager
  3
AcMeServices
 90
    33792
280
     1
281
     0
  0
CLASS
  1
ACIMINTSYSVAR
  2
AcImIntSysVar
  3
AcMeServices
 90
    33792
280
     1
281
     0
  0
CLASS
  1
ACMEDRAWINGMAN
  2
AcMeDrawingMan
  3
AcMeServices
 90
    33792
280
     1
281
     0
  0
CLASS
  1
ACMEVIEW
  2
AcMeView
  3
AcMeServices
 90
    33792
280
     1
281
     0
  0
CLASS
  1
ACDBENTITYCACHE
  2
AcMeEntityCache
  3
AcMeServices
 90
    33792
280
     1
281
     0
  0
CLASS
  1
GSMANAGER
  2
AcMeGSManager
  3
AcMeServices
 90
    33792
280
     1
281
     0
  0
CLASS
  1
AMDTINTERNALREACTOR
  2
AmdtInternalReactor
  3
AcMeServices
 90
    33792
280
     1
281
     0
  0
CLASS
  1
ACMESTATEMGR
  2
AcMeStateMgr
  3
AcMeServices
 90
    33792
280
     1
281
     0
  0
CLASS
  1
ACGREFMASTER
  2
AcGrefMaster
  3
AcAttribServices
 90
    33792
280
     1
281
     0
  0
CLASS
  1
AM_DRAWING_MGR
  2
AcDmDwgMgr
  3
AcMechDwgViewMgmt
 90
    33792
280
     1
281
     0
  0
CLASS
  1
AM_DWG_DOCUMENT
  2
AcDmDwgDocument
  3
AcMechDwgViewMgmt
 90
    33792
280
     1
281
     0
  0
CLASS
  1
AM_DWG_SHEET
  2
AcDmSheet
  3
AcMechDwgViewMgmt
 90
    33792
280
     1
281
     0
  0
CLASS
  1
AM_VIEWDIMPARMAP
  2
AcDmViewDimParMap
  3
AcMechDwgViewMgmt
 90
    33792
280
     1
281
     0
  0
CLASS
  1
ACIMREALSYSVAR
  2
AcImRealSysVar
  3
AcMeServices
 90
    33792
280
     1
281
     0
  0
CLASS
  1
AM_DWGMGR_NAME
  2
AcDmDwgMgrName
  3
AcMechDwgViewMgmt
 90
    33792
280
     1
281
     0
  0
CLASS
  1
ACME_DATABASE
  2
AcMeDbDatabase
  3
AcMeServices
 90
    33792
280
     1
281
     0
  0
CLASS
  1
ACRFINSADJUSTERMGR
  2
AcRfInsAdjusterMgr
  3
AcMeServices
 90
    33792
280
     1
281
     0
  0
CLASS
  1
ACGREFACADMASTER
  2
AcGrefacadMaster
  3
AcGrefServices
 90
    33792
280
     1
281
     0
  0
CLASS
  1
AMDTMENUSTATEMGR
  2
AmdtMenuStateMgr
  3
McadcomServices
 90
    33792
280
     1
281
     0
  0
CLASS
  1
AMDTMCOMMENUSTATE
  2
AmdtMcomMenuState
  3
McadcomServices
 90
    33792
280
     1
281
     0
  0
CLASS
  1
AMIMASTER
  2
AmiMaster
  3
AmiServices
 90
    33792
280
     1
281
     0
  0
CLASS
  1
MAPIAMMOUDLE
  2
MApiAmModule
  3
MApiAmServices
 90
    33792
280
     1
281
     0
  0
CLASS
  1
ACIMSTRSYSVAR
  2
AcImStrSysVar
  3
AcMeServices
 90
    33792
280
     1
281
     0
  0
CLASS
  1
AMDTADMENUSTATE
  2
AmdtAdMenuState
  3
DesignerServices
 90
    33792
280
     1
281
     0
  0
CLASS
  1
ADAPPL
  2
AcAdAppl
  3
DesignerServices
 90
    33792
280
     1
281
     0
  0
CLASS
  1
DEPMGR
  2
AcAdDepMgr
  3
DesignerServices
 90
    33792
280
     1
281
     0
  0
CLASS
  1
PARAMMGR
  2
AcAdParamMgr
  3
DesignerServices
 90
    33792
280
     1
281
     0
  0
CLASS
  1
PARAMSCOPE
  2
AcAdParamScope
  3
DesignerServices
 90
    33792
280
     1
281
     0
  0
CLASS
  1
NAMEDAPPL
  2
AcAdNamedAppl
  3
DesignerServices
 90
    33792
280
     1
281
     0
  0
CLASS
  1
AMDTDMMENUSTATE
  2
AmdtDmMenuState
  3
AcMechDwgViewMgmt
 90
    33792
280
     1
281
     0
  0
CLASS
  1
AMDTAMMENUSTATE
  2
AmdtAmMenuState
  3
DesignerAssemblies
 90
    33792
280
     1
281
     0
  0
CLASS
  1
ACAMPROJECT
  2
AcAmProject
  3
DesignerAssemblies
 90
    33792
280
     1
281
     0
  0
CLASS
  1
ACAMGRCOMPDEF
  2
AcAmGrCompDef
  3
DesignerAssemblies
 90
    33792
280
     1
281
     0
  0
CLASS
  1
ACCMCONTEXT
  2
AcCmContext
  3
DesignerAssemblies
 90
    33792
280
     1
281
     0
  0
CLASS
  1
ACAMCOMPDEF
  2
AcAmCompDef
  3
DesignerAssemblies
 90
    33792
280
     1
281
     0
  0
CLASS
  1
ACAMCOMPDEFMGR
  2
AcAmCompDefMgr
  3
DesignerAssemblies
 90
    33792
280
     1
281
     0
  0
CLASS
  1
AMCONTEXTMGR
  2
AcAmContextMgr
  3
DesignerAssemblies
 90
    33792
280
     1
281
     0
  0
CLASS
  1
ACAMCONTEXTMODELER
  2
AcAmContextModeler
  3
DesignerAssemblies
 90
    33792
280
     1
281
     0
  0
CLASS
  1
ACMDATADICTIONARY
  2
AcmDataDictionary
  3
"AcmSymBB|Product Description: AutoCAD Mechanical|Company: Autodesk, Inc."
 90
    33792
280
     1
281
     0
  0
CLASS
  1
CATALOGSTATE
  2
AcAmCatalogState
  3
DesignerAssemblies
 90
    33792
280
     1
281
     0
  0
CLASS
  1
ACAMGRCOMPDEFSET
  2
AcAmGrCompDefSet
  3
DesignerAssemblies
 90
    33792
280
     1
281
     0
  0
CLASS
  1
AMDTBROWSERDBTAB
  2
AmdtBrowserDbTab
  3
McadcomServices
 90
    33792
280
     1
281
     0
  0
CLASS
  1
CBROWSERAPPOBJECT
  2
CBrowserAppObject
  3
McadcomServices
 90
    33792
280
     1
281
     0
  0
CLASS
  1
DM_PLACEHOLDER
  2
AcDmSelsetPlaceholder
  3
AcMechDwgViewMgmt
 90
    33792
280
     1
281
     0
  0
CLASS
  1
EXACXREFPANELOBJECT
  2
ExAcXREFPanelObject
  3
EXAC_ESW
 90
     1025
280
     0
281
     0
  0
CLASS
  1
NPOCOLLECTION
  2
AcDbImpNonPersistentObjectsCollection
  3
ObjectDBX Classes
 90
     1153
280
     0
281
     0
  0
CLASS
  1
ACMSTANDARDANSI
  2
AcmStandardANSI
  3
"Amdt_StdImp|Product Description: AutoCAD Mechanical|Company: Autodesk, Inc."
 90
    33792
280
     1
281
     0
  0
CLASS
  1
ACMSURFSTANDARDANSI
  2
AcmSurfTextStdANSI
  3
"Amdt_StdImp|Product Description: AutoCAD Mechanical|Company: Autodesk, Inc."
 90
    33792
280
     1
281
     0
  0
CLASS
  1
ACMFCFSTANDARDANSI
  2
AcmFCFStdANSI
  3
"Amdt_StdImp|Product Description: AutoCAD Mechanical|Company: Autodesk, Inc."
 90
    33792
280
     1
281
     0
  0
CLASS
  1
ACMWELDSTANDARDANSI
  2
AcmWeldingStdANSI
  3
"Amdt_StdImp|Product Description: AutoCAD Mechanical|Company: Autodesk, Inc."
 90
    33792
280
     1
281
     0
  0
CLASS
  1
ACMIDSTANDARDANSI
  2
AcmIdStdANSI
  3
"Amdt_StdImp|Product Description: AutoCAD Mechanical|Company: Autodesk, Inc."
 90
    33792
280
     1
281
     0
  0
CLASS
  1
ACMDATUMSTANDARDANSI
  2
AcmDatumStdANSI
  3
"Amdt_StdImp|Product Description: AutoCAD Mechanical|Company: Autodesk, Inc."
 90
    33792
280
     1
281
     0
  0
CLASS
  1
ACMBOMSTANDARDANSI
  2
AcmBOMStdANSI
  3
"Amdt_StdImp|Product Description: AutoCAD Mechanical|Company: Autodesk, Inc."
 90
    33792
280
     1
281
     0
  0
CLASS
  1
ACMDETAILSTANDARDANSI
  2
AmdtDetailSymStdANSI
  3
"Amdt_StdImp|Product Description: AutoCAD Mechanical|Company: Autodesk, Inc."
 90
    33792
280
     1
281
     0
  0
CLASS
  1
ACMSECTIONSTANDARDANSI
  2
AmdtSectionSymStdANSI
  3
"Amdt_StdImp|Product Description: AutoCAD Mechanical|Company: Autodesk, Inc."
 90
    33792
280
     1
281
     0
  0
CLASS
  1
ACMCENTERLINESTANDARDANSI
  2
AmdtCenterLineStdANSI
  3
"Amdt_StdImp|Product Description: AutoCAD Mechanical|Company: Autodesk, Inc."
 90
    33792
280
     1
281
     0
  0
CLASS
  1
ACMTHREADLINESTANDARDANSI
  2
AmdtThreadLineStdANSI
  3
"Amdt_StdImp|Product Description: AutoCAD Mechanical|Company: Autodesk, Inc."
 90
    33792
280
     1
281
     0
  0
CLASS
  1
ACMNOTESTANDARDANSI
  2
AmdtNoteStdANSI
  3
"Amdt_StdImp|Product Description: AutoCAD Mechanical|Company: Autodesk, Inc."
 90
    33792
280
     1
281
     0
  0
CLASS
  1
ACMTAPERSTANDARDANSI
  2
AcmTaperStdANSI
  3
"Amdt_StdImp|Product Description: AutoCAD Mechanical|Company: Autodesk, Inc."
 90
    33792
280
     1
281
     0
  0
CLASS
  1
ACMANOOTATIONVIEWSTANDARDANSI
  2
AmdtAnViewStdANSI
  3
"Amdt_StdImp|Product Description: AutoCAD Mechanical|Company: Autodesk, Inc."
 90
    33792
280
     1
281
     0
  0
CLASS
  1
ACAMGLAYSTD
  2
AcAmgLayStd
  3
"AmgLay|Product Description: AutoCAD Mechanical|Company: Autodesk, Inc."
 90
    33792
280
     1
281
     0
  0
CLASS
  1
ACAMGDIMSTD
  2
AcAmgDimStd
  3
"AmgDim|Product Description: AutoCAD Mechanical|Company: Autodesk, Inc."
 90
    33792
280
     1
281
     0
  0
CLASS
  1
AMGOBJPROPCFG
  2
AmgObjPropCfg
  3
"AmgLay|Product Description: AutoCAD Mechanical|Company: Autodesk, Inc."
 90
    33793
280
     1
281
     0
  0
CLASS
  1
ACAMGHOLECHARTSTDANSI
  2
AcAmgHoleChartStdANSI
  3
AmgDim|Product Description: AutoCAD Mechanical|Company: Autodesk, Inc.
 90
    33792
280
     1
281
     0
  0
CLASS
  1
ACAMGTITLESTD
  2
AcAmgTitleStd
  3
"AmgTitle|Product Description: AutoCAD Mechanical|Company: Autodesk, Inc."
 90
    36863
280
     1
281
     0
  0
CLASS
  1
AMDTNOTETEMPLATEDB
  2
AmdtNoteTemplateDB
  3
AcmSymBB|Product Description: AutoCAD Mechanical|Company: Autodesk, Inc.
 90
    33792
280
     1
281
     0
  0
CLASS
  1
ACAMGFILTERDAT
  2
AcAmgFilterDat
  3
"AcadM|Product Description: AutoCAD Mechanical|Company: Autodesk, Inc."
 90
    33792
280
     1
281
     0
  0
CLASS
  1
CAMSSTRUCTBTNSTATE
  2
StructBtnState
  3
DesignerAssemblies
 90
    33792
280
     1
281
     0
  0
CLASS
  1
ACDBPLACEHOLDER
  2
AcDbPlaceHolder
  3
ObjectDBX Classes
 90
        0
280
     0
281
     0
  0
CLASS
  1
LAYOUT
  2
AcDbLayout
  3
ObjectDBX Classes
 90
        0
280
     0
281
     0
  0
CLASS
  1
SOLID_BACKGROUND
  2
AcDbSolidBackground
  3
SCENEOE
 90
    36863
280
     0
281
     0
  0
ENDSEC
  0
SECTION
  2
TABLES
  0
TABLE
  2
VPORT
  5
28
102
{ACAD_XDICTIONARY
360
2C
102
}
330
0
100
AcDbSymbolTable
 70
     1
  0
VPORT
  5
29
330
28
100
AcDbSymbolTableRecord
100
AcDbViewportTableRecord
  2
*ACTIVE
 70
     0
 10
0.0
 20
0.0
 11
1.0
 21
1.0
 12
0.0090734263753944
 22
103.1487747820194
 13
0.0
 23
0.0
 14
1.0
 24
1.0
 15
0.0
 25
0.0
 16
0.0
 26
0.0
 36
1.0
 17
0.0
 27
0.0
 37
0.0
 40
271.1168333279811
 41
1.141762452107279
 42
50.0
 43
0.0
 44
0.0
 50
0.0
 51
0.0
 71
     0
 72
   100
 73
     1
 74
     1
 75
     0
 76
     0
 77
     0
 78
     0
281
     0
 65
     1
110
0.0
120
0.0
130
0.0
111
1.0
121
0.0
131
0.0
112
0.0
122
1.0
132
0.0
 79
     0
146
0.0
  0
ENDTAB
  0
TABLE
  2
LTYPE
  5
23
330
0
100
AcDbSymbolTable
 70
     3
  0
LTYPE
  5
24
330
23
100
AcDbSymbolTableRecord
100
AcDbLinetypeTableRecord
  2
ByBlock
 70
     0
  3

 72
    65
 73
     0
 40
0.0
  0
LTYPE
  5
25
330
23
100
AcDbSymbolTableRecord
100
AcDbLinetypeTableRecord
  2
ByLayer
 70
     0
  3

 72
    65
 73
     0
 40
0.0
  0
LTYPE
  5
13
330
23
100
AcDbSymbolTableRecord
100
AcDbLinetypeTableRecord
  2
CONTINUOUS
 70
     0
  3
Solid line
 72
    65
 73
     0
 40
0.0
  0
LTYPE
  5
77
330
23
100
AcDbSymbolTableRecord
100
AcDbLinetypeTableRecord
  2
DASHDOT
 70
     0
  3
Dash dot __ . __ . __ . __ . __ . __ . __ . __
 72
    65
 73
     4
 40
1.0
 49
0.5
 74
     0
 49
-0.25
 74
     0
 49
0.0
 74
     0
 49
-0.25
 74
     0
  0
LTYPE
  5
7F
330
23
100
AcDbSymbolTableRecord
100
AcDbLinetypeTableRecord
  2
DASHED
 70
     0
  3
Dashed __ __ __ __ __ __ __ __ __ __ __ __ __ _
 72
    65
 73
     2
 40
0.75
 49
0.5
 74
     0
 49
-0.25
 74
     0
  0
ENDTAB
  0
TABLE
  2
LAYER
  5
1B
102
{ACAD_XDICTIONARY
360
1C
102
}
330
0
100
AcDbSymbolTable
 70
     7
  0
LAYER
  5
6
330
1B
100
AcDbSymbolTableRecord
100
AcDbLayerTableRecord
  2
0
 70
     0
 62
     7
  6
CONTINUOUS
370
    -3
390
7
  0
LAYER
  5
92
330
1B
100
AcDbSymbolTableRecord
100
AcDbLayerTableRecord
  2
GEB-KONTUR-A
 70
     0
 62
     5
  6
CONTINUOUS
370
    -3
390
7
  0
LAYER
  5
76
330
1B
100
AcDbSymbolTableRecord
100
AcDbLayerTableRecord
  2
GEB-SYMMETRIE
 70
     0
 62
     3
  6
DASHDOT
370
    -3
390
7
1001
AcAecLayerStandard
1000

1000

  0
LAYER
  5
7E
330
1B
100
AcDbSymbolTableRecord
100
AcDbLayerTableRecord
  2
GEB-VERDECKT
 70
     0
 62
     2
  6
DASHED
370
    -3
390
7
1001
AcAecLayerStandard
1000

1000

  0
LAYER
  5
17E
330
1B
100
AcDbSymbolTableRecord
100
AcDbLayerTableRecord
  2
GEB-ART-NR
 70
     0
 62
     1
  6
CONTINUOUS
370
    18
390
7
  0
LAYER
  5
72
330
1B
100
AcDbSymbolTableRecord
100
AcDbLayerTableRecord
  2
GEB-BEZUG
 70
     0
 62
     2
  6
CONTINUOUS
370
    25
390
7
  0
LAYER
  5
17B
330
1B
100
AcDbSymbolTableRecord
100
AcDbLayerTableRecord
  2
GEB-TEXT
 70
     0
 62
     5
  6
CONTINUOUS
370
    18
390
7
  0
ENDTAB
  0
TABLE
  2
STYLE
  5
20
330
0
100
AcDbSymbolTable
 70
     1
  0
STYLE
  5
21
330
20
100
AcDbSymbolTableRecord
100
AcDbTextStyleTableRecord
  2
STANDARD
 70
     0
 40
0.0
 41
1.0
 50
0.0
 71
     0
 42
0.2
  3
ARIAL.TTF
  4

1001
ACAD
1000
Arial
1071
       34
  0
ENDTAB
  0
TABLE
  2
VIEW
  5
26
330
0
100
AcDbSymbolTable
 70
     0
  0
ENDTAB
  0
TABLE
  2
UCS
  5
27
330
0
100
AcDbSymbolTable
 70
     0
  0
ENDTAB
  0
TABLE
  2
APPID
  5
2D
330
0
100
AcDbSymbolTable
 70
     3
  0
APPID
  5
1F
330
2D
100
AcDbSymbolTableRecord
100
AcDbRegAppTableRecord
  2
ACAD
 70
     0
  0
APPID
  5
78
330
2D
100
AcDbSymbolTableRecord
100
AcDbRegAppTableRecord
  2
AcAecLayerStandard
 70
     0
  0
APPID
  5
1E9
330
2D
100
AcDbSymbolTableRecord
100
AcDbRegAppTableRecord
  2
ACAD_MLEADERVER
 70
     0
  0
ENDTAB
  0
TABLE
  2
DIMSTYLE
  5
2E
330
0
100
AcDbSymbolTable
 70
     1
100
AcDbDimStyleTable
 71
     1
340
2F
  0
DIMSTYLE
105
2F
330
2E
100
AcDbSymbolTableRecord
100
AcDbDimStyleTableRecord
  2
STANDARD
 70
     0
279
     2
340
21
  0
ENDTAB
  0
TABLE
  2
BLOCK_RECORD
  5
1
330
0
100
AcDbSymbolTable
 70
     1
  0
BLOCK_RECORD
  5
2
102
{ACAD_XDICTIONARY
360
3
102
}
330
1
100
AcDbSymbolTableRecord
100
AcDbBlockTableRecord
  2
*Model_Space
340
15
  0
BLOCK_RECORD
  5
17
330
1
100
AcDbSymbolTableRecord
100
AcDbBlockTableRecord
  2
*Paper_Space
340
1A
  0
BLOCK_RECORD
  5
6F
330
1
100
AcDbSymbolTableRecord
100
AcDbBlockTableRecord
  2
Einfügepunkt
340
0
102
{BLKREFS
331
6E
102
}
  0
ENDTAB
  0
ENDSEC
  0
SECTION
  2
BLOCKS
  0
BLOCK
  5
5
330
2
100
AcDbEntity
  8
0
100
AcDbBlockBegin
  2
*Model_Space
 70
     0
 10
0.0
 20
0.0
 30
0.0
  3
*Model_Space
  1

  0
ENDBLK
  5
14
330
2
100
AcDbEntity
  8
0
100
AcDbBlockEnd
  0
BLOCK
  5
18
330
17
100
AcDbEntity
 67
     1
  8
0
100
AcDbBlockBegin
  2
*Paper_Space
 70
     0
 10
0.0
 20
0.0
 30
0.0
  3
*Paper_Space
  1

  0
ENDBLK
  5
19
330
17
100
AcDbEntity
 67
     1
  8
0
100
AcDbBlockEnd
  0
BLOCK
  5
70
330
6F
100
AcDbEntity
  8
0
100
AcDbBlockBegin
  2
Einfügepunkt
 70
     0
 10
0.0
 20
0.0
 30
0.0
  3
Einfügepunkt
  1

  0
LINE
  5
71
330
6F
100
AcDbEntity
  8
GEB-BEZUG
100
AcDbLine
 10
-0.7071067811865817
 20
-0.7071067811865106
 30
0.0
 11
0.7071067811864751
 21
0.7071067811865817
 31
0.0
  0
LINE
  5
73
330
6F
100
AcDbEntity
  8
GEB-BEZUG
100
AcDbLine
 10
-0.7071067811865106
 20
0.7071067811865817
 30
0.0
 11
0.7071067811865462
 21
-0.7071067811865106
 31
0.0
  0
ENDBLK
  5
74
330
6F
100
AcDbEntity
  8
0
100
AcDbBlockEnd
  0
ENDSEC
  0
SECTION
  2
ENTITIES
  0
INSERT
  5
6E
330
2
100
AcDbEntity
  8
0
 48
25.0
100
AcDbBlockReference
  2
Einfügepunkt
 10
0.0
 20
0.0
 30
0.0
  0
LINE
  5
75
330
2
100
AcDbEntity
  8
GEB-SYMMETRIE
 48
25.0
100
AcDbLine
 10
0.0000000000002274
 20
212.5999999999997
 30
0.0
 11
0.0000000000002274
 21
224.1999999999998
 31
0.0
  0
LINE
  5
79
330
2
100
AcDbEntity
  8
GEB-SYMMETRIE
 48
25.0
100
AcDbLine
 10
0.0000000000002274
 20
202.2999999999997
 30
0.0
 11
0.0000000000002274
 21
217.5999999999997
 31
0.0
  0
LINE
  5
7A
330
2
100
AcDbEntity
  8
GEB-SYMMETRIE
 48
25.0
100
AcDbLine
 10
0.0000000000001137
 20
127.2599999999997
 30
0.0
 11
0.0000000000001137
 21
150.0999999999996
 31
0.0
  0
LINE
  5
7B
330
2
100
AcDbEntity
  8
GEB-SYMMETRIE
 48
25.0
100
AcDbLine
 10
-43.10000000003435
 20
113.6146700417972
 30
0.0
 11
43.0999999999658
 21
113.6146700417972
 31
0.0
  0
LINE
  5
7C
330
2
100
AcDbEntity
  8
GEB-SYMMETRIE
 48
25.0
100
AcDbLine
 10
-0.000000000033765
 20
156.7146700417972
 30
0.0
 11
-0.0000000000349019
 21
70.51467004179722
 31
0.0
  0
LINE
  5
7D
330
2
100
AcDbEntity
  8
GEB-VERDECKT
 48
25.0
100
AcDbLine
 10
51.60000000000014
 20
144.5999999999997
 30
0.0
 11
51.60000000000014
 21
148.5531434217769
 31
0.0
  0
LINE
  5
80
330
2
100
AcDbEntity
  8
GEB-VERDECKT
 48
25.0
100
AcDbLine
 10
-51.59999999999991
 20
144.5999999999997
 30
0.0
 11
-51.59999999999991
 21
148.5531434217769
 31
0.0
  0
LINE
  5
81
330
2
100
AcDbEntity
  8
GEB-VERDECKT
 48
25.0
100
AcDbLine
 10
51.60000000000014
 20
148.5531434217769
 30
0.0
 11
56.65000000000009
 21
157.2999999999997
 31
0.0
  0
LINE
  5
82
330
2
100
AcDbEntity
  8
GEB-VERDECKT
 48
25.0
100
AcDbLine
 10
-51.59999999999991
 20
148.5531434217769
 30
0.0
 11
-56.64999999999986
 21
157.2999999999997
 31
0.0
  0
LINE
  5
83
330
2
100
AcDbEntity
  8
GEB-VERDECKT
 48
25.0
100
AcDbLine
 10
56.65000000000009
 20
157.2999999999997
 30
0.0
 11
56.65000000000009
 21
204.7999999999995
 31
0.0
  0
LINE
  5
84
330
2
100
AcDbEntity
  8
GEB-VERDECKT
 48
25.0
100
AcDbLine
 10
-56.64999999999986
 20
157.2999999999997
 30
0.0
 11
-56.64999999999986
 21
204.7999999999995
 31
0.0
  0
LINE
  5
85
330
2
100
AcDbEntity
  8
GEB-VERDECKT
 48
25.0
100
AcDbLine
 10
60.55000000000018
 20
204.7999999999995
 30
0.0
 11
60.55000000000018
 21
215.0999999999994
 31
0.0
  0
LINE
  5
86
330
2
100
AcDbEntity
  8
GEB-VERDECKT
 48
25.0
100
AcDbLine
 10
-60.54999999999973
 20
204.7999999999995
 30
0.0
 11
-60.54999999999973
 21
215.0999999999994
 31
0.0
  0
LINE
  5
87
330
2
100
AcDbEntity
  8
GEB-VERDECKT
 48
25.0
100
AcDbLine
 10
56.65000000000009
 20
215.0999999999994
 30
0.0
 11
56.65000000000009
 21
221.6999999999996
 31
0.0
  0
LINE
  5
88
330
2
100
AcDbEntity
  8
GEB-VERDECKT
 48
25.0
100
AcDbLine
 10
-56.64999999999963
 20
215.0999999999994
 30
0.0
 11
-56.64999999999963
 21
221.6999999999991
 31
0.0
  0
LINE
  5
89
330
2
100
AcDbEntity
  8
GEB-VERDECKT
 48
25.0
100
AcDbLine
 10
-56.64999999999986
 20
129.7599999999997
 30
0.0
 11
-56.64999999999986
 21
147.5999999999997
 31
0.0
  0
LINE
  5
8A
330
2
100
AcDbEntity
  8
GEB-VERDECKT
 48
25.0
100
AcDbLine
 10
56.65000000000009
 20
129.7599999999997
 30
0.0
 11
56.65000000000009
 21
147.5999999999997
 31
0.0
  0
LINE
  5
8B
330
2
100
AcDbEntity
  8
GEB-VERDECKT
 48
25.0
100
AcDbLine
 10
51.60000000000014
 20
148.5531434217769
 30
0.0
 11
-51.59999999999991
 21
148.5531434217769
 31
0.0
  0
LINE
  5
8C
330
2
100
AcDbEntity
  8
GEB-VERDECKT
 48
25.0
100
AcDbLine
 10
56.65000000000009
 20
157.2999999999997
 30
0.0
 11
-56.64999999999986
 21
157.2999999999997
 31
0.0
  0
LINE
  5
8D
330
2
100
AcDbEntity
  8
GEB-VERDECKT
 48
25.0
100
AcDbLine
 10
60.55000000000018
 20
204.7999999999995
 30
0.0
 11
-60.54999999999973
 21
204.7999999999995
 31
0.0
  0
LINE
  5
8E
330
2
100
AcDbEntity
  8
GEB-VERDECKT
 48
25.0
100
AcDbLine
 10
60.55000000000018
 20
215.0999999999994
 30
0.0
 11
-60.54999999999973
 21
215.0999999999994
 31
0.0
  0
LINE
  5
8F
330
2
100
AcDbEntity
  8
GEB-VERDECKT
 48
25.0
100
AcDbLine
 10
28.97266855896112
 20
147.5999999999994
 30
0.0
 11
-28.97266855899102
 21
147.5999999999994
 31
0.0
  0
LINE
  5
90
330
2
100
AcDbEntity
  8
GEB-VERDECKT
 48
25.0
100
AcDbLine
 10
20.80562522334412
 20
153.0999999999992
 30
0.0
 11
-20.80562522337721
 21
153.0999999999994
 31
0.0
  0
LINE
  5
91
330
2
100
AcDbEntity
  8
GEB-KONTUR-A
 48
25.0
100
AcDbLine
 10
60.15000000000009
 20
218.5999999999992
 30
0.0
 11
60.15000000000009
 21
221.7999999999993
 31
0.0
  0
LINE
  5
93
330
2
100
AcDbEntity
  8
GEB-KONTUR-A
 48
25.0
100
AcDbLine
 10
-60.14999999999975
 20
218.5999999999992
 30
0.0
 11
-60.14999999999975
 21
221.7999999999993
 31
0.0
  0
LINE
  5
94
330
2
100
AcDbEntity
  8
GEB-KONTUR-A
 48
25.0
100
AcDbLine
 10
64.05000000000018
 20
201.2999999999995
 30
0.0
 11
64.05000000000018
 21
218.5999999999992
 31
0.0
  0
LINE
  5
95
330
2
100
AcDbEntity
  8
GEB-KONTUR-A
 48
25.0
100
AcDbLine
 10
-64.04999999999972
 20
201.2999999999995
 30
0.0
 11
-64.04999999999972
 21
218.5999999999992
 31
0.0
  0
LINE
  5
96
330
2
100
AcDbEntity
  8
GEB-KONTUR-A
 48
25.0
100
AcDbLine
 10
60.15000000000032
 20
221.7999999999993
 30
0.0
 11
-60.14999999999975
 21
221.7999999999993
 31
0.0
  0
LINE
  5
97
330
2
100
AcDbEntity
  8
GEB-KONTUR-A
 48
25.0
100
AcDbLine
 10
64.05000000000018
 20
218.5999999999992
 30
0.0
 11
-64.04999999999972
 21
218.5999999999992
 31
0.0
  0
LINE
  5
98
330
2
100
AcDbEntity
  8
GEB-KONTUR-A
 48
25.0
100
AcDbLine
 10
57.04655993133656
 20
147.5999999999997
 30
0.0
 11
28.97266855896112
 21
147.5999999999994
 31
0.0
  0
LINE
  5
99
330
2
100
AcDbEntity
  8
GEB-KONTUR-A
 48
25.0
100
AcDbLine
 10
-28.97266855899102
 20
147.5999999999994
 30
0.0
 11
-57.04655993134384
 21
147.5999999999997
 31
0.0
  0
LINE
  5
9A
330
2
100
AcDbEntity
  8
GEB-KONTUR-A
 48
25.0
100
AcDbLine
 10
-57.04655993134384
 20
153.0999999999994
 30
0.0
 11
-57.04655993134384
 21
147.5999999999994
 31
0.0
  0
LINE
  5
9B
330
2
100
AcDbEntity
  8
GEB-KONTUR-A
 48
25.0
100
AcDbLine
 10
-60.1500000000035
 20
201.2999999999993
 30
0.0
 11
-60.15000000000362
 21
129.7599999999996
 31
0.0
  0
LINE
  5
9C
330
2
100
AcDbEntity
  8
GEB-KONTUR-A
 48
25.0
100
AcDbLine
 10
-60.15000000000362
 20
129.7599999999996
 30
0.0
 11
-55.25371028266249
 21
129.7599999999997
 31
0.0
  0
LINE
  5
9D
330
2
100
AcDbEntity
  8
GEB-KONTUR-A
 48
25.0
100
AcDbLine
 10
-55.25371028266249
 20
129.7599999999997
 30
0.0
 11
-55.25371028266238
 21
147.5999999999997
 31
0.0
  0
LINE
  5
9E
330
2
100
AcDbEntity
  8
GEB-KONTUR-A
 48
25.0
100
AcDbLine
 10
58.83682945230453
 20
153.0999999999997
 30
0.0
 11
20.80562522334412
 21
153.0999999999994
 31
0.0
  0
LINE
  5
9F
330
2
100
AcDbEntity
  8
GEB-KONTUR-A
 48
25.0
100
AcDbLine
 10
-20.80562522337721
 20
153.0999999999994
 30
0.0
 11
-58.8368294523118
 21
153.0999999999997
 31
0.0
  0
LINE
  5
A0
330
2
100
AcDbEntity
  8
GEB-KONTUR-A
 48
25.0
100
AcDbLine
 10
-58.83682945231157
 20
201.2999999999993
 30
0.0
 11
-58.8368294523118
 21
153.0999999999994
 31
0.0
  0
SPLINE
  5
A1
330
2
100
AcDbEntity
  8
GEB-KONTUR-A
 48
25.0
100
AcDbSpline
210
0.0
220
0.0
230
1.0
 70
     8
 71
     3
 72
    28
 73
    24
 74
     0
 42
0.0000000001
 43
0.0000000001
 40
0.0003135965776838
 40
0.0003135965776838
 40
0.0003135965776838
 40
0.0003135965776838
 40
0.27182810476805
 40
0.27182810476805
 40
0.387737298180165
 40
0.387737298180165
 40
0.4023246078165032
 40
0.4023246078165032
 40
0.4094618536715683
 40
0.4094618536715683
 40
0.4141700486340024
 40
0.4141700486340024
 40
0.4184552481471301
 40
0.4184552481471301
 40
0.423853838693815
 40
0.423853838693815
 40
0.4337033556057762
 40
0.4337033556057762
 40
0.4587932382218421
 40
0.4587932382218421
 40
0.5538885018049973
 40
0.5538885018049973
 40
0.8728530395660232
 40
0.8728530395660232
 40
0.8728530395660232
 40
0.8728530395660232
 10
51.15055768862544
 20
168.4772997032635
 30
0.0
 10
51.62600203779266
 20
168.4331756615229
 30
0.0
 10
52.00017346000914
 20
168.3711360456461
 30
0.0
 10
52.36776230094119
 20
168.2634117827606
 30
0.0
 10
52.53648523814468
 20
168.2050730481626
 30
0.0
 10
52.61712202236981
 20
168.1160819391341
 30
0.0
 10
52.62592339275807
 20
168.1043700469265
 30
0.0
 10
52.63548538359578
 20
168.0846688865863
 30
0.0
 10
52.63837763597894
 20
168.077169378954
 30
0.0
 10
52.64144321662161
 20
168.0633193442238
 30
0.0
 10
52.64218896203579
 20
168.0575312038088
 30
0.0
 10
52.64239006363254
 20
168.0459748324335
 30
0.0
 10
52.6419489455061
 20
168.0406202588262
 30
0.0
 10
52.63993827018317
 20
168.0288826725259
 30
0.0
 10
52.63814926849136
 20
168.0228534527825
 30
0.0
 10
52.63225620150365
 20
168.0074984425805
 30
0.0
 10
52.62715137476766
 20
167.9987630637683
 30
0.0
 10
52.60936725002671
 20
167.9730925653944
 30
0.0
 10
52.59217590635671
 20
167.9571277394846
 30
0.0
 10
52.51217595037042
 20
167.8946231189591
 30
0.0
 10
52.41556800094485
 20
167.8559021426933
 30
0.0
 10
52.08135499702621
 20
167.7425466883107
 30
0.0
 10
51.67806708110356
 20
167.6716562817903
 30
0.0
 10
51.15055768862544
 20
167.6227002967352
 30
0.0
  0
SPLINE
  5
A2
330
2
100
AcDbEntity
  8
GEB-KONTUR-A
 48
25.0
100
AcDbSpline
210
0.0
220
0.0
230
1.0
 70
     8
 71
     3
 72
    18
 73
    14
 74
     0
 42
0.0000000001
 43
0.0000000001
 40
6.130712173490141
 40
6.130712173490141
 40
6.130712173490141
 40
6.130712173490141
 40
6.358283137277722
 40
6.358283137277722
 40
6.861022006813825
 40
6.861022006813825
 40
7.812083211287131
 40
7.812083211287131
 40
9.010772298240615
 40
9.010772298240615
 40
10.87123066565299
 40
10.87123066565299
 40
12.25035599329147
 40
12.25035599329147
 40
12.25035599329147
 40
12.25035599329147
 10
-0.0000000000178488
 20
169.2499999999991
 30
0.0
 10
0.7589881251897169
 20
169.2499999999991
 30
0.0
 10
1.517963102796898
 20
169.250000573779
 30
0.0
 10
3.952277875347817
 20
169.2499932071484
 30
0.0
 10
5.624651577963049
 20
169.2499847974143
 30
0.0
 10
10.4382825568573
 20
169.2495023024828
 30
0.0
 10
13.55196233556171
 20
169.2487311120105
 30
0.0
 10
20.44422148833496
 20
169.2402036033797
 30
0.0
 10
24.16768890714707
 20
169.2307804323316
 30
0.0
 10
33.22377669226171
 20
169.1723932261382
 30
0.0
 10
38.25509050176311
 20
169.1058601148941
 30
0.0
 10
45.87546450369837
 20
168.852017736048
 30
0.0
 10
48.7337456978862
 20
168.7015941203603
 30
0.0
 10
51.15055768862544
 20
168.4772997032635
 30
0.0
  0
SPLINE
  5
A3
330
2
100
AcDbEntity
  8
GEB-KONTUR-A
 48
25.0
100
AcDbSpline
210
0.0
220
0.0
230
1.0
 70
     8
 71
     3
 72
    16
 73
    12
 74
     0
 42
0.0000000001
 43
0.0000000001
 40
0.0026009342830066
 40
0.0026009342830066
 40
0.0026009342830066
 40
0.0026009342830066
 40
2.288447646738537
 40
2.288447646738537
 40
4.621313960225662
 40
4.621313960225662
 40
5.462775317898775
 40
5.462775317898775
 40
5.947182010080139
 40
5.947182010080139
 40
6.130712173490141
 40
6.130712173490141
 40
6.130712173490141
 40
6.130712173490141
 10
-51.15055768864408
 20
168.4772997032635
 30
0.0
 10
-47.14631402871623
 20
168.8489171485012
 30
0.0
 10
-41.9448960440925
 20
169.0225473709529
 30
0.0
 10
-29.57067199808012
 20
169.2223336152349
 30
0.0
 10
-22.47978695314214
 20
169.2399864845631
 30
0.0
 10
-12.22327506085776
 20
169.2491410493778
 30
0.0
 10
-9.458964691440542
 20
169.2496587178711
 30
0.0
 10
-5.063601139782576
 20
169.2499956387053
 30
0.0
 10
-3.451184829991234
 20
169.2499967080837
 30
0.0
 10
-1.224217583236622
 20
169.250000242801
 30
0.0
 10
-0.6121045160209633
 20
169.2499999999991
 30
0.0
 10
-0.0000000000178488
 20
169.2499999999991
 30
0.0
  0
SPLINE
  5
A4
330
2
100
AcDbEntity
  8
GEB-KONTUR-A
 48
25.0
100
AcDbSpline
210
0.0
220
0.0
230
1.0
 70
     8
 71
     3
 72
    28
 73
    24
 74
     0
 42
0.0000000001
 43
0.0000000001
 40
0.0003135965776946
 40
0.0003135965776946
 40
0.0003135965776946
 40
0.0003135965776946
 40
0.2718281047685646
 40
0.2718281047685646
 40
0.3877372981792213
 40
0.3877372981792213
 40
0.4023246078318028
 40
0.4023246078318028
 40
0.4094618537003959
 40
0.4094618537003959
 40
0.4141700486716501
 40
0.4141700486716501
 40
0.418455248192727
 40
0.418455248192727
 40
0.4238538387497428
 40
0.4238538387497428
 40
0.4337033556822327
 40
0.4337033556822327
 40
0.4587932383512804
 40
0.4587932383512804
 40
0.5538885021516902
 40
0.5538885021516902
 40
0.8728530406378743
 40
0.8728530406378743
 40
0.8728530406378743
 40
0.8728530406378743
 10
-51.15055768864408
 20
167.6227002967352
 30
0.0
 10
-51.62600203781176
 20
167.6668243384758
 30
0.0
 10
-52.00017346002733
 20
167.7288639543526
 30
0.0
 10
-52.36776230095665
 20
167.8365882172375
 30
0.0
 10
-52.53648523816128
 20
167.8949269518359
 30
0.0
 10
-52.6171220223971
 20
167.983918060876
 30
0.0
 10
-52.62592339277967
 20
167.9956299530815
 30
0.0
 10
-52.63548538361328
 20
168.0153311134129
 30
0.0
 10
-52.638377635996
 20
168.0228306210449
 30
0.0
 10
-52.64144321663855
 20
168.0366806557747
 30
0.0
 10
-52.64218896205284
 20
168.0424687961897
 30
0.0
 10
-52.6423900636496
 20
168.0540251675654
 30
0.0
 10
-52.64194894552327
 20
168.0593797411725
 30
0.0
 10
-52.63993827020022
 20
168.0711173274733
 30
0.0
 10
-52.63814926850773
 20
168.0771465472173
 30
0.0
 10
-52.63225620152059
 20
168.0925015574182
 30
0.0
 10
-52.62715137478517
 20
168.1012369362299
 30
0.0
 10
-52.60936725004251
 20
168.1269074346062
 30
0.0
 10
-52.59217590637081
 20
168.1428722605164
 30
0.0
 10
-52.51217595038792
 20
168.2053768810394
 30
0.0
 10
-52.41556800096271
 20
168.2440978573052
 30
0.0
 10
-52.08135499704372
 20
168.357453311688
 30
0.0
 10
-51.67806708112141
 20
168.4283437182086
 30
0.0
 10
-51.15055768864408
 20
168.4772997032635
 30
0.0
  0
SPLINE
  5
A5
330
2
100
AcDbEntity
  8
GEB-KONTUR-A
 48
25.0
100
AcDbSpline
210
0.0
220
0.0
230
1.0
 70
     8
 71
     3
 72
    18
 73
    14
 74
     0
 42
0.0000000001
 43
0.0000000001
 40
6.130712173490147
 40
6.130712173490147
 40
6.130712173490147
 40
6.130712173490147
 40
6.358283137277687
 40
6.358283137277687
 40
6.861022006813815
 40
6.861022006813815
 40
7.812083211287264
 40
7.812083211287264
 40
9.010772298240867
 40
9.010772298240867
 40
10.87123066565347
 40
10.87123066565347
 40
12.25035599329209
 40
12.25035599329209
 40
12.25035599329209
 40
12.25035599329209
 10
-0.0000000000178488
 20
166.8499999999992
 30
0.0
 10
-0.7589881252251871
 20
166.8499999999992
 30
0.0
 10
-1.517963102832368
 20
166.8499994262195
 30
0.0
 10
-3.952277875383742
 20
166.8500067928498
 30
0.0
 10
-5.624651577998747
 20
166.850015202584
 30
0.0
 10
-10.43828255689231
 20
166.8504976975157
 30
0.0
 10
-13.55196233559627
 20
166.8512688879878
 30
0.0
 10
-20.4442214883685
 20
166.8597963966188
 30
0.0
 10
-24.1676889071797
 20
166.8692195676669
 30
0.0
 10
-33.22377669229161
 20
166.9276067738603
 30
0.0
 10
-38.25509050179073
 20
166.9941398851047
 30
0.0
 10
-45.87546450372167
 20
167.2479822639507
 30
0.0
 10
-48.73374569790712
 20
167.3984058796384
 30
0.0
 10
-51.15055768864408
 20
167.6227002967352
 30
0.0
  0
SPLINE
  5
A6
330
2
100
AcDbEntity
  8
GEB-KONTUR-A
 48
25.0
100
AcDbSpline
210
0.0
220
0.0
230
1.0
 70
     8
 71
     3
 72
    16
 73
    12
 74
     0
 42
0.0000000001
 43
0.0000000001
 40
0.0026009342830057
 40
0.0026009342830057
 40
0.0026009342830057
 40
0.0026009342830057
 40
2.288447646738526
 40
2.288447646738526
 40
4.62131396022564
 40
4.62131396022564
 40
5.462775317898763
 40
5.462775317898763
 40
5.947182010080127
 40
5.947182010080127
 40
6.130712173490147
 40
6.130712173490147
 40
6.130712173490147
 40
6.130712173490147
 10
51.15055768862544
 20
167.6227002967352
 30
0.0
 10
47.14631402869372
 20
167.2510828514976
 30
0.0
 10
41.94489604406657
 20
167.0774526290458
 30
0.0
 10
29.57067199804908
 20
166.8776663847636
 30
0.0
 10
22.47978695310894
 20
166.8600135154354
 30
0.0
 10
12.2232750608232
 20
166.8508589506207
 30
0.0
 10
9.458964691405753
 20
166.8503412821271
 30
0.0
 10
5.063601139746424
 20
166.8500043612932
 30
0.0
 10
3.451184829954627
 20
166.8500032919146
 30
0.0
 10
1.224217583201152
 20
166.8499997571973
 30
0.0
 10
0.612104515985493
 20
166.8499999999992
 30
0.0
 10
-0.0000000000178488
 20
166.8499999999992
 30
0.0
  0
SPLINE
  5
A7
330
2
100
AcDbEntity
  8
GEB-KONTUR-A
 48
25.0
100
AcDbSpline
210
0.0
220
0.0
230
1.0
 70
     8
 71
     3
 72
    28
 73
    24
 74
     0
 42
0.0000000001
 43
0.0000000001
 40
0.0003135965776838
 40
0.0003135965776838
 40
0.0003135965776838
 40
0.0003135965776838
 40
0.2718281047683098
 40
0.2718281047683098
 40
0.3877372981820208
 40
0.3877372981820208
 40
0.4023246078199079
 40
0.4023246078199079
 40
0.4094618536761372
 40
0.4094618536761372
 40
0.4141700486393469
 40
0.4141700486393469
 40
0.4184552481531843
 40
0.4184552481531843
 40
0.4238538387007652
 40
0.4238538387007652
 40
0.4337033556144
 40
0.4337033556144
 40
0.4587932382340488
 40
0.4587932382340488
 40
0.5538885018260409
 40
0.5538885018260409
 40
0.8728530396201261
 40
0.8728530396201261
 40
0.8728530396201261
 40
0.8728530396201261
 10
51.15055768862544
 20
176.7272997032632
 30
0.0
 10
51.62600203779311
 20
176.6831756615229
 30
0.0
 10
52.00017346000937
 20
176.6211360456459
 30
0.0
 10
52.36776230094233
 20
176.5134117827601
 30
0.0
 10
52.53648523814468
 20
176.4550730481621
 30
0.0
 10
52.61712202237049
 20
176.3660819391332
 30
0.0
 10
52.6259233927583
 20
176.3543700469258
 30
0.0
 10
52.63548538359578
 20
176.3346688865863
 30
0.0
 10
52.63837763597894
 20
176.327169378954
 30
0.0
 10
52.64144321662161
 20
176.3133193442236
 30
0.0
 10
52.64218896203579
 20
176.3075312038088
 30
0.0
 10
52.64239006363254
 20
176.2959748324333
 30
0.0
 10
52.6419489455061
 20
176.2906202588262
 30
0.0
 10
52.63993827018317
 20
176.2788826725259
 30
0.0
 10
52.63814926849136
 20
176.2728534527825
 30
0.0
 10
52.63225620150365
 20
176.2574984425805
 30
0.0
 10
52.62715137476766
 20
176.2487630637681
 30
0.0
 10
52.60936725002716
 20
176.2230925653948
 30
0.0
 10
52.59217590635739
 20
176.2071277394852
 30
0.0
 10
52.51217595037019
 20
176.1446231189591
 30
0.0
 10
52.41556800094418
 20
176.1059021426931
 30
0.0
 10
52.08135499702644
 20
175.9925466883107
 30
0.0
 10
51.67806708110356
 20
175.9216562817901
 30
0.0
 10
51.15055768862544
 20
175.8727002967352
 30
0.0
  0
SPLINE
  5
A8
330
2
100
AcDbEntity
  8
GEB-KONTUR-A
 48
25.0
100
AcDbSpline
210
0.0
220
0.0
230
1.0
 70
     8
 71
     3
 72
    18
 73
    14
 74
     0
 42
0.0000000001
 43
0.0000000001
 40
6.130712173490141
 40
6.130712173490141
 40
6.130712173490141
 40
6.130712173490141
 40
6.358283137277722
 40
6.358283137277722
 40
6.861022006813825
 40
6.861022006813825
 40
7.812083211287131
 40
7.812083211287131
 40
9.010772298240615
 40
9.010772298240615
 40
10.87123066565299
 40
10.87123066565299
 40
12.25035599329147
 40
12.25035599329147
 40
12.25035599329147
 40
12.25035599329147
 10
-0.0000000000178488
 20
177.4999999999993
 30
0.0
 10
0.7589881251897169
 20
177.4999999999993
 30
0.0
 10
1.517963102796898
 20
177.500000573779
 30
0.0
 10
3.952277875347817
 20
177.4999932071484
 30
0.0
 10
5.624651577963049
 20
177.4999847974143
 30
0.0
 10
10.4382825568573
 20
177.4995023024828
 30
0.0
 10
13.55196233556171
 20
177.4987311120105
 30
0.0
 10
20.44422148833496
 20
177.4902036033797
 30
0.0
 10
24.16768890714718
 20
177.4807804323313
 30
0.0
 10
33.22377669226171
 20
177.4223932261382
 30
0.0
 10
38.25509050176311
 20
177.3558601148938
 30
0.0
 10
45.87546450369859
 20
177.1020177360481
 30
0.0
 10
48.7337456978862
 20
176.9515941203601
 30
0.0
 10
51.15055768862544
 20
176.7272997032632
 30
0.0
  0
SPLINE
  5
A9
330
2
100
AcDbEntity
  8
GEB-KONTUR-A
 48
25.0
100
AcDbSpline
210
0.0
220
0.0
230
1.0
 70
     8
 71
     3
 72
    16
 73
    12
 74
     0
 42
0.0000000001
 43
0.0000000001
 40
0.0026009342830066
 40
0.0026009342830066
 40
0.0026009342830066
 40
0.0026009342830066
 40
2.288447646738537
 40
2.288447646738537
 40
4.621313960225662
 40
4.621313960225662
 40
5.462775317898775
 40
5.462775317898775
 40
5.947182010080139
 40
5.947182010080139
 40
6.130712173490141
 40
6.130712173490141
 40
6.130712173490141
 40
6.130712173490141
 10
-51.15055768864397
 20
176.7272997032635
 30
0.0
 10
-47.14631402871612
 20
177.0989171485009
 30
0.0
 10
-41.9448960440925
 20
177.2725473709527
 30
0.0
 10
-29.57067199808012
 20
177.4723336152351
 30
0.0
 10
-22.47978695314214
 20
177.4899864845629
 30
0.0
 10
-12.22327506085776
 20
177.4991410493778
 30
0.0
 10
-9.458964691440542
 20
177.4996587178709
 30
0.0
 10
-5.063601139782576
 20
177.499995638705
 30
0.0
 10
-3.451184829991234
 20
177.4999967080839
 30
0.0
 10
-1.224217583236622
 20
177.500000242801
 30
0.0
 10
-0.6121045160209633
 20
177.4999999999993
 30
0.0
 10
-0.0000000000178488
 20
177.4999999999993
 30
0.0
  0
SPLINE
  5
AA
330
2
100
AcDbEntity
  8
GEB-KONTUR-A
 48
25.0
100
AcDbSpline
210
0.0
220
0.0
230
1.0
 70
     8
 71
     3
 72
    28
 73
    24
 74
     0
 42
0.0000000001
 43
0.0000000001
 40
0.0003135965776941
 40
0.0003135965776941
 40
0.0003135965776941
 40
0.0003135965776941
 40
0.2718281047685033
 40
0.2718281047685033
 40
0.3877372981797977
 40
0.3877372981797977
 40
0.4023246078276994
 40
0.4023246078276994
 40
0.4094618536919893
 40
0.4094618536919893
 40
0.4141700486610051
 40
0.4141700486610051
 40
0.4184552481801078
 40
0.4184552481801078
 40
0.4238538387340866
 40
0.4238538387340866
 40
0.4337033556610864
 40
0.4337033556610864
 40
0.4587932383144921
 40
0.4587932383144921
 40
0.5538885020434936
 40
0.5538885020434936
 40
0.8728530403033174
 40
0.8728530403033174
 40
0.8728530403033174
 40
0.8728530403033174
 10
-51.15055768864397
 20
175.8727002967352
 30
0.0
 10
-51.62600203781153
 20
175.9168243384758
 30
0.0
 10
-52.00017346002709
 20
175.9788639543528
 30
0.0
 10
-52.36776230095734
 20
176.0865882172377
 30
0.0
 10
-52.5364852381615
 20
176.1449269518359
 30
0.0
 10
-52.61712202239414
 20
176.2339180608728
 30
0.0
 10
-52.6259233927783
 20
176.2456299530788
 30
0.0
 10
-52.63548538361295
 20
176.2653311134124
 30
0.0
 10
-52.638377635996
 20
176.2728306210445
 30
0.0
 10
-52.64144321663867
 20
176.2866806557754
 30
0.0
 10
-52.64218896205273
 20
176.2924687961902
 30
0.0
 10
-52.6423900636496
 20
176.304025167565
 30
0.0
 10
-52.64194894552327
 20
176.3093797411718
 30
0.0
 10
-52.63993827020022
 20
176.3211173274733
 30
0.0
 10
-52.63814926850773
 20
176.3271465472171
 30
0.0
 10
-52.63225620152059
 20
176.3425015574182
 30
0.0
 10
-52.62715137478494
 20
176.3512369362299
 30
0.0
 10
-52.60936725004353
 20
176.3769074346048
 30
0.0
 10
-52.59217590637331
 20
176.3928722605146
 30
0.0
 10
-52.51217595038679
 20
176.4553768810401
 30
0.0
 10
-52.41556800095986
 20
176.4940978573061
 30
0.0
 10
-52.08135499704394
 20
176.607453311688
 30
0.0
 10
-51.67806708112141
 20
176.6783437182084
 30
0.0
 10
-51.15055768864397
 20
176.7272997032635
 30
0.0
  0
SPLINE
  5
AB
330
2
100
AcDbEntity
  8
GEB-KONTUR-A
 48
25.0
100
AcDbSpline
210
0.0
220
0.0
230
1.0
 70
     8
 71
     3
 72
    18
 73
    14
 74
     0
 42
0.0000000001
 43
0.0000000001
 40
6.130712173490252
 40
6.130712173490252
 40
6.130712173490252
 40
6.130712173490252
 40
6.358283137277815
 40
6.358283137277815
 40
6.861022006813891
 40
6.861022006813891
 40
7.812083211287187
 40
7.812083211287187
 40
9.010772298240585
 40
9.010772298240585
 40
10.87123066565289
 40
10.87123066565289
 40
12.25035599329128
 40
12.25035599329128
 40
12.25035599329128
 40
12.25035599329128
 10
-0.0000000000178488
 20
175.0999999999992
 30
0.0
 10
-0.7589881252251871
 20
175.0999999999992
 30
0.0
 10
-1.517963102832368
 20
175.0999994262194
 30
0.0
 10
-3.952277875383515
 20
175.1000067928498
 30
0.0
 10
-5.624651577998747
 20
175.100015202584
 30
0.0
 10
-10.43828255689243
 20
175.1004976975157
 30
0.0
 10
-13.5519623355965
 20
175.1012688879877
 30
0.0
 10
-20.4442214883685
 20
175.1097963966188
 30
0.0
 10
-24.1676889071797
 20
175.1192195676669
 30
0.0
 10
-33.22377669229172
 20
175.1776067738603
 30
0.0
 10
-38.25509050179085
 20
175.2441398851044
 30
0.0
 10
-45.87546450372167
 20
175.4979822639507
 30
0.0
 10
-48.73374569790712
 20
175.6484058796384
 30
0.0
 10
-51.15055768864397
 20
175.8727002967352
 30
0.0
  0
SPLINE
  5
AC
330
2
100
AcDbEntity
  8
GEB-KONTUR-A
 48
25.0
100
AcDbSpline
210
0.0
220
0.0
230
1.0
 70
     8
 71
     3
 72
    16
 73
    12
 74
     0
 42
0.0000000001
 43
0.0000000001
 40
0.0026009342830058
 40
0.0026009342830058
 40
0.0026009342830058
 40
0.0026009342830058
 40
2.288447646738528
 40
2.288447646738528
 40
4.621313960225682
 40
4.621313960225682
 40
5.462775317898788
 40
5.462775317898788
 40
5.947182010080212
 40
5.947182010080212
 40
6.130712173490252
 40
6.130712173490252
 40
6.130712173490252
 40
6.130712173490252
 10
51.15055768862544
 20
175.8727002967352
 30
0.0
 10
47.14631402869372
 20
175.5010828514976
 30
0.0
 10
41.94489604406657
 20
175.3274526290458
 30
0.0
 10
29.57067199804896
 20
175.1276663847634
 30
0.0
 10
22.47978695310883
 20
175.1100135154354
 30
0.0
 10
12.22327506082286
 20
175.1008589506207
 30
0.0
 10
9.458964691405299
 20
175.1003412821273
 30
0.0
 10
5.063601139746651
 20
175.1000043612932
 30
0.0
 10
3.451184829954854
 20
175.1000032919146
 30
0.0
 10
1.224217583201152
 20
175.0999997571973
 30
0.0
 10
0.612104515985493
 20
175.0999999999992
 30
0.0
 10
-0.0000000000178488
 20
175.0999999999992
 30
0.0
  0
SPLINE
  5
AD
330
2
100
AcDbEntity
  8
GEB-KONTUR-A
 48
25.0
100
AcDbSpline
210
0.0
220
0.0
230
1.0
 70
     8
 71
     3
 72
    28
 73
    24
 74
     0
 42
0.0000000001
 43
0.0000000001
 40
0.0003135965776837
 40
0.0003135965776837
 40
0.0003135965776837
 40
0.0003135965776837
 40
0.2718281047680524
 40
0.2718281047680524
 40
0.3877372981799651
 40
0.3877372981799651
 40
0.4023246078170608
 40
0.4023246078170608
 40
0.4094618536727485
 40
0.4094618536727485
 40
0.414170048635601
 40
0.414170048635601
 40
0.4184552481491135
 40
0.4184552481491135
 40
0.4238538386962853
 40
0.4238538386962853
 40
0.4337033556091737
 40
0.4337033556091737
 40
0.4587932382269192
 40
0.4587932382269192
 40
0.5538885018116801
 40
0.5538885018116801
 40
0.8728530395814338
 40
0.8728530395814338
 40
0.8728530395814338
 40
0.8728530395814338
 10
51.15055768862544
 20
184.9772997032635
 30
0.0
 10
51.62600203779266
 20
184.9331756615229
 30
0.0
 10
52.00017346000914
 20
184.8711360456461
 30
0.0
 10
52.36776230094097
 20
184.7634117827606
 30
0.0
 10
52.53648523814445
 20
184.7050730481623
 30
0.0
 10
52.61712202237027
 20
184.6160819391334
 30
0.0
 10
52.6259233927583
 20
184.6043700469261
 30
0.0
 10
52.63548538359578
 20
184.5846688865863
 30
0.0
 10
52.63837763597894
 20
184.577169378954
 30
0.0
 10
52.64144321662161
 20
184.5633193442238
 30
0.0
 10
52.64218896203579
 20
184.5575312038088
 30
0.0
 10
52.64239006363254
 20
184.5459748324333
 30
0.0
 10
52.64194894550633
 20
184.5406202588262
 30
0.0
 10
52.63993827018317
 20
184.5288826725257
 30
0.0
 10
52.63814926849136
 20
184.5228534527825
 30
0.0
 10
52.63225620150365
 20
184.5074984425805
 30
0.0
 10
52.62715137476766
 20
184.4987630637684
 30
0.0
 10
52.60936725002716
 20
184.4730925653948
 30
0.0
 10
52.59217590635739
 20
184.4571277394852
 30
0.0
 10
52.51217595037019
 20
184.3946231189588
 30
0.0
 10
52.41556800094418
 20
184.3559021426929
 30
0.0
 10
52.08135499702667
 20
184.2425466883107
 30
0.0
 10
51.67806708110379
 20
184.17165628179
 30
0.0
 10
51.15055768862544
 20
184.1227002967352
 30
0.0
  0
SPLINE
  5
AE
330
2
100
AcDbEntity
  8
GEB-KONTUR-A
 48
25.0
100
AcDbSpline
210
0.0
220
0.0
230
1.0
 70
     8
 71
     3
 72
    18
 73
    14
 74
     0
 42
0.0000000001
 43
0.0000000001
 40
6.130712173490141
 40
6.130712173490141
 40
6.130712173490141
 40
6.130712173490141
 40
6.358283137277722
 40
6.358283137277722
 40
6.861022006813825
 40
6.861022006813825
 40
7.812083211287131
 40
7.812083211287131
 40
9.010772298240615
 40
9.010772298240615
 40
10.87123066565299
 40
10.87123066565299
 40
12.25035599329147
 40
12.25035599329147
 40
12.25035599329147
 40
12.25035599329147
 10
-0.0000000000178488
 20
185.7499999999991
 30
0.0
 10
0.7589881251897169
 20
185.7499999999991
 30
0.0
 10
1.517963102796898
 20
185.750000573779
 30
0.0
 10
3.952277875347817
 20
185.7499932071484
 30
0.0
 10
5.624651577963163
 20
185.7499847974143
 30
0.0
 10
10.4382825568573
 20
185.7495023024826
 30
0.0
 10
13.55196233556171
 20
185.7487311120105
 30
0.0
 10
20.44422148833496
 20
185.7402036033797
 30
0.0
 10
24.16768890714718
 20
185.7307804323313
 30
0.0
 10
33.22377669226171
 20
185.6723932261381
 30
0.0
 10
38.25509050176311
 20
185.6058601148941
 30
0.0
 10
45.87546450369859
 20
185.3520177360478
 30
0.0
 10
48.73374569788643
 20
185.2015941203603
 30
0.0
 10
51.15055768862544
 20
184.9772997032635
 30
0.0
  0
SPLINE
  5
AF
330
2
100
AcDbEntity
  8
GEB-KONTUR-A
 48
25.0
100
AcDbSpline
210
0.0
220
0.0
230
1.0
 70
     8
 71
     3
 72
    16
 73
    12
 74
     0
 42
0.0000000001
 43
0.0000000001
 40
0.0026009342830067
 40
0.0026009342830067
 40
0.0026009342830067
 40
0.0026009342830067
 40
2.288447646738537
 40
2.288447646738537
 40
4.621313960225662
 40
4.621313960225662
 40
5.462775317898775
 40
5.462775317898775
 40
5.947182010080139
 40
5.947182010080139
 40
6.130712173490141
 40
6.130712173490141
 40
6.130712173490141
 40
6.130712173490141
 10
-51.15055768864397
 20
184.9772997032635
 30
0.0
 10
-47.14631402871612
 20
185.3489171485012
 30
0.0
 10
-41.9448960440925
 20
185.5225473709527
 30
0.0
 10
-29.57067199808012
 20
185.7223336152349
 30
0.0
 10
-22.47978695314214
 20
185.7399864845631
 30
0.0
 10
-12.22327506085776
 20
185.7491410493776
 30
0.0
 10
-9.458964691440542
 20
185.7496587178709
 30
0.0
 10
-5.063601139782576
 20
185.749995638705
 30
0.0
 10
-3.451184829991234
 20
185.7499967080837
 30
0.0
 10
-1.224217583236622
 20
185.7500002428009
 30
0.0
 10
-0.6121045160209633
 20
185.7499999999991
 30
0.0
 10
-0.0000000000178488
 20
185.7499999999991
 30
0.0
  0
SPLINE
  5
B0
330
2
100
AcDbEntity
  8
GEB-KONTUR-A
 48
25.0
100
AcDbSpline
210
0.0
220
0.0
230
1.0
 70
     8
 71
     3
 72
    28
 73
    24
 74
     0
 42
0.0000000001
 43
0.0000000001
 40
0.0003135965776947
 40
0.0003135965776947
 40
0.0003135965776947
 40
0.0003135965776947
 40
0.2718281047685369
 40
0.2718281047685369
 40
0.387737298179117
 40
0.387737298179117
 40
0.4023246078316326
 40
0.4023246078316326
 40
0.4094618537001659
 40
0.4094618537001659
 40
0.4141700486713896
 40
0.4141700486713896
 40
0.4184552481924415
 40
0.4184552481924415
 40
0.4238538387494375
 40
0.4238538387494375
 40
0.4337033556819361
 40
0.4337033556819361
 40
0.4587932383515679
 40
0.4587932383515679
 40
0.5538885021561292
 40
0.5538885021561292
 40
0.8728530406591755
 40
0.8728530406591755
 40
0.8728530406591755
 40
0.8728530406591755
 10
-51.15055768864397
 20
184.1227002967352
 30
0.0
 10
-51.62600203781153
 20
184.1668243384758
 30
0.0
 10
-52.00017346002733
 20
184.2288639543526
 30
0.0
 10
-52.36776230095642
 20
184.3365882172374
 30
0.0
 10
-52.53648523816128
 20
184.3949269518357
 30
0.0
 10
-52.61712202239698
 20
184.4839180608758
 30
0.0
 10
-52.62592339277967
 20
184.4956299530815
 30
0.0
 10
-52.63548538361305
 20
184.5153311134129
 30
0.0
 10
-52.638377635996
 20
184.5228306210447
 30
0.0
 10
-52.64144321663855
 20
184.5366806557747
 30
0.0
 10
-52.64218896205284
 20
184.5424687961897
 30
0.0
 10
-52.6423900636496
 20
184.5540251675652
 30
0.0
 10
-52.64194894552327
 20
184.5593797411723
 30
0.0
 10
-52.63993827020022
 20
184.5711173274733
 30
0.0
 10
-52.63814926850773
 20
184.5771465472171
 30
0.0
 10
-52.63225620152059
 20
184.592501557418
 30
0.0
 10
-52.62715137478494
 20
184.6012369362299
 30
0.0
 10
-52.60936725004239
 20
184.6269074346062
 30
0.0
 10
-52.59217590637058
 20
184.6428722605167
 30
0.0
 10
-52.51217595038759
 20
184.7053768810394
 30
0.0
 10
-52.41556800096214
 20
184.7440978573054
 30
0.0
 10
-52.08135499704394
 20
184.857453311688
 30
0.0
 10
-51.67806708112152
 20
184.9283437182084
 30
0.0
 10
-51.15055768864397
 20
184.9772997032635
 30
0.0
  0
SPLINE
  5
B1
330
2
100
AcDbEntity
  8
GEB-KONTUR-A
 48
25.0
100
AcDbSpline
210
0.0
220
0.0
230
1.0
 70
     8
 71
     3
 72
    18
 73
    14
 74
     0
 42
0.0000000001
 43
0.0000000001
 40
6.130712173490252
 40
6.130712173490252
 40
6.130712173490252
 40
6.130712173490252
 40
6.358283137277815
 40
6.358283137277815
 40
6.861022006813891
 40
6.861022006813891
 40
7.812083211287187
 40
7.812083211287187
 40
9.010772298240585
 40
9.010772298240585
 40
10.87123066565289
 40
10.87123066565289
 40
12.25035599329128
 40
12.25035599329128
 40
12.25035599329128
 40
12.25035599329128
 10
-0.0000000000178488
 20
183.3499999999992
 30
0.0
 10
-0.7589881252251871
 20
183.3499999999992
 30
0.0
 10
-1.517963102832368
 20
183.3499994262195
 30
0.0
 10
-3.952277875383515
 20
183.3500067928498
 30
0.0
 10
-5.62465157799852
 20
183.350015202584
 30
0.0
 10
-10.43828255689243
 20
183.3504976975155
 30
0.0
 10
-13.5519623355965
 20
183.3512688879878
 30
0.0
 10
-20.4442214883685
 20
183.3597963966185
 30
0.0
 10
-24.1676889071797
 20
183.3692195676669
 30
0.0
 10
-33.22377669229172
 20
183.4276067738603
 30
0.0
 10
-38.25509050179085
 20
183.4941398851044
 30
0.0
 10
-45.87546450372167
 20
183.7479822639506
 30
0.0
 10
-48.73374569790712
 20
183.8984058796384
 30
0.0
 10
-51.15055768864397
 20
184.1227002967352
 30
0.0
  0
SPLINE
  5
B2
330
2
100
AcDbEntity
  8
GEB-KONTUR-A
 48
25.0
100
AcDbSpline
210
0.0
220
0.0
230
1.0
 70
     8
 71
     3
 72
    16
 73
    12
 74
     0
 42
0.0000000001
 43
0.0000000001
 40
0.0026009342830056
 40
0.0026009342830056
 40
0.0026009342830056
 40
0.0026009342830056
 40
2.288447646738528
 40
2.288447646738528
 40
4.621313960225682
 40
4.621313960225682
 40
5.462775317898788
 40
5.462775317898788
 40
5.947182010080212
 40
5.947182010080212
 40
6.130712173490252
 40
6.130712173490252
 40
6.130712173490252
 40
6.130712173490252
 10
51.15055768862544
 20
184.1227002967352
 30
0.0
 10
47.14631402869372
 20
183.7510828514973
 30
0.0
 10
41.94489604406657
 20
183.5774526290459
 30
0.0
 10
29.57067199804908
 20
183.3776663847634
 30
0.0
 10
22.47978695310883
 20
183.3600135154354
 30
0.0
 10
12.22327506082286
 20
183.3508589506205
 30
0.0
 10
9.458964691405299
 20
183.3503412821274
 30
0.0
 10
5.063601139746651
 20
183.3500043612932
 30
0.0
 10
3.451184829954854
 20
183.3500032919144
 30
0.0
 10
1.224217583201152
 20
183.3499997571973
 30
0.0
 10
0.612104515985493
 20
183.3499999999992
 30
0.0
 10
-0.0000000000178488
 20
183.3499999999992
 30
0.0
  0
SPLINE
  5
B3
330
2
100
AcDbEntity
  8
GEB-KONTUR-A
 48
25.0
100
AcDbSpline
210
0.0
220
0.0
230
1.0
 70
     8
 71
     3
 72
    28
 73
    24
 74
     0
 42
0.0000000001
 43
0.0000000001
 40
0.0003135965776839
 40
0.0003135965776839
 40
0.0003135965776839
 40
0.0003135965776839
 40
0.2718281047680473
 40
0.2718281047680473
 40
0.3877372981787153
 40
0.3877372981787153
 40
0.4023246078281107
 40
0.4023246078281107
 40
0.4094618536937226
 40
0.4094618536937226
 40
0.4141700486636421
 40
0.4141700486636421
 40
0.4184552481835528
 40
0.4184552481835528
 40
0.4238538387384246
 40
0.4238538387384246
 40
0.4337033556666886
 40
0.4337033556666886
 40
0.4587932383214158
 40
0.4587932383214158
 40
0.5538885020421047
 40
0.5538885020421047
 40
0.8728530402747518
 40
0.8728530402747518
 40
0.8728530402747518
 40
0.8728530402747518
 10
51.15055768862544
 20
193.2272997032632
 30
0.0
 10
51.62600203779266
 20
193.1831756615227
 30
0.0
 10
52.00017346000914
 20
193.1211360456461
 30
0.0
 10
52.36776230093983
 20
193.0134117827608
 30
0.0
 10
52.53648523814423
 20
192.9550730481628
 30
0.0
 10
52.617122022378
 20
192.866081939125
 30
0.0
 10
52.62592339276171
 20
192.8543700469188
 30
0.0
 10
52.635485383596
 20
192.8346688865861
 30
0.0
 10
52.63837763597894
 20
192.827169378954
 30
0.0
 10
52.64144321662161
 20
192.8133193442229
 30
0.0
 10
52.64218896203579
 20
192.8075312038086
 30
0.0
 10
52.64239006363254
 20
192.7959748324335
 30
0.0
 10
52.64194894550633
 20
192.7906202588267
 30
0.0
 10
52.63993827018317
 20
192.7788826725254
 30
0.0
 10
52.6381492684909
 20
192.7728534527816
 30
0.0
 10
52.63225620150365
 20
192.7574984425805
 30
0.0
 10
52.62715137476812
 20
192.7487630637688
 30
0.0
 10
52.60936725002761
 20
192.7230925653955
 30
0.0
 10
52.59217590635853
 20
192.7071277394857
 30
0.0
 10
52.51217595036973
 20
192.6446231189584
 30
0.0
 10
52.41556800094258
 20
192.6059021426924
 30
0.0
 10
52.08135499702667
 20
192.4925466883105
 30
0.0
 10
51.67806708110356
 20
192.4216562817901
 30
0.0
 10
51.15055768862544
 20
192.372700296735
 30
0.0
  0
SPLINE
  5
B4
330
2
100
AcDbEntity
  8
GEB-KONTUR-A
 48
25.0
100
AcDbSpline
210
0.0
220
0.0
230
1.0
 70
     8
 71
     3
 72
    18
 73
    14
 74
     0
 42
0.0000000001
 43
0.0000000001
 40
6.130712173490135
 40
6.130712173490135
 40
6.130712173490135
 40
6.130712173490135
 40
6.358283137277716
 40
6.358283137277716
 40
6.861022006813818
 40
6.861022006813818
 40
7.812083211287122
 40
7.812083211287122
 40
9.010772298240604
 40
9.010772298240604
 40
10.87123066565298
 40
10.87123066565298
 40
12.25035599329146
 40
12.25035599329146
 40
12.25035599329146
 40
12.25035599329146
 10
-0.0000000000178488
 20
193.999999999999
 30
0.0
 10
0.7589881251897169
 20
193.999999999999
 30
0.0
 10
1.517963102797011
 20
194.0000005737788
 30
0.0
 10
3.952277875347817
 20
193.9999932071484
 30
0.0
 10
5.624651577963163
 20
193.9999847974143
 30
0.0
 10
10.4382825568573
 20
193.9995023024828
 30
0.0
 10
13.55196233556171
 20
193.9987311120105
 30
0.0
 10
20.44422148833496
 20
193.9902036033795
 30
0.0
 10
24.16768890714718
 20
193.9807804323313
 30
0.0
 10
33.22377669226171
 20
193.9223932261382
 30
0.0
 10
38.25509050176311
 20
193.8558601148938
 30
0.0
 10
45.87546450369859
 20
193.6020177360478
 30
0.0
 10
48.73374569788643
 20
193.4515941203601
 30
0.0
 10
51.15055768862544
 20
193.2272997032632
 30
0.0
  0
SPLINE
  5
B5
330
2
100
AcDbEntity
  8
GEB-KONTUR-A
 48
25.0
100
AcDbSpline
210
0.0
220
0.0
230
1.0
 70
     8
 71
     3
 72
    16
 73
    12
 74
     0
 42
0.0000000001
 43
0.0000000001
 40
0.0026009342830065
 40
0.0026009342830065
 40
0.0026009342830065
 40
0.0026009342830065
 40
2.288447646738537
 40
2.288447646738537
 40
4.621313960225658
 40
4.621313960225658
 40
5.46277531789877
 40
5.46277531789877
 40
5.947182010080132
 40
5.947182010080132
 40
6.130712173490135
 40
6.130712173490135
 40
6.130712173490135
 40
6.130712173490135
 10
-51.15055768864397
 20
193.2272997032635
 30
0.0
 10
-47.14631402871612
 20
193.598917148501
 30
0.0
 10
-41.9448960440925
 20
193.7725473709527
 30
0.0
 10
-29.57067199808012
 20
193.9723336152349
 30
0.0
 10
-22.47978695314214
 20
193.9899864845629
 30
0.0
 10
-12.22327506085764
 20
193.9991410493776
 30
0.0
 10
-9.458964691440542
 20
193.9996587178709
 30
0.0
 10
-5.063601139782576
 20
193.999995638705
 30
0.0
 10
-3.451184829991234
 20
193.9999967080837
 30
0.0
 10
-1.224217583236622
 20
194.0000002428007
 30
0.0
 10
-0.6121045160209633
 20
193.999999999999
 30
0.0
 10
-0.0000000000178488
 20
193.999999999999
 30
0.0
  0
SPLINE
  5
B6
330
2
100
AcDbEntity
  8
GEB-KONTUR-A
 48
25.0
100
AcDbSpline
210
0.0
220
0.0
230
1.0
 70
     8
 71
     3
 72
    28
 73
    24
 74
     0
 42
0.0000000001
 43
0.0000000001
 40
0.0003135965776942
 40
0.0003135965776942
 40
0.0003135965776942
 40
0.0003135965776942
 40
0.2718281047686017
 40
0.2718281047686017
 40
0.3877372981810163
 40
0.3877372981810163
 40
0.4023246078311834
 40
0.4023246078311834
 40
0.4094618536978117
 40
0.4094618536978117
 40
0.4141700486678527
 40
0.4141700486678527
 40
0.4184552481878479
 40
0.4184552481878479
 40
0.423853838743504
 40
0.423853838743504
 40
0.4337033556735145
 40
0.4337033556735145
 40
0.4587932383359704
 40
0.4587932383359704
 40
0.5538885021105539
 40
0.5538885021105539
 40
0.8728530405182555
 40
0.8728530405182555
 40
0.8728530405182555
 40
0.8728530405182555
 10
-51.15055768864397
 20
192.372700296735
 30
0.0
 10
-51.62600203781176
 20
192.4168243384758
 30
0.0
 10
-52.00017346002733
 20
192.4788639543526
 30
0.0
 10
-52.36776230095824
 20
192.5865882172379
 30
0.0
 10
-52.53648523816162
 20
192.6449269518361
 30
0.0
 10
-52.61712202239539
 20
192.733918060874
 30
0.0
 10
-52.62592339277898
 20
192.7456299530799
 30
0.0
 10
-52.63548538361305
 20
192.7653311134129
 30
0.0
 10
-52.638377635996
 20
192.7728306210447
 30
0.0
 10
-52.64144321663855
 20
192.7866806557747
 30
0.0
 10
-52.64218896205273
 20
192.7924687961897
 30
0.0
 10
-52.6423900636496
 20
192.8040251675652
 30
0.0
 10
-52.64194894552315
 20
192.8093797411725
 30
0.0
 10
-52.6399382702001
 20
192.8211173274731
 30
0.0
 10
-52.63814926850773
 20
192.8271465472171
 30
0.0
 10
-52.63225620152059
 20
192.842501557418
 30
0.0
 10
-52.62715137478517
 20
192.8512369362299
 30
0.0
 10
-52.60936725004262
 20
192.876907434606
 30
0.0
 10
-52.59217590637115
 20
192.8928722605162
 30
0.0
 10
-52.51217595038713
 20
192.9553768810399
 30
0.0
 10
-52.41556800096077
 20
192.9940978573056
 30
0.0
 10
-52.08135499704372
 20
193.107453311688
 30
0.0
 10
-51.6780670811213
 20
193.1783437182084
 30
0.0
 10
-51.15055768864397
 20
193.2272997032635
 30
0.0
  0
SPLINE
  5
B7
330
2
100
AcDbEntity
  8
GEB-KONTUR-A
 48
25.0
100
AcDbSpline
210
0.0
220
0.0
230
1.0
 70
     8
 71
     3
 72
    18
 73
    14
 74
     0
 42
0.0000000001
 43
0.0000000001
 40
6.130712173490252
 40
6.130712173490252
 40
6.130712173490252
 40
6.130712173490252
 40
6.358283137277815
 40
6.358283137277815
 40
6.861022006813891
 40
6.861022006813891
 40
7.812083211287187
 40
7.812083211287187
 40
9.010772298240585
 40
9.010772298240585
 40
10.8712306656529
 40
10.8712306656529
 40
12.25035599329129
 40
12.25035599329129
 40
12.25035599329129
 40
12.25035599329129
 10
-0.0000000000178488
 20
191.5999999999992
 30
0.0
 10
-0.7589881252251871
 20
191.5999999999992
 30
0.0
 10
-1.517963102832368
 20
191.5999994262192
 30
0.0
 10
-3.952277875383515
 20
191.6000067928498
 30
0.0
 10
-5.62465157799852
 20
191.600015202584
 30
0.0
 10
-10.43828255689243
 20
191.6004976975155
 30
0.0
 10
-13.5519623355965
 20
191.6012688879878
 30
0.0
 10
-20.4442214883685
 20
191.6097963966187
 30
0.0
 10
-24.1676889071797
 20
191.6192195676667
 30
0.0
 10
-33.22377669229172
 20
191.6776067738601
 30
0.0
 10
-38.25509050179085
 20
191.7441398851044
 30
0.0
 10
-45.87546450372167
 20
191.9979822639504
 30
0.0
 10
-48.73374569790712
 20
192.1484058796382
 30
0.0
 10
-51.15055768864397
 20
192.372700296735
 30
0.0
  0
SPLINE
  5
B8
330
2
100
AcDbEntity
  8
GEB-KONTUR-A
 48
25.0
100
AcDbSpline
210
0.0
220
0.0
230
1.0
 70
     8
 71
     3
 72
    16
 73
    12
 74
     0
 42
0.0000000001
 43
0.0000000001
 40
0.0026009342830058
 40
0.0026009342830058
 40
0.0026009342830058
 40
0.0026009342830058
 40
2.288447646738528
 40
2.288447646738528
 40
4.621313960225682
 40
4.621313960225682
 40
5.462775317898788
 40
5.462775317898788
 40
5.947182010080212
 40
5.947182010080212
 40
6.130712173490252
 40
6.130712173490252
 40
6.130712173490252
 40
6.130712173490252
 10
51.15055768862544
 20
192.372700296735
 30
0.0
 10
47.14631402869372
 20
192.0010828514973
 30
0.0
 10
41.94489604406657
 20
191.8274526290456
 30
0.0
 10
29.57067199804908
 20
191.6276663847634
 30
0.0
 10
22.47978695310883
 20
191.6100135154352
 30
0.0
 10
12.22327506082286
 20
191.6008589506207
 30
0.0
 10
9.458964691405299
 20
191.6003412821271
 30
0.0
 10
5.063601139746651
 20
191.6000043612932
 30
0.0
 10
3.451184829954854
 20
191.6000032919146
 30
0.0
 10
1.224217583201152
 20
191.5999997571973
 30
0.0
 10
0.612104515985493
 20
191.5999999999992
 30
0.0
 10
-0.0000000000178488
 20
191.5999999999992
 30
0.0
  0
LINE
  5
B9
330
2
100
AcDbEntity
  8
GEB-KONTUR-A
 48
25.0
100
AcDbLine
 10
64.05000000000018
 20
201.2999999999995
 30
0.0
 11
-64.04999999999972
 21
201.2999999999995
 31
0.0
  0
LINE
  5
BA
330
2
100
AcDbEntity
  8
GEB-KONTUR-A
 48
25.0
100
AcDbLine
 10
60.14999999999623
 20
129.7599999999997
 30
0.0
 11
60.14999999999645
 21
201.2999999999993
 31
0.0
  0
LINE
  5
BB
330
2
100
AcDbEntity
  8
GEB-KONTUR-A
 48
25.0
100
AcDbLine
 10
60.14999999999623
 20
129.7599999999997
 30
0.0
 11
55.25371028265522
 21
129.7599999999996
 31
0.0
  0
LINE
  5
BC
330
2
100
AcDbEntity
  8
GEB-KONTUR-A
 48
25.0
100
AcDbLine
 10
55.25371028265522
 20
147.5999999999994
 30
0.0
 11
55.25371028265522
 21
129.7599999999996
 31
0.0
  0
LINE
  5
BD
330
2
100
AcDbEntity
  8
GEB-KONTUR-A
 48
25.0
100
AcDbLine
 10
57.04655993133656
 20
147.5999999999997
 30
0.0
 11
57.04655993133656
 21
153.0999999999997
 31
0.0
  0
LINE
  5
BE
330
2
100
AcDbEntity
  8
GEB-KONTUR-A
 48
25.0
100
AcDbLine
 10
58.83682945230453
 20
153.0999999999997
 30
0.0
 11
58.83682945230453
 21
201.2999999999993
 31
0.0
  0
LINE
  5
BF
330
2
100
AcDbEntity
  8
GEB-VERDECKT
 48
25.0
100
AcDbLine
 10
32.18100080609497
 20
144.5999999999994
 30
0.0
 11
9.595486148297823
 21
144.5999999999994
 31
0.0
  0
LINE
  5
C0
330
2
100
AcDbEntity
  8
GEB-VERDECKT
 48
25.0
100
AcDbLine
 10
-9.595486148329996
 20
144.5999999999992
 30
0.0
 11
-32.18100080612135
 21
144.5999999999994
 31
0.0
  0
LINE
  5
C1
330
2
100
AcDbEntity
  8
GEB-KONTUR-A
 48
25.0
100
AcDbLine
 10
-55.0999999999998
 20
147.5999999999997
 30
0.0
 11
-55.0999999999998
 21
144.5999999999997
 31
0.0
  0
LINE
  5
C2
330
2
100
AcDbEntity
  8
GEB-KONTUR-A
 48
25.0
100
AcDbLine
 10
55.0999999999999
 20
147.5999999999997
 30
0.0
 11
55.0999999999999
 21
144.5999999999997
 31
0.0
  0
LINE
  5
C3
330
2
100
AcDbEntity
  8
GEB-KONTUR-A
 48
25.0
100
AcDbLine
 10
55.0999999999999
 20
144.5999999999997
 30
0.0
 11
32.1810008060952
 21
144.5999999999994
 31
0.0
  0
LINE
  5
C4
330
2
100
AcDbEntity
  8
GEB-KONTUR-A
 48
25.0
100
AcDbLine
 10
9.595486148297936
 20
144.5999999999994
 30
0.0
 11
-9.595486148329882
 21
144.5999999999994
 31
0.0
  0
LINE
  5
C5
330
2
100
AcDbEntity
  8
GEB-KONTUR-A
 48
25.0
100
AcDbLine
 10
-32.18100080612135
 20
144.5999999999994
 30
0.0
 11
-55.0999999999998
 21
144.5999999999997
 31
0.0
  0
LINE
  5
C6
330
2
100
AcDbEntity
  8
GEB-VERDECKT
 48
25.0
100
AcDbLine
 10
56.65000000000009
 20
221.6999999999996
 30
0.0
 11
56.74999999999954
 21
221.7999999999991
 31
0.0
  0
LINE
  5
C7
330
2
100
AcDbEntity
  8
GEB-VERDECKT
 48
25.0
100
AcDbLine
 10
-56.64999999999963
 20
221.6999999999991
 30
0.0
 11
-56.74999999999977
 21
221.7999999999993
 31
0.0
  0
LINE
  5
C8
330
2
100
AcDbEntity
  8
GEB-VERDECKT
 48
25.0
100
AcDbLine
 10
56.65000000000009
 20
221.6999999999996
 30
0.0
 11
-56.64999999999963
 21
221.6999999999996
 31
0.0
  0
LINE
  5
C9
330
2
100
AcDbEntity
  8
GEB-KONTUR-A
 48
25.0
100
AcDbLine
 10
40.59999999996648
 20
113.4620021860181
 30
0.0
 11
40.59999999996557
 21
113.6146700417968
 31
0.0
  0
LINE
  5
CA
330
2
100
AcDbEntity
  8
GEB-KONTUR-A
 48
25.0
100
AcDbLine
 10
-40.60000000003322
 20
113.4620021860188
 30
0.0
 11
-40.60000000003424
 21
113.6146700417976
 31
0.0
  0
LINE
  5
CB
330
2
100
AcDbEntity
  8
GEB-KONTUR-A
 48
25.0
100
AcDbLine
 10
44.79999999997062
 20
112.864416579113
 30
0.0
 11
44.79999999996652
 21
113.4620021860181
 31
0.0
  0
LINE
  5
CC
330
2
100
AcDbEntity
  8
GEB-KONTUR-A
 48
25.0
100
AcDbLine
 10
-44.80000000002905
 20
112.8644165791138
 30
0.0
 11
-44.80000000003315
 21
113.4620021860189
 31
0.0
  0
ELLIPSE
  5
CD
330
2
100
AcDbEntity
  8
GEB-KONTUR-A
 48
25.0
100
AcDbEllipse
 10
-0.0000000000186446
 20
111.3028425114344
 30
0.0
 11
38.09999999999991
 21
0.0000000002409516
 31
0.0
210
0.0
220
0.0
230
1.0
 40
0.9990482215818607
 41
0.03037251693085
 42
3.111220136646267
  0
ELLIPSE
  5
CE
330
2
100
AcDbEntity
  8
GEB-KONTUR-A
 48
25.0
100
AcDbEllipse
 10
-0.0000000000300133
 20
112.9734650475267
 30
0.0
 11
38.09999999999993
 21
0.0000000002411019
 31
0.0
210
0.0
220
0.0
230
1.0
 40
0.9990482215818607
 41
0.0084228799115765
 42
3.133169773665537
  0
ELLIPSE
  5
CF
330
2
100
AcDbEntity
  8
GEB-KONTUR-A
 48
25.0
100
AcDbEllipse
 10
-0.0000000000326281
 20
113.3529537176051
 30
0.0
 11
38.09999999999991
 21
0.0000000002410827
 31
0.0
210
0.0
220
0.0
230
1.0
 40
0.9990482215818607
 41
0.0034378762860481
 42
3.138154777291073
  0
ELLIPSE
  5
D0
330
2
100
AcDbEntity
  8
GEB-KONTUR-A
 48
25.0
100
AcDbEllipse
 10
-0.0000000000343334
 20
113.6146700417972
 30
0.0
 11
-38.09999999999993
 21
-0.0000000000000047
 31
0.0
210
0.0
220
0.0
230
1.0
 40
0.9990482215818607
 41
0.0
 42
6.283185307179586
  0
ELLIPSE
  5
D1
330
2
100
AcDbEntity
  8
GEB-KONTUR-A
 48
25.0
100
AcDbEllipse
 10
-0.0000000000343334
 20
113.6146700417972
 30
0.0
 11
-40.5999999999999
 21
-0.000000000000005
 31
0.0
210
0.0
220
0.0
230
1.0
 40
0.9990482215818607
 41
0.0
 42
6.283185307179586
  0
ELLIPSE
  5
D2
330
2
100
AcDbEntity
  8
GEB-KONTUR-A
 48
25.0
100
AcDbEllipse
 10
-0.0000000000333102
 20
113.4620021860186
 30
0.0
 11
-40.59999999999991
 21
0.0000000000003579
 31
0.0
210
0.0
220
0.0
230
1.0
 40
0.9990482215818605
 41
0.0000000000000209
 42
3.141592653589813
  0
ELLIPSE
  5
D3
330
2
100
AcDbEntity
  8
GEB-KONTUR-A
 48
25.0
100
AcDbEllipse
 10
-0.0000000000333102
 20
113.4620021860186
 30
0.0
 11
-44.79999999999988
 21
-0.0000000000000055
 31
0.0
210
0.0
220
0.0
230
1.0
 40
0.9990482215818607
 41
0.0
 42
6.283185307179586
  0
ELLIPSE
  5
D4
330
2
100
AcDbEntity
  8
GEB-KONTUR-A
 48
25.0
100
AcDbEllipse
 10
-0.0000000000293312
 20
112.8644165791135
 30
0.0
 11
-44.79999999999989
 21
0.000000000000535
 31
0.0
210
0.0
220
0.0
230
1.0
 40
0.9990482215818607
 41
0.0000000000000241
 42
3.141592653589817
  0
LINE
  5
D5
330
2
100
AcDbEntity
  8
GEB-VERDECKT
 48
25.0
100
AcDbLine
 10
35.09999999998399
 20
110.901544147673
 30
0.0
 11
35.09999999998286
 21
111.0761895260987
 31
0.0
  0
LINE
  5
D6
330
2
100
AcDbEntity
  8
GEB-VERDECKT
 48
25.0
100
AcDbLine
 10
-35.10000000001582
 20
110.9015441476735
 30
0.0
 11
-35.10000000001696
 21
111.0761895260993
 31
0.0
  0
LINE
  5
D7
330
2
100
AcDbEntity
  8
GEB-VERDECKT
 48
25.0
100
AcDbLine
 10
38.09999999998126
 20
111.3028425114341
 30
0.0
 11
38.09999999996989
 21
112.9734650475265
 31
0.0
  0
LINE
  5
D8
330
2
100
AcDbEntity
  8
GEB-VERDECKT
 48
25.0
100
AcDbLine
 10
-38.10000000001855
 20
111.3028425114347
 30
0.0
 11
-38.10000000002992
 21
112.9734650475271
 31
0.0
  0
LINE
  5
D9
330
2
100
AcDbEntity
  8
GEB-VERDECKT
 48
25.0
100
AcDbLine
 10
42.29999999996993
 20
112.9734650475265
 30
0.0
 11
42.29999999996721
 21
113.3529537176048
 31
0.0
  0
LINE
  5
DA
330
2
100
AcDbEntity
  8
GEB-VERDECKT
 48
25.0
100
AcDbLine
 10
-42.30000000002997
 20
112.9734650475271
 30
0.0
 11
-42.30000000003246
 21
113.3529537176056
 31
0.0
  0
LINE
  5
DB
330
2
100
AcDbEntity
  8
GEB-VERDECKT
 48
25.0
100
AcDbLine
 10
38.09999999996739
 20
113.3529537176048
 30
0.0
 11
38.09999999996558
 21
113.6146700417969
 31
0.0
  0
LINE
  5
DC
330
2
100
AcDbEntity
  8
GEB-VERDECKT
 48
25.0
100
AcDbLine
 10
-38.10000000003242
 20
113.3529537176056
 30
0.0
 11
-38.10000000003436
 21
113.6146700417976
 31
0.0
  0
SPLINE
  5
DD
330
2
100
AcDbEntity
  8
GEB-VERDECKT
 48
25.0
100
AcDbSpline
210
0.0
220
0.0
230
1.0
 70
     8
 71
     3
 72
    20
 73
    16
 74
     0
 42
0.0000000001
 43
0.0000000001
 40
5.180694131117743
 40
5.180694131117743
 40
5.180694131117743
 40
5.180694131117743
 40
5.500690207732754
 40
5.500690207732754
 40
5.820690255583214
 40
5.820690255583214
 40
6.14069424620405
 40
6.14069424620405
 40
6.460700597487762
 40
6.460700597487762
 40
6.780706803565345
 40
6.780706803565345
 40
7.100710415221446
 40
7.100710415221446
 40
7.385676483241429
 40
7.385676483241429
 40
7.385676483241429
 40
7.385676483241429
 10
-33.99253843749739
 20
134.7476483314264
 30
0.0
 10
-32.15843612576464
 20
138.3700837652015
 30
0.0
 10
-29.73962595257456
 20
141.6962238935541
 30
0.0
 10
-23.97651158237716
 20
147.4205201983247
 30
0.0
 10
-20.63319866208326
 20
149.8176698563175
 30
0.0
 10
-13.36023630927911
 20
153.4402277724875
 30
0.0
 10
-9.431844341102987
 20
154.6649922744582
 30
0.0
 10
-1.387430752454065
 20
155.8179721552053
 30
0.0
 10
2.727193910018058
 20
155.7459777078411
 30
0.0
 10
10.72629197349192
 20
154.3122757993712
 30
0.0
 10
14.60937495895234
 20
152.9508178578607
 30
0.0
 10
21.75096698984623
 20
149.0759919096342
 30
0.0
 10
25.00823913327304
 20
146.5633063908371
 30
0.0
 10
30.26291727368539
 20
140.9649969297063
 30
0.0
 10
32.35921552408263
 20
137.9735353271006
 30
0.0
 10
33.99253843744328
 20
134.7476483314264
 30
0.0
  0
SPLINE
  5
DE
330
2
100
AcDbEntity
  8
GEB-VERDECKT
 48
25.0
100
AcDbSpline
210
0.0
220
0.0
230
1.0
 70
     8
 71
     3
 72
    20
 73
    16
 74
     0
 42
0.0000000001
 43
0.0000000001
 40
2.039101477527943
 40
2.039101477527943
 40
2.039101477527943
 40
2.039101477527943
 40
2.359097554142954
 40
2.359097554142954
 40
2.679097601993414
 40
2.679097601993414
 40
2.99910159261425
 40
2.99910159261425
 40
3.319107943897962
 40
3.319107943897962
 40
3.639114149975544
 40
3.639114149975544
 40
3.959117761631645
 40
3.959117761631645
 40
4.244083829651644
 40
4.244083829651644
 40
4.244083829651644
 40
4.244083829651644
 10
33.99253843744304
 20
90.38796115863215
 30
0.0
 10
32.1584361257103
 20
86.76552572485695
 30
0.0
 10
29.7396259525201
 20
83.43938559650428
 30
0.0
 10
23.97651158232293
 20
77.71508929173364
 30
0.0
 10
20.6331986620288
 20
75.31793963374093
 30
0.0
 10
13.36023630922489
 20
71.69538171757074
 30
0.0
 10
9.431844341048758
 20
70.47061721559998
 30
0.0
 10
1.387430752399836
 20
69.31763733485309
 30
0.0
 10
-2.727193910072401
 20
69.38963178221706
 30
0.0
 10
-10.72629197354626
 20
70.82333369068692
 30
0.0
 10
-14.60937495900657
 20
72.18479163219729
 30
0.0
 10
-21.75096698990069
 20
76.05961758042372
 30
0.0
 10
-25.00823913332727
 20
78.57230309922101
 30
0.0
 10
-30.26291727373996
 20
84.17061256035173
 30
0.0
 10
-32.35921552413731
 20
87.16207416295764
 30
0.0
 10
-33.99253843749796
 20
90.38796115863215
 30
0.0
  0
SPLINE
  5
DF
330
2
100
AcDbEntity
  8
GEB-VERDECKT
 48
25.0
100
AcDbSpline
210
0.0
220
0.0
230
1.0
 70
     8
 71
     3
 72
    20
 73
    16
 74
     0
 42
0.0000000001
 43
0.0000000001
 40
5.180694131117739
 40
5.180694131117739
 40
5.180694131117739
 40
5.180694131117739
 40
5.50069020773275
 40
5.50069020773275
 40
5.82069025558321
 40
5.82069025558321
 40
6.140694246204047
 40
6.140694246204047
 40
6.460700597487758
 40
6.460700597487758
 40
6.780706803565341
 40
6.780706803565341
 40
7.100710415221443
 40
7.100710415221443
 40
7.385676483241431
 40
7.385676483241431
 40
7.385676483241431
 40
7.385676483241431
 10
-33.99253843749534
 20
134.4423126198689
 30
0.0
 10
-32.15843612576271
 20
138.064748053644
 30
0.0
 10
-29.73962595257251
 20
141.3908881819967
 30
0.0
 10
-23.97651158237511
 20
147.1151844867672
 30
0.0
 10
-20.63319866208122
 20
149.5123341447602
 30
0.0
 10
-13.3602363092773
 20
153.13489206093
 30
0.0
 10
-9.431844341100941
 20
154.3596565629009
 30
0.0
 10
-1.387430752452246
 20
155.5126364436478
 30
0.0
 10
2.727193910020105
 20
155.4406419962838
 30
0.0
 10
10.72629197349397
 20
154.0069400878139
 30
0.0
 10
14.60937495895428
 20
152.6454821463035
 30
0.0
 10
21.75096698984828
 20
148.7706561980769
 30
0.0
 10
25.00823913327508
 20
146.2579706792799
 30
0.0
 10
30.26291727368755
 20
140.6596612181491
 30
0.0
 10
32.35921552408468
 20
137.6681996155433
 30
0.0
 10
33.99253843744532
 20
134.4423126198689
 30
0.0
  0
SPLINE
  5
E0
330
2
100
AcDbEntity
  8
GEB-VERDECKT
 48
25.0
100
AcDbSpline
210
0.0
220
0.0
230
1.0
 70
     8
 71
     3
 72
    20
 73
    16
 74
     0
 42
0.0000000001
 43
0.0000000001
 40
5.180694131117739
 40
5.180694131117739
 40
5.180694131117739
 40
5.180694131117739
 40
5.50069020773275
 40
5.50069020773275
 40
5.82069025558321
 40
5.82069025558321
 40
6.140694246204047
 40
6.140694246204047
 40
6.460700597487758
 40
6.460700597487758
 40
6.780706803565341
 40
6.780706803565341
 40
7.100710415221443
 40
7.100710415221443
 40
7.385676483241431
 40
7.385676483241431
 40
7.385676483241431
 40
7.385676483241431
 10
-33.9925384374933
 20
134.1369769083114
 30
0.0
 10
-32.15843612576055
 20
137.7594123420866
 30
0.0
 10
-29.73962595257035
 20
141.0855524704393
 30
0.0
 10
-23.97651158237318
 20
146.8098487752099
 30
0.0
 10
-20.63319866207917
 20
149.2069984332026
 30
0.0
 10
-13.36023630927525
 20
152.8295563493727
 30
0.0
 10
-9.431844341099008
 20
154.0543208513436
 30
0.0
 10
-1.387430752450086
 20
155.2073007320905
 30
0.0
 10
2.727193910022037
 20
155.1353062847265
 30
0.0
 10
10.72629197349602
 20
153.7016043762564
 30
0.0
 10
14.60937495895644
 20
152.3401464347462
 30
0.0
 10
21.75096698985044
 20
148.4653204865196
 30
0.0
 10
25.00823913327702
 20
145.9526349677226
 30
0.0
 10
30.26291727368948
 20
140.3543255065917
 30
0.0
 10
32.35921552408672
 20
137.3628639039859
 30
0.0
 10
33.99253843744759
 20
134.1369769083117
 30
0.0
  0
SPLINE
  5
E1
330
2
100
AcDbEntity
  8
GEB-VERDECKT
 48
25.0
100
AcDbSpline
210
0.0
220
0.0
230
1.0
 70
     8
 71
     3
 72
    20
 73
    16
 74
     0
 42
0.0000000001
 43
0.0000000001
 40
5.180694131117739
 40
5.180694131117739
 40
5.180694131117739
 40
5.180694131117739
 40
5.50069020773275
 40
5.50069020773275
 40
5.82069025558321
 40
5.82069025558321
 40
6.140694246204047
 40
6.140694246204047
 40
6.460700597487758
 40
6.460700597487758
 40
6.780706803565341
 40
6.780706803565341
 40
7.100710415221443
 40
7.100710415221443
 40
7.385676483241433
 40
7.385676483241433
 40
7.385676483241433
 40
7.385676483241433
 10
-33.99253843749113
 20
133.8316411967541
 30
0.0
 10
-32.1584361257585
 20
137.4540766305293
 30
0.0
 10
-29.73962595256842
 20
140.780216758882
 30
0.0
 10
-23.97651158237102
 20
146.5045130636526
 30
0.0
 10
-20.63319866207712
 20
148.9016627216454
 30
0.0
 10
-13.3602363092732
 20
152.5242206378154
 30
0.0
 10
-9.431844341096848
 20
153.7489851397863
 30
0.0
 10
-1.387430752448153
 20
154.9019650205332
 30
0.0
 10
2.727193910024197
 20
154.829970573169
 30
0.0
 10
10.72629197349806
 20
153.3962686646991
 30
0.0
 10
14.60937495895837
 20
152.0348107231889
 30
0.0
 10
21.75096698985237
 20
148.1599847749623
 30
0.0
 10
25.00823913327918
 20
145.647299256165
 30
0.0
 10
30.26291727369164
 20
140.0489897950344
 30
0.0
 10
32.359215524089
 20
137.0575281924285
 30
0.0
 10
33.99253843744964
 20
133.8316411967541
 30
0.0
  0
SPLINE
  5
E2
330
2
100
AcDbEntity
  8
GEB-VERDECKT
 48
25.0
100
AcDbSpline
210
0.0
220
0.0
230
1.0
 70
     8
 71
     3
 72
    20
 73
    16
 74
     0
 42
0.0000000001
 43
0.0000000001
 40
2.039101477527943
 40
2.039101477527943
 40
2.039101477527943
 40
2.039101477527943
 40
2.359097554142954
 40
2.359097554142954
 40
2.679097601993414
 40
2.679097601993414
 40
2.99910159261425
 40
2.99910159261425
 40
3.319107943897962
 40
3.319107943897962
 40
3.639114149975544
 40
3.639114149975544
 40
3.959117761631645
 40
3.959117761631645
 40
4.244083829651643
 40
4.244083829651643
 40
4.244083829651643
 40
4.244083829651643
 10
33.99253843744487
 20
90.08262544707486
 30
0.0
 10
32.15843612571234
 20
86.46019001329966
 30
0.0
 10
29.73962595252226
 20
83.13404988494699
 30
0.0
 10
23.97651158232486
 20
77.40975358017625
 30
0.0
 10
20.63319866203096
 20
75.01260392218364
 30
0.0
 10
13.36023630922705
 20
71.39004600601345
 30
0.0
 10
9.431844341050691
 20
70.16528150404269
 30
0.0
 10
1.387430752401996
 20
69.01230162329579
 30
0.0
 10
-2.727193910070354
 20
69.08429607065954
 30
0.0
 10
-10.72629197354422
 20
70.51799797912952
 30
0.0
 10
-14.60937495900452
 20
71.87945592064
 30
0.0
 10
-21.75096698989853
 20
75.75428186886643
 30
0.0
 10
-25.0082391333251
 20
78.26696738766361
 30
0.0
 10
-30.2629172737378
 20
83.86527684879444
 30
0.0
 10
-32.35921552413515
 20
86.85673845140035
 30
0.0
 10
-33.99253843749602
 20
90.08262544707486
 30
0.0
  0
SPLINE
  5
E3
330
2
100
AcDbEntity
  8
GEB-VERDECKT
 48
25.0
100
AcDbSpline
210
0.0
220
0.0
230
1.0
 70
     8
 71
     3
 72
    20
 73
    16
 74
     0
 42
0.0000000001
 43
0.0000000001
 40
2.039101477527943
 40
2.039101477527943
 40
2.039101477527943
 40
2.039101477527943
 40
2.359097554142954
 40
2.359097554142954
 40
2.679097601993414
 40
2.679097601993414
 40
2.99910159261425
 40
2.99910159261425
 40
3.319107943897962
 40
3.319107943897962
 40
3.639114149975544
 40
3.639114149975544
 40
3.959117761631645
 40
3.959117761631645
 40
4.244083829651643
 40
4.244083829651643
 40
4.244083829651643
 40
4.244083829651643
 10
33.99253843744714
 20
89.77728973551734
 30
0.0
 10
32.15843612571439
 20
86.15485430174226
 30
0.0
 10
29.7396259525242
 20
82.82871417338958
 30
0.0
 10
23.97651158232702
 20
77.10441786861895
 30
0.0
 10
20.63319866203312
 20
74.70726821062612
 30
0.0
 10
13.36023630922921
 20
71.08471029445616
 30
0.0
 10
9.431844341052851
 20
69.85994579248529
 30
0.0
 10
1.387430752404043
 20
68.70696591173828
 30
0.0
 10
-2.727193910068194
 20
68.77896035910225
 30
0.0
 10
-10.72629197354206
 20
70.21266226757223
 30
0.0
 10
-14.60937495900248
 20
71.57412020908271
 30
0.0
 10
-21.75096698989637
 20
75.44894615730902
 30
0.0
 10
-25.00823913332317
 20
77.96163167610632
 30
0.0
 10
-30.26291727373587
 20
83.55994113723715
 30
0.0
 10
-32.35921552413311
 20
86.55140273984295
 30
0.0
 10
-33.99253843749387
 20
89.77728973551734
 30
0.0
  0
SPLINE
  5
E4
330
2
100
AcDbEntity
  8
GEB-VERDECKT
 48
25.0
100
AcDbSpline
210
0.0
220
0.0
230
1.0
 70
     8
 71
     3
 72
    20
 73
    16
 74
     0
 42
0.0000000001
 43
0.0000000001
 40
2.039101477527945
 40
2.039101477527945
 40
2.039101477527945
 40
2.039101477527945
 40
2.359097554142956
 40
2.359097554142956
 40
2.679097601993416
 40
2.679097601993416
 40
2.999101592614252
 40
2.999101592614252
 40
3.319107943897964
 40
3.319107943897964
 40
3.639114149975546
 40
3.639114149975546
 40
3.959117761631647
 40
3.959117761631647
 40
4.244083829651643
 40
4.244083829651643
 40
4.244083829651643
 40
4.244083829651643
 10
33.99253843744919
 20
89.47195402396005
 30
0.0
 10
32.15843612571644
 20
85.84951859018474
 30
0.0
 10
29.73962595252635
 20
82.52337846183218
 30
0.0
 10
23.97651158232895
 20
76.79908215706155
 30
0.0
 10
20.63319866203506
 20
74.40193249906883
 30
0.0
 10
13.36023630923114
 20
70.77937458289875
 30
0.0
 10
9.431844341054784
 20
69.554610080928
 30
0.0
 10
1.387430752406089
 20
68.40163020018099
 30
0.0
 10
-2.727193910066262
 20
68.47362464754496
 30
0.0
 10
-10.72629197354013
 20
69.90732655601494
 30
0.0
 10
-14.60937495900043
 20
71.2687844975253
 30
0.0
 10
-21.75096698989444
 20
75.14361044575173
 30
0.0
 10
-25.00823913332124
 20
77.65629596454903
 30
0.0
 10
-30.26291727373371
 20
83.25460542567986
 30
0.0
 10
-32.35921552413106
 20
86.24606702828566
 30
0.0
 10
-33.9925384374917
 20
89.47195402396005
 30
0.0
  0
LINE
  5
E5
330
2
100
AcDbEntity
  8
GEB-VERDECKT
 48
25.0
100
AcDbLine
 10
38.09999999998763
 20
110.3741857544261
 30
0.0
 11
38.09999999998309
 21
111.0324023097689
 31
0.0
  0
LINE
  5
E6
330
2
100
AcDbEntity
  8
GEB-VERDECKT
 48
25.0
100
AcDbLine
 10
-38.1000000000123
 20
110.3741857544267
 30
0.0
 11
-38.10000000001674
 21
111.0324023097697
 31
0.0
  0
ELLIPSE
  5
E7
330
2
100
AcDbEntity
  8
GEB-VERDECKT
 48
25.0
100
AcDbEllipse
 10
-0.000000000017053
 20
111.076189526099
 30
0.0
 11
-35.09999999999993
 21
-0.0000000000000043
 31
0.0
210
0.0
220
0.0
230
1.0
 40
0.9990482215818607
 41
0.0
 42
6.283185307179586
  0
ELLIPSE
  5
E8
330
2
100
AcDbEntity
  8
GEB-VERDECKT
 48
25.0
100
AcDbEllipse
 10
-0.0000000000186446
 20
111.3028425114344
 30
0.0
 11
-38.09999999999993
 21
-0.0000000002408698
 31
0.0
210
0.0
220
0.0
230
1.0
 40
0.9990482215818603
 41
6.252812790236059
 42
9.455150477700227
  0
ELLIPSE
  5
E9
330
2
100
AcDbEntity
  8
GEB-VERDECKT
 48
25.0
100
AcDbEllipse
 10
-0.0000000000300133
 20
112.9734650475267
 30
0.0
 11
-38.09999999999993
 21
-0.0000000002410685
 31
0.0
210
0.0
220
0.0
230
1.0
 40
0.9990482215818607
 41
6.274762427255323
 42
9.433200840680941
  0
ELLIPSE
  5
EA
330
2
100
AcDbEntity
  8
GEB-VERDECKT
 48
25.0
100
AcDbEllipse
 10
-0.0000000000300133
 20
112.9734650475267
 30
0.0
 11
-42.29999999999989
 21
-0.0000000000000052
 31
0.0
210
0.0
220
0.0
230
1.0
 40
0.9990482215818607
 41
0.0
 42
6.283185307179586
  0
ELLIPSE
  5
EB
330
2
100
AcDbEntity
  8
GEB-VERDECKT
 48
25.0
100
AcDbEllipse
 10
-0.0000000000326281
 20
113.3529537176051
 30
0.0
 11
-42.29999999999991
 21
-0.0000000000000052
 31
0.0
210
0.0
220
0.0
230
1.0
 40
0.9990482215818607
 41
0.0
 42
6.283185307179586
  0
ELLIPSE
  5
EC
330
2
100
AcDbEntity
  8
GEB-VERDECKT
 48
25.0
100
AcDbEllipse
 10
-0.0000000000326281
 20
113.3529537176051
 30
0.0
 11
-38.09999999999991
 21
-0.0000000002410939
 31
0.0
210
0.0
220
0.0
230
1.0
 40
0.9990482215818607
 41
6.279747430880851
 42
9.428215837055427
  0
ELLIPSE
  5
ED
330
2
100
AcDbEntity
  8
GEB-VERDECKT
 48
25.0
100
AcDbEllipse
 10
-0.0000000000333102
 20
113.4620021860186
 30
0.0
 11
40.5999999999999
 21
-0.000000000000345
 31
0.0
210
0.0
220
0.0
230
1.0
 40
0.9990482215818605
 41
0.0000000000000276
 42
3.14159265358982
  0
ELLIPSE
  5
EE
330
2
100
AcDbEntity
  8
GEB-VERDECKT
 48
25.0
100
AcDbEllipse
 10
-0.0000000000178488
 20
111.1719843493383
 30
0.0
 11
39.34999999999991
 21
0.000000000248388
 31
0.0
210
0.0
220
0.0
230
1.0
 40
0.9990482215818607
 41
0.2965777131921641
 42
2.845014940384995
  0
ELLIPSE
  5
EF
330
2
100
AcDbEntity
  8
GEB-VERDECKT
 48
25.0
100
AcDbEllipse
 10
-0.0000000000168257
 20
111.0324023097692
 30
0.0
 11
39.34999999999991
 21
0.000000000248388
 31
0.0
210
0.0
220
0.0
230
1.0
 40
0.9990482215818607
 41
0.2965777131921641
 42
2.845014940384995
  0
LINE
  5
F0
330
2
100
AcDbEntity
  8
GEB-VERDECKT
 48
25.0
100
AcDbLine
 10
38.93725722233944
 20
122.6610388975298
 30
0.0
 11
37.63206744252398
 21
122.6610388975298
 31
0.0
  0
LINE
  5
F1
330
2
100
AcDbEntity
  8
GEB-VERDECKT
 48
25.0
100
AcDbLine
 10
37.63206744252398
 20
122.6610388975298
 30
0.0
 11
37.63206744252489
 21
122.5214568579607
 31
0.0
  0
LINE
  5
F2
330
2
100
AcDbEntity
  8
GEB-VERDECKT
 48
25.0
100
AcDbLine
 10
37.63206744252489
 20
122.5214568579607
 30
0.0
 11
36.32299547117191
 21
122.5214568579607
 31
0.0
  0
LINE
  5
F3
330
2
100
AcDbEntity
  8
GEB-VERDECKT
 48
25.0
100
AcDbLine
 10
40.59999999998786
 20
121.8632403026178
 30
0.0
 11
36.32299547117646
 21
121.8632403026178
 31
0.0
  0
ELLIPSE
  5
F4
330
2
100
AcDbEntity
  8
GEB-VERDECKT
 48
25.0
100
AcDbEllipse
 10
-0.0000000000122782
 20
110.3741857544263
 30
0.0
 11
38.09999999999991
 21
0.0000000002415446
 31
0.0
210
0.0
220
0.0
230
1.0
 40
0.9990482215818603
 41
5.976566085694699
 42
6.589804528651775
  0
LINE
  5
F5
330
2
100
AcDbEntity
  8
GEB-VERDECKT
 48
25.0
100
AcDbLine
 10
36.32299547117646
 20
121.8632403026178
 30
0.0
 11
36.32299547117191
 21
122.5214568579607
 31
0.0
  0
ELLIPSE
  5
F6
330
2
100
AcDbEntity
  8
GEB-VERDECKT
 48
25.0
100
AcDbEllipse
 10
-0.0000000000168257
 20
111.0324023097692
 30
0.0
 11
38.0999999999999
 21
0.0000000002403011
 31
0.0
210
0.0
220
0.0
230
1.0
 40
0.9990482215818607
 41
5.976566085694738
 42
6.589804528651812
  0
LINE
  5
F7
330
2
100
AcDbEntity
  8
GEB-VERDECKT
 48
25.0
100
AcDbLine
 10
40.5999999999874
 20
98.88513120623509
 30
0.0
 11
40.59999999997057
 21
101.3753620309221
 31
0.0
  0
LINE
  5
F8
330
2
100
AcDbEntity
  8
GEB-VERDECKT
 48
25.0
100
AcDbLine
 10
40.5999999999874
 20
98.88513120623509
 30
0.0
 11
36.32299547117623
 21
98.88513120623509
 31
0.0
  0
LINE
  5
F9
330
2
100
AcDbEntity
  8
GEB-VERDECKT
 48
25.0
100
AcDbLine
 10
36.32299547117168
 20
99.54334776157793
 30
0.0
 11
36.32299547117623
 21
98.88513120623509
 31
0.0
  0
LINE
  5
FA
330
2
100
AcDbEntity
  8
GEB-VERDECKT
 48
25.0
100
AcDbLine
 10
36.32299547117168
 20
99.54334776157793
 30
0.0
 11
37.63206744252443
 21
99.54334776157793
 31
0.0
  0
LINE
  5
FB
330
2
100
AcDbEntity
  8
GEB-VERDECKT
 48
25.0
100
AcDbLine
 10
37.63206744252443
 20
99.54334776157793
 30
0.0
 11
37.63206744252375
 21
99.682929801147
 31
0.0
  0
ELLIPSE
  5
FC
330
2
100
AcDbEntity
  8
GEB-VERDECKT
 48
25.0
100
AcDbEllipse
 10
-0.0000000000168257
 20
111.0324023097692
 30
0.0
 11
-39.34999999999991
 21
-0.0000000002490053
 31
0.0
210
0.0
220
0.0
230
1.0
 40
0.9990482215818607
 41
0.2965777131921454
 42
2.845014940384976
  0
LINE
  5
FD
330
2
100
AcDbEntity
  8
GEB-VERDECKT
 48
25.0
100
AcDbLine
 10
37.63206744252375
 20
99.682929801147
 30
0.0
 11
38.93725722233899
 21
99.682929801147
 31
0.0
  0
ELLIPSE
  5
FE
330
2
100
AcDbEntity
  8
GEB-VERDECKT
 48
25.0
100
AcDbEllipse
 10
-0.0000000000178488
 20
111.1719843493384
 30
0.0
 11
-39.34999999999991
 21
-0.0000000002490053
 31
0.0
210
0.0
220
0.0
230
1.0
 40
0.9990482215818607
 41
0.2965777131921454
 42
2.845014940384976
  0
SPLINE
  5
FF
330
2
100
AcDbEntity
  8
GEB-VERDECKT
 48
25.0
100
AcDbSpline
210
0.0
220
0.0
230
1.0
 70
     8
 71
     3
 72
    28
 73
    24
 74
     0
 42
0.0000000001
 43
0.0000000001
 40
0.0001313713827774
 40
0.0001313713827774
 40
0.0001313713827774
 40
0.0001313713827774
 40
0.1699823435974464
 40
0.1699823435974464
 40
0.2359852913256785
 40
0.2359852913256785
 40
0.2509416450178962
 40
0.2509416450178962
 40
0.2577210618550381
 40
0.2577210618550381
 40
0.2621161837068308
 40
0.2621161837068308
 40
0.2660500458110009
 40
0.2660500458110009
 40
0.2708764225476415
 40
0.2708764225476415
 40
0.2794527665778864
 40
0.2794527665778864
 40
0.3006598919505363
 40
0.3006598919505363
 40
0.3800224291737506
 40
0.3800224291737506
 40
0.5638716632468812
 40
0.5638716632468812
 40
0.5638716632468812
 40
0.5638716632468812
 10
32.95015215581498
 20
88.88572198782663
 30
0.0
 10
33.28014247152896
 20
89.34207624295231
 30
0.0
 10
33.54177996221165
 20
89.72299839634116
 30
0.0
 10
33.79297195876893
 20
90.09350438588013
 30
0.0
 10
33.88792222480606
 20
90.23502079360014
 30
0.0
 10
33.95737799286849
 20
90.33800693318767
 30
0.0
 10
33.97015835556454
 20
90.35689448220001
 30
0.0
 10
33.98353990206442
 20
90.37631794740901
 30
0.0
 10
33.98743129867444
 20
90.38189652824053
 30
0.0
 10
33.99160653062927
 20
90.38759910592
 30
0.0
 10
33.9926622194198
 20
90.38893012562756
 30
0.0
 10
33.99309911447949
 20
90.38903340111426
 30
0.0
 10
33.99263086005431
 20
90.38805637776773
 30
0.0
 10
33.99029554221238
 20
90.38391881394989
 30
0.0
 10
33.9881911564396
 20
90.38041253033133
 30
0.0
 10
33.98126751044947
 20
90.3691042758585
 30
0.0
 10
33.97530896892317
 20
90.35959229118224
 30
0.0
 10
33.95476006860008
 20
90.32704639031408
 30
0.0
 10
33.93519317594542
 20
90.29651691318793
 30
0.0
 10
33.8451915730252
 20
90.15706176384993
 30
0.0
 10
33.73909592695714
 20
89.99620844005244
 30
0.0
 10
33.48588044145731
 20
89.61764358080859
 30
0.0
 10
33.24526922251994
 20
89.26565550017619
 30
0.0
 10
32.9501521558152
 20
88.85465773569695
 30
0.0
  0
SPLINE
  5
100
330
2
100
AcDbEntity
  8
GEB-VERDECKT
 48
25.0
100
AcDbSpline
210
0.0
220
0.0
230
1.0
 70
     8
 71
     3
 72
    18
 73
    14
 74
     0
 42
0.0000000001
 43
0.0000000001
 40
3.852716598000005
 40
3.852716598000005
 40
3.852716598000005
 40
3.852716598000005
 40
4.038372487232881
 40
4.038372487232881
 40
4.368138376595315
 40
4.368138376595315
 40
5.010916804789026
 40
5.010916804789026
 40
5.870434557513849
 40
5.870434557513849
 40
6.913880305415015
 40
6.913880305415015
 40
7.695197836021934
 40
7.695197836021934
 40
7.695197836021934
 40
7.695197836021934
 10
-0.0000000000280806
 20
72.05006633617109
 30
0.0
 10
0.619875136773544
 20
72.05006633617109
 30
0.0
 10
1.239699456718199
 20
72.06424913479281
 30
0.0
 10
2.958973737841347
 20
72.14297793980859
 30
0.0
 10
4.056455513969353
 20
72.23803492926163
 30
0.0
 10
7.277721484839162
 20
72.6494480240367
 30
0.0
 10
9.381794397521844
 20
73.08957493534172
 30
0.0
 10
14.19483748340678
 20
74.50139021728421
 30
0.0
 10
16.85498193387298
 20
75.59831096527807
 30
0.0
 10
22.43830880768235
 20
78.62490989125229
 30
0.0
 10
25.27234765329058
 20
80.6698306718456
 30
0.0
 10
29.70832636742625
 20
84.82718594647758
 30
0.0
 10
31.43005387927565
 20
86.78352903344535
 30
0.0
 10
32.95015215581498
 20
88.88572198782663
 30
0.0
  0
SPLINE
  5
101
330
2
100
AcDbEntity
  8
GEB-VERDECKT
 48
25.0
100
AcDbSpline
210
0.0
220
0.0
230
1.0
 70
     8
 71
     3
 72
    16
 73
    12
 74
     0
 42
0.0000000001
 43
0.0000000001
 40
0.0029989623155395
 40
0.0029989623155395
 40
0.0029989623155395
 40
0.0029989623155395
 40
1.593171455419905
 40
1.593171455419905
 40
3.043278655103499
 40
3.043278655103499
 40
3.502361017653607
 40
3.502361017653607
 40
3.783155273006209
 40
3.783155273006209
 40
3.852716598000005
 40
3.852716598000005
 40
3.852716598000005
 40
3.852716598000005
 10
-32.95015215587023
 20
88.88572198782663
 30
0.0
 10
-29.86000111357316
 20
84.61225240408362
 30
0.0
 10
-25.95236306759921
 20
80.96429655044245
 30
0.0
 10
-17.33464611815782
 20
75.61496354168435
 30
0.0
 10
-12.79914147771103
 20
73.81534703234024
 30
0.0
 10
-6.550735586036239
 20
72.55221841867683
 30
0.0
 10
-5.032228193357809
 20
72.33370605665959
 30
0.0
 10
-2.570880901451346
 20
72.12063089594687
 30
0.0
 10
-1.634238835760015
 20
72.07211543552455
 30
0.0
 10
-0.4645152734038902
 20
72.05205736976575
 30
0.0
 10
-0.2322540697739441
 20
72.05006633617109
 30
0.0
 10
-0.0000000000280806
 20
72.05006633617109
 30
0.0
  0
SPLINE
  5
102
330
2
100
AcDbEntity
  8
GEB-VERDECKT
 48
25.0
100
AcDbSpline
210
0.0
220
0.0
230
1.0
 70
     8
 71
     3
 72
    28
 73
    24
 74
     0
 42
0.0000000001
 43
0.0000000001
 40
0.000131371382778
 40
0.000131371382778
 40
0.000131371382778
 40
0.000131371382778
 40
0.1699823435974093
 40
0.1699823435974093
 40
0.2359852913257261
 40
0.2359852913257261
 40
0.2509416450210416
 40
0.2509416450210416
 40
0.2577210618604786
 40
0.2577210618604786
 40
0.2621161837137094
 40
0.2621161837137094
 40
0.2660500458191795
 40
0.2660500458191795
 40
0.270876422557421
 40
0.270876422557421
 40
0.2794527665900437
 40
0.2794527665900437
 40
0.3006598919666543
 40
0.3006598919666543
 40
0.3800224291940839
 40
0.3800224291940839
 40
0.5638716632770061
 40
0.5638716632770061
 40
0.5638716632770061
 40
0.5638716632770061
 10
-32.95015215587
 20
88.85465773569695
 30
0.0
 10
-33.28014247158399
 20
89.31422208272909
 30
0.0
 10
-33.54177996226667
 20
89.69965227265721
 30
0.0
 10
-33.79297195882407
 20
90.07778777283272
 30
0.0
 10
-33.88792222486109
 20
90.22271524880579
 30
0.0
 10
-33.95737799292624
 20
90.33122309552391
 30
0.0
 10
-33.97015835562081
 20
90.3513371714896
 30
0.0
 10
-33.98353990211945
 20
90.3728001087868
 30
0.0
 10
-33.98743129872958
 20
90.37912022852287
 30
0.0
 10
-33.99160653068441
 20
90.38618808501235
 30
0.0
 10
-33.99266221947482
 20
90.38808709972192
 30
0.0
 10
-33.99309911453452
 20
90.38932050378026
 30
0.0
 10
-33.99263086010933
 20
90.38886474849551
 30
0.0
 10
-33.99029554226752
 20
90.38585833335252
 30
0.0
 10
-33.98819115649485
 20
90.38292787858711
 30
0.0
 10
-33.98126751050461
 20
90.3730682366263
 30
0.0
 10
-33.97530896897854
 20
90.3643739339542
 30
0.0
 10
-33.95476006865624
 20
90.3341955354656
 30
0.0
 10
-33.93519317600294
 20
90.30511956866371
 30
0.0
 10
-33.84519157308046
 20
90.17127610866328
 30
0.0
 10
-33.73909592701216
 20
90.01372739644125
 30
0.0
 10
-33.48588044151256
 20
89.64191958630555
 30
0.0
 10
-33.24526922257542
 20
89.2938489016717
 30
0.0
 10
-32.95015215587023
 20
88.88572198782663
 30
0.0
  0
SPLINE
  5
103
330
2
100
AcDbEntity
  8
GEB-VERDECKT
 48
25.0
100
AcDbSpline
210
0.0
220
0.0
230
1.0
 70
     8
 71
     3
 72
    18
 73
    14
 74
     0
 42
0.0000000001
 43
0.0000000001
 40
3.852716598000137
 40
3.852716598000137
 40
3.852716598000137
 40
3.852716598000137
 40
4.038372487232973
 40
4.038372487232973
 40
4.368138376595207
 40
4.368138376595207
 40
5.010916804788372
 40
5.010916804788372
 40
5.870434557512496
 40
5.870434557512496
 40
6.913880305412786
 40
6.913880305412786
 40
7.695197836018963
 40
7.695197836018963
 40
7.695197836018963
 40
7.695197836018963
 10
-0.0000000000275122
 20
71.96282756144035
 30
0.0
 10
-0.6198751368290232
 20
71.96282756144035
 30
0.0
 10
-1.239699456773678
 20
71.97701024240848
 30
0.0
 10
-2.958973737896599
 20
72.0557403546045
 30
0.0
 10
-4.056455514024946
 20
72.15079925937937
 30
0.0
 10
-7.277721484894982
 20
72.56226485514685
 30
0.0
 10
-9.381794397577777
 20
73.00247601452349
 30
0.0
 10
-14.19483748346261
 20
74.41519007245654
 30
0.0
 10
-16.85498193392891
 20
75.51314719913875
 30
0.0
 10
-22.4383088077384
 20
78.54546664631357
 30
0.0
 10
-25.27234765334652
 20
80.59574391662659
 30
0.0
 10
-29.70832636748162
 20
84.77099758486543
 30
0.0
 10
-31.43005387933079
 20
86.73767751350146
 30
0.0
 10
-32.95015215587
 20
88.85465773569695
 30
0.0
  0
SPLINE
  5
104
330
2
100
AcDbEntity
  8
GEB-VERDECKT
 48
25.0
100
AcDbSpline
210
0.0
220
0.0
230
1.0
 70
     8
 71
     3
 72
    16
 73
    12
 74
     0
 42
0.0000000001
 43
0.0000000001
 40
0.0029989623155942
 40
0.0029989623155942
 40
0.0029989623155942
 40
0.0029989623155942
 40
1.5931714554199
 40
1.5931714554199
 40
3.043278655103506
 40
3.043278655103506
 40
3.502361017653702
 40
3.502361017653702
 40
3.78315527300635
 40
3.78315527300635
 40
3.852716598000137
 40
3.852716598000137
 40
3.852716598000137
 40
3.852716598000137
 10
32.9501521558152
 20
88.85465773569695
 30
0.0
 10
29.86000111351814
 20
84.55112766721141
 30
0.0
 10
25.95236306754419
 20
80.89084560904325
 30
0.0
 10
17.33464611810314
 20
75.5289290352797
 30
0.0
 10
12.79914147765635
 20
73.72853523145511
 30
0.0
 10
6.550735585981101
 20
72.46501089534934
 30
0.0
 10
5.032228193302557
 20
72.24647956461502
 30
0.0
 10
2.570880901396094
 20
72.03339181824981
 30
0.0
 10
1.634238835704991
 20
71.98487670524537
 30
0.0
 10
0.4645152733482974
 20
71.96481859271319
 30
0.0
 10
0.232254069718465
 20
71.96282756144035
 30
0.0
 10
-0.0000000000275122
 20
71.96282756144035
 30
0.0
  0
SPLINE
  5
105
330
2
100
AcDbEntity
  8
GEB-VERDECKT
 48
25.0
100
AcDbSpline
210
0.0
220
0.0
230
1.0
 70
     8
 71
     3
 72
    28
 73
    24
 74
     0
 42
0.0000000001
 43
0.0000000001
 40
0.0001313713827774
 40
0.0001313713827774
 40
0.0001313713827774
 40
0.0001313713827774
 40
0.1699823435974397
 40
0.1699823435974397
 40
0.2359852913257011
 40
0.2359852913257011
 40
0.2509416450175716
 40
0.2509416450175716
 40
0.2577210618544569
 40
0.2577210618544569
 40
0.2621161837060828
 40
0.2621161837060828
 40
0.2660500458101033
 40
0.2660500458101033
 40
0.2708764225465599
 40
0.2708764225465599
 40
0.2794527665764772
 40
0.2794527665764772
 40
0.3006598919483223
 40
0.3006598919483223
 40
0.3800224291685691
 40
0.3800224291685691
 40
0.5638716632348221
 40
0.5638716632348221
 40
0.5638716632348221
 40
0.5638716632348221
 10
32.95015215581702
 20
88.58038627626934
 30
0.0
 10
33.28014247153124
 20
89.03674053139502
 30
0.0
 10
33.5417799622137
 20
89.41766268478387
 30
0.0
 10
33.79297195877098
 20
89.78816867432284
 30
0.0
 10
33.88792222480811
 20
89.92968508204285
 30
0.0
 10
33.95737799287031
 20
90.03267122162993
 30
0.0
 10
33.97015835556658
 20
90.05155877064249
 30
0.0
 10
33.98353990206647
 20
90.07098223585172
 30
0.0
 10
33.98743129867671
 20
90.07656081668324
 30
0.0
 10
33.99160653063132
 20
90.0822633943626
 30
0.0
 10
33.99266221942184
 20
90.08359441407026
 30
0.0
 10
33.99309911448154
 20
90.08369768955697
 30
0.0
 10
33.99263086005635
 20
90.08272066621021
 30
0.0
 10
33.99029554221443
 20
90.0785831023926
 30
0.0
 10
33.98819115644164
 20
90.07507681877404
 30
0.0
 10
33.98126751045152
 20
90.0637685643012
 30
0.0
 10
33.97530896892545
 20
90.05425657962495
 30
0.0
 10
33.95476006860213
 20
90.02171067875668
 30
0.0
 10
33.93519317594746
 20
89.99118120163064
 30
0.0
 10
33.84519157302748
 20
89.85172605229241
 30
0.0
 10
33.73909592695918
 20
89.69087272849515
 30
0.0
 10
33.48588044145936
 20
89.3123078692513
 30
0.0
 10
33.24526922252199
 20
88.9603197886189
 30
0.0
 10
32.95015215581725
 20
88.54932202413966
 30
0.0
  0
SPLINE
  5
106
330
2
100
AcDbEntity
  8
GEB-VERDECKT
 48
25.0
100
AcDbSpline
210
0.0
220
0.0
230
1.0
 70
     8
 71
     3
 72
    18
 73
    14
 74
     0
 42
0.0000000001
 43
0.0000000001
 40
3.852716598000005
 40
3.852716598000005
 40
3.852716598000005
 40
3.852716598000005
 40
4.038372487232881
 40
4.038372487232881
 40
4.368138376595315
 40
4.368138376595315
 40
5.010916804789026
 40
5.010916804789026
 40
5.870434557513849
 40
5.870434557513849
 40
6.913880305415015
 40
6.913880305415015
 40
7.695197836021934
 40
7.695197836021934
 40
7.695197836021934
 40
7.695197836021934
 10
-0.0000000000259206
 20
71.74473062461368
 30
0.0
 10
0.6198751367755904
 20
71.74473062461368
 30
0.0
 10
1.239699456720245
 20
71.75891342323541
 30
0.0
 10
2.958973737843507
 20
71.83764222825107
 30
0.0
 10
4.056455513971513
 20
71.93269921770411
 30
0.0
 10
7.277721484841322
 20
72.34411231247918
 30
0.0
 10
9.381794397524004
 20
72.78423922378443
 30
0.0
 10
14.19483748340872
 20
74.19605450572692
 30
0.0
 10
16.85498193387514
 20
75.29297525372078
 30
0.0
 10
22.43830880768439
 20
78.31957417969499
 30
0.0
 10
25.27234765329263
 20
80.36449496028808
 30
0.0
 10
29.70832636742819
 20
84.52185023492029
 30
0.0
 10
31.43005387927769
 20
86.47819332188806
 30
0.0
 10
32.95015215581702
 20
88.58038627626934
 30
0.0
  0
SPLINE
  5
107
330
2
100
AcDbEntity
  8
GEB-VERDECKT
 48
25.0
100
AcDbSpline
210
0.0
220
0.0
230
1.0
 70
     8
 71
     3
 72
    16
 73
    12
 74
     0
 42
0.0000000001
 43
0.0000000001
 40
0.0029989623155395
 40
0.0029989623155395
 40
0.0029989623155395
 40
0.0029989623155395
 40
1.593171455419905
 40
1.593171455419905
 40
3.043278655103499
 40
3.043278655103499
 40
3.502361017653607
 40
3.502361017653607
 40
3.783155273006209
 40
3.783155273006209
 40
3.852716598000005
 40
3.852716598000005
 40
3.852716598000005
 40
3.852716598000005
 10
-32.95015215586818
 20
88.58038627626934
 30
0.0
 10
-29.86000111357112
 20
84.30691669252633
 30
0.0
 10
-25.95236306759705
 20
80.65896083888492
 30
0.0
 10
-17.33464611815589
 20
75.30962783012705
 30
0.0
 10
-12.79914147770898
 20
73.51001132078295
 30
0.0
 10
-6.550735586034079
 20
72.24688270711954
 30
0.0
 10
-5.032228193355877
 20
72.0283703451023
 30
0.0
 10
-2.570880901449413
 20
71.81529518438958
 30
0.0
 10
-1.634238835758083
 20
71.76677972396714
 30
0.0
 10
-0.4645152734017302
 20
71.74672165820834
 30
0.0
 10
-0.2322540697717841
 20
71.74473062461368
 30
0.0
 10
-0.0000000000259206
 20
71.74473062461368
 30
0.0
  0
SPLINE
  5
108
330
2
100
AcDbEntity
  8
GEB-VERDECKT
 48
25.0
100
AcDbSpline
210
0.0
220
0.0
230
1.0
 70
     8
 71
     3
 72
    28
 73
    24
 74
     0
 42
0.0000000001
 43
0.0000000001
 40
0.0001313713827781
 40
0.0001313713827781
 40
0.0001313713827781
 40
0.0001313713827781
 40
0.1699823435973194
 40
0.1699823435973194
 40
0.2359852913255852
 40
0.2359852913255852
 40
0.250941645021387
 40
0.250941645021387
 40
0.2577210618614909
 40
0.2577210618614909
 40
0.2621161837148943
 40
0.2621161837148943
 40
0.2660500458204216
 40
0.2660500458204216
 40
0.2708764225588008
 40
0.2708764225588008
 40
0.2794527665918141
 40
0.2794527665918141
 40
0.3006598919693166
 40
0.3006598919693166
 40
0.3800224291978393
 40
0.3800224291978393
 40
0.56387166328299
 40
0.56387166328299
 40
0.56387166328299
 40
0.56387166328299
 10
-32.95015215586796
 20
88.54932202413966
 30
0.0
 10
-33.28014247158171
 20
89.00888637117157
 30
0.0
 10
-33.54177996226463
 20
89.39431656109979
 30
0.0
 10
-33.79297195882191
 20
89.77245206127543
 30
0.0
 10
-33.88792222485904
 20
89.9173795372485
 30
0.0
 10
-33.95737799292454
 20
90.02588738396719
 30
0.0
 10
-33.97015835561888
 20
90.04600145993254
 30
0.0
 10
-33.98353990211751
 20
90.06746439722974
 30
0.0
 10
-33.98743129872765
 20
90.07378451696547
 30
0.0
 10
-33.99160653068213
 20
90.0808523734546
 30
0.0
 10
-33.99266221947278
 20
90.08275138816463
 30
0.0
 10
-33.99309911453247
 20
90.08398479222297
 30
0.0
 10
-33.99263086010729
 20
90.08352903693822
 30
0.0
 10
-33.99029554226536
 20
90.08052262179512
 30
0.0
 10
-33.9881911564928
 20
90.0775921670297
 30
0.0
 10
-33.98126751050245
 20
90.06773252506901
 30
0.0
 10
-33.97530896897626
 20
90.05903822239679
 30
0.0
 10
-33.95476006865442
 20
90.02885982390854
 30
0.0
 10
-33.93519317600147
 20
89.9997838571071
 30
0.0
 10
-33.8451915730783
 20
89.86594039710587
 30
0.0
 10
-33.73909592701011
 20
89.70839168488396
 30
0.0
 10
-33.48588044151052
 20
89.33658387474816
 30
0.0
 10
-33.24526922257337
 20
88.98851319011431
 30
0.0
 10
-32.95015215586818
 20
88.58038627626934
 30
0.0
  0
SPLINE
  5
109
330
2
100
AcDbEntity
  8
GEB-VERDECKT
 48
25.0
100
AcDbSpline
210
0.0
220
0.0
230
1.0
 70
     8
 71
     3
 72
    18
 73
    14
 74
     0
 42
0.0000000001
 43
0.0000000001
 40
3.852716598000137
 40
3.852716598000137
 40
3.852716598000137
 40
3.852716598000137
 40
4.038372487232973
 40
4.038372487232973
 40
4.368138376595207
 40
4.368138376595207
 40
5.010916804788372
 40
5.010916804788372
 40
5.870434557512496
 40
5.870434557512496
 40
6.913880305412786
 40
6.913880305412786
 40
7.695197836018963
 40
7.695197836018963
 40
7.695197836018963
 40
7.695197836018963
 10
-0.0000000000253522
 20
71.65749184988306
 30
0.0
 10
-0.6198751368269769
 20
71.65749184988306
 30
0.0
 10
-1.239699456771631
 20
71.67167453085119
 30
0.0
 10
-2.958973737894439
 20
71.75040464304709
 30
0.0
 10
-4.056455514022786
 20
71.84546354782196
 30
0.0
 10
-7.277721484892936
 20
72.25692914358956
 30
0.0
 10
-9.381794397575731
 20
72.69714030296609
 30
0.0
 10
-14.19483748346056
 20
74.10985436089913
 30
0.0
 10
-16.85498193392698
 20
75.20781148758135
 30
0.0
 10
-22.43830880773623
 20
78.24013093475628
 30
0.0
 10
-25.27234765334436
 20
80.2904082050693
 30
0.0
 10
-29.70832636747946
 20
84.46566187330791
 30
0.0
 10
-31.43005387932863
 20
86.43234180194417
 30
0.0
 10
-32.95015215586796
 20
88.54932202413966
 30
0.0
  0
SPLINE
  5
10A
330
2
100
AcDbEntity
  8
GEB-VERDECKT
 48
25.0
100
AcDbSpline
210
0.0
220
0.0
230
1.0
 70
     8
 71
     3
 72
    16
 73
    12
 74
     0
 42
0.0000000001
 43
0.0000000001
 40
0.0029989623155941
 40
0.0029989623155941
 40
0.0029989623155941
 40
0.0029989623155941
 40
1.5931714554199
 40
1.5931714554199
 40
3.043278655103506
 40
3.043278655103506
 40
3.502361017653702
 40
3.502361017653702
 40
3.78315527300635
 40
3.78315527300635
 40
3.852716598000137
 40
3.852716598000137
 40
3.852716598000137
 40
3.852716598000137
 10
32.95015215581725
 20
88.54932202413966
 30
0.0
 10
29.86000111352018
 20
84.24579195565412
 30
0.0
 10
25.95236306754623
 20
80.58550989748585
 30
0.0
 10
17.33464611810518
 20
75.22359332372241
 30
0.0
 10
12.79914147765828
 20
73.42319951989771
 30
0.0
 10
6.550735585983261
 20
72.15967518379205
 30
0.0
 10
5.032228193304717
 20
71.94114385305761
 30
0.0
 10
2.570880901398254
 20
71.72805610669252
 30
0.0
 10
1.634238835706923
 20
71.67954099368808
 30
0.0
 10
0.4645152733504574
 20
71.6594828811559
 30
0.0
 10
0.2322540697205113
 20
71.65749184988306
 30
0.0
 10
-0.0000000000253522
 20
71.65749184988306
 30
0.0
  0
SPLINE
  5
10B
330
2
100
AcDbEntity
  8
GEB-VERDECKT
 48
25.0
100
AcDbSpline
210
0.0
220
0.0
230
1.0
 70
     8
 71
     3
 72
    28
 73
    24
 74
     0
 42
0.0000000001
 43
0.0000000001
 40
0.0001313713827693
 40
0.0001313713827693
 40
0.0001313713827693
 40
0.0001313713827693
 40
0.1699823435973711
 40
0.1699823435973711
 40
0.2359852913254426
 40
0.2359852913254426
 40
0.2509416450205721
 40
0.2509416450205721
 40
0.2577210618599997
 40
0.2577210618599997
 40
0.2621161837132609
 40
0.2621161837132609
 40
0.2660500458187362
 40
0.2660500458187362
 40
0.2708764225569044
 40
0.2708764225569044
 40
0.2794527665894658
 40
0.2794527665894658
 40
0.3006598919664957
 40
0.3006598919664957
 40
0.3800224291958478
 40
0.3800224291958478
 40
0.5638716632830613
 40
0.5638716632830613
 40
0.5638716632830613
 40
0.5638716632830613
 10
32.95015215581907
 20
88.27505056471181
 30
0.0
 10
33.28014247153305
 20
88.73140481983751
 30
0.0
 10
33.54177996221574
 20
89.11232697322635
 30
0.0
 10
33.79297195877303
 20
89.48283296276532
 30
0.0
 10
33.88792222481015
 20
89.62434937048545
 30
0.0
 10
33.95737799287531
 20
89.72733551007673
 30
0.0
 10
33.97015835556977
 20
89.7462230590869
 30
0.0
 10
33.98353990206874
 20
89.76564652429454
 30
0.0
 10
33.98743129867876
 20
89.77122510512572
 30
0.0
 10
33.99160653063336
 20
89.77692768280531
 30
0.0
 10
33.99266221942389
 20
89.77825870251285
 30
0.0
 10
33.99309911448359
 20
89.77836197799957
 30
0.0
 10
33.99263086005863
 20
89.77738495465292
 30
0.0
 10
33.99029554221647
 20
89.77324739083531
 30
0.0
 10
33.98819115644392
 20
89.76974110721688
 30
0.0
 10
33.98126751045356
 20
89.75843285274391
 30
0.0
 10
33.9753089689275
 20
89.74892086806756
 30
0.0
 10
33.95476006860531
 20
89.71637496720109
 30
0.0
 10
33.93519317595201
 20
89.6858454900771
 30
0.0
 10
33.84519157302952
 20
89.54639034073512
 30
0.0
 10
33.73909592696146
 20
89.38553701693809
 30
0.0
 10
33.4858804414614
 20
89.00697215769401
 30
0.0
 10
33.24526922252403
 20
88.65498407706127
 30
0.0
 10
32.9501521558193
 20
88.24398631258224
 30
0.0
  0
SPLINE
  5
10C
330
2
100
AcDbEntity
  8
GEB-VERDECKT
 48
25.0
100
AcDbSpline
210
0.0
220
0.0
230
1.0
 70
     8
 71
     3
 72
    18
 73
    14
 74
     0
 42
0.0000000001
 43
0.0000000001
 40
3.852716598000075
 40
3.852716598000075
 40
3.852716598000075
 40
3.852716598000075
 40
4.038372487232971
 40
4.038372487232971
 40
4.36813837659545
 40
4.36813837659545
 40
5.010916804789212
 40
5.010916804789212
 40
5.870434557514112
 40
5.870434557514112
 40
6.913880305415295
 40
6.913880305415295
 40
7.69519783602225
 40
7.69519783602225
 40
7.69519783602225
 40
7.69519783602225
 10
-0.0000000000238742
 20
71.43939491305639
 30
0.0
 10
0.6198751367777505
 20
71.43939491305639
 30
0.0
 10
1.239699456722405
 20
71.45357771167812
 30
0.0
 10
2.958973737845781
 20
71.53230651669378
 30
0.0
 10
4.056455513973787
 20
71.62736350614682
 30
0.0
 10
7.277721484843596
 20
72.03877660092189
 30
0.0
 10
9.381794397526277
 20
72.47890351222713
 30
0.0
 10
14.19483748341122
 20
73.89071879416963
 30
0.0
 10
16.85498193387752
 20
74.98763954216349
 30
0.0
 10
22.43830880768678
 20
78.01423846813782
 30
0.0
 10
25.2723476532949
 20
80.05915924873102
 30
0.0
 10
29.70832636743046
 20
84.216514523363
 30
0.0
 10
31.43005387927974
 20
86.17285761033077
 30
0.0
 10
32.95015215581907
 20
88.27505056471181
 30
0.0
  0
SPLINE
  5
10D
330
2
100
AcDbEntity
  8
GEB-VERDECKT
 48
25.0
100
AcDbSpline
210
0.0
220
0.0
230
1.0
 70
     8
 71
     3
 72
    16
 73
    12
 74
     0
 42
0.0000000001
 43
0.0000000001
 40
0.0029989623155394
 40
0.0029989623155394
 40
0.0029989623155394
 40
0.0029989623155394
 40
1.593171455419909
 40
1.593171455419909
 40
3.043278655103514
 40
3.043278655103514
 40
3.502361017653661
 40
3.502361017653661
 40
3.783155273006291
 40
3.783155273006291
 40
3.852716598000075
 40
3.852716598000075
 40
3.852716598000075
 40
3.852716598000075
 10
-32.95015215586614
 20
88.27505056471181
 30
0.0
 10
-29.86000111356896
 20
84.00158098096881
 30
0.0
 10
-25.95236306759489
 20
80.35362512732763
 30
0.0
 10
-17.33464611815373
 20
75.00429211856953
 30
0.0
 10
-12.79914147770682
 20
73.20467560922555
 30
0.0
 10
-6.550735586031805
 20
71.94154699556214
 30
0.0
 10
-5.032228193353375
 20
71.7230346335449
 30
0.0
 10
-2.570880901447139
 20
71.50995947283218
 30
0.0
 10
-1.634238835755922
 20
71.46144401240985
 30
0.0
 10
-0.4645152733995701
 20
71.44138594665105
 30
0.0
 10
-0.232254069769624
 20
71.43939491305639
 30
0.0
 10
-0.0000000000238742
 20
71.43939491305639
 30
0.0
  0
SPLINE
  5
10E
330
2
100
AcDbEntity
  8
GEB-VERDECKT
 48
25.0
100
AcDbSpline
210
0.0
220
0.0
230
1.0
 70
     8
 71
     3
 72
    28
 73
    24
 74
     0
 42
0.0000000001
 43
0.0000000001
 40
0.0001313713827864
 40
0.0001313713827864
 40
0.0001313713827864
 40
0.0001313713827864
 40
0.1699823435973689
 40
0.1699823435973689
 40
0.235985291325556
 40
0.235985291325556
 40
0.25094164502052
 40
0.25094164502052
 40
0.2577210618596857
 40
0.2577210618596857
 40
0.2621161837128967
 40
0.2621161837128967
 40
0.2660500458183976
 40
0.2660500458183976
 40
0.2708764225566737
 40
0.2708764225566737
 40
0.2794527665894336
 40
0.2794527665894336
 40
0.3006598919665349
 40
0.3006598919665349
 40
0.3800224291978983
 40
0.3800224291978983
 40
0.5638716632899971
 40
0.5638716632899971
 40
0.5638716632899971
 40
0.5638716632899971
 10
-32.95015215586591
 20
88.24398631258224
 30
0.0
 10
-33.28014247157967
 20
88.70355065961438
 30
0.0
 10
-33.54177996226247
 20
89.0889808495425
 30
0.0
 10
-33.79297195881986
 20
89.4671163497178
 30
0.0
 10
-33.887922224857
 20
89.61204382569111
 30
0.0
 10
-33.95737799292181
 20
89.72055167240876
 30
0.0
 10
-33.97015835561649
 20
89.74066574837468
 30
0.0
 10
-33.98353990211524
 20
89.76212868567211
 30
0.0
 10
-33.98743129872548
 20
89.76844880540818
 30
0.0
 10
-33.99160653068032
 20
89.77551666189777
 30
0.0
 10
-33.99266221947062
 20
89.77741567660723
 30
0.0
 10
-33.99309911453042
 20
89.77864908066555
 30
0.0
 10
-33.99263086010524
 20
89.7781933253808
 30
0.0
 10
-33.9902955422632
 20
89.7751869102376
 30
0.0
 10
-33.98819115649065
 20
89.7722564554723
 30
0.0
 10
-33.9812675105004
 20
89.76239681351149
 30
0.0
 10
-33.97530896897445
 20
89.75370251083962
 30
0.0
 10
-33.95476006865192
 20
89.72352411235055
 30
0.0
 10
-33.93519317599828
 20
89.69444814554822
 30
0.0
 10
-33.84519157307625
 20
89.56060468554857
 30
0.0
 10
-33.73909592700784
 20
89.40305597332656
 30
0.0
 10
-33.4858804415079
 20
89.03124816319019
 30
0.0
 10
-33.24526922257053
 20
88.68317747855599
 30
0.0
 10
-32.95015215586614
 20
88.27505056471181
 30
0.0
  0
SPLINE
  5
10F
330
2
100
AcDbEntity
  8
GEB-VERDECKT
 48
25.0
100
AcDbSpline
210
0.0
220
0.0
230
1.0
 70
     8
 71
     3
 72
    18
 73
    14
 74
     0
 42
0.0000000001
 43
0.0000000001
 40
3.852716598000064
 40
3.852716598000064
 40
3.852716598000064
 40
3.852716598000064
 40
4.038372487233065
 40
4.038372487233065
 40
4.368138376595619
 40
4.368138376595619
 40
5.010916804789375
 40
5.010916804789375
 40
5.870434557514304
 40
5.870434557514304
 40
6.913880305415636
 40
6.913880305415636
 40
7.695197836022617
 40
7.695197836022617
 40
7.695197836022617
 40
7.695197836022617
 10
-0.0000000000234195
 20
71.35215613832565
 30
0.0
 10
-0.6198751368250442
 20
71.35215613832565
 30
0.0
 10
-1.239699456769699
 20
71.3663388192939
 30
0.0
 10
-2.958973737892392
 20
71.4450689314898
 30
0.0
 10
-4.056455514020626
 20
71.54012783626467
 30
0.0
 10
-7.277721484890548
 20
71.95159343203204
 30
0.0
 10
-9.38179439757323
 20
72.3918045914088
 30
0.0
 10
-14.19483748345806
 20
73.80451864934162
 30
0.0
 10
-16.85498193392425
 20
74.90247577602383
 30
0.0
 10
-22.43830880773351
 20
77.93479522319865
 30
0.0
 10
-25.27234765334197
 20
79.98507249351155
 30
0.0
 10
-29.70832636747741
 20
84.1603261617505
 30
0.0
 10
-31.4300538793267
 20
86.12700609038677
 30
0.0
 10
-32.95015215586591
 20
88.24398631258224
 30
0.0
  0
SPLINE
  5
110
330
2
100
AcDbEntity
  8
GEB-VERDECKT
 48
25.0
100
AcDbSpline
210
0.0
220
0.0
230
1.0
 70
     8
 71
     3
 72
    16
 73
    12
 74
     0
 42
0.0000000001
 43
0.0000000001
 40
0.0029989623156031
 40
0.0029989623156031
 40
0.0029989623156031
 40
0.0029989623156031
 40
1.593171455419883
 40
1.593171455419883
 40
3.043278655103513
 40
3.043278655103513
 40
3.502361017653645
 40
3.502361017653645
 40
3.783155273006256
 40
3.783155273006256
 40
3.852716598000064
 40
3.852716598000064
 40
3.852716598000064
 40
3.852716598000064
 10
32.9501521558193
 20
88.24398631258224
 30
0.0
 10
29.86000111352223
 20
83.94045624409683
 30
0.0
 10
25.95236306754851
 20
80.28017418592867
 30
0.0
 10
17.33464611810745
 20
74.91825761216512
 30
0.0
 10
12.79914147766044
 20
73.11786380834042
 30
0.0
 10
6.550735585985421
 20
71.85433947223464
 30
0.0
 10
5.032228193306991
 20
71.63580814150032
 30
0.0
 10
2.570880901400073
 20
71.422720395135
 30
0.0
 10
1.634238835708856
 20
71.37420528213056
 30
0.0
 10
0.4645152733523901
 20
71.35414716959849
 30
0.0
 10
0.2322540697225577
 20
71.35215613832565
 30
0.0
 10
-0.0000000000234195
 20
71.35215613832565
 30
0.0
  0
SPLINE
  5
111
330
2
100
AcDbEntity
  8
GEB-VERDECKT
 48
25.0
100
AcDbSpline
210
0.0
220
0.0
230
1.0
 70
     8
 71
     3
 72
    28
 73
    24
 74
     0
 42
0.0000000001
 43
0.0000000001
 40
0.0001313713827771
 40
0.0001313713827771
 40
0.0001313713827771
 40
0.0001313713827771
 40
0.1699823435973059
 40
0.1699823435973059
 40
0.235985291325338
 40
0.235985291325338
 40
0.2509416450169386
 40
0.2509416450169386
 40
0.2577210618536445
 40
0.2577210618536445
 40
0.2621161837051527
 40
0.2621161837051527
 40
0.2660500458090691
 40
0.2660500458090691
 40
0.2708764225453974
 40
0.2708764225453974
 40
0.2794527665750877
 40
0.2794527665750877
 40
0.3006598919464912
 40
0.3006598919464912
 40
0.3800224291658242
 40
0.3800224291658242
 40
0.5638716632298446
 40
0.5638716632298446
 40
0.5638716632298446
 40
0.5638716632298446
 10
32.95015215582111
 20
87.96971485315452
 30
0.0
 10
33.2801424715351
 20
88.42606910827987
 30
0.0
 10
33.54177996221779
 20
88.80699126166893
 30
0.0
 10
33.79297195877484
 20
89.1774972512079
 30
0.0
 10
33.8879222248122
 20
89.31901365892816
 30
0.0
 10
33.95737799287417
 20
89.42199979851499
 30
0.0
 10
33.97015835557045
 20
89.44088734752757
 30
0.0
 10
33.98353990207056
 20
89.46031081273691
 30
0.0
 10
33.9874312986808
 20
89.46588939356843
 30
0.0
 10
33.99160653063564
 20
89.47159197124779
 30
0.0
 10
33.99266221942594
 20
89.47292299095556
 30
0.0
 10
33.99309911448563
 20
89.47302626644228
 30
0.0
 10
33.99263086006044
 20
89.47204924309563
 30
0.0
 10
33.99029554221875
 20
89.4679116792779
 30
0.0
 10
33.98819115644574
 20
89.46440539565935
 30
0.0
 10
33.98126751045584
 20
89.45309714118639
 30
0.0
 10
33.97530896892954
 20
89.44358515651027
 30
0.0
 10
33.95476006860622
 20
89.41103925564197
 30
0.0
 10
33.93519317595133
 20
89.38050977851572
 30
0.0
 10
33.84519157303157
 20
89.24105462917783
 30
0.0
 10
33.7390959269635
 20
89.08020130538067
 30
0.0
 10
33.48588044146322
 20
88.70163644613626
 30
0.0
 10
33.24526922252585
 20
88.34964836550375
 30
0.0
 10
32.95015215582135
 20
87.93865060102495
 30
0.0
  0
SPLINE
  5
112
330
2
100
AcDbEntity
  8
GEB-VERDECKT
 48
25.0
100
AcDbSpline
210
0.0
220
0.0
230
1.0
 70
     8
 71
     3
 72
    18
 73
    14
 74
     0
 42
0.0000000001
 43
0.0000000001
 40
3.852716598000007
 40
3.852716598000007
 40
3.852716598000007
 40
3.852716598000007
 40
4.038372487232883
 40
4.038372487232883
 40
4.368138376595316
 40
4.368138376595316
 40
5.010916804789028
 40
5.010916804789028
 40
5.870434557513852
 40
5.870434557513852
 40
6.913880305415016
 40
6.913880305415016
 40
7.695197836021931
 40
7.695197836021931
 40
7.695197836021931
 40
7.695197836021931
 10
-0.0000000000218279
 20
71.13405920149898
 30
0.0
 10
0.6198751367796831
 20
71.13405920149898
 30
0.0
 10
1.239699456724338
 20
71.14824200012083
 30
0.0
 10
2.9589737378476
 20
71.22697080513638
 30
0.0
 10
4.056455513975606
 20
71.32202779458942
 30
0.0
 10
7.277721484845415
 20
71.73344088936449
 30
0.0
 10
9.381794397528096
 20
72.17356780066973
 30
0.0
 10
14.19483748341304
 20
73.58538308261223
 30
0.0
 10
16.85498193387923
 20
74.68230383060609
 30
0.0
 10
22.43830880768848
 20
77.7089027565803
 30
0.0
 10
25.27234765329695
 20
79.75382353717339
 30
0.0
 10
29.70832636743239
 20
83.91117881180548
 30
0.0
 10
31.43005387928179
 20
85.86752189877335
 30
0.0
 10
32.95015215582111
 20
87.96971485315452
 30
0.0
  0
SPLINE
  5
113
330
2
100
AcDbEntity
  8
GEB-VERDECKT
 48
25.0
100
AcDbSpline
210
0.0
220
0.0
230
1.0
 70
     8
 71
     3
 72
    16
 73
    12
 74
     0
 42
0.0000000001
 43
0.0000000001
 40
0.0029989623155396
 40
0.0029989623155396
 40
0.0029989623155396
 40
0.0029989623155396
 40
1.593171455419905
 40
1.593171455419905
 40
3.0432786551035
 40
3.0432786551035
 40
3.502361017653608
 40
3.502361017653608
 40
3.78315527300621
 40
3.78315527300621
 40
3.852716598000007
 40
3.852716598000007
 40
3.852716598000007
 40
3.852716598000007
 10
-32.95015215586409
 20
87.96971485315452
 30
0.0
 10
-29.86000111356691
 20
83.69624526941151
 30
0.0
 10
-25.95236306759296
 20
80.04828941577034
 30
0.0
 10
-17.33464611815168
 20
74.69895640701224
 30
0.0
 10
-12.79914147770478
 20
72.89933989766826
 30
0.0
 10
-6.550735586029986
 20
71.63621128400484
 30
0.0
 10
-5.03222819335167
 20
71.41769892198761
 30
0.0
 10
-2.570880901445093
 20
71.20462376127489
 30
0.0
 10
-1.634238835753876
 20
71.15610830085256
 30
0.0
 10
-0.4645152733976375
 20
71.13605023509376
 30
0.0
 10
-0.2322540697676914
 20
71.13405920149898
 30
0.0
 10
-0.0000000000218279
 20
71.13405920149898
 30
0.0
  0
SPLINE
  5
114
330
2
100
AcDbEntity
  8
GEB-VERDECKT
 48
25.0
100
AcDbSpline
210
0.0
220
0.0
230
1.0
 70
     8
 71
     3
 72
    28
 73
    24
 74
     0
 42
0.0000000001
 43
0.0000000001
 40
0.000131371382778
 40
0.000131371382778
 40
0.000131371382778
 40
0.000131371382778
 40
0.169982343597392
 40
0.169982343597392
 40
0.2359852913257936
 40
0.2359852913257936
 40
0.2509416450213089
 40
0.2509416450213089
 40
0.2577210618608663
 40
0.2577210618608663
 40
0.2621161837141739
 40
0.2621161837141739
 40
0.2660500458197111
 40
0.2660500458197111
 40
0.2708764225580294
 40
0.2708764225580294
 40
0.2794527665908004
 40
0.2794527665908004
 40
0.3006598919678226
 40
0.3006598919678226
 40
0.3800224291952978
 40
0.3800224291952978
 40
0.5638716632781922
 40
0.5638716632781922
 40
0.5638716632781922
 40
0.5638716632781922
 10
-32.95015215586386
 20
87.93865060102495
 30
0.0
 10
-33.28014247157773
 20
88.39821494805709
 30
0.0
 10
-33.54177996226054
 20
88.78364513798521
 30
0.0
 10
-33.79297195881782
 20
89.16178063816085
 30
0.0
 10
-33.88792222485495
 20
89.30670811413381
 30
0.0
 10
-33.9573779929201
 20
89.41521596085204
 30
0.0
 10
-33.97015835561467
 20
89.43533003681773
 30
0.0
 10
-33.98353990211331
 20
89.45679297411471
 30
0.0
 10
-33.98743129872332
 20
89.46311309385079
 30
0.0
 10
-33.99160653067816
 20
89.47018095034014
 30
0.0
 10
-33.99266221946846
 20
89.47207996504994
 30
0.0
 10
-33.99309911452838
 20
89.47331336910826
 30
0.0
 10
-33.99263086010319
 20
89.47285761382351
 30
0.0
 10
-33.99029554226127
 20
89.46985119868031
 30
0.0
 10
-33.98819115648871
 20
89.46692074391501
 30
0.0
 10
-33.98126751049836
 20
89.4570611019542
 30
0.0
 10
-33.97530896897217
 20
89.4483667992821
 30
0.0
 10
-33.9547600686501
 20
89.41818840079372
 30
0.0
 10
-33.93519317599714
 20
89.38911243399207
 30
0.0
 10
-33.84519157307409
 20
89.25526897399118
 30
0.0
 10
-33.73909592700602
 20
89.09772026176938
 30
0.0
 10
-33.48588044150608
 20
88.72591245163301
 30
0.0
 10
-33.24526922256871
 20
88.37784176699893
 30
0.0
 10
-32.95015215586409
 20
87.96971485315452
 30
0.0
  0
SPLINE
  5
115
330
2
100
AcDbEntity
  8
GEB-VERDECKT
 48
25.0
100
AcDbSpline
210
0.0
220
0.0
230
1.0
 70
     8
 71
     3
 72
    18
 73
    14
 74
     0
 42
0.0000000001
 43
0.0000000001
 40
3.852716598000137
 40
3.852716598000137
 40
3.852716598000137
 40
3.852716598000137
 40
4.038372487232973
 40
4.038372487232973
 40
4.368138376595207
 40
4.368138376595207
 40
5.010916804788372
 40
5.010916804788372
 40
5.870434557512497
 40
5.870434557512497
 40
6.913880305412788
 40
6.913880305412788
 40
7.695197836018965
 40
7.695197836018965
 40
7.695197836018965
 40
7.695197836018965
 10
-0.0000000000212594
 20
71.04682042676836
 30
0.0
 10
-0.6198751368228841
 20
71.04682042676836
 30
0.0
 10
-1.239699456767539
 20
71.0610031077365
 30
0.0
 10
-2.958973737890346
 20
71.13973321993251
 30
0.0
 10
-4.056455514018693
 20
71.23479212470738
 30
0.0
 10
-7.277721484888843
 20
71.64625772047475
 30
0.0
 10
-9.381794397571525
 20
72.08646887985151
 30
0.0
 10
-14.19483748345647
 20
73.49918293778433
 30
0.0
 10
-16.85498193392277
 20
74.59714006446666
 30
0.0
 10
-22.43830880773203
 20
77.62945951164159
 30
0.0
 10
-25.27234765334015
 20
79.67973678195448
 30
0.0
 10
-29.70832636747537
 20
83.8549904501932
 30
0.0
 10
-31.43005387932453
 20
85.82167037882948
 30
0.0
 10
-32.95015215586386
 20
87.93865060102495
 30
0.0
  0
SPLINE
  5
116
330
2
100
AcDbEntity
  8
GEB-VERDECKT
 48
25.0
100
AcDbSpline
210
0.0
220
0.0
230
1.0
 70
     8
 71
     3
 72
    16
 73
    12
 74
     0
 42
0.0000000001
 43
0.0000000001
 40
0.0029989623155942
 40
0.0029989623155942
 40
0.0029989623155942
 40
0.0029989623155942
 40
1.5931714554199
 40
1.5931714554199
 40
3.043278655103506
 40
3.043278655103506
 40
3.502361017653702
 40
3.502361017653702
 40
3.78315527300635
 40
3.78315527300635
 40
3.852716598000137
 40
3.852716598000137
 40
3.852716598000137
 40
3.852716598000137
 10
32.95015215582135
 20
87.93865060102495
 30
0.0
 10
29.86000111352428
 20
83.63512053253931
 30
0.0
 10
25.95236306755032
 20
79.97483847437115
 30
0.0
 10
17.33464611810927
 20
74.61292190060771
 30
0.0
 10
12.79914147766249
 20
72.81252809678313
 30
0.0
 10
6.550735585987354
 20
71.54900376067735
 30
0.0
 10
5.03222819330881
 20
71.3304724299428
 30
0.0
 10
2.570880901402347
 20
71.11738468357771
 30
0.0
 10
1.63423883571113
 20
71.06886957057326
 30
0.0
 10
0.4645152733545502
 20
71.0488114580412
 30
0.0
 10
0.232254069724604
 20
71.04682042676836
 30
0.0
 10
-0.0000000000212594
 20
71.04682042676836
 30
0.0
  0
LINE
  5
117
330
2
100
AcDbEntity
  8
GEB-VERDECKT
 48
25.0
100
AcDbLine
 10
38.93725722233899
 20
99.682929801147
 30
0.0
 11
38.93725722232762
 21
101.375362030922
 31
0.0
  0
ELLIPSE
  5
118
330
2
100
AcDbEntity
  8
GEB-VERDECKT
 48
25.0
100
AcDbEllipse
 10
-0.0000000000178488
 20
111.1719843493384
 30
0.0
 11
-40.59999999999994
 21
-0.0000000002558354
 31
0.0
210
0.0
220
0.0
230
1.0
 40
0.9990482215818607
 41
0.2871824895217125
 42
2.854410164055468
  0
ELLIPSE
  5
119
330
2
100
AcDbEntity
  8
GEB-VERDECKT
 48
25.0
100
AcDbEllipse
 10
-0.0000000000178488
 20
111.1719843493383
 30
0.0
 11
40.59999999999994
 21
0.0000000002558354
 31
0.0
210
0.0
220
0.0
230
1.0
 40
0.9990482215818607
 41
0.2871824895217125
 42
2.854410164055468
  0
LINE
  5
11A
330
2
100
AcDbEntity
  8
GEB-VERDECKT
 48
25.0
100
AcDbLine
 10
38.93725722232807
 20
124.3534711273047
 30
0.0
 11
38.93725722233944
 21
122.6610388975298
 31
0.0
  0
SPLINE
  5
11B
330
2
100
AcDbEntity
  8
GEB-VERDECKT
 48
25.0
100
AcDbSpline
210
0.0
220
0.0
230
1.0
 70
     8
 71
     3
 72
    28
 73
    24
 74
     0
 42
0.0000000001
 43
0.0000000001
 40
0.000131371382778
 40
0.000131371382778
 40
0.000131371382778
 40
0.000131371382778
 40
0.1699823435973507
 40
0.1699823435973507
 40
0.2359852913250708
 40
0.2359852913250708
 40
0.2509416450211804
 40
0.2509416450211804
 40
0.2577210618612661
 40
0.2577210618612661
 40
0.2621161837149482
 40
0.2621161837149482
 40
0.2660500458207986
 40
0.2660500458207986
 40
0.2708764225594155
 40
0.2708764225594155
 40
0.2794527665927058
 40
0.2794527665927058
 40
0.3006598919705631
 40
0.3006598919705631
 40
0.3800224291993486
 40
0.3800224291993486
 40
0.5638716632853738
 40
0.5638716632853738
 40
0.5638716632853738
 40
0.5638716632853738
 10
-32.95015215586352
 20
135.3649446196891
 30
0.0
 10
-33.28014247157728
 20
134.9053802726572
 30
0.0
 10
-33.54177996226008
 20
134.5199500827291
 30
0.0
 10
-33.79297195881679
 20
134.1418145825545
 30
0.0
 10
-33.88792222485426
 20
133.9968871065807
 30
0.0
 10
-33.95737799292045
 20
133.8883792598611
 30
0.0
 10
-33.97015835561433
 20
133.868265183896
 30
0.0
 10
-33.98353990211262
 20
133.8468022465995
 30
0.0
 10
-33.98743129872287
 20
133.8404821268634
 30
0.0
 10
-33.99160653067759
 20
133.8334142703739
 30
0.0
 10
-33.99266221946812
 20
133.8315152556643
 30
0.0
 10
-33.99309911452781
 20
133.8302818516058
 30
0.0
 10
-33.99263086010251
 20
133.8307376068906
 30
0.0
 10
-33.9902955422607
 20
133.8337440220338
 30
0.0
 10
-33.98819115648815
 20
133.8366744767992
 30
0.0
 10
-33.98126751049779
 20
133.8465341187599
 30
0.0
 10
-33.97530896897172
 20
133.855228421432
 30
0.0
 10
-33.95476006864988
 20
133.8854068199201
 30
0.0
 10
-33.93519317599703
 20
133.9144827867213
 30
0.0
 10
-33.84519157307364
 20
134.048326246723
 30
0.0
 10
-33.73909592700534
 20
134.2058749589448
 30
0.0
 10
-33.4858804415054
 20
134.5776827690811
 30
0.0
 10
-33.24526922256814
 20
134.925753453715
 30
0.0
 10
-32.95015215586318
 20
135.3338803675597
 30
0.0
  0
SPLINE
  5
11C
330
2
100
AcDbEntity
  8
GEB-VERDECKT
 48
25.0
100
AcDbSpline
210
0.0
220
0.0
230
1.0
 70
     8
 71
     3
 72
    18
 73
    14
 74
     0
 42
0.0000000001
 43
0.0000000001
 40
3.852716598000057
 40
3.852716598000057
 40
3.852716598000057
 40
3.852716598000057
 40
4.038372487232973
 40
4.038372487232973
 40
4.368138376595388
 40
4.368138376595388
 40
5.010916804788964
 40
5.010916804788964
 40
5.870434557513595
 40
5.870434557513595
 40
6.913880305414467
 40
6.913880305414467
 40
7.695197836021181
 40
7.695197836021181
 40
7.695197836021181
 40
7.695197836021181
 10
-0.0000000000208047
 20
152.2567747939458
 30
0.0
 10
-0.6198751368226568
 20
152.2567747939458
 30
0.0
 10
-1.239699456767311
 20
152.2425921129777
 30
0.0
 10
-2.958973737890232
 20
152.1638620007816
 30
0.0
 10
-4.056455514018352
 20
152.0688030960068
 30
0.0
 10
-7.277721484888388
 20
151.6573375002394
 30
0.0
 10
-9.381794397571184
 20
151.2171263408629
 30
0.0
 10
-14.19483748345578
 20
149.8044122829299
 30
0.0
 10
-16.85498193392209
 20
148.7064551562475
 30
0.0
 10
-22.43830880773157
 20
145.6741357090727
 30
0.0
 10
-25.27234765333969
 20
143.6238584387599
 30
0.0
 10
-29.70832636747491
 20
139.4486047705211
 30
0.0
 10
-31.43005387932431
 20
137.4819248418848
 30
0.0
 10
-32.95015215586352
 20
135.3649446196891
 30
0.0
  0
SPLINE
  5
11D
330
2
100
AcDbEntity
  8
GEB-VERDECKT
 48
25.0
100
AcDbSpline
210
0.0
220
0.0
230
1.0
 70
     8
 71
     3
 72
    16
 73
    12
 74
     0
 42
0.0000000001
 43
0.0000000001
 40
0.0029989623155371
 40
0.0029989623155371
 40
0.0029989623155371
 40
0.0029989623155371
 40
1.593171455419912
 40
1.593171455419912
 40
3.04327865510351
 40
3.04327865510351
 40
3.502361017653664
 40
3.502361017653664
 40
3.783155273006279
 40
3.783155273006279
 40
3.852716598000057
 40
3.852716598000057
 40
3.852716598000057
 40
3.852716598000057
 10
32.9501521558218
 20
135.3649446196893
 30
0.0
 10
29.86000111352428
 20
139.6684746881751
 30
0.0
 10
25.95236306755032
 20
143.3287567463433
 30
0.0
 10
17.33464611810893
 20
148.6906733201067
 30
0.0
 10
12.79914147766215
 20
150.4910671239313
 30
0.0
 10
6.55073558598724
 20
151.7545914600368
 30
0.0
 10
5.03222819330881
 20
151.9731227907712
 30
0.0
 10
2.570880901402688
 20
152.1862105371365
 30
0.0
 10
1.634238835711357
 20
152.2347256501409
 30
0.0
 10
0.4645152733548912
 20
152.254783762673
 30
0.0
 10
0.2322540697249451
 20
152.2567747939458
 30
0.0
 10
-0.0000000000208047
 20
152.2567747939458
 30
0.0
  0
SPLINE
  5
11E
330
2
100
AcDbEntity
  8
GEB-VERDECKT
 48
25.0
100
AcDbSpline
210
0.0
220
0.0
230
1.0
 70
     8
 71
     3
 72
    28
 73
    24
 74
     0
 42
0.0000000001
 43
0.0000000001
 40
0.0001313713827752
 40
0.0001313713827752
 40
0.0001313713827752
 40
0.0001313713827752
 40
0.169982343597343
 40
0.169982343597343
 40
0.2359852913255565
 40
0.2359852913255565
 40
0.2509416450157996
 40
0.2509416450157996
 40
0.2577210618515501
 40
0.2577210618515501
 40
0.2621161837024098
 40
0.2621161837024098
 40
0.2660500458057591
 40
0.2660500458057591
 40
0.2708764225414193
 40
0.2708764225414193
 40
0.279452766569665
 40
0.279452766569665
 40
0.300659891936877
 40
0.300659891936877
 40
0.3800224291376095
 40
0.3800224291376095
 40
0.56387166315858
 40
0.56387166315858
 40
0.56387166315858
 40
0.56387166315858
 10
32.95015215582203
 20
135.3338803675596
 30
0.0
 10
33.28014247153578
 20
134.8775261124341
 30
0.0
 10
33.54177996221847
 20
134.4966039590451
 30
0.0
 10
33.79297195877575
 20
134.1260979695059
 30
0.0
 10
33.88792222481288
 20
133.9845815617859
 30
0.0
 10
33.95737799287372
 20
133.881595422201
 30
0.0
 10
33.97015835557068
 20
133.8627078731874
 30
0.0
 10
33.98353990207102
 20
133.8432844079772
 30
0.0
 10
33.98743129868126
 20
133.8377058271456
 30
0.0
 10
33.99160653063609
 20
133.8320032494663
 30
0.0
 10
33.99266221942639
 20
133.8306722297586
 30
0.0
 10
33.99309911448631
 20
133.8305689542719
 30
0.0
 10
33.99263086006113
 20
133.8315459776186
 30
0.0
 10
33.99029554221897
 20
133.8356835414363
 30
0.0
 10
33.98819115644642
 20
133.8391898250548
 30
0.0
 10
33.98126751045607
 20
133.8504980795277
 30
0.0
 10
33.97530896893
 20
133.8600100642039
 30
0.0
 10
33.9547600686069
 20
133.8925559650718
 30
0.0
 10
33.93519317595269
 20
133.9230854421975
 30
0.0
 10
33.84519157303202
 20
134.0625405915364
 30
0.0
 10
33.73909592696396
 20
134.2233939153334
 30
0.0
 10
33.48588044146368
 20
134.6019587745778
 30
0.0
 10
33.24526922252608
 20
134.9539468552106
 30
0.0
 10
32.9501521558218
 20
135.3649446196893
 30
0.0
  0
SPLINE
  5
11F
330
2
100
AcDbEntity
  8
GEB-VERDECKT
 48
25.0
100
AcDbSpline
210
0.0
220
0.0
230
1.0
 70
     8
 71
     3
 72
    18
 73
    14
 74
     0
 42
0.0000000001
 43
0.0000000001
 40
3.852716598000161
 40
3.852716598000161
 40
3.852716598000161
 40
3.852716598000161
 40
4.038372487233206
 40
4.038372487233206
 40
4.368138376595831
 40
4.368138376595831
 40
5.010916804789732
 40
5.010916804789732
 40
5.870434557514797
 40
5.870434557514797
 40
6.913880305416185
 40
6.913880305416185
 40
7.695197836023214
 40
7.695197836023214
 40
7.695197836023214
 40
7.695197836023214
 10
-0.0000000000202363
 20
152.1695360192152
 30
0.0
 10
0.6198751367815021
 20
152.1695360192152
 30
0.0
 10
1.239699456726157
 20
152.1553532205933
 30
0.0
 10
2.958973737849078
 20
152.0766244155777
 30
0.0
 10
4.056455513977311
 20
151.9815674261247
 30
0.0
 10
7.277721484847461
 20
151.5701543313496
 30
0.0
 10
9.381794397530029
 20
151.1300274200443
 30
0.0
 10
14.19483748341497
 20
149.7182121381017
 30
0.0
 10
16.85498193388139
 20
148.6212913901079
 30
0.0
 10
22.43830880769065
 20
145.5946924641334
 30
0.0
 10
25.27234765329877
 20
143.5497716835402
 30
0.0
 10
29.70832636743376
 20
139.3924164089082
 30
0.0
 10
31.4300538792827
 20
137.4360733219406
 30
0.0
 10
32.95015215582203
 20
135.3338803675596
 30
0.0
  0
SPLINE
  5
120
330
2
100
AcDbEntity
  8
GEB-VERDECKT
 48
25.0
100
AcDbSpline
210
0.0
220
0.0
230
1.0
 70
     8
 71
     3
 72
    16
 73
    12
 74
     0
 42
0.0000000001
 43
0.0000000001
 40
0.0029989623155932
 40
0.0029989623155932
 40
0.0029989623155932
 40
0.0029989623155932
 40
1.593171455419905
 40
1.593171455419905
 40
3.043278655103556
 40
3.043278655103556
 40
3.50236101765371
 40
3.50236101765371
 40
3.783155273006349
 40
3.783155273006349
 40
3.852716598000161
 40
3.852716598000161
 40
3.852716598000161
 40
3.852716598000161
 10
-32.95015215586318
 20
135.3338803675597
 30
0.0
 10
-29.86000111356588
 20
139.6073499513024
 30
0.0
 10
-25.95236306759193
 20
143.2553058049436
 30
0.0
 10
-17.33464611815066
 20
148.6046388137017
 30
0.0
 10
-12.79914147770375
 20
150.4042553230458
 30
0.0
 10
-6.550735586028736
 20
151.6673839367092
 30
0.0
 10
-5.032228193350192
 20
151.8858962987265
 30
0.0
 10
-2.570880901443729
 20
152.0989714594393
 30
0.0
 10
-1.634238835752285
 20
152.1474869198619
 30
0.0
 10
-0.4645152733959322
 20
152.1675449856207
 30
0.0
 10
-0.2322540697660997
 20
152.1695360192152
 30
0.0
 10
-0.0000000000202363
 20
152.1695360192152
 30
0.0
  0
SPLINE
  5
121
330
2
100
AcDbEntity
  8
GEB-VERDECKT
 48
25.0
100
AcDbSpline
210
0.0
220
0.0
230
1.0
 70
     8
 71
     3
 72
    28
 73
    24
 74
     0
 42
0.0000000001
 43
0.0000000001
 40
0.000131371382778
 40
0.000131371382778
 40
0.000131371382778
 40
0.000131371382778
 40
0.1699823435974038
 40
0.1699823435974038
 40
0.2359852913253754
 40
0.2359852913253754
 40
0.2509416450220895
 40
0.2509416450220895
 40
0.2577210618626646
 40
0.2577210618626646
 40
0.2621161837166742
 40
0.2621161837166742
 40
0.2660500458228199
 40
0.2660500458228199
 40
0.2708764225618075
 40
0.2708764225618075
 40
0.2794527665957558
 40
0.2794527665957558
 40
0.3006598919750579
 40
0.3006598919750579
 40
0.3800224292087483
 40
0.3800224292087483
 40
0.5638716633062723
 40
0.5638716633062723
 40
0.5638716633062723
 40
0.5638716633062723
 10
-32.95015215586545
 20
135.6702803312466
 30
0.0
 10
-33.28014247157944
 20
135.2107159842145
 30
0.0
 10
-33.54177996226213
 20
134.8252857942864
 30
0.0
 10
-33.79297195881907
 20
134.4471502941114
 30
0.0
 10
-33.88792222485643
 20
134.3022228181379
 30
0.0
 10
-33.95737799292283
 20
134.1937149714177
 30
0.0
 10
-33.9701583556166
 20
134.1736008954531
 30
0.0
 10
-33.98353990211479
 20
134.1521379581568
 30
0.0
 10
-33.98743129872491
 20
134.1458178384207
 30
0.0
 10
-33.99160653067975
 20
134.1387499819312
 30
0.0
 10
-33.99266221947005
 20
134.1368509672216
 30
0.0
 10
-33.99309911452974
 20
134.1356175631633
 30
0.0
 10
-33.99263086010467
 20
134.1360733184481
 30
0.0
 10
-33.99029554226286
 20
134.139079733591
 30
0.0
 10
-33.98819115649008
 20
134.1420101883565
 30
0.0
 10
-33.98126751049995
 20
134.1518698303172
 30
0.0
 10
-33.97530896897365
 20
134.1605641329893
 30
0.0
 10
-33.95476006865204
 20
134.1907425314773
 30
0.0
 10
-33.93519317599919
 20
134.2198184982785
 30
0.0
 10
-33.84519157307568
 20
134.3536619582803
 30
0.0
 10
-33.7390959270075
 20
134.5112106705021
 30
0.0
 10
-33.48588044150756
 20
134.8830184806384
 30
0.0
 10
-33.2452692225703
 20
135.2310891652723
 30
0.0
 10
-32.95015215586534
 20
135.6392160791169
 30
0.0
  0
SPLINE
  5
122
330
2
100
AcDbEntity
  8
GEB-VERDECKT
 48
25.0
100
AcDbSpline
210
0.0
220
0.0
230
1.0
 70
     8
 71
     3
 72
    18
 73
    14
 74
     0
 42
0.0000000001
 43
0.0000000001
 40
3.852716598000055
 40
3.852716598000055
 40
3.852716598000055
 40
3.852716598000055
 40
4.038372487232971
 40
4.038372487232971
 40
4.368138376595386
 40
4.368138376595386
 40
5.010916804788961
 40
5.010916804788961
 40
5.870434557513592
 40
5.870434557513592
 40
6.913880305414465
 40
6.913880305414465
 40
7.695197836021178
 40
7.695197836021178
 40
7.695197836021178
 40
7.695197836021178
 10
-0.0000000000229647
 20
152.5621105055031
 30
0.0
 10
-0.6198751368247031
 20
152.5621105055031
 30
0.0
 10
-1.239699456769358
 20
152.547927824535
 30
0.0
 10
-2.958973737892165
 20
152.4691977123391
 30
0.0
 10
-4.056455514020512
 20
152.3741388075643
 30
0.0
 10
-7.277721484890548
 20
151.9626732117967
 30
0.0
 10
-9.38179439757323
 20
151.5224620524202
 30
0.0
 10
-14.19483748345783
 20
150.1097479944871
 30
0.0
 10
-16.85498193392425
 20
149.0117908678048
 30
0.0
 10
-22.43830880773351
 20
145.97947142063
 30
0.0
 10
-25.27234765334174
 20
143.9291941503172
 30
0.0
 10
-29.70832636747707
 20
139.7539404820784
 30
0.0
 10
-31.43005387932624
 20
137.7872605534421
 30
0.0
 10
-32.95015215586545
 20
135.6702803312466
 30
0.0
  0
SPLINE
  5
123
330
2
100
AcDbEntity
  8
GEB-VERDECKT
 48
25.0
100
AcDbSpline
210
0.0
220
0.0
230
1.0
 70
     8
 71
     3
 72
    16
 73
    12
 74
     0
 42
0.0000000001
 43
0.0000000001
 40
0.002998962315537
 40
0.002998962315537
 40
0.002998962315537
 40
0.002998962315537
 40
1.593171455419912
 40
1.593171455419912
 40
3.043278655103509
 40
3.043278655103509
 40
3.502361017653663
 40
3.502361017653663
 40
3.783155273006277
 40
3.783155273006277
 40
3.852716598000055
 40
3.852716598000055
 40
3.852716598000055
 40
3.852716598000055
 10
32.95015215581975
 20
135.6702803312466
 30
0.0
 10
29.86000111352235
 20
139.9738103997324
 30
0.0
 10
25.95236306754828
 20
143.6340924579008
 30
0.0
 10
17.334646118107
 20
148.996009031664
 30
0.0
 10
12.79914147766021
 20
150.7964028354886
 30
0.0
 10
6.550735585985194
 20
152.0599271715943
 30
0.0
 10
5.032228193306764
 20
152.2784585023285
 30
0.0
 10
2.570880901400528
 20
152.4915462486938
 30
0.0
 10
1.634238835709311
 20
152.5400613616982
 30
0.0
 10
0.4645152733527312
 20
152.5601194742303
 30
0.0
 10
0.2322540697230124
 20
152.5621105055031
 30
0.0
 10
-0.0000000000229647
 20
152.5621105055031
 30
0.0
  0
SPLINE
  5
124
330
2
100
AcDbEntity
  8
GEB-VERDECKT
 48
25.0
100
AcDbSpline
210
0.0
220
0.0
230
1.0
 70
     8
 71
     3
 72
    28
 73
    24
 74
     0
 42
0.0000000001
 43
0.0000000001
 40
0.0001313713827752
 40
0.0001313713827752
 40
0.0001313713827752
 40
0.0001313713827752
 40
0.1699823435972259
 40
0.1699823435972259
 40
0.2359852913245822
 40
0.2359852913245822
 40
0.2509416450188038
 40
0.2509416450188038
 40
0.2577210618576808
 40
0.2577210618576808
 40
0.2621161837105964
 40
0.2621161837105964
 40
0.2660500458157879
 40
0.2660500458157879
 40
0.2708764225537337
 40
0.2708764225537337
 40
0.2794527665861169
 40
0.2794527665861169
 40
0.3006598919641251
 40
0.3006598919641251
 40
0.3800224292098393
 40
0.3800224292098393
 40
0.5638716633352173
 40
0.5638716633352173
 40
0.5638716633352173
 40
0.5638716633352173
 10
32.95015215581998
 20
135.6392160791169
 30
0.0
 10
33.28014247153351
 20
135.1828618239918
 30
0.0
 10
33.5417799622162
 20
134.8019396706026
 30
0.0
 10
33.79297195877303
 20
134.4314336810645
 30
0.0
 10
33.88792222481061
 20
134.2899172733437
 30
0.0
 10
33.95737799287531
 20
134.1869311337529
 30
0.0
 10
33.97015835556999
 20
134.1680435847424
 30
0.0
 10
33.9835399020692
 20
134.1486201195343
 30
0.0
 10
33.98743129867921
 20
134.143041538703
 30
0.0
 10
33.99160653063404
 20
134.1373389610237
 30
0.0
 10
33.99266221942435
 20
134.136007941316
 30
0.0
 10
33.99309911448404
 20
134.1359046658293
 30
0.0
 10
33.99263086005908
 20
134.1368816891761
 30
0.0
 10
33.99029554221716
 20
134.1410192529937
 30
0.0
 10
33.98819115644438
 20
134.1445255366121
 30
0.0
 10
33.98126751045424
 20
134.155833791085
 30
0.0
 10
33.97530896892795
 20
134.1653457757612
 30
0.0
 10
33.9547600686044
 20
134.1978916766298
 30
0.0
 10
33.93519317594951
 20
134.2284211537565
 30
0.0
 10
33.84519157302998
 20
134.3678763030937
 30
0.0
 10
33.73909592696168
 20
134.5287296268911
 30
0.0
 10
33.48588044146186
 20
134.907294486135
 30
0.0
 10
33.24526922252449
 20
135.2592825667675
 30
0.0
 10
32.95015215581975
 20
135.6702803312466
 30
0.0
  0
SPLINE
  5
125
330
2
100
AcDbEntity
  8
GEB-VERDECKT
 48
25.0
100
AcDbSpline
210
0.0
220
0.0
230
1.0
 70
     8
 71
     3
 72
    18
 73
    14
 74
     0
 42
0.0000000001
 43
0.0000000001
 40
3.852716598000162
 40
3.852716598000162
 40
3.852716598000162
 40
3.852716598000162
 40
4.038372487233207
 40
4.038372487233207
 40
4.368138376595832
 40
4.368138376595832
 40
5.010916804789735
 40
5.010916804789735
 40
5.8704345575148
 40
5.8704345575148
 40
6.913880305416191
 40
6.913880305416191
 40
7.695197836023223
 40
7.695197836023223
 40
7.695197836023223
 40
7.695197836023223
 10
-0.0000000000223963
 20
152.4748717307725
 30
0.0
 10
0.6198751367795694
 20
152.4748717307725
 30
0.0
 10
1.23969945672411
 20
152.4606889321508
 30
0.0
 10
2.958973737846918
 20
152.381960127135
 30
0.0
 10
4.056455513975151
 20
152.286903137682
 30
0.0
 10
7.277721484845301
 20
151.8754900429069
 30
0.0
 10
9.381794397528096
 20
151.4353631316016
 30
0.0
 10
14.19483748341304
 20
150.023547849659
 30
0.0
 10
16.85498193387934
 20
148.9266271016652
 30
0.0
 10
22.43830880768848
 20
145.900028175691
 30
0.0
 10
25.27234765329661
 20
143.8551073950975
 30
0.0
 10
29.7083263674316
 20
139.6977521204656
 30
0.0
 10
31.43005387928088
 20
137.7414090334979
 30
0.0
 10
32.95015215581998
 20
135.6392160791169
 30
0.0
  0
SPLINE
  5
126
330
2
100
AcDbEntity
  8
GEB-VERDECKT
 48
25.0
100
AcDbSpline
210
0.0
220
0.0
230
1.0
 70
     8
 71
     3
 72
    16
 73
    12
 74
     0
 42
0.0000000001
 43
0.0000000001
 40
0.0029989623155932
 40
0.0029989623155932
 40
0.0029989623155932
 40
0.0029989623155932
 40
1.593171455419905
 40
1.593171455419905
 40
3.043278655103556
 40
3.043278655103556
 40
3.50236101765371
 40
3.50236101765371
 40
3.78315527300635
 40
3.78315527300635
 40
3.852716598000162
 40
3.852716598000162
 40
3.852716598000162
 40
3.852716598000162
 10
-32.95015215586534
 20
135.6392160791169
 30
0.0
 10
-29.86000111356805
 20
139.9126856628599
 30
0.0
 10
-25.95236306759398
 20
143.5606415165009
 30
0.0
 10
-17.33464611815282
 20
148.909974525259
 30
0.0
 10
-12.79914147770591
 20
150.7095910346031
 30
0.0
 10
-6.550735586030668
 20
151.9727196482667
 30
0.0
 10
-5.032228193352239
 20
152.1912320102838
 30
0.0
 10
-2.570880901445661
 20
152.4043071709966
 30
0.0
 10
-1.634238835754331
 20
152.4528226314191
 30
0.0
 10
-0.4645152733980922
 20
152.4728806971779
 30
0.0
 10
-0.2322540697681461
 20
152.4748717307725
 30
0.0
 10
-0.0000000000223963
 20
152.4748717307725
 30
0.0
  0
SPLINE
  5
127
330
2
100
AcDbEntity
  8
GEB-VERDECKT
 48
25.0
100
AcDbSpline
210
0.0
220
0.0
230
1.0
 70
     8
 71
     3
 72
    28
 73
    24
 74
     0
 42
0.0000000001
 43
0.0000000001
 40
0.0001313713827781
 40
0.0001313713827781
 40
0.0001313713827781
 40
0.0001313713827781
 40
0.1699823435975302
 40
0.1699823435975302
 40
0.2359852913256318
 40
0.2359852913256318
 40
0.2509416450236358
 40
0.2509416450236358
 40
0.257721061865188
 40
0.257721061865188
 40
0.2621161837198194
 40
0.2621161837198194
 40
0.2660500458265647
 40
0.2660500458265647
 40
0.2708764225664946
 40
0.2708764225664946
 40
0.279452766602463
 40
0.279452766602463
 40
0.3006598919874288
 40
0.3006598919874288
 40
0.3800224292458948
 40
0.3800224292458948
 40
0.5638716634004349
 40
0.5638716634004349
 40
0.5638716634004349
 40
0.5638716634004349
 10
-32.95015215586762
 20
135.9756160428039
 30
0.0
 10
-33.28014247158183
 20
135.5160516957713
 30
0.0
 10
-33.5417799622644
 20
135.1306215058434
 30
0.0
 10
-33.79297195882123
 20
134.7524860056687
 30
0.0
 10
-33.88792222485859
 20
134.6075585296953
 30
0.0
 10
-33.95737799292613
 20
134.4990506829733
 30
0.0
 10
-33.97015835561922
 20
134.4789366070096
 30
0.0
 10
-33.98353990211695
 20
134.457473669714
 30
0.0
 10
-33.98743129872708
 20
134.4511535499781
 30
0.0
 10
-33.99160653068179
 20
134.4440856934886
 30
0.0
 10
-33.99266221947221
 20
134.4421866787789
 30
0.0
 10
-33.9930991145319
 20
134.4409532747206
 30
0.0
 10
-33.99263086010672
 20
134.4414090300055
 30
0.0
 10
-33.99029554226479
 20
134.4444154451485
 30
0.0
 10
-33.98819115649212
 20
134.447345899914
 30
0.0
 10
-33.98126751050188
 20
134.4572055418746
 30
0.0
 10
-33.9753089689757
 20
134.4658998445468
 30
0.0
 10
-33.95476006865351
 20
134.4960782430353
 30
0.0
 10
-33.93519317600044
 20
134.5251542098372
 30
0.0
 10
-33.84519157307773
 20
134.6589976698377
 30
0.0
 10
-33.73909592700966
 20
134.8165463820594
 30
0.0
 10
-33.48588044150949
 20
135.1883541921958
 30
0.0
 10
-33.24526922257224
 20
135.5364248768296
 30
0.0
 10
-32.95015215586739
 20
135.9445517906742
 30
0.0
  0
SPLINE
  5
128
330
2
100
AcDbEntity
  8
GEB-VERDECKT
 48
25.0
100
AcDbSpline
210
0.0
220
0.0
230
1.0
 70
     8
 71
     3
 72
    18
 73
    14
 74
     0
 42
0.0000000001
 43
0.0000000001
 40
3.852716598000055
 40
3.852716598000055
 40
3.852716598000055
 40
3.852716598000055
 40
4.038372487232971
 40
4.038372487232971
 40
4.368138376595386
 40
4.368138376595386
 40
5.010916804788961
 40
5.010916804788961
 40
5.870434557513592
 40
5.870434557513592
 40
6.913880305414465
 40
6.913880305414465
 40
7.695197836021178
 40
7.695197836021178
 40
7.695197836021178
 40
7.695197836021178
 10
-0.0000000000248974
 20
152.8674462170604
 30
0.0
 10
-0.6198751368267495
 20
152.8674462170604
 30
0.0
 10
-1.239699456771404
 20
152.8532635360923
 30
0.0
 10
-2.958973737894325
 20
152.7745334238964
 30
0.0
 10
-4.056455514022445
 20
152.6794745191216
 30
0.0
 10
-7.277721484892595
 20
152.268008923354
 30
0.0
 10
-9.381794397575276
 20
151.8277977639775
 30
0.0
 10
-14.19483748345988
 20
150.4150837060445
 30
0.0
 10
-16.85498193392641
 20
149.3171265793621
 30
0.0
 10
-22.43830880773566
 20
146.2848071321873
 30
0.0
 10
-25.27234765334379
 20
144.2345298618745
 30
0.0
 10
-29.708326367479
 20
140.0592761936358
 30
0.0
 10
-31.4300538793284
 20
138.0925962649995
 30
0.0
 10
-32.95015215586762
 20
135.9756160428039
 30
0.0
  0
SPLINE
  5
129
330
2
100
AcDbEntity
  8
GEB-VERDECKT
 48
25.0
100
AcDbSpline
210
0.0
220
0.0
230
1.0
 70
     8
 71
     3
 72
    16
 73
    12
 74
     0
 42
0.0000000001
 43
0.0000000001
 40
0.002998962315537
 40
0.002998962315537
 40
0.002998962315537
 40
0.002998962315537
 40
1.593171455419912
 40
1.593171455419912
 40
3.043278655103509
 40
3.043278655103509
 40
3.502361017653663
 40
3.502361017653663
 40
3.783155273006277
 40
3.783155273006277
 40
3.852716598000055
 40
3.852716598000055
 40
3.852716598000055
 40
3.852716598000055
 10
32.9501521558177
 20
135.9756160428039
 30
0.0
 10
29.86000111352018
 20
140.2791461112898
 30
0.0
 10
25.95236306754623
 20
143.9394281694581
 30
0.0
 10
17.33464611810484
 20
149.3013447432215
 30
0.0
 10
12.79914147765805
 20
151.1017385470461
 30
0.0
 10
6.550735585983147
 20
152.3652628831517
 30
0.0
 10
5.032228193304717
 20
152.583794213886
 30
0.0
 10
2.570880901398368
 20
152.7968819602513
 30
0.0
 10
1.634238835707265
 20
152.8453970732555
 30
0.0
 10
0.4645152733507985
 20
152.8654551857876
 30
0.0
 10
0.2322540697208524
 20
152.8674462170604
 30
0.0
 10
-0.0000000000248974
 20
152.8674462170604
 30
0.0
  0
SPLINE
  5
12A
330
2
100
AcDbEntity
  8
GEB-VERDECKT
 48
25.0
100
AcDbSpline
210
0.0
220
0.0
230
1.0
 70
     8
 71
     3
 72
    28
 73
    24
 74
     0
 42
0.0000000001
 43
0.0000000001
 40
0.0001313713827752
 40
0.0001313713827752
 40
0.0001313713827752
 40
0.0001313713827752
 40
0.1699823435973016
 40
0.1699823435973016
 40
0.2359852913252929
 40
0.2359852913252929
 40
0.2509416450192121
 40
0.2509416450192121
 40
0.2577210618577408
 40
0.2577210618577408
 40
0.2621161837104208
 40
0.2621161837104208
 40
0.2660500458153987
 40
0.2660500458153987
 40
0.2708764225530578
 40
0.2708764225530578
 40
0.2794527665848558
 40
0.2794527665848558
 40
0.3006598919607264
 40
0.3006598919607264
 40
0.3800224291930622
 40
0.3800224291930622
 40
0.563871663287074
 40
0.563871663287074
 40
0.563871663287074
 40
0.563871663287074
 10
32.9501521558177
 20
135.9445517906742
 30
0.0
 10
33.28014247153146
 20
135.488197535549
 30
0.0
 10
33.54177996221438
 20
135.1072753821599
 30
0.0
 10
33.79297195877143
 20
134.736769392621
 30
0.0
 10
33.88792222480856
 20
134.5952529849008
 30
0.0
 10
33.95737799287258
 20
134.492266845311
 30
0.0
 10
33.97015835556772
 20
134.4733792963
 30
0.0
 10
33.98353990206715
 20
134.4539558310918
 30
0.0
 10
33.98743129867717
 20
134.4483772502603
 30
0.0
 10
33.991606530632
 20
134.442674672581
 30
0.0
 10
33.9926622194223
 20
134.4413436528733
 30
0.0
 10
33.99309911448199
 20
134.4412403773866
 30
0.0
 10
33.99263086005681
 20
134.4422174007334
 30
0.0
 10
33.99029554221488
 20
134.446354964551
 30
0.0
 10
33.98819115644233
 20
134.4498612481694
 30
0.0
 10
33.98126751045197
 20
134.4611695026424
 30
0.0
 10
33.9753089689259
 20
134.4706814873186
 30
0.0
 10
33.95476006860281
 20
134.5032273881863
 30
0.0
 10
33.9351931759486
 20
134.5337568653119
 30
0.0
 10
33.84519157302793
 20
134.6732120146509
 30
0.0
 10
33.73909592695986
 20
134.8340653384483
 30
0.0
 10
33.48588044145981
 20
135.2126301976923
 30
0.0
 10
33.24526922252244
 20
135.5646182783247
 30
0.0
 10
32.9501521558177
 20
135.9756160428039
 30
0.0
  0
SPLINE
  5
12B
330
2
100
AcDbEntity
  8
GEB-VERDECKT
 48
25.0
100
AcDbSpline
210
0.0
220
0.0
230
1.0
 70
     8
 71
     3
 72
    18
 73
    14
 74
     0
 42
0.0000000001
 43
0.0000000001
 40
3.852716598000162
 40
3.852716598000162
 40
3.852716598000162
 40
3.852716598000162
 40
4.038372487233207
 40
4.038372487233207
 40
4.368138376595832
 40
4.368138376595832
 40
5.010916804789735
 40
5.010916804789735
 40
5.8704345575148
 40
5.8704345575148
 40
6.913880305416191
 40
6.913880305416191
 40
7.695197836023223
 40
7.695197836023223
 40
7.695197836023223
 40
7.695197836023223
 10
-0.000000000024329
 20
152.78020744233
 30
0.0
 10
0.6198751367774094
 20
152.78020744233
 30
0.0
 10
1.239699456722064
 20
152.766024643708
 30
0.0
 10
2.958973737844871
 20
152.6872958386923
 30
0.0
 10
4.056455513973219
 20
152.5922388492395
 30
0.0
 10
7.277721484843254
 20
152.1808257544642
 30
0.0
 10
9.381794397525936
 20
151.7406988431589
 30
0.0
 10
14.19483748341088
 20
150.3288835612165
 30
0.0
 10
16.85498193387729
 20
149.2319628132225
 30
0.0
 10
22.43830880768655
 20
146.2053638872482
 30
0.0
 10
25.27234765329467
 20
144.1604431066548
 30
0.0
 10
29.70832636742967
 20
140.0030878320231
 30
0.0
 10
31.4300538792786
 20
138.0467447450553
 30
0.0
 10
32.9501521558177
 20
135.9445517906742
 30
0.0
  0
SPLINE
  5
12C
330
2
100
AcDbEntity
  8
GEB-VERDECKT
 48
25.0
100
AcDbSpline
210
0.0
220
0.0
230
1.0
 70
     8
 71
     3
 72
    16
 73
    12
 74
     0
 42
0.0000000001
 43
0.0000000001
 40
0.0029989623155932
 40
0.0029989623155932
 40
0.0029989623155932
 40
0.0029989623155932
 40
1.593171455419905
 40
1.593171455419905
 40
3.043278655103556
 40
3.043278655103556
 40
3.50236101765371
 40
3.50236101765371
 40
3.78315527300635
 40
3.78315527300635
 40
3.852716598000162
 40
3.852716598000162
 40
3.852716598000162
 40
3.852716598000162
 10
-32.95015215586739
 20
135.9445517906742
 30
0.0
 10
-29.86000111357009
 20
140.2180213744171
 30
0.0
 10
-25.95236306759602
 20
143.8659772280582
 30
0.0
 10
-17.33464611815486
 20
149.2153102368163
 30
0.0
 10
-12.79914147770785
 20
151.0149267461604
 30
0.0
 10
-6.550735586032828
 20
152.278055359824
 30
0.0
 10
-5.032228193354399
 20
152.4965677218413
 30
0.0
 10
-2.570880901447821
 20
152.7096428825541
 30
0.0
 10
-1.634238835756491
 20
152.7581583429764
 30
0.0
 10
-0.4645152734001386
 20
152.7782164087352
 30
0.0
 10
-0.2322540697703062
 20
152.78020744233
 30
0.0
 10
-0.000000000024329
 20
152.78020744233
 30
0.0
  0
SPLINE
  5
12D
330
2
100
AcDbEntity
  8
GEB-VERDECKT
 48
25.0
100
AcDbSpline
210
0.0
220
0.0
230
1.0
 70
     8
 71
     3
 72
    28
 73
    24
 74
     0
 42
0.0000000001
 43
0.0000000001
 40
0.000131371382778
 40
0.000131371382778
 40
0.000131371382778
 40
0.000131371382778
 40
0.1699823435976068
 40
0.1699823435976068
 40
0.2359852913261083
 40
0.2359852913261083
 40
0.2509416450231195
 40
0.2509416450231195
 40
0.2577210618638121
 40
0.2577210618638121
 40
0.2621161837178669
 40
0.2621161837178669
 40
0.2660500458240963
 40
0.2660500458240963
 40
0.2708764225633938
 40
0.2708764225633938
 40
0.2794527665982388
 40
0.2794527665982388
 40
0.3006598919804268
 40
0.3006598919804268
 40
0.3800224292284974
 40
0.3800224292284974
 40
0.563871663358956
 40
0.563871663358956
 40
0.563871663358956
 40
0.563871663358956
 10
-32.95015215586966
 20
136.2809517543613
 30
0.0
 10
-33.28014247158399
 20
135.8213874073286
 30
0.0
 10
-33.54177996226645
 20
135.4359572174007
 30
0.0
 10
-33.7929719588235
 20
135.0578217172256
 30
0.0
 10
-33.88792222486063
 20
134.9128942412525
 30
0.0
 10
-33.95737799292715
 20
134.8043863945322
 30
0.0
 10
-33.97015835562092
 20
134.7842723185676
 30
0.0
 10
-33.98353990211899
 20
134.7628093812715
 30
0.0
 10
-33.98743129872924
 20
134.7564892615354
 30
0.0
 10
-33.99160653068384
 20
134.7494214050459
 30
0.0
 10
-33.99266221947414
 20
134.7475223903362
 30
0.0
 10
-33.99309911453395
 20
134.746288986278
 30
0.0
 10
-33.99263086010888
 20
134.7467447415628
 30
0.0
 10
-33.99029554226695
 20
134.7497511567057
 30
0.0
 10
-33.98819115649417
 20
134.7526816114714
 30
0.0
 10
-33.98126751050404
 20
134.7625412534321
 30
0.0
 10
-33.97530896897786
 20
134.7712355561041
 30
0.0
 10
-33.95476006865568
 20
134.8014139545928
 30
0.0
 10
-33.93519317600249
 20
134.8304899213947
 30
0.0
 10
-33.84519157307977
 20
134.964333381395
 30
0.0
 10
-33.73909592701159
 20
135.1218820936167
 30
0.0
 10
-33.48588044151166
 20
135.4936899037531
 30
0.0
 10
-33.24526922257428
 20
135.8417605883871
 30
0.0
 10
-32.95015215586955
 20
136.2498875022318
 30
0.0
  0
SPLINE
  5
12E
330
2
100
AcDbEntity
  8
GEB-VERDECKT
 48
25.0
100
AcDbSpline
210
0.0
220
0.0
230
1.0
 70
     8
 71
     3
 72
    18
 73
    14
 74
     0
 42
0.0000000001
 43
0.0000000001
 40
3.852716598000055
 40
3.852716598000055
 40
3.852716598000055
 40
3.852716598000055
 40
4.038372487232971
 40
4.038372487232971
 40
4.368138376595386
 40
4.368138376595386
 40
5.010916804788961
 40
5.010916804788961
 40
5.870434557513592
 40
5.870434557513592
 40
6.913880305414465
 40
6.913880305414465
 40
7.695197836021178
 40
7.695197836021178
 40
7.695197836021178
 40
7.695197836021178
 10
-0.0000000000270575
 20
153.1727819286179
 30
0.0
 10
-0.6198751368287958
 20
153.1727819286179
 30
0.0
 10
-1.23969945677345
 20
153.1585992476496
 30
0.0
 10
-2.958973737896371
 20
153.0798691354539
 30
0.0
 10
-4.056455514024605
 20
152.9848102306789
 30
0.0
 10
-7.277721484894755
 20
152.5733446349113
 30
0.0
 10
-9.381794397577323
 20
152.1331334755348
 30
0.0
 10
-14.19483748346204
 20
150.720419417602
 30
0.0
 10
-16.85498193392834
 20
149.6224622909196
 30
0.0
 10
-22.43830880773771
 20
146.5901428437448
 30
0.0
 10
-25.27234765334583
 20
144.5398655734318
 30
0.0
 10
-29.70832636748117
 20
140.3646119051931
 30
0.0
 10
-31.43005387933033
 20
138.3979319765568
 30
0.0
 10
-32.95015215586966
 20
136.2809517543613
 30
0.0
  0
SPLINE
  5
12F
330
2
100
AcDbEntity
  8
GEB-VERDECKT
 48
25.0
100
AcDbSpline
210
0.0
220
0.0
230
1.0
 70
     8
 71
     3
 72
    16
 73
    12
 74
     0
 42
0.0000000001
 43
0.0000000001
 40
0.0029989623155369
 40
0.0029989623155369
 40
0.0029989623155369
 40
0.0029989623155369
 40
1.593171455419912
 40
1.593171455419912
 40
3.043278655103509
 40
3.043278655103509
 40
3.502361017653663
 40
3.502361017653663
 40
3.783155273006277
 40
3.783155273006277
 40
3.852716598000055
 40
3.852716598000055
 40
3.852716598000055
 40
3.852716598000055
 10
32.95015215581543
 20
136.2809517543613
 30
0.0
 10
29.86000111351825
 20
140.5844818228471
 30
0.0
 10
25.95236306754407
 20
144.2447638810154
 30
0.0
 10
17.33464611810291
 20
149.6066804547788
 30
0.0
 10
12.79914147765601
 20
151.4070742586034
 30
0.0
 10
6.550735585981101
 20
152.6705985947089
 30
0.0
 10
5.032228193302557
 20
152.8891299254433
 30
0.0
 10
2.570880901396435
 20
153.1022176718086
 30
0.0
 10
1.634238835705218
 20
153.150732784813
 30
0.0
 10
0.4645152733486384
 20
153.1707908973449
 30
0.0
 10
0.232254069718806
 20
153.1727819286179
 30
0.0
 10
-0.0000000000270575
 20
153.1727819286179
 30
0.0
  0
SPLINE
  5
130
330
2
100
AcDbEntity
  8
GEB-VERDECKT
 48
25.0
100
AcDbSpline
210
0.0
220
0.0
230
1.0
 70
     8
 71
     3
 72
    28
 73
    24
 74
     0
 42
0.0000000001
 43
0.0000000001
 40
0.0001313713827752
 40
0.0001313713827752
 40
0.0001313713827752
 40
0.0001313713827752
 40
0.1699823435973895
 40
0.1699823435973895
 40
0.2359852913262174
 40
0.2359852913262174
 40
0.250941645016928
 40
0.250941645016928
 40
0.2577210618529833
 40
0.2577210618529833
 40
0.2621161837040419
 40
0.2621161837040419
 40
0.2660500458075715
 40
0.2660500458075715
 40
0.2708764225434817
 40
0.2708764225434817
 40
0.2794527665722739
 40
0.2794527665722739
 40
0.3006598919422287
 40
0.3006598919422287
 40
0.3800224291630683
 40
0.3800224291630683
 40
0.5638716632309625
 40
0.5638716632309625
 40
0.5638716632309625
 40
0.5638716632309625
 10
32.95015215581589
 20
136.2498875022318
 30
0.0
 10
33.28014247152964
 20
135.793533247106
 30
0.0
 10
33.54177996221233
 20
135.4126110937172
 30
0.0
 10
33.79297195877029
 20
135.0421051041771
 30
0.0
 10
33.88792222480674
 20
134.9005886964577
 30
0.0
 10
33.95737799286781
 20
134.7976025568728
 30
0.0
 10
33.97015835556454
 20
134.7787150078593
 30
0.0
 10
33.98353990206488
 20
134.7592915426492
 30
0.0
 10
33.98743129867512
 20
134.7537129618179
 30
0.0
 10
33.99160653062995
 20
134.7480103841385
 30
0.0
 10
33.99266221942025
 20
134.7466793644307
 30
0.0
 10
33.99309911447995
 20
134.746576088944
 30
0.0
 10
33.99263086005476
 20
134.7475531122907
 30
0.0
 10
33.99029554221284
 20
134.7516906761083
 30
0.0
 10
33.98819115644028
 20
134.7551969597268
 30
0.0
 10
33.98126751044993
 20
134.7665052141997
 30
0.0
 10
33.97530896892386
 20
134.7760171988759
 30
0.0
 10
33.95476006859985
 20
134.8085630997454
 30
0.0
 10
33.93519317594405
 20
134.8390925768731
 30
0.0
 10
33.84519157302589
 20
134.9785477262082
 30
0.0
 10
33.73909592695759
 20
135.1394010500057
 30
0.0
 10
33.48588044145777
 20
135.5179659092496
 30
0.0
 10
33.24526922252039
 20
135.8699539898821
 30
0.0
 10
32.95015215581543
 20
136.2809517543613
 30
0.0
  0
SPLINE
  5
131
330
2
100
AcDbEntity
  8
GEB-VERDECKT
 48
25.0
100
AcDbSpline
210
0.0
220
0.0
230
1.0
 70
     8
 71
     3
 72
    18
 73
    14
 74
     0
 42
0.0000000001
 43
0.0000000001
 40
3.852716598000162
 40
3.852716598000162
 40
3.852716598000162
 40
3.852716598000162
 40
4.038372487233207
 40
4.038372487233207
 40
4.368138376595832
 40
4.368138376595832
 40
5.010916804789735
 40
5.010916804789735
 40
5.8704345575148
 40
5.8704345575148
 40
6.913880305416191
 40
6.913880305416191
 40
7.695197836023223
 40
7.695197836023223
 40
7.695197836023223
 40
7.695197836023223
 10
-0.000000000026489
 20
153.0855431538873
 30
0.0
 10
0.6198751367754767
 20
153.0855431538873
 30
0.0
 10
1.239699456720018
 20
153.0713603552653
 30
0.0
 10
2.958973737842825
 20
152.9926315502498
 30
0.0
 10
4.056455513971059
 20
152.8975745607968
 30
0.0
 10
7.277721484841094
 20
152.4861614660217
 30
0.0
 10
9.381794397524004
 20
152.0460345547165
 30
0.0
 10
14.19483748340872
 20
150.6342192727738
 30
0.0
 10
16.85498193387525
 20
149.5372985247797
 30
0.0
 10
22.43830880768439
 20
146.5106995988055
 30
0.0
 10
25.27234765329251
 20
144.4657788182123
 30
0.0
 10
29.70832636742751
 20
140.3084235435803
 30
0.0
 10
31.43005387927656
 20
138.3520804566126
 30
0.0
 10
32.95015215581589
 20
136.2498875022318
 30
0.0
  0
SPLINE
  5
132
330
2
100
AcDbEntity
  8
GEB-VERDECKT
 48
25.0
100
AcDbSpline
210
0.0
220
0.0
230
1.0
 70
     8
 71
     3
 72
    16
 73
    12
 74
     0
 42
0.0000000001
 43
0.0000000001
 40
0.0029989623155932
 40
0.0029989623155932
 40
0.0029989623155932
 40
0.0029989623155932
 40
1.593171455419905
 40
1.593171455419905
 40
3.043278655103556
 40
3.043278655103556
 40
3.50236101765371
 40
3.50236101765371
 40
3.78315527300635
 40
3.78315527300635
 40
3.852716598000162
 40
3.852716598000162
 40
3.852716598000162
 40
3.852716598000162
 10
-32.95015215586955
 20
136.2498875022318
 30
0.0
 10
-29.86000111357225
 20
140.5233570859744
 30
0.0
 10
-25.95236306759819
 20
144.1713129396157
 30
0.0
 10
-17.33464611815702
 20
149.5206459483736
 30
0.0
 10
-12.79914147771001
 20
151.3202624577179
 30
0.0
 10
-6.550735586034761
 20
152.5833910713816
 30
0.0
 10
-5.032228193356331
 20
152.8019034333986
 30
0.0
 10
-2.570880901449754
 20
153.0149785941114
 30
0.0
 10
-1.634238835758537
 20
153.0634940545337
 30
0.0
 10
-0.4645152734021849
 20
153.0835521202925
 30
0.0
 10
-0.2322540697723525
 20
153.0855431538873
 30
0.0
 10
-0.000000000026489
 20
153.0855431538873
 30
0.0
  0
ELLIPSE
  5
133
330
2
100
AcDbEntity
  8
GEB-VERDECKT
 48
25.0
100
AcDbEllipse
 10
-0.0000000000293312
 20
112.8644165791135
 30
0.0
 11
40.59999999999994
 21
0.0000000002558354
 31
0.0
210
0.0
220
0.0
230
1.0
 40
0.9990482215818607
 41
0.2871824895217125
 42
2.854410164055468
  0
LINE
  5
134
330
2
100
AcDbEntity
  8
GEB-VERDECKT
 48
25.0
100
AcDbLine
 10
40.59999999997081
 20
124.3534711273047
 30
0.0
 11
38.93725722232807
 21
124.3534711273047
 31
0.0
  0
LINE
  5
135
330
2
100
AcDbEntity
  8
GEB-VERDECKT
 48
25.0
100
AcDbLine
 10
40.59999999997057
 20
113.6146700417968
 30
0.0
 11
40.59999999997081
 21
124.3534711273047
 31
0.0
  0
LINE
  5
136
330
2
100
AcDbEntity
  8
GEB-VERDECKT
 48
25.0
100
AcDbLine
 10
40.59999999997057
 20
101.3753620309221
 30
0.0
 11
40.59999999997057
 21
113.4620021860181
 31
0.0
  0
LINE
  5
137
330
2
100
AcDbEntity
  8
GEB-VERDECKT
 48
25.0
100
AcDbLine
 10
38.93725722232762
 20
101.3753620309221
 30
0.0
 11
40.59999999997057
 21
101.3753620309221
 31
0.0
  0
ELLIPSE
  5
138
330
2
100
AcDbEntity
  8
GEB-VERDECKT
 48
25.0
100
AcDbEllipse
 10
-0.0000000000293312
 20
112.8644165791135
 30
0.0
 11
-40.59999999999994
 21
-0.0000000002558354
 31
0.0
210
0.0
220
0.0
230
1.0
 40
0.9990482215818607
 41
0.2871824895217125
 42
2.854410164055468
  0
ELLIPSE
  5
139
330
2
100
AcDbEntity
  8
GEB-VERDECKT
 48
25.0
100
AcDbEllipse
 10
-0.0000000000293312
 20
112.8644165791135
 30
0.0
 11
44.79999999999988
 21
-0.0000000000003075
 31
0.0
210
0.0
220
0.0
230
1.0
 40
0.9990482215818607
 41
0.0000000000000253
 42
3.141592653589818
  0
LINE
  5
13A
330
2
100
AcDbEntity
  8
GEB-VERDECKT
 48
25.0
100
AcDbLine
 10
-40.60000000002924
 20
113.4620021860188
 30
0.0
 11
-40.60000000002935
 21
101.375362030922
 31
0.0
  0
LINE
  5
13B
330
2
100
AcDbEntity
  8
GEB-VERDECKT
 48
25.0
100
AcDbLine
 10
-40.60000000002901
 20
124.3534711273047
 30
0.0
 11
-40.60000000002924
 21
113.6146700417974
 31
0.0
  0
LINE
  5
13C
330
2
100
AcDbEntity
  8
GEB-VERDECKT
 48
25.0
100
AcDbLine
 10
-38.93725722237491
 20
99.682929801147
 30
0.0
 11
-37.63206744255945
 21
99.682929801147
 31
0.0
  0
LINE
  5
13D
330
2
100
AcDbEntity
  8
GEB-VERDECKT
 48
25.0
100
AcDbLine
 10
-37.63206744255945
 20
99.682929801147
 30
0.0
 11
-37.63206744255843
 21
99.54334776157793
 31
0.0
  0
LINE
  5
13E
330
2
100
AcDbEntity
  8
GEB-VERDECKT
 48
25.0
100
AcDbLine
 10
-37.63206744255843
 20
99.54334776157793
 30
0.0
 11
-36.32299547120579
 21
99.54334776157793
 31
0.0
  0
LINE
  5
13F
330
2
100
AcDbEntity
  8
GEB-VERDECKT
 48
25.0
100
AcDbLine
 10
-40.60000000002935
 20
101.375362030922
 30
0.0
 11
-40.60000000001241
 21
98.88513120623509
 31
0.0
  0
LINE
  5
140
330
2
100
AcDbEntity
  8
GEB-VERDECKT
 48
25.0
100
AcDbLine
 10
-40.60000000002935
 20
101.375362030922
 30
0.0
 11
-38.93725722238651
 21
101.375362030922
 31
0.0
  0
LINE
  5
141
330
2
100
AcDbEntity
  8
GEB-VERDECKT
 48
25.0
100
AcDbLine
 10
-38.93725722238651
 20
101.375362030922
 30
0.0
 11
-38.93725722237491
 21
99.682929801147
 31
0.0
  0
LINE
  5
142
330
2
100
AcDbEntity
  8
GEB-VERDECKT
 48
25.0
100
AcDbLine
 10
-40.60000000001241
 20
98.88513120623509
 30
0.0
 11
-36.32299547120124
 21
98.88513120623509
 31
0.0
  0
ELLIPSE
  5
143
330
2
100
AcDbEntity
  8
GEB-VERDECKT
 48
25.0
100
AcDbEllipse
 10
-0.0000000000123919
 20
110.3741857544263
 30
0.0
 11
-38.09999999999991
 21
-0.0000000002415446
 31
0.0
210
0.0
220
0.0
230
1.0
 40
0.9990482215818603
 41
5.976566085694699
 42
6.589804528651775
  0
LINE
  5
144
330
2
100
AcDbEntity
  8
GEB-VERDECKT
 48
25.0
100
AcDbLine
 10
-36.32299547120124
 20
98.88513120623509
 30
0.0
 11
-36.32299547120579
 21
99.54334776157793
 31
0.0
  0
ELLIPSE
  5
145
330
2
100
AcDbEntity
  8
GEB-VERDECKT
 48
25.0
100
AcDbEllipse
 10
-0.0000000000168257
 20
111.0324023097692
 30
0.0
 11
-38.0999999999999
 21
-0.0000000002403011
 31
0.0
210
0.0
220
0.0
230
1.0
 40
0.9990482215818607
 41
5.976566085694738
 42
6.589804528651812
  0
LINE
  5
146
330
2
100
AcDbEntity
  8
GEB-VERDECKT
 48
25.0
100
AcDbLine
 10
-38.93725722238617
 20
124.3534711273047
 30
0.0
 11
-40.60000000002901
 21
124.3534711273047
 31
0.0
  0
LINE
  5
147
330
2
100
AcDbEntity
  8
GEB-VERDECKT
 48
25.0
100
AcDbLine
 10
-40.60000000001219
 20
121.8632403026178
 30
0.0
 11
-36.3229954712009
 21
121.8632403026178
 31
0.0
  0
LINE
  5
148
330
2
100
AcDbEntity
  8
GEB-VERDECKT
 48
25.0
100
AcDbLine
 10
-36.32299547120545
 20
122.5214568579607
 30
0.0
 11
-36.3229954712009
 21
121.8632403026178
 31
0.0
  0
LINE
  5
149
330
2
100
AcDbEntity
  8
GEB-VERDECKT
 48
25.0
100
AcDbLine
 10
-36.32299547120545
 20
122.5214568579607
 30
0.0
 11
-37.63206744255831
 21
122.5214568579607
 31
0.0
  0
LINE
  5
14A
330
2
100
AcDbEntity
  8
GEB-VERDECKT
 48
25.0
100
AcDbLine
 10
-37.63206744255831
 20
122.5214568579607
 30
0.0
 11
-37.63206744255922
 21
122.6610388975298
 31
0.0
  0
LINE
  5
14B
330
2
100
AcDbEntity
  8
GEB-VERDECKT
 48
25.0
100
AcDbLine
 10
-37.63206744255922
 20
122.6610388975298
 30
0.0
 11
-38.93725722237468
 21
122.6610388975298
 31
0.0
  0
LINE
  5
14C
330
2
100
AcDbEntity
  8
GEB-VERDECKT
 48
25.0
100
AcDbLine
 10
-38.93725722237468
 20
122.6610388975298
 30
0.0
 11
-38.93725722238617
 21
124.3534711273047
 31
0.0
  0
LINE
  5
14D
330
2
100
AcDbEntity
  8
GEB-VERDECKT
 48
25.0
100
AcDbLine
 10
-37.60000000001674
 20
111.0324023097697
 30
0.0
 11
-37.60000000001582
 21
110.9015441476735
 31
0.0
  0
LINE
  5
14E
330
2
100
AcDbEntity
  8
GEB-VERDECKT
 48
25.0
100
AcDbLine
 10
37.59999999998309
 20
111.0324023097689
 30
0.0
 11
37.59999999998399
 21
110.9015441476729
 31
0.0
  0
ELLIPSE
  5
14F
330
2
100
AcDbEntity
  8
GEB-VERDECKT
 48
25.0
100
AcDbEllipse
 10
-0.0000000000159162
 20
110.9015441476733
 30
0.0
 11
-35.09999999999993
 21
-0.0000000000000043
 31
0.0
210
0.0
220
0.0
230
1.0
 40
0.9990482215818607
 41
0.0
 42
6.283185307179586
  0
ELLIPSE
  5
150
330
2
100
AcDbEntity
  8
GEB-VERDECKT
 48
25.0
100
AcDbEllipse
 10
-0.0000000000168257
 20
111.0324023097692
 30
0.0
 11
-37.59999999999993
 21
-0.0000000000000046
 31
0.0
210
0.0
220
0.0
230
1.0
 40
0.9990482215818603
 41
0.0
 42
6.283185307179586
  0
ELLIPSE
  5
151
330
2
100
AcDbEntity
  8
GEB-VERDECKT
 48
25.0
100
AcDbEllipse
 10
-0.0000000000159162
 20
110.9015441476733
 30
0.0
 11
-37.59999999999993
 21
-0.0000000000000046
 31
0.0
210
0.0
220
0.0
230
1.0
 40
0.9990482215818603
 41
0.0
 42
6.283185307179586
  0
LINE
  5
152
330
2
100
AcDbEntity
  8
GEB-VERDECKT
 48
25.0
100
AcDbLine
 10
-55.0999999999999
 20
151.24
 30
0.0
 11
55.10000000000013
 21
151.24
 31
0.0
  0
LINE
  5
153
330
2
100
AcDbEntity
  8
GEB-VERDECKT
 48
25.0
100
AcDbLine
 10
55.10000000000013
 20
147.5999999999994
 30
0.0
 11
55.10000000000013
 21
151.24
 31
0.0
  0
LINE
  5
154
330
2
100
AcDbEntity
  8
GEB-VERDECKT
 48
25.0
100
AcDbLine
 10
-55.0999999999999
 20
147.5999999999994
 30
0.0
 11
-55.0999999999999
 21
151.24
 31
0.0
  0
LINE
  5
155
330
2
100
AcDbEntity
  8
GEB-VERDECKT
 48
25.0
100
AcDbLine
 10
-37.60000000001719
 20
111.0786483446626
 30
0.0
 11
-37.60000000001196
 21
110.2985389905047
 31
0.0
  0
LINE
  5
156
330
2
100
AcDbEntity
  8
GEB-VERDECKT
 48
25.0
100
AcDbLine
 10
37.59999999998286
 20
111.0786483446626
 30
0.0
 11
37.59999999998831
 21
110.2985389905047
 31
0.0
  0
LINE
  5
157
330
2
100
AcDbEntity
  8
GEB-VERDECKT
 48
25.0
100
AcDbLine
 10
34.99999999998886
 20
110.1938773502331
 30
0.0
 11
34.99999999998295
 21
111.0786483446626
 31
0.0
  0
LINE
  5
158
330
2
100
AcDbEntity
  8
GEB-VERDECKT
 48
25.0
100
AcDbLine
 10
-35.00000000001114
 20
110.1938773502331
 30
0.0
 11
-35.00000000001705
 21
111.0786483446626
 31
0.0
  0
SPLINE
  5
159
330
2
100
AcDbEntity
  8
GEB-VERDECKT
 48
25.0
100
AcDbSpline
210
0.0
220
0.0
230
1.0
 70
    11
 71
     3
 72
    70
 73
    66
 74
     0
 42
0.0000000001
 43
0.0000000001
 40
0.0
 40
0.0
 40
0.0
 40
0.0
 40
0.7512479343775692
 40
0.7512479343775692
 40
1.502495868755138
 40
1.502495868755138
 40
2.253743803132707
 40
2.253743803132707
 40
3.004991737510276
 40
3.004991737510276
 40
3.74387244835278
 40
3.74387244835278
 40
4.482753159195285
 40
4.482753159195285
 40
5.221633870037789
 40
5.221633870037789
 40
5.960514580880293
 40
5.960514580880293
 40
6.695882615632337
 40
6.695882615632337
 40
7.431250650384381
 40
7.431250650384381
 40
8.166618685136425
 40
8.166618685136425
 40
8.901986719888469
 40
8.901986719888469
 40
9.656778686529911
 40
9.656778686529911
 40
10.41157065317135
 40
10.41157065317135
 40
11.16636261981279
 40
11.16636261981279
 40
11.92115458645424
 40
11.92115458645424
 40
12.65618720662918
 40
12.65618720662918
 40
13.39121982680412
 40
13.39121982680412
 40
14.12625244697906
 40
14.12625244697906
 40
14.861285067154
 40
14.861285067154
 40
15.59575780181677
 40
15.59575780181677
 40
16.33023053647953
 40
16.33023053647953
 40
17.0647032711423
 40
17.0647032711423
 40
17.79917600580506
 40
17.79917600580506
 40
18.53364874046782
 40
18.53364874046782
 40
19.26812147513059
 40
19.26812147513059
 40
20.00259420979336
 40
20.00259420979336
 40
20.73706694445613
 40
20.73706694445613
 40
21.47209956463107
 40
21.47209956463107
 40
22.20713218480601
 40
22.20713218480601
 40
22.94216480498095
 40
22.94216480498095
 40
23.67719742515589
 40
23.67719742515589
 40
23.67719742515589
 40
23.67719742515589
 10
-37.60000000001196
 20
110.2985389905047
 30
0.0
 10
-37.60000000001196
 20
112.8026987717633
 30
0.0
 10
-37.34735419021899
 20
115.3408088984121
 30
0.0
 10
-36.34406614725913
 20
120.3180473013045
 30
0.0
 10
-35.59406385873752
 20
122.7578608308689
 30
0.0
 10
-33.6581875493747
 20
127.4042708473886
 30
0.0
 10
-32.47075183852064
 20
129.6152072170126
 30
0.0
 10
-29.75171775092008
 20
133.7064797412851
 30
0.0
 10
-28.21931449215617
 20
135.5867563709134
 30
0.0
 10
-24.98198346652976
 20
138.9050390485612
 30
0.0
 10
-23.15976551551785
 20
140.4728904340165
 30
0.0
 10
-19.15351152449557
 20
143.2750771580411
 30
0.0
 10
-16.9691776465379
 20
144.5095293485044
 30
0.0
 10
-12.3589091065711
 20
146.519595074704
 30
0.0
 10
-9.927874784095706
 20
147.296867264487
 30
0.0
 10
-4.979963378665047
 20
148.3280646957052
 30
0.0
 10
-2.462935702824665
 20
148.5815389163999
 30
0.0
 10
2.451226782490493
 20
148.5815389163999
 30
0.0
 10
4.956976620299315
 20
148.3304553735508
 30
0.0
 10
9.88430777033318
 20
147.3083148990542
 30
0.0
 10
12.30603695384081
 20
146.5377031068669
 30
0.0
 10
16.90047481009719
 20
144.5442985220159
 30
0.0
 10
19.07823996650177
 20
143.3198703812179
 30
0.0
 10
23.0744617747207
 20
140.5401023976954
 30
0.0
 10
24.89321494247224
 20
138.9846519165537
 30
0.0
 10
28.14221720758041
 20
135.6768224408703
 30
0.0
 10
29.68708848484744
 20
133.7924211992777
 30
0.0
 10
32.4281479986505
 20
129.6901825651465
 30
0.0
 10
33.62515450301612
 20
127.4724141785814
 30
0.0
 10
35.57683501218503
 20
122.8100698504372
 30
0.0
 10
36.33309185252733
 20
120.3611400539096
 30
0.0
 10
37.34499570612229
 20
115.3637101907949
 30
0.0
 10
37.59999999998831
 20
112.8145122126428
 30
0.0
 10
37.59999999998831
 20
107.8484302565882
 30
0.0
 10
37.35753028810222
 20
105.362373898201
 30
0.0
 10
36.37511847641895
 20
100.496373923213
 30
0.0
 10
35.6357237145744
 20
98.11580100062428
 30
0.0
 10
33.71605802152294
 20
93.60041000115405
 30
0.0
 10
32.53403825524424
 20
91.46019999103373
 30
0.0
 10
29.8237578736971
 20
87.51650319342036
 30
0.0
 10
28.29479107676923
 20
85.71290981084166
 30
0.0
 10
25.04527228690359
 20
82.51856575539932
 30
0.0
 10
23.20382810180604
 20
81.00876952799433
 30
0.0
 10
19.16392015761312
 20
78.32466312400573
 30
0.0
 10
16.96521215690359
 20
77.15015072590325
 30
0.0
 10
12.33606357720566
 20
75.24551775437089
 30
0.0
 10
9.900751372562581
 20
74.51382003058222
 30
0.0
 10
4.956902451149744
 20
73.5458175696574
 30
0.0
 10
2.448242448859559
 20
73.30989699211818
 30
0.0
 10
-2.448242448892074
 20
73.30989699211818
 30
0.0
 10
-4.956902451182259
 20
73.5458175696574
 30
0.0
 10
-9.900751372594754
 20
74.51382003058222
 30
0.0
 10
-12.33606357723749
 20
75.24551775437089
 30
0.0
 10
-16.96521215693451
 20
77.15015072590325
 30
0.0
 10
-19.16392015764347
 20
78.32466312400573
 30
0.0
 10
-23.20382810183537
 20
81.00876952799433
 30
0.0
 10
-25.04527228693258
 20
82.51856575539932
 30
0.0
 10
-28.29479107679708
 20
85.71290981084166
 30
0.0
 10
-29.82375787372451
 20
87.51650319342036
 30
0.0
 10
-32.53403825527039
 20
91.46019999103373
 30
0.0
 10
-33.71605802154864
 20
93.60041000115405
 30
0.0
 10
-35.63572371459918
 20
98.11580100062428
 30
0.0
 10
-36.37511847644339
 20
100.496373923213
 30
0.0
 10
-37.35753028812599
 20
105.362373898201
 30
0.0
 10
-37.60000000001196
 20
107.8484302565882
 30
0.0
 10
-37.60000000001196
 20
110.2985389905047
 30
0.0
  0
ELLIPSE
  5
15A
330
2
100
AcDbEntity
  8
GEB-VERDECKT
 48
25.0
100
AcDbEllipse
 10
-0.000000000017053
 20
111.0786483446626
 30
0.0
 11
-37.6
 21
0.0
 31
0.0
210
0.0
220
0.0
230
1.0
 40
0.9990482215818577
 41
0.0
 42
6.283185307179586
  0
LINE
  5
15B
330
2
100
AcDbEntity
  8
GEB-VERDECKT
 48
25.0
100
AcDbLine
 10
19.14548799317572
 20
72.39999999999998
 30
0.0
 11
-19.14548799320619
 21
72.39999999999998
 31
0.0
  0
LINE
  5
15C
330
2
100
AcDbEntity
  8
GEB-VERDECKT
 48
25.0
100
AcDbLine
 10
-9.384279477249492
 20
69.10000000000002
 30
0.0
 11
9.384279477217432
 21
69.10000000000002
 31
0.0
  0
LINE
  5
15D
330
2
100
AcDbEntity
  8
GEB-KONTUR-A
 48
25.0
100
AcDbLine
 10
55.10000000000013
 20
72.39999999999998
 30
0.0
 11
55.10000000000013
 21
147.5999999999994
 31
0.0
  0
LINE
  5
15E
330
2
100
AcDbEntity
  8
GEB-KONTUR-A
 48
25.0
100
AcDbLine
 10
-55.0999999999999
 20
72.39999999999998
 30
0.0
 11
-55.0999999999999
 21
147.5999999999994
 31
0.0
  0
ARC
  5
15F
330
2
100
AcDbEntity
  8
GEB-KONTUR-A
 48
25.0
100
AcDbCircle
 10
-56.74999999999989
 20
70.75000000000011
 30
0.0
 40
1.099999999999997
100
AcDbArc
 50
110.60491218689
 51
253.1255057020593
  0
ARC
  5
160
330
2
100
AcDbEntity
  8
GEB-KONTUR-A
 48
25.0
100
AcDbCircle
 10
56.75
 20
70.75000000000011
 30
0.0
 40
1.099999999999997
100
AcDbArc
 50
286.8744942979406
 51
69.39508781310997
  0
LINE
  5
161
330
2
100
AcDbEntity
  8
GEB-KONTUR-A
 48
25.0
100
AcDbLine
 10
55.10000000000013
 20
69.10000000000002
 30
0.0
 11
57.06930385424198
 21
69.69736281242479
 31
0.0
  0
LINE
  5
162
330
2
100
AcDbEntity
  8
GEB-KONTUR-A
 48
25.0
100
AcDbLine
 10
-55.0999999999999
 20
69.10000000000002
 30
0.0
 11
-57.06930385424175
 21
69.69736281242479
 31
0.0
  0
ARC
  5
163
330
2
100
AcDbEntity
  8
GEB-KONTUR-A
 48
25.0
100
AcDbCircle
 10
-51.27958466475047
 20
56.199983590437
 30
0.0
 40
16.64440161147056
100
AcDbArc
 50
103.2694938372567
 51
110.60491218689
  0
ARC
  5
164
330
2
100
AcDbEntity
  8
GEB-KONTUR-A
 48
25.0
100
AcDbCircle
 10
51.2795846647507
 20
56.199983590437
 30
0.0
 40
16.64440161147056
100
AcDbArc
 50
69.39508781310997
 51
76.73050616274327
  0
LINE
  5
165
330
2
100
AcDbEntity
  8
GEB-KONTUR-A
 48
25.0
100
AcDbLine
 10
55.10000000000013
 20
2.000000000000113
 30
0.0
 11
55.10000000000013
 21
69.10000000000002
 31
0.0
  0
LINE
  5
166
330
2
100
AcDbEntity
  8
GEB-KONTUR-A
 48
25.0
100
AcDbLine
 10
-55.0999999999999
 20
2.000000000000113
 30
0.0
 11
-55.0999999999999
 21
69.10000000000002
 31
0.0
  0
LINE
  5
167
330
2
100
AcDbEntity
  8
GEB-KONTUR-A
 48
25.0
100
AcDbLine
 10
54.48853863708269
 20
0.0
 30
0.0
 11
55.10000000000013
 21
2.000000000000113
 31
0.0
  0
LINE
  5
168
330
2
100
AcDbEntity
  8
GEB-KONTUR-A
 48
25.0
100
AcDbLine
 10
-54.48853863708257
 20
0.0
 30
0.0
 11
-55.0999999999999
 21
2.000000000000113
 31
0.0
  0
ELLIPSE
  5
169
330
2
100
AcDbEntity
  8
GEB-KONTUR-A
 48
25.0
100
AcDbEllipse
 10
-0.000000000017053
 20
111.0786483446626
 30
0.0
 11
-35.0
 21
0.0
 31
0.0
210
0.0
220
0.0
230
1.0
 40
0.9990482215818577
 41
0.0
 42
6.283185307179586
  0
LINE
  5
16A
330
2
100
AcDbEntity
  8
GEB-KONTUR-A
 48
25.0
100
AcDbLine
 10
55.10000000000013
 20
72.39999999999998
 30
0.0
 11
19.14548799317572
 21
72.39999999999998
 31
0.0
  0
LINE
  5
16B
330
2
100
AcDbEntity
  8
GEB-KONTUR-A
 48
25.0
100
AcDbLine
 10
-19.14548799320619
 20
72.39999999999998
 30
0.0
 11
-55.0999999999999
 21
72.39999999999998
 31
0.0
  0
LINE
  5
16C
330
2
100
AcDbEntity
  8
GEB-KONTUR-A
 48
25.0
100
AcDbLine
 10
-55.0999999999999
 20
69.10000000000002
 30
0.0
 11
-9.384279477249378
 21
69.10000000000002
 31
0.0
  0
LINE
  5
16D
330
2
100
AcDbEntity
  8
GEB-KONTUR-A
 48
25.0
100
AcDbLine
 10
9.384279477217546
 20
69.10000000000002
 30
0.0
 11
55.10000000000013
 21
69.10000000000002
 31
0.0
  0
LINE
  5
16E
330
2
100
AcDbEntity
  8
GEB-KONTUR-A
 48
25.0
100
AcDbLine
 10
54.48853863708269
 20
0.0
 30
0.0
 11
-54.48853863708257
 21
0.0
 31
0.0
  0
LINE
  5
16F
330
2
100
AcDbEntity
  8
GEB-KONTUR-A
 48
25.0
100
AcDbLine
 10
-55.0999999999999
 20
2.000000000000113
 30
0.0
 11
55.10000000000013
 21
2.000000000000113
 31
0.0
  0
SPLINE
  5
170
330
2
100
AcDbEntity
  8
GEB-KONTUR-A
 48
25.0
100
AcDbSpline
210
0.0
220
0.0
230
1.0
 70
     8
 71
     3
 72
    20
 73
    16
 74
     0
 42
0.0000000001
 43
0.0000000001
 40
6.445961803227225
 40
6.445961803227225
 40
6.445961803227225
 40
6.445961803227225
 40
6.922245377654991
 40
6.922245377654991
 40
7.609958668360815
 40
7.609958668360815
 40
8.297671959066638
 40
8.297671959066638
 40
8.996663367421652
 40
8.996663367421652
 40
9.695654775776665
 40
9.695654775776665
 40
10.39464618413168
 40
10.39464618413168
 40
11.04778827879977
 40
11.04778827879977
 40
11.04778827879977
 40
11.04778827879977
 10
9.04909515960503
 20
144.5995870300112
 30
0.0
 10
10.62214482665672
 20
144.1655250515296
 30
0.0
 10
12.16473754149842
 20
143.6192417027303
 30
0.0
 10
15.79751904682666
 20
142.0354314097676
 30
0.0
 10
17.83154900892145
 20
140.8859412596741
 30
0.0
 10
21.56235428321474
 20
138.2761713889524
 30
0.0
 10
23.25940432217112
 20
136.8157807866203
 30
0.0
 10
26.2739030525479
 20
133.7249477684621
 30
0.0
 10
27.70058272476047
 20
131.9737241753965
 30
0.0
 10
30.2317016712434
 20
128.1631400003731
 30
0.0
 10
31.33688191981287
 20
126.1038278270321
 30
0.0
 10
33.13795775378253
 20
121.776448329927
 30
0.0
 10
33.83530080272795
 20
119.5043323168793
 30
0.0
 10
34.73658862684056
 20
115.0223132766306
 30
0.0
 10
34.96937646961874
 20
112.8175621699272
 30
0.0
 10
34.9971736834093
 20
110.6367479563095
 30
0.0
  0
SPLINE
  5
171
330
2
100
AcDbEntity
  8
GEB-KONTUR-A
 48
25.0
100
AcDbSpline
210
0.0
220
0.0
230
1.0
 70
     8
 71
     3
 72
    20
 73
    16
 74
     0
 42
0.0000000001
 43
0.0000000001
 40
0.0458493136869153
 40
0.0458493136869153
 40
0.0458493136869153
 40
0.0458493136869153
 40
0.6989914083550135
 40
0.6989914083550135
 40
1.397982816710026
 40
1.397982816710026
 40
2.09697422506504
 40
2.09697422506504
 40
2.795965633420053
 40
2.795965633420053
 40
3.483678924125876
 40
3.483678924125876
 40
4.171392214831699
 40
4.171392214831699
 40
4.647675789259482
 40
4.647675789259482
 40
4.647675789259482
 40
4.647675789259482
 10
-34.99717368343159
 20
110.6367479563093
 30
0.0
 10
-34.96937646964091
 20
112.8175621699271
 30
0.0
 10
-34.73658862686296
 20
115.0223132766306
 30
0.0
 10
-33.83530080275102
 20
119.5043323168793
 30
0.0
 10
-33.13795775380572
 20
121.776448329927
 30
0.0
 10
-31.33688191983697
 20
126.1038278270321
 30
0.0
 10
-30.23170167126818
 20
128.1631400003731
 30
0.0
 10
-27.70058272478616
 20
131.9737241753965
 30
0.0
 10
-26.27390305257416
 20
133.7249477684621
 30
0.0
 10
-23.25940432219829
 20
136.8157807866203
 30
0.0
 10
-21.56235428324249
 20
138.2761713889524
 30
0.0
 10
-17.83154900895022
 20
140.8859412596741
 30
0.0
 10
-15.79751904685554
 20
142.0354314097676
 30
0.0
 10
-12.16473754152798
 20
143.6192417027303
 30
0.0
 10
-10.62214482668639
 20
144.1655250515296
 30
0.0
 10
-9.049095159634816
 20
144.5995870300112
 30
0.0
  0
LINE
  5
172
330
2
100
AcDbEntity
  8
GEB-VERDECKT
 48
25.0
100
AcDbLine
 10
51.50000000000023
 20
0.0
 30
0.0
 11
51.60000000000014
 21
148.5531434217778
 31
0.0
  0
LINE
  5
173
330
2
100
AcDbEntity
  8
GEB-VERDECKT
 48
25.0
100
AcDbLine
 10
-51.5
 20
0.0
 30
0.0
 11
-51.59999999999991
 21
148.5531434217776
 31
0.0
  0
LINE
  5
174
330
2
100
AcDbEntity
  8
GEB-VERDECKT
 48
25.0
100
AcDbLine
 10
51.60000000000014
 20
148.5531434217778
 30
0.0
 11
53.15125736871073
 21
151.24
 31
0.0
  0
LINE
  5
175
330
2
100
AcDbEntity
  8
GEB-VERDECKT
 48
25.0
100
AcDbLine
 10
-51.59999999999991
 20
148.5531434217776
 30
0.0
 11
-53.1512573687105
 21
151.24
 31
0.0
  0
SPLINE
  5
176
330
2
100
AcDbEntity
  8
GEB-VERDECKT
 48
25.0
100
AcDbSpline
210
0.0
220
0.0
230
1.0
 70
     8
 71
     3
 72
    40
 73
    36
 74
     0
 42
0.0000000001
 43
0.0000000001
 40
11.04778827879977
 40
11.04778827879977
 40
11.04778827879977
 40
11.04778827879977
 40
11.09363759248669
 40
11.09363759248669
 40
11.77704024923156
 40
11.77704024923156
 40
12.46044290597642
 40
12.46044290597642
 40
13.14384556272128
 40
13.14384556272128
 40
13.82724821946615
 40
13.82724821946615
 40
14.51040058699163
 40
14.51040058699163
 40
15.19355295451712
 40
15.19355295451712
 40
15.87670532204261
 40
15.87670532204261
 40
16.55985768956809
 40
16.55985768956809
 40
17.24301005709358
 40
17.24301005709358
 40
17.92616242461906
 40
17.92616242461906
 40
18.60931479214455
 40
18.60931479214455
 40
19.29246715967004
 40
19.29246715967004
 40
19.9758698164149
 40
19.9758698164149
 40
20.65927247315977
 40
20.65927247315977
 40
21.34267512990463
 40
21.34267512990463
 40
22.0260777866495
 40
22.0260777866495
 40
22.0260777866495
 40
22.0260777866495
 10
34.9971736834093
 20
110.6367479563095
 30
0.0
 10
34.99912499413495
 20
110.4836590101379
 30
0.0
 10
35.00006615842244
 20
110.3306880194426
 30
0.0
 10
34.99895567984117
 20
107.8998486687634
 30
0.0
 10
34.7727072390785
 20
105.5873769068686
 30
0.0
 10
33.85731209878895
 20
101.0598257308933
 30
0.0
 10
33.1686686439989
 20
98.84418183360208
 30
0.0
 10
31.38090013774558
 20
94.64123298166645
 30
0.0
 10
30.28015069616936
 20
92.64891210264636
 30
0.0
 10
27.75649506793229
 20
88.97793524542498
 30
0.0
 10
26.33294217492005
 20
87.29917259762874
 30
0.0
 10
23.30735326284366
 20
84.32567014857534
 30
0.0
 10
21.59270646382629
 20
82.92027706432099
 30
0.0
 10
17.83164767250241
 20
80.42222533679057
 30
0.0
 10
15.78501109275612
 20
79.3293761676548
 30
0.0
 10
11.47674846728785
 20
77.55745772595332
 30
0.0
 10
9.210603313067736
 20
76.87692358423124
 30
0.0
 10
4.610873272953995
 20
75.97672735023559
 30
0.0
 10
2.277174558403203
 20
75.75742114955301
 30
0.0
 10
-2.277174558433557
 20
75.75742114955301
 30
0.0
 10
-4.610873272984349
 20
75.97672735023559
 30
0.0
 10
-9.210603313097635
 20
76.87692358423124
 30
0.0
 10
-11.47674846731752
 20
77.55745772595332
 30
0.0
 10
-15.78501109278511
 20
79.3293761676548
 30
0.0
 10
-17.83164767253083
 20
80.42222533679057
 30
0.0
 10
-21.59270646385403
 20
82.92027706432099
 30
0.0
 10
-23.30735326287072
 20
84.32567014857534
 30
0.0
 10
-26.33294217494631
 20
87.29917259762874
 30
0.0
 10
-27.75649506795776
 20
88.97793524542498
 30
0.0
 10
-30.28015069619403
 20
92.64891210264636
 30
0.0
 10
-31.3809001377698
 20
94.64123298166645
 30
0.0
 10
-33.16866864402221
 20
98.84418183360208
 30
0.0
 10
-33.85731209881192
 20
101.0598257308933
 30
0.0
 10
-34.77270723910101
 20
105.5873769068686
 30
0.0
 10
-34.99895567986346
 20
107.8998486687634
 30
0.0
 10
-34.99999634076448
 20
110.1778570084467
 30
0.0
  0
SPLINE
  5
177
330
2
100
AcDbEntity
  8
GEB-VERDECKT
 48
25.0
100
AcDbSpline
210
0.0
220
0.0
230
1.0
 70
     8
 71
     3
 72
    14
 73
    10
 74
     0
 42
0.0000000001
 43
0.0000000001
 40
4.647675789259482
 40
4.647675789259482
 40
4.647675789259482
 40
4.647675789259482
 40
4.859105505537522
 40
4.859105505537522
 40
5.546818796243345
 40
5.546818796243345
 40
6.234532086949168
 40
6.234532086949168
 40
6.445961803227225
 40
6.445961803227225
 40
6.445961803227225
 40
6.445961803227225
 10
-9.049095159634816
 20
144.5995870300112
 30
0.0
 10
-8.350793847867862
 20
144.7922739205212
 30
0.0
 10
-7.646490656386731
 20
144.9628463472675
 30
0.0
 10
-4.635342258747641
 20
145.5903059551606
 30
0.0
 10
-2.292377635701313
 20
145.8261684868469
 30
0.0
 10
2.292377635670845
 20
145.8261684868469
 30
0.0
 10
4.635342258717173
 20
145.5903059551606
 30
0.0
 10
7.646490656356718
 20
144.9628463472675
 30
0.0
 10
8.350793847837849
 20
144.7922739205212
 30
0.0
 10
9.04909515960503
 20
144.5995870300112
 30
0.0
  0
SPLINE
  5
178
330
2
100
AcDbEntity
  8
GEB-VERDECKT
 48
25.0
100
AcDbSpline
210
0.0
220
0.0
230
1.0
 70
     8
 71
     3
 72
     8
 73
     4
 74
     0
 42
0.0000000001
 43
0.0000000001
 40
0.0
 40
0.0
 40
0.0
 40
0.0
 40
0.0458493136869153
 40
0.0458493136869153
 40
0.0458493136869153
 40
0.0458493136869153
 10
-34.99999634076448
 20
110.1778570084467
 30
0.0
 10
-35.00006615844461
 20
110.3306880194426
 30
0.0
 10
-34.99912499415723
 20
110.4836590101377
 30
0.0
 10
-34.99717368343159
 20
110.6367479563093
 30
0.0
  0
LINE
  5
179
330
2
100
AcDbEntity
  8
GEB-VERDECKT
 48
25.0
100
AcDbLine
 10
-51.59999999999991
 20
148.5531434217776
 30
0.0
 11
51.60000000000014
 21
148.5531434217776
 31
0.0
  0
TEXT
  5
17A
330
2
100
AcDbEntity
  8
GEB-TEXT
100
AcDbText
 10
-34.64904502046362
 20
-10.5
 30
0.0
 40
3.5
  1
Abzweig PP-MD 87.5G d110/75
 72
     1
 11
0.0000000000002274
 21
-10.5
 31
0.0
100
AcDbText
  0
TEXT
  5
17C
330
2
100
AcDbEntity
  8
GEB-TEXT
100
AcDbText
 10
-18.75221691678013
 20
-5.0
 30
0.0
 40
3.5
  1
Geberit Silent PP
 72
     1
 11
0.0000000000002274
 21
-5.0
 31
0.0
100
AcDbText
  0
TEXT
  5
17D
330
2
100
AcDbEntity
  8
GEB-ART-NR
100
AcDbText
 10
-24.17544479964537
 20
-16.84278125428022
 30
0.0
 40
3.5
  1
GEB-ART-NR 390.549
 72
     1
 11
0.5525565646111091
 21
-16.84278125428022
 31
0.0
100
AcDbText
  0
ENDSEC
  0
SECTION
  2
OBJECTS
  0
DICTIONARY
  5
9
330
0
100
AcDbDictionary
281
     1
  3
ACAD_2007HEADERVARS_RT
350
1AC
  3
ACAD_COLOR
350
44
  3
ACAD_GROUP
350
31
  3
ACAD_LAYOUT
350
16
  3
ACAD_MATERIAL
350
B
  3
ACAD_MLEADERSTYLE
350
47
  3
ACAD_MLINESTYLE
350
32
  3
ACAD_PLOTSETTINGS
350
33
  3
ACAD_PLOTSTYLENAME
350
8
  3
ACAD_SCALELIST
350
45
  3
ACAD_TABLESTYLE
350
46
  3
ACAD_VISUALSTYLE
350
2B
  3
ACDB_RECOMPOSE_DATA
350
1AB
  3
AcDbVariableDictionary
350
181
  0
DICTIONARY
  5
2C
330
28
100
AcDbDictionary
280
     1
281
     1
  0
DICTIONARY
  5
1C
330
1B
100
AcDbDictionary
280
     1
281
     1
  3
ACAD_LAYERFILTERS
360
1D
  3
ACLYDICTIONARY
360
1E
  0
DICTIONARY
  5
3
330
2
100
AcDbDictionary
280
     1
281
     1
  3
ACAD_SORTENTS
360
17F
  0
DICTIONARY
  5
1AC
102
{ACAD_REACTORS
330
9
102
}
330
9
100
AcDbDictionary
281
     1
  3
DIMARCSYM
350
1AD
  3
DIMLTEX1
350
1AF
  3
DIMLTEX2
350
1B0
  3
DIMLTYPE
350
1AE
  0
DICTIONARY
  5
44
102
{ACAD_REACTORS
330
9
102
}
330
9
100
AcDbDictionary
281
     1
  0
DICTIONARY
  5
31
102
{ACAD_REACTORS
330
9
102
}
330
9
100
AcDbDictionary
281
     1
  0
DICTIONARY
  5
16
102
{ACAD_REACTORS
330
9
102
}
330
9
100
AcDbDictionary
281
     1
  3
Layout1
350
1A
  3
Model
350
15
  0
DICTIONARY
  5
B
102
{ACAD_REACTORS
330
9
102
}
330
9
100
AcDbDictionary
281
     1
  3
ByBlock
350
3C
  3
ByLayer
350
34
  3
Global
350
A
  0
DICTIONARY
  5
47
102
{ACAD_REACTORS
330
9
102
}
330
9
100
AcDbDictionary
281
     1
  3
Standard
350
19F
  0
DICTIONARY
  5
32
102
{ACAD_REACTORS
330
9
102
}
330
9
100
AcDbDictionary
281
     1
  3
Standard
350
48
  0
DICTIONARY
  5
33
102
{ACAD_REACTORS
330
9
102
}
330
9
100
AcDbDictionary
281
     1
  0
ACDBDICTIONARYWDFLT
  5
8
102
{ACAD_REACTORS
330
9
102
}
330
9
100
AcDbDictionary
281
     1
  3
Normal
350
7
100
AcDbDictionaryWithDefault
340
7
  0
DICTIONARY
  5
45
102
{ACAD_REACTORS
330
9
102
}
330
9
100
AcDbDictionary
281
     1
  3
A0
350
4D
  3
A1
350
4E
  3
A2
350
4F
  3
A3
350
50
  3
A4
350
51
  3
A5
350
52
  3
A6
350
53
  3
A7
350
54
  3
A8
350
55
  3
A9
350
56
  3
B0
350
57
  3
B1
350
58
  3
B2
350
59
  3
B3
350
5A
  3
B4
350
5B
  3
B5
350
5C
  3
B6
350
5D
  3
B7
350
5E
  3
B8
350
5F
  3
B9
350
60
  3
C0
350
61
  3
C1
350
62
  3
C2
350
63
  3
C3
350
64
  3
C4
350
65
  3
C5
350
66
  3
C6
350
67
  3
C7
350
68
  3
C8
350
69
  3
C9
350
6A
  3
D0
350
6B
  3
D1
350
6C
  3
D2
350
6D
  0
DICTIONARY
  5
46
102
{ACAD_REACTORS
330
9
102
}
330
9
100
AcDbDictionary
281
     1
  3
Standard
350
49
  0
DICTIONARY
  5
2B
102
{ACAD_REACTORS
330
9
102
}
330
9
100
AcDbDictionary
281
     1
  3
2dWireframe
350
2A
  3
Basic
350
18E
  3
Brighten
350
192
  3
ColorChange
350
196
  3
Conceptual
350
190
  3
Dim
350
191
  3
EdgeColorOff
350
19E
  3
Facepattern
350
195
  3
Flat
350
18A
  3
FlatWithEdges
350
18B
  3
Gouraud
350
18C
  3
GouraudWithEdges
350
18D
  3
Hidden
350
18F
  3
JitterOff
350
19C
  3
Linepattern
350
194
  3
OverhangOff
350
19D
  3
Realistic
350
4B
  3
Shaded
350
19B
  3
Shaded with edges
350
19A
  3
Shades of Gray
350
197
  3
Sketchy
350
198
  3
Thicken
350
193
  3
Wireframe
350
4C
  3
X-Ray
350
199
  0
XRECORD
  5
1AB
102
{ACAD_REACTORS
330
9
102
}
330
9
100
AcDbXrecord
280
     1
 90
        1
330
49
  0
DICTIONARY
  5
181
102
{ACAD_REACTORS
330
9
102
}
330
9
100
AcDbDictionary
281
     1
  3
CANNOSCALE
350
185
  3
CMLEADERSTYLE
350
183
  3
CTABLESTYLE
350
182
  3
DIMASSOC
350
1A8
  3
HIDETEXT
350
1A7
  3
INDEXCTL
350
1A6
  3
LAYEREVAL
350
187
  3
LAYERNOTIFY
350
188
  3
LIGHTINGUNITS
350
186
  3
MSLTSCALE
350
184
  3
SORTENTS
350
1A5
  3
XCLIPFRAME
350
1A9
  0
DICTIONARY
  5
1D
102
{ACAD_REACTORS
330
1C
102
}
330
1C
100
AcDbDictionary
281
     1
  0
DICTIONARY
  5
1E
102
{ACAD_REACTORS
330
1C
102
}
330
1C
100
AcDbDictionary
281
     1
1001
ACAD
1000
<All
  0
SORTENTSTABLE
  5
17F
102
{ACAD_REACTORS
330
3
102
}
330
3
100
AcDbSortentsTable
330
2
331
132
  5
C1
331
F3
  5
100
331
7D
  5
173
331
BC
  5
137
331
169
  5
89
331
171
  5
81
331
FB
  5
F8
331
C4
  5
12F
331
85
  5
16D
331
13A
  5
B9
331
179
  5
6E
331
142
  5
B1
331
CC
  5
127
331
8D
  5
165
331
103
  5
F0
331
14A
  5
A9
331
D4
  5
11F
331
95
  5
15E
331
10B
  5
E8
331
152
  5
A1
331
113
  5
E0
331
9D
  5
156
331
DC
  5
117
331
11B
  5
D8
331
E4
  5
10F
331
A5
  5
14E
331
15A
  5
99
331
123
  5
D0
331
EC
  5
107
331
AD
  5
146
331
162
  5
90
331
B5
  5
13E
331
12B
  5
C8
331
16A
  5
88
331
133
  5
C0
331
BD
  5
136
331
F4
  5
FF
331
13B
  5
B8
331
C5
  5
12E
331
86
  5
16C
331
FC
  5
F7
331
172
  5
80
331
143
  5
B0
331
104
  5
EF
331
8E
  5
164
331
CD
  5
126
331
17A
  5
17D
331
10C
  5
E7
331
D5
  5
11E
331
96
  5
15D
331
14B
  5
A8
331
153
  5
A0
331
DD
  5
116
331
9E
  5
155
331
114
  5
DF
331
15B
  5
98
331
E5
  5
10E
331
A6
  5
14D
331
11C
  5
D7
331
163
  5
8F
331
124
  5
CF
331
AE
  5
145
331
ED
  5
106
331
12C
  5
C7
331
B6
  5
13D
331
134
  5
BF
331
F5
  5
FE
331
BE
  5
135
331
16B
  5
87
331
173
  5
7D
331
FD
  5
F6
331
C6
  5
12D
331
87
  5
16B
331
13C
  5
B7
331
144
  5
AF
331
CE
  5
125
331
8F
  5
163
331
105
  5
EE
331
14C
  5
A7
331
D6
  5
11D
331
97
  5
15C
331
10D
  5
E6
331
154
  5
9F
331
115
  5
DE
331
9F
  5
154
331
DE
  5
115
331
11D
  5
D6
331
E6
  5
10D
331
A7
  5
14C
331
15C
  5
97
331
164
  5
8E
331
EE
  5
105
331
AF
  5
144
331
125
  5
CE
331
B7
  5
13C
331
12D
  5
C6
331
16C
  5
86
331
135
  5
BE
331
BF
  5
134
331
80
  5
172
331
F6
  5
FD
331
13D
  5
B6
331
FE
  5
F5
331
88
  5
16A
331
C7
  5
12C
331
174
  5
7C
331
145
  5
AE
331
106
  5
ED
331
90
  5
162
331
CF
  5
124
331
10E
  5
E5
331
D7
  5
11C
331
14D
  5
A6
331
98
  5
15B
331
155
  5
9E
331
DF
  5
114
331
A0
  5
153
331
116
  5
DD
331
15D
  5
96
331
E7
  5
10C
331
A8
  5
14B
331
11E
  5
D5
331
165
  5
8D
331
126
  5
CD
331
B0
  5
143
331
EF
  5
104
331
12E
  5
C5
331
79
  5
177
331
B8
  5
13B
331
16D
  5
85
331
F7
  5
FC
331
81
  5
171
331
C0
  5
133
331
136
  5
BD
331
175
  5
7B
331
FF
  5
F4
331
C8
  5
12B
331
89
  5
169
331
13E
  5
B5
331
17D
  5
17A
331
146
  5
AD
331
D0
  5
123
331
91
  5
161
331
107
  5
EC
331
14E
  5
A5
331
10F
  5
E4
331
99
  5
15A
331
D8
  5
11B
331
156
  5
9D
331
117
  5
DC
331
A1
  5
152
331
E0
  5
113
331
11F
  5
D4
331
E8
  5
10B
331
A9
  5
14A
331
15E
  5
95
331
166
  5
8C
331
B1
  5
142
331
127
  5
CC
331
12F
  5
C4
331
F0
  5
103
331
B9
  5
13A
331
7A
  5
176
331
16E
  5
84
331
137
  5
BC
331
C1
  5
132
331
82
  5
170
331
F8
  5
FB
331
13F
  5
B4
331
100
  5
F3
331
8A
  5
168
331
C9
  5
12A
331
176
  5
7A
331
108
  5
EB
331
D1
  5
122
331
147
  5
AC
331
14F
  5
A4
331
110
  5
E3
331
D9
  5
11A
331
9A
  5
159
331
157
  5
9C
331
E1
  5
112
331
A2
  5
151
331
118
  5
DB
331
15F
  5
94
331
120
  5
D3
331
AA
  5
149
331
E9
  5
10A
331
75
  5
178
331
167
  5
8B
331
B2
  5
141
331
128
  5
CB
331
130
  5
C3
331
F1
  5
102
331
7B
  5
175
331
BA
  5
139
331
16F
  5
83
331
F9
  5
FA
331
C2
  5
131
331
83
  5
16F
331
138
  5
BB
331
177
  5
79
331
101
  5
F2
331
CA
  5
129
331
8B
  5
167
331
140
  5
B3
331
148
  5
AB
331
D2
  5
121
331
93
  5
160
331
109
  5
EA
331
150
  5
A3
331
111
  5
E2
331
9B
  5
158
331
DA
  5
119
331
119
  5
DA
331
6E
  5
179
331
A3
  5
150
331
E2
  5
111
331
158
  5
9B
331
121
  5
D2
331
EA
  5
109
331
AB
  5
148
331
160
  5
93
331
B3
  5
140
331
129
  5
CA
331
168
  5
8A
331
131
  5
C2
331
BB
  5
138
331
7C
  5
174
331
F2
  5
101
331
170
  5
82
331
139
  5
BA
331
C3
  5
130
331
84
  5
16E
331
FA
  5
F9
331
141
  5
B2
331
102
  5
F1
331
8C
  5
166
331
CB
  5
128
331
178
  5
75
331
10A
  5
E9
331
D3
  5
120
331
94
  5
15F
331
149
  5
AA
331
112
  5
E1
331
DB
  5
118
331
9C
  5
157
331
151
  5
A2
331
159
  5
9A
331
E3
  5
110
331
A4
  5
14F
331
11A
  5
D9
331
161
  5
91
331
122
  5
D1
331
AC
  5
147
331
EB
  5
108
331
B4
  5
13F
331
12A
  5
C9
  0
XRECORD
  5
1AD
102
{ACAD_REACTORS
330
1AC
102
}
330
1AC
100
AcDbXrecord
280
     1
 70
     1
  0
XRECORD
  5
1AF
102
{ACAD_REACTORS
330
1AC
102
}
330
1AC
100
AcDbXrecord
280
     1
340
24
  0
XRECORD
  5
1B0
102
{ACAD_REACTORS
330
1AC
102
}
330
1AC
100
AcDbXrecord
280
     1
340
24
  0
XRECORD
  5
1AE
102
{ACAD_REACTORS
330
1AC
102
}
330
1AC
100
AcDbXrecord
280
     1
340
24
  0
LAYOUT
  5
1A
102
{ACAD_XDICTIONARY
360
1B4
102
}
102
{ACAD_REACTORS
330
16
102
}
330
16
100
AcDbPlotSettings
  1

  2
\\le-server\HP LaserJet 2100
  4

  6

 40
0.0
 41
0.0
 42
0.0
 43
0.0
 44
0.0
 45
0.0
 46
0.0
 47
0.0
 48
0.0
 49
0.0
140
0.0
141
0.0
142
1.0
143
1.0
 70
   688
 72
     0
 73
     0
 74
     5
  7

 75
    16
147
1.0
148
0.0
149
0.0
100
AcDbLayout
  1
Layout1
 70
     1
 71
     1
 10
0.0
 20
0.0
 11
1189.0
 21
840.9999999999998
 12
0.0
 22
0.0
 32
0.0
 14
0.0
 24
0.0
 34
0.0
 15
1189.0
 25
840.9999999999998
 35
0.0
146
0.0
 13
0.0
 23
0.0
 33
0.0
 16
1.0
 26
0.0
 36
0.0
 17
0.0
 27
1.0
 37
0.0
 76
     0
330
17
  0
LAYOUT
  5
15
102
{ACAD_XDICTIONARY
360
1B2
102
}
102
{ACAD_REACTORS
330
16
102
}
330
16
100
AcDbPlotSettings
  1

  2
\\le-server\HP LaserJet 2100
  4

  6

 40
0.0
 41
0.0
 42
0.0
 43
0.0
 44
0.0
 45
0.0
 46
0.0
 47
0.0
 48
0.0
 49
0.0
140
0.0
141
0.0
142
1.0
143
1.0
 70
  1712
 72
     0
 73
     0
 74
     0
  7

 75
     0
147
1.0
148
0.0
149
0.0
100
AcDbLayout
  1
Model
 70
     1
 71
     0
 10
0.0
 20
0.0
 11
12.0
 21
9.0
 12
0.0
 22
0.0
 32
0.0
 14
0.0
 24
0.0
 34
0.0
 15
0.0
 25
0.0
 35
0.0
146
0.0
 13
0.0
 23
0.0
 33
0.0
 16
1.0
 26
0.0
 36
0.0
 17
0.0
 27
1.0
 37
0.0
 76
     0
330
2
331
29
  0
MATERIAL
  5
3C
102
{ACAD_XDICTIONARY
360
3D
102
}
102
{ACAD_REACTORS
330
B
102
}
330
B
100
AcDbMaterial
  1
ByBlock
 72
     0
 43
0.0208333333333333
 43
0.0
 43
0.0
 43
0.0
 43
0.0
 43
0.0208333333333333
 43
0.0
 43
0.0
 43
0.0
 43
0.0
 43
1.0
 43
0.0
 43
0.0
 43
0.0
 43
0.0
 43
1.0
 77
     0
 47
0.0208333333333333
 47
0.0
 47
0.0
 47
0.0
 47
0.0
 47
0.0208333333333333
 47
0.0
 47
0.0
 47
0.0
 47
0.0
 47
1.0
 47
0.0
 47
0.0
 47
0.0
 47
0.0
 47
1.0
171
     0
 49
0.0208333333333333
 49
0.0
 49
0.0
 49
0.0
 49
0.0
 49
0.0208333333333333
 49
0.0
 49
0.0
 49
0.0
 49
0.0
 49
1.0
 49
0.0
 49
0.0
 49
0.0
 49
0.0
 49
1.0
175
     0
142
0.0208333333333333
142
0.0
142
0.0
142
0.0
142
0.0
142
0.0208333333333333
142
0.0
142
0.0
142
0.0
142
0.0
142
1.0
142
0.0
142
0.0
142
0.0
142
0.0
142
1.0
179
     0
144
0.0208333333333333
144
0.0
144
0.0
144
0.0
144
0.0
144
0.0208333333333333
144
0.0
144
0.0
144
0.0
144
0.0
144
1.0
144
0.0
144
0.0
144
0.0
144
0.0
144
1.0
147
0.0208333333333333
147
0.0
147
0.0
147
0.0
147
0.0
147
0.0208333333333333
147
0.0
147
0.0
147
0.0
147
0.0
147
1.0
147
0.0
147
0.0
147
0.0
147
0.0
147
1.0
  0
MATERIAL
  5
34
102
{ACAD_XDICTIONARY
360
35
102
}
102
{ACAD_REACTORS
330
B
102
}
330
B
100
AcDbMaterial
  1
ByLayer
 72
     0
 43
0.0208333333333333
 43
0.0
 43
0.0
 43
0.0
 43
0.0
 43
0.0208333333333333
 43
0.0
 43
0.0
 43
0.0
 43
0.0
 43
1.0
 43
0.0
 43
0.0
 43
0.0
 43
0.0
 43
1.0
 77
     0
 47
0.0208333333333333
 47
0.0
 47
0.0
 47
0.0
 47
0.0
 47
0.0208333333333333
 47
0.0
 47
0.0
 47
0.0
 47
0.0
 47
1.0
 47
0.0
 47
0.0
 47
0.0
 47
0.0
 47
1.0
171
     0
 49
0.0208333333333333
 49
0.0
 49
0.0
 49
0.0
 49
0.0
 49
0.0208333333333333
 49
0.0
 49
0.0
 49
0.0
 49
0.0
 49
1.0
 49
0.0
 49
0.0
 49
0.0
 49
0.0
 49
1.0
175
     0
142
0.0208333333333333
142
0.0
142
0.0
142
0.0
142
0.0
142
0.0208333333333333
142
0.0
142
0.0
142
0.0
142
0.0
142
1.0
142
0.0
142
0.0
142
0.0
142
0.0
142
1.0
179
     0
144
0.0208333333333333
144
0.0
144
0.0
144
0.0
144
0.0
144
0.0208333333333333
144
0.0
144
0.0
144
0.0
144
0.0
144
1.0
144
0.0
144
0.0
144
0.0
144
0.0
144
1.0
147
0.0208333333333333
147
0.0
147
0.0
147
0.0
147
0.0
147
0.0208333333333333
147
0.0
147
0.0
147
0.0
147
0.0
147
1.0
147
0.0
147
0.0
147
0.0
147
0.0
147
1.0
  0
MATERIAL
  5
A
102
{ACAD_XDICTIONARY
360
C
102
}
102
{ACAD_REACTORS
330
B
102
}
330
B
100
AcDbMaterial
  1
Global
 72
     0
 43
0.0208333333333333
 43
0.0
 43
0.0
 43
0.0
 43
0.0
 43
0.0208333333333333
 43
0.0
 43
0.0
 43
0.0
 43
0.0
 43
1.0
 43
0.0
 43
0.0
 43
0.0
 43
0.0
 43
1.0
 77
     0
 47
0.0208333333333333
 47
0.0
 47
0.0
 47
0.0
 47
0.0
 47
0.0208333333333333
 47
0.0
 47
0.0
 47
0.0
 47
0.0
 47
1.0
 47
0.0
 47
0.0
 47
0.0
 47
0.0
 47
1.0
171
     0
 49
0.0208333333333333
 49
0.0
 49
0.0
 49
0.0
 49
0.0
 49
0.0208333333333333
 49
0.0
 49
0.0
 49
0.0
 49
0.0
 49
1.0
 49
0.0
 49
0.0
 49
0.0
 49
0.0
 49
1.0
175
     0
142
0.0208333333333333
142
0.0
142
0.0
142
0.0
142
0.0
142
0.0208333333333333
142
0.0
142
0.0
142
0.0
142
0.0
142
1.0
142
0.0
142
0.0
142
0.0
142
0.0
142
1.0
179
     0
144
0.0208333333333333
144
0.0
144
0.0
144
0.0
144
0.0
144
0.0208333333333333
144
0.0
144
0.0
144
0.0
144
0.0
144
1.0
144
0.0
144
0.0
144
0.0
144
0.0
144
1.0
147
0.0208333333333333
147
0.0
147
0.0
147
0.0
147
0.0
147
0.0208333333333333
147
0.0
147
0.0
147
0.0
147
0.0
147
1.0
147
0.0
147
0.0
147
0.0
147
0.0
147
1.0
  0
MLEADERSTYLE
  5
19F
102
{ACAD_REACTORS
330
47
102
}
330
47
100
AcDbMLeaderStyle
170
     2
171
     1
172
     0
 90
        2
 40
0.0
 41
0.0
173
     1
 91
-1056964608
340
24
 92
       -2
290
     1
 42
2.0
291
     1
 43
0.36
  3
Standard
 44
4.0
300

342
21
174
     1
178
     6
175
     1
176
     0
 93
-1056964608
 45
4.0
292
     0
297
     0
 46
4.0
 94
-1056964608
 47
1.0
 49
1.0
140
1.0
293
     1
141
0.0
294
     1
177
     0
142
1.0
295
     0
296
     0
143
0.125
1001
ACAD_MLEADERVER
1070
     2
  0
MLINESTYLE
  5
48
102
{ACAD_REACTORS
330
32
102
}
330
32
100
AcDbMlineStyle
  2
STANDARD
 70
     0
  3

 62
   256
 51
90.0
 52
90.0
 71
     2
 49
0.5
 62
   256
  6
BYLAYER
 49
-0.5
 62
   256
  6
BYLAYER
  0
ACDBPLACEHOLDER
  5
7
102
{ACAD_REACTORS
330
8
102
}
330
8
  0
SCALE
  5
4D
102
{ACAD_REACTORS
330
45
102
}
330
45
100
AcDbScale
 70
     0
300
1:1
140
1.0
141
1.0
290
     1
  0
SCALE
  5
4E
102
{ACAD_REACTORS
330
45
102
}
330
45
100
AcDbScale
 70
     0
300
1:2
140
1.0
141
2.0
290
     0
  0
SCALE
  5
4F
102
{ACAD_REACTORS
330
45
102
}
330
45
100
AcDbScale
 70
     0
300
1:4
140
1.0
141
4.0
290
     0
  0
SCALE
  5
50
102
{ACAD_REACTORS
330
45
102
}
330
45
100
AcDbScale
 70
     0
300
1:5
140
1.0
141
5.0
290
     0
  0
SCALE
  5
51
102
{ACAD_REACTORS
330
45
102
}
330
45
100
AcDbScale
 70
     0
300
1:8
140
1.0
141
8.0
290
     0
  0
SCALE
  5
52
102
{ACAD_REACTORS
330
45
102
}
330
45
100
AcDbScale
 70
     0
300
1:10
140
1.0
141
10.0
290
     0
  0
SCALE
  5
53
102
{ACAD_REACTORS
330
45
102
}
330
45
100
AcDbScale
 70
     0
300
1:16
140
1.0
141
16.0
290
     0
  0
SCALE
  5
54
102
{ACAD_REACTORS
330
45
102
}
330
45
100
AcDbScale
 70
     0
300
1:20
140
1.0
141
20.0
290
     0
  0
SCALE
  5
55
102
{ACAD_REACTORS
330
45
102
}
330
45
100
AcDbScale
 70
     0
300
1:30
140
1.0
141
30.0
290
     0
  0
SCALE
  5
56
102
{ACAD_REACTORS
330
45
102
}
330
45
100
AcDbScale
 70
     0
300
1:40
140
1.0
141
40.0
290
     0
  0
SCALE
  5
57
102
{ACAD_REACTORS
330
45
102
}
330
45
100
AcDbScale
 70
     0
300
1:50
140
1.0
141
50.0
290
     0
  0
SCALE
  5
58
102
{ACAD_REACTORS
330
45
102
}
330
45
100
AcDbScale
 70
     0
300
1:100
140
1.0
141
100.0
290
     0
  0
SCALE
  5
59
102
{ACAD_REACTORS
330
45
102
}
330
45
100
AcDbScale
 70
     0
300
2:1
140
2.0
141
1.0
290
     0
  0
SCALE
  5
5A
102
{ACAD_REACTORS
330
45
102
}
330
45
100
AcDbScale
 70
     0
300
4:1
140
4.0
141
1.0
290
     0
  0
SCALE
  5
5B
102
{ACAD_REACTORS
330
45
102
}
330
45
100
AcDbScale
 70
     0
300
8:1
140
8.0
141
1.0
290
     0
  0
SCALE
  5
5C
102
{ACAD_REACTORS
330
45
102
}
330
45
100
AcDbScale
 70
     0
300
10:1
140
10.0
141
1.0
290
     0
  0
SCALE
  5
5D
102
{ACAD_REACTORS
330
45
102
}
330
45
100
AcDbScale
 70
     0
300
100:1
140
100.0
141
1.0
290
     0
  0
SCALE
  5
5E
102
{ACAD_REACTORS
330
45
102
}
330
45
100
AcDbScale
 70
     0
300
1/128" = 1'-0"
140
0.0078125
141
12.0
290
     0
  0
SCALE
  5
5F
102
{ACAD_REACTORS
330
45
102
}
330
45
100
AcDbScale
 70
     0
300
1/64" = 1'-0"
140
0.015625
141
12.0
290
     0
  0
SCALE
  5
60
102
{ACAD_REACTORS
330
45
102
}
330
45
100
AcDbScale
 70
     0
300
1/32" = 1'-0"
140
0.03125
141
12.0
290
     0
  0
SCALE
  5
61
102
{ACAD_REACTORS
330
45
102
}
330
45
100
AcDbScale
 70
     0
300
1/16" = 1'-0"
140
0.0625
141
12.0
290
     0
  0
SCALE
  5
62
102
{ACAD_REACTORS
330
45
102
}
330
45
100
AcDbScale
 70
     0
300
3/32" = 1'-0"
140
0.09375
141
12.0
290
     0
  0
SCALE
  5
63
102
{ACAD_REACTORS
330
45
102
}
330
45
100
AcDbScale
 70
     0
300
1/8" = 1'-0"
140
0.125
141
12.0
290
     0
  0
SCALE
  5
64
102
{ACAD_REACTORS
330
45
102
}
330
45
100
AcDbScale
 70
     0
300
3/16" = 1'-0"
140
0.1875
141
12.0
290
     0
  0
SCALE
  5
65
102
{ACAD_REACTORS
330
45
102
}
330
45
100
AcDbScale
 70
     0
300
1/4" = 1'-0"
140
0.25
141
12.0
290
     0
  0
SCALE
  5
66
102
{ACAD_REACTORS
330
45
102
}
330
45
100
AcDbScale
 70
     0
300
3/8" = 1'-0"
140
0.375
141
12.0
290
     0
  0
SCALE
  5
67
102
{ACAD_REACTORS
330
45
102
}
330
45
100
AcDbScale
 70
     0
300
1/2" = 1'-0"
140
0.5
141
12.0
290
     0
  0
SCALE
  5
68
102
{ACAD_REACTORS
330
45
102
}
330
45
100
AcDbScale
 70
     0
300
3/4" = 1'-0"
140
0.75
141
12.0
290
     0
  0
SCALE
  5
69
102
{ACAD_REACTORS
330
45
102
}
330
45
100
AcDbScale
 70
     0
300
1" = 1'-0"
140
1.0
141
12.0
290
     0
  0
SCALE
  5
6A
102
{ACAD_REACTORS
330
45
102
}
330
45
100
AcDbScale
 70
     0
300
1-1/2" = 1'-0"
140
1.5
141
12.0
290
     0
  0
SCALE
  5
6B
102
{ACAD_REACTORS
330
45
102
}
330
45
100
AcDbScale
 70
     0
300
3" = 1'-0"
140
3.0
141
12.0
290
     0
  0
SCALE
  5
6C
102
{ACAD_REACTORS
330
45
102
}
330
45
100
AcDbScale
 70
     0
300
6" = 1'-0"
140
6.0
141
12.0
290
     0
  0
SCALE
  5
6D
102
{ACAD_REACTORS
330
45
102
}
330
45
100
AcDbScale
 70
     0
300
1'-0" = 1'-0"
140
12.0
141
12.0
290
     0
  0
TABLESTYLE
  5
49
102
{ACAD_XDICTIONARY
360
4A
102
}
102
{ACAD_REACTORS
330
46
102
}
330
46
100
AcDbTableStyle
  3
Standard
 70
     0
 71
     0
 40
0.06
 41
0.06
280
     0
281
     0
  7
STANDARD
140
0.18
170
     2
 62
     0
 63
     7
283
     0
274
    -2
284
     1
 64
     0
275
    -2
285
     1
 65
     0
276
    -2
286
     1
 66
     0
277
    -2
287
     1
 67
     0
278
    -2
288
     1
 68
     0
279
    -2
289
     1
 69
     0
  7
STANDARD
140
0.25
170
     5
 62
     0
 63
     7
283
     0
274
    -2
284
     1
 64
     0
275
    -2
285
     1
 65
     0
276
    -2
286
     1
 66
     0
277
    -2
287
     1
 67
     0
278
    -2
288
     1
 68
     0
279
    -2
289
     1
 69
     0
  7
STANDARD
140
0.18
170
     5
 62
     0
 63
     7
283
     0
274
    -2
284
     1
 64
     0
275
    -2
285
     1
 65
     0
276
    -2
286
     1
 66
     0
277
    -2
287
     1
 67
     0
278
    -2
288
     1
 68
     0
279
    -2
289
     1
 69
     0
  0
VISUALSTYLE
  5
2A
102
{ACAD_XDICTIONARY
360
1B6
102
}
102
{ACAD_REACTORS
330
2B
102
}
330
2B
100
AcDbVisualStyle
  2
2dWireframe
 70
     4
 71
     0
 72
     2
 73
     0
 90
        0
 40
-0.6
 41
-30.0
 62
     5
 63
     7
 74
     1
 91
        4
 64
     7
 65
   257
 75
     1
175
     1
 42
1.0
 92
        0
 66
   257
 43
1.0
 76
     1
 77
     6
 78
     2
 67
     7
 79
     5
170
     0
171
     0
290
     0
174
     0
 93
        1
 44
0.0
173
     0
291
     0
 45
0.0
1001
ACAD
1000
AcDbSavedByObjectVersion
1070
     0
  0
VISUALSTYLE
  5
18E
102
{ACAD_XDICTIONARY
360
1C7
102
}
102
{ACAD_REACTORS
330
2B
102
}
330
2B
100
AcDbVisualStyle
  2
Basic
 70
     7
 71
     1
 72
     0
 73
     1
 90
        0
 40
-0.6
 41
-30.0
 62
     5
 63
     7
 74
     0
 91
        4
 64
     7
 65
   257
 75
     1
175
     1
 42
1.0
 92
        8
 66
     7
 43
1.0
 76
     1
 77
     6
 78
     2
 67
     7
 79
     5
170
     0
171
     0
290
     0
174
     0
 93
        1
 44
0.0
173
     0
291
     1
 45
0.0
1001
ACAD
1000
AcDbSavedByObjectVersion
1070
     0
  0
VISUALSTYLE
  5
192
102
{ACAD_XDICTIONARY
360
1CF
102
}
102
{ACAD_REACTORS
330
2B
102
}
330
2B
100
AcDbVisualStyle
  2
Brighten
 70
    12
 71
     2
 72
     2
 73
     0
 90
        0
 40
-0.6
 41
-30.0
 62
     5
 63
     7
 74
     1
 91
        4
 64
     7
 65
   257
 75
     1
175
     1
 42
1.0
 92
        8
 66
     7
 43
1.0
 76
     1
 77
     6
 78
     2
 67
     7
 79
     5
170
     0
171
     0
290
     0
174
     0
 93
        1
 44
50.0
173
     0
291
     1
 45
0.0
1001
ACAD
1000
AcDbSavedByObjectVersion
1070
     0
  0
VISUALSTYLE
  5
196
102
{ACAD_XDICTIONARY
360
1D7
102
}
102
{ACAD_REACTORS
330
2B
102
}
330
2B
100
AcDbVisualStyle
  2
ColorChange
 70
    16
 71
     2
 72
     2
 73
     3
 90
        0
 40
-0.6
 41
-30.0
 62
     5
 63
     8
 74
     1
 91
        4
 64
     7
 65
   257
 75
     1
175
     1
 42
1.0
 92
        8
 66
     8
 43
1.0
 76
     1
 77
     6
 78
     2
 67
     7
 79
     5
170
     0
171
     0
290
     0
174
     0
 93
        1
 44
0.0
173
     0
291
     1
 45
0.0
1001
ACAD
1000
AcDbSavedByObjectVersion
1070
     0
  0
VISUALSTYLE
  5
190
102
{ACAD_XDICTIONARY
360
1CB
102
}
102
{ACAD_REACTORS
330
2B
102
}
330
2B
100
AcDbVisualStyle
  2
Conceptual
 70
     9
 71
     3
 72
     2
 73
     0
 90
        0
 40
-0.6
 41
-30.0
 62
     5
 63
     7
 74
     2
 91
        2
 64
     7
 65
   257
 75
     1
175
     1
 42
179.0
 92
        8
 66
     7
 43
1.0
 76
     1
 77
     6
 78
     2
 67
     7
 79
     3
170
     0
171
     0
290
     0
174
     0
 93
        1
 44
0.0
173
     0
291
     0
 45
0.0
1001
ACAD
1000
AcDbSavedByObjectVersion
1070
     0
  0
VISUALSTYLE
  5
191
102
{ACAD_XDICTIONARY
360
1CD
102
}
102
{ACAD_REACTORS
330
2B
102
}
330
2B
100
AcDbVisualStyle
  2
Dim
 70
    11
 71
     2
 72
     2
 73
     0
 90
        0
 40
-0.6
 41
-30.0
 62
     5
 63
     7
 74
     1
 91
        4
 64
     7
 65
   257
 75
     1
175
     1
 42
1.0
 92
        8
 66
     7
 43
1.0
 76
     1
 77
     6
 78
     2
 67
     7
 79
     5
170
     0
171
     0
290
     0
174
     0
 93
        1
 44
-50.0
173
     0
291
     1
 45
0.0
1001
ACAD
1000
AcDbSavedByObjectVersion
1070
     0
  0
VISUALSTYLE
  5
19E
102
{ACAD_XDICTIONARY
360
1E7
102
}
102
{ACAD_REACTORS
330
2B
102
}
330
2B
100
AcDbVisualStyle
  2
EdgeColorOff
 70
    22
 71
     2
 72
     2
 73
     0
 90
        0
 40
-0.6
 41
-30.0
 62
     5
 63
     7
 74
     1
 91
        4
 64
     7
 65
   257
 75
     1
175
     1
 42
1.0
 92
        8
 66
     7
 43
1.0
 76
     1
 77
     6
 78
     2
 67
     7
 79
     5
170
     0
171
     0
290
     0
174
     0
 93
        1
 44
0.0
173
     0
291
     1
 45
0.0
1001
ACAD
1000
AcDbSavedByObjectVersion
1070
     0
  0
VISUALSTYLE
  5
195
102
{ACAD_XDICTIONARY
360
1D5
102
}
102
{ACAD_REACTORS
330
2B
102
}
330
2B
100
AcDbVisualStyle
  2
Facepattern
 70
    15
 71
     2
 72
     2
 73
     0
 90
        0
 40
-0.6
 41
-30.0
 62
     5
 63
     7
 74
     1
 91
        4
 64
     7
 65
   257
 75
     1
175
     1
 42
1.0
 92
        8
 66
     7
 43
1.0
 76
     1
 77
     6
 78
     2
 67
     7
 79
     5
170
     0
171
     0
290
     0
174
     0
 93
        1
 44
0.0
173
     0
291
     1
 45
0.0
1001
ACAD
1000
AcDbSavedByObjectVersion
1070
     0
  0
VISUALSTYLE
  5
18A
102
{ACAD_XDICTIONARY
360
1BF
102
}
102
{ACAD_REACTORS
330
2B
102
}
330
2B
100
AcDbVisualStyle
  2
Flat
 70
     0
 71
     2
 72
     1
 73
     1
 90
        2
 40
-0.6
 41
30.0
 62
     5
 63
     7
 74
     0
 91
        0
 64
     7
 65
   257
 75
     1
175
     1
 42
1.0
 92
        8
 66
     7
 43
1.0
 76
     1
 77
     6
 78
     2
 67
     7
 79
     5
170
     0
171
     0
290
     0
174
     0
 93
       13
 44
0.0
173
     0
291
     1
 45
0.0
1001
ACAD
1000
AcDbSavedByObjectVersion
1070
     0
  0
VISUALSTYLE
  5
18B
102
{ACAD_XDICTIONARY
360
1C1
102
}
102
{ACAD_REACTORS
330
2B
102
}
330
2B
100
AcDbVisualStyle
  2
FlatWithEdges
 70
     1
 71
     2
 72
     1
 73
     1
 90
        2
 40
-0.6
 41
30.0
 62
     5
 63
     7
 74
     1
 91
        0
 64
     7
 65
   257
 75
     1
175
     1
 42
1.0
 92
        0
 66
   257
 43
1.0
 76
     1
 77
     6
 78
     2
 67
     7
 79
     5
170
     0
171
     0
290
     0
174
     0
 93
       13
 44
0.0
173
     0
291
     1
 45
0.0
1001
ACAD
1000
AcDbSavedByObjectVersion
1070
     0
  0
VISUALSTYLE
  5
18C
102
{ACAD_XDICTIONARY
360
1C3
102
}
102
{ACAD_REACTORS
330
2B
102
}
330
2B
100
AcDbVisualStyle
  2
Gouraud
 70
     2
 71
     2
 72
     2
 73
     1
 90
        2
 40
-0.6
 41
30.0
 62
     5
 63
     7
 74
     0
 91
        0
 64
     7
 65
   257
 75
     1
175
     1
 42
1.0
 92
        0
 66
     7
 43
1.0
 76
     1
 77
     6
 78
     2
 67
     7
 79
     5
170
     0
171
     0
290
     0
174
     0
 93
       13
 44
0.0
173
     0
291
     1
 45
0.0
1001
ACAD
1000
AcDbSavedByObjectVersion
1070
     0
  0
VISUALSTYLE
  5
18D
102
{ACAD_XDICTIONARY
360
1C5
102
}
102
{ACAD_REACTORS
330
2B
102
}
330
2B
100
AcDbVisualStyle
  2
GouraudWithEdges
 70
     3
 71
     2
 72
     2
 73
     1
 90
        2
 40
-0.6
 41
30.0
 62
     5
 63
     7
 74
     1
 91
        0
 64
     7
 65
   257
 75
     1
175
     1
 42
1.0
 92
        0
 66
   257
 43
1.0
 76
     1
 77
     6
 78
     2
 67
     7
 79
     5
170
     0
171
     0
290
     0
174
     0
 93
       13
 44
0.0
173
     0
291
     1
 45
0.0
1001
ACAD
1000
AcDbSavedByObjectVersion
1070
     0
  0
VISUALSTYLE
  5
18F
102
{ACAD_XDICTIONARY
360
1C9
102
}
102
{ACAD_REACTORS
330
2B
102
}
330
2B
100
AcDbVisualStyle
  2
Hidden
 70
     6
 71
     1
 72
     2
 73
     2
 90
        0
 40
-0.6
 41
-30.0
 62
     5
 63
     7
 74
     2
 91
        2
 64
     7
 65
   257
 75
     2
175
     1
 42
40.0
 92
        0
 66
   257
 43
1.0
 76
     1
 77
     6
 78
     2
 67
     7
 79
     3
170
     0
171
     0
290
     0
174
     0
 93
        1
 44
0.0
173
     0
291
     0
 45
0.0
1001
ACAD
1000
AcDbSavedByObjectVersion
1070
     0
  0
VISUALSTYLE
  5
19C
102
{ACAD_XDICTIONARY
360
1E3
102
}
102
{ACAD_REACTORS
330
2B
102
}
330
2B
100
AcDbVisualStyle
  2
JitterOff
 70
    20
 71
     2
 72
     2
 73
     0
 90
        0
 40
-0.6
 41
-30.0
 62
     5
 63
     7
 74
     1
 91
        4
 64
     7
 65
   257
 75
     1
175
     1
 42
1.0
 92
       10
 66
     7
 43
1.0
 76
     1
 77
     6
 78
     2
 67
     7
 79
     5
170
     0
171
     0
290
     0
174
     0
 93
        1
 44
0.0
173
     0
291
     1
 45
0.0
1001
ACAD
1000
AcDbSavedByObjectVersion
1070
     0
  0
VISUALSTYLE
  5
194
102
{ACAD_XDICTIONARY
360
1D3
102
}
102
{ACAD_REACTORS
330
2B
102
}
330
2B
100
AcDbVisualStyle
  2
Linepattern
 70
    14
 71
     2
 72
     2
 73
     0
 90
        0
 40
-0.6
 41
-30.0
 62
     5
 63
     7
 74
     1
 91
        4
 64
     7
 65
   257
 75
     7
175
     7
 42
1.0
 92
        8
 66
     7
 43
1.0
 76
     1
 77
     6
 78
     2
 67
     7
 79
     5
170
     0
171
     0
290
     0
174
     0
 93
        1
 44
0.0
173
     0
291
     1
 45
0.0
1001
ACAD
1000
AcDbSavedByObjectVersion
1070
     0
  0
VISUALSTYLE
  5
19D
102
{ACAD_XDICTIONARY
360
1E5
102
}
102
{ACAD_REACTORS
330
2B
102
}
330
2B
100
AcDbVisualStyle
  2
OverhangOff
 70
    21
 71
     2
 72
     2
 73
     0
 90
        0
 40
-0.6
 41
-30.0
 62
     5
 63
     7
 74
     1
 91
        4
 64
     7
 65
   257
 75
     1
175
     1
 42
1.0
 92
        9
 66
     7
 43
1.0
 76
     1
 77
     6
 78
     2
 67
     7
 79
     5
170
     0
171
     0
290
     0
174
     0
 93
        1
 44
0.0
173
     0
291
     1
 45
0.0
1001
ACAD
1000
AcDbSavedByObjectVersion
1070
     0
  0
VISUALSTYLE
  5
4B
102
{ACAD_XDICTIONARY
360
1BB
102
}
102
{ACAD_REACTORS
330
2B
102
}
330
2B
100
AcDbVisualStyle
  2
Realistic
 70
     8
 71
     2
 72
     2
 73
     0
 90
        0
 40
-0.6
 41
-30.0
 62
     5
 63
     7
 74
     1
 91
        0
 64
     7
 65
   257
 75
     1
175
     1
 42
1.0
 92
        8
 66
     8
 43
1.0
 76
     1
 77
     6
 78
     2
 67
     7
 79
     5
170
     0
171
     0
290
     0
174
     0
 93
       13
 44
0.0
173
     0
291
     0
 45
0.0
1001
ACAD
1000
AcDbSavedByObjectVersion
1070
     0
  0
VISUALSTYLE
  5
19B
102
{ACAD_XDICTIONARY
360
1E1
102
}
102
{ACAD_REACTORS
330
2B
102
}
330
2B
100
AcDbVisualStyle
  2
Shaded
 70
    27
 71
     2
 72
     2
 73
     1
 90
        2
 40
-0.6
 41
30.0
 62
     5
 63
     7
 74
     0
 91
        4
 64
     7
 65
   257
 75
     1
175
     1
 42
1.0
 92
        8
 66
   257
 43
1.0
 76
     1
 77
     6
 78
     2
 67
     8
 79
     3
170
     0
171
     0
290
     0
174
     0
 93
        5
 44
0.0
173
     0
291
     0
 45
0.0
1001
ACAD
1000
AcDbSavedByObjectVersion
1070
     0
  0
VISUALSTYLE
  5
19A
102
{ACAD_XDICTIONARY
360
1DF
102
}
102
{ACAD_REACTORS
330
2B
102
}
330
2B
100
AcDbVisualStyle
  2
Shaded with edges
 70
    26
 71
     2
 72
     2
 73
     1
 90
        2
 40
-0.6
 41
30.0
 62
     5
 63
     7
 74
     1
 91
       10
 64
     7
 65
   257
 75
     2
175
     1
 42
1.0
 92
        8
 66
   257
 43
1.0
 76
     1
 77
     6
 78
     2
 67
     7
 79
     3
170
     0
171
     0
290
     0
174
     0
 93
        5
 44
0.0
173
     0
291
     0
 45
0.0
1001
ACAD
1000
AcDbSavedByObjectVersion
1070
     0
  0
VISUALSTYLE
  5
197
102
{ACAD_XDICTIONARY
360
1D9
102
}
102
{ACAD_REACTORS
330
2B
102
}
330
2B
100
AcDbVisualStyle
  2
Shades of Gray
 70
    23
 71
     2
 72
     2
 73
     3
 90
        0
 40
-0.6
 41
-30.0
 62
     5
 63
     7
 74
     2
 91
        2
 64
     7
 65
     7
 75
     1
175
     1
 42
40.0
 92
        8
 66
     7
 43
1.0
 76
     1
 77
     6
 78
     2
 67
     7
 79
     3
170
     0
171
     0
290
     0
174
     0
 93
        1
 44
0.0
173
     0
291
     0
 45
0.0
1001
ACAD
1000
AcDbSavedByObjectVersion
1070
     0
  0
VISUALSTYLE
  5
198
102
{ACAD_XDICTIONARY
360
1DB
102
}
102
{ACAD_REACTORS
330
2B
102
}
330
2B
100
AcDbVisualStyle
  2
Sketchy
 70
    24
 71
     1
 72
     2
 73
     2
 90
        0
 40
-0.6
 41
-30.0
 62
     5
 63
     7
 74
     2
 91
        2
 64
     7
 65
     7
 75
     1
175
     1
 42
40.0
 92
       11
 66
     7
 43
1.0
 76
     1
 77
     6
 78
     2
 67
     7
 79
     6
170
     0
171
     0
290
     0
174
     0
 93
        1
 44
0.0
173
     0
291
     0
 45
0.0
1001
ACAD
1000
AcDbSavedByObjectVersion
1070
     0
  0
VISUALSTYLE
  5
193
102
{ACAD_XDICTIONARY
360
1D1
102
}
102
{ACAD_REACTORS
330
2B
102
}
330
2B
100
AcDbVisualStyle
  2
Thicken
 70
    13
 71
     2
 72
     2
 73
     0
 90
        0
 40
-0.6
 41
-30.0
 62
     5
 63
     7
 74
     1
 91
        4
 64
     7
 65
   257
 75
     1
175
     1
 42
1.0
 92
       12
 66
     7
 43
1.0
 76
     1
 77
     6
 78
     2
 67
     7
 79
     5
170
     0
171
     0
290
     0
174
     0
 93
        1
 44
0.0
173
     0
291
     1
 45
0.0
1001
ACAD
1000
AcDbSavedByObjectVersion
1070
     0
  0
VISUALSTYLE
  5
4C
102
{ACAD_XDICTIONARY
360
1BD
102
}
102
{ACAD_REACTORS
330
2B
102
}
330
2B
100
AcDbVisualStyle
  2
Wireframe
 70
     5
 71
     0
 72
     2
 73
     0
 90
        0
 40
-0.6
 41
-30.0
 62
     5
 63
     7
 74
     1
 91
        4
 64
     7
 65
   257
 75
     1
175
     1
 42
1.0
 92
        0
 66
   257
 43
1.0
 76
     1
 77
     6
 78
     2
 67
     7
 79
     3
170
     0
171
     0
290
     0
174
     0
 93
        1
 44
0.0
173
     0
291
     0
 45
0.0
1001
ACAD
1000
AcDbSavedByObjectVersion
1070
     0
  0
VISUALSTYLE
  5
199
102
{ACAD_XDICTIONARY
360
1DD
102
}
102
{ACAD_REACTORS
330
2B
102
}
330
2B
100
AcDbVisualStyle
  2
X-Ray
 70
    25
 71
     2
 72
     2
 73
     1
 90
        1
 40
0.5
 41
-30.0
 62
     5
 63
     7
 74
     1
 91
        0
 64
     7
 65
   257
 75
     1
175
     1
 42
1.0
 92
        8
 66
     7
 43
1.0
 76
     1
 77
     6
 78
     2
 67
     7
 79
     3
170
     0
171
     0
290
     0
174
     0
 93
       13
 44
0.0
173
     0
291
     0
 45
0.0
1001
ACAD
1000
AcDbSavedByObjectVersion
1070
     0
  0
DICTIONARYVAR
  5
185
102
{ACAD_REACTORS
330
181
102
}
330
181
100
DictionaryVariables
280
     0
  1
1:1
  0
DICTIONARYVAR
  5
183
102
{ACAD_REACTORS
330
181
102
}
330
181
100
DictionaryVariables
280
     0
  1
STANDARD
  0
DICTIONARYVAR
  5
182
102
{ACAD_REACTORS
330
181
102
}
330
181
100
DictionaryVariables
280
     0
  1
STANDARD
  0
DICTIONARYVAR
  5
1A8
102
{ACAD_REACTORS
330
181
102
}
330
181
100
DictionaryVariables
280
     0
  1
1
  0
DICTIONARYVAR
  5
1A7
102
{ACAD_REACTORS
330
181
102
}
330
181
100
DictionaryVariables
280
     0
  1
1
  0
DICTIONARYVAR
  5
1A6
102
{ACAD_REACTORS
330
181
102
}
330
181
100
DictionaryVariables
280
     0
  1
0
  0
DICTIONARYVAR
  5
187
102
{ACAD_REACTORS
330
181
102
}
330
181
100
DictionaryVariables
280
     0
  1
1
  0
DICTIONARYVAR
  5
188
102
{ACAD_REACTORS
330
181
102
}
330
181
100
DictionaryVariables
280
     0
  1
15
  0
DICTIONARYVAR
  5
186
102
{ACAD_REACTORS
330
181
102
}
330
181
100
DictionaryVariables
280
     0
  1
0
  0
DICTIONARYVAR
  5
184
102
{ACAD_REACTORS
330
181
102
}
330
181
100
DictionaryVariables
280
     0
  1
0
  0
DICTIONARYVAR
  5
1A5
102
{ACAD_REACTORS
330
181
102
}
330
181
100
DictionaryVariables
280
     0
  1
127
  0
DICTIONARYVAR
  5
1A9
102
{ACAD_REACTORS
330
181
102
}
330
181
100
DictionaryVariables
280
     0
  1
2
  0
DICTIONARY
  5
1B4
330
1A
100
AcDbDictionary
280
     1
281
     1
  3
ACAD_XREC_ROUNDTRIP
360
1B5
  0
DICTIONARY
  5
1B2
330
15
100
AcDbDictionary
280
     1
281
     1
  3
ACAD_XREC_ROUNDTRIP
360
1B3
  0
DICTIONARY
  5
3D
330
3C
100
AcDbDictionary
280
     1
281
     1
  3
ACAD_XREC_ROUNDTRIP
360
1B9
  3
BUMPTILE
360
3E
  3
DIFFUSETILE
360
3F
  3
OPACITYTILE
360
40
  3
REFLECTIONTILE
360
41
  3
REFRACTIONTILE
360
42
  3
SPECULARTILE
360
43
  0
DICTIONARY
  5
35
330
34
100
AcDbDictionary
280
     1
281
     1
  3
ACAD_XREC_ROUNDTRIP
360
1B8
  3
BUMPTILE
360
36
  3
DIFFUSETILE
360
37
  3
OPACITYTILE
360
38
  3
REFLECTIONTILE
360
39
  3
REFRACTIONTILE
360
3A
  3
SPECULARTILE
360
3B
  0
DICTIONARY
  5
C
330
A
100
AcDbDictionary
280
     1
281
     1
  3
ACAD_XREC_ROUNDTRIP
360
1B1
  3
BUMPTILE
360
D
  3
DIFFUSETILE
360
E
  3
OPACITYTILE
360
F
  3
REFLECTIONTILE
360
10
  3
REFRACTIONTILE
360
11
  3
SPECULARTILE
360
12
  0
DICTIONARY
  5
4A
330
49
100
AcDbDictionary
280
     1
281
     1
  3
ACAD_ROUNDTRIP_2008_TABLESTYLE_CELLSTYLEMAP
360
1AA
  3
ACAD_XREC_ROUNDTRIP
360
1BA
  0
DICTIONARY
  5
1B6
330
2A
100
AcDbDictionary
280
     1
281
     1
  3
ACAD_XREC_ROUNDTRIP
360
1B7
  0
DICTIONARY
  5
1C7
330
18E
100
AcDbDictionary
280
     1
281
     1
  3
ACAD_XREC_ROUNDTRIP
360
1C8
  0
DICTIONARY
  5
1CF
330
192
100
AcDbDictionary
280
     1
281
     1
  3
ACAD_XREC_ROUNDTRIP
360
1D0
  0
DICTIONARY
  5
1D7
330
196
100
AcDbDictionary
280
     1
281
     1
  3
ACAD_XREC_ROUNDTRIP
360
1D8
  0
DICTIONARY
  5
1CB
330
190
100
AcDbDictionary
280
     1
281
     1
  3
ACAD_XREC_ROUNDTRIP
360
1CC
  0
DICTIONARY
  5
1CD
330
191
100
AcDbDictionary
280
     1
281
     1
  3
ACAD_XREC_ROUNDTRIP
360
1CE
  0
DICTIONARY
  5
1E7
330
19E
100
AcDbDictionary
280
     1
281
     1
  3
ACAD_XREC_ROUNDTRIP
360
1E8
  0
DICTIONARY
  5
1D5
330
195
100
AcDbDictionary
280
     1
281
     1
  3
ACAD_XREC_ROUNDTRIP
360
1D6
  0
DICTIONARY
  5
1BF
330
18A
100
AcDbDictionary
280
     1
281
     1
  3
ACAD_XREC_ROUNDTRIP
360
1C0
  0
DICTIONARY
  5
1C1
330
18B
100
AcDbDictionary
280
     1
281
     1
  3
ACAD_XREC_ROUNDTRIP
360
1C2
  0
DICTIONARY
  5
1C3
330
18C
100
AcDbDictionary
280
     1
281
     1
  3
ACAD_XREC_ROUNDTRIP
360
1C4
  0
DICTIONARY
  5
1C5
330
18D
100
AcDbDictionary
280
     1
281
     1
  3
ACAD_XREC_ROUNDTRIP
360
1C6
  0
DICTIONARY
  5
1C9
330
18F
100
AcDbDictionary
280
     1
281
     1
  3
ACAD_XREC_ROUNDTRIP
360
1CA
  0
DICTIONARY
  5
1E3
330
19C
100
AcDbDictionary
280
     1
281
     1
  3
ACAD_XREC_ROUNDTRIP
360
1E4
  0
DICTIONARY
  5
1D3
330
194
100
AcDbDictionary
280
     1
281
     1
  3
ACAD_XREC_ROUNDTRIP
360
1D4
  0
DICTIONARY
  5
1E5
330
19D
100
AcDbDictionary
280
     1
281
     1
  3
ACAD_XREC_ROUNDTRIP
360
1E6
  0
DICTIONARY
  5
1BB
330
4B
100
AcDbDictionary
280
     1
281
     1
  3
ACAD_XREC_ROUNDTRIP
360
1BC
  0
DICTIONARY
  5
1E1
330
19B
100
AcDbDictionary
280
     1
281
     1
  3
ACAD_XREC_ROUNDTRIP
360
1E2
  0
DICTIONARY
  5
1DF
330
19A
100
AcDbDictionary
280
     1
281
     1
  3
ACAD_XREC_ROUNDTRIP
360
1E0
  0
DICTIONARY
  5
1D9
330
197
100
AcDbDictionary
280
     1
281
     1
  3
ACAD_XREC_ROUNDTRIP
360
1DA
  0
DICTIONARY
  5
1DB
330
198
100
AcDbDictionary
280
     1
281
     1
  3
ACAD_XREC_ROUNDTRIP
360
1DC
  0
DICTIONARY
  5
1D1
330
193
100
AcDbDictionary
280
     1
281
     1
  3
ACAD_XREC_ROUNDTRIP
360
1D2
  0
DICTIONARY
  5
1BD
330
4C
100
AcDbDictionary
280
     1
281
     1
  3
ACAD_XREC_ROUNDTRIP
360
1BE
  0
DICTIONARY
  5
1DD
330
199
100
AcDbDictionary
280
     1
281
     1
  3
ACAD_XREC_ROUNDTRIP
360
1DE
  0
XRECORD
  5
1B5
102
{ACAD_REACTORS
330
1B4
102
}
330
1B4
100
AcDbXrecord
280
     1
102
SHADEPLOT
 70
     0
102
SHADEPLOTRESLEVEL
 70
     2
102
SHADEPLOTCUSTOMDPI
 70
   300
  0
XRECORD
  5
1B3
102
{ACAD_REACTORS
330
1B2
102
}
330
1B2
100
AcDbXrecord
280
     1
102
SHADEPLOT
 70
     0
102
SHADEPLOTRESLEVEL
 70
     2
102
SHADEPLOTCUSTOMDPI
 70
   300
  0
XRECORD
  5
1B9
102
{ACAD_REACTORS
330
3D
102
}
330
3D
100
AcDbXrecord
280
     1
102
MATERIAL
148
0.0
149
0.0
149
0.0
 93
        0
 94
      127
282
     0
 72
     0
 77
     0
171
     0
175
     0
179
     0
273
     0
  0
XRECORD
  5
3E
102
{ACAD_REACTORS
330
3D
102
}
330
3D
100
AcDbXrecord
280
     1
270
     1
271
     1
  0
XRECORD
  5
3F
102
{ACAD_REACTORS
330
3D
102
}
330
3D
100
AcDbXrecord
280
     1
270
     1
271
     1
  0
XRECORD
  5
40
102
{ACAD_REACTORS
330
3D
102
}
330
3D
100
AcDbXrecord
280
     1
270
     1
271
     1
  0
XRECORD
  5
41
102
{ACAD_REACTORS
330
3D
102
}
330
3D
100
AcDbXrecord
280
     1
270
     1
271
     1
  0
XRECORD
  5
42
102
{ACAD_REACTORS
330
3D
102
}
330
3D
100
AcDbXrecord
280
     1
270
     1
271
     1
  0
XRECORD
  5
43
102
{ACAD_REACTORS
330
3D
102
}
330
3D
100
AcDbXrecord
280
     1
270
     1
271
     1
  0
XRECORD
  5
1B8
102
{ACAD_REACTORS
330
35
102
}
330
35
100
AcDbXrecord
280
     1
102
MATERIAL
148
0.0
149
0.0
149
0.0
 93
        0
 94
      127
282
     0
 72
     0
 77
     0
171
     0
175
     0
179
     0
273
     0
  0
XRECORD
  5
36
102
{ACAD_REACTORS
330
35
102
}
330
35
100
AcDbXrecord
280
     1
270
     1
271
     1
  0
XRECORD
  5
37
102
{ACAD_REACTORS
330
35
102
}
330
35
100
AcDbXrecord
280
     1
270
     1
271
     1
  0
XRECORD
  5
38
102
{ACAD_REACTORS
330
35
102
}
330
35
100
AcDbXrecord
280
     1
270
     1
271
     1
  0
XRECORD
  5
39
102
{ACAD_REACTORS
330
35
102
}
330
35
100
AcDbXrecord
280
     1
270
     1
271
     1
  0
XRECORD
  5
3A
102
{ACAD_REACTORS
330
35
102
}
330
35
100
AcDbXrecord
280
     1
270
     1
271
     1
  0
XRECORD
  5
3B
102
{ACAD_REACTORS
330
35
102
}
330
35
100
AcDbXrecord
280
     1
270
     1
271
     1
  0
XRECORD
  5
1B1
102
{ACAD_REACTORS
330
C
102
}
330
C
100
AcDbXrecord
280
     1
102
MATERIAL
148
0.0
149
0.0
149
0.0
 93
        0
 94
      127
282
     0
 72
     0
 77
     0
171
     0
175
     0
179
     0
273
     0
  0
XRECORD
  5
D
102
{ACAD_REACTORS
330
C
102
}
330
C
100
AcDbXrecord
280
     1
270
     1
271
     1
  0
XRECORD
  5
E
102
{ACAD_REACTORS
330
C
102
}
330
C
100
AcDbXrecord
280
     1
270
     1
271
     1
  0
XRECORD
  5
F
102
{ACAD_REACTORS
330
C
102
}
330
C
100
AcDbXrecord
280
     1
270
     1
271
     1
  0
XRECORD
  5
10
102
{ACAD_REACTORS
330
C
102
}
330
C
100
AcDbXrecord
280
     1
270
     1
271
     1
  0
XRECORD
  5
11
102
{ACAD_REACTORS
330
C
102
}
330
C
100
AcDbXrecord
280
     1
270
     1
271
     1
  0
XRECORD
  5
12
102
{ACAD_REACTORS
330
C
102
}
330
C
100
AcDbXrecord
280
     1
270
     1
271
     1
  0
CELLSTYLEMAP
  5
1AA
102
{ACAD_REACTORS
330
4A
102
}
330
4A
100
AcDbCellStyleMap
 90
        3
300
CELLSTYLE
  1
TABLEFORMAT_BEGIN
 90
        5
170
     1
 91
        0
 92
    32768
 62
   257
 93
        1
300
CONTENTFORMAT
  1
CONTENTFORMAT_BEGIN
 90
        0
 91
        0
 92
      512
 93
        0
300

 40
0.0
140
1.0
 94
        5
 62
     0
340
21
144
0.25
309
CONTENTFORMAT_END
171
     0
 94
        0
309
TABLEFORMAT_END
  1
CELLSTYLE_BEGIN
 90
        1
 91
        1
300
_TITLE
309
CELLSTYLE_END
300
CELLSTYLE
  1
TABLEFORMAT_BEGIN
 90
        5
170
     1
 91
        0
 92
        0
 62
   257
 93
        1
300
CONTENTFORMAT
  1
CONTENTFORMAT_BEGIN
 90
        0
 91
        0
 92
      512
 93
        0
300

 40
0.0
140
1.0
 94
        5
 62
     0
340
21
144
0.18
309
CONTENTFORMAT_END
171
     0
 94
        0
309
TABLEFORMAT_END
  1
CELLSTYLE_BEGIN
 90
        2
 91
        1
300
_HEADER
309
CELLSTYLE_END
300
CELLSTYLE
  1
TABLEFORMAT_BEGIN
 90
        5
170
     1
 91
        0
 92
        0
 62
   257
 93
        1
300
CONTENTFORMAT
  1
CONTENTFORMAT_BEGIN
 90
        0
 91
        0
 92
      512
 93
        0
300

 40
0.0
140
1.0
 94
        2
 62
     0
340
21
144
0.18
309
CONTENTFORMAT_END
171
     0
 94
        0
309
TABLEFORMAT_END
  1
CELLSTYLE_BEGIN
 90
        3
 91
        2
300
_DATA
309
CELLSTYLE_END
  0
XRECORD
  5
1BA
102
{ACAD_REACTORS
330
4A
102
}
330
4A
100
AcDbXrecord
280
     1
102
ACAD_ROUNDTRIP_PRE2007_TABLESTYLE
 90
      512
 91
        0
  1

 92
      512
 93
        0
  2

 94
      512
 95
        0
  3

  0
XRECORD
  5
1B7
102
{ACAD_REACTORS
330
1B6
102
}
330
1B6
100
AcDbXrecord
280
     1
102
RTVSPropertyOp0
 70
     1
102
RTVSPropertyOp1
 70
     1
102
RTVSPropertyOp2
 70
     1
102
RTVSPropertyOp3
 70
     1
102
RTVSPropertyOp4
 70
     1
102
RTVSPropertyOp5
 70
     1
102
RTVSPropertyOp6
 70
     1
102
RTVSPropertyOp7
 70
     1
102
RTVSPropertyOp8
 70
     1
102
RTVSPropertyOp9
 70
     1
102
RTVSPropertyOp10
 70
     1
102
RTVSPropertyOp11
 70
     1
102
RTVSPropertyOp12
 70
     1
102
RTVSPropertyOp13
 70
     1
102
RTVSPropertyOp14
 70
     1
102
RTVSPropertyOp15
 70
     1
102
RTVSPropertyOp16
 70
     1
102
RTVSPropertyOp17
 70
     1
102
RTVSPropertyOp18
 70
     1
102
RTVSPropertyOp19
 70
     1
102
RTVSPropertyOp20
 70
     1
102
RTVSPropertyOp21
 70
     1
102
RTVSPropertyOp22
 70
     1
102
RTVSPropertyOp23
 70
     1
102
RTVSPropertyOp24
 70
     1
102
RTVSPropertyOp25
 70
     1
102
RTVSPropertyOp26
 70
     1
102
RTVSPropertyOp27
 70
     1
102
RTVSPropertyOp28
 70
     1
102
RTVSPropertyOp29
 70
     1
102
RTVSPropertyOp30
 70
     1
102
RTVSPropertyOp31
 70
     1
102
RTVSPropertyOp32
 70
     1
  0
XRECORD
  5
1C8
102
{ACAD_REACTORS
330
1C7
102
}
330
1C7
100
AcDbXrecord
280
     1
102
RTVSPropertyOp0
 70
     1
102
RTVSPropertyOp1
 70
     1
102
RTVSPropertyOp2
 70
     1
102
RTVSPropertyOp3
 70
     1
102
RTVSPropertyOp4
 70
     1
102
RTVSPropertyOp5
 70
     1
102
RTVSPropertyOp6
 70
     1
102
RTVSPropertyOp7
 70
     1
102
RTVSPropertyOp8
 70
     1
102
RTVSPropertyOp9
 70
     1
102
RTVSPropertyOp10
 70
     1
102
RTVSPropertyOp11
 70
     1
102
RTVSPropertyOp12
 70
     1
102
RTVSPropertyOp13
 70
     1
102
RTVSPropertyOp14
 70
     1
102
RTVSPropertyOp15
 70
     1
102
RTVSPropertyOp16
 70
     1
102
RTVSPropertyOp17
 70
     1
102
RTVSPropertyOp18
 70
     1
102
RTVSPropertyOp19
 70
     1
102
RTVSPropertyOp20
 70
     1
102
RTVSPropertyOp21
 70
     1
102
RTVSPropertyOp22
 70
     1
102
RTVSPropertyOp23
 70
     1
102
RTVSPropertyOp24
 70
     1
102
RTVSPropertyOp25
 70
     1
102
RTVSPropertyOp26
 70
     1
102
RTVSPropertyOp27
 70
     1
102
RTVSPropertyOp28
 70
     1
102
RTVSPropertyOp29
 70
     1
102
RTVSPropertyOp30
 70
     1
102
RTVSPropertyOp31
 70
     1
102
RTVSPropertyOp32
 70
     1
  0
XRECORD
  5
1D0
102
{ACAD_REACTORS
330
1CF
102
}
330
1CF
100
AcDbXrecord
280
     1
102
RTVSPropertyOp0
 70
     1
102
RTVSPropertyOp1
 70
     1
102
RTVSPropertyOp2
 70
     1
102
RTVSPropertyOp3
 70
     1
102
RTVSPropertyOp4
 70
     1
102
RTVSPropertyOp5
 70
     1
102
RTVSPropertyOp6
 70
     1
102
RTVSPropertyOp7
 70
     1
102
RTVSPropertyOp8
 70
     1
102
RTVSPropertyOp9
 70
     1
102
RTVSPropertyOp10
 70
     1
102
RTVSPropertyOp11
 70
     1
102
RTVSPropertyOp12
 70
     1
102
RTVSPropertyOp13
 70
     1
102
RTVSPropertyOp14
 70
     1
102
RTVSPropertyOp15
 70
     1
102
RTVSPropertyOp16
 70
     1
102
RTVSPropertyOp17
 70
     1
102
RTVSPropertyOp18
 70
     1
102
RTVSPropertyOp19
 70
     1
102
RTVSPropertyOp20
 70
     1
102
RTVSPropertyOp21
 70
     1
102
RTVSPropertyOp22
 70
     1
102
RTVSPropertyOp23
 70
     1
102
RTVSPropertyOp24
 70
     1
102
RTVSPropertyOp25
 70
     1
102
RTVSPropertyOp26
 70
     1
102
RTVSPropertyOp27
 70
     1
102
RTVSPropertyOp28
 70
     1
102
RTVSPropertyOp29
 70
     1
102
RTVSPropertyOp30
 70
     1
102
RTVSPropertyOp31
 70
     1
102
RTVSPropertyOp32
 70
     1
  0
XRECORD
  5
1D8
102
{ACAD_REACTORS
330
1D7
102
}
330
1D7
100
AcDbXrecord
280
     1
102
RTVSPropertyOp0
 70
     1
102
RTVSPropertyOp1
 70
     1
102
RTVSPropertyOp2
 70
     1
102
RTVSPropertyOp3
 70
     1
102
RTVSPropertyOp4
 70
     1
102
RTVSPropertyOp5
 70
     1
102
RTVSPropertyOp6
 70
     1
102
RTVSPropertyOp7
 70
     1
102
RTVSPropertyOp8
 70
     1
102
RTVSPropertyOp9
 70
     1
102
RTVSPropertyOp10
 70
     1
102
RTVSPropertyOp11
 70
     1
102
RTVSPropertyOp12
 70
     1
102
RTVSPropertyOp13
 70
     1
102
RTVSPropertyOp14
 70
     1
102
RTVSPropertyOp15
 70
     1
102
RTVSPropertyOp16
 70
     1
102
RTVSPropertyOp17
 70
     1
102
RTVSPropertyOp18
 70
     1
102
RTVSPropertyOp19
 70
     1
102
RTVSPropertyOp20
 70
     1
102
RTVSPropertyOp21
 70
     1
102
RTVSPropertyOp22
 70
     1
102
RTVSPropertyOp23
 70
     1
102
RTVSPropertyOp24
 70
     1
102
RTVSPropertyOp25
 70
     1
102
RTVSPropertyOp26
 70
     1
102
RTVSPropertyOp27
 70
     1
102
RTVSPropertyOp28
 70
     1
102
RTVSPropertyOp29
 70
     1
102
RTVSPropertyOp30
 70
     1
102
RTVSPropertyOp31
 70
     1
102
RTVSPropertyOp32
 70
     1
  0
XRECORD
  5
1CC
102
{ACAD_REACTORS
330
1CB
102
}
330
1CB
100
AcDbXrecord
280
     1
102
RTVSPropertyOp0
 70
     1
102
RTVSPropertyOp1
 70
     1
102
RTVSPropertyOp2
 70
     1
102
RTVSPropertyOp3
 70
     1
102
RTVSPropertyOp4
 70
     1
102
RTVSPropertyOp5
 70
     1
102
RTVSPropertyOp6
 70
     1
102
RTVSPropertyOp7
 70
     1
102
RTVSPropertyOp8
 70
     1
102
RTVSPropertyOp9
 70
     1
102
RTVSPropertyOp10
 70
     1
102
RTVSPropertyOp11
 70
     1
102
RTVSPropertyOp12
 70
     1
102
RTVSPropertyOp13
 70
     1
102
RTVSPropertyOp14
 70
     1
102
RTVSPropertyOp15
 70
     1
102
RTVSPropertyOp16
 70
     1
102
RTVSPropertyOp17
 70
     1
102
RTVSPropertyOp18
 70
     1
102
RTVSPropertyOp19
 70
     1
102
RTVSPropertyOp20
 70
     1
102
RTVSPropertyOp21
 70
     1
102
RTVSPropertyOp22
 70
     1
102
RTVSPropertyOp23
 70
     1
102
RTVSPropertyOp24
 70
     1
102
RTVSPropertyOp25
 70
     1
102
RTVSPropertyOp26
 70
     1
102
RTVSPropertyOp27
 70
     1
102
RTVSPropertyOp28
 70
     1
102
RTVSPropertyOp29
 70
     1
102
RTVSPropertyOp30
 70
     1
102
RTVSPropertyOp31
 70
     1
102
RTVSPropertyOp32
 70
     1
  0
XRECORD
  5
1CE
102
{ACAD_REACTORS
330
1CD
102
}
330
1CD
100
AcDbXrecord
280
     1
102
RTVSPropertyOp0
 70
     1
102
RTVSPropertyOp1
 70
     1
102
RTVSPropertyOp2
 70
     1
102
RTVSPropertyOp3
 70
     1
102
RTVSPropertyOp4
 70
     1
102
RTVSPropertyOp5
 70
     1
102
RTVSPropertyOp6
 70
     1
102
RTVSPropertyOp7
 70
     1
102
RTVSPropertyOp8
 70
     1
102
RTVSPropertyOp9
 70
     1
102
RTVSPropertyOp10
 70
     1
102
RTVSPropertyOp11
 70
     1
102
RTVSPropertyOp12
 70
     1
102
RTVSPropertyOp13
 70
     1
102
RTVSPropertyOp14
 70
     1
102
RTVSPropertyOp15
 70
     1
102
RTVSPropertyOp16
 70
     1
102
RTVSPropertyOp17
 70
     1
102
RTVSPropertyOp18
 70
     1
102
RTVSPropertyOp19
 70
     1
102
RTVSPropertyOp20
 70
     1
102
RTVSPropertyOp21
 70
     1
102
RTVSPropertyOp22
 70
     1
102
RTVSPropertyOp23
 70
     1
102
RTVSPropertyOp24
 70
     1
102
RTVSPropertyOp25
 70
     1
102
RTVSPropertyOp26
 70
     1
102
RTVSPropertyOp27
 70
     1
102
RTVSPropertyOp28
 70
     1
102
RTVSPropertyOp29
 70
     1
102
RTVSPropertyOp30
 70
     1
102
RTVSPropertyOp31
 70
     1
102
RTVSPropertyOp32
 70
     1
  0
XRECORD
  5
1E8
102
{ACAD_REACTORS
330
1E7
102
}
330
1E7
100
AcDbXrecord
280
     1
102
RTVSPropertyOp0
 70
     0
102
RTVSPropertyOp1
 70
     0
102
RTVSPropertyOp2
 70
     0
102
RTVSPropertyOp3
 70
     0
102
RTVSPropertyOp4
 70
     0
102
RTVSPropertyOp5
 70
     0
102
RTVSPropertyOp6
 70
     0
102
RTVSPropertyOp7
 70
     0
102
RTVSPropertyOp8
 70
     0
102
RTVSPropertyOp9
 70
     0
102
RTVSPropertyOp10
 70
     0
102
RTVSPropertyOp11
 70
     0
102
RTVSPropertyOp12
 70
     0
102
RTVSPropertyOp13
 70
     0
102
RTVSPropertyOp14
 70
     2
102
RTVSPropertyOp15
 70
     0
102
RTVSPropertyOp16
 70
     0
102
RTVSPropertyOp17
 70
     0
102
RTVSPropertyOp18
 70
     0
102
RTVSPropertyOp19
 70
     0
102
RTVSPropertyOp20
 70
     0
102
RTVSPropertyOp21
 70
     0
102
RTVSPropertyOp22
 70
     0
102
RTVSPropertyOp23
 70
     0
102
RTVSPropertyOp24
 70
     0
102
RTVSPropertyOp25
 70
     0
102
RTVSPropertyOp26
 70
     0
102
RTVSPropertyOp27
 70
     0
102
RTVSPropertyOp28
 70
     0
102
RTVSPropertyOp29
 70
     0
102
RTVSPropertyOp30
 70
     0
102
RTVSPropertyOp31
 70
     0
102
RTVSPropertyOp32
 70
     0
  0
XRECORD
  5
1D6
102
{ACAD_REACTORS
330
1D5
102
}
330
1D5
100
AcDbXrecord
280
     1
102
RTVSPropertyOp0
 70
     1
102
RTVSPropertyOp1
 70
     1
102
RTVSPropertyOp2
 70
     1
102
RTVSPropertyOp3
 70
     1
102
RTVSPropertyOp4
 70
     1
102
RTVSPropertyOp5
 70
     1
102
RTVSPropertyOp6
 70
     1
102
RTVSPropertyOp7
 70
     1
102
RTVSPropertyOp8
 70
     1
102
RTVSPropertyOp9
 70
     1
102
RTVSPropertyOp10
 70
     1
102
RTVSPropertyOp11
 70
     1
102
RTVSPropertyOp12
 70
     1
102
RTVSPropertyOp13
 70
     1
102
RTVSPropertyOp14
 70
     1
102
RTVSPropertyOp15
 70
     1
102
RTVSPropertyOp16
 70
     1
102
RTVSPropertyOp17
 70
     1
102
RTVSPropertyOp18
 70
     1
102
RTVSPropertyOp19
 70
     1
102
RTVSPropertyOp20
 70
     1
102
RTVSPropertyOp21
 70
     1
102
RTVSPropertyOp22
 70
     1
102
RTVSPropertyOp23
 70
     1
102
RTVSPropertyOp24
 70
     1
102
RTVSPropertyOp25
 70
     1
102
RTVSPropertyOp26
 70
     1
102
RTVSPropertyOp27
 70
     1
102
RTVSPropertyOp28
 70
     1
102
RTVSPropertyOp29
 70
     1
102
RTVSPropertyOp30
 70
     1
102
RTVSPropertyOp31
 70
     1
102
RTVSPropertyOp32
 70
     1
  0
XRECORD
  5
1C0
102
{ACAD_REACTORS
330
1BF
102
}
330
1BF
100
AcDbXrecord
280
     1
102
RTVSPropertyOp0
 70
     1
102
RTVSPropertyOp1
 70
     1
102
RTVSPropertyOp2
 70
     1
102
RTVSPropertyOp3
 70
     1
102
RTVSPropertyOp4
 70
     1
102
RTVSPropertyOp5
 70
     1
102
RTVSPropertyOp6
 70
     1
102
RTVSPropertyOp7
 70
     1
102
RTVSPropertyOp8
 70
     1
102
RTVSPropertyOp9
 70
     1
102
RTVSPropertyOp10
 70
     1
102
RTVSPropertyOp11
 70
     1
102
RTVSPropertyOp12
 70
     1
102
RTVSPropertyOp13
 70
     1
102
RTVSPropertyOp14
 70
     1
102
RTVSPropertyOp15
 70
     1
102
RTVSPropertyOp16
 70
     1
102
RTVSPropertyOp17
 70
     1
102
RTVSPropertyOp18
 70
     1
102
RTVSPropertyOp19
 70
     1
102
RTVSPropertyOp20
 70
     1
102
RTVSPropertyOp21
 70
     1
102
RTVSPropertyOp22
 70
     1
102
RTVSPropertyOp23
 70
     1
102
RTVSPropertyOp24
 70
     1
102
RTVSPropertyOp25
 70
     1
102
RTVSPropertyOp26
 70
     1
102
RTVSPropertyOp27
 70
     1
102
RTVSPropertyOp28
 70
     1
102
RTVSPropertyOp29
 70
     1
102
RTVSPropertyOp30
 70
     1
102
RTVSPropertyOp31
 70
     1
102
RTVSPropertyOp32
 70
     1
  0
XRECORD
  5
1C2
102
{ACAD_REACTORS
330
1C1
102
}
330
1C1
100
AcDbXrecord
280
     1
102
RTVSPropertyOp0
 70
     1
102
RTVSPropertyOp1
 70
     1
102
RTVSPropertyOp2
 70
     1
102
RTVSPropertyOp3
 70
     1
102
RTVSPropertyOp4
 70
     1
102
RTVSPropertyOp5
 70
     1
102
RTVSPropertyOp6
 70
     1
102
RTVSPropertyOp7
 70
     1
102
RTVSPropertyOp8
 70
     1
102
RTVSPropertyOp9
 70
     1
102
RTVSPropertyOp10
 70
     1
102
RTVSPropertyOp11
 70
     1
102
RTVSPropertyOp12
 70
     1
102
RTVSPropertyOp13
 70
     1
102
RTVSPropertyOp14
 70
     1
102
RTVSPropertyOp15
 70
     1
102
RTVSPropertyOp16
 70
     1
102
RTVSPropertyOp17
 70
     1
102
RTVSPropertyOp18
 70
     1
102
RTVSPropertyOp19
 70
     1
102
RTVSPropertyOp20
 70
     1
102
RTVSPropertyOp21
 70
     1
102
RTVSPropertyOp22
 70
     1
102
RTVSPropertyOp23
 70
     1
102
RTVSPropertyOp24
 70
     1
102
RTVSPropertyOp25
 70
     1
102
RTVSPropertyOp26
 70
     1
102
RTVSPropertyOp27
 70
     1
102
RTVSPropertyOp28
 70
     1
102
RTVSPropertyOp29
 70
     1
102
RTVSPropertyOp30
 70
     1
102
RTVSPropertyOp31
 70
     1
102
RTVSPropertyOp32
 70
     1
  0
XRECORD
  5
1C4
102
{ACAD_REACTORS
330
1C3
102
}
330
1C3
100
AcDbXrecord
280
     1
102
RTVSPropertyOp0
 70
     1
102
RTVSPropertyOp1
 70
     1
102
RTVSPropertyOp2
 70
     1
102
RTVSPropertyOp3
 70
     1
102
RTVSPropertyOp4
 70
     1
102
RTVSPropertyOp5
 70
     1
102
RTVSPropertyOp6
 70
     1
102
RTVSPropertyOp7
 70
     1
102
RTVSPropertyOp8
 70
     1
102
RTVSPropertyOp9
 70
     1
102
RTVSPropertyOp10
 70
     1
102
RTVSPropertyOp11
 70
     1
102
RTVSPropertyOp12
 70
     1
102
RTVSPropertyOp13
 70
     1
102
RTVSPropertyOp14
 70
     1
102
RTVSPropertyOp15
 70
     1
102
RTVSPropertyOp16
 70
     1
102
RTVSPropertyOp17
 70
     1
102
RTVSPropertyOp18
 70
     1
102
RTVSPropertyOp19
 70
     1
102
RTVSPropertyOp20
 70
     1
102
RTVSPropertyOp21
 70
     1
102
RTVSPropertyOp22
 70
     1
102
RTVSPropertyOp23
 70
     1
102
RTVSPropertyOp24
 70
     1
102
RTVSPropertyOp25
 70
     1
102
RTVSPropertyOp26
 70
     1
102
RTVSPropertyOp27
 70
     1
102
RTVSPropertyOp28
 70
     1
102
RTVSPropertyOp29
 70
     1
102
RTVSPropertyOp30
 70
     1
102
RTVSPropertyOp31
 70
     1
102
RTVSPropertyOp32
 70
     1
  0
XRECORD
  5
1C6
102
{ACAD_REACTORS
330
1C5
102
}
330
1C5
100
AcDbXrecord
280
     1
102
RTVSPropertyOp0
 70
     1
102
RTVSPropertyOp1
 70
     1
102
RTVSPropertyOp2
 70
     1
102
RTVSPropertyOp3
 70
     1
102
RTVSPropertyOp4
 70
     1
102
RTVSPropertyOp5
 70
     1
102
RTVSPropertyOp6
 70
     1
102
RTVSPropertyOp7
 70
     1
102
RTVSPropertyOp8
 70
     1
102
RTVSPropertyOp9
 70
     1
102
RTVSPropertyOp10
 70
     1
102
RTVSPropertyOp11
 70
     1
102
RTVSPropertyOp12
 70
     1
102
RTVSPropertyOp13
 70
     1
102
RTVSPropertyOp14
 70
     1
102
RTVSPropertyOp15
 70
     1
102
RTVSPropertyOp16
 70
     1
102
RTVSPropertyOp17
 70
     1
102
RTVSPropertyOp18
 70
     1
102
RTVSPropertyOp19
 70
     1
102
RTVSPropertyOp20
 70
     1
102
RTVSPropertyOp21
 70
     1
102
RTVSPropertyOp22
 70
     1
102
RTVSPropertyOp23
 70
     1
102
RTVSPropertyOp24
 70
     1
102
RTVSPropertyOp25
 70
     1
102
RTVSPropertyOp26
 70
     1
102
RTVSPropertyOp27
 70
     1
102
RTVSPropertyOp28
 70
     1
102
RTVSPropertyOp29
 70
     1
102
RTVSPropertyOp30
 70
     1
102
RTVSPropertyOp31
 70
     1
102
RTVSPropertyOp32
 70
     1
  0
XRECORD
  5
1CA
102
{ACAD_REACTORS
330
1C9
102
}
330
1C9
100
AcDbXrecord
280
     1
102
RTVSPropertyOp0
 70
     1
102
RTVSPropertyOp1
 70
     1
102
RTVSPropertyOp2
 70
     1
102
RTVSPropertyOp3
 70
     1
102
RTVSPropertyOp4
 70
     1
102
RTVSPropertyOp5
 70
     1
102
RTVSPropertyOp6
 70
     1
102
RTVSPropertyOp7
 70
     1
102
RTVSPropertyOp8
 70
     1
102
RTVSPropertyOp9
 70
     1
102
RTVSPropertyOp10
 70
     1
102
RTVSPropertyOp11
 70
     1
102
RTVSPropertyOp12
 70
     1
102
RTVSPropertyOp13
 70
     1
102
RTVSPropertyOp14
 70
     1
102
RTVSPropertyOp15
 70
     1
102
RTVSPropertyOp16
 70
     1
102
RTVSPropertyOp17
 70
     1
102
RTVSPropertyOp18
 70
     1
102
RTVSPropertyOp19
 70
     1
102
RTVSPropertyOp20
 70
     1
102
RTVSPropertyOp21
 70
     1
102
RTVSPropertyOp22
 70
     1
102
RTVSPropertyOp23
 70
     1
102
RTVSPropertyOp24
 70
     1
102
RTVSPropertyOp25
 70
     1
102
RTVSPropertyOp26
 70
     1
102
RTVSPropertyOp27
 70
     1
102
RTVSPropertyOp28
 70
     1
102
RTVSPropertyOp29
 70
     1
102
RTVSPropertyOp30
 70
     1
102
RTVSPropertyOp31
 70
     1
102
RTVSPropertyOp32
 70
     1
  0
XRECORD
  5
1E4
102
{ACAD_REACTORS
330
1E3
102
}
330
1E3
100
AcDbXrecord
280
     1
102
RTVSPropertyOp0
 70
     0
102
RTVSPropertyOp1
 70
     0
102
RTVSPropertyOp2
 70
     0
102
RTVSPropertyOp3
 70
     0
102
RTVSPropertyOp4
 70
     0
102
RTVSPropertyOp5
 70
     0
102
RTVSPropertyOp6
 70
     0
102
RTVSPropertyOp7
 70
     0
102
RTVSPropertyOp8
 70
     0
102
RTVSPropertyOp9
 70
     0
102
RTVSPropertyOp10
 70
     0
102
RTVSPropertyOp11
 70
     0
102
RTVSPropertyOp12
 70
     0
102
RTVSPropertyOp13
 70
     0
102
RTVSPropertyOp14
 70
     2
102
RTVSPropertyOp15
 70
     0
102
RTVSPropertyOp16
 70
     0
102
RTVSPropertyOp17
 70
     0
102
RTVSPropertyOp18
 70
     0
102
RTVSPropertyOp19
 70
     0
102
RTVSPropertyOp20
 70
     0
102
RTVSPropertyOp21
 70
     0
102
RTVSPropertyOp22
 70
     0
102
RTVSPropertyOp23
 70
     0
102
RTVSPropertyOp24
 70
     0
102
RTVSPropertyOp25
 70
     0
102
RTVSPropertyOp26
 70
     0
102
RTVSPropertyOp27
 70
     0
102
RTVSPropertyOp28
 70
     0
102
RTVSPropertyOp29
 70
     0
102
RTVSPropertyOp30
 70
     0
102
RTVSPropertyOp31
 70
     0
102
RTVSPropertyOp32
 70
     0
  0
XRECORD
  5
1D4
102
{ACAD_REACTORS
330
1D3
102
}
330
1D3
100
AcDbXrecord
280
     1
102
RTVSPropertyOp0
 70
     1
102
RTVSPropertyOp1
 70
     1
102
RTVSPropertyOp2
 70
     1
102
RTVSPropertyOp3
 70
     1
102
RTVSPropertyOp4
 70
     1
102
RTVSPropertyOp5
 70
     1
102
RTVSPropertyOp6
 70
     1
102
RTVSPropertyOp7
 70
     1
102
RTVSPropertyOp8
 70
     1
102
RTVSPropertyOp9
 70
     1
102
RTVSPropertyOp10
 70
     1
102
RTVSPropertyOp11
 70
     1
102
RTVSPropertyOp12
 70
     1
102
RTVSPropertyOp13
 70
     1
102
RTVSPropertyOp14
 70
     1
102
RTVSPropertyOp15
 70
     1
102
RTVSPropertyOp16
 70
     1
102
RTVSPropertyOp17
 70
     1
102
RTVSPropertyOp18
 70
     1
102
RTVSPropertyOp19
 70
     1
102
RTVSPropertyOp20
 70
     1
102
RTVSPropertyOp21
 70
     1
102
RTVSPropertyOp22
 70
     1
102
RTVSPropertyOp23
 70
     1
102
RTVSPropertyOp24
 70
     1
102
RTVSPropertyOp25
 70
     1
102
RTVSPropertyOp26
 70
     1
102
RTVSPropertyOp27
 70
     1
102
RTVSPropertyOp28
 70
     1
102
RTVSPropertyOp29
 70
     1
102
RTVSPropertyOp30
 70
     1
102
RTVSPropertyOp31
 70
     1
102
RTVSPropertyOp32
 70
     1
  0
XRECORD
  5
1E6
102
{ACAD_REACTORS
330
1E5
102
}
330
1E5
100
AcDbXrecord
280
     1
102
RTVSPropertyOp0
 70
     0
102
RTVSPropertyOp1
 70
     0
102
RTVSPropertyOp2
 70
     0
102
RTVSPropertyOp3
 70
     0
102
RTVSPropertyOp4
 70
     0
102
RTVSPropertyOp5
 70
     0
102
RTVSPropertyOp6
 70
     0
102
RTVSPropertyOp7
 70
     0
102
RTVSPropertyOp8
 70
     0
102
RTVSPropertyOp9
 70
     0
102
RTVSPropertyOp10
 70
     0
102
RTVSPropertyOp11
 70
     0
102
RTVSPropertyOp12
 70
     0
102
RTVSPropertyOp13
 70
     0
102
RTVSPropertyOp14
 70
     2
102
RTVSPropertyOp15
 70
     0
102
RTVSPropertyOp16
 70
     0
102
RTVSPropertyOp17
 70
     0
102
RTVSPropertyOp18
 70
     0
102
RTVSPropertyOp19
 70
     0
102
RTVSPropertyOp20
 70
     0
102
RTVSPropertyOp21
 70
     0
102
RTVSPropertyOp22
 70
     0
102
RTVSPropertyOp23
 70
     0
102
RTVSPropertyOp24
 70
     0
102
RTVSPropertyOp25
 70
     0
102
RTVSPropertyOp26
 70
     0
102
RTVSPropertyOp27
 70
     0
102
RTVSPropertyOp28
 70
     0
102
RTVSPropertyOp29
 70
     0
102
RTVSPropertyOp30
 70
     0
102
RTVSPropertyOp31
 70
     0
102
RTVSPropertyOp32
 70
     0
  0
XRECORD
  5
1BC
102
{ACAD_REACTORS
330
1BB
102
}
330
1BB
100
AcDbXrecord
280
     1
102
RTVSPropertyOp0
 70
     1
102
RTVSPropertyOp1
 70
     1
102
RTVSPropertyOp2
 70
     1
102
RTVSPropertyOp3
 70
     1
102
RTVSPropertyOp4
 70
     1
102
RTVSPropertyOp5
 70
     1
102
RTVSPropertyOp6
 70
     1
102
RTVSPropertyOp7
 70
     1
102
RTVSPropertyOp8
 70
     1
102
RTVSPropertyOp9
 70
     1
102
RTVSPropertyOp10
 70
     1
102
RTVSPropertyOp11
 70
     1
102
RTVSPropertyOp12
 70
     1
102
RTVSPropertyOp13
 70
     1
102
RTVSPropertyOp14
 70
     1
102
RTVSPropertyOp15
 70
     1
102
RTVSPropertyOp16
 70
     1
102
RTVSPropertyOp17
 70
     1
102
RTVSPropertyOp18
 70
     1
102
RTVSPropertyOp19
 70
     1
102
RTVSPropertyOp20
 70
     1
102
RTVSPropertyOp21
 70
     1
102
RTVSPropertyOp22
 70
     1
102
RTVSPropertyOp23
 70
     1
102
RTVSPropertyOp24
 70
     1
102
RTVSPropertyOp25
 70
     1
102
RTVSPropertyOp26
 70
     1
102
RTVSPropertyOp27
 70
     1
102
RTVSPropertyOp28
 70
     1
102
RTVSPropertyOp29
 70
     1
102
RTVSPropertyOp30
 70
     1
102
RTVSPropertyOp31
 70
     1
102
RTVSPropertyOp32
 70
     1
  0
XRECORD
  5
1E2
102
{ACAD_REACTORS
330
1E1
102
}
330
1E1
100
AcDbXrecord
280
     1
102
RTVSPropertyOp0
 70
     1
102
RTVSPropertyOp1
 70
     1
102
RTVSPropertyOp2
 70
     1
102
RTVSPropertyOp3
 70
     1
102
RTVSPropertyOp4
 70
     1
102
RTVSPropertyOp5
 70
     1
102
RTVSPropertyOp6
 70
     1
102
RTVSPropertyOp7
 70
     1
102
RTVSPropertyOp8
 70
     1
102
RTVSPropertyOp9
 70
     1
102
RTVSPropertyOp10
 70
     1
102
RTVSPropertyOp11
 70
     1
102
RTVSPropertyOp12
 70
     1
102
RTVSPropertyOp13
 70
     1
102
RTVSPropertyOp14
 70
     1
102
RTVSPropertyOp15
 70
     1
102
RTVSPropertyOp16
 70
     1
102
RTVSPropertyOp17
 70
     1
102
RTVSPropertyOp18
 70
     1
102
RTVSPropertyOp19
 70
     1
102
RTVSPropertyOp20
 70
     1
102
RTVSPropertyOp21
 70
     1
102
RTVSPropertyOp22
 70
     1
102
RTVSPropertyOp23
 70
     1
102
RTVSPropertyOp24
 70
     1
102
RTVSPropertyOp25
 70
     1
102
RTVSPropertyOp26
 70
     1
102
RTVSPropertyOp27
 70
     1
102
RTVSPropertyOp28
 70
     1
102
RTVSPropertyOp29
 70
     1
102
RTVSPropertyOp30
 70
     1
102
RTVSPropertyOp31
 70
     1
102
RTVSPropertyOp32
 70
     1
  0
XRECORD
  5
1E0
102
{ACAD_REACTORS
330
1DF
102
}
330
1DF
100
AcDbXrecord
280
     1
102
RTVSPropertyOp0
 70
     1
102
RTVSPropertyOp1
 70
     1
102
RTVSPropertyOp2
 70
     1
102
RTVSPropertyOp3
 70
     1
102
RTVSPropertyOp4
 70
     1
102
RTVSPropertyOp5
 70
     1
102
RTVSPropertyOp6
 70
     1
102
RTVSPropertyOp7
 70
     1
102
RTVSPropertyOp8
 70
     1
102
RTVSPropertyOp9
 70
     1
102
RTVSPropertyOp10
 70
     1
102
RTVSPropertyOp11
 70
     1
102
RTVSPropertyOp12
 70
     1
102
RTVSPropertyOp13
 70
     1
102
RTVSPropertyOp14
 70
     1
102
RTVSPropertyOp15
 70
     1
102
RTVSPropertyOp16
 70
     1
102
RTVSPropertyOp17
 70
     1
102
RTVSPropertyOp18
 70
     1
102
RTVSPropertyOp19
 70
     1
102
RTVSPropertyOp20
 70
     1
102
RTVSPropertyOp21
 70
     1
102
RTVSPropertyOp22
 70
     1
102
RTVSPropertyOp23
 70
     1
102
RTVSPropertyOp24
 70
     1
102
RTVSPropertyOp25
 70
     1
102
RTVSPropertyOp26
 70
     1
102
RTVSPropertyOp27
 70
     1
102
RTVSPropertyOp28
 70
     1
102
RTVSPropertyOp29
 70
     1
102
RTVSPropertyOp30
 70
     1
102
RTVSPropertyOp31
 70
     1
102
RTVSPropertyOp32
 70
     1
  0
XRECORD
  5
1DA
102
{ACAD_REACTORS
330
1D9
102
}
330
1D9
100
AcDbXrecord
280
     1
102
RTVSPropertyOp0
 70
     1
102
RTVSPropertyOp1
 70
     1
102
RTVSPropertyOp2
 70
     1
102
RTVSPropertyOp3
 70
     1
102
RTVSPropertyOp4
 70
     1
102
RTVSPropertyOp5
 70
     1
102
RTVSPropertyOp6
 70
     1
102
RTVSPropertyOp7
 70
     1
102
RTVSPropertyOp8
 70
     1
102
RTVSPropertyOp9
 70
     1
102
RTVSPropertyOp10
 70
     1
102
RTVSPropertyOp11
 70
     1
102
RTVSPropertyOp12
 70
     1
102
RTVSPropertyOp13
 70
     1
102
RTVSPropertyOp14
 70
     1
102
RTVSPropertyOp15
 70
     1
102
RTVSPropertyOp16
 70
     1
102
RTVSPropertyOp17
 70
     1
102
RTVSPropertyOp18
 70
     1
102
RTVSPropertyOp19
 70
     1
102
RTVSPropertyOp20
 70
     1
102
RTVSPropertyOp21
 70
     1
102
RTVSPropertyOp22
 70
     1
102
RTVSPropertyOp23
 70
     1
102
RTVSPropertyOp24
 70
     1
102
RTVSPropertyOp25
 70
     1
102
RTVSPropertyOp26
 70
     1
102
RTVSPropertyOp27
 70
     1
102
RTVSPropertyOp28
 70
     1
102
RTVSPropertyOp29
 70
     1
102
RTVSPropertyOp30
 70
     1
102
RTVSPropertyOp31
 70
     1
102
RTVSPropertyOp32
 70
     1
  0
XRECORD
  5
1DC
102
{ACAD_REACTORS
330
1DB
102
}
330
1DB
100
AcDbXrecord
280
     1
102
RTVSPropertyOp0
 70
     1
102
RTVSPropertyOp1
 70
     1
102
RTVSPropertyOp2
 70
     1
102
RTVSPropertyOp3
 70
     1
102
RTVSPropertyOp4
 70
     1
102
RTVSPropertyOp5
 70
     1
102
RTVSPropertyOp6
 70
     1
102
RTVSPropertyOp7
 70
     1
102
RTVSPropertyOp8
 70
     1
102
RTVSPropertyOp9
 70
     1
102
RTVSPropertyOp10
 70
     1
102
RTVSPropertyOp11
 70
     1
102
RTVSPropertyOp12
 70
     1
102
RTVSPropertyOp13
 70
     1
102
RTVSPropertyOp14
 70
     1
102
RTVSPropertyOp15
 70
     1
102
RTVSPropertyOp16
 70
     1
102
RTVSPropertyOp17
 70
     1
102
RTVSPropertyOp18
 70
     1
102
RTVSPropertyOp19
 70
     1
102
RTVSPropertyOp20
 70
     1
102
RTVSPropertyOp21
 70
     1
102
RTVSPropertyOp22
 70
     1
102
RTVSPropertyOp23
 70
     1
102
RTVSPropertyOp24
 70
     1
102
RTVSPropertyOp25
 70
     1
102
RTVSPropertyOp26
 70
     1
102
RTVSPropertyOp27
 70
     1
102
RTVSPropertyOp28
 70
     1
102
RTVSPropertyOp29
 70
     1
102
RTVSPropertyOp30
 70
     1
102
RTVSPropertyOp31
 70
     1
102
RTVSPropertyOp32
 70
     1
  0
XRECORD
  5
1D2
102
{ACAD_REACTORS
330
1D1
102
}
330
1D1
100
AcDbXrecord
280
     1
102
RTVSPropertyOp0
 70
     1
102
RTVSPropertyOp1
 70
     1
102
RTVSPropertyOp2
 70
     1
102
RTVSPropertyOp3
 70
     1
102
RTVSPropertyOp4
 70
     1
102
RTVSPropertyOp5
 70
     1
102
RTVSPropertyOp6
 70
     1
102
RTVSPropertyOp7
 70
     1
102
RTVSPropertyOp8
 70
     1
102
RTVSPropertyOp9
 70
     1
102
RTVSPropertyOp10
 70
     1
102
RTVSPropertyOp11
 70
     1
102
RTVSPropertyOp12
 70
     1
102
RTVSPropertyOp13
 70
     1
102
RTVSPropertyOp14
 70
     1
102
RTVSPropertyOp15
 70
     1
102
RTVSPropertyOp16
 70
     1
102
RTVSPropertyOp17
 70
     1
102
RTVSPropertyOp18
 70
     1
102
RTVSPropertyOp19
 70
     1
102
RTVSPropertyOp20
 70
     1
102
RTVSPropertyOp21
 70
     1
102
RTVSPropertyOp22
 70
     1
102
RTVSPropertyOp23
 70
     1
102
RTVSPropertyOp24
 70
     1
102
RTVSPropertyOp25
 70
     1
102
RTVSPropertyOp26
 70
     1
102
RTVSPropertyOp27
 70
     1
102
RTVSPropertyOp28
 70
     1
102
RTVSPropertyOp29
 70
     1
102
RTVSPropertyOp30
 70
     1
102
RTVSPropertyOp31
 70
     1
102
RTVSPropertyOp32
 70
     1
  0
XRECORD
  5
1BE
102
{ACAD_REACTORS
330
1BD
102
}
330
1BD
100
AcDbXrecord
280
     1
102
RTVSPropertyOp0
 70
     1
102
RTVSPropertyOp1
 70
     1
102
RTVSPropertyOp2
 70
     1
102
RTVSPropertyOp3
 70
     1
102
RTVSPropertyOp4
 70
     1
102
RTVSPropertyOp5
 70
     1
102
RTVSPropertyOp6
 70
     1
102
RTVSPropertyOp7
 70
     1
102
RTVSPropertyOp8
 70
     1
102
RTVSPropertyOp9
 70
     1
102
RTVSPropertyOp10
 70
     1
102
RTVSPropertyOp11
 70
     1
102
RTVSPropertyOp12
 70
     1
102
RTVSPropertyOp13
 70
     1
102
RTVSPropertyOp14
 70
     1
102
RTVSPropertyOp15
 70
     1
102
RTVSPropertyOp16
 70
     1
102
RTVSPropertyOp17
 70
     1
102
RTVSPropertyOp18
 70
     1
102
RTVSPropertyOp19
 70
     1
102
RTVSPropertyOp20
 70
     1
102
RTVSPropertyOp21
 70
     1
102
RTVSPropertyOp22
 70
     1
102
RTVSPropertyOp23
 70
     1
102
RTVSPropertyOp24
 70
     1
102
RTVSPropertyOp25
 70
     1
102
RTVSPropertyOp26
 70
     1
102
RTVSPropertyOp27
 70
     1
102
RTVSPropertyOp28
 70
     1
102
RTVSPropertyOp29
 70
     1
102
RTVSPropertyOp30
 70
     1
102
RTVSPropertyOp31
 70
     1
102
RTVSPropertyOp32
 70
     1
  0
XRECORD
  5
1DE
102
{ACAD_REACTORS
330
1DD
102
}
330
1DD
100
AcDbXrecord
280
     1
102
RTVSPropertyOp0
 70
     1
102
RTVSPropertyOp1
 70
     1
102
RTVSPropertyOp2
 70
     1
102
RTVSPropertyOp3
 70
     1
102
RTVSPropertyOp4
 70
     1
102
RTVSPropertyOp5
 70
     1
102
RTVSPropertyOp6
 70
     1
102
RTVSPropertyOp7
 70
     1
102
RTVSPropertyOp8
 70
     1
102
RTVSPropertyOp9
 70
     1
102
RTVSPropertyOp10
 70
     1
102
RTVSPropertyOp11
 70
     1
102
RTVSPropertyOp12
 70
     1
102
RTVSPropertyOp13
 70
     1
102
RTVSPropertyOp14
 70
     1
102
RTVSPropertyOp15
 70
     1
102
RTVSPropertyOp16
 70
     1
102
RTVSPropertyOp17
 70
     1
102
RTVSPropertyOp18
 70
     1
102
RTVSPropertyOp19
 70
     1
102
RTVSPropertyOp20
 70
     1
102
RTVSPropertyOp21
 70
     1
102
RTVSPropertyOp22
 70
     1
102
RTVSPropertyOp23
 70
     1
102
RTVSPropertyOp24
 70
     1
102
RTVSPropertyOp25
 70
     1
102
RTVSPropertyOp26
 70
     1
102
RTVSPropertyOp27
 70
     1
102
RTVSPropertyOp28
 70
     1
102
RTVSPropertyOp29
 70
     1
102
RTVSPropertyOp30
 70
     1
102
RTVSPropertyOp31
 70
     1
102
RTVSPropertyOp32
 70
     1
  0
ENDSEC
  0
EOF
