  0
SECTION
  2
HEADER
  9
$ACADVER
  1
AC1015
  9
$ACADMAINTVER
 70
    18
  9
$DWGCODEPAGE
  3
ANSI_1252
  9
$INSBASE
 10
0.0
 20
0.0
 30
0.0
  9
$EXTMIN
 10
-44.84875216666705
 20
-17.92719838014727
 30
-0.0015258207003583
  9
$EXTMAX
 10
44.86689901941781
 20
162.3072521445656
 30
0.0000000349246037
  9
$LIMMIN
 10
0.0
 20
0.0
  9
$LIMMAX
 10
1189.0
 20
840.9999999999998
  9
$ORTHOMODE
 70
     0
  9
$REGENMODE
 70
     1
  9
$FILLMODE
 70
     1
  9
$QTEXTMODE
 70
     0
  9
$MIRRTEXT
 70
     0
  9
$LTSCALE
 40
1.0
  9
$ATTMODE
 70
     1
  9
$TEXTSIZE
 40
0.2
  9
$TRACEWID
 40
0.05
  9
$TEXTSTYLE
  7
STANDARD
  9
$CLAYER
  8
0
  9
$CELTYPE
  6
ByLayer
  9
$CECOLOR
 62
   256
  9
$CELTSCALE
 40
1.0
  9
$DISPSILH
 70
     0
  9
$DIMSCALE
 40
1.0
  9
$DIMASZ
 40
180.0
  9
$DIMEXO
 40
0.0625
  9
$DIMDLI
 40
0.38
  9
$DIMRND
 40
0.0
  9
$DIMDLE
 40
0.0
  9
$DIMEXE
 40
0.18
  9
$DIMTP
 40
0.0
  9
$DIMTM
 40
0.0
  9
$DIMTXT
 40
34.99999940395355
  9
$DIMCEN
 40
0.09
  9
$DIMTSZ
 40
0.0
  9
$DIMTOL
 70
     0
  9
$DIMLIM
 70
     0
  9
$DIMTIH
 70
     1
  9
$DIMTOH
 70
     1
  9
$DIMSE1
 70
     0
  9
$DIMSE2
 70
     0
  9
$DIMTAD
 70
     0
  9
$DIMZIN
 70
     0
  9
$DIMBLK
  1

  9
$DIMASO
 70
     1
  9
$DIMSHO
 70
     1
  9
$DIMPOST
  1

  9
$DIMAPOST
  1

  9
$DIMALT
 70
     0
  9
$DIMALTD
 70
     2
  9
$DIMALTF
 40
25.4
  9
$DIMLFAC
 40
1.0
  9
$DIMTOFL
 70
     0
  9
$DIMTVP
 40
0.0
  9
$DIMTIX
 70
     0
  9
$DIMSOXD
 70
     0
  9
$DIMSAH
 70
     0
  9
$DIMBLK1
  1

  9
$DIMBLK2
  1

  9
$DIMSTYLE
  2
STANDARD
  9
$DIMCLRD
 70
     0
  9
$DIMCLRE
 70
     0
  9
$DIMCLRT
 70
     0
  9
$DIMTFAC
 40
1.0
  9
$DIMGAP
 40
0.09
  9
$DIMJUST
 70
     0
  9
$DIMSD1
 70
     0
  9
$DIMSD2
 70
     0
  9
$DIMTOLJ
 70
     1
  9
$DIMTZIN
 70
     0
  9
$DIMALTZ
 70
     0
  9
$DIMALTTZ
 70
     0
  9
$DIMUPT
 70
     0
  9
$DIMDEC
 70
     4
  9
$DIMTDEC
 70
     4
  9
$DIMALTU
 70
     2
  9
$DIMALTTD
 70
     2
  9
$DIMTXSTY
  7
STANDARD
  9
$DIMAUNIT
 70
     0
  9
$DIMADEC
 70
     0
  9
$DIMALTRND
 40
0.0
  9
$DIMAZIN
 70
     0
  9
$DIMDSEP
 70
    46
  9
$DIMATFIT
 70
     3
  9
$DIMFRAC
 70
     0
  9
$DIMLDRBLK
  1

  9
$DIMLUNIT
 70
     2
  9
$DIMLWD
 70
    -2
  9
$DIMLWE
 70
    -2
  9
$DIMTMOVE
 70
     0
  9
$LUNITS
 70
     2
  9
$LUPREC
 70
     4
  9
$SKETCHINC
 40
0.1
  9
$FILLETRAD
 40
0.0
  9
$AUNITS
 70
     0
  9
$AUPREC
 70
     0
  9
$MENU
  1
.
  9
$ELEVATION
 40
0.0
  9
$PELEVATION
 40
0.0
  9
$THICKNESS
 40
0.0
  9
$LIMCHECK
 70
     0
  9
$CHAMFERA
 40
0.0
  9
$CHAMFERB
 40
0.0
  9
$CHAMFERC
 40
0.0
  9
$CHAMFERD
 40
0.0
  9
$SKPOLY
 70
     0
  9
$TDCREATE
 40
2454871.497639329
  9
$TDUCREATE
 40
2454871.455972662
  9
$TDUPDATE
 40
2455943.976420532
  9
$TDUUPDATE
 40
2455943.934753866
  9
$TDINDWG
 40
0.0125081134
  9
$TDUSRTIMER
 40
0.0125081134
  9
$USRTIMER
 70
     1
  9
$ANGBASE
 50
0.0
  9
$ANGDIR
 70
     0
  9
$PDMODE
 70
     0
  9
$PDSIZE
 40
0.0
  9
$PLINEWID
 40
0.0
  9
$SPLFRAME
 70
     0
  9
$SPLINETYPE
 70
     6
  9
$SPLINESEGS
 70
     8
  9
$HANDSEED
  5
1EF
  9
$SURFTAB1
 70
     6
  9
$SURFTAB2
 70
     6
  9
$SURFTYPE
 70
     6
  9
$SURFU
 70
     6
  9
$SURFV
 70
     6
  9
$UCSBASE
  2

  9
$UCSNAME
  2

  9
$UCSORG
 10
0.0
 20
0.0
 30
0.0
  9
$UCSXDIR
 10
1.0
 20
0.0
 30
0.0
  9
$UCSYDIR
 10
0.0
 20
1.0
 30
0.0
  9
$UCSORTHOREF
  2

  9
$UCSORTHOVIEW
 70
     0
  9
$UCSORGTOP
 10
0.0
 20
0.0
 30
0.0
  9
$UCSORGBOTTOM
 10
0.0
 20
0.0
 30
0.0
  9
$UCSORGLEFT
 10
0.0
 20
0.0
 30
0.0
  9
$UCSORGRIGHT
 10
0.0
 20
0.0
 30
0.0
  9
$UCSORGFRONT
 10
0.0
 20
0.0
 30
0.0
  9
$UCSORGBACK
 10
0.0
 20
0.0
 30
0.0
  9
$PUCSBASE
  2

  9
$PUCSNAME
  2

  9
$PUCSORG
 10
0.0
 20
0.0
 30
0.0
  9
$PUCSXDIR
 10
1.0
 20
0.0
 30
0.0
  9
$PUCSYDIR
 10
0.0
 20
1.0
 30
0.0
  9
$PUCSORTHOREF
  2

  9
$PUCSORTHOVIEW
 70
     0
  9
$PUCSORGTOP
 10
0.0
 20
0.0
 30
0.0
  9
$PUCSORGBOTTOM
 10
0.0
 20
0.0
 30
0.0
  9
$PUCSORGLEFT
 10
0.0
 20
0.0
 30
0.0
  9
$PUCSORGRIGHT
 10
0.0
 20
0.0
 30
0.0
  9
$PUCSORGFRONT
 10
0.0
 20
0.0
 30
0.0
  9
$PUCSORGBACK
 10
0.0
 20
0.0
 30
0.0
  9
$USERI1
 70
     0
  9
$USERI2
 70
     0
  9
$USERI3
 70
     0
  9
$USERI4
 70
     0
  9
$USERI5
 70
     0
  9
$USERR1
 40
0.0
  9
$USERR2
 40
0.0
  9
$USERR3
 40
0.0
  9
$USERR4
 40
0.0
  9
$USERR5
 40
0.0
  9
$WORLDVIEW
 70
     1
  9
$SHADEDGE
 70
     3
  9
$SHADEDIF
 70
    70
  9
$TILEMODE
 70
     1
  9
$MAXACTVP
 70
    64
  9
$PINSBASE
 10
0.0
 20
0.0
 30
0.0
  9
$PLIMCHECK
 70
     0
  9
$PEXTMIN
 10
0.0
 20
0.0
 30
0.0
  9
$PEXTMAX
 10
1189.0
 20
840.9999999999998
 30
0.0
  9
$PLIMMIN
 10
0.0
 20
0.0
  9
$PLIMMAX
 10
1189.0
 20
840.9999999999998
  9
$UNITMODE
 70
     0
  9
$VISRETAIN
 70
     1
  9
$PLINEGEN
 70
     0
  9
$PSLTSCALE
 70
     1
  9
$TREEDEPTH
 70
  3020
  9
$CMLSTYLE
  2
Standard
  9
$CMLJUST
 70
     0
  9
$CMLSCALE
 40
1.0
  9
$PROXYGRAPHICS
 70
     1
  9
$MEASUREMENT
 70
     1
  9
$CELWEIGHT
370
    -1
  9
$ENDCAPS
280
     0
  9
$JOINSTYLE
280
     0
  9
$LWDISPLAY
290
     0
  9
$INSUNITS
 70
     4
  9
$HYPERLINKBASE
  1

  9
$STYLESHEET
  1

  9
$XEDIT
290
     1
  9
$CEPSNTYPE
380
     0
  9
$PSTYLEMODE
290
     1
  9
$FINGERPRINTGUID
  2
{001F3102-311A-4A3E-9F9B-A1A1C96BF87E}
  9
$VERSIONGUID
  2
{3D3F2C05-EFCB-4B39-AA33-0CEFC2C75B46}
  9
$EXTNAMES
290
     1
  9
$PSVPSCALE
 40
0.0
  9
$OLESTARTUP
290
     0
  0
ENDSEC
  0
SECTION
  2
CLASSES
  0
CLASS
  1
ACDBDICTIONARYWDFLT
  2
AcDbDictionaryWithDefault
  3
ObjectDBX Classes
 90
        0
280
     0
281
     0
  0
CLASS
  1
MATERIAL
  2
AcDbMaterial
  3
ObjectDBX Classes
 90
     1153
280
     0
281
     0
  0
CLASS
  1
VISUALSTYLE
  2
AcDbVisualStyle
  3
ObjectDBX Classes
 90
     4095
280
     0
281
     0
  0
CLASS
  1
SCALE
  2
AcDbScale
  3
ObjectDBX Classes
 90
     1153
280
     0
281
     0
  0
CLASS
  1
TABLESTYLE
  2
AcDbTableStyle
  3
ObjectDBX Classes
 90
     4095
280
     0
281
     0
  0
CLASS
  1
MLEADERSTYLE
  2
AcDbMLeaderStyle
  3
ACDB_MLEADERSTYLE_CLASS
 90
     4095
280
     0
281
     0
  0
CLASS
  1
SORTENTSTABLE
  2
AcDbSortentsTable
  3
ObjectDBX Classes
 90
        0
280
     0
281
     0
  0
CLASS
  1
CELLSTYLEMAP
  2
AcDbCellStyleMap
  3
ObjectDBX Classes
 90
     1152
280
     0
281
     0
  0
CLASS
  1
DICTIONARYVAR
  2
AcDbDictionaryVar
  3
ObjectDBX Classes
 90
        0
280
     0
281
     0
  0
CLASS
  1
ACME_DOCUMENT
  2
AcMeDbDoc
  3
AcMeServices
 90
    33792
280
     1
281
     0
  0
CLASS
  1
AMGSETTINGSOBJ
  2
AmgSettingsObj
  3
"AcadM|Product Description: AutoCAD Mechanical|Company: Autodesk, Inc."
 90
    33792
280
     1
281
     0
  0
CLASS
  1
ACMESCOPE
  2
AcMeScope
  3
AcMeServices
 90
    33792
280
     1
281
     0
  0
CLASS
  1
ACMECOMMANDHISTORY
  2
AcMeCommandHistory
  3
AcMeServices
 90
    33792
280
     1
281
     0
  0
CLASS
  1
ACIMSYSVARMAN
  2
AcImSysVarManager
  3
AcMeServices
 90
    33792
280
     1
281
     0
  0
CLASS
  1
ACIMINTSYSVAR
  2
AcImIntSysVar
  3
AcMeServices
 90
    33792
280
     1
281
     0
  0
CLASS
  1
ACMEDRAWINGMAN
  2
AcMeDrawingMan
  3
AcMeServices
 90
    33792
280
     1
281
     0
  0
CLASS
  1
ACMEVIEW
  2
AcMeView
  3
AcMeServices
 90
    33792
280
     1
281
     0
  0
CLASS
  1
ACDBENTITYCACHE
  2
AcMeEntityCache
  3
AcMeServices
 90
    33792
280
     1
281
     0
  0
CLASS
  1
GSMANAGER
  2
AcMeGSManager
  3
AcMeServices
 90
    33792
280
     1
281
     0
  0
CLASS
  1
AMDTINTERNALREACTOR
  2
AmdtInternalReactor
  3
AcMeServices
 90
    33792
280
     1
281
     0
  0
CLASS
  1
ACMESTATEMGR
  2
AcMeStateMgr
  3
AcMeServices
 90
    33792
280
     1
281
     0
  0
CLASS
  1
ACGREFMASTER
  2
AcGrefMaster
  3
AcAttribServices
 90
    33792
280
     1
281
     0
  0
CLASS
  1
AM_DRAWING_MGR
  2
AcDmDwgMgr
  3
AcMechDwgViewMgmt
 90
    33792
280
     1
281
     0
  0
CLASS
  1
AM_DWG_DOCUMENT
  2
AcDmDwgDocument
  3
AcMechDwgViewMgmt
 90
    33792
280
     1
281
     0
  0
CLASS
  1
AM_DWG_SHEET
  2
AcDmSheet
  3
AcMechDwgViewMgmt
 90
    33792
280
     1
281
     0
  0
CLASS
  1
AM_VIEWDIMPARMAP
  2
AcDmViewDimParMap
  3
AcMechDwgViewMgmt
 90
    33792
280
     1
281
     0
  0
CLASS
  1
ACIMREALSYSVAR
  2
AcImRealSysVar
  3
AcMeServices
 90
    33792
280
     1
281
     0
  0
CLASS
  1
AM_DWGMGR_NAME
  2
AcDmDwgMgrName
  3
AcMechDwgViewMgmt
 90
    33792
280
     1
281
     0
  0
CLASS
  1
ACME_DATABASE
  2
AcMeDbDatabase
  3
AcMeServices
 90
    33792
280
     1
281
     0
  0
CLASS
  1
ACRFINSADJUSTERMGR
  2
AcRfInsAdjusterMgr
  3
AcMeServices
 90
    33792
280
     1
281
     0
  0
CLASS
  1
ACGREFACADMASTER
  2
AcGrefacadMaster
  3
AcGrefServices
 90
    33792
280
     1
281
     0
  0
CLASS
  1
AMDTMENUSTATEMGR
  2
AmdtMenuStateMgr
  3
McadcomServices
 90
    33792
280
     1
281
     0
  0
CLASS
  1
AMDTMCOMMENUSTATE
  2
AmdtMcomMenuState
  3
McadcomServices
 90
    33792
280
     1
281
     0
  0
CLASS
  1
AMIMASTER
  2
AmiMaster
  3
AmiServices
 90
    33792
280
     1
281
     0
  0
CLASS
  1
MAPIAMMOUDLE
  2
MApiAmModule
  3
MApiAmServices
 90
    33792
280
     1
281
     0
  0
CLASS
  1
ACIMSTRSYSVAR
  2
AcImStrSysVar
  3
AcMeServices
 90
    33792
280
     1
281
     0
  0
CLASS
  1
AMDTADMENUSTATE
  2
AmdtAdMenuState
  3
DesignerServices
 90
    33792
280
     1
281
     0
  0
CLASS
  1
ADAPPL
  2
AcAdAppl
  3
DesignerServices
 90
    33792
280
     1
281
     0
  0
CLASS
  1
DEPMGR
  2
AcAdDepMgr
  3
DesignerServices
 90
    33792
280
     1
281
     0
  0
CLASS
  1
PARAMMGR
  2
AcAdParamMgr
  3
DesignerServices
 90
    33792
280
     1
281
     0
  0
CLASS
  1
PARAMSCOPE
  2
AcAdParamScope
  3
DesignerServices
 90
    33792
280
     1
281
     0
  0
CLASS
  1
NAMEDAPPL
  2
AcAdNamedAppl
  3
DesignerServices
 90
    33792
280
     1
281
     0
  0
CLASS
  1
AMDTDMMENUSTATE
  2
AmdtDmMenuState
  3
AcMechDwgViewMgmt
 90
    33792
280
     1
281
     0
  0
CLASS
  1
AMDTAMMENUSTATE
  2
AmdtAmMenuState
  3
DesignerAssemblies
 90
    33792
280
     1
281
     0
  0
CLASS
  1
ACAMPROJECT
  2
AcAmProject
  3
DesignerAssemblies
 90
    33792
280
     1
281
     0
  0
CLASS
  1
ACAMGRCOMPDEF
  2
AcAmGrCompDef
  3
DesignerAssemblies
 90
    33792
280
     1
281
     0
  0
CLASS
  1
ACCMCONTEXT
  2
AcCmContext
  3
DesignerAssemblies
 90
    33792
280
     1
281
     0
  0
CLASS
  1
ACAMCOMPDEF
  2
AcAmCompDef
  3
DesignerAssemblies
 90
    33792
280
     1
281
     0
  0
CLASS
  1
ACAMCOMPDEFMGR
  2
AcAmCompDefMgr
  3
DesignerAssemblies
 90
    33792
280
     1
281
     0
  0
CLASS
  1
AMCONTEXTMGR
  2
AcAmContextMgr
  3
DesignerAssemblies
 90
    33792
280
     1
281
     0
  0
CLASS
  1
ACAMCONTEXTMODELER
  2
AcAmContextModeler
  3
DesignerAssemblies
 90
    33792
280
     1
281
     0
  0
CLASS
  1
ACMDATADICTIONARY
  2
AcmDataDictionary
  3
"AcmSymBB|Product Description: AutoCAD Mechanical|Company: Autodesk, Inc."
 90
    33792
280
     1
281
     0
  0
CLASS
  1
CATALOGSTATE
  2
AcAmCatalogState
  3
DesignerAssemblies
 90
    33792
280
     1
281
     0
  0
CLASS
  1
ACAMGRCOMPDEFSET
  2
AcAmGrCompDefSet
  3
DesignerAssemblies
 90
    33792
280
     1
281
     0
  0
CLASS
  1
AMDTBROWSERDBTAB
  2
AmdtBrowserDbTab
  3
McadcomServices
 90
    33792
280
     1
281
     0
  0
CLASS
  1
CBROWSERAPPOBJECT
  2
CBrowserAppObject
  3
McadcomServices
 90
    33792
280
     1
281
     0
  0
CLASS
  1
DM_PLACEHOLDER
  2
AcDmSelsetPlaceholder
  3
AcMechDwgViewMgmt
 90
    33792
280
     1
281
     0
  0
CLASS
  1
EXACXREFPANELOBJECT
  2
ExAcXREFPanelObject
  3
EXAC_ESW
 90
     1025
280
     0
281
     0
  0
CLASS
  1
NPOCOLLECTION
  2
AcDbImpNonPersistentObjectsCollection
  3
ObjectDBX Classes
 90
     1153
280
     0
281
     0
  0
CLASS
  1
ACMSTANDARDANSI
  2
AcmStandardANSI
  3
"Amdt_StdImp|Product Description: AutoCAD Mechanical|Company: Autodesk, Inc."
 90
    33792
280
     1
281
     0
  0
CLASS
  1
ACMSURFSTANDARDANSI
  2
AcmSurfTextStdANSI
  3
"Amdt_StdImp|Product Description: AutoCAD Mechanical|Company: Autodesk, Inc."
 90
    33792
280
     1
281
     0
  0
CLASS
  1
ACMFCFSTANDARDANSI
  2
AcmFCFStdANSI
  3
"Amdt_StdImp|Product Description: AutoCAD Mechanical|Company: Autodesk, Inc."
 90
    33792
280
     1
281
     0
  0
CLASS
  1
ACMWELDSTANDARDANSI
  2
AcmWeldingStdANSI
  3
"Amdt_StdImp|Product Description: AutoCAD Mechanical|Company: Autodesk, Inc."
 90
    33792
280
     1
281
     0
  0
CLASS
  1
ACMIDSTANDARDANSI
  2
AcmIdStdANSI
  3
"Amdt_StdImp|Product Description: AutoCAD Mechanical|Company: Autodesk, Inc."
 90
    33792
280
     1
281
     0
  0
CLASS
  1
ACMDATUMSTANDARDANSI
  2
AcmDatumStdANSI
  3
"Amdt_StdImp|Product Description: AutoCAD Mechanical|Company: Autodesk, Inc."
 90
    33792
280
     1
281
     0
  0
CLASS
  1
ACMBOMSTANDARDANSI
  2
AcmBOMStdANSI
  3
"Amdt_StdImp|Product Description: AutoCAD Mechanical|Company: Autodesk, Inc."
 90
    33792
280
     1
281
     0
  0
CLASS
  1
ACMDETAILSTANDARDANSI
  2
AmdtDetailSymStdANSI
  3
"Amdt_StdImp|Product Description: AutoCAD Mechanical|Company: Autodesk, Inc."
 90
    33792
280
     1
281
     0
  0
CLASS
  1
ACMSECTIONSTANDARDANSI
  2
AmdtSectionSymStdANSI
  3
"Amdt_StdImp|Product Description: AutoCAD Mechanical|Company: Autodesk, Inc."
 90
    33792
280
     1
281
     0
  0
CLASS
  1
ACMCENTERLINESTANDARDANSI
  2
AmdtCenterLineStdANSI
  3
"Amdt_StdImp|Product Description: AutoCAD Mechanical|Company: Autodesk, Inc."
 90
    33792
280
     1
281
     0
  0
CLASS
  1
ACMTHREADLINESTANDARDANSI
  2
AmdtThreadLineStdANSI
  3
"Amdt_StdImp|Product Description: AutoCAD Mechanical|Company: Autodesk, Inc."
 90
    33792
280
     1
281
     0
  0
CLASS
  1
ACMNOTESTANDARDANSI
  2
AmdtNoteStdANSI
  3
"Amdt_StdImp|Product Description: AutoCAD Mechanical|Company: Autodesk, Inc."
 90
    33792
280
     1
281
     0
  0
CLASS
  1
ACMTAPERSTANDARDANSI
  2
AcmTaperStdANSI
  3
"Amdt_StdImp|Product Description: AutoCAD Mechanical|Company: Autodesk, Inc."
 90
    33792
280
     1
281
     0
  0
CLASS
  1
ACMANOOTATIONVIEWSTANDARDANSI
  2
AmdtAnViewStdANSI
  3
"Amdt_StdImp|Product Description: AutoCAD Mechanical|Company: Autodesk, Inc."
 90
    33792
280
     1
281
     0
  0
CLASS
  1
ACAMGLAYSTD
  2
AcAmgLayStd
  3
"AmgLay|Product Description: AutoCAD Mechanical|Company: Autodesk, Inc."
 90
    33792
280
     1
281
     0
  0
CLASS
  1
ACAMGDIMSTD
  2
AcAmgDimStd
  3
"AmgDim|Product Description: AutoCAD Mechanical|Company: Autodesk, Inc."
 90
    33792
280
     1
281
     0
  0
CLASS
  1
AMGOBJPROPCFG
  2
AmgObjPropCfg
  3
"AmgLay|Product Description: AutoCAD Mechanical|Company: Autodesk, Inc."
 90
    33793
280
     1
281
     0
  0
CLASS
  1
ACAMGHOLECHARTSTDANSI
  2
AcAmgHoleChartStdANSI
  3
AmgDim|Product Description: AutoCAD Mechanical|Company: Autodesk, Inc.
 90
    33792
280
     1
281
     0
  0
CLASS
  1
ACAMGTITLESTD
  2
AcAmgTitleStd
  3
"AmgTitle|Product Description: AutoCAD Mechanical|Company: Autodesk, Inc."
 90
    36863
280
     1
281
     0
  0
CLASS
  1
AMDTNOTETEMPLATEDB
  2
AmdtNoteTemplateDB
  3
AcmSymBB|Product Description: AutoCAD Mechanical|Company: Autodesk, Inc.
 90
    33792
280
     1
281
     0
  0
CLASS
  1
ACAMGFILTERDAT
  2
AcAmgFilterDat
  3
"AcadM|Product Description: AutoCAD Mechanical|Company: Autodesk, Inc."
 90
    33792
280
     1
281
     0
  0
CLASS
  1
CAMSSTRUCTBTNSTATE
  2
StructBtnState
  3
DesignerAssemblies
 90
    33792
280
     1
281
     0
  0
CLASS
  1
ACDBPLACEHOLDER
  2
AcDbPlaceHolder
  3
ObjectDBX Classes
 90
        0
280
     0
281
     0
  0
CLASS
  1
LAYOUT
  2
AcDbLayout
  3
ObjectDBX Classes
 90
        0
280
     0
281
     0
  0
CLASS
  1
SOLID_BACKGROUND
  2
AcDbSolidBackground
  3
SCENEOE
 90
    36863
280
     0
281
     0
  0
ENDSEC
  0
SECTION
  2
TABLES
  0
TABLE
  2
VPORT
  5
28
102
{ACAD_XDICTIONARY
360
2C
102
}
330
0
100
AcDbSymbolTable
 70
     1
  0
VPORT
  5
29
330
28
100
AcDbSymbolTableRecord
100
AcDbViewportTableRecord
  2
*ACTIVE
 70
     0
 10
0.0
 20
0.0
 11
1.0
 21
1.0
 12
0.0090734263753873
 22
72.19002688220917
 13
0.0
 23
0.0
 14
1.0
 24
1.0
 15
0.0
 25
0.0
 16
0.0
 26
0.0
 36
1.0
 17
0.0
 27
0.0
 37
0.0
 40
201.7931064548231
 41
1.141762452107279
 42
50.0
 43
0.0
 44
0.0
 50
0.0
 51
0.0
 71
     0
 72
   100
 73
     1
 74
     1
 75
     0
 76
     0
 77
     0
 78
     0
281
     0
 65
     1
110
0.0
120
0.0
130
0.0
111
1.0
121
0.0
131
0.0
112
0.0
122
1.0
132
0.0
 79
     0
146
0.0
  0
ENDTAB
  0
TABLE
  2
LTYPE
  5
23
330
0
100
AcDbSymbolTable
 70
     3
  0
LTYPE
  5
24
330
23
100
AcDbSymbolTableRecord
100
AcDbLinetypeTableRecord
  2
ByBlock
 70
     0
  3

 72
    65
 73
     0
 40
0.0
  0
LTYPE
  5
25
330
23
100
AcDbSymbolTableRecord
100
AcDbLinetypeTableRecord
  2
ByLayer
 70
     0
  3

 72
    65
 73
     0
 40
0.0
  0
LTYPE
  5
13
330
23
100
AcDbSymbolTableRecord
100
AcDbLinetypeTableRecord
  2
CONTINUOUS
 70
     0
  3
Solid line
 72
    65
 73
     0
 40
0.0
  0
LTYPE
  5
77
330
23
100
AcDbSymbolTableRecord
100
AcDbLinetypeTableRecord
  2
DASHDOT
 70
     0
  3
Dash dot __ . __ . __ . __ . __ . __ . __ . __
 72
    65
 73
     4
 40
1.0
 49
0.5
 74
     0
 49
-0.25
 74
     0
 49
0.0
 74
     0
 49
-0.25
 74
     0
  0
LTYPE
  5
7F
330
23
100
AcDbSymbolTableRecord
100
AcDbLinetypeTableRecord
  2
DASHED
 70
     0
  3
Dashed __ __ __ __ __ __ __ __ __ __ __ __ __ _
 72
    65
 73
     2
 40
0.75
 49
0.5
 74
     0
 49
-0.25
 74
     0
  0
ENDTAB
  0
TABLE
  2
LAYER
  5
1B
102
{ACAD_XDICTIONARY
360
1C
102
}
330
0
100
AcDbSymbolTable
 70
     7
  0
LAYER
  5
6
330
1B
100
AcDbSymbolTableRecord
100
AcDbLayerTableRecord
  2
0
 70
     0
 62
     7
  6
CONTINUOUS
370
    -3
390
7
  0
LAYER
  5
94
330
1B
100
AcDbSymbolTableRecord
100
AcDbLayerTableRecord
  2
GEB-KONTUR-A
 70
     0
 62
     5
  6
CONTINUOUS
370
    -3
390
7
  0
LAYER
  5
76
330
1B
100
AcDbSymbolTableRecord
100
AcDbLayerTableRecord
  2
GEB-SYMMETRIE
 70
     0
 62
     3
  6
DASHDOT
370
    -3
390
7
1001
AcAecLayerStandard
1000

1000

  0
LAYER
  5
7E
330
1B
100
AcDbSymbolTableRecord
100
AcDbLayerTableRecord
  2
GEB-VERDECKT
 70
     0
 62
     2
  6
DASHED
370
    -3
390
7
1001
AcAecLayerStandard
1000

1000

  0
LAYER
  5
183
330
1B
100
AcDbSymbolTableRecord
100
AcDbLayerTableRecord
  2
GEB-ART-NR
 70
     0
 62
     1
  6
CONTINUOUS
370
    18
390
7
  0
LAYER
  5
72
330
1B
100
AcDbSymbolTableRecord
100
AcDbLayerTableRecord
  2
GEB-BEZUG
 70
     0
 62
     2
  6
CONTINUOUS
370
    25
390
7
  0
LAYER
  5
180
330
1B
100
AcDbSymbolTableRecord
100
AcDbLayerTableRecord
  2
GEB-TEXT
 70
     0
 62
     5
  6
CONTINUOUS
370
    18
390
7
  0
ENDTAB
  0
TABLE
  2
STYLE
  5
20
330
0
100
AcDbSymbolTable
 70
     1
  0
STYLE
  5
21
330
20
100
AcDbSymbolTableRecord
100
AcDbTextStyleTableRecord
  2
STANDARD
 70
     0
 40
0.0
 41
1.0
 50
0.0
 71
     0
 42
0.2
  3
ARIAL.TTF
  4

1001
ACAD
1000
Arial
1071
       34
  0
ENDTAB
  0
TABLE
  2
VIEW
  5
26
330
0
100
AcDbSymbolTable
 70
     0
  0
ENDTAB
  0
TABLE
  2
UCS
  5
27
330
0
100
AcDbSymbolTable
 70
     0
  0
ENDTAB
  0
TABLE
  2
APPID
  5
2D
330
0
100
AcDbSymbolTable
 70
     3
  0
APPID
  5
1F
330
2D
100
AcDbSymbolTableRecord
100
AcDbRegAppTableRecord
  2
ACAD
 70
     0
  0
APPID
  5
78
330
2D
100
AcDbSymbolTableRecord
100
AcDbRegAppTableRecord
  2
AcAecLayerStandard
 70
     0
  0
APPID
  5
1EE
330
2D
100
AcDbSymbolTableRecord
100
AcDbRegAppTableRecord
  2
ACAD_MLEADERVER
 70
     0
  0
ENDTAB
  0
TABLE
  2
DIMSTYLE
  5
2E
330
0
100
AcDbSymbolTable
 70
     1
100
AcDbDimStyleTable
 71
     1
340
2F
  0
DIMSTYLE
105
2F
330
2E
100
AcDbSymbolTableRecord
100
AcDbDimStyleTableRecord
  2
STANDARD
 70
     0
279
     2
340
21
  0
ENDTAB
  0
TABLE
  2
BLOCK_RECORD
  5
1
330
0
100
AcDbSymbolTable
 70
     1
  0
BLOCK_RECORD
  5
2
102
{ACAD_XDICTIONARY
360
3
102
}
330
1
100
AcDbSymbolTableRecord
100
AcDbBlockTableRecord
  2
*Model_Space
340
15
  0
BLOCK_RECORD
  5
17
330
1
100
AcDbSymbolTableRecord
100
AcDbBlockTableRecord
  2
*Paper_Space
340
1A
  0
BLOCK_RECORD
  5
6F
330
1
100
AcDbSymbolTableRecord
100
AcDbBlockTableRecord
  2
Einfügepunkt
340
0
102
{BLKREFS
331
6E
102
}
  0
ENDTAB
  0
ENDSEC
  0
SECTION
  2
BLOCKS
  0
BLOCK
  5
5
330
2
100
AcDbEntity
  8
0
100
AcDbBlockBegin
  2
*Model_Space
 70
     0
 10
0.0
 20
0.0
 30
0.0
  3
*Model_Space
  1

  0
ENDBLK
  5
14
330
2
100
AcDbEntity
  8
0
100
AcDbBlockEnd
  0
BLOCK
  5
18
330
17
100
AcDbEntity
 67
     1
  8
0
100
AcDbBlockBegin
  2
*Paper_Space
 70
     0
 10
0.0
 20
0.0
 30
0.0
  3
*Paper_Space
  1

  0
ENDBLK
  5
19
330
17
100
AcDbEntity
 67
     1
  8
0
100
AcDbBlockEnd
  0
BLOCK
  5
70
330
6F
100
AcDbEntity
  8
0
100
AcDbBlockBegin
  2
Einfügepunkt
 70
     0
 10
0.0
 20
0.0
 30
0.0
  3
Einfügepunkt
  1

  0
LINE
  5
71
330
6F
100
AcDbEntity
  8
GEB-BEZUG
100
AcDbLine
 10
-0.7071067811865817
 20
-0.7071067811865106
 30
0.0
 11
0.7071067811864751
 21
0.7071067811865817
 31
0.0
  0
LINE
  5
73
330
6F
100
AcDbEntity
  8
GEB-BEZUG
100
AcDbLine
 10
-0.7071067811865106
 20
0.7071067811865817
 30
0.0
 11
0.7071067811865462
 21
-0.7071067811865106
 31
0.0
  0
ENDBLK
  5
74
330
6F
100
AcDbEntity
  8
0
100
AcDbBlockEnd
  0
ENDSEC
  0
SECTION
  2
ENTITIES
  0
INSERT
  5
6E
330
2
100
AcDbEntity
  8
0
 48
25.0
100
AcDbBlockReference
  2
Einfügepunkt
 10
0.0
 20
0.0
 30
0.0
  0
LINE
  5
75
330
2
100
AcDbEntity
  8
GEB-SYMMETRIE
 48
25.0
100
AcDbLine
 10
0.0000000000001137
 20
151.35
 30
0.0
 11
0.0000000000001137
 21
162.2499999999999
 31
0.0
  0
LINE
  5
79
330
2
100
AcDbEntity
  8
GEB-SYMMETRIE
 48
25.0
100
AcDbLine
 10
0.0000000000001137
 20
142.6499999999997
 30
0.0
 11
0.0000000000001137
 21
156.35
 31
0.0
  0
LINE
  5
7A
330
2
100
AcDbEntity
  8
GEB-SYMMETRIE
 48
25.0
100
AcDbLine
 10
0.0
 20
83.05999999999983
 30
0.0
 11
0.0
 21
103.15
 31
0.0
  0
LINE
  5
7B
330
2
100
AcDbEntity
  8
GEB-SYMMETRIE
 48
25.0
100
AcDbLine
 10
-25.00000000002649
 20
82.52453541777573
 30
0.0
 11
24.99999999997351
 21
82.52453541777573
 31
0.0
  0
LINE
  5
7C
330
2
100
AcDbEntity
  8
GEB-SYMMETRIE
 48
25.0
100
AcDbLine
 10
-0.000000000026148
 20
107.5245354177757
 30
0.0
 11
-0.0000000000268301
 21
57.52453541777573
 31
0.0
  0
LINE
  5
7D
330
2
100
AcDbEntity
  8
GEB-VERDECKT
 48
25.0
100
AcDbLine
 10
35.09999999999991
 20
97.64999999999975
 30
0.0
 11
35.09999999999991
 21
101.6538475772931
 31
0.0
  0
LINE
  5
80
330
2
100
AcDbEntity
  8
GEB-VERDECKT
 48
25.0
100
AcDbLine
 10
-35.09999999999991
 20
97.64999999999986
 30
0.0
 11
-35.0999999999998
 21
101.6538475772931
 31
0.0
  0
LINE
  5
81
330
2
100
AcDbEntity
  8
GEB-VERDECKT
 48
25.0
100
AcDbLine
 10
35.10000000000014
 20
101.6538475772931
 30
0.0
 11
38.10000000000014
 21
106.8499999999998
 31
0.0
  0
LINE
  5
82
330
2
100
AcDbEntity
  8
GEB-VERDECKT
 48
25.0
100
AcDbLine
 10
-35.0999999999998
 20
101.6538475772931
 30
0.0
 11
-38.0999999999998
 21
106.8499999999998
 31
0.0
  0
LINE
  5
83
330
2
100
AcDbEntity
  8
GEB-VERDECKT
 48
25.0
100
AcDbLine
 10
38.10000000000014
 20
106.8499999999998
 30
0.0
 11
38.10000000000014
 21
145.1499999999995
 31
0.0
  0
LINE
  5
84
330
2
100
AcDbEntity
  8
GEB-VERDECKT
 48
25.0
100
AcDbLine
 10
-38.09999999999991
 20
106.8499999999998
 30
0.0
 11
-38.0999999999998
 21
145.1499999999995
 31
0.0
  0
LINE
  5
85
330
2
100
AcDbEntity
  8
GEB-VERDECKT
 48
25.0
100
AcDbLine
 10
42.30000000000018
 20
145.1499999999995
 30
0.0
 11
42.30000000000018
 21
153.8499999999995
 31
0.0
  0
LINE
  5
86
330
2
100
AcDbEntity
  8
GEB-VERDECKT
 48
25.0
100
AcDbLine
 10
-42.29999999999984
 20
145.1499999999995
 30
0.0
 11
-42.29999999999984
 21
153.8499999999995
 31
0.0
  0
LINE
  5
87
330
2
100
AcDbEntity
  8
GEB-VERDECKT
 48
25.0
100
AcDbLine
 10
38.10000000000014
 20
153.8499999999995
 30
0.0
 11
38.10000000000014
 21
159.7499999999996
 31
0.0
  0
LINE
  5
88
330
2
100
AcDbEntity
  8
GEB-VERDECKT
 48
25.0
100
AcDbLine
 10
-38.0999999999998
 20
153.8499999999995
 30
0.0
 11
-38.0999999999998
 21
159.7499999999994
 31
0.0
  0
LINE
  5
89
330
2
100
AcDbEntity
  8
GEB-VERDECKT
 48
25.0
100
AcDbLine
 10
-38.09999999999991
 20
85.55999999999983
 30
0.0
 11
-38.09999999999991
 21
100.6499999999998
 31
0.0
  0
LINE
  5
8A
330
2
100
AcDbEntity
  8
GEB-VERDECKT
 48
25.0
100
AcDbLine
 10
38.09999999999991
 20
85.55999999999983
 30
0.0
 11
38.10000000000014
 21
100.6499999999998
 31
0.0
  0
LINE
  5
8B
330
2
100
AcDbEntity
  8
GEB-VERDECKT
 48
25.0
100
AcDbLine
 10
35.09999999999991
 20
101.6538475772931
 30
0.0
 11
-35.0999999999998
 21
101.6538475772931
 31
0.0
  0
LINE
  5
8C
330
2
100
AcDbEntity
  8
GEB-VERDECKT
 48
25.0
100
AcDbLine
 10
38.10000000000014
 20
106.8499999999998
 30
0.0
 11
-38.09999999999991
 21
106.8499999999998
 31
0.0
  0
LINE
  5
8D
330
2
100
AcDbEntity
  8
GEB-VERDECKT
 48
25.0
100
AcDbLine
 10
42.30000000000018
 20
145.1499999999995
 30
0.0
 11
-42.29999999999972
 21
145.1499999999995
 31
0.0
  0
LINE
  5
8E
330
2
100
AcDbEntity
  8
GEB-VERDECKT
 48
25.0
100
AcDbLine
 10
42.30000000000018
 20
153.8499999999995
 30
0.0
 11
-42.29999999999984
 21
153.8499999999995
 31
0.0
  0
LINE
  5
8F
330
2
100
AcDbEntity
  8
GEB-VERDECKT
 48
25.0
100
AcDbLine
 10
19.65185756980384
 20
100.6499999999995
 30
0.0
 11
-19.65185756982385
 21
100.6499999999997
 31
0.0
  0
LINE
  5
90
330
2
100
AcDbEntity
  8
GEB-VERDECKT
 48
25.0
100
AcDbLine
 10
-38.0999999999998
 20
100.6499999999997
 30
0.0
 11
-37.6320674425433
 21
100.6499999999997
 31
0.0
  0
LINE
  5
91
330
2
100
AcDbEntity
  8
GEB-VERDECKT
 48
25.0
100
AcDbLine
 10
16.08517769783623
 20
103.8499999999995
 30
0.0
 11
-16.08517769785817
 21
103.8499999999995
 31
0.0
  0
LINE
  5
92
330
2
100
AcDbEntity
  8
GEB-VERDECKT
 48
25.0
100
AcDbLine
 10
37.63206744254012
 20
100.6499999999997
 30
0.0
 11
38.10000000000014
 21
100.6499999999997
 31
0.0
  0
LINE
  5
93
330
2
100
AcDbEntity
  8
GEB-KONTUR-A
 48
25.0
100
AcDbLine
 10
40.60000000000013
 20
156.3499999999995
 30
0.0
 11
40.60000000000013
 21
159.8499999999993
 31
0.0
  0
LINE
  5
95
330
2
100
AcDbEntity
  8
GEB-KONTUR-A
 48
25.0
100
AcDbLine
 10
-40.5999999999998
 20
156.3499999999995
 30
0.0
 11
-40.5999999999998
 21
159.8499999999993
 31
0.0
  0
LINE
  5
96
330
2
100
AcDbEntity
  8
GEB-KONTUR-A
 48
25.0
100
AcDbLine
 10
44.80000000000018
 20
142.6499999999995
 30
0.0
 11
44.80000000000018
 21
156.3499999999995
 31
0.0
  0
LINE
  5
97
330
2
100
AcDbEntity
  8
GEB-KONTUR-A
 48
25.0
100
AcDbLine
 10
-44.79999999999984
 20
142.6499999999995
 30
0.0
 11
-44.79999999999984
 21
156.3499999999995
 31
0.0
  0
LINE
  5
98
330
2
100
AcDbEntity
  8
GEB-KONTUR-A
 48
25.0
100
AcDbLine
 10
40.60000000000036
 20
159.8499999999993
 30
0.0
 11
-40.5999999999998
 21
159.8499999999993
 31
0.0
  0
LINE
  5
99
330
2
100
AcDbEntity
  8
GEB-KONTUR-A
 48
25.0
100
AcDbLine
 10
44.80000000000018
 20
156.3499999999995
 30
0.0
 11
-44.79999999999972
 21
156.3499999999995
 31
0.0
  0
LINE
  5
9A
330
2
100
AcDbEntity
  8
GEB-KONTUR-A
 48
25.0
100
AcDbLine
 10
37.63206744253807
 20
100.6499999999998
 30
0.0
 11
19.65185756980384
 21
100.6499999999997
 31
0.0
  0
LINE
  5
9B
330
2
100
AcDbEntity
  8
GEB-KONTUR-A
 48
25.0
100
AcDbLine
 10
-19.65185756982385
 20
100.6499999999997
 30
0.0
 11
-37.63206744254489
 21
100.6499999999998
 31
0.0
  0
LINE
  5
9C
330
2
100
AcDbEntity
  8
GEB-KONTUR-A
 48
25.0
100
AcDbLine
 10
-37.63206744254489
 20
103.8499999999995
 30
0.0
 11
-37.63206744254489
 21
100.6499999999997
 31
0.0
  0
LINE
  5
9D
330
2
100
AcDbEntity
  8
GEB-KONTUR-A
 48
25.0
100
AcDbLine
 10
-40.60000000000321
 20
142.6499999999995
 30
0.0
 11
-40.60000000000331
 21
85.55999999999983
 31
0.0
  0
LINE
  5
9E
330
2
100
AcDbEntity
  8
GEB-KONTUR-A
 48
25.0
100
AcDbLine
 10
-40.60000000000331
 20
85.55999999999983
 30
0.0
 11
-36.32299547119214
 21
85.55999999999983
 31
0.0
  0
LINE
  5
9F
330
2
100
AcDbEntity
  8
GEB-KONTUR-A
 48
25.0
100
AcDbLine
 10
-36.32299547119214
 20
85.55999999999983
 30
0.0
 11
-36.32299547119214
 21
100.6499999999997
 31
0.0
  0
LINE
  5
A0
330
2
100
AcDbEntity
  8
GEB-KONTUR-A
 48
25.0
100
AcDbLine
 10
38.93725722235377
 20
103.8499999999995
 30
0.0
 11
16.08517769783623
 21
103.8499999999995
 31
0.0
  0
LINE
  5
A1
330
2
100
AcDbEntity
  8
GEB-KONTUR-A
 48
25.0
100
AcDbLine
 10
-16.08517769785794
 20
103.8499999999995
 30
0.0
 11
-38.93725722236036
 21
103.8499999999998
 31
0.0
  0
LINE
  5
A2
330
2
100
AcDbEntity
  8
GEB-KONTUR-A
 48
25.0
100
AcDbLine
 10
-38.93725722236036
 20
142.6499999999995
 30
0.0
 11
-38.93725722236047
 21
103.8499999999995
 31
0.0
  0
SPLINE
  5
A3
330
2
100
AcDbEntity
  8
GEB-KONTUR-A
 48
25.0
100
AcDbSpline
210
0.0
220
0.0
230
1.0
 70
     8
 71
     3
 72
    28
 73
    24
 74
     0
 42
0.0000000001
 43
0.0000000001
 40
0.000131371382778
 40
0.000131371382778
 40
0.000131371382778
 40
0.000131371382778
 40
0.1699823435973507
 40
0.1699823435973507
 40
0.2359852913250708
 40
0.2359852913250708
 40
0.2509416450211804
 40
0.2509416450211804
 40
0.2577210618612661
 40
0.2577210618612661
 40
0.2621161837149482
 40
0.2621161837149482
 40
0.2660500458207986
 40
0.2660500458207986
 40
0.2708764225594155
 40
0.2708764225594155
 40
0.2794527665927058
 40
0.2794527665927058
 40
0.3006598919705631
 40
0.3006598919705631
 40
0.3800224291993486
 40
0.3800224291993486
 40
0.5638716632853738
 40
0.5638716632853738
 40
0.5638716632853738
 40
0.5638716632853738
 10
32.95015215583567
 20
115.2060830860531
 30
0.0
 10
33.28014247154965
 20
115.1692864676178
 30
0.0
 10
33.54177996223257
 20
115.1176117787746
 30
0.0
 10
33.79297195878939
 20
115.030156279087
 30
0.0
 10
33.88792222482698
 20
114.9910559104293
 30
0.0
 10
33.95737799289304
 20
114.9277617256608
 30
0.0
 10
33.97015835558705
 20
114.9137023012878
 30
0.0
 10
33.98353990208534
 20
114.8903242552766
 30
0.0
 10
33.98743129869558
 20
114.8818241484506
 30
0.0
 10
33.99160653065042
 20
114.8661742403181
 30
0.0
 10
33.99266221944072
 20
114.8596634312922
 30
0.0
 10
33.99309911450064
 20
114.846709001623
 30
0.0
 10
33.99263086007545
 20
114.8407338138294
 30
0.0
 10
33.99029554223353
 20
114.8277676909325
 30
0.0
 10
33.98819115646074
 20
114.8211670840947
 30
0.0
 10
33.98126751047062
 20
114.8045619390001
 30
0.0
 10
33.97530896894455
 20
114.7951890196005
 30
0.0
 10
33.95476006862259
 20
114.76805083036
 30
0.0
 10
33.93519317596974
 20
114.7513895426858
 30
0.0
 10
33.84519157304635
 20
114.6870639104305
 30
0.0
 10
33.73909592697783
 20
114.6491838326134
 30
0.0
 10
33.485880441478
 20
114.5717291786658
 30
0.0
 10
33.24526922254063
 20
114.5268248799685
 30
0.0
 10
32.95015215583567
 20
114.4939169139462
 30
0.0
  0
SPLINE
  5
A4
330
2
100
AcDbEntity
  8
GEB-KONTUR-A
 48
25.0
100
AcDbSpline
210
0.0
220
0.0
230
1.0
 70
     8
 71
     3
 72
    18
 73
    14
 74
     0
 42
0.0000000001
 43
0.0000000001
 40
3.852716598000057
 40
3.852716598000057
 40
3.852716598000057
 40
3.852716598000057
 40
4.038372487232973
 40
4.038372487232973
 40
4.368138376595388
 40
4.368138376595388
 40
5.010916804788964
 40
5.010916804788964
 40
5.870434557513595
 40
5.870434557513595
 40
6.913880305414467
 40
6.913880305414467
 40
7.695197836021181
 40
7.695197836021181
 40
7.695197836021181
 40
7.695197836021181
 10
-0.0000000000120508
 20
115.8499999999995
 30
0.0
 10
0.6198751367898013
 20
115.8499999999995
 30
0.0
 10
1.239699456734456
 20
115.8500013486392
 30
0.0
 10
2.958973737857377
 20
115.8499863647017
 30
0.0
 10
4.056455513985611
 20
115.8499644097647
 30
0.0
 10
7.27772148485576
 20
115.8493626017672
 30
0.0
 10
9.381794397538669
 20
115.8483968835791
 30
0.0
 10
14.19483748342372
 20
115.8380944006152
 30
0.0
 10
16.85498193389048
 20
115.8262146064343
 30
0.0
 10
22.43830880770054
 20
115.7606414571297
 30
0.0
 10
25.27234765330945
 20
115.6992411252687
 30
0.0
 10
29.70832636744581
 20
115.4940755476674
 30
0.0
 10
31.43005387929566
 20
115.3755864732808
 30
0.0
 10
32.95015215583567
 20
115.2060830860531
 30
0.0
  0
SPLINE
  5
A5
330
2
100
AcDbEntity
  8
GEB-KONTUR-A
 48
25.0
100
AcDbSpline
210
0.0
220
0.0
230
1.0
 70
     8
 71
     3
 72
    16
 73
    12
 74
     0
 42
0.0000000001
 43
0.0000000001
 40
0.0029989623155371
 40
0.0029989623155371
 40
0.0029989623155371
 40
0.0029989623155371
 40
1.593171455419912
 40
1.593171455419912
 40
3.04327865510351
 40
3.04327865510351
 40
3.502361017653664
 40
3.502361017653664
 40
3.783155273006279
 40
3.783155273006279
 40
3.852716598000057
 40
3.852716598000057
 40
3.852716598000057
 40
3.852716598000057
 10
-32.95015215584954
 20
115.2060830860531
 30
0.0
 10
-29.86000111355361
 20
115.5506601945193
 30
0.0
 10
-25.95236306758057
 20
115.6919529231824
 30
0.0
 10
-17.33464611814077
 20
115.8361957216897
 30
0.0
 10
-12.79914147769455
 20
115.8451056872746
 30
0.0
 10
-6.550735586019982
 20
115.8496417716402
 30
0.0
 10
-5.032228193341552
 20
115.8498592061149
 30
0.0
 10
-2.57088090143543
 20
115.8500034728412
 30
0.0
 10
-1.634238835744326
 20
115.8499994904613
 30
0.0
 10
-0.464515273387633
 20
115.8500000266136
 30
0.0
 10
-0.2322540697579143
 20
115.8499999999995
 30
0.0
 10
-0.0000000000120508
 20
115.8499999999995
 30
0.0
  0
SPLINE
  5
A6
330
2
100
AcDbEntity
  8
GEB-KONTUR-A
 48
25.0
100
AcDbSpline
210
0.0
220
0.0
230
1.0
 70
     8
 71
     3
 72
    28
 73
    24
 74
     0
 42
0.0000000001
 43
0.0000000001
 40
0.0001313713827752
 40
0.0001313713827752
 40
0.0001313713827752
 40
0.0001313713827752
 40
0.169982343597343
 40
0.169982343597343
 40
0.2359852913255565
 40
0.2359852913255565
 40
0.2509416450157996
 40
0.2509416450157996
 40
0.2577210618515501
 40
0.2577210618515501
 40
0.2621161837024098
 40
0.2621161837024098
 40
0.2660500458057591
 40
0.2660500458057591
 40
0.2708764225414193
 40
0.2708764225414193
 40
0.279452766569665
 40
0.279452766569665
 40
0.300659891936877
 40
0.300659891936877
 40
0.3800224291376095
 40
0.3800224291376095
 40
0.56387166315858
 40
0.56387166315858
 40
0.56387166315858
 40
0.56387166315858
 10
-32.95015215584954
 20
114.4939169139462
 30
0.0
 10
-33.28014247156341
 20
114.5307135323813
 30
0.0
 10
-33.54177996224598
 20
114.5823882212245
 30
0.0
 10
-33.79297195880315
 20
114.6698437209126
 30
0.0
 10
-33.88792222484017
 20
114.7089440895698
 30
0.0
 10
-33.957377992901
 20
114.7722382743337
 30
0.0
 10
-33.97015835559796
 20
114.7862976987074
 30
0.0
 10
-33.98353990209853
 20
114.8096757447225
 30
0.0
 10
-33.98743129870855
 20
114.8181758515485
 30
0.0
 10
-33.99160653066338
 20
114.8338257596809
 30
0.0
 10
-33.99266221945368
 20
114.8403365687069
 30
0.0
 10
-33.99309911451349
 20
114.8532909983761
 30
0.0
 10
-33.99263086008841
 20
114.8592661861699
 30
0.0
 10
-33.99029554224649
 20
114.8722323090668
 30
0.0
 10
-33.9881911564737
 20
114.8788329159046
 30
0.0
 10
-33.98126751048358
 20
114.895438060999
 30
0.0
 10
-33.9753089689574
 20
114.9048109803985
 30
0.0
 10
-33.95476006863442
 20
114.9319491696409
 30
0.0
 10
-33.93519317597998
 20
114.9486104573153
 30
0.0
 10
-33.84519157305954
 20
115.0129360895686
 30
0.0
 10
-33.73909592699147
 20
115.0508161673857
 30
0.0
 10
-33.4858804414913
 20
115.1282708213333
 30
0.0
 10
-33.24526922255393
 20
115.1731751200306
 30
0.0
 10
-32.95015215584954
 20
115.2060830860531
 30
0.0
  0
SPLINE
  5
A7
330
2
100
AcDbEntity
  8
GEB-KONTUR-A
 48
25.0
100
AcDbSpline
210
0.0
220
0.0
230
1.0
 70
     8
 71
     3
 72
    18
 73
    14
 74
     0
 42
0.0000000001
 43
0.0000000001
 40
3.852716598000161
 40
3.852716598000161
 40
3.852716598000161
 40
3.852716598000161
 40
4.038372487233206
 40
4.038372487233206
 40
4.368138376595831
 40
4.368138376595831
 40
5.010916804789732
 40
5.010916804789732
 40
5.870434557514797
 40
5.870434557514797
 40
6.913880305416185
 40
6.913880305416185
 40
7.695197836023214
 40
7.695197836023214
 40
7.695197836023214
 40
7.695197836023214
 10
-0.0000000000120508
 20
113.8499999999995
 30
0.0
 10
-0.6198751368137892
 20
113.8499999999995
 30
0.0
 10
-1.239699456758444
 20
113.8499986513596
 30
0.0
 10
-2.958973737881251
 20
113.8500136352971
 30
0.0
 10
-4.056455514009599
 20
113.8500355902343
 30
0.0
 10
-7.277721484879521
 20
113.8506373982319
 30
0.0
 10
-9.381794397562202
 20
113.8516031164198
 30
0.0
 10
-14.19483748344646
 20
113.8619055993839
 30
0.0
 10
-16.85498193391277
 20
113.8737853935646
 30
0.0
 10
-22.438308807721
 20
113.9393585428692
 30
0.0
 10
-25.27234765332855
 20
114.0007588747304
 30
0.0
 10
-29.70832636746241
 20
114.2059244523317
 30
0.0
 10
-31.43005387931101
 20
114.3244135267183
 30
0.0
 10
-32.95015215584954
 20
114.4939169139462
 30
0.0
  0
SPLINE
  5
A8
330
2
100
AcDbEntity
  8
GEB-KONTUR-A
 48
25.0
100
AcDbSpline
210
0.0
220
0.0
230
1.0
 70
     8
 71
     3
 72
    16
 73
    12
 74
     0
 42
0.0000000001
 43
0.0000000001
 40
0.0029989623155932
 40
0.0029989623155932
 40
0.0029989623155932
 40
0.0029989623155932
 40
1.593171455419905
 40
1.593171455419905
 40
3.043278655103556
 40
3.043278655103556
 40
3.50236101765371
 40
3.50236101765371
 40
3.783155273006349
 40
3.783155273006349
 40
3.852716598000161
 40
3.852716598000161
 40
3.852716598000161
 40
3.852716598000161
 10
32.95015215583567
 20
114.4939169139462
 30
0.0
 10
29.86000111353724
 20
114.1493398054798
 30
0.0
 10
25.95236306756226
 20
114.0080470768165
 30
0.0
 10
17.33464611811951
 20
113.8638042783092
 30
0.0
 10
12.79914147767204
 20
113.8548943127242
 30
0.0
 10
6.550735585996562
 20
113.8503582283587
 30
0.0
 10
5.032228193318019
 20
113.8501407938842
 30
0.0
 10
2.570880901411442
 20
113.8499965271577
 30
0.0
 10
1.634238835719997
 20
113.8500005095378
 30
0.0
 10
0.4645152733636451
 20
113.8499999733854
 30
0.0
 10
0.2322540697339264
 20
113.8499999999995
 30
0.0
 10
-0.0000000000120508
 20
113.8499999999995
 30
0.0
  0
SPLINE
  5
A9
330
2
100
AcDbEntity
  8
GEB-KONTUR-A
 48
25.0
100
AcDbSpline
210
0.0
220
0.0
230
1.0
 70
     8
 71
     3
 72
    28
 73
    24
 74
     0
 42
0.0000000001
 43
0.0000000001
 40
0.000131371382778
 40
0.000131371382778
 40
0.000131371382778
 40
0.000131371382778
 40
0.1699823435974038
 40
0.1699823435974038
 40
0.2359852913253754
 40
0.2359852913253754
 40
0.2509416450220895
 40
0.2509416450220895
 40
0.2577210618626646
 40
0.2577210618626646
 40
0.2621161837166742
 40
0.2621161837166742
 40
0.2660500458228199
 40
0.2660500458228199
 40
0.2708764225618075
 40
0.2708764225618075
 40
0.2794527665957558
 40
0.2794527665957558
 40
0.3006598919750579
 40
0.3006598919750579
 40
0.3800224292087483
 40
0.3800224292087483
 40
0.5638716633062723
 40
0.5638716633062723
 40
0.5638716633062723
 40
0.5638716633062723
 10
32.95015215583567
 20
122.2060830860529
 30
0.0
 10
33.28014247154988
 20
122.1692864676177
 30
0.0
 10
33.54177996223257
 20
122.1176117787746
 30
0.0
 10
33.79297195878962
 20
122.0301562790867
 30
0.0
 10
33.88792222482698
 20
121.9910559104293
 30
0.0
 10
33.9573779928935
 20
121.9277617256604
 30
0.0
 10
33.9701583555875
 20
121.9137023012873
 30
0.0
 10
33.98353990208557
 20
121.8903242552766
 30
0.0
 10
33.98743129869558
 20
121.8818241484506
 30
0.0
 10
33.99160653065042
 20
121.8661742403182
 30
0.0
 10
33.99266221944072
 20
121.8596634312922
 30
0.0
 10
33.99309911450064
 20
121.846709001623
 30
0.0
 10
33.99263086007545
 20
121.8407338138294
 30
0.0
 10
33.99029554223353
 20
121.8277676909323
 30
0.0
 10
33.98819115646074
 20
121.8211670840948
 30
0.0
 10
33.98126751047062
 20
121.8045619390001
 30
0.0
 10
33.97530896894455
 20
121.7951890196006
 30
0.0
 10
33.95476006862259
 20
121.76805083036
 30
0.0
 10
33.93519317596997
 20
121.7513895426858
 30
0.0
 10
33.84519157304635
 20
121.6870639104305
 30
0.0
 10
33.73909592697805
 20
121.6491838326134
 30
0.0
 10
33.485880441478
 20
121.5717291786658
 30
0.0
 10
33.24526922254063
 20
121.5268248799685
 30
0.0
 10
32.95015215583567
 20
121.4939169139462
 30
0.0
  0
SPLINE
  5
AA
330
2
100
AcDbEntity
  8
GEB-KONTUR-A
 48
25.0
100
AcDbSpline
210
0.0
220
0.0
230
1.0
 70
     8
 71
     3
 72
    18
 73
    14
 74
     0
 42
0.0000000001
 43
0.0000000001
 40
3.852716598000055
 40
3.852716598000055
 40
3.852716598000055
 40
3.852716598000055
 40
4.038372487232971
 40
4.038372487232971
 40
4.368138376595386
 40
4.368138376595386
 40
5.010916804788961
 40
5.010916804788961
 40
5.870434557513592
 40
5.870434557513592
 40
6.913880305414465
 40
6.913880305414465
 40
7.695197836021178
 40
7.695197836021178
 40
7.695197836021178
 40
7.695197836021178
 10
-0.0000000000120508
 20
122.8499999999993
 30
0.0
 10
0.6198751367898013
 20
122.8499999999993
 30
0.0
 10
1.239699456734456
 20
122.8500013486392
 30
0.0
 10
2.958973737857377
 20
122.8499863647017
 30
0.0
 10
4.056455513985611
 20
122.8499644097645
 30
0.0
 10
7.27772148485576
 20
122.8493626017672
 30
0.0
 10
9.381794397538669
 20
122.8483968835791
 30
0.0
 10
14.19483748342372
 20
122.8380944006152
 30
0.0
 10
16.85498193389048
 20
122.8262146064343
 30
0.0
 10
22.43830880770054
 20
122.7606414571297
 30
0.0
 10
25.27234765330945
 20
122.6992411252687
 30
0.0
 10
29.70832636744603
 20
122.4940755476674
 30
0.0
 10
31.43005387929566
 20
122.3755864732805
 30
0.0
 10
32.95015215583567
 20
122.2060830860529
 30
0.0
  0
SPLINE
  5
AB
330
2
100
AcDbEntity
  8
GEB-KONTUR-A
 48
25.0
100
AcDbSpline
210
0.0
220
0.0
230
1.0
 70
     8
 71
     3
 72
    16
 73
    12
 74
     0
 42
0.0000000001
 43
0.0000000001
 40
0.002998962315537
 40
0.002998962315537
 40
0.002998962315537
 40
0.002998962315537
 40
1.593171455419912
 40
1.593171455419912
 40
3.043278655103509
 40
3.043278655103509
 40
3.502361017653663
 40
3.502361017653663
 40
3.783155273006277
 40
3.783155273006277
 40
3.852716598000055
 40
3.852716598000055
 40
3.852716598000055
 40
3.852716598000055
 10
-32.95015215584954
 20
122.2060830860529
 30
0.0
 10
-29.86000111355361
 20
122.5506601945191
 30
0.0
 10
-25.95236306758057
 20
122.6919529231824
 30
0.0
 10
-17.33464611814077
 20
122.8361957216897
 30
0.0
 10
-12.79914147769455
 20
122.8451056872746
 30
0.0
 10
-6.550735586019982
 20
122.8496417716402
 30
0.0
 10
-5.032228193341552
 20
122.8498592061147
 30
0.0
 10
-2.57088090143543
 20
122.8500034728412
 30
0.0
 10
-1.634238835744326
 20
122.8499994904613
 30
0.0
 10
-0.464515273387633
 20
122.8500000266134
 30
0.0
 10
-0.2322540697579143
 20
122.8499999999993
 30
0.0
 10
-0.0000000000120508
 20
122.8499999999993
 30
0.0
  0
SPLINE
  5
AC
330
2
100
AcDbEntity
  8
GEB-KONTUR-A
 48
25.0
100
AcDbSpline
210
0.0
220
0.0
230
1.0
 70
     8
 71
     3
 72
    28
 73
    24
 74
     0
 42
0.0000000001
 43
0.0000000001
 40
0.0001313713827752
 40
0.0001313713827752
 40
0.0001313713827752
 40
0.0001313713827752
 40
0.1699823435972259
 40
0.1699823435972259
 40
0.2359852913245822
 40
0.2359852913245822
 40
0.2509416450188038
 40
0.2509416450188038
 40
0.2577210618576808
 40
0.2577210618576808
 40
0.2621161837105964
 40
0.2621161837105964
 40
0.2660500458157879
 40
0.2660500458157879
 40
0.2708764225537337
 40
0.2708764225537337
 40
0.2794527665861169
 40
0.2794527665861169
 40
0.3006598919641251
 40
0.3006598919641251
 40
0.3800224292098393
 40
0.3800224292098393
 40
0.5638716633352173
 40
0.5638716633352173
 40
0.5638716633352173
 40
0.5638716633352173
 10
-32.95015215584954
 20
121.4939169139462
 30
0.0
 10
-33.28014247156307
 20
121.5307135323813
 30
0.0
 10
-33.54177996224587
 20
121.5823882212245
 30
0.0
 10
-33.79297195880236
 20
121.6698437209121
 30
0.0
 10
-33.88792222483994
 20
121.7089440895696
 30
0.0
 10
-33.95737799290464
 20
121.7722382743369
 30
0.0
 10
-33.97015835559944
 20
121.7862976987102
 30
0.0
 10
-33.98353990209864
 20
121.8096757447225
 30
0.0
 10
-33.98743129870855
 20
121.8181758515485
 30
0.0
 10
-33.99160653066338
 20
121.8338257596807
 30
0.0
 10
-33.99266221945368
 20
121.8403365687069
 30
0.0
 10
-33.99309911451349
 20
121.8532909983761
 30
0.0
 10
-33.99263086008841
 20
121.85926618617
 30
0.0
 10
-33.99029554224649
 20
121.8722323090668
 30
0.0
 10
-33.9881911564737
 20
121.8788329159046
 30
0.0
 10
-33.98126751048358
 20
121.895438060999
 30
0.0
 10
-33.9753089689574
 20
121.9048109803985
 30
0.0
 10
-33.95476006863385
 20
121.9319491696413
 30
0.0
 10
-33.93519317597884
 20
121.9486104573162
 30
0.0
 10
-33.84519157305931
 20
122.0129360895688
 30
0.0
 10
-33.73909592699124
 20
122.0508161673857
 30
0.0
 10
-33.48588044149142
 20
122.1282708213335
 30
0.0
 10
-33.24526922255405
 20
122.1731751200306
 30
0.0
 10
-32.95015215584954
 20
122.2060830860529
 30
0.0
  0
SPLINE
  5
AD
330
2
100
AcDbEntity
  8
GEB-KONTUR-A
 48
25.0
100
AcDbSpline
210
0.0
220
0.0
230
1.0
 70
     8
 71
     3
 72
    18
 73
    14
 74
     0
 42
0.0000000001
 43
0.0000000001
 40
3.852716598000162
 40
3.852716598000162
 40
3.852716598000162
 40
3.852716598000162
 40
4.038372487233207
 40
4.038372487233207
 40
4.368138376595832
 40
4.368138376595832
 40
5.010916804789735
 40
5.010916804789735
 40
5.8704345575148
 40
5.8704345575148
 40
6.913880305416191
 40
6.913880305416191
 40
7.695197836023223
 40
7.695197836023223
 40
7.695197836023223
 40
7.695197836023223
 10
-0.0000000000120508
 20
120.8499999999995
 30
0.0
 10
-0.6198751368137892
 20
120.8499999999995
 30
0.0
 10
-1.239699456758444
 20
120.8499986513597
 30
0.0
 10
-2.958973737881251
 20
120.8500136352974
 30
0.0
 10
-4.056455514009599
 20
120.8500355902343
 30
0.0
 10
-7.277721484879521
 20
120.8506373982317
 30
0.0
 10
-9.381794397562089
 20
120.8516031164198
 30
0.0
 10
-14.19483748344646
 20
120.8619055993837
 30
0.0
 10
-16.85498193391254
 20
120.8737853935646
 30
0.0
 10
-22.438308807721
 20
120.9393585428691
 30
0.0
 10
-25.27234765332855
 20
121.0007588747304
 30
0.0
 10
-29.70832636746241
 20
121.2059244523317
 30
0.0
 10
-31.43005387931101
 20
121.3244135267185
 30
0.0
 10
-32.95015215584954
 20
121.4939169139462
 30
0.0
  0
SPLINE
  5
AE
330
2
100
AcDbEntity
  8
GEB-KONTUR-A
 48
25.0
100
AcDbSpline
210
0.0
220
0.0
230
1.0
 70
     8
 71
     3
 72
    16
 73
    12
 74
     0
 42
0.0000000001
 43
0.0000000001
 40
0.0029989623155932
 40
0.0029989623155932
 40
0.0029989623155932
 40
0.0029989623155932
 40
1.593171455419905
 40
1.593171455419905
 40
3.043278655103556
 40
3.043278655103556
 40
3.50236101765371
 40
3.50236101765371
 40
3.78315527300635
 40
3.78315527300635
 40
3.852716598000162
 40
3.852716598000162
 40
3.852716598000162
 40
3.852716598000162
 10
32.95015215583567
 20
121.4939169139462
 30
0.0
 10
29.86000111353724
 20
121.1493398054798
 30
0.0
 10
25.95236306756226
 20
121.0080470768165
 30
0.0
 10
17.33464611811951
 20
120.8638042783092
 30
0.0
 10
12.79914147767204
 20
120.8548943127244
 30
0.0
 10
6.550735585996562
 20
120.8503582283587
 30
0.0
 10
5.032228193318019
 20
120.8501407938842
 30
0.0
 10
2.570880901411442
 20
120.8499965271577
 30
0.0
 10
1.634238835719997
 20
120.8500005095376
 30
0.0
 10
0.4645152733636451
 20
120.8499999733855
 30
0.0
 10
0.2322540697339264
 20
120.8499999999995
 30
0.0
 10
-0.0000000000120508
 20
120.8499999999995
 30
0.0
  0
SPLINE
  5
AF
330
2
100
AcDbEntity
  8
GEB-KONTUR-A
 48
25.0
100
AcDbSpline
210
0.0
220
0.0
230
1.0
 70
     8
 71
     3
 72
    28
 73
    24
 74
     0
 42
0.0000000001
 43
0.0000000001
 40
0.0001313713827781
 40
0.0001313713827781
 40
0.0001313713827781
 40
0.0001313713827781
 40
0.1699823435975302
 40
0.1699823435975302
 40
0.2359852913256318
 40
0.2359852913256318
 40
0.2509416450236358
 40
0.2509416450236358
 40
0.257721061865188
 40
0.257721061865188
 40
0.2621161837198194
 40
0.2621161837198194
 40
0.2660500458265647
 40
0.2660500458265647
 40
0.2708764225664946
 40
0.2708764225664946
 40
0.279452766602463
 40
0.279452766602463
 40
0.3006598919874288
 40
0.3006598919874288
 40
0.3800224292458948
 40
0.3800224292458948
 40
0.5638716634004349
 40
0.5638716634004349
 40
0.5638716634004349
 40
0.5638716634004349
 10
32.95015215583567
 20
129.2060830860529
 30
0.0
 10
33.28014247155011
 20
129.1692864676175
 30
0.0
 10
33.5417799622328
 20
129.1176117787746
 30
0.0
 10
33.79297195878962
 20
129.0301562790868
 30
0.0
 10
33.88792222482698
 20
128.9910559104292
 30
0.0
 10
33.95737799289463
 20
128.9277617256594
 30
0.0
 10
33.97015835558796
 20
128.9137023012866
 30
0.0
 10
33.98353990208557
 20
128.8903242552766
 30
0.0
 10
33.98743129869558
 20
128.8818241484506
 30
0.0
 10
33.99160653065042
 20
128.8661742403181
 30
0.0
 10
33.99266221944072
 20
128.8596634312922
 30
0.0
 10
33.99309911450064
 20
128.846709001623
 30
0.0
 10
33.99263086007522
 20
128.8407338138291
 30
0.0
 10
33.99029554223353
 20
128.8277676909323
 30
0.0
 10
33.98819115646074
 20
128.8211670840943
 30
0.0
 10
33.98126751047062
 20
128.8045619390001
 30
0.0
 10
33.97530896894455
 20
128.7951890196005
 30
0.0
 10
33.95476006862214
 20
128.7680508303593
 30
0.0
 10
33.93519317596906
 20
128.7513895426851
 30
0.0
 10
33.84519157304635
 20
128.6870639104303
 30
0.0
 10
33.73909592697805
 20
128.6491838326134
 30
0.0
 10
33.485880441478
 20
128.5717291786655
 30
0.0
 10
33.24526922254063
 20
128.5268248799685
 30
0.0
 10
32.95015215583567
 20
128.4939169139462
 30
0.0
  0
SPLINE
  5
B0
330
2
100
AcDbEntity
  8
GEB-KONTUR-A
 48
25.0
100
AcDbSpline
210
0.0
220
0.0
230
1.0
 70
     8
 71
     3
 72
    18
 73
    14
 74
     0
 42
0.0000000001
 43
0.0000000001
 40
3.852716598000055
 40
3.852716598000055
 40
3.852716598000055
 40
3.852716598000055
 40
4.038372487232971
 40
4.038372487232971
 40
4.368138376595386
 40
4.368138376595386
 40
5.010916804788961
 40
5.010916804788961
 40
5.870434557513592
 40
5.870434557513592
 40
6.913880305414465
 40
6.913880305414465
 40
7.695197836021178
 40
7.695197836021178
 40
7.695197836021178
 40
7.695197836021178
 10
-0.0000000000120508
 20
129.8499999999993
 30
0.0
 10
0.6198751367898013
 20
129.8499999999993
 30
0.0
 10
1.239699456734456
 20
129.850001348639
 30
0.0
 10
2.958973737857377
 20
129.8499863647017
 30
0.0
 10
4.056455513985611
 20
129.8499644097645
 30
0.0
 10
7.27772148485576
 20
129.8493626017672
 30
0.0
 10
9.381794397538669
 20
129.8483968835791
 30
0.0
 10
14.19483748342372
 20
129.838094400615
 30
0.0
 10
16.85498193389048
 20
129.8262146064343
 30
0.0
 10
22.43830880770054
 20
129.7606414571297
 30
0.0
 10
25.27234765330945
 20
129.6992411252685
 30
0.0
 10
29.70832636744603
 20
129.4940755476674
 30
0.0
 10
31.43005387929566
 20
129.3755864732806
 30
0.0
 10
32.95015215583567
 20
129.2060830860529
 30
0.0
  0
SPLINE
  5
B1
330
2
100
AcDbEntity
  8
GEB-KONTUR-A
 48
25.0
100
AcDbSpline
210
0.0
220
0.0
230
1.0
 70
     8
 71
     3
 72
    16
 73
    12
 74
     0
 42
0.0000000001
 43
0.0000000001
 40
0.002998962315537
 40
0.002998962315537
 40
0.002998962315537
 40
0.002998962315537
 40
1.593171455419912
 40
1.593171455419912
 40
3.043278655103509
 40
3.043278655103509
 40
3.502361017653663
 40
3.502361017653663
 40
3.783155273006277
 40
3.783155273006277
 40
3.852716598000055
 40
3.852716598000055
 40
3.852716598000055
 40
3.852716598000055
 10
-32.95015215584954
 20
129.2060830860529
 30
0.0
 10
-29.86000111355361
 20
129.5506601945191
 30
0.0
 10
-25.95236306758057
 20
129.6919529231824
 30
0.0
 10
-17.33464611814077
 20
129.8361957216897
 30
0.0
 10
-12.79914147769455
 20
129.8451056872746
 30
0.0
 10
-6.550735586019982
 20
129.8496417716402
 30
0.0
 10
-5.032228193341552
 20
129.8498592061147
 30
0.0
 10
-2.57088090143543
 20
129.8500034728412
 30
0.0
 10
-1.634238835744099
 20
129.849999490461
 30
0.0
 10
-0.464515273387633
 20
129.8500000266134
 30
0.0
 10
-0.2322540697578006
 20
129.8499999999993
 30
0.0
 10
-0.0000000000120508
 20
129.8499999999993
 30
0.0
  0
SPLINE
  5
B2
330
2
100
AcDbEntity
  8
GEB-KONTUR-A
 48
25.0
100
AcDbSpline
210
0.0
220
0.0
230
1.0
 70
     8
 71
     3
 72
    28
 73
    24
 74
     0
 42
0.0000000001
 43
0.0000000001
 40
0.0001313713827752
 40
0.0001313713827752
 40
0.0001313713827752
 40
0.0001313713827752
 40
0.1699823435973016
 40
0.1699823435973016
 40
0.2359852913252929
 40
0.2359852913252929
 40
0.2509416450192121
 40
0.2509416450192121
 40
0.2577210618577408
 40
0.2577210618577408
 40
0.2621161837104208
 40
0.2621161837104208
 40
0.2660500458153987
 40
0.2660500458153987
 40
0.2708764225530578
 40
0.2708764225530578
 40
0.2794527665848558
 40
0.2794527665848558
 40
0.3006598919607264
 40
0.3006598919607264
 40
0.3800224291930622
 40
0.3800224291930622
 40
0.563871663287074
 40
0.563871663287074
 40
0.563871663287074
 40
0.563871663287074
 10
-32.95015215584954
 20
128.4939169139462
 30
0.0
 10
-33.2801424715633
 20
128.5307135323813
 30
0.0
 10
-33.54177996224587
 20
128.5823882212245
 30
0.0
 10
-33.79297195880293
 20
128.6698437209121
 30
0.0
 10
-33.88792222484005
 20
128.7089440895698
 30
0.0
 10
-33.95737799290407
 20
128.7722382743365
 30
0.0
 10
-33.97015835559932
 20
128.7862976987097
 30
0.0
 10
-33.98353990209853
 20
128.8096757447223
 30
0.0
 10
-33.98743129870855
 20
128.8181758515485
 30
0.0
 10
-33.99160653066338
 20
128.8338257596807
 30
0.0
 10
-33.99266221945368
 20
128.8403365687069
 30
0.0
 10
-33.99309911451349
 20
128.8532909983761
 30
0.0
 10
-33.99263086008841
 20
128.8592661861697
 30
0.0
 10
-33.99029554224649
 20
128.8722323090666
 30
0.0
 10
-33.9881911564737
 20
128.8788329159046
 30
0.0
 10
-33.98126751048358
 20
128.895438060999
 30
0.0
 10
-33.9753089689574
 20
128.9048109803985
 30
0.0
 10
-33.95476006863442
 20
128.9319491696407
 30
0.0
 10
-33.93519317598009
 20
128.9486104573151
 30
0.0
 10
-33.84519157305931
 20
129.0129360895686
 30
0.0
 10
-33.73909592699147
 20
129.0508161673857
 30
0.0
 10
-33.48588044149142
 20
129.1282708213333
 30
0.0
 10
-33.24526922255427
 20
129.1731751200305
 30
0.0
 10
-32.95015215584954
 20
129.2060830860529
 30
0.0
  0
SPLINE
  5
B3
330
2
100
AcDbEntity
  8
GEB-KONTUR-A
 48
25.0
100
AcDbSpline
210
0.0
220
0.0
230
1.0
 70
     8
 71
     3
 72
    18
 73
    14
 74
     0
 42
0.0000000001
 43
0.0000000001
 40
3.852716598000162
 40
3.852716598000162
 40
3.852716598000162
 40
3.852716598000162
 40
4.038372487233207
 40
4.038372487233207
 40
4.368138376595832
 40
4.368138376595832
 40
5.010916804789735
 40
5.010916804789735
 40
5.8704345575148
 40
5.8704345575148
 40
6.913880305416191
 40
6.913880305416191
 40
7.695197836023223
 40
7.695197836023223
 40
7.695197836023223
 40
7.695197836023223
 10
-0.0000000000120508
 20
127.8499999999993
 30
0.0
 10
-0.6198751368137892
 20
127.8499999999993
 30
0.0
 10
-1.239699456758444
 20
127.8499986513596
 30
0.0
 10
-2.958973737881251
 20
127.8500136352971
 30
0.0
 10
-4.056455514009485
 20
127.8500355902341
 30
0.0
 10
-7.277721484879521
 20
127.8506373982317
 30
0.0
 10
-9.381794397562089
 20
127.8516031164198
 30
0.0
 10
-14.19483748344646
 20
127.8619055993837
 30
0.0
 10
-16.85498193391254
 20
127.8737853935646
 30
0.0
 10
-22.438308807721
 20
127.9393585428691
 30
0.0
 10
-25.27234765332855
 20
128.0007588747302
 30
0.0
 10
-29.70832636746241
 20
128.2059244523317
 30
0.0
 10
-31.43005387931101
 20
128.3244135267185
 30
0.0
 10
-32.95015215584954
 20
128.4939169139462
 30
0.0
  0
SPLINE
  5
B4
330
2
100
AcDbEntity
  8
GEB-KONTUR-A
 48
25.0
100
AcDbSpline
210
0.0
220
0.0
230
1.0
 70
     8
 71
     3
 72
    16
 73
    12
 74
     0
 42
0.0000000001
 43
0.0000000001
 40
0.0029989623155932
 40
0.0029989623155932
 40
0.0029989623155932
 40
0.0029989623155932
 40
1.593171455419905
 40
1.593171455419905
 40
3.043278655103556
 40
3.043278655103556
 40
3.50236101765371
 40
3.50236101765371
 40
3.78315527300635
 40
3.78315527300635
 40
3.852716598000162
 40
3.852716598000162
 40
3.852716598000162
 40
3.852716598000162
 10
32.95015215583567
 20
128.4939169139462
 30
0.0
 10
29.86000111353724
 20
128.1493398054798
 30
0.0
 10
25.95236306756226
 20
128.0080470768165
 30
0.0
 10
17.33464611811951
 20
127.8638042783092
 30
0.0
 10
12.79914147767204
 20
127.8548943127242
 30
0.0
 10
6.550735585996562
 20
127.8503582283587
 30
0.0
 10
5.032228193318019
 20
127.8501407938839
 30
0.0
 10
2.570880901411442
 20
127.8499965271575
 30
0.0
 10
1.634238835719997
 20
127.8500005095376
 30
0.0
 10
0.4645152733636451
 20
127.8499999733852
 30
0.0
 10
0.2322540697339264
 20
127.8499999999993
 30
0.0
 10
-0.0000000000120508
 20
127.8499999999993
 30
0.0
  0
SPLINE
  5
B5
330
2
100
AcDbEntity
  8
GEB-KONTUR-A
 48
25.0
100
AcDbSpline
210
0.0
220
0.0
230
1.0
 70
     8
 71
     3
 72
    28
 73
    24
 74
     0
 42
0.0000000001
 43
0.0000000001
 40
0.000131371382778
 40
0.000131371382778
 40
0.000131371382778
 40
0.000131371382778
 40
0.1699823435976068
 40
0.1699823435976068
 40
0.2359852913261083
 40
0.2359852913261083
 40
0.2509416450231195
 40
0.2509416450231195
 40
0.2577210618638121
 40
0.2577210618638121
 40
0.2621161837178669
 40
0.2621161837178669
 40
0.2660500458240963
 40
0.2660500458240963
 40
0.2708764225633938
 40
0.2708764225633938
 40
0.2794527665982388
 40
0.2794527665982388
 40
0.3006598919804268
 40
0.3006598919804268
 40
0.3800224292284974
 40
0.3800224292284974
 40
0.563871663358956
 40
0.563871663358956
 40
0.563871663358956
 40
0.563871663358956
 10
32.95015215583567
 20
136.2060830860529
 30
0.0
 10
33.28014247155011
 20
136.1692864676175
 30
0.0
 10
33.5417799622328
 20
136.1176117787744
 30
0.0
 10
33.79297195879008
 20
136.0301562790865
 30
0.0
 10
33.88792222482721
 20
135.991055910429
 30
0.0
 10
33.95737799289373
 20
135.9277617256601
 30
0.0
 10
33.9701583555875
 20
135.9137023012873
 30
0.0
 10
33.98353990208557
 20
135.8903242552766
 30
0.0
 10
33.98743129869558
 20
135.8818241484506
 30
0.0
 10
33.99160653065042
 20
135.8661742403181
 30
0.0
 10
33.99266221944072
 20
135.8596634312922
 30
0.0
 10
33.99309911450064
 20
135.846709001623
 30
0.0
 10
33.99263086007545
 20
135.8407338138291
 30
0.0
 10
33.99029554223353
 20
135.8277676909323
 30
0.0
 10
33.98819115646074
 20
135.8211670840943
 30
0.0
 10
33.98126751047062
 20
135.8045619390001
 30
0.0
 10
33.97530896894455
 20
135.7951890196003
 30
0.0
 10
33.95476006862214
 20
135.7680508303593
 30
0.0
 10
33.93519317596906
 20
135.7513895426851
 30
0.0
 10
33.84519157304635
 20
135.6870639104303
 30
0.0
 10
33.73909592697805
 20
135.6491838326134
 30
0.0
 10
33.485880441478
 20
135.5717291786656
 30
0.0
 10
33.24526922254063
 20
135.5268248799685
 30
0.0
 10
32.95015215583567
 20
135.493916913946
 30
0.0
  0
SPLINE
  5
B6
330
2
100
AcDbEntity
  8
GEB-KONTUR-A
 48
25.0
100
AcDbSpline
210
0.0
220
0.0
230
1.0
 70
     8
 71
     3
 72
    18
 73
    14
 74
     0
 42
0.0000000001
 43
0.0000000001
 40
3.852716598000055
 40
3.852716598000055
 40
3.852716598000055
 40
3.852716598000055
 40
4.038372487232971
 40
4.038372487232971
 40
4.368138376595386
 40
4.368138376595386
 40
5.010916804788961
 40
5.010916804788961
 40
5.870434557513592
 40
5.870434557513592
 40
6.913880305414465
 40
6.913880305414465
 40
7.695197836021178
 40
7.695197836021178
 40
7.695197836021178
 40
7.695197836021178
 10
-0.0000000000120508
 20
136.8499999999995
 30
0.0
 10
0.6198751367898013
 20
136.8499999999995
 30
0.0
 10
1.239699456734456
 20
136.8500013486392
 30
0.0
 10
2.958973737857377
 20
136.8499863647015
 30
0.0
 10
4.056455513985611
 20
136.8499644097645
 30
0.0
 10
7.277721484855874
 20
136.8493626017672
 30
0.0
 10
9.381794397538669
 20
136.8483968835791
 30
0.0
 10
14.19483748342372
 20
136.838094400615
 30
0.0
 10
16.85498193389048
 20
136.826214606434
 30
0.0
 10
22.43830880770054
 20
136.7606414571297
 30
0.0
 10
25.27234765330945
 20
136.6992411252685
 30
0.0
 10
29.70832636744603
 20
136.4940755476672
 30
0.0
 10
31.43005387929566
 20
136.3755864732806
 30
0.0
 10
32.95015215583567
 20
136.2060830860529
 30
0.0
  0
SPLINE
  5
B7
330
2
100
AcDbEntity
  8
GEB-KONTUR-A
 48
25.0
100
AcDbSpline
210
0.0
220
0.0
230
1.0
 70
     8
 71
     3
 72
    16
 73
    12
 74
     0
 42
0.0000000001
 43
0.0000000001
 40
0.0029989623155369
 40
0.0029989623155369
 40
0.0029989623155369
 40
0.0029989623155369
 40
1.593171455419912
 40
1.593171455419912
 40
3.043278655103509
 40
3.043278655103509
 40
3.502361017653663
 40
3.502361017653663
 40
3.783155273006277
 40
3.783155273006277
 40
3.852716598000055
 40
3.852716598000055
 40
3.852716598000055
 40
3.852716598000055
 10
-32.95015215584954
 20
136.2060830860529
 30
0.0
 10
-29.86000111355361
 20
136.5506601945191
 30
0.0
 10
-25.95236306758057
 20
136.6919529231824
 30
0.0
 10
-17.33464611814077
 20
136.8361957216897
 30
0.0
 10
-12.79914147769455
 20
136.8451056872744
 30
0.0
 10
-6.550735586019868
 20
136.8496417716402
 30
0.0
 10
-5.032228193341552
 20
136.8498592061147
 30
0.0
 10
-2.570880901435316
 20
136.8500034728412
 30
0.0
 10
-1.634238835744099
 20
136.8499994904611
 30
0.0
 10
-0.464515273387633
 20
136.8500000266134
 30
0.0
 10
-0.2322540697578006
 20
136.8499999999995
 30
0.0
 10
-0.0000000000120508
 20
136.8499999999995
 30
0.0
  0
SPLINE
  5
B8
330
2
100
AcDbEntity
  8
GEB-KONTUR-A
 48
25.0
100
AcDbSpline
210
0.0
220
0.0
230
1.0
 70
     8
 71
     3
 72
    28
 73
    24
 74
     0
 42
0.0000000001
 43
0.0000000001
 40
0.0001313713827752
 40
0.0001313713827752
 40
0.0001313713827752
 40
0.0001313713827752
 40
0.1699823435973895
 40
0.1699823435973895
 40
0.2359852913262174
 40
0.2359852913262174
 40
0.250941645016928
 40
0.250941645016928
 40
0.2577210618529833
 40
0.2577210618529833
 40
0.2621161837040419
 40
0.2621161837040419
 40
0.2660500458075715
 40
0.2660500458075715
 40
0.2708764225434817
 40
0.2708764225434817
 40
0.2794527665722739
 40
0.2794527665722739
 40
0.3006598919422287
 40
0.3006598919422287
 40
0.3800224291630683
 40
0.3800224291630683
 40
0.5638716632309625
 40
0.5638716632309625
 40
0.5638716632309625
 40
0.5638716632309625
 10
-32.95015215584954
 20
135.493916913946
 30
0.0
 10
-33.28014247156341
 20
135.5307135323811
 30
0.0
 10
-33.54177996224598
 20
135.5823882212245
 30
0.0
 10
-33.79297195880372
 20
135.6698437209125
 30
0.0
 10
-33.8879222248404
 20
135.7089440895701
 30
0.0
 10
-33.95737799290123
 20
135.7722382743337
 30
0.0
 10
-33.97015835559808
 20
135.7862976987077
 30
0.0
 10
-33.98353990209853
 20
135.8096757447223
 30
0.0
 10
-33.98743129870855
 20
135.8181758515483
 30
0.0
 10
-33.99160653066338
 20
135.8338257596807
 30
0.0
 10
-33.99266221945368
 20
135.8403365687067
 30
0.0
 10
-33.99309911451349
 20
135.8532909983759
 30
0.0
 10
-33.99263086008841
 20
135.8592661861697
 30
0.0
 10
-33.99029554224626
 20
135.8722323090668
 30
0.0
 10
-33.98819115647359
 20
135.8788329159046
 30
0.0
 10
-33.98126751048347
 20
135.895438060999
 30
0.0
 10
-33.9753089689574
 20
135.9048109803985
 30
0.0
 10
-33.95476006863328
 20
135.9319491696423
 30
0.0
 10
-33.9351931759777
 20
135.9486104573169
 30
0.0
 10
-33.84519157305954
 20
136.0129360895686
 30
0.0
 10
-33.73909592699124
 20
136.0508161673855
 30
0.0
 10
-33.48588044149142
 20
136.1282708213333
 30
0.0
 10
-33.24526922255427
 20
136.1731751200303
 30
0.0
 10
-32.95015215584954
 20
136.2060830860529
 30
0.0
  0
SPLINE
  5
B9
330
2
100
AcDbEntity
  8
GEB-KONTUR-A
 48
25.0
100
AcDbSpline
210
0.0
220
0.0
230
1.0
 70
     8
 71
     3
 72
    18
 73
    14
 74
     0
 42
0.0000000001
 43
0.0000000001
 40
3.852716598000162
 40
3.852716598000162
 40
3.852716598000162
 40
3.852716598000162
 40
4.038372487233207
 40
4.038372487233207
 40
4.368138376595832
 40
4.368138376595832
 40
5.010916804789735
 40
5.010916804789735
 40
5.8704345575148
 40
5.8704345575148
 40
6.913880305416191
 40
6.913880305416191
 40
7.695197836023223
 40
7.695197836023223
 40
7.695197836023223
 40
7.695197836023223
 10
-0.0000000000120508
 20
134.8499999999993
 30
0.0
 10
-0.6198751368137892
 20
134.8499999999993
 30
0.0
 10
-1.239699456758444
 20
134.8499986513596
 30
0.0
 10
-2.958973737881137
 20
134.8500136352971
 30
0.0
 10
-4.056455514009485
 20
134.8500355902343
 30
0.0
 10
-7.277721484879521
 20
134.8506373982317
 30
0.0
 10
-9.381794397562089
 20
134.8516031164198
 30
0.0
 10
-14.19483748344646
 20
134.8619055993837
 30
0.0
 10
-16.85498193391254
 20
134.8737853935646
 30
0.0
 10
-22.438308807721
 20
134.9393585428692
 30
0.0
 10
-25.27234765332855
 20
135.0007588747304
 30
0.0
 10
-29.70832636746241
 20
135.2059244523317
 30
0.0
 10
-31.43005387931101
 20
135.3244135267183
 30
0.0
 10
-32.95015215584954
 20
135.493916913946
 30
0.0
  0
SPLINE
  5
BA
330
2
100
AcDbEntity
  8
GEB-KONTUR-A
 48
25.0
100
AcDbSpline
210
0.0
220
0.0
230
1.0
 70
     8
 71
     3
 72
    16
 73
    12
 74
     0
 42
0.0000000001
 43
0.0000000001
 40
0.0029989623155932
 40
0.0029989623155932
 40
0.0029989623155932
 40
0.0029989623155932
 40
1.593171455419905
 40
1.593171455419905
 40
3.043278655103556
 40
3.043278655103556
 40
3.50236101765371
 40
3.50236101765371
 40
3.78315527300635
 40
3.78315527300635
 40
3.852716598000162
 40
3.852716598000162
 40
3.852716598000162
 40
3.852716598000162
 10
32.95015215583567
 20
135.493916913946
 30
0.0
 10
29.86000111353724
 20
135.1493398054798
 30
0.0
 10
25.95236306756226
 20
135.0080470768165
 30
0.0
 10
17.33464611811951
 20
134.8638042783092
 30
0.0
 10
12.79914147767204
 20
134.8548943127242
 30
0.0
 10
6.550735585996562
 20
134.8503582283584
 30
0.0
 10
5.032228193318019
 20
134.8501407938839
 30
0.0
 10
2.570880901411442
 20
134.8499965271575
 30
0.0
 10
1.634238835720225
 20
134.8500005095376
 30
0.0
 10
0.4645152733636451
 20
134.8499999733852
 30
0.0
 10
0.2322540697339264
 20
134.8499999999993
 30
0.0
 10
-0.0000000000120508
 20
134.8499999999993
 30
0.0
  0
LINE
  5
BB
330
2
100
AcDbEntity
  8
GEB-KONTUR-A
 48
25.0
100
AcDbLine
 10
44.79999999999995
 20
142.6499999999995
 30
0.0
 11
-44.79999999999984
 21
142.6499999999995
 31
0.0
  0
LINE
  5
BC
330
2
100
AcDbEntity
  8
GEB-KONTUR-A
 48
25.0
100
AcDbLine
 10
40.59999999999649
 20
85.55999999999983
 30
0.0
 11
40.59999999999672
 21
142.6499999999995
 31
0.0
  0
LINE
  5
BD
330
2
100
AcDbEntity
  8
GEB-KONTUR-A
 48
25.0
100
AcDbLine
 10
40.59999999999649
 20
85.55999999999983
 30
0.0
 11
36.32299547118555
 21
85.55999999999983
 31
0.0
  0
LINE
  5
BE
330
2
100
AcDbEntity
  8
GEB-KONTUR-A
 48
25.0
100
AcDbLine
 10
36.32299547118555
 20
100.6499999999997
 30
0.0
 11
36.32299547118555
 21
85.55999999999983
 31
0.0
  0
LINE
  5
BF
330
2
100
AcDbEntity
  8
GEB-KONTUR-A
 48
25.0
100
AcDbLine
 10
37.6320674425383
 20
100.6499999999997
 30
0.0
 11
37.6320674425383
 21
103.8499999999998
 31
0.0
  0
LINE
  5
C0
330
2
100
AcDbEntity
  8
GEB-KONTUR-A
 48
25.0
100
AcDbLine
 10
38.93725722235377
 20
103.8499999999998
 30
0.0
 11
38.93725722235377
 21
142.6499999999995
 31
0.0
  0
LINE
  5
C1
330
2
100
AcDbEntity
  8
GEB-KONTUR-A
 48
25.0
100
AcDbLine
 10
36.32299547118601
 20
97.64999999999986
 30
0.0
 11
22.0693498606978
 21
97.64999999999975
 31
0.0
  0
LINE
  5
C2
330
2
100
AcDbEntity
  8
GEB-KONTUR-A
 48
25.0
100
AcDbLine
 10
4.942825310006355
 20
97.64999999999975
 30
0.0
 11
-4.942825310028297
 21
97.64999999999975
 31
0.0
  0
LINE
  5
C3
330
2
100
AcDbEntity
  8
GEB-KONTUR-A
 48
25.0
100
AcDbLine
 10
-22.06934986071553
 20
97.64999999999975
 30
0.0
 11
-36.32299547119146
 21
97.64999999999986
 31
0.0
  0
LINE
  5
C4
330
2
100
AcDbEntity
  8
GEB-VERDECKT
 48
25.0
100
AcDbLine
 10
-37.5999999999998
 20
100.6499999999998
 30
0.0
 11
-37.5999999999998
 21
97.64999999999986
 31
0.0
  0
LINE
  5
C5
330
2
100
AcDbEntity
  8
GEB-VERDECKT
 48
25.0
100
AcDbLine
 10
37.59999999999991
 20
100.6499999999998
 30
0.0
 11
37.59999999999991
 21
97.64999999999986
 31
0.0
  0
LINE
  5
C6
330
2
100
AcDbEntity
  8
GEB-VERDECKT
 48
25.0
100
AcDbLine
 10
37.60000000000014
 20
97.64999999999986
 30
0.0
 11
36.32299547118601
 21
97.64999999999986
 31
0.0
  0
LINE
  5
C7
330
2
100
AcDbEntity
  8
GEB-VERDECKT
 48
25.0
100
AcDbLine
 10
22.0693498606978
 20
97.64999999999975
 30
0.0
 11
4.942825310006355
 21
97.64999999999975
 31
0.0
  0
LINE
  5
C8
330
2
100
AcDbEntity
  8
GEB-VERDECKT
 48
25.0
100
AcDbLine
 10
-4.942825310028297
 20
97.64999999999975
 30
0.0
 11
-22.06934986071553
 21
97.64999999999975
 31
0.0
  0
LINE
  5
C9
330
2
100
AcDbEntity
  8
GEB-VERDECKT
 48
25.0
100
AcDbLine
 10
-36.32299547119146
 20
97.64999999999986
 30
0.0
 11
-37.59999999999991
 21
97.64999999999986
 31
0.0
  0
LINE
  5
CA
330
2
100
AcDbEntity
  8
GEB-VERDECKT
 48
25.0
100
AcDbLine
 10
38.10000000000014
 20
159.7499999999999
 30
0.0
 11
38.19999999999959
 21
159.8499999999993
 31
0.0
  0
LINE
  5
CB
330
2
100
AcDbEntity
  8
GEB-VERDECKT
 48
25.0
100
AcDbLine
 10
-38.0999999999998
 20
159.7499999999994
 30
0.0
 11
-38.1999999999997
 21
159.8499999999993
 31
0.0
  0
LINE
  5
CC
330
2
100
AcDbEntity
  8
GEB-VERDECKT
 48
25.0
100
AcDbLine
 10
38.10000000000036
 20
159.7499999999996
 30
0.0
 11
-38.0999999999998
 21
159.7499999999996
 31
0.0
  0
LINE
  5
CD
330
2
100
AcDbEntity
  8
GEB-KONTUR-A
 48
25.0
100
AcDbLine
 10
22.49999999997454
 20
82.37186756199696
 30
0.0
 11
22.49999999997351
 21
82.5245354177756
 31
0.0
  0
LINE
  5
CE
330
2
100
AcDbEntity
  8
GEB-KONTUR-A
 48
25.0
100
AcDbLine
 10
-22.50000000002535
 20
82.37186756199731
 30
0.0
 11
-22.50000000002637
 21
82.52453541777596
 31
0.0
  0
LINE
  5
CF
330
2
100
AcDbEntity
  8
GEB-KONTUR-A
 48
25.0
100
AcDbLine
 10
26.84999999997831
 20
81.81790134245716
 30
0.0
 11
26.84999999997456
 21
82.37186756199696
 31
0.0
  0
LINE
  5
D0
330
2
100
AcDbEntity
  8
GEB-KONTUR-A
 48
25.0
100
AcDbLine
 10
-26.85000000002151
 20
81.81790134245762
 30
0.0
 11
-26.85000000002538
 21
82.37186756199731
 31
0.0
  0
ELLIPSE
  5
D1
330
2
100
AcDbEntity
  8
GEB-KONTUR-A
 48
25.0
100
AcDbEllipse
 10
-0.0000000000118234
 20
80.3784518231896
 30
0.0
 11
-18.07499999999995
 21
-0.0000000000000022
 31
0.0
210
0.0
220
0.0
230
1.0
 40
0.9990482215818607
 41
0.0
 42
6.283185307179586
  0
ELLIPSE
  5
D2
330
2
100
AcDbEntity
  8
GEB-KONTUR-A
 48
25.0
100
AcDbEllipse
 10
-0.0000000000131877
 20
80.5616629863357
 30
0.0
 11
20.49999999999996
 21
0.0000000001297021
 31
0.0
210
0.0
220
0.0
230
1.0
 40
0.9990482215818603
 41
0.0479389066886414
 42
3.093653746888465
  0
ELLIPSE
  5
D3
330
2
100
AcDbEntity
  8
GEB-KONTUR-A
 48
25.0
100
AcDbEllipse
 10
-0.0000000000222826
 20
81.90514011718802
 30
0.0
 11
20.49999999999995
 21
0.000000000129723
 31
0.0
210
0.0
220
0.0
230
1.0
 40
0.9990482215818605
 41
0.0151221712045718
 42
3.126470482372539
  0
ELLIPSE
  5
D4
330
2
100
AcDbEntity
  8
GEB-KONTUR-A
 48
25.0
100
AcDbEllipse
 10
-0.0000000000247837
 20
82.28462878726645
 30
0.0
 11
20.49999999999995
 21
0.0000000001299349
 31
0.0
210
0.0
220
0.0
230
1.0
 40
0.9990482215818603
 41
0.0058569892362659
 42
3.135735664340817
  0
ELLIPSE
  5
D5
330
2
100
AcDbEntity
  8
GEB-KONTUR-A
 48
25.0
100
AcDbEllipse
 10
-0.000000000026489
 20
82.52453541777583
 30
0.0
 11
-20.49999999999995
 21
-0.0000000000000025
 31
0.0
210
0.0
220
0.0
230
1.0
 40
0.9990482215818605
 41
0.0
 42
6.283185307179586
  0
ELLIPSE
  5
D6
330
2
100
AcDbEntity
  8
GEB-KONTUR-A
 48
25.0
100
AcDbEllipse
 10
-0.000000000026489
 20
82.52453541777583
 30
0.0
 11
-22.49999999999995
 21
-0.0000000000000028
 31
0.0
210
0.0
220
0.0
230
1.0
 40
0.9990482215818607
 41
0.0
 42
6.283185307179586
  0
ELLIPSE
  5
D7
330
2
100
AcDbEntity
  8
GEB-KONTUR-A
 48
25.0
100
AcDbEllipse
 10
-0.0000000000253522
 20
82.37186756199719
 30
0.0
 11
-22.49999999999995
 21
0.0000000000001962
 31
0.0
210
0.0
220
0.0
230
1.0
 40
0.9990482215818607
 41
0.0000000000000272
 42
3.14159265358982
  0
ELLIPSE
  5
D8
330
2
100
AcDbEntity
  8
GEB-KONTUR-A
 48
25.0
100
AcDbEllipse
 10
-0.0000000000253522
 20
82.37186756199719
 30
0.0
 11
-26.84999999999995
 21
-0.0000000000000033
 31
0.0
210
0.0
220
0.0
230
1.0
 40
0.9990482215818607
 41
0.0
 42
6.283185307179586
  0
ELLIPSE
  5
D9
330
2
100
AcDbEntity
  8
GEB-KONTUR-A
 48
25.0
100
AcDbEllipse
 10
-0.0000000000216005
 20
81.81790134245728
 30
0.0
 11
-26.84999999999995
 21
0.0000000000003038
 31
0.0
210
0.0
220
0.0
230
1.0
 40
0.9990482215818603
 41
0.0000000000000234
 42
3.141592653589816
  0
LINE
  5
DA
330
2
100
AcDbEntity
  8
GEB-VERDECKT
 48
25.0
100
AcDbLine
 10
18.07499999998936
 20
80.20398400993986
 30
0.0
 11
18.07499999998799
 21
80.3784518231895
 31
0.0
  0
LINE
  5
DB
330
2
100
AcDbEntity
  8
GEB-VERDECKT
 48
25.0
100
AcDbLine
 10
-18.07500000001062
 20
80.20398400994009
 30
0.0
 11
-18.07500000001187
 21
80.37845182318973
 31
0.0
  0
LINE
  5
DC
330
2
100
AcDbEntity
  8
GEB-VERDECKT
 48
25.0
100
AcDbLine
 10
20.49999999998681
 20
80.56166298633559
 30
0.0
 11
20.49999999997772
 21
81.90514011718789
 31
0.0
  0
LINE
  5
DD
330
2
100
AcDbEntity
  8
GEB-VERDECKT
 48
25.0
100
AcDbLine
 10
-20.50000000001308
 20
80.56166298633582
 30
0.0
 11
-20.50000000002217
 21
81.90514011718812
 31
0.0
  0
LINE
  5
DE
330
2
100
AcDbEntity
  8
GEB-VERDECKT
 48
25.0
100
AcDbLine
 10
24.84999999997774
 20
81.90514011718779
 30
0.0
 11
24.84999999997512
 21
82.28462878726611
 31
0.0
  0
LINE
  5
DF
330
2
100
AcDbEntity
  8
GEB-VERDECKT
 48
25.0
100
AcDbLine
 10
-24.85000000002219
 20
81.90514011718835
 30
0.0
 11
-24.85000000002481
 21
82.28462878726679
 31
0.0
  0
LINE
  5
E0
330
2
100
AcDbEntity
  8
GEB-VERDECKT
 48
25.0
100
AcDbLine
 10
20.49999999997522
 20
82.28462878726634
 30
0.0
 11
20.49999999997351
 21
82.5245354177756
 31
0.0
  0
LINE
  5
E1
330
2
100
AcDbEntity
  8
GEB-VERDECKT
 48
25.0
100
AcDbLine
 10
-20.50000000002478
 20
82.28462878726658
 30
0.0
 11
-20.50000000002638
 21
82.52453541777596
 31
0.0
  0
SPLINE
  5
E2
330
2
100
AcDbEntity
  8
GEB-VERDECKT
 48
25.0
100
AcDbSpline
210
0.0
220
0.0
230
1.0
 70
     8
 71
     3
 72
    20
 73
    16
 74
     0
 42
0.0000000001
 43
0.0000000001
 40
5.254634188030261
 40
5.254634188030261
 40
5.254634188030261
 40
5.254634188030261
 40
5.57462937779274
 40
5.57462937779274
 40
5.894630969881845
 40
5.894630969881845
 40
6.214638320225672
 40
6.214638320225672
 40
6.534648519814089
 40
6.534648519814089
 40
6.854657545636012
 40
6.854657545636012
 40
7.174661832979976
 40
7.174661832979976
 40
7.311736426328909
 40
7.311736426328909
 40
7.311736426328909
 40
7.311736426328909
 10
-16.72535514241917
 20
96.6230535992604
 30
0.0
 10
-15.65048836682013
 20
98.40540920133969
 30
0.0
 10
-14.28796124220889
 20
100.0141781643919
 30
0.0
 10
-11.12498007842623
 20
102.7223389180686
 30
0.0
 10
-9.325067641810846
 20
103.8212500280501
 30
0.0
 10
-5.469922325993138
 20
105.3979133310208
 30
0.0
 10
-3.41535505300385
 20
105.8753806537385
 30
0.0
 10
0.740553369416034
 20
106.1604311107094
 30
0.0
 10
2.841172751491512
 20
105.9679587891354
 30
0.0
 10
6.87587221649187
 20
104.9324265210339
 30
0.0
 10
8.809251643879292
 20
104.0895486308553
 30
0.0
 10
12.31306378464376
 20
101.8385750802992
 30
0.0
 10
13.88289242445762
 20
100.4308786860516
 30
0.0
 10
15.75202979362268
 20
98.11846651378187
 30
0.0
 10
16.264920326847
 20
97.38655154290007
 30
0.0
 10
16.72535514237938
 20
96.6230535992604
 30
0.0
  0
SPLINE
  5
E3
330
2
100
AcDbEntity
  8
GEB-VERDECKT
 48
25.0
100
AcDbSpline
210
0.0
220
0.0
230
1.0
 70
     8
 71
     3
 72
    20
 73
    16
 74
     0
 42
0.0000000001
 43
0.0000000001
 40
2.113041534440473
 40
2.113041534440473
 40
2.113041534440473
 40
2.113041534440473
 40
2.433036724202951
 40
2.433036724202951
 40
2.753038316292056
 40
2.753038316292056
 40
3.073045666635882
 40
3.073045666635882
 40
3.393055866224299
 40
3.393055866224299
 40
3.713064892046223
 40
3.713064892046223
 40
4.033069179390187
 40
4.033069179390187
 40
4.170143772739112
 40
4.170143772739112
 40
4.170143772739112
 40
4.170143772739112
 10
16.72535514237904
 20
66.55038357958176
 30
0.0
 10
15.65048836677999
 20
64.76802797750235
 30
0.0
 10
14.28796124216865
 20
63.15925901444995
 30
0.0
 10
11.12498007838599
 20
60.4510982607735
 30
0.0
 10
9.325067641770601
 20
59.35218715079201
 30
0.0
 10
5.469922325952893
 20
57.77552384782132
 30
0.0
 10
3.415355052963718
 20
57.29805652510368
 30
0.0
 10
-0.7405533694562792
 20
57.01300606813276
 30
0.0
 10
-2.841172751531757
 20
57.20547838970674
 30
0.0
 10
-6.875872216532115
 20
58.24101065780826
 30
0.0
 10
-8.809251643919424
 20
59.08388854798693
 30
0.0
 10
-12.31306378468412
 20
61.334862098543
 30
0.0
 10
-13.88289242449775
 20
62.74255849279041
 30
0.0
 10
-15.7520297936627
 20
65.0549706650603
 30
0.0
 10
-16.26492032688725
 20
65.7868856359421
 30
0.0
 10
-16.72535514241952
 20
66.55038357958176
 30
0.0
  0
SPLINE
  5
E4
330
2
100
AcDbEntity
  8
GEB-VERDECKT
 48
25.0
100
AcDbSpline
210
0.0
220
0.0
230
1.0
 70
     8
 71
     3
 72
    20
 73
    16
 74
     0
 42
0.0000000001
 43
0.0000000001
 40
5.254634188030262
 40
5.254634188030262
 40
5.254634188030262
 40
5.254634188030262
 40
5.57462937779274
 40
5.57462937779274
 40
5.894630969881846
 40
5.894630969881846
 40
6.214638320225673
 40
6.214638320225673
 40
6.53464851981409
 40
6.53464851981409
 40
6.854657545636013
 40
6.854657545636013
 40
7.174661832979977
 40
7.174661832979977
 40
7.311736426328909
 40
7.311736426328909
 40
7.311736426328909
 40
7.311736426328909
 10
-16.72535514241747
 20
96.37224212190972
 30
0.0
 10
-15.65048836681842
 20
98.15459772398913
 30
0.0
 10
-14.28796124220719
 20
99.76336668704142
 30
0.0
 10
-11.12498007842453
 20
102.4715274407178
 30
0.0
 10
-9.325067641809027
 20
103.5704385506994
 30
0.0
 10
-5.469922325991433
 20
105.1471018536703
 30
0.0
 10
-3.415355053002258
 20
105.6245691763878
 30
0.0
 10
0.7405533694177393
 20
105.9096196333587
 30
0.0
 10
2.841172751493218
 20
105.7171473117847
 30
0.0
 10
6.875872216493576
 20
104.6816150436832
 30
0.0
 10
8.809251643880998
 20
103.8387371535048
 30
0.0
 10
12.31306378464546
 20
101.5877636029484
 30
0.0
 10
13.88289242445933
 20
100.180067208701
 30
0.0
 10
15.75202979362439
 20
97.86765503643131
 30
0.0
 10
16.26492032684871
 20
97.13574006554939
 30
0.0
 10
16.7253551423812
 20
96.37224212190972
 30
0.0
  0
SPLINE
  5
E5
330
2
100
AcDbEntity
  8
GEB-VERDECKT
 48
25.0
100
AcDbSpline
210
0.0
220
0.0
230
1.0
 70
     8
 71
     3
 72
    20
 73
    16
 74
     0
 42
0.0000000001
 43
0.0000000001
 40
5.254634188030263
 40
5.254634188030263
 40
5.254634188030263
 40
5.254634188030263
 40
5.574629377792741
 40
5.574629377792741
 40
5.894630969881847
 40
5.894630969881847
 40
6.214638320225674
 40
6.214638320225674
 40
6.534648519814091
 40
6.534648519814091
 40
6.854657545636014
 40
6.854657545636014
 40
7.174661832979978
 40
7.174661832979978
 40
7.311736426328908
 40
7.311736426328908
 40
7.311736426328908
 40
7.311736426328908
 10
-16.72535514241576
 20
96.12143064455905
 30
0.0
 10
-15.65048836681671
 20
97.90378624663834
 30
0.0
 10
-14.28796124220548
 20
99.51255520969073
 30
0.0
 10
-11.12498007842282
 20
102.2207159633672
 30
0.0
 10
-9.325067641807322
 20
103.3196270733488
 30
0.0
 10
-5.469922325989728
 20
104.8962903763196
 30
0.0
 10
-3.415355053000439
 20
105.373757699037
 30
0.0
 10
0.7405533694194446
 20
105.6588081560079
 30
0.0
 10
2.841172751494923
 20
105.466335834434
 30
0.0
 10
6.875872216495281
 20
104.4308035663324
 30
0.0
 10
8.809251643882703
 20
103.5879256761541
 30
0.0
 10
12.31306378464717
 20
101.3369521255978
 30
0.0
 10
13.88289242446103
 20
99.92925573135028
 30
0.0
 10
15.75202979362609
 20
97.61684355908039
 30
0.0
 10
16.26492032685041
 20
96.88492858819859
 30
0.0
 10
16.72535514238279
 20
96.12143064455905
 30
0.0
  0
SPLINE
  5
E6
330
2
100
AcDbEntity
  8
GEB-VERDECKT
 48
25.0
100
AcDbSpline
210
0.0
220
0.0
230
1.0
 70
     8
 71
     3
 72
    20
 73
    16
 74
     0
 42
0.0000000001
 43
0.0000000001
 40
5.254634188030263
 40
5.254634188030263
 40
5.254634188030263
 40
5.254634188030263
 40
5.574629377792741
 40
5.574629377792741
 40
5.894630969881847
 40
5.894630969881847
 40
6.214638320225674
 40
6.214638320225674
 40
6.534648519814091
 40
6.534648519814091
 40
6.854657545636014
 40
6.854657545636014
 40
7.174661832979978
 40
7.174661832979978
 40
7.311736426328909
 40
7.311736426328909
 40
7.311736426328909
 40
7.311736426328909
 10
-16.72535514241406
 20
95.87061916720847
 30
0.0
 10
-15.65048836681501
 20
97.65297476928765
 30
0.0
 10
-14.28796124220378
 20
99.26174373234005
 30
0.0
 10
-11.12498007842112
 20
101.9699044860165
 30
0.0
 10
-9.325067641805617
 20
103.0688155959982
 30
0.0
 10
-5.469922325988022
 20
104.6454788989689
 30
0.0
 10
-3.415355052998847
 20
105.1229462216864
 30
0.0
 10
0.7405533694211499
 20
105.4079966786572
 30
0.0
 10
2.841172751496628
 20
105.2155243570834
 30
0.0
 10
6.875872216496986
 20
104.1799920889817
 30
0.0
 10
8.809251643884408
 20
103.3371141988033
 30
0.0
 10
12.31306378464887
 20
101.0861406482472
 30
0.0
 10
13.88289242446274
 20
99.6784442539996
 30
0.0
 10
15.7520297936278
 20
97.36603208172983
 30
0.0
 10
16.26492032685212
 20
96.63411711084791
 30
0.0
 10
16.72535514238461
 20
95.87061916720847
 30
0.0
  0
SPLINE
  5
E7
330
2
100
AcDbEntity
  8
GEB-VERDECKT
 48
25.0
100
AcDbSpline
210
0.0
220
0.0
230
1.0
 70
     8
 71
     3
 72
    20
 73
    16
 74
     0
 42
0.0000000001
 43
0.0000000001
 40
2.113041534440474
 40
2.113041534440474
 40
2.113041534440474
 40
2.113041534440474
 40
2.433036724202952
 40
2.433036724202952
 40
2.753038316292057
 40
2.753038316292057
 40
3.073045666635884
 40
3.073045666635884
 40
3.393055866224301
 40
3.393055866224301
 40
3.713064892046225
 40
3.713064892046225
 40
4.033069179390189
 40
4.033069179390189
 40
4.170143772739111
 40
4.170143772739111
 40
4.170143772739111
 40
4.170143772739111
 10
16.72535514238075
 20
66.29957210223096
 30
0.0
 10
15.65048836678147
 20
64.51721650015167
 30
0.0
 10
14.28796124217024
 20
62.90844753709928
 30
0.0
 10
11.1249800783878
 20
60.20028678342282
 30
0.0
 10
9.325067641772307
 20
59.10137567344134
 30
0.0
 10
5.469922325954712
 20
57.52471237047041
 30
0.0
 10
3.41535505296531
 20
57.04724504775299
 30
0.0
 10
-0.7405533694546876
 20
56.76219459078208
 30
0.0
 10
-2.841172751529938
 20
56.95466691235606
 30
0.0
 10
-6.875872216530524
 20
57.99019918045758
 30
0.0
 10
-8.809251643917718
 20
58.83307707063602
 30
0.0
 10
-12.31306378468241
 20
61.08405062119231
 30
0.0
 10
-13.88289242449628
 20
62.49174701543973
 30
0.0
 10
-15.75202979366099
 20
64.80415918770962
 30
0.0
 10
-16.26492032688554
 20
65.53607415859153
 30
0.0
 10
-16.72535514241781
 20
66.29957210223096
 30
0.0
  0
SPLINE
  5
E8
330
2
100
AcDbEntity
  8
GEB-VERDECKT
 48
25.0
100
AcDbSpline
210
0.0
220
0.0
230
1.0
 70
     8
 71
     3
 72
    20
 73
    16
 74
     0
 42
0.0000000001
 43
0.0000000001
 40
2.113041534440473
 40
2.113041534440473
 40
2.113041534440473
 40
2.113041534440473
 40
2.433036724202951
 40
2.433036724202951
 40
2.753038316292056
 40
2.753038316292056
 40
3.073045666635882
 40
3.073045666635882
 40
3.393055866224299
 40
3.393055866224299
 40
3.713064892046223
 40
3.713064892046223
 40
4.033069179390187
 40
4.033069179390187
 40
4.170143772739113
 40
4.170143772739113
 40
4.170143772739113
 40
4.170143772739113
 10
16.72535514238245
 20
66.04876062488028
 30
0.0
 10
15.65048836678341
 20
64.26640502280111
 30
0.0
 10
14.28796124217206
 20
62.65763605974871
 30
0.0
 10
11.1249800783894
 20
59.94947530607226
 30
0.0
 10
9.325067641774012
 20
58.85056419609066
 30
0.0
 10
5.469922325956304
 20
57.27390089311985
 30
0.0
 10
3.415355052967129
 20
56.79643357040231
 30
0.0
 10
-0.7405533694528686
 20
56.51138311343141
 30
0.0
 10
-2.841172751528347
 20
56.70385543500549
 30
0.0
 10
-6.875872216528819
 20
57.7393877031069
 30
0.0
 10
-8.809251643916013
 20
58.58226559328546
 30
0.0
 10
-12.31306378468071
 20
60.83323914384152
 30
0.0
 10
-13.88289242449445
 20
62.24093553808916
 30
0.0
 10
-15.75202979365929
 20
64.55334771035893
 30
0.0
 10
-16.26492032688384
 20
65.28526268124085
 30
0.0
 10
-16.7253551424161
 20
66.04876062488028
 30
0.0
  0
SPLINE
  5
E9
330
2
100
AcDbEntity
  8
GEB-VERDECKT
 48
25.0
100
AcDbSpline
210
0.0
220
0.0
230
1.0
 70
     8
 71
     3
 72
    20
 73
    16
 74
     0
 42
0.0000000001
 43
0.0000000001
 40
2.113041534440474
 40
2.113041534440474
 40
2.113041534440474
 40
2.113041534440474
 40
2.433036724202952
 40
2.433036724202952
 40
2.753038316292057
 40
2.753038316292057
 40
3.073045666635884
 40
3.073045666635884
 40
3.393055866224301
 40
3.393055866224301
 40
3.713064892046225
 40
3.713064892046225
 40
4.033069179390189
 40
4.033069179390189
 40
4.170143772739111
 40
4.170143772739111
 40
4.170143772739111
 40
4.170143772739111
 10
16.72535514238416
 20
65.79794914752972
 30
0.0
 10
15.65048836678488
 20
64.01559354545032
 30
0.0
 10
14.28796124217365
 20
62.40682458239803
 30
0.0
 10
11.12498007839122
 20
59.69866382872158
 30
0.0
 10
9.325067641775717
 20
58.59975271873998
 30
0.0
 10
5.469922325958123
 20
57.02308941576916
 30
0.0
 10
3.41535505296872
 20
56.54562209305175
 30
0.0
 10
-0.740553369451277
 20
56.26057163608084
 30
0.0
 10
-2.841172751526528
 20
56.45304395765482
 30
0.0
 10
-6.875872216527113
 20
57.48857622575622
 30
0.0
 10
-8.809251643914308
 20
58.33145411593477
 30
0.0
 10
-12.313063784679
 20
60.58242766649107
 30
0.0
 10
-13.88289242449286
 20
61.99012406073848
 30
0.0
 10
-15.75202979365781
 20
64.30253623300825
 30
0.0
 10
-16.26492032688213
 20
65.03445120389017
 30
0.0
 10
-16.7253551424144
 20
65.79794914752972
 30
0.0
  0
LINE
  5
EA
330
2
100
AcDbEntity
  8
GEB-VERDECKT
 48
25.0
100
AcDbLine
 10
20.49999999999068
 20
79.99024901184964
 30
0.0
 11
20.4999999999884
 21
80.33484217203579
 31
0.0
  0
LINE
  5
EB
330
2
100
AcDbEntity
  8
GEB-VERDECKT
 48
25.0
100
AcDbLine
 10
-20.5000000000091
 20
79.99024901184998
 30
0.0
 11
-20.5000000000116
 21
80.33484217203602
 31
0.0
  0
ELLIPSE
  5
EC
330
2
100
AcDbEntity
  8
GEB-VERDECKT
 48
25.0
100
AcDbEllipse
 10
-0.0000000000131877
 20
80.5616629863357
 30
0.0
 11
-20.49999999999995
 21
-0.0000000001298119
 31
0.0
210
0.0
220
0.0
230
1.0
 40
0.9990482215818605
 41
6.235246400478252
 42
9.472716867458007
  0
ELLIPSE
  5
ED
330
2
100
AcDbEntity
  8
GEB-VERDECKT
 48
25.0
100
AcDbEllipse
 10
-0.0000000000222826
 20
81.90514011718802
 30
0.0
 11
-20.49999999999997
 21
-0.0000000001297438
 31
0.0
210
0.0
220
0.0
230
1.0
 40
0.9990482215818602
 41
6.268063135962324
 42
9.439900131973935
  0
ELLIPSE
  5
EE
330
2
100
AcDbEntity
  8
GEB-VERDECKT
 48
25.0
100
AcDbEllipse
 10
-0.0000000000222826
 20
81.90514011718802
 30
0.0
 11
-24.84999999999994
 21
-0.000000000000003
 31
0.0
210
0.0
220
0.0
230
1.0
 40
0.9990482215818607
 41
0.0
 42
6.283185307179586
  0
ELLIPSE
  5
EF
330
2
100
AcDbEntity
  8
GEB-VERDECKT
 48
25.0
100
AcDbEllipse
 10
-0.0000000000247837
 20
82.28462878726645
 30
0.0
 11
-24.84999999999994
 21
-0.000000000000003
 31
0.0
210
0.0
220
0.0
230
1.0
 40
0.9990482215818607
 41
0.0
 42
6.283185307179586
  0
ELLIPSE
  5
F0
330
2
100
AcDbEntity
  8
GEB-VERDECKT
 48
25.0
100
AcDbEllipse
 10
-0.0000000000247837
 20
82.28462878726645
 30
0.0
 11
-20.49999999999995
 21
-0.0000000001297209
 31
0.0
210
0.0
220
0.0
230
1.0
 40
0.9990482215818607
 41
6.277328317930621
 42
9.430634950005655
  0
ELLIPSE
  5
F1
330
2
100
AcDbEntity
  8
GEB-VERDECKT
 48
25.0
100
AcDbEllipse
 10
-0.0000000000253522
 20
82.37186756199719
 30
0.0
 11
22.49999999999996
 21
-0.0000000000001984
 31
0.0
210
0.0
220
0.0
230
1.0
 40
0.9990482215818605
 41
0.0000000000000273
 42
3.14159265358982
  0
ELLIPSE
  5
F2
330
2
100
AcDbEntity
  8
GEB-VERDECKT
 48
25.0
100
AcDbEllipse
 10
-0.0000000000122782
 20
80.44389064044924
 30
0.0
 11
21.49999999999995
 21
0.0000000001359435
 31
0.0
210
0.0
220
0.0
230
1.0
 40
0.9990482215818607
 41
0.3812629424199171
 42
2.760329711157218
  0
ELLIPSE
  5
F3
330
2
100
AcDbEntity
  8
GEB-VERDECKT
 48
25.0
100
AcDbEllipse
 10
-0.0000000000115961
 20
80.33484217203591
 30
0.0
 11
21.49999999999995
 21
0.0000000001359435
 31
0.0
210
0.0
220
0.0
230
1.0
 40
0.9990482215818607
 41
0.3812629424199171
 42
2.760329711157218
  0
LINE
  5
F4
330
2
100
AcDbEntity
  8
GEB-VERDECKT
 48
25.0
100
AcDbLine
 10
21.0297408448007
 20
88.43627641310423
 30
0.0
 11
19.95620204346289
 21
88.43627641310423
 31
0.0
  0
LINE
  5
F5
330
2
100
AcDbEntity
  8
GEB-VERDECKT
 48
25.0
100
AcDbLine
 10
19.95620204346289
 20
88.43627641310423
 30
0.0
 11
19.95620204346358
 21
88.32722794469077
 31
0.0
  0
LINE
  5
F6
330
2
100
AcDbEntity
  8
GEB-VERDECKT
 48
25.0
100
AcDbLine
 10
19.95620204346358
 20
88.32722794469077
 30
0.0
 11
18.87458608816541
 21
88.32722794469077
 31
0.0
  0
LINE
  5
F7
330
2
100
AcDbEntity
  8
GEB-VERDECKT
 48
25.0
100
AcDbLine
 10
22.4999999999909
 20
87.98263478450463
 30
0.0
 11
18.87458608816769
 21
87.98263478450463
 31
0.0
  0
ELLIPSE
  5
F8
330
2
100
AcDbEntity
  8
GEB-VERDECKT
 48
25.0
100
AcDbEllipse
 10
-0.0000000000093223
 20
79.99024901184987
 30
0.0
 11
20.49999999999995
 21
0.000000000130399
 31
0.0
210
0.0
220
0.0
230
1.0
 40
0.9990482215818605
 41
5.882288822867612
 42
6.684081791478827
  0
LINE
  5
F9
330
2
100
AcDbEntity
  8
GEB-VERDECKT
 48
25.0
100
AcDbLine
 10
18.87458608816769
 20
87.98263478450463
 30
0.0
 11
18.87458608816541
 21
88.32722794469077
 31
0.0
  0
ELLIPSE
  5
FA
330
2
100
AcDbEntity
  8
GEB-VERDECKT
 48
25.0
100
AcDbEllipse
 10
-0.0000000000115961
 20
80.33484217203591
 30
0.0
 11
20.49999999999994
 21
0.0000000001290124
 31
0.0
210
0.0
220
0.0
230
1.0
 40
0.9990482215818605
 41
5.882288822867677
 42
6.684081791478894
  0
LINE
  5
FB
330
2
100
AcDbEntity
  8
GEB-VERDECKT
 48
25.0
100
AcDbLine
 10
22.49999999999056
 20
71.997863239195
 30
0.0
 11
22.49999999997817
 21
73.8255155698024
 31
0.0
  0
LINE
  5
FC
330
2
100
AcDbEntity
  8
GEB-VERDECKT
 48
25.0
100
AcDbLine
 10
22.49999999999056
 20
71.997863239195
 30
0.0
 11
18.87458608816746
 21
71.997863239195
 31
0.0
  0
LINE
  5
FD
330
2
100
AcDbEntity
  8
GEB-VERDECKT
 48
25.0
100
AcDbLine
 10
18.87458608816507
 20
72.34245639938115
 30
0.0
 11
18.87458608816746
 21
71.997863239195
 31
0.0
  0
LINE
  5
FE
330
2
100
AcDbEntity
  8
GEB-VERDECKT
 48
25.0
100
AcDbLine
 10
18.87458608816507
 20
72.34245639938115
 30
0.0
 11
19.95620204346346
 21
72.34245639938115
 31
0.0
  0
LINE
  5
FF
330
2
100
AcDbEntity
  8
GEB-VERDECKT
 48
25.0
100
AcDbLine
 10
19.95620204346346
 20
72.34245639938115
 30
0.0
 11
19.95620204346255
 21
72.45150486779436
 31
0.0
  0
ELLIPSE
  5
100
330
2
100
AcDbEntity
  8
GEB-VERDECKT
 48
25.0
100
AcDbEllipse
 10
-0.0000000000115961
 20
80.33484217203591
 30
0.0
 11
-21.49999999999995
 21
-0.0000000001366718
 31
0.0
210
0.0
220
0.0
230
1.0
 40
0.9990482215818607
 41
0.3812629424198832
 42
2.760329711157185
  0
LINE
  5
101
330
2
100
AcDbEntity
  8
GEB-VERDECKT
 48
25.0
100
AcDbLine
 10
19.95620204346255
 20
72.45150486779436
 30
0.0
 11
21.02974084480059
 21
72.45150486779436
 31
0.0
  0
ELLIPSE
  5
102
330
2
100
AcDbEntity
  8
GEB-VERDECKT
 48
25.0
100
AcDbEllipse
 10
-0.0000000000122782
 20
80.44389064044935
 30
0.0
 11
-21.49999999999995
 21
-0.0000000001366718
 31
0.0
210
0.0
220
0.0
230
1.0
 40
0.9990482215818607
 41
0.3812629424198832
 42
2.760329711157185
  0
SPLINE
  5
103
330
2
100
AcDbEntity
  8
GEB-VERDECKT
 48
25.0
100
AcDbSpline
210
0.0
220
0.0
230
1.0
 70
     8
 71
     3
 72
    24
 73
    20
 74
     0
 42
0.0000000001
 43
0.0000000001
 40
0.0000055821876418
 40
0.0000055821876418
 40
0.0000055821876418
 40
0.0000055821876418
 40
0.0797062645507928
 40
0.0797062645507928
 40
0.1104873140283597
 40
0.1104873140283597
 40
0.1192869985898762
 40
0.1192869985898762
 40
0.1245841505066574
 40
0.1245841505066574
 40
0.1289625715540771
 40
0.1289625715540771
 40
0.1336538861313518
 40
0.1336538861313518
 40
0.1410144087418903
 40
0.1410144087418903
 40
0.1573264411730768
 40
0.1573264411730768
 40
0.2370684289283308
 40
0.2370684289283308
 40
0.2370684289283308
 40
0.2370684289283308
 10
16.1399098727112
 20
65.9375439080743
 30
0.0
 10
16.32385703370949
 20
66.12545907627475
 30
0.0
 10
16.47051698764085
 20
66.28110856734349
 30
0.0
 10
16.61037938480126
 20
66.43025299365274
 30
0.0
 10
16.65980765769188
 20
66.48324958059254
 30
0.0
 10
16.70126216962285
 20
66.52697973739316
 30
0.0
 10
16.71033019019217
 20
66.53646675590426
 30
0.0
 10
16.72055384423379
 20
66.54678665783149
 30
0.0
 10
16.72349428405209
 20
66.54963321741388
 30
0.0
 10
16.72595803471404
 20
66.55154910606881
 30
0.0
 10
16.7259219703551
 20
66.55113830929792
 30
0.0
 10
16.72347886794409
 20
66.54765989255406
 30
0.0
 10
16.72097724944501
 20
66.54451109886133
 30
0.0
 10
16.71260510887134
 20
66.53434023025238
 30
0.0
 10
16.70554151230374
 20
66.52603055526731
 30
0.0
 10
16.68176269505579
 20
66.49839487907184
 30
0.0
 10
16.66035792142418
 20
66.47402310177574
 30
0.0
 10
16.54491670930793
 20
66.34376963353168
 30
0.0
 10
16.37255070482763
 20
66.15361246043483
 30
0.0
 10
16.13990987271131
 20
65.91269250637049
 30
0.0
  0
SPLINE
  5
104
330
2
100
AcDbEntity
  8
GEB-VERDECKT
 48
25.0
100
AcDbSpline
210
0.0
220
0.0
230
1.0
 70
     8
 71
     3
 72
    16
 73
    12
 74
     0
 42
0.0000000001
 43
0.0000000001
 40
1.676880953268498
 40
1.676880953268498
 40
1.676880953268498
 40
1.676880953268498
 40
1.780979118027105
 40
1.780979118027105
 40
2.041461774906938
 40
2.041461774906938
 40
2.513255447205641
 40
2.513255447205641
 40
2.965658246933415
 40
2.965658246933415
 40
3.315140399756461
 40
3.315140399756461
 40
3.315140399756461
 40
3.315140399756461
 10
-0.0000000000204636
 20
59.14302911372146
 30
0.0
 10
0.3819863123624145
 20
59.14302911372146
 30
0.0
 10
0.7639799109587102
 20
59.15274757129975
 30
0.0
 10
2.100550213724204
 20
59.22082186153954
 30
0.0
 10
3.0514053008593
 20
59.33022438500768
 30
0.0
 10
5.696710705048872
 20
59.80655240722865
 30
0.0
 10
7.359638755909486
 20
60.30882183390247
 30
0.0
 10
10.47087016956345
 20
61.65364712572352
 30
0.0
 10
11.9151591562528
 20
62.47711580819395
 30
0.0
 10
14.28784488901215
 20
64.19791347626563
 30
0.0
 10
15.25389689304495
 20
65.03241834267782
 30
0.0
 10
16.1399098727112
 20
65.9375439080743
 30
0.0
  0
SPLINE
  5
105
330
2
100
AcDbEntity
  8
GEB-VERDECKT
 48
25.0
100
AcDbSpline
210
0.0
220
0.0
230
1.0
 70
     8
 71
     3
 72
    14
 73
    10
 74
     0
 42
0.0000000001
 43
0.0000000001
 40
0.0010405006945536
 40
0.0010405006945536
 40
0.0010405006945536
 40
0.0010405006945536
 40
0.7997210698762079
 40
0.7997210698762079
 40
1.294895980592083
 40
1.294895980592083
 40
1.56056094427763
 40
1.56056094427763
 40
1.676880953268498
 40
1.676880953268498
 40
1.676880953268498
 40
1.676880953268498
 10
-16.13990987275179
 20
65.9375439080743
 30
0.0
 10
-14.29632139016575
 20
64.05418654655102
 30
0.0
 10
-12.02166948192348
 20
62.39197965433857
 30
0.0
 10
-7.704891821204682
 20
60.42371791614641
 30
0.0
 10
-5.966715671588644
 20
59.87168890377927
 30
0.0
 10
-3.222556655143762
 20
59.3534512239504
 30
0.0
 10
-2.253581214652285
 20
59.23485124711146
 30
0.0
 10
-0.8536591951585705
 20
59.15516360900437
 30
0.0
 10
-0.4268341463650814
 20
59.14302911372146
 30
0.0
 10
-0.0000000000204636
 20
59.14302911372146
 30
0.0
  0
SPLINE
  5
106
330
2
100
AcDbEntity
  8
GEB-VERDECKT
 48
25.0
100
AcDbSpline
210
0.0
220
0.0
230
1.0
 70
     8
 71
     3
 72
    24
 73
    20
 74
     0
 42
0.0000000001
 43
0.0000000001
 40
0.0000055821876371
 40
0.0000055821876371
 40
0.0000055821876371
 40
0.0000055821876371
 40
0.0797062645507768
 40
0.0797062645507768
 40
0.1104873140283357
 40
0.1104873140283357
 40
0.1192869985898132
 40
0.1192869985898132
 40
0.124584150506654
 40
0.124584150506654
 40
0.1289625715541255
 40
0.1289625715541255
 40
0.1336538861313907
 40
0.1336538861313907
 40
0.1410144087418755
 40
0.1410144087418755
 40
0.1573264411730721
 40
0.1573264411730721
 40
0.2370684289279882
 40
0.2370684289279882
 40
0.2370684289279882
 40
0.2370684289279882
 10
-16.13990987275167
 20
65.91269250637049
 30
0.0
 10
-16.32385703374996
 20
66.10318589987684
 30
0.0
 10
-16.47051698768132
 20
66.26246041426043
 30
0.0
 10
-16.61037938484173
 20
66.41759484646434
 30
0.0
 10
-16.65980765773236
 20
66.47310778833332
 30
0.0
 10
-16.70126216966332
 20
66.52101809313911
 30
0.0
 10
-16.71033019023264
 20
66.53162035856031
 30
0.0
 10
-16.72055384427449
 20
66.54397562180077
 30
0.0
 10
-16.72349428409257
 20
66.5476572437625
 30
0.0
 10
-16.72595803475451
 20
66.55121167537345
 30
0.0
 10
-16.72592197039569
 20
66.55154236395856
 30
0.0
 10
-16.72347886798457
 20
66.54959637910121
 30
0.0
 10
-16.72097724948548
 20
66.54719137746713
 30
0.0
 10
-16.71260510891181
 20
66.53879107985438
 30
0.0
 10
-16.70554151234421
 20
66.53144608920377
 30
0.0
 10
-16.68176269509627
 20
66.50647290410768
 30
0.0
 10
-16.66035792146476
 20
66.48364218300992
 30
0.0
 10
-16.54491670934851
 20
66.36043249521731
 30
0.0
 10
-16.37255070486833
 20
66.17520314054184
 30
0.0
 10
-16.13990987275179
 20
65.9375439080743
 30
0.0
  0
SPLINE
  5
107
330
2
100
AcDbEntity
  8
GEB-VERDECKT
 48
25.0
100
AcDbSpline
210
0.0
220
0.0
230
1.0
 70
     8
 71
     3
 72
    16
 73
    12
 74
     0
 42
0.0000000001
 43
0.0000000001
 40
1.676880953268758
 40
1.676880953268758
 40
1.676880953268758
 40
1.676880953268758
 40
1.780979118027384
 40
1.780979118027384
 40
2.041461774907237
 40
2.041461774907237
 40
2.51325544720595
 40
2.51325544720595
 40
2.965658246933748
 40
2.965658246933748
 40
3.315140399756817
 40
3.315140399756817
 40
3.315140399756817
 40
3.315140399756817
 10
-0.0000000000201226
 20
59.07323809393699
 30
0.0
 10
-0.3819863124030007
 20
59.07323809393699
 30
0.0
 10
-0.7639799109994101
 20
59.08295627042128
 30
0.0
 10
-2.10055021376479
 20
59.15103450109814
 30
0.0
 10
-3.051405300900114
 20
59.26043992047585
 30
0.0
 10
-5.696710705089572
 20
59.73710284202354
 30
0.0
 10
-7.359638755950072
 20
60.23991339915835
 30
0.0
 10
-10.47087016960427
 20
61.58953964452803
 30
0.0
 10
-11.91515915629338
 20
62.41710126011071
 30
0.0
 10
-14.28784488905262
 20
64.15213612634068
 30
0.0
 10
-15.25389689308554
 20
64.9951484775795
 30
0.0
 10
-16.13990987275167
 20
65.91269250637049
 30
0.0
  0
SPLINE
  5
108
330
2
100
AcDbEntity
  8
GEB-VERDECKT
 48
25.0
100
AcDbSpline
210
0.0
220
0.0
230
1.0
 70
     8
 71
     3
 72
    14
 73
    10
 74
     0
 42
0.0000000001
 43
0.0000000001
 40
0.00104050069455
 40
0.00104050069455
 40
0.00104050069455
 40
0.00104050069455
 40
0.7997210698762909
 40
0.7997210698762909
 40
1.294895980592259
 40
1.294895980592259
 40
1.560560944277864
 40
1.560560944277864
 40
1.676880953268758
 40
1.676880953268758
 40
1.676880953268758
 40
1.676880953268758
 10
16.13990987271131
 20
65.91269250637049
 30
0.0
 10
14.29632139012506
 20
64.00349518921337
 30
0.0
 10
12.02166948188255
 20
62.33095645755907
 30
0.0
 10
7.704891821163869
 20
60.35499214409174
 30
0.0
 10
5.966715671547945
 20
59.80230923587328
 30
0.0
 10
3.222556655103062
 20
59.28367197389036
 30
0.0
 10
2.253581214611472
 20
59.16506554733633
 30
0.0
 10
0.8536591951178706
 20
59.08537215129001
 30
0.0
 10
0.4268341463242678
 20
59.07323809393699
 30
0.0
 10
-0.0000000000201226
 20
59.07323809393699
 30
0.0
  0
SPLINE
  5
109
330
2
100
AcDbEntity
  8
GEB-VERDECKT
 48
25.0
100
AcDbSpline
210
0.0
220
0.0
230
1.0
 70
     8
 71
     3
 72
    24
 73
    20
 74
     0
 42
0.0000000001
 43
0.0000000001
 40
0.0000055821876419
 40
0.0000055821876419
 40
0.0000055821876419
 40
0.0000055821876419
 40
0.0797062645505069
 40
0.0797062645505069
 40
0.1104873140278859
 40
0.1104873140278859
 40
0.1192869985893094
 40
0.1192869985893094
 40
0.1245841505060605
 40
0.1245841505060605
 40
0.1289625715534667
 40
0.1289625715534667
 40
0.1336538861307285
 40
0.1336538861307285
 40
0.1410144087412548
 40
0.1410144087412548
 40
0.1573264411724262
 40
0.1573264411724262
 40
0.2370684289276523
 40
0.2370684289276523
 40
0.2370684289276523
 40
0.2370684289276523
 10
16.1399098727129
 20
65.68673243072351
 30
0.0
 10
16.32385703371062
 20
65.87464759892339
 30
0.0
 10
16.4705169876421
 20
66.03029708999258
 30
0.0
 10
16.61037938480297
 20
66.17944151630206
 30
0.0
 10
16.65980765769359
 20
66.23243810324186
 30
0.0
 10
16.70126216962444
 20
66.27616826004248
 30
0.0
 10
16.71033019019387
 20
66.28565527855357
 30
0.0
 10
16.72055384423549
 20
66.29597518048092
 30
0.0
 10
16.7234942840538
 20
66.29882174006332
 30
0.0
 10
16.72595803471574
 20
66.30073762871814
 30
0.0
 10
16.72592197035681
 20
66.30032683194713
 30
0.0
 10
16.7234788679458
 20
66.2968484152035
 30
0.0
 10
16.72097724944672
 20
66.29369962151077
 30
0.0
 10
16.71260510887305
 20
66.28352875290182
 30
0.0
 10
16.70554151230544
 20
66.2752190779164
 30
0.0
 10
16.68176269505738
 20
66.24758340172127
 30
0.0
 10
16.66035792142588
 20
66.22321162442506
 30
0.0
 10
16.54491670930963
 20
66.092958156181
 30
0.0
 10
16.37255070482945
 20
65.90280098308415
 30
0.0
 10
16.13990987271302
 20
65.66188102901993
 30
0.0
  0
SPLINE
  5
10A
330
2
100
AcDbEntity
  8
GEB-VERDECKT
 48
25.0
100
AcDbSpline
210
0.0
220
0.0
230
1.0
 70
     8
 71
     3
 72
    16
 73
    12
 74
     0
 42
0.0000000001
 43
0.0000000001
 40
1.676880953268403
 40
1.676880953268403
 40
1.676880953268403
 40
1.676880953268403
 40
1.780979118027001
 40
1.780979118027001
 40
2.041461774906799
 40
2.041461774906799
 40
2.513255447205438
 40
2.513255447205438
 40
2.965658246933149
 40
2.965658246933149
 40
3.31514039975615
 40
3.31514039975615
 40
3.31514039975615
 40
3.31514039975615
 10
-0.000000000018872
 20
58.89221763637078
 30
0.0
 10
0.3819863123638925
 20
58.89221763637078
 30
0.0
 10
0.7639799109604155
 20
58.90193609394907
 30
0.0
 10
2.100550213725909
 20
58.97001038418887
 30
0.0
 10
3.051405300861006
 20
59.079412907657
 30
0.0
 10
5.696710705050691
 20
59.55574092987797
 30
0.0
 10
7.359638755911191
 20
60.05801035655179
 30
0.0
 10
10.47087016956538
 20
61.40283564837284
 30
0.0
 10
11.9151591562545
 20
62.22630433084339
 30
0.0
 10
14.28784488901374
 20
63.94710199891495
 30
0.0
 10
15.25389689304666
 20
64.78160686532715
 30
0.0
 10
16.1399098727129
 20
65.68673243072351
 30
0.0
  0
SPLINE
  5
10B
330
2
100
AcDbEntity
  8
GEB-VERDECKT
 48
25.0
100
AcDbSpline
210
0.0
220
0.0
230
1.0
 70
     8
 71
     3
 72
    14
 73
    10
 74
     0
 42
0.0000000001
 43
0.0000000001
 40
0.0010405006945528
 40
0.0010405006945528
 40
0.0010405006945528
 40
0.0010405006945528
 40
0.7997210698761671
 40
0.7997210698761671
 40
1.294895980591995
 40
1.294895980591995
 40
1.560560944277533
 40
1.560560944277533
 40
1.676880953268403
 40
1.676880953268403
 40
1.676880953268403
 40
1.676880953268403
 10
-16.13990987275008
 20
65.68673243072351
 30
0.0
 10
-14.29632139016428
 20
63.80337506920046
 30
0.0
 10
-12.02166948192189
 20
62.14116817698789
 30
0.0
 10
-7.70489182120275
 20
60.17290643879573
 30
0.0
 10
-5.966715671586825
 20
59.62087742642859
 30
0.0
 10
-3.22255665514217
 20
59.10263974659949
 30
0.0
 10
-2.253581214650466
 20
58.98403976976067
 30
0.0
 10
-0.8536591951568652
 20
58.90435213165381
 30
0.0
 10
-0.4268341463633761
 20
58.89221763637078
 30
0.0
 10
-0.000000000018872
 20
58.89221763637078
 30
0.0
  0
SPLINE
  5
10C
330
2
100
AcDbEntity
  8
GEB-VERDECKT
 48
25.0
100
AcDbSpline
210
0.0
220
0.0
230
1.0
 70
     8
 71
     3
 72
    24
 73
    20
 74
     0
 42
0.0000000001
 43
0.0000000001
 40
0.000005582187637
 40
0.000005582187637
 40
0.000005582187637
 40
0.000005582187637
 40
0.0797062645506737
 40
0.0797062645506737
 40
0.1104873140282086
 40
0.1104873140282086
 40
0.1192869985896641
 40
0.1192869985896641
 40
0.1245841505064243
 40
0.1245841505064243
 40
0.1289625715538297
 40
0.1289625715538297
 40
0.1336538861310641
 40
0.1336538861310641
 40
0.1410144087415127
 40
0.1410144087415127
 40
0.1573264411726752
 40
0.1573264411726752
 40
0.2370684289274711
 40
0.2370684289274711
 40
0.2370684289274711
 40
0.2370684289274711
 10
-16.13990987274997
 20
65.66188102901993
 30
0.0
 10
-16.32385703374814
 20
65.85237442252594
 30
0.0
 10
-16.4705169876795
 20
66.01164893690963
 30
0.0
 10
-16.61037938484014
 20
66.16678336911377
 30
0.0
 10
-16.65980765773065
 20
66.22229631098264
 30
0.0
 10
-16.70126216966162
 20
66.27020661578843
 30
0.0
 10
-16.71033019023093
 20
66.28080888120962
 30
0.0
 10
-16.72055384427256
 20
66.29316414444997
 30
0.0
 10
-16.72349428409086
 20
66.29684576641171
 30
0.0
 10
-16.72595803475281
 20
66.30040019802277
 30
0.0
 10
-16.72592197039398
 20
66.30073088660799
 30
0.0
 10
-16.72347886798286
 20
66.29878490175054
 30
0.0
 10
-16.72097724948378
 20
66.29637990011644
 30
0.0
 10
-16.71260510891011
 20
66.2879796025037
 30
0.0
 10
-16.7055415123425
 20
66.28063461185309
 30
0.0
 10
-16.68176269509445
 20
66.25566142675712
 30
0.0
 10
-16.66035792146306
 20
66.23283070565924
 30
0.0
 10
-16.54491670934681
 20
66.10962101786651
 30
0.0
 10
-16.37255070486651
 20
65.92439166319116
 30
0.0
 10
-16.13990987275008
 20
65.68673243072351
 30
0.0
  0
SPLINE
  5
10D
330
2
100
AcDbEntity
  8
GEB-VERDECKT
 48
25.0
100
AcDbSpline
210
0.0
220
0.0
230
1.0
 70
     8
 71
     3
 72
    16
 73
    12
 74
     0
 42
0.0000000001
 43
0.0000000001
 40
1.676880953268758
 40
1.676880953268758
 40
1.676880953268758
 40
1.676880953268758
 40
1.780979118027384
 40
1.780979118027384
 40
2.041461774907237
 40
2.041461774907237
 40
2.51325544720595
 40
2.51325544720595
 40
2.965658246933748
 40
2.965658246933748
 40
3.315140399756816
 40
3.315140399756816
 40
3.315140399756816
 40
3.315140399756816
 10
-0.0000000000184173
 20
58.82242661658631
 30
0.0
 10
-0.3819863124012954
 20
58.82242661658631
 30
0.0
 10
-0.7639799109977048
 20
58.8321447930706
 30
0.0
 10
-2.100550213763085
 20
58.90022302374735
 30
0.0
 10
-3.051405300898295
 20
59.00962844312505
 30
0.0
 10
-5.69671070508798
 20
59.48629136467286
 30
0.0
 10
-7.359638755948367
 20
59.98910192180767
 30
0.0
 10
-10.47087016960256
 20
61.33872816717723
 30
0.0
 10
-11.91515915629179
 20
62.16628978276003
 30
0.0
 10
-14.2878448890508
 20
63.90132464899
 30
0.0
 10
-15.25389689308395
 20
64.74433700022882
 30
0.0
 10
-16.13990987274997
 20
65.66188102901993
 30
0.0
  0
SPLINE
  5
10E
330
2
100
AcDbEntity
  8
GEB-VERDECKT
 48
25.0
100
AcDbSpline
210
0.0
220
0.0
230
1.0
 70
     8
 71
     3
 72
    14
 73
    10
 74
     0
 42
0.0000000001
 43
0.0000000001
 40
0.0010405006945501
 40
0.0010405006945501
 40
0.0010405006945501
 40
0.0010405006945501
 40
0.7997210698762909
 40
0.7997210698762909
 40
1.294895980592259
 40
1.294895980592259
 40
1.560560944277864
 40
1.560560944277864
 40
1.676880953268758
 40
1.676880953268758
 40
1.676880953268758
 40
1.676880953268758
 10
16.13990987271302
 20
65.66188102901993
 30
0.0
 10
14.29632139012676
 20
63.75268371186246
 30
0.0
 10
12.02166948188426
 20
62.08014498020827
 30
0.0
 10
7.704891821165574
 20
60.10418066674105
 30
0.0
 10
5.96671567154965
 20
59.5514977585226
 30
0.0
 10
3.222556655104767
 20
59.03286049653968
 30
0.0
 10
2.253581214613177
 20
58.91425406998564
 30
0.0
 10
0.8536591951194623
 20
58.83456067393922
 30
0.0
 10
0.4268341463259731
 20
58.82242661658631
 30
0.0
 10
-0.0000000000184173
 20
58.82242661658631
 30
0.0
  0
SPLINE
  5
10F
330
2
100
AcDbEntity
  8
GEB-VERDECKT
 48
25.0
100
AcDbSpline
210
0.0
220
0.0
230
1.0
 70
     8
 71
     3
 72
    24
 73
    20
 74
     0
 42
0.0000000001
 43
0.0000000001
 40
0.0000055821876419
 40
0.0000055821876419
 40
0.0000055821876419
 40
0.0000055821876419
 40
0.0797062645506145
 40
0.0797062645506145
 40
0.110487314028043
 40
0.110487314028043
 40
0.1192869985894759
 40
0.1192869985894759
 40
0.1245841505062301
 40
0.1245841505062301
 40
0.1289625715536373
 40
0.1289625715536373
 40
0.1336538861309002
 40
0.1336538861309002
 40
0.1410144087414276
 40
0.1410144087414276
 40
0.1573264411725955
 40
0.1573264411725955
 40
0.2370684289277609
 40
0.2370684289277609
 40
0.2370684289277609
 40
0.2370684289277609
 10
16.13990987271461
 20
65.43592095337283
 30
0.0
 10
16.32385703371255
 20
65.62383612157304
 30
0.0
 10
16.47051698764392
 20
65.7794856126419
 30
0.0
 10
16.61037938480467
 20
65.92863003895138
 30
0.0
 10
16.65980765769529
 20
65.98162662589118
 30
0.0
 10
16.70126216962603
 20
66.0253567826918
 30
0.0
 10
16.71033019019558
 20
66.03484380120289
 30
0.0
 10
16.7205538442372
 20
66.04516370313024
 30
0.0
 10
16.7234942840555
 20
66.04801026271264
 30
0.0
 10
16.72595803471745
 20
66.04992615136734
 30
0.0
 10
16.72592197035851
 20
66.04951535459645
 30
0.0
 10
16.7234788679475
 20
66.04603693785259
 30
0.0
 10
16.72097724944842
 20
66.04288814416008
 30
0.0
 10
16.71260510887475
 20
66.03271727555091
 30
0.0
 10
16.70554151230715
 20
66.02440760056584
 30
0.0
 10
16.6817626950592
 20
65.99677192437059
 30
0.0
 10
16.66035792142759
 20
65.97240014707438
 30
0.0
 10
16.54491670931134
 20
65.84214667883021
 30
0.0
 10
16.37255070483104
 20
65.65198950573336
 30
0.0
 10
16.13990987271472
 20
65.41106955166924
 30
0.0
  0
SPLINE
  5
110
330
2
100
AcDbEntity
  8
GEB-VERDECKT
 48
25.0
100
AcDbSpline
210
0.0
220
0.0
230
1.0
 70
     8
 71
     3
 72
    16
 73
    12
 74
     0
 42
0.0000000001
 43
0.0000000001
 40
1.676880953268417
 40
1.676880953268417
 40
1.676880953268417
 40
1.676880953268417
 40
1.780979118027016
 40
1.780979118027016
 40
2.041461774906816
 40
2.041461774906816
 40
2.513255447205459
 40
2.513255447205459
 40
2.965658246933175
 40
2.965658246933175
 40
3.315140399756177
 40
3.315140399756177
 40
3.315140399756177
 40
3.315140399756177
 10
-0.000000000017053
 20
58.64140615902022
 30
0.0
 10
0.3819863123655978
 20
58.64140615902022
 30
0.0
 10
0.7639799109621209
 20
58.65112461659851
 30
0.0
 10
2.100550213727615
 20
58.7191989068383
 30
0.0
 10
3.051405300862711
 20
58.82860143030644
 30
0.0
 10
5.69671070505251
 20
59.30492945252741
 30
0.0
 10
7.359638755912897
 20
59.80719887920111
 30
0.0
 10
10.47087016956698
 20
61.15202417102216
 30
0.0
 10
11.91515915625621
 20
61.97549285349271
 30
0.0
 10
14.28784488901556
 20
63.69629052156426
 30
0.0
 10
15.25389689304836
 20
64.53079538797658
 30
0.0
 10
16.13990987271461
 20
65.43592095337283
 30
0.0
  0
SPLINE
  5
111
330
2
100
AcDbEntity
  8
GEB-VERDECKT
 48
25.0
100
AcDbSpline
210
0.0
220
0.0
230
1.0
 70
     8
 71
     3
 72
    14
 73
    10
 74
     0
 42
0.0000000001
 43
0.0000000001
 40
0.0010405006945529
 40
0.0010405006945529
 40
0.0010405006945529
 40
0.0010405006945529
 40
0.799721069876172
 40
0.799721069876172
 40
1.294895980592006
 40
1.294895980592006
 40
1.560560944277546
 40
1.560560944277546
 40
1.676880953268417
 40
1.676880953268417
 40
1.676880953268417
 40
1.676880953268417
 10
-16.13990987274837
 20
65.43592095337283
 30
0.0
 10
-14.29632139016257
 20
63.55256359184977
 30
0.0
 10
-12.02166948192018
 20
61.89035669963732
 30
0.0
 10
-7.704891821201044
 20
59.92209496144517
 30
0.0
 10
-5.96671567158512
 20
59.37006594907803
 30
0.0
 10
-3.222556655140351
 20
58.85182826924893
 30
0.0
 10
-2.253581214648647
 20
58.73322829240999
 30
0.0
 10
-0.8536591951551599
 20
58.65354065430313
 30
0.0
 10
-0.4268341463616708
 20
58.64140615902022
 30
0.0
 10
-0.000000000017053
 20
58.64140615902022
 30
0.0
  0
SPLINE
  5
112
330
2
100
AcDbEntity
  8
GEB-VERDECKT
 48
25.0
100
AcDbSpline
210
0.0
220
0.0
230
1.0
 70
     8
 71
     3
 72
    24
 73
    20
 74
     0
 42
0.0000000001
 43
0.0000000001
 40
0.0000055821876371
 40
0.0000055821876371
 40
0.0000055821876371
 40
0.0000055821876371
 40
0.0797062645506976
 40
0.0797062645506976
 40
0.1104873140282398
 40
0.1104873140282398
 40
0.1192869985897107
 40
0.1192869985897107
 40
0.1245841505064798
 40
0.1245841505064798
 40
0.1289625715538937
 40
0.1289625715538937
 40
0.1336538861311416
 40
0.1336538861311416
 40
0.1410144087416064
 40
0.1410144087416064
 40
0.1573264411727619
 40
0.1573264411727619
 40
0.2370684289275557
 40
0.2370684289275557
 40
0.2370684289275557
 40
0.2370684289275557
 10
-16.13990987274826
 20
65.41106955166924
 30
0.0
 10
-16.32385703374643
 20
65.60156294517526
 30
0.0
 10
-16.47051698767768
 20
65.76083745955895
 30
0.0
 10
-16.61037938483855
 20
65.91597189176297
 30
0.0
 10
-16.65980765772895
 20
65.97148483363196
 30
0.0
 10
-16.70126216965991
 20
66.01939513843774
 30
0.0
 10
-16.71033019022923
 20
66.02999740385894
 30
0.0
 10
-16.72055384427085
 20
66.04235266709941
 30
0.0
 10
-16.72349428408915
 20
66.04603428906102
 30
0.0
 10
-16.7259580347511
 20
66.0495887206722
 30
0.0
 10
-16.72592197039228
 20
66.04991940925732
 30
0.0
 10
-16.72347886798116
 20
66.04797342439986
 30
0.0
 10
-16.72097724948207
 20
66.04556842276577
 30
0.0
 10
-16.7126051089084
 20
66.03716812515301
 30
0.0
 10
-16.7055415123408
 20
66.0298231345024
 30
0.0
 10
-16.68176269509286
 20
66.00484994940643
 30
0.0
 10
-16.66035792146135
 20
65.98201922830856
 30
0.0
 10
-16.54491670934499
 20
65.85880954051583
 30
0.0
 10
-16.37255070486469
 20
65.67358018584025
 30
0.0
 10
-16.13990987274837
 20
65.43592095337283
 30
0.0
  0
SPLINE
  5
113
330
2
100
AcDbEntity
  8
GEB-VERDECKT
 48
25.0
100
AcDbSpline
210
0.0
220
0.0
230
1.0
 70
     8
 71
     3
 72
    16
 73
    12
 74
     0
 42
0.0000000001
 43
0.0000000001
 40
1.676880953268603
 40
1.676880953268603
 40
1.676880953268603
 40
1.676880953268603
 40
1.780979118027195
 40
1.780979118027195
 40
2.041461774906967
 40
2.041461774906967
 40
2.513255447205566
 40
2.513255447205566
 40
2.965658246933252
 40
2.965658246933252
 40
3.31514039975623
 40
3.31514039975623
 40
3.31514039975623
 40
3.31514039975623
 10
-0.000000000016712
 20
58.57161513923563
 30
0.0
 10
-0.3819863123995901
 20
58.57161513923563
 30
0.0
 10
-0.7639799109958858
 20
58.58133331571991
 30
0.0
 10
-2.100550213761607
 20
58.64941154639666
 30
0.0
 10
-3.051405300896703
 20
58.75881696577437
 30
0.0
 10
-5.696710705086275
 20
59.23547988732207
 30
0.0
 10
-7.359638755946662
 20
59.73829044445711
 30
0.0
 10
-10.47087016960086
 20
61.08791668982656
 30
0.0
 10
-11.91515915628997
 20
61.91547830540947
 30
0.0
 10
-14.28784488904921
 20
63.65051317163931
 30
0.0
 10
-15.25389689308213
 20
64.49352552287826
 30
0.0
 10
-16.13990987274826
 20
65.41106955166924
 30
0.0
  0
SPLINE
  5
114
330
2
100
AcDbEntity
  8
GEB-VERDECKT
 48
25.0
100
AcDbSpline
210
0.0
220
0.0
230
1.0
 70
     8
 71
     3
 72
    14
 73
    10
 74
     0
 42
0.0000000001
 43
0.0000000001
 40
0.0010405006945506
 40
0.0010405006945506
 40
0.0010405006945506
 40
0.0010405006945506
 40
0.7997210698762415
 40
0.7997210698762415
 40
1.294895980592154
 40
1.294895980592154
 40
1.56056094427773
 40
1.56056094427773
 40
1.676880953268603
 40
1.676880953268603
 40
1.676880953268603
 40
1.676880953268603
 10
16.13990987271472
 20
65.41106955166924
 30
0.0
 10
14.29632139012858
 20
63.501872234512
 30
0.0
 10
12.02166948188619
 20
61.82933350285782
 30
0.0
 10
7.704891821167279
 20
59.85336918939037
 30
0.0
 10
5.966715671551355
 20
59.30068628117203
 30
0.0
 10
3.222556655106586
 20
58.782049019189
 30
0.0
 10
2.253581214614882
 20
58.66344259263496
 30
0.0
 10
0.8536591951213949
 20
58.58374919658854
 30
0.0
 10
0.4268341463277921
 20
58.57161513923563
 30
0.0
 10
-0.000000000016712
 20
58.57161513923563
 30
0.0
  0
SPLINE
  5
115
330
2
100
AcDbEntity
  8
GEB-VERDECKT
 48
25.0
100
AcDbSpline
210
0.0
220
0.0
230
1.0
 70
     8
 71
     3
 72
    24
 73
    20
 74
     0
 42
0.0000000001
 43
0.0000000001
 40
0.0000055821876419
 40
0.0000055821876419
 40
0.0000055821876419
 40
0.0000055821876419
 40
0.0797062645506081
 40
0.0797062645506081
 40
0.1104873140280388
 40
0.1104873140280388
 40
0.1192869985894973
 40
0.1192869985894973
 40
0.1245841505062383
 40
0.1245841505062383
 40
0.1289625715536254
 40
0.1289625715536254
 40
0.1336538861308641
 40
0.1336538861308641
 40
0.1410144087413495
 40
0.1410144087413495
 40
0.1573264411724176
 40
0.1573264411724176
 40
0.2370684289270919
 40
0.2370684289270919
 40
0.2370684289270919
 40
0.2370684289270919
 10
16.13990987271631
 20
65.18510947602226
 30
0.0
 10
16.32385703371415
 20
65.37302464422225
 30
0.0
 10
16.47051698764562
 20
65.52867413529122
 30
0.0
 10
16.61037938480638
 20
65.6778185616007
 30
0.0
 10
16.659807657697
 20
65.73081514854038
 30
0.0
 10
16.70126216962797
 20
65.77454530534112
 30
0.0
 10
16.71033019019728
 20
65.78403232385233
 30
0.0
 10
16.72055384423891
 20
65.79435222577956
 30
0.0
 10
16.72349428405721
 20
65.79719878536185
 30
0.0
 10
16.72595803471915
 20
65.79911467401678
 30
0.0
 10
16.72592197036022
 20
65.79870387724588
 30
0.0
 10
16.72347886794921
 20
65.79522546050203
 30
0.0
 10
16.72097724945013
 20
65.7920766668094
 30
0.0
 10
16.71260510887646
 20
65.78190579820034
 30
0.0
 10
16.70554151230885
 20
65.77359612321515
 30
0.0
 10
16.6817626950608
 20
65.74596044701991
 30
0.0
 10
16.66035792142929
 20
65.7215886697237
 30
0.0
 10
16.54491670931304
 20
65.59133520147952
 30
0.0
 10
16.37255070483275
 20
65.40117802838267
 30
0.0
 10
16.13990987271643
 20
65.16025807431856
 30
0.0
  0
SPLINE
  5
116
330
2
100
AcDbEntity
  8
GEB-VERDECKT
 48
25.0
100
AcDbSpline
210
0.0
220
0.0
230
1.0
 70
     8
 71
     3
 72
    16
 73
    12
 74
     0
 42
0.0000000001
 43
0.0000000001
 40
1.676880953268403
 40
1.676880953268403
 40
1.676880953268403
 40
1.676880953268403
 40
1.780979118027001
 40
1.780979118027001
 40
2.041461774906798
 40
2.041461774906798
 40
2.513255447205436
 40
2.513255447205436
 40
2.965658246933148
 40
2.965658246933148
 40
3.315140399756146
 40
3.315140399756146
 40
3.315140399756146
 40
3.315140399756146
 10
-0.0000000000154614
 20
58.39059468166954
 30
0.0
 10
0.3819863123673031
 20
58.39059468166954
 30
0.0
 10
0.7639799109638262
 20
58.40031313924772
 30
0.0
 10
2.10055021372932
 20
58.46838742948762
 30
0.0
 10
3.051405300864416
 20
58.57778995295575
 30
0.0
 10
5.696710705054101
 20
59.05411797517661
 30
0.0
 10
7.359638755914602
 20
59.55638740185055
 30
0.0
 10
10.4708701695688
 20
60.90121269367148
 30
0.0
 10
11.91515915625791
 20
61.72468137614202
 30
0.0
 10
14.28784488901715
 20
63.44547904421358
 30
0.0
 10
15.25389689305007
 20
64.27998391062567
 30
0.0
 10
16.13990987271631
 20
65.18510947602226
 30
0.0
  0
SPLINE
  5
117
330
2
100
AcDbEntity
  8
GEB-VERDECKT
 48
25.0
100
AcDbSpline
210
0.0
220
0.0
230
1.0
 70
     8
 71
     3
 72
    14
 73
    10
 74
     0
 42
0.0000000001
 43
0.0000000001
 40
0.0010405006945528
 40
0.0010405006945528
 40
0.0010405006945528
 40
0.0010405006945528
 40
0.7997210698761671
 40
0.7997210698761671
 40
1.294895980591995
 40
1.294895980591995
 40
1.560560944277533
 40
1.560560944277533
 40
1.676880953268403
 40
1.676880953268403
 40
1.676880953268403
 40
1.676880953268403
 10
-16.13990987274667
 20
65.18510947602226
 30
0.0
 10
-14.29632139016087
 20
63.30175211449909
 30
0.0
 10
-12.02166948191848
 20
61.63954522228664
 30
0.0
 10
-7.704891821199339
 20
59.67128348409426
 30
0.0
 10
-5.966715671583415
 20
59.11925447172734
 30
0.0
 10
-3.22255665513876
 20
58.60101679189824
 30
0.0
 10
-2.253581214647056
 20
58.48241681505943
 30
0.0
 10
-0.8536591951534546
 20
58.40272917695244
 30
0.0
 10
-0.4268341463599655
 20
58.39059468166954
 30
0.0
 10
-0.0000000000154614
 20
58.39059468166954
 30
0.0
  0
SPLINE
  5
118
330
2
100
AcDbEntity
  8
GEB-VERDECKT
 48
25.0
100
AcDbSpline
210
0.0
220
0.0
230
1.0
 70
     8
 71
     3
 72
    24
 73
    20
 74
     0
 42
0.0000000001
 43
0.0000000001
 40
0.000005582187637
 40
0.000005582187637
 40
0.000005582187637
 40
0.000005582187637
 40
0.0797062645506434
 40
0.0797062645506434
 40
0.1104873140281618
 40
0.1104873140281618
 40
0.119286998589618
 40
0.119286998589618
 40
0.1245841505063791
 40
0.1245841505063791
 40
0.1289625715537855
 40
0.1289625715537855
 40
0.1336538861310228
 40
0.1336538861310228
 40
0.141014408741467
 40
0.141014408741467
 40
0.1573264411725743
 40
0.1573264411725743
 40
0.2370684289271673
 40
0.2370684289271673
 40
0.2370684289271673
 40
0.2370684289271673
 10
-16.13990987274656
 20
65.16025807431856
 30
0.0
 10
-16.32385703374461
 20
65.35075146782446
 30
0.0
 10
-16.47051698767609
 20
65.51002598220816
 30
0.0
 10
-16.61037938483673
 20
65.6651604144123
 30
0.0
 10
-16.65980765772724
 20
65.72067335628116
 30
0.0
 10
-16.70126216965821
 20
65.76858366108706
 30
0.0
 10
-16.71033019022752
 20
65.77918592650815
 30
0.0
 10
-16.72055384426915
 20
65.79154118974873
 30
0.0
 10
-16.72349428408745
 20
65.79522281171034
 30
0.0
 10
-16.72595803474951
 20
65.7987772433213
 30
0.0
 10
-16.72592197039057
 20
65.79910793190652
 30
0.0
 10
-16.72347886797956
 20
65.79716194704918
 30
0.0
 10
-16.72097724948037
 20
65.79475694541509
 30
0.0
 10
-16.7126051089067
 20
65.78635664780233
 30
0.0
 10
-16.70554151233909
 20
65.77901165715172
 30
0.0
 10
-16.68176269509103
 20
65.75403847205575
 30
0.0
 10
-16.66035792145965
 20
65.73120775095787
 30
0.0
 10
-16.5449167093434
 20
65.60799806316516
 30
0.0
 10
-16.3725507048631
 20
65.42276870848969
 30
0.0
 10
-16.13990987274667
 20
65.18510947602226
 30
0.0
  0
SPLINE
  5
119
330
2
100
AcDbEntity
  8
GEB-VERDECKT
 48
25.0
100
AcDbSpline
210
0.0
220
0.0
230
1.0
 70
     8
 71
     3
 72
    16
 73
    12
 74
     0
 42
0.0000000001
 43
0.0000000001
 40
1.676880953268758
 40
1.676880953268758
 40
1.676880953268758
 40
1.676880953268758
 40
1.780979118027384
 40
1.780979118027384
 40
2.041461774907237
 40
2.041461774907237
 40
2.51325544720595
 40
2.51325544720595
 40
2.965658246933748
 40
2.965658246933748
 40
3.315140399756817
 40
3.315140399756817
 40
3.315140399756817
 40
3.315140399756817
 10
-0.0000000000150067
 20
58.32080366188495
 30
0.0
 10
-0.3819863123978848
 20
58.32080366188495
 30
0.0
 10
-0.7639799109942942
 20
58.33052183836923
 30
0.0
 10
-2.100550213759674
 20
58.39860006904598
 30
0.0
 10
-3.051405300894884
 20
58.50800548842369
 30
0.0
 10
-5.696710705084569
 20
58.98466840997151
 30
0.0
 10
-7.359638755944956
 20
59.48747896710642
 30
0.0
 10
-10.47087016959915
 20
60.83710521247599
 30
0.0
 10
-11.91515915628838
 20
61.66466682805856
 30
0.0
 10
-14.28784488904739
 20
63.39970169428863
 30
0.0
 10
-15.25389689308054
 20
64.24271404552758
 30
0.0
 10
-16.13990987274656
 20
65.16025807431856
 30
0.0
  0
SPLINE
  5
11A
330
2
100
AcDbEntity
  8
GEB-VERDECKT
 48
25.0
100
AcDbSpline
210
0.0
220
0.0
230
1.0
 70
     8
 71
     3
 72
    14
 73
    10
 74
     0
 42
0.0000000001
 43
0.0000000001
 40
0.00104050069455
 40
0.00104050069455
 40
0.00104050069455
 40
0.00104050069455
 40
0.7997210698762909
 40
0.7997210698762909
 40
1.294895980592259
 40
1.294895980592259
 40
1.560560944277864
 40
1.560560944277864
 40
1.676880953268758
 40
1.676880953268758
 40
1.676880953268758
 40
1.676880953268758
 10
16.13990987271643
 20
65.16025807431856
 30
0.0
 10
14.29632139013017
 20
63.25106075716121
 30
0.0
 10
12.02166948188767
 20
61.57852202550703
 30
0.0
 10
7.704891821168985
 20
59.60255771203981
 30
0.0
 10
5.96671567155306
 20
59.04987480382112
 30
0.0
 10
3.222556655108178
 20
58.53123754183832
 30
0.0
 10
2.253581214616588
 20
58.4126311152844
 30
0.0
 10
0.8536591951228729
 20
58.33293771923798
 30
0.0
 10
0.4268341463293837
 20
58.32080366188495
 30
0.0
 10
-0.0000000000150067
 20
58.32080366188495
 30
0.0
  0
LINE
  5
11B
330
2
100
AcDbEntity
  8
GEB-VERDECKT
 48
25.0
100
AcDbLine
 10
21.02974084480059
 20
72.45150486779436
 30
0.0
 11
21.02974084479138
 21
73.8255155698024
 31
0.0
  0
ELLIPSE
  5
11C
330
2
100
AcDbEntity
  8
GEB-VERDECKT
 48
25.0
100
AcDbEllipse
 10
-0.0000000000122782
 20
80.44389064044935
 30
0.0
 11
-22.49999999999995
 21
-0.0000000001417155
 31
0.0
210
0.0
220
0.0
230
1.0
 40
0.9990482215818607
 41
0.3635083964063233
 42
2.778084257170853
  0
ELLIPSE
  5
11D
330
2
100
AcDbEntity
  8
GEB-VERDECKT
 48
25.0
100
AcDbEllipse
 10
-0.0000000000122782
 20
80.44389064044924
 30
0.0
 11
22.49999999999996
 21
0.0000000001416922
 31
0.0
210
0.0
220
0.0
230
1.0
 40
0.9990482215818605
 41
0.3635083964063244
 42
2.77808425717086
  0
LINE
  5
11E
330
2
100
AcDbEntity
  8
GEB-VERDECKT
 48
25.0
100
AcDbLine
 10
21.02974084479149
 20
89.81028711511227
 30
0.0
 11
21.0297408448007
 21
88.43627641310423
 31
0.0
  0
SPLINE
  5
11F
330
2
100
AcDbEntity
  8
GEB-VERDECKT
 48
25.0
100
AcDbSpline
210
0.0
220
0.0
230
1.0
 70
     8
 71
     3
 72
    24
 73
    20
 74
     0
 42
0.0000000001
 43
0.0000000001
 40
0.000005582187642
 40
0.000005582187642
 40
0.000005582187642
 40
0.000005582187642
 40
0.0797062645505783
 40
0.0797062645505783
 40
0.11048731402803
 40
0.11048731402803
 40
0.1192869985895016
 40
0.1192869985895016
 40
0.1245841505062756
 40
0.1245841505062756
 40
0.1289625715536835
 40
0.1289625715536835
 40
0.1336538861309027
 40
0.1336538861309027
 40
0.1410144087413297
 40
0.1410144087413297
 40
0.1573264411724374
 40
0.1573264411724374
 40
0.2370684289269993
 40
0.2370684289269993
 40
0.2370684289269993
 40
0.2370684289269993
 10
-16.13990987274633
 20
96.50831024041952
 30
0.0
 10
-16.32385703374427
 20
96.31781684691373
 30
0.0
 10
-16.47051698767564
 20
96.15854233252992
 30
0.0
 10
-16.6103793848365
 20
96.00340790032579
 30
0.0
 10
-16.6598076577269
 20
95.94789495845692
 30
0.0
 10
-16.70126216965786
 20
95.89998465365102
 30
0.0
 10
-16.71033019022718
 20
95.88938238822981
 30
0.0
 10
-16.72055384426892
 20
95.87702712498936
 30
0.0
 10
-16.72349428408711
 20
95.87334550302774
 30
0.0
 10
-16.72595803474905
 20
95.86979107141667
 30
0.0
 10
-16.72592197039012
 20
95.86946038283144
 30
0.0
 10
-16.72347886797911
 20
95.87140636768891
 30
0.0
 10
-16.72097724947991
 20
95.87381136932288
 30
0.0
 10
-16.71260510890624
 20
95.88221166693575
 30
0.0
 10
-16.70554151233864
 20
95.88955665758636
 30
0.0
 10
-16.6817626950907
 20
95.91452984268233
 30
0.0
 10
-16.66035792145931
 20
95.9373605637802
 30
0.0
 10
-16.54491670934283
 20
96.06057025157282
 30
0.0
 10
-16.37255070486264
 20
96.24579960624828
 30
0.0
 10
-16.1399098727461
 20
96.48345883871582
 30
0.0
  0
SPLINE
  5
120
330
2
100
AcDbEntity
  8
GEB-VERDECKT
 48
25.0
100
AcDbSpline
210
0.0
220
0.0
230
1.0
 70
     8
 71
     3
 72
    16
 73
    12
 74
     0
 42
0.0000000001
 43
0.0000000001
 40
1.676880953268691
 40
1.676880953268691
 40
1.676880953268691
 40
1.676880953268691
 40
1.7809791180273
 40
1.7809791180273
 40
2.041461774907131
 40
2.041461774907131
 40
2.513255447205827
 40
2.513255447205827
 40
2.965658246933583
 40
2.965658246933583
 40
3.315140399756626
 40
3.315140399756626
 40
3.315140399756626
 40
3.315140399756626
 10
-0.0000000000150067
 20
103.3477646528531
 30
0.0
 10
-0.3819863123978848
 20
103.3477646528531
 30
0.0
 10
-0.7639799109941805
 20
103.3380464763688
 30
0.0
 10
-2.100550213759674
 20
103.2699682456921
 30
0.0
 10
-3.051405300894884
 20
103.1605628263144
 30
0.0
 10
-5.696710705084569
 20
102.6838999047667
 30
0.0
 10
-7.359638755944956
 20
102.1810893476316
 30
0.0
 10
-10.47087016959915
 20
100.8314631022621
 30
0.0
 10
-11.91515915628838
 20
100.0039014866794
 30
0.0
 10
-14.28784488904739
 20
98.26886662044945
 30
0.0
 10
-15.25389689308031
 20
97.42585426921051
 30
0.0
 10
-16.13990987274633
 20
96.50831024041952
 30
0.0
  0
SPLINE
  5
121
330
2
100
AcDbEntity
  8
GEB-VERDECKT
 48
25.0
100
AcDbSpline
210
0.0
220
0.0
230
1.0
 70
     8
 71
     3
 72
    14
 73
    10
 74
     0
 42
0.0000000001
 43
0.0000000001
 40
0.0010405006945535
 40
0.0010405006945535
 40
0.0010405006945535
 40
0.0010405006945535
 40
0.7997210698762756
 40
0.7997210698762756
 40
1.294895980592232
 40
1.294895980592232
 40
1.560560944277818
 40
1.560560944277818
 40
1.676880953268691
 40
1.676880953268691
 40
1.676880953268691
 40
1.676880953268691
 10
16.13990987271654
 20
96.50831024041952
 30
0.0
 10
14.29632139013029
 20
98.41750755757686
 30
0.0
 10
12.02166948188778
 20
100.090046289231
 30
0.0
 10
7.704891821168985
 20
102.0660106026983
 30
0.0
 10
5.96671567155306
 20
102.6186935109168
 30
0.0
 10
3.222556655108292
 20
103.1373307728999
 30
0.0
 10
2.253581214616815
 20
103.2559371994539
 30
0.0
 10
0.8536591951231002
 20
103.3356305955002
 30
0.0
 10
0.4268341463296111
 20
103.3477646528531
 30
0.0
 10
-0.0000000000150067
 20
103.3477646528531
 30
0.0
  0
SPLINE
  5
122
330
2
100
AcDbEntity
  8
GEB-VERDECKT
 48
25.0
100
AcDbSpline
210
0.0
220
0.0
230
1.0
 70
     8
 71
     3
 72
    24
 73
    20
 74
     0
 42
0.0000000001
 43
0.0000000001
 40
0.000005582187637
 40
0.000005582187637
 40
0.000005582187637
 40
0.000005582187637
 40
0.0797062645506989
 40
0.0797062645506989
 40
0.1104873140282088
 40
0.1104873140282088
 40
0.1192869985897118
 40
0.1192869985897118
 40
0.1245841505064624
 40
0.1245841505064624
 40
0.1289625715538599
 40
0.1289625715538599
 40
0.1336538861311021
 40
0.1336538861311021
 40
0.1410144087415187
 40
0.1410144087415187
 40
0.1573264411726776
 40
0.1573264411726776
 40
0.2370684289276588
 40
0.2370684289276588
 40
0.2370684289276588
 40
0.2370684289276588
 10
16.13990987271677
 20
96.48345883871582
 30
0.0
 10
16.32385703371494
 20
96.29554367051548
 30
0.0
 10
16.47051698764619
 20
96.13989417944663
 30
0.0
 10
16.61037938480683
 20
95.99074975313726
 30
0.0
 10
16.65980765769745
 20
95.93775316619758
 30
0.0
 10
16.70126216962831
 20
95.89402300939696
 30
0.0
 10
16.71033019019751
 20
95.88453599088586
 30
0.0
 10
16.72055384423925
 20
95.87421608895851
 30
0.0
 10
16.72349428405744
 20
95.87136952937612
 30
0.0
 10
16.72595803471961
 20
95.86945364072141
 30
0.0
 10
16.72592197036056
 20
95.8698644374923
 30
0.0
 10
16.72347886794955
 20
95.87334285423606
 30
0.0
 10
16.72097724945047
 20
95.87649164792868
 30
0.0
 10
16.71260510887669
 20
95.88666251653775
 30
0.0
 10
16.70554151230908
 20
95.89497219152304
 30
0.0
 10
16.68176269506114
 20
95.92260786771817
 30
0.0
 10
16.66035792142952
 20
95.94697964501438
 30
0.0
 10
16.54491670931327
 20
96.07723311325855
 30
0.0
 10
16.37255070483286
 20
96.2673902863554
 30
0.0
 10
16.13990987271654
 20
96.50831024041952
 30
0.0
  0
SPLINE
  5
123
330
2
100
AcDbEntity
  8
GEB-VERDECKT
 48
25.0
100
AcDbSpline
210
0.0
220
0.0
230
1.0
 70
     8
 71
     3
 72
    16
 73
    12
 74
     0
 42
0.0000000001
 43
0.0000000001
 40
1.676880953268575
 40
1.676880953268575
 40
1.676880953268575
 40
1.676880953268575
 40
1.780979118027185
 40
1.780979118027185
 40
2.04146177490701
 40
2.04146177490701
 40
2.51325544720568
 40
2.51325544720568
 40
2.965658246933419
 40
2.965658246933419
 40
3.315140399756433
 40
3.315140399756433
 40
3.315140399756433
 40
3.315140399756433
 10
-0.0000000000144382
 20
103.2779736330685
 30
0.0
 10
0.3819863123684399
 20
103.2779736330685
 30
0.0
 10
0.7639799109647356
 20
103.2682551754902
 30
0.0
 10
2.100550213730343
 20
103.2001808852504
 30
0.0
 10
3.05140530086544
 20
103.0907783617823
 30
0.0
 10
5.696710705055124
 20
102.6144503395613
 30
0.0
 10
7.359638755915625
 20
102.1121809128875
 30
0.0
 10
10.47087016956959
 20
100.7673556210666
 30
0.0
 10
11.91515915625882
 20
99.94388693859605
 30
0.0
 10
14.28784488901795
 20
98.2230892705245
 30
0.0
 10
15.25389689305075
 20
97.38858440411229
 30
0.0
 10
16.13990987271677
 20
96.48345883871582
 30
0.0
  0
SPLINE
  5
124
330
2
100
AcDbEntity
  8
GEB-VERDECKT
 48
25.0
100
AcDbSpline
210
0.0
220
0.0
230
1.0
 70
     8
 71
     3
 72
    14
 73
    10
 74
     0
 42
0.0000000001
 43
0.0000000001
 40
0.0010405006945535
 40
0.0010405006945535
 40
0.0010405006945535
 40
0.0010405006945535
 40
0.7997210698762327
 40
0.7997210698762327
 40
1.294895980592142
 40
1.294895980592142
 40
1.560560944277708
 40
1.560560944277708
 40
1.676880953268575
 40
1.676880953268575
 40
1.676880953268575
 40
1.676880953268575
 10
-16.1399098727461
 20
96.48345883871582
 30
0.0
 10
-14.29632139015985
 20
98.36681620023909
 30
0.0
 10
-12.02166948191734
 20
100.0290230924515
 30
0.0
 10
-7.704891821198316
 20
101.9972848306437
 30
0.0
 10
-5.966715671582505
 20
102.5493138430107
 30
0.0
 10
-3.222556655137736
 20
103.0675515228398
 30
0.0
 10
-2.253581214646146
 20
103.1861514996786
 30
0.0
 10
-0.8536591951524314
 20
103.2658391377856
 30
0.0
 10
-0.4268341463589423
 20
103.2779736330685
 30
0.0
 10
-0.0000000000144382
 20
103.2779736330685
 30
0.0
  0
SPLINE
  5
125
330
2
100
AcDbEntity
  8
GEB-VERDECKT
 48
25.0
100
AcDbSpline
210
0.0
220
0.0
230
1.0
 70
     8
 71
     3
 72
    24
 73
    20
 74
     0
 42
0.0000000001
 43
0.0000000001
 40
0.0000055821876421
 40
0.0000055821876421
 40
0.0000055821876421
 40
0.0000055821876421
 40
0.0797062645507113
 40
0.0797062645507113
 40
0.1104873140282544
 40
0.1104873140282544
 40
0.119286998589755
 40
0.119286998589755
 40
0.1245841505065514
 40
0.1245841505065514
 40
0.1289625715539787
 40
0.1289625715539787
 40
0.1336538861312202
 40
0.1336538861312202
 40
0.141014408741676
 40
0.141014408741676
 40
0.1573264411728349
 40
0.1573264411728349
 40
0.2370684289278648
 40
0.2370684289278648
 40
0.2370684289278648
 40
0.2370684289278648
 10
-16.13990987274815
 20
96.75912171777032
 30
0.0
 10
-16.32385703374632
 20
96.56862832426407
 30
0.0
 10
-16.47051698767757
 20
96.40935380988038
 30
0.0
 10
-16.61037938483821
 20
96.25421937767635
 30
0.0
 10
-16.6598076577286
 20
96.1987064358076
 30
0.0
 10
-16.70126216965957
 20
96.15079613100158
 30
0.0
 10
-16.71033019022889
 20
96.1401938655805
 30
0.0
 10
-16.72055384427062
 20
96.12783860234003
 30
0.0
 10
-16.7234942840887
 20
96.12415698037843
 30
0.0
 10
-16.72595803475087
 20
96.12060254876736
 30
0.0
 10
-16.72592197039182
 20
96.12027186018224
 30
0.0
 10
-16.72347886798081
 20
96.12221784503958
 30
0.0
 10
-16.72097724948162
 20
96.12462284667357
 30
0.0
 10
-16.71260510890795
 20
96.13302314428631
 30
0.0
 10
-16.70554151234034
 20
96.14036813493692
 30
0.0
 10
-16.6817626950924
 20
96.16534132003302
 30
0.0
 10
-16.66035792146078
 20
96.18817204113099
 30
0.0
 10
-16.54491670934465
 20
96.31138172892349
 30
0.0
 10
-16.37255070486435
 20
96.49661108359897
 30
0.0
 10
-16.13990987274781
 20
96.73427031606649
 30
0.0
  0
SPLINE
  5
126
330
2
100
AcDbEntity
  8
GEB-VERDECKT
 48
25.0
100
AcDbSpline
210
0.0
220
0.0
230
1.0
 70
     8
 71
     3
 72
    16
 73
    12
 74
     0
 42
0.0000000001
 43
0.0000000001
 40
1.676880953268911
 40
1.676880953268911
 40
1.676880953268911
 40
1.676880953268911
 40
1.780979118027527
 40
1.780979118027527
 40
2.041461774907388
 40
2.041461774907388
 40
2.513255447206163
 40
2.513255447206163
 40
2.965658246933987
 40
2.965658246933987
 40
3.315140399757082
 40
3.315140399757082
 40
3.315140399757082
 40
3.315140399757082
 10
-0.000000000016712
 20
103.5985761302038
 30
0.0
 10
-0.3819863123995901
 20
103.5985761302038
 30
0.0
 10
-0.7639799109958858
 20
103.5888579537194
 30
0.0
 10
-2.100550213761607
 20
103.5207797230426
 30
0.0
 10
-3.051405300896703
 20
103.4113743036649
 30
0.0
 10
-5.696710705086275
 20
102.9347113821172
 30
0.0
 10
-7.359638755946662
 20
102.4319008249823
 30
0.0
 10
-10.47087016960063
 20
101.0822745796127
 30
0.0
 10
-11.91515915628986
 20
100.2547129640301
 30
0.0
 10
-14.28784488904921
 20
98.51967809780001
 30
0.0
 10
-15.25389689308201
 20
97.67666574656118
 30
0.0
 10
-16.13990987274815
 20
96.75912171777032
 30
0.0
  0
SPLINE
  5
127
330
2
100
AcDbEntity
  8
GEB-VERDECKT
 48
25.0
100
AcDbSpline
210
0.0
220
0.0
230
1.0
 70
     8
 71
     3
 72
    14
 73
    10
 74
     0
 42
0.0000000001
 43
0.0000000001
 40
0.0010405006945525
 40
0.0010405006945525
 40
0.0010405006945525
 40
0.0010405006945525
 40
0.799721069876351
 40
0.799721069876351
 40
1.294895980592392
 40
1.294895980592392
 40
1.560560944278021
 40
1.560560944278021
 40
1.676880953268911
 40
1.676880953268911
 40
1.676880953268911
 40
1.676880953268911
 10
16.13990987271484
 20
96.75912171777032
 30
0.0
 10
14.29632139012847
 20
98.66831903492766
 30
0.0
 10
12.02166948188585
 20
100.3408577665818
 30
0.0
 10
7.704891821167279
 20
102.316822080049
 30
0.0
 10
5.966715671551355
 20
102.8695049882675
 30
0.0
 10
3.222556655106586
 20
103.3881422502504
 30
0.0
 10
2.253581214614996
 20
103.5067486768044
 30
0.0
 10
0.8536591951213949
 20
103.5864420728508
 30
0.0
 10
0.4268341463277921
 20
103.5985761302038
 30
0.0
 10
-0.000000000016712
 20
103.5985761302038
 30
0.0
  0
SPLINE
  5
128
330
2
100
AcDbEntity
  8
GEB-VERDECKT
 48
25.0
100
AcDbSpline
210
0.0
220
0.0
230
1.0
 70
     8
 71
     3
 72
    24
 73
    20
 74
     0
 42
0.0000000001
 43
0.0000000001
 40
0.0000055821876371
 40
0.0000055821876371
 40
0.0000055821876371
 40
0.0000055821876371
 40
0.0797062645507289
 40
0.0797062645507289
 40
0.1104873140282521
 40
0.1104873140282521
 40
0.11928699858975
 40
0.11928699858975
 40
0.1245841505064988
 40
0.1245841505064988
 40
0.1289625715538938
 40
0.1289625715538938
 40
0.1336538861311327
 40
0.1336538861311327
 40
0.1410144087415437
 40
0.1410144087415437
 40
0.1573264411726897
 40
0.1573264411726897
 40
0.2370684289275492
 40
0.2370684289275492
 40
0.2370684289275492
 40
0.2370684289275492
 10
16.13990987271495
 20
96.73427031606649
 30
0.0
 10
16.32385703371335
 20
96.54635514786617
 30
0.0
 10
16.47051698764471
 20
96.3907056567973
 30
0.0
 10
16.61037938480513
 20
96.24156123048805
 30
0.0
 10
16.65980765769563
 20
96.18856464354838
 30
0.0
 10
16.70126216962649
 20
96.14483448674764
 30
0.0
 10
16.7103301901958
 20
96.13534746823654
 30
0.0
 10
16.72055384423754
 20
96.1250275663092
 30
0.0
 10
16.72349428405573
 20
96.12218100672691
 30
0.0
 10
16.7259580347179
 20
96.12026511807199
 30
0.0
 10
16.72592197035896
 20
96.12067591484288
 30
0.0
 10
16.72347886794796
 20
96.12415433158673
 30
0.0
 10
16.72097724944865
 20
96.12730312527936
 30
0.0
 10
16.71260510887498
 20
96.13747399388842
 30
0.0
 10
16.70554151230738
 20
96.14578366887371
 30
0.0
 10
16.68176269505943
 20
96.17341934506896
 30
0.0
 10
16.66035792142793
 20
96.19779112236495
 30
0.0
 10
16.54491670931156
 20
96.32804459060924
 30
0.0
 10
16.37255070483138
 20
96.51820176370586
 30
0.0
 10
16.13990987271484
 20
96.75912171777032
 30
0.0
  0
SPLINE
  5
129
330
2
100
AcDbEntity
  8
GEB-VERDECKT
 48
25.0
100
AcDbSpline
210
0.0
220
0.0
230
1.0
 70
     8
 71
     3
 72
    16
 73
    12
 74
     0
 42
0.0000000001
 43
0.0000000001
 40
1.676880953268539
 40
1.676880953268539
 40
1.676880953268539
 40
1.676880953268539
 40
1.780979118027128
 40
1.780979118027128
 40
2.041461774906926
 40
2.041461774906926
 40
2.513255447205579
 40
2.513255447205579
 40
2.965658246933299
 40
2.965658246933299
 40
3.315140399756303
 40
3.315140399756303
 40
3.315140399756303
 40
3.315140399756303
 10
-0.0000000000161435
 20
103.5287851104192
 30
0.0
 10
0.3819863123667346
 20
103.5287851104192
 30
0.0
 10
0.763979910963144
 20
103.519066652841
 30
0.0
 10
2.100550213728752
 20
103.4509923626011
 30
0.0
 10
3.051405300863848
 20
103.341589839133
 30
0.0
 10
5.696710705053305
 20
102.8652618169121
 30
0.0
 10
7.35963875591392
 20
102.3629923902383
 30
0.0
 10
10.47087016956789
 20
101.0181670984173
 30
0.0
 10
11.91515915625712
 20
100.1946984159468
 30
0.0
 10
14.28784488901624
 20
98.47390074787506
 30
0.0
 10
15.25389689304916
 20
97.63939588146298
 30
0.0
 10
16.13990987271495
 20
96.73427031606649
 30
0.0
  0
SPLINE
  5
12A
330
2
100
AcDbEntity
  8
GEB-VERDECKT
 48
25.0
100
AcDbSpline
210
0.0
220
0.0
230
1.0
 70
     8
 71
     3
 72
    14
 73
    10
 74
     0
 42
0.0000000001
 43
0.0000000001
 40
0.0010405006945498
 40
0.0010405006945498
 40
0.0010405006945498
 40
0.0010405006945498
 40
0.7997210698762248
 40
0.7997210698762248
 40
1.294895980592123
 40
1.294895980592123
 40
1.56056094427768
 40
1.56056094427768
 40
1.676880953268539
 40
1.676880953268539
 40
1.676880953268539
 40
1.676880953268539
 10
-16.13990987274781
 20
96.73427031606649
 30
0.0
 10
-14.29632139016155
 20
98.61762767758978
 30
0.0
 10
-12.02166948191905
 20
100.2798345698022
 30
0.0
 10
-7.704891821200135
 20
102.2480963079944
 30
0.0
 10
-5.966715671584097
 20
102.8001253203614
 30
0.0
 10
-3.222556655139442
 20
103.3183630001905
 30
0.0
 10
-2.253581214647851
 20
103.4369629770293
 30
0.0
 10
-0.8536591951541367
 20
103.5166506151363
 30
0.0
 10
-0.4268341463606476
 20
103.5287851104192
 30
0.0
 10
-0.0000000000161435
 20
103.5287851104192
 30
0.0
  0
SPLINE
  5
12B
330
2
100
AcDbEntity
  8
GEB-VERDECKT
 48
25.0
100
AcDbSpline
210
0.0
220
0.0
230
1.0
 70
     8
 71
     3
 72
    24
 73
    20
 74
     0
 42
0.0000000001
 43
0.0000000001
 40
0.000005582187642
 40
0.000005582187642
 40
0.000005582187642
 40
0.000005582187642
 40
0.0797062645505495
 40
0.0797062645505495
 40
0.1104873140279732
 40
0.1104873140279732
 40
0.119286998589443
 40
0.119286998589443
 40
0.1245841505062233
 40
0.1245841505062233
 40
0.1289625715536388
 40
0.1289625715536388
 40
0.1336538861308688
 40
0.1336538861308688
 40
0.1410144087413123
 40
0.1410144087413123
 40
0.157326441172433
 40
0.157326441172433
 40
0.237068428927287
 40
0.237068428927287
 40
0.237068428927287
 40
0.237068428927287
 10
-16.13990987274974
 20
97.00993319512088
 30
0.0
 10
-16.32385703374757
 20
96.8194398016152
 30
0.0
 10
-16.47051698767905
 20
96.66016528723128
 30
0.0
 10
-16.61037938483991
 20
96.50503085502704
 30
0.0
 10
-16.65980765773031
 20
96.44951791315817
 30
0.0
 10
-16.70126216966127
 20
96.40160760835227
 30
0.0
 10
-16.71033019023059
 20
96.39100534293119
 30
0.0
 10
-16.72055384427233
 20
96.37865007969082
 30
0.0
 10
-16.72349428409041
 20
96.37496845772899
 30
0.0
 10
-16.72595803475246
 20
96.37141402611803
 30
0.0
 10
-16.72592197039353
 20
96.37108333753293
 30
0.0
 10
-16.72347886798252
 20
96.37302932239027
 30
0.0
 10
-16.72097724948332
 20
96.37543432402424
 30
0.0
 10
-16.71260510890965
 20
96.38383462163723
 30
0.0
 10
-16.70554151234205
 20
96.39117961228761
 30
0.0
 10
-16.68176269509411
 20
96.41615279738369
 30
0.0
 10
-16.66035792146249
 20
96.43898351848168
 30
0.0
 10
-16.54491670934624
 20
96.56219320627418
 30
0.0
 10
-16.37255070486606
 20
96.74742256094953
 30
0.0
 10
-16.13990987274951
 20
96.98508179341718
 30
0.0
  0
SPLINE
  5
12C
330
2
100
AcDbEntity
  8
GEB-VERDECKT
 48
25.0
100
AcDbSpline
210
0.0
220
0.0
230
1.0
 70
     8
 71
     3
 72
    16
 73
    12
 74
     0
 42
0.0000000001
 43
0.0000000001
 40
1.676880953268911
 40
1.676880953268911
 40
1.676880953268911
 40
1.676880953268911
 40
1.780979118027527
 40
1.780979118027527
 40
2.041461774907388
 40
2.041461774907388
 40
2.513255447206163
 40
2.513255447206163
 40
2.965658246933987
 40
2.965658246933987
 40
3.315140399757082
 40
3.315140399757082
 40
3.315140399757082
 40
3.315140399757082
 10
-0.0000000000184173
 20
103.8493876075545
 30
0.0
 10
-0.3819863124012954
 20
103.8493876075545
 30
0.0
 10
-0.7639799109975911
 20
103.8396694310703
 30
0.0
 10
-2.100550213763199
 20
103.7715912003933
 30
0.0
 10
-3.051405300898295
 20
103.6621857810156
 30
0.0
 10
-5.69671070508798
 20
103.1855228594679
 30
0.0
 10
-7.359638755948367
 20
102.6827123023331
 30
0.0
 10
-10.47087016960245
 20
101.3330860569635
 30
0.0
 10
-11.91515915629156
 20
100.5055244413807
 30
0.0
 10
-14.2878448890508
 20
98.77048957515093
 30
0.0
 10
-15.25389689308372
 20
97.92747722391197
 30
0.0
 10
-16.13990987274974
 20
97.00993319512088
 30
0.0
  0
SPLINE
  5
12D
330
2
100
AcDbEntity
  8
GEB-VERDECKT
 48
25.0
100
AcDbSpline
210
0.0
220
0.0
230
1.0
 70
     8
 71
     3
 72
    14
 73
    10
 74
     0
 42
0.0000000001
 43
0.0000000001
 40
0.0010405006945525
 40
0.0010405006945525
 40
0.0010405006945525
 40
0.0010405006945525
 40
0.799721069876351
 40
0.799721069876351
 40
1.294895980592392
 40
1.294895980592392
 40
1.560560944278021
 40
1.560560944278021
 40
1.676880953268911
 40
1.676880953268911
 40
1.676880953268911
 40
1.676880953268911
 10
16.13990987271313
 20
97.00993319512088
 30
0.0
 10
14.29632139012676
 20
98.91913051227835
 30
0.0
 10
12.02166948188414
 20
100.5916692439325
 30
0.0
 10
7.704891821165574
 20
102.5676335573997
 30
0.0
 10
5.96671567154965
 20
103.1203164656182
 30
0.0
 10
3.222556655104881
 20
103.6389537276011
 30
0.0
 10
2.253581214613404
 20
103.7575601541551
 30
0.0
 10
0.8536591951196896
 20
103.8372535502014
 30
0.0
 10
0.4268341463262005
 20
103.8493876075545
 30
0.0
 10
-0.0000000000184173
 20
103.8493876075545
 30
0.0
  0
SPLINE
  5
12E
330
2
100
AcDbEntity
  8
GEB-VERDECKT
 48
25.0
100
AcDbSpline
210
0.0
220
0.0
230
1.0
 70
     8
 71
     3
 72
    24
 73
    20
 74
     0
 42
0.0000000001
 43
0.0000000001
 40
0.000005582187637
 40
0.000005582187637
 40
0.000005582187637
 40
0.000005582187637
 40
0.0797062645506766
 40
0.0797062645506766
 40
0.1104873140281758
 40
0.1104873140281758
 40
0.1192869985896628
 40
0.1192869985896628
 40
0.1245841505064045
 40
0.1245841505064045
 40
0.1289625715537934
 40
0.1289625715537934
 40
0.1336538861310257
 40
0.1336538861310257
 40
0.1410144087414344
 40
0.1410144087414344
 40
0.1573264411725624
 40
0.1573264411725624
 40
0.2370684289273233
 40
0.2370684289273233
 40
0.2370684289273233
 40
0.2370684289273233
 10
16.13990987271336
 20
96.98508179341718
 30
0.0
 10
16.32385703371153
 20
96.79716662521697
 30
0.0
 10
16.47051698764278
 20
96.64151713414799
 30
0.0
 10
16.61037938480342
 20
96.49237270783874
 30
0.0
 10
16.65980765769404
 20
96.43937612089906
 30
0.0
 10
16.70126216962478
 20
96.39564596409844
 30
0.0
 10
16.7103301901941
 20
96.38615894558723
 30
0.0
 10
16.72055384423584
 20
96.37583904366
 30
0.0
 10
16.72349428405403
 20
96.3729924840776
 30
0.0
 10
16.7259580347162
 20
96.37107659542266
 30
0.0
 10
16.72592197035715
 20
96.37148739219355
 30
0.0
 10
16.72347886794614
 20
96.37496580893742
 30
0.0
 10
16.72097724944706
 20
96.37811460262993
 30
0.0
 10
16.71260510887328
 20
96.3882854712391
 30
0.0
 10
16.70554151230567
 20
96.3965951462244
 30
0.0
 10
16.68176269505773
 20
96.42423082241965
 30
0.0
 10
16.66035792142611
 20
96.44860259971563
 30
0.0
 10
16.54491670930986
 20
96.57885606795993
 30
0.0
 10
16.37255070482956
 20
96.76901324105688
 30
0.0
 10
16.13990987271313
 20
97.00993319512088
 30
0.0
  0
SPLINE
  5
12F
330
2
100
AcDbEntity
  8
GEB-VERDECKT
 48
25.0
100
AcDbSpline
210
0.0
220
0.0
230
1.0
 70
     8
 71
     3
 72
    16
 73
    12
 74
     0
 42
0.0000000001
 43
0.0000000001
 40
1.676880953268539
 40
1.676880953268539
 40
1.676880953268539
 40
1.676880953268539
 40
1.780979118027127
 40
1.780979118027127
 40
2.041461774906925
 40
2.041461774906925
 40
2.513255447205578
 40
2.513255447205578
 40
2.965658246933299
 40
2.965658246933299
 40
3.315140399756301
 40
3.315140399756301
 40
3.315140399756301
 40
3.315140399756301
 10
-0.0000000000178488
 20
103.7795965877699
 30
0.0
 10
0.3819863123650293
 20
103.7795965877699
 30
0.0
 10
0.763979910961325
 20
103.7698781301917
 30
0.0
 10
2.100550213727046
 20
103.7018038399518
 30
0.0
 10
3.051405300862143
 20
103.5924013164838
 30
0.0
 10
5.6967107050516
 20
103.1160732942628
 30
0.0
 10
7.359638755912214
 20
102.613803867589
 30
0.0
 10
10.47087016956618
 20
101.2689785757679
 30
0.0
 10
11.91515915625541
 20
100.4455098932975
 30
0.0
 10
14.28784488901453
 20
98.72471222522598
 30
0.0
 10
15.25389689304734
 20
97.89020735881365
 30
0.0
 10
16.13990987271336
 20
96.98508179341718
 30
0.0
  0
SPLINE
  5
130
330
2
100
AcDbEntity
  8
GEB-VERDECKT
 48
25.0
100
AcDbSpline
210
0.0
220
0.0
230
1.0
 70
     8
 71
     3
 72
    14
 73
    10
 74
     0
 42
0.0000000001
 43
0.0000000001
 40
0.0010405006945499
 40
0.0010405006945499
 40
0.0010405006945499
 40
0.0010405006945499
 40
0.7997210698762248
 40
0.7997210698762248
 40
1.294895980592123
 40
1.294895980592123
 40
1.560560944277679
 40
1.560560944277679
 40
1.676880953268539
 40
1.676880953268539
 40
1.676880953268539
 40
1.676880953268539
 10
-16.13990987274951
 20
96.98508179341718
 30
0.0
 10
-14.29632139016326
 20
98.86843915494035
 30
0.0
 10
-12.02166948192075
 20
100.5306460471529
 30
0.0
 10
-7.704891821201726
 20
102.498907785345
 30
0.0
 10
-5.966715671585916
 20
103.0509367977122
 30
0.0
 10
-3.222556655141147
 20
103.5691744775412
 30
0.0
 10
-2.253581214649557
 20
103.68777445438
 30
0.0
 10
-0.853659195155842
 20
103.7674620924871
 30
0.0
 10
-0.4268341463623529
 20
103.7795965877699
 30
0.0
 10
-0.0000000000178488
 20
103.7795965877699
 30
0.0
  0
SPLINE
  5
131
330
2
100
AcDbEntity
  8
GEB-VERDECKT
 48
25.0
100
AcDbSpline
210
0.0
220
0.0
230
1.0
 70
     8
 71
     3
 72
    24
 73
    20
 74
     0
 42
0.0000000001
 43
0.0000000001
 40
0.000005582187642
 40
0.000005582187642
 40
0.000005582187642
 40
0.000005582187642
 40
0.079706264550714
 40
0.079706264550714
 40
0.1104873140282755
 40
0.1104873140282755
 40
0.1192869985897779
 40
0.1192869985897779
 40
0.1245841505065726
 40
0.1245841505065726
 40
0.1289625715539968
 40
0.1289625715539968
 40
0.1336538861312346
 40
0.1336538861312346
 40
0.1410144087416874
 40
0.1410144087416874
 40
0.1573264411728512
 40
0.1573264411728512
 40
0.2370684289276556
 40
0.2370684289276556
 40
0.2370684289276556
 40
0.2370684289276556
 10
-16.13990987275156
 20
97.26074467247157
 30
0.0
 10
-16.32385703374973
 20
97.07025127896555
 30
0.0
 10
-16.47051698768087
 20
96.91097676458184
 30
0.0
 10
-16.61037938484162
 20
96.75584233237771
 30
0.0
 10
-16.65980765773201
 20
96.70032939050884
 30
0.0
 10
-16.70126216966298
 20
96.65241908570294
 30
0.0
 10
-16.7103301902323
 20
96.64181682028186
 30
0.0
 10
-16.72055384427403
 20
96.62946155704151
 30
0.0
 10
-16.72349428409211
 20
96.62577993507966
 30
0.0
 10
-16.72595803475428
 20
96.62222550346871
 30
0.0
 10
-16.72592197039523
 20
96.62189481488361
 30
0.0
 10
-16.72347886798422
 20
96.62384079974083
 30
0.0
 10
-16.72097724948503
 20
96.62624580137503
 30
0.0
 10
-16.71260510891136
 20
96.63464609898779
 30
0.0
 10
-16.70554151234376
 20
96.6419910896384
 30
0.0
 10
-16.68176269509581
 20
96.66696427473437
 30
0.0
 10
-16.66035792146431
 20
96.68979499583237
 30
0.0
 10
-16.54491670934794
 20
96.81300468362497
 30
0.0
 10
-16.37255070486765
 20
96.99823403830045
 30
0.0
 10
-16.13990987275122
 20
97.23589327076798
 30
0.0
  0
SPLINE
  5
132
330
2
100
AcDbEntity
  8
GEB-VERDECKT
 48
25.0
100
AcDbSpline
210
0.0
220
0.0
230
1.0
 70
     8
 71
     3
 72
    16
 73
    12
 74
     0
 42
0.0000000001
 43
0.0000000001
 40
1.676880953268805
 40
1.676880953268805
 40
1.676880953268805
 40
1.676880953268805
 40
1.780979118027429
 40
1.780979118027429
 40
2.041461774907258
 40
2.041461774907258
 40
2.513255447205938
 40
2.513255447205938
 40
2.965658246933675
 40
2.965658246933675
 40
3.315140399756709
 40
3.315140399756709
 40
3.315140399756709
 40
3.315140399756709
 10
-0.0000000000201226
 20
104.100199084905
 30
0.0
 10
-0.3819863124030007
 20
104.100199084905
 30
0.0
 10
-0.7639799109992964
 20
104.0904809084209
 30
0.0
 10
-2.100550213764677
 20
104.022402677744
 30
0.0
 10
-3.051405300899887
 20
103.9129972583663
 30
0.0
 10
-5.696710705089685
 20
103.4363343368186
 30
0.0
 10
-7.3596387559503
 20
102.9335237796837
 30
0.0
 10
-10.47087016960427
 20
101.5838975343141
 30
0.0
 10
-11.91515915629338
 20
100.7563359187314
 30
0.0
 10
-14.28784488905262
 20
99.02130105250137
 30
0.0
 10
-15.25389689308542
 20
98.17828870126266
 30
0.0
 10
-16.13990987275156
 20
97.26074467247157
 30
0.0
  0
SPLINE
  5
133
330
2
100
AcDbEntity
  8
GEB-VERDECKT
 48
25.0
100
AcDbSpline
210
0.0
220
0.0
230
1.0
 70
     8
 71
     3
 72
    14
 73
    10
 74
     0
 42
0.0000000001
 43
0.0000000001
 40
0.0010405006945526
 40
0.0010405006945526
 40
0.0010405006945526
 40
0.0010405006945526
 40
0.7997210698763092
 40
0.7997210698763092
 40
1.294895980592301
 40
1.294895980592301
 40
1.560560944277916
 40
1.560560944277916
 40
1.676880953268805
 40
1.676880953268805
 40
1.676880953268805
 40
1.676880953268805
 10
16.13990987271143
 20
97.26074467247157
 30
0.0
 10
14.29632139012506
 20
99.16994198962891
 30
0.0
 10
12.02166948188255
 20
100.8424807212832
 30
0.0
 10
7.704891821163869
 20
102.8184450347504
 30
0.0
 10
5.966715671547945
 20
103.3711279429688
 30
0.0
 10
3.222556655103176
 20
103.8897652049518
 30
0.0
 10
2.253581214611585
 20
104.0083716315058
 30
0.0
 10
0.8536591951179843
 20
104.0880650275522
 30
0.0
 10
0.4268341463243815
 20
104.100199084905
 30
0.0
 10
-0.0000000000201226
 20
104.100199084905
 30
0.0
  0
SPLINE
  5
134
330
2
100
AcDbEntity
  8
GEB-VERDECKT
 48
25.0
100
AcDbSpline
210
0.0
220
0.0
230
1.0
 70
     8
 71
     3
 72
    24
 73
    20
 74
     0
 42
0.0000000001
 43
0.0000000001
 40
0.0000055821876371
 40
0.0000055821876371
 40
0.0000055821876371
 40
0.0000055821876371
 40
0.0797062645507802
 40
0.0797062645507802
 40
0.1104873140283095
 40
0.1104873140283095
 40
0.1192869985898162
 40
0.1192869985898162
 40
0.1245841505065914
 40
0.1245841505065914
 40
0.1289625715540144
 40
0.1289625715540144
 40
0.133653886131285
 40
0.133653886131285
 40
0.141014408741743
 40
0.141014408741743
 40
0.1573264411729928
 40
0.1573264411729928
 40
0.2370684289282775
 40
0.2370684289282775
 40
0.2370684289282775
 40
0.2370684289282775
 10
16.13990987271154
 20
97.23589327076787
 30
0.0
 10
16.32385703371005
 20
97.0479781025673
 30
0.0
 10
16.4705169876413
 20
96.89232861149855
 30
0.0
 10
16.61037938480172
 20
96.74318418518954
 30
0.0
 10
16.65980765769222
 20
96.69018759824963
 30
0.0
 10
16.7012621696233
 20
96.64645744144912
 30
0.0
 10
16.71033019019251
 20
96.6369704229379
 30
0.0
 10
16.72055384423424
 20
96.62665052101068
 30
0.0
 10
16.72349428405232
 20
96.62380396142829
 30
0.0
 10
16.72595803471449
 20
96.62188807277335
 30
0.0
 10
16.72592197035555
 20
96.62229886954435
 30
0.0
 10
16.72347886794455
 20
96.62577728628811
 30
0.0
 10
16.72097724944524
 20
96.6289260799806
 30
0.0
 10
16.71260510887157
 20
96.63909694858979
 30
0.0
 10
16.70554151230397
 20
96.6474066235752
 30
0.0
 10
16.68176269505602
 20
96.67504229977033
 30
0.0
 10
16.66035792142452
 20
96.6994140770663
 30
0.0
 10
16.54491670930838
 20
96.82966754531049
 30
0.0
 10
16.37255070482797
 20
97.01982471840722
 30
0.0
 10
16.13990987271143
 20
97.26074467247157
 30
0.0
  0
SPLINE
  5
135
330
2
100
AcDbEntity
  8
GEB-VERDECKT
 48
25.0
100
AcDbSpline
210
0.0
220
0.0
230
1.0
 70
     8
 71
     3
 72
    16
 73
    12
 74
     0
 42
0.0000000001
 43
0.0000000001
 40
1.676880953268539
 40
1.676880953268539
 40
1.676880953268539
 40
1.676880953268539
 40
1.780979118027127
 40
1.780979118027127
 40
2.041461774906925
 40
2.041461774906925
 40
2.513255447205578
 40
2.513255447205578
 40
2.965658246933299
 40
2.965658246933299
 40
3.315140399756302
 40
3.315140399756302
 40
3.315140399756302
 40
3.315140399756302
 10
-0.0000000000195541
 20
104.0304080651207
 30
0.0
 10
0.381986312363324
 20
104.0304080651207
 30
0.0
 10
0.7639799109597334
 20
104.0206896075423
 30
0.0
 10
2.100550213725341
 20
103.9526153173025
 30
0.0
 10
3.051405300860437
 20
103.8432127938343
 30
0.0
 10
5.696710705049895
 20
103.3668847716134
 30
0.0
 10
7.359638755910509
 20
102.8646153449397
 30
0.0
 10
10.47087016956448
 20
101.5197900531187
 30
0.0
 10
11.9151591562537
 20
100.6963213706482
 30
0.0
 10
14.28784488901283
 20
98.97552370257654
 30
0.0
 10
15.25389689304575
 20
98.14101883616434
 30
0.0
 10
16.13990987271154
 20
97.23589327076787
 30
0.0
  0
SPLINE
  5
136
330
2
100
AcDbEntity
  8
GEB-VERDECKT
 48
25.0
100
AcDbSpline
210
0.0
220
0.0
230
1.0
 70
     8
 71
     3
 72
    14
 73
    10
 74
     0
 42
0.0000000001
 43
0.0000000001
 40
0.0010405006945498
 40
0.0010405006945498
 40
0.0010405006945498
 40
0.0010405006945498
 40
0.7997210698762248
 40
0.7997210698762248
 40
1.294895980592123
 40
1.294895980592123
 40
1.560560944277679
 40
1.560560944277679
 40
1.676880953268539
 40
1.676880953268539
 40
1.676880953268539
 40
1.676880953268539
 10
-16.13990987275122
 20
97.23589327076798
 30
0.0
 10
-14.29632139016496
 20
99.11925063229126
 30
0.0
 10
-12.02166948192246
 20
100.7814575245035
 30
0.0
 10
-7.704891821203545
 20
102.7497192626957
 30
0.0
 10
-5.966715671587508
 20
103.3017482750627
 30
0.0
 10
-3.222556655142852
 20
103.8199859548919
 30
0.0
 10
-2.253581214651262
 20
103.9385859317307
 30
0.0
 10
-0.8536591951575474
 20
104.0182735698378
 30
0.0
 10
-0.4268341463640582
 20
104.0304080651207
 30
0.0
 10
-0.0000000000195541
 20
104.0304080651207
 30
0.0
  0
ELLIPSE
  5
137
330
2
100
AcDbEntity
  8
GEB-VERDECKT
 48
25.0
100
AcDbEllipse
 10
-0.0000000000216005
 20
81.81790134245728
 30
0.0
 11
22.49999999999996
 21
0.0000000001410083
 31
0.0
210
0.0
220
0.0
230
1.0
 40
0.9990482215818607
 41
0.3635083964063548
 42
2.778084257170885
  0
LINE
  5
138
330
2
100
AcDbEntity
  8
GEB-VERDECKT
 48
25.0
100
AcDbLine
 10
22.4999999999784
 20
89.81028711511227
 30
0.0
 11
21.02974084479149
 21
89.81028711511227
 31
0.0
  0
LINE
  5
139
330
2
100
AcDbEntity
  8
GEB-VERDECKT
 48
25.0
100
AcDbLine
 10
22.4999999999784
 20
82.5245354177756
 30
0.0
 11
22.4999999999784
 21
89.81028711511227
 31
0.0
  0
LINE
  5
13A
330
2
100
AcDbEntity
  8
GEB-VERDECKT
 48
25.0
100
AcDbLine
 10
22.49999999997817
 20
73.8255155698024
 30
0.0
 11
22.4999999999784
 21
82.37186756199696
 31
0.0
  0
LINE
  5
13B
330
2
100
AcDbEntity
  8
GEB-VERDECKT
 48
25.0
100
AcDbLine
 10
21.02974084479138
 20
73.8255155698024
 30
0.0
 11
22.49999999997817
 21
73.8255155698024
 31
0.0
  0
ELLIPSE
  5
13C
330
2
100
AcDbEntity
  8
GEB-VERDECKT
 48
25.0
100
AcDbEllipse
 10
-0.0000000000216005
 20
81.81790134245728
 30
0.0
 11
-22.49999999999996
 21
-0.0000000001413247
 31
0.0
210
0.0
220
0.0
230
1.0
 40
0.9990482215818607
 41
0.3635083964063348
 42
2.778084257170871
  0
ELLIPSE
  5
13D
330
2
100
AcDbEntity
  8
GEB-VERDECKT
 48
25.0
100
AcDbEllipse
 10
-0.0000000000216005
 20
81.81790134245728
 30
0.0
 11
26.84999999999995
 21
-0.000000000000164
 31
0.0
210
0.0
220
0.0
230
1.0
 40
0.9990482215818603
 41
0.0000000000000235
 42
3.141592653589816
  0
LINE
  5
13E
330
2
100
AcDbEntity
  8
GEB-VERDECKT
 48
25.0
100
AcDbLine
 10
-22.50000000002149
 20
82.37186756199731
 30
0.0
 11
-22.5000000000216
 21
73.8255155698024
 31
0.0
  0
LINE
  5
13F
330
2
100
AcDbEntity
  8
GEB-VERDECKT
 48
25.0
100
AcDbLine
 10
-22.50000000002149
 20
89.81028711511214
 30
0.0
 11
-22.5000000000216
 21
82.52453541777596
 31
0.0
  0
LINE
  5
140
330
2
100
AcDbEntity
  8
GEB-VERDECKT
 48
25.0
100
AcDbLine
 10
-21.02974084482548
 20
72.45150486779436
 30
0.0
 11
-19.95620204348745
 21
72.45150486779436
 31
0.0
  0
LINE
  5
141
330
2
100
AcDbEntity
  8
GEB-VERDECKT
 48
25.0
100
AcDbLine
 10
-19.95620204348745
 20
72.45150486779436
 30
0.0
 11
-19.95620204348677
 21
72.34245639938115
 31
0.0
  0
LINE
  5
142
330
2
100
AcDbEntity
  8
GEB-VERDECKT
 48
25.0
100
AcDbLine
 10
-19.95620204348677
 20
72.34245639938115
 30
0.0
 11
-18.87458608818849
 21
72.34245639938115
 31
0.0
  0
LINE
  5
143
330
2
100
AcDbEntity
  8
GEB-VERDECKT
 48
25.0
100
AcDbLine
 10
-22.5000000000216
 20
73.8255155698024
 30
0.0
 11
-22.50000000000932
 21
71.997863239195
 31
0.0
  0
LINE
  5
144
330
2
100
AcDbEntity
  8
GEB-VERDECKT
 48
25.0
100
AcDbLine
 10
-22.5000000000216
 20
73.8255155698024
 30
0.0
 11
-21.02974084483481
 21
73.8255155698024
 31
0.0
  0
LINE
  5
145
330
2
100
AcDbEntity
  8
GEB-VERDECKT
 48
25.0
100
AcDbLine
 10
-21.02974084483481
 20
73.8255155698024
 30
0.0
 11
-21.02974084482548
 21
72.45150486779436
 31
0.0
  0
LINE
  5
146
330
2
100
AcDbEntity
  8
GEB-VERDECKT
 48
25.0
100
AcDbLine
 10
-22.50000000000932
 20
71.997863239195
 30
0.0
 11
-18.8745860881861
 21
71.997863239195
 31
0.0
  0
ELLIPSE
  5
147
330
2
100
AcDbEntity
  8
GEB-VERDECKT
 48
25.0
100
AcDbEllipse
 10
-0.0000000000093223
 20
79.99024901184987
 30
0.0
 11
-20.49999999999995
 21
-0.000000000130006
 31
0.0
210
0.0
220
0.0
230
1.0
 40
0.9990482215818605
 41
5.882288822867625
 42
6.684081791478846
  0
LINE
  5
148
330
2
100
AcDbEntity
  8
GEB-VERDECKT
 48
25.0
100
AcDbLine
 10
-18.8745860881861
 20
71.997863239195
 30
0.0
 11
-18.87458608818849
 21
72.34245639938115
 31
0.0
  0
ELLIPSE
  5
149
330
2
100
AcDbEntity
  8
GEB-VERDECKT
 48
25.0
100
AcDbEllipse
 10
-0.0000000000115961
 20
80.33484217203591
 30
0.0
 11
-20.49999999999994
 21
-0.0000000001290124
 31
0.0
210
0.0
220
0.0
230
1.0
 40
0.9990482215818605
 41
5.882288822867677
 42
6.684081791478894
  0
LINE
  5
14A
330
2
100
AcDbEntity
  8
GEB-VERDECKT
 48
25.0
100
AcDbLine
 10
-21.02974084483458
 20
89.81028711511214
 30
0.0
 11
-22.50000000002149
 21
89.81028711511214
 31
0.0
  0
LINE
  5
14B
330
2
100
AcDbEntity
  8
GEB-VERDECKT
 48
25.0
100
AcDbLine
 10
-22.50000000000909
 20
87.98263478450463
 30
0.0
 11
-18.87458608818599
 21
87.98263478450463
 31
0.0
  0
LINE
  5
14C
330
2
100
AcDbEntity
  8
GEB-VERDECKT
 48
25.0
100
AcDbLine
 10
-18.87458608818838
 20
88.32722794469077
 30
0.0
 11
-18.87458608818599
 21
87.98263478450463
 31
0.0
  0
LINE
  5
14D
330
2
100
AcDbEntity
  8
GEB-VERDECKT
 48
25.0
100
AcDbLine
 10
-18.87458608818838
 20
88.32722794469077
 30
0.0
 11
-19.95620204348665
 21
88.32722794469077
 31
0.0
  0
LINE
  5
14E
330
2
100
AcDbEntity
  8
GEB-VERDECKT
 48
25.0
100
AcDbLine
 10
-19.95620204348665
 20
88.32722794469077
 30
0.0
 11
-19.95620204348734
 21
88.43627641310423
 31
0.0
  0
LINE
  5
14F
330
2
100
AcDbEntity
  8
GEB-VERDECKT
 48
25.0
100
AcDbLine
 10
-19.95620204348734
 20
88.43627641310423
 30
0.0
 11
-21.02974084482525
 21
88.43627641310423
 31
0.0
  0
LINE
  5
150
330
2
100
AcDbEntity
  8
GEB-VERDECKT
 48
25.0
100
AcDbLine
 10
-21.02974084482525
 20
88.43627641310423
 30
0.0
 11
-21.02974084483458
 21
89.81028711511214
 31
0.0
  0
ELLIPSE
  5
151
330
2
100
AcDbEntity
  8
GEB-KONTUR-A
 48
25.0
100
AcDbEllipse
 10
-0.0000000000106866
 20
80.20398400993997
 30
0.0
 11
-18.07499999999996
 21
-0.00000000011465
 31
0.0
210
0.0
220
0.0
230
1.0
 40
0.9990482215818605
 41
4.973433323069858
 42
6.278354471616168
  0
ELLIPSE
  5
152
330
2
100
AcDbEntity
  8
GEB-KONTUR-A
 48
25.0
100
AcDbEllipse
 10
-0.0000000000106866
 20
80.20398400993997
 30
0.0
 11
18.07499999999997
 21
0.0000000001143591
 31
0.0
210
0.0
220
0.0
230
1.0
 40
0.9990482215818605
 41
0.0048308355507274
 42
1.309751984097044
  0
LINE
  5
153
330
2
100
AcDbEntity
  8
GEB-VERDECKT
 48
25.0
100
AcDbLine
 10
-20.07500000001153
 20
80.33484217203602
 30
0.0
 11
-20.07500000001062
 21
80.20398400994009
 31
0.0
  0
LINE
  5
154
330
2
100
AcDbEntity
  8
GEB-VERDECKT
 48
25.0
100
AcDbLine
 10
20.07499999998834
 20
80.33484217203579
 30
0.0
 11
20.07499999998925
 21
80.20398400993986
 31
0.0
  0
ELLIPSE
  5
155
330
2
100
AcDbEntity
  8
GEB-VERDECKT
 48
25.0
100
AcDbEllipse
 10
-0.0000000000106866
 20
80.20398400993997
 30
0.0
 11
-18.07499999999995
 21
-0.0000000001143634
 31
0.0
210
0.0
220
0.0
230
1.0
 40
0.9990482215818605
 41
6.278354471616176
 42
9.429608796320099
  0
ELLIPSE
  5
156
330
2
100
AcDbEntity
  8
GEB-VERDECKT
 48
25.0
100
AcDbEllipse
 10
-0.0000000000106866
 20
80.20398400993997
 30
0.0
 11
-18.07499999999997
 21
-0.0000000001140338
 31
0.0
210
0.0
220
0.0
230
1.0
 40
0.9990482215818605
 41
4.451344637686855
 42
4.973433323069901
  0
ELLIPSE
  5
157
330
2
100
AcDbEntity
  8
GEB-VERDECKT
 48
25.0
100
AcDbEllipse
 10
-0.0000000000115961
 20
80.33484217203591
 30
0.0
 11
-20.07499999999995
 21
-0.0000000000000025
 31
0.0
210
0.0
220
0.0
230
1.0
 40
0.9990482215818607
 41
0.0
 42
6.283185307179586
  0
ELLIPSE
  5
158
330
2
100
AcDbEntity
  8
GEB-VERDECKT
 48
25.0
100
AcDbEllipse
 10
-0.0000000000106866
 20
80.20398400993997
 30
0.0
 11
-20.07499999999995
 21
-0.0000000000000025
 31
0.0
210
0.0
220
0.0
230
1.0
 40
0.9990482215818607
 41
0.0
 42
6.283185307179586
  0
LINE
  5
159
330
2
100
AcDbEntity
  8
GEB-VERDECKT
 48
25.0
100
AcDbLine
 10
-37.59999999999991
 20
101.62
 30
0.0
 11
37.60000000000014
 21
101.62
 31
0.0
  0
LINE
  5
15A
330
2
100
AcDbEntity
  8
GEB-VERDECKT
 48
25.0
100
AcDbLine
 10
37.60000000000014
 20
85.5599999999996
 30
0.0
 11
37.60000000000014
 21
101.62
 31
0.0
  0
LINE
  5
15B
330
2
100
AcDbEntity
  8
GEB-VERDECKT
 48
25.0
100
AcDbLine
 10
-37.59999999999991
 20
85.55999999999972
 30
0.0
 11
-37.59999999999991
 21
101.62
 31
0.0
  0
LINE
  5
15C
330
2
100
AcDbEntity
  8
GEB-VERDECKT
 48
25.0
100
AcDbLine
 10
-20.07500000001164
 20
80.35168967840389
 30
0.0
 11
-20.07500000000937
 21
80.00808456638457
 31
0.0
  0
LINE
  5
15D
330
2
100
AcDbEntity
  8
GEB-VERDECKT
 48
25.0
100
AcDbLine
 10
20.07499999998834
 20
80.35168967840389
 30
0.0
 11
20.07499999999061
 21
80.00808456638457
 31
0.0
  0
LINE
  5
15E
330
2
100
AcDbEntity
  8
GEB-VERDECKT
 48
25.0
100
AcDbLine
 10
18.07499999999118
 20
79.93259405874664
 30
0.0
 11
18.07499999998833
 21
80.35168967840389
 31
0.0
  0
LINE
  5
15F
330
2
100
AcDbEntity
  8
GEB-VERDECKT
 48
25.0
100
AcDbLine
 10
-18.0750000000088
 20
79.93259405874664
 30
0.0
 11
-18.07500000001164
 21
80.35168967840389
 31
0.0
  0
SPLINE
  5
160
330
2
100
AcDbEntity
  8
GEB-VERDECKT
 48
25.0
100
AcDbSpline
210
0.0
220
0.0
230
1.0
 70
    11
 71
     3
 72
    70
 73
    66
 74
     0
 42
0.0000000001
 43
0.0000000001
 40
0.0
 40
0.0
 40
0.0
 40
0.0
 40
0.3920107445812496
 40
0.3920107445812496
 40
0.7840214891624992
 40
0.7840214891624992
 40
1.176032233743748
 40
1.176032233743748
 40
1.568042978324998
 40
1.568042978324998
 40
1.954688672251559
 40
1.954688672251559
 40
2.34133436617812
 40
2.34133436617812
 40
2.727980060104681
 40
2.727980060104681
 40
3.114625754031242
 40
3.114625754031242
 40
3.501271447957804
 40
3.501271447957804
 40
3.887917141884365
 40
3.887917141884365
 40
4.274562835810926
 40
4.274562835810926
 40
4.661208529737487
 40
4.661208529737487
 40
5.053219274318736
 40
5.053219274318736
 40
5.445230018899986
 40
5.445230018899986
 40
5.837240763481236
 40
5.837240763481236
 40
6.229251508062485
 40
6.229251508062485
 40
6.613659180917585
 40
6.613659180917585
 40
6.998066853772684
 40
6.998066853772684
 40
7.382474526627783
 40
7.382474526627783
 40
7.766882199482882
 40
7.766882199482882
 40
8.153003028394296
 40
8.153003028394296
 40
8.53912385730571
 40
8.53912385730571
 40
8.925244686217125
 40
8.925244686217125
 40
9.311365515128539
 40
9.311365515128539
 40
9.697486344039953
 40
9.697486344039953
 40
10.08360717295136
 40
10.08360717295136
 40
10.46972800186278
 40
10.46972800186278
 40
10.85584883077419
 40
10.85584883077419
 40
11.24025650362929
 40
11.24025650362929
 40
11.62466417648439
 40
11.62466417648439
 40
12.00907184933949
 40
12.00907184933949
 40
12.39347952219459
 40
12.39347952219459
 40
12.39347952219459
 40
12.39347952219459
 10
-20.07500000000937
 20
80.00808456638457
 30
0.0
 10
-20.07500000000937
 20
81.31478704832204
 30
0.0
 10
-19.94577211448802
 20
82.65387683471761
 30
0.0
 10
-19.41790816631965
 20
85.29836870170891
 30
0.0
 10
-19.01954455622251
 20
86.60390490833425
 30
0.0
 10
-17.98134835198084
 20
89.09637038993299
 30
0.0
 10
-17.34073275530841
 20
90.2856082477017
 30
0.0
 10
-15.8705759000386
 20
92.48336657588357
 30
0.0
 10
-15.04077408787361
 20
93.49191748769783
 30
0.0
 10
-13.28785626176909
 20
95.26852912212996
 30
0.0
 10
-12.30268722243067
 20
96.10389439126777
 30
0.0
 10
-10.14674667315535
 20
97.58871953062396
 30
0.0
 10
-8.975881639470117
 20
98.23826642472079
 30
0.0
 10
-6.516865894313241
 20
99.29037142127015
 30
0.0
 10
-5.226259279873374
 20
99.69376705628633
 30
0.0
 10
-2.612265492541496
 20
100.226569790587
 30
0.0
 10
-1.288818979766347
 20
100.3557766080138
 30
0.0
 10
1.288818979744178
 20
100.3557766080138
 30
0.0
 10
2.612265492519327
 20
100.226569790587
 30
0.0
 10
5.226259279851547
 20
99.69376705628633
 30
0.0
 10
6.516865894291413
 20
99.29037142127015
 30
0.0
 10
8.975881639448743
 20
98.23826642472079
 30
0.0
 10
10.14674667313409
 20
97.58871953062396
 30
0.0
 10
12.30268722240987
 20
96.10389439126777
 30
0.0
 10
13.28785626174863
 20
95.26852912212996
 30
0.0
 10
15.04077408785326
 20
93.49191748769783
 30
0.0
 10
15.87057590001836
 20
92.48336657588357
 30
0.0
 10
17.34073275528863
 20
90.2856082477017
 30
0.0
 10
17.98134835196151
 20
89.09637038993299
 30
0.0
 10
19.0195445562033
 20
86.60390490833425
 30
0.0
 10
19.41790816630077
 20
85.29836870170891
 30
0.0
 10
19.94577211446926
 20
82.65387683471761
 30
0.0
 10
20.07499999999061
 20
81.31478704832204
 30
0.0
 10
20.07499999999061
 20
78.72672565686741
 30
0.0
 10
19.95057898978166
 20
77.41240387579342
 30
0.0
 10
19.43483661001392
 20
74.81896118188013
 30
0.0
 10
19.04370258336985
 20
73.53973561472276
 30
0.0
 10
18.01908515163086
 20
71.10308370009921
 30
0.0
 10
17.38473213769202
 20
69.94307328473031
 30
0.0
 10
15.92659286980392
 20
67.80538130533432
 30
0.0
 10
15.10259744464156
 20
66.82761044213577
 30
0.0
 10
13.34789065517248
 20
65.09459698834075
 30
0.0
 10
12.35309660007146
 20
64.27753898047559
 30
0.0
 10
10.17891307667787
 20
62.83178065948118
 30
0.0
 10
8.999458157077242
 20
62.20294318291928
 30
0.0
 10
6.526592282865863
 20
61.18780957931505
 30
0.0
 10
5.230829854958756
 20
60.800693802036
 30
0.0
 10
2.61109325683833
 20
60.29046610381636
 30
0.0
 10
1.287069429693701
 20
60.16752629870632
 30
0.0
 10
-1.287069429715756
 20
60.16752629870632
 30
0.0
 10
-2.611093256860385
 20
60.29046610381636
 30
0.0
 10
-5.230829854980697
 20
60.8006938020361
 30
0.0
 10
-6.526592282887577
 20
61.18780957931505
 30
0.0
 10
-8.999458157098729
 20
62.20294318291928
 30
0.0
 10
-10.17891307669924
 20
62.83178065948118
 30
0.0
 10
-12.35309660009227
 20
64.27753898047559
 30
0.0
 10
-13.34789065519317
 20
65.09459698834075
 30
0.0
 10
-15.10259744466191
 20
66.82761044213577
 30
0.0
 10
-15.92659286982393
 20
67.80538130533432
 30
0.0
 10
-17.38473213771158
 20
69.94307328473031
 30
0.0
 10
-18.0190851516503
 20
71.10308370009921
 30
0.0
 10
-19.04370258338895
 20
73.53973561472276
 30
0.0
 10
-19.43483661003279
 20
74.81896118188013
 30
0.0
 10
-19.95057898980042
 20
77.41240387579342
 30
0.0
 10
-20.07500000000937
 20
78.72672565686741
 30
0.0
 10
-20.07500000000937
 20
80.00808456638457
 30
0.0
  0
ELLIPSE
  5
161
330
2
100
AcDbEntity
  8
GEB-VERDECKT
 48
25.0
100
AcDbEllipse
 10
-0.0000000000117097
 20
80.35168967840389
 30
0.0
 11
-20.075
 21
0.0
 31
0.0
210
0.0
220
0.0
230
1.0
 40
0.9990482215818575
 41
0.0
 42
6.283185307179586
  0
ELLIPSE
  5
162
330
2
100
AcDbEntity
  8
GEB-VERDECKT
 48
25.0
100
AcDbEllipse
 10
-0.0000000000117097
 20
80.35168967840389
 30
0.0
 11
-18.07499999999999
 21
-0.0000000001228285
 31
0.0
210
0.0
220
0.0
230
1.0
 40
0.999048221581858
 41
6.282444293531387
 42
9.425518974403839
  0
LINE
  5
163
330
2
100
AcDbEntity
  8
GEB-VERDECKT
 48
25.0
100
AcDbLine
 10
14.03512441945281
 20
58.94999999999993
 30
0.0
 11
-14.03512441947327
 21
58.94999999999993
 31
0.0
  0
LINE
  5
164
330
2
100
AcDbEntity
  8
GEB-VERDECKT
 48
25.0
100
AcDbLine
 10
-9.423950567886436
 20
56.70000000000005
 30
0.0
 11
9.423950567865063
 21
56.70000000000005
 31
0.0
  0
LINE
  5
165
330
2
100
AcDbEntity
  8
GEB-KONTUR-A
 48
25.0
100
AcDbLine
 10
37.60000000000014
 20
58.94999999999993
 30
0.0
 11
37.60000000000014
 21
85.5599999999996
 31
0.0
  0
LINE
  5
166
330
2
100
AcDbEntity
  8
GEB-KONTUR-A
 48
25.0
100
AcDbLine
 10
-37.59999999999991
 20
58.94999999999993
 30
0.0
 11
-37.59999999999991
 21
85.55999999999972
 31
0.0
  0
ARC
  5
167
330
2
100
AcDbEntity
  8
GEB-KONTUR-A
 48
25.0
100
AcDbCircle
 10
-38.72499999999991
 20
57.82499999999993
 30
0.0
 40
0.7500000000000001
100
AcDbArc
 50
109.3750953629676
 51
253.1255057020532
  0
ARC
  5
168
330
2
100
AcDbEntity
  8
GEB-KONTUR-A
 48
25.0
100
AcDbCircle
 10
38.72500000000014
 20
57.82499999999993
 30
0.0
 40
0.7500000000000002
100
AcDbArc
 50
286.8744942979469
 51
70.62490463703238
  0
LINE
  5
169
330
2
100
AcDbEntity
  8
GEB-KONTUR-A
 48
25.0
100
AcDbLine
 10
37.60000000000014
 20
56.70000000000005
 30
0.0
 11
38.94270717334689
 21
57.10729282665329
 31
0.0
  0
LINE
  5
16A
330
2
100
AcDbEntity
  8
GEB-KONTUR-A
 48
25.0
100
AcDbLine
 10
-37.59999999999991
 20
56.70000000000005
 30
0.0
 11
-38.94270717334666
 21
57.10729282665329
 31
0.0
  0
ARC
  5
16B
330
2
100
AcDbEntity
  8
GEB-KONTUR-A
 48
25.0
100
AcDbCircle
 10
-33.4520145925419
 20
42.83074685156168
 30
0.0
 40
16.64440161147056
100
AcDbArc
 50
104.4308901345305
 51
109.3750953629676
  0
ARC
  5
16C
330
2
100
AcDbEntity
  8
GEB-KONTUR-A
 48
25.0
100
AcDbCircle
 10
33.45201459254213
 20
42.83074685156168
 30
0.0
 40
16.64440161147056
100
AcDbArc
 50
70.62490463703238
 51
75.56910986546944
  0
LINE
  5
16D
330
2
100
AcDbEntity
  8
GEB-KONTUR-A
 48
25.0
100
AcDbLine
 10
37.60000000000014
 20
2.0
 30
0.0
 11
37.60000000000014
 21
56.70000000000005
 31
0.0
  0
LINE
  5
16E
330
2
100
AcDbEntity
  8
GEB-KONTUR-A
 48
25.0
100
AcDbLine
 10
-37.59999999999991
 20
2.0
 30
0.0
 11
-37.59999999999991
 21
56.70000000000005
 31
0.0
  0
LINE
  5
16F
330
2
100
AcDbEntity
  8
GEB-KONTUR-A
 48
25.0
100
AcDbLine
 10
36.98853863708269
 20
0.0
 30
0.0
 11
37.60000000000014
 21
2.0
 31
0.0
  0
LINE
  5
170
330
2
100
AcDbEntity
  8
GEB-KONTUR-A
 48
25.0
100
AcDbLine
 10
-36.98853863708257
 20
0.0
 30
0.0
 11
-37.59999999999991
 21
2.0
 31
0.0
  0
ELLIPSE
  5
171
330
2
100
AcDbEntity
  8
GEB-KONTUR-A
 48
25.0
100
AcDbEllipse
 10
-0.0000000000117097
 20
80.35168967840389
 30
0.0
 11
18.075
 21
0.0000000001227448
 31
0.0
210
0.0
220
0.0
230
1.0
 40
0.9990482215818575
 41
0.0007410136345441
 42
3.140851639941677
  0
LINE
  5
172
330
2
100
AcDbEntity
  8
GEB-KONTUR-A
 48
25.0
100
AcDbLine
 10
37.60000000000014
 20
58.94999999999993
 30
0.0
 11
14.03512441945293
 21
58.94999999999993
 31
0.0
  0
LINE
  5
173
330
2
100
AcDbEntity
  8
GEB-KONTUR-A
 48
25.0
100
AcDbLine
 10
-14.03512441947327
 20
58.94999999999993
 30
0.0
 11
-37.59999999999991
 21
58.94999999999993
 31
0.0
  0
LINE
  5
174
330
2
100
AcDbEntity
  8
GEB-KONTUR-A
 48
25.0
100
AcDbLine
 10
-37.59999999999991
 20
56.70000000000005
 30
0.0
 11
-9.423950567886436
 21
56.70000000000005
 31
0.0
  0
LINE
  5
175
330
2
100
AcDbEntity
  8
GEB-KONTUR-A
 48
25.0
100
AcDbLine
 10
9.423950567865063
 20
56.70000000000005
 30
0.0
 11
37.60000000000014
 21
56.70000000000005
 31
0.0
  0
LINE
  5
176
330
2
100
AcDbEntity
  8
GEB-KONTUR-A
 48
25.0
100
AcDbLine
 10
36.98853863708269
 20
0.0
 30
0.0
 11
-36.98853863708257
 21
0.0
 31
0.0
  0
LINE
  5
177
330
2
100
AcDbEntity
  8
GEB-KONTUR-A
 48
25.0
100
AcDbLine
 10
-37.59999999999991
 20
2.0
 30
0.0
 11
37.60000000000014
 21
2.0
 31
0.0
  0
SPLINE
  5
178
330
2
100
AcDbEntity
  8
GEB-KONTUR-A
 48
25.0
100
AcDbSpline
210
0.0
220
0.0
230
1.0
 70
     8
 71
     3
 72
    18
 73
    14
 74
     0
 42
0.0000000001
 43
0.0000000001
 40
3.248581758533442
 40
3.248581758533442
 40
3.248581758533442
 40
3.248581758533442
 40
3.497654453091236
 40
3.497654453091236
 40
3.846568637483689
 40
3.846568637483689
 40
4.195482821876142
 40
4.195482821876142
 40
4.897567495244402
 40
4.897567495244402
 40
5.248609831928532
 40
5.248609831928532
 40
5.576456014908016
 40
5.576456014908016
 40
5.576456014908016
 40
5.576456014908016
 10
4.546188778447344
 20
97.64980315287131
 30
0.0
 10
5.380248643867957
 20
97.42786291852258
 30
0.0
 10
6.200991140210817
 20
97.14458075191068
 30
0.0
 10
8.104124584257647
 20
96.32831536060008
 30
0.0
 10
9.161722410342008
 20
95.73999647922233
 30
0.0
 10
11.10888843324665
 20
94.39437026455118
 30
0.0
 10
11.99853340402433
 20
93.63698102225828
 30
0.0
 10
14.36510863692183
 20
91.22641667485664
 30
0.0
 10
15.74321804831663
 20
89.19786799750045
 30
0.0
 10
17.13527743698728
 20
85.83872328611812
 30
0.0
 10
17.49081542111992
 20
84.66644952351851
 30
0.0
 10
17.94555161283279
 20
82.37230450166942
 30
0.0
 10
18.05993198520173
 20
81.25212802689237
 30
0.0
 10
18.07360603804989
 20
80.15575839152507
 30
0.0
  0
SPLINE
  5
179
330
2
100
AcDbEntity
  8
GEB-KONTUR-A
 48
25.0
100
AcDbSpline
210
0.0
220
0.0
230
1.0
 70
     8
 71
     3
 72
    18
 73
    14
 74
     0
 42
0.0000000001
 43
0.0000000001
 40
0.0231961537046488
 40
0.0231961537046488
 40
0.0231961537046488
 40
0.0231961537046488
 40
0.35104233668413
 40
0.35104233668413
 40
0.7020846733682601
 40
0.7020846733682601
 40
1.40416934673652
 40
1.40416934673652
 40
1.753083531128972
 40
1.753083531128972
 40
2.101997715521425
 40
2.101997715521425
 40
2.351070410079227
 40
2.351070410079227
 40
2.351070410079227
 40
2.351070410079227
 10
-18.07360603806762
 20
80.15575839152507
 30
0.0
 10
-18.05993198521935
 20
81.25212802689237
 30
0.0
 10
-17.94555161285041
 20
82.37230450166942
 30
0.0
 10
-17.49081542113777
 20
84.66644952351851
 30
0.0
 10
-17.13527743700513
 20
85.83872328611812
 30
0.0
 10
-15.74321804833516
 20
89.19786799750056
 30
0.0
 10
-14.36510863694059
 20
91.22641667485664
 30
0.0
 10
-11.99853340404365
 20
93.63698102225805
 30
0.0
 10
-11.10888843326643
 20
94.39437026455118
 30
0.0
 10
-9.16172241036179
 20
95.73999647922233
 30
0.0
 10
-8.104124584277769
 20
96.32831536060008
 30
0.0
 10
-6.200991140231053
 20
97.14458075191068
 30
0.0
 10
-5.380248643888307
 20
97.42786291852258
 30
0.0
 10
-4.546188778467694
 20
97.64980315287131
 30
0.0
  0
LINE
  5
17A
330
2
100
AcDbEntity
  8
GEB-VERDECKT
 48
25.0
100
AcDbLine
 10
35.0
 20
0.0
 30
0.0
 11
35.09996670310261
 21
101.62
 31
0.0
  0
LINE
  5
17B
330
2
100
AcDbEntity
  8
GEB-VERDECKT
 48
25.0
100
AcDbLine
 10
-34.99999999999989
 20
0.0
 30
0.0
 11
-35.0999667031025
 21
101.62
 31
0.0
  0
SPLINE
  5
17C
330
2
100
AcDbEntity
  8
GEB-VERDECKT
 48
25.0
100
AcDbSpline
210
0.0
220
0.0
230
1.0
 70
     8
 71
     3
 72
    40
 73
    36
 74
     0
 42
0.0000000001
 43
0.0000000001
 40
5.576456014908016
 40
5.576456014908016
 40
5.576456014908016
 40
5.576456014908016
 40
5.599652168612662
 40
5.599652168612662
 40
5.944990109936503
 40
5.944990109936503
 40
6.290328051260343
 40
6.290328051260343
 40
6.635665992584183
 40
6.635665992584183
 40
6.981003933908024
 40
6.981003933908024
 40
7.327985844546763
 40
7.327985844546763
 40
7.674967755185502
 40
7.674967755185502
 40
8.021949665824241
 40
8.021949665824241
 40
8.36893157646298
 40
8.36893157646298
 40
8.715913487101719
 40
8.715913487101719
 40
9.062895397740458
 40
9.062895397740458
 40
9.409877308379197
 40
9.409877308379197
 40
9.756859219017934
 40
9.756859219017934
 40
10.10219716034177
 40
10.10219716034177
 40
10.44753510166561
 40
10.44753510166561
 40
10.79287304298945
 40
10.79287304298945
 40
11.1382109843133
 40
11.1382109843133
 40
11.1382109843133
 40
11.1382109843133
 10
18.07360603804989
 20
80.15575839152507
 30
0.0
 10
18.07457352050994
 20
80.07818677440878
 30
0.0
 10
18.07503686615109
 20
80.00073433456316
 30
0.0
 10
18.07441418158908
 20
78.77228794553445
 30
0.0
 10
17.96228730660391
 20
77.59055099395755
 30
0.0
 10
17.49788845738874
 20
75.25706440443229
 30
0.0
 10
17.14577525647235
 20
74.10523250515666
 30
0.0
 10
16.22292487569245
 20
71.91019949995325
 30
0.0
 10
15.65140676646172
 20
70.86470950157263
 30
0.0
 10
14.33742325399828
 20
68.93784949398503
 30
0.0
 10
13.59478293394522
 20
68.05640414353252
 30
0.0
 10
12.01309393618794
 20
66.49404930598461
 30
0.0
 10
11.11646039220682
 20
65.75767001957274
 30
0.0
 10
9.157603220697183
 20
64.45526505915314
 30
0.0
 10
8.095328199232653
 20
63.88911512869947
 30
0.0
 10
5.869169496237873
 20
62.97561744671122
 30
0.0
 10
4.703195773447077
 20
62.62753379605374
 30
0.0
 10
2.346935663263366
 20
62.16893890982999
 30
0.0
 10
1.15660636878556
 20
62.0585786709928
 30
0.0
 10
-1.156606368806137
 20
62.0585786709928
 30
0.0
 10
-2.346935663283943
 20
62.16893890982999
 30
0.0
 10
-4.703195773467541
 20
62.62753379605374
 30
0.0
 10
-5.869169496258223
 20
62.97561744671122
 30
0.0
 10
-8.09532819925289
 20
63.88911512869947
 30
0.0
 10
-9.157603220717078
 20
64.45526505915314
 30
0.0
 10
-11.11646039222637
 20
65.75767001957274
 30
0.0
 10
-12.01309393620727
 20
66.49404930598461
 30
0.0
 10
-13.59478293396432
 20
68.05640414353252
 30
0.0
 10
-14.33742325401715
 20
68.93784949398503
 30
0.0
 10
-15.65140676648025
 20
70.86470950157263
 30
0.0
 10
-16.22292487571076
 20
71.91019949995325
 30
0.0
 10
-17.14577525649042
 20
74.10523250515666
 30
0.0
 10
-17.49788845740647
 20
75.25706440443229
 30
0.0
 10
-17.96228730662153
 20
77.59055099395755
 30
0.0
 10
-18.0744141816067
 20
78.77228794553445
 30
0.0
 10
-18.07499767335878
 20
79.92341385962686
 30
0.0
  0
SPLINE
  5
17D
330
2
100
AcDbEntity
  8
GEB-VERDECKT
 48
25.0
100
AcDbSpline
210
0.0
220
0.0
230
1.0
 70
     8
 71
     3
 72
    14
 73
    10
 74
     0
 42
0.0000000001
 43
0.0000000001
 40
2.351070410079227
 40
2.351070410079227
 40
2.351070410079227
 40
2.351070410079227
 40
2.450911899913878
 40
2.450911899913878
 40
2.799826084306331
 40
2.799826084306331
 40
3.148740268698784
 40
3.148740268698784
 40
3.248581758533442
 40
3.248581758533442
 40
3.248581758533442
 40
3.248581758533442
 10
-4.546188778467694
 20
97.64980315287131
 30
0.0
 10
-4.211853536610988
 20
97.7387685197533
 30
0.0
 10
-3.875378420253809
 20
97.81787728238498
 30
0.0
 10
-2.357677660896001
 20
98.12780200697091
 30
0.0
 10
-1.16304728131854
 20
98.2445724499853
 30
0.0
 10
1.163047281297849
 20
98.2445724499853
 30
0.0
 10
2.357677660875424
 20
98.12780200697091
 30
0.0
 10
3.875378420233346
 20
97.81787728238498
 30
0.0
 10
4.211853536590524
 20
97.7387685197533
 30
0.0
 10
4.546188778447344
 20
97.64980315287131
 30
0.0
  0
SPLINE
  5
17E
330
2
100
AcDbEntity
  8
GEB-VERDECKT
 48
25.0
100
AcDbSpline
210
0.0
220
0.0
230
1.0
 70
     8
 71
     3
 72
     8
 73
     4
 74
     0
 42
0.0000000001
 43
0.0000000001
 40
0.0
 40
0.0
 40
0.0
 40
0.0
 40
0.0231961537046488
 40
0.0231961537046488
 40
0.0231961537046488
 40
0.0231961537046488
 10
-18.07499767335878
 20
79.92341385962686
 30
0.0
 10
-18.07503686616883
 20
80.00073433456316
 30
0.0
 10
-18.07457352052756
 20
80.07818677440878
 30
0.0
 10
-18.07360603806762
 20
80.15575839152507
 30
0.0
  0
TEXT
  5
17F
330
2
100
AcDbEntity
  8
GEB-TEXT
100
AcDbText
 10
-33.28939290586608
 20
-10.5
 30
0.0
 40
3.5
  1
Abzweig PP-MD 87.5G d75/40
 72
     1
 11
0.0000000000002274
 21
-10.5
 31
0.0
100
AcDbText
  0
TEXT
  5
181
330
2
100
AcDbEntity
  8
GEB-TEXT
100
AcDbText
 10
-18.75221691678013
 20
-5.0
 30
0.0
 40
3.5
  1
Geberit Silent PP
 72
     1
 11
0.0000000000002274
 21
-5.0
 31
0.0
100
AcDbText
  0
TEXT
  5
182
330
2
100
AcDbEntity
  8
GEB-ART-NR
100
AcDbText
 10
-24.17544479964537
 20
-16.84278125428022
 30
0.0
 40
3.5
  1
GEB-ART-NR 390.347
 72
     1
 11
0.5525565646111091
 21
-16.84278125428022
 31
0.0
100
AcDbText
  0
ENDSEC
  0
SECTION
  2
OBJECTS
  0
DICTIONARY
  5
9
330
0
100
AcDbDictionary
281
     1
  3
ACAD_2007HEADERVARS_RT
350
1B1
  3
ACAD_COLOR
350
44
  3
ACAD_GROUP
350
31
  3
ACAD_LAYOUT
350
16
  3
ACAD_MATERIAL
350
B
  3
ACAD_MLEADERSTYLE
350
47
  3
ACAD_MLINESTYLE
350
32
  3
ACAD_PLOTSETTINGS
350
33
  3
ACAD_PLOTSTYLENAME
350
8
  3
ACAD_SCALELIST
350
45
  3
ACAD_TABLESTYLE
350
46
  3
ACAD_VISUALSTYLE
350
2B
  3
ACDB_RECOMPOSE_DATA
350
1B0
  3
AcDbVariableDictionary
350
186
  0
DICTIONARY
  5
2C
330
28
100
AcDbDictionary
280
     1
281
     1
  0
DICTIONARY
  5
1C
330
1B
100
AcDbDictionary
280
     1
281
     1
  3
ACAD_LAYERFILTERS
360
1D
  3
ACLYDICTIONARY
360
1E
  0
DICTIONARY
  5
3
330
2
100
AcDbDictionary
280
     1
281
     1
  3
ACAD_SORTENTS
360
184
  0
DICTIONARY
  5
1B1
102
{ACAD_REACTORS
330
9
102
}
330
9
100
AcDbDictionary
281
     1
  3
DIMARCSYM
350
1B2
  3
DIMLTEX1
350
1B4
  3
DIMLTEX2
350
1B5
  3
DIMLTYPE
350
1B3
  0
DICTIONARY
  5
44
102
{ACAD_REACTORS
330
9
102
}
330
9
100
AcDbDictionary
281
     1
  0
DICTIONARY
  5
31
102
{ACAD_REACTORS
330
9
102
}
330
9
100
AcDbDictionary
281
     1
  0
DICTIONARY
  5
16
102
{ACAD_REACTORS
330
9
102
}
330
9
100
AcDbDictionary
281
     1
  3
Layout1
350
1A
  3
Model
350
15
  0
DICTIONARY
  5
B
102
{ACAD_REACTORS
330
9
102
}
330
9
100
AcDbDictionary
281
     1
  3
ByBlock
350
3C
  3
ByLayer
350
34
  3
Global
350
A
  0
DICTIONARY
  5
47
102
{ACAD_REACTORS
330
9
102
}
330
9
100
AcDbDictionary
281
     1
  3
Standard
350
1A4
  0
DICTIONARY
  5
32
102
{ACAD_REACTORS
330
9
102
}
330
9
100
AcDbDictionary
281
     1
  3
Standard
350
48
  0
DICTIONARY
  5
33
102
{ACAD_REACTORS
330
9
102
}
330
9
100
AcDbDictionary
281
     1
  0
ACDBDICTIONARYWDFLT
  5
8
102
{ACAD_REACTORS
330
9
102
}
330
9
100
AcDbDictionary
281
     1
  3
Normal
350
7
100
AcDbDictionaryWithDefault
340
7
  0
DICTIONARY
  5
45
102
{ACAD_REACTORS
330
9
102
}
330
9
100
AcDbDictionary
281
     1
  3
A0
350
4D
  3
A1
350
4E
  3
A2
350
4F
  3
A3
350
50
  3
A4
350
51
  3
A5
350
52
  3
A6
350
53
  3
A7
350
54
  3
A8
350
55
  3
A9
350
56
  3
B0
350
57
  3
B1
350
58
  3
B2
350
59
  3
B3
350
5A
  3
B4
350
5B
  3
B5
350
5C
  3
B6
350
5D
  3
B7
350
5E
  3
B8
350
5F
  3
B9
350
60
  3
C0
350
61
  3
C1
350
62
  3
C2
350
63
  3
C3
350
64
  3
C4
350
65
  3
C5
350
66
  3
C6
350
67
  3
C7
350
68
  3
C8
350
69
  3
C9
350
6A
  3
D0
350
6B
  3
D1
350
6C
  3
D2
350
6D
  0
DICTIONARY
  5
46
102
{ACAD_REACTORS
330
9
102
}
330
9
100
AcDbDictionary
281
     1
  3
Standard
350
49
  0
DICTIONARY
  5
2B
102
{ACAD_REACTORS
330
9
102
}
330
9
100
AcDbDictionary
281
     1
  3
2dWireframe
350
2A
  3
Basic
350
193
  3
Brighten
350
197
  3
ColorChange
350
19B
  3
Conceptual
350
195
  3
Dim
350
196
  3
EdgeColorOff
350
1A3
  3
Facepattern
350
19A
  3
Flat
350
18F
  3
FlatWithEdges
350
190
  3
Gouraud
350
191
  3
GouraudWithEdges
350
192
  3
Hidden
350
194
  3
JitterOff
350
1A1
  3
Linepattern
350
199
  3
OverhangOff
350
1A2
  3
Realistic
350
4B
  3
Shaded
350
1A0
  3
Shaded with edges
350
19F
  3
Shades of Gray
350
19C
  3
Sketchy
350
19D
  3
Thicken
350
198
  3
Wireframe
350
4C
  3
X-Ray
350
19E
  0
XRECORD
  5
1B0
102
{ACAD_REACTORS
330
9
102
}
330
9
100
AcDbXrecord
280
     1
 90
        1
330
49
  0
DICTIONARY
  5
186
102
{ACAD_REACTORS
330
9
102
}
330
9
100
AcDbDictionary
281
     1
  3
CANNOSCALE
350
18A
  3
CMLEADERSTYLE
350
188
  3
CTABLESTYLE
350
187
  3
DIMASSOC
350
1AD
  3
HIDETEXT
350
1AC
  3
INDEXCTL
350
1AB
  3
LAYEREVAL
350
18C
  3
LAYERNOTIFY
350
18D
  3
LIGHTINGUNITS
350
18B
  3
MSLTSCALE
350
189
  3
SORTENTS
350
1AA
  3
XCLIPFRAME
350
1AE
  0
DICTIONARY
  5
1D
102
{ACAD_REACTORS
330
1C
102
}
330
1C
100
AcDbDictionary
281
     1
  0
DICTIONARY
  5
1E
102
{ACAD_REACTORS
330
1C
102
}
330
1C
100
AcDbDictionary
281
     1
1001
ACAD
1000
<All
  0
SORTENTSTABLE
  5
184
102
{ACAD_REACTORS
330
3
102
}
330
3
100
AcDbSortentsTable
330
2
331
16B
  5
8C
331
F5
  5
103
331
BE
  5
13A
331
134
  5
C4
331
173
  5
84
331
FD
  5
FB
331
C6
  5
132
331
87
  5
170
331
13C
  5
BC
331
17B
  5
7A
331
144
  5
B4
331
CE
  5
12A
331
8F
  5
168
331
105
  5
F3
331
14C
  5
AC
331
10D
  5
EB
331
97
  5
161
331
D6
  5
122
331
115
  5
E3
331
9F
  5
159
331
DE
  5
11A
331
154
  5
A4
331
11D
  5
DB
331
E6
  5
112
331
A7
  5
151
331
15C
  5
9C
331
164
  5
93
331
EE
  5
10A
331
AF
  5
149
331
125
  5
D3
331
B7
  5
141
331
12D
  5
CB
331
6E
  5
17E
331
16C
  5
8B
331
135
  5
C3
331
BF
  5
139
331
80
  5
177
331
F6
  5
102
331
13D
  5
BB
331
FE
  5
FA
331
88
  5
16F
331
C7
  5
131
331
174
  5
83
331
17C
  5
79
331
106
  5
F2
331
CF
  5
129
331
90
  5
167
331
145
  5
B3
331
10E
  5
EA
331
D7
  5
121
331
14D
  5
AB
331
98
  5
160
331
155
  5
A3
331
DF
  5
119
331
A0
  5
158
331
116
  5
E2
331
15D
  5
9B
331
11E
  5
DA
331
A8
  5
150
331
E7
  5
111
331
126
  5
D2
331
B0
  5
148
331
EF
  5
109
331
165
  5
92
331
12E
  5
CA
331
79
  5
17C
331
B8
  5
140
331
16D
  5
8A
331
F7
  5
101
331
C0
  5
138
331
81
  5
176
331
136
  5
C2
331
175
  5
82
331
13E
  5
BA
331
C8
  5
130
331
89
  5
16E
331
FF
  5
F9
331
17D
  5
75
331
146
  5
B2
331
D0
  5
128
331
91
  5
166
331
107
  5
F1
331
14E
  5
AA
331
10F
  5
E9
331
99
  5
15F
331
D8
  5
120
331
117
  5
E1
331
E0
  5
118
331
A1
  5
157
331
156
  5
A2
331
11F
  5
D9
331
E8
  5
110
331
A9
  5
14F
331
15E
  5
9A
331
166
  5
91
331
B1
  5
147
331
127
  5
D1
331
12F
  5
C9
331
B9
  5
13F
331
7A
  5
17B
331
F0
  5
108
331
137
  5
C1
331
C1
  5
137
331
82
  5
175
331
F8
  5
100
331
16E
  5
89
331
13F
  5
B9
331
100
  5
F8
331
8A
  5
16D
331
C9
  5
12F
331
176
  5
81
331
17E
  5
6E
331
108
  5
F0
331
D1
  5
127
331
92
  5
165
331
147
  5
B1
331
14F
  5
A9
331
D9
  5
11F
331
9A
  5
15E
331
110
  5
E8
331
157
  5
A1
331
E1
  5
117
331
A2
  5
156
331
118
  5
E0
331
15F
  5
99
331
120
  5
D8
331
AA
  5
14E
331
E9
  5
10F
331
128
  5
D0
331
B2
  5
146
331
167
  5
90
331
130
  5
C8
331
F1
  5
107
331
7B
  5
17A
331
BA
  5
13E
331
16F
  5
88
331
F9
  5
FF
331
C2
  5
136
331
83
  5
174
331
138
  5
C0
331
177
  5
80
331
140
  5
B8
331
CA
  5
12E
331
8B
  5
16C
331
101
  5
F7
331
148
  5
B0
331
D2
  5
126
331
93
  5
164
331
109
  5
EF
331
17F
  5
182
331
150
  5
A8
331
111
  5
E7
331
9B
  5
15D
331
DA
  5
11E
331
119
  5
DF
331
E2
  5
116
331
A3
  5
155
331
158
  5
A0
331
160
  5
98
331
EA
  5
10E
331
AB
  5
14D
331
121
  5
D7
331
B3
  5
145
331
129
  5
CF
331
168
  5
8F
331
131
  5
C7
331
BB
  5
13D
331
7C
  5
179
331
F2
  5
106
331
139
  5
BF
331
FA
  5
FE
331
84
  5
173
331
C3
  5
135
331
170
  5
87
331
141
  5
B7
331
102
  5
F6
331
8C
  5
16B
331
CB
  5
12D
331
178
  5
7D
331
10A
  5
EE
331
D3
  5
125
331
149
  5
AF
331
151
  5
A7
331
DB
  5
11D
331
9C
  5
15C
331
112
  5
E6
331
159
  5
9F
331
E3
  5
115
331
A4
  5
154
331
11A
  5
DE
331
161
  5
97
331
122
  5
D6
331
AC
  5
14C
331
EB
  5
10D
331
12A
  5
CE
331
B4
  5
144
331
169
  5
8E
331
F3
  5
105
331
7D
  5
178
331
BC
  5
13C
331
132
  5
C6
331
171
  5
86
331
FB
  5
FD
331
C4
  5
134
331
85
  5
172
331
13A
  5
BE
331
179
  5
7C
331
142
  5
B6
331
CC
  5
12C
331
8D
  5
16A
331
103
  5
F5
331
14A
  5
AE
331
10B
  5
ED
331
95
  5
163
331
D4
  5
124
331
152
  5
A6
331
113
  5
E5
331
9D
  5
15B
331
DC
  5
11C
331
11B
  5
DD
331
E4
  5
114
331
A5
  5
153
331
15A
  5
9E
331
162
  5
96
331
EC
  5
10C
331
AD
  5
14B
331
123
  5
D5
331
B5
  5
143
331
12B
  5
CD
331
16A
  5
8D
331
133
  5
C5
331
BD
  5
13B
331
F4
  5
104
331
13B
  5
BD
331
86
  5
171
331
C5
  5
133
331
172
  5
85
331
17A
  5
7B
331
104
  5
F4
331
8E
  5
169
331
CD
  5
12B
331
143
  5
B5
331
182
  5
17F
331
10C
  5
EC
331
D5
  5
123
331
96
  5
162
331
14B
  5
AD
331
153
  5
A5
331
DD
  5
11B
331
9E
  5
15A
331
114
  5
E4
331
15B
  5
9D
331
11C
  5
DC
331
A6
  5
152
331
E5
  5
113
331
163
  5
95
331
124
  5
D4
331
AE
  5
14A
331
ED
  5
10B
331
12C
  5
CC
331
B6
  5
142
331
75
  5
17D
  0
XRECORD
  5
1B2
102
{ACAD_REACTORS
330
1B1
102
}
330
1B1
100
AcDbXrecord
280
     1
 70
     1
  0
XRECORD
  5
1B4
102
{ACAD_REACTORS
330
1B1
102
}
330
1B1
100
AcDbXrecord
280
     1
340
24
  0
XRECORD
  5
1B5
102
{ACAD_REACTORS
330
1B1
102
}
330
1B1
100
AcDbXrecord
280
     1
340
24
  0
XRECORD
  5
1B3
102
{ACAD_REACTORS
330
1B1
102
}
330
1B1
100
AcDbXrecord
280
     1
340
24
  0
LAYOUT
  5
1A
102
{ACAD_XDICTIONARY
360
1B9
102
}
102
{ACAD_REACTORS
330
16
102
}
330
16
100
AcDbPlotSettings
  1

  2
\\le-server\HP LaserJet 2100
  4

  6

 40
0.0
 41
0.0
 42
0.0
 43
0.0
 44
0.0
 45
0.0
 46
0.0
 47
0.0
 48
0.0
 49
0.0
140
0.0
141
0.0
142
1.0
143
1.0
 70
   688
 72
     0
 73
     0
 74
     5
  7

 75
    16
147
1.0
148
0.0
149
0.0
100
AcDbLayout
  1
Layout1
 70
     1
 71
     1
 10
0.0
 20
0.0
 11
1189.0
 21
840.9999999999998
 12
0.0
 22
0.0
 32
0.0
 14
0.0
 24
0.0
 34
0.0
 15
1189.0
 25
840.9999999999998
 35
0.0
146
0.0
 13
0.0
 23
0.0
 33
0.0
 16
1.0
 26
0.0
 36
0.0
 17
0.0
 27
1.0
 37
0.0
 76
     0
330
17
  0
LAYOUT
  5
15
102
{ACAD_XDICTIONARY
360
1B7
102
}
102
{ACAD_REACTORS
330
16
102
}
330
16
100
AcDbPlotSettings
  1

  2
\\le-server\HP LaserJet 2100
  4

  6

 40
0.0
 41
0.0
 42
0.0
 43
0.0
 44
0.0
 45
0.0
 46
0.0
 47
0.0
 48
0.0
 49
0.0
140
0.0
141
0.0
142
1.0
143
1.0
 70
  1712
 72
     0
 73
     0
 74
     0
  7

 75
     0
147
1.0
148
0.0
149
0.0
100
AcDbLayout
  1
Model
 70
     1
 71
     0
 10
0.0
 20
0.0
 11
12.0
 21
9.0
 12
0.0
 22
0.0
 32
0.0
 14
0.0
 24
0.0
 34
0.0
 15
0.0
 25
0.0
 35
0.0
146
0.0
 13
0.0
 23
0.0
 33
0.0
 16
1.0
 26
0.0
 36
0.0
 17
0.0
 27
1.0
 37
0.0
 76
     0
330
2
331
29
  0
MATERIAL
  5
3C
102
{ACAD_XDICTIONARY
360
3D
102
}
102
{ACAD_REACTORS
330
B
102
}
330
B
100
AcDbMaterial
  1
ByBlock
 72
     0
 43
0.0208333333333333
 43
0.0
 43
0.0
 43
0.0
 43
0.0
 43
0.0208333333333333
 43
0.0
 43
0.0
 43
0.0
 43
0.0
 43
1.0
 43
0.0
 43
0.0
 43
0.0
 43
0.0
 43
1.0
 77
     0
 47
0.0208333333333333
 47
0.0
 47
0.0
 47
0.0
 47
0.0
 47
0.0208333333333333
 47
0.0
 47
0.0
 47
0.0
 47
0.0
 47
1.0
 47
0.0
 47
0.0
 47
0.0
 47
0.0
 47
1.0
171
     0
 49
0.0208333333333333
 49
0.0
 49
0.0
 49
0.0
 49
0.0
 49
0.0208333333333333
 49
0.0
 49
0.0
 49
0.0
 49
0.0
 49
1.0
 49
0.0
 49
0.0
 49
0.0
 49
0.0
 49
1.0
175
     0
142
0.0208333333333333
142
0.0
142
0.0
142
0.0
142
0.0
142
0.0208333333333333
142
0.0
142
0.0
142
0.0
142
0.0
142
1.0
142
0.0
142
0.0
142
0.0
142
0.0
142
1.0
179
     0
144
0.0208333333333333
144
0.0
144
0.0
144
0.0
144
0.0
144
0.0208333333333333
144
0.0
144
0.0
144
0.0
144
0.0
144
1.0
144
0.0
144
0.0
144
0.0
144
0.0
144
1.0
147
0.0208333333333333
147
0.0
147
0.0
147
0.0
147
0.0
147
0.0208333333333333
147
0.0
147
0.0
147
0.0
147
0.0
147
1.0
147
0.0
147
0.0
147
0.0
147
0.0
147
1.0
  0
MATERIAL
  5
34
102
{ACAD_XDICTIONARY
360
35
102
}
102
{ACAD_REACTORS
330
B
102
}
330
B
100
AcDbMaterial
  1
ByLayer
 72
     0
 43
0.0208333333333333
 43
0.0
 43
0.0
 43
0.0
 43
0.0
 43
0.0208333333333333
 43
0.0
 43
0.0
 43
0.0
 43
0.0
 43
1.0
 43
0.0
 43
0.0
 43
0.0
 43
0.0
 43
1.0
 77
     0
 47
0.0208333333333333
 47
0.0
 47
0.0
 47
0.0
 47
0.0
 47
0.0208333333333333
 47
0.0
 47
0.0
 47
0.0
 47
0.0
 47
1.0
 47
0.0
 47
0.0
 47
0.0
 47
0.0
 47
1.0
171
     0
 49
0.0208333333333333
 49
0.0
 49
0.0
 49
0.0
 49
0.0
 49
0.0208333333333333
 49
0.0
 49
0.0
 49
0.0
 49
0.0
 49
1.0
 49
0.0
 49
0.0
 49
0.0
 49
0.0
 49
1.0
175
     0
142
0.0208333333333333
142
0.0
142
0.0
142
0.0
142
0.0
142
0.0208333333333333
142
0.0
142
0.0
142
0.0
142
0.0
142
1.0
142
0.0
142
0.0
142
0.0
142
0.0
142
1.0
179
     0
144
0.0208333333333333
144
0.0
144
0.0
144
0.0
144
0.0
144
0.0208333333333333
144
0.0
144
0.0
144
0.0
144
0.0
144
1.0
144
0.0
144
0.0
144
0.0
144
0.0
144
1.0
147
0.0208333333333333
147
0.0
147
0.0
147
0.0
147
0.0
147
0.0208333333333333
147
0.0
147
0.0
147
0.0
147
0.0
147
1.0
147
0.0
147
0.0
147
0.0
147
0.0
147
1.0
  0
MATERIAL
  5
A
102
{ACAD_XDICTIONARY
360
C
102
}
102
{ACAD_REACTORS
330
B
102
}
330
B
100
AcDbMaterial
  1
Global
 72
     0
 43
0.0208333333333333
 43
0.0
 43
0.0
 43
0.0
 43
0.0
 43
0.0208333333333333
 43
0.0
 43
0.0
 43
0.0
 43
0.0
 43
1.0
 43
0.0
 43
0.0
 43
0.0
 43
0.0
 43
1.0
 77
     0
 47
0.0208333333333333
 47
0.0
 47
0.0
 47
0.0
 47
0.0
 47
0.0208333333333333
 47
0.0
 47
0.0
 47
0.0
 47
0.0
 47
1.0
 47
0.0
 47
0.0
 47
0.0
 47
0.0
 47
1.0
171
     0
 49
0.0208333333333333
 49
0.0
 49
0.0
 49
0.0
 49
0.0
 49
0.0208333333333333
 49
0.0
 49
0.0
 49
0.0
 49
0.0
 49
1.0
 49
0.0
 49
0.0
 49
0.0
 49
0.0
 49
1.0
175
     0
142
0.0208333333333333
142
0.0
142
0.0
142
0.0
142
0.0
142
0.0208333333333333
142
0.0
142
0.0
142
0.0
142
0.0
142
1.0
142
0.0
142
0.0
142
0.0
142
0.0
142
1.0
179
     0
144
0.0208333333333333
144
0.0
144
0.0
144
0.0
144
0.0
144
0.0208333333333333
144
0.0
144
0.0
144
0.0
144
0.0
144
1.0
144
0.0
144
0.0
144
0.0
144
0.0
144
1.0
147
0.0208333333333333
147
0.0
147
0.0
147
0.0
147
0.0
147
0.0208333333333333
147
0.0
147
0.0
147
0.0
147
0.0
147
1.0
147
0.0
147
0.0
147
0.0
147
0.0
147
1.0
  0
MLEADERSTYLE
  5
1A4
102
{ACAD_REACTORS
330
47
102
}
330
47
100
AcDbMLeaderStyle
170
     2
171
     1
172
     0
 90
        2
 40
0.0
 41
0.0
173
     1
 91
-1056964608
340
24
 92
       -2
290
     1
 42
2.0
291
     1
 43
0.36
  3
Standard
 44
4.0
300

342
21
174
     1
178
     6
175
     1
176
     0
 93
-1056964608
 45
4.0
292
     0
297
     0
 46
4.0
 94
-1056964608
 47
1.0
 49
1.0
140
1.0
293
     1
141
0.0
294
     1
177
     0
142
1.0
295
     0
296
     0
143
0.125
1001
ACAD_MLEADERVER
1070
     2
  0
MLINESTYLE
  5
48
102
{ACAD_REACTORS
330
32
102
}
330
32
100
AcDbMlineStyle
  2
STANDARD
 70
     0
  3

 62
   256
 51
90.0
 52
90.0
 71
     2
 49
0.5
 62
   256
  6
BYLAYER
 49
-0.5
 62
   256
  6
BYLAYER
  0
ACDBPLACEHOLDER
  5
7
102
{ACAD_REACTORS
330
8
102
}
330
8
  0
SCALE
  5
4D
102
{ACAD_REACTORS
330
45
102
}
330
45
100
AcDbScale
 70
     0
300
1:1
140
1.0
141
1.0
290
     1
  0
SCALE
  5
4E
102
{ACAD_REACTORS
330
45
102
}
330
45
100
AcDbScale
 70
     0
300
1:2
140
1.0
141
2.0
290
     0
  0
SCALE
  5
4F
102
{ACAD_REACTORS
330
45
102
}
330
45
100
AcDbScale
 70
     0
300
1:4
140
1.0
141
4.0
290
     0
  0
SCALE
  5
50
102
{ACAD_REACTORS
330
45
102
}
330
45
100
AcDbScale
 70
     0
300
1:5
140
1.0
141
5.0
290
     0
  0
SCALE
  5
51
102
{ACAD_REACTORS
330
45
102
}
330
45
100
AcDbScale
 70
     0
300
1:8
140
1.0
141
8.0
290
     0
  0
SCALE
  5
52
102
{ACAD_REACTORS
330
45
102
}
330
45
100
AcDbScale
 70
     0
300
1:10
140
1.0
141
10.0
290
     0
  0
SCALE
  5
53
102
{ACAD_REACTORS
330
45
102
}
330
45
100
AcDbScale
 70
     0
300
1:16
140
1.0
141
16.0
290
     0
  0
SCALE
  5
54
102
{ACAD_REACTORS
330
45
102
}
330
45
100
AcDbScale
 70
     0
300
1:20
140
1.0
141
20.0
290
     0
  0
SCALE
  5
55
102
{ACAD_REACTORS
330
45
102
}
330
45
100
AcDbScale
 70
     0
300
1:30
140
1.0
141
30.0
290
     0
  0
SCALE
  5
56
102
{ACAD_REACTORS
330
45
102
}
330
45
100
AcDbScale
 70
     0
300
1:40
140
1.0
141
40.0
290
     0
  0
SCALE
  5
57
102
{ACAD_REACTORS
330
45
102
}
330
45
100
AcDbScale
 70
     0
300
1:50
140
1.0
141
50.0
290
     0
  0
SCALE
  5
58
102
{ACAD_REACTORS
330
45
102
}
330
45
100
AcDbScale
 70
     0
300
1:100
140
1.0
141
100.0
290
     0
  0
SCALE
  5
59
102
{ACAD_REACTORS
330
45
102
}
330
45
100
AcDbScale
 70
     0
300
2:1
140
2.0
141
1.0
290
     0
  0
SCALE
  5
5A
102
{ACAD_REACTORS
330
45
102
}
330
45
100
AcDbScale
 70
     0
300
4:1
140
4.0
141
1.0
290
     0
  0
SCALE
  5
5B
102
{ACAD_REACTORS
330
45
102
}
330
45
100
AcDbScale
 70
     0
300
8:1
140
8.0
141
1.0
290
     0
  0
SCALE
  5
5C
102
{ACAD_REACTORS
330
45
102
}
330
45
100
AcDbScale
 70
     0
300
10:1
140
10.0
141
1.0
290
     0
  0
SCALE
  5
5D
102
{ACAD_REACTORS
330
45
102
}
330
45
100
AcDbScale
 70
     0
300
100:1
140
100.0
141
1.0
290
     0
  0
SCALE
  5
5E
102
{ACAD_REACTORS
330
45
102
}
330
45
100
AcDbScale
 70
     0
300
1/128" = 1'-0"
140
0.0078125
141
12.0
290
     0
  0
SCALE
  5
5F
102
{ACAD_REACTORS
330
45
102
}
330
45
100
AcDbScale
 70
     0
300
1/64" = 1'-0"
140
0.015625
141
12.0
290
     0
  0
SCALE
  5
60
102
{ACAD_REACTORS
330
45
102
}
330
45
100
AcDbScale
 70
     0
300
1/32" = 1'-0"
140
0.03125
141
12.0
290
     0
  0
SCALE
  5
61
102
{ACAD_REACTORS
330
45
102
}
330
45
100
AcDbScale
 70
     0
300
1/16" = 1'-0"
140
0.0625
141
12.0
290
     0
  0
SCALE
  5
62
102
{ACAD_REACTORS
330
45
102
}
330
45
100
AcDbScale
 70
     0
300
3/32" = 1'-0"
140
0.09375
141
12.0
290
     0
  0
SCALE
  5
63
102
{ACAD_REACTORS
330
45
102
}
330
45
100
AcDbScale
 70
     0
300
1/8" = 1'-0"
140
0.125
141
12.0
290
     0
  0
SCALE
  5
64
102
{ACAD_REACTORS
330
45
102
}
330
45
100
AcDbScale
 70
     0
300
3/16" = 1'-0"
140
0.1875
141
12.0
290
     0
  0
SCALE
  5
65
102
{ACAD_REACTORS
330
45
102
}
330
45
100
AcDbScale
 70
     0
300
1/4" = 1'-0"
140
0.25
141
12.0
290
     0
  0
SCALE
  5
66
102
{ACAD_REACTORS
330
45
102
}
330
45
100
AcDbScale
 70
     0
300
3/8" = 1'-0"
140
0.375
141
12.0
290
     0
  0
SCALE
  5
67
102
{ACAD_REACTORS
330
45
102
}
330
45
100
AcDbScale
 70
     0
300
1/2" = 1'-0"
140
0.5
141
12.0
290
     0
  0
SCALE
  5
68
102
{ACAD_REACTORS
330
45
102
}
330
45
100
AcDbScale
 70
     0
300
3/4" = 1'-0"
140
0.75
141
12.0
290
     0
  0
SCALE
  5
69
102
{ACAD_REACTORS
330
45
102
}
330
45
100
AcDbScale
 70
     0
300
1" = 1'-0"
140
1.0
141
12.0
290
     0
  0
SCALE
  5
6A
102
{ACAD_REACTORS
330
45
102
}
330
45
100
AcDbScale
 70
     0
300
1-1/2" = 1'-0"
140
1.5
141
12.0
290
     0
  0
SCALE
  5
6B
102
{ACAD_REACTORS
330
45
102
}
330
45
100
AcDbScale
 70
     0
300
3" = 1'-0"
140
3.0
141
12.0
290
     0
  0
SCALE
  5
6C
102
{ACAD_REACTORS
330
45
102
}
330
45
100
AcDbScale
 70
     0
300
6" = 1'-0"
140
6.0
141
12.0
290
     0
  0
SCALE
  5
6D
102
{ACAD_REACTORS
330
45
102
}
330
45
100
AcDbScale
 70
     0
300
1'-0" = 1'-0"
140
12.0
141
12.0
290
     0
  0
TABLESTYLE
  5
49
102
{ACAD_XDICTIONARY
360
4A
102
}
102
{ACAD_REACTORS
330
46
102
}
330
46
100
AcDbTableStyle
  3
Standard
 70
     0
 71
     0
 40
0.06
 41
0.06
280
     0
281
     0
  7
STANDARD
140
0.18
170
     2
 62
     0
 63
     7
283
     0
274
    -2
284
     1
 64
     0
275
    -2
285
     1
 65
     0
276
    -2
286
     1
 66
     0
277
    -2
287
     1
 67
     0
278
    -2
288
     1
 68
     0
279
    -2
289
     1
 69
     0
  7
STANDARD
140
0.25
170
     5
 62
     0
 63
     7
283
     0
274
    -2
284
     1
 64
     0
275
    -2
285
     1
 65
     0
276
    -2
286
     1
 66
     0
277
    -2
287
     1
 67
     0
278
    -2
288
     1
 68
     0
279
    -2
289
     1
 69
     0
  7
STANDARD
140
0.18
170
     5
 62
     0
 63
     7
283
     0
274
    -2
284
     1
 64
     0
275
    -2
285
     1
 65
     0
276
    -2
286
     1
 66
     0
277
    -2
287
     1
 67
     0
278
    -2
288
     1
 68
     0
279
    -2
289
     1
 69
     0
  0
VISUALSTYLE
  5
2A
102
{ACAD_XDICTIONARY
360
1BB
102
}
102
{ACAD_REACTORS
330
2B
102
}
330
2B
100
AcDbVisualStyle
  2
2dWireframe
 70
     4
 71
     0
 72
     2
 73
     0
 90
        0
 40
-0.6
 41
-30.0
 62
     5
 63
     7
 74
     1
 91
        4
 64
     7
 65
   257
 75
     1
175
     1
 42
1.0
 92
        0
 66
   257
 43
1.0
 76
     1
 77
     6
 78
     2
 67
     7
 79
     5
170
     0
171
     0
290
     0
174
     0
 93
        1
 44
0.0
173
     0
291
     0
 45
0.0
1001
ACAD
1000
AcDbSavedByObjectVersion
1070
     0
  0
VISUALSTYLE
  5
193
102
{ACAD_XDICTIONARY
360
1CC
102
}
102
{ACAD_REACTORS
330
2B
102
}
330
2B
100
AcDbVisualStyle
  2
Basic
 70
     7
 71
     1
 72
     0
 73
     1
 90
        0
 40
-0.6
 41
-30.0
 62
     5
 63
     7
 74
     0
 91
        4
 64
     7
 65
   257
 75
     1
175
     1
 42
1.0
 92
        8
 66
     7
 43
1.0
 76
     1
 77
     6
 78
     2
 67
     7
 79
     5
170
     0
171
     0
290
     0
174
     0
 93
        1
 44
0.0
173
     0
291
     1
 45
0.0
1001
ACAD
1000
AcDbSavedByObjectVersion
1070
     0
  0
VISUALSTYLE
  5
197
102
{ACAD_XDICTIONARY
360
1D4
102
}
102
{ACAD_REACTORS
330
2B
102
}
330
2B
100
AcDbVisualStyle
  2
Brighten
 70
    12
 71
     2
 72
     2
 73
     0
 90
        0
 40
-0.6
 41
-30.0
 62
     5
 63
     7
 74
     1
 91
        4
 64
     7
 65
   257
 75
     1
175
     1
 42
1.0
 92
        8
 66
     7
 43
1.0
 76
     1
 77
     6
 78
     2
 67
     7
 79
     5
170
     0
171
     0
290
     0
174
     0
 93
        1
 44
50.0
173
     0
291
     1
 45
0.0
1001
ACAD
1000
AcDbSavedByObjectVersion
1070
     0
  0
VISUALSTYLE
  5
19B
102
{ACAD_XDICTIONARY
360
1DC
102
}
102
{ACAD_REACTORS
330
2B
102
}
330
2B
100
AcDbVisualStyle
  2
ColorChange
 70
    16
 71
     2
 72
     2
 73
     3
 90
        0
 40
-0.6
 41
-30.0
 62
     5
 63
     8
 74
     1
 91
        4
 64
     7
 65
   257
 75
     1
175
     1
 42
1.0
 92
        8
 66
     8
 43
1.0
 76
     1
 77
     6
 78
     2
 67
     7
 79
     5
170
     0
171
     0
290
     0
174
     0
 93
        1
 44
0.0
173
     0
291
     1
 45
0.0
1001
ACAD
1000
AcDbSavedByObjectVersion
1070
     0
  0
VISUALSTYLE
  5
195
102
{ACAD_XDICTIONARY
360
1D0
102
}
102
{ACAD_REACTORS
330
2B
102
}
330
2B
100
AcDbVisualStyle
  2
Conceptual
 70
     9
 71
     3
 72
     2
 73
     0
 90
        0
 40
-0.6
 41
-30.0
 62
     5
 63
     7
 74
     2
 91
        2
 64
     7
 65
   257
 75
     1
175
     1
 42
179.0
 92
        8
 66
     7
 43
1.0
 76
     1
 77
     6
 78
     2
 67
     7
 79
     3
170
     0
171
     0
290
     0
174
     0
 93
        1
 44
0.0
173
     0
291
     0
 45
0.0
1001
ACAD
1000
AcDbSavedByObjectVersion
1070
     0
  0
VISUALSTYLE
  5
196
102
{ACAD_XDICTIONARY
360
1D2
102
}
102
{ACAD_REACTORS
330
2B
102
}
330
2B
100
AcDbVisualStyle
  2
Dim
 70
    11
 71
     2
 72
     2
 73
     0
 90
        0
 40
-0.6
 41
-30.0
 62
     5
 63
     7
 74
     1
 91
        4
 64
     7
 65
   257
 75
     1
175
     1
 42
1.0
 92
        8
 66
     7
 43
1.0
 76
     1
 77
     6
 78
     2
 67
     7
 79
     5
170
     0
171
     0
290
     0
174
     0
 93
        1
 44
-50.0
173
     0
291
     1
 45
0.0
1001
ACAD
1000
AcDbSavedByObjectVersion
1070
     0
  0
VISUALSTYLE
  5
1A3
102
{ACAD_XDICTIONARY
360
1EC
102
}
102
{ACAD_REACTORS
330
2B
102
}
330
2B
100
AcDbVisualStyle
  2
EdgeColorOff
 70
    22
 71
     2
 72
     2
 73
     0
 90
        0
 40
-0.6
 41
-30.0
 62
     5
 63
     7
 74
     1
 91
        4
 64
     7
 65
   257
 75
     1
175
     1
 42
1.0
 92
        8
 66
     7
 43
1.0
 76
     1
 77
     6
 78
     2
 67
     7
 79
     5
170
     0
171
     0
290
     0
174
     0
 93
        1
 44
0.0
173
     0
291
     1
 45
0.0
1001
ACAD
1000
AcDbSavedByObjectVersion
1070
     0
  0
VISUALSTYLE
  5
19A
102
{ACAD_XDICTIONARY
360
1DA
102
}
102
{ACAD_REACTORS
330
2B
102
}
330
2B
100
AcDbVisualStyle
  2
Facepattern
 70
    15
 71
     2
 72
     2
 73
     0
 90
        0
 40
-0.6
 41
-30.0
 62
     5
 63
     7
 74
     1
 91
        4
 64
     7
 65
   257
 75
     1
175
     1
 42
1.0
 92
        8
 66
     7
 43
1.0
 76
     1
 77
     6
 78
     2
 67
     7
 79
     5
170
     0
171
     0
290
     0
174
     0
 93
        1
 44
0.0
173
     0
291
     1
 45
0.0
1001
ACAD
1000
AcDbSavedByObjectVersion
1070
     0
  0
VISUALSTYLE
  5
18F
102
{ACAD_XDICTIONARY
360
1C4
102
}
102
{ACAD_REACTORS
330
2B
102
}
330
2B
100
AcDbVisualStyle
  2
Flat
 70
     0
 71
     2
 72
     1
 73
     1
 90
        2
 40
-0.6
 41
30.0
 62
     5
 63
     7
 74
     0
 91
        0
 64
     7
 65
   257
 75
     1
175
     1
 42
1.0
 92
        8
 66
     7
 43
1.0
 76
     1
 77
     6
 78
     2
 67
     7
 79
     5
170
     0
171
     0
290
     0
174
     0
 93
       13
 44
0.0
173
     0
291
     1
 45
0.0
1001
ACAD
1000
AcDbSavedByObjectVersion
1070
     0
  0
VISUALSTYLE
  5
190
102
{ACAD_XDICTIONARY
360
1C6
102
}
102
{ACAD_REACTORS
330
2B
102
}
330
2B
100
AcDbVisualStyle
  2
FlatWithEdges
 70
     1
 71
     2
 72
     1
 73
     1
 90
        2
 40
-0.6
 41
30.0
 62
     5
 63
     7
 74
     1
 91
        0
 64
     7
 65
   257
 75
     1
175
     1
 42
1.0
 92
        0
 66
   257
 43
1.0
 76
     1
 77
     6
 78
     2
 67
     7
 79
     5
170
     0
171
     0
290
     0
174
     0
 93
       13
 44
0.0
173
     0
291
     1
 45
0.0
1001
ACAD
1000
AcDbSavedByObjectVersion
1070
     0
  0
VISUALSTYLE
  5
191
102
{ACAD_XDICTIONARY
360
1C8
102
}
102
{ACAD_REACTORS
330
2B
102
}
330
2B
100
AcDbVisualStyle
  2
Gouraud
 70
     2
 71
     2
 72
     2
 73
     1
 90
        2
 40
-0.6
 41
30.0
 62
     5
 63
     7
 74
     0
 91
        0
 64
     7
 65
   257
 75
     1
175
     1
 42
1.0
 92
        0
 66
     7
 43
1.0
 76
     1
 77
     6
 78
     2
 67
     7
 79
     5
170
     0
171
     0
290
     0
174
     0
 93
       13
 44
0.0
173
     0
291
     1
 45
0.0
1001
ACAD
1000
AcDbSavedByObjectVersion
1070
     0
  0
VISUALSTYLE
  5
192
102
{ACAD_XDICTIONARY
360
1CA
102
}
102
{ACAD_REACTORS
330
2B
102
}
330
2B
100
AcDbVisualStyle
  2
GouraudWithEdges
 70
     3
 71
     2
 72
     2
 73
     1
 90
        2
 40
-0.6
 41
30.0
 62
     5
 63
     7
 74
     1
 91
        0
 64
     7
 65
   257
 75
     1
175
     1
 42
1.0
 92
        0
 66
   257
 43
1.0
 76
     1
 77
     6
 78
     2
 67
     7
 79
     5
170
     0
171
     0
290
     0
174
     0
 93
       13
 44
0.0
173
     0
291
     1
 45
0.0
1001
ACAD
1000
AcDbSavedByObjectVersion
1070
     0
  0
VISUALSTYLE
  5
194
102
{ACAD_XDICTIONARY
360
1CE
102
}
102
{ACAD_REACTORS
330
2B
102
}
330
2B
100
AcDbVisualStyle
  2
Hidden
 70
     6
 71
     1
 72
     2
 73
     2
 90
        0
 40
-0.6
 41
-30.0
 62
     5
 63
     7
 74
     2
 91
        2
 64
     7
 65
   257
 75
     2
175
     1
 42
40.0
 92
        0
 66
   257
 43
1.0
 76
     1
 77
     6
 78
     2
 67
     7
 79
     3
170
     0
171
     0
290
     0
174
     0
 93
        1
 44
0.0
173
     0
291
     0
 45
0.0
1001
ACAD
1000
AcDbSavedByObjectVersion
1070
     0
  0
VISUALSTYLE
  5
1A1
102
{ACAD_XDICTIONARY
360
1E8
102
}
102
{ACAD_REACTORS
330
2B
102
}
330
2B
100
AcDbVisualStyle
  2
JitterOff
 70
    20
 71
     2
 72
     2
 73
     0
 90
        0
 40
-0.6
 41
-30.0
 62
     5
 63
     7
 74
     1
 91
        4
 64
     7
 65
   257
 75
     1
175
     1
 42
1.0
 92
       10
 66
     7
 43
1.0
 76
     1
 77
     6
 78
     2
 67
     7
 79
     5
170
     0
171
     0
290
     0
174
     0
 93
        1
 44
0.0
173
     0
291
     1
 45
0.0
1001
ACAD
1000
AcDbSavedByObjectVersion
1070
     0
  0
VISUALSTYLE
  5
199
102
{ACAD_XDICTIONARY
360
1D8
102
}
102
{ACAD_REACTORS
330
2B
102
}
330
2B
100
AcDbVisualStyle
  2
Linepattern
 70
    14
 71
     2
 72
     2
 73
     0
 90
        0
 40
-0.6
 41
-30.0
 62
     5
 63
     7
 74
     1
 91
        4
 64
     7
 65
   257
 75
     7
175
     7
 42
1.0
 92
        8
 66
     7
 43
1.0
 76
     1
 77
     6
 78
     2
 67
     7
 79
     5
170
     0
171
     0
290
     0
174
     0
 93
        1
 44
0.0
173
     0
291
     1
 45
0.0
1001
ACAD
1000
AcDbSavedByObjectVersion
1070
     0
  0
VISUALSTYLE
  5
1A2
102
{ACAD_XDICTIONARY
360
1EA
102
}
102
{ACAD_REACTORS
330
2B
102
}
330
2B
100
AcDbVisualStyle
  2
OverhangOff
 70
    21
 71
     2
 72
     2
 73
     0
 90
        0
 40
-0.6
 41
-30.0
 62
     5
 63
     7
 74
     1
 91
        4
 64
     7
 65
   257
 75
     1
175
     1
 42
1.0
 92
        9
 66
     7
 43
1.0
 76
     1
 77
     6
 78
     2
 67
     7
 79
     5
170
     0
171
     0
290
     0
174
     0
 93
        1
 44
0.0
173
     0
291
     1
 45
0.0
1001
ACAD
1000
AcDbSavedByObjectVersion
1070
     0
  0
VISUALSTYLE
  5
4B
102
{ACAD_XDICTIONARY
360
1C0
102
}
102
{ACAD_REACTORS
330
2B
102
}
330
2B
100
AcDbVisualStyle
  2
Realistic
 70
     8
 71
     2
 72
     2
 73
     0
 90
        0
 40
-0.6
 41
-30.0
 62
     5
 63
     7
 74
     1
 91
        0
 64
     7
 65
   257
 75
     1
175
     1
 42
1.0
 92
        8
 66
     8
 43
1.0
 76
     1
 77
     6
 78
     2
 67
     7
 79
     5
170
     0
171
     0
290
     0
174
     0
 93
       13
 44
0.0
173
     0
291
     0
 45
0.0
1001
ACAD
1000
AcDbSavedByObjectVersion
1070
     0
  0
VISUALSTYLE
  5
1A0
102
{ACAD_XDICTIONARY
360
1E6
102
}
102
{ACAD_REACTORS
330
2B
102
}
330
2B
100
AcDbVisualStyle
  2
Shaded
 70
    27
 71
     2
 72
     2
 73
     1
 90
        2
 40
-0.6
 41
30.0
 62
     5
 63
     7
 74
     0
 91
        4
 64
     7
 65
   257
 75
     1
175
     1
 42
1.0
 92
        8
 66
   257
 43
1.0
 76
     1
 77
     6
 78
     2
 67
     8
 79
     3
170
     0
171
     0
290
     0
174
     0
 93
        5
 44
0.0
173
     0
291
     0
 45
0.0
1001
ACAD
1000
AcDbSavedByObjectVersion
1070
     0
  0
VISUALSTYLE
  5
19F
102
{ACAD_XDICTIONARY
360
1E4
102
}
102
{ACAD_REACTORS
330
2B
102
}
330
2B
100
AcDbVisualStyle
  2
Shaded with edges
 70
    26
 71
     2
 72
     2
 73
     1
 90
        2
 40
-0.6
 41
30.0
 62
     5
 63
     7
 74
     1
 91
       10
 64
     7
 65
   257
 75
     2
175
     1
 42
1.0
 92
        8
 66
   257
 43
1.0
 76
     1
 77
     6
 78
     2
 67
     7
 79
     3
170
     0
171
     0
290
     0
174
     0
 93
        5
 44
0.0
173
     0
291
     0
 45
0.0
1001
ACAD
1000
AcDbSavedByObjectVersion
1070
     0
  0
VISUALSTYLE
  5
19C
102
{ACAD_XDICTIONARY
360
1DE
102
}
102
{ACAD_REACTORS
330
2B
102
}
330
2B
100
AcDbVisualStyle
  2
Shades of Gray
 70
    23
 71
     2
 72
     2
 73
     3
 90
        0
 40
-0.6
 41
-30.0
 62
     5
 63
     7
 74
     2
 91
        2
 64
     7
 65
     7
 75
     1
175
     1
 42
40.0
 92
        8
 66
     7
 43
1.0
 76
     1
 77
     6
 78
     2
 67
     7
 79
     3
170
     0
171
     0
290
     0
174
     0
 93
        1
 44
0.0
173
     0
291
     0
 45
0.0
1001
ACAD
1000
AcDbSavedByObjectVersion
1070
     0
  0
VISUALSTYLE
  5
19D
102
{ACAD_XDICTIONARY
360
1E0
102
}
102
{ACAD_REACTORS
330
2B
102
}
330
2B
100
AcDbVisualStyle
  2
Sketchy
 70
    24
 71
     1
 72
     2
 73
     2
 90
        0
 40
-0.6
 41
-30.0
 62
     5
 63
     7
 74
     2
 91
        2
 64
     7
 65
     7
 75
     1
175
     1
 42
40.0
 92
       11
 66
     7
 43
1.0
 76
     1
 77
     6
 78
     2
 67
     7
 79
     6
170
     0
171
     0
290
     0
174
     0
 93
        1
 44
0.0
173
     0
291
     0
 45
0.0
1001
ACAD
1000
AcDbSavedByObjectVersion
1070
     0
  0
VISUALSTYLE
  5
198
102
{ACAD_XDICTIONARY
360
1D6
102
}
102
{ACAD_REACTORS
330
2B
102
}
330
2B
100
AcDbVisualStyle
  2
Thicken
 70
    13
 71
     2
 72
     2
 73
     0
 90
        0
 40
-0.6
 41
-30.0
 62
     5
 63
     7
 74
     1
 91
        4
 64
     7
 65
   257
 75
     1
175
     1
 42
1.0
 92
       12
 66
     7
 43
1.0
 76
     1
 77
     6
 78
     2
 67
     7
 79
     5
170
     0
171
     0
290
     0
174
     0
 93
        1
 44
0.0
173
     0
291
     1
 45
0.0
1001
ACAD
1000
AcDbSavedByObjectVersion
1070
     0
  0
VISUALSTYLE
  5
4C
102
{ACAD_XDICTIONARY
360
1C2
102
}
102
{ACAD_REACTORS
330
2B
102
}
330
2B
100
AcDbVisualStyle
  2
Wireframe
 70
     5
 71
     0
 72
     2
 73
     0
 90
        0
 40
-0.6
 41
-30.0
 62
     5
 63
     7
 74
     1
 91
        4
 64
     7
 65
   257
 75
     1
175
     1
 42
1.0
 92
        0
 66
   257
 43
1.0
 76
     1
 77
     6
 78
     2
 67
     7
 79
     3
170
     0
171
     0
290
     0
174
     0
 93
        1
 44
0.0
173
     0
291
     0
 45
0.0
1001
ACAD
1000
AcDbSavedByObjectVersion
1070
     0
  0
VISUALSTYLE
  5
19E
102
{ACAD_XDICTIONARY
360
1E2
102
}
102
{ACAD_REACTORS
330
2B
102
}
330
2B
100
AcDbVisualStyle
  2
X-Ray
 70
    25
 71
     2
 72
     2
 73
     1
 90
        1
 40
0.5
 41
-30.0
 62
     5
 63
     7
 74
     1
 91
        0
 64
     7
 65
   257
 75
     1
175
     1
 42
1.0
 92
        8
 66
     7
 43
1.0
 76
     1
 77
     6
 78
     2
 67
     7
 79
     3
170
     0
171
     0
290
     0
174
     0
 93
       13
 44
0.0
173
     0
291
     0
 45
0.0
1001
ACAD
1000
AcDbSavedByObjectVersion
1070
     0
  0
DICTIONARYVAR
  5
18A
102
{ACAD_REACTORS
330
186
102
}
330
186
100
DictionaryVariables
280
     0
  1
1:1
  0
DICTIONARYVAR
  5
188
102
{ACAD_REACTORS
330
186
102
}
330
186
100
DictionaryVariables
280
     0
  1
STANDARD
  0
DICTIONARYVAR
  5
187
102
{ACAD_REACTORS
330
186
102
}
330
186
100
DictionaryVariables
280
     0
  1
STANDARD
  0
DICTIONARYVAR
  5
1AD
102
{ACAD_REACTORS
330
186
102
}
330
186
100
DictionaryVariables
280
     0
  1
1
  0
DICTIONARYVAR
  5
1AC
102
{ACAD_REACTORS
330
186
102
}
330
186
100
DictionaryVariables
280
     0
  1
1
  0
DICTIONARYVAR
  5
1AB
102
{ACAD_REACTORS
330
186
102
}
330
186
100
DictionaryVariables
280
     0
  1
0
  0
DICTIONARYVAR
  5
18C
102
{ACAD_REACTORS
330
186
102
}
330
186
100
DictionaryVariables
280
     0
  1
1
  0
DICTIONARYVAR
  5
18D
102
{ACAD_REACTORS
330
186
102
}
330
186
100
DictionaryVariables
280
     0
  1
15
  0
DICTIONARYVAR
  5
18B
102
{ACAD_REACTORS
330
186
102
}
330
186
100
DictionaryVariables
280
     0
  1
0
  0
DICTIONARYVAR
  5
189
102
{ACAD_REACTORS
330
186
102
}
330
186
100
DictionaryVariables
280
     0
  1
0
  0
DICTIONARYVAR
  5
1AA
102
{ACAD_REACTORS
330
186
102
}
330
186
100
DictionaryVariables
280
     0
  1
127
  0
DICTIONARYVAR
  5
1AE
102
{ACAD_REACTORS
330
186
102
}
330
186
100
DictionaryVariables
280
     0
  1
2
  0
DICTIONARY
  5
1B9
330
1A
100
AcDbDictionary
280
     1
281
     1
  3
ACAD_XREC_ROUNDTRIP
360
1BA
  0
DICTIONARY
  5
1B7
330
15
100
AcDbDictionary
280
     1
281
     1
  3
ACAD_XREC_ROUNDTRIP
360
1B8
  0
DICTIONARY
  5
3D
330
3C
100
AcDbDictionary
280
     1
281
     1
  3
ACAD_XREC_ROUNDTRIP
360
1BE
  3
BUMPTILE
360
3E
  3
DIFFUSETILE
360
3F
  3
OPACITYTILE
360
40
  3
REFLECTIONTILE
360
41
  3
REFRACTIONTILE
360
42
  3
SPECULARTILE
360
43
  0
DICTIONARY
  5
35
330
34
100
AcDbDictionary
280
     1
281
     1
  3
ACAD_XREC_ROUNDTRIP
360
1BD
  3
BUMPTILE
360
36
  3
DIFFUSETILE
360
37
  3
OPACITYTILE
360
38
  3
REFLECTIONTILE
360
39
  3
REFRACTIONTILE
360
3A
  3
SPECULARTILE
360
3B
  0
DICTIONARY
  5
C
330
A
100
AcDbDictionary
280
     1
281
     1
  3
ACAD_XREC_ROUNDTRIP
360
1B6
  3
BUMPTILE
360
D
  3
DIFFUSETILE
360
E
  3
OPACITYTILE
360
F
  3
REFLECTIONTILE
360
10
  3
REFRACTIONTILE
360
11
  3
SPECULARTILE
360
12
  0
DICTIONARY
  5
4A
330
49
100
AcDbDictionary
280
     1
281
     1
  3
ACAD_ROUNDTRIP_2008_TABLESTYLE_CELLSTYLEMAP
360
1AF
  3
ACAD_XREC_ROUNDTRIP
360
1BF
  0
DICTIONARY
  5
1BB
330
2A
100
AcDbDictionary
280
     1
281
     1
  3
ACAD_XREC_ROUNDTRIP
360
1BC
  0
DICTIONARY
  5
1CC
330
193
100
AcDbDictionary
280
     1
281
     1
  3
ACAD_XREC_ROUNDTRIP
360
1CD
  0
DICTIONARY
  5
1D4
330
197
100
AcDbDictionary
280
     1
281
     1
  3
ACAD_XREC_ROUNDTRIP
360
1D5
  0
DICTIONARY
  5
1DC
330
19B
100
AcDbDictionary
280
     1
281
     1
  3
ACAD_XREC_ROUNDTRIP
360
1DD
  0
DICTIONARY
  5
1D0
330
195
100
AcDbDictionary
280
     1
281
     1
  3
ACAD_XREC_ROUNDTRIP
360
1D1
  0
DICTIONARY
  5
1D2
330
196
100
AcDbDictionary
280
     1
281
     1
  3
ACAD_XREC_ROUNDTRIP
360
1D3
  0
DICTIONARY
  5
1EC
330
1A3
100
AcDbDictionary
280
     1
281
     1
  3
ACAD_XREC_ROUNDTRIP
360
1ED
  0
DICTIONARY
  5
1DA
330
19A
100
AcDbDictionary
280
     1
281
     1
  3
ACAD_XREC_ROUNDTRIP
360
1DB
  0
DICTIONARY
  5
1C4
330
18F
100
AcDbDictionary
280
     1
281
     1
  3
ACAD_XREC_ROUNDTRIP
360
1C5
  0
DICTIONARY
  5
1C6
330
190
100
AcDbDictionary
280
     1
281
     1
  3
ACAD_XREC_ROUNDTRIP
360
1C7
  0
DICTIONARY
  5
1C8
330
191
100
AcDbDictionary
280
     1
281
     1
  3
ACAD_XREC_ROUNDTRIP
360
1C9
  0
DICTIONARY
  5
1CA
330
192
100
AcDbDictionary
280
     1
281
     1
  3
ACAD_XREC_ROUNDTRIP
360
1CB
  0
DICTIONARY
  5
1CE
330
194
100
AcDbDictionary
280
     1
281
     1
  3
ACAD_XREC_ROUNDTRIP
360
1CF
  0
DICTIONARY
  5
1E8
330
1A1
100
AcDbDictionary
280
     1
281
     1
  3
ACAD_XREC_ROUNDTRIP
360
1E9
  0
DICTIONARY
  5
1D8
330
199
100
AcDbDictionary
280
     1
281
     1
  3
ACAD_XREC_ROUNDTRIP
360
1D9
  0
DICTIONARY
  5
1EA
330
1A2
100
AcDbDictionary
280
     1
281
     1
  3
ACAD_XREC_ROUNDTRIP
360
1EB
  0
DICTIONARY
  5
1C0
330
4B
100
AcDbDictionary
280
     1
281
     1
  3
ACAD_XREC_ROUNDTRIP
360
1C1
  0
DICTIONARY
  5
1E6
330
1A0
100
AcDbDictionary
280
     1
281
     1
  3
ACAD_XREC_ROUNDTRIP
360
1E7
  0
DICTIONARY
  5
1E4
330
19F
100
AcDbDictionary
280
     1
281
     1
  3
ACAD_XREC_ROUNDTRIP
360
1E5
  0
DICTIONARY
  5
1DE
330
19C
100
AcDbDictionary
280
     1
281
     1
  3
ACAD_XREC_ROUNDTRIP
360
1DF
  0
DICTIONARY
  5
1E0
330
19D
100
AcDbDictionary
280
     1
281
     1
  3
ACAD_XREC_ROUNDTRIP
360
1E1
  0
DICTIONARY
  5
1D6
330
198
100
AcDbDictionary
280
     1
281
     1
  3
ACAD_XREC_ROUNDTRIP
360
1D7
  0
DICTIONARY
  5
1C2
330
4C
100
AcDbDictionary
280
     1
281
     1
  3
ACAD_XREC_ROUNDTRIP
360
1C3
  0
DICTIONARY
  5
1E2
330
19E
100
AcDbDictionary
280
     1
281
     1
  3
ACAD_XREC_ROUNDTRIP
360
1E3
  0
XRECORD
  5
1BA
102
{ACAD_REACTORS
330
1B9
102
}
330
1B9
100
AcDbXrecord
280
     1
102
SHADEPLOT
 70
     0
102
SHADEPLOTRESLEVEL
 70
     2
102
SHADEPLOTCUSTOMDPI
 70
   300
  0
XRECORD
  5
1B8
102
{ACAD_REACTORS
330
1B7
102
}
330
1B7
100
AcDbXrecord
280
     1
102
SHADEPLOT
 70
     0
102
SHADEPLOTRESLEVEL
 70
     2
102
SHADEPLOTCUSTOMDPI
 70
   300
  0
XRECORD
  5
1BE
102
{ACAD_REACTORS
330
3D
102
}
330
3D
100
AcDbXrecord
280
     1
102
MATERIAL
148
0.0
149
0.0
149
0.0
 93
        0
 94
      127
282
     0
 72
     0
 77
     0
171
     0
175
     0
179
     0
273
     0
  0
XRECORD
  5
3E
102
{ACAD_REACTORS
330
3D
102
}
330
3D
100
AcDbXrecord
280
     1
270
     1
271
     1
  0
XRECORD
  5
3F
102
{ACAD_REACTORS
330
3D
102
}
330
3D
100
AcDbXrecord
280
     1
270
     1
271
     1
  0
XRECORD
  5
40
102
{ACAD_REACTORS
330
3D
102
}
330
3D
100
AcDbXrecord
280
     1
270
     1
271
     1
  0
XRECORD
  5
41
102
{ACAD_REACTORS
330
3D
102
}
330
3D
100
AcDbXrecord
280
     1
270
     1
271
     1
  0
XRECORD
  5
42
102
{ACAD_REACTORS
330
3D
102
}
330
3D
100
AcDbXrecord
280
     1
270
     1
271
     1
  0
XRECORD
  5
43
102
{ACAD_REACTORS
330
3D
102
}
330
3D
100
AcDbXrecord
280
     1
270
     1
271
     1
  0
XRECORD
  5
1BD
102
{ACAD_REACTORS
330
35
102
}
330
35
100
AcDbXrecord
280
     1
102
MATERIAL
148
0.0
149
0.0
149
0.0
 93
        0
 94
      127
282
     0
 72
     0
 77
     0
171
     0
175
     0
179
     0
273
     0
  0
XRECORD
  5
36
102
{ACAD_REACTORS
330
35
102
}
330
35
100
AcDbXrecord
280
     1
270
     1
271
     1
  0
XRECORD
  5
37
102
{ACAD_REACTORS
330
35
102
}
330
35
100
AcDbXrecord
280
     1
270
     1
271
     1
  0
XRECORD
  5
38
102
{ACAD_REACTORS
330
35
102
}
330
35
100
AcDbXrecord
280
     1
270
     1
271
     1
  0
XRECORD
  5
39
102
{ACAD_REACTORS
330
35
102
}
330
35
100
AcDbXrecord
280
     1
270
     1
271
     1
  0
XRECORD
  5
3A
102
{ACAD_REACTORS
330
35
102
}
330
35
100
AcDbXrecord
280
     1
270
     1
271
     1
  0
XRECORD
  5
3B
102
{ACAD_REACTORS
330
35
102
}
330
35
100
AcDbXrecord
280
     1
270
     1
271
     1
  0
XRECORD
  5
1B6
102
{ACAD_REACTORS
330
C
102
}
330
C
100
AcDbXrecord
280
     1
102
MATERIAL
148
0.0
149
0.0
149
0.0
 93
        0
 94
      127
282
     0
 72
     0
 77
     0
171
     0
175
     0
179
     0
273
     0
  0
XRECORD
  5
D
102
{ACAD_REACTORS
330
C
102
}
330
C
100
AcDbXrecord
280
     1
270
     1
271
     1
  0
XRECORD
  5
E
102
{ACAD_REACTORS
330
C
102
}
330
C
100
AcDbXrecord
280
     1
270
     1
271
     1
  0
XRECORD
  5
F
102
{ACAD_REACTORS
330
C
102
}
330
C
100
AcDbXrecord
280
     1
270
     1
271
     1
  0
XRECORD
  5
10
102
{ACAD_REACTORS
330
C
102
}
330
C
100
AcDbXrecord
280
     1
270
     1
271
     1
  0
XRECORD
  5
11
102
{ACAD_REACTORS
330
C
102
}
330
C
100
AcDbXrecord
280
     1
270
     1
271
     1
  0
XRECORD
  5
12
102
{ACAD_REACTORS
330
C
102
}
330
C
100
AcDbXrecord
280
     1
270
     1
271
     1
  0
CELLSTYLEMAP
  5
1AF
102
{ACAD_REACTORS
330
4A
102
}
330
4A
100
AcDbCellStyleMap
 90
        3
300
CELLSTYLE
  1
TABLEFORMAT_BEGIN
 90
        5
170
     1
 91
        0
 92
    32768
 62
   257
 93
        1
300
CONTENTFORMAT
  1
CONTENTFORMAT_BEGIN
 90
        0
 91
        0
 92
      512
 93
        0
300

 40
0.0
140
1.0
 94
        5
 62
     0
340
21
144
0.25
309
CONTENTFORMAT_END
171
     0
 94
        0
309
TABLEFORMAT_END
  1
CELLSTYLE_BEGIN
 90
        1
 91
        1
300
_TITLE
309
CELLSTYLE_END
300
CELLSTYLE
  1
TABLEFORMAT_BEGIN
 90
        5
170
     1
 91
        0
 92
        0
 62
   257
 93
        1
300
CONTENTFORMAT
  1
CONTENTFORMAT_BEGIN
 90
        0
 91
        0
 92
      512
 93
        0
300

 40
0.0
140
1.0
 94
        5
 62
     0
340
21
144
0.18
309
CONTENTFORMAT_END
171
     0
 94
        0
309
TABLEFORMAT_END
  1
CELLSTYLE_BEGIN
 90
        2
 91
        1
300
_HEADER
309
CELLSTYLE_END
300
CELLSTYLE
  1
TABLEFORMAT_BEGIN
 90
        5
170
     1
 91
        0
 92
        0
 62
   257
 93
        1
300
CONTENTFORMAT
  1
CONTENTFORMAT_BEGIN
 90
        0
 91
        0
 92
      512
 93
        0
300

 40
0.0
140
1.0
 94
        2
 62
     0
340
21
144
0.18
309
CONTENTFORMAT_END
171
     0
 94
        0
309
TABLEFORMAT_END
  1
CELLSTYLE_BEGIN
 90
        3
 91
        2
300
_DATA
309
CELLSTYLE_END
  0
XRECORD
  5
1BF
102
{ACAD_REACTORS
330
4A
102
}
330
4A
100
AcDbXrecord
280
     1
102
ACAD_ROUNDTRIP_PRE2007_TABLESTYLE
 90
      512
 91
        0
  1

 92
      512
 93
        0
  2

 94
      512
 95
        0
  3

  0
XRECORD
  5
1BC
102
{ACAD_REACTORS
330
1BB
102
}
330
1BB
100
AcDbXrecord
280
     1
102
RTVSPropertyOp0
 70
     1
102
RTVSPropertyOp1
 70
     1
102
RTVSPropertyOp2
 70
     1
102
RTVSPropertyOp3
 70
     1
102
RTVSPropertyOp4
 70
     1
102
RTVSPropertyOp5
 70
     1
102
RTVSPropertyOp6
 70
     1
102
RTVSPropertyOp7
 70
     1
102
RTVSPropertyOp8
 70
     1
102
RTVSPropertyOp9
 70
     1
102
RTVSPropertyOp10
 70
     1
102
RTVSPropertyOp11
 70
     1
102
RTVSPropertyOp12
 70
     1
102
RTVSPropertyOp13
 70
     1
102
RTVSPropertyOp14
 70
     1
102
RTVSPropertyOp15
 70
     1
102
RTVSPropertyOp16
 70
     1
102
RTVSPropertyOp17
 70
     1
102
RTVSPropertyOp18
 70
     1
102
RTVSPropertyOp19
 70
     1
102
RTVSPropertyOp20
 70
     1
102
RTVSPropertyOp21
 70
     1
102
RTVSPropertyOp22
 70
     1
102
RTVSPropertyOp23
 70
     1
102
RTVSPropertyOp24
 70
     1
102
RTVSPropertyOp25
 70
     1
102
RTVSPropertyOp26
 70
     1
102
RTVSPropertyOp27
 70
     1
102
RTVSPropertyOp28
 70
     1
102
RTVSPropertyOp29
 70
     1
102
RTVSPropertyOp30
 70
     1
102
RTVSPropertyOp31
 70
     1
102
RTVSPropertyOp32
 70
     1
  0
XRECORD
  5
1CD
102
{ACAD_REACTORS
330
1CC
102
}
330
1CC
100
AcDbXrecord
280
     1
102
RTVSPropertyOp0
 70
     1
102
RTVSPropertyOp1
 70
     1
102
RTVSPropertyOp2
 70
     1
102
RTVSPropertyOp3
 70
     1
102
RTVSPropertyOp4
 70
     1
102
RTVSPropertyOp5
 70
     1
102
RTVSPropertyOp6
 70
     1
102
RTVSPropertyOp7
 70
     1
102
RTVSPropertyOp8
 70
     1
102
RTVSPropertyOp9
 70
     1
102
RTVSPropertyOp10
 70
     1
102
RTVSPropertyOp11
 70
     1
102
RTVSPropertyOp12
 70
     1
102
RTVSPropertyOp13
 70
     1
102
RTVSPropertyOp14
 70
     1
102
RTVSPropertyOp15
 70
     1
102
RTVSPropertyOp16
 70
     1
102
RTVSPropertyOp17
 70
     1
102
RTVSPropertyOp18
 70
     1
102
RTVSPropertyOp19
 70
     1
102
RTVSPropertyOp20
 70
     1
102
RTVSPropertyOp21
 70
     1
102
RTVSPropertyOp22
 70
     1
102
RTVSPropertyOp23
 70
     1
102
RTVSPropertyOp24
 70
     1
102
RTVSPropertyOp25
 70
     1
102
RTVSPropertyOp26
 70
     1
102
RTVSPropertyOp27
 70
     1
102
RTVSPropertyOp28
 70
     1
102
RTVSPropertyOp29
 70
     1
102
RTVSPropertyOp30
 70
     1
102
RTVSPropertyOp31
 70
     1
102
RTVSPropertyOp32
 70
     1
  0
XRECORD
  5
1D5
102
{ACAD_REACTORS
330
1D4
102
}
330
1D4
100
AcDbXrecord
280
     1
102
RTVSPropertyOp0
 70
     1
102
RTVSPropertyOp1
 70
     1
102
RTVSPropertyOp2
 70
     1
102
RTVSPropertyOp3
 70
     1
102
RTVSPropertyOp4
 70
     1
102
RTVSPropertyOp5
 70
     1
102
RTVSPropertyOp6
 70
     1
102
RTVSPropertyOp7
 70
     1
102
RTVSPropertyOp8
 70
     1
102
RTVSPropertyOp9
 70
     1
102
RTVSPropertyOp10
 70
     1
102
RTVSPropertyOp11
 70
     1
102
RTVSPropertyOp12
 70
     1
102
RTVSPropertyOp13
 70
     1
102
RTVSPropertyOp14
 70
     1
102
RTVSPropertyOp15
 70
     1
102
RTVSPropertyOp16
 70
     1
102
RTVSPropertyOp17
 70
     1
102
RTVSPropertyOp18
 70
     1
102
RTVSPropertyOp19
 70
     1
102
RTVSPropertyOp20
 70
     1
102
RTVSPropertyOp21
 70
     1
102
RTVSPropertyOp22
 70
     1
102
RTVSPropertyOp23
 70
     1
102
RTVSPropertyOp24
 70
     1
102
RTVSPropertyOp25
 70
     1
102
RTVSPropertyOp26
 70
     1
102
RTVSPropertyOp27
 70
     1
102
RTVSPropertyOp28
 70
     1
102
RTVSPropertyOp29
 70
     1
102
RTVSPropertyOp30
 70
     1
102
RTVSPropertyOp31
 70
     1
102
RTVSPropertyOp32
 70
     1
  0
XRECORD
  5
1DD
102
{ACAD_REACTORS
330
1DC
102
}
330
1DC
100
AcDbXrecord
280
     1
102
RTVSPropertyOp0
 70
     1
102
RTVSPropertyOp1
 70
     1
102
RTVSPropertyOp2
 70
     1
102
RTVSPropertyOp3
 70
     1
102
RTVSPropertyOp4
 70
     1
102
RTVSPropertyOp5
 70
     1
102
RTVSPropertyOp6
 70
     1
102
RTVSPropertyOp7
 70
     1
102
RTVSPropertyOp8
 70
     1
102
RTVSPropertyOp9
 70
     1
102
RTVSPropertyOp10
 70
     1
102
RTVSPropertyOp11
 70
     1
102
RTVSPropertyOp12
 70
     1
102
RTVSPropertyOp13
 70
     1
102
RTVSPropertyOp14
 70
     1
102
RTVSPropertyOp15
 70
     1
102
RTVSPropertyOp16
 70
     1
102
RTVSPropertyOp17
 70
     1
102
RTVSPropertyOp18
 70
     1
102
RTVSPropertyOp19
 70
     1
102
RTVSPropertyOp20
 70
     1
102
RTVSPropertyOp21
 70
     1
102
RTVSPropertyOp22
 70
     1
102
RTVSPropertyOp23
 70
     1
102
RTVSPropertyOp24
 70
     1
102
RTVSPropertyOp25
 70
     1
102
RTVSPropertyOp26
 70
     1
102
RTVSPropertyOp27
 70
     1
102
RTVSPropertyOp28
 70
     1
102
RTVSPropertyOp29
 70
     1
102
RTVSPropertyOp30
 70
     1
102
RTVSPropertyOp31
 70
     1
102
RTVSPropertyOp32
 70
     1
  0
XRECORD
  5
1D1
102
{ACAD_REACTORS
330
1D0
102
}
330
1D0
100
AcDbXrecord
280
     1
102
RTVSPropertyOp0
 70
     1
102
RTVSPropertyOp1
 70
     1
102
RTVSPropertyOp2
 70
     1
102
RTVSPropertyOp3
 70
     1
102
RTVSPropertyOp4
 70
     1
102
RTVSPropertyOp5
 70
     1
102
RTVSPropertyOp6
 70
     1
102
RTVSPropertyOp7
 70
     1
102
RTVSPropertyOp8
 70
     1
102
RTVSPropertyOp9
 70
     1
102
RTVSPropertyOp10
 70
     1
102
RTVSPropertyOp11
 70
     1
102
RTVSPropertyOp12
 70
     1
102
RTVSPropertyOp13
 70
     1
102
RTVSPropertyOp14
 70
     1
102
RTVSPropertyOp15
 70
     1
102
RTVSPropertyOp16
 70
     1
102
RTVSPropertyOp17
 70
     1
102
RTVSPropertyOp18
 70
     1
102
RTVSPropertyOp19
 70
     1
102
RTVSPropertyOp20
 70
     1
102
RTVSPropertyOp21
 70
     1
102
RTVSPropertyOp22
 70
     1
102
RTVSPropertyOp23
 70
     1
102
RTVSPropertyOp24
 70
     1
102
RTVSPropertyOp25
 70
     1
102
RTVSPropertyOp26
 70
     1
102
RTVSPropertyOp27
 70
     1
102
RTVSPropertyOp28
 70
     1
102
RTVSPropertyOp29
 70
     1
102
RTVSPropertyOp30
 70
     1
102
RTVSPropertyOp31
 70
     1
102
RTVSPropertyOp32
 70
     1
  0
XRECORD
  5
1D3
102
{ACAD_REACTORS
330
1D2
102
}
330
1D2
100
AcDbXrecord
280
     1
102
RTVSPropertyOp0
 70
     1
102
RTVSPropertyOp1
 70
     1
102
RTVSPropertyOp2
 70
     1
102
RTVSPropertyOp3
 70
     1
102
RTVSPropertyOp4
 70
     1
102
RTVSPropertyOp5
 70
     1
102
RTVSPropertyOp6
 70
     1
102
RTVSPropertyOp7
 70
     1
102
RTVSPropertyOp8
 70
     1
102
RTVSPropertyOp9
 70
     1
102
RTVSPropertyOp10
 70
     1
102
RTVSPropertyOp11
 70
     1
102
RTVSPropertyOp12
 70
     1
102
RTVSPropertyOp13
 70
     1
102
RTVSPropertyOp14
 70
     1
102
RTVSPropertyOp15
 70
     1
102
RTVSPropertyOp16
 70
     1
102
RTVSPropertyOp17
 70
     1
102
RTVSPropertyOp18
 70
     1
102
RTVSPropertyOp19
 70
     1
102
RTVSPropertyOp20
 70
     1
102
RTVSPropertyOp21
 70
     1
102
RTVSPropertyOp22
 70
     1
102
RTVSPropertyOp23
 70
     1
102
RTVSPropertyOp24
 70
     1
102
RTVSPropertyOp25
 70
     1
102
RTVSPropertyOp26
 70
     1
102
RTVSPropertyOp27
 70
     1
102
RTVSPropertyOp28
 70
     1
102
RTVSPropertyOp29
 70
     1
102
RTVSPropertyOp30
 70
     1
102
RTVSPropertyOp31
 70
     1
102
RTVSPropertyOp32
 70
     1
  0
XRECORD
  5
1ED
102
{ACAD_REACTORS
330
1EC
102
}
330
1EC
100
AcDbXrecord
280
     1
102
RTVSPropertyOp0
 70
     0
102
RTVSPropertyOp1
 70
     0
102
RTVSPropertyOp2
 70
     0
102
RTVSPropertyOp3
 70
     0
102
RTVSPropertyOp4
 70
     0
102
RTVSPropertyOp5
 70
     0
102
RTVSPropertyOp6
 70
     0
102
RTVSPropertyOp7
 70
     0
102
RTVSPropertyOp8
 70
     0
102
RTVSPropertyOp9
 70
     0
102
RTVSPropertyOp10
 70
     0
102
RTVSPropertyOp11
 70
     0
102
RTVSPropertyOp12
 70
     0
102
RTVSPropertyOp13
 70
     0
102
RTVSPropertyOp14
 70
     2
102
RTVSPropertyOp15
 70
     0
102
RTVSPropertyOp16
 70
     0
102
RTVSPropertyOp17
 70
     0
102
RTVSPropertyOp18
 70
     0
102
RTVSPropertyOp19
 70
     0
102
RTVSPropertyOp20
 70
     0
102
RTVSPropertyOp21
 70
     0
102
RTVSPropertyOp22
 70
     0
102
RTVSPropertyOp23
 70
     0
102
RTVSPropertyOp24
 70
     0
102
RTVSPropertyOp25
 70
     0
102
RTVSPropertyOp26
 70
     0
102
RTVSPropertyOp27
 70
     0
102
RTVSPropertyOp28
 70
     0
102
RTVSPropertyOp29
 70
     0
102
RTVSPropertyOp30
 70
     0
102
RTVSPropertyOp31
 70
     0
102
RTVSPropertyOp32
 70
     0
  0
XRECORD
  5
1DB
102
{ACAD_REACTORS
330
1DA
102
}
330
1DA
100
AcDbXrecord
280
     1
102
RTVSPropertyOp0
 70
     1
102
RTVSPropertyOp1
 70
     1
102
RTVSPropertyOp2
 70
     1
102
RTVSPropertyOp3
 70
     1
102
RTVSPropertyOp4
 70
     1
102
RTVSPropertyOp5
 70
     1
102
RTVSPropertyOp6
 70
     1
102
RTVSPropertyOp7
 70
     1
102
RTVSPropertyOp8
 70
     1
102
RTVSPropertyOp9
 70
     1
102
RTVSPropertyOp10
 70
     1
102
RTVSPropertyOp11
 70
     1
102
RTVSPropertyOp12
 70
     1
102
RTVSPropertyOp13
 70
     1
102
RTVSPropertyOp14
 70
     1
102
RTVSPropertyOp15
 70
     1
102
RTVSPropertyOp16
 70
     1
102
RTVSPropertyOp17
 70
     1
102
RTVSPropertyOp18
 70
     1
102
RTVSPropertyOp19
 70
     1
102
RTVSPropertyOp20
 70
     1
102
RTVSPropertyOp21
 70
     1
102
RTVSPropertyOp22
 70
     1
102
RTVSPropertyOp23
 70
     1
102
RTVSPropertyOp24
 70
     1
102
RTVSPropertyOp25
 70
     1
102
RTVSPropertyOp26
 70
     1
102
RTVSPropertyOp27
 70
     1
102
RTVSPropertyOp28
 70
     1
102
RTVSPropertyOp29
 70
     1
102
RTVSPropertyOp30
 70
     1
102
RTVSPropertyOp31
 70
     1
102
RTVSPropertyOp32
 70
     1
  0
XRECORD
  5
1C5
102
{ACAD_REACTORS
330
1C4
102
}
330
1C4
100
AcDbXrecord
280
     1
102
RTVSPropertyOp0
 70
     1
102
RTVSPropertyOp1
 70
     1
102
RTVSPropertyOp2
 70
     1
102
RTVSPropertyOp3
 70
     1
102
RTVSPropertyOp4
 70
     1
102
RTVSPropertyOp5
 70
     1
102
RTVSPropertyOp6
 70
     1
102
RTVSPropertyOp7
 70
     1
102
RTVSPropertyOp8
 70
     1
102
RTVSPropertyOp9
 70
     1
102
RTVSPropertyOp10
 70
     1
102
RTVSPropertyOp11
 70
     1
102
RTVSPropertyOp12
 70
     1
102
RTVSPropertyOp13
 70
     1
102
RTVSPropertyOp14
 70
     1
102
RTVSPropertyOp15
 70
     1
102
RTVSPropertyOp16
 70
     1
102
RTVSPropertyOp17
 70
     1
102
RTVSPropertyOp18
 70
     1
102
RTVSPropertyOp19
 70
     1
102
RTVSPropertyOp20
 70
     1
102
RTVSPropertyOp21
 70
     1
102
RTVSPropertyOp22
 70
     1
102
RTVSPropertyOp23
 70
     1
102
RTVSPropertyOp24
 70
     1
102
RTVSPropertyOp25
 70
     1
102
RTVSPropertyOp26
 70
     1
102
RTVSPropertyOp27
 70
     1
102
RTVSPropertyOp28
 70
     1
102
RTVSPropertyOp29
 70
     1
102
RTVSPropertyOp30
 70
     1
102
RTVSPropertyOp31
 70
     1
102
RTVSPropertyOp32
 70
     1
  0
XRECORD
  5
1C7
102
{ACAD_REACTORS
330
1C6
102
}
330
1C6
100
AcDbXrecord
280
     1
102
RTVSPropertyOp0
 70
     1
102
RTVSPropertyOp1
 70
     1
102
RTVSPropertyOp2
 70
     1
102
RTVSPropertyOp3
 70
     1
102
RTVSPropertyOp4
 70
     1
102
RTVSPropertyOp5
 70
     1
102
RTVSPropertyOp6
 70
     1
102
RTVSPropertyOp7
 70
     1
102
RTVSPropertyOp8
 70
     1
102
RTVSPropertyOp9
 70
     1
102
RTVSPropertyOp10
 70
     1
102
RTVSPropertyOp11
 70
     1
102
RTVSPropertyOp12
 70
     1
102
RTVSPropertyOp13
 70
     1
102
RTVSPropertyOp14
 70
     1
102
RTVSPropertyOp15
 70
     1
102
RTVSPropertyOp16
 70
     1
102
RTVSPropertyOp17
 70
     1
102
RTVSPropertyOp18
 70
     1
102
RTVSPropertyOp19
 70
     1
102
RTVSPropertyOp20
 70
     1
102
RTVSPropertyOp21
 70
     1
102
RTVSPropertyOp22
 70
     1
102
RTVSPropertyOp23
 70
     1
102
RTVSPropertyOp24
 70
     1
102
RTVSPropertyOp25
 70
     1
102
RTVSPropertyOp26
 70
     1
102
RTVSPropertyOp27
 70
     1
102
RTVSPropertyOp28
 70
     1
102
RTVSPropertyOp29
 70
     1
102
RTVSPropertyOp30
 70
     1
102
RTVSPropertyOp31
 70
     1
102
RTVSPropertyOp32
 70
     1
  0
XRECORD
  5
1C9
102
{ACAD_REACTORS
330
1C8
102
}
330
1C8
100
AcDbXrecord
280
     1
102
RTVSPropertyOp0
 70
     1
102
RTVSPropertyOp1
 70
     1
102
RTVSPropertyOp2
 70
     1
102
RTVSPropertyOp3
 70
     1
102
RTVSPropertyOp4
 70
     1
102
RTVSPropertyOp5
 70
     1
102
RTVSPropertyOp6
 70
     1
102
RTVSPropertyOp7
 70
     1
102
RTVSPropertyOp8
 70
     1
102
RTVSPropertyOp9
 70
     1
102
RTVSPropertyOp10
 70
     1
102
RTVSPropertyOp11
 70
     1
102
RTVSPropertyOp12
 70
     1
102
RTVSPropertyOp13
 70
     1
102
RTVSPropertyOp14
 70
     1
102
RTVSPropertyOp15
 70
     1
102
RTVSPropertyOp16
 70
     1
102
RTVSPropertyOp17
 70
     1
102
RTVSPropertyOp18
 70
     1
102
RTVSPropertyOp19
 70
     1
102
RTVSPropertyOp20
 70
     1
102
RTVSPropertyOp21
 70
     1
102
RTVSPropertyOp22
 70
     1
102
RTVSPropertyOp23
 70
     1
102
RTVSPropertyOp24
 70
     1
102
RTVSPropertyOp25
 70
     1
102
RTVSPropertyOp26
 70
     1
102
RTVSPropertyOp27
 70
     1
102
RTVSPropertyOp28
 70
     1
102
RTVSPropertyOp29
 70
     1
102
RTVSPropertyOp30
 70
     1
102
RTVSPropertyOp31
 70
     1
102
RTVSPropertyOp32
 70
     1
  0
XRECORD
  5
1CB
102
{ACAD_REACTORS
330
1CA
102
}
330
1CA
100
AcDbXrecord
280
     1
102
RTVSPropertyOp0
 70
     1
102
RTVSPropertyOp1
 70
     1
102
RTVSPropertyOp2
 70
     1
102
RTVSPropertyOp3
 70
     1
102
RTVSPropertyOp4
 70
     1
102
RTVSPropertyOp5
 70
     1
102
RTVSPropertyOp6
 70
     1
102
RTVSPropertyOp7
 70
     1
102
RTVSPropertyOp8
 70
     1
102
RTVSPropertyOp9
 70
     1
102
RTVSPropertyOp10
 70
     1
102
RTVSPropertyOp11
 70
     1
102
RTVSPropertyOp12
 70
     1
102
RTVSPropertyOp13
 70
     1
102
RTVSPropertyOp14
 70
     1
102
RTVSPropertyOp15
 70
     1
102
RTVSPropertyOp16
 70
     1
102
RTVSPropertyOp17
 70
     1
102
RTVSPropertyOp18
 70
     1
102
RTVSPropertyOp19
 70
     1
102
RTVSPropertyOp20
 70
     1
102
RTVSPropertyOp21
 70
     1
102
RTVSPropertyOp22
 70
     1
102
RTVSPropertyOp23
 70
     1
102
RTVSPropertyOp24
 70
     1
102
RTVSPropertyOp25
 70
     1
102
RTVSPropertyOp26
 70
     1
102
RTVSPropertyOp27
 70
     1
102
RTVSPropertyOp28
 70
     1
102
RTVSPropertyOp29
 70
     1
102
RTVSPropertyOp30
 70
     1
102
RTVSPropertyOp31
 70
     1
102
RTVSPropertyOp32
 70
     1
  0
XRECORD
  5
1CF
102
{ACAD_REACTORS
330
1CE
102
}
330
1CE
100
AcDbXrecord
280
     1
102
RTVSPropertyOp0
 70
     1
102
RTVSPropertyOp1
 70
     1
102
RTVSPropertyOp2
 70
     1
102
RTVSPropertyOp3
 70
     1
102
RTVSPropertyOp4
 70
     1
102
RTVSPropertyOp5
 70
     1
102
RTVSPropertyOp6
 70
     1
102
RTVSPropertyOp7
 70
     1
102
RTVSPropertyOp8
 70
     1
102
RTVSPropertyOp9
 70
     1
102
RTVSPropertyOp10
 70
     1
102
RTVSPropertyOp11
 70
     1
102
RTVSPropertyOp12
 70
     1
102
RTVSPropertyOp13
 70
     1
102
RTVSPropertyOp14
 70
     1
102
RTVSPropertyOp15
 70
     1
102
RTVSPropertyOp16
 70
     1
102
RTVSPropertyOp17
 70
     1
102
RTVSPropertyOp18
 70
     1
102
RTVSPropertyOp19
 70
     1
102
RTVSPropertyOp20
 70
     1
102
RTVSPropertyOp21
 70
     1
102
RTVSPropertyOp22
 70
     1
102
RTVSPropertyOp23
 70
     1
102
RTVSPropertyOp24
 70
     1
102
RTVSPropertyOp25
 70
     1
102
RTVSPropertyOp26
 70
     1
102
RTVSPropertyOp27
 70
     1
102
RTVSPropertyOp28
 70
     1
102
RTVSPropertyOp29
 70
     1
102
RTVSPropertyOp30
 70
     1
102
RTVSPropertyOp31
 70
     1
102
RTVSPropertyOp32
 70
     1
  0
XRECORD
  5
1E9
102
{ACAD_REACTORS
330
1E8
102
}
330
1E8
100
AcDbXrecord
280
     1
102
RTVSPropertyOp0
 70
     0
102
RTVSPropertyOp1
 70
     0
102
RTVSPropertyOp2
 70
     0
102
RTVSPropertyOp3
 70
     0
102
RTVSPropertyOp4
 70
     0
102
RTVSPropertyOp5
 70
     0
102
RTVSPropertyOp6
 70
     0
102
RTVSPropertyOp7
 70
     0
102
RTVSPropertyOp8
 70
     0
102
RTVSPropertyOp9
 70
     0
102
RTVSPropertyOp10
 70
     0
102
RTVSPropertyOp11
 70
     0
102
RTVSPropertyOp12
 70
     0
102
RTVSPropertyOp13
 70
     0
102
RTVSPropertyOp14
 70
     2
102
RTVSPropertyOp15
 70
     0
102
RTVSPropertyOp16
 70
     0
102
RTVSPropertyOp17
 70
     0
102
RTVSPropertyOp18
 70
     0
102
RTVSPropertyOp19
 70
     0
102
RTVSPropertyOp20
 70
     0
102
RTVSPropertyOp21
 70
     0
102
RTVSPropertyOp22
 70
     0
102
RTVSPropertyOp23
 70
     0
102
RTVSPropertyOp24
 70
     0
102
RTVSPropertyOp25
 70
     0
102
RTVSPropertyOp26
 70
     0
102
RTVSPropertyOp27
 70
     0
102
RTVSPropertyOp28
 70
     0
102
RTVSPropertyOp29
 70
     0
102
RTVSPropertyOp30
 70
     0
102
RTVSPropertyOp31
 70
     0
102
RTVSPropertyOp32
 70
     0
  0
XRECORD
  5
1D9
102
{ACAD_REACTORS
330
1D8
102
}
330
1D8
100
AcDbXrecord
280
     1
102
RTVSPropertyOp0
 70
     1
102
RTVSPropertyOp1
 70
     1
102
RTVSPropertyOp2
 70
     1
102
RTVSPropertyOp3
 70
     1
102
RTVSPropertyOp4
 70
     1
102
RTVSPropertyOp5
 70
     1
102
RTVSPropertyOp6
 70
     1
102
RTVSPropertyOp7
 70
     1
102
RTVSPropertyOp8
 70
     1
102
RTVSPropertyOp9
 70
     1
102
RTVSPropertyOp10
 70
     1
102
RTVSPropertyOp11
 70
     1
102
RTVSPropertyOp12
 70
     1
102
RTVSPropertyOp13
 70
     1
102
RTVSPropertyOp14
 70
     1
102
RTVSPropertyOp15
 70
     1
102
RTVSPropertyOp16
 70
     1
102
RTVSPropertyOp17
 70
     1
102
RTVSPropertyOp18
 70
     1
102
RTVSPropertyOp19
 70
     1
102
RTVSPropertyOp20
 70
     1
102
RTVSPropertyOp21
 70
     1
102
RTVSPropertyOp22
 70
     1
102
RTVSPropertyOp23
 70
     1
102
RTVSPropertyOp24
 70
     1
102
RTVSPropertyOp25
 70
     1
102
RTVSPropertyOp26
 70
     1
102
RTVSPropertyOp27
 70
     1
102
RTVSPropertyOp28
 70
     1
102
RTVSPropertyOp29
 70
     1
102
RTVSPropertyOp30
 70
     1
102
RTVSPropertyOp31
 70
     1
102
RTVSPropertyOp32
 70
     1
  0
XRECORD
  5
1EB
102
{ACAD_REACTORS
330
1EA
102
}
330
1EA
100
AcDbXrecord
280
     1
102
RTVSPropertyOp0
 70
     0
102
RTVSPropertyOp1
 70
     0
102
RTVSPropertyOp2
 70
     0
102
RTVSPropertyOp3
 70
     0
102
RTVSPropertyOp4
 70
     0
102
RTVSPropertyOp5
 70
     0
102
RTVSPropertyOp6
 70
     0
102
RTVSPropertyOp7
 70
     0
102
RTVSPropertyOp8
 70
     0
102
RTVSPropertyOp9
 70
     0
102
RTVSPropertyOp10
 70
     0
102
RTVSPropertyOp11
 70
     0
102
RTVSPropertyOp12
 70
     0
102
RTVSPropertyOp13
 70
     0
102
RTVSPropertyOp14
 70
     2
102
RTVSPropertyOp15
 70
     0
102
RTVSPropertyOp16
 70
     0
102
RTVSPropertyOp17
 70
     0
102
RTVSPropertyOp18
 70
     0
102
RTVSPropertyOp19
 70
     0
102
RTVSPropertyOp20
 70
     0
102
RTVSPropertyOp21
 70
     0
102
RTVSPropertyOp22
 70
     0
102
RTVSPropertyOp23
 70
     0
102
RTVSPropertyOp24
 70
     0
102
RTVSPropertyOp25
 70
     0
102
RTVSPropertyOp26
 70
     0
102
RTVSPropertyOp27
 70
     0
102
RTVSPropertyOp28
 70
     0
102
RTVSPropertyOp29
 70
     0
102
RTVSPropertyOp30
 70
     0
102
RTVSPropertyOp31
 70
     0
102
RTVSPropertyOp32
 70
     0
  0
XRECORD
  5
1C1
102
{ACAD_REACTORS
330
1C0
102
}
330
1C0
100
AcDbXrecord
280
     1
102
RTVSPropertyOp0
 70
     1
102
RTVSPropertyOp1
 70
     1
102
RTVSPropertyOp2
 70
     1
102
RTVSPropertyOp3
 70
     1
102
RTVSPropertyOp4
 70
     1
102
RTVSPropertyOp5
 70
     1
102
RTVSPropertyOp6
 70
     1
102
RTVSPropertyOp7
 70
     1
102
RTVSPropertyOp8
 70
     1
102
RTVSPropertyOp9
 70
     1
102
RTVSPropertyOp10
 70
     1
102
RTVSPropertyOp11
 70
     1
102
RTVSPropertyOp12
 70
     1
102
RTVSPropertyOp13
 70
     1
102
RTVSPropertyOp14
 70
     1
102
RTVSPropertyOp15
 70
     1
102
RTVSPropertyOp16
 70
     1
102
RTVSPropertyOp17
 70
     1
102
RTVSPropertyOp18
 70
     1
102
RTVSPropertyOp19
 70
     1
102
RTVSPropertyOp20
 70
     1
102
RTVSPropertyOp21
 70
     1
102
RTVSPropertyOp22
 70
     1
102
RTVSPropertyOp23
 70
     1
102
RTVSPropertyOp24
 70
     1
102
RTVSPropertyOp25
 70
     1
102
RTVSPropertyOp26
 70
     1
102
RTVSPropertyOp27
 70
     1
102
RTVSPropertyOp28
 70
     1
102
RTVSPropertyOp29
 70
     1
102
RTVSPropertyOp30
 70
     1
102
RTVSPropertyOp31
 70
     1
102
RTVSPropertyOp32
 70
     1
  0
XRECORD
  5
1E7
102
{ACAD_REACTORS
330
1E6
102
}
330
1E6
100
AcDbXrecord
280
     1
102
RTVSPropertyOp0
 70
     1
102
RTVSPropertyOp1
 70
     1
102
RTVSPropertyOp2
 70
     1
102
RTVSPropertyOp3
 70
     1
102
RTVSPropertyOp4
 70
     1
102
RTVSPropertyOp5
 70
     1
102
RTVSPropertyOp6
 70
     1
102
RTVSPropertyOp7
 70
     1
102
RTVSPropertyOp8
 70
     1
102
RTVSPropertyOp9
 70
     1
102
RTVSPropertyOp10
 70
     1
102
RTVSPropertyOp11
 70
     1
102
RTVSPropertyOp12
 70
     1
102
RTVSPropertyOp13
 70
     1
102
RTVSPropertyOp14
 70
     1
102
RTVSPropertyOp15
 70
     1
102
RTVSPropertyOp16
 70
     1
102
RTVSPropertyOp17
 70
     1
102
RTVSPropertyOp18
 70
     1
102
RTVSPropertyOp19
 70
     1
102
RTVSPropertyOp20
 70
     1
102
RTVSPropertyOp21
 70
     1
102
RTVSPropertyOp22
 70
     1
102
RTVSPropertyOp23
 70
     1
102
RTVSPropertyOp24
 70
     1
102
RTVSPropertyOp25
 70
     1
102
RTVSPropertyOp26
 70
     1
102
RTVSPropertyOp27
 70
     1
102
RTVSPropertyOp28
 70
     1
102
RTVSPropertyOp29
 70
     1
102
RTVSPropertyOp30
 70
     1
102
RTVSPropertyOp31
 70
     1
102
RTVSPropertyOp32
 70
     1
  0
XRECORD
  5
1E5
102
{ACAD_REACTORS
330
1E4
102
}
330
1E4
100
AcDbXrecord
280
     1
102
RTVSPropertyOp0
 70
     1
102
RTVSPropertyOp1
 70
     1
102
RTVSPropertyOp2
 70
     1
102
RTVSPropertyOp3
 70
     1
102
RTVSPropertyOp4
 70
     1
102
RTVSPropertyOp5
 70
     1
102
RTVSPropertyOp6
 70
     1
102
RTVSPropertyOp7
 70
     1
102
RTVSPropertyOp8
 70
     1
102
RTVSPropertyOp9
 70
     1
102
RTVSPropertyOp10
 70
     1
102
RTVSPropertyOp11
 70
     1
102
RTVSPropertyOp12
 70
     1
102
RTVSPropertyOp13
 70
     1
102
RTVSPropertyOp14
 70
     1
102
RTVSPropertyOp15
 70
     1
102
RTVSPropertyOp16
 70
     1
102
RTVSPropertyOp17
 70
     1
102
RTVSPropertyOp18
 70
     1
102
RTVSPropertyOp19
 70
     1
102
RTVSPropertyOp20
 70
     1
102
RTVSPropertyOp21
 70
     1
102
RTVSPropertyOp22
 70
     1
102
RTVSPropertyOp23
 70
     1
102
RTVSPropertyOp24
 70
     1
102
RTVSPropertyOp25
 70
     1
102
RTVSPropertyOp26
 70
     1
102
RTVSPropertyOp27
 70
     1
102
RTVSPropertyOp28
 70
     1
102
RTVSPropertyOp29
 70
     1
102
RTVSPropertyOp30
 70
     1
102
RTVSPropertyOp31
 70
     1
102
RTVSPropertyOp32
 70
     1
  0
XRECORD
  5
1DF
102
{ACAD_REACTORS
330
1DE
102
}
330
1DE
100
AcDbXrecord
280
     1
102
RTVSPropertyOp0
 70
     1
102
RTVSPropertyOp1
 70
     1
102
RTVSPropertyOp2
 70
     1
102
RTVSPropertyOp3
 70
     1
102
RTVSPropertyOp4
 70
     1
102
RTVSPropertyOp5
 70
     1
102
RTVSPropertyOp6
 70
     1
102
RTVSPropertyOp7
 70
     1
102
RTVSPropertyOp8
 70
     1
102
RTVSPropertyOp9
 70
     1
102
RTVSPropertyOp10
 70
     1
102
RTVSPropertyOp11
 70
     1
102
RTVSPropertyOp12
 70
     1
102
RTVSPropertyOp13
 70
     1
102
RTVSPropertyOp14
 70
     1
102
RTVSPropertyOp15
 70
     1
102
RTVSPropertyOp16
 70
     1
102
RTVSPropertyOp17
 70
     1
102
RTVSPropertyOp18
 70
     1
102
RTVSPropertyOp19
 70
     1
102
RTVSPropertyOp20
 70
     1
102
RTVSPropertyOp21
 70
     1
102
RTVSPropertyOp22
 70
     1
102
RTVSPropertyOp23
 70
     1
102
RTVSPropertyOp24
 70
     1
102
RTVSPropertyOp25
 70
     1
102
RTVSPropertyOp26
 70
     1
102
RTVSPropertyOp27
 70
     1
102
RTVSPropertyOp28
 70
     1
102
RTVSPropertyOp29
 70
     1
102
RTVSPropertyOp30
 70
     1
102
RTVSPropertyOp31
 70
     1
102
RTVSPropertyOp32
 70
     1
  0
XRECORD
  5
1E1
102
{ACAD_REACTORS
330
1E0
102
}
330
1E0
100
AcDbXrecord
280
     1
102
RTVSPropertyOp0
 70
     1
102
RTVSPropertyOp1
 70
     1
102
RTVSPropertyOp2
 70
     1
102
RTVSPropertyOp3
 70
     1
102
RTVSPropertyOp4
 70
     1
102
RTVSPropertyOp5
 70
     1
102
RTVSPropertyOp6
 70
     1
102
RTVSPropertyOp7
 70
     1
102
RTVSPropertyOp8
 70
     1
102
RTVSPropertyOp9
 70
     1
102
RTVSPropertyOp10
 70
     1
102
RTVSPropertyOp11
 70
     1
102
RTVSPropertyOp12
 70
     1
102
RTVSPropertyOp13
 70
     1
102
RTVSPropertyOp14
 70
     1
102
RTVSPropertyOp15
 70
     1
102
RTVSPropertyOp16
 70
     1
102
RTVSPropertyOp17
 70
     1
102
RTVSPropertyOp18
 70
     1
102
RTVSPropertyOp19
 70
     1
102
RTVSPropertyOp20
 70
     1
102
RTVSPropertyOp21
 70
     1
102
RTVSPropertyOp22
 70
     1
102
RTVSPropertyOp23
 70
     1
102
RTVSPropertyOp24
 70
     1
102
RTVSPropertyOp25
 70
     1
102
RTVSPropertyOp26
 70
     1
102
RTVSPropertyOp27
 70
     1
102
RTVSPropertyOp28
 70
     1
102
RTVSPropertyOp29
 70
     1
102
RTVSPropertyOp30
 70
     1
102
RTVSPropertyOp31
 70
     1
102
RTVSPropertyOp32
 70
     1
  0
XRECORD
  5
1D7
102
{ACAD_REACTORS
330
1D6
102
}
330
1D6
100
AcDbXrecord
280
     1
102
RTVSPropertyOp0
 70
     1
102
RTVSPropertyOp1
 70
     1
102
RTVSPropertyOp2
 70
     1
102
RTVSPropertyOp3
 70
     1
102
RTVSPropertyOp4
 70
     1
102
RTVSPropertyOp5
 70
     1
102
RTVSPropertyOp6
 70
     1
102
RTVSPropertyOp7
 70
     1
102
RTVSPropertyOp8
 70
     1
102
RTVSPropertyOp9
 70
     1
102
RTVSPropertyOp10
 70
     1
102
RTVSPropertyOp11
 70
     1
102
RTVSPropertyOp12
 70
     1
102
RTVSPropertyOp13
 70
     1
102
RTVSPropertyOp14
 70
     1
102
RTVSPropertyOp15
 70
     1
102
RTVSPropertyOp16
 70
     1
102
RTVSPropertyOp17
 70
     1
102
RTVSPropertyOp18
 70
     1
102
RTVSPropertyOp19
 70
     1
102
RTVSPropertyOp20
 70
     1
102
RTVSPropertyOp21
 70
     1
102
RTVSPropertyOp22
 70
     1
102
RTVSPropertyOp23
 70
     1
102
RTVSPropertyOp24
 70
     1
102
RTVSPropertyOp25
 70
     1
102
RTVSPropertyOp26
 70
     1
102
RTVSPropertyOp27
 70
     1
102
RTVSPropertyOp28
 70
     1
102
RTVSPropertyOp29
 70
     1
102
RTVSPropertyOp30
 70
     1
102
RTVSPropertyOp31
 70
     1
102
RTVSPropertyOp32
 70
     1
  0
XRECORD
  5
1C3
102
{ACAD_REACTORS
330
1C2
102
}
330
1C2
100
AcDbXrecord
280
     1
102
RTVSPropertyOp0
 70
     1
102
RTVSPropertyOp1
 70
     1
102
RTVSPropertyOp2
 70
     1
102
RTVSPropertyOp3
 70
     1
102
RTVSPropertyOp4
 70
     1
102
RTVSPropertyOp5
 70
     1
102
RTVSPropertyOp6
 70
     1
102
RTVSPropertyOp7
 70
     1
102
RTVSPropertyOp8
 70
     1
102
RTVSPropertyOp9
 70
     1
102
RTVSPropertyOp10
 70
     1
102
RTVSPropertyOp11
 70
     1
102
RTVSPropertyOp12
 70
     1
102
RTVSPropertyOp13
 70
     1
102
RTVSPropertyOp14
 70
     1
102
RTVSPropertyOp15
 70
     1
102
RTVSPropertyOp16
 70
     1
102
RTVSPropertyOp17
 70
     1
102
RTVSPropertyOp18
 70
     1
102
RTVSPropertyOp19
 70
     1
102
RTVSPropertyOp20
 70
     1
102
RTVSPropertyOp21
 70
     1
102
RTVSPropertyOp22
 70
     1
102
RTVSPropertyOp23
 70
     1
102
RTVSPropertyOp24
 70
     1
102
RTVSPropertyOp25
 70
     1
102
RTVSPropertyOp26
 70
     1
102
RTVSPropertyOp27
 70
     1
102
RTVSPropertyOp28
 70
     1
102
RTVSPropertyOp29
 70
     1
102
RTVSPropertyOp30
 70
     1
102
RTVSPropertyOp31
 70
     1
102
RTVSPropertyOp32
 70
     1
  0
XRECORD
  5
1E3
102
{ACAD_REACTORS
330
1E2
102
}
330
1E2
100
AcDbXrecord
280
     1
102
RTVSPropertyOp0
 70
     1
102
RTVSPropertyOp1
 70
     1
102
RTVSPropertyOp2
 70
     1
102
RTVSPropertyOp3
 70
     1
102
RTVSPropertyOp4
 70
     1
102
RTVSPropertyOp5
 70
     1
102
RTVSPropertyOp6
 70
     1
102
RTVSPropertyOp7
 70
     1
102
RTVSPropertyOp8
 70
     1
102
RTVSPropertyOp9
 70
     1
102
RTVSPropertyOp10
 70
     1
102
RTVSPropertyOp11
 70
     1
102
RTVSPropertyOp12
 70
     1
102
RTVSPropertyOp13
 70
     1
102
RTVSPropertyOp14
 70
     1
102
RTVSPropertyOp15
 70
     1
102
RTVSPropertyOp16
 70
     1
102
RTVSPropertyOp17
 70
     1
102
RTVSPropertyOp18
 70
     1
102
RTVSPropertyOp19
 70
     1
102
RTVSPropertyOp20
 70
     1
102
RTVSPropertyOp21
 70
     1
102
RTVSPropertyOp22
 70
     1
102
RTVSPropertyOp23
 70
     1
102
RTVSPropertyOp24
 70
     1
102
RTVSPropertyOp25
 70
     1
102
RTVSPropertyOp26
 70
     1
102
RTVSPropertyOp27
 70
     1
102
RTVSPropertyOp28
 70
     1
102
RTVSPropertyOp29
 70
     1
102
RTVSPropertyOp30
 70
     1
102
RTVSPropertyOp31
 70
     1
102
RTVSPropertyOp32
 70
     1
  0
ENDSEC
  0
EOF
