  0
SECTION
  2
HEADER
  9
$ACADVER
  1
AC1015
  9
$ACADMAINTVER
 70
    18
  9
$DWGCODEPAGE
  3
ANSI_1252
  9
$INSBASE
 10
0.0
 20
0.0
 30
0.0
  9
$EXTMIN
 10
-47.93301120346086
 20
-19.5954417902924
 30
-0.0015258207003583
  9
$EXTMAX
 10
47.86044455512956
 20
213.3170025701597
 30
0.0000000349246037
  9
$LIMMIN
 10
0.0
 20
0.0
  9
$LIMMAX
 10
1189.0
 20
840.9999999999998
  9
$ORTHOMODE
 70
     0
  9
$REGENMODE
 70
     1
  9
$FILLMODE
 70
     1
  9
$QTEXTMODE
 70
     0
  9
$MIRRTEXT
 70
     0
  9
$LTSCALE
 40
1.0
  9
$ATTMODE
 70
     1
  9
$TEXTSIZE
 40
0.2
  9
$TRACEWID
 40
0.05
  9
$TEXTSTYLE
  7
STANDARD
  9
$CLAYER
  8
0
  9
$CELTYPE
  6
ByLayer
  9
$CECOLOR
 62
   256
  9
$CELTSCALE
 40
1.0
  9
$DISPSILH
 70
     0
  9
$DIMSCALE
 40
1.0
  9
$DIMASZ
 40
180.0
  9
$DIMEXO
 40
0.0625
  9
$DIMDLI
 40
0.38
  9
$DIMRND
 40
0.0
  9
$DIMDLE
 40
0.0
  9
$DIMEXE
 40
0.18
  9
$DIMTP
 40
0.0
  9
$DIMTM
 40
0.0
  9
$DIMTXT
 40
34.99999940395355
  9
$DIMCEN
 40
0.09
  9
$DIMTSZ
 40
0.0
  9
$DIMTOL
 70
     0
  9
$DIMLIM
 70
     0
  9
$DIMTIH
 70
     1
  9
$DIMTOH
 70
     1
  9
$DIMSE1
 70
     0
  9
$DIMSE2
 70
     0
  9
$DIMTAD
 70
     0
  9
$DIMZIN
 70
     0
  9
$DIMBLK
  1

  9
$DIMASO
 70
     1
  9
$DIMSHO
 70
     1
  9
$DIMPOST
  1

  9
$DIMAPOST
  1

  9
$DIMALT
 70
     0
  9
$DIMALTD
 70
     2
  9
$DIMALTF
 40
25.4
  9
$DIMLFAC
 40
1.0
  9
$DIMTOFL
 70
     0
  9
$DIMTVP
 40
0.0
  9
$DIMTIX
 70
     0
  9
$DIMSOXD
 70
     0
  9
$DIMSAH
 70
     0
  9
$DIMBLK1
  1

  9
$DIMBLK2
  1

  9
$DIMSTYLE
  2
STANDARD
  9
$DIMCLRD
 70
     0
  9
$DIMCLRE
 70
     0
  9
$DIMCLRT
 70
     0
  9
$DIMTFAC
 40
1.0
  9
$DIMGAP
 40
0.09
  9
$DIMJUST
 70
     0
  9
$DIMSD1
 70
     0
  9
$DIMSD2
 70
     0
  9
$DIMTOLJ
 70
     1
  9
$DIMTZIN
 70
     0
  9
$DIMALTZ
 70
     0
  9
$DIMALTTZ
 70
     0
  9
$DIMUPT
 70
     0
  9
$DIMDEC
 70
     4
  9
$DIMTDEC
 70
     4
  9
$DIMALTU
 70
     2
  9
$DIMALTTD
 70
     2
  9
$DIMTXSTY
  7
STANDARD
  9
$DIMAUNIT
 70
     0
  9
$DIMADEC
 70
     0
  9
$DIMALTRND
 40
0.0
  9
$DIMAZIN
 70
     0
  9
$DIMDSEP
 70
    46
  9
$DIMATFIT
 70
     3
  9
$DIMFRAC
 70
     0
  9
$DIMLDRBLK
  1

  9
$DIMLUNIT
 70
     2
  9
$DIMLWD
 70
    -2
  9
$DIMLWE
 70
    -2
  9
$DIMTMOVE
 70
     0
  9
$LUNITS
 70
     2
  9
$LUPREC
 70
     4
  9
$SKETCHINC
 40
0.1
  9
$FILLETRAD
 40
0.0
  9
$AUNITS
 70
     0
  9
$AUPREC
 70
     0
  9
$MENU
  1
.
  9
$ELEVATION
 40
0.0
  9
$PELEVATION
 40
0.0
  9
$THICKNESS
 40
0.0
  9
$LIMCHECK
 70
     0
  9
$CHAMFERA
 40
0.0
  9
$CHAMFERB
 40
0.0
  9
$CHAMFERC
 40
0.0
  9
$CHAMFERD
 40
0.0
  9
$SKPOLY
 70
     0
  9
$TDCREATE
 40
2454871.497639329
  9
$TDUCREATE
 40
2454871.455972662
  9
$TDUPDATE
 40
2455943.883286852
  9
$TDUUPDATE
 40
2455943.841620185
  9
$TDINDWG
 40
0.0125668866
  9
$TDUSRTIMER
 40
0.0125668866
  9
$USRTIMER
 70
     1
  9
$ANGBASE
 50
0.0
  9
$ANGDIR
 70
     0
  9
$PDMODE
 70
     0
  9
$PDSIZE
 40
0.0
  9
$PLINEWID
 40
0.0
  9
$SPLFRAME
 70
     0
  9
$SPLINETYPE
 70
     6
  9
$SPLINESEGS
 70
     8
  9
$HANDSEED
  5
267
  9
$SURFTAB1
 70
     6
  9
$SURFTAB2
 70
     6
  9
$SURFTYPE
 70
     6
  9
$SURFU
 70
     6
  9
$SURFV
 70
     6
  9
$UCSBASE
  2

  9
$UCSNAME
  2

  9
$UCSORG
 10
0.0
 20
0.0
 30
0.0
  9
$UCSXDIR
 10
1.0
 20
0.0
 30
0.0
  9
$UCSYDIR
 10
0.0
 20
1.0
 30
0.0
  9
$UCSORTHOREF
  2

  9
$UCSORTHOVIEW
 70
     0
  9
$UCSORGTOP
 10
0.0
 20
0.0
 30
0.0
  9
$UCSORGBOTTOM
 10
0.0
 20
0.0
 30
0.0
  9
$UCSORGLEFT
 10
0.0
 20
0.0
 30
0.0
  9
$UCSORGRIGHT
 10
0.0
 20
0.0
 30
0.0
  9
$UCSORGFRONT
 10
0.0
 20
0.0
 30
0.0
  9
$UCSORGBACK
 10
0.0
 20
0.0
 30
0.0
  9
$PUCSBASE
  2

  9
$PUCSNAME
  2

  9
$PUCSORG
 10
0.0
 20
0.0
 30
0.0
  9
$PUCSXDIR
 10
1.0
 20
0.0
 30
0.0
  9
$PUCSYDIR
 10
0.0
 20
1.0
 30
0.0
  9
$PUCSORTHOREF
  2

  9
$PUCSORTHOVIEW
 70
     0
  9
$PUCSORGTOP
 10
0.0
 20
0.0
 30
0.0
  9
$PUCSORGBOTTOM
 10
0.0
 20
0.0
 30
0.0
  9
$PUCSORGLEFT
 10
0.0
 20
0.0
 30
0.0
  9
$PUCSORGRIGHT
 10
0.0
 20
0.0
 30
0.0
  9
$PUCSORGFRONT
 10
0.0
 20
0.0
 30
0.0
  9
$PUCSORGBACK
 10
0.0
 20
0.0
 30
0.0
  9
$USERI1
 70
     0
  9
$USERI2
 70
     0
  9
$USERI3
 70
     0
  9
$USERI4
 70
     0
  9
$USERI5
 70
     0
  9
$USERR1
 40
0.0
  9
$USERR2
 40
0.0
  9
$USERR3
 40
0.0
  9
$USERR4
 40
0.0
  9
$USERR5
 40
0.0
  9
$WORLDVIEW
 70
     1
  9
$SHADEDGE
 70
     3
  9
$SHADEDIF
 70
    70
  9
$TILEMODE
 70
     1
  9
$MAXACTVP
 70
    64
  9
$PINSBASE
 10
0.0
 20
0.0
 30
0.0
  9
$PLIMCHECK
 70
     0
  9
$PEXTMIN
 10
0.0
 20
0.0
 30
0.0
  9
$PEXTMAX
 10
1189.0
 20
840.9999999999998
 30
0.0
  9
$PLIMMIN
 10
0.0
 20
0.0
  9
$PLIMMAX
 10
1189.0
 20
840.9999999999998
  9
$UNITMODE
 70
     0
  9
$VISRETAIN
 70
     1
  9
$PLINEGEN
 70
     0
  9
$PSLTSCALE
 70
     1
  9
$TREEDEPTH
 70
  3020
  9
$CMLSTYLE
  2
Standard
  9
$CMLJUST
 70
     0
  9
$CMLSCALE
 40
1.0
  9
$PROXYGRAPHICS
 70
     1
  9
$MEASUREMENT
 70
     1
  9
$CELWEIGHT
370
    -1
  9
$ENDCAPS
280
     0
  9
$JOINSTYLE
280
     0
  9
$LWDISPLAY
290
     0
  9
$INSUNITS
 70
     4
  9
$HYPERLINKBASE
  1

  9
$STYLESHEET
  1

  9
$XEDIT
290
     1
  9
$CEPSNTYPE
380
     0
  9
$PSTYLEMODE
290
     1
  9
$FINGERPRINTGUID
  2
{9314DE61-A7C3-41BA-8DB9-3FB816E96252}
  9
$VERSIONGUID
  2
{C507DEB1-F597-45DC-A9A3-659410BE88D6}
  9
$EXTNAMES
290
     1
  9
$PSVPSCALE
 40
0.0
  9
$OLESTARTUP
290
     0
  0
ENDSEC
  0
SECTION
  2
CLASSES
  0
CLASS
  1
ACDBDICTIONARYWDFLT
  2
AcDbDictionaryWithDefault
  3
ObjectDBX Classes
 90
        0
280
     0
281
     0
  0
CLASS
  1
MATERIAL
  2
AcDbMaterial
  3
ObjectDBX Classes
 90
     1153
280
     0
281
     0
  0
CLASS
  1
VISUALSTYLE
  2
AcDbVisualStyle
  3
ObjectDBX Classes
 90
     4095
280
     0
281
     0
  0
CLASS
  1
SCALE
  2
AcDbScale
  3
ObjectDBX Classes
 90
     1153
280
     0
281
     0
  0
CLASS
  1
TABLESTYLE
  2
AcDbTableStyle
  3
ObjectDBX Classes
 90
     4095
280
     0
281
     0
  0
CLASS
  1
MLEADERSTYLE
  2
AcDbMLeaderStyle
  3
ACDB_MLEADERSTYLE_CLASS
 90
     4095
280
     0
281
     0
  0
CLASS
  1
SORTENTSTABLE
  2
AcDbSortentsTable
  3
ObjectDBX Classes
 90
        0
280
     0
281
     0
  0
CLASS
  1
CELLSTYLEMAP
  2
AcDbCellStyleMap
  3
ObjectDBX Classes
 90
     1152
280
     0
281
     0
  0
CLASS
  1
DICTIONARYVAR
  2
AcDbDictionaryVar
  3
ObjectDBX Classes
 90
        0
280
     0
281
     0
  0
CLASS
  1
ACME_DOCUMENT
  2
AcMeDbDoc
  3
AcMeServices
 90
    33792
280
     1
281
     0
  0
CLASS
  1
AMGSETTINGSOBJ
  2
AmgSettingsObj
  3
"AcadM|Product Description: AutoCAD Mechanical|Company: Autodesk, Inc."
 90
    33792
280
     1
281
     0
  0
CLASS
  1
ACMESCOPE
  2
AcMeScope
  3
AcMeServices
 90
    33792
280
     1
281
     0
  0
CLASS
  1
ACMECOMMANDHISTORY
  2
AcMeCommandHistory
  3
AcMeServices
 90
    33792
280
     1
281
     0
  0
CLASS
  1
ACIMSYSVARMAN
  2
AcImSysVarManager
  3
AcMeServices
 90
    33792
280
     1
281
     0
  0
CLASS
  1
ACIMINTSYSVAR
  2
AcImIntSysVar
  3
AcMeServices
 90
    33792
280
     1
281
     0
  0
CLASS
  1
ACMEDRAWINGMAN
  2
AcMeDrawingMan
  3
AcMeServices
 90
    33792
280
     1
281
     0
  0
CLASS
  1
ACMEVIEW
  2
AcMeView
  3
AcMeServices
 90
    33792
280
     1
281
     0
  0
CLASS
  1
ACDBENTITYCACHE
  2
AcMeEntityCache
  3
AcMeServices
 90
    33792
280
     1
281
     0
  0
CLASS
  1
GSMANAGER
  2
AcMeGSManager
  3
AcMeServices
 90
    33792
280
     1
281
     0
  0
CLASS
  1
AMDTINTERNALREACTOR
  2
AmdtInternalReactor
  3
AcMeServices
 90
    33792
280
     1
281
     0
  0
CLASS
  1
ACMESTATEMGR
  2
AcMeStateMgr
  3
AcMeServices
 90
    33792
280
     1
281
     0
  0
CLASS
  1
ACGREFMASTER
  2
AcGrefMaster
  3
AcAttribServices
 90
    33792
280
     1
281
     0
  0
CLASS
  1
AM_DRAWING_MGR
  2
AcDmDwgMgr
  3
AcMechDwgViewMgmt
 90
    33792
280
     1
281
     0
  0
CLASS
  1
AM_DWG_DOCUMENT
  2
AcDmDwgDocument
  3
AcMechDwgViewMgmt
 90
    33792
280
     1
281
     0
  0
CLASS
  1
AM_DWG_SHEET
  2
AcDmSheet
  3
AcMechDwgViewMgmt
 90
    33792
280
     1
281
     0
  0
CLASS
  1
AM_VIEWDIMPARMAP
  2
AcDmViewDimParMap
  3
AcMechDwgViewMgmt
 90
    33792
280
     1
281
     0
  0
CLASS
  1
ACIMREALSYSVAR
  2
AcImRealSysVar
  3
AcMeServices
 90
    33792
280
     1
281
     0
  0
CLASS
  1
AM_DWGMGR_NAME
  2
AcDmDwgMgrName
  3
AcMechDwgViewMgmt
 90
    33792
280
     1
281
     0
  0
CLASS
  1
ACME_DATABASE
  2
AcMeDbDatabase
  3
AcMeServices
 90
    33792
280
     1
281
     0
  0
CLASS
  1
ACRFINSADJUSTERMGR
  2
AcRfInsAdjusterMgr
  3
AcMeServices
 90
    33792
280
     1
281
     0
  0
CLASS
  1
ACGREFACADMASTER
  2
AcGrefacadMaster
  3
AcGrefServices
 90
    33792
280
     1
281
     0
  0
CLASS
  1
AMDTMENUSTATEMGR
  2
AmdtMenuStateMgr
  3
McadcomServices
 90
    33792
280
     1
281
     0
  0
CLASS
  1
AMDTMCOMMENUSTATE
  2
AmdtMcomMenuState
  3
McadcomServices
 90
    33792
280
     1
281
     0
  0
CLASS
  1
AMIMASTER
  2
AmiMaster
  3
AmiServices
 90
    33792
280
     1
281
     0
  0
CLASS
  1
MAPIAMMOUDLE
  2
MApiAmModule
  3
MApiAmServices
 90
    33792
280
     1
281
     0
  0
CLASS
  1
ACIMSTRSYSVAR
  2
AcImStrSysVar
  3
AcMeServices
 90
    33792
280
     1
281
     0
  0
CLASS
  1
AMDTADMENUSTATE
  2
AmdtAdMenuState
  3
DesignerServices
 90
    33792
280
     1
281
     0
  0
CLASS
  1
ADAPPL
  2
AcAdAppl
  3
DesignerServices
 90
    33792
280
     1
281
     0
  0
CLASS
  1
DEPMGR
  2
AcAdDepMgr
  3
DesignerServices
 90
    33792
280
     1
281
     0
  0
CLASS
  1
PARAMMGR
  2
AcAdParamMgr
  3
DesignerServices
 90
    33792
280
     1
281
     0
  0
CLASS
  1
PARAMSCOPE
  2
AcAdParamScope
  3
DesignerServices
 90
    33792
280
     1
281
     0
  0
CLASS
  1
NAMEDAPPL
  2
AcAdNamedAppl
  3
DesignerServices
 90
    33792
280
     1
281
     0
  0
CLASS
  1
AMDTDMMENUSTATE
  2
AmdtDmMenuState
  3
AcMechDwgViewMgmt
 90
    33792
280
     1
281
     0
  0
CLASS
  1
AMDTAMMENUSTATE
  2
AmdtAmMenuState
  3
DesignerAssemblies
 90
    33792
280
     1
281
     0
  0
CLASS
  1
ACAMPROJECT
  2
AcAmProject
  3
DesignerAssemblies
 90
    33792
280
     1
281
     0
  0
CLASS
  1
ACAMGRCOMPDEF
  2
AcAmGrCompDef
  3
DesignerAssemblies
 90
    33792
280
     1
281
     0
  0
CLASS
  1
ACCMCONTEXT
  2
AcCmContext
  3
DesignerAssemblies
 90
    33792
280
     1
281
     0
  0
CLASS
  1
ACAMCOMPDEF
  2
AcAmCompDef
  3
DesignerAssemblies
 90
    33792
280
     1
281
     0
  0
CLASS
  1
ACAMCOMPDEFMGR
  2
AcAmCompDefMgr
  3
DesignerAssemblies
 90
    33792
280
     1
281
     0
  0
CLASS
  1
AMCONTEXTMGR
  2
AcAmContextMgr
  3
DesignerAssemblies
 90
    33792
280
     1
281
     0
  0
CLASS
  1
ACAMCONTEXTMODELER
  2
AcAmContextModeler
  3
DesignerAssemblies
 90
    33792
280
     1
281
     0
  0
CLASS
  1
ACMDATADICTIONARY
  2
AcmDataDictionary
  3
"AcmSymBB|Product Description: AutoCAD Mechanical|Company: Autodesk, Inc."
 90
    33792
280
     1
281
     0
  0
CLASS
  1
CATALOGSTATE
  2
AcAmCatalogState
  3
DesignerAssemblies
 90
    33792
280
     1
281
     0
  0
CLASS
  1
ACAMGRCOMPDEFSET
  2
AcAmGrCompDefSet
  3
DesignerAssemblies
 90
    33792
280
     1
281
     0
  0
CLASS
  1
AMDTBROWSERDBTAB
  2
AmdtBrowserDbTab
  3
McadcomServices
 90
    33792
280
     1
281
     0
  0
CLASS
  1
CBROWSERAPPOBJECT
  2
CBrowserAppObject
  3
McadcomServices
 90
    33792
280
     1
281
     0
  0
CLASS
  1
DM_PLACEHOLDER
  2
AcDmSelsetPlaceholder
  3
AcMechDwgViewMgmt
 90
    33792
280
     1
281
     0
  0
CLASS
  1
EXACXREFPANELOBJECT
  2
ExAcXREFPanelObject
  3
EXAC_ESW
 90
     1025
280
     0
281
     0
  0
CLASS
  1
NPOCOLLECTION
  2
AcDbImpNonPersistentObjectsCollection
  3
ObjectDBX Classes
 90
     1153
280
     0
281
     0
  0
CLASS
  1
ACMSTANDARDANSI
  2
AcmStandardANSI
  3
"Amdt_StdImp|Product Description: AutoCAD Mechanical|Company: Autodesk, Inc."
 90
    33792
280
     1
281
     0
  0
CLASS
  1
ACMSURFSTANDARDANSI
  2
AcmSurfTextStdANSI
  3
"Amdt_StdImp|Product Description: AutoCAD Mechanical|Company: Autodesk, Inc."
 90
    33792
280
     1
281
     0
  0
CLASS
  1
ACMFCFSTANDARDANSI
  2
AcmFCFStdANSI
  3
"Amdt_StdImp|Product Description: AutoCAD Mechanical|Company: Autodesk, Inc."
 90
    33792
280
     1
281
     0
  0
CLASS
  1
ACMWELDSTANDARDANSI
  2
AcmWeldingStdANSI
  3
"Amdt_StdImp|Product Description: AutoCAD Mechanical|Company: Autodesk, Inc."
 90
    33792
280
     1
281
     0
  0
CLASS
  1
ACMIDSTANDARDANSI
  2
AcmIdStdANSI
  3
"Amdt_StdImp|Product Description: AutoCAD Mechanical|Company: Autodesk, Inc."
 90
    33792
280
     1
281
     0
  0
CLASS
  1
ACMDATUMSTANDARDANSI
  2
AcmDatumStdANSI
  3
"Amdt_StdImp|Product Description: AutoCAD Mechanical|Company: Autodesk, Inc."
 90
    33792
280
     1
281
     0
  0
CLASS
  1
ACMBOMSTANDARDANSI
  2
AcmBOMStdANSI
  3
"Amdt_StdImp|Product Description: AutoCAD Mechanical|Company: Autodesk, Inc."
 90
    33792
280
     1
281
     0
  0
CLASS
  1
ACMDETAILSTANDARDANSI
  2
AmdtDetailSymStdANSI
  3
"Amdt_StdImp|Product Description: AutoCAD Mechanical|Company: Autodesk, Inc."
 90
    33792
280
     1
281
     0
  0
CLASS
  1
ACMSECTIONSTANDARDANSI
  2
AmdtSectionSymStdANSI
  3
"Amdt_StdImp|Product Description: AutoCAD Mechanical|Company: Autodesk, Inc."
 90
    33792
280
     1
281
     0
  0
CLASS
  1
ACMCENTERLINESTANDARDANSI
  2
AmdtCenterLineStdANSI
  3
"Amdt_StdImp|Product Description: AutoCAD Mechanical|Company: Autodesk, Inc."
 90
    33792
280
     1
281
     0
  0
CLASS
  1
ACMTHREADLINESTANDARDANSI
  2
AmdtThreadLineStdANSI
  3
"Amdt_StdImp|Product Description: AutoCAD Mechanical|Company: Autodesk, Inc."
 90
    33792
280
     1
281
     0
  0
CLASS
  1
ACMNOTESTANDARDANSI
  2
AmdtNoteStdANSI
  3
"Amdt_StdImp|Product Description: AutoCAD Mechanical|Company: Autodesk, Inc."
 90
    33792
280
     1
281
     0
  0
CLASS
  1
ACMTAPERSTANDARDANSI
  2
AcmTaperStdANSI
  3
"Amdt_StdImp|Product Description: AutoCAD Mechanical|Company: Autodesk, Inc."
 90
    33792
280
     1
281
     0
  0
CLASS
  1
ACMANOOTATIONVIEWSTANDARDANSI
  2
AmdtAnViewStdANSI
  3
"Amdt_StdImp|Product Description: AutoCAD Mechanical|Company: Autodesk, Inc."
 90
    33792
280
     1
281
     0
  0
CLASS
  1
ACAMGLAYSTD
  2
AcAmgLayStd
  3
"AmgLay|Product Description: AutoCAD Mechanical|Company: Autodesk, Inc."
 90
    33792
280
     1
281
     0
  0
CLASS
  1
ACAMGDIMSTD
  2
AcAmgDimStd
  3
"AmgDim|Product Description: AutoCAD Mechanical|Company: Autodesk, Inc."
 90
    33792
280
     1
281
     0
  0
CLASS
  1
AMGOBJPROPCFG
  2
AmgObjPropCfg
  3
"AmgLay|Product Description: AutoCAD Mechanical|Company: Autodesk, Inc."
 90
    33793
280
     1
281
     0
  0
CLASS
  1
ACAMGHOLECHARTSTDANSI
  2
AcAmgHoleChartStdANSI
  3
AmgDim|Product Description: AutoCAD Mechanical|Company: Autodesk, Inc.
 90
    33792
280
     1
281
     0
  0
CLASS
  1
ACAMGTITLESTD
  2
AcAmgTitleStd
  3
"AmgTitle|Product Description: AutoCAD Mechanical|Company: Autodesk, Inc."
 90
    36863
280
     1
281
     0
  0
CLASS
  1
AMDTNOTETEMPLATEDB
  2
AmdtNoteTemplateDB
  3
AcmSymBB|Product Description: AutoCAD Mechanical|Company: Autodesk, Inc.
 90
    33792
280
     1
281
     0
  0
CLASS
  1
ACAMGFILTERDAT
  2
AcAmgFilterDat
  3
"AcadM|Product Description: AutoCAD Mechanical|Company: Autodesk, Inc."
 90
    33792
280
     1
281
     0
  0
CLASS
  1
CAMSSTRUCTBTNSTATE
  2
StructBtnState
  3
DesignerAssemblies
 90
    33792
280
     1
281
     0
  0
CLASS
  1
ACDBPLACEHOLDER
  2
AcDbPlaceHolder
  3
ObjectDBX Classes
 90
        0
280
     0
281
     0
  0
CLASS
  1
LAYOUT
  2
AcDbLayout
  3
ObjectDBX Classes
 90
        0
280
     0
281
     0
  0
CLASS
  1
SOLID_BACKGROUND
  2
AcDbSolidBackground
  3
SCENEOE
 90
    36863
280
     0
281
     0
  0
ENDSEC
  0
SECTION
  2
TABLES
  0
TABLE
  2
VPORT
  5
28
102
{ACAD_XDICTIONARY
360
2C
102
}
330
0
100
AcDbSymbolTable
 70
     1
  0
VPORT
  5
29
330
28
100
AcDbSymbolTableRecord
100
AcDbViewportTableRecord
  2
*ACTIVE
 70
     0
 10
0.0
 20
0.0
 11
1.0
 21
1.0
 12
-0.0362833241656517
 22
96.86078038993366
 13
0.0
 23
0.0
 14
1.0
 24
1.0
 15
0.0
 25
0.0
 16
0.0
 26
0.0
 36
1.0
 17
0.0
 27
0.0
 37
0.0
 40
260.7721528412091
 41
1.141762452107279
 42
50.0
 43
0.0
 44
0.0
 50
0.0
 51
0.0
 71
     0
 72
   100
 73
     1
 74
     1
 75
     0
 76
     0
 77
     0
 78
     0
281
     0
 65
     1
110
0.0
120
0.0
130
0.0
111
1.0
121
0.0
131
0.0
112
0.0
122
1.0
132
0.0
 79
     0
146
0.0
  0
ENDTAB
  0
TABLE
  2
LTYPE
  5
23
330
0
100
AcDbSymbolTable
 70
     3
  0
LTYPE
  5
24
330
23
100
AcDbSymbolTableRecord
100
AcDbLinetypeTableRecord
  2
ByBlock
 70
     0
  3

 72
    65
 73
     0
 40
0.0
  0
LTYPE
  5
25
330
23
100
AcDbSymbolTableRecord
100
AcDbLinetypeTableRecord
  2
ByLayer
 70
     0
  3

 72
    65
 73
     0
 40
0.0
  0
LTYPE
  5
13
330
23
100
AcDbSymbolTableRecord
100
AcDbLinetypeTableRecord
  2
CONTINUOUS
 70
     0
  3
Solid line
 72
    65
 73
     0
 40
0.0
  0
LTYPE
  5
77
330
23
100
AcDbSymbolTableRecord
100
AcDbLinetypeTableRecord
  2
DASHDOT
 70
     0
  3
Dash dot __ . __ . __ . __ . __ . __ . __ . __
 72
    65
 73
     4
 40
1.0
 49
0.5
 74
     0
 49
-0.25
 74
     0
 49
0.0
 74
     0
 49
-0.25
 74
     0
  0
LTYPE
  5
80
330
23
100
AcDbSymbolTableRecord
100
AcDbLinetypeTableRecord
  2
DASHED
 70
     0
  3
Dashed __ __ __ __ __ __ __ __ __ __ __ __ __ _
 72
    65
 73
     2
 40
0.75
 49
0.5
 74
     0
 49
-0.25
 74
     0
  0
ENDTAB
  0
TABLE
  2
LAYER
  5
1B
102
{ACAD_XDICTIONARY
360
1C
102
}
330
0
100
AcDbSymbolTable
 70
     7
  0
LAYER
  5
6
330
1B
100
AcDbSymbolTableRecord
100
AcDbLayerTableRecord
  2
0
 70
     0
 62
     7
  6
CONTINUOUS
370
    -3
390
7
  0
LAYER
  5
186
330
1B
100
AcDbSymbolTableRecord
100
AcDbLayerTableRecord
  2
GEB-KONTUR-A
 70
     0
 62
     5
  6
CONTINUOUS
370
    -3
390
7
  0
LAYER
  5
76
330
1B
100
AcDbSymbolTableRecord
100
AcDbLayerTableRecord
  2
GEB-SYMMETRIE
 70
     0
 62
     3
  6
DASHDOT
370
    -3
390
7
1001
AcAecLayerStandard
1000

1000

  0
LAYER
  5
7F
330
1B
100
AcDbSymbolTableRecord
100
AcDbLayerTableRecord
  2
GEB-VERDECKT
 70
     0
 62
     2
  6
DASHED
370
    -3
390
7
1001
AcAecLayerStandard
1000

1000

  0
LAYER
  5
1FB
330
1B
100
AcDbSymbolTableRecord
100
AcDbLayerTableRecord
  2
GEB-ART-NR
 70
     0
 62
     1
  6
CONTINUOUS
370
    18
390
7
  0
LAYER
  5
72
330
1B
100
AcDbSymbolTableRecord
100
AcDbLayerTableRecord
  2
GEB-BEZUG
 70
     0
 62
     2
  6
CONTINUOUS
370
    25
390
7
  0
LAYER
  5
1F8
330
1B
100
AcDbSymbolTableRecord
100
AcDbLayerTableRecord
  2
GEB-TEXT
 70
     0
 62
     5
  6
CONTINUOUS
370
    18
390
7
  0
ENDTAB
  0
TABLE
  2
STYLE
  5
20
330
0
100
AcDbSymbolTable
 70
     1
  0
STYLE
  5
21
330
20
100
AcDbSymbolTableRecord
100
AcDbTextStyleTableRecord
  2
STANDARD
 70
     0
 40
0.0
 41
1.0
 50
0.0
 71
     0
 42
0.2
  3
ARIAL.TTF
  4

1001
ACAD
1000
Arial
1071
       34
  0
ENDTAB
  0
TABLE
  2
VIEW
  5
26
330
0
100
AcDbSymbolTable
 70
     0
  0
ENDTAB
  0
TABLE
  2
UCS
  5
27
330
0
100
AcDbSymbolTable
 70
     0
  0
ENDTAB
  0
TABLE
  2
APPID
  5
2D
330
0
100
AcDbSymbolTable
 70
     3
  0
APPID
  5
1F
330
2D
100
AcDbSymbolTableRecord
100
AcDbRegAppTableRecord
  2
ACAD
 70
     0
  0
APPID
  5
78
330
2D
100
AcDbSymbolTableRecord
100
AcDbRegAppTableRecord
  2
AcAecLayerStandard
 70
     0
  0
APPID
  5
266
330
2D
100
AcDbSymbolTableRecord
100
AcDbRegAppTableRecord
  2
ACAD_MLEADERVER
 70
     0
  0
ENDTAB
  0
TABLE
  2
DIMSTYLE
  5
2E
330
0
100
AcDbSymbolTable
 70
     1
100
AcDbDimStyleTable
 71
     1
340
2F
  0
DIMSTYLE
105
2F
330
2E
100
AcDbSymbolTableRecord
100
AcDbDimStyleTableRecord
  2
STANDARD
 70
     0
279
     2
340
21
  0
ENDTAB
  0
TABLE
  2
BLOCK_RECORD
  5
1
330
0
100
AcDbSymbolTable
 70
     1
  0
BLOCK_RECORD
  5
2
102
{ACAD_XDICTIONARY
360
3
102
}
330
1
100
AcDbSymbolTableRecord
100
AcDbBlockTableRecord
  2
*Model_Space
340
15
  0
BLOCK_RECORD
  5
17
330
1
100
AcDbSymbolTableRecord
100
AcDbBlockTableRecord
  2
*Paper_Space
340
1A
  0
BLOCK_RECORD
  5
6F
330
1
100
AcDbSymbolTableRecord
100
AcDbBlockTableRecord
  2
Einfügepunkt
340
0
102
{BLKREFS
331
6E
102
}
  0
ENDTAB
  0
ENDSEC
  0
SECTION
  2
BLOCKS
  0
BLOCK
  5
5
330
2
100
AcDbEntity
  8
0
100
AcDbBlockBegin
  2
*Model_Space
 70
     0
 10
0.0
 20
0.0
 30
0.0
  3
*Model_Space
  1

  0
ENDBLK
  5
14
330
2
100
AcDbEntity
  8
0
100
AcDbBlockEnd
  0
BLOCK
  5
18
330
17
100
AcDbEntity
 67
     1
  8
0
100
AcDbBlockBegin
  2
*Paper_Space
 70
     0
 10
0.0
 20
0.0
 30
0.0
  3
*Paper_Space
  1

  0
ENDBLK
  5
19
330
17
100
AcDbEntity
 67
     1
  8
0
100
AcDbBlockEnd
  0
BLOCK
  5
70
330
6F
100
AcDbEntity
  8
0
100
AcDbBlockBegin
  2
Einfügepunkt
 70
     0
 10
0.0
 20
0.0
 30
0.0
  3
Einfügepunkt
  1

  0
LINE
  5
71
330
6F
100
AcDbEntity
  8
GEB-BEZUG
100
AcDbLine
 10
-0.7071067811865817
 20
-0.7071067811865106
 30
0.0
 11
0.7071067811864751
 21
0.7071067811865817
 31
0.0
  0
LINE
  5
73
330
6F
100
AcDbEntity
  8
GEB-BEZUG
100
AcDbLine
 10
-0.7071067811865106
 20
0.7071067811865817
 30
0.0
 11
0.7071067811865462
 21
-0.7071067811865106
 31
0.0
  0
ENDBLK
  5
74
330
6F
100
AcDbEntity
  8
0
100
AcDbBlockEnd
  0
ENDSEC
  0
SECTION
  2
ENTITIES
  0
INSERT
  5
6E
330
2
100
AcDbEntity
  8
0
 48
25.0
100
AcDbBlockReference
  2
Einfügepunkt
 10
0.0
 20
0.0
 30
0.0
  0
LINE
  5
75
330
2
100
AcDbEntity
  8
GEB-SYMMETRIE
 48
25.0
100
AcDbLine
 10
-0.0000000000173941
 20
153.6413872081292
 30
0.0
 11
-0.0000000000173941
 21
57.94138720812918
 31
0.0
  0
LINE
  5
79
330
2
100
AcDbEntity
  8
GEB-SYMMETRIE
 48
25.0
100
AcDbLine
 10
47.84999999998251
 20
105.7913872081292
 30
0.0
 11
-47.85000000001741
 21
105.7913872081292
 31
0.0
  0
LINE
  5
7A
330
2
100
AcDbEntity
  8
GEB-SYMMETRIE
 48
25.0
100
AcDbLine
 10
0.0000000000002274
 20
204.7913872081291
 30
0.0
 11
0.0000000000002274
 21
213.2913872081293
 31
0.0
  0
LINE
  5
7B
330
2
100
AcDbEntity
  8
GEB-SYMMETRIE
 48
25.0
100
AcDbLine
 10
0.0
 20
193.5913872081292
 30
0.0
 11
0.0
 21
207.2913872081291
 31
0.0
  0
LINE
  5
7C
330
2
100
AcDbEntity
  8
GEB-SYMMETRIE
 48
25.0
100
AcDbLine
 10
0.0000000000002274
 20
155.2913872081291
 30
0.0
 11
0.0000000000002274
 21
198.5913872081292
 31
0.0
  0
LINE
  5
7D
330
2
100
AcDbEntity
  8
GEB-SYMMETRIE
 48
25.0
100
AcDbLine
 10
0.0000000000002274
 20
-1.708612791870791
 30
0.0
 11
0.0000000000002274
 21
157.5913872081293
 31
0.0
  0
ARC
  5
7E
330
2
100
AcDbEntity
  8
GEB-VERDECKT
 48
25.0
100
AcDbCircle
 10
-0.0000000000162572
 20
105.791387208132
 30
0.0
 40
45.10106054947827
100
AcDbArc
 50
87.11818363881524
 51
92.88181636118476
  0
LINE
  5
81
330
2
100
AcDbEntity
  8
GEB-VERDECKT
 48
25.0
100
AcDbLine
 10
2.267499999983783
 20
149.3807810909436
 30
0.0
 11
-2.267500000016298
 21
149.3807810909436
 31
0.0
  0
LINE
  5
82
330
2
100
AcDbEntity
  8
GEB-VERDECKT
 48
25.0
100
AcDbLine
 10
2.26749999998367
 20
150.835411300543
 30
0.0
 11
2.267499999983783
 21
149.3807810909436
 31
0.0
  0
LINE
  5
83
330
2
100
AcDbEntity
  8
GEB-VERDECKT
 48
25.0
100
AcDbLine
 10
2.267499999987876
 20
148.385023288868
 30
0.0
 11
2.267499999983783
 21
149.3807810909436
 31
0.0
  0
LINE
  5
84
330
2
100
AcDbEntity
  8
GEB-VERDECKT
 48
25.0
100
AcDbLine
 10
-2.267500000011978
 20
148.385023288868
 30
0.0
 11
-2.267500000016298
 21
149.3807810909436
 31
0.0
  0
LINE
  5
85
330
2
100
AcDbEntity
  8
GEB-VERDECKT
 48
25.0
100
AcDbLine
 10
-2.267500000016298
 20
149.3807810909436
 30
0.0
 11
-2.267500000016298
 21
150.835411300543
 31
0.0
  0
LINE
  5
86
330
2
100
AcDbEntity
  8
GEB-VERDECKT
 48
25.0
100
AcDbLine
 10
-2.267500000011978
 20
148.385023288868
 30
0.0
 11
2.267499999987876
 21
148.385023288868
 31
0.0
  0
ARC
  5
87
330
2
100
AcDbEntity
  8
GEB-VERDECKT
 48
25.0
100
AcDbCircle
 10
-0.0000000000154614
 20
105.7913872081251
 30
0.0
 40
45.10106054948523
100
AcDbArc
 50
98.36818363881773
 51
104.1318163611838
  0
LINE
  5
88
330
2
100
AcDbEntity
  8
GEB-VERDECKT
 48
25.0
100
AcDbLine
 10
-10.53353680215548
 20
147.1242312097982
 30
0.0
 11
-6.08567555552679
 21
148.0089658201412
 31
0.0
  0
LINE
  5
89
330
2
100
AcDbEntity
  8
GEB-VERDECKT
 48
25.0
100
AcDbLine
 10
-6.279938265788132
 20
148.9855904152638
 30
0.0
 11
-10.72779951241659
 21
148.1008558049207
 31
0.0
  0
LINE
  5
8A
330
2
100
AcDbEntity
  8
GEB-VERDECKT
 48
25.0
100
AcDbLine
 10
-6.563722541793254
 20
150.4122703132686
 30
0.0
 11
-6.279938265788132
 21
148.9855904152638
 31
0.0
  0
LINE
  5
8B
330
2
100
AcDbEntity
  8
GEB-VERDECKT
 48
25.0
100
AcDbLine
 10
-6.08567555552679
 20
148.0089658201412
 30
0.0
 11
-6.279938265788132
 21
148.9855904152638
 31
0.0
  0
LINE
  5
8C
330
2
100
AcDbEntity
  8
GEB-VERDECKT
 48
25.0
100
AcDbLine
 10
-10.53353680215548
 20
147.1242312097982
 30
0.0
 11
-10.72779951241659
 21
148.1008558049207
 31
0.0
  0
LINE
  5
8D
330
2
100
AcDbEntity
  8
GEB-VERDECKT
 48
25.0
100
AcDbLine
 10
-10.72779951241659
 20
148.1008558049207
 30
0.0
 11
-11.01158378842183
 21
149.5275357029255
 31
0.0
  0
ARC
  5
8E
330
2
100
AcDbEntity
  8
GEB-VERDECKT
 48
25.0
100
AcDbCircle
 10
-0.0000000000145519
 20
105.791387208125
 30
0.0
 40
45.10106054948564
100
AcDbArc
 50
109.6181836388176
 51
115.3818163611813
  0
LINE
  5
8F
330
2
100
AcDbEntity
  8
GEB-VERDECKT
 48
25.0
100
AcDbLine
 10
-18.39477569226813
 20
144.2750411154702
 30
0.0
 11
-14.20498201232942
 21
146.0105104812459
 31
0.0
  0
LINE
  5
90
330
2
100
AcDbEntity
  8
GEB-VERDECKT
 48
25.0
100
AcDbLine
 10
-14.58604202583626
 20
146.9304707339219
 30
0.0
 11
-18.77583570577485
 21
145.1950013681463
 31
0.0
  0
LINE
  5
91
330
2
100
AcDbEntity
  8
GEB-VERDECKT
 48
25.0
100
AcDbLine
 10
-15.14270490726767
 20
148.2743738119434
 30
0.0
 11
-14.58604202583626
 21
146.9304707339219
 31
0.0
  0
LINE
  5
92
330
2
100
AcDbEntity
  8
GEB-VERDECKT
 48
25.0
100
AcDbLine
 10
-14.20498201232942
 20
146.0105104812459
 30
0.0
 11
-14.58604202583626
 21
146.9304707339219
 31
0.0
  0
LINE
  5
93
330
2
100
AcDbEntity
  8
GEB-VERDECKT
 48
25.0
100
AcDbLine
 10
-18.39477569226813
 20
144.2750411154702
 30
0.0
 11
-18.77583570577485
 21
145.1950013681463
 31
0.0
  0
LINE
  5
94
330
2
100
AcDbEntity
  8
GEB-VERDECKT
 48
25.0
100
AcDbLine
 10
-18.77583570577485
 20
145.1950013681463
 30
0.0
 11
-19.33249858720637
 21
146.5389044461677
 31
0.0
  0
ARC
  5
95
330
2
100
AcDbEntity
  8
GEB-VERDECKT
 48
25.0
100
AcDbCircle
 10
-0.0000000000159162
 20
105.7913872081286
 30
0.0
 40
45.1010605494818
100
AcDbArc
 50
120.8681836388187
 51
126.6318163611877
  0
LINE
  5
96
330
2
100
AcDbEntity
  8
GEB-VERDECKT
 48
25.0
100
AcDbLine
 10
-25.54911366843624
 20
139.9469457833648
 30
0.0
 11
-21.77839897664421
 21
142.4664567901088
 31
0.0
  0
LINE
  5
97
330
2
100
AcDbEntity
  8
GEB-VERDECKT
 48
25.0
100
AcDbLine
 10
-22.33161237077866
 20
143.2943991437477
 30
0.0
 11
-26.10232706257079
 21
140.7748881370038
 31
0.0
  0
LINE
  5
98
330
2
100
AcDbEntity
  8
GEB-VERDECKT
 48
25.0
100
AcDbLine
 10
-23.1397616152833
 20
144.5038799601669
 30
0.0
 11
-22.33161237077866
 21
143.2943991437477
 31
0.0
  0
LINE
  5
99
330
2
100
AcDbEntity
  8
GEB-VERDECKT
 48
25.0
100
AcDbLine
 10
-21.77839897664421
 20
142.4664567901088
 30
0.0
 11
-22.33161237077866
 21
143.2943991437477
 31
0.0
  0
LINE
  5
9A
330
2
100
AcDbEntity
  8
GEB-VERDECKT
 48
25.0
100
AcDbLine
 10
-25.54911366843624
 20
139.9469457833648
 30
0.0
 11
-26.10232706257079
 21
140.774888137004
 31
0.0
  0
LINE
  5
9B
330
2
100
AcDbEntity
  8
GEB-VERDECKT
 48
25.0
100
AcDbLine
 10
-26.10232706257079
 20
140.7748881370038
 30
0.0
 11
-26.91047630707521
 21
141.984368953423
 31
0.0
  0
ARC
  5
9C
330
2
100
AcDbEntity
  8
GEB-VERDECKT
 48
25.0
100
AcDbCircle
 10
-0.000000000016712
 20
105.7913872081296
 30
0.0
 40
45.10106054948049
100
AcDbArc
 50
132.1181836388159
 51
137.8818163611841
  0
LINE
  5
9D
330
2
100
AcDbEntity
  8
GEB-VERDECKT
 48
25.0
100
AcDbLine
 10
-31.72161353443494
 20
134.3062714898711
 30
0.0
 11
-28.5148842817539
 21
137.5130007425521
 31
0.0
  0
LINE
  5
9E
330
2
100
AcDbEntity
  8
GEB-VERDECKT
 48
25.0
100
AcDbLine
 10
-29.21899137602532
 20
138.2171078368192
 30
0.0
 11
-32.42572062870636
 21
135.0103785841382
 31
0.0
  0
LINE
  5
9F
330
2
100
AcDbEntity
  8
GEB-VERDECKT
 48
25.0
100
AcDbLine
 10
-30.24757026135183
 20
139.2456867221457
 30
0.0
 11
-29.21899137602532
 21
138.2171078368192
 31
0.0
  0
LINE
  5
A0
330
2
100
AcDbEntity
  8
GEB-VERDECKT
 48
25.0
100
AcDbLine
 10
-28.5148842817539
 20
137.5130007425521
 30
0.0
 11
-29.21899137602532
 21
138.2171078368192
 31
0.0
  0
LINE
  5
A1
330
2
100
AcDbEntity
  8
GEB-VERDECKT
 48
25.0
100
AcDbLine
 10
-31.72161353443494
 20
134.3062714898711
 30
0.0
 11
-32.42572062870636
 21
135.0103785841382
 31
0.0
  0
LINE
  5
A2
330
2
100
AcDbEntity
  8
GEB-VERDECKT
 48
25.0
100
AcDbLine
 10
-32.42572062870636
 20
135.0103785841382
 30
0.0
 11
-33.45429951403287
 21
136.0389574694647
 31
0.0
  0
ARC
  5
A3
330
2
100
AcDbEntity
  8
GEB-VERDECKT
 48
25.0
100
AcDbCircle
 10
-0.0000000000156888
 20
105.7913872081288
 30
0.0
 40
45.10106054948168
100
AcDbArc
 50
143.3681836388123
 51
149.1318163611813
  0
LINE
  5
A4
330
2
100
AcDbEntity
  8
GEB-VERDECKT
 48
25.0
100
AcDbLine
 10
-36.67506958199169
 20
127.5697861847614
 30
0.0
 11
-34.15555857524771
 21
131.3405008765534
 31
0.0
  0
LINE
  5
A5
330
2
100
AcDbEntity
  8
GEB-VERDECKT
 48
25.0
100
AcDbLine
 10
-34.98350092889086
 20
131.8937142706836
 30
0.0
 11
-37.50301193563485
 21
128.1229995788916
 31
0.0
  0
LINE
  5
A6
330
2
100
AcDbEntity
  8
GEB-VERDECKT
 48
25.0
100
AcDbLine
 10
-36.19298174531014
 20
132.7018635151882
 30
0.0
 11
-34.98350092889086
 21
131.8937142706836
 31
0.0
  0
LINE
  5
A7
330
2
100
AcDbEntity
  8
GEB-VERDECKT
 48
25.0
100
AcDbLine
 10
-34.15555857524771
 20
131.3405008765534
 30
0.0
 11
-34.98350092889086
 21
131.8937142706836
 31
0.0
  0
LINE
  5
A8
330
2
100
AcDbEntity
  8
GEB-VERDECKT
 48
25.0
100
AcDbLine
 10
-36.67506958199169
 20
127.5697861847614
 30
0.0
 11
-37.50301193563485
 21
128.1229995788916
 31
0.0
  0
LINE
  5
A9
330
2
100
AcDbEntity
  8
GEB-VERDECKT
 48
25.0
100
AcDbLine
 10
-37.50301193563485
 20
128.1229995788916
 30
0.0
 11
-38.71249275205412
 21
128.9311488233961
 31
0.0
  0
ARC
  5
AA
330
2
100
AcDbEntity
  8
GEB-VERDECKT
 48
25.0
100
AcDbCircle
 10
-0.0000000000181899
 20
105.79138720813
 30
0.0
 40
45.10106054947901
100
AcDbArc
 50
154.6181836388186
 51
160.3818163611824
  0
LINE
  5
AB
330
2
100
AcDbEntity
  8
GEB-VERDECKT
 48
25.0
100
AcDbLine
 10
-40.21912327312873
 20
119.9963692204466
 30
0.0
 11
-38.48365390735308
 21
124.1861629003853
 31
0.0
  0
LINE
  5
AC
330
2
100
AcDbEntity
  8
GEB-VERDECKT
 48
25.0
100
AcDbLine
 10
-39.40361416003339
 20
124.5672229138878
 30
0.0
 11
-41.13908352580904
 21
120.3774292339491
 31
0.0
  0
LINE
  5
AD
330
2
100
AcDbEntity
  8
GEB-VERDECKT
 48
25.0
100
AcDbLine
 10
-40.74751723805479
 20
125.1238857953193
 30
0.0
 11
-39.40361416003339
 21
124.5672229138878
 31
0.0
  0
LINE
  5
AE
330
2
100
AcDbEntity
  8
GEB-VERDECKT
 48
25.0
100
AcDbLine
 10
-38.48365390735308
 20
124.1861629003853
 30
0.0
 11
-39.40361416003339
 21
124.5672229138878
 31
0.0
  0
LINE
  5
AF
330
2
100
AcDbEntity
  8
GEB-VERDECKT
 48
25.0
100
AcDbLine
 10
-40.21912327312873
 20
119.9963692204466
 30
0.0
 11
-41.13908352580904
 21
120.3774292339491
 31
0.0
  0
LINE
  5
B0
330
2
100
AcDbEntity
  8
GEB-VERDECKT
 48
25.0
100
AcDbLine
 10
-41.13908352580904
 20
120.3774292339491
 30
0.0
 11
-42.48298660383056
 21
120.9340921153806
 31
0.0
  0
ARC
  5
B1
330
2
100
AcDbEntity
  8
GEB-VERDECKT
 48
25.0
100
AcDbCircle
 10
-0.0000000000161435
 20
105.7913872081292
 30
0.0
 40
45.10106054948126
100
AcDbArc
 50
165.8681836388161
 51
171.6318163611822
  0
LINE
  5
B2
330
2
100
AcDbEntity
  8
GEB-VERDECKT
 48
25.0
100
AcDbLine
 10
-42.21757861202411
 20
111.8770627636439
 30
0.0
 11
-41.332844001681
 21
116.3249240102726
 31
0.0
  0
LINE
  5
B3
330
2
100
AcDbEntity
  8
GEB-VERDECKT
 48
25.0
100
AcDbLine
 10
-42.30946859680762
 20
116.5191867205295
 30
0.0
 11
-43.19420320715084
 21
112.0713254739011
 31
0.0
  0
LINE
  5
B4
330
2
100
AcDbEntity
  8
GEB-VERDECKT
 48
25.0
100
AcDbLine
 10
-43.73614849481259
 20
116.8029709965348
 30
0.0
 11
-42.30946859680762
 21
116.5191867205295
 31
0.0
  0
LINE
  5
B5
330
2
100
AcDbEntity
  8
GEB-VERDECKT
 48
25.0
100
AcDbLine
 10
-41.332844001681
 20
116.3249240102726
 30
0.0
 11
-42.30946859680762
 21
116.5191867205297
 31
0.0
  0
LINE
  5
B6
330
2
100
AcDbEntity
  8
GEB-VERDECKT
 48
25.0
100
AcDbLine
 10
-42.21757861202411
 20
111.8770627636439
 30
0.0
 11
-43.19420320715084
 21
112.0713254739011
 31
0.0
  0
LINE
  5
B7
330
2
100
AcDbEntity
  8
GEB-VERDECKT
 48
25.0
100
AcDbLine
 10
-43.19420320715084
 20
112.0713254739011
 30
0.0
 11
-44.62088310515582
 21
112.3551097499062
 31
0.0
  0
ARC
  5
B8
330
2
100
AcDbEntity
  8
GEB-VERDECKT
 48
25.0
100
AcDbCircle
 10
-0.0000000000189857
 20
105.7913872081292
 30
0.0
 40
45.10106054947832
100
AcDbArc
 50
177.1181836388152
 51
182.8818163611847
  0
LINE
  5
B9
330
2
100
AcDbEntity
  8
GEB-VERDECKT
 48
25.0
100
AcDbLine
 10
-42.59363608075091
 20
103.5238872081293
 30
0.0
 11
-42.59363608075091
 21
108.0588872081291
 31
0.0
  0
LINE
  5
BA
330
2
100
AcDbEntity
  8
GEB-VERDECKT
 48
25.0
100
AcDbLine
 10
-43.58939388283068
 20
108.0588872081291
 30
0.0
 11
-43.58939388283068
 21
103.5238872081293
 31
0.0
  0
LINE
  5
BB
330
2
100
AcDbEntity
  8
GEB-VERDECKT
 48
25.0
100
AcDbLine
 10
-45.04402409243005
 20
108.0588872081291
 30
0.0
 11
-43.58939388283068
 21
108.0588872081291
 31
0.0
  0
LINE
  5
BC
330
2
100
AcDbEntity
  8
GEB-VERDECKT
 48
25.0
100
AcDbLine
 10
-42.59363608075091
 20
108.0588872081291
 30
0.0
 11
-43.58939388283068
 21
108.0588872081291
 31
0.0
  0
LINE
  5
BD
330
2
100
AcDbEntity
  8
GEB-VERDECKT
 48
25.0
100
AcDbLine
 10
-42.59363608075091
 20
103.5238872081293
 30
0.0
 11
-43.58939388283068
 21
103.5238872081293
 31
0.0
  0
LINE
  5
BE
330
2
100
AcDbEntity
  8
GEB-VERDECKT
 48
25.0
100
AcDbLine
 10
-43.58939388283068
 20
103.5238872081293
 30
0.0
 11
-45.04402409243005
 21
103.5238872081293
 31
0.0
  0
ARC
  5
BF
330
2
100
AcDbEntity
  8
GEB-VERDECKT
 48
25.0
100
AcDbCircle
 10
-0.0000000000138698
 20
105.7913872081296
 30
0.0
 40
45.10106054948348
100
AcDbArc
 50
188.3681836388177
 51
194.1318163611839
  0
LINE
  5
C0
330
2
100
AcDbEntity
  8
GEB-VERDECKT
 48
25.0
100
AcDbLine
 10
-41.332844001681
 20
95.25785040598577
 30
0.0
 11
-42.21757861202411
 21
99.70571165261446
 31
0.0
  0
LINE
  5
C1
330
2
100
AcDbEntity
  8
GEB-VERDECKT
 48
25.0
100
AcDbLine
 10
-43.19420320715084
 20
99.51144894235733
 30
0.0
 11
-42.30946859680762
 21
95.06358769572864
 31
0.0
  0
LINE
  5
C2
330
2
100
AcDbEntity
  8
GEB-VERDECKT
 48
25.0
100
AcDbLine
 10
-44.62088310515582
 20
99.22766466635222
 30
0.0
 11
-43.19420320715084
 21
99.51144894235733
 31
0.0
  0
LINE
  5
C3
330
2
100
AcDbEntity
  8
GEB-VERDECKT
 48
25.0
100
AcDbLine
 10
-42.21757861202411
 20
99.70571165261446
 30
0.0
 11
-43.19420320715084
 21
99.51144894235733
 31
0.0
  0
LINE
  5
C4
330
2
100
AcDbEntity
  8
GEB-VERDECKT
 48
25.0
100
AcDbLine
 10
-41.332844001681
 20
95.25785040598577
 30
0.0
 11
-42.30946859680762
 21
95.06358769572864
 31
0.0
  0
LINE
  5
C5
330
2
100
AcDbEntity
  8
GEB-VERDECKT
 48
25.0
100
AcDbLine
 10
-42.30946859680762
 20
95.06358769572864
 30
0.0
 11
-43.73614849481259
 21
94.77980341972363
 31
0.0
  0
ARC
  5
C6
330
2
100
AcDbEntity
  8
GEB-VERDECKT
 48
25.0
100
AcDbCircle
 10
-0.0000000000165983
 20
105.7913872081291
 30
0.0
 40
45.10106054948068
100
AcDbArc
 50
199.6181836388176
 51
205.3818163611814
  0
LINE
  5
C7
330
2
100
AcDbEntity
  8
GEB-VERDECKT
 48
25.0
100
AcDbLine
 10
-38.48365390735308
 20
87.39661151587313
 30
0.0
 11
-40.21912327312873
 21
91.58640519581183
 31
0.0
  0
LINE
  5
C8
330
2
100
AcDbEntity
  8
GEB-VERDECKT
 48
25.0
100
AcDbLine
 10
-41.13908352580904
 20
91.20534518230931
 30
0.0
 11
-39.40361416003339
 21
87.0155515023706
 31
0.0
  0
LINE
  5
C9
330
2
100
AcDbEntity
  8
GEB-VERDECKT
 48
25.0
100
AcDbLine
 10
-42.48298660383056
 20
90.6486823008778
 30
0.0
 11
-41.13908352580904
 21
91.20534518230931
 31
0.0
  0
LINE
  5
CA
330
2
100
AcDbEntity
  8
GEB-VERDECKT
 48
25.0
100
AcDbLine
 10
-40.21912327312873
 20
91.58640519581183
 30
0.0
 11
-41.13908352580904
 21
91.20534518230931
 31
0.0
  0
LINE
  5
CB
330
2
100
AcDbEntity
  8
GEB-VERDECKT
 48
25.0
100
AcDbLine
 10
-38.48365390735308
 20
87.39661151587313
 30
0.0
 11
-39.40361416003339
 21
87.0155515023706
 31
0.0
  0
LINE
  5
CC
330
2
100
AcDbEntity
  8
GEB-VERDECKT
 48
25.0
100
AcDbLine
 10
-39.40361416003339
 20
87.0155515023706
 30
0.0
 11
-40.74751723805479
 21
86.4588886209391
 31
0.0
  0
ARC
  5
CD
330
2
100
AcDbEntity
  8
GEB-VERDECKT
 48
25.0
100
AcDbCircle
 10
-0.0000000000147793
 20
105.7913872081302
 30
0.0
 40
45.10106054948296
100
AcDbArc
 50
210.8681836388187
 51
216.6318163611877
  0
LINE
  5
CE
330
2
100
AcDbEntity
  8
GEB-VERDECKT
 48
25.0
100
AcDbLine
 10
-34.15555857524771
 20
80.24227353970502
 30
0.0
 11
-36.67506958199169
 21
84.01298823149705
 31
0.0
  0
LINE
  5
CF
330
2
100
AcDbEntity
  8
GEB-VERDECKT
 48
25.0
100
AcDbLine
 10
-37.50301193563485
 20
83.4597748373668
 30
0.0
 11
-34.98350092889086
 21
79.68906014557479
 31
0.0
  0
LINE
  5
D0
330
2
100
AcDbEntity
  8
GEB-VERDECKT
 48
25.0
100
AcDbLine
 10
-38.71249275205412
 20
82.65162559286228
 30
0.0
 11
-37.50301193563485
 21
83.4597748373668
 31
0.0
  0
LINE
  5
D1
330
2
100
AcDbEntity
  8
GEB-VERDECKT
 48
25.0
100
AcDbLine
 10
-36.67506958199169
 20
84.01298823149705
 30
0.0
 11
-37.50301193563485
 21
83.4597748373668
 31
0.0
  0
LINE
  5
D2
330
2
100
AcDbEntity
  8
GEB-VERDECKT
 48
25.0
100
AcDbLine
 10
-34.15555857524771
 20
80.24227353970502
 30
0.0
 11
-34.98350092889086
 21
79.68906014557479
 31
0.0
  0
LINE
  5
D3
330
2
100
AcDbEntity
  8
GEB-VERDECKT
 48
25.0
100
AcDbLine
 10
-34.98350092889086
 20
79.68906014557479
 30
0.0
 11
-36.19298174531014
 21
78.88091090107025
 31
0.0
  0
ARC
  5
D4
330
2
100
AcDbEntity
  8
GEB-VERDECKT
 48
25.0
100
AcDbCircle
 10
-0.0000000000163709
 20
105.7913872081291
 30
0.0
 40
45.10106054948081
100
AcDbArc
 50
222.1181836388159
 51
227.8818163611841
  0
LINE
  5
D5
330
2
100
AcDbEntity
  8
GEB-VERDECKT
 48
25.0
100
AcDbLine
 10
-28.5148842817539
 20
74.06977367370632
 30
0.0
 11
-31.72161353443494
 21
77.27650292638725
 31
0.0
  0
LINE
  5
D6
330
2
100
AcDbEntity
  8
GEB-VERDECKT
 48
25.0
100
AcDbLine
 10
-32.42572062870636
 20
76.57239583212015
 30
0.0
 11
-29.21899137602532
 21
73.36566657943922
 31
0.0
  0
LINE
  5
D7
330
2
100
AcDbEntity
  8
GEB-VERDECKT
 48
25.0
100
AcDbLine
 10
-33.45429951403287
 20
75.54381694679364
 30
0.0
 11
-32.42572062870636
 21
76.57239583212015
 31
0.0
  0
LINE
  5
D8
330
2
100
AcDbEntity
  8
GEB-VERDECKT
 48
25.0
100
AcDbLine
 10
-31.72161353443494
 20
77.27650292638725
 30
0.0
 11
-32.42572062870636
 21
76.57239583212015
 31
0.0
  0
LINE
  5
D9
330
2
100
AcDbEntity
  8
GEB-VERDECKT
 48
25.0
100
AcDbLine
 10
-28.5148842817539
 20
74.06977367370632
 30
0.0
 11
-29.21899137602532
 21
73.36566657943922
 31
0.0
  0
LINE
  5
DA
330
2
100
AcDbEntity
  8
GEB-VERDECKT
 48
25.0
100
AcDbLine
 10
-29.21899137602532
 20
73.36566657943922
 30
0.0
 11
-30.24757026135183
 21
72.33708769411271
 31
0.0
  0
ARC
  5
DB
330
2
100
AcDbEntity
  8
GEB-VERDECKT
 48
25.0
100
AcDbCircle
 10
-0.0000000000165983
 20
105.7913872081287
 30
0.0
 40
45.10106054948058
100
AcDbArc
 50
233.3681836388123
 51
239.1318163611813
  0
LINE
  5
DC
330
2
100
AcDbEntity
  8
GEB-VERDECKT
 48
25.0
100
AcDbLine
 10
-21.77839897664421
 20
69.11631762614956
 30
0.0
 11
-25.54911366843624
 21
71.63582863289355
 31
0.0
  0
LINE
  5
DD
330
2
100
AcDbEntity
  8
GEB-VERDECKT
 48
25.0
100
AcDbLine
 10
-26.10232706257079
 20
70.80788627925437
 30
0.0
 11
-22.33161237077866
 21
68.2883752725105
 31
0.0
  0
LINE
  5
DE
330
2
100
AcDbEntity
  8
GEB-VERDECKT
 48
25.0
100
AcDbLine
 10
-26.91047630707521
 20
69.59840546283533
 30
0.0
 11
-26.10232706257079
 21
70.80788627925437
 31
0.0
  0
LINE
  5
DF
330
2
100
AcDbEntity
  8
GEB-VERDECKT
 48
25.0
100
AcDbLine
 10
-25.54911366843624
 20
71.63582863289355
 30
0.0
 11
-26.10232706257079
 21
70.80788627925437
 31
0.0
  0
LINE
  5
E0
330
2
100
AcDbEntity
  8
GEB-VERDECKT
 48
25.0
100
AcDbLine
 10
-21.77839897664421
 20
69.11631762614956
 30
0.0
 11
-22.33161237077866
 21
68.2883752725105
 31
0.0
  0
LINE
  5
E1
330
2
100
AcDbEntity
  8
GEB-VERDECKT
 48
25.0
100
AcDbLine
 10
-22.33161237077866
 20
68.2883752725105
 30
0.0
 11
-23.1397616152833
 21
67.07889445609146
 31
0.0
  0
ARC
  5
E2
330
2
100
AcDbEntity
  8
GEB-VERDECKT
 48
25.0
100
AcDbCircle
 10
-0.0000000000145519
 20
105.7913872081332
 30
0.0
 40
45.10106054948542
100
AcDbArc
 50
244.6181836388186
 51
250.3818163611824
  0
LINE
  5
E3
330
2
100
AcDbEntity
  8
GEB-VERDECKT
 48
25.0
100
AcDbLine
 10
-14.20498201232942
 20
65.57226393501252
 30
0.0
 11
-18.39477569226813
 21
67.30773330078818
 31
0.0
  0
LINE
  5
E4
330
2
100
AcDbEntity
  8
GEB-VERDECKT
 48
25.0
100
AcDbLine
 10
-18.77583570577496
 20
66.38777304811208
 30
0.0
 11
-14.58604202583626
 21
64.65230368233631
 31
0.0
  0
LINE
  5
E5
330
2
100
AcDbEntity
  8
GEB-VERDECKT
 48
25.0
100
AcDbLine
 10
-19.33249858720637
 20
65.04386997009044
 30
0.0
 11
-18.77583570577496
 21
66.38777304811208
 31
0.0
  0
LINE
  5
E6
330
2
100
AcDbEntity
  8
GEB-VERDECKT
 48
25.0
100
AcDbLine
 10
-18.39477569226813
 20
67.30773330078818
 30
0.0
 11
-18.77583570577496
 21
66.38777304811208
 31
0.0
  0
LINE
  5
E7
330
2
100
AcDbEntity
  8
GEB-VERDECKT
 48
25.0
100
AcDbLine
 10
-14.20498201232942
 20
65.57226393501252
 30
0.0
 11
-14.58604202583626
 21
64.65230368233654
 31
0.0
  0
LINE
  5
E8
330
2
100
AcDbEntity
  8
GEB-VERDECKT
 48
25.0
100
AcDbLine
 10
-14.58604202583626
 20
64.65230368233631
 30
0.0
 11
-15.14270490726767
 21
63.3084006043149
 31
0.0
  0
ARC
  5
E9
330
2
100
AcDbEntity
  8
GEB-VERDECKT
 48
25.0
100
AcDbCircle
 10
-0.0000000000154614
 20
105.7913872081332
 30
0.0
 40
45.10106054948514
100
AcDbArc
 50
255.8681836388161
 51
261.6318163611823
  0
LINE
  5
EA
330
2
100
AcDbEntity
  8
GEB-VERDECKT
 48
25.0
100
AcDbLine
 10
-6.08567555552679
 20
63.57380859611715
 30
0.0
 11
-10.53353680215548
 21
64.45854320646015
 31
0.0
  0
LINE
  5
EB
330
2
100
AcDbEntity
  8
GEB-VERDECKT
 48
25.0
100
AcDbLine
 10
-10.72779951241659
 20
63.48191861133773
 30
0.0
 11
-6.279938265788132
 21
62.59718400099462
 31
0.0
  0
LINE
  5
EC
330
2
100
AcDbEntity
  8
GEB-VERDECKT
 48
25.0
100
AcDbLine
 10
-11.01158378842183
 20
62.05523871333264
 30
0.0
 11
-10.72779951241659
 21
63.48191861133773
 31
0.0
  0
LINE
  5
ED
330
2
100
AcDbEntity
  8
GEB-VERDECKT
 48
25.0
100
AcDbLine
 10
-10.53353680215548
 20
64.45854320646015
 30
0.0
 11
-10.72779951241659
 21
63.48191861133773
 31
0.0
  0
LINE
  5
EE
330
2
100
AcDbEntity
  8
GEB-VERDECKT
 48
25.0
100
AcDbLine
 10
-6.08567555552679
 20
63.57380859611715
 30
0.0
 11
-6.279938265788132
 21
62.59718400099462
 31
0.0
  0
LINE
  5
EF
330
2
100
AcDbEntity
  8
GEB-VERDECKT
 48
25.0
100
AcDbLine
 10
-6.279938265788132
 20
62.59718400099462
 30
0.0
 11
-6.563722541793254
 21
61.17050410298964
 31
0.0
  0
ARC
  5
F0
330
2
100
AcDbEntity
  8
GEB-VERDECKT
 48
25.0
100
AcDbCircle
 10
-0.0000000000162572
 20
105.7913872081262
 30
0.0
 40
45.10106054947812
100
AcDbArc
 50
267.1181836388152
 51
272.8818163611848
  0
LINE
  5
F1
330
2
100
AcDbEntity
  8
GEB-VERDECKT
 48
25.0
100
AcDbLine
 10
2.267499999987876
 20
63.19775112739034
 30
0.0
 11
-2.267500000011978
 21
63.19775112739034
 31
0.0
  0
LINE
  5
F2
330
2
100
AcDbEntity
  8
GEB-VERDECKT
 48
25.0
100
AcDbLine
 10
-2.267500000016298
 20
62.20199332531478
 30
0.0
 11
2.267499999983783
 21
62.20199332531478
 31
0.0
  0
LINE
  5
F3
330
2
100
AcDbEntity
  8
GEB-VERDECKT
 48
25.0
100
AcDbLine
 10
-2.267500000016298
 20
60.7473631157153
 30
0.0
 11
-2.267500000016298
 21
62.20199332531478
 31
0.0
  0
LINE
  5
F4
330
2
100
AcDbEntity
  8
GEB-VERDECKT
 48
25.0
100
AcDbLine
 10
-2.267500000011978
 20
63.19775112739034
 30
0.0
 11
-2.267500000016298
 21
62.20199332531478
 31
0.0
  0
LINE
  5
F5
330
2
100
AcDbEntity
  8
GEB-VERDECKT
 48
25.0
100
AcDbLine
 10
2.267499999987876
 20
63.19775112739034
 30
0.0
 11
2.267499999983783
 21
62.20199332531478
 31
0.0
  0
LINE
  5
F6
330
2
100
AcDbEntity
  8
GEB-VERDECKT
 48
25.0
100
AcDbLine
 10
2.267499999983783
 20
62.20199332531478
 30
0.0
 11
2.26749999998367
 21
60.7473631157153
 31
0.0
  0
ARC
  5
F7
330
2
100
AcDbEntity
  8
GEB-VERDECKT
 48
25.0
100
AcDbCircle
 10
-0.0000000000162572
 20
105.7913872081291
 30
0.0
 40
45.1010605494809
100
AcDbArc
 50
278.3681836388177
 51
284.1318163611839
  0
LINE
  5
F8
330
2
100
AcDbEntity
  8
GEB-VERDECKT
 48
25.0
100
AcDbLine
 10
10.53353680213138
 20
64.45854320646015
 30
0.0
 11
6.085675555502689
 21
63.57380859611715
 31
0.0
  0
LINE
  5
F9
330
2
100
AcDbEntity
  8
GEB-VERDECKT
 48
25.0
100
AcDbLine
 10
6.279938265755504
 20
62.59718400099462
 30
0.0
 11
10.72779951238419
 21
63.48191861133773
 31
0.0
  0
LINE
  5
FA
330
2
100
AcDbEntity
  8
GEB-VERDECKT
 48
25.0
100
AcDbLine
 10
6.563722541760625
 20
61.17050410298964
 30
0.0
 11
6.279938265755504
 21
62.59718400099462
 31
0.0
  0
LINE
  5
FB
330
2
100
AcDbEntity
  8
GEB-VERDECKT
 48
25.0
100
AcDbLine
 10
6.085675555502689
 20
63.57380859611715
 30
0.0
 11
6.279938265755504
 21
62.59718400099462
 31
0.0
  0
LINE
  5
FC
330
2
100
AcDbEntity
  8
GEB-VERDECKT
 48
25.0
100
AcDbLine
 10
10.53353680213138
 20
64.45854320646015
 30
0.0
 11
10.72779951238419
 21
63.48191861133773
 31
0.0
  0
LINE
  5
FD
330
2
100
AcDbEntity
  8
GEB-VERDECKT
 48
25.0
100
AcDbLine
 10
10.72779951238419
 20
63.48191861133773
 30
0.0
 11
11.01158378838931
 21
62.05523871333264
 31
0.0
  0
ARC
  5
FE
330
2
100
AcDbEntity
  8
GEB-VERDECKT
 48
25.0
100
AcDbCircle
 10
-0.000000000017053
 20
105.7913872081311
 30
0.0
 40
45.10106054948326
100
AcDbArc
 50
289.6181836388115
 51
295.3818163611813
  0
LINE
  5
FF
330
2
100
AcDbEntity
  8
GEB-VERDECKT
 48
25.0
100
AcDbLine
 10
18.39477569224402
 20
67.30773330078818
 30
0.0
 11
14.20498201230532
 21
65.57226393501252
 31
0.0
  0
LINE
  5
100
330
2
100
AcDbEntity
  8
GEB-VERDECKT
 48
25.0
100
AcDbLine
 10
14.58604202580363
 20
64.65230368233631
 30
0.0
 11
18.77583570574234
 21
66.38777304811208
 31
0.0
  0
LINE
  5
101
330
2
100
AcDbEntity
  8
GEB-VERDECKT
 48
25.0
100
AcDbLine
 10
15.14270490723516
 20
63.3084006043149
 30
0.0
 11
14.58604202580363
 21
64.65230368233631
 31
0.0
  0
LINE
  5
102
330
2
100
AcDbEntity
  8
GEB-VERDECKT
 48
25.0
100
AcDbLine
 10
14.20498201230532
 20
65.57226393501252
 30
0.0
 11
14.58604202580363
 21
64.65230368233654
 31
0.0
  0
LINE
  5
103
330
2
100
AcDbEntity
  8
GEB-VERDECKT
 48
25.0
100
AcDbLine
 10
18.39477569224402
 20
67.30773330078818
 30
0.0
 11
18.77583570574234
 21
66.38777304811208
 31
0.0
  0
LINE
  5
104
330
2
100
AcDbEntity
  8
GEB-VERDECKT
 48
25.0
100
AcDbLine
 10
18.77583570574234
 20
66.38777304811208
 30
0.0
 11
19.33249858717386
 21
65.04386997009044
 31
0.0
  0
ARC
  5
105
330
2
100
AcDbEntity
  8
GEB-VERDECKT
 48
25.0
100
AcDbCircle
 10
-0.0000000000147793
 20
105.791387208127
 30
0.0
 40
45.10106054947854
100
AcDbArc
 50
300.8681836388187
 51
306.6318163611877
  0
LINE
  5
106
330
2
100
AcDbEntity
  8
GEB-VERDECKT
 48
25.0
100
AcDbLine
 10
25.54911366841214
 20
71.63582863289355
 30
0.0
 11
21.77839897662011
 21
69.11631762614956
 31
0.0
  0
LINE
  5
107
330
2
100
AcDbEntity
  8
GEB-VERDECKT
 48
25.0
100
AcDbLine
 10
22.33161237074615
 20
68.2883752725105
 30
0.0
 11
26.10232706253817
 21
70.80788627925437
 31
0.0
  0
LINE
  5
108
330
2
100
AcDbEntity
  8
GEB-VERDECKT
 48
25.0
100
AcDbLine
 10
23.13976161525068
 20
67.07889445609146
 30
0.0
 11
22.33161237074615
 21
68.2883752725105
 31
0.0
  0
LINE
  5
109
330
2
100
AcDbEntity
  8
GEB-VERDECKT
 48
25.0
100
AcDbLine
 10
21.77839897662011
 20
69.11631762614956
 30
0.0
 11
22.33161237074615
 21
68.2883752725105
 31
0.0
  0
LINE
  5
10A
330
2
100
AcDbEntity
  8
GEB-VERDECKT
 48
25.0
100
AcDbLine
 10
25.54911366841214
 20
71.63582863289355
 30
0.0
 11
26.10232706253817
 21
70.80788627925437
 31
0.0
  0
LINE
  5
10B
330
2
100
AcDbEntity
  8
GEB-VERDECKT
 48
25.0
100
AcDbLine
 10
26.10232706253817
 20
70.80788627925437
 30
0.0
 11
26.9104763070427
 21
69.59840546283533
 31
0.0
  0
ARC
  5
10C
330
2
100
AcDbEntity
  8
GEB-VERDECKT
 48
25.0
100
AcDbCircle
 10
-0.0000000000159162
 20
105.7913872081287
 30
0.0
 40
45.10106054948049
100
AcDbArc
 50
312.1181836388159
 51
317.8818163611841
  0
LINE
  5
10D
330
2
100
AcDbEntity
  8
GEB-VERDECKT
 48
25.0
100
AcDbLine
 10
31.72161353441083
 20
77.27650292638725
 30
0.0
 11
28.51488428172991
 21
74.06977367370632
 31
0.0
  0
LINE
  5
10E
330
2
100
AcDbEntity
  8
GEB-VERDECKT
 48
25.0
100
AcDbLine
 10
29.2189913759928
 20
73.36566657943922
 30
0.0
 11
32.42572062867373
 21
76.57239583212015
 31
0.0
  0
LINE
  5
10F
330
2
100
AcDbEntity
  8
GEB-VERDECKT
 48
25.0
100
AcDbLine
 10
30.24757026131931
 20
72.33708769411271
 30
0.0
 11
29.2189913759928
 21
73.36566657943922
 31
0.0
  0
LINE
  5
110
330
2
100
AcDbEntity
  8
GEB-VERDECKT
 48
25.0
100
AcDbLine
 10
28.51488428172991
 20
74.06977367370632
 30
0.0
 11
29.2189913759928
 21
73.36566657943922
 31
0.0
  0
LINE
  5
111
330
2
100
AcDbEntity
  8
GEB-VERDECKT
 48
25.0
100
AcDbLine
 10
31.72161353441083
 20
77.27650292638725
 30
0.0
 11
32.42572062867373
 21
76.57239583212015
 31
0.0
  0
LINE
  5
112
330
2
100
AcDbEntity
  8
GEB-VERDECKT
 48
25.0
100
AcDbLine
 10
32.42572062867373
 20
76.57239583212015
 30
0.0
 11
33.45429951400024
 21
75.54381694679364
 31
0.0
  0
ARC
  5
113
330
2
100
AcDbEntity
  8
GEB-VERDECKT
 48
25.0
100
AcDbCircle
 10
-0.0000000000183036
 20
105.7913872081307
 30
0.0
 40
45.1010605494836
100
AcDbArc
 50
323.3681836388123
 51
329.1318163611813
  0
LINE
  5
114
330
2
100
AcDbEntity
  8
GEB-VERDECKT
 48
25.0
100
AcDbLine
 10
36.67506958196759
 20
84.01298823149705
 30
0.0
 11
34.15555857522373
 21
80.24227353970502
 31
0.0
  0
LINE
  5
115
330
2
100
AcDbEntity
  8
GEB-VERDECKT
 48
25.0
100
AcDbLine
 10
34.98350092885846
 20
79.68906014557479
 30
0.0
 11
37.50301193560245
 21
83.4597748373668
 31
0.0
  0
LINE
  5
116
330
2
100
AcDbEntity
  8
GEB-VERDECKT
 48
25.0
100
AcDbLine
 10
36.19298174527762
 20
78.88091090107025
 30
0.0
 11
34.98350092885846
 21
79.68906014557479
 31
0.0
  0
LINE
  5
117
330
2
100
AcDbEntity
  8
GEB-VERDECKT
 48
25.0
100
AcDbLine
 10
34.15555857522373
 20
80.24227353970502
 30
0.0
 11
34.98350092885846
 21
79.68906014557479
 31
0.0
  0
LINE
  5
118
330
2
100
AcDbEntity
  8
GEB-VERDECKT
 48
25.0
100
AcDbLine
 10
36.67506958196759
 20
84.01298823149705
 30
0.0
 11
37.50301193560245
 21
83.4597748373668
 31
0.0
  0
LINE
  5
119
330
2
100
AcDbEntity
  8
GEB-VERDECKT
 48
25.0
100
AcDbLine
 10
37.50301193560245
 20
83.4597748373668
 30
0.0
 11
38.71249275202149
 21
82.65162559286228
 31
0.0
  0
ARC
  5
11A
330
2
100
AcDbEntity
  8
GEB-VERDECKT
 48
25.0
100
AcDbCircle
 10
-0.0000000000162572
 20
105.7913872081292
 30
0.0
 40
45.1010605494812
100
AcDbArc
 50
334.6181836388187
 51
340.3818163611824
  0
LINE
  5
11B
330
2
100
AcDbEntity
  8
GEB-VERDECKT
 48
25.0
100
AcDbLine
 10
40.21912327310462
 20
91.58640519581183
 30
0.0
 11
38.48365390732897
 21
87.39661151587313
 31
0.0
  0
LINE
  5
11C
330
2
100
AcDbEntity
  8
GEB-VERDECKT
 48
25.0
100
AcDbLine
 10
39.40361416000076
 20
87.0155515023706
 30
0.0
 11
41.13908352577664
 21
91.20534518230931
 31
0.0
  0
LINE
  5
11D
330
2
100
AcDbEntity
  8
GEB-VERDECKT
 48
25.0
100
AcDbLine
 10
40.74751723802239
 20
86.4588886209391
 30
0.0
 11
39.40361416000076
 21
87.0155515023706
 31
0.0
  0
LINE
  5
11E
330
2
100
AcDbEntity
  8
GEB-VERDECKT
 48
25.0
100
AcDbLine
 10
38.48365390732897
 20
87.39661151587313
 30
0.0
 11
39.40361416000076
 21
87.0155515023706
 31
0.0
  0
LINE
  5
11F
330
2
100
AcDbEntity
  8
GEB-VERDECKT
 48
25.0
100
AcDbLine
 10
40.21912327310462
 20
91.58640519581183
 30
0.0
 11
41.13908352577664
 21
91.20534518230931
 31
0.0
  0
LINE
  5
120
330
2
100
AcDbEntity
  8
GEB-VERDECKT
 48
25.0
100
AcDbLine
 10
41.13908352577664
 20
91.20534518230931
 30
0.0
 11
42.48298660379805
 21
90.6486823008778
 31
0.0
  0
ARC
  5
121
330
2
100
AcDbEntity
  8
GEB-VERDECKT
 48
25.0
100
AcDbCircle
 10
-0.0000000000195541
 20
105.7913872081299
 30
0.0
 40
45.10106054948444
100
AcDbArc
 50
345.8681836388161
 51
351.6318163611823
  0
LINE
  5
122
330
2
100
AcDbEntity
  8
GEB-VERDECKT
 48
25.0
100
AcDbLine
 10
42.21757861200012
 20
99.70571165261446
 30
0.0
 11
41.33284400165701
 21
95.25785040598577
 31
0.0
  0
LINE
  5
123
330
2
100
AcDbEntity
  8
GEB-VERDECKT
 48
25.0
100
AcDbLine
 10
42.30946859677522
 20
95.06358769572864
 30
0.0
 11
43.19420320711834
 21
99.51144894235733
 31
0.0
  0
LINE
  5
124
330
2
100
AcDbEntity
  8
GEB-VERDECKT
 48
25.0
100
AcDbLine
 10
43.73614849478019
 20
94.77980341972353
 30
0.0
 11
42.30946859677522
 21
95.06358769572864
 31
0.0
  0
LINE
  5
125
330
2
100
AcDbEntity
  8
GEB-VERDECKT
 48
25.0
100
AcDbLine
 10
41.33284400165701
 20
95.25785040598577
 30
0.0
 11
42.30946859677522
 21
95.06358769572864
 31
0.0
  0
LINE
  5
126
330
2
100
AcDbEntity
  8
GEB-VERDECKT
 48
25.0
100
AcDbLine
 10
42.21757861200012
 20
99.70571165261446
 30
0.0
 11
43.19420320711834
 21
99.51144894235733
 31
0.0
  0
LINE
  5
127
330
2
100
AcDbEntity
  8
GEB-VERDECKT
 48
25.0
100
AcDbLine
 10
43.19420320711834
 20
99.51144894235733
 30
0.0
 11
44.62088310512331
 21
99.22766466635222
 31
0.0
  0
ARC
  5
128
330
2
100
AcDbEntity
  8
GEB-VERDECKT
 48
25.0
100
AcDbCircle
 10
-0.000000000013415
 20
105.7913872081292
 30
0.0
 40
45.10106054947832
100
AcDbArc
 50
357.1181836388152
 51
2.881816361184762
  0
LINE
  5
129
330
2
100
AcDbEntity
  8
GEB-VERDECKT
 48
25.0
100
AcDbLine
 10
42.59363608072681
 20
108.0588872081291
 30
0.0
 11
42.59363608072681
 21
103.5238872081293
 31
0.0
  0
LINE
  5
12A
330
2
100
AcDbEntity
  8
GEB-VERDECKT
 48
25.0
100
AcDbLine
 10
43.58939388279816
 20
103.5238872081293
 30
0.0
 11
43.58939388279816
 21
108.0588872081291
 31
0.0
  0
LINE
  5
12B
330
2
100
AcDbEntity
  8
GEB-VERDECKT
 48
25.0
100
AcDbLine
 10
45.04402409239765
 20
103.5238872081293
 30
0.0
 11
43.58939388279816
 21
103.5238872081293
 31
0.0
  0
LINE
  5
12C
330
2
100
AcDbEntity
  8
GEB-VERDECKT
 48
25.0
100
AcDbLine
 10
42.59363608072681
 20
103.5238872081293
 30
0.0
 11
43.58939388279816
 21
103.5238872081293
 31
0.0
  0
LINE
  5
12D
330
2
100
AcDbEntity
  8
GEB-VERDECKT
 48
25.0
100
AcDbLine
 10
42.59363608072681
 20
108.0588872081291
 30
0.0
 11
43.58939388279816
 21
108.0588872081291
 31
0.0
  0
LINE
  5
12E
330
2
100
AcDbEntity
  8
GEB-VERDECKT
 48
25.0
100
AcDbLine
 10
43.58939388279816
 20
108.0588872081291
 30
0.0
 11
45.04402409239765
 21
108.0588872081291
 31
0.0
  0
ARC
  5
12F
330
2
100
AcDbEntity
  8
GEB-VERDECKT
 48
25.0
100
AcDbCircle
 10
-0.0000000000189857
 20
105.7913872081286
 30
0.0
 40
45.10106054948393
100
AcDbArc
 50
8.368183638817711
 51
14.13181636118389
  0
LINE
  5
130
330
2
100
AcDbEntity
  8
GEB-VERDECKT
 48
25.0
100
AcDbLine
 10
41.33284400165701
 20
116.3249240102726
 30
0.0
 11
42.21757861200012
 21
111.8770627636439
 31
0.0
  0
LINE
  5
131
330
2
100
AcDbEntity
  8
GEB-VERDECKT
 48
25.0
100
AcDbLine
 10
43.19420320711834
 20
112.0713254739011
 30
0.0
 11
42.30946859677522
 21
116.5191867205295
 31
0.0
  0
LINE
  5
132
330
2
100
AcDbEntity
  8
GEB-VERDECKT
 48
25.0
100
AcDbLine
 10
44.62088310512331
 20
112.3551097499062
 30
0.0
 11
43.19420320711834
 21
112.0713254739011
 31
0.0
  0
LINE
  5
133
330
2
100
AcDbEntity
  8
GEB-VERDECKT
 48
25.0
100
AcDbLine
 10
42.21757861200012
 20
111.8770627636439
 30
0.0
 11
43.19420320711834
 21
112.0713254739011
 31
0.0
  0
LINE
  5
134
330
2
100
AcDbEntity
  8
GEB-VERDECKT
 48
25.0
100
AcDbLine
 10
41.33284400165701
 20
116.3249240102726
 30
0.0
 11
42.30946859677522
 21
116.5191867205297
 31
0.0
  0
LINE
  5
135
330
2
100
AcDbEntity
  8
GEB-VERDECKT
 48
25.0
100
AcDbLine
 10
42.30946859677522
 20
116.5191867205295
 30
0.0
 11
43.73614849478019
 21
116.8029709965348
 31
0.0
  0
ARC
  5
136
330
2
100
AcDbEntity
  8
GEB-VERDECKT
 48
25.0
100
AcDbCircle
 10
-0.0000000000208047
 20
105.7913872081273
 30
0.0
 40
45.10106054948603
100
AcDbArc
 50
19.61818363881758
 51
25.38181636118134
  0
LINE
  5
137
330
2
100
AcDbEntity
  8
GEB-VERDECKT
 48
25.0
100
AcDbLine
 10
38.48365390732897
 20
124.1861629003853
 30
0.0
 11
40.21912327310462
 21
119.9963692204466
 31
0.0
  0
LINE
  5
138
330
2
100
AcDbEntity
  8
GEB-VERDECKT
 48
25.0
100
AcDbLine
 10
41.13908352577664
 20
120.3774292339491
 30
0.0
 11
39.40361416000087
 21
124.5672229138878
 31
0.0
  0
LINE
  5
139
330
2
100
AcDbEntity
  8
GEB-VERDECKT
 48
25.0
100
AcDbLine
 10
42.48298660379805
 20
120.9340921153806
 30
0.0
 11
41.13908352577664
 21
120.3774292339491
 31
0.0
  0
LINE
  5
13A
330
2
100
AcDbEntity
  8
GEB-VERDECKT
 48
25.0
100
AcDbLine
 10
40.21912327310462
 20
119.9963692204466
 30
0.0
 11
41.13908352577664
 21
120.3774292339491
 31
0.0
  0
LINE
  5
13B
330
2
100
AcDbEntity
  8
GEB-VERDECKT
 48
25.0
100
AcDbLine
 10
38.48365390732897
 20
124.1861629003853
 30
0.0
 11
39.40361416000087
 21
124.5672229138878
 31
0.0
  0
LINE
  5
13C
330
2
100
AcDbEntity
  8
GEB-VERDECKT
 48
25.0
100
AcDbLine
 10
39.40361416000087
 20
124.5672229138878
 30
0.0
 11
40.74751723802239
 21
125.1238857953193
 31
0.0
  0
ARC
  5
13D
330
2
100
AcDbEntity
  8
GEB-VERDECKT
 48
25.0
100
AcDbCircle
 10
-0.0000000000151203
 20
105.7913872081299
 30
0.0
 40
45.10106054947971
100
AcDbArc
 50
30.86818363881871
 51
36.63181636118772
  0
LINE
  5
13E
330
2
100
AcDbEntity
  8
GEB-VERDECKT
 48
25.0
100
AcDbLine
 10
34.15555857522373
 20
131.3405008765534
 30
0.0
 11
36.67506958196759
 21
127.5697861847614
 31
0.0
  0
LINE
  5
13F
330
2
100
AcDbEntity
  8
GEB-VERDECKT
 48
25.0
100
AcDbLine
 10
37.50301193560245
 20
128.1229995788916
 30
0.0
 11
34.98350092885846
 21
131.8937142706836
 31
0.0
  0
LINE
  5
140
330
2
100
AcDbEntity
  8
GEB-VERDECKT
 48
25.0
100
AcDbLine
 10
38.71249275202149
 20
128.9311488233961
 30
0.0
 11
37.50301193560245
 21
128.1229995788916
 31
0.0
  0
LINE
  5
141
330
2
100
AcDbEntity
  8
GEB-VERDECKT
 48
25.0
100
AcDbLine
 10
36.67506958196759
 20
127.5697861847614
 30
0.0
 11
37.50301193560245
 21
128.1229995788916
 31
0.0
  0
LINE
  5
142
330
2
100
AcDbEntity
  8
GEB-VERDECKT
 48
25.0
100
AcDbLine
 10
34.15555857522373
 20
131.3405008765534
 30
0.0
 11
34.98350092885846
 21
131.8937142706836
 31
0.0
  0
LINE
  5
143
330
2
100
AcDbEntity
  8
GEB-VERDECKT
 48
25.0
100
AcDbLine
 10
34.98350092885846
 20
131.8937142706836
 30
0.0
 11
36.19298174527774
 21
132.7018635151882
 31
0.0
  0
ARC
  5
144
330
2
100
AcDbEntity
  8
GEB-VERDECKT
 48
25.0
100
AcDbCircle
 10
-0.0000000000184173
 20
105.791387208127
 30
0.0
 40
45.10106054948422
100
AcDbArc
 50
42.11818363881588
 51
47.88181636118411
  0
LINE
  5
145
330
2
100
AcDbEntity
  8
GEB-VERDECKT
 48
25.0
100
AcDbLine
 10
28.51488428172991
 20
137.5130007425521
 30
0.0
 11
31.72161353441083
 21
134.3062714898711
 31
0.0
  0
LINE
  5
146
330
2
100
AcDbEntity
  8
GEB-VERDECKT
 48
25.0
100
AcDbLine
 10
32.42572062867373
 20
135.0103785841382
 30
0.0
 11
29.2189913759928
 21
138.2171078368192
 31
0.0
  0
LINE
  5
147
330
2
100
AcDbEntity
  8
GEB-VERDECKT
 48
25.0
100
AcDbLine
 10
33.45429951400024
 20
136.0389574694647
 30
0.0
 11
32.42572062867373
 21
135.0103785841382
 31
0.0
  0
LINE
  5
148
330
2
100
AcDbEntity
  8
GEB-VERDECKT
 48
25.0
100
AcDbLine
 10
31.72161353441083
 20
134.3062714898711
 30
0.0
 11
32.42572062867373
 21
135.0103785841382
 31
0.0
  0
LINE
  5
149
330
2
100
AcDbEntity
  8
GEB-VERDECKT
 48
25.0
100
AcDbLine
 10
28.51488428172991
 20
137.5130007425521
 30
0.0
 11
29.2189913759928
 21
138.2171078368192
 31
0.0
  0
LINE
  5
14A
330
2
100
AcDbEntity
  8
GEB-VERDECKT
 48
25.0
100
AcDbLine
 10
29.2189913759928
 20
138.2171078368192
 30
0.0
 11
30.24757026131931
 21
139.2456867221457
 31
0.0
  0
ARC
  5
14B
330
2
100
AcDbEntity
  8
GEB-VERDECKT
 48
25.0
100
AcDbCircle
 10
-0.0000000000172804
 20
105.7913872081276
 30
0.0
 40
45.10106054948296
100
AcDbArc
 50
53.36818363881228
 51
59.13181636118128
  0
LINE
  5
14C
330
2
100
AcDbEntity
  8
GEB-VERDECKT
 48
25.0
100
AcDbLine
 10
21.77839897662011
 20
142.4664567901088
 30
0.0
 11
25.54911366841214
 21
139.9469457833648
 31
0.0
  0
LINE
  5
14D
330
2
100
AcDbEntity
  8
GEB-VERDECKT
 48
25.0
100
AcDbLine
 10
26.10232706253817
 20
140.7748881370038
 30
0.0
 11
22.33161237074615
 21
143.2943991437477
 31
0.0
  0
LINE
  5
14E
330
2
100
AcDbEntity
  8
GEB-VERDECKT
 48
25.0
100
AcDbLine
 10
26.9104763070427
 20
141.984368953423
 30
0.0
 11
26.10232706253817
 21
140.7748881370038
 31
0.0
  0
LINE
  5
14F
330
2
100
AcDbEntity
  8
GEB-VERDECKT
 48
25.0
100
AcDbLine
 10
25.54911366841214
 20
139.9469457833648
 30
0.0
 11
26.10232706253817
 21
140.774888137004
 31
0.0
  0
LINE
  5
150
330
2
100
AcDbEntity
  8
GEB-VERDECKT
 48
25.0
100
AcDbLine
 10
21.77839897662011
 20
142.4664567901088
 30
0.0
 11
22.33161237074615
 21
143.2943991437477
 31
0.0
  0
LINE
  5
151
330
2
100
AcDbEntity
  8
GEB-VERDECKT
 48
25.0
100
AcDbLine
 10
22.33161237074615
 20
143.2943991437477
 30
0.0
 11
23.13976161525068
 21
144.5038799601669
 31
0.0
  0
ARC
  5
152
330
2
100
AcDbEntity
  8
GEB-VERDECKT
 48
25.0
100
AcDbCircle
 10
-0.0000000000165983
 20
105.7913872081286
 30
0.0
 40
45.10106054948166
100
AcDbArc
 50
64.61818363881866
 51
70.38181636118242
  0
LINE
  5
153
330
2
100
AcDbEntity
  8
GEB-VERDECKT
 48
25.0
100
AcDbLine
 10
14.20498201230532
 20
146.0105104812459
 30
0.0
 11
18.39477569224402
 21
144.2750411154702
 31
0.0
  0
LINE
  5
154
330
2
100
AcDbEntity
  8
GEB-VERDECKT
 48
25.0
100
AcDbLine
 10
18.77583570574234
 20
145.1950013681463
 30
0.0
 11
14.58604202580363
 21
146.9304707339219
 31
0.0
  0
LINE
  5
155
330
2
100
AcDbEntity
  8
GEB-VERDECKT
 48
25.0
100
AcDbLine
 10
19.33249858717386
 20
146.5389044461677
 30
0.0
 11
18.77583570574234
 21
145.1950013681463
 31
0.0
  0
LINE
  5
156
330
2
100
AcDbEntity
  8
GEB-VERDECKT
 48
25.0
100
AcDbLine
 10
18.39477569224402
 20
144.2750411154702
 30
0.0
 11
18.77583570574234
 21
145.1950013681463
 31
0.0
  0
LINE
  5
157
330
2
100
AcDbEntity
  8
GEB-VERDECKT
 48
25.0
100
AcDbLine
 10
14.20498201230532
 20
146.0105104812459
 30
0.0
 11
14.58604202580363
 21
146.9304707339219
 31
0.0
  0
LINE
  5
158
330
2
100
AcDbEntity
  8
GEB-VERDECKT
 48
25.0
100
AcDbLine
 10
14.58604202580363
 20
146.9304707339219
 30
0.0
 11
15.14270490723527
 21
148.2743738119434
 31
0.0
  0
ARC
  5
159
330
2
100
AcDbEntity
  8
GEB-VERDECKT
 48
25.0
100
AcDbCircle
 10
-0.0000000000165983
 20
105.791387208128
 30
0.0
 40
45.1010605494823
100
AcDbArc
 50
75.86818363881612
 51
81.63181636118229
  0
LINE
  5
15A
330
2
100
AcDbEntity
  8
GEB-VERDECKT
 48
25.0
100
AcDbLine
 10
6.085675555502803
 20
148.0089658201412
 30
0.0
 11
10.53353680213138
 21
147.1242312097982
 31
0.0
  0
LINE
  5
15B
330
2
100
AcDbEntity
  8
GEB-VERDECKT
 48
25.0
100
AcDbLine
 10
10.72779951238419
 20
148.1008558049206
 30
0.0
 11
6.279938265755504
 21
148.9855904152638
 31
0.0
  0
LINE
  5
15C
330
2
100
AcDbEntity
  8
GEB-VERDECKT
 48
25.0
100
AcDbLine
 10
11.01158378838931
 20
149.5275357029255
 30
0.0
 11
10.72779951238419
 21
148.1008558049206
 31
0.0
  0
LINE
  5
15D
330
2
100
AcDbEntity
  8
GEB-VERDECKT
 48
25.0
100
AcDbLine
 10
10.53353680213138
 20
147.1242312097982
 30
0.0
 11
10.72779951238419
 21
148.1008558049206
 31
0.0
  0
LINE
  5
15E
330
2
100
AcDbEntity
  8
GEB-VERDECKT
 48
25.0
100
AcDbLine
 10
6.085675555502803
 20
148.0089658201412
 30
0.0
 11
6.279938265755504
 21
148.9855904152638
 31
0.0
  0
LINE
  5
15F
330
2
100
AcDbEntity
  8
GEB-VERDECKT
 48
25.0
100
AcDbLine
 10
6.279938265755504
 20
148.9855904152638
 30
0.0
 11
6.563722541760625
 21
150.4122703132686
 31
0.0
  0
CIRCLE
  5
160
330
2
100
AcDbEntity
  8
GEB-VERDECKT
 48
25.0
100
AcDbCircle
 10
-0.0000000000163709
 20
105.7913872081292
 30
0.0
 40
42.1078719333587
  0
CIRCLE
  5
161
330
2
100
AcDbEntity
  8
GEB-VERDECKT
 48
25.0
100
AcDbCircle
 10
-0.0000000000163709
 20
105.7913872081292
 30
0.0
 40
36.5
  0
CIRCLE
  5
162
330
2
100
AcDbEntity
  8
GEB-VERDECKT
 48
25.0
100
AcDbCircle
 10
-0.0000000000156888
 20
105.7913872081292
 30
0.0
 40
28.94999999999999
  0
CIRCLE
  5
163
330
2
100
AcDbEntity
  8
GEB-VERDECKT
 48
25.0
100
AcDbCircle
 10
-0.0000000000120508
 20
105.7913872081292
 30
0.0
 40
27.63951835073752
  0
CIRCLE
  5
164
330
2
100
AcDbEntity
  8
GEB-VERDECKT
 48
25.0
100
AcDbCircle
 10
-0.0000000000120508
 20
105.7913872081292
 30
0.0
 40
41.07458674220676
  0
ARC
  5
165
330
2
100
AcDbEntity
  8
GEB-VERDECKT
 48
25.0
100
AcDbCircle
 10
-0.0000000000118234
 20
105.7913872081311
 30
0.0
 40
44.10530274740357
100
AcDbArc
 50
81.69693542882772
 51
87.05306457117369
  0
ARC
  5
166
330
2
100
AcDbEntity
  8
GEB-VERDECKT
 48
25.0
100
AcDbCircle
 10
-0.0000000000115961
 20
105.7913872081246
 30
0.0
 40
44.10530274741006
100
AcDbArc
 50
92.94693542882631
 51
98.30306457117229
  0
ARC
  5
167
330
2
100
AcDbEntity
  8
GEB-VERDECKT
 48
25.0
100
AcDbCircle
 10
-0.0000000000110276
 20
105.7913872081257
 30
0.0
 40
44.10530274740922
100
AcDbArc
 50
104.1969354288279
 51
109.5530645711733
  0
ARC
  5
168
330
2
100
AcDbEntity
  8
GEB-VERDECKT
 48
25.0
100
AcDbCircle
 10
-0.000000000009436
 20
105.7913872081243
 30
0.0
 40
44.1053027474109
100
AcDbArc
 50
115.4469354288295
 51
120.80306457117
  0
ARC
  5
169
330
2
100
AcDbEntity
  8
GEB-VERDECKT
 48
25.0
100
AcDbCircle
 10
-0.0000000000131877
 20
105.7913872081307
 30
0.0
 40
44.1053027474038
100
AcDbArc
 50
126.6969354288296
 51
132.0530645711735
  0
ARC
  5
16A
330
2
100
AcDbEntity
  8
GEB-VERDECKT
 48
25.0
100
AcDbCircle
 10
-0.0000000000161435
 20
105.7913872081326
 30
0.0
 40
44.10530274740025
100
AcDbArc
 50
137.9469354288264
 51
143.3030645711704
  0
ARC
  5
16B
330
2
100
AcDbEntity
  8
GEB-VERDECKT
 48
25.0
100
AcDbCircle
 10
-0.0000000000087539
 20
105.7913872081275
 30
0.0
 40
44.10530274740927
100
AcDbArc
 50
149.19693542883
 51
154.5530645711704
  0
ARC
  5
16C
330
2
100
AcDbEntity
  8
GEB-VERDECKT
 48
25.0
100
AcDbCircle
 10
-0.0000000000125056
 20
105.7913872081293
 30
0.0
 40
44.10530274740503
100
AcDbArc
 50
160.4469354288266
 51
165.803064571172
  0
ARC
  5
16D
330
2
100
AcDbEntity
  8
GEB-VERDECKT
 48
25.0
100
AcDbCircle
 10
-0.0000000000087539
 20
105.7913872081287
 30
0.0
 40
44.10530274740887
100
AcDbArc
 50
171.6969354288277
 51
177.0530645711737
  0
ARC
  5
16E
330
2
100
AcDbEntity
  8
GEB-VERDECKT
 48
25.0
100
AcDbCircle
 10
-0.0000000000070486
 20
105.7913872081297
 30
0.0
 40
44.10530274741057
100
AcDbArc
 50
182.9469354288263
 51
188.3030645711723
  0
ARC
  5
16F
330
2
100
AcDbEntity
  8
GEB-VERDECKT
 48
25.0
100
AcDbCircle
 10
-0.0000000000140972
 20
105.7913872081285
 30
0.0
 40
44.10530274740333
100
AcDbArc
 50
194.1969354288279
 51
199.5530645711733
  0
ARC
  5
170
330
2
100
AcDbEntity
  8
GEB-VERDECKT
 48
25.0
100
AcDbCircle
 10
-0.0000000000111413
 20
105.7913872081296
 30
0.0
 40
44.10530274740643
100
AcDbArc
 50
205.4469354288295
 51
210.80306457117
  0
ARC
  5
171
330
2
100
AcDbEntity
  8
GEB-VERDECKT
 48
25.0
100
AcDbCircle
 10
-0.0000000000131877
 20
105.7913872081282
 30
0.0
 40
44.10530274740399
100
AcDbArc
 50
216.6969354288296
 51
222.0530645711735
  0
ARC
  5
172
330
2
100
AcDbEntity
  8
GEB-VERDECKT
 48
25.0
100
AcDbCircle
 10
-0.0000000000115961
 20
105.7913872081297
 30
0.0
 40
44.10530274740631
100
AcDbArc
 50
227.9469354288265
 51
233.3030645711704
  0
ARC
  5
173
330
2
100
AcDbEntity
  8
GEB-VERDECKT
 48
25.0
100
AcDbCircle
 10
-0.0000000000118234
 20
105.7913872081295
 30
0.0
 40
44.10530274740581
100
AcDbArc
 50
239.19693542883
 51
244.5530645711704
  0
ARC
  5
174
330
2
100
AcDbEntity
  8
GEB-VERDECKT
 48
25.0
100
AcDbCircle
 10
-0.0000000000121645
 20
105.7913872081288
 30
0.0
 40
44.10530274740526
100
AcDbArc
 50
250.4469354288267
 51
255.8030645711721
  0
ARC
  5
175
330
2
100
AcDbEntity
  8
GEB-VERDECKT
 48
25.0
100
AcDbCircle
 10
-0.0000000000117097
 20
105.7913872081315
 30
0.0
 40
44.10530274740776
100
AcDbArc
 50
261.6969354288277
 51
267.0530645711737
  0
ARC
  5
176
330
2
100
AcDbEntity
  8
GEB-VERDECKT
 48
25.0
100
AcDbCircle
 10
-0.0000000000122782
 20
105.7913872081311
 30
0.0
 40
44.10530274740749
100
AcDbArc
 50
272.9469354288263
 51
278.3030645711723
  0
ARC
  5
177
330
2
100
AcDbEntity
  8
GEB-VERDECKT
 48
25.0
100
AcDbCircle
 10
-0.0000000000117097
 20
105.7913872081284
 30
0.0
 40
44.10530274740461
100
AcDbArc
 50
284.196935428828
 51
289.5530645711733
  0
ARC
  5
178
330
2
100
AcDbEntity
  8
GEB-VERDECKT
 48
25.0
100
AcDbCircle
 10
-0.0000000000122782
 20
105.7913872081297
 30
0.0
 40
44.10530274740612
100
AcDbArc
 50
295.4469354288296
 51
300.80306457117
  0
ARC
  5
179
330
2
100
AcDbEntity
  8
GEB-VERDECKT
 48
25.0
100
AcDbCircle
 10
-0.0000000000137561
 20
105.7913872081311
 30
0.0
 40
44.10530274740806
100
AcDbArc
 50
306.6969354288297
 51
312.0530645711735
  0
ARC
  5
17A
330
2
100
AcDbEntity
  8
GEB-VERDECKT
 48
25.0
100
AcDbCircle
 10
-0.0000000000104592
 20
105.7913872081279
 30
0.0
 40
44.10530274740347
100
AcDbArc
 50
317.9469354288265
 51
323.3030645711703
  0
ARC
  5
17B
330
2
100
AcDbEntity
  8
GEB-VERDECKT
 48
25.0
100
AcDbCircle
 10
-0.0000000000121645
 20
105.7913872081293
 30
0.0
 40
44.10530274740568
100
AcDbArc
 50
329.19693542883
 51
334.5530645711704
  0
ARC
  5
17C
330
2
100
AcDbEntity
  8
GEB-VERDECKT
 48
25.0
100
AcDbCircle
 10
-0.0000000000143245
 20
105.7913872081299
 30
0.0
 40
44.10530274740783
100
AcDbArc
 50
340.4469354288267
 51
345.803064571172
  0
ARC
  5
17D
330
2
100
AcDbEntity
  8
GEB-VERDECKT
 48
25.0
100
AcDbCircle
 10
-0.0000000000140972
 20
105.7913872081295
 30
0.0
 40
44.10530274740766
100
AcDbArc
 50
351.6969354288277
 51
357.0530645711737
  0
ARC
  5
17E
330
2
100
AcDbEntity
  8
GEB-VERDECKT
 48
25.0
100
AcDbCircle
 10
-0.0000000000160298
 20
105.7913872081287
 30
0.0
 40
44.10530274740948
100
AcDbArc
 50
2.946935428826316
 51
8.303064571172287
  0
ARC
  5
17F
330
2
100
AcDbEntity
  8
GEB-VERDECKT
 48
25.0
100
AcDbCircle
 10
-0.0000000000113687
 20
105.7913872081295
 30
0.0
 40
44.10530274740479
100
AcDbArc
 50
14.19693542882797
 51
19.55306457117332
  0
ARC
  5
180
330
2
100
AcDbEntity
  8
GEB-VERDECKT
 48
25.0
100
AcDbCircle
 10
-0.0000000000111413
 20
105.7913872081296
 30
0.0
 40
44.10530274740453
100
AcDbArc
 50
25.44693542882955
 51
30.80306457117
  0
ARC
  5
181
330
2
100
AcDbEntity
  8
GEB-VERDECKT
 48
25.0
100
AcDbCircle
 10
-0.0000000000122782
 20
105.7913872081288
 30
0.0
 40
44.10530274740588
100
AcDbArc
 50
36.69693542882961
 51
42.05306457117353
  0
ARC
  5
182
330
2
100
AcDbEntity
  8
GEB-VERDECKT
 48
25.0
100
AcDbCircle
 10
-0.0000000000137561
 20
105.791387208127
 30
0.0
 40
44.1053027474082
100
AcDbArc
 50
47.94693542882646
 51
53.30306457117039
  0
ARC
  5
183
330
2
100
AcDbEntity
  8
GEB-VERDECKT
 48
25.0
100
AcDbCircle
 10
-0.0000000000115961
 20
105.79138720813
 30
0.0
 40
44.10530274740461
100
AcDbArc
 50
59.19693542883
 51
64.55306457117045
  0
ARC
  5
184
330
2
100
AcDbEntity
  8
GEB-VERDECKT
 48
25.0
100
AcDbCircle
 10
-0.0000000000126192
 20
105.7913872081276
 30
0.0
 40
44.10530274740722
100
AcDbArc
 50
70.44693542882668
 51
75.80306457117202
  0
CIRCLE
  5
185
330
2
100
AcDbEntity
  8
GEB-KONTUR-A
 48
25.0
100
AcDbCircle
 10
-0.0000000000172804
 20
105.7913872081292
 30
0.0
 40
45.34999999999999
  0
ARC
  5
187
330
2
100
AcDbEntity
  8
GEB-KONTUR-A
 48
25.0
100
AcDbCircle
 10
-0.0000000000128466
 20
105.7913872081292
 30
0.0
 40
24.91729679014373
100
AcDbArc
 50
98.72362547380603
 51
261.276374526194
  0
ARC
  5
188
330
2
100
AcDbEntity
  8
GEB-KONTUR-A
 48
25.0
100
AcDbCircle
 10
-0.0000000000163709
 20
105.7913872081292
 30
0.0
 40
26.15240078192907
100
AcDbArc
 50
98.30864687156672
 51
261.6913531284333
  0
ARC
  5
189
330
2
100
AcDbEntity
  8
GEB-KONTUR-A
 48
25.0
100
AcDbCircle
 10
-0.0000000000172804
 20
105.7913872081292
 30
0.0
 40
36.04815980592114
100
AcDbArc
 50
96.01775272182907
 51
270.0
  0
ARC
  5
18A
330
2
100
AcDbEntity
  8
GEB-KONTUR-A
 48
25.0
100
AcDbCircle
 10
-0.0000000000172804
 20
105.7913872081292
 30
0.0
 40
36.04815980592114
100
AcDbArc
 50
270.0
 51
83.98224727817092
  0
ARC
  5
18B
330
2
100
AcDbEntity
  8
GEB-KONTUR-A
 48
25.0
100
AcDbCircle
 10
-0.0000000000163709
 20
105.7913872081292
 30
0.0
 40
26.15240078192907
100
AcDbArc
 50
278.3086468715668
 51
81.69135312843328
  0
ARC
  5
18C
330
2
100
AcDbEntity
  8
GEB-KONTUR-A
 48
25.0
100
AcDbCircle
 10
-0.0000000000128466
 20
105.7913872081292
 30
0.0
 40
24.91729679014373
100
AcDbArc
 50
278.723625473806
 51
81.27637452619397
  0
LINE
  5
18D
330
2
100
AcDbEntity
  8
GEB-KONTUR-A
 48
25.0
100
AcDbLine
 10
-3.779166666683977
 20
141.8395470140502
 30
0.0
 11
3.779166666649416
 21
141.8395470140502
 31
0.0
  0
LINE
  5
18E
330
2
100
AcDbEntity
  8
GEB-KONTUR-A
 48
25.0
100
AcDbLine
 10
3.779166666649416
 20
141.8395470140505
 30
0.0
 11
3.779166666649416
 21
105.7913872081292
 31
0.0
  0
LINE
  5
18F
330
2
100
AcDbEntity
  8
GEB-KONTUR-A
 48
25.0
100
AcDbLine
 10
3.779166666649643
 20
72.41226979584223
 30
0.0
 11
3.779166666649416
 21
105.7913872081292
 31
0.0
  0
SPLINE
  5
190
330
2
100
AcDbEntity
  8
GEB-KONTUR-A
 48
25.0
100
AcDbSpline
210
0.0
220
0.0
230
1.0
 70
     8
 71
     3
 72
     8
 73
     4
 74
     0
 42
0.0000000001
 43
0.0000000001
 40
1.226817139907718
 40
1.226817139907718
 40
1.226817139907718
 40
1.226817139907718
 40
1.676109224762758
 40
1.676109224762758
 40
1.676109224762758
 40
1.676109224762758
 10
3.779166666649643
 20
72.41226979584223
 30
0.0
 10
2.496178952825289
 20
71.46546714849421
 30
0.0
 10
1.222818170389587
 20
70.5701087609724
 30
0.0
 10
-0.0000000000172804
 20
69.74322740220816
 30
0.0
  0
SPLINE
  5
191
330
2
100
AcDbEntity
  8
GEB-KONTUR-A
 48
25.0
100
AcDbSpline
210
0.0
220
0.0
230
1.0
 70
     8
 71
     3
 72
     8
 73
     4
 74
     0
 42
0.0000000001
 43
0.0000000001
 40
0.0
 40
0.0
 40
0.0
 40
0.0
 40
0.4492920848550401
 40
0.4492920848550401
 40
0.4492920848550401
 40
0.4492920848550401
 10
-0.0000000000172804
 20
69.74322740220816
 30
0.0
 10
-1.222818170424034
 20
70.5701087609724
 30
0.0
 10
-2.496178952859622
 20
71.46546714849421
 30
0.0
 10
-3.77916666668375
 20
72.41226979584223
 30
0.0
  0
LINE
  5
192
330
2
100
AcDbEntity
  8
GEB-KONTUR-A
 48
25.0
100
AcDbLine
 10
-3.779166666683977
 20
105.7913872081292
 30
0.0
 11
-3.779166666683977
 21
141.8395470140505
 31
0.0
  0
LINE
  5
193
330
2
100
AcDbEntity
  8
GEB-KONTUR-A
 48
25.0
100
AcDbLine
 10
-3.779166666683977
 20
105.7913872081292
 30
0.0
 11
-3.779166666683636
 21
72.41226979584223
 31
0.0
  0
SPLINE
  5
194
330
2
100
AcDbEntity
  8
GEB-KONTUR-A
 48
25.0
100
AcDbSpline
210
0.0
220
0.0
230
1.0
 70
     8
 71
     3
 72
    28
 73
    24
 74
     0
 42
0.0000000001
 43
0.0000000001
 40
0.0001313713827774
 40
0.0001313713827774
 40
0.0001313713827774
 40
0.0001313713827774
 40
0.1699823435974464
 40
0.1699823435974464
 40
0.2359852913256785
 40
0.2359852913256785
 40
0.2509416450178962
 40
0.2509416450178962
 40
0.2577210618550381
 40
0.2577210618550381
 40
0.2621161837068308
 40
0.2621161837068308
 40
0.2660500458110009
 40
0.2660500458110009
 40
0.2708764225476415
 40
0.2708764225476415
 40
0.2794527665778864
 40
0.2794527665778864
 40
0.3006598919505363
 40
0.3006598919505363
 40
0.3800224291737506
 40
0.3800224291737506
 40
0.5638716632468812
 40
0.5638716632468812
 40
0.5638716632468812
 40
0.5638716632468812
 10
32.95015215583578
 20
187.1474702941826
 30
0.0
 10
33.28014247155
 20
187.1106736757473
 30
0.0
 10
33.5417799622328
 20
187.0589989869044
 30
0.0
 10
33.79297195878996
 20
186.9715434872163
 30
0.0
 10
33.88792222482721
 20
186.932443118559
 30
0.0
 10
33.95737799288975
 20
186.8691489337938
 30
0.0
 10
33.9701583555858
 20
186.85508950942
 30
0.0
 10
33.98353990208557
 20
186.8317114634066
 30
0.0
 10
33.98743129869581
 20
186.8232113565803
 30
0.0
 10
33.99160653065064
 20
186.8075614484479
 30
0.0
 10
33.99266221944095
 20
186.801050639422
 30
0.0
 10
33.99309911450064
 20
186.7880962097528
 30
0.0
 10
33.99263086007556
 20
186.7821210219589
 30
0.0
 10
33.99029554223353
 20
186.769154899062
 30
0.0
 10
33.98819115646086
 20
186.762554292224
 30
0.0
 10
33.98126751047062
 20
186.7459491471299
 30
0.0
 10
33.97530896894443
 20
186.7365762277303
 30
0.0
 10
33.95476006862123
 20
186.7094380384875
 30
0.0
 10
33.93519317596656
 20
186.6927767508131
 30
0.0
 10
33.84519157304647
 20
186.62845111856
 30
0.0
 10
33.73909592697817
 20
186.590571040743
 30
0.0
 10
33.48588044147823
 20
186.5131163867954
 30
0.0
 10
33.24526922254074
 20
186.4682120880983
 30
0.0
 10
32.95015215583578
 20
186.4353041220757
 30
0.0
  0
SPLINE
  5
195
330
2
100
AcDbEntity
  8
GEB-KONTUR-A
 48
25.0
100
AcDbSpline
210
0.0
220
0.0
230
1.0
 70
     8
 71
     3
 72
    18
 73
    14
 74
     0
 42
0.0000000001
 43
0.0000000001
 40
3.852716598000005
 40
3.852716598000005
 40
3.852716598000005
 40
3.852716598000005
 40
4.038372487232881
 40
4.038372487232881
 40
4.368138376595315
 40
4.368138376595315
 40
5.010916804789026
 40
5.010916804789026
 40
5.870434557513849
 40
5.870434557513849
 40
6.913880305415015
 40
6.913880305415015
 40
7.695197836021934
 40
7.695197836021934
 40
7.695197836021934
 40
7.695197836021934
 10
-0.0000000000118234
 20
187.7913872081293
 30
0.0
 10
0.6198751367898013
 20
187.7913872081293
 30
0.0
 10
1.239699456734456
 20
187.791388556769
 30
0.0
 10
2.958973737857718
 20
187.7913735728315
 30
0.0
 10
4.056455513985724
 20
187.7913516178945
 30
0.0
 10
7.277721484855646
 20
187.7907498098969
 30
0.0
 10
9.381794397538442
 20
187.7897840917088
 30
0.0
 10
14.19483748342361
 20
187.7794816087449
 30
0.0
 10
16.85498193389026
 20
187.767601814564
 30
0.0
 10
22.43830880770042
 20
187.7020286652595
 30
0.0
 10
25.27234765330923
 20
187.6406283333984
 30
0.0
 10
29.70832636744592
 20
187.4354627557972
 30
0.0
 10
31.43005387929588
 20
187.3169736814103
 30
0.0
 10
32.95015215583578
 20
187.1474702941826
 30
0.0
  0
SPLINE
  5
196
330
2
100
AcDbEntity
  8
GEB-KONTUR-A
 48
25.0
100
AcDbSpline
210
0.0
220
0.0
230
1.0
 70
     8
 71
     3
 72
    16
 73
    12
 74
     0
 42
0.0000000001
 43
0.0000000001
 40
0.0029989623155395
 40
0.0029989623155395
 40
0.0029989623155395
 40
0.0029989623155395
 40
1.593171455419905
 40
1.593171455419905
 40
3.043278655103499
 40
3.043278655103499
 40
3.502361017653607
 40
3.502361017653607
 40
3.783155273006209
 40
3.783155273006209
 40
3.852716598000005
 40
3.852716598000005
 40
3.852716598000005
 40
3.852716598000005
 10
-32.95015215584954
 20
187.1474702941826
 30
0.0
 10
-29.8600011135535
 20
187.492047402649
 30
0.0
 10
-25.95236306758045
 20
187.6333401313121
 30
0.0
 10
-17.33464611814065
 20
187.7775829298194
 30
0.0
 10
-12.79914147769443
 20
187.7864928954044
 30
0.0
 10
-6.550735586019982
 20
187.79102897977
 30
0.0
 10
-5.032228193341666
 20
187.7912464142445
 30
0.0
 10
-2.570880901435202
 20
187.7913906809711
 30
0.0
 10
-1.634238835743872
 20
187.7913866985908
 30
0.0
 10
-0.464515273387633
 20
187.7913872347434
 30
0.0
 10
-0.2322540697578006
 20
187.7913872081293
 30
0.0
 10
-0.0000000000118234
 20
187.7913872081293
 30
0.0
  0
SPLINE
  5
197
330
2
100
AcDbEntity
  8
GEB-KONTUR-A
 48
25.0
100
AcDbSpline
210
0.0
220
0.0
230
1.0
 70
     8
 71
     3
 72
    28
 73
    24
 74
     0
 42
0.0000000001
 43
0.0000000001
 40
0.000131371382778
 40
0.000131371382778
 40
0.000131371382778
 40
0.000131371382778
 40
0.1699823435974093
 40
0.1699823435974093
 40
0.2359852913257261
 40
0.2359852913257261
 40
0.2509416450210416
 40
0.2509416450210416
 40
0.2577210618604786
 40
0.2577210618604786
 40
0.2621161837137094
 40
0.2621161837137094
 40
0.2660500458191795
 40
0.2660500458191795
 40
0.270876422557421
 40
0.270876422557421
 40
0.2794527665900437
 40
0.2794527665900437
 40
0.3006598919666543
 40
0.3006598919666543
 40
0.3800224291940839
 40
0.3800224291940839
 40
0.5638716632770061
 40
0.5638716632770061
 40
0.5638716632770061
 40
0.5638716632770061
 10
-32.95015215584954
 20
186.4353041220757
 30
0.0
 10
-33.28014247156341
 20
186.472100740511
 30
0.0
 10
-33.54177996224587
 20
186.5237754293542
 30
0.0
 10
-33.79297195880304
 20
186.6112309290422
 30
0.0
 10
-33.88792222484005
 20
186.6503312976996
 30
0.0
 10
-33.95737799290521
 20
186.7136254824671
 30
0.0
 10
-33.97015835559978
 20
186.7276849068404
 30
0.0
 10
-33.9835399020983
 20
186.751062952852
 30
0.0
 10
-33.98743129870855
 20
186.7595630596782
 30
0.0
 10
-33.99160653066326
 20
186.7752129678105
 30
0.0
 10
-33.99266221945379
 20
186.7817237768364
 30
0.0
 10
-33.99309911451349
 20
186.7946782065056
 30
0.0
 10
-33.99263086008819
 20
186.8006533942995
 30
0.0
 10
-33.99029554224637
 20
186.8136195171963
 30
0.0
 10
-33.98819115647382
 20
186.8202201240341
 30
0.0
 10
-33.98126751048347
 20
186.8368252691285
 30
0.0
 10
-33.9753089689574
 20
186.8461981885283
 30
0.0
 10
-33.95476006863532
 20
186.8733363777695
 30
0.0
 10
-33.93519317598202
 20
186.8899976654435
 30
0.0
 10
-33.84519157305942
 20
186.9543232976983
 30
0.0
 10
-33.73909592699113
 20
186.9922033755155
 30
0.0
 10
-33.48588044149165
 20
187.0696580294631
 30
0.0
 10
-33.2452692225545
 20
187.1145623281601
 30
0.0
 10
-32.95015215584954
 20
187.1474702941826
 30
0.0
  0
SPLINE
  5
198
330
2
100
AcDbEntity
  8
GEB-KONTUR-A
 48
25.0
100
AcDbSpline
210
0.0
220
0.0
230
1.0
 70
     8
 71
     3
 72
    18
 73
    14
 74
     0
 42
0.0000000001
 43
0.0000000001
 40
3.852716598000137
 40
3.852716598000137
 40
3.852716598000137
 40
3.852716598000137
 40
4.038372487232973
 40
4.038372487232973
 40
4.368138376595207
 40
4.368138376595207
 40
5.010916804788372
 40
5.010916804788372
 40
5.870434557512496
 40
5.870434557512496
 40
6.913880305412786
 40
6.913880305412786
 40
7.695197836018963
 40
7.695197836018963
 40
7.695197836018963
 40
7.695197836018963
 10
-0.0000000000118234
 20
185.7913872081292
 30
0.0
 10
-0.6198751368133344
 20
185.7913872081292
 30
0.0
 10
-1.239699456757989
 20
185.7913858594895
 30
0.0
 10
-2.958973737881024
 20
185.7914008434269
 30
0.0
 10
-4.056455514009257
 20
185.791422798364
 30
0.0
 10
-7.277721484879293
 20
185.7920246063615
 30
0.0
 10
-9.381794397561861
 20
185.7929903245497
 30
0.0
 10
-14.19483748344646
 20
185.8032928075136
 30
0.0
 10
-16.85498193391231
 20
185.8151726016945
 30
0.0
 10
-22.43830880772089
 20
185.8807457509989
 30
0.0
 10
-25.27234765332844
 20
185.94214608286
 30
0.0
 10
-29.70832636746229
 20
186.1473116604615
 30
0.0
 10
-31.43005387931089
 20
186.2658007348482
 30
0.0
 10
-32.95015215584954
 20
186.4353041220757
 30
0.0
  0
SPLINE
  5
199
330
2
100
AcDbEntity
  8
GEB-KONTUR-A
 48
25.0
100
AcDbSpline
210
0.0
220
0.0
230
1.0
 70
     8
 71
     3
 72
    16
 73
    12
 74
     0
 42
0.0000000001
 43
0.0000000001
 40
0.0029989623155942
 40
0.0029989623155942
 40
0.0029989623155942
 40
0.0029989623155942
 40
1.5931714554199
 40
1.5931714554199
 40
3.043278655103506
 40
3.043278655103506
 40
3.502361017653702
 40
3.502361017653702
 40
3.78315527300635
 40
3.78315527300635
 40
3.852716598000137
 40
3.852716598000137
 40
3.852716598000137
 40
3.852716598000137
 10
32.95015215583578
 20
186.4353041220757
 30
0.0
 10
29.86000111353735
 20
186.0907270136095
 30
0.0
 10
25.95236306756238
 20
185.9494342849463
 30
0.0
 10
17.33464611811973
 20
185.8051914864389
 30
0.0
 10
12.79914147767238
 20
185.796281520854
 30
0.0
 10
6.550735585997017
 20
185.7917454364884
 30
0.0
 10
5.03222819331836
 20
185.7915280020138
 30
0.0
 10
2.570880901411896
 20
185.7913837352874
 30
0.0
 10
1.634238835720566
 20
185.7913877176675
 30
0.0
 10
0.4645152733639862
 20
185.7913871815151
 30
0.0
 10
0.2322540697340401
 20
185.7913872081292
 30
0.0
 10
-0.0000000000118234
 20
185.7913872081292
 30
0.0
  0
SPLINE
  5
19A
330
2
100
AcDbEntity
  8
GEB-KONTUR-A
 48
25.0
100
AcDbSpline
210
0.0
220
0.0
230
1.0
 70
     8
 71
     3
 72
    28
 73
    24
 74
     0
 42
0.0000000001
 43
0.0000000001
 40
0.0001313713827774
 40
0.0001313713827774
 40
0.0001313713827774
 40
0.0001313713827774
 40
0.1699823435974397
 40
0.1699823435974397
 40
0.2359852913257011
 40
0.2359852913257011
 40
0.2509416450175716
 40
0.2509416450175716
 40
0.2577210618544569
 40
0.2577210618544569
 40
0.2621161837060828
 40
0.2621161837060828
 40
0.2660500458101033
 40
0.2660500458101033
 40
0.2708764225465599
 40
0.2708764225465599
 40
0.2794527665764772
 40
0.2794527665764772
 40
0.3006598919483223
 40
0.3006598919483223
 40
0.3800224291685691
 40
0.3800224291685691
 40
0.5638716632348221
 40
0.5638716632348221
 40
0.5638716632348221
 40
0.5638716632348221
 10
32.95015215583578
 20
180.1474702941826
 30
0.0
 10
33.28014247155
 20
180.1106736757474
 30
0.0
 10
33.5417799622328
 20
180.0589989869042
 30
0.0
 10
33.79297195879008
 20
179.9715434872163
 30
0.0
 10
33.88792222482721
 20
179.9324431185589
 30
0.0
 10
33.95737799288941
 20
179.8691489337939
 30
0.0
 10
33.97015835558568
 20
179.8550895094203
 30
0.0
 10
33.98353990208557
 20
179.8317114634065
 30
0.0
 10
33.98743129869581
 20
179.8232113565803
 30
0.0
 10
33.99160653065064
 20
179.8075614484479
 30
0.0
 10
33.99266221944095
 20
179.8010506394218
 30
0.0
 10
33.99309911450064
 20
179.7880962097528
 30
0.0
 10
33.99263086007556
 20
179.7821210219591
 30
0.0
 10
33.99029554223353
 20
179.769154899062
 30
0.0
 10
33.98819115646086
 20
179.762554292224
 30
0.0
 10
33.98126751047062
 20
179.7459491471298
 30
0.0
 10
33.97530896894443
 20
179.7365762277302
 30
0.0
 10
33.95476006862123
 20
179.7094380384877
 30
0.0
 10
33.93519317596656
 20
179.6927767508131
 30
0.0
 10
33.84519157304647
 20
179.62845111856
 30
0.0
 10
33.73909592697817
 20
179.590571040743
 30
0.0
 10
33.48588044147823
 20
179.5131163867954
 30
0.0
 10
33.24526922254074
 20
179.4682120880983
 30
0.0
 10
32.95015215583578
 20
179.4353041220757
 30
0.0
  0
SPLINE
  5
19B
330
2
100
AcDbEntity
  8
GEB-KONTUR-A
 48
25.0
100
AcDbSpline
210
0.0
220
0.0
230
1.0
 70
     8
 71
     3
 72
    18
 73
    14
 74
     0
 42
0.0000000001
 43
0.0000000001
 40
3.852716598000005
 40
3.852716598000005
 40
3.852716598000005
 40
3.852716598000005
 40
4.038372487232881
 40
4.038372487232881
 40
4.368138376595315
 40
4.368138376595315
 40
5.010916804789026
 40
5.010916804789026
 40
5.870434557513849
 40
5.870434557513849
 40
6.913880305415015
 40
6.913880305415015
 40
7.695197836021934
 40
7.695197836021934
 40
7.695197836021934
 40
7.695197836021934
 10
-0.0000000000118234
 20
180.7913872081292
 30
0.0
 10
0.6198751367898013
 20
180.7913872081292
 30
0.0
 10
1.239699456734456
 20
180.791388556769
 30
0.0
 10
2.958973737857718
 20
180.7913735728315
 30
0.0
 10
4.056455513985724
 20
180.7913516178944
 30
0.0
 10
7.277721484855646
 20
180.790749809897
 30
0.0
 10
9.381794397538442
 20
180.7897840917088
 30
0.0
 10
14.19483748342361
 20
180.7794816087449
 30
0.0
 10
16.85498193389026
 20
180.767601814564
 30
0.0
 10
22.43830880770042
 20
180.7020286652594
 30
0.0
 10
25.27234765330923
 20
180.6406283333984
 30
0.0
 10
29.70832636744592
 20
180.4354627557972
 30
0.0
 10
31.43005387929588
 20
180.3169736814103
 30
0.0
 10
32.95015215583578
 20
180.1474702941826
 30
0.0
  0
SPLINE
  5
19C
330
2
100
AcDbEntity
  8
GEB-KONTUR-A
 48
25.0
100
AcDbSpline
210
0.0
220
0.0
230
1.0
 70
     8
 71
     3
 72
    16
 73
    12
 74
     0
 42
0.0000000001
 43
0.0000000001
 40
0.0029989623155395
 40
0.0029989623155395
 40
0.0029989623155395
 40
0.0029989623155395
 40
1.593171455419905
 40
1.593171455419905
 40
3.043278655103499
 40
3.043278655103499
 40
3.502361017653607
 40
3.502361017653607
 40
3.783155273006209
 40
3.783155273006209
 40
3.852716598000005
 40
3.852716598000005
 40
3.852716598000005
 40
3.852716598000005
 10
-32.95015215584954
 20
180.1474702941826
 30
0.0
 10
-29.8600011135535
 20
180.4920474026489
 30
0.0
 10
-25.95236306758045
 20
180.6333401313121
 30
0.0
 10
-17.33464611814065
 20
180.7775829298195
 30
0.0
 10
-12.79914147769443
 20
180.7864928954044
 30
0.0
 10
-6.550735586019982
 20
180.7910289797701
 30
0.0
 10
-5.032228193341666
 20
180.7912464142446
 30
0.0
 10
-2.570880901435202
 20
180.791390680971
 30
0.0
 10
-1.634238835743872
 20
180.791386698591
 30
0.0
 10
-0.464515273387633
 20
180.7913872347433
 30
0.0
 10
-0.2322540697578006
 20
180.7913872081292
 30
0.0
 10
-0.0000000000118234
 20
180.7913872081292
 30
0.0
  0
SPLINE
  5
19D
330
2
100
AcDbEntity
  8
GEB-KONTUR-A
 48
25.0
100
AcDbSpline
210
0.0
220
0.0
230
1.0
 70
     8
 71
     3
 72
    28
 73
    24
 74
     0
 42
0.0000000001
 43
0.0000000001
 40
0.0001313713827781
 40
0.0001313713827781
 40
0.0001313713827781
 40
0.0001313713827781
 40
0.1699823435973194
 40
0.1699823435973194
 40
0.2359852913255852
 40
0.2359852913255852
 40
0.250941645021387
 40
0.250941645021387
 40
0.2577210618614909
 40
0.2577210618614909
 40
0.2621161837148943
 40
0.2621161837148943
 40
0.2660500458204216
 40
0.2660500458204216
 40
0.2708764225588008
 40
0.2708764225588008
 40
0.2794527665918141
 40
0.2794527665918141
 40
0.3006598919693166
 40
0.3006598919693166
 40
0.3800224291978393
 40
0.3800224291978393
 40
0.56387166328299
 40
0.56387166328299
 40
0.56387166328299
 40
0.56387166328299
 10
-32.95015215584954
 20
179.4353041220757
 30
0.0
 10
-33.28014247156307
 20
179.472100740511
 30
0.0
 10
-33.54177996224587
 20
179.5237754293542
 30
0.0
 10
-33.79297195880304
 20
179.6112309290421
 30
0.0
 10
-33.88792222484005
 20
179.6503312976996
 30
0.0
 10
-33.95737799290567
 20
179.7136254824676
 30
0.0
 10
-33.97015835559989
 20
179.7276849068407
 30
0.0
 10
-33.98353990209864
 20
179.7510629528524
 30
0.0
 10
-33.98743129870855
 20
179.7595630596783
 30
0.0
 10
-33.99160653066315
 20
179.77521296781
 30
0.0
 10
-33.99266221945379
 20
179.7817237768363
 30
0.0
 10
-33.99309911451349
 20
179.7946782065058
 30
0.0
 10
-33.99263086008819
 20
179.8006533942995
 30
0.0
 10
-33.99029554224637
 20
179.8136195171963
 30
0.0
 10
-33.98819115647382
 20
179.8202201240342
 30
0.0
 10
-33.98126751048347
 20
179.8368252691288
 30
0.0
 10
-33.97530896895728
 20
179.8461981885283
 30
0.0
 10
-33.95476006863544
 20
179.873336377769
 30
0.0
 10
-33.93519317598248
 20
179.8899976654432
 30
0.0
 10
-33.84519157305942
 20
179.9543232976983
 30
0.0
 10
-33.73909592699113
 20
179.9922033755155
 30
0.0
 10
-33.48588044149165
 20
180.069658029463
 30
0.0
 10
-33.24526922255472
 20
180.1145623281601
 30
0.0
 10
-32.95015215584954
 20
180.1474702941826
 30
0.0
  0
SPLINE
  5
19E
330
2
100
AcDbEntity
  8
GEB-KONTUR-A
 48
25.0
100
AcDbSpline
210
0.0
220
0.0
230
1.0
 70
     8
 71
     3
 72
    18
 73
    14
 74
     0
 42
0.0000000001
 43
0.0000000001
 40
3.852716598000137
 40
3.852716598000137
 40
3.852716598000137
 40
3.852716598000137
 40
4.038372487232973
 40
4.038372487232973
 40
4.368138376595207
 40
4.368138376595207
 40
5.010916804788372
 40
5.010916804788372
 40
5.870434557512496
 40
5.870434557512496
 40
6.913880305412786
 40
6.913880305412786
 40
7.695197836018963
 40
7.695197836018963
 40
7.695197836018963
 40
7.695197836018963
 10
-0.0000000000118234
 20
178.7913872081293
 30
0.0
 10
-0.6198751368133344
 20
178.7913872081293
 30
0.0
 10
-1.239699456757989
 20
178.7913858594895
 30
0.0
 10
-2.958973737881024
 20
178.7914008434271
 30
0.0
 10
-4.056455514009257
 20
178.7914227983641
 30
0.0
 10
-7.277721484879293
 20
178.7920246063614
 30
0.0
 10
-9.381794397561861
 20
178.7929903245497
 30
0.0
 10
-14.19483748344646
 20
178.8032928075135
 30
0.0
 10
-16.85498193391231
 20
178.8151726016945
 30
0.0
 10
-22.43830880772089
 20
178.8807457509989
 30
0.0
 10
-25.27234765332844
 20
178.94214608286
 30
0.0
 10
-29.70832636746229
 20
179.1473116604613
 30
0.0
 10
-31.43005387931089
 20
179.2658007348481
 30
0.0
 10
-32.95015215584954
 20
179.4353041220757
 30
0.0
  0
SPLINE
  5
19F
330
2
100
AcDbEntity
  8
GEB-KONTUR-A
 48
25.0
100
AcDbSpline
210
0.0
220
0.0
230
1.0
 70
     8
 71
     3
 72
    16
 73
    12
 74
     0
 42
0.0000000001
 43
0.0000000001
 40
0.0029989623155941
 40
0.0029989623155941
 40
0.0029989623155941
 40
0.0029989623155941
 40
1.5931714554199
 40
1.5931714554199
 40
3.043278655103506
 40
3.043278655103506
 40
3.502361017653702
 40
3.502361017653702
 40
3.78315527300635
 40
3.78315527300635
 40
3.852716598000137
 40
3.852716598000137
 40
3.852716598000137
 40
3.852716598000137
 10
32.95015215583578
 20
179.4353041220757
 30
0.0
 10
29.86000111353735
 20
179.0907270136095
 30
0.0
 10
25.95236306756238
 20
178.9494342849462
 30
0.0
 10
17.33464611811973
 20
178.8051914864389
 30
0.0
 10
12.79914147767238
 20
178.7962815208542
 30
0.0
 10
6.550735585997017
 20
178.7917454364884
 30
0.0
 10
5.03222819331836
 20
178.7915280020139
 30
0.0
 10
2.570880901411896
 20
178.7913837352874
 30
0.0
 10
1.634238835720566
 20
178.7913877176674
 30
0.0
 10
0.4645152733639862
 20
178.7913871815152
 30
0.0
 10
0.2322540697340401
 20
178.7913872081293
 30
0.0
 10
-0.0000000000118234
 20
178.7913872081293
 30
0.0
  0
SPLINE
  5
1A0
330
2
100
AcDbEntity
  8
GEB-KONTUR-A
 48
25.0
100
AcDbSpline
210
0.0
220
0.0
230
1.0
 70
     8
 71
     3
 72
    28
 73
    24
 74
     0
 42
0.0000000001
 43
0.0000000001
 40
0.0001313713827693
 40
0.0001313713827693
 40
0.0001313713827693
 40
0.0001313713827693
 40
0.1699823435973711
 40
0.1699823435973711
 40
0.2359852913254426
 40
0.2359852913254426
 40
0.2509416450205721
 40
0.2509416450205721
 40
0.2577210618599997
 40
0.2577210618599997
 40
0.2621161837132609
 40
0.2621161837132609
 40
0.2660500458187362
 40
0.2660500458187362
 40
0.2708764225569044
 40
0.2708764225569044
 40
0.2794527665894658
 40
0.2794527665894658
 40
0.3006598919664957
 40
0.3006598919664957
 40
0.3800224291958478
 40
0.3800224291958478
 40
0.5638716632830613
 40
0.5638716632830613
 40
0.5638716632830613
 40
0.5638716632830613
 10
32.95015215583578
 20
173.1474702941826
 30
0.0
 10
33.28014247154988
 20
173.1106736757475
 30
0.0
 10
33.5417799622328
 20
173.0589989869042
 30
0.0
 10
33.79297195878996
 20
172.9715434872165
 30
0.0
 10
33.88792222482721
 20
172.9324431185588
 30
0.0
 10
33.95737799289225
 20
172.8691489337913
 30
0.0
 10
33.97015835558682
 20
172.8550895094182
 30
0.0
 10
33.98353990208568
 20
172.8317114634063
 30
0.0
 10
33.98743129869581
 20
172.8232113565804
 30
0.0
 10
33.99160653065064
 20
172.807561448448
 30
0.0
 10
33.99266221944095
 20
172.801050639422
 30
0.0
 10
33.99309911450064
 20
172.7880962097527
 30
0.0
 10
33.99263086007556
 20
172.7821210219591
 30
0.0
 10
33.99029554223353
 20
172.7691548990622
 30
0.0
 10
33.98819115646097
 20
172.7625542922243
 30
0.0
 10
33.98126751047062
 20
172.7459491471297
 30
0.0
 10
33.97530896894443
 20
172.7365762277301
 30
0.0
 10
33.95476006862236
 20
172.7094380384891
 30
0.0
 10
33.93519317596906
 20
172.6927767508149
 30
0.0
 10
33.84519157304647
 20
172.62845111856
 30
0.0
 10
33.73909592697828
 20
172.5905710407431
 30
0.0
 10
33.48588044147823
 20
172.5131163867953
 30
0.0
 10
33.24526922254063
 20
172.4682120880983
 30
0.0
 10
32.95015215583578
 20
172.4353041220759
 30
0.0
  0
SPLINE
  5
1A1
330
2
100
AcDbEntity
  8
GEB-KONTUR-A
 48
25.0
100
AcDbSpline
210
0.0
220
0.0
230
1.0
 70
     8
 71
     3
 72
    18
 73
    14
 74
     0
 42
0.0000000001
 43
0.0000000001
 40
3.852716598000075
 40
3.852716598000075
 40
3.852716598000075
 40
3.852716598000075
 40
4.038372487232971
 40
4.038372487232971
 40
4.36813837659545
 40
4.36813837659545
 40
5.010916804789212
 40
5.010916804789212
 40
5.870434557514112
 40
5.870434557514112
 40
6.913880305415295
 40
6.913880305415295
 40
7.69519783602225
 40
7.69519783602225
 40
7.69519783602225
 40
7.69519783602225
 10
-0.0000000000118234
 20
173.7913872081293
 30
0.0
 10
0.6198751367898013
 20
173.7913872081293
 30
0.0
 10
1.239699456734456
 20
173.791388556769
 30
0.0
 10
2.958973737857832
 20
173.7913735728315
 30
0.0
 10
4.056455513985952
 20
173.7913516178943
 30
0.0
 10
7.277721484855874
 20
173.7907498098969
 30
0.0
 10
9.381794397538669
 20
173.7897840917088
 30
0.0
 10
14.19483748342395
 20
173.7794816087449
 30
0.0
 10
16.8549819338906
 20
173.767601814564
 30
0.0
 10
22.43830880770065
 20
173.7020286652596
 30
0.0
 10
25.27234765330945
 20
173.6406283333984
 30
0.0
 10
29.70832636744603
 20
173.4354627557971
 30
0.0
 10
31.430053879296
 20
173.3169736814103
 30
0.0
 10
32.95015215583578
 20
173.1474702941826
 30
0.0
  0
SPLINE
  5
1A2
330
2
100
AcDbEntity
  8
GEB-KONTUR-A
 48
25.0
100
AcDbSpline
210
0.0
220
0.0
230
1.0
 70
     8
 71
     3
 72
    16
 73
    12
 74
     0
 42
0.0000000001
 43
0.0000000001
 40
0.0029989623155394
 40
0.0029989623155394
 40
0.0029989623155394
 40
0.0029989623155394
 40
1.593171455419909
 40
1.593171455419909
 40
3.043278655103514
 40
3.043278655103514
 40
3.502361017653661
 40
3.502361017653661
 40
3.783155273006291
 40
3.783155273006291
 40
3.852716598000075
 40
3.852716598000075
 40
3.852716598000075
 40
3.852716598000075
 10
-32.95015215584954
 20
173.1474702941826
 30
0.0
 10
-29.8600011135535
 20
173.4920474026489
 30
0.0
 10
-25.95236306758045
 20
173.6333401313122
 30
0.0
 10
-17.33464611814065
 20
173.7775829298194
 30
0.0
 10
-12.79914147769443
 20
173.7864928954043
 30
0.0
 10
-6.550735586019754
 20
173.7910289797701
 30
0.0
 10
-5.032228193341325
 20
173.7912464142445
 30
0.0
 10
-2.570880901435089
 20
173.791390680971
 30
0.0
 10
-1.634238835743872
 20
173.791386698591
 30
0.0
 10
-0.4645152733875193
 20
173.7913872347433
 30
0.0
 10
-0.2322540697575732
 20
173.7913872081293
 30
0.0
 10
-0.0000000000118234
 20
173.7913872081293
 30
0.0
  0
SPLINE
  5
1A3
330
2
100
AcDbEntity
  8
GEB-KONTUR-A
 48
25.0
100
AcDbSpline
210
0.0
220
0.0
230
1.0
 70
     8
 71
     3
 72
    28
 73
    24
 74
     0
 42
0.0000000001
 43
0.0000000001
 40
0.0001313713827864
 40
0.0001313713827864
 40
0.0001313713827864
 40
0.0001313713827864
 40
0.1699823435973689
 40
0.1699823435973689
 40
0.235985291325556
 40
0.235985291325556
 40
0.25094164502052
 40
0.25094164502052
 40
0.2577210618596857
 40
0.2577210618596857
 40
0.2621161837128967
 40
0.2621161837128967
 40
0.2660500458183976
 40
0.2660500458183976
 40
0.2708764225566737
 40
0.2708764225566737
 40
0.2794527665894336
 40
0.2794527665894336
 40
0.3006598919665349
 40
0.3006598919665349
 40
0.3800224291978983
 40
0.3800224291978983
 40
0.5638716632899971
 40
0.5638716632899971
 40
0.5638716632899971
 40
0.5638716632899971
 10
-32.95015215584954
 20
172.4353041220759
 30
0.0
 10
-33.2801424715633
 20
172.4721007405111
 30
0.0
 10
-33.54177996224587
 20
172.5237754293542
 30
0.0
 10
-33.79297195880293
 20
172.6112309290421
 30
0.0
 10
-33.88792222484005
 20
172.6503312976996
 30
0.0
 10
-33.95737799290498
 20
172.713625482467
 30
0.0
 10
-33.97015835559967
 20
172.7276849068402
 30
0.0
 10
-33.9835399020983
 20
172.751062952852
 30
0.0
 10
-33.98743129870855
 20
172.759563059678
 30
0.0
 10
-33.99160653066338
 20
172.7752129678107
 30
0.0
 10
-33.99266221945379
 20
172.7817237768366
 30
0.0
 10
-33.99309911451349
 20
172.7946782065058
 30
0.0
 10
-33.99263086008819
 20
172.8006533942995
 30
0.0
 10
-33.99029554224637
 20
172.8136195171964
 30
0.0
 10
-33.9881911564737
 20
172.8202201240341
 30
0.0
 10
-33.98126751048347
 20
172.8368252691286
 30
0.0
 10
-33.9753089689574
 20
172.8461981885282
 30
0.0
 10
-33.95476006863499
 20
172.8733363777696
 30
0.0
 10
-33.93519317598145
 20
172.8899976654439
 30
0.0
 10
-33.84519157305931
 20
172.9543232976985
 30
0.0
 10
-33.73909592699102
 20
172.9922033755155
 30
0.0
 10
-33.48588044149119
 20
173.0696580294631
 30
0.0
 10
-33.24526922255393
 20
173.1145623281603
 30
0.0
 10
-32.95015215584954
 20
173.1474702941826
 30
0.0
  0
SPLINE
  5
1A4
330
2
100
AcDbEntity
  8
GEB-KONTUR-A
 48
25.0
100
AcDbSpline
210
0.0
220
0.0
230
1.0
 70
     8
 71
     3
 72
    18
 73
    14
 74
     0
 42
0.0000000001
 43
0.0000000001
 40
3.852716598000064
 40
3.852716598000064
 40
3.852716598000064
 40
3.852716598000064
 40
4.038372487233065
 40
4.038372487233065
 40
4.368138376595619
 40
4.368138376595619
 40
5.010916804789375
 40
5.010916804789375
 40
5.870434557514304
 40
5.870434557514304
 40
6.913880305415636
 40
6.913880305415636
 40
7.695197836022617
 40
7.695197836022617
 40
7.695197836022617
 40
7.695197836022617
 10
-0.0000000000118234
 20
171.7913872081293
 30
0.0
 10
-0.6198751368136755
 20
171.7913872081293
 30
0.0
 10
-1.239699456758216
 20
171.7913858594894
 30
0.0
 10
-2.95897373788091
 20
171.791400843427
 30
0.0
 10
-4.056455514009144
 20
171.7914227983641
 30
0.0
 10
-7.277721484879066
 20
171.7920246063614
 30
0.0
 10
-9.38179439756152
 20
171.7929903245495
 30
0.0
 10
-14.19483748344578
 20
171.8032928075134
 30
0.0
 10
-16.85498193391174
 20
171.8151726016943
 30
0.0
 10
-22.43830880772021
 20
171.880745750999
 30
0.0
 10
-25.27234765332798
 20
171.94214608286
 30
0.0
 10
-29.70832636746218
 20
172.1473116604613
 30
0.0
 10
-31.43005387931089
 20
172.2658007348483
 30
0.0
 10
-32.95015215584954
 20
172.4353041220759
 30
0.0
  0
SPLINE
  5
1A5
330
2
100
AcDbEntity
  8
GEB-KONTUR-A
 48
25.0
100
AcDbSpline
210
0.0
220
0.0
230
1.0
 70
     8
 71
     3
 72
    16
 73
    12
 74
     0
 42
0.0000000001
 43
0.0000000001
 40
0.0029989623156031
 40
0.0029989623156031
 40
0.0029989623156031
 40
0.0029989623156031
 40
1.593171455419883
 40
1.593171455419883
 40
3.043278655103513
 40
3.043278655103513
 40
3.502361017653645
 40
3.502361017653645
 40
3.783155273006256
 40
3.783155273006256
 40
3.852716598000064
 40
3.852716598000064
 40
3.852716598000064
 40
3.852716598000064
 10
32.95015215583578
 20
172.4353041220759
 30
0.0
 10
29.86000111353746
 20
172.0907270136096
 30
0.0
 10
25.9523630675626
 20
171.9494342849464
 30
0.0
 10
17.33464611811985
 20
171.8051914864389
 30
0.0
 10
12.79914147767238
 20
171.7962815208541
 30
0.0
 10
6.550735585997017
 20
171.7917454364884
 30
0.0
 10
5.032228193318587
 20
171.7915280020139
 30
0.0
 10
2.570880901411555
 20
171.7913837352874
 30
0.0
 10
1.634238835720225
 20
171.7913877176675
 30
0.0
 10
0.4645152733639862
 20
171.7913871815152
 30
0.0
 10
0.2322540697340401
 20
171.7913872081293
 30
0.0
 10
-0.0000000000118234
 20
171.7913872081293
 30
0.0
  0
SPLINE
  5
1A6
330
2
100
AcDbEntity
  8
GEB-KONTUR-A
 48
25.0
100
AcDbSpline
210
0.0
220
0.0
230
1.0
 70
     8
 71
     3
 72
    28
 73
    24
 74
     0
 42
0.0000000001
 43
0.0000000001
 40
0.0001313713827771
 40
0.0001313713827771
 40
0.0001313713827771
 40
0.0001313713827771
 40
0.1699823435973059
 40
0.1699823435973059
 40
0.235985291325338
 40
0.235985291325338
 40
0.2509416450169386
 40
0.2509416450169386
 40
0.2577210618536445
 40
0.2577210618536445
 40
0.2621161837051527
 40
0.2621161837051527
 40
0.2660500458090691
 40
0.2660500458090691
 40
0.2708764225453974
 40
0.2708764225453974
 40
0.2794527665750877
 40
0.2794527665750877
 40
0.3006598919464912
 40
0.3006598919464912
 40
0.3800224291658242
 40
0.3800224291658242
 40
0.5638716632298446
 40
0.5638716632298446
 40
0.5638716632298446
 40
0.5638716632298446
 10
32.95015215583578
 20
166.1474702941826
 30
0.0
 10
33.28014247154977
 20
166.1106736757475
 30
0.0
 10
33.54177996223257
 20
166.0589989869044
 30
0.0
 10
33.79297195878996
 20
165.9715434872164
 30
0.0
 10
33.88792222482721
 20
165.932443118559
 30
0.0
 10
33.95737799288929
 20
165.8691489337941
 30
0.0
 10
33.97015835558557
 20
165.8550895094204
 30
0.0
 10
33.98353990208557
 20
165.8317114634064
 30
0.0
 10
33.98743129869581
 20
165.8232113565803
 30
0.0
 10
33.99160653065064
 20
165.8075614484478
 30
0.0
 10
33.99266221944095
 20
165.801050639422
 30
0.0
 10
33.99309911450064
 20
165.7880962097528
 30
0.0
 10
33.99263086007556
 20
165.782121021959
 30
0.0
 10
33.99029554223353
 20
165.7691548990619
 30
0.0
 10
33.98819115646086
 20
165.7625542922241
 30
0.0
 10
33.98126751047062
 20
165.7459491471297
 30
0.0
 10
33.97530896894443
 20
165.7365762277301
 30
0.0
 10
33.95476006862123
 20
165.7094380384875
 30
0.0
 10
33.93519317596633
 20
165.6927767508129
 30
0.0
 10
33.84519157304647
 20
165.62845111856
 30
0.0
 10
33.73909592697828
 20
165.5905710407431
 30
0.0
 10
33.485880441478
 20
165.5131163867953
 30
0.0
 10
33.2452692225404
 20
165.4682120880983
 30
0.0
 10
32.95015215583578
 20
165.4353041220758
 30
0.0
  0
SPLINE
  5
1A7
330
2
100
AcDbEntity
  8
GEB-KONTUR-A
 48
25.0
100
AcDbSpline
210
0.0
220
0.0
230
1.0
 70
     8
 71
     3
 72
    18
 73
    14
 74
     0
 42
0.0000000001
 43
0.0000000001
 40
3.852716598000007
 40
3.852716598000007
 40
3.852716598000007
 40
3.852716598000007
 40
4.038372487232883
 40
4.038372487232883
 40
4.368138376595316
 40
4.368138376595316
 40
5.010916804789028
 40
5.010916804789028
 40
5.870434557513852
 40
5.870434557513852
 40
6.913880305415016
 40
6.913880305415016
 40
7.695197836021931
 40
7.695197836021931
 40
7.695197836021931
 40
7.695197836021931
 10
-0.0000000000118234
 20
166.7913872081293
 30
0.0
 10
0.6198751367898013
 20
166.7913872081293
 30
0.0
 10
1.239699456734456
 20
166.791388556769
 30
0.0
 10
2.958973737857718
 20
166.7913735728315
 30
0.0
 10
4.056455513985724
 20
166.7913516178945
 30
0.0
 10
7.277721484855646
 20
166.7907498098969
 30
0.0
 10
9.381794397538442
 20
166.7897840917088
 30
0.0
 10
14.19483748342361
 20
166.7794816087449
 30
0.0
 10
16.85498193389026
 20
166.767601814564
 30
0.0
 10
22.43830880770042
 20
166.7020286652595
 30
0.0
 10
25.27234765330923
 20
166.6406283333984
 30
0.0
 10
29.70832636744592
 20
166.435462755797
 30
0.0
 10
31.43005387929588
 20
166.3169736814103
 30
0.0
 10
32.95015215583578
 20
166.1474702941826
 30
0.0
  0
SPLINE
  5
1A8
330
2
100
AcDbEntity
  8
GEB-KONTUR-A
 48
25.0
100
AcDbSpline
210
0.0
220
0.0
230
1.0
 70
     8
 71
     3
 72
    16
 73
    12
 74
     0
 42
0.0000000001
 43
0.0000000001
 40
0.0029989623155396
 40
0.0029989623155396
 40
0.0029989623155396
 40
0.0029989623155396
 40
1.593171455419905
 40
1.593171455419905
 40
3.0432786551035
 40
3.0432786551035
 40
3.502361017653608
 40
3.502361017653608
 40
3.78315527300621
 40
3.78315527300621
 40
3.852716598000007
 40
3.852716598000007
 40
3.852716598000007
 40
3.852716598000007
 10
-32.95015215584954
 20
166.1474702941826
 30
0.0
 10
-29.8600011135535
 20
166.4920474026489
 30
0.0
 10
-25.95236306758045
 20
166.6333401313121
 30
0.0
 10
-17.33464611814065
 20
166.7775829298194
 30
0.0
 10
-12.79914147769443
 20
166.7864928954044
 30
0.0
 10
-6.550735586019982
 20
166.79102897977
 30
0.0
 10
-5.032228193341666
 20
166.7912464142447
 30
0.0
 10
-2.570880901435202
 20
166.7913906809709
 30
0.0
 10
-1.634238835743872
 20
166.791386698591
 30
0.0
 10
-0.464515273387633
 20
166.7913872347434
 30
0.0
 10
-0.2322540697578006
 20
166.7913872081293
 30
0.0
 10
-0.0000000000118234
 20
166.7913872081293
 30
0.0
  0
SPLINE
  5
1A9
330
2
100
AcDbEntity
  8
GEB-KONTUR-A
 48
25.0
100
AcDbSpline
210
0.0
220
0.0
230
1.0
 70
     8
 71
     3
 72
    28
 73
    24
 74
     0
 42
0.0000000001
 43
0.0000000001
 40
0.000131371382778
 40
0.000131371382778
 40
0.000131371382778
 40
0.000131371382778
 40
0.169982343597392
 40
0.169982343597392
 40
0.2359852913257936
 40
0.2359852913257936
 40
0.2509416450213089
 40
0.2509416450213089
 40
0.2577210618608663
 40
0.2577210618608663
 40
0.2621161837141739
 40
0.2621161837141739
 40
0.2660500458197111
 40
0.2660500458197111
 40
0.2708764225580294
 40
0.2708764225580294
 40
0.2794527665908004
 40
0.2794527665908004
 40
0.3006598919678226
 40
0.3006598919678226
 40
0.3800224291952978
 40
0.3800224291952978
 40
0.5638716632781922
 40
0.5638716632781922
 40
0.5638716632781922
 40
0.5638716632781922
 10
-32.95015215584954
 20
165.4353041220758
 30
0.0
 10
-33.2801424715633
 20
165.4721007405111
 30
0.0
 10
-33.54177996224587
 20
165.5237754293541
 30
0.0
 10
-33.79297195880326
 20
165.6112309290421
 30
0.0
 10
-33.88792222484017
 20
165.6503312976997
 30
0.0
 10
-33.95737799290532
 20
165.7136254824673
 30
0.0
 10
-33.97015835559978
 20
165.7276849068405
 30
0.0
 10
-33.9835399020983
 20
165.751062952852
 30
0.0
 10
-33.98743129870855
 20
165.7595630596782
 30
0.0
 10
-33.99160653066326
 20
165.7752129678106
 30
0.0
 10
-33.99266221945379
 20
165.7817237768365
 30
0.0
 10
-33.99309911451349
 20
165.7946782065057
 30
0.0
 10
-33.99263086008819
 20
165.8006533942995
 30
0.0
 10
-33.99029554224637
 20
165.8136195171964
 30
0.0
 10
-33.98819115647382
 20
165.8202201240341
 30
0.0
 10
-33.98126751048347
 20
165.8368252691286
 30
0.0
 10
-33.97530896895728
 20
165.8461981885283
 30
0.0
 10
-33.95476006863532
 20
165.8733363777692
 30
0.0
 10
-33.93519317598225
 20
165.8899976654432
 30
0.0
 10
-33.84519157305942
 20
165.9543232976984
 30
0.0
 10
-33.73909592699124
 20
165.9922033755155
 30
0.0
 10
-33.4858804414913
 20
166.0696580294631
 30
0.0
 10
-33.24526922255405
 20
166.1145623281602
 30
0.0
 10
-32.95015215584954
 20
166.1474702941826
 30
0.0
  0
SPLINE
  5
1AA
330
2
100
AcDbEntity
  8
GEB-KONTUR-A
 48
25.0
100
AcDbSpline
210
0.0
220
0.0
230
1.0
 70
     8
 71
     3
 72
    18
 73
    14
 74
     0
 42
0.0000000001
 43
0.0000000001
 40
3.852716598000137
 40
3.852716598000137
 40
3.852716598000137
 40
3.852716598000137
 40
4.038372487232973
 40
4.038372487232973
 40
4.368138376595207
 40
4.368138376595207
 40
5.010916804788372
 40
5.010916804788372
 40
5.870434557512497
 40
5.870434557512497
 40
6.913880305412788
 40
6.913880305412788
 40
7.695197836018965
 40
7.695197836018965
 40
7.695197836018965
 40
7.695197836018965
 10
-0.0000000000118234
 20
164.7913872081293
 30
0.0
 10
-0.6198751368133344
 20
164.7913872081293
 30
0.0
 10
-1.239699456757989
 20
164.7913858594894
 30
0.0
 10
-2.958973737881024
 20
164.791400843427
 30
0.0
 10
-4.056455514009257
 20
164.7914227983641
 30
0.0
 10
-7.277721484879293
 20
164.7920246063615
 30
0.0
 10
-9.381794397561861
 20
164.7929903245495
 30
0.0
 10
-14.19483748344646
 20
164.8032928075134
 30
0.0
 10
-16.85498193391231
 20
164.8151726016943
 30
0.0
 10
-22.43830880772089
 20
164.880745750999
 30
0.0
 10
-25.27234765332844
 20
164.9421460828602
 30
0.0
 10
-29.70832636746229
 20
165.1473116604615
 30
0.0
 10
-31.43005387931089
 20
165.2658007348482
 30
0.0
 10
-32.95015215584954
 20
165.4353041220758
 30
0.0
  0
SPLINE
  5
1AB
330
2
100
AcDbEntity
  8
GEB-KONTUR-A
 48
25.0
100
AcDbSpline
210
0.0
220
0.0
230
1.0
 70
     8
 71
     3
 72
    16
 73
    12
 74
     0
 42
0.0000000001
 43
0.0000000001
 40
0.0029989623155942
 40
0.0029989623155942
 40
0.0029989623155942
 40
0.0029989623155942
 40
1.5931714554199
 40
1.5931714554199
 40
3.043278655103506
 40
3.043278655103506
 40
3.502361017653702
 40
3.502361017653702
 40
3.78315527300635
 40
3.78315527300635
 40
3.852716598000137
 40
3.852716598000137
 40
3.852716598000137
 40
3.852716598000137
 10
32.95015215583578
 20
165.4353041220758
 30
0.0
 10
29.86000111353735
 20
165.0907270136096
 30
0.0
 10
25.95236306756238
 20
164.9494342849464
 30
0.0
 10
17.33464611811973
 20
164.8051914864391
 30
0.0
 10
12.79914147767238
 20
164.7962815208541
 30
0.0
 10
6.550735585997017
 20
164.7917454364885
 30
0.0
 10
5.03222819331836
 20
164.7915280020139
 30
0.0
 10
2.570880901411896
 20
164.7913837352874
 30
0.0
 10
1.634238835720566
 20
164.7913877176676
 30
0.0
 10
0.4645152733639862
 20
164.7913871815152
 30
0.0
 10
0.2322540697340401
 20
164.7913872081293
 30
0.0
 10
-0.0000000000118234
 20
164.7913872081293
 30
0.0
  0
LINE
  5
1AC
330
2
100
AcDbEntity
  8
GEB-VERDECKT
 48
25.0
100
AcDbLine
 10
38.10000000000025
 20
136.5013872081291
 30
0.0
 11
38.10000000000025
 21
151.5913872081291
 31
0.0
  0
LINE
  5
1AD
330
2
100
AcDbEntity
  8
GEB-VERDECKT
 48
25.0
100
AcDbLine
 10
37.63206744254012
 20
151.5913872081291
 30
0.0
 11
38.10000000000025
 21
151.5913872081291
 31
0.0
  0
LINE
  5
1AE
330
2
100
AcDbEntity
  8
GEB-KONTUR-A
 48
25.0
100
AcDbLine
 10
40.59999999999684
 20
136.5013872081291
 30
0.0
 11
40.59999999999684
 21
193.5913872081292
 31
0.0
  0
LINE
  5
1AF
330
2
100
AcDbEntity
  8
GEB-KONTUR-A
 48
25.0
100
AcDbLine
 10
40.59999999999684
 20
136.5013872081291
 30
0.0
 11
36.32299547118555
 21
136.5013872081291
 31
0.0
  0
LINE
  5
1B0
330
2
100
AcDbEntity
  8
GEB-KONTUR-A
 48
25.0
100
AcDbLine
 10
36.32299547118555
 20
151.5913872081291
 30
0.0
 11
36.32299547118555
 21
136.5013872081291
 31
0.0
  0
LINE
  5
1B1
330
2
100
AcDbEntity
  8
GEB-KONTUR-A
 48
25.0
100
AcDbLine
 10
37.63206744253841
 20
151.5913872081291
 30
0.0
 11
37.63206744253841
 21
154.7913872081293
 31
0.0
  0
LINE
  5
1B2
330
2
100
AcDbEntity
  8
GEB-KONTUR-A
 48
25.0
100
AcDbLine
 10
38.93725722235399
 20
154.7913872081293
 30
0.0
 11
38.93725722235399
 21
193.5913872081292
 31
0.0
  0
LINE
  5
1B3
330
2
100
AcDbEntity
  8
GEB-VERDECKT
 48
25.0
100
AcDbLine
 10
35.10000000000025
 20
148.5913872081292
 30
0.0
 11
35.10000000000025
 21
152.5952347854226
 31
0.0
  0
LINE
  5
1B4
330
2
100
AcDbEntity
  8
GEB-VERDECKT
 48
25.0
100
AcDbLine
 10
-35.09999999999991
 20
148.5913872081292
 30
0.0
 11
-35.09999999999991
 21
152.5952347854226
 31
0.0
  0
LINE
  5
1B5
330
2
100
AcDbEntity
  8
GEB-VERDECKT
 48
25.0
100
AcDbLine
 10
35.10000000000025
 20
152.5952347854226
 30
0.0
 11
38.10000000000025
 21
157.7913872081292
 31
0.0
  0
LINE
  5
1B6
330
2
100
AcDbEntity
  8
GEB-VERDECKT
 48
25.0
100
AcDbLine
 10
-35.09999999999991
 20
152.5952347854226
 30
0.0
 11
-38.0999999999998
 21
157.7913872081292
 31
0.0
  0
LINE
  5
1B7
330
2
100
AcDbEntity
  8
GEB-VERDECKT
 48
25.0
100
AcDbLine
 10
38.10000000000025
 20
157.7913872081292
 30
0.0
 11
38.10000000000025
 21
196.0913872081293
 31
0.0
  0
LINE
  5
1B8
330
2
100
AcDbEntity
  8
GEB-VERDECKT
 48
25.0
100
AcDbLine
 10
-38.0999999999998
 20
157.7913872081292
 30
0.0
 11
-38.0999999999998
 21
196.0913872081293
 31
0.0
  0
LINE
  5
1B9
330
2
100
AcDbEntity
  8
GEB-VERDECKT
 48
25.0
100
AcDbLine
 10
42.30000000000018
 20
196.0913872081293
 30
0.0
 11
42.30000000000018
 21
204.7913872081293
 31
0.0
  0
LINE
  5
1BA
330
2
100
AcDbEntity
  8
GEB-VERDECKT
 48
25.0
100
AcDbLine
 10
-42.29999999999984
 20
196.0913872081293
 30
0.0
 11
-42.29999999999984
 21
204.7913872081293
 31
0.0
  0
LINE
  5
1BB
330
2
100
AcDbEntity
  8
GEB-VERDECKT
 48
25.0
100
AcDbLine
 10
38.10000000000025
 20
204.7913872081293
 30
0.0
 11
38.10000000000025
 21
210.7913872081293
 31
0.0
  0
LINE
  5
1BC
330
2
100
AcDbEntity
  8
GEB-VERDECKT
 48
25.0
100
AcDbLine
 10
-38.0999999999998
 20
204.7913872081293
 30
0.0
 11
-38.0999999999998
 21
210.7913872081293
 31
0.0
  0
LINE
  5
1BD
330
2
100
AcDbEntity
  8
GEB-VERDECKT
 48
25.0
100
AcDbLine
 10
35.10000000000025
 20
152.5952347854226
 30
0.0
 11
-35.09999999999991
 21
152.5952347854226
 31
0.0
  0
LINE
  5
1BE
330
2
100
AcDbEntity
  8
GEB-VERDECKT
 48
25.0
100
AcDbLine
 10
38.10000000000025
 20
157.7913872081292
 30
0.0
 11
-38.0999999999998
 21
157.7913872081292
 31
0.0
  0
LINE
  5
1BF
330
2
100
AcDbEntity
  8
GEB-VERDECKT
 48
25.0
100
AcDbLine
 10
42.30000000000018
 20
196.0913872081293
 30
0.0
 11
-42.29999999999984
 21
196.0913872081293
 31
0.0
  0
LINE
  5
1C0
330
2
100
AcDbEntity
  8
GEB-VERDECKT
 48
25.0
100
AcDbLine
 10
42.30000000000018
 20
204.7913872081293
 30
0.0
 11
-42.29999999999984
 21
204.7913872081293
 31
0.0
  0
LINE
  5
1C1
330
2
100
AcDbEntity
  8
GEB-KONTUR-A
 48
25.0
100
AcDbLine
 10
40.60000000000025
 20
207.2913872081293
 30
0.0
 11
40.60000000000025
 21
210.7913872081293
 31
0.0
  0
LINE
  5
1C2
330
2
100
AcDbEntity
  8
GEB-KONTUR-A
 48
25.0
100
AcDbLine
 10
-40.5999999999998
 20
207.2913872081293
 30
0.0
 11
-40.5999999999998
 21
210.7913872081293
 31
0.0
  0
LINE
  5
1C3
330
2
100
AcDbEntity
  8
GEB-KONTUR-A
 48
25.0
100
AcDbLine
 10
44.80000000000018
 20
193.5913872081292
 30
0.0
 11
44.80000000000018
 21
207.2913872081293
 31
0.0
  0
LINE
  5
1C4
330
2
100
AcDbEntity
  8
GEB-KONTUR-A
 48
25.0
100
AcDbLine
 10
-44.79999999999984
 20
193.5913872081292
 30
0.0
 11
-44.79999999999984
 21
207.2913872081293
 31
0.0
  0
LINE
  5
1C5
330
2
100
AcDbEntity
  8
GEB-KONTUR-A
 48
25.0
100
AcDbLine
 10
40.60000000000025
 20
210.7913872081293
 30
0.0
 11
-40.5999999999998
 21
210.7913872081293
 31
0.0
  0
LINE
  5
1C6
330
2
100
AcDbEntity
  8
GEB-KONTUR-A
 48
25.0
100
AcDbLine
 10
44.80000000000018
 20
207.2913872081293
 30
0.0
 11
-44.79999999999984
 21
207.2913872081293
 31
0.0
  0
LINE
  5
1C7
330
2
100
AcDbEntity
  8
GEB-KONTUR-A
 48
25.0
100
AcDbLine
 10
37.63206744253841
 20
151.5913872081291
 30
0.0
 11
-37.63206744254489
 21
151.5913872081291
 31
0.0
  0
LINE
  5
1C8
330
2
100
AcDbEntity
  8
GEB-KONTUR-A
 48
25.0
100
AcDbLine
 10
38.93725722235399
 20
154.7913872081293
 30
0.0
 11
-38.93725722236036
 21
154.7913872081293
 31
0.0
  0
LINE
  5
1C9
330
2
100
AcDbEntity
  8
GEB-KONTUR-A
 48
25.0
100
AcDbLine
 10
44.80000000000018
 20
193.5913872081292
 30
0.0
 11
-44.79999999999984
 21
193.5913872081292
 31
0.0
  0
LINE
  5
1CA
330
2
100
AcDbEntity
  8
GEB-KONTUR-A
 48
25.0
100
AcDbLine
 10
-37.63206744254489
 20
154.7913872081293
 30
0.0
 11
-37.63206744254489
 21
151.5913872081291
 31
0.0
  0
LINE
  5
1CB
330
2
100
AcDbEntity
  8
GEB-KONTUR-A
 48
25.0
100
AcDbLine
 10
-40.60000000000321
 20
193.5913872081292
 30
0.0
 11
-40.60000000000321
 21
136.5013872081291
 31
0.0
  0
LINE
  5
1CC
330
2
100
AcDbEntity
  8
GEB-KONTUR-A
 48
25.0
100
AcDbLine
 10
-38.93725722236036
 20
193.5913872081292
 30
0.0
 11
-38.93725722236036
 21
154.7913872081293
 31
0.0
  0
LINE
  5
1CD
330
2
100
AcDbEntity
  8
GEB-KONTUR-A
 48
25.0
100
AcDbLine
 10
-40.60000000000321
 20
136.5013872081291
 30
0.0
 11
-36.32299547119192
 21
136.5013872081291
 31
0.0
  0
LINE
  5
1CE
330
2
100
AcDbEntity
  8
GEB-KONTUR-A
 48
25.0
100
AcDbLine
 10
-36.32299547119192
 20
136.5013872081291
 30
0.0
 11
-36.32299547119192
 21
151.5913872081291
 31
0.0
  0
LINE
  5
1CF
330
2
100
AcDbEntity
  8
GEB-VERDECKT
 48
25.0
100
AcDbLine
 10
-38.0999999999998
 20
136.5013872081291
 30
0.0
 11
-38.0999999999998
 21
151.5913872081291
 31
0.0
  0
LINE
  5
1D0
330
2
100
AcDbEntity
  8
GEB-VERDECKT
 48
25.0
100
AcDbLine
 10
-38.0999999999998
 20
151.5913872081291
 30
0.0
 11
-37.6320674425433
 21
151.5913872081291
 31
0.0
  0
LINE
  5
1D1
330
2
100
AcDbEntity
  8
GEB-KONTUR-A
 48
25.0
100
AcDbLine
 10
36.32299547118612
 20
148.5913872081292
 30
0.0
 11
14.99274824705912
 21
148.5913872081292
 31
0.0
  0
LINE
  5
1D2
330
2
100
AcDbEntity
  8
GEB-KONTUR-A
 48
25.0
100
AcDbLine
 10
-14.99274824707913
 20
148.5913872081292
 30
0.0
 11
-36.32299547119146
 21
148.5913872081292
 31
0.0
  0
LINE
  5
1D3
330
2
100
AcDbEntity
  8
GEB-VERDECKT
 48
25.0
100
AcDbLine
 10
-37.59999999999991
 20
151.5913872081291
 30
0.0
 11
-37.59999999999991
 21
148.5913872081292
 31
0.0
  0
LINE
  5
1D4
330
2
100
AcDbEntity
  8
GEB-VERDECKT
 48
25.0
100
AcDbLine
 10
37.60000000000025
 20
151.5913872081291
 30
0.0
 11
37.60000000000025
 21
148.5913872081292
 31
0.0
  0
LINE
  5
1D5
330
2
100
AcDbEntity
  8
GEB-VERDECKT
 48
25.0
100
AcDbLine
 10
37.60000000000025
 20
148.5913872081292
 30
0.0
 11
36.32299547118612
 21
148.5913872081292
 31
0.0
  0
LINE
  5
1D6
330
2
100
AcDbEntity
  8
GEB-VERDECKT
 48
25.0
100
AcDbLine
 10
14.99274824705912
 20
148.5913872081292
 30
0.0
 11
-14.99274824707913
 21
148.5913872081292
 31
0.0
  0
LINE
  5
1D7
330
2
100
AcDbEntity
  8
GEB-VERDECKT
 48
25.0
100
AcDbLine
 10
-36.32299547119146
 20
148.5913872081292
 30
0.0
 11
-37.59999999999991
 21
148.5913872081292
 31
0.0
  0
LINE
  5
1D8
330
2
100
AcDbEntity
  8
GEB-VERDECKT
 48
25.0
100
AcDbLine
 10
35.00000000000023
 20
0.7913872081292084
 30
0.0
 11
35.00000000000023
 21
155.0913872081292
 31
0.0
  0
LINE
  5
1D9
330
2
100
AcDbEntity
  8
GEB-VERDECKT
 48
25.0
100
AcDbLine
 10
-34.99999999999977
 20
0.7913872081292084
 30
0.0
 11
-34.99999999999977
 21
155.0913872081292
 31
0.0
  0
LINE
  5
1DA
330
2
100
AcDbEntity
  8
GEB-VERDECKT
 48
25.0
100
AcDbLine
 10
37.60000000000025
 20
136.5013872081291
 30
0.0
 11
37.60000000000025
 21
155.0913872081292
 31
0.0
  0
LINE
  5
1DB
330
2
100
AcDbEntity
  8
GEB-VERDECKT
 48
25.0
100
AcDbLine
 10
37.60000000000025
 20
80.43665392221203
 30
0.0
 11
37.60000000000025
 21
131.1461204940464
 31
0.0
  0
LINE
  5
1DC
330
2
100
AcDbEntity
  8
GEB-VERDECKT
 48
25.0
100
AcDbLine
 10
-37.59999999999991
 20
136.5013872081291
 30
0.0
 11
-37.59999999999991
 21
155.0913872081292
 31
0.0
  0
LINE
  5
1DD
330
2
100
AcDbEntity
  8
GEB-VERDECKT
 48
25.0
100
AcDbLine
 10
-37.59999999999991
 20
80.43665392221203
 30
0.0
 11
-37.59999999999991
 21
131.1461204940464
 31
0.0
  0
LINE
  5
1DE
330
2
100
AcDbEntity
  8
GEB-VERDECKT
 48
25.0
100
AcDbLine
 10
37.60000000000025
 20
155.0913872081292
 30
0.0
 11
-37.59999999999991
 21
155.0913872081292
 31
0.0
  0
ARC
  5
1DF
330
2
100
AcDbEntity
  8
GEB-KONTUR-A
 48
25.0
100
AcDbCircle
 10
-37.59999999999991
 20
56.46794970812914
 30
0.0
 40
3.023437499999995
100
AcDbArc
 50
90.0
 51
120.8443226374795
  0
ARC
  5
1E0
330
2
100
AcDbEntity
  8
GEB-KONTUR-A
 48
25.0
100
AcDbCircle
 10
37.60000000000025
 20
56.46794970812914
 30
0.0
 40
3.023437499999995
100
AcDbArc
 50
59.15567736252043
 51
90.0
  0
ARC
  5
1E1
330
2
100
AcDbEntity
  8
GEB-KONTUR-A
 48
25.0
100
AcDbCircle
 10
-38.80833333333305
 20
58.49138720812914
 30
0.0
 40
0.6666666666666668
100
AcDbArc
 50
120.8443226374706
 51
239.1556773625205
  0
ARC
  5
1E2
330
2
100
AcDbEntity
  8
GEB-KONTUR-A
 48
25.0
100
AcDbCircle
 10
38.80833333333351
 20
58.49138720812914
 30
0.0
 40
0.6666666666666668
100
AcDbArc
 50
300.8443226374707
 51
59.15567736252043
  0
ARC
  5
1E3
330
2
100
AcDbEntity
  8
GEB-KONTUR-A
 48
25.0
100
AcDbCircle
 10
-37.59999999999991
 20
60.51482470812925
 30
0.0
 40
3.023437499999995
100
AcDbArc
 50
239.1556773625205
 51
270.0
  0
ARC
  5
1E4
330
2
100
AcDbEntity
  8
GEB-KONTUR-A
 48
25.0
100
AcDbCircle
 10
37.60000000000025
 20
60.51482470812925
 30
0.0
 40
3.023437499999995
100
AcDbArc
 50
270.0
 51
300.8443226374795
  0
LINE
  5
1E5
330
2
100
AcDbEntity
  8
GEB-KONTUR-A
 48
25.0
100
AcDbLine
 10
37.60000000000025
 20
4.791387208129322
 30
0.0
 11
37.60000000000025
 21
57.49138720812926
 31
0.0
  0
LINE
  5
1E6
330
2
100
AcDbEntity
  8
GEB-KONTUR-A
 48
25.0
100
AcDbLine
 10
-37.59999999999991
 20
4.791387208129322
 30
0.0
 11
-37.59999999999991
 21
57.49138720812926
 31
0.0
  0
LINE
  5
1E7
330
2
100
AcDbEntity
  8
GEB-KONTUR-A
 48
25.0
100
AcDbLine
 10
36.37707727416557
 20
0.7913872081292084
 30
0.0
 11
37.60000000000025
 21
4.791387208129322
 31
0.0
  0
LINE
  5
1E8
330
2
100
AcDbEntity
  8
GEB-KONTUR-A
 48
25.0
100
AcDbLine
 10
-36.37707727416523
 20
0.7913872081292084
 30
0.0
 11
-37.59999999999991
 21
4.791387208129322
 31
0.0
  0
LINE
  5
1E9
330
2
100
AcDbEntity
  8
GEB-KONTUR-A
 48
25.0
100
AcDbLine
 10
37.60000000000025
 20
131.1461204940464
 30
0.0
 11
37.60000000000025
 21
136.5013872081291
 31
0.0
  0
LINE
  5
1EA
330
2
100
AcDbEntity
  8
GEB-KONTUR-A
 48
25.0
100
AcDbLine
 10
37.60000000000025
 20
59.49138720812925
 30
0.0
 11
37.60000000000025
 21
80.43665392221203
 31
0.0
  0
LINE
  5
1EB
330
2
100
AcDbEntity
  8
GEB-KONTUR-A
 48
25.0
100
AcDbLine
 10
-37.59999999999991
 20
131.1461204940464
 30
0.0
 11
-37.59999999999991
 21
136.5013872081291
 31
0.0
  0
LINE
  5
1EC
330
2
100
AcDbEntity
  8
GEB-KONTUR-A
 48
25.0
100
AcDbLine
 10
-37.59999999999991
 20
59.49138720812925
 30
0.0
 11
-37.59999999999991
 21
80.43665392221203
 31
0.0
  0
LINE
  5
1ED
330
2
100
AcDbEntity
  8
GEB-KONTUR-A
 48
25.0
100
AcDbLine
 10
37.60000000000025
 20
57.49138720812926
 30
0.0
 11
-37.59999999999991
 21
57.49138720812926
 31
0.0
  0
LINE
  5
1EE
330
2
100
AcDbEntity
  8
GEB-KONTUR-A
 48
25.0
100
AcDbLine
 10
37.60000000000025
 20
4.791387208129322
 30
0.0
 11
-37.59999999999991
 21
4.791387208129322
 31
0.0
  0
LINE
  5
1EF
330
2
100
AcDbEntity
  8
GEB-KONTUR-A
 48
25.0
100
AcDbLine
 10
36.37707727416557
 20
0.7913872081292084
 30
0.0
 11
-36.37707727416523
 21
0.7913872081292084
 31
0.0
  0
LINE
  5
1F0
330
2
100
AcDbEntity
  8
GEB-KONTUR-A
 48
25.0
100
AcDbLine
 10
37.60000000000025
 20
59.49138720812925
 30
0.0
 11
-37.59999999999991
 21
59.49138720812925
 31
0.0
  0
CIRCLE
  5
1F1
330
2
100
AcDbEntity
  8
GEB-VERDECKT
 48
25.0
100
AcDbCircle
 10
-0.0000000000163709
 20
105.7913872081292
 30
0.0
 40
39.385
  0
CIRCLE
  5
1F2
330
2
100
AcDbEntity
  8
GEB-VERDECKT
 48
25.0
100
AcDbCircle
 10
-0.0000000000163709
 20
105.7913872081292
 30
0.0
 40
34.75
  0
LINE
  5
1F3
330
2
100
AcDbEntity
  8
GEB-VERDECKT
 48
25.0
100
AcDbLine
 10
-0.0000000000109139
 20
66.4063872081291
 30
0.0
 11
-0.0000000000109139
 21
68.72388720812921
 31
0.0
  0
LINE
  5
1F4
330
2
100
AcDbEntity
  8
GEB-VERDECKT
 48
25.0
100
AcDbLine
 10
-0.0000000000110276
 20
142.8588872081292
 30
0.0
 11
-0.0000000000109139
 21
145.1763872081293
 31
0.0
  0
ARC
  5
1F5
330
2
100
AcDbEntity
  8
GEB-VERDECKT
 48
25.0
100
AcDbCircle
 10
-0.0000000000110276
 20
105.7913872081292
 30
0.0
 40
37.06749999999999
100
AcDbArc
 50
90.0
 51
270.0
  0
ARC
  5
1F6
330
2
100
AcDbEntity
  8
GEB-VERDECKT
 48
25.0
100
AcDbCircle
 10
-0.0000000000109139
 20
105.7913872081292
 30
0.0
 40
37.06749999999999
100
AcDbArc
 50
270.0
 51
90.0
  0
TEXT
  5
1F7
330
2
100
AcDbEntity
  8
GEB-TEXT
100
AcDbText
 10
-36.55303547068599
 20
-12.20861279187079
 30
0.0
 40
3.5
  1
Reinigungsstück PP-MD 90G d75
 72
     1
 11
-0.0000000000175078
 21
-12.20861279187079
 31
0.0
100
AcDbText
  0
TEXT
  5
1F9
330
2
100
AcDbEntity
  8
GEB-TEXT
100
AcDbText
 10
-18.75221691679786
 20
-6.708612791870791
 30
0.0
 40
3.5
  1
Geberit Silent PP
 72
     1
 11
-0.0000000000175078
 21
-6.708612791870791
 31
0.0
100
AcDbText
  0
TEXT
  5
1FA
330
2
100
AcDbEntity
  8
GEB-ART-NR
100
AcDbText
 10
-24.17544479966311
 20
-18.55139404615101
 30
0.0
 40
3.5
  1
GEB-ART-NR 390.327
 72
     1
 11
0.5525565645933739
 21
-18.55139404615101
 31
0.0
100
AcDbText
  0
ENDSEC
  0
SECTION
  2
OBJECTS
  0
DICTIONARY
  5
9
330
0
100
AcDbDictionary
281
     1
  3
ACAD_2007HEADERVARS_RT
350
229
  3
ACAD_COLOR
350
44
  3
ACAD_GROUP
350
31
  3
ACAD_LAYOUT
350
16
  3
ACAD_MATERIAL
350
B
  3
ACAD_MLEADERSTYLE
350
47
  3
ACAD_MLINESTYLE
350
32
  3
ACAD_PLOTSETTINGS
350
33
  3
ACAD_PLOTSTYLENAME
350
8
  3
ACAD_SCALELIST
350
45
  3
ACAD_TABLESTYLE
350
46
  3
ACAD_VISUALSTYLE
350
2B
  3
ACDB_RECOMPOSE_DATA
350
228
  3
AcDbVariableDictionary
350
1FE
  0
DICTIONARY
  5
2C
330
28
100
AcDbDictionary
280
     1
281
     1
  0
DICTIONARY
  5
1C
330
1B
100
AcDbDictionary
280
     1
281
     1
  3
ACAD_LAYERFILTERS
360
1D
  3
ACLYDICTIONARY
360
1E
  0
DICTIONARY
  5
3
330
2
100
AcDbDictionary
280
     1
281
     1
  3
ACAD_SORTENTS
360
1FC
  0
DICTIONARY
  5
229
102
{ACAD_REACTORS
330
9
102
}
330
9
100
AcDbDictionary
281
     1
  3
DIMARCSYM
350
22A
  3
DIMLTEX1
350
22C
  3
DIMLTEX2
350
22D
  3
DIMLTYPE
350
22B
  0
DICTIONARY
  5
44
102
{ACAD_REACTORS
330
9
102
}
330
9
100
AcDbDictionary
281
     1
  0
DICTIONARY
  5
31
102
{ACAD_REACTORS
330
9
102
}
330
9
100
AcDbDictionary
281
     1
  0
DICTIONARY
  5
16
102
{ACAD_REACTORS
330
9
102
}
330
9
100
AcDbDictionary
281
     1
  3
Layout1
350
1A
  3
Model
350
15
  0
DICTIONARY
  5
B
102
{ACAD_REACTORS
330
9
102
}
330
9
100
AcDbDictionary
281
     1
  3
ByBlock
350
3C
  3
ByLayer
350
34
  3
Global
350
A
  0
DICTIONARY
  5
47
102
{ACAD_REACTORS
330
9
102
}
330
9
100
AcDbDictionary
281
     1
  3
Standard
350
21C
  0
DICTIONARY
  5
32
102
{ACAD_REACTORS
330
9
102
}
330
9
100
AcDbDictionary
281
     1
  3
Standard
350
48
  0
DICTIONARY
  5
33
102
{ACAD_REACTORS
330
9
102
}
330
9
100
AcDbDictionary
281
     1
  0
ACDBDICTIONARYWDFLT
  5
8
102
{ACAD_REACTORS
330
9
102
}
330
9
100
AcDbDictionary
281
     1
  3
Normal
350
7
100
AcDbDictionaryWithDefault
340
7
  0
DICTIONARY
  5
45
102
{ACAD_REACTORS
330
9
102
}
330
9
100
AcDbDictionary
281
     1
  3
A0
350
4D
  3
A1
350
4E
  3
A2
350
4F
  3
A3
350
50
  3
A4
350
51
  3
A5
350
52
  3
A6
350
53
  3
A7
350
54
  3
A8
350
55
  3
A9
350
56
  3
B0
350
57
  3
B1
350
58
  3
B2
350
59
  3
B3
350
5A
  3
B4
350
5B
  3
B5
350
5C
  3
B6
350
5D
  3
B7
350
5E
  3
B8
350
5F
  3
B9
350
60
  3
C0
350
61
  3
C1
350
62
  3
C2
350
63
  3
C3
350
64
  3
C4
350
65
  3
C5
350
66
  3
C6
350
67
  3
C7
350
68
  3
C8
350
69
  3
C9
350
6A
  3
D0
350
6B
  3
D1
350
6C
  3
D2
350
6D
  0
DICTIONARY
  5
46
102
{ACAD_REACTORS
330
9
102
}
330
9
100
AcDbDictionary
281
     1
  3
Standard
350
49
  0
DICTIONARY
  5
2B
102
{ACAD_REACTORS
330
9
102
}
330
9
100
AcDbDictionary
281
     1
  3
2dWireframe
350
2A
  3
Basic
350
20B
  3
Brighten
350
20F
  3
ColorChange
350
213
  3
Conceptual
350
20D
  3
Dim
350
20E
  3
EdgeColorOff
350
21B
  3
Facepattern
350
212
  3
Flat
350
207
  3
FlatWithEdges
350
208
  3
Gouraud
350
209
  3
GouraudWithEdges
350
20A
  3
Hidden
350
20C
  3
JitterOff
350
219
  3
Linepattern
350
211
  3
OverhangOff
350
21A
  3
Realistic
350
4B
  3
Shaded
350
218
  3
Shaded with edges
350
217
  3
Shades of Gray
350
214
  3
Sketchy
350
215
  3
Thicken
350
210
  3
Wireframe
350
4C
  3
X-Ray
350
216
  0
XRECORD
  5
228
102
{ACAD_REACTORS
330
9
102
}
330
9
100
AcDbXrecord
280
     1
 90
        1
330
49
  0
DICTIONARY
  5
1FE
102
{ACAD_REACTORS
330
9
102
}
330
9
100
AcDbDictionary
281
     1
  3
CANNOSCALE
350
202
  3
CMLEADERSTYLE
350
200
  3
CTABLESTYLE
350
1FF
  3
DIMASSOC
350
225
  3
HIDETEXT
350
224
  3
INDEXCTL
350
223
  3
LAYEREVAL
350
204
  3
LAYERNOTIFY
350
205
  3
LIGHTINGUNITS
350
203
  3
MSLTSCALE
350
201
  3
SORTENTS
350
222
  3
XCLIPFRAME
350
226
  0
DICTIONARY
  5
1D
102
{ACAD_REACTORS
330
1C
102
}
330
1C
100
AcDbDictionary
281
     1
  0
DICTIONARY
  5
1E
102
{ACAD_REACTORS
330
1C
102
}
330
1C
100
AcDbDictionary
281
     1
1001
ACAD
1000
<All
  0
SORTENTSTABLE
  5
1FC
102
{ACAD_REACTORS
330
3
102
}
330
3
100
AcDbSortentsTable
330
2
331
79
  5
1F4
331
B8
  5
1B7
331
1AC
  5
C3
331
136
  5
138
331
F7
  5
177
331
81
  5
1EE
331
C0
  5
1AF
331
16D
  5
101
331
1E3
  5
8C
331
1B4
  5
BB
331
175
  5
F9
331
FF
  5
16F
331
C8
  5
1A7
331
89
  5
1E6
331
13E
  5
130
331
1EB
  5
84
331
1F3
  5
7A
331
17D
  5
F1
331
146
  5
128
331
D0
  5
19F
331
91
  5
1DE
331
107
  5
167
331
1BC
  5
B3
331
1C4
  5
AB
331
14E
  5
120
331
10F
  5
15F
331
185
  5
E9
331
D8
  5
197
331
99
  5
1D6
331
1CC
  5
A3
331
156
  5
118
331
117
  5
157
331
A1
  5
1CE
331
E0
  5
18F
331
18D
  5
E2
331
1D4
  5
9B
331
195
  5
DA
331
11F
  5
14F
331
E8
  5
187
331
A9
  5
1C6
331
15E
  5
110
331
19D
  5
D2
331
166
  5
108
331
B1
  5
1BE
331
127
  5
147
331
1DC
  5
93
331
1A5
  5
CA
331
12F
  5
13F
331
F0
  5
17E
331
B9
  5
1B6
331
7A
  5
1F3
331
1E4
  5
8B
331
16E
  5
100
331
C1
  5
1AE
331
82
  5
1ED
331
F8
  5
176
331
1AD
  5
C2
331
1EC
  5
83
331
1B5
  5
BA
331
13F
  5
12F
331
100
  5
16E
331
8A
  5
1E5
331
C9
  5
1A6
331
176
  5
F8
331
1BD
  5
B2
331
147
  5
127
331
108
  5
166
331
92
  5
1DD
331
D1
  5
19E
331
17E
  5
F0
331
1F4
  5
79
331
1C5
  5
AA
331
14F
  5
11F
331
110
  5
15E
331
D9
  5
196
331
9A
  5
1D5
331
18E
  5
E1
331
157
  5
117
331
E1
  5
18E
331
A2
  5
1CD
331
118
  5
156
331
1CD
  5
A2
331
1D5
  5
9A
331
15F
  5
10F
331
E9
  5
185
331
AA
  5
1C5
331
120
  5
14E
331
196
  5
D9
331
1DD
  5
92
331
167
  5
107
331
B2
  5
1BD
331
128
  5
146
331
19E
  5
D1
331
1A6
  5
C9
331
130
  5
13E
331
F1
  5
17D
331
7B
  5
1F2
331
BA
  5
1B5
331
1AE
  5
C1
331
16F
  5
FF
331
F9
  5
175
331
83
  5
1EC
331
C2
  5
1AD
331
138
  5
136
331
1E5
  5
8A
331
1B6
  5
B9
331
177
  5
F7
331
101
  5
16D
331
CA
  5
1A5
331
8B
  5
1E4
331
140
  5
12E
331
1ED
  5
82
331
1F5
  5
75
331
17F
  5
EF
331
148
  5
126
331
D2
  5
19D
331
93
  5
1DC
331
109
  5
165
331
1BE
  5
B1
331
1C6
  5
A9
331
187
  5
E8
331
150
  5
11E
331
111
  5
15D
331
9B
  5
1D4
331
DA
  5
195
331
1CE
  5
A1
331
158
  5
116
331
119
  5
155
331
A3
  5
1CC
331
E2
  5
18D
331
18F
  5
E0
331
1D6
  5
99
331
197
  5
D8
331
121
  5
14D
331
EA
  5
184
331
AB
  5
1C4
331
160
  5
10E
331
19F
  5
D0
331
B3
  5
1BC
331
129
  5
145
331
1DE
  5
91
331
1A7
  5
C8
331
168
  5
106
331
F2
  5
17C
331
BB
  5
1B4
331
7C
  5
1F1
331
131
  5
13D
331
1E6
  5
89
331
170
  5
FE
331
139
  5
135
331
C3
  5
1AC
331
84
  5
1EB
331
FA
  5
174
331
1AF
  5
C0
331
1EE
  5
81
331
1B7
  5
B8
331
141
  5
12D
331
102
  5
16C
331
8C
  5
1E3
331
CB
  5
1A4
331
178
  5
F6
331
1BF
  5
B0
331
180
  5
EE
331
10A
  5
164
331
94
  5
1DB
331
D3
  5
19C
331
149
  5
125
331
1F6
  5
6E
331
1C7
  5
A8
331
75
  5
1F5
331
188
  5
E7
331
112
  5
15C
331
DB
  5
194
331
9C
  5
1D3
331
151
  5
11D
331
190
  5
DF
331
159
  5
115
331
E3
  5
18C
331
A4
  5
1CB
331
11A
  5
154
331
1CF
  5
A0
331
1D7
  5
98
331
161
  5
10D
331
122
  5
14C
331
AC
  5
1C3
331
EB
  5
183
331
198
  5
D7
331
1DF
  5
90
331
B4
  5
1BB
331
12A
  5
144
331
1A0
  5
CF
331
1A8
  5
C7
331
132
  5
13C
331
F3
  5
17B
331
7D
  5
1F0
331
BC
  5
1B3
331
169
  5
105
331
1B0
  5
BF
331
171
  5
FD
331
FB
  5
173
331
C4
  5
1AB
331
85
  5
1EA
331
13A
  5
134
331
1E7
  5
88
331
1EF
  5
7E
331
179
  5
F5
331
103
  5
16B
331
CC
  5
1A3
331
8D
  5
1E2
331
142
  5
12C
331
1B8
  5
B7
331
1F7
  5
1FA
331
181
  5
ED
331
14A
  5
124
331
D4
  5
19B
331
95
  5
1DA
331
10B
  5
163
331
1C0
  5
AF
331
6E
  5
1F6
331
1C8
  5
A7
331
152
  5
11C
331
113
  5
15B
331
9D
  5
1D2
331
DC
  5
193
331
189
  5
E6
331
1D0
  5
9F
331
191
  5
DE
331
11B
  5
153
331
A5
  5
1CA
331
E4
  5
18B
331
15A
  5
114
331
1D8
  5
97
331
199
  5
D6
331
123
  5
14B
331
EC
  5
182
331
AD
  5
1C2
331
162
  5
10C
331
1A1
  5
CE
331
B5
  5
1BA
331
12B
  5
143
331
1E0
  5
8F
331
16A
  5
104
331
133
  5
13B
331
BD
  5
1B2
331
7E
  5
1EF
331
F4
  5
17A
331
1A9
  5
C6
331
1E8
  5
87
331
172
  5
FC
331
13B
  5
133
331
C5
  5
1AA
331
86
  5
1E9
331
FC
  5
172
331
1B1
  5
BE
331
1F0
  5
7D
331
1B9
  5
B6
331
143
  5
12B
331
104
  5
16A
331
8E
  5
1E1
331
CD
  5
1A2
331
17A
  5
F4
331
1C1
  5
AE
331
182
  5
EC
331
10C
  5
162
331
D5
  5
19A
331
96
  5
1D9
331
14B
  5
123
331
18A
  5
E5
331
114
  5
15A
331
DD
  5
192
331
9E
  5
1D1
331
153
  5
11B
331
1C9
  5
A6
331
192
  5
DD
331
15B
  5
113
331
E5
  5
18A
331
A6
  5
1C9
331
11C
  5
152
331
1D1
  5
9E
331
1D9
  5
96
331
163
  5
10B
331
124
  5
14A
331
AE
  5
1C1
331
ED
  5
181
331
19A
  5
D5
331
B6
  5
1B9
331
12C
  5
142
331
1A2
  5
CD
331
1E1
  5
8E
331
1AA
  5
C5
331
134
  5
13A
331
F5
  5
179
331
BE
  5
1B1
331
16B
  5
103
331
1B2
  5
BD
331
173
  5
FB
331
FD
  5
171
331
C6
  5
1A9
331
87
  5
1E8
331
13C
  5
132
331
1E9
  5
86
331
1F1
  5
7C
331
17B
  5
F3
331
144
  5
12A
331
CE
  5
1A1
331
8F
  5
1E0
331
105
  5
169
331
1BA
  5
B5
331
183
  5
EB
331
14C
  5
122
331
D6
  5
199
331
97
  5
1D8
331
10D
  5
161
331
1C2
  5
AD
331
1CA
  5
A5
331
154
  5
11A
331
115
  5
159
331
9F
  5
1D0
331
DE
  5
191
331
18B
  5
E4
331
1D2
  5
9D
331
193
  5
DC
331
11D
  5
151
331
E6
  5
189
331
A7
  5
1C8
331
15C
  5
112
331
19B
  5
D4
331
125
  5
149
331
EE
  5
180
331
AF
  5
1C0
331
164
  5
10A
331
1DA
  5
95
331
1A3
  5
CC
331
B7
  5
1B8
331
12D
  5
141
331
1E2
  5
8D
331
16C
  5
102
331
135
  5
139
331
BF
  5
1B0
331
F6
  5
178
331
1AB
  5
C4
331
1EA
  5
85
331
1B3
  5
BC
331
13D
  5
131
331
C7
  5
1A8
331
88
  5
1E7
331
FE
  5
170
331
174
  5
FA
331
1F2
  5
7B
331
1BB
  5
B4
331
145
  5
129
331
106
  5
168
331
90
  5
1DF
331
CF
  5
1A0
331
17C
  5
F2
331
1C3
  5
AC
331
184
  5
EA
331
10E
  5
160
331
D7
  5
198
331
14D
  5
121
331
1FA
  5
1F7
331
98
  5
1D7
331
18C
  5
E3
331
155
  5
119
331
DF
  5
190
331
A0
  5
1CF
331
116
  5
158
331
1CB
  5
A4
331
194
  5
DB
331
15D
  5
111
331
E7
  5
188
331
A8
  5
1C7
331
11E
  5
150
331
1D3
  5
9C
331
1DB
  5
94
331
165
  5
109
331
126
  5
148
331
B0
  5
1BF
331
EF
  5
17F
331
19C
  5
D3
331
12E
  5
140
331
1A4
  5
CB
  0
XRECORD
  5
22A
102
{ACAD_REACTORS
330
229
102
}
330
229
100
AcDbXrecord
280
     1
 70
     1
  0
XRECORD
  5
22C
102
{ACAD_REACTORS
330
229
102
}
330
229
100
AcDbXrecord
280
     1
340
24
  0
XRECORD
  5
22D
102
{ACAD_REACTORS
330
229
102
}
330
229
100
AcDbXrecord
280
     1
340
24
  0
XRECORD
  5
22B
102
{ACAD_REACTORS
330
229
102
}
330
229
100
AcDbXrecord
280
     1
340
24
  0
LAYOUT
  5
1A
102
{ACAD_XDICTIONARY
360
231
102
}
102
{ACAD_REACTORS
330
16
102
}
330
16
100
AcDbPlotSettings
  1

  2
\\le-server\HP LaserJet 2100
  4

  6

 40
0.0
 41
0.0
 42
0.0
 43
0.0
 44
0.0
 45
0.0
 46
0.0
 47
0.0
 48
0.0
 49
0.0
140
0.0
141
0.0
142
1.0
143
1.0
 70
   688
 72
     0
 73
     0
 74
     5
  7

 75
    16
147
1.0
148
0.0
149
0.0
100
AcDbLayout
  1
Layout1
 70
     1
 71
     1
 10
0.0
 20
0.0
 11
1189.0
 21
840.9999999999998
 12
0.0
 22
0.0
 32
0.0
 14
0.0
 24
0.0
 34
0.0
 15
1189.0
 25
840.9999999999998
 35
0.0
146
0.0
 13
0.0
 23
0.0
 33
0.0
 16
1.0
 26
0.0
 36
0.0
 17
0.0
 27
1.0
 37
0.0
 76
     0
330
17
  0
LAYOUT
  5
15
102
{ACAD_XDICTIONARY
360
22F
102
}
102
{ACAD_REACTORS
330
16
102
}
330
16
100
AcDbPlotSettings
  1

  2
\\le-server\HP LaserJet 2100
  4

  6

 40
0.0
 41
0.0
 42
0.0
 43
0.0
 44
0.0
 45
0.0
 46
0.0
 47
0.0
 48
0.0
 49
0.0
140
0.0
141
0.0
142
1.0
143
1.0
 70
  1712
 72
     0
 73
     0
 74
     0
  7

 75
     0
147
1.0
148
0.0
149
0.0
100
AcDbLayout
  1
Model
 70
     1
 71
     0
 10
0.0
 20
0.0
 11
12.0
 21
9.0
 12
0.0
 22
0.0
 32
0.0
 14
0.0
 24
0.0
 34
0.0
 15
0.0
 25
0.0
 35
0.0
146
0.0
 13
0.0
 23
0.0
 33
0.0
 16
1.0
 26
0.0
 36
0.0
 17
0.0
 27
1.0
 37
0.0
 76
     0
330
2
331
29
  0
MATERIAL
  5
3C
102
{ACAD_XDICTIONARY
360
3D
102
}
102
{ACAD_REACTORS
330
B
102
}
330
B
100
AcDbMaterial
  1
ByBlock
 72
     0
 43
0.0208333333333333
 43
0.0
 43
0.0
 43
0.0
 43
0.0
 43
0.0208333333333333
 43
0.0
 43
0.0
 43
0.0
 43
0.0
 43
1.0
 43
0.0
 43
0.0
 43
0.0
 43
0.0
 43
1.0
 77
     0
 47
0.0208333333333333
 47
0.0
 47
0.0
 47
0.0
 47
0.0
 47
0.0208333333333333
 47
0.0
 47
0.0
 47
0.0
 47
0.0
 47
1.0
 47
0.0
 47
0.0
 47
0.0
 47
0.0
 47
1.0
171
     0
 49
0.0208333333333333
 49
0.0
 49
0.0
 49
0.0
 49
0.0
 49
0.0208333333333333
 49
0.0
 49
0.0
 49
0.0
 49
0.0
 49
1.0
 49
0.0
 49
0.0
 49
0.0
 49
0.0
 49
1.0
175
     0
142
0.0208333333333333
142
0.0
142
0.0
142
0.0
142
0.0
142
0.0208333333333333
142
0.0
142
0.0
142
0.0
142
0.0
142
1.0
142
0.0
142
0.0
142
0.0
142
0.0
142
1.0
179
     0
144
0.0208333333333333
144
0.0
144
0.0
144
0.0
144
0.0
144
0.0208333333333333
144
0.0
144
0.0
144
0.0
144
0.0
144
1.0
144
0.0
144
0.0
144
0.0
144
0.0
144
1.0
147
0.0208333333333333
147
0.0
147
0.0
147
0.0
147
0.0
147
0.0208333333333333
147
0.0
147
0.0
147
0.0
147
0.0
147
1.0
147
0.0
147
0.0
147
0.0
147
0.0
147
1.0
  0
MATERIAL
  5
34
102
{ACAD_XDICTIONARY
360
35
102
}
102
{ACAD_REACTORS
330
B
102
}
330
B
100
AcDbMaterial
  1
ByLayer
 72
     0
 43
0.0208333333333333
 43
0.0
 43
0.0
 43
0.0
 43
0.0
 43
0.0208333333333333
 43
0.0
 43
0.0
 43
0.0
 43
0.0
 43
1.0
 43
0.0
 43
0.0
 43
0.0
 43
0.0
 43
1.0
 77
     0
 47
0.0208333333333333
 47
0.0
 47
0.0
 47
0.0
 47
0.0
 47
0.0208333333333333
 47
0.0
 47
0.0
 47
0.0
 47
0.0
 47
1.0
 47
0.0
 47
0.0
 47
0.0
 47
0.0
 47
1.0
171
     0
 49
0.0208333333333333
 49
0.0
 49
0.0
 49
0.0
 49
0.0
 49
0.0208333333333333
 49
0.0
 49
0.0
 49
0.0
 49
0.0
 49
1.0
 49
0.0
 49
0.0
 49
0.0
 49
0.0
 49
1.0
175
     0
142
0.0208333333333333
142
0.0
142
0.0
142
0.0
142
0.0
142
0.0208333333333333
142
0.0
142
0.0
142
0.0
142
0.0
142
1.0
142
0.0
142
0.0
142
0.0
142
0.0
142
1.0
179
     0
144
0.0208333333333333
144
0.0
144
0.0
144
0.0
144
0.0
144
0.0208333333333333
144
0.0
144
0.0
144
0.0
144
0.0
144
1.0
144
0.0
144
0.0
144
0.0
144
0.0
144
1.0
147
0.0208333333333333
147
0.0
147
0.0
147
0.0
147
0.0
147
0.0208333333333333
147
0.0
147
0.0
147
0.0
147
0.0
147
1.0
147
0.0
147
0.0
147
0.0
147
0.0
147
1.0
  0
MATERIAL
  5
A
102
{ACAD_XDICTIONARY
360
C
102
}
102
{ACAD_REACTORS
330
B
102
}
330
B
100
AcDbMaterial
  1
Global
 72
     0
 43
0.0208333333333333
 43
0.0
 43
0.0
 43
0.0
 43
0.0
 43
0.0208333333333333
 43
0.0
 43
0.0
 43
0.0
 43
0.0
 43
1.0
 43
0.0
 43
0.0
 43
0.0
 43
0.0
 43
1.0
 77
     0
 47
0.0208333333333333
 47
0.0
 47
0.0
 47
0.0
 47
0.0
 47
0.0208333333333333
 47
0.0
 47
0.0
 47
0.0
 47
0.0
 47
1.0
 47
0.0
 47
0.0
 47
0.0
 47
0.0
 47
1.0
171
     0
 49
0.0208333333333333
 49
0.0
 49
0.0
 49
0.0
 49
0.0
 49
0.0208333333333333
 49
0.0
 49
0.0
 49
0.0
 49
0.0
 49
1.0
 49
0.0
 49
0.0
 49
0.0
 49
0.0
 49
1.0
175
     0
142
0.0208333333333333
142
0.0
142
0.0
142
0.0
142
0.0
142
0.0208333333333333
142
0.0
142
0.0
142
0.0
142
0.0
142
1.0
142
0.0
142
0.0
142
0.0
142
0.0
142
1.0
179
     0
144
0.0208333333333333
144
0.0
144
0.0
144
0.0
144
0.0
144
0.0208333333333333
144
0.0
144
0.0
144
0.0
144
0.0
144
1.0
144
0.0
144
0.0
144
0.0
144
0.0
144
1.0
147
0.0208333333333333
147
0.0
147
0.0
147
0.0
147
0.0
147
0.0208333333333333
147
0.0
147
0.0
147
0.0
147
0.0
147
1.0
147
0.0
147
0.0
147
0.0
147
0.0
147
1.0
  0
MLEADERSTYLE
  5
21C
102
{ACAD_REACTORS
330
47
102
}
330
47
100
AcDbMLeaderStyle
170
     2
171
     1
172
     0
 90
        2
 40
0.0
 41
0.0
173
     1
 91
-1056964608
340
24
 92
       -2
290
     1
 42
2.0
291
     1
 43
0.36
  3
Standard
 44
4.0
300

342
21
174
     1
178
     6
175
     1
176
     0
 93
-1056964608
 45
4.0
292
     0
297
     0
 46
4.0
 94
-1056964608
 47
1.0
 49
1.0
140
1.0
293
     1
141
0.0
294
     1
177
     0
142
1.0
295
     0
296
     0
143
0.125
1001
ACAD_MLEADERVER
1070
     2
  0
MLINESTYLE
  5
48
102
{ACAD_REACTORS
330
32
102
}
330
32
100
AcDbMlineStyle
  2
STANDARD
 70
     0
  3

 62
   256
 51
90.0
 52
90.0
 71
     2
 49
0.5
 62
   256
  6
BYLAYER
 49
-0.5
 62
   256
  6
BYLAYER
  0
ACDBPLACEHOLDER
  5
7
102
{ACAD_REACTORS
330
8
102
}
330
8
  0
SCALE
  5
4D
102
{ACAD_REACTORS
330
45
102
}
330
45
100
AcDbScale
 70
     0
300
1:1
140
1.0
141
1.0
290
     1
  0
SCALE
  5
4E
102
{ACAD_REACTORS
330
45
102
}
330
45
100
AcDbScale
 70
     0
300
1:2
140
1.0
141
2.0
290
     0
  0
SCALE
  5
4F
102
{ACAD_REACTORS
330
45
102
}
330
45
100
AcDbScale
 70
     0
300
1:4
140
1.0
141
4.0
290
     0
  0
SCALE
  5
50
102
{ACAD_REACTORS
330
45
102
}
330
45
100
AcDbScale
 70
     0
300
1:5
140
1.0
141
5.0
290
     0
  0
SCALE
  5
51
102
{ACAD_REACTORS
330
45
102
}
330
45
100
AcDbScale
 70
     0
300
1:8
140
1.0
141
8.0
290
     0
  0
SCALE
  5
52
102
{ACAD_REACTORS
330
45
102
}
330
45
100
AcDbScale
 70
     0
300
1:10
140
1.0
141
10.0
290
     0
  0
SCALE
  5
53
102
{ACAD_REACTORS
330
45
102
}
330
45
100
AcDbScale
 70
     0
300
1:16
140
1.0
141
16.0
290
     0
  0
SCALE
  5
54
102
{ACAD_REACTORS
330
45
102
}
330
45
100
AcDbScale
 70
     0
300
1:20
140
1.0
141
20.0
290
     0
  0
SCALE
  5
55
102
{ACAD_REACTORS
330
45
102
}
330
45
100
AcDbScale
 70
     0
300
1:30
140
1.0
141
30.0
290
     0
  0
SCALE
  5
56
102
{ACAD_REACTORS
330
45
102
}
330
45
100
AcDbScale
 70
     0
300
1:40
140
1.0
141
40.0
290
     0
  0
SCALE
  5
57
102
{ACAD_REACTORS
330
45
102
}
330
45
100
AcDbScale
 70
     0
300
1:50
140
1.0
141
50.0
290
     0
  0
SCALE
  5
58
102
{ACAD_REACTORS
330
45
102
}
330
45
100
AcDbScale
 70
     0
300
1:100
140
1.0
141
100.0
290
     0
  0
SCALE
  5
59
102
{ACAD_REACTORS
330
45
102
}
330
45
100
AcDbScale
 70
     0
300
2:1
140
2.0
141
1.0
290
     0
  0
SCALE
  5
5A
102
{ACAD_REACTORS
330
45
102
}
330
45
100
AcDbScale
 70
     0
300
4:1
140
4.0
141
1.0
290
     0
  0
SCALE
  5
5B
102
{ACAD_REACTORS
330
45
102
}
330
45
100
AcDbScale
 70
     0
300
8:1
140
8.0
141
1.0
290
     0
  0
SCALE
  5
5C
102
{ACAD_REACTORS
330
45
102
}
330
45
100
AcDbScale
 70
     0
300
10:1
140
10.0
141
1.0
290
     0
  0
SCALE
  5
5D
102
{ACAD_REACTORS
330
45
102
}
330
45
100
AcDbScale
 70
     0
300
100:1
140
100.0
141
1.0
290
     0
  0
SCALE
  5
5E
102
{ACAD_REACTORS
330
45
102
}
330
45
100
AcDbScale
 70
     0
300
1/128" = 1'-0"
140
0.0078125
141
12.0
290
     0
  0
SCALE
  5
5F
102
{ACAD_REACTORS
330
45
102
}
330
45
100
AcDbScale
 70
     0
300
1/64" = 1'-0"
140
0.015625
141
12.0
290
     0
  0
SCALE
  5
60
102
{ACAD_REACTORS
330
45
102
}
330
45
100
AcDbScale
 70
     0
300
1/32" = 1'-0"
140
0.03125
141
12.0
290
     0
  0
SCALE
  5
61
102
{ACAD_REACTORS
330
45
102
}
330
45
100
AcDbScale
 70
     0
300
1/16" = 1'-0"
140
0.0625
141
12.0
290
     0
  0
SCALE
  5
62
102
{ACAD_REACTORS
330
45
102
}
330
45
100
AcDbScale
 70
     0
300
3/32" = 1'-0"
140
0.09375
141
12.0
290
     0
  0
SCALE
  5
63
102
{ACAD_REACTORS
330
45
102
}
330
45
100
AcDbScale
 70
     0
300
1/8" = 1'-0"
140
0.125
141
12.0
290
     0
  0
SCALE
  5
64
102
{ACAD_REACTORS
330
45
102
}
330
45
100
AcDbScale
 70
     0
300
3/16" = 1'-0"
140
0.1875
141
12.0
290
     0
  0
SCALE
  5
65
102
{ACAD_REACTORS
330
45
102
}
330
45
100
AcDbScale
 70
     0
300
1/4" = 1'-0"
140
0.25
141
12.0
290
     0
  0
SCALE
  5
66
102
{ACAD_REACTORS
330
45
102
}
330
45
100
AcDbScale
 70
     0
300
3/8" = 1'-0"
140
0.375
141
12.0
290
     0
  0
SCALE
  5
67
102
{ACAD_REACTORS
330
45
102
}
330
45
100
AcDbScale
 70
     0
300
1/2" = 1'-0"
140
0.5
141
12.0
290
     0
  0
SCALE
  5
68
102
{ACAD_REACTORS
330
45
102
}
330
45
100
AcDbScale
 70
     0
300
3/4" = 1'-0"
140
0.75
141
12.0
290
     0
  0
SCALE
  5
69
102
{ACAD_REACTORS
330
45
102
}
330
45
100
AcDbScale
 70
     0
300
1" = 1'-0"
140
1.0
141
12.0
290
     0
  0
SCALE
  5
6A
102
{ACAD_REACTORS
330
45
102
}
330
45
100
AcDbScale
 70
     0
300
1-1/2" = 1'-0"
140
1.5
141
12.0
290
     0
  0
SCALE
  5
6B
102
{ACAD_REACTORS
330
45
102
}
330
45
100
AcDbScale
 70
     0
300
3" = 1'-0"
140
3.0
141
12.0
290
     0
  0
SCALE
  5
6C
102
{ACAD_REACTORS
330
45
102
}
330
45
100
AcDbScale
 70
     0
300
6" = 1'-0"
140
6.0
141
12.0
290
     0
  0
SCALE
  5
6D
102
{ACAD_REACTORS
330
45
102
}
330
45
100
AcDbScale
 70
     0
300
1'-0" = 1'-0"
140
12.0
141
12.0
290
     0
  0
TABLESTYLE
  5
49
102
{ACAD_XDICTIONARY
360
4A
102
}
102
{ACAD_REACTORS
330
46
102
}
330
46
100
AcDbTableStyle
  3
Standard
 70
     0
 71
     0
 40
0.06
 41
0.06
280
     0
281
     0
  7
STANDARD
140
0.18
170
     2
 62
     0
 63
     7
283
     0
274
    -2
284
     1
 64
     0
275
    -2
285
     1
 65
     0
276
    -2
286
     1
 66
     0
277
    -2
287
     1
 67
     0
278
    -2
288
     1
 68
     0
279
    -2
289
     1
 69
     0
  7
STANDARD
140
0.25
170
     5
 62
     0
 63
     7
283
     0
274
    -2
284
     1
 64
     0
275
    -2
285
     1
 65
     0
276
    -2
286
     1
 66
     0
277
    -2
287
     1
 67
     0
278
    -2
288
     1
 68
     0
279
    -2
289
     1
 69
     0
  7
STANDARD
140
0.18
170
     5
 62
     0
 63
     7
283
     0
274
    -2
284
     1
 64
     0
275
    -2
285
     1
 65
     0
276
    -2
286
     1
 66
     0
277
    -2
287
     1
 67
     0
278
    -2
288
     1
 68
     0
279
    -2
289
     1
 69
     0
  0
VISUALSTYLE
  5
2A
102
{ACAD_XDICTIONARY
360
233
102
}
102
{ACAD_REACTORS
330
2B
102
}
330
2B
100
AcDbVisualStyle
  2
2dWireframe
 70
     4
 71
     0
 72
     2
 73
     0
 90
        0
 40
-0.6
 41
-30.0
 62
     5
 63
     7
 74
     1
 91
        4
 64
     7
 65
   257
 75
     1
175
     1
 42
1.0
 92
        0
 66
   257
 43
1.0
 76
     1
 77
     6
 78
     2
 67
     7
 79
     5
170
     0
171
     0
290
     0
174
     0
 93
        1
 44
0.0
173
     0
291
     0
 45
0.0
1001
ACAD
1000
AcDbSavedByObjectVersion
1070
     0
  0
VISUALSTYLE
  5
20B
102
{ACAD_XDICTIONARY
360
244
102
}
102
{ACAD_REACTORS
330
2B
102
}
330
2B
100
AcDbVisualStyle
  2
Basic
 70
     7
 71
     1
 72
     0
 73
     1
 90
        0
 40
-0.6
 41
-30.0
 62
     5
 63
     7
 74
     0
 91
        4
 64
     7
 65
   257
 75
     1
175
     1
 42
1.0
 92
        8
 66
     7
 43
1.0
 76
     1
 77
     6
 78
     2
 67
     7
 79
     5
170
     0
171
     0
290
     0
174
     0
 93
        1
 44
0.0
173
     0
291
     1
 45
0.0
1001
ACAD
1000
AcDbSavedByObjectVersion
1070
     0
  0
VISUALSTYLE
  5
20F
102
{ACAD_XDICTIONARY
360
24C
102
}
102
{ACAD_REACTORS
330
2B
102
}
330
2B
100
AcDbVisualStyle
  2
Brighten
 70
    12
 71
     2
 72
     2
 73
     0
 90
        0
 40
-0.6
 41
-30.0
 62
     5
 63
     7
 74
     1
 91
        4
 64
     7
 65
   257
 75
     1
175
     1
 42
1.0
 92
        8
 66
     7
 43
1.0
 76
     1
 77
     6
 78
     2
 67
     7
 79
     5
170
     0
171
     0
290
     0
174
     0
 93
        1
 44
50.0
173
     0
291
     1
 45
0.0
1001
ACAD
1000
AcDbSavedByObjectVersion
1070
     0
  0
VISUALSTYLE
  5
213
102
{ACAD_XDICTIONARY
360
254
102
}
102
{ACAD_REACTORS
330
2B
102
}
330
2B
100
AcDbVisualStyle
  2
ColorChange
 70
    16
 71
     2
 72
     2
 73
     3
 90
        0
 40
-0.6
 41
-30.0
 62
     5
 63
     8
 74
     1
 91
        4
 64
     7
 65
   257
 75
     1
175
     1
 42
1.0
 92
        8
 66
     8
 43
1.0
 76
     1
 77
     6
 78
     2
 67
     7
 79
     5
170
     0
171
     0
290
     0
174
     0
 93
        1
 44
0.0
173
     0
291
     1
 45
0.0
1001
ACAD
1000
AcDbSavedByObjectVersion
1070
     0
  0
VISUALSTYLE
  5
20D
102
{ACAD_XDICTIONARY
360
248
102
}
102
{ACAD_REACTORS
330
2B
102
}
330
2B
100
AcDbVisualStyle
  2
Conceptual
 70
     9
 71
     3
 72
     2
 73
     0
 90
        0
 40
-0.6
 41
-30.0
 62
     5
 63
     7
 74
     2
 91
        2
 64
     7
 65
   257
 75
     1
175
     1
 42
179.0
 92
        8
 66
     7
 43
1.0
 76
     1
 77
     6
 78
     2
 67
     7
 79
     3
170
     0
171
     0
290
     0
174
     0
 93
        1
 44
0.0
173
     0
291
     0
 45
0.0
1001
ACAD
1000
AcDbSavedByObjectVersion
1070
     0
  0
VISUALSTYLE
  5
20E
102
{ACAD_XDICTIONARY
360
24A
102
}
102
{ACAD_REACTORS
330
2B
102
}
330
2B
100
AcDbVisualStyle
  2
Dim
 70
    11
 71
     2
 72
     2
 73
     0
 90
        0
 40
-0.6
 41
-30.0
 62
     5
 63
     7
 74
     1
 91
        4
 64
     7
 65
   257
 75
     1
175
     1
 42
1.0
 92
        8
 66
     7
 43
1.0
 76
     1
 77
     6
 78
     2
 67
     7
 79
     5
170
     0
171
     0
290
     0
174
     0
 93
        1
 44
-50.0
173
     0
291
     1
 45
0.0
1001
ACAD
1000
AcDbSavedByObjectVersion
1070
     0
  0
VISUALSTYLE
  5
21B
102
{ACAD_XDICTIONARY
360
264
102
}
102
{ACAD_REACTORS
330
2B
102
}
330
2B
100
AcDbVisualStyle
  2
EdgeColorOff
 70
    22
 71
     2
 72
     2
 73
     0
 90
        0
 40
-0.6
 41
-30.0
 62
     5
 63
     7
 74
     1
 91
        4
 64
     7
 65
   257
 75
     1
175
     1
 42
1.0
 92
        8
 66
     7
 43
1.0
 76
     1
 77
     6
 78
     2
 67
     7
 79
     5
170
     0
171
     0
290
     0
174
     0
 93
        1
 44
0.0
173
     0
291
     1
 45
0.0
1001
ACAD
1000
AcDbSavedByObjectVersion
1070
     0
  0
VISUALSTYLE
  5
212
102
{ACAD_XDICTIONARY
360
252
102
}
102
{ACAD_REACTORS
330
2B
102
}
330
2B
100
AcDbVisualStyle
  2
Facepattern
 70
    15
 71
     2
 72
     2
 73
     0
 90
        0
 40
-0.6
 41
-30.0
 62
     5
 63
     7
 74
     1
 91
        4
 64
     7
 65
   257
 75
     1
175
     1
 42
1.0
 92
        8
 66
     7
 43
1.0
 76
     1
 77
     6
 78
     2
 67
     7
 79
     5
170
     0
171
     0
290
     0
174
     0
 93
        1
 44
0.0
173
     0
291
     1
 45
0.0
1001
ACAD
1000
AcDbSavedByObjectVersion
1070
     0
  0
VISUALSTYLE
  5
207
102
{ACAD_XDICTIONARY
360
23C
102
}
102
{ACAD_REACTORS
330
2B
102
}
330
2B
100
AcDbVisualStyle
  2
Flat
 70
     0
 71
     2
 72
     1
 73
     1
 90
        2
 40
-0.6
 41
30.0
 62
     5
 63
     7
 74
     0
 91
        0
 64
     7
 65
   257
 75
     1
175
     1
 42
1.0
 92
        8
 66
     7
 43
1.0
 76
     1
 77
     6
 78
     2
 67
     7
 79
     5
170
     0
171
     0
290
     0
174
     0
 93
       13
 44
0.0
173
     0
291
     1
 45
0.0
1001
ACAD
1000
AcDbSavedByObjectVersion
1070
     0
  0
VISUALSTYLE
  5
208
102
{ACAD_XDICTIONARY
360
23E
102
}
102
{ACAD_REACTORS
330
2B
102
}
330
2B
100
AcDbVisualStyle
  2
FlatWithEdges
 70
     1
 71
     2
 72
     1
 73
     1
 90
        2
 40
-0.6
 41
30.0
 62
     5
 63
     7
 74
     1
 91
        0
 64
     7
 65
   257
 75
     1
175
     1
 42
1.0
 92
        0
 66
   257
 43
1.0
 76
     1
 77
     6
 78
     2
 67
     7
 79
     5
170
     0
171
     0
290
     0
174
     0
 93
       13
 44
0.0
173
     0
291
     1
 45
0.0
1001
ACAD
1000
AcDbSavedByObjectVersion
1070
     0
  0
VISUALSTYLE
  5
209
102
{ACAD_XDICTIONARY
360
240
102
}
102
{ACAD_REACTORS
330
2B
102
}
330
2B
100
AcDbVisualStyle
  2
Gouraud
 70
     2
 71
     2
 72
     2
 73
     1
 90
        2
 40
-0.6
 41
30.0
 62
     5
 63
     7
 74
     0
 91
        0
 64
     7
 65
   257
 75
     1
175
     1
 42
1.0
 92
        0
 66
     7
 43
1.0
 76
     1
 77
     6
 78
     2
 67
     7
 79
     5
170
     0
171
     0
290
     0
174
     0
 93
       13
 44
0.0
173
     0
291
     1
 45
0.0
1001
ACAD
1000
AcDbSavedByObjectVersion
1070
     0
  0
VISUALSTYLE
  5
20A
102
{ACAD_XDICTIONARY
360
242
102
}
102
{ACAD_REACTORS
330
2B
102
}
330
2B
100
AcDbVisualStyle
  2
GouraudWithEdges
 70
     3
 71
     2
 72
     2
 73
     1
 90
        2
 40
-0.6
 41
30.0
 62
     5
 63
     7
 74
     1
 91
        0
 64
     7
 65
   257
 75
     1
175
     1
 42
1.0
 92
        0
 66
   257
 43
1.0
 76
     1
 77
     6
 78
     2
 67
     7
 79
     5
170
     0
171
     0
290
     0
174
     0
 93
       13
 44
0.0
173
     0
291
     1
 45
0.0
1001
ACAD
1000
AcDbSavedByObjectVersion
1070
     0
  0
VISUALSTYLE
  5
20C
102
{ACAD_XDICTIONARY
360
246
102
}
102
{ACAD_REACTORS
330
2B
102
}
330
2B
100
AcDbVisualStyle
  2
Hidden
 70
     6
 71
     1
 72
     2
 73
     2
 90
        0
 40
-0.6
 41
-30.0
 62
     5
 63
     7
 74
     2
 91
        2
 64
     7
 65
   257
 75
     2
175
     1
 42
40.0
 92
        0
 66
   257
 43
1.0
 76
     1
 77
     6
 78
     2
 67
     7
 79
     3
170
     0
171
     0
290
     0
174
     0
 93
        1
 44
0.0
173
     0
291
     0
 45
0.0
1001
ACAD
1000
AcDbSavedByObjectVersion
1070
     0
  0
VISUALSTYLE
  5
219
102
{ACAD_XDICTIONARY
360
260
102
}
102
{ACAD_REACTORS
330
2B
102
}
330
2B
100
AcDbVisualStyle
  2
JitterOff
 70
    20
 71
     2
 72
     2
 73
     0
 90
        0
 40
-0.6
 41
-30.0
 62
     5
 63
     7
 74
     1
 91
        4
 64
     7
 65
   257
 75
     1
175
     1
 42
1.0
 92
       10
 66
     7
 43
1.0
 76
     1
 77
     6
 78
     2
 67
     7
 79
     5
170
     0
171
     0
290
     0
174
     0
 93
        1
 44
0.0
173
     0
291
     1
 45
0.0
1001
ACAD
1000
AcDbSavedByObjectVersion
1070
     0
  0
VISUALSTYLE
  5
211
102
{ACAD_XDICTIONARY
360
250
102
}
102
{ACAD_REACTORS
330
2B
102
}
330
2B
100
AcDbVisualStyle
  2
Linepattern
 70
    14
 71
     2
 72
     2
 73
     0
 90
        0
 40
-0.6
 41
-30.0
 62
     5
 63
     7
 74
     1
 91
        4
 64
     7
 65
   257
 75
     7
175
     7
 42
1.0
 92
        8
 66
     7
 43
1.0
 76
     1
 77
     6
 78
     2
 67
     7
 79
     5
170
     0
171
     0
290
     0
174
     0
 93
        1
 44
0.0
173
     0
291
     1
 45
0.0
1001
ACAD
1000
AcDbSavedByObjectVersion
1070
     0
  0
VISUALSTYLE
  5
21A
102
{ACAD_XDICTIONARY
360
262
102
}
102
{ACAD_REACTORS
330
2B
102
}
330
2B
100
AcDbVisualStyle
  2
OverhangOff
 70
    21
 71
     2
 72
     2
 73
     0
 90
        0
 40
-0.6
 41
-30.0
 62
     5
 63
     7
 74
     1
 91
        4
 64
     7
 65
   257
 75
     1
175
     1
 42
1.0
 92
        9
 66
     7
 43
1.0
 76
     1
 77
     6
 78
     2
 67
     7
 79
     5
170
     0
171
     0
290
     0
174
     0
 93
        1
 44
0.0
173
     0
291
     1
 45
0.0
1001
ACAD
1000
AcDbSavedByObjectVersion
1070
     0
  0
VISUALSTYLE
  5
4B
102
{ACAD_XDICTIONARY
360
238
102
}
102
{ACAD_REACTORS
330
2B
102
}
330
2B
100
AcDbVisualStyle
  2
Realistic
 70
     8
 71
     2
 72
     2
 73
     0
 90
        0
 40
-0.6
 41
-30.0
 62
     5
 63
     7
 74
     1
 91
        0
 64
     7
 65
   257
 75
     1
175
     1
 42
1.0
 92
        8
 66
     8
 43
1.0
 76
     1
 77
     6
 78
     2
 67
     7
 79
     5
170
     0
171
     0
290
     0
174
     0
 93
       13
 44
0.0
173
     0
291
     0
 45
0.0
1001
ACAD
1000
AcDbSavedByObjectVersion
1070
     0
  0
VISUALSTYLE
  5
218
102
{ACAD_XDICTIONARY
360
25E
102
}
102
{ACAD_REACTORS
330
2B
102
}
330
2B
100
AcDbVisualStyle
  2
Shaded
 70
    27
 71
     2
 72
     2
 73
     1
 90
        2
 40
-0.6
 41
30.0
 62
     5
 63
     7
 74
     0
 91
        4
 64
     7
 65
   257
 75
     1
175
     1
 42
1.0
 92
        8
 66
   257
 43
1.0
 76
     1
 77
     6
 78
     2
 67
     8
 79
     3
170
     0
171
     0
290
     0
174
     0
 93
        5
 44
0.0
173
     0
291
     0
 45
0.0
1001
ACAD
1000
AcDbSavedByObjectVersion
1070
     0
  0
VISUALSTYLE
  5
217
102
{ACAD_XDICTIONARY
360
25C
102
}
102
{ACAD_REACTORS
330
2B
102
}
330
2B
100
AcDbVisualStyle
  2
Shaded with edges
 70
    26
 71
     2
 72
     2
 73
     1
 90
        2
 40
-0.6
 41
30.0
 62
     5
 63
     7
 74
     1
 91
       10
 64
     7
 65
   257
 75
     2
175
     1
 42
1.0
 92
        8
 66
   257
 43
1.0
 76
     1
 77
     6
 78
     2
 67
     7
 79
     3
170
     0
171
     0
290
     0
174
     0
 93
        5
 44
0.0
173
     0
291
     0
 45
0.0
1001
ACAD
1000
AcDbSavedByObjectVersion
1070
     0
  0
VISUALSTYLE
  5
214
102
{ACAD_XDICTIONARY
360
256
102
}
102
{ACAD_REACTORS
330
2B
102
}
330
2B
100
AcDbVisualStyle
  2
Shades of Gray
 70
    23
 71
     2
 72
     2
 73
     3
 90
        0
 40
-0.6
 41
-30.0
 62
     5
 63
     7
 74
     2
 91
        2
 64
     7
 65
     7
 75
     1
175
     1
 42
40.0
 92
        8
 66
     7
 43
1.0
 76
     1
 77
     6
 78
     2
 67
     7
 79
     3
170
     0
171
     0
290
     0
174
     0
 93
        1
 44
0.0
173
     0
291
     0
 45
0.0
1001
ACAD
1000
AcDbSavedByObjectVersion
1070
     0
  0
VISUALSTYLE
  5
215
102
{ACAD_XDICTIONARY
360
258
102
}
102
{ACAD_REACTORS
330
2B
102
}
330
2B
100
AcDbVisualStyle
  2
Sketchy
 70
    24
 71
     1
 72
     2
 73
     2
 90
        0
 40
-0.6
 41
-30.0
 62
     5
 63
     7
 74
     2
 91
        2
 64
     7
 65
     7
 75
     1
175
     1
 42
40.0
 92
       11
 66
     7
 43
1.0
 76
     1
 77
     6
 78
     2
 67
     7
 79
     6
170
     0
171
     0
290
     0
174
     0
 93
        1
 44
0.0
173
     0
291
     0
 45
0.0
1001
ACAD
1000
AcDbSavedByObjectVersion
1070
     0
  0
VISUALSTYLE
  5
210
102
{ACAD_XDICTIONARY
360
24E
102
}
102
{ACAD_REACTORS
330
2B
102
}
330
2B
100
AcDbVisualStyle
  2
Thicken
 70
    13
 71
     2
 72
     2
 73
     0
 90
        0
 40
-0.6
 41
-30.0
 62
     5
 63
     7
 74
     1
 91
        4
 64
     7
 65
   257
 75
     1
175
     1
 42
1.0
 92
       12
 66
     7
 43
1.0
 76
     1
 77
     6
 78
     2
 67
     7
 79
     5
170
     0
171
     0
290
     0
174
     0
 93
        1
 44
0.0
173
     0
291
     1
 45
0.0
1001
ACAD
1000
AcDbSavedByObjectVersion
1070
     0
  0
VISUALSTYLE
  5
4C
102
{ACAD_XDICTIONARY
360
23A
102
}
102
{ACAD_REACTORS
330
2B
102
}
330
2B
100
AcDbVisualStyle
  2
Wireframe
 70
     5
 71
     0
 72
     2
 73
     0
 90
        0
 40
-0.6
 41
-30.0
 62
     5
 63
     7
 74
     1
 91
        4
 64
     7
 65
   257
 75
     1
175
     1
 42
1.0
 92
        0
 66
   257
 43
1.0
 76
     1
 77
     6
 78
     2
 67
     7
 79
     3
170
     0
171
     0
290
     0
174
     0
 93
        1
 44
0.0
173
     0
291
     0
 45
0.0
1001
ACAD
1000
AcDbSavedByObjectVersion
1070
     0
  0
VISUALSTYLE
  5
216
102
{ACAD_XDICTIONARY
360
25A
102
}
102
{ACAD_REACTORS
330
2B
102
}
330
2B
100
AcDbVisualStyle
  2
X-Ray
 70
    25
 71
     2
 72
     2
 73
     1
 90
        1
 40
0.5
 41
-30.0
 62
     5
 63
     7
 74
     1
 91
        0
 64
     7
 65
   257
 75
     1
175
     1
 42
1.0
 92
        8
 66
     7
 43
1.0
 76
     1
 77
     6
 78
     2
 67
     7
 79
     3
170
     0
171
     0
290
     0
174
     0
 93
       13
 44
0.0
173
     0
291
     0
 45
0.0
1001
ACAD
1000
AcDbSavedByObjectVersion
1070
     0
  0
DICTIONARYVAR
  5
202
102
{ACAD_REACTORS
330
1FE
102
}
330
1FE
100
DictionaryVariables
280
     0
  1
1:1
  0
DICTIONARYVAR
  5
200
102
{ACAD_REACTORS
330
1FE
102
}
330
1FE
100
DictionaryVariables
280
     0
  1
STANDARD
  0
DICTIONARYVAR
  5
1FF
102
{ACAD_REACTORS
330
1FE
102
}
330
1FE
100
DictionaryVariables
280
     0
  1
STANDARD
  0
DICTIONARYVAR
  5
225
102
{ACAD_REACTORS
330
1FE
102
}
330
1FE
100
DictionaryVariables
280
     0
  1
1
  0
DICTIONARYVAR
  5
224
102
{ACAD_REACTORS
330
1FE
102
}
330
1FE
100
DictionaryVariables
280
     0
  1
1
  0
DICTIONARYVAR
  5
223
102
{ACAD_REACTORS
330
1FE
102
}
330
1FE
100
DictionaryVariables
280
     0
  1
0
  0
DICTIONARYVAR
  5
204
102
{ACAD_REACTORS
330
1FE
102
}
330
1FE
100
DictionaryVariables
280
     0
  1
1
  0
DICTIONARYVAR
  5
205
102
{ACAD_REACTORS
330
1FE
102
}
330
1FE
100
DictionaryVariables
280
     0
  1
15
  0
DICTIONARYVAR
  5
203
102
{ACAD_REACTORS
330
1FE
102
}
330
1FE
100
DictionaryVariables
280
     0
  1
0
  0
DICTIONARYVAR
  5
201
102
{ACAD_REACTORS
330
1FE
102
}
330
1FE
100
DictionaryVariables
280
     0
  1
0
  0
DICTIONARYVAR
  5
222
102
{ACAD_REACTORS
330
1FE
102
}
330
1FE
100
DictionaryVariables
280
     0
  1
127
  0
DICTIONARYVAR
  5
226
102
{ACAD_REACTORS
330
1FE
102
}
330
1FE
100
DictionaryVariables
280
     0
  1
2
  0
DICTIONARY
  5
231
330
1A
100
AcDbDictionary
280
     1
281
     1
  3
ACAD_XREC_ROUNDTRIP
360
232
  0
DICTIONARY
  5
22F
330
15
100
AcDbDictionary
280
     1
281
     1
  3
ACAD_XREC_ROUNDTRIP
360
230
  0
DICTIONARY
  5
3D
330
3C
100
AcDbDictionary
280
     1
281
     1
  3
ACAD_XREC_ROUNDTRIP
360
236
  3
BUMPTILE
360
3E
  3
DIFFUSETILE
360
3F
  3
OPACITYTILE
360
40
  3
REFLECTIONTILE
360
41
  3
REFRACTIONTILE
360
42
  3
SPECULARTILE
360
43
  0
DICTIONARY
  5
35
330
34
100
AcDbDictionary
280
     1
281
     1
  3
ACAD_XREC_ROUNDTRIP
360
235
  3
BUMPTILE
360
36
  3
DIFFUSETILE
360
37
  3
OPACITYTILE
360
38
  3
REFLECTIONTILE
360
39
  3
REFRACTIONTILE
360
3A
  3
SPECULARTILE
360
3B
  0
DICTIONARY
  5
C
330
A
100
AcDbDictionary
280
     1
281
     1
  3
ACAD_XREC_ROUNDTRIP
360
22E
  3
BUMPTILE
360
D
  3
DIFFUSETILE
360
E
  3
OPACITYTILE
360
F
  3
REFLECTIONTILE
360
10
  3
REFRACTIONTILE
360
11
  3
SPECULARTILE
360
12
  0
DICTIONARY
  5
4A
330
49
100
AcDbDictionary
280
     1
281
     1
  3
ACAD_ROUNDTRIP_2008_TABLESTYLE_CELLSTYLEMAP
360
227
  3
ACAD_XREC_ROUNDTRIP
360
237
  0
DICTIONARY
  5
233
330
2A
100
AcDbDictionary
280
     1
281
     1
  3
ACAD_XREC_ROUNDTRIP
360
234
  0
DICTIONARY
  5
244
330
20B
100
AcDbDictionary
280
     1
281
     1
  3
ACAD_XREC_ROUNDTRIP
360
245
  0
DICTIONARY
  5
24C
330
20F
100
AcDbDictionary
280
     1
281
     1
  3
ACAD_XREC_ROUNDTRIP
360
24D
  0
DICTIONARY
  5
254
330
213
100
AcDbDictionary
280
     1
281
     1
  3
ACAD_XREC_ROUNDTRIP
360
255
  0
DICTIONARY
  5
248
330
20D
100
AcDbDictionary
280
     1
281
     1
  3
ACAD_XREC_ROUNDTRIP
360
249
  0
DICTIONARY
  5
24A
330
20E
100
AcDbDictionary
280
     1
281
     1
  3
ACAD_XREC_ROUNDTRIP
360
24B
  0
DICTIONARY
  5
264
330
21B
100
AcDbDictionary
280
     1
281
     1
  3
ACAD_XREC_ROUNDTRIP
360
265
  0
DICTIONARY
  5
252
330
212
100
AcDbDictionary
280
     1
281
     1
  3
ACAD_XREC_ROUNDTRIP
360
253
  0
DICTIONARY
  5
23C
330
207
100
AcDbDictionary
280
     1
281
     1
  3
ACAD_XREC_ROUNDTRIP
360
23D
  0
DICTIONARY
  5
23E
330
208
100
AcDbDictionary
280
     1
281
     1
  3
ACAD_XREC_ROUNDTRIP
360
23F
  0
DICTIONARY
  5
240
330
209
100
AcDbDictionary
280
     1
281
     1
  3
ACAD_XREC_ROUNDTRIP
360
241
  0
DICTIONARY
  5
242
330
20A
100
AcDbDictionary
280
     1
281
     1
  3
ACAD_XREC_ROUNDTRIP
360
243
  0
DICTIONARY
  5
246
330
20C
100
AcDbDictionary
280
     1
281
     1
  3
ACAD_XREC_ROUNDTRIP
360
247
  0
DICTIONARY
  5
260
330
219
100
AcDbDictionary
280
     1
281
     1
  3
ACAD_XREC_ROUNDTRIP
360
261
  0
DICTIONARY
  5
250
330
211
100
AcDbDictionary
280
     1
281
     1
  3
ACAD_XREC_ROUNDTRIP
360
251
  0
DICTIONARY
  5
262
330
21A
100
AcDbDictionary
280
     1
281
     1
  3
ACAD_XREC_ROUNDTRIP
360
263
  0
DICTIONARY
  5
238
330
4B
100
AcDbDictionary
280
     1
281
     1
  3
ACAD_XREC_ROUNDTRIP
360
239
  0
DICTIONARY
  5
25E
330
218
100
AcDbDictionary
280
     1
281
     1
  3
ACAD_XREC_ROUNDTRIP
360
25F
  0
DICTIONARY
  5
25C
330
217
100
AcDbDictionary
280
     1
281
     1
  3
ACAD_XREC_ROUNDTRIP
360
25D
  0
DICTIONARY
  5
256
330
214
100
AcDbDictionary
280
     1
281
     1
  3
ACAD_XREC_ROUNDTRIP
360
257
  0
DICTIONARY
  5
258
330
215
100
AcDbDictionary
280
     1
281
     1
  3
ACAD_XREC_ROUNDTRIP
360
259
  0
DICTIONARY
  5
24E
330
210
100
AcDbDictionary
280
     1
281
     1
  3
ACAD_XREC_ROUNDTRIP
360
24F
  0
DICTIONARY
  5
23A
330
4C
100
AcDbDictionary
280
     1
281
     1
  3
ACAD_XREC_ROUNDTRIP
360
23B
  0
DICTIONARY
  5
25A
330
216
100
AcDbDictionary
280
     1
281
     1
  3
ACAD_XREC_ROUNDTRIP
360
25B
  0
XRECORD
  5
232
102
{ACAD_REACTORS
330
231
102
}
330
231
100
AcDbXrecord
280
     1
102
SHADEPLOT
 70
     0
102
SHADEPLOTRESLEVEL
 70
     2
102
SHADEPLOTCUSTOMDPI
 70
   300
  0
XRECORD
  5
230
102
{ACAD_REACTORS
330
22F
102
}
330
22F
100
AcDbXrecord
280
     1
102
SHADEPLOT
 70
     0
102
SHADEPLOTRESLEVEL
 70
     2
102
SHADEPLOTCUSTOMDPI
 70
   300
  0
XRECORD
  5
236
102
{ACAD_REACTORS
330
3D
102
}
330
3D
100
AcDbXrecord
280
     1
102
MATERIAL
148
0.0
149
0.0
149
0.0
 93
        0
 94
      127
282
     0
 72
     0
 77
     0
171
     0
175
     0
179
     0
273
     0
  0
XRECORD
  5
3E
102
{ACAD_REACTORS
330
3D
102
}
330
3D
100
AcDbXrecord
280
     1
270
     1
271
     1
  0
XRECORD
  5
3F
102
{ACAD_REACTORS
330
3D
102
}
330
3D
100
AcDbXrecord
280
     1
270
     1
271
     1
  0
XRECORD
  5
40
102
{ACAD_REACTORS
330
3D
102
}
330
3D
100
AcDbXrecord
280
     1
270
     1
271
     1
  0
XRECORD
  5
41
102
{ACAD_REACTORS
330
3D
102
}
330
3D
100
AcDbXrecord
280
     1
270
     1
271
     1
  0
XRECORD
  5
42
102
{ACAD_REACTORS
330
3D
102
}
330
3D
100
AcDbXrecord
280
     1
270
     1
271
     1
  0
XRECORD
  5
43
102
{ACAD_REACTORS
330
3D
102
}
330
3D
100
AcDbXrecord
280
     1
270
     1
271
     1
  0
XRECORD
  5
235
102
{ACAD_REACTORS
330
35
102
}
330
35
100
AcDbXrecord
280
     1
102
MATERIAL
148
0.0
149
0.0
149
0.0
 93
        0
 94
      127
282
     0
 72
     0
 77
     0
171
     0
175
     0
179
     0
273
     0
  0
XRECORD
  5
36
102
{ACAD_REACTORS
330
35
102
}
330
35
100
AcDbXrecord
280
     1
270
     1
271
     1
  0
XRECORD
  5
37
102
{ACAD_REACTORS
330
35
102
}
330
35
100
AcDbXrecord
280
     1
270
     1
271
     1
  0
XRECORD
  5
38
102
{ACAD_REACTORS
330
35
102
}
330
35
100
AcDbXrecord
280
     1
270
     1
271
     1
  0
XRECORD
  5
39
102
{ACAD_REACTORS
330
35
102
}
330
35
100
AcDbXrecord
280
     1
270
     1
271
     1
  0
XRECORD
  5
3A
102
{ACAD_REACTORS
330
35
102
}
330
35
100
AcDbXrecord
280
     1
270
     1
271
     1
  0
XRECORD
  5
3B
102
{ACAD_REACTORS
330
35
102
}
330
35
100
AcDbXrecord
280
     1
270
     1
271
     1
  0
XRECORD
  5
22E
102
{ACAD_REACTORS
330
C
102
}
330
C
100
AcDbXrecord
280
     1
102
MATERIAL
148
0.0
149
0.0
149
0.0
 93
        0
 94
      127
282
     0
 72
     0
 77
     0
171
     0
175
     0
179
     0
273
     0
  0
XRECORD
  5
D
102
{ACAD_REACTORS
330
C
102
}
330
C
100
AcDbXrecord
280
     1
270
     1
271
     1
  0
XRECORD
  5
E
102
{ACAD_REACTORS
330
C
102
}
330
C
100
AcDbXrecord
280
     1
270
     1
271
     1
  0
XRECORD
  5
F
102
{ACAD_REACTORS
330
C
102
}
330
C
100
AcDbXrecord
280
     1
270
     1
271
     1
  0
XRECORD
  5
10
102
{ACAD_REACTORS
330
C
102
}
330
C
100
AcDbXrecord
280
     1
270
     1
271
     1
  0
XRECORD
  5
11
102
{ACAD_REACTORS
330
C
102
}
330
C
100
AcDbXrecord
280
     1
270
     1
271
     1
  0
XRECORD
  5
12
102
{ACAD_REACTORS
330
C
102
}
330
C
100
AcDbXrecord
280
     1
270
     1
271
     1
  0
CELLSTYLEMAP
  5
227
102
{ACAD_REACTORS
330
4A
102
}
330
4A
100
AcDbCellStyleMap
 90
        3
300
CELLSTYLE
  1
TABLEFORMAT_BEGIN
 90
        5
170
     1
 91
        0
 92
    32768
 62
   257
 93
        1
300
CONTENTFORMAT
  1
CONTENTFORMAT_BEGIN
 90
        0
 91
        0
 92
      512
 93
        0
300

 40
0.0
140
1.0
 94
        5
 62
     0
340
21
144
0.25
309
CONTENTFORMAT_END
171
     0
 94
        0
309
TABLEFORMAT_END
  1
CELLSTYLE_BEGIN
 90
        1
 91
        1
300
_TITLE
309
CELLSTYLE_END
300
CELLSTYLE
  1
TABLEFORMAT_BEGIN
 90
        5
170
     1
 91
        0
 92
        0
 62
   257
 93
        1
300
CONTENTFORMAT
  1
CONTENTFORMAT_BEGIN
 90
        0
 91
        0
 92
      512
 93
        0
300

 40
0.0
140
1.0
 94
        5
 62
     0
340
21
144
0.18
309
CONTENTFORMAT_END
171
     0
 94
        0
309
TABLEFORMAT_END
  1
CELLSTYLE_BEGIN
 90
        2
 91
        1
300
_HEADER
309
CELLSTYLE_END
300
CELLSTYLE
  1
TABLEFORMAT_BEGIN
 90
        5
170
     1
 91
        0
 92
        0
 62
   257
 93
        1
300
CONTENTFORMAT
  1
CONTENTFORMAT_BEGIN
 90
        0
 91
        0
 92
      512
 93
        0
300

 40
0.0
140
1.0
 94
        2
 62
     0
340
21
144
0.18
309
CONTENTFORMAT_END
171
     0
 94
        0
309
TABLEFORMAT_END
  1
CELLSTYLE_BEGIN
 90
        3
 91
        2
300
_DATA
309
CELLSTYLE_END
  0
XRECORD
  5
237
102
{ACAD_REACTORS
330
4A
102
}
330
4A
100
AcDbXrecord
280
     1
102
ACAD_ROUNDTRIP_PRE2007_TABLESTYLE
 90
      512
 91
        0
  1

 92
      512
 93
        0
  2

 94
      512
 95
        0
  3

  0
XRECORD
  5
234
102
{ACAD_REACTORS
330
233
102
}
330
233
100
AcDbXrecord
280
     1
102
RTVSPropertyOp0
 70
     1
102
RTVSPropertyOp1
 70
     1
102
RTVSPropertyOp2
 70
     1
102
RTVSPropertyOp3
 70
     1
102
RTVSPropertyOp4
 70
     1
102
RTVSPropertyOp5
 70
     1
102
RTVSPropertyOp6
 70
     1
102
RTVSPropertyOp7
 70
     1
102
RTVSPropertyOp8
 70
     1
102
RTVSPropertyOp9
 70
     1
102
RTVSPropertyOp10
 70
     1
102
RTVSPropertyOp11
 70
     1
102
RTVSPropertyOp12
 70
     1
102
RTVSPropertyOp13
 70
     1
102
RTVSPropertyOp14
 70
     1
102
RTVSPropertyOp15
 70
     1
102
RTVSPropertyOp16
 70
     1
102
RTVSPropertyOp17
 70
     1
102
RTVSPropertyOp18
 70
     1
102
RTVSPropertyOp19
 70
     1
102
RTVSPropertyOp20
 70
     1
102
RTVSPropertyOp21
 70
     1
102
RTVSPropertyOp22
 70
     1
102
RTVSPropertyOp23
 70
     1
102
RTVSPropertyOp24
 70
     1
102
RTVSPropertyOp25
 70
     1
102
RTVSPropertyOp26
 70
     1
102
RTVSPropertyOp27
 70
     1
102
RTVSPropertyOp28
 70
     1
102
RTVSPropertyOp29
 70
     1
102
RTVSPropertyOp30
 70
     1
102
RTVSPropertyOp31
 70
     1
102
RTVSPropertyOp32
 70
     1
  0
XRECORD
  5
245
102
{ACAD_REACTORS
330
244
102
}
330
244
100
AcDbXrecord
280
     1
102
RTVSPropertyOp0
 70
     1
102
RTVSPropertyOp1
 70
     1
102
RTVSPropertyOp2
 70
     1
102
RTVSPropertyOp3
 70
     1
102
RTVSPropertyOp4
 70
     1
102
RTVSPropertyOp5
 70
     1
102
RTVSPropertyOp6
 70
     1
102
RTVSPropertyOp7
 70
     1
102
RTVSPropertyOp8
 70
     1
102
RTVSPropertyOp9
 70
     1
102
RTVSPropertyOp10
 70
     1
102
RTVSPropertyOp11
 70
     1
102
RTVSPropertyOp12
 70
     1
102
RTVSPropertyOp13
 70
     1
102
RTVSPropertyOp14
 70
     1
102
RTVSPropertyOp15
 70
     1
102
RTVSPropertyOp16
 70
     1
102
RTVSPropertyOp17
 70
     1
102
RTVSPropertyOp18
 70
     1
102
RTVSPropertyOp19
 70
     1
102
RTVSPropertyOp20
 70
     1
102
RTVSPropertyOp21
 70
     1
102
RTVSPropertyOp22
 70
     1
102
RTVSPropertyOp23
 70
     1
102
RTVSPropertyOp24
 70
     1
102
RTVSPropertyOp25
 70
     1
102
RTVSPropertyOp26
 70
     1
102
RTVSPropertyOp27
 70
     1
102
RTVSPropertyOp28
 70
     1
102
RTVSPropertyOp29
 70
     1
102
RTVSPropertyOp30
 70
     1
102
RTVSPropertyOp31
 70
     1
102
RTVSPropertyOp32
 70
     1
  0
XRECORD
  5
24D
102
{ACAD_REACTORS
330
24C
102
}
330
24C
100
AcDbXrecord
280
     1
102
RTVSPropertyOp0
 70
     1
102
RTVSPropertyOp1
 70
     1
102
RTVSPropertyOp2
 70
     1
102
RTVSPropertyOp3
 70
     1
102
RTVSPropertyOp4
 70
     1
102
RTVSPropertyOp5
 70
     1
102
RTVSPropertyOp6
 70
     1
102
RTVSPropertyOp7
 70
     1
102
RTVSPropertyOp8
 70
     1
102
RTVSPropertyOp9
 70
     1
102
RTVSPropertyOp10
 70
     1
102
RTVSPropertyOp11
 70
     1
102
RTVSPropertyOp12
 70
     1
102
RTVSPropertyOp13
 70
     1
102
RTVSPropertyOp14
 70
     1
102
RTVSPropertyOp15
 70
     1
102
RTVSPropertyOp16
 70
     1
102
RTVSPropertyOp17
 70
     1
102
RTVSPropertyOp18
 70
     1
102
RTVSPropertyOp19
 70
     1
102
RTVSPropertyOp20
 70
     1
102
RTVSPropertyOp21
 70
     1
102
RTVSPropertyOp22
 70
     1
102
RTVSPropertyOp23
 70
     1
102
RTVSPropertyOp24
 70
     1
102
RTVSPropertyOp25
 70
     1
102
RTVSPropertyOp26
 70
     1
102
RTVSPropertyOp27
 70
     1
102
RTVSPropertyOp28
 70
     1
102
RTVSPropertyOp29
 70
     1
102
RTVSPropertyOp30
 70
     1
102
RTVSPropertyOp31
 70
     1
102
RTVSPropertyOp32
 70
     1
  0
XRECORD
  5
255
102
{ACAD_REACTORS
330
254
102
}
330
254
100
AcDbXrecord
280
     1
102
RTVSPropertyOp0
 70
     1
102
RTVSPropertyOp1
 70
     1
102
RTVSPropertyOp2
 70
     1
102
RTVSPropertyOp3
 70
     1
102
RTVSPropertyOp4
 70
     1
102
RTVSPropertyOp5
 70
     1
102
RTVSPropertyOp6
 70
     1
102
RTVSPropertyOp7
 70
     1
102
RTVSPropertyOp8
 70
     1
102
RTVSPropertyOp9
 70
     1
102
RTVSPropertyOp10
 70
     1
102
RTVSPropertyOp11
 70
     1
102
RTVSPropertyOp12
 70
     1
102
RTVSPropertyOp13
 70
     1
102
RTVSPropertyOp14
 70
     1
102
RTVSPropertyOp15
 70
     1
102
RTVSPropertyOp16
 70
     1
102
RTVSPropertyOp17
 70
     1
102
RTVSPropertyOp18
 70
     1
102
RTVSPropertyOp19
 70
     1
102
RTVSPropertyOp20
 70
     1
102
RTVSPropertyOp21
 70
     1
102
RTVSPropertyOp22
 70
     1
102
RTVSPropertyOp23
 70
     1
102
RTVSPropertyOp24
 70
     1
102
RTVSPropertyOp25
 70
     1
102
RTVSPropertyOp26
 70
     1
102
RTVSPropertyOp27
 70
     1
102
RTVSPropertyOp28
 70
     1
102
RTVSPropertyOp29
 70
     1
102
RTVSPropertyOp30
 70
     1
102
RTVSPropertyOp31
 70
     1
102
RTVSPropertyOp32
 70
     1
  0
XRECORD
  5
249
102
{ACAD_REACTORS
330
248
102
}
330
248
100
AcDbXrecord
280
     1
102
RTVSPropertyOp0
 70
     1
102
RTVSPropertyOp1
 70
     1
102
RTVSPropertyOp2
 70
     1
102
RTVSPropertyOp3
 70
     1
102
RTVSPropertyOp4
 70
     1
102
RTVSPropertyOp5
 70
     1
102
RTVSPropertyOp6
 70
     1
102
RTVSPropertyOp7
 70
     1
102
RTVSPropertyOp8
 70
     1
102
RTVSPropertyOp9
 70
     1
102
RTVSPropertyOp10
 70
     1
102
RTVSPropertyOp11
 70
     1
102
RTVSPropertyOp12
 70
     1
102
RTVSPropertyOp13
 70
     1
102
RTVSPropertyOp14
 70
     1
102
RTVSPropertyOp15
 70
     1
102
RTVSPropertyOp16
 70
     1
102
RTVSPropertyOp17
 70
     1
102
RTVSPropertyOp18
 70
     1
102
RTVSPropertyOp19
 70
     1
102
RTVSPropertyOp20
 70
     1
102
RTVSPropertyOp21
 70
     1
102
RTVSPropertyOp22
 70
     1
102
RTVSPropertyOp23
 70
     1
102
RTVSPropertyOp24
 70
     1
102
RTVSPropertyOp25
 70
     1
102
RTVSPropertyOp26
 70
     1
102
RTVSPropertyOp27
 70
     1
102
RTVSPropertyOp28
 70
     1
102
RTVSPropertyOp29
 70
     1
102
RTVSPropertyOp30
 70
     1
102
RTVSPropertyOp31
 70
     1
102
RTVSPropertyOp32
 70
     1
  0
XRECORD
  5
24B
102
{ACAD_REACTORS
330
24A
102
}
330
24A
100
AcDbXrecord
280
     1
102
RTVSPropertyOp0
 70
     1
102
RTVSPropertyOp1
 70
     1
102
RTVSPropertyOp2
 70
     1
102
RTVSPropertyOp3
 70
     1
102
RTVSPropertyOp4
 70
     1
102
RTVSPropertyOp5
 70
     1
102
RTVSPropertyOp6
 70
     1
102
RTVSPropertyOp7
 70
     1
102
RTVSPropertyOp8
 70
     1
102
RTVSPropertyOp9
 70
     1
102
RTVSPropertyOp10
 70
     1
102
RTVSPropertyOp11
 70
     1
102
RTVSPropertyOp12
 70
     1
102
RTVSPropertyOp13
 70
     1
102
RTVSPropertyOp14
 70
     1
102
RTVSPropertyOp15
 70
     1
102
RTVSPropertyOp16
 70
     1
102
RTVSPropertyOp17
 70
     1
102
RTVSPropertyOp18
 70
     1
102
RTVSPropertyOp19
 70
     1
102
RTVSPropertyOp20
 70
     1
102
RTVSPropertyOp21
 70
     1
102
RTVSPropertyOp22
 70
     1
102
RTVSPropertyOp23
 70
     1
102
RTVSPropertyOp24
 70
     1
102
RTVSPropertyOp25
 70
     1
102
RTVSPropertyOp26
 70
     1
102
RTVSPropertyOp27
 70
     1
102
RTVSPropertyOp28
 70
     1
102
RTVSPropertyOp29
 70
     1
102
RTVSPropertyOp30
 70
     1
102
RTVSPropertyOp31
 70
     1
102
RTVSPropertyOp32
 70
     1
  0
XRECORD
  5
265
102
{ACAD_REACTORS
330
264
102
}
330
264
100
AcDbXrecord
280
     1
102
RTVSPropertyOp0
 70
     0
102
RTVSPropertyOp1
 70
     0
102
RTVSPropertyOp2
 70
     0
102
RTVSPropertyOp3
 70
     0
102
RTVSPropertyOp4
 70
     0
102
RTVSPropertyOp5
 70
     0
102
RTVSPropertyOp6
 70
     0
102
RTVSPropertyOp7
 70
     0
102
RTVSPropertyOp8
 70
     0
102
RTVSPropertyOp9
 70
     0
102
RTVSPropertyOp10
 70
     0
102
RTVSPropertyOp11
 70
     0
102
RTVSPropertyOp12
 70
     0
102
RTVSPropertyOp13
 70
     0
102
RTVSPropertyOp14
 70
     2
102
RTVSPropertyOp15
 70
     0
102
RTVSPropertyOp16
 70
     0
102
RTVSPropertyOp17
 70
     0
102
RTVSPropertyOp18
 70
     0
102
RTVSPropertyOp19
 70
     0
102
RTVSPropertyOp20
 70
     0
102
RTVSPropertyOp21
 70
     0
102
RTVSPropertyOp22
 70
     0
102
RTVSPropertyOp23
 70
     0
102
RTVSPropertyOp24
 70
     0
102
RTVSPropertyOp25
 70
     0
102
RTVSPropertyOp26
 70
     0
102
RTVSPropertyOp27
 70
     0
102
RTVSPropertyOp28
 70
     0
102
RTVSPropertyOp29
 70
     0
102
RTVSPropertyOp30
 70
     0
102
RTVSPropertyOp31
 70
     0
102
RTVSPropertyOp32
 70
     0
  0
XRECORD
  5
253
102
{ACAD_REACTORS
330
252
102
}
330
252
100
AcDbXrecord
280
     1
102
RTVSPropertyOp0
 70
     1
102
RTVSPropertyOp1
 70
     1
102
RTVSPropertyOp2
 70
     1
102
RTVSPropertyOp3
 70
     1
102
RTVSPropertyOp4
 70
     1
102
RTVSPropertyOp5
 70
     1
102
RTVSPropertyOp6
 70
     1
102
RTVSPropertyOp7
 70
     1
102
RTVSPropertyOp8
 70
     1
102
RTVSPropertyOp9
 70
     1
102
RTVSPropertyOp10
 70
     1
102
RTVSPropertyOp11
 70
     1
102
RTVSPropertyOp12
 70
     1
102
RTVSPropertyOp13
 70
     1
102
RTVSPropertyOp14
 70
     1
102
RTVSPropertyOp15
 70
     1
102
RTVSPropertyOp16
 70
     1
102
RTVSPropertyOp17
 70
     1
102
RTVSPropertyOp18
 70
     1
102
RTVSPropertyOp19
 70
     1
102
RTVSPropertyOp20
 70
     1
102
RTVSPropertyOp21
 70
     1
102
RTVSPropertyOp22
 70
     1
102
RTVSPropertyOp23
 70
     1
102
RTVSPropertyOp24
 70
     1
102
RTVSPropertyOp25
 70
     1
102
RTVSPropertyOp26
 70
     1
102
RTVSPropertyOp27
 70
     1
102
RTVSPropertyOp28
 70
     1
102
RTVSPropertyOp29
 70
     1
102
RTVSPropertyOp30
 70
     1
102
RTVSPropertyOp31
 70
     1
102
RTVSPropertyOp32
 70
     1
  0
XRECORD
  5
23D
102
{ACAD_REACTORS
330
23C
102
}
330
23C
100
AcDbXrecord
280
     1
102
RTVSPropertyOp0
 70
     1
102
RTVSPropertyOp1
 70
     1
102
RTVSPropertyOp2
 70
     1
102
RTVSPropertyOp3
 70
     1
102
RTVSPropertyOp4
 70
     1
102
RTVSPropertyOp5
 70
     1
102
RTVSPropertyOp6
 70
     1
102
RTVSPropertyOp7
 70
     1
102
RTVSPropertyOp8
 70
     1
102
RTVSPropertyOp9
 70
     1
102
RTVSPropertyOp10
 70
     1
102
RTVSPropertyOp11
 70
     1
102
RTVSPropertyOp12
 70
     1
102
RTVSPropertyOp13
 70
     1
102
RTVSPropertyOp14
 70
     1
102
RTVSPropertyOp15
 70
     1
102
RTVSPropertyOp16
 70
     1
102
RTVSPropertyOp17
 70
     1
102
RTVSPropertyOp18
 70
     1
102
RTVSPropertyOp19
 70
     1
102
RTVSPropertyOp20
 70
     1
102
RTVSPropertyOp21
 70
     1
102
RTVSPropertyOp22
 70
     1
102
RTVSPropertyOp23
 70
     1
102
RTVSPropertyOp24
 70
     1
102
RTVSPropertyOp25
 70
     1
102
RTVSPropertyOp26
 70
     1
102
RTVSPropertyOp27
 70
     1
102
RTVSPropertyOp28
 70
     1
102
RTVSPropertyOp29
 70
     1
102
RTVSPropertyOp30
 70
     1
102
RTVSPropertyOp31
 70
     1
102
RTVSPropertyOp32
 70
     1
  0
XRECORD
  5
23F
102
{ACAD_REACTORS
330
23E
102
}
330
23E
100
AcDbXrecord
280
     1
102
RTVSPropertyOp0
 70
     1
102
RTVSPropertyOp1
 70
     1
102
RTVSPropertyOp2
 70
     1
102
RTVSPropertyOp3
 70
     1
102
RTVSPropertyOp4
 70
     1
102
RTVSPropertyOp5
 70
     1
102
RTVSPropertyOp6
 70
     1
102
RTVSPropertyOp7
 70
     1
102
RTVSPropertyOp8
 70
     1
102
RTVSPropertyOp9
 70
     1
102
RTVSPropertyOp10
 70
     1
102
RTVSPropertyOp11
 70
     1
102
RTVSPropertyOp12
 70
     1
102
RTVSPropertyOp13
 70
     1
102
RTVSPropertyOp14
 70
     1
102
RTVSPropertyOp15
 70
     1
102
RTVSPropertyOp16
 70
     1
102
RTVSPropertyOp17
 70
     1
102
RTVSPropertyOp18
 70
     1
102
RTVSPropertyOp19
 70
     1
102
RTVSPropertyOp20
 70
     1
102
RTVSPropertyOp21
 70
     1
102
RTVSPropertyOp22
 70
     1
102
RTVSPropertyOp23
 70
     1
102
RTVSPropertyOp24
 70
     1
102
RTVSPropertyOp25
 70
     1
102
RTVSPropertyOp26
 70
     1
102
RTVSPropertyOp27
 70
     1
102
RTVSPropertyOp28
 70
     1
102
RTVSPropertyOp29
 70
     1
102
RTVSPropertyOp30
 70
     1
102
RTVSPropertyOp31
 70
     1
102
RTVSPropertyOp32
 70
     1
  0
XRECORD
  5
241
102
{ACAD_REACTORS
330
240
102
}
330
240
100
AcDbXrecord
280
     1
102
RTVSPropertyOp0
 70
     1
102
RTVSPropertyOp1
 70
     1
102
RTVSPropertyOp2
 70
     1
102
RTVSPropertyOp3
 70
     1
102
RTVSPropertyOp4
 70
     1
102
RTVSPropertyOp5
 70
     1
102
RTVSPropertyOp6
 70
     1
102
RTVSPropertyOp7
 70
     1
102
RTVSPropertyOp8
 70
     1
102
RTVSPropertyOp9
 70
     1
102
RTVSPropertyOp10
 70
     1
102
RTVSPropertyOp11
 70
     1
102
RTVSPropertyOp12
 70
     1
102
RTVSPropertyOp13
 70
     1
102
RTVSPropertyOp14
 70
     1
102
RTVSPropertyOp15
 70
     1
102
RTVSPropertyOp16
 70
     1
102
RTVSPropertyOp17
 70
     1
102
RTVSPropertyOp18
 70
     1
102
RTVSPropertyOp19
 70
     1
102
RTVSPropertyOp20
 70
     1
102
RTVSPropertyOp21
 70
     1
102
RTVSPropertyOp22
 70
     1
102
RTVSPropertyOp23
 70
     1
102
RTVSPropertyOp24
 70
     1
102
RTVSPropertyOp25
 70
     1
102
RTVSPropertyOp26
 70
     1
102
RTVSPropertyOp27
 70
     1
102
RTVSPropertyOp28
 70
     1
102
RTVSPropertyOp29
 70
     1
102
RTVSPropertyOp30
 70
     1
102
RTVSPropertyOp31
 70
     1
102
RTVSPropertyOp32
 70
     1
  0
XRECORD
  5
243
102
{ACAD_REACTORS
330
242
102
}
330
242
100
AcDbXrecord
280
     1
102
RTVSPropertyOp0
 70
     1
102
RTVSPropertyOp1
 70
     1
102
RTVSPropertyOp2
 70
     1
102
RTVSPropertyOp3
 70
     1
102
RTVSPropertyOp4
 70
     1
102
RTVSPropertyOp5
 70
     1
102
RTVSPropertyOp6
 70
     1
102
RTVSPropertyOp7
 70
     1
102
RTVSPropertyOp8
 70
     1
102
RTVSPropertyOp9
 70
     1
102
RTVSPropertyOp10
 70
     1
102
RTVSPropertyOp11
 70
     1
102
RTVSPropertyOp12
 70
     1
102
RTVSPropertyOp13
 70
     1
102
RTVSPropertyOp14
 70
     1
102
RTVSPropertyOp15
 70
     1
102
RTVSPropertyOp16
 70
     1
102
RTVSPropertyOp17
 70
     1
102
RTVSPropertyOp18
 70
     1
102
RTVSPropertyOp19
 70
     1
102
RTVSPropertyOp20
 70
     1
102
RTVSPropertyOp21
 70
     1
102
RTVSPropertyOp22
 70
     1
102
RTVSPropertyOp23
 70
     1
102
RTVSPropertyOp24
 70
     1
102
RTVSPropertyOp25
 70
     1
102
RTVSPropertyOp26
 70
     1
102
RTVSPropertyOp27
 70
     1
102
RTVSPropertyOp28
 70
     1
102
RTVSPropertyOp29
 70
     1
102
RTVSPropertyOp30
 70
     1
102
RTVSPropertyOp31
 70
     1
102
RTVSPropertyOp32
 70
     1
  0
XRECORD
  5
247
102
{ACAD_REACTORS
330
246
102
}
330
246
100
AcDbXrecord
280
     1
102
RTVSPropertyOp0
 70
     1
102
RTVSPropertyOp1
 70
     1
102
RTVSPropertyOp2
 70
     1
102
RTVSPropertyOp3
 70
     1
102
RTVSPropertyOp4
 70
     1
102
RTVSPropertyOp5
 70
     1
102
RTVSPropertyOp6
 70
     1
102
RTVSPropertyOp7
 70
     1
102
RTVSPropertyOp8
 70
     1
102
RTVSPropertyOp9
 70
     1
102
RTVSPropertyOp10
 70
     1
102
RTVSPropertyOp11
 70
     1
102
RTVSPropertyOp12
 70
     1
102
RTVSPropertyOp13
 70
     1
102
RTVSPropertyOp14
 70
     1
102
RTVSPropertyOp15
 70
     1
102
RTVSPropertyOp16
 70
     1
102
RTVSPropertyOp17
 70
     1
102
RTVSPropertyOp18
 70
     1
102
RTVSPropertyOp19
 70
     1
102
RTVSPropertyOp20
 70
     1
102
RTVSPropertyOp21
 70
     1
102
RTVSPropertyOp22
 70
     1
102
RTVSPropertyOp23
 70
     1
102
RTVSPropertyOp24
 70
     1
102
RTVSPropertyOp25
 70
     1
102
RTVSPropertyOp26
 70
     1
102
RTVSPropertyOp27
 70
     1
102
RTVSPropertyOp28
 70
     1
102
RTVSPropertyOp29
 70
     1
102
RTVSPropertyOp30
 70
     1
102
RTVSPropertyOp31
 70
     1
102
RTVSPropertyOp32
 70
     1
  0
XRECORD
  5
261
102
{ACAD_REACTORS
330
260
102
}
330
260
100
AcDbXrecord
280
     1
102
RTVSPropertyOp0
 70
     0
102
RTVSPropertyOp1
 70
     0
102
RTVSPropertyOp2
 70
     0
102
RTVSPropertyOp3
 70
     0
102
RTVSPropertyOp4
 70
     0
102
RTVSPropertyOp5
 70
     0
102
RTVSPropertyOp6
 70
     0
102
RTVSPropertyOp7
 70
     0
102
RTVSPropertyOp8
 70
     0
102
RTVSPropertyOp9
 70
     0
102
RTVSPropertyOp10
 70
     0
102
RTVSPropertyOp11
 70
     0
102
RTVSPropertyOp12
 70
     0
102
RTVSPropertyOp13
 70
     0
102
RTVSPropertyOp14
 70
     2
102
RTVSPropertyOp15
 70
     0
102
RTVSPropertyOp16
 70
     0
102
RTVSPropertyOp17
 70
     0
102
RTVSPropertyOp18
 70
     0
102
RTVSPropertyOp19
 70
     0
102
RTVSPropertyOp20
 70
     0
102
RTVSPropertyOp21
 70
     0
102
RTVSPropertyOp22
 70
     0
102
RTVSPropertyOp23
 70
     0
102
RTVSPropertyOp24
 70
     0
102
RTVSPropertyOp25
 70
     0
102
RTVSPropertyOp26
 70
     0
102
RTVSPropertyOp27
 70
     0
102
RTVSPropertyOp28
 70
     0
102
RTVSPropertyOp29
 70
     0
102
RTVSPropertyOp30
 70
     0
102
RTVSPropertyOp31
 70
     0
102
RTVSPropertyOp32
 70
     0
  0
XRECORD
  5
251
102
{ACAD_REACTORS
330
250
102
}
330
250
100
AcDbXrecord
280
     1
102
RTVSPropertyOp0
 70
     1
102
RTVSPropertyOp1
 70
     1
102
RTVSPropertyOp2
 70
     1
102
RTVSPropertyOp3
 70
     1
102
RTVSPropertyOp4
 70
     1
102
RTVSPropertyOp5
 70
     1
102
RTVSPropertyOp6
 70
     1
102
RTVSPropertyOp7
 70
     1
102
RTVSPropertyOp8
 70
     1
102
RTVSPropertyOp9
 70
     1
102
RTVSPropertyOp10
 70
     1
102
RTVSPropertyOp11
 70
     1
102
RTVSPropertyOp12
 70
     1
102
RTVSPropertyOp13
 70
     1
102
RTVSPropertyOp14
 70
     1
102
RTVSPropertyOp15
 70
     1
102
RTVSPropertyOp16
 70
     1
102
RTVSPropertyOp17
 70
     1
102
RTVSPropertyOp18
 70
     1
102
RTVSPropertyOp19
 70
     1
102
RTVSPropertyOp20
 70
     1
102
RTVSPropertyOp21
 70
     1
102
RTVSPropertyOp22
 70
     1
102
RTVSPropertyOp23
 70
     1
102
RTVSPropertyOp24
 70
     1
102
RTVSPropertyOp25
 70
     1
102
RTVSPropertyOp26
 70
     1
102
RTVSPropertyOp27
 70
     1
102
RTVSPropertyOp28
 70
     1
102
RTVSPropertyOp29
 70
     1
102
RTVSPropertyOp30
 70
     1
102
RTVSPropertyOp31
 70
     1
102
RTVSPropertyOp32
 70
     1
  0
XRECORD
  5
263
102
{ACAD_REACTORS
330
262
102
}
330
262
100
AcDbXrecord
280
     1
102
RTVSPropertyOp0
 70
     0
102
RTVSPropertyOp1
 70
     0
102
RTVSPropertyOp2
 70
     0
102
RTVSPropertyOp3
 70
     0
102
RTVSPropertyOp4
 70
     0
102
RTVSPropertyOp5
 70
     0
102
RTVSPropertyOp6
 70
     0
102
RTVSPropertyOp7
 70
     0
102
RTVSPropertyOp8
 70
     0
102
RTVSPropertyOp9
 70
     0
102
RTVSPropertyOp10
 70
     0
102
RTVSPropertyOp11
 70
     0
102
RTVSPropertyOp12
 70
     0
102
RTVSPropertyOp13
 70
     0
102
RTVSPropertyOp14
 70
     2
102
RTVSPropertyOp15
 70
     0
102
RTVSPropertyOp16
 70
     0
102
RTVSPropertyOp17
 70
     0
102
RTVSPropertyOp18
 70
     0
102
RTVSPropertyOp19
 70
     0
102
RTVSPropertyOp20
 70
     0
102
RTVSPropertyOp21
 70
     0
102
RTVSPropertyOp22
 70
     0
102
RTVSPropertyOp23
 70
     0
102
RTVSPropertyOp24
 70
     0
102
RTVSPropertyOp25
 70
     0
102
RTVSPropertyOp26
 70
     0
102
RTVSPropertyOp27
 70
     0
102
RTVSPropertyOp28
 70
     0
102
RTVSPropertyOp29
 70
     0
102
RTVSPropertyOp30
 70
     0
102
RTVSPropertyOp31
 70
     0
102
RTVSPropertyOp32
 70
     0
  0
XRECORD
  5
239
102
{ACAD_REACTORS
330
238
102
}
330
238
100
AcDbXrecord
280
     1
102
RTVSPropertyOp0
 70
     1
102
RTVSPropertyOp1
 70
     1
102
RTVSPropertyOp2
 70
     1
102
RTVSPropertyOp3
 70
     1
102
RTVSPropertyOp4
 70
     1
102
RTVSPropertyOp5
 70
     1
102
RTVSPropertyOp6
 70
     1
102
RTVSPropertyOp7
 70
     1
102
RTVSPropertyOp8
 70
     1
102
RTVSPropertyOp9
 70
     1
102
RTVSPropertyOp10
 70
     1
102
RTVSPropertyOp11
 70
     1
102
RTVSPropertyOp12
 70
     1
102
RTVSPropertyOp13
 70
     1
102
RTVSPropertyOp14
 70
     1
102
RTVSPropertyOp15
 70
     1
102
RTVSPropertyOp16
 70
     1
102
RTVSPropertyOp17
 70
     1
102
RTVSPropertyOp18
 70
     1
102
RTVSPropertyOp19
 70
     1
102
RTVSPropertyOp20
 70
     1
102
RTVSPropertyOp21
 70
     1
102
RTVSPropertyOp22
 70
     1
102
RTVSPropertyOp23
 70
     1
102
RTVSPropertyOp24
 70
     1
102
RTVSPropertyOp25
 70
     1
102
RTVSPropertyOp26
 70
     1
102
RTVSPropertyOp27
 70
     1
102
RTVSPropertyOp28
 70
     1
102
RTVSPropertyOp29
 70
     1
102
RTVSPropertyOp30
 70
     1
102
RTVSPropertyOp31
 70
     1
102
RTVSPropertyOp32
 70
     1
  0
XRECORD
  5
25F
102
{ACAD_REACTORS
330
25E
102
}
330
25E
100
AcDbXrecord
280
     1
102
RTVSPropertyOp0
 70
     1
102
RTVSPropertyOp1
 70
     1
102
RTVSPropertyOp2
 70
     1
102
RTVSPropertyOp3
 70
     1
102
RTVSPropertyOp4
 70
     1
102
RTVSPropertyOp5
 70
     1
102
RTVSPropertyOp6
 70
     1
102
RTVSPropertyOp7
 70
     1
102
RTVSPropertyOp8
 70
     1
102
RTVSPropertyOp9
 70
     1
102
RTVSPropertyOp10
 70
     1
102
RTVSPropertyOp11
 70
     1
102
RTVSPropertyOp12
 70
     1
102
RTVSPropertyOp13
 70
     1
102
RTVSPropertyOp14
 70
     1
102
RTVSPropertyOp15
 70
     1
102
RTVSPropertyOp16
 70
     1
102
RTVSPropertyOp17
 70
     1
102
RTVSPropertyOp18
 70
     1
102
RTVSPropertyOp19
 70
     1
102
RTVSPropertyOp20
 70
     1
102
RTVSPropertyOp21
 70
     1
102
RTVSPropertyOp22
 70
     1
102
RTVSPropertyOp23
 70
     1
102
RTVSPropertyOp24
 70
     1
102
RTVSPropertyOp25
 70
     1
102
RTVSPropertyOp26
 70
     1
102
RTVSPropertyOp27
 70
     1
102
RTVSPropertyOp28
 70
     1
102
RTVSPropertyOp29
 70
     1
102
RTVSPropertyOp30
 70
     1
102
RTVSPropertyOp31
 70
     1
102
RTVSPropertyOp32
 70
     1
  0
XRECORD
  5
25D
102
{ACAD_REACTORS
330
25C
102
}
330
25C
100
AcDbXrecord
280
     1
102
RTVSPropertyOp0
 70
     1
102
RTVSPropertyOp1
 70
     1
102
RTVSPropertyOp2
 70
     1
102
RTVSPropertyOp3
 70
     1
102
RTVSPropertyOp4
 70
     1
102
RTVSPropertyOp5
 70
     1
102
RTVSPropertyOp6
 70
     1
102
RTVSPropertyOp7
 70
     1
102
RTVSPropertyOp8
 70
     1
102
RTVSPropertyOp9
 70
     1
102
RTVSPropertyOp10
 70
     1
102
RTVSPropertyOp11
 70
     1
102
RTVSPropertyOp12
 70
     1
102
RTVSPropertyOp13
 70
     1
102
RTVSPropertyOp14
 70
     1
102
RTVSPropertyOp15
 70
     1
102
RTVSPropertyOp16
 70
     1
102
RTVSPropertyOp17
 70
     1
102
RTVSPropertyOp18
 70
     1
102
RTVSPropertyOp19
 70
     1
102
RTVSPropertyOp20
 70
     1
102
RTVSPropertyOp21
 70
     1
102
RTVSPropertyOp22
 70
     1
102
RTVSPropertyOp23
 70
     1
102
RTVSPropertyOp24
 70
     1
102
RTVSPropertyOp25
 70
     1
102
RTVSPropertyOp26
 70
     1
102
RTVSPropertyOp27
 70
     1
102
RTVSPropertyOp28
 70
     1
102
RTVSPropertyOp29
 70
     1
102
RTVSPropertyOp30
 70
     1
102
RTVSPropertyOp31
 70
     1
102
RTVSPropertyOp32
 70
     1
  0
XRECORD
  5
257
102
{ACAD_REACTORS
330
256
102
}
330
256
100
AcDbXrecord
280
     1
102
RTVSPropertyOp0
 70
     1
102
RTVSPropertyOp1
 70
     1
102
RTVSPropertyOp2
 70
     1
102
RTVSPropertyOp3
 70
     1
102
RTVSPropertyOp4
 70
     1
102
RTVSPropertyOp5
 70
     1
102
RTVSPropertyOp6
 70
     1
102
RTVSPropertyOp7
 70
     1
102
RTVSPropertyOp8
 70
     1
102
RTVSPropertyOp9
 70
     1
102
RTVSPropertyOp10
 70
     1
102
RTVSPropertyOp11
 70
     1
102
RTVSPropertyOp12
 70
     1
102
RTVSPropertyOp13
 70
     1
102
RTVSPropertyOp14
 70
     1
102
RTVSPropertyOp15
 70
     1
102
RTVSPropertyOp16
 70
     1
102
RTVSPropertyOp17
 70
     1
102
RTVSPropertyOp18
 70
     1
102
RTVSPropertyOp19
 70
     1
102
RTVSPropertyOp20
 70
     1
102
RTVSPropertyOp21
 70
     1
102
RTVSPropertyOp22
 70
     1
102
RTVSPropertyOp23
 70
     1
102
RTVSPropertyOp24
 70
     1
102
RTVSPropertyOp25
 70
     1
102
RTVSPropertyOp26
 70
     1
102
RTVSPropertyOp27
 70
     1
102
RTVSPropertyOp28
 70
     1
102
RTVSPropertyOp29
 70
     1
102
RTVSPropertyOp30
 70
     1
102
RTVSPropertyOp31
 70
     1
102
RTVSPropertyOp32
 70
     1
  0
XRECORD
  5
259
102
{ACAD_REACTORS
330
258
102
}
330
258
100
AcDbXrecord
280
     1
102
RTVSPropertyOp0
 70
     1
102
RTVSPropertyOp1
 70
     1
102
RTVSPropertyOp2
 70
     1
102
RTVSPropertyOp3
 70
     1
102
RTVSPropertyOp4
 70
     1
102
RTVSPropertyOp5
 70
     1
102
RTVSPropertyOp6
 70
     1
102
RTVSPropertyOp7
 70
     1
102
RTVSPropertyOp8
 70
     1
102
RTVSPropertyOp9
 70
     1
102
RTVSPropertyOp10
 70
     1
102
RTVSPropertyOp11
 70
     1
102
RTVSPropertyOp12
 70
     1
102
RTVSPropertyOp13
 70
     1
102
RTVSPropertyOp14
 70
     1
102
RTVSPropertyOp15
 70
     1
102
RTVSPropertyOp16
 70
     1
102
RTVSPropertyOp17
 70
     1
102
RTVSPropertyOp18
 70
     1
102
RTVSPropertyOp19
 70
     1
102
RTVSPropertyOp20
 70
     1
102
RTVSPropertyOp21
 70
     1
102
RTVSPropertyOp22
 70
     1
102
RTVSPropertyOp23
 70
     1
102
RTVSPropertyOp24
 70
     1
102
RTVSPropertyOp25
 70
     1
102
RTVSPropertyOp26
 70
     1
102
RTVSPropertyOp27
 70
     1
102
RTVSPropertyOp28
 70
     1
102
RTVSPropertyOp29
 70
     1
102
RTVSPropertyOp30
 70
     1
102
RTVSPropertyOp31
 70
     1
102
RTVSPropertyOp32
 70
     1
  0
XRECORD
  5
24F
102
{ACAD_REACTORS
330
24E
102
}
330
24E
100
AcDbXrecord
280
     1
102
RTVSPropertyOp0
 70
     1
102
RTVSPropertyOp1
 70
     1
102
RTVSPropertyOp2
 70
     1
102
RTVSPropertyOp3
 70
     1
102
RTVSPropertyOp4
 70
     1
102
RTVSPropertyOp5
 70
     1
102
RTVSPropertyOp6
 70
     1
102
RTVSPropertyOp7
 70
     1
102
RTVSPropertyOp8
 70
     1
102
RTVSPropertyOp9
 70
     1
102
RTVSPropertyOp10
 70
     1
102
RTVSPropertyOp11
 70
     1
102
RTVSPropertyOp12
 70
     1
102
RTVSPropertyOp13
 70
     1
102
RTVSPropertyOp14
 70
     1
102
RTVSPropertyOp15
 70
     1
102
RTVSPropertyOp16
 70
     1
102
RTVSPropertyOp17
 70
     1
102
RTVSPropertyOp18
 70
     1
102
RTVSPropertyOp19
 70
     1
102
RTVSPropertyOp20
 70
     1
102
RTVSPropertyOp21
 70
     1
102
RTVSPropertyOp22
 70
     1
102
RTVSPropertyOp23
 70
     1
102
RTVSPropertyOp24
 70
     1
102
RTVSPropertyOp25
 70
     1
102
RTVSPropertyOp26
 70
     1
102
RTVSPropertyOp27
 70
     1
102
RTVSPropertyOp28
 70
     1
102
RTVSPropertyOp29
 70
     1
102
RTVSPropertyOp30
 70
     1
102
RTVSPropertyOp31
 70
     1
102
RTVSPropertyOp32
 70
     1
  0
XRECORD
  5
23B
102
{ACAD_REACTORS
330
23A
102
}
330
23A
100
AcDbXrecord
280
     1
102
RTVSPropertyOp0
 70
     1
102
RTVSPropertyOp1
 70
     1
102
RTVSPropertyOp2
 70
     1
102
RTVSPropertyOp3
 70
     1
102
RTVSPropertyOp4
 70
     1
102
RTVSPropertyOp5
 70
     1
102
RTVSPropertyOp6
 70
     1
102
RTVSPropertyOp7
 70
     1
102
RTVSPropertyOp8
 70
     1
102
RTVSPropertyOp9
 70
     1
102
RTVSPropertyOp10
 70
     1
102
RTVSPropertyOp11
 70
     1
102
RTVSPropertyOp12
 70
     1
102
RTVSPropertyOp13
 70
     1
102
RTVSPropertyOp14
 70
     1
102
RTVSPropertyOp15
 70
     1
102
RTVSPropertyOp16
 70
     1
102
RTVSPropertyOp17
 70
     1
102
RTVSPropertyOp18
 70
     1
102
RTVSPropertyOp19
 70
     1
102
RTVSPropertyOp20
 70
     1
102
RTVSPropertyOp21
 70
     1
102
RTVSPropertyOp22
 70
     1
102
RTVSPropertyOp23
 70
     1
102
RTVSPropertyOp24
 70
     1
102
RTVSPropertyOp25
 70
     1
102
RTVSPropertyOp26
 70
     1
102
RTVSPropertyOp27
 70
     1
102
RTVSPropertyOp28
 70
     1
102
RTVSPropertyOp29
 70
     1
102
RTVSPropertyOp30
 70
     1
102
RTVSPropertyOp31
 70
     1
102
RTVSPropertyOp32
 70
     1
  0
XRECORD
  5
25B
102
{ACAD_REACTORS
330
25A
102
}
330
25A
100
AcDbXrecord
280
     1
102
RTVSPropertyOp0
 70
     1
102
RTVSPropertyOp1
 70
     1
102
RTVSPropertyOp2
 70
     1
102
RTVSPropertyOp3
 70
     1
102
RTVSPropertyOp4
 70
     1
102
RTVSPropertyOp5
 70
     1
102
RTVSPropertyOp6
 70
     1
102
RTVSPropertyOp7
 70
     1
102
RTVSPropertyOp8
 70
     1
102
RTVSPropertyOp9
 70
     1
102
RTVSPropertyOp10
 70
     1
102
RTVSPropertyOp11
 70
     1
102
RTVSPropertyOp12
 70
     1
102
RTVSPropertyOp13
 70
     1
102
RTVSPropertyOp14
 70
     1
102
RTVSPropertyOp15
 70
     1
102
RTVSPropertyOp16
 70
     1
102
RTVSPropertyOp17
 70
     1
102
RTVSPropertyOp18
 70
     1
102
RTVSPropertyOp19
 70
     1
102
RTVSPropertyOp20
 70
     1
102
RTVSPropertyOp21
 70
     1
102
RTVSPropertyOp22
 70
     1
102
RTVSPropertyOp23
 70
     1
102
RTVSPropertyOp24
 70
     1
102
RTVSPropertyOp25
 70
     1
102
RTVSPropertyOp26
 70
     1
102
RTVSPropertyOp27
 70
     1
102
RTVSPropertyOp28
 70
     1
102
RTVSPropertyOp29
 70
     1
102
RTVSPropertyOp30
 70
     1
102
RTVSPropertyOp31
 70
     1
102
RTVSPropertyOp32
 70
     1
  0
ENDSEC
  0
EOF
