  0
SECTION
  2
HEADER
  9
$ACADVER
  1
AC1015
  9
$ACADMAINTVER
 70
    18
  9
$DWGCODEPAGE
  3
ANSI_1252
  9
$INSBASE
 10
0.0
 20
0.0
 30
0.0
  9
$EXTMIN
 10
-32.42100251841021
 20
-20.42956349536507
 30
-0.0015258207003583
  9
$EXTMAX
 10
32.43914937116097
 20
144.6623699218758
 30
0.0000000349246037
  9
$LIMMIN
 10
0.0
 20
0.0
  9
$LIMMAX
 10
1189.0
 20
840.9999999999998
  9
$ORTHOMODE
 70
     0
  9
$REGENMODE
 70
     1
  9
$FILLMODE
 70
     1
  9
$QTEXTMODE
 70
     0
  9
$MIRRTEXT
 70
     0
  9
$LTSCALE
 40
1.0
  9
$ATTMODE
 70
     1
  9
$TEXTSIZE
 40
0.2
  9
$TRACEWID
 40
0.05
  9
$TEXTSTYLE
  7
STANDARD
  9
$CLAYER
  8
0
  9
$CELTYPE
  6
ByLayer
  9
$CECOLOR
 62
   256
  9
$CELTSCALE
 40
1.0
  9
$DISPSILH
 70
     0
  9
$DIMSCALE
 40
1.0
  9
$DIMASZ
 40
180.0
  9
$DIMEXO
 40
0.0625
  9
$DIMDLI
 40
0.38
  9
$DIMRND
 40
0.0
  9
$DIMDLE
 40
0.0
  9
$DIMEXE
 40
0.18
  9
$DIMTP
 40
0.0
  9
$DIMTM
 40
0.0
  9
$DIMTXT
 40
34.99999940395355
  9
$DIMCEN
 40
0.09
  9
$DIMTSZ
 40
0.0
  9
$DIMTOL
 70
     0
  9
$DIMLIM
 70
     0
  9
$DIMTIH
 70
     1
  9
$DIMTOH
 70
     1
  9
$DIMSE1
 70
     0
  9
$DIMSE2
 70
     0
  9
$DIMTAD
 70
     0
  9
$DIMZIN
 70
     0
  9
$DIMBLK
  1

  9
$DIMASO
 70
     1
  9
$DIMSHO
 70
     1
  9
$DIMPOST
  1

  9
$DIMAPOST
  1

  9
$DIMALT
 70
     0
  9
$DIMALTD
 70
     2
  9
$DIMALTF
 40
25.4
  9
$DIMLFAC
 40
1.0
  9
$DIMTOFL
 70
     0
  9
$DIMTVP
 40
0.0
  9
$DIMTIX
 70
     0
  9
$DIMSOXD
 70
     0
  9
$DIMSAH
 70
     0
  9
$DIMBLK1
  1

  9
$DIMBLK2
  1

  9
$DIMSTYLE
  2
STANDARD
  9
$DIMCLRD
 70
     0
  9
$DIMCLRE
 70
     0
  9
$DIMCLRT
 70
     0
  9
$DIMTFAC
 40
1.0
  9
$DIMGAP
 40
0.09
  9
$DIMJUST
 70
     0
  9
$DIMSD1
 70
     0
  9
$DIMSD2
 70
     0
  9
$DIMTOLJ
 70
     1
  9
$DIMTZIN
 70
     0
  9
$DIMALTZ
 70
     0
  9
$DIMALTTZ
 70
     0
  9
$DIMUPT
 70
     0
  9
$DIMDEC
 70
     4
  9
$DIMTDEC
 70
     4
  9
$DIMALTU
 70
     2
  9
$DIMALTTD
 70
     2
  9
$DIMTXSTY
  7
STANDARD
  9
$DIMAUNIT
 70
     0
  9
$DIMADEC
 70
     0
  9
$DIMALTRND
 40
0.0
  9
$DIMAZIN
 70
     0
  9
$DIMDSEP
 70
    46
  9
$DIMATFIT
 70
     3
  9
$DIMFRAC
 70
     0
  9
$DIMLDRBLK
  1

  9
$DIMLUNIT
 70
     2
  9
$DIMLWD
 70
    -2
  9
$DIMLWE
 70
    -2
  9
$DIMTMOVE
 70
     0
  9
$LUNITS
 70
     2
  9
$LUPREC
 70
     4
  9
$SKETCHINC
 40
0.1
  9
$FILLETRAD
 40
0.0
  9
$AUNITS
 70
     0
  9
$AUPREC
 70
     0
  9
$MENU
  1
.
  9
$ELEVATION
 40
0.0
  9
$PELEVATION
 40
0.0
  9
$THICKNESS
 40
0.0
  9
$LIMCHECK
 70
     0
  9
$CHAMFERA
 40
0.0
  9
$CHAMFERB
 40
0.0
  9
$CHAMFERC
 40
0.0
  9
$CHAMFERD
 40
0.0
  9
$SKPOLY
 70
     0
  9
$TDCREATE
 40
2454871.497639329
  9
$TDUCREATE
 40
2454871.455972662
  9
$TDUPDATE
 40
2455943.988581447
  9
$TDUUPDATE
 40
2455943.946914780
  9
$TDINDWG
 40
0.0124417477
  9
$TDUSRTIMER
 40
0.0124417477
  9
$USRTIMER
 70
     1
  9
$ANGBASE
 50
0.0
  9
$ANGDIR
 70
     0
  9
$PDMODE
 70
     0
  9
$PDSIZE
 40
0.0
  9
$PLINEWID
 40
0.0
  9
$SPLFRAME
 70
     0
  9
$SPLINETYPE
 70
     6
  9
$SPLINESEGS
 70
     8
  9
$HANDSEED
  5
1A6
  9
$SURFTAB1
 70
     6
  9
$SURFTAB2
 70
     6
  9
$SURFTYPE
 70
     6
  9
$SURFU
 70
     6
  9
$SURFV
 70
     6
  9
$UCSBASE
  2

  9
$UCSNAME
  2

  9
$UCSORG
 10
0.0
 20
0.0
 30
0.0
  9
$UCSXDIR
 10
1.0
 20
0.0
 30
0.0
  9
$UCSYDIR
 10
0.0
 20
1.0
 30
0.0
  9
$UCSORTHOREF
  2

  9
$UCSORTHOVIEW
 70
     0
  9
$UCSORGTOP
 10
0.0
 20
0.0
 30
0.0
  9
$UCSORGBOTTOM
 10
0.0
 20
0.0
 30
0.0
  9
$UCSORGLEFT
 10
0.0
 20
0.0
 30
0.0
  9
$UCSORGRIGHT
 10
0.0
 20
0.0
 30
0.0
  9
$UCSORGFRONT
 10
0.0
 20
0.0
 30
0.0
  9
$UCSORGBACK
 10
0.0
 20
0.0
 30
0.0
  9
$PUCSBASE
  2

  9
$PUCSNAME
  2

  9
$PUCSORG
 10
0.0
 20
0.0
 30
0.0
  9
$PUCSXDIR
 10
1.0
 20
0.0
 30
0.0
  9
$PUCSYDIR
 10
0.0
 20
1.0
 30
0.0
  9
$PUCSORTHOREF
  2

  9
$PUCSORTHOVIEW
 70
     0
  9
$PUCSORGTOP
 10
0.0
 20
0.0
 30
0.0
  9
$PUCSORGBOTTOM
 10
0.0
 20
0.0
 30
0.0
  9
$PUCSORGLEFT
 10
0.0
 20
0.0
 30
0.0
  9
$PUCSORGRIGHT
 10
0.0
 20
0.0
 30
0.0
  9
$PUCSORGFRONT
 10
0.0
 20
0.0
 30
0.0
  9
$PUCSORGBACK
 10
0.0
 20
0.0
 30
0.0
  9
$USERI1
 70
     0
  9
$USERI2
 70
     0
  9
$USERI3
 70
     0
  9
$USERI4
 70
     0
  9
$USERI5
 70
     0
  9
$USERR1
 40
0.0
  9
$USERR2
 40
0.0
  9
$USERR3
 40
0.0
  9
$USERR4
 40
0.0
  9
$USERR5
 40
0.0
  9
$WORLDVIEW
 70
     1
  9
$SHADEDGE
 70
     3
  9
$SHADEDIF
 70
    70
  9
$TILEMODE
 70
     1
  9
$MAXACTVP
 70
    64
  9
$PINSBASE
 10
0.0
 20
0.0
 30
0.0
  9
$PLIMCHECK
 70
     0
  9
$PEXTMIN
 10
0.0
 20
0.0
 30
0.0
  9
$PEXTMAX
 10
1189.0
 20
840.9999999999998
 30
0.0
  9
$PLIMMIN
 10
0.0
 20
0.0
  9
$PLIMMAX
 10
1189.0
 20
840.9999999999998
  9
$UNITMODE
 70
     0
  9
$VISRETAIN
 70
     1
  9
$PLINEGEN
 70
     0
  9
$PSLTSCALE
 70
     1
  9
$TREEDEPTH
 70
  3020
  9
$CMLSTYLE
  2
Standard
  9
$CMLJUST
 70
     0
  9
$CMLSCALE
 40
1.0
  9
$PROXYGRAPHICS
 70
     1
  9
$MEASUREMENT
 70
     1
  9
$CELWEIGHT
370
    -1
  9
$ENDCAPS
280
     0
  9
$JOINSTYLE
280
     0
  9
$LWDISPLAY
290
     0
  9
$INSUNITS
 70
     4
  9
$HYPERLINKBASE
  1

  9
$STYLESHEET
  1

  9
$XEDIT
290
     1
  9
$CEPSNTYPE
380
     0
  9
$PSTYLEMODE
290
     1
  9
$FINGERPRINTGUID
  2
{77AFAD29-B407-4A96-AFB8-1A1CAEB0C1FD}
  9
$VERSIONGUID
  2
{8F79C4C4-060A-4412-99E0-EC5966263D0F}
  9
$EXTNAMES
290
     1
  9
$PSVPSCALE
 40
0.0
  9
$OLESTARTUP
290
     0
  0
ENDSEC
  0
SECTION
  2
CLASSES
  0
CLASS
  1
ACDBDICTIONARYWDFLT
  2
AcDbDictionaryWithDefault
  3
ObjectDBX Classes
 90
        0
280
     0
281
     0
  0
CLASS
  1
MATERIAL
  2
AcDbMaterial
  3
ObjectDBX Classes
 90
     1153
280
     0
281
     0
  0
CLASS
  1
VISUALSTYLE
  2
AcDbVisualStyle
  3
ObjectDBX Classes
 90
     4095
280
     0
281
     0
  0
CLASS
  1
SCALE
  2
AcDbScale
  3
ObjectDBX Classes
 90
     1153
280
     0
281
     0
  0
CLASS
  1
TABLESTYLE
  2
AcDbTableStyle
  3
ObjectDBX Classes
 90
     4095
280
     0
281
     0
  0
CLASS
  1
MLEADERSTYLE
  2
AcDbMLeaderStyle
  3
ACDB_MLEADERSTYLE_CLASS
 90
     4095
280
     0
281
     0
  0
CLASS
  1
SORTENTSTABLE
  2
AcDbSortentsTable
  3
ObjectDBX Classes
 90
        0
280
     0
281
     0
  0
CLASS
  1
CELLSTYLEMAP
  2
AcDbCellStyleMap
  3
ObjectDBX Classes
 90
     1152
280
     0
281
     0
  0
CLASS
  1
DICTIONARYVAR
  2
AcDbDictionaryVar
  3
ObjectDBX Classes
 90
        0
280
     0
281
     0
  0
CLASS
  1
ACME_DOCUMENT
  2
AcMeDbDoc
  3
AcMeServices
 90
    33792
280
     1
281
     0
  0
CLASS
  1
AMGSETTINGSOBJ
  2
AmgSettingsObj
  3
"AcadM|Product Description: AutoCAD Mechanical|Company: Autodesk, Inc."
 90
    33792
280
     1
281
     0
  0
CLASS
  1
ACMESCOPE
  2
AcMeScope
  3
AcMeServices
 90
    33792
280
     1
281
     0
  0
CLASS
  1
ACMECOMMANDHISTORY
  2
AcMeCommandHistory
  3
AcMeServices
 90
    33792
280
     1
281
     0
  0
CLASS
  1
ACIMSYSVARMAN
  2
AcImSysVarManager
  3
AcMeServices
 90
    33792
280
     1
281
     0
  0
CLASS
  1
ACIMINTSYSVAR
  2
AcImIntSysVar
  3
AcMeServices
 90
    33792
280
     1
281
     0
  0
CLASS
  1
ACMEDRAWINGMAN
  2
AcMeDrawingMan
  3
AcMeServices
 90
    33792
280
     1
281
     0
  0
CLASS
  1
ACMEVIEW
  2
AcMeView
  3
AcMeServices
 90
    33792
280
     1
281
     0
  0
CLASS
  1
ACDBENTITYCACHE
  2
AcMeEntityCache
  3
AcMeServices
 90
    33792
280
     1
281
     0
  0
CLASS
  1
GSMANAGER
  2
AcMeGSManager
  3
AcMeServices
 90
    33792
280
     1
281
     0
  0
CLASS
  1
AMDTINTERNALREACTOR
  2
AmdtInternalReactor
  3
AcMeServices
 90
    33792
280
     1
281
     0
  0
CLASS
  1
ACMESTATEMGR
  2
AcMeStateMgr
  3
AcMeServices
 90
    33792
280
     1
281
     0
  0
CLASS
  1
ACGREFMASTER
  2
AcGrefMaster
  3
AcAttribServices
 90
    33792
280
     1
281
     0
  0
CLASS
  1
AM_DRAWING_MGR
  2
AcDmDwgMgr
  3
AcMechDwgViewMgmt
 90
    33792
280
     1
281
     0
  0
CLASS
  1
AM_DWG_DOCUMENT
  2
AcDmDwgDocument
  3
AcMechDwgViewMgmt
 90
    33792
280
     1
281
     0
  0
CLASS
  1
AM_DWG_SHEET
  2
AcDmSheet
  3
AcMechDwgViewMgmt
 90
    33792
280
     1
281
     0
  0
CLASS
  1
AM_VIEWDIMPARMAP
  2
AcDmViewDimParMap
  3
AcMechDwgViewMgmt
 90
    33792
280
     1
281
     0
  0
CLASS
  1
ACIMREALSYSVAR
  2
AcImRealSysVar
  3
AcMeServices
 90
    33792
280
     1
281
     0
  0
CLASS
  1
AM_DWGMGR_NAME
  2
AcDmDwgMgrName
  3
AcMechDwgViewMgmt
 90
    33792
280
     1
281
     0
  0
CLASS
  1
ACME_DATABASE
  2
AcMeDbDatabase
  3
AcMeServices
 90
    33792
280
     1
281
     0
  0
CLASS
  1
ACRFINSADJUSTERMGR
  2
AcRfInsAdjusterMgr
  3
AcMeServices
 90
    33792
280
     1
281
     0
  0
CLASS
  1
ACGREFACADMASTER
  2
AcGrefacadMaster
  3
AcGrefServices
 90
    33792
280
     1
281
     0
  0
CLASS
  1
AMDTMENUSTATEMGR
  2
AmdtMenuStateMgr
  3
McadcomServices
 90
    33792
280
     1
281
     0
  0
CLASS
  1
AMDTMCOMMENUSTATE
  2
AmdtMcomMenuState
  3
McadcomServices
 90
    33792
280
     1
281
     0
  0
CLASS
  1
AMIMASTER
  2
AmiMaster
  3
AmiServices
 90
    33792
280
     1
281
     0
  0
CLASS
  1
MAPIAMMOUDLE
  2
MApiAmModule
  3
MApiAmServices
 90
    33792
280
     1
281
     0
  0
CLASS
  1
ACIMSTRSYSVAR
  2
AcImStrSysVar
  3
AcMeServices
 90
    33792
280
     1
281
     0
  0
CLASS
  1
AMDTADMENUSTATE
  2
AmdtAdMenuState
  3
DesignerServices
 90
    33792
280
     1
281
     0
  0
CLASS
  1
ADAPPL
  2
AcAdAppl
  3
DesignerServices
 90
    33792
280
     1
281
     0
  0
CLASS
  1
DEPMGR
  2
AcAdDepMgr
  3
DesignerServices
 90
    33792
280
     1
281
     0
  0
CLASS
  1
PARAMMGR
  2
AcAdParamMgr
  3
DesignerServices
 90
    33792
280
     1
281
     0
  0
CLASS
  1
PARAMSCOPE
  2
AcAdParamScope
  3
DesignerServices
 90
    33792
280
     1
281
     0
  0
CLASS
  1
NAMEDAPPL
  2
AcAdNamedAppl
  3
DesignerServices
 90
    33792
280
     1
281
     0
  0
CLASS
  1
AMDTDMMENUSTATE
  2
AmdtDmMenuState
  3
AcMechDwgViewMgmt
 90
    33792
280
     1
281
     0
  0
CLASS
  1
AMDTAMMENUSTATE
  2
AmdtAmMenuState
  3
DesignerAssemblies
 90
    33792
280
     1
281
     0
  0
CLASS
  1
ACAMPROJECT
  2
AcAmProject
  3
DesignerAssemblies
 90
    33792
280
     1
281
     0
  0
CLASS
  1
ACAMGRCOMPDEF
  2
AcAmGrCompDef
  3
DesignerAssemblies
 90
    33792
280
     1
281
     0
  0
CLASS
  1
ACCMCONTEXT
  2
AcCmContext
  3
DesignerAssemblies
 90
    33792
280
     1
281
     0
  0
CLASS
  1
ACAMCOMPDEF
  2
AcAmCompDef
  3
DesignerAssemblies
 90
    33792
280
     1
281
     0
  0
CLASS
  1
ACAMCOMPDEFMGR
  2
AcAmCompDefMgr
  3
DesignerAssemblies
 90
    33792
280
     1
281
     0
  0
CLASS
  1
AMCONTEXTMGR
  2
AcAmContextMgr
  3
DesignerAssemblies
 90
    33792
280
     1
281
     0
  0
CLASS
  1
ACAMCONTEXTMODELER
  2
AcAmContextModeler
  3
DesignerAssemblies
 90
    33792
280
     1
281
     0
  0
CLASS
  1
ACMDATADICTIONARY
  2
AcmDataDictionary
  3
"AcmSymBB|Product Description: AutoCAD Mechanical|Company: Autodesk, Inc."
 90
    33792
280
     1
281
     0
  0
CLASS
  1
CATALOGSTATE
  2
AcAmCatalogState
  3
DesignerAssemblies
 90
    33792
280
     1
281
     0
  0
CLASS
  1
ACAMGRCOMPDEFSET
  2
AcAmGrCompDefSet
  3
DesignerAssemblies
 90
    33792
280
     1
281
     0
  0
CLASS
  1
AMDTBROWSERDBTAB
  2
AmdtBrowserDbTab
  3
McadcomServices
 90
    33792
280
     1
281
     0
  0
CLASS
  1
CBROWSERAPPOBJECT
  2
CBrowserAppObject
  3
McadcomServices
 90
    33792
280
     1
281
     0
  0
CLASS
  1
DM_PLACEHOLDER
  2
AcDmSelsetPlaceholder
  3
AcMechDwgViewMgmt
 90
    33792
280
     1
281
     0
  0
CLASS
  1
EXACXREFPANELOBJECT
  2
ExAcXREFPanelObject
  3
EXAC_ESW
 90
     1025
280
     0
281
     0
  0
CLASS
  1
NPOCOLLECTION
  2
AcDbImpNonPersistentObjectsCollection
  3
ObjectDBX Classes
 90
     1153
280
     0
281
     0
  0
CLASS
  1
ACMSTANDARDANSI
  2
AcmStandardANSI
  3
"Amdt_StdImp|Product Description: AutoCAD Mechanical|Company: Autodesk, Inc."
 90
    33792
280
     1
281
     0
  0
CLASS
  1
ACMSURFSTANDARDANSI
  2
AcmSurfTextStdANSI
  3
"Amdt_StdImp|Product Description: AutoCAD Mechanical|Company: Autodesk, Inc."
 90
    33792
280
     1
281
     0
  0
CLASS
  1
ACMFCFSTANDARDANSI
  2
AcmFCFStdANSI
  3
"Amdt_StdImp|Product Description: AutoCAD Mechanical|Company: Autodesk, Inc."
 90
    33792
280
     1
281
     0
  0
CLASS
  1
ACMWELDSTANDARDANSI
  2
AcmWeldingStdANSI
  3
"Amdt_StdImp|Product Description: AutoCAD Mechanical|Company: Autodesk, Inc."
 90
    33792
280
     1
281
     0
  0
CLASS
  1
ACMIDSTANDARDANSI
  2
AcmIdStdANSI
  3
"Amdt_StdImp|Product Description: AutoCAD Mechanical|Company: Autodesk, Inc."
 90
    33792
280
     1
281
     0
  0
CLASS
  1
ACMDATUMSTANDARDANSI
  2
AcmDatumStdANSI
  3
"Amdt_StdImp|Product Description: AutoCAD Mechanical|Company: Autodesk, Inc."
 90
    33792
280
     1
281
     0
  0
CLASS
  1
ACMBOMSTANDARDANSI
  2
AcmBOMStdANSI
  3
"Amdt_StdImp|Product Description: AutoCAD Mechanical|Company: Autodesk, Inc."
 90
    33792
280
     1
281
     0
  0
CLASS
  1
ACMDETAILSTANDARDANSI
  2
AmdtDetailSymStdANSI
  3
"Amdt_StdImp|Product Description: AutoCAD Mechanical|Company: Autodesk, Inc."
 90
    33792
280
     1
281
     0
  0
CLASS
  1
ACMSECTIONSTANDARDANSI
  2
AmdtSectionSymStdANSI
  3
"Amdt_StdImp|Product Description: AutoCAD Mechanical|Company: Autodesk, Inc."
 90
    33792
280
     1
281
     0
  0
CLASS
  1
ACMCENTERLINESTANDARDANSI
  2
AmdtCenterLineStdANSI
  3
"Amdt_StdImp|Product Description: AutoCAD Mechanical|Company: Autodesk, Inc."
 90
    33792
280
     1
281
     0
  0
CLASS
  1
ACMTHREADLINESTANDARDANSI
  2
AmdtThreadLineStdANSI
  3
"Amdt_StdImp|Product Description: AutoCAD Mechanical|Company: Autodesk, Inc."
 90
    33792
280
     1
281
     0
  0
CLASS
  1
ACMNOTESTANDARDANSI
  2
AmdtNoteStdANSI
  3
"Amdt_StdImp|Product Description: AutoCAD Mechanical|Company: Autodesk, Inc."
 90
    33792
280
     1
281
     0
  0
CLASS
  1
ACMTAPERSTANDARDANSI
  2
AcmTaperStdANSI
  3
"Amdt_StdImp|Product Description: AutoCAD Mechanical|Company: Autodesk, Inc."
 90
    33792
280
     1
281
     0
  0
CLASS
  1
ACMANOOTATIONVIEWSTANDARDANSI
  2
AmdtAnViewStdANSI
  3
"Amdt_StdImp|Product Description: AutoCAD Mechanical|Company: Autodesk, Inc."
 90
    33792
280
     1
281
     0
  0
CLASS
  1
ACAMGLAYSTD
  2
AcAmgLayStd
  3
"AmgLay|Product Description: AutoCAD Mechanical|Company: Autodesk, Inc."
 90
    33792
280
     1
281
     0
  0
CLASS
  1
ACAMGDIMSTD
  2
AcAmgDimStd
  3
"AmgDim|Product Description: AutoCAD Mechanical|Company: Autodesk, Inc."
 90
    33792
280
     1
281
     0
  0
CLASS
  1
AMGOBJPROPCFG
  2
AmgObjPropCfg
  3
"AmgLay|Product Description: AutoCAD Mechanical|Company: Autodesk, Inc."
 90
    33793
280
     1
281
     0
  0
CLASS
  1
ACAMGHOLECHARTSTDANSI
  2
AcAmgHoleChartStdANSI
  3
AmgDim|Product Description: AutoCAD Mechanical|Company: Autodesk, Inc.
 90
    33792
280
     1
281
     0
  0
CLASS
  1
ACAMGTITLESTD
  2
AcAmgTitleStd
  3
"AmgTitle|Product Description: AutoCAD Mechanical|Company: Autodesk, Inc."
 90
    36863
280
     1
281
     0
  0
CLASS
  1
AMDTNOTETEMPLATEDB
  2
AmdtNoteTemplateDB
  3
AcmSymBB|Product Description: AutoCAD Mechanical|Company: Autodesk, Inc.
 90
    33792
280
     1
281
     0
  0
CLASS
  1
ACAMGFILTERDAT
  2
AcAmgFilterDat
  3
"AcadM|Product Description: AutoCAD Mechanical|Company: Autodesk, Inc."
 90
    33792
280
     1
281
     0
  0
CLASS
  1
CAMSSTRUCTBTNSTATE
  2
StructBtnState
  3
DesignerAssemblies
 90
    33792
280
     1
281
     0
  0
CLASS
  1
ACDBPLACEHOLDER
  2
AcDbPlaceHolder
  3
ObjectDBX Classes
 90
        0
280
     0
281
     0
  0
CLASS
  1
LAYOUT
  2
AcDbLayout
  3
ObjectDBX Classes
 90
        0
280
     0
281
     0
  0
CLASS
  1
SOLID_BACKGROUND
  2
AcDbSolidBackground
  3
SCENEOE
 90
    36863
280
     0
281
     0
  0
ENDSEC
  0
SECTION
  2
TABLES
  0
TABLE
  2
VPORT
  5
28
102
{ACAD_XDICTIONARY
360
2C
102
}
330
0
100
AcDbSymbolTable
 70
     1
  0
VPORT
  5
29
330
28
100
AcDbSymbolTableRecord
100
AcDbViewportTableRecord
  2
*ACTIVE
 70
     0
 10
0.0
 20
0.0
 11
1.0
 21
1.0
 12
0.0090734263753802
 22
62.11640321325534
 13
0.0
 23
0.0
 14
1.0
 24
1.0
 15
0.0
 25
0.0
 16
0.0
 26
0.0
 36
1.0
 17
0.0
 27
0.0
 37
0.0
 40
184.8393245459471
 41
1.141762452107279
 42
50.0
 43
0.0
 44
0.0
 50
0.0
 51
0.0
 71
     0
 72
   100
 73
     1
 74
     1
 75
     0
 76
     0
 77
     0
 78
     0
281
     0
 65
     1
110
0.0
120
0.0
130
0.0
111
1.0
121
0.0
131
0.0
112
0.0
122
1.0
132
0.0
 79
     0
146
0.0
  0
ENDTAB
  0
TABLE
  2
LTYPE
  5
23
330
0
100
AcDbSymbolTable
 70
     3
  0
LTYPE
  5
24
330
23
100
AcDbSymbolTableRecord
100
AcDbLinetypeTableRecord
  2
ByBlock
 70
     0
  3

 72
    65
 73
     0
 40
0.0
  0
LTYPE
  5
25
330
23
100
AcDbSymbolTableRecord
100
AcDbLinetypeTableRecord
  2
ByLayer
 70
     0
  3

 72
    65
 73
     0
 40
0.0
  0
LTYPE
  5
13
330
23
100
AcDbSymbolTableRecord
100
AcDbLinetypeTableRecord
  2
CONTINUOUS
 70
     0
  3
Solid line
 72
    65
 73
     0
 40
0.0
  0
LTYPE
  5
77
330
23
100
AcDbSymbolTableRecord
100
AcDbLinetypeTableRecord
  2
DASHDOT
 70
     0
  3
Dash dot __ . __ . __ . __ . __ . __ . __ . __
 72
    65
 73
     4
 40
1.0
 49
0.5
 74
     0
 49
-0.25
 74
     0
 49
0.0
 74
     0
 49
-0.25
 74
     0
  0
LTYPE
  5
7D
330
23
100
AcDbSymbolTableRecord
100
AcDbLinetypeTableRecord
  2
DASHED
 70
     0
  3
Dashed __ __ __ __ __ __ __ __ __ __ __ __ __ _
 72
    65
 73
     2
 40
0.75
 49
0.5
 74
     0
 49
-0.25
 74
     0
  0
ENDTAB
  0
TABLE
  2
LAYER
  5
1B
102
{ACAD_XDICTIONARY
360
1C
102
}
330
0
100
AcDbSymbolTable
 70
     7
  0
LAYER
  5
6
330
1B
100
AcDbSymbolTableRecord
100
AcDbLayerTableRecord
  2
0
 70
     0
 62
     7
  6
CONTINUOUS
370
    -3
390
7
  0
LAYER
  5
A0
330
1B
100
AcDbSymbolTableRecord
100
AcDbLayerTableRecord
  2
GEB-KONTUR-A
 70
     0
 62
     5
  6
CONTINUOUS
370
    -3
390
7
  0
LAYER
  5
76
330
1B
100
AcDbSymbolTableRecord
100
AcDbLayerTableRecord
  2
GEB-SYMMETRIE
 70
     0
 62
     3
  6
DASHDOT
370
    -3
390
7
1001
AcAecLayerStandard
1000

1000

  0
LAYER
  5
7C
330
1B
100
AcDbSymbolTableRecord
100
AcDbLayerTableRecord
  2
GEB-VERDECKT
 70
     0
 62
     2
  6
DASHED
370
    -3
390
7
1001
AcAecLayerStandard
1000

1000

  0
LAYER
  5
13A
330
1B
100
AcDbSymbolTableRecord
100
AcDbLayerTableRecord
  2
GEB-ART-NR
 70
     0
 62
     1
  6
CONTINUOUS
370
    18
390
7
  0
LAYER
  5
72
330
1B
100
AcDbSymbolTableRecord
100
AcDbLayerTableRecord
  2
GEB-BEZUG
 70
     0
 62
     2
  6
CONTINUOUS
370
    25
390
7
  0
LAYER
  5
137
330
1B
100
AcDbSymbolTableRecord
100
AcDbLayerTableRecord
  2
GEB-TEXT
 70
     0
 62
     5
  6
CONTINUOUS
370
    18
390
7
  0
ENDTAB
  0
TABLE
  2
STYLE
  5
20
330
0
100
AcDbSymbolTable
 70
     1
  0
STYLE
  5
21
330
20
100
AcDbSymbolTableRecord
100
AcDbTextStyleTableRecord
  2
STANDARD
 70
     0
 40
0.0
 41
1.0
 50
0.0
 71
     0
 42
0.2
  3
ARIAL.TTF
  4

1001
ACAD
1000
Arial
1071
       34
  0
ENDTAB
  0
TABLE
  2
VIEW
  5
26
330
0
100
AcDbSymbolTable
 70
     0
  0
ENDTAB
  0
TABLE
  2
UCS
  5
27
330
0
100
AcDbSymbolTable
 70
     0
  0
ENDTAB
  0
TABLE
  2
APPID
  5
2D
330
0
100
AcDbSymbolTable
 70
     3
  0
APPID
  5
1F
330
2D
100
AcDbSymbolTableRecord
100
AcDbRegAppTableRecord
  2
ACAD
 70
     0
  0
APPID
  5
78
330
2D
100
AcDbSymbolTableRecord
100
AcDbRegAppTableRecord
  2
AcAecLayerStandard
 70
     0
  0
APPID
  5
1A5
330
2D
100
AcDbSymbolTableRecord
100
AcDbRegAppTableRecord
  2
ACAD_MLEADERVER
 70
     0
  0
ENDTAB
  0
TABLE
  2
DIMSTYLE
  5
2E
330
0
100
AcDbSymbolTable
 70
     1
100
AcDbDimStyleTable
 71
     1
340
2F
  0
DIMSTYLE
105
2F
330
2E
100
AcDbSymbolTableRecord
100
AcDbDimStyleTableRecord
  2
STANDARD
 70
     0
279
     2
340
21
  0
ENDTAB
  0
TABLE
  2
BLOCK_RECORD
  5
1
330
0
100
AcDbSymbolTable
 70
     1
  0
BLOCK_RECORD
  5
2
102
{ACAD_XDICTIONARY
360
3
102
}
330
1
100
AcDbSymbolTableRecord
100
AcDbBlockTableRecord
  2
*Model_Space
340
15
  0
BLOCK_RECORD
  5
17
330
1
100
AcDbSymbolTableRecord
100
AcDbBlockTableRecord
  2
*Paper_Space
340
1A
  0
BLOCK_RECORD
  5
6F
330
1
100
AcDbSymbolTableRecord
100
AcDbBlockTableRecord
  2
Einfügepunkt
340
0
102
{BLKREFS
331
6E
102
}
  0
ENDTAB
  0
ENDSEC
  0
SECTION
  2
BLOCKS
  0
BLOCK
  5
5
330
2
100
AcDbEntity
  8
0
100
AcDbBlockBegin
  2
*Model_Space
 70
     0
 10
0.0
 20
0.0
 30
0.0
  3
*Model_Space
  1

  0
ENDBLK
  5
14
330
2
100
AcDbEntity
  8
0
100
AcDbBlockEnd
  0
BLOCK
  5
18
330
17
100
AcDbEntity
 67
     1
  8
0
100
AcDbBlockBegin
  2
*Paper_Space
 70
     0
 10
0.0
 20
0.0
 30
0.0
  3
*Paper_Space
  1

  0
ENDBLK
  5
19
330
17
100
AcDbEntity
 67
     1
  8
0
100
AcDbBlockEnd
  0
BLOCK
  5
70
330
6F
100
AcDbEntity
  8
0
100
AcDbBlockBegin
  2
Einfügepunkt
 70
     0
 10
0.0
 20
0.0
 30
0.0
  3
Einfügepunkt
  1

  0
LINE
  5
71
330
6F
100
AcDbEntity
  8
GEB-BEZUG
100
AcDbLine
 10
-0.7071067811865817
 20
-0.7071067811865106
 30
0.0
 11
0.7071067811864751
 21
0.7071067811865817
 31
0.0
  0
LINE
  5
73
330
6F
100
AcDbEntity
  8
GEB-BEZUG
100
AcDbLine
 10
-0.7071067811865106
 20
0.7071067811865817
 30
0.0
 11
0.7071067811865462
 21
-0.7071067811865106
 31
0.0
  0
ENDBLK
  5
74
330
6F
100
AcDbEntity
  8
0
100
AcDbBlockEnd
  0
ENDSEC
  0
SECTION
  2
ENTITIES
  0
INSERT
  5
6E
330
2
100
AcDbEntity
  8
0
 48
25.0
100
AcDbBlockReference
  2
Einfügepunkt
 10
0.0
 20
0.0
 30
0.0
  0
LINE
  5
75
330
2
100
AcDbEntity
  8
GEB-SYMMETRIE
 48
25.0
100
AcDbLine
 10
32.35000000002879
 20
112.279884215081
 30
0.0
 11
-32.34999999997103
 21
112.2798842151003
 31
0.0
  0
LINE
  5
79
330
2
100
AcDbEntity
  8
GEB-SYMMETRIE
 48
25.0
100
AcDbLine
 10
-0.0000000000165983
 20
79.92988421509085
 30
0.0
 11
0.0000000000743512
 21
144.6298842150904
 31
0.0
  0
LINE
  5
7A
330
2
100
AcDbEntity
  8
GEB-SYMMETRIE
 48
25.0
100
AcDbLine
 10
-0.0000000000006821
 20
-2.5
 30
0.0
 11
0.000000000017053
 21
57.25
 31
0.0
  0
SPLINE
  5
7B
330
2
100
AcDbEntity
  8
GEB-VERDECKT
 48
25.0
100
AcDbSpline
210
0.0
220
0.0
230
1.0
 70
     8
 71
     3
 72
    16
 73
    12
 74
     0
 42
0.0000000001
 43
0.0000000001
 40
2.318414145291198
 40
2.318414145291198
 40
2.318414145291198
 40
2.318414145291198
 40
2.647685548610635
 40
2.647685548610635
 40
2.976956951930072
 40
2.976956951930072
 40
3.30622835524951
 40
3.30622835524951
 40
3.635499758568947
 40
3.635499758568947
 40
3.964771161888385
 40
3.964771161888385
 40
3.964771161888385
 40
3.964771161888385
 10
-17.63539711478256
 20
102.3378002721422
 30
0.0
 10
-15.7431759404692
 20
102.8660204537268
 30
0.0
 10
-13.5987476988264
 20
103.2915287891305
 30
0.0
 10
-8.949384764905289
 20
103.9394298906586
 30
0.0
 10
-6.447113103063429
 20
104.1598499509032
 30
0.0
 10
-1.314421879954579
 20
104.3805559982838
 30
0.0
 10
1.314421880026429
 20
104.3805559982829
 30
0.0
 10
6.447113103134824
 20
104.1598499508991
 30
0.0
 10
8.949384764976002
 20
103.9394298906534
 30
0.0
 10
13.59874769889529
 20
103.2915287891223
 30
0.0
 10
15.74317594053718
 20
102.8660204537173
 30
0.0
 10
17.63539711484895
 20
102.3378002721317
 30
0.0
  0
SPLINE
  5
7E
330
2
100
AcDbEntity
  8
GEB-VERDECKT
 48
25.0
100
AcDbSpline
210
0.0
220
0.0
230
1.0
 70
     8
 71
     3
 72
    26
 73
    22
 74
     0
 42
0.0000000001
 43
0.0000000001
 40
0.0000391708387166
 40
0.0000391708387166
 40
0.0000391708387166
 40
0.0000391708387166
 40
0.1016282074330492
 40
0.1016282074330492
 40
0.1434540828536613
 40
0.1434540828536613
 40
0.1521422978078977
 40
0.1521422978078977
 40
0.1572052970495344
 40
0.1572052970495344
 40
0.1610294660459663
 40
0.1610294660459663
 40
0.1649082037605579
 40
0.1649082037605579
 40
0.1705527000666514
 40
0.1705527000666514
 40
0.1822588238150959
 40
0.1822588238150959
 40
0.2179307321727795
 40
0.2179307321727795
 40
0.3305226454615864
 40
0.3305226454615864
 40
0.3305226454615864
 40
0.3305226454615864
 10
-20.49828697325506
 20
101.3619952193753
 30
0.0
 10
-20.72313657092491
 20
101.2684185620278
 30
0.0
 10
-20.90216910589175
 20
101.1741093327064
 30
0.0
 10
-21.07595962337837
 20
101.0531598110237
 30
0.0
 10
-21.14291605055178
 20
101.0013134087305
 30
0.0
 10
-21.18979636414679
 20
100.9373506085003
 30
0.0
 10
-21.19799303935542
 20
100.9244690093189
 30
0.0
 10
-21.20747587243318
 20
100.9028167972335
 30
0.0
 10
-21.21036537071518
 20
100.8942429210333
 30
0.0
 10
-21.21311556305136
 20
100.8787207076311
 30
0.0
 10
-21.21349177711886
 20
100.8721869053315
 30
0.0
 10
-21.21246240064943
 20
100.8593918783951
 30
0.0
 10
-21.21106488461669
 20
100.853554236781
 30
0.0
 10
-21.20613721315226
 20
100.8405792408573
 30
0.0
 10
-21.20194555362719
 20
100.8341162601987
 30
0.0
 10
-21.18799858328907
 20
100.8175779849589
 30
0.0
 10
-21.17561460473508
 20
100.8093323838711
 30
0.0
 10
-21.12870734456419
 20
100.7849282343438
 30
0.0
 10
-21.08049192890508
 20
100.7766431486659
 30
0.0
 10
-20.91810054294001
 20
100.7597993610281
 30
0.0
 10
-20.73320837888878
 20
100.7734711592934
 30
0.0
 10
-20.49828697325506
 20
100.8116754607772
 30
0.0
  0
SPLINE
  5
7F
330
2
100
AcDbEntity
  8
GEB-VERDECKT
 48
25.0
100
AcDbSpline
210
0.0
220
0.0
230
1.0
 70
     8
 71
     3
 72
    16
 73
    12
 74
     0
 42
0.0000000001
 43
0.0000000001
 40
2.31298095965889
 40
2.31298095965889
 40
2.31298095965889
 40
2.31298095965889
 40
2.424023217695545
 40
2.424023217695545
 40
2.775165182250167
 40
2.775165182250167
 40
3.380209907883936
 40
3.380209907883936
 40
4.090837416909556
 40
4.090837416909556
 40
4.620656223541891
 40
4.620656223541891
 40
4.620656223541891
 40
4.620656223541891
 10
0.0000000000356977
 20
104.2323724826717
 30
0.0
 10
-0.371584003862381
 20
104.2323724826717
 30
0.0
 10
-0.7431978419822372
 20
104.2304242383315
 30
0.0
 10
-2.289113322344292
 20
104.2141769654067
 30
0.0
 10
-3.459345214350378
 20
104.1823925661028
 30
0.0
 10
-6.614733065815698
 20
104.0407895787375
 30
0.0
 10
-8.567582580093812
 20
103.8920235266946
 30
0.0
 10
-12.64131005780609
 20
103.4192281961643
 30
0.0
 10
-14.71432335129179
 20
103.0715337047204
 30
0.0
 10
-18.01933411707046
 20
102.2604344421957
 30
0.0
 10
-19.32257965698613
 20
101.8512945635398
 30
0.0
 10
-20.49828697325506
 20
101.3619952193753
 30
0.0
  0
SPLINE
  5
80
330
2
100
AcDbEntity
  8
GEB-VERDECKT
 48
25.0
100
AcDbSpline
210
0.0
220
0.0
230
1.0
 70
     8
 71
     3
 72
    14
 73
    10
 74
     0
 42
0.0000000001
 43
0.0000000001
 40
0.0018294068385544
 40
0.0018294068385544
 40
0.0018294068385544
 40
0.0018294068385544
 40
0.989715221512821
 40
0.989715221512821
 40
1.726746399294267
 40
1.726746399294267
 40
2.115193497023454
 40
2.115193497023454
 40
2.31298095965889
 40
2.31298095965889
 40
2.31298095965889
 40
2.31298095965889
 10
20.49828697331918
 20
101.361995219363
 30
0.0
 10
18.31153299395896
 20
102.2720663511377
 30
0.0
 10
15.69256066778166
 20
102.9086604411691
 30
0.0
 10
10.58032046048924
 20
103.6996052612219
 30
0.0
 10
8.251184759611305
 20
103.9281970238203
 30
0.0
 10
4.569624609937136
 20
104.1412015163152
 30
0.0
 10
3.280964793208795
 20
104.1894336616633
 30
0.0
 10
1.32362946025114
 20
104.2261983368084
 30
0.0
 10
0.6618620567548988
 20
104.2323724826715
 30
0.0
 10
0.0000000000356977
 20
104.2323724826717
 30
0.0
  0
SPLINE
  5
81
330
2
100
AcDbEntity
  8
GEB-VERDECKT
 48
25.0
100
AcDbSpline
210
0.0
220
0.0
230
1.0
 70
     8
 71
     3
 72
    26
 73
    22
 74
     0
 42
0.0000000001
 43
0.0000000001
 40
0.0000391708387107
 40
0.0000391708387107
 40
0.0000391708387107
 40
0.0000391708387107
 40
0.1016282074330465
 40
0.1016282074330465
 40
0.1434540828535214
 40
0.1434540828535214
 40
0.1521422978077731
 40
0.1521422978077731
 40
0.1572052970493698
 40
0.1572052970493698
 40
0.1610294660458546
 40
0.1610294660458546
 40
0.1649082037605353
 40
0.1649082037605353
 40
0.1705527000667207
 40
0.1705527000667207
 40
0.182258823815353
 40
0.182258823815353
 40
0.2179307321734882
 40
0.2179307321734882
 40
0.3305226454636882
 40
0.3305226454636882
 40
0.3305226454636882
 40
0.3305226454636882
 10
20.49828697331918
 20
100.8116754607651
 30
0.0
 10
20.72313657098903
 20
100.7751090959646
 30
0.0
 10
20.90216910595541
 20
100.7610077852562
 30
0.0
 10
21.07595962344181
 20
100.7752487325665
 30
0.0
 10
21.14291605061521
 20
100.7855476781696
 30
0.0
 10
21.18979636421068
 20
100.8202018004608
 30
0.0
 10
21.19799303941886
 20
100.8279506988781
 30
0.0
 10
21.20747587249661
 20
100.8436590770416
 30
0.0
 10
21.21036537077907
 20
100.8504204222781
 30
0.0
 10
21.2131155631148
 20
100.8642172220077
 30
0.0
 10
21.21349177718276
 20
100.8705149161137
 30
0.0
 10
21.21246240071309
 20
100.8839558313425
 30
0.0
 10
21.21106488468035
 20
100.8906703655495
 30
0.0
 10
21.2061372132157
 20
100.9067358464674
 30
0.0
 10
21.20194555369062
 20
100.9158266125912
 30
0.0
 10
21.18799858335297
 20
100.9411001583582
 30
0.0
 10
21.17561460479851
 20
100.9570896926886
 30
0.0
 10
21.12870734462763
 20
101.0107591979801
 30
0.0
 10
21.08049192896851
 20
101.0489289405411
 30
0.0
 10
20.9181005430039
 20
101.1656667613224
 30
0.0
 10
20.73320837895267
 20
101.2642269328889
 30
0.0
 10
20.49828697331918
 20
101.361995219363
 30
0.0
  0
SPLINE
  5
82
330
2
100
AcDbEntity
  8
GEB-VERDECKT
 48
25.0
100
AcDbSpline
210
0.0
220
0.0
230
1.0
 70
     8
 71
     3
 72
    16
 73
    12
 74
     0
 42
0.0000000001
 43
0.0000000001
 40
2.312980959658881
 40
2.312980959658881
 40
2.312980959658881
 40
2.312980959658881
 40
2.424023217695509
 40
2.424023217695509
 40
2.775165182250087
 40
2.775165182250087
 40
3.380209907883786
 40
3.380209907883786
 40
4.090837416909342
 40
4.090837416909342
 40
4.620656223541622
 40
4.620656223541622
 40
4.620656223541622
 40
4.620656223541622
 10
0.0000000000352429
 20
102.6868911606091
 30
0.0
 10
0.3715840039333216
 20
102.6868911606091
 30
0.0
 10
0.7431978420531778
 20
102.6849408937591
 30
0.0
 10
2.289113322415005
 20
102.6687272958111
 30
0.0
 10
3.459345214421091
 20
102.6368945765118
 30
0.0
 10
6.614733065885729
 20
102.500256217583
 30
0.0
 10
8.567582580163389
 20
102.3593211580935
 30
0.0
 10
12.64131005787453
 20
101.966693288263
 30
0.0
 10
14.71432335135932
 20
101.7012955337254
 30
0.0
 10
18.01933411713639
 20
101.2161364208941
 30
0.0
 10
19.32257965705116
 20
101.0028759035103
 30
0.0
 10
20.49828697331918
 20
100.8116754607651
 30
0.0
  0
SPLINE
  5
83
330
2
100
AcDbEntity
  8
GEB-VERDECKT
 48
25.0
100
AcDbSpline
210
0.0
220
0.0
230
1.0
 70
     8
 71
     3
 72
    14
 73
    10
 74
     0
 42
0.0000000001
 43
0.0000000001
 40
0.0018294068385474
 40
0.0018294068385474
 40
0.0018294068385474
 40
0.0018294068385474
 40
0.9897152215128153
 40
0.9897152215128153
 40
1.726746399294245
 40
1.726746399294245
 40
2.11519349702344
 40
2.11519349702344
 40
2.312980959658881
 40
2.312980959658881
 40
2.312980959658881
 40
2.312980959658881
 10
-20.49828697325506
 20
100.8116754607772
 30
0.0
 10
-18.31153299389302
 20
101.1672982618279
 30
0.0
 10
-15.69256066771413
 20
101.5899582721563
 30
0.0
 10
-10.58032046041967
 20
102.1857901712449
 30
0.0
 10
-8.251184759541274
 20
102.3951194749036
 30
0.0
 10
-4.569624609866423
 20
102.5962867584871
 30
0.0
 10
-3.280964793138309
 20
102.644172991018
 30
0.0
 10
-1.3236294601802
 20
102.6806967203372
 30
0.0
 10
-0.6618620566839582
 20
102.6868911606093
 30
0.0
 10
0.0000000000352429
 20
102.6868911606091
 30
0.0
  0
SPLINE
  5
84
330
2
100
AcDbEntity
  8
GEB-VERDECKT
 48
25.0
100
AcDbSpline
210
0.0
220
0.0
230
1.0
 70
     8
 71
     3
 72
    16
 73
    12
 74
     0
 42
0.0000000001
 43
0.0000000001
 40
2.318414145291197
 40
2.318414145291197
 40
2.318414145291197
 40
2.318414145291197
 40
2.647685548610634
 40
2.647685548610634
 40
2.976956951930072
 40
2.976956951930072
 40
3.30622835524951
 40
3.30622835524951
 40
3.635499758568947
 40
3.635499758568947
 40
3.964771161888386
 40
3.964771161888386
 40
3.964771161888386
 40
3.964771161888386
 10
-17.6353971147837
 20
96.30076385783537
 30
0.0
 10
-15.74317594047056
 20
96.82898403941999
 30
0.0
 10
-13.59874769882731
 20
97.25449237482372
 30
0.0
 10
-8.949384764906426
 20
97.90239347635179
 30
0.0
 10
-6.447113103065021
 20
98.12281353659637
 30
0.0
 10
-1.314421879955943
 20
98.34351958397725
 30
0.0
 10
1.314421880025065
 20
98.34351958397656
 30
0.0
 10
6.447113103133688
 20
98.12281353659251
 30
0.0
 10
8.949384764974411
 20
97.90239347634679
 30
0.0
 10
13.5987476988937
 20
97.25449237481576
 30
0.0
 10
15.74317594053582
 20
96.82898403941045
 30
0.0
 10
17.63539711484759
 20
96.30076385782491
 30
0.0
  0
SPLINE
  5
85
330
2
100
AcDbEntity
  8
GEB-VERDECKT
 48
25.0
100
AcDbSpline
210
0.0
220
0.0
230
1.0
 70
     8
 71
     3
 72
    16
 73
    12
 74
     0
 42
0.0000000001
 43
0.0000000001
 40
2.3184141452912
 40
2.3184141452912
 40
2.3184141452912
 40
2.3184141452912
 40
2.647685548610638
 40
2.647685548610638
 40
2.976956951930075
 40
2.976956951930075
 40
3.306228355249513
 40
3.306228355249513
 40
3.635499758568951
 40
3.635499758568951
 40
3.964771161888389
 40
3.964771161888389
 40
3.964771161888389
 40
3.964771161888389
 10
-17.63539711478506
 20
90.26372744352874
 30
0.0
 10
-15.74317594047193
 20
90.79194762511338
 30
0.0
 10
-13.5987476988289
 20
91.21745596051733
 30
0.0
 10
-8.94938476490779
 20
91.86535706204541
 30
0.0
 10
-6.447113103066158
 20
92.08577712228976
 30
0.0
 10
-1.31442187995708
 20
92.30648316967039
 30
0.0
 10
1.314421880023701
 20
92.30648316966972
 30
0.0
 10
6.447113103132551
 20
92.08577712228589
 30
0.0
 10
8.949384764973501
 20
91.86535706203995
 30
0.0
 10
13.59874769889279
 20
91.21745596050914
 30
0.0
 10
15.74317594053468
 20
90.79194762510406
 30
0.0
 10
17.63539711484623
 20
90.2637274435183
 30
0.0
  0
SPLINE
  5
86
330
2
100
AcDbEntity
  8
GEB-VERDECKT
 48
25.0
100
AcDbSpline
210
0.0
220
0.0
230
1.0
 70
     8
 71
     3
 72
    16
 73
    12
 74
     0
 42
0.0000000001
 43
0.0000000001
 40
2.318414145291197
 40
2.318414145291197
 40
2.318414145291197
 40
2.318414145291197
 40
2.647685548610635
 40
2.647685548610635
 40
2.976956951930072
 40
2.976956951930072
 40
3.30622835524951
 40
3.30622835524951
 40
3.635499758568948
 40
3.635499758568948
 40
3.964771161888385
 40
3.964771161888385
 40
3.964771161888385
 40
3.964771161888385
 10
-17.6353971147862
 20
84.2266910292219
 30
0.0
 10
-15.74317594047306
 20
84.75491121080677
 30
0.0
 10
-13.59874769883026
 20
85.18041954621049
 30
0.0
 10
-8.949384764908927
 20
85.8283206477388
 30
0.0
 10
-6.447113103067522
 20
86.04874070798315
 30
0.0
 10
-1.314421879958445
 20
86.26944675536378
 30
0.0
 10
1.314421880022337
 20
86.26944675536311
 30
0.0
 10
6.447113103131187
 20
86.04874070797905
 30
0.0
 10
8.94938476497191
 20
85.82832064773333
 30
0.0
 10
13.5987476988912
 20
85.1804195462023
 30
0.0
 10
15.74317594053332
 20
84.75491121079745
 30
0.0
 10
17.63539711484486
 20
84.22669102921167
 30
0.0
  0
SPLINE
  5
87
330
2
100
AcDbEntity
  8
GEB-VERDECKT
 48
25.0
100
AcDbSpline
210
0.0
220
0.0
230
1.0
 70
     8
 71
     3
 72
    26
 73
    22
 74
     0
 42
0.0000000001
 43
0.0000000001
 40
0.0000391708387167
 40
0.0000391708387167
 40
0.0000391708387167
 40
0.0000391708387167
 40
0.1016282074330973
 40
0.1016282074330973
 40
0.1434540828537043
 40
0.1434540828537043
 40
0.1521422978079363
 40
0.1521422978079363
 40
0.1572052970495332
 40
0.1572052970495332
 40
0.1610294660460271
 40
0.1610294660460271
 40
0.1649082037606905
 40
0.1649082037606905
 40
0.1705527000667428
 40
0.1705527000667428
 40
0.1822588238151061
 40
0.1822588238151061
 40
0.217930732172669
 40
0.217930732172669
 40
0.3305226454609476
 40
0.3305226454609476
 40
0.3305226454609476
 40
0.3305226454609476
 10
-20.4982869732562
 20
95.32495880506848
 30
0.0
 10
-20.72313657092627
 20
95.23138214772098
 30
0.0
 10
-20.90216910589311
 20
95.13707291839955
 30
0.0
 10
-21.07595962337973
 20
95.01612339671714
 30
0.0
 10
-21.14291605055291
 20
94.96427699442392
 30
0.0
 10
-21.18979636414838
 20
94.9003141941937
 30
0.0
 10
-21.19799303935656
 20
94.88743259501211
 30
0.0
 10
-21.20747587243409
 20
94.86578038292691
 30
0.0
 10
-21.21036537071654
 20
94.85720650672693
 30
0.0
 10
-21.21311556305272
 20
94.84168429332431
 30
0.0
 10
-21.21349177712045
 20
94.83515049102516
 30
0.0
 10
-21.2124624006508
 20
94.82235546408857
 30
0.0
 10
-21.21106488461805
 20
94.81651782247444
 30
0.0
 10
-21.20613721315317
 20
94.80354282655071
 30
0.0
 10
-21.20194555362809
 20
94.79707984589209
 30
0.0
 10
-21.18799858329067
 20
94.78054157065207
 30
0.0
 10
-21.17561460473621
 20
94.77229596956432
 30
0.0
 10
-21.12870734456533
 20
94.74789182003702
 30
0.0
 10
-21.08049192890598
 20
94.73960673435909
 30
0.0
 10
-20.9181005429416
 20
94.72276294672155
 30
0.0
 10
-20.73320837889014
 20
94.73643474498704
 30
0.0
 10
-20.49828697325643
 20
94.77463904647084
 30
0.0
  0
SPLINE
  5
88
330
2
100
AcDbEntity
  8
GEB-VERDECKT
 48
25.0
100
AcDbSpline
210
0.0
220
0.0
230
1.0
 70
     8
 71
     3
 72
    16
 73
    12
 74
     0
 42
0.0000000001
 43
0.0000000001
 40
2.312980959658907
 40
2.312980959658907
 40
2.312980959658907
 40
2.312980959658907
 40
2.42402321769556
 40
2.42402321769556
 40
2.775165182250182
 40
2.775165182250182
 40
3.380209907883975
 40
3.380209907883975
 40
4.090837416909607
 40
4.090837416909607
 40
4.620656223541953
 40
4.620656223541953
 40
4.620656223541953
 40
4.620656223541953
 10
0.0000000000343334
 20
98.19533606836513
 30
0.0
 10
-0.3715840038637452
 20
98.19533606836513
 30
0.0
 10
-0.7431978419838288
 20
98.19338782402519
 30
0.0
 10
-2.289113322345656
 20
98.17714055110014
 30
0.0
 10
-3.459345214351742
 20
98.14535615179602
 30
0.0
 10
-6.614733065817063
 20
98.00375316443069
 30
0.0
 10
-8.567582580095177
 20
97.85498711238824
 30
0.0
 10
-12.64131005780746
 20
97.38219178185772
 30
0.0
 10
-14.71432335129293
 20
97.03449729041359
 30
0.0
 10
-18.01933411707159
 20
96.22339802788884
 30
0.0
 10
-19.3225796569875
 20
95.81425814923319
 30
0.0
 10
-20.4982869732562
 20
95.32495880506848
 30
0.0
  0
SPLINE
  5
89
330
2
100
AcDbEntity
  8
GEB-VERDECKT
 48
25.0
100
AcDbSpline
210
0.0
220
0.0
230
1.0
 70
     8
 71
     3
 72
    14
 73
    10
 74
     0
 42
0.0000000001
 43
0.0000000001
 40
0.0018294068385545
 40
0.0018294068385545
 40
0.0018294068385545
 40
0.0018294068385545
 40
0.9897152215128217
 40
0.9897152215128217
 40
1.726746399294263
 40
1.726746399294263
 40
2.115193497023462
 40
2.115193497023462
 40
2.312980959658907
 40
2.312980959658907
 40
2.312980959658907
 40
2.312980959658907
 10
20.49828697331804
 20
95.32495880505667
 30
0.0
 10
18.3115329939576
 20
96.23502993683111
 30
0.0
 10
15.6925606677803
 20
96.87162402686226
 30
0.0
 10
10.58032046048788
 20
97.66256884691529
 30
0.0
 10
8.251184759609941
 20
97.89116060951347
 30
0.0
 10
4.569624609935544
 20
98.10416510200866
 30
0.0
 10
3.280964793207431
 20
98.15239724735647
 30
0.0
 10
1.323629460249776
 20
98.18916192250208
 30
0.0
 10
0.6618620567535345
 20
98.1953360683649
 30
0.0
 10
0.0000000000343334
 20
98.19533606836513
 30
0.0
  0
SPLINE
  5
8A
330
2
100
AcDbEntity
  8
GEB-VERDECKT
 48
25.0
100
AcDbSpline
210
0.0
220
0.0
230
1.0
 70
     8
 71
     3
 72
    26
 73
    22
 74
     0
 42
0.0000000001
 43
0.0000000001
 40
0.0000391708387108
 40
0.0000391708387108
 40
0.0000391708387108
 40
0.0000391708387108
 40
0.1016282074331349
 40
0.1016282074331349
 40
0.1434540828540005
 40
0.1434540828540005
 40
0.1521422978083581
 40
0.1521422978083581
 40
0.1572052970500164
 40
0.1572052970500164
 40
0.1610294660465477
 40
0.1610294660465477
 40
0.1649082037612755
 40
0.1649082037612755
 40
0.1705527000675295
 40
0.1705527000675295
 40
0.182258823816304
 40
0.182258823816304
 40
0.2179307321748727
 40
0.2179307321748727
 40
0.3305226454664493
 40
0.3305226454664493
 40
0.3305226454664493
 40
0.3305226454664493
 10
20.49828697331782
 20
94.77463904645857
 30
0.0
 10
20.72313657098789
 20
94.73807268165774
 30
0.0
 10
20.9021691059545
 20
94.72397137094958
 30
0.0
 10
21.0759596234409
 20
94.73821231825992
 30
0.0
 10
21.1429160506143
 20
94.74851126386329
 30
0.0
 10
21.18979636420931
 20
94.783165386154
 30
0.0
 10
21.19799303941795
 20
94.79091428457151
 30
0.0
 10
21.20747587249525
 20
94.80662266273521
 30
0.0
 10
21.21036537077771
 20
94.81338400797131
 30
0.0
 10
21.21311556311389
 20
94.82718080770087
 30
0.0
 10
21.21349177718139
 20
94.8334785018069
 30
0.0
 10
21.21246240071173
 20
94.84691941703568
 30
0.0
 10
21.21106488467899
 20
94.85363395124295
 30
0.0
 10
21.20613721321433
 20
94.86969943216058
 30
0.0
 10
21.20194555368926
 20
94.8787901982846
 30
0.0
 10
21.1879985833516
 20
94.90406374405166
 30
0.0
 10
21.17561460479738
 20
94.92005327838183
 30
0.0
 10
21.12870734462626
 20
94.97372278367356
 30
0.0
 10
21.08049192896737
 20
95.01189252623431
 30
0.0
 10
20.91810054300254
 20
95.12863034701558
 30
0.0
 10
20.73320837895153
 20
95.22719051858235
 30
0.0
 10
20.49828697331804
 20
95.32495880505667
 30
0.0
  0
SPLINE
  5
8B
330
2
100
AcDbEntity
  8
GEB-VERDECKT
 48
25.0
100
AcDbSpline
210
0.0
220
0.0
230
1.0
 70
     8
 71
     3
 72
    16
 73
    12
 74
     0
 42
0.0000000001
 43
0.0000000001
 40
2.312980959658903
 40
2.312980959658903
 40
2.312980959658903
 40
2.312980959658903
 40
2.424023217695532
 40
2.424023217695532
 40
2.775165182250115
 40
2.775165182250115
 40
3.380209907883823
 40
3.380209907883823
 40
4.090837416909387
 40
4.090837416909387
 40
4.620656223541676
 40
4.620656223541676
 40
4.620656223541676
 40
4.620656223541676
 10
0.0000000000341061
 20
96.64985474630249
 30
0.0
 10
0.3715840039319573
 20
96.64985474630249
 30
0.0
 10
0.7431978420518135
 20
96.64790447945257
 30
0.0
 10
2.289113322413641
 20
96.63169088150471
 30
0.0
 10
3.459345214419727
 20
96.59985816220524
 30
0.0
 10
6.61473306588482
 20
96.46321980327639
 30
0.0
 10
8.567582580162024
 20
96.3222847437869
 30
0.0
 10
12.64131005787294
 20
95.92965687395622
 30
0.0
 10
14.71432335135819
 20
95.66425911941861
 30
0.0
 10
18.01933411713503
 20
95.17910000658776
 30
0.0
 10
19.3225796570498
 20
94.96583948920397
 30
0.0
 10
20.49828697331782
 20
94.77463904645857
 30
0.0
  0
SPLINE
  5
8C
330
2
100
AcDbEntity
  8
GEB-VERDECKT
 48
25.0
100
AcDbSpline
210
0.0
220
0.0
230
1.0
 70
     8
 71
     3
 72
    14
 73
    10
 74
     0
 42
0.0000000001
 43
0.0000000001
 40
0.0018294068385468
 40
0.0018294068385468
 40
0.0018294068385468
 40
0.0018294068385468
 40
0.9897152215128192
 40
0.9897152215128192
 40
1.726746399294259
 40
1.726746399294259
 40
2.115193497023459
 40
2.115193497023459
 40
2.312980959658903
 40
2.312980959658903
 40
2.312980959658903
 40
2.312980959658903
 10
-20.49828697325643
 20
94.77463904647084
 30
0.0
 10
-18.31153299389439
 20
95.13026184752153
 30
0.0
 10
-15.69256066771527
 20
95.55292185784947
 30
0.0
 10
-10.58032046042103
 20
96.14875375693806
 30
0.0
 10
-8.251184759542411
 20
96.35808306059699
 30
0.0
 10
-4.569624609867787
 20
96.55925034418078
 30
0.0
 10
-3.280964793139673
 20
96.60713657671113
 30
0.0
 10
-1.323629460181791
 20
96.6436603060306
 30
0.0
 10
-0.6618620566855498
 20
96.64985474630293
 30
0.0
 10
0.0000000000341061
 20
96.64985474630249
 30
0.0
  0
SPLINE
  5
8D
330
2
100
AcDbEntity
  8
GEB-VERDECKT
 48
25.0
100
AcDbSpline
210
0.0
220
0.0
230
1.0
 70
     8
 71
     3
 72
    26
 73
    22
 74
     0
 42
0.0000000001
 43
0.0000000001
 40
0.0000391708387167
 40
0.0000391708387167
 40
0.0000391708387167
 40
0.0000391708387167
 40
0.1016282074330973
 40
0.1016282074330973
 40
0.1434540828537043
 40
0.1434540828537043
 40
0.1521422978079363
 40
0.1521422978079363
 40
0.1572052970495362
 40
0.1572052970495362
 40
0.1610294660460307
 40
0.1610294660460307
 40
0.1649082037606946
 40
0.1649082037606946
 40
0.1705527000667464
 40
0.1705527000667464
 40
0.1822588238150914
 40
0.1822588238150914
 40
0.2179307321725725
 40
0.2179307321725725
 40
0.3305226454607936
 40
0.3305226454607936
 40
0.3305226454607936
 40
0.3305226454607936
 10
-20.49828697325756
 20
89.2879223907621
 30
0.0
 10
-20.72313657092764
 20
89.19434573341437
 30
0.0
 10
-20.90216910589425
 20
89.10003650409317
 30
0.0
 10
-21.07595962338087
 20
88.9790869824103
 30
0.0
 10
-21.14291605055428
 20
88.92724058011754
 30
0.0
 10
-21.18979636414929
 20
88.86327777988709
 30
0.0
 10
-21.19799303935792
 20
88.8503961807055
 30
0.0
 10
-21.20747587243568
 20
88.82874396862053
 30
0.0
 10
-21.21036537071791
 20
88.82017009242032
 30
0.0
 10
-21.21311556305386
 20
88.8046478790177
 30
0.0
 10
-21.21349177712159
 20
88.79811407671832
 30
0.0
 10
-21.21246240065216
 20
88.78531904978194
 30
0.0
 10
-21.21106488461919
 20
88.77948140816807
 30
0.0
 10
-21.20613721315476
 20
88.76650641224433
 30
0.0
 10
-21.20194555362969
 20
88.76004343158546
 30
0.0
 10
-21.1879985832918
 20
88.74350515634569
 30
0.0
 10
-21.17561460473758
 20
88.73525955525769
 30
0.0
 10
-21.12870734456669
 20
88.71085540573039
 30
0.0
 10
-21.08049192890758
 20
88.70257032005246
 30
0.0
 10
-20.91810054294297
 20
88.68572653241518
 30
0.0
 10
-20.73320837889173
 20
88.69939833068043
 30
0.0
 10
-20.49828697325756
 20
88.737602632164
 30
0.0
  0
SPLINE
  5
8E
330
2
100
AcDbEntity
  8
GEB-VERDECKT
 48
25.0
100
AcDbSpline
210
0.0
220
0.0
230
1.0
 70
     8
 71
     3
 72
    16
 73
    12
 74
     0
 42
0.0000000001
 43
0.0000000001
 40
2.312980959658907
 40
2.312980959658907
 40
2.312980959658907
 40
2.312980959658907
 40
2.42402321769556
 40
2.42402321769556
 40
2.775165182250182
 40
2.775165182250182
 40
3.380209907883975
 40
3.380209907883975
 40
4.090837416909607
 40
4.090837416909607
 40
4.620656223541953
 40
4.620656223541953
 40
4.620656223541953
 40
4.620656223541953
 10
0.0000000000329692
 20
92.15829965405829
 30
0.0
 10
-0.3715840038648821
 20
92.1582996540585
 30
0.0
 10
-0.743197841985193
 20
92.15635140971835
 30
0.0
 10
-2.289113322346793
 20
92.14010413679352
 30
0.0
 10
-3.459345214353106
 20
92.10831973748941
 30
0.0
 10
-6.614733065818654
 20
91.96671675012408
 30
0.0
 10
-8.567582580096541
 20
91.8179506980814
 30
0.0
 10
-12.64131005780859
 20
91.34515536755134
 30
0.0
 10
-14.71432335129452
 20
90.9974608761072
 30
0.0
 10
-18.01933411707295
 20
90.18636161358221
 30
0.0
 10
-19.32257965698864
 20
89.77722173492635
 30
0.0
 10
-20.49828697325756
 20
89.2879223907621
 30
0.0
  0
SPLINE
  5
8F
330
2
100
AcDbEntity
  8
GEB-VERDECKT
 48
25.0
100
AcDbSpline
210
0.0
220
0.0
230
1.0
 70
     8
 71
     3
 72
    14
 73
    10
 74
     0
 42
0.0000000001
 43
0.0000000001
 40
0.0018294068385545
 40
0.0018294068385545
 40
0.0018294068385545
 40
0.0018294068385545
 40
0.9897152215128217
 40
0.9897152215128217
 40
1.726746399294263
 40
1.726746399294263
 40
2.115193497023462
 40
2.115193497023462
 40
2.312980959658907
 40
2.312980959658907
 40
2.312980959658907
 40
2.312980959658907
 10
20.49828697331645
 20
89.28792239074983
 30
0.0
 10
18.31153299395646
 20
90.19799352252425
 30
0.0
 10
15.69256066777893
 20
90.83458761255588
 30
0.0
 10
10.58032046048652
 20
91.62553243260845
 30
0.0
 10
8.251184759608804
 20
91.85412419520686
 30
0.0
 10
4.569624609934407
 20
92.06712868770182
 30
0.0
 10
3.280964793206294
 20
92.11536083305009
 30
0.0
 10
1.323629460248639
 20
92.15212550819524
 30
0.0
 10
0.6618620567523977
 20
92.15829965405829
 30
0.0
 10
0.0000000000329692
 20
92.15829965405829
 30
0.0
  0
SPLINE
  5
90
330
2
100
AcDbEntity
  8
GEB-VERDECKT
 48
25.0
100
AcDbSpline
210
0.0
220
0.0
230
1.0
 70
     8
 71
     3
 72
    26
 73
    22
 74
     0
 42
0.0000000001
 43
0.0000000001
 40
0.0000391708387109
 40
0.0000391708387109
 40
0.0000391708387109
 40
0.0000391708387109
 40
0.1016282074331349
 40
0.1016282074331349
 40
0.14345408285393
 40
0.14345408285393
 40
0.152142297808257
 40
0.152142297808257
 40
0.1572052970498962
 40
0.1572052970498962
 40
0.1610294660464128
 40
0.1610294660464128
 40
0.1649082037611255
 40
0.1649082037611255
 40
0.1705527000673559
 40
0.1705527000673559
 40
0.1822588238160883
 40
0.1822588238160883
 40
0.2179307321748143
 40
0.2179307321748143
 40
0.3305226454665668
 40
0.3305226454665668
 40
0.3305226454665668
 40
0.3305226454665668
 10
20.49828697331645
 20
88.73760263215194
 30
0.0
 10
20.72313657098675
 20
88.70103626735113
 30
0.0
 10
20.90216910595291
 20
88.6869349566432
 30
0.0
 10
21.07595962343953
 20
88.70117590395308
 30
0.0
 10
21.14291605061271
 20
88.71147484955669
 30
0.0
 10
21.18979636420818
 20
88.74612897184738
 30
0.0
 10
21.19799303941636
 20
88.75387787026467
 30
0.0
 10
21.20747587249411
 20
88.7695862484286
 30
0.0
 10
21.21036537077612
 20
88.7763475936647
 30
0.0
 10
21.2131155631123
 20
88.79014439339426
 30
0.0
 10
21.21349177718002
 20
88.79644208750027
 30
0.0
 10
21.21246240071059
 20
88.80988300272907
 30
0.0
 10
21.21106488467763
 20
88.81659753693611
 30
0.0
 10
21.2061372132132
 20
88.83266301785397
 30
0.0
 10
21.20194555368812
 20
88.84175378397776
 30
0.0
 10
21.18799858335024
 20
88.86702732974482
 30
0.0
 10
21.17561460479601
 20
88.88301686407521
 30
0.0
 10
21.12870734462513
 20
88.93668636936672
 30
0.0
 10
21.08049192896601
 20
88.97485611192768
 30
0.0
 10
20.9181005430014
 20
89.0915939327092
 30
0.0
 10
20.73320837894994
 20
89.19015410427551
 30
0.0
 10
20.49828697331645
 20
89.28792239074983
 30
0.0
  0
SPLINE
  5
91
330
2
100
AcDbEntity
  8
GEB-VERDECKT
 48
25.0
100
AcDbSpline
210
0.0
220
0.0
230
1.0
 70
     8
 71
     3
 72
    16
 73
    12
 74
     0
 42
0.0000000001
 43
0.0000000001
 40
2.312980959658902
 40
2.312980959658902
 40
2.312980959658902
 40
2.312980959658902
 40
2.424023217695531
 40
2.424023217695531
 40
2.775165182250113
 40
2.775165182250113
 40
3.38020990788382
 40
3.38020990788382
 40
4.090837416909384
 40
4.090837416909384
 40
4.620656223541672
 40
4.620656223541672
 40
4.620656223541672
 40
4.620656223541672
 10
0.0000000000325144
 20
90.61281833199609
 30
0.0
 10
0.3715840039305931
 20
90.61281833199563
 30
0.0
 10
0.7431978420506767
 20
90.61086806514595
 30
0.0
 10
2.289113322412276
 20
90.59465446719787
 30
0.0
 10
3.459345214418362
 20
90.5628217478984
 30
0.0
 10
6.614733065883228
 20
90.42618338896955
 30
0.0
 10
8.567582580160888
 20
90.28524832948006
 30
0.0
 10
12.6413100578718
 20
89.89262045964961
 30
0.0
 10
14.71432335135682
 20
89.62722270511198
 30
0.0
 10
18.01933411713367
 20
89.14206359228092
 30
0.0
 10
19.32257965704866
 20
88.92880307489713
 30
0.0
 10
20.49828697331645
 20
88.73760263215194
 30
0.0
  0
SPLINE
  5
92
330
2
100
AcDbEntity
  8
GEB-VERDECKT
 48
25.0
100
AcDbSpline
210
0.0
220
0.0
230
1.0
 70
     8
 71
     3
 72
    14
 73
    10
 74
     0
 42
0.0000000001
 43
0.0000000001
 40
0.0018294068385467
 40
0.0018294068385467
 40
0.0018294068385467
 40
0.0018294068385467
 40
0.9897152215128194
 40
0.9897152215128194
 40
1.726746399294258
 40
1.726746399294258
 40
2.115193497023458
 40
2.115193497023458
 40
2.312980959658902
 40
2.312980959658902
 40
2.312980959658902
 40
2.312980959658902
 10
-20.49828697325756
 20
88.737602632164
 30
0.0
 10
-18.31153299389552
 20
89.09322543321492
 30
0.0
 10
-15.69256066771663
 20
89.51588544354285
 30
0.0
 10
-10.5803204604224
 20
90.11171734263143
 30
0.0
 10
-8.251184759544003
 20
90.32104664629015
 30
0.0
 10
-4.569624609868924
 20
90.52221392987394
 30
0.0
 10
-3.28096479314081
 20
90.57010016240452
 30
0.0
 10
-1.323629460182701
 20
90.60662389172376
 30
0.0
 10
-0.6618620566866867
 20
90.61281833199609
 30
0.0
 10
0.0000000000325144
 20
90.61281833199609
 30
0.0
  0
SPLINE
  5
93
330
2
100
AcDbEntity
  8
GEB-VERDECKT
 48
25.0
100
AcDbSpline
210
0.0
220
0.0
230
1.0
 70
     8
 71
     3
 72
    26
 73
    22
 74
     0
 42
0.0000000001
 43
0.0000000001
 40
0.0000391708387167
 40
0.0000391708387167
 40
0.0000391708387167
 40
0.0000391708387167
 40
0.1016282074330707
 40
0.1016282074330707
 40
0.1434540828536505
 40
0.1434540828536505
 40
0.1521422978078362
 40
0.1521422978078362
 40
0.1572052970494271
 40
0.1572052970494271
 40
0.1610294660458171
 40
0.1610294660458171
 40
0.1649082037603628
 40
0.1649082037603628
 40
0.1705527000663853
 40
0.1705527000663853
 40
0.1822588238146538
 40
0.1822588238146538
 40
0.217930732171736
 40
0.217930732171736
 40
0.3305226454587591
 40
0.3305226454587591
 40
0.3305226454587591
 40
0.3305226454587591
 10
-20.4982869732587
 20
83.25088597645549
 30
0.0
 10
-20.72313657092877
 20
83.15730931910776
 30
0.0
 10
-20.90216910589561
 20
83.06300008978656
 30
0.0
 10
-21.07595962338223
 20
82.94205056810369
 30
0.0
 10
-21.14291605055564
 20
82.8902041658107
 30
0.0
 10
-21.18979636415088
 20
82.82624136558025
 30
0.0
 10
-21.19799303935929
 20
82.81335976639866
 30
0.0
 10
-21.20747587243704
 20
82.79170755431369
 30
0.0
 10
-21.21036537071927
 20
82.78313367811348
 30
0.0
 10
-21.21311556305522
 20
82.76761146471107
 30
0.0
 10
-21.21349177712295
 20
82.76107766241171
 30
0.0
 10
-21.2124624006533
 20
82.7482826354751
 30
0.0
 10
-21.21106488462078
 20
82.74244499386123
 30
0.0
 10
-21.2061372131559
 20
82.72946999793749
 30
0.0
 10
-21.20194555363105
 20
82.72300701727862
 30
0.0
 10
-21.18799858329317
 20
82.70646874203885
 30
0.0
 10
-21.17561460473894
 20
82.69822314095085
 30
0.0
 10
-21.12870734456783
 20
82.67381899142355
 30
0.0
 10
-21.08049192890872
 20
82.66553390574609
 30
0.0
 10
-20.9181005429441
 20
82.64869011810834
 30
0.0
 10
-20.73320837889264
 20
82.66236191637359
 30
0.0
 10
-20.49828697325893
 20
82.70056621785739
 30
0.0
  0
SPLINE
  5
94
330
2
100
AcDbEntity
  8
GEB-VERDECKT
 48
25.0
100
AcDbSpline
210
0.0
220
0.0
230
1.0
 70
     8
 71
     3
 72
    16
 73
    12
 74
     0
 42
0.0000000001
 43
0.0000000001
 40
2.312980959658909
 40
2.312980959658909
 40
2.312980959658909
 40
2.312980959658909
 40
2.424023217695562
 40
2.424023217695562
 40
2.775165182250184
 40
2.775165182250184
 40
3.380209907883978
 40
3.380209907883978
 40
4.090837416909611
 40
4.090837416909611
 40
4.620656223541957
 40
4.620656223541957
 40
4.620656223541957
 40
4.620656223541957
 10
0.0000000000318323
 20
86.12126323975166
 30
0.0
 10
-0.3715840038664737
 20
86.12126323975166
 30
0.0
 10
-0.7431978419863299
 20
86.11931499541174
 30
0.0
 10
-2.289113322348157
 20
86.10306772248668
 30
0.0
 10
-3.459345214354243
 20
86.0712833231828
 30
0.0
 10
-6.614733065819791
 20
85.92968033581724
 30
0.0
 10
-8.567582580097678
 20
85.78091428377479
 30
0.0
 10
-12.64131005780996
 20
85.3081189532445
 30
0.0
 10
-14.71432335129589
 20
84.96042446180059
 30
0.0
 10
-18.01933411707455
 20
84.14932519927537
 30
0.0
 10
-19.32257965699
 20
83.74018532061972
 30
0.0
 10
-20.4982869732587
 20
83.25088597645549
 30
0.0
  0
SPLINE
  5
95
330
2
100
AcDbEntity
  8
GEB-VERDECKT
 48
25.0
100
AcDbSpline
210
0.0
220
0.0
230
1.0
 70
     8
 71
     3
 72
    14
 73
    10
 74
     0
 42
0.0000000001
 43
0.0000000001
 40
0.0018294068385545
 40
0.0018294068385545
 40
0.0018294068385545
 40
0.0018294068385545
 40
0.9897152215128222
 40
0.9897152215128222
 40
1.726746399294264
 40
1.726746399294264
 40
2.115193497023463
 40
2.115193497023463
 40
2.312980959658909
 40
2.312980959658909
 40
2.312980959658909
 40
2.312980959658909
 10
20.49828697331554
 20
83.25088597644322
 30
0.0
 10
18.31153299395509
 20
84.16095710821764
 30
0.0
 10
15.69256066777757
 20
84.79755119824927
 30
0.0
 10
10.58032046048538
 20
85.58849601830207
 30
0.0
 10
8.25118475960744
 20
85.81708778090023
 30
0.0
 10
4.569624609933043
 20
86.03009227339544
 30
0.0
 10
3.28096479320493
 20
86.07832441874348
 30
0.0
 10
1.323629460247275
 20
86.11508909388863
 30
0.0
 10
0.6618620567510334
 20
86.12126323975145
 30
0.0
 10
0.0000000000318323
 20
86.12126323975166
 30
0.0
  0
SPLINE
  5
96
330
2
100
AcDbEntity
  8
GEB-VERDECKT
 48
25.0
100
AcDbSpline
210
0.0
220
0.0
230
1.0
 70
     8
 71
     3
 72
    26
 73
    22
 74
     0
 42
0.0000000001
 43
0.0000000001
 40
0.0000391708387109
 40
0.0000391708387109
 40
0.0000391708387109
 40
0.0000391708387109
 40
0.1016282074331316
 40
0.1016282074331316
 40
0.1434540828536704
 40
0.1434540828536704
 40
0.152142297807936
 40
0.152142297807936
 40
0.1572052970494689
 40
0.1572052970494689
 40
0.1610294660458868
 40
0.1610294660458868
 40
0.1649082037604993
 40
0.1649082037604993
 40
0.1705527000665835
 40
0.1705527000665835
 40
0.1822588238150118
 40
0.1822588238150118
 40
0.2179307321728096
 40
0.2179307321728096
 40
0.3305226454616223
 40
0.3305226454616223
 40
0.3305226454616223
 40
0.3305226454616223
 10
20.49828697331509
 20
82.7005662178451
 30
0.0
 10
20.72313657098516
 20
82.66399985304451
 30
0.0
 10
20.90216910595177
 20
82.64989854233636
 30
0.0
 10
21.07595962343816
 20
82.66413948964645
 30
0.0
 10
21.14291605061135
 20
82.67443843524985
 30
0.0
 10
21.18979636420659
 20
82.70909255754077
 30
0.0
 10
21.19799303941499
 20
82.71684145595804
 30
0.0
 10
21.20747587249275
 20
82.73254983412176
 30
0.0
 10
21.21036537077521
 20
82.73931117935786
 30
0.0
 10
21.21311556311116
 20
82.75310797908764
 30
0.0
 10
21.21349177717889
 20
82.75940567319366
 30
0.0
 10
21.212462400709
 20
82.77284658842246
 30
0.0
 10
21.21106488467626
 20
82.77956112262973
 30
0.0
 10
21.20613721321183
 20
82.79562660354759
 30
0.0
 10
21.20194555368676
 20
82.80471736967138
 30
0.0
 10
21.1879985833491
 20
82.82999091543819
 30
0.0
 10
21.17561460479465
 20
82.84598044976883
 30
0.0
 10
21.12870734462376
 20
82.89964995506034
 30
0.0
 10
21.08049192896487
 20
82.93781969762084
 30
0.0
 10
20.91810054299981
 20
83.05455751840259
 30
0.0
 10
20.73320837894903
 20
83.1531176899689
 30
0.0
 10
20.49828697331554
 20
83.25088597644322
 30
0.0
  0
SPLINE
  5
97
330
2
100
AcDbEntity
  8
GEB-VERDECKT
 48
25.0
100
AcDbSpline
210
0.0
220
0.0
230
1.0
 70
     8
 71
     3
 72
    16
 73
    12
 74
     0
 42
0.0000000001
 43
0.0000000001
 40
2.312980959658902
 40
2.312980959658902
 40
2.312980959658902
 40
2.312980959658902
 40
2.424023217695531
 40
2.424023217695531
 40
2.775165182250113
 40
2.775165182250113
 40
3.38020990788382
 40
3.38020990788382
 40
4.090837416909384
 40
4.090837416909384
 40
4.620656223541672
 40
4.620656223541672
 40
4.620656223541672
 40
4.620656223541672
 10
0.0000000000316049
 20
84.57578191768925
 30
0.0
 10
0.3715840039292289
 20
84.57578191768925
 30
0.0
 10
0.7431978420493124
 20
84.57383165083911
 30
0.0
 10
2.289113322410912
 20
84.55761805289126
 30
0.0
 10
3.459345214417226
 20
84.52578533359178
 30
0.0
 10
6.614733065882091
 20
84.38914697466293
 30
0.0
 10
8.567582580159523
 20
84.24821191517343
 30
0.0
 10
12.64131005787044
 20
83.85558404534299
 30
0.0
 10
14.71432335135546
 20
83.59018629080537
 30
0.0
 10
18.0193341171323
 20
83.10502717797431
 30
0.0
 10
19.3225796570473
 20
82.89176666059052
 30
0.0
 10
20.49828697331509
 20
82.7005662178451
 30
0.0
  0
SPLINE
  5
98
330
2
100
AcDbEntity
  8
GEB-VERDECKT
 48
25.0
100
AcDbSpline
210
0.0
220
0.0
230
1.0
 70
     8
 71
     3
 72
    14
 73
    10
 74
     0
 42
0.0000000001
 43
0.0000000001
 40
0.0018294068385467
 40
0.0018294068385467
 40
0.0018294068385467
 40
0.0018294068385467
 40
0.9897152215128194
 40
0.9897152215128194
 40
1.726746399294258
 40
1.726746399294258
 40
2.115193497023458
 40
2.115193497023458
 40
2.312980959658902
 40
2.312980959658902
 40
2.312980959658902
 40
2.312980959658902
 10
-20.49828697325893
 20
82.70056621785739
 30
0.0
 10
-18.31153299389689
 20
83.05618901890808
 30
0.0
 10
-15.692560667718
 20
83.47884902923601
 30
0.0
 10
-10.58032046042376
 20
84.07468092832459
 30
0.0
 10
-8.251184759545367
 20
84.28401023198352
 30
0.0
 10
-4.569624609870288
 20
84.48517751556734
 30
0.0
 10
-3.280964793142175
 20
84.53306374809768
 30
0.0
 10
-1.323629460184292
 20
84.56958747741714
 30
0.0
 10
-0.6618620566880509
 20
84.57578191768948
 30
0.0
 10
0.0000000000316049
 20
84.57578191768925
 30
0.0
  0
SPLINE
  5
99
330
2
100
AcDbEntity
  8
GEB-VERDECKT
 48
25.0
100
AcDbSpline
210
0.0
220
0.0
230
1.0
 70
     8
 71
     3
 72
    16
 73
    12
 74
     0
 42
0.0000000001
 43
0.0000000001
 40
2.31298095965892
 40
2.31298095965892
 40
2.31298095965892
 40
2.31298095965892
 40
2.424023217695569
 40
2.424023217695569
 40
2.775165182250201
 40
2.775165182250201
 40
3.380209907883998
 40
3.380209907883998
 40
4.090837416909636
 40
4.090837416909636
 40
4.221936111180173
 40
4.221936111180173
 40
4.221936111180173
 40
4.221936111180173
 10
0.0000000000113687
 20
70.34073443705051
 30
0.0
 10
-0.3715840038864826
 20
70.34073443705051
 30
0.0
 10
-0.7431978420065662
 20
70.3426826813909
 30
0.0
 10
-2.289113322368393
 20
70.35892995431663
 30
0.0
 10
-3.459345214374479
 20
70.39071435362143
 30
0.0
 10
-6.614733065839345
 20
70.53231734098881
 30
0.0
 10
-8.567582580117004
 20
70.6810833930324
 30
0.0
 10
-12.64131005782792
 20
71.15387872356518
 30
0.0
 10
-14.71432335131294
 20
71.50157321501024
 30
0.0
 10
-16.95699530624938
 20
72.05195858366756
 30
0.0
 10
-17.29965471389596
 20
72.1415201416903
 30
0.0
 10
-17.63538769252341
 20
72.23518529946659
 30
0.0
  0
SPLINE
  5
9A
330
2
100
AcDbEntity
  8
GEB-VERDECKT
 48
25.0
100
AcDbSpline
210
0.0
220
0.0
230
1.0
 70
     8
 71
     3
 72
    14
 73
    10
 74
     0
 42
0.0000000001
 43
0.0000000001
 40
0.4021243559895698
 40
0.4021243559895698
 40
0.4021243559895698
 40
0.4021243559895698
 40
0.9897152215128175
 40
0.9897152215128175
 40
1.726746399294253
 40
1.726746399294253
 40
2.115193497023457
 40
2.115193497023457
 40
2.31298095965892
 40
2.31298095965892
 40
2.31298095965892
 40
2.31298095965892
 10
17.63535248076391
 20
72.23354681505225
 30
0.0
 10
16.1383829332392
 20
71.81528667768202
 30
0.0
 10
14.50618245780811
 20
71.48089491176802
 30
0.0
 10
10.58032046046628
 20
70.87350165849398
 30
0.0
 10
8.251184759587886
 20
70.64490989589717
 30
0.0
 10
4.569624609912807
 20
70.43190540340401
 30
0.0
 10
3.280964793184693
 20
70.38367325805666
 30
0.0
 10
1.323629460227039
 20
70.34690858291288
 30
0.0
 10
0.6618620567307972
 20
70.34073443705029
 30
0.0
 10
0.0000000000113687
 20
70.34073443705051
 30
0.0
  0
SPLINE
  5
9B
330
2
100
AcDbEntity
  8
GEB-VERDECKT
 48
25.0
100
AcDbSpline
210
0.0
220
0.0
230
1.0
 70
     8
 71
     3
 72
    16
 73
    12
 74
     0
 42
0.0000000001
 43
0.0000000001
 40
2.31298095965892
 40
2.31298095965892
 40
2.31298095965892
 40
2.31298095965892
 40
2.424023217695569
 40
2.424023217695569
 40
2.775165182250201
 40
2.775165182250201
 40
3.380209907883998
 40
3.380209907883998
 40
4.090837416909636
 40
4.090837416909636
 40
4.221936111180177
 40
4.221936111180177
 40
4.221936111180177
 40
4.221936111180177
 10
0.0000000000127329
 20
76.37777085135713
 30
0.0
 10
-0.3715840038851184
 20
76.37777085135713
 30
0.0
 10
-0.7431978420052019
 20
76.37971909569774
 30
0.0
 10
-2.289113322367029
 20
76.39596636862325
 30
0.0
 10
-3.459345214373115
 20
76.42775076792827
 30
0.0
 10
-6.614733065837981
 20
76.5693537552952
 30
0.0
 10
-8.56758258011564
 20
76.71811980733924
 30
0.0
 10
-12.64131005782656
 20
77.1909151378718
 30
0.0
 10
-14.71432335131135
 20
77.53860962931708
 30
0.0
 10
-16.95699530624779
 20
78.0889949979744
 30
0.0
 10
-17.29965471389482
 20
78.17855655599692
 30
0.0
 10
-17.63538769252227
 20
78.27222171377343
 30
0.0
  0
SPLINE
  5
9C
330
2
100
AcDbEntity
  8
GEB-VERDECKT
 48
25.0
100
AcDbSpline
210
0.0
220
0.0
230
1.0
 70
     8
 71
     3
 72
    14
 73
    10
 74
     0
 42
0.0000000001
 43
0.0000000001
 40
0.4021243559895648
 40
0.4021243559895648
 40
0.4021243559895648
 40
0.4021243559895648
 40
0.9897152215128175
 40
0.9897152215128175
 40
1.726746399294253
 40
1.726746399294253
 40
2.115193497023457
 40
2.115193497023457
 40
2.31298095965892
 40
2.31298095965892
 40
2.31298095965892
 40
2.31298095965892
 10
17.6353524807655
 20
78.27058322935886
 30
0.0
 10
16.13838293324079
 20
77.85232309198886
 30
0.0
 10
14.50618245780924
 20
77.51793132607486
 30
0.0
 10
10.58032046046764
 20
76.91053807280059
 30
0.0
 10
8.25118475958925
 20
76.68194631020378
 30
0.0
 10
4.569624609914399
 20
76.46894181771085
 30
0.0
 10
3.280964793186058
 20
76.4207096723635
 30
0.0
 10
1.323629460228175
 20
76.38394499721925
 30
0.0
 10
0.661862056731934
 20
76.37777085135667
 30
0.0
 10
0.0000000000127329
 20
76.37777085135713
 30
0.0
  0
SPLINE
  5
9D
330
2
100
AcDbEntity
  8
GEB-VERDECKT
 48
25.0
100
AcDbSpline
210
0.0
220
0.0
230
1.0
 70
     8
 71
     3
 72
    16
 73
    12
 74
     0
 42
0.0000000001
 43
0.0000000001
 40
2.312980959658919
 40
2.312980959658919
 40
2.312980959658919
 40
2.312980959658919
 40
2.424023217695567
 40
2.424023217695567
 40
2.775165182250199
 40
2.775165182250199
 40
3.380209907883995
 40
3.380209907883995
 40
4.090837416909633
 40
4.090837416909633
 40
4.221936111180166
 40
4.221936111180166
 40
4.221936111180166
 40
4.221936111180166
 10
0.0000000000140972
 20
82.41480726566351
 30
0.0
 10
-0.3715840038839815
 20
82.41480726566397
 30
0.0
 10
-0.7431978420038377
 20
82.41675551000435
 30
0.0
 10
-2.289113322365892
 20
82.43300278293009
 30
0.0
 10
-3.459345214371978
 20
82.46478718223489
 30
0.0
 10
-6.614733065836844
 20
82.60639016960203
 30
0.0
 10
-8.567582580114276
 20
82.75515622164585
 30
0.0
 10
-12.64131005782497
 20
83.22795155217818
 30
0.0
 10
-14.71432335131044
 20
83.57564604362369
 30
0.0
 10
-16.95699530624643
 20
84.12603141228101
 30
0.0
 10
-17.29965471389346
 20
84.21559297030375
 30
0.0
 10
-17.63538769252091
 20
84.30925812808004
 30
0.0
  0
SPLINE
  5
9E
330
2
100
AcDbEntity
  8
GEB-VERDECKT
 48
25.0
100
AcDbSpline
210
0.0
220
0.0
230
1.0
 70
     8
 71
     3
 72
    14
 73
    10
 74
     0
 42
0.0000000001
 43
0.0000000001
 40
0.4021243559895759
 40
0.4021243559895759
 40
0.4021243559895759
 40
0.4021243559895759
 40
0.9897152215128169
 40
0.9897152215128169
 40
1.726746399294252
 40
1.726746399294252
 40
2.115193497023455
 40
2.115193497023455
 40
2.312980959658919
 40
2.312980959658919
 40
2.312980959658919
 40
2.312980959658919
 10
17.63535248076664
 20
84.30761964366547
 30
0.0
 10
16.13838293324215
 20
83.88935950629548
 30
0.0
 10
14.50618245781061
 20
83.55496774038147
 30
0.0
 10
10.58032046046924
 20
82.94757448710697
 30
0.0
 10
8.251184759590614
 20
82.71898272451016
 30
0.0
 10
4.569624609915763
 20
82.50597823201747
 30
0.0
 10
3.280964793187195
 20
82.4577460866701
 30
0.0
 10
1.32362946022954
 20
82.42098141152609
 30
0.0
 10
0.6618620567335256
 20
82.41480726566351
 30
0.0
 10
0.0000000000140972
 20
82.41480726566351
 30
0.0
  0
SPLINE
  5
9F
330
2
100
AcDbEntity
  8
GEB-KONTUR-A
 48
25.0
100
AcDbSpline
210
0.0
220
0.0
230
1.0
 70
     8
 71
     3
 72
    16
 73
    12
 74
     0
 42
0.0000000001
 43
0.0000000001
 40
5.460006798881002
 40
5.460006798881002
 40
5.460006798881002
 40
5.460006798881002
 40
5.789278202200435
 40
5.789278202200435
 40
6.118549605519868
 40
6.118549605519868
 40
6.447821008839301
 40
6.447821008839301
 40
6.777092412158735
 40
6.777092412158735
 40
7.106363815478168
 40
7.106363815478168
 40
7.106363815478168
 40
7.106363815478168
 10
17.6353971148319
 20
84.3093794761935
 30
0.0
 10
15.74317594051876
 20
83.78115929460888
 30
0.0
 10
13.59874769887551
 20
83.35565095920491
 30
0.0
 10
8.949384764954629
 20
82.70774985767662
 30
0.0
 10
6.447113103113224
 20
82.4873297974325
 30
0.0
 10
1.314421880004147
 20
82.26662375005162
 30
0.0
 10
-1.314421879976634
 20
82.26662375005231
 30
0.0
 10
-6.447113103085257
 20
82.48732979743612
 30
0.0
 10
-8.94938476492598
 20
82.70774985768184
 30
0.0
 10
-13.59874769884527
 20
83.35565095921287
 30
0.0
 10
-15.74317594048739
 20
83.78115929461797
 30
0.0
 10
-17.63539711479893
 20
84.3093794762035
 30
0.0
  0
SPLINE
  5
A1
330
2
100
AcDbEntity
  8
GEB-KONTUR-A
 48
25.0
100
AcDbSpline
210
0.0
220
0.0
230
1.0
 70
     8
 71
     3
 72
    16
 73
    12
 74
     0
 42
0.0000000001
 43
0.0000000001
 40
5.460006798880997
 40
5.460006798880997
 40
5.460006798880997
 40
5.460006798880997
 40
5.789278202200432
 40
5.789278202200432
 40
6.118549605519867
 40
6.118549605519867
 40
6.447821008839302
 40
6.447821008839302
 40
6.777092412158737
 40
6.777092412158737
 40
7.106363815478172
 40
7.106363815478172
 40
7.106363815478172
 40
7.106363815478172
 10
17.63539711483076
 20
78.27234306188666
 30
0.0
 10
15.74317594051763
 20
77.74412288030203
 30
0.0
 10
13.5987476988746
 20
77.31861454489808
 30
0.0
 10
8.949384764953492
 20
76.67071344337
 30
0.0
 10
6.447113103112087
 20
76.45029338312565
 30
0.0
 10
1.314421880002782
 20
76.22958733574478
 30
0.0
 10
-1.314421879978226
 20
76.22958733574569
 30
0.0
 10
-6.447113103086621
 20
76.45029338312951
 30
0.0
 10
-8.949384764927572
 20
76.67071344337546
 30
0.0
 10
-13.59874769884686
 20
77.31861454490626
 30
0.0
 10
-15.74317594048875
 20
77.74412288031135
 30
0.0
 10
-17.6353971148003
 20
78.27234306189712
 30
0.0
  0
SPLINE
  5
A2
330
2
100
AcDbEntity
  8
GEB-KONTUR-A
 48
25.0
100
AcDbSpline
210
0.0
220
0.0
230
1.0
 70
     8
 71
     3
 72
    16
 73
    12
 74
     0
 42
0.0000000001
 43
0.0000000001
 40
5.460006798880999
 40
5.460006798880999
 40
5.460006798880999
 40
5.460006798880999
 40
5.789278202200433
 40
5.789278202200433
 40
6.118549605519867
 40
6.118549605519867
 40
6.447821008839301
 40
6.447821008839301
 40
6.777092412158736
 40
6.777092412158736
 40
7.10636381547817
 40
7.10636381547817
 40
7.10636381547817
 40
7.10636381547817
 10
17.6353971148294
 20
72.23530664758005
 30
0.0
 10
15.74317594051604
 20
71.70708646599542
 30
0.0
 10
13.59874769887301
 20
71.2815781305917
 30
0.0
 10
8.949384764952128
 20
70.63367702906339
 30
0.0
 10
6.447113103110723
 20
70.41325696881904
 30
0.0
 10
1.314421880001646
 20
70.1925509214384
 30
0.0
 10
-1.314421879979136
 20
70.1925509214393
 30
0.0
 10
-6.447113103087758
 20
70.41325696882267
 30
0.0
 10
-8.949384764928481
 20
70.63367702906862
 30
0.0
 10
-13.59874769884777
 20
71.28157813059942
 30
0.0
 10
-15.74317594048989
 20
71.70708646600497
 30
0.0
 10
-17.63539711480166
 20
72.2353066475905
 30
0.0
  0
SPLINE
  5
A3
330
2
100
AcDbEntity
  8
GEB-KONTUR-A
 48
25.0
100
AcDbSpline
210
0.0
220
0.0
230
1.0
 70
     8
 71
     3
 72
    26
 73
    22
 74
     0
 42
0.0000000001
 43
0.0000000001
 40
0.0000391708387173
 40
0.0000391708387173
 40
0.0000391708387173
 40
0.0000391708387173
 40
0.1016282074330745
 40
0.1016282074330745
 40
0.143454082853683
 40
0.143454082853683
 40
0.1521422978079592
 40
0.1521422978079592
 40
0.1572052970495863
 40
0.1572052970495863
 40
0.161029466046017
 40
0.161029466046017
 40
0.1649082037605809
 40
0.1649082037605809
 40
0.1705527000665137
 40
0.1705527000665137
 40
0.1822588238146913
 40
0.1822588238146913
 40
0.217930732171623
 40
0.217930732171623
 40
0.3305226454580921
 40
0.3305226454580921
 40
0.3305226454580921
 40
0.3305226454580921
 10
20.49828697330213
 20
73.7614314589448
 30
0.0
 10
20.7231365709722
 20
73.79799782374539
 30
0.0
 10
20.90216910593881
 20
73.81209913445355
 30
0.0
 10
21.07595962342543
 20
73.79785818714322
 30
0.0
 10
21.14291605059884
 20
73.78755924153961
 30
0.0
 10
21.18979636419386
 20
73.75290511924891
 30
0.0
 10
21.19799303940249
 20
73.74515622083163
 30
0.0
 10
21.20747587247979
 20
73.7294478426677
 30
0.0
 10
21.21036537076225
 20
73.72268649743159
 30
0.0
 10
21.21311556309843
 20
73.70888969770203
 30
0.0
 10
21.21349177716616
 20
73.70259200359601
 30
0.0
 10
21.21246240069627
 20
73.68915108836723
 30
0.0
 10
21.21106488466375
 20
73.68243655416018
 30
0.0
 10
21.20613721319887
 20
73.66637107324232
 30
0.0
 10
21.2019455536738
 20
73.65728030711807
 30
0.0
 10
21.18799858333637
 20
73.63200676135147
 30
0.0
 10
21.17561460478169
 20
73.61601722702108
 30
0.0
 10
21.1287073446108
 20
73.56234772172957
 30
0.0
 10
21.08049192895169
 20
73.5241779791686
 30
0.0
 10
20.91810054298708
 20
73.40744015838755
 30
0.0
 10
20.73320837893584
 20
73.30887998682101
 30
0.0
 10
20.4982869733019
 20
73.21111170034692
 30
0.0
  0
SPLINE
  5
A4
330
2
100
AcDbEntity
  8
GEB-KONTUR-A
 48
25.0
100
AcDbSpline
210
0.0
220
0.0
230
1.0
 70
     8
 71
     3
 72
    16
 73
    12
 74
     0
 42
0.0000000001
 43
0.0000000001
 40
2.312980959658923
 40
2.312980959658923
 40
2.312980959658923
 40
2.312980959658923
 40
2.424023217695559
 40
2.424023217695559
 40
2.775165182250124
 40
2.775165182250124
 40
3.380209907883828
 40
3.380209907883828
 40
4.090837416909357
 40
4.090837416909357
 40
4.620656223541628
 40
4.620656223541628
 40
4.620656223541628
 40
4.620656223541628
 10
0.0000000000115961
 20
71.88621575911293
 30
0.0
 10
0.3715840039096747
 20
71.88621575911293
 30
0.0
 10
0.7431978420297583
 20
71.88816602596239
 30
0.0
 10
2.289113322391585
 20
71.90437962390956
 30
0.0
 10
3.459345214397899
 20
71.93621234320812
 30
0.0
 10
6.614733065862992
 20
72.07285070213538
 30
0.0
 10
8.567582580141106
 20
72.21378576162351
 30
0.0
 10
12.64131005785339
 20
72.60641363145168
 30
0.0
 10
14.71432335133909
 20
72.87181138598794
 30
0.0
 10
18.01933411711752
 20
73.35697049881719
 30
0.0
 10
19.32257965703343
 20
73.57023101620007
 30
0.0
 10
20.49828697330213
 20
73.7614314589448
 30
0.0
  0
SPLINE
  5
A5
330
2
100
AcDbEntity
  8
GEB-KONTUR-A
 48
25.0
100
AcDbSpline
210
0.0
220
0.0
230
1.0
 70
     8
 71
     3
 72
    14
 73
    10
 74
     0
 42
0.0000000001
 43
0.0000000001
 40
0.001829406838556
 40
0.001829406838556
 40
0.001829406838556
 40
0.001829406838556
 40
0.9897152215128295
 40
0.9897152215128295
 40
1.726746399294278
 40
1.726746399294278
 40
2.115193497023479
 40
2.115193497023479
 40
2.312980959658923
 40
2.312980959658923
 40
2.312980959658923
 40
2.312980959658923
 10
-20.49828697327212
 20
73.76143145895685
 30
0.0
 10
-18.31153299391167
 20
73.4058086579048
 30
0.0
 10
-15.69256066773437
 20
72.98314864757526
 30
0.0
 10
-10.58032046044195
 20
72.3873167484835
 30
0.0
 10
-8.251184759563784
 20
72.17798744482343
 30
0.0
 10
-4.569624609889615
 20
71.97682016123735
 30
0.0
 10
-3.280964793161501
 20
71.92893392870633
 30
0.0
 10
-1.323629460203846
 20
71.89241019938572
 30
0.0
 10
-0.661862056707605
 20
71.88621575911316
 30
0.0
 10
0.0000000000115961
 20
71.88621575911293
 30
0.0
  0
SPLINE
  5
A6
330
2
100
AcDbEntity
  8
GEB-KONTUR-A
 48
25.0
100
AcDbSpline
210
0.0
220
0.0
230
1.0
 70
     8
 71
     3
 72
    26
 73
    22
 74
     0
 42
0.0000000001
 43
0.0000000001
 40
0.0000391708387107
 40
0.0000391708387107
 40
0.0000391708387107
 40
0.0000391708387107
 40
0.1016282074331206
 40
0.1016282074331206
 40
0.1434540828537708
 40
0.1434540828537708
 40
0.1521422978080049
 40
0.1521422978080049
 40
0.157205297049546
 40
0.157205297049546
 40
0.1610294660459513
 40
0.1610294660459513
 40
0.1649082037605192
 40
0.1649082037605192
 40
0.1705527000664778
 40
0.1705527000664778
 40
0.1822588238147044
 40
0.1822588238147044
 40
0.21793073217189
 40
0.21793073217189
 40
0.3305226454588759
 40
0.3305226454588759
 40
0.3305226454588759
 40
0.3305226454588759
 10
-20.49828697327234
 20
73.21111170035897
 30
0.0
 10
-20.72313657094219
 20
73.30468835770671
 30
0.0
 10
-20.9021691059088
 20
73.39899758702813
 30
0.0
 10
-21.07595962339496
 20
73.519947108711
 30
0.0
 10
-21.1429160505686
 20
73.57179351100376
 30
0.0
 10
-21.18979636416361
 20
73.63575631123421
 30
0.0
 10
-21.19799303937202
 20
73.6486379104158
 30
0.0
 10
-21.20747587244955
 20
73.67029012250077
 30
0.0
 10
-21.21036537073201
 20
73.67886399870099
 30
0.0
 10
-21.21311556306819
 20
73.69438621210361
 30
0.0
 10
-21.21349177713569
 20
73.70092001440298
 30
0.0
 10
-21.21246240066603
 20
73.71371504133958
 30
0.0
 10
-21.21106488463352
 20
73.71955268295323
 30
0.0
 10
-21.20613721316863
 20
73.73252767887743
 30
0.0
 10
-21.20194555364355
 20
73.73899065953605
 30
0.0
 10
-21.1879985833059
 20
73.75552893477561
 30
0.0
 10
-21.17561460475144
 20
73.76377453586361
 30
0.0
 10
-21.12870734458056
 20
73.78817868539091
 30
0.0
 10
-21.08049192892167
 20
73.79646377106883
 30
0.0
 10
-20.91810054295684
 20
73.81330755870613
 30
0.0
 10
-20.7332083789056
 20
73.79963576044088
 30
0.0
 10
-20.49828697327212
 20
73.76143145895685
 30
0.0
  0
SPLINE
  5
A7
330
2
100
AcDbEntity
  8
GEB-KONTUR-A
 48
25.0
100
AcDbSpline
210
0.0
220
0.0
230
1.0
 70
     8
 71
     3
 72
     8
 73
     4
 74
     0
 42
0.0000000001
 43
0.0000000001
 40
4.221936111180173
 40
4.221936111180173
 40
4.221936111180173
 40
4.221936111180173
 40
4.620656223541997
 40
4.620656223541997
 40
4.620656223541997
 40
4.620656223541997
 10
-17.63538769252341
 20
72.23518529946659
 30
0.0
 10
-18.65647712218401
 20
72.52005604086367
 30
0.0
 10
-19.6134974048789
 20
72.84288488952871
 30
0.0
 10
-20.49828697327234
 20
73.21111170035897
 30
0.0
  0
SPLINE
  5
A8
330
2
100
AcDbEntity
  8
GEB-KONTUR-A
 48
25.0
100
AcDbSpline
210
0.0
220
0.0
230
1.0
 70
     8
 71
     3
 72
     8
 73
     4
 74
     0
 42
0.0000000001
 43
0.0000000001
 40
0.0018294068385467
 40
0.0018294068385467
 40
0.0018294068385467
 40
0.0018294068385467
 40
0.4021243559895698
 40
0.4021243559895698
 40
0.4021243559895698
 40
0.4021243559895698
 10
20.4982869733019
 20
73.21111170034692
 30
0.0
 10
19.61220625428336
 20
72.84234754561794
 30
0.0
 10
18.65515960178436
 20
72.51848558834535
 30
0.0
 10
17.63535248076391
 20
72.23354681505225
 30
0.0
  0
SPLINE
  5
A9
330
2
100
AcDbEntity
  8
GEB-KONTUR-A
 48
25.0
100
AcDbSpline
210
0.0
220
0.0
230
1.0
 70
     8
 71
     3
 72
    26
 73
    22
 74
     0
 42
0.0000000001
 43
0.0000000001
 40
0.0000391708387173
 40
0.0000391708387173
 40
0.0000391708387173
 40
0.0000391708387173
 40
0.1016282074331644
 40
0.1016282074331644
 40
0.1434540828540754
 40
0.1434540828540754
 40
0.1521422978084655
 40
0.1521422978084655
 40
0.1572052970500767
 40
0.1572052970500767
 40
0.1610294660465854
 40
0.1610294660465854
 40
0.164908203761263
 40
0.164908203761263
 40
0.1705527000673019
 40
0.1705527000673019
 40
0.1822588238156898
 40
0.1822588238156898
 40
0.2179307321731002
 40
0.2179307321731002
 40
0.3305226454610289
 40
0.3305226454610289
 40
0.3305226454610289
 40
0.3305226454610289
 10
20.49828697330327
 20
79.79846787325141
 30
0.0
 10
20.72313657097357
 20
79.835034238052
 30
0.0
 10
20.90216910594017
 20
79.84913554875993
 30
0.0
 10
21.07595962342703
 20
79.83489460144983
 30
0.0
 10
21.14291605060021
 20
79.82459565584623
 30
0.0
 10
21.18979636419522
 20
79.78994153355552
 30
0.0
 10
21.19799303940363
 20
79.78219263513825
 30
0.0
 10
21.20747587248138
 20
79.76648425697454
 30
0.0
 10
21.21036537076384
 20
79.75972291173821
 30
0.0
 10
21.21311556309956
 20
79.74592611200865
 30
0.0
 10
21.21349177716752
 20
79.73962841790262
 30
0.0
 10
21.21246240069763
 20
79.72618750267383
 30
0.0
 10
21.21106488466512
 20
79.71947296846656
 30
0.0
 10
21.20613721320046
 20
79.7034074875487
 30
0.0
 10
21.20194555367539
 20
79.69431672142491
 30
0.0
 10
21.18799858333728
 20
79.66904317565809
 30
0.0
 10
21.17561460478328
 20
79.65305364132746
 30
0.0
 10
21.12870734461239
 20
79.59938413603595
 30
0.0
 10
21.08049192895328
 20
79.56121439347498
 30
0.0
 10
20.91810054298822
 20
79.44447657269392
 30
0.0
 10
20.73320837893721
 20
79.34591640112762
 30
0.0
 10
20.49828697330327
 20
79.2481481146533
 30
0.0
  0
SPLINE
  5
AA
330
2
100
AcDbEntity
  8
GEB-KONTUR-A
 48
25.0
100
AcDbSpline
210
0.0
220
0.0
230
1.0
 70
     8
 71
     3
 72
    16
 73
    12
 74
     0
 42
0.0000000001
 43
0.0000000001
 40
2.312980959658919
 40
2.312980959658919
 40
2.312980959658919
 40
2.312980959658919
 40
2.424023217695555
 40
2.424023217695555
 40
2.775165182250119
 40
2.775165182250119
 40
3.380209907883822
 40
3.380209907883822
 40
4.09083741690935
 40
4.09083741690935
 40
4.62065622354162
 40
4.62065622354162
 40
4.62065622354162
 40
4.62065622354162
 10
0.0000000000129603
 20
77.92325217341977
 30
0.0
 10
0.3715840039108116
 20
77.92325217341931
 30
0.0
 10
0.7431978420311225
 20
77.925202440269
 30
0.0
 10
2.28911332239295
 20
77.94141603821618
 30
0.0
 10
3.459345214399036
 20
77.97324875751496
 30
0.0
 10
6.614733065864584
 20
78.10988711644177
 30
0.0
 10
8.56758258014247
 20
78.25082217593013
 30
0.0
 10
12.64131005785452
 20
78.6434500457583
 30
0.0
 10
14.71432335134045
 20
78.90884780029478
 30
0.0
 10
18.01933411711889
 20
79.39400691312357
 30
0.0
 10
19.32257965703456
 20
79.60726743050691
 30
0.0
 10
20.49828697330327
 20
79.79846787325141
 30
0.0
  0
SPLINE
  5
AB
330
2
100
AcDbEntity
  8
GEB-KONTUR-A
 48
25.0
100
AcDbSpline
210
0.0
220
0.0
230
1.0
 70
     8
 71
     3
 72
    14
 73
    10
 74
     0
 42
0.0000000001
 43
0.0000000001
 40
0.001829406838556
 40
0.001829406838556
 40
0.001829406838556
 40
0.001829406838556
 40
0.9897152215128286
 40
0.9897152215128286
 40
1.726746399294276
 40
1.726746399294276
 40
2.115193497023475
 40
2.115193497023475
 40
2.312980959658919
 40
2.312980959658919
 40
2.312980959658919
 40
2.312980959658919
 10
-20.49828697327098
 20
79.79846787326369
 30
0.0
 10
-18.31153299391053
 20
79.44284507221164
 30
0.0
 10
-15.69256066773277
 20
79.02018506188188
 30
0.0
 10
-10.58032046044059
 20
78.42435316279034
 30
0.0
 10
-8.251184759562647
 20
78.21502385913004
 30
0.0
 10
-4.569624609888251
 20
78.01385657554419
 30
0.0
 10
-3.280964793160137
 20
77.96597034301294
 30
0.0
 10
-1.323629460202482
 20
77.92944661369256
 30
0.0
 10
-0.6618620567062408
 20
77.92325217341977
 30
0.0
 10
0.0000000000129603
 20
77.92325217341977
 30
0.0
  0
SPLINE
  5
AC
330
2
100
AcDbEntity
  8
GEB-KONTUR-A
 48
25.0
100
AcDbSpline
210
0.0
220
0.0
230
1.0
 70
     8
 71
     3
 72
    26
 73
    22
 74
     0
 42
0.0000000001
 43
0.0000000001
 40
0.0000391708387109
 40
0.0000391708387109
 40
0.0000391708387109
 40
0.0000391708387109
 40
0.101628207433055
 40
0.101628207433055
 40
0.1434540828535355
 40
0.1434540828535355
 40
0.1521422978077487
 40
0.1521422978077487
 40
0.1572052970493265
 40
0.1572052970493265
 40
0.1610294660457706
 40
0.1610294660457706
 40
0.1649082037603778
 40
0.1649082037603778
 40
0.1705527000663933
 40
0.1705527000663933
 40
0.1822588238147378
 40
0.1822588238147378
 40
0.2179307321722828
 40
0.2179307321722828
 40
0.3305226454604105
 40
0.3305226454604105
 40
0.3305226454604105
 40
0.3305226454604105
 10
-20.49828697327098
 20
79.24814811466558
 30
0.0
 10
-20.72313657094082
 20
79.34172477201355
 30
0.0
 10
-20.9021691059072
 20
79.43603400133475
 30
0.0
 10
-21.0759596233936
 20
79.55698352301761
 30
0.0
 10
-21.14291605056701
 20
79.6088299253106
 30
0.0
 10
-21.18979636416225
 20
79.67279272554105
 30
0.0
 10
-21.19799303937066
 20
79.68567432472264
 30
0.0
 10
-21.20747587244841
 20
79.70732653680761
 30
0.0
 10
-21.21036537073064
 20
79.71590041300783
 30
0.0
 10
-21.21311556306659
 20
79.73142262641045
 30
0.0
 10
-21.21349177713432
 20
79.73795642870959
 30
0.0
 10
-21.21246240066489
 20
79.7507514556462
 30
0.0
 10
-21.21106488463215
 20
79.75658909726007
 30
0.0
 10
-21.20613721316749
 20
79.76956409318382
 30
0.0
 10
-21.20194555364242
 20
79.77602707384267
 30
0.0
 10
-21.18799858330453
 20
79.79256534908245
 30
0.0
 10
-21.17561460475008
 20
79.80081095017045
 30
0.0
 10
-21.1287073445792
 20
79.82521509969775
 30
0.0
 10
-21.08049192892031
 20
79.83350018537521
 30
0.0
 10
-20.91810054295547
 20
79.85034397301274
 30
0.0
 10
-20.73320837890401
 20
79.83667217474749
 30
0.0
 10
-20.49828697327098
 20
79.79846787326369
 30
0.0
  0
SPLINE
  5
AD
330
2
100
AcDbEntity
  8
GEB-KONTUR-A
 48
25.0
100
AcDbSpline
210
0.0
220
0.0
230
1.0
 70
     8
 71
     3
 72
     8
 73
     4
 74
     0
 42
0.0000000001
 43
0.0000000001
 40
4.221936111180177
 40
4.221936111180177
 40
4.221936111180177
 40
4.221936111180177
 40
4.620656223541997
 40
4.620656223541997
 40
4.620656223541997
 40
4.620656223541997
 10
-17.63538769252227
 20
78.27222171377343
 30
0.0
 10
-18.65647712218265
 20
78.55709245517028
 30
0.0
 10
-19.61349740487753
 20
78.87992130383555
 30
0.0
 10
-20.49828697327098
 20
79.24814811466558
 30
0.0
  0
SPLINE
  5
AE
330
2
100
AcDbEntity
  8
GEB-KONTUR-A
 48
25.0
100
AcDbSpline
210
0.0
220
0.0
230
1.0
 70
     8
 71
     3
 72
     8
 73
     4
 74
     0
 42
0.0000000001
 43
0.0000000001
 40
0.0018294068385467
 40
0.0018294068385467
 40
0.0018294068385467
 40
0.0018294068385467
 40
0.4021243559895648
 40
0.4021243559895648
 40
0.4021243559895648
 40
0.4021243559895648
 10
20.49828697330327
 20
79.2481481146533
 30
0.0
 10
19.61220625428495
 20
78.87938395992455
 30
0.0
 10
18.6551596017855
 20
78.55552200265197
 30
0.0
 10
17.6353524807655
 20
78.27058322935886
 30
0.0
  0
SPLINE
  5
AF
330
2
100
AcDbEntity
  8
GEB-KONTUR-A
 48
25.0
100
AcDbSpline
210
0.0
220
0.0
230
1.0
 70
     8
 71
     3
 72
    26
 73
    22
 74
     0
 42
0.0000000001
 43
0.0000000001
 40
0.0000391708387173
 40
0.0000391708387173
 40
0.0000391708387173
 40
0.0000391708387173
 40
0.1016282074331644
 40
0.1016282074331644
 40
0.1434540828541457
 40
0.1434540828541457
 40
0.1521422978085234
 40
0.1521422978085234
 40
0.1572052970502065
 40
0.1572052970502065
 40
0.1610294660466814
 40
0.1610294660466814
 40
0.1649082037612901
 40
0.1649082037612901
 40
0.1705527000672876
 40
0.1705527000672876
 40
0.182258823815599
 40
0.182258823815599
 40
0.2179307321729367
 40
0.2179307321729367
 40
0.3305226454606393
 40
0.3305226454606393
 40
0.3305226454606393
 40
0.3305226454606393
 10
20.49828697330463
 20
85.83550428755803
 30
0.0
 10
20.7231365709747
 20
85.87207065235885
 30
0.0
 10
20.90216910594154
 20
85.88617196306655
 30
0.0
 10
21.07595962342862
 20
85.87193101575621
 30
0.0
 10
21.14291605060135
 20
85.86163207015307
 30
0.0
 10
21.18979636419681
 20
85.8269779478619
 30
0.0
 10
21.19799303940499
 20
85.81922904944486
 30
0.0
 10
21.20747587248275
 20
85.80352067128115
 30
0.0
 10
21.21036537076475
 20
85.79675932604459
 30
0.0
 10
21.21311556310093
 20
85.78296252631549
 30
0.0
 10
21.21349177716866
 20
85.77666483220946
 30
0.0
 10
21.21246240069922
 20
85.76322391698068
 30
0.0
 10
21.21106488466626
 20
85.75650938277318
 30
0.0
 10
21.20613721320183
 20
85.74044390185553
 30
0.0
 10
21.20194555367675
 20
85.73135313573152
 30
0.0
 10
21.18799858333887
 20
85.7060795899647
 30
0.0
 10
21.17561460478464
 20
85.69009005563406
 30
0.0
 10
21.12870734461353
 20
85.63642055034256
 30
0.0
 10
21.08049192895419
 20
85.59825080778182
 30
0.0
 10
20.91810054298981
 20
85.48151298700053
 30
0.0
 10
20.73320837893835
 20
85.38295281543446
 30
0.0
 10
20.49828697330463
 20
85.28518452896014
 30
0.0
  0
SPLINE
  5
B0
330
2
100
AcDbEntity
  8
GEB-KONTUR-A
 48
25.0
100
AcDbSpline
210
0.0
220
0.0
230
1.0
 70
     8
 71
     3
 72
    16
 73
    12
 74
     0
 42
0.0000000001
 43
0.0000000001
 40
2.312980959658919
 40
2.312980959658919
 40
2.312980959658919
 40
2.312980959658919
 40
2.424023217695555
 40
2.424023217695555
 40
2.775165182250119
 40
2.775165182250119
 40
3.380209907883822
 40
3.380209907883822
 40
4.09083741690935
 40
4.09083741690935
 40
4.62065622354162
 40
4.62065622354162
 40
4.62065622354162
 40
4.62065622354162
 10
0.0000000000143245
 20
83.96028858772615
 30
0.0
 10
0.3715840039124032
 20
83.96028858772615
 30
0.0
 10
0.7431978420322594
 20
83.96223885457585
 30
0.0
 10
2.289113322394086
 20
83.97845245252256
 30
0.0
 10
3.459345214400627
 20
84.01028517182158
 30
0.0
 10
6.614733065865948
 20
84.1469235307486
 30
0.0
 10
8.567582580143835
 20
84.28785859023696
 30
0.0
 10
12.64131005785589
 20
84.68048646006492
 30
0.0
 10
14.71432335134181
 20
84.94588421460139
 30
0.0
 10
18.01933411712048
 20
85.43104332743041
 30
0.0
 10
19.32257965703593
 20
85.64430384481353
 30
0.0
 10
20.49828697330463
 20
85.83550428755803
 30
0.0
  0
SPLINE
  5
B1
330
2
100
AcDbEntity
  8
GEB-KONTUR-A
 48
25.0
100
AcDbSpline
210
0.0
220
0.0
230
1.0
 70
     8
 71
     3
 72
    14
 73
    10
 74
     0
 42
0.0000000001
 43
0.0000000001
 40
0.001829406838556
 40
0.001829406838556
 40
0.001829406838556
 40
0.001829406838556
 40
0.9897152215128286
 40
0.9897152215128286
 40
1.726746399294276
 40
1.726746399294276
 40
2.115193497023475
 40
2.115193497023475
 40
2.312980959658919
 40
2.312980959658919
 40
2.312980959658919
 40
2.312980959658919
 10
-20.49828697326962
 20
85.83550428757007
 30
0.0
 10
-18.31153299390917
 20
85.47988148651802
 30
0.0
 10
-15.69256066773164
 20
85.05722147618872
 30
0.0
 10
-10.58032046043922
 20
84.46138957709695
 30
0.0
 10
-8.251184759561283
 20
84.25206027343689
 30
0.0
 10
-4.569624609886886
 20
84.0508929898508
 30
0.0
 10
-3.280964793159
 20
84.00300675731978
 30
0.0
 10
-1.323629460201345
 20
83.96648302799894
 30
0.0
 10
-0.6618620567051039
 20
83.96028858772661
 30
0.0
 10
0.0000000000143245
 20
83.96028858772615
 30
0.0
  0
SPLINE
  5
B2
330
2
100
AcDbEntity
  8
GEB-KONTUR-A
 48
25.0
100
AcDbSpline
210
0.0
220
0.0
230
1.0
 70
     8
 71
     3
 72
    26
 73
    22
 74
     0
 42
0.0000000001
 43
0.0000000001
 40
0.0000391708387108
 40
0.0000391708387108
 40
0.0000391708387108
 40
0.0000391708387108
 40
0.101628207433055
 40
0.101628207433055
 40
0.1434540828536067
 40
0.1434540828536067
 40
0.1521422978078509
 40
0.1521422978078509
 40
0.1572052970494482
 40
0.1572052970494482
 40
0.1610294660459076
 40
0.1610294660459076
 40
0.1649082037605307
 40
0.1649082037605307
 40
0.1705527000665689
 40
0.1705527000665689
 40
0.1822588238149449
 40
0.1822588238149449
 40
0.2179307321723555
 40
0.2179307321723555
 40
0.330522645460245
 40
0.330522645460245
 40
0.330522645460245
 40
0.330522645460245
 10
-20.49828697326962
 20
85.28518452897243
 30
0.0
 10
-20.72313657093923
 20
85.37876118632016
 30
0.0
 10
-20.9021691059063
 20
85.47307041564137
 30
0.0
 10
-21.07595962339246
 20
85.59401993732398
 30
0.0
 10
-21.14291605056564
 20
85.64586633961722
 30
0.0
 10
-21.18979636416111
 20
85.70982913984767
 30
0.0
 10
-21.19799303936929
 20
85.72271073902902
 30
0.0
 10
-21.20747587244705
 20
85.74436295111423
 30
0.0
 10
-21.21036537072951
 20
85.75293682731444
 30
0.0
 10
-21.21311556306523
 20
85.76845904071706
 30
0.0
 10
-21.21349177713319
 20
85.77499284301643
 30
0.0
 10
-21.21246240066353
 20
85.78778786995281
 30
0.0
 10
-21.21106488463056
 20
85.79362551156668
 30
0.0
 10
-21.20613721316613
 20
85.80660050749044
 30
0.0
 10
-21.20194555364105
 20
85.81306348814905
 30
0.0
 10
-21.18799858330317
 20
85.82960176338906
 30
0.0
 10
-21.17561460474894
 20
85.83784736447706
 30
0.0
 10
-21.12870734457806
 20
85.86225151400412
 30
0.0
 10
-21.08049192891895
 20
85.87053659968205
 30
0.0
 10
-20.91810054295434
 20
85.88738038731959
 30
0.0
 10
-20.7332083789031
 20
85.87370858905387
 30
0.0
 10
-20.49828697326962
 20
85.83550428757007
 30
0.0
  0
SPLINE
  5
B3
330
2
100
AcDbEntity
  8
GEB-KONTUR-A
 48
25.0
100
AcDbSpline
210
0.0
220
0.0
230
1.0
 70
     8
 71
     3
 72
     8
 73
     4
 74
     0
 42
0.0000000001
 43
0.0000000001
 40
4.221936111180166
 40
4.221936111180166
 40
4.221936111180166
 40
4.221936111180166
 40
4.620656223541995
 40
4.620656223541995
 40
4.620656223541995
 40
4.620656223541995
 10
-17.63538769252091
 20
84.30925812808004
 30
0.0
 10
-18.65647712218128
 20
84.59412886947712
 30
0.0
 10
-19.61349740487617
 20
84.91695771814192
 30
0.0
 10
-20.49828697326962
 20
85.28518452897243
 30
0.0
  0
SPLINE
  5
B4
330
2
100
AcDbEntity
  8
GEB-KONTUR-A
 48
25.0
100
AcDbSpline
210
0.0
220
0.0
230
1.0
 70
     8
 71
     3
 72
     8
 73
     4
 74
     0
 42
0.0000000001
 43
0.0000000001
 40
0.0018294068385468
 40
0.0018294068385468
 40
0.0018294068385468
 40
0.0018294068385468
 40
0.4021243559895759
 40
0.4021243559895759
 40
0.4021243559895759
 40
0.4021243559895759
 10
20.49828697330463
 20
85.28518452896014
 30
0.0
 10
19.61220625428632
 20
84.91642037423117
 30
0.0
 10
18.65515960178686
 20
84.59255841695858
 30
0.0
 10
17.63535248076664
 20
84.30761964366547
 30
0.0
  0
SPLINE
  5
B5
330
2
100
AcDbEntity
  8
GEB-VERDECKT
 48
25.0
100
AcDbSpline
210
0.0
220
0.0
230
1.0
 70
     8
 71
     3
 72
    16
 73
    12
 74
     0
 42
0.0000000001
 43
0.0000000001
 40
2.312980959658919
 40
2.312980959658919
 40
2.312980959658919
 40
2.312980959658919
 40
2.424023217695567
 40
2.424023217695567
 40
2.775165182250199
 40
2.775165182250199
 40
3.380209907883995
 40
3.380209907883995
 40
4.090837416909633
 40
4.090837416909633
 40
4.22193611118017
 40
4.22193611118017
 40
4.22193611118017
 40
4.22193611118017
 10
0.000000000015234
 20
88.45184367997035
 30
0.0
 10
-0.3715840038826172
 20
88.45184367997035
 30
0.0
 10
-0.7431978420027008
 20
88.45379192431119
 30
0.0
 10
-2.289113322364528
 20
88.47003919723647
 30
0.0
 10
-3.459345214370614
 20
88.50182359654127
 30
0.0
 10
-6.614733065835253
 20
88.64342658390865
 30
0.0
 10
-8.567582580112912
 20
88.79219263595269
 30
0.0
 10
-12.64131005782406
 20
89.26498796648502
 30
0.0
 10
-14.71432335130885
 20
89.61268245793053
 30
0.0
 10
-16.95699530624529
 20
90.16306782658762
 30
0.0
 10
-17.29965471389209
 20
90.25262938461038
 30
0.0
 10
-17.63538769251977
 20
90.34629454238688
 30
0.0
  0
SPLINE
  5
B6
330
2
100
AcDbEntity
  8
GEB-VERDECKT
 48
25.0
100
AcDbSpline
210
0.0
220
0.0
230
1.0
 70
     8
 71
     3
 72
    14
 73
    10
 74
     0
 42
0.0000000001
 43
0.0000000001
 40
0.4021243559895657
 40
0.4021243559895657
 40
0.4021243559895657
 40
0.4021243559895657
 40
0.9897152215128169
 40
0.9897152215128169
 40
1.726746399294252
 40
1.726746399294252
 40
2.115193497023455
 40
2.115193497023455
 40
2.312980959658919
 40
2.312980959658919
 40
2.312980959658919
 40
2.312980959658919
 10
17.635352480768
 20
90.34465605797231
 30
0.0
 10
16.13838293324329
 20
89.92639592060232
 30
0.0
 10
14.50618245781174
 20
89.59200415468785
 30
0.0
 10
10.58032046047014
 20
88.98461090141381
 30
0.0
 10
8.251184759591751
 20
88.756019138817
 30
0.0
 10
4.5696246099169
 20
88.54301464632408
 30
0.0
 10
3.280964793188786
 20
88.49478250097673
 30
0.0
 10
1.323629460230904
 20
88.4580178258327
 30
0.0
 10
0.6618620567348899
 20
88.45184367997012
 30
0.0
 10
0.000000000015234
 20
88.45184367997035
 30
0.0
  0
SPLINE
  5
B7
330
2
100
AcDbEntity
  8
GEB-KONTUR-A
 48
25.0
100
AcDbSpline
210
0.0
220
0.0
230
1.0
 70
     8
 71
     3
 72
    16
 73
    12
 74
     0
 42
0.0000000001
 43
0.0000000001
 40
5.460006798880998
 40
5.460006798880998
 40
5.460006798880998
 40
5.460006798880998
 40
5.789278202200432
 40
5.789278202200432
 40
6.118549605519866
 40
6.118549605519866
 40
6.447821008839301
 40
6.447821008839301
 40
6.777092412158735
 40
6.777092412158735
 40
7.106363815478169
 40
7.106363815478169
 40
7.106363815478169
 40
7.106363815478169
 10
17.63539711483327
 20
90.34641589049988
 30
0.0
 10
15.74317594052013
 20
89.81819570891548
 30
0.0
 10
13.5987476988771
 20
89.39268737351154
 30
0.0
 10
8.949384764955993
 20
88.74478627198346
 30
0.0
 10
6.447113103114588
 20
88.52436621173911
 30
0.0
 10
1.314421880005511
 20
88.30366016435823
 30
0.0
 10
-1.31442187997527
 20
88.30366016435915
 30
0.0
 10
-6.447113103083665
 20
88.52436621174275
 30
0.0
 10
-8.949384764924843
 20
88.74478627198868
 30
0.0
 10
-13.59874769884391
 20
89.3926873735195
 30
0.0
 10
-15.7431759404858
 20
89.81819570892481
 30
0.0
 10
-17.63539711479757
 20
90.34641589051034
 30
0.0
  0
SPLINE
  5
B8
330
2
100
AcDbEntity
  8
GEB-KONTUR-A
 48
25.0
100
AcDbSpline
210
0.0
220
0.0
230
1.0
 70
     8
 71
     3
 72
    26
 73
    22
 74
     0
 42
0.0000000001
 43
0.0000000001
 40
0.0000391708387172
 40
0.0000391708387172
 40
0.0000391708387172
 40
0.0000391708387172
 40
0.1016282074330208
 40
0.1016282074330208
 40
0.143454082853465
 40
0.143454082853465
 40
0.1521422978076768
 40
0.1521422978076768
 40
0.1572052970492714
 40
0.1572052970492714
 40
0.1610294660456817
 40
0.1610294660456817
 40
0.1649082037602255
 40
0.1649082037602255
 40
0.1705527000661301
 40
0.1705527000661301
 40
0.1822588238142513
 40
0.1822588238142513
 40
0.217930732171014
 40
0.217930732171014
 40
0.3305226454569128
 40
0.3305226454569128
 40
0.3305226454569128
 40
0.3305226454569128
 10
20.498286973306
 20
91.87254070186487
 30
0.0
 10
20.72313657097584
 20
91.90910706666546
 30
0.0
 10
20.90216910594268
 20
91.92320837737339
 30
0.0
 10
21.07595962342907
 20
91.90896743006305
 30
0.0
 10
21.14291605060248
 20
91.89866848445944
 30
0.0
 10
21.18979636419795
 20
91.86401436216874
 30
0.0
 10
21.19799303940613
 20
91.8562654637517
 30
0.0
 10
21.20747587248388
 20
91.84055708558776
 30
0.0
 10
21.21036537076634
 20
91.83379574035143
 30
0.0
 10
21.21311556310252
 20
91.8199989406221
 30
0.0
 10
21.21349177717002
 20
91.81370124651584
 30
0.0
 10
21.21246240070036
 20
91.80026033128729
 30
0.0
 10
21.21106488466762
 20
91.79354579708002
 30
0.0
 10
21.20613721320296
 20
91.77748031616216
 30
0.0
 10
21.20194555367789
 20
91.76838955003814
 30
0.0
 10
21.18799858334023
 20
91.74311600427154
 30
0.0
 10
21.17561460478578
 20
91.7271264699409
 30
0.0
 10
21.12870734461489
 20
91.6734569646494
 30
0.0
 10
21.08049192895578
 20
91.63528722208843
 30
0.0
 10
20.91810054299117
 20
91.51854940130737
 30
0.0
 10
20.73320837893994
 20
91.41998922974108
 30
0.0
 10
20.49828697330577
 20
91.32222094326676
 30
0.0
  0
SPLINE
  5
B9
330
2
100
AcDbEntity
  8
GEB-KONTUR-A
 48
25.0
100
AcDbSpline
210
0.0
220
0.0
230
1.0
 70
     8
 71
     3
 72
    16
 73
    12
 74
     0
 42
0.0000000001
 43
0.0000000001
 40
2.312980959658895
 40
2.312980959658895
 40
2.312980959658895
 40
2.312980959658895
 40
2.424023217695535
 40
2.424023217695535
 40
2.775165182250144
 40
2.775165182250144
 40
3.380209907883905
 40
3.380209907883905
 40
4.090837416909509
 40
4.090837416909509
 40
4.620656223541841
 40
4.620656223541841
 40
4.620656223541841
 40
4.620656223541841
 10
0.0000000000156888
 20
89.99732500203299
 30
0.0
 10
0.3715840039137674
 20
89.99732500203277
 30
0.0
 10
0.7431978420336236
 20
89.99927526888246
 30
0.0
 10
2.289113322395451
 20
90.0154888668294
 30
0.0
 10
3.459345214401537
 20
90.04732158612796
 30
0.0
 10
6.614733065867085
 20
90.18395994505523
 30
0.0
 10
8.567582580144971
 20
90.32489500454358
 30
0.0
 10
12.64131005785725
 20
90.71752287437176
 30
0.0
 10
14.71432335134295
 20
90.98292062890823
 30
0.0
 10
18.01933411712139
 20
91.46807974173702
 30
0.0
 10
19.32257965703707
 20
91.68134025912014
 30
0.0
 10
20.498286973306
 20
91.87254070186487
 30
0.0
  0
SPLINE
  5
BA
330
2
100
AcDbEntity
  8
GEB-KONTUR-A
 48
25.0
100
AcDbSpline
210
0.0
220
0.0
230
1.0
 70
     8
 71
     3
 72
    14
 73
    10
 74
     0
 42
0.0000000001
 43
0.0000000001
 40
0.0018294068385547
 40
0.0018294068385547
 40
0.0018294068385547
 40
0.0018294068385547
 40
0.9897152215128242
 40
0.9897152215128242
 40
1.726746399294271
 40
1.726746399294271
 40
2.11519349702346
 40
2.11519349702346
 40
2.312980959658895
 40
2.312980959658895
 40
2.312980959658895
 40
2.312980959658895
 10
-20.49828697326802
 20
91.87254070187691
 30
0.0
 10
-18.31153299390757
 20
91.51691790082486
 30
0.0
 10
-15.69256066773028
 20
91.0942578904951
 30
0.0
 10
-10.58032046043786
 20
90.49842599140356
 30
0.0
 10
-8.251184759560146
 20
90.2890966877435
 30
0.0
 10
-4.56962460988575
 20
90.08792940415743
 30
0.0
 10
-3.280964793157409
 20
90.04004317162616
 30
0.0
 10
-1.323629460199981
 20
90.00351944230578
 30
0.0
 10
-0.6618620567037397
 20
89.99732500203299
 30
0.0
 10
0.0000000000156888
 20
89.99732500203299
 30
0.0
  0
SPLINE
  5
BB
330
2
100
AcDbEntity
  8
GEB-KONTUR-A
 48
25.0
100
AcDbSpline
210
0.0
220
0.0
230
1.0
 70
     8
 71
     3
 72
    26
 73
    22
 74
     0
 42
0.0000000001
 43
0.0000000001
 40
0.0000391708387107
 40
0.0000391708387107
 40
0.0000391708387107
 40
0.0000391708387107
 40
0.1016282074330473
 40
0.1016282074330473
 40
0.143454082853291
 40
0.143454082853291
 40
0.1521422978074287
 40
0.1521422978074287
 40
0.1572052970488886
 40
0.1572052970488886
 40
0.1610294660453383
 40
0.1610294660453383
 40
0.1649082037599804
 40
0.1649082037599804
 40
0.1705527000659491
 40
0.1705527000659491
 40
0.1822588238141186
 40
0.1822588238141186
 40
0.2179307321709014
 40
0.2179307321709014
 40
0.3305226454568052
 40
0.3305226454568052
 40
0.3305226454568052
 40
0.3305226454568052
 10
-20.49828697326825
 20
91.32222094327904
 30
0.0
 10
-20.72313657093832
 20
91.41579760062677
 30
0.0
 10
-20.9021691059047
 20
91.51010682994821
 30
0.0
 10
-21.07595962339087
 20
91.63105635163061
 30
0.0
 10
-21.14291605056428
 20
91.68290275392383
 30
0.0
 10
-21.18979636415975
 20
91.74686555415451
 30
0.0
 10
-21.19799303936816
 20
91.75974715333586
 30
0.0
 10
-21.20747587244546
 20
91.78139936542084
 30
0.0
 10
-21.21036537072791
 20
91.78997324162128
 30
0.0
 10
-21.21311556306409
 20
91.8054954550239
 30
0.0
 10
-21.21349177713182
 20
91.81202925732305
 30
0.0
 10
-21.21246240066216
 20
91.82482428425965
 30
0.0
 10
-21.21106488462942
 20
91.83066192587331
 30
0.0
 10
-21.20613721316454
 20
91.84363692179728
 30
0.0
 10
-21.20194555363946
 20
91.85009990245589
 30
0.0
 10
-21.18799858330203
 20
91.8666381776959
 30
0.0
 10
-21.17561460474758
 20
91.87488377878343
 30
0.0
 10
-21.1287073445767
 20
91.89928792831073
 30
0.0
 10
-21.08049192891781
 20
91.90757301398866
 30
0.0
 10
-20.91810054295297
 20
91.9244168016262
 30
0.0
 10
-20.73320837890151
 20
91.91074500336071
 30
0.0
 10
-20.49828697326802
 20
91.87254070187691
 30
0.0
  0
SPLINE
  5
BC
330
2
100
AcDbEntity
  8
GEB-KONTUR-A
 48
25.0
100
AcDbSpline
210
0.0
220
0.0
230
1.0
 70
     8
 71
     3
 72
     8
 73
     4
 74
     0
 42
0.0000000001
 43
0.0000000001
 40
4.22193611118017
 40
4.22193611118017
 40
4.22193611118017
 40
4.22193611118017
 40
4.620656223542009
 40
4.620656223542009
 40
4.620656223542009
 40
4.620656223542009
 10
-17.63538769251977
 20
90.34629454238688
 30
0.0
 10
-18.65647712217992
 20
90.63116528378349
 30
0.0
 10
-19.61349740487503
 20
90.95399413244876
 30
0.0
 10
-20.49828697326825
 20
91.32222094327904
 30
0.0
  0
SPLINE
  5
BD
330
2
100
AcDbEntity
  8
GEB-KONTUR-A
 48
25.0
100
AcDbSpline
210
0.0
220
0.0
230
1.0
 70
     8
 71
     3
 72
     8
 73
     4
 74
     0
 42
0.0000000001
 43
0.0000000001
 40
0.0018294068385469
 40
0.0018294068385469
 40
0.0018294068385469
 40
0.0018294068385469
 40
0.4021243559895657
 40
0.4021243559895657
 40
0.4021243559895657
 40
0.4021243559895657
 10
20.49828697330577
 20
91.32222094326676
 30
0.0
 10
19.61220625428746
 20
90.95345678853801
 30
0.0
 10
18.65515960178823
 20
90.62959483126542
 30
0.0
 10
17.635352480768
 20
90.34465605797231
 30
0.0
  0
LINE
  5
BE
330
2
100
AcDbEntity
  8
GEB-KONTUR-A
 48
25.0
100
AcDbLine
 10
-24.83319351189471
 20
65.46584476952375
 30
0.0
 11
-24.83319351189493
 21
63.71455355128228
 31
0.0
  0
LINE
  5
BF
330
2
100
AcDbEntity
  8
GEB-KONTUR-A
 48
25.0
100
AcDbLine
 10
-27.49999999997704
 20
97.78583888722256
 30
0.0
 11
-27.49999999998659
 21
53.94904344750057
 31
0.0
  0
LINE
  5
C0
330
2
100
AcDbEntity
  8
GEB-KONTUR-A
 48
25.0
100
AcDbLine
 10
-27.49999999998659
 20
53.94904344750057
 30
0.0
 11
-23.76315425189523
 21
53.94904344749943
 31
0.0
  0
LINE
  5
C1
330
2
100
AcDbEntity
  8
GEB-KONTUR-A
 48
25.0
100
AcDbLine
 10
-23.76315425189523
 20
53.94904344749943
 30
0.0
 11
-23.76315425189318
 21
63.07301772154279
 31
0.0
  0
LINE
  5
C2
330
2
100
AcDbEntity
  8
GEB-KONTUR-A
 48
25.0
100
AcDbLine
 10
-25.89763502713754
 20
97.14594904560408
 30
0.0
 11
-25.89763502714436
 21
66.12936811700524
 31
0.0
  0
LINE
  5
C3
330
2
100
AcDbEntity
  8
GEB-VERDECKT
 48
25.0
100
AcDbLine
 10
-25.49999999998318
 20
56.34311961469825
 30
0.0
 11
-25.49999999998113
 21
66.10862971848064
 31
0.0
  0
LINE
  5
C4
330
2
100
AcDbEntity
  8
GEB-VERDECKT
 48
25.0
100
AcDbLine
 10
-25.89763502714436
 20
66.12936811700524
 30
0.0
 11
-24.83319351189448
 21
66.12936811700501
 31
0.0
  0
LINE
  5
C5
330
2
100
AcDbEntity
  8
GEB-VERDECKT
 48
25.0
100
AcDbLine
 10
-24.83319351189448
 20
66.12936811700501
 30
0.0
 11
-24.83319351189471
 21
65.46584476952375
 31
0.0
  0
LINE
  5
C6
330
2
100
AcDbEntity
  8
GEB-VERDECKT
 48
25.0
100
AcDbLine
 10
-24.83319351189493
 20
63.71455355128251
 30
0.0
 11
-23.76315425189296
 21
63.71455355128182
 31
0.0
  0
LINE
  5
C7
330
2
100
AcDbEntity
  8
GEB-VERDECKT
 48
25.0
100
AcDbLine
 10
-27.49999999997681
 20
99.55040170660755
 30
0.0
 11
-27.49999999997704
 21
97.78583888722256
 31
0.0
  0
ELLIPSE
  5
C8
330
2
100
AcDbEntity
  8
GEB-VERDECKT
 48
25.0
100
AcDbEllipse
 10
0.0000000000165983
 20
56.34311961469098
 30
0.0
 11
-25.49999999999999
 21
0.0000000000055381
 31
0.0
210
0.0
220
0.0
230
1.0
 40
0.2588190451025233
 41
5.911973359541337
 42
6.654397254817205
  0
LINE
  5
C9
330
2
100
AcDbEntity
  8
GEB-VERDECKT
 48
25.0
100
AcDbLine
 10
-23.76315425189318
 20
63.07301772154279
 30
0.0
 11
-23.76315425189296
 21
63.71455355128182
 31
0.0
  0
ELLIPSE
  5
CA
330
2
100
AcDbEntity
  8
GEB-VERDECKT
 48
25.0
100
AcDbEllipse
 10
0.000000000018872
 20
66.10862971847336
 30
0.0
 11
-25.49999999999999
 21
0.000000000005537
 31
0.0
210
0.0
220
0.0
230
1.0
 40
0.2588190451025232
 41
5.911973359541335
 42
6.654397254817205
  0
LINE
  5
CB
330
2
100
AcDbEntity
  8
GEB-VERDECKT
 48
25.0
100
AcDbLine
 10
-27.49999999997977
 20
58.7371957818973
 30
0.0
 11
-23.76315425188841
 21
58.73719578189639
 31
0.0
  0
LINE
  5
CC
330
2
100
AcDbEntity
  8
GEB-VERDECKT
 48
25.0
100
AcDbLine
 10
-23.76315425188636
 20
68.50270588567878
 30
0.0
 11
-23.76315425188727
 21
63.71455355128182
 31
0.0
  0
LINE
  5
CD
330
2
100
AcDbEntity
  8
GEB-VERDECKT
 48
25.0
100
AcDbLine
 10
-23.76315425188636
 20
68.50270588567878
 30
0.0
 11
-24.83319351188834
 21
68.50270588567901
 31
0.0
  0
LINE
  5
CE
330
2
100
AcDbEntity
  8
GEB-VERDECKT
 48
25.0
100
AcDbLine
 10
-24.83319351188834
 20
68.50270588567901
 30
0.0
 11
-24.83319351188788
 21
70.91752045140151
 31
0.0
  0
LINE
  5
CF
330
2
100
AcDbEntity
  8
GEB-VERDECKT
 48
25.0
100
AcDbLine
 10
-24.83319351188788
 20
70.91752045140151
 30
0.0
 11
-25.89763502713754
 21
70.9175204514022
 31
0.0
  0
LINE
  5
D0
330
2
100
AcDbEntity
  8
GEB-VERDECKT
 48
25.0
100
AcDbLine
 10
-25.89763502713117
 20
99.55040170660687
 30
0.0
 11
-25.89763502713026
 21
104.3385540410036
 31
0.0
  0
LINE
  5
D1
330
2
100
AcDbEntity
  8
GEB-VERDECKT
 48
25.0
100
AcDbLine
 10
-25.89763502713686
 20
99.55040170660687
 30
0.0
 11
-25.89763502713754
 21
97.14594904560408
 31
0.0
  0
LINE
  5
D2
330
2
100
AcDbEntity
  8
GEB-VERDECKT
 48
25.0
100
AcDbLine
 10
-27.49999999997681
 20
99.55040170660755
 30
0.0
 11
-25.89763502713686
 21
99.55040170660687
 31
0.0
  0
LINE
  5
D3
330
2
100
AcDbEntity
  8
GEB-VERDECKT
 48
25.0
100
AcDbLine
 10
-27.49999999996999
 20
104.338554041004
 30
0.0
 11
-27.49999999997681
 21
99.55040170660755
 31
0.0
  0
LINE
  5
D4
330
2
100
AcDbEntity
  8
GEB-VERDECKT
 48
25.0
100
AcDbLine
 10
-25.89763502713026
 20
104.3385540410036
 30
0.0
 11
-27.49999999996999
 21
104.338554041004
 31
0.0
  0
LINE
  5
D5
330
2
100
AcDbEntity
  8
GEB-KONTUR-A
 48
25.0
100
AcDbLine
 10
27.50000000002933
 20
114.2117358676607
 30
0.0
 11
27.50000000003002
 21
117.5924762596723
 31
0.0
  0
LINE
  5
D6
330
2
100
AcDbEntity
  8
GEB-KONTUR-A
 48
25.0
100
AcDbLine
 10
-27.49999999997044
 20
114.2117358676769
 30
0.0
 11
-27.49999999996999
 21
117.5924762596887
 31
0.0
  0
LINE
  5
D7
330
2
100
AcDbEntity
  8
GEB-KONTUR-A
 48
25.0
100
AcDbLine
 10
31.85000000002651
 20
101.9444778737881
 30
0.0
 11
31.85000000002924
 21
114.2117358676592
 31
0.0
  0
LINE
  5
D8
330
2
100
AcDbEntity
  8
GEB-KONTUR-A
 48
25.0
100
AcDbLine
 10
-31.84999999997331
 20
101.9444778738072
 30
0.0
 11
-31.84999999997058
 21
114.2117358676782
 31
0.0
  0
ELLIPSE
  5
D9
330
2
100
AcDbEntity
  8
GEB-KONTUR-A
 48
25.0
100
AcDbEllipse
 10
0.0000000000272848
 20
103.8763295263759
 30
0.0
 11
-29.85
 21
0.0000000000064801
 31
0.0
210
0.0
220
0.0
230
1.0
 40
0.2588190451025232
 41
4.442470286226022
 42
4.982307674542716
  0
ELLIPSE
  5
DA
330
2
100
AcDbEntity
  8
GEB-KONTUR-A
 48
25.0
100
AcDbEllipse
 10
0.0000000000288765
 20
112.2798842150905
 30
0.0
 11
-25.5
 21
0.0000000000048558
 31
0.0
210
0.0
220
0.0
230
1.0
 40
0.2588190451025232
 41
3.555812708648812
 42
5.86896525211497
  0
ELLIPSE
  5
DB
330
2
100
AcDbEntity
  8
GEB-KONTUR-A
 48
25.0
100
AcDbEllipse
 10
0.0000000000300133
 20
117.5924762596805
 30
0.0
 11
25.50000000000001
 21
-0.0000000000075618
 31
0.0
210
0.0
220
0.0
230
1.0
 40
0.2588190451025232
 41
0.0
 42
6.283185307179585
  0
ELLIPSE
  5
DC
330
2
100
AcDbEntity
  8
GEB-KONTUR-A
 48
25.0
100
AcDbEllipse
 10
0.0000000000300133
 20
117.5924762596805
 30
0.0
 11
27.50000000000001
 21
-0.0000000000081549
 31
0.0
210
0.0
220
0.0
230
1.0
 40
0.2588190451025233
 41
0.0
 42
6.283185307179585
  0
ELLIPSE
  5
DD
330
2
100
AcDbEntity
  8
GEB-KONTUR-A
 48
25.0
100
AcDbEllipse
 10
0.0000000000293312
 20
114.2117358676687
 30
0.0
 11
-27.5
 21
0.0000000000081562
 31
0.0
210
0.0
220
0.0
230
1.0
 40
0.2588190451025231
 41
0.0000000000085356
 42
3.141592653598328
  0
ELLIPSE
  5
DE
330
2
100
AcDbEntity
  8
GEB-KONTUR-A
 48
25.0
100
AcDbEllipse
 10
0.0000000000293312
 20
114.2117358676687
 30
0.0
 11
-31.85
 21
0.000000000006915
 31
0.0
210
0.0
220
0.0
230
1.0
 40
0.2588190451025232
 41
5.741782628789733
 42
9.96618063915862
  0
ELLIPSE
  5
DF
330
2
100
AcDbEntity
  8
GEB-KONTUR-A
 48
25.0
100
AcDbEllipse
 10
0.000000000018872
 20
66.10862971847336
 30
0.0
 11
-26.5
 21
0.0000000000057557
 31
0.0
210
0.0
220
0.0
230
1.0
 40
0.2588190451025232
 41
0.3565641975735096
 42
2.785028456015666
  0
ELLIPSE
  5
E0
330
2
100
AcDbEntity
  8
GEB-KONTUR-A
 48
25.0
100
AcDbEllipse
 10
0.0000000000195541
 20
68.52344428419588
 30
0.0
 11
-27.5
 21
0.0000000000059711
 31
0.0
210
0.0
220
0.0
230
1.0
 40
0.2588190451025232
 41
0.3430528650183537
 42
2.798539788570781
  0
ELLIPSE
  5
E1
330
2
100
AcDbEntity
  8
GEB-KONTUR-A
 48
25.0
100
AcDbEllipse
 10
0.0000000000266027
 20
101.9444778737975
 30
0.0
 11
-31.85
 21
0.0000000000094452
 31
0.0
210
0.0
220
0.0
230
1.0
 40
0.2588190451025232
 41
0.0000000000085563
 42
3.141592653598349
  0
LINE
  5
E2
330
2
100
AcDbEntity
  8
GEB-VERDECKT
 48
25.0
100
AcDbLine
 10
23.07500000001823
 20
63.21085223959926
 30
0.0
 11
23.07500000001915
 21
66.68796961152543
 31
0.0
  0
LINE
  5
E3
330
2
100
AcDbEntity
  8
GEB-VERDECKT
 48
25.0
100
AcDbLine
 10
-23.07499999998163
 20
63.2108522396129
 30
0.0
 11
-23.07499999998094
 21
66.6879696115393
 31
0.0
  0
LINE
  5
E4
330
2
100
AcDbEntity
  8
GEB-VERDECKT
 48
25.0
100
AcDbLine
 10
22.79720948643921
 20
65.76405940384052
 30
0.0
 11
25.19301590050623
 21
69.72406782133908
 31
0.0
  0
LINE
  5
E5
330
2
100
AcDbEntity
  8
GEB-VERDECKT
 48
25.0
100
AcDbLine
 10
-22.79720948640374
 20
65.76405940385393
 30
0.0
 11
-25.19301590046894
 21
69.72406782135431
 31
0.0
  0
LINE
  5
E6
330
2
100
AcDbEntity
  8
GEB-VERDECKT
 48
25.0
100
AcDbLine
 10
25.50000000002001
 20
70.74507368465311
 30
0.0
 11
25.50000000002706
 21
103.8763295263682
 31
0.0
  0
LINE
  5
E7
330
2
100
AcDbEntity
  8
GEB-VERDECKT
 48
25.0
100
AcDbLine
 10
-25.49999999997999
 20
70.74507368466811
 30
0.0
 11
-25.49999999997294
 21
103.8763295263832
 31
0.0
  0
LINE
  5
E8
330
2
100
AcDbEntity
  8
GEB-VERDECKT
 48
25.0
100
AcDbLine
 10
29.85000000002697
 20
103.8763295263668
 30
0.0
 11
29.85000000002924
 21
112.2798842150819
 31
0.0
  0
LINE
  5
E9
330
2
100
AcDbEntity
  8
GEB-VERDECKT
 48
25.0
100
AcDbLine
 10
-29.84999999997285
 20
103.8763295263848
 30
0.0
 11
-29.84999999997103
 21
112.2798842150994
 31
0.0
  0
LINE
  5
EA
330
2
100
AcDbEntity
  8
GEB-VERDECKT
 48
25.0
100
AcDbLine
 10
25.5000000000291
 20
112.279884215083
 30
0.0
 11
25.50000000003024
 21
117.5924762596728
 31
0.0
  0
LINE
  5
EB
330
2
100
AcDbEntity
  8
GEB-VERDECKT
 48
25.0
100
AcDbLine
 10
-25.49999999997112
 20
112.2798842150982
 30
0.0
 11
-25.49999999996976
 21
117.5924762596878
 31
0.0
  0
ELLIPSE
  5
EC
330
2
100
AcDbEntity
  8
GEB-VERDECKT
 48
25.0
100
AcDbEllipse
 10
0.000000000018872
 20
66.68796961153225
 30
0.0
 11
23.075
 21
-0.0000000000068427
 31
0.0
210
0.0
220
0.0
230
1.0
 40
0.2588190451025232
 41
0.0
 42
6.283185307179585
  0
ELLIPSE
  5
ED
330
2
100
AcDbEntity
  8
GEB-VERDECKT
 48
25.0
100
AcDbEllipse
 10
0.0000000000197815
 20
70.74507368466083
 30
0.0
 11
25.5
 21
-0.0000000000075618
 31
0.0
210
0.0
220
0.0
230
1.0
 40
0.2588190451025232
 41
0.0
 42
6.283185307179585
  0
ELLIPSE
  5
EE
330
2
100
AcDbEntity
  8
GEB-VERDECKT
 48
25.0
100
AcDbEllipse
 10
0.0000000000272848
 20
103.8763295263759
 30
0.0
 11
25.50000000000001
 21
-0.0000000000075618
 31
0.0
210
0.0
220
0.0
230
1.0
 40
0.2588190451025232
 41
0.0
 42
6.283185307179585
  0
ELLIPSE
  5
EF
330
2
100
AcDbEntity
  8
GEB-VERDECKT
 48
25.0
100
AcDbEllipse
 10
0.0000000000272848
 20
103.8763295263759
 30
0.0
 11
-29.85000000000001
 21
0.000000000006482
 31
0.0
210
0.0
220
0.0
230
1.0
 40
0.2588190451025232
 41
4.982307674542717
 42
10.72565559340562
  0
ELLIPSE
  5
F0
330
2
100
AcDbEntity
  8
GEB-VERDECKT
 48
25.0
100
AcDbEllipse
 10
0.0000000000288765
 20
112.2798842150905
 30
0.0
 11
29.85
 21
-0.0000000000088518
 31
0.0
210
0.0
220
0.0
230
1.0
 40
0.2588190451025232
 41
0.0
 42
6.283185307179585
  0
ELLIPSE
  5
F1
330
2
100
AcDbEntity
  8
GEB-VERDECKT
 48
25.0
100
AcDbEllipse
 10
0.0000000000288765
 20
112.2798842150905
 30
0.0
 11
-25.5
 21
0.0000000000055378
 31
0.0
210
0.0
220
0.0
230
1.0
 40
0.2588190451025232
 41
5.868965252117478
 42
9.838998015830904
  0
ELLIPSE
  5
F2
330
2
100
AcDbEntity
  8
GEB-VERDECKT
 48
25.0
100
AcDbEllipse
 10
0.0000000000293312
 20
114.2117358676687
 30
0.0
 11
27.5
 21
-0.0000000000081553
 31
0.0
210
0.0
220
0.0
230
1.0
 40
0.2588190451025231
 41
0.0000000000085338
 42
3.141592653598326
  0
ELLIPSE
  5
F3
330
2
100
AcDbEntity
  8
GEB-VERDECKT
 48
25.0
100
AcDbEllipse
 10
0.0000000000293312
 20
114.2117358676687
 30
0.0
 11
-31.85
 21
0.0000000000060629
 31
0.0
210
0.0
220
0.0
230
1.0
 40
0.2588190451025232
 41
3.682995331976883
 42
5.741782628787554
  0
ELLIPSE
  5
F4
330
2
100
AcDbEntity
  8
GEB-VERDECKT
 48
25.0
100
AcDbEllipse
 10
0.0000000000195541
 20
68.52344428419588
 30
0.0
 11
-26.5
 21
0.0000000000057557
 31
0.0
210
0.0
220
0.0
230
1.0
 40
0.2588190451025232
 41
0.3565641975735096
 42
2.785028456015666
  0
ELLIPSE
  5
F5
330
2
100
AcDbEntity
  8
GEB-VERDECKT
 48
25.0
100
AcDbEllipse
 10
0.000000000018872
 20
66.10862971847336
 30
0.0
 11
26.5
 21
-0.0000000000057537
 31
0.0
210
0.0
220
0.0
230
1.0
 40
0.2588190451025232
 41
0.3565641975735062
 42
2.785028456015663
  0
ELLIPSE
  5
F6
330
2
100
AcDbEntity
  8
GEB-VERDECKT
 48
25.0
100
AcDbEllipse
 10
0.0000000000195541
 20
68.52344428419588
 30
0.0
 11
26.5
 21
-0.0000000000057537
 31
0.0
210
0.0
220
0.0
230
1.0
 40
0.2588190451025232
 41
0.3565641975735062
 42
2.785028456015663
  0
ELLIPSE
  5
F7
330
2
100
AcDbEntity
  8
GEB-VERDECKT
 48
25.0
100
AcDbEllipse
 10
0.0000000000195541
 20
68.52344428419588
 30
0.0
 11
27.5
 21
-0.0000000000059713
 31
0.0
210
0.0
220
0.0
230
1.0
 40
0.2588190451025232
 41
0.3430528650183549
 42
2.798539788570824
  0
ELLIPSE
  5
F8
330
2
100
AcDbEntity
  8
GEB-VERDECKT
 48
25.0
100
AcDbEllipse
 10
0.0000000000266027
 20
101.9444778737975
 30
0.0
 11
-27.50000000000002
 21
0.0000000000059724
 31
0.0
210
0.0
220
0.0
230
1.0
 40
0.2588190451025233
 41
0.3430528650183564
 42
2.798539788570825
  0
ELLIPSE
  5
F9
330
2
100
AcDbEntity
  8
GEB-VERDECKT
 48
25.0
100
AcDbEllipse
 10
0.0000000000266027
 20
101.9444778737975
 30
0.0
 11
27.5
 21
-0.0000000000059713
 31
0.0
210
0.0
220
0.0
230
1.0
 40
0.2588190451025233
 41
0.3430528650183549
 42
2.798539788570824
  0
ELLIPSE
  5
FA
330
2
100
AcDbEntity
  8
GEB-VERDECKT
 48
25.0
100
AcDbEllipse
 10
0.0000000000266027
 20
101.9444778737975
 30
0.0
 11
31.85
 21
-0.0000000000094442
 31
0.0
210
0.0
220
0.0
230
1.0
 40
0.2588190451025232
 41
0.0000000000085545
 42
3.141592653598347
  0
LINE
  5
FB
330
2
100
AcDbEntity
  8
GEB-VERDECKT
 48
25.0
100
AcDbLine
 10
25.50000000001683
 20
56.34311961468324
 30
0.0
 11
25.50000000001887
 21
66.10862971846564
 31
0.0
  0
LINE
  5
FC
330
2
100
AcDbEntity
  8
GEB-VERDECKT
 48
25.0
100
AcDbLine
 10
27.50000000002319
 20
99.55040170659096
 30
0.0
 11
27.50000000003002
 21
104.3385540409879
 31
0.0
  0
LINE
  5
FD
330
2
100
AcDbEntity
  8
GEB-VERDECKT
 48
25.0
100
AcDbLine
 10
25.89763502718302
 20
70.91752045138673
 30
0.0
 11
24.83319351193359
 21
70.91752045138696
 31
0.0
  0
LINE
  5
FE
330
2
100
AcDbEntity
  8
GEB-VERDECKT
 48
25.0
100
AcDbLine
 10
24.83319351193359
 20
70.91752045138696
 30
0.0
 11
24.83319351193291
 21
68.50270588566423
 31
0.0
  0
LINE
  5
FF
330
2
100
AcDbEntity
  8
GEB-VERDECKT
 48
25.0
100
AcDbLine
 10
24.83319351193291
 20
68.50270588566423
 30
0.0
 11
23.76315425193093
 21
68.50270588566445
 31
0.0
  0
LINE
  5
100
330
2
100
AcDbEntity
  8
GEB-VERDECKT
 48
25.0
100
AcDbLine
 10
27.50000000003002
 20
104.3385540409879
 30
0.0
 11
25.89763502719052
 21
104.3385540409881
 31
0.0
  0
LINE
  5
101
330
2
100
AcDbEntity
  8
GEB-VERDECKT
 48
25.0
100
AcDbLine
 10
25.89763502719052
 20
104.3385540409881
 30
0.0
 11
25.89763502718938
 21
99.55040170659163
 31
0.0
  0
LINE
  5
102
330
2
100
AcDbEntity
  8
GEB-VERDECKT
 48
25.0
100
AcDbLine
 10
27.50000000002024
 20
58.73719578188093
 30
0.0
 11
23.76315425192865
 21
58.73719578188207
 31
0.0
  0
ELLIPSE
  5
103
330
2
100
AcDbEntity
  8
GEB-VERDECKT
 48
25.0
100
AcDbEllipse
 10
0.0000000000165983
 20
56.34311961469098
 30
0.0
 11
25.49999999999999
 21
-0.0000000000055381
 31
0.0
210
0.0
220
0.0
230
1.0
 40
0.2588190451025233
 41
5.911973359541337
 42
6.654397254817205
  0
LINE
  5
104
330
2
100
AcDbEntity
  8
GEB-VERDECKT
 48
25.0
100
AcDbLine
 10
23.76315425192979
 20
63.71455355126795
 30
0.0
 11
23.76315425193093
 21
68.50270588566445
 31
0.0
  0
ELLIPSE
  5
105
330
2
100
AcDbEntity
  8
GEB-VERDECKT
 48
25.0
100
AcDbEllipse
 10
0.000000000018872
 20
66.10862971847336
 30
0.0
 11
25.50000000000001
 21
-0.000000000005537
 31
0.0
210
0.0
220
0.0
230
1.0
 40
0.2588190451025232
 41
5.911973359541335
 42
6.6543972548172
  0
LINE
  5
106
330
2
100
AcDbEntity
  8
GEB-VERDECKT
 48
25.0
100
AcDbLine
 10
25.8976350271837
 20
99.55040170659163
 30
0.0
 11
27.50000000002319
 21
99.55040170659096
 31
0.0
  0
LINE
  5
107
330
2
100
AcDbEntity
  8
GEB-VERDECKT
 48
25.0
100
AcDbLine
 10
27.50000000002297
 20
97.78583888720596
 30
0.0
 11
27.50000000002319
 21
99.55040170659096
 31
0.0
  0
LINE
  5
108
330
2
100
AcDbEntity
  8
GEB-VERDECKT
 48
25.0
100
AcDbLine
 10
23.76315425192411
 20
63.71455355126795
 30
0.0
 11
23.76315425192411
 21
63.07301772152846
 31
0.0
  0
LINE
  5
109
330
2
100
AcDbEntity
  8
GEB-VERDECKT
 48
25.0
100
AcDbLine
 10
23.76315425192411
 20
63.71455355126795
 30
0.0
 11
24.83319351192609
 21
63.71455355126773
 31
0.0
  0
LINE
  5
10A
330
2
100
AcDbEntity
  8
GEB-VERDECKT
 48
25.0
100
AcDbLine
 10
24.83319351192654
 20
65.46584476950943
 30
0.0
 11
24.83319351192676
 21
66.12936811699
 31
0.0
  0
LINE
  5
10B
330
2
100
AcDbEntity
  8
GEB-VERDECKT
 48
25.0
100
AcDbLine
 10
24.83319351192676
 20
66.12936811699
 30
0.0
 11
25.8976350271762
 21
66.12936811698978
 31
0.0
  0
LINE
  5
10C
330
2
100
AcDbEntity
  8
GEB-VERDECKT
 48
25.0
100
AcDbLine
 10
25.89763502718302
 20
97.14594904558863
 30
0.0
 11
25.8976350271837
 21
99.55040170659163
 31
0.0
  0
LINE
  5
10D
330
2
100
AcDbEntity
  8
GEB-KONTUR-A
 48
25.0
100
AcDbLine
 10
27.50000000001342
 20
53.94904344748443
 30
0.0
 11
27.50000000002297
 21
97.78583888720596
 31
0.0
  0
LINE
  5
10E
330
2
100
AcDbEntity
  8
GEB-KONTUR-A
 48
25.0
100
AcDbLine
 10
27.50000000001342
 20
53.94904344748443
 30
0.0
 11
23.76315425192206
 21
53.94904344748557
 31
0.0
  0
LINE
  5
10F
330
2
100
AcDbEntity
  8
GEB-KONTUR-A
 48
25.0
100
AcDbLine
 10
23.76315425192411
 20
63.07301772152846
 30
0.0
 11
23.76315425192206
 21
53.94904344748557
 31
0.0
  0
LINE
  5
110
330
2
100
AcDbEntity
  8
GEB-KONTUR-A
 48
25.0
100
AcDbLine
 10
24.83319351192609
 20
63.71455355126773
 30
0.0
 11
24.83319351192654
 21
65.46584476950943
 31
0.0
  0
LINE
  5
111
330
2
100
AcDbEntity
  8
GEB-KONTUR-A
 48
25.0
100
AcDbLine
 10
25.8976350271762
 20
66.12936811698978
 30
0.0
 11
25.89763502718302
 21
97.14594904558863
 31
0.0
  0
LINE
  5
112
330
2
100
AcDbEntity
  8
GEB-VERDECKT
 48
25.0
100
AcDbLine
 10
-25.07499999998095
 20
66.10862971848064
 30
0.0
 11
-25.07499999998186
 21
63.21085223961358
 31
0.0
  0
LINE
  5
113
330
2
100
AcDbEntity
  8
GEB-VERDECKT
 48
25.0
100
AcDbLine
 10
25.07500000001892
 20
66.10862971846609
 30
0.0
 11
25.07500000001824
 21
63.21085223959858
 31
0.0
  0
ELLIPSE
  5
114
330
2
100
AcDbEntity
  8
GEB-VERDECKT
 48
25.0
100
AcDbEllipse
 10
0.0000000000184173
 20
63.21085223960608
 30
0.0
 11
23.075
 21
-0.0000000000068427
 31
0.0
210
0.0
220
0.0
230
1.0
 40
0.2588190451025232
 41
0.0
 42
6.283185307179585
  0
ELLIPSE
  5
115
330
2
100
AcDbEntity
  8
GEB-VERDECKT
 48
25.0
100
AcDbEllipse
 10
0.000000000018872
 20
66.10862971847336
 30
0.0
 11
25.075
 21
-0.0000000000074358
 31
0.0
210
0.0
220
0.0
230
1.0
 40
0.2588190451025232
 41
0.0
 42
6.283185307179585
  0
ELLIPSE
  5
116
330
2
100
AcDbEntity
  8
GEB-VERDECKT
 48
25.0
100
AcDbEllipse
 10
0.0000000000184173
 20
63.21085223960608
 30
0.0
 11
25.075
 21
-0.000000000005444
 31
0.0
210
0.0
220
0.0
230
1.0
 40
0.2588190451025233
 41
5.95828677378191
 42
9.749676494166417
  0
ELLIPSE
  5
117
330
2
100
AcDbEntity
  8
GEB-KONTUR-A
 48
25.0
100
AcDbEllipse
 10
0.0000000000184173
 20
63.21085223960608
 30
0.0
 11
-25.075
 21
0.0000000000054454
 31
0.0
210
0.0
220
0.0
230
1.0
 40
0.2588190451025232
 41
0.3248985333970396
 42
2.816694120192117
  0
LINE
  5
118
330
2
100
AcDbEntity
  8
GEB-KONTUR-A
 48
25.0
100
AcDbLine
 10
25.07500000001574
 20
53.19999999999254
 30
0.0
 11
25.07500000001596
 21
53.9490434474851
 31
0.0
  0
LINE
  5
119
330
2
100
AcDbEntity
  8
GEB-KONTUR-A
 48
25.0
100
AcDbLine
 10
-25.07499999998436
 20
53.20000000000755
 30
0.0
 11
-25.07499999998413
 21
53.94904344750012
 31
0.0
  0
LINE
  5
11A
330
2
100
AcDbEntity
  8
GEB-KONTUR-A
 48
25.0
100
AcDbLine
 10
25.07500000000096
 20
3.499999999992724
 30
0.0
 11
25.07500000001528
 21
51.7999999999929
 31
0.0
  0
LINE
  5
11B
330
2
100
AcDbEntity
  8
GEB-KONTUR-A
 48
25.0
100
AcDbLine
 10
-25.07499999999914
 20
3.500000000007503
 30
0.0
 11
-25.07499999998458
 21
51.80000000000745
 31
0.0
  0
LINE
  5
11C
330
2
100
AcDbEntity
  8
GEB-VERDECKT
 48
25.0
100
AcDbLine
 10
25.07500000001596
 20
53.9490434474851
 30
0.0
 11
25.07500000001596
 21
54.74999999999273
 31
0.0
  0
LINE
  5
11D
330
2
100
AcDbEntity
  8
GEB-VERDECKT
 48
25.0
100
AcDbLine
 10
-25.07499999998413
 20
53.94904344750012
 30
0.0
 11
-25.07499999998368
 21
54.75000000000751
 31
0.0
  0
LINE
  5
11E
330
2
100
AcDbEntity
  8
GEB-VERDECKT
 48
25.0
100
AcDbLine
 10
-25.07499999998208
 20
61.23988755595291
 30
0.0
 11
-25.07499999998368
 21
54.75000000000751
 31
0.0
  0
LINE
  5
11F
330
2
100
AcDbEntity
  8
GEB-VERDECKT
 48
25.0
100
AcDbLine
 10
25.07500000001596
 20
54.74999999999273
 30
0.0
 11
25.07500000001778
 21
61.23988755593837
 31
0.0
  0
LINE
  5
120
330
2
100
AcDbEntity
  8
GEB-VERDECKT
 48
25.0
100
AcDbLine
 10
25.07500000001778
 20
61.23988755593837
 30
0.0
 11
25.07500000001892
 21
66.06951668738384
 31
0.0
  0
LINE
  5
121
330
2
100
AcDbEntity
  8
GEB-VERDECKT
 48
25.0
100
AcDbLine
 10
-25.07499999998208
 20
61.23988755595338
 30
0.0
 11
-25.07499999998117
 21
66.06951668739839
 31
0.0
  0
LINE
  5
122
330
2
100
AcDbEntity
  8
GEB-VERDECKT
 48
25.0
100
AcDbLine
 10
23.07500000000004
 20
-0.0000000000068212
 30
0.0
 11
23.07500000001619
 21
54.74999999999318
 31
0.0
  0
LINE
  5
123
330
2
100
AcDbEntity
  8
GEB-VERDECKT
 48
25.0
100
AcDbLine
 10
-23.07500000000004
 20
0.0000000000068212
 30
0.0
 11
-23.0749999999839
 21
54.75000000000682
 31
0.0
  0
LINE
  5
124
330
2
100
AcDbEntity
  8
GEB-VERDECKT
 48
25.0
100
AcDbLine
 10
-23.07499999998231
 20
61.23988755595246
 30
0.0
 11
-23.0749999999839
 21
54.75000000000682
 31
0.0
  0
LINE
  5
125
330
2
100
AcDbEntity
  8
GEB-VERDECKT
 48
25.0
100
AcDbLine
 10
23.07500000001619
 20
54.74999999999318
 30
0.0
 11
23.07500000001778
 21
61.23988755593882
 31
0.0
  0
LINE
  5
126
330
2
100
AcDbEntity
  8
GEB-VERDECKT
 48
25.0
100
AcDbLine
 10
23.07500000001778
 20
61.23988755593905
 30
0.0
 11
23.07500000001915
 21
66.06951668738429
 31
0.0
  0
LINE
  5
127
330
2
100
AcDbEntity
  8
GEB-VERDECKT
 48
25.0
100
AcDbLine
 10
-23.07499999998231
 20
61.23988755595269
 30
0.0
 11
-23.07499999998094
 21
66.06951668739793
 31
0.0
  0
ELLIPSE
  5
128
330
2
100
AcDbEntity
  8
GEB-VERDECKT
 48
25.0
100
AcDbEllipse
 10
0.000000000018872
 20
66.06951668739111
 30
0.0
 11
-25.075
 21
0.0000000000074366
 31
0.0
210
0.0
220
0.0
230
1.0
 40
0.2588190451025209
 41
0.0
 42
6.283185307179585
  0
ELLIPSE
  5
129
330
2
100
AcDbEntity
  8
GEB-VERDECKT
 48
25.0
100
AcDbEllipse
 10
0.000000000018872
 20
66.06951668739111
 30
0.0
 11
-23.075
 21
0.0000000000068434
 31
0.0
210
0.0
220
0.0
230
1.0
 40
0.2588190451025219
 41
0.0
 42
6.283185307179585
  0
ARC
  5
12A
330
2
100
AcDbEntity
  8
GEB-KONTUR-A
 48
25.0
100
AcDbCircle
 10
25.07500000001596
 20
54.73124999999254
 30
0.0
 40
2.931249999999984
100
AcDbArc
 50
269.999999999987
 51
304.2054579380864
  0
ARC
  5
12B
330
2
100
AcDbEntity
  8
GEB-KONTUR-A
 48
25.0
100
AcDbCircle
 10
-25.07499999998368
 20
54.73125000000755
 30
0.0
 40
2.931249999999984
100
AcDbArc
 50
235.7945420618774
 51
269.999999999987
  0
ARC
  5
12C
330
2
100
AcDbEntity
  8
GEB-KONTUR-A
 48
25.0
100
AcDbCircle
 10
26.59166666668216
 20
52.49999999999227
 30
0.0
 40
0.2333333333333331
100
AcDbArc
 50
304.2054579380937
 51
55.79454206186667
  0
ARC
  5
12D
330
2
100
AcDbEntity
  8
GEB-KONTUR-A
 48
25.0
100
AcDbCircle
 10
-26.59166666665101
 20
52.50000000000818
 30
0.0
 40
0.2333333333333331
100
AcDbArc
 50
124.2054579380937
 51
235.7945420618666
  0
ARC
  5
12E
330
2
100
AcDbEntity
  8
GEB-KONTUR-A
 48
25.0
100
AcDbCircle
 10
25.07500000001505
 20
50.26874999999268
 30
0.0
 40
2.931250000000018
100
AcDbArc
 50
55.79454206187744
 51
89.99999999998697
  0
ARC
  5
12F
330
2
100
AcDbEntity
  8
GEB-KONTUR-A
 48
25.0
100
AcDbCircle
 10
-25.07499999998527
 20
50.26875000000746
 30
0.0
 40
2.931250000000018
100
AcDbArc
 50
89.99999999998697
 51
124.2054579380863
  0
LINE
  5
130
330
2
100
AcDbEntity
  8
GEB-KONTUR-A
 48
25.0
100
AcDbLine
 10
25.07500000001574
 20
53.19999999999254
 30
0.0
 11
-25.07499999998413
 21
53.20000000000755
 31
0.0
  0
LINE
  5
131
330
2
100
AcDbEntity
  8
GEB-KONTUR-A
 48
25.0
100
AcDbLine
 10
-25.07499999998458
 20
51.80000000000745
 30
0.0
 11
25.07500000001528
 21
51.7999999999929
 31
0.0
  0
LINE
  5
132
330
2
100
AcDbEntity
  8
GEB-KONTUR-A
 48
25.0
100
AcDbLine
 10
24.00494261489462
 20
-0.0000000000070486
 30
0.0
 11
25.07500000000096
 21
3.499999999992724
 31
0.0
  0
LINE
  5
133
330
2
100
AcDbEntity
  8
GEB-KONTUR-A
 48
25.0
100
AcDbLine
 10
-24.00494261489462
 20
0.000000000007276
 30
0.0
 11
-25.07499999999914
 21
3.500000000007503
 31
0.0
  0
LINE
  5
134
330
2
100
AcDbEntity
  8
GEB-KONTUR-A
 48
25.0
100
AcDbLine
 10
24.00494261489462
 20
-0.0000000000070486
 30
0.0
 11
-24.00494261489462
 21
0.000000000007276
 31
0.0
  0
LINE
  5
135
330
2
100
AcDbEntity
  8
GEB-KONTUR-A
 48
25.0
100
AcDbLine
 10
-25.07499999999891
 20
3.500000000007503
 30
0.0
 11
25.07500000000096
 21
3.499999999992724
 31
0.0
  0
TEXT
  5
136
330
2
100
AcDbEntity
  8
GEB-TEXT
100
AcDbText
 10
-25.68417462480059
 20
-13.0
 30
0.0
 40
3.5
  1
Bogen PP-MD 15G d50
 72
     1
 11
0.0000000000288765
 21
-13.0
 31
0.0
100
AcDbText
  0
TEXT
  5
138
330
2
100
AcDbEntity
  8
GEB-TEXT
100
AcDbText
 10
-18.75221691675148
 20
-7.5
 30
0.0
 40
3.5
  1
Geberit Silent PP
 72
     1
 11
0.0000000000288765
 21
-7.5
 31
0.0
100
AcDbText
  0
TEXT
  5
139
330
2
100
AcDbEntity
  8
GEB-ART-NR
100
AcDbText
 10
-24.17544479961684
 20
-19.34278125428045
 30
0.0
 40
3.5
  1
GEB-ART-NR 390.220
 72
     1
 11
0.5525565646396445
 21
-19.34278125428045
 31
0.0
100
AcDbText
  0
ENDSEC
  0
SECTION
  2
OBJECTS
  0
DICTIONARY
  5
9
330
0
100
AcDbDictionary
281
     1
  3
ACAD_2007HEADERVARS_RT
350
168
  3
ACAD_COLOR
350
44
  3
ACAD_GROUP
350
31
  3
ACAD_LAYOUT
350
16
  3
ACAD_MATERIAL
350
B
  3
ACAD_MLEADERSTYLE
350
47
  3
ACAD_MLINESTYLE
350
32
  3
ACAD_PLOTSETTINGS
350
33
  3
ACAD_PLOTSTYLENAME
350
8
  3
ACAD_SCALELIST
350
45
  3
ACAD_TABLESTYLE
350
46
  3
ACAD_VISUALSTYLE
350
2B
  3
ACDB_RECOMPOSE_DATA
350
167
  3
AcDbVariableDictionary
350
13D
  0
DICTIONARY
  5
2C
330
28
100
AcDbDictionary
280
     1
281
     1
  0
DICTIONARY
  5
1C
330
1B
100
AcDbDictionary
280
     1
281
     1
  3
ACAD_LAYERFILTERS
360
1D
  3
ACLYDICTIONARY
360
1E
  0
DICTIONARY
  5
3
330
2
100
AcDbDictionary
280
     1
281
     1
  3
ACAD_SORTENTS
360
13B
  0
DICTIONARY
  5
168
102
{ACAD_REACTORS
330
9
102
}
330
9
100
AcDbDictionary
281
     1
  3
DIMARCSYM
350
169
  3
DIMLTEX1
350
16B
  3
DIMLTEX2
350
16C
  3
DIMLTYPE
350
16A
  0
DICTIONARY
  5
44
102
{ACAD_REACTORS
330
9
102
}
330
9
100
AcDbDictionary
281
     1
  0
DICTIONARY
  5
31
102
{ACAD_REACTORS
330
9
102
}
330
9
100
AcDbDictionary
281
     1
  0
DICTIONARY
  5
16
102
{ACAD_REACTORS
330
9
102
}
330
9
100
AcDbDictionary
281
     1
  3
Layout1
350
1A
  3
Model
350
15
  0
DICTIONARY
  5
B
102
{ACAD_REACTORS
330
9
102
}
330
9
100
AcDbDictionary
281
     1
  3
ByBlock
350
3C
  3
ByLayer
350
34
  3
Global
350
A
  0
DICTIONARY
  5
47
102
{ACAD_REACTORS
330
9
102
}
330
9
100
AcDbDictionary
281
     1
  3
Standard
350
15B
  0
DICTIONARY
  5
32
102
{ACAD_REACTORS
330
9
102
}
330
9
100
AcDbDictionary
281
     1
  3
Standard
350
48
  0
DICTIONARY
  5
33
102
{ACAD_REACTORS
330
9
102
}
330
9
100
AcDbDictionary
281
     1
  0
ACDBDICTIONARYWDFLT
  5
8
102
{ACAD_REACTORS
330
9
102
}
330
9
100
AcDbDictionary
281
     1
  3
Normal
350
7
100
AcDbDictionaryWithDefault
340
7
  0
DICTIONARY
  5
45
102
{ACAD_REACTORS
330
9
102
}
330
9
100
AcDbDictionary
281
     1
  3
A0
350
4D
  3
A1
350
4E
  3
A2
350
4F
  3
A3
350
50
  3
A4
350
51
  3
A5
350
52
  3
A6
350
53
  3
A7
350
54
  3
A8
350
55
  3
A9
350
56
  3
B0
350
57
  3
B1
350
58
  3
B2
350
59
  3
B3
350
5A
  3
B4
350
5B
  3
B5
350
5C
  3
B6
350
5D
  3
B7
350
5E
  3
B8
350
5F
  3
B9
350
60
  3
C0
350
61
  3
C1
350
62
  3
C2
350
63
  3
C3
350
64
  3
C4
350
65
  3
C5
350
66
  3
C6
350
67
  3
C7
350
68
  3
C8
350
69
  3
C9
350
6A
  3
D0
350
6B
  3
D1
350
6C
  3
D2
350
6D
  0
DICTIONARY
  5
46
102
{ACAD_REACTORS
330
9
102
}
330
9
100
AcDbDictionary
281
     1
  3
Standard
350
49
  0
DICTIONARY
  5
2B
102
{ACAD_REACTORS
330
9
102
}
330
9
100
AcDbDictionary
281
     1
  3
2dWireframe
350
2A
  3
Basic
350
14A
  3
Brighten
350
14E
  3
ColorChange
350
152
  3
Conceptual
350
14C
  3
Dim
350
14D
  3
EdgeColorOff
350
15A
  3
Facepattern
350
151
  3
Flat
350
146
  3
FlatWithEdges
350
147
  3
Gouraud
350
148
  3
GouraudWithEdges
350
149
  3
Hidden
350
14B
  3
JitterOff
350
158
  3
Linepattern
350
150
  3
OverhangOff
350
159
  3
Realistic
350
4B
  3
Shaded
350
157
  3
Shaded with edges
350
156
  3
Shades of Gray
350
153
  3
Sketchy
350
154
  3
Thicken
350
14F
  3
Wireframe
350
4C
  3
X-Ray
350
155
  0
XRECORD
  5
167
102
{ACAD_REACTORS
330
9
102
}
330
9
100
AcDbXrecord
280
     1
 90
        1
330
49
  0
DICTIONARY
  5
13D
102
{ACAD_REACTORS
330
9
102
}
330
9
100
AcDbDictionary
281
     1
  3
CANNOSCALE
350
141
  3
CMLEADERSTYLE
350
13F
  3
CTABLESTYLE
350
13E
  3
DIMASSOC
350
164
  3
HIDETEXT
350
163
  3
INDEXCTL
350
162
  3
LAYEREVAL
350
143
  3
LAYERNOTIFY
350
144
  3
LIGHTINGUNITS
350
142
  3
MSLTSCALE
350
140
  3
SORTENTS
350
161
  3
XCLIPFRAME
350
165
  0
DICTIONARY
  5
1D
102
{ACAD_REACTORS
330
1C
102
}
330
1C
100
AcDbDictionary
281
     1
  0
DICTIONARY
  5
1E
102
{ACAD_REACTORS
330
1C
102
}
330
1C
100
AcDbDictionary
281
     1
1001
ACAD
1000
<All
  0
SORTENTSTABLE
  5
13B
102
{ACAD_REACTORS
330
3
102
}
330
3
100
AcDbSortentsTable
330
2
331
F5
  5
BA
331
BE
  5
F1
331
7F
  5
12F
331
134
  5
75
331
C6
  5
E9
331
87
  5
127
331
FD
  5
B2
331
CE
  5
E1
331
8F
  5
11F
331
105
  5
AA
331
10D
  5
A2
331
97
  5
117
331
D6
  5
D9
331
115
  5
99
331
DE
  5
D1
331
9F
  5
10F
331
E6
  5
C9
331
A7
  5
108
331
11D
  5
91
331
EE
  5
C1
331
AF
  5
100
331
125
  5
89
331
B7
  5
F8
331
12D
  5
81
331
6E
  5
135
331
135
  5
6E
331
F6
  5
B9
331
80
  5
12E
331
BF
  5
F0
331
FE
  5
B1
331
88
  5
126
331
C7
  5
E8
331
106
  5
A9
331
CF
  5
E0
331
90
  5
11E
331
D7
  5
D8
331
10E
  5
A1
331
98
  5
116
331
DF
  5
D0
331
116
  5
98
331
11E
  5
90
331
A8
  5
107
331
E7
  5
C8
331
126
  5
88
331
EF
  5
C0
331
B0
  5
FF
331
12E
  5
80
331
79
  5
133
331
B8
  5
F7
331
F7
  5
B8
331
C0
  5
EF
331
81
  5
12D
331
136
  5
139
331
C8
  5
E7
331
89
  5
125
331
FF
  5
B0
331
107
  5
A8
331
91
  5
11D
331
D0
  5
DF
331
10F
  5
9F
331
99
  5
115
331
D8
  5
D7
331
117
  5
97
331
E0
  5
CF
331
A1
  5
10E
331
E8
  5
C7
331
A9
  5
106
331
11F
  5
8F
331
B1
  5
FE
331
127
  5
87
331
12F
  5
7F
331
B9
  5
F6
331
7A
  5
132
331
F0
  5
BF
331
F8
  5
B7
331
82
  5
12C
331
C1
  5
EE
331
100
  5
AF
331
8A
  5
124
331
C9
  5
E6
331
108
  5
A7
331
D1
  5
DE
331
92
  5
11C
331
D9
  5
D6
331
9A
  5
114
331
110
  5
9E
331
118
  5
96
331
A2
  5
10D
331
E1
  5
CE
331
120
  5
8E
331
AA
  5
105
331
E9
  5
C6
331
128
  5
86
331
B2
  5
FD
331
F1
  5
BE
331
BA
  5
F5
331
7B
  5
131
331
130
  5
7E
331
F9
  5
B6
331
C2
  5
ED
331
83
  5
12B
331
CA
  5
E5
331
8B
  5
123
331
101
  5
AE
331
109
  5
A6
331
93
  5
11B
331
D2
  5
DD
331
111
  5
9D
331
9B
  5
113
331
DA
  5
D5
331
119
  5
95
331
E2
  5
CD
331
A3
  5
10C
331
EA
  5
C5
331
AB
  5
104
331
121
  5
8D
331
B3
  5
FC
331
129
  5
85
331
131
  5
7B
331
BB
  5
F4
331
F2
  5
BD
331
139
  5
136
331
FA
  5
B5
331
84
  5
12A
331
C3
  5
EC
331
102
  5
AD
331
CB
  5
E4
331
8C
  5
122
331
10A
  5
A5
331
D3
  5
DC
331
94
  5
11A
331
DB
  5
D4
331
9C
  5
112
331
112
  5
9C
331
11A
  5
94
331
A4
  5
10B
331
E3
  5
CC
331
122
  5
8C
331
AC
  5
103
331
EB
  5
C4
331
12A
  5
84
331
B4
  5
FB
331
F3
  5
BC
331
BC
  5
F3
331
132
  5
7A
331
C4
  5
EB
331
85
  5
129
331
FB
  5
B4
331
CC
  5
E3
331
8D
  5
121
331
103
  5
AC
331
10B
  5
A4
331
95
  5
119
331
D4
  5
DB
331
113
  5
9B
331
DC
  5
D3
331
9D
  5
111
331
11B
  5
93
331
E4
  5
CB
331
A5
  5
10A
331
EC
  5
C3
331
AD
  5
102
331
123
  5
8B
331
B5
  5
FA
331
12B
  5
83
331
133
  5
79
331
BD
  5
F2
331
7E
  5
130
331
F4
  5
BB
331
FC
  5
B3
331
86
  5
128
331
C5
  5
EA
331
104
  5
AB
331
CD
  5
E2
331
8E
  5
120
331
D5
  5
DA
331
96
  5
118
331
10C
  5
A3
331
DD
  5
D2
331
9E
  5
110
331
114
  5
9A
331
11C
  5
92
331
A6
  5
109
331
E5
  5
CA
331
124
  5
8A
331
ED
  5
C2
331
AE
  5
101
331
12C
  5
82
331
B6
  5
F9
331
75
  5
134
  0
XRECORD
  5
169
102
{ACAD_REACTORS
330
168
102
}
330
168
100
AcDbXrecord
280
     1
 70
     1
  0
XRECORD
  5
16B
102
{ACAD_REACTORS
330
168
102
}
330
168
100
AcDbXrecord
280
     1
340
24
  0
XRECORD
  5
16C
102
{ACAD_REACTORS
330
168
102
}
330
168
100
AcDbXrecord
280
     1
340
24
  0
XRECORD
  5
16A
102
{ACAD_REACTORS
330
168
102
}
330
168
100
AcDbXrecord
280
     1
340
24
  0
LAYOUT
  5
1A
102
{ACAD_XDICTIONARY
360
170
102
}
102
{ACAD_REACTORS
330
16
102
}
330
16
100
AcDbPlotSettings
  1

  2
\\le-server\HP LaserJet 2100
  4

  6

 40
0.0
 41
0.0
 42
0.0
 43
0.0
 44
0.0
 45
0.0
 46
0.0
 47
0.0
 48
0.0
 49
0.0
140
0.0
141
0.0
142
1.0
143
1.0
 70
   688
 72
     0
 73
     0
 74
     5
  7

 75
    16
147
1.0
148
0.0
149
0.0
100
AcDbLayout
  1
Layout1
 70
     1
 71
     1
 10
0.0
 20
0.0
 11
1189.0
 21
840.9999999999998
 12
0.0
 22
0.0
 32
0.0
 14
0.0
 24
0.0
 34
0.0
 15
1189.0
 25
840.9999999999998
 35
0.0
146
0.0
 13
0.0
 23
0.0
 33
0.0
 16
1.0
 26
0.0
 36
0.0
 17
0.0
 27
1.0
 37
0.0
 76
     0
330
17
  0
LAYOUT
  5
15
102
{ACAD_XDICTIONARY
360
16E
102
}
102
{ACAD_REACTORS
330
16
102
}
330
16
100
AcDbPlotSettings
  1

  2
\\le-server\HP LaserJet 2100
  4

  6

 40
0.0
 41
0.0
 42
0.0
 43
0.0
 44
0.0
 45
0.0
 46
0.0
 47
0.0
 48
0.0
 49
0.0
140
0.0
141
0.0
142
1.0
143
1.0
 70
  1712
 72
     0
 73
     0
 74
     0
  7

 75
     0
147
1.0
148
0.0
149
0.0
100
AcDbLayout
  1
Model
 70
     1
 71
     0
 10
0.0
 20
0.0
 11
12.0
 21
9.0
 12
0.0
 22
0.0
 32
0.0
 14
0.0
 24
0.0
 34
0.0
 15
0.0
 25
0.0
 35
0.0
146
0.0
 13
0.0
 23
0.0
 33
0.0
 16
1.0
 26
0.0
 36
0.0
 17
0.0
 27
1.0
 37
0.0
 76
     0
330
2
331
29
  0
MATERIAL
  5
3C
102
{ACAD_XDICTIONARY
360
3D
102
}
102
{ACAD_REACTORS
330
B
102
}
330
B
100
AcDbMaterial
  1
ByBlock
 72
     0
 43
0.0208333333333333
 43
0.0
 43
0.0
 43
0.0
 43
0.0
 43
0.0208333333333333
 43
0.0
 43
0.0
 43
0.0
 43
0.0
 43
1.0
 43
0.0
 43
0.0
 43
0.0
 43
0.0
 43
1.0
 77
     0
 47
0.0208333333333333
 47
0.0
 47
0.0
 47
0.0
 47
0.0
 47
0.0208333333333333
 47
0.0
 47
0.0
 47
0.0
 47
0.0
 47
1.0
 47
0.0
 47
0.0
 47
0.0
 47
0.0
 47
1.0
171
     0
 49
0.0208333333333333
 49
0.0
 49
0.0
 49
0.0
 49
0.0
 49
0.0208333333333333
 49
0.0
 49
0.0
 49
0.0
 49
0.0
 49
1.0
 49
0.0
 49
0.0
 49
0.0
 49
0.0
 49
1.0
175
     0
142
0.0208333333333333
142
0.0
142
0.0
142
0.0
142
0.0
142
0.0208333333333333
142
0.0
142
0.0
142
0.0
142
0.0
142
1.0
142
0.0
142
0.0
142
0.0
142
0.0
142
1.0
179
     0
144
0.0208333333333333
144
0.0
144
0.0
144
0.0
144
0.0
144
0.0208333333333333
144
0.0
144
0.0
144
0.0
144
0.0
144
1.0
144
0.0
144
0.0
144
0.0
144
0.0
144
1.0
147
0.0208333333333333
147
0.0
147
0.0
147
0.0
147
0.0
147
0.0208333333333333
147
0.0
147
0.0
147
0.0
147
0.0
147
1.0
147
0.0
147
0.0
147
0.0
147
0.0
147
1.0
  0
MATERIAL
  5
34
102
{ACAD_XDICTIONARY
360
35
102
}
102
{ACAD_REACTORS
330
B
102
}
330
B
100
AcDbMaterial
  1
ByLayer
 72
     0
 43
0.0208333333333333
 43
0.0
 43
0.0
 43
0.0
 43
0.0
 43
0.0208333333333333
 43
0.0
 43
0.0
 43
0.0
 43
0.0
 43
1.0
 43
0.0
 43
0.0
 43
0.0
 43
0.0
 43
1.0
 77
     0
 47
0.0208333333333333
 47
0.0
 47
0.0
 47
0.0
 47
0.0
 47
0.0208333333333333
 47
0.0
 47
0.0
 47
0.0
 47
0.0
 47
1.0
 47
0.0
 47
0.0
 47
0.0
 47
0.0
 47
1.0
171
     0
 49
0.0208333333333333
 49
0.0
 49
0.0
 49
0.0
 49
0.0
 49
0.0208333333333333
 49
0.0
 49
0.0
 49
0.0
 49
0.0
 49
1.0
 49
0.0
 49
0.0
 49
0.0
 49
0.0
 49
1.0
175
     0
142
0.0208333333333333
142
0.0
142
0.0
142
0.0
142
0.0
142
0.0208333333333333
142
0.0
142
0.0
142
0.0
142
0.0
142
1.0
142
0.0
142
0.0
142
0.0
142
0.0
142
1.0
179
     0
144
0.0208333333333333
144
0.0
144
0.0
144
0.0
144
0.0
144
0.0208333333333333
144
0.0
144
0.0
144
0.0
144
0.0
144
1.0
144
0.0
144
0.0
144
0.0
144
0.0
144
1.0
147
0.0208333333333333
147
0.0
147
0.0
147
0.0
147
0.0
147
0.0208333333333333
147
0.0
147
0.0
147
0.0
147
0.0
147
1.0
147
0.0
147
0.0
147
0.0
147
0.0
147
1.0
  0
MATERIAL
  5
A
102
{ACAD_XDICTIONARY
360
C
102
}
102
{ACAD_REACTORS
330
B
102
}
330
B
100
AcDbMaterial
  1
Global
 72
     0
 43
0.0208333333333333
 43
0.0
 43
0.0
 43
0.0
 43
0.0
 43
0.0208333333333333
 43
0.0
 43
0.0
 43
0.0
 43
0.0
 43
1.0
 43
0.0
 43
0.0
 43
0.0
 43
0.0
 43
1.0
 77
     0
 47
0.0208333333333333
 47
0.0
 47
0.0
 47
0.0
 47
0.0
 47
0.0208333333333333
 47
0.0
 47
0.0
 47
0.0
 47
0.0
 47
1.0
 47
0.0
 47
0.0
 47
0.0
 47
0.0
 47
1.0
171
     0
 49
0.0208333333333333
 49
0.0
 49
0.0
 49
0.0
 49
0.0
 49
0.0208333333333333
 49
0.0
 49
0.0
 49
0.0
 49
0.0
 49
1.0
 49
0.0
 49
0.0
 49
0.0
 49
0.0
 49
1.0
175
     0
142
0.0208333333333333
142
0.0
142
0.0
142
0.0
142
0.0
142
0.0208333333333333
142
0.0
142
0.0
142
0.0
142
0.0
142
1.0
142
0.0
142
0.0
142
0.0
142
0.0
142
1.0
179
     0
144
0.0208333333333333
144
0.0
144
0.0
144
0.0
144
0.0
144
0.0208333333333333
144
0.0
144
0.0
144
0.0
144
0.0
144
1.0
144
0.0
144
0.0
144
0.0
144
0.0
144
1.0
147
0.0208333333333333
147
0.0
147
0.0
147
0.0
147
0.0
147
0.0208333333333333
147
0.0
147
0.0
147
0.0
147
0.0
147
1.0
147
0.0
147
0.0
147
0.0
147
0.0
147
1.0
  0
MLEADERSTYLE
  5
15B
102
{ACAD_REACTORS
330
47
102
}
330
47
100
AcDbMLeaderStyle
170
     2
171
     1
172
     0
 90
        2
 40
0.0
 41
0.0
173
     1
 91
-1056964608
340
24
 92
       -2
290
     1
 42
2.0
291
     1
 43
0.36
  3
Standard
 44
4.0
300

342
21
174
     1
178
     6
175
     1
176
     0
 93
-1056964608
 45
4.0
292
     0
297
     0
 46
4.0
 94
-1056964608
 47
1.0
 49
1.0
140
1.0
293
     1
141
0.0
294
     1
177
     0
142
1.0
295
     0
296
     0
143
0.125
1001
ACAD_MLEADERVER
1070
     2
  0
MLINESTYLE
  5
48
102
{ACAD_REACTORS
330
32
102
}
330
32
100
AcDbMlineStyle
  2
STANDARD
 70
     0
  3

 62
   256
 51
90.0
 52
90.0
 71
     2
 49
0.5
 62
   256
  6
BYLAYER
 49
-0.5
 62
   256
  6
BYLAYER
  0
ACDBPLACEHOLDER
  5
7
102
{ACAD_REACTORS
330
8
102
}
330
8
  0
SCALE
  5
4D
102
{ACAD_REACTORS
330
45
102
}
330
45
100
AcDbScale
 70
     0
300
1:1
140
1.0
141
1.0
290
     1
  0
SCALE
  5
4E
102
{ACAD_REACTORS
330
45
102
}
330
45
100
AcDbScale
 70
     0
300
1:2
140
1.0
141
2.0
290
     0
  0
SCALE
  5
4F
102
{ACAD_REACTORS
330
45
102
}
330
45
100
AcDbScale
 70
     0
300
1:4
140
1.0
141
4.0
290
     0
  0
SCALE
  5
50
102
{ACAD_REACTORS
330
45
102
}
330
45
100
AcDbScale
 70
     0
300
1:5
140
1.0
141
5.0
290
     0
  0
SCALE
  5
51
102
{ACAD_REACTORS
330
45
102
}
330
45
100
AcDbScale
 70
     0
300
1:8
140
1.0
141
8.0
290
     0
  0
SCALE
  5
52
102
{ACAD_REACTORS
330
45
102
}
330
45
100
AcDbScale
 70
     0
300
1:10
140
1.0
141
10.0
290
     0
  0
SCALE
  5
53
102
{ACAD_REACTORS
330
45
102
}
330
45
100
AcDbScale
 70
     0
300
1:16
140
1.0
141
16.0
290
     0
  0
SCALE
  5
54
102
{ACAD_REACTORS
330
45
102
}
330
45
100
AcDbScale
 70
     0
300
1:20
140
1.0
141
20.0
290
     0
  0
SCALE
  5
55
102
{ACAD_REACTORS
330
45
102
}
330
45
100
AcDbScale
 70
     0
300
1:30
140
1.0
141
30.0
290
     0
  0
SCALE
  5
56
102
{ACAD_REACTORS
330
45
102
}
330
45
100
AcDbScale
 70
     0
300
1:40
140
1.0
141
40.0
290
     0
  0
SCALE
  5
57
102
{ACAD_REACTORS
330
45
102
}
330
45
100
AcDbScale
 70
     0
300
1:50
140
1.0
141
50.0
290
     0
  0
SCALE
  5
58
102
{ACAD_REACTORS
330
45
102
}
330
45
100
AcDbScale
 70
     0
300
1:100
140
1.0
141
100.0
290
     0
  0
SCALE
  5
59
102
{ACAD_REACTORS
330
45
102
}
330
45
100
AcDbScale
 70
     0
300
2:1
140
2.0
141
1.0
290
     0
  0
SCALE
  5
5A
102
{ACAD_REACTORS
330
45
102
}
330
45
100
AcDbScale
 70
     0
300
4:1
140
4.0
141
1.0
290
     0
  0
SCALE
  5
5B
102
{ACAD_REACTORS
330
45
102
}
330
45
100
AcDbScale
 70
     0
300
8:1
140
8.0
141
1.0
290
     0
  0
SCALE
  5
5C
102
{ACAD_REACTORS
330
45
102
}
330
45
100
AcDbScale
 70
     0
300
10:1
140
10.0
141
1.0
290
     0
  0
SCALE
  5
5D
102
{ACAD_REACTORS
330
45
102
}
330
45
100
AcDbScale
 70
     0
300
100:1
140
100.0
141
1.0
290
     0
  0
SCALE
  5
5E
102
{ACAD_REACTORS
330
45
102
}
330
45
100
AcDbScale
 70
     0
300
1/128" = 1'-0"
140
0.0078125
141
12.0
290
     0
  0
SCALE
  5
5F
102
{ACAD_REACTORS
330
45
102
}
330
45
100
AcDbScale
 70
     0
300
1/64" = 1'-0"
140
0.015625
141
12.0
290
     0
  0
SCALE
  5
60
102
{ACAD_REACTORS
330
45
102
}
330
45
100
AcDbScale
 70
     0
300
1/32" = 1'-0"
140
0.03125
141
12.0
290
     0
  0
SCALE
  5
61
102
{ACAD_REACTORS
330
45
102
}
330
45
100
AcDbScale
 70
     0
300
1/16" = 1'-0"
140
0.0625
141
12.0
290
     0
  0
SCALE
  5
62
102
{ACAD_REACTORS
330
45
102
}
330
45
100
AcDbScale
 70
     0
300
3/32" = 1'-0"
140
0.09375
141
12.0
290
     0
  0
SCALE
  5
63
102
{ACAD_REACTORS
330
45
102
}
330
45
100
AcDbScale
 70
     0
300
1/8" = 1'-0"
140
0.125
141
12.0
290
     0
  0
SCALE
  5
64
102
{ACAD_REACTORS
330
45
102
}
330
45
100
AcDbScale
 70
     0
300
3/16" = 1'-0"
140
0.1875
141
12.0
290
     0
  0
SCALE
  5
65
102
{ACAD_REACTORS
330
45
102
}
330
45
100
AcDbScale
 70
     0
300
1/4" = 1'-0"
140
0.25
141
12.0
290
     0
  0
SCALE
  5
66
102
{ACAD_REACTORS
330
45
102
}
330
45
100
AcDbScale
 70
     0
300
3/8" = 1'-0"
140
0.375
141
12.0
290
     0
  0
SCALE
  5
67
102
{ACAD_REACTORS
330
45
102
}
330
45
100
AcDbScale
 70
     0
300
1/2" = 1'-0"
140
0.5
141
12.0
290
     0
  0
SCALE
  5
68
102
{ACAD_REACTORS
330
45
102
}
330
45
100
AcDbScale
 70
     0
300
3/4" = 1'-0"
140
0.75
141
12.0
290
     0
  0
SCALE
  5
69
102
{ACAD_REACTORS
330
45
102
}
330
45
100
AcDbScale
 70
     0
300
1" = 1'-0"
140
1.0
141
12.0
290
     0
  0
SCALE
  5
6A
102
{ACAD_REACTORS
330
45
102
}
330
45
100
AcDbScale
 70
     0
300
1-1/2" = 1'-0"
140
1.5
141
12.0
290
     0
  0
SCALE
  5
6B
102
{ACAD_REACTORS
330
45
102
}
330
45
100
AcDbScale
 70
     0
300
3" = 1'-0"
140
3.0
141
12.0
290
     0
  0
SCALE
  5
6C
102
{ACAD_REACTORS
330
45
102
}
330
45
100
AcDbScale
 70
     0
300
6" = 1'-0"
140
6.0
141
12.0
290
     0
  0
SCALE
  5
6D
102
{ACAD_REACTORS
330
45
102
}
330
45
100
AcDbScale
 70
     0
300
1'-0" = 1'-0"
140
12.0
141
12.0
290
     0
  0
TABLESTYLE
  5
49
102
{ACAD_XDICTIONARY
360
4A
102
}
102
{ACAD_REACTORS
330
46
102
}
330
46
100
AcDbTableStyle
  3
Standard
 70
     0
 71
     0
 40
0.06
 41
0.06
280
     0
281
     0
  7
STANDARD
140
0.18
170
     2
 62
     0
 63
     7
283
     0
274
    -2
284
     1
 64
     0
275
    -2
285
     1
 65
     0
276
    -2
286
     1
 66
     0
277
    -2
287
     1
 67
     0
278
    -2
288
     1
 68
     0
279
    -2
289
     1
 69
     0
  7
STANDARD
140
0.25
170
     5
 62
     0
 63
     7
283
     0
274
    -2
284
     1
 64
     0
275
    -2
285
     1
 65
     0
276
    -2
286
     1
 66
     0
277
    -2
287
     1
 67
     0
278
    -2
288
     1
 68
     0
279
    -2
289
     1
 69
     0
  7
STANDARD
140
0.18
170
     5
 62
     0
 63
     7
283
     0
274
    -2
284
     1
 64
     0
275
    -2
285
     1
 65
     0
276
    -2
286
     1
 66
     0
277
    -2
287
     1
 67
     0
278
    -2
288
     1
 68
     0
279
    -2
289
     1
 69
     0
  0
VISUALSTYLE
  5
2A
102
{ACAD_XDICTIONARY
360
172
102
}
102
{ACAD_REACTORS
330
2B
102
}
330
2B
100
AcDbVisualStyle
  2
2dWireframe
 70
     4
 71
     0
 72
     2
 73
     0
 90
        0
 40
-0.6
 41
-30.0
 62
     5
 63
     7
 74
     1
 91
        4
 64
     7
 65
   257
 75
     1
175
     1
 42
1.0
 92
        0
 66
   257
 43
1.0
 76
     1
 77
     6
 78
     2
 67
     7
 79
     5
170
     0
171
     0
290
     0
174
     0
 93
        1
 44
0.0
173
     0
291
     0
 45
0.0
1001
ACAD
1000
AcDbSavedByObjectVersion
1070
     0
  0
VISUALSTYLE
  5
14A
102
{ACAD_XDICTIONARY
360
183
102
}
102
{ACAD_REACTORS
330
2B
102
}
330
2B
100
AcDbVisualStyle
  2
Basic
 70
     7
 71
     1
 72
     0
 73
     1
 90
        0
 40
-0.6
 41
-30.0
 62
     5
 63
     7
 74
     0
 91
        4
 64
     7
 65
   257
 75
     1
175
     1
 42
1.0
 92
        8
 66
     7
 43
1.0
 76
     1
 77
     6
 78
     2
 67
     7
 79
     5
170
     0
171
     0
290
     0
174
     0
 93
        1
 44
0.0
173
     0
291
     1
 45
0.0
1001
ACAD
1000
AcDbSavedByObjectVersion
1070
     0
  0
VISUALSTYLE
  5
14E
102
{ACAD_XDICTIONARY
360
18B
102
}
102
{ACAD_REACTORS
330
2B
102
}
330
2B
100
AcDbVisualStyle
  2
Brighten
 70
    12
 71
     2
 72
     2
 73
     0
 90
        0
 40
-0.6
 41
-30.0
 62
     5
 63
     7
 74
     1
 91
        4
 64
     7
 65
   257
 75
     1
175
     1
 42
1.0
 92
        8
 66
     7
 43
1.0
 76
     1
 77
     6
 78
     2
 67
     7
 79
     5
170
     0
171
     0
290
     0
174
     0
 93
        1
 44
50.0
173
     0
291
     1
 45
0.0
1001
ACAD
1000
AcDbSavedByObjectVersion
1070
     0
  0
VISUALSTYLE
  5
152
102
{ACAD_XDICTIONARY
360
193
102
}
102
{ACAD_REACTORS
330
2B
102
}
330
2B
100
AcDbVisualStyle
  2
ColorChange
 70
    16
 71
     2
 72
     2
 73
     3
 90
        0
 40
-0.6
 41
-30.0
 62
     5
 63
     8
 74
     1
 91
        4
 64
     7
 65
   257
 75
     1
175
     1
 42
1.0
 92
        8
 66
     8
 43
1.0
 76
     1
 77
     6
 78
     2
 67
     7
 79
     5
170
     0
171
     0
290
     0
174
     0
 93
        1
 44
0.0
173
     0
291
     1
 45
0.0
1001
ACAD
1000
AcDbSavedByObjectVersion
1070
     0
  0
VISUALSTYLE
  5
14C
102
{ACAD_XDICTIONARY
360
187
102
}
102
{ACAD_REACTORS
330
2B
102
}
330
2B
100
AcDbVisualStyle
  2
Conceptual
 70
     9
 71
     3
 72
     2
 73
     0
 90
        0
 40
-0.6
 41
-30.0
 62
     5
 63
     7
 74
     2
 91
        2
 64
     7
 65
   257
 75
     1
175
     1
 42
179.0
 92
        8
 66
     7
 43
1.0
 76
     1
 77
     6
 78
     2
 67
     7
 79
     3
170
     0
171
     0
290
     0
174
     0
 93
        1
 44
0.0
173
     0
291
     0
 45
0.0
1001
ACAD
1000
AcDbSavedByObjectVersion
1070
     0
  0
VISUALSTYLE
  5
14D
102
{ACAD_XDICTIONARY
360
189
102
}
102
{ACAD_REACTORS
330
2B
102
}
330
2B
100
AcDbVisualStyle
  2
Dim
 70
    11
 71
     2
 72
     2
 73
     0
 90
        0
 40
-0.6
 41
-30.0
 62
     5
 63
     7
 74
     1
 91
        4
 64
     7
 65
   257
 75
     1
175
     1
 42
1.0
 92
        8
 66
     7
 43
1.0
 76
     1
 77
     6
 78
     2
 67
     7
 79
     5
170
     0
171
     0
290
     0
174
     0
 93
        1
 44
-50.0
173
     0
291
     1
 45
0.0
1001
ACAD
1000
AcDbSavedByObjectVersion
1070
     0
  0
VISUALSTYLE
  5
15A
102
{ACAD_XDICTIONARY
360
1A3
102
}
102
{ACAD_REACTORS
330
2B
102
}
330
2B
100
AcDbVisualStyle
  2
EdgeColorOff
 70
    22
 71
     2
 72
     2
 73
     0
 90
        0
 40
-0.6
 41
-30.0
 62
     5
 63
     7
 74
     1
 91
        4
 64
     7
 65
   257
 75
     1
175
     1
 42
1.0
 92
        8
 66
     7
 43
1.0
 76
     1
 77
     6
 78
     2
 67
     7
 79
     5
170
     0
171
     0
290
     0
174
     0
 93
        1
 44
0.0
173
     0
291
     1
 45
0.0
1001
ACAD
1000
AcDbSavedByObjectVersion
1070
     0
  0
VISUALSTYLE
  5
151
102
{ACAD_XDICTIONARY
360
191
102
}
102
{ACAD_REACTORS
330
2B
102
}
330
2B
100
AcDbVisualStyle
  2
Facepattern
 70
    15
 71
     2
 72
     2
 73
     0
 90
        0
 40
-0.6
 41
-30.0
 62
     5
 63
     7
 74
     1
 91
        4
 64
     7
 65
   257
 75
     1
175
     1
 42
1.0
 92
        8
 66
     7
 43
1.0
 76
     1
 77
     6
 78
     2
 67
     7
 79
     5
170
     0
171
     0
290
     0
174
     0
 93
        1
 44
0.0
173
     0
291
     1
 45
0.0
1001
ACAD
1000
AcDbSavedByObjectVersion
1070
     0
  0
VISUALSTYLE
  5
146
102
{ACAD_XDICTIONARY
360
17B
102
}
102
{ACAD_REACTORS
330
2B
102
}
330
2B
100
AcDbVisualStyle
  2
Flat
 70
     0
 71
     2
 72
     1
 73
     1
 90
        2
 40
-0.6
 41
30.0
 62
     5
 63
     7
 74
     0
 91
        0
 64
     7
 65
   257
 75
     1
175
     1
 42
1.0
 92
        8
 66
     7
 43
1.0
 76
     1
 77
     6
 78
     2
 67
     7
 79
     5
170
     0
171
     0
290
     0
174
     0
 93
       13
 44
0.0
173
     0
291
     1
 45
0.0
1001
ACAD
1000
AcDbSavedByObjectVersion
1070
     0
  0
VISUALSTYLE
  5
147
102
{ACAD_XDICTIONARY
360
17D
102
}
102
{ACAD_REACTORS
330
2B
102
}
330
2B
100
AcDbVisualStyle
  2
FlatWithEdges
 70
     1
 71
     2
 72
     1
 73
     1
 90
        2
 40
-0.6
 41
30.0
 62
     5
 63
     7
 74
     1
 91
        0
 64
     7
 65
   257
 75
     1
175
     1
 42
1.0
 92
        0
 66
   257
 43
1.0
 76
     1
 77
     6
 78
     2
 67
     7
 79
     5
170
     0
171
     0
290
     0
174
     0
 93
       13
 44
0.0
173
     0
291
     1
 45
0.0
1001
ACAD
1000
AcDbSavedByObjectVersion
1070
     0
  0
VISUALSTYLE
  5
148
102
{ACAD_XDICTIONARY
360
17F
102
}
102
{ACAD_REACTORS
330
2B
102
}
330
2B
100
AcDbVisualStyle
  2
Gouraud
 70
     2
 71
     2
 72
     2
 73
     1
 90
        2
 40
-0.6
 41
30.0
 62
     5
 63
     7
 74
     0
 91
        0
 64
     7
 65
   257
 75
     1
175
     1
 42
1.0
 92
        0
 66
     7
 43
1.0
 76
     1
 77
     6
 78
     2
 67
     7
 79
     5
170
     0
171
     0
290
     0
174
     0
 93
       13
 44
0.0
173
     0
291
     1
 45
0.0
1001
ACAD
1000
AcDbSavedByObjectVersion
1070
     0
  0
VISUALSTYLE
  5
149
102
{ACAD_XDICTIONARY
360
181
102
}
102
{ACAD_REACTORS
330
2B
102
}
330
2B
100
AcDbVisualStyle
  2
GouraudWithEdges
 70
     3
 71
     2
 72
     2
 73
     1
 90
        2
 40
-0.6
 41
30.0
 62
     5
 63
     7
 74
     1
 91
        0
 64
     7
 65
   257
 75
     1
175
     1
 42
1.0
 92
        0
 66
   257
 43
1.0
 76
     1
 77
     6
 78
     2
 67
     7
 79
     5
170
     0
171
     0
290
     0
174
     0
 93
       13
 44
0.0
173
     0
291
     1
 45
0.0
1001
ACAD
1000
AcDbSavedByObjectVersion
1070
     0
  0
VISUALSTYLE
  5
14B
102
{ACAD_XDICTIONARY
360
185
102
}
102
{ACAD_REACTORS
330
2B
102
}
330
2B
100
AcDbVisualStyle
  2
Hidden
 70
     6
 71
     1
 72
     2
 73
     2
 90
        0
 40
-0.6
 41
-30.0
 62
     5
 63
     7
 74
     2
 91
        2
 64
     7
 65
   257
 75
     2
175
     1
 42
40.0
 92
        0
 66
   257
 43
1.0
 76
     1
 77
     6
 78
     2
 67
     7
 79
     3
170
     0
171
     0
290
     0
174
     0
 93
        1
 44
0.0
173
     0
291
     0
 45
0.0
1001
ACAD
1000
AcDbSavedByObjectVersion
1070
     0
  0
VISUALSTYLE
  5
158
102
{ACAD_XDICTIONARY
360
19F
102
}
102
{ACAD_REACTORS
330
2B
102
}
330
2B
100
AcDbVisualStyle
  2
JitterOff
 70
    20
 71
     2
 72
     2
 73
     0
 90
        0
 40
-0.6
 41
-30.0
 62
     5
 63
     7
 74
     1
 91
        4
 64
     7
 65
   257
 75
     1
175
     1
 42
1.0
 92
       10
 66
     7
 43
1.0
 76
     1
 77
     6
 78
     2
 67
     7
 79
     5
170
     0
171
     0
290
     0
174
     0
 93
        1
 44
0.0
173
     0
291
     1
 45
0.0
1001
ACAD
1000
AcDbSavedByObjectVersion
1070
     0
  0
VISUALSTYLE
  5
150
102
{ACAD_XDICTIONARY
360
18F
102
}
102
{ACAD_REACTORS
330
2B
102
}
330
2B
100
AcDbVisualStyle
  2
Linepattern
 70
    14
 71
     2
 72
     2
 73
     0
 90
        0
 40
-0.6
 41
-30.0
 62
     5
 63
     7
 74
     1
 91
        4
 64
     7
 65
   257
 75
     7
175
     7
 42
1.0
 92
        8
 66
     7
 43
1.0
 76
     1
 77
     6
 78
     2
 67
     7
 79
     5
170
     0
171
     0
290
     0
174
     0
 93
        1
 44
0.0
173
     0
291
     1
 45
0.0
1001
ACAD
1000
AcDbSavedByObjectVersion
1070
     0
  0
VISUALSTYLE
  5
159
102
{ACAD_XDICTIONARY
360
1A1
102
}
102
{ACAD_REACTORS
330
2B
102
}
330
2B
100
AcDbVisualStyle
  2
OverhangOff
 70
    21
 71
     2
 72
     2
 73
     0
 90
        0
 40
-0.6
 41
-30.0
 62
     5
 63
     7
 74
     1
 91
        4
 64
     7
 65
   257
 75
     1
175
     1
 42
1.0
 92
        9
 66
     7
 43
1.0
 76
     1
 77
     6
 78
     2
 67
     7
 79
     5
170
     0
171
     0
290
     0
174
     0
 93
        1
 44
0.0
173
     0
291
     1
 45
0.0
1001
ACAD
1000
AcDbSavedByObjectVersion
1070
     0
  0
VISUALSTYLE
  5
4B
102
{ACAD_XDICTIONARY
360
177
102
}
102
{ACAD_REACTORS
330
2B
102
}
330
2B
100
AcDbVisualStyle
  2
Realistic
 70
     8
 71
     2
 72
     2
 73
     0
 90
        0
 40
-0.6
 41
-30.0
 62
     5
 63
     7
 74
     1
 91
        0
 64
     7
 65
   257
 75
     1
175
     1
 42
1.0
 92
        8
 66
     8
 43
1.0
 76
     1
 77
     6
 78
     2
 67
     7
 79
     5
170
     0
171
     0
290
     0
174
     0
 93
       13
 44
0.0
173
     0
291
     0
 45
0.0
1001
ACAD
1000
AcDbSavedByObjectVersion
1070
     0
  0
VISUALSTYLE
  5
157
102
{ACAD_XDICTIONARY
360
19D
102
}
102
{ACAD_REACTORS
330
2B
102
}
330
2B
100
AcDbVisualStyle
  2
Shaded
 70
    27
 71
     2
 72
     2
 73
     1
 90
        2
 40
-0.6
 41
30.0
 62
     5
 63
     7
 74
     0
 91
        4
 64
     7
 65
   257
 75
     1
175
     1
 42
1.0
 92
        8
 66
   257
 43
1.0
 76
     1
 77
     6
 78
     2
 67
     8
 79
     3
170
     0
171
     0
290
     0
174
     0
 93
        5
 44
0.0
173
     0
291
     0
 45
0.0
1001
ACAD
1000
AcDbSavedByObjectVersion
1070
     0
  0
VISUALSTYLE
  5
156
102
{ACAD_XDICTIONARY
360
19B
102
}
102
{ACAD_REACTORS
330
2B
102
}
330
2B
100
AcDbVisualStyle
  2
Shaded with edges
 70
    26
 71
     2
 72
     2
 73
     1
 90
        2
 40
-0.6
 41
30.0
 62
     5
 63
     7
 74
     1
 91
       10
 64
     7
 65
   257
 75
     2
175
     1
 42
1.0
 92
        8
 66
   257
 43
1.0
 76
     1
 77
     6
 78
     2
 67
     7
 79
     3
170
     0
171
     0
290
     0
174
     0
 93
        5
 44
0.0
173
     0
291
     0
 45
0.0
1001
ACAD
1000
AcDbSavedByObjectVersion
1070
     0
  0
VISUALSTYLE
  5
153
102
{ACAD_XDICTIONARY
360
195
102
}
102
{ACAD_REACTORS
330
2B
102
}
330
2B
100
AcDbVisualStyle
  2
Shades of Gray
 70
    23
 71
     2
 72
     2
 73
     3
 90
        0
 40
-0.6
 41
-30.0
 62
     5
 63
     7
 74
     2
 91
        2
 64
     7
 65
     7
 75
     1
175
     1
 42
40.0
 92
        8
 66
     7
 43
1.0
 76
     1
 77
     6
 78
     2
 67
     7
 79
     3
170
     0
171
     0
290
     0
174
     0
 93
        1
 44
0.0
173
     0
291
     0
 45
0.0
1001
ACAD
1000
AcDbSavedByObjectVersion
1070
     0
  0
VISUALSTYLE
  5
154
102
{ACAD_XDICTIONARY
360
197
102
}
102
{ACAD_REACTORS
330
2B
102
}
330
2B
100
AcDbVisualStyle
  2
Sketchy
 70
    24
 71
     1
 72
     2
 73
     2
 90
        0
 40
-0.6
 41
-30.0
 62
     5
 63
     7
 74
     2
 91
        2
 64
     7
 65
     7
 75
     1
175
     1
 42
40.0
 92
       11
 66
     7
 43
1.0
 76
     1
 77
     6
 78
     2
 67
     7
 79
     6
170
     0
171
     0
290
     0
174
     0
 93
        1
 44
0.0
173
     0
291
     0
 45
0.0
1001
ACAD
1000
AcDbSavedByObjectVersion
1070
     0
  0
VISUALSTYLE
  5
14F
102
{ACAD_XDICTIONARY
360
18D
102
}
102
{ACAD_REACTORS
330
2B
102
}
330
2B
100
AcDbVisualStyle
  2
Thicken
 70
    13
 71
     2
 72
     2
 73
     0
 90
        0
 40
-0.6
 41
-30.0
 62
     5
 63
     7
 74
     1
 91
        4
 64
     7
 65
   257
 75
     1
175
     1
 42
1.0
 92
       12
 66
     7
 43
1.0
 76
     1
 77
     6
 78
     2
 67
     7
 79
     5
170
     0
171
     0
290
     0
174
     0
 93
        1
 44
0.0
173
     0
291
     1
 45
0.0
1001
ACAD
1000
AcDbSavedByObjectVersion
1070
     0
  0
VISUALSTYLE
  5
4C
102
{ACAD_XDICTIONARY
360
179
102
}
102
{ACAD_REACTORS
330
2B
102
}
330
2B
100
AcDbVisualStyle
  2
Wireframe
 70
     5
 71
     0
 72
     2
 73
     0
 90
        0
 40
-0.6
 41
-30.0
 62
     5
 63
     7
 74
     1
 91
        4
 64
     7
 65
   257
 75
     1
175
     1
 42
1.0
 92
        0
 66
   257
 43
1.0
 76
     1
 77
     6
 78
     2
 67
     7
 79
     3
170
     0
171
     0
290
     0
174
     0
 93
        1
 44
0.0
173
     0
291
     0
 45
0.0
1001
ACAD
1000
AcDbSavedByObjectVersion
1070
     0
  0
VISUALSTYLE
  5
155
102
{ACAD_XDICTIONARY
360
199
102
}
102
{ACAD_REACTORS
330
2B
102
}
330
2B
100
AcDbVisualStyle
  2
X-Ray
 70
    25
 71
     2
 72
     2
 73
     1
 90
        1
 40
0.5
 41
-30.0
 62
     5
 63
     7
 74
     1
 91
        0
 64
     7
 65
   257
 75
     1
175
     1
 42
1.0
 92
        8
 66
     7
 43
1.0
 76
     1
 77
     6
 78
     2
 67
     7
 79
     3
170
     0
171
     0
290
     0
174
     0
 93
       13
 44
0.0
173
     0
291
     0
 45
0.0
1001
ACAD
1000
AcDbSavedByObjectVersion
1070
     0
  0
DICTIONARYVAR
  5
141
102
{ACAD_REACTORS
330
13D
102
}
330
13D
100
DictionaryVariables
280
     0
  1
1:1
  0
DICTIONARYVAR
  5
13F
102
{ACAD_REACTORS
330
13D
102
}
330
13D
100
DictionaryVariables
280
     0
  1
STANDARD
  0
DICTIONARYVAR
  5
13E
102
{ACAD_REACTORS
330
13D
102
}
330
13D
100
DictionaryVariables
280
     0
  1
STANDARD
  0
DICTIONARYVAR
  5
164
102
{ACAD_REACTORS
330
13D
102
}
330
13D
100
DictionaryVariables
280
     0
  1
1
  0
DICTIONARYVAR
  5
163
102
{ACAD_REACTORS
330
13D
102
}
330
13D
100
DictionaryVariables
280
     0
  1
1
  0
DICTIONARYVAR
  5
162
102
{ACAD_REACTORS
330
13D
102
}
330
13D
100
DictionaryVariables
280
     0
  1
0
  0
DICTIONARYVAR
  5
143
102
{ACAD_REACTORS
330
13D
102
}
330
13D
100
DictionaryVariables
280
     0
  1
1
  0
DICTIONARYVAR
  5
144
102
{ACAD_REACTORS
330
13D
102
}
330
13D
100
DictionaryVariables
280
     0
  1
15
  0
DICTIONARYVAR
  5
142
102
{ACAD_REACTORS
330
13D
102
}
330
13D
100
DictionaryVariables
280
     0
  1
0
  0
DICTIONARYVAR
  5
140
102
{ACAD_REACTORS
330
13D
102
}
330
13D
100
DictionaryVariables
280
     0
  1
0
  0
DICTIONARYVAR
  5
161
102
{ACAD_REACTORS
330
13D
102
}
330
13D
100
DictionaryVariables
280
     0
  1
127
  0
DICTIONARYVAR
  5
165
102
{ACAD_REACTORS
330
13D
102
}
330
13D
100
DictionaryVariables
280
     0
  1
2
  0
DICTIONARY
  5
170
330
1A
100
AcDbDictionary
280
     1
281
     1
  3
ACAD_XREC_ROUNDTRIP
360
171
  0
DICTIONARY
  5
16E
330
15
100
AcDbDictionary
280
     1
281
     1
  3
ACAD_XREC_ROUNDTRIP
360
16F
  0
DICTIONARY
  5
3D
330
3C
100
AcDbDictionary
280
     1
281
     1
  3
ACAD_XREC_ROUNDTRIP
360
175
  3
BUMPTILE
360
3E
  3
DIFFUSETILE
360
3F
  3
OPACITYTILE
360
40
  3
REFLECTIONTILE
360
41
  3
REFRACTIONTILE
360
42
  3
SPECULARTILE
360
43
  0
DICTIONARY
  5
35
330
34
100
AcDbDictionary
280
     1
281
     1
  3
ACAD_XREC_ROUNDTRIP
360
174
  3
BUMPTILE
360
36
  3
DIFFUSETILE
360
37
  3
OPACITYTILE
360
38
  3
REFLECTIONTILE
360
39
  3
REFRACTIONTILE
360
3A
  3
SPECULARTILE
360
3B
  0
DICTIONARY
  5
C
330
A
100
AcDbDictionary
280
     1
281
     1
  3
ACAD_XREC_ROUNDTRIP
360
16D
  3
BUMPTILE
360
D
  3
DIFFUSETILE
360
E
  3
OPACITYTILE
360
F
  3
REFLECTIONTILE
360
10
  3
REFRACTIONTILE
360
11
  3
SPECULARTILE
360
12
  0
DICTIONARY
  5
4A
330
49
100
AcDbDictionary
280
     1
281
     1
  3
ACAD_ROUNDTRIP_2008_TABLESTYLE_CELLSTYLEMAP
360
166
  3
ACAD_XREC_ROUNDTRIP
360
176
  0
DICTIONARY
  5
172
330
2A
100
AcDbDictionary
280
     1
281
     1
  3
ACAD_XREC_ROUNDTRIP
360
173
  0
DICTIONARY
  5
183
330
14A
100
AcDbDictionary
280
     1
281
     1
  3
ACAD_XREC_ROUNDTRIP
360
184
  0
DICTIONARY
  5
18B
330
14E
100
AcDbDictionary
280
     1
281
     1
  3
ACAD_XREC_ROUNDTRIP
360
18C
  0
DICTIONARY
  5
193
330
152
100
AcDbDictionary
280
     1
281
     1
  3
ACAD_XREC_ROUNDTRIP
360
194
  0
DICTIONARY
  5
187
330
14C
100
AcDbDictionary
280
     1
281
     1
  3
ACAD_XREC_ROUNDTRIP
360
188
  0
DICTIONARY
  5
189
330
14D
100
AcDbDictionary
280
     1
281
     1
  3
ACAD_XREC_ROUNDTRIP
360
18A
  0
DICTIONARY
  5
1A3
330
15A
100
AcDbDictionary
280
     1
281
     1
  3
ACAD_XREC_ROUNDTRIP
360
1A4
  0
DICTIONARY
  5
191
330
151
100
AcDbDictionary
280
     1
281
     1
  3
ACAD_XREC_ROUNDTRIP
360
192
  0
DICTIONARY
  5
17B
330
146
100
AcDbDictionary
280
     1
281
     1
  3
ACAD_XREC_ROUNDTRIP
360
17C
  0
DICTIONARY
  5
17D
330
147
100
AcDbDictionary
280
     1
281
     1
  3
ACAD_XREC_ROUNDTRIP
360
17E
  0
DICTIONARY
  5
17F
330
148
100
AcDbDictionary
280
     1
281
     1
  3
ACAD_XREC_ROUNDTRIP
360
180
  0
DICTIONARY
  5
181
330
149
100
AcDbDictionary
280
     1
281
     1
  3
ACAD_XREC_ROUNDTRIP
360
182
  0
DICTIONARY
  5
185
330
14B
100
AcDbDictionary
280
     1
281
     1
  3
ACAD_XREC_ROUNDTRIP
360
186
  0
DICTIONARY
  5
19F
330
158
100
AcDbDictionary
280
     1
281
     1
  3
ACAD_XREC_ROUNDTRIP
360
1A0
  0
DICTIONARY
  5
18F
330
150
100
AcDbDictionary
280
     1
281
     1
  3
ACAD_XREC_ROUNDTRIP
360
190
  0
DICTIONARY
  5
1A1
330
159
100
AcDbDictionary
280
     1
281
     1
  3
ACAD_XREC_ROUNDTRIP
360
1A2
  0
DICTIONARY
  5
177
330
4B
100
AcDbDictionary
280
     1
281
     1
  3
ACAD_XREC_ROUNDTRIP
360
178
  0
DICTIONARY
  5
19D
330
157
100
AcDbDictionary
280
     1
281
     1
  3
ACAD_XREC_ROUNDTRIP
360
19E
  0
DICTIONARY
  5
19B
330
156
100
AcDbDictionary
280
     1
281
     1
  3
ACAD_XREC_ROUNDTRIP
360
19C
  0
DICTIONARY
  5
195
330
153
100
AcDbDictionary
280
     1
281
     1
  3
ACAD_XREC_ROUNDTRIP
360
196
  0
DICTIONARY
  5
197
330
154
100
AcDbDictionary
280
     1
281
     1
  3
ACAD_XREC_ROUNDTRIP
360
198
  0
DICTIONARY
  5
18D
330
14F
100
AcDbDictionary
280
     1
281
     1
  3
ACAD_XREC_ROUNDTRIP
360
18E
  0
DICTIONARY
  5
179
330
4C
100
AcDbDictionary
280
     1
281
     1
  3
ACAD_XREC_ROUNDTRIP
360
17A
  0
DICTIONARY
  5
199
330
155
100
AcDbDictionary
280
     1
281
     1
  3
ACAD_XREC_ROUNDTRIP
360
19A
  0
XRECORD
  5
171
102
{ACAD_REACTORS
330
170
102
}
330
170
100
AcDbXrecord
280
     1
102
SHADEPLOT
 70
     0
102
SHADEPLOTRESLEVEL
 70
     2
102
SHADEPLOTCUSTOMDPI
 70
   300
  0
XRECORD
  5
16F
102
{ACAD_REACTORS
330
16E
102
}
330
16E
100
AcDbXrecord
280
     1
102
SHADEPLOT
 70
     0
102
SHADEPLOTRESLEVEL
 70
     2
102
SHADEPLOTCUSTOMDPI
 70
   300
  0
XRECORD
  5
175
102
{ACAD_REACTORS
330
3D
102
}
330
3D
100
AcDbXrecord
280
     1
102
MATERIAL
148
0.0
149
0.0
149
0.0
 93
        0
 94
      127
282
     0
 72
     0
 77
     0
171
     0
175
     0
179
     0
273
     0
  0
XRECORD
  5
3E
102
{ACAD_REACTORS
330
3D
102
}
330
3D
100
AcDbXrecord
280
     1
270
     1
271
     1
  0
XRECORD
  5
3F
102
{ACAD_REACTORS
330
3D
102
}
330
3D
100
AcDbXrecord
280
     1
270
     1
271
     1
  0
XRECORD
  5
40
102
{ACAD_REACTORS
330
3D
102
}
330
3D
100
AcDbXrecord
280
     1
270
     1
271
     1
  0
XRECORD
  5
41
102
{ACAD_REACTORS
330
3D
102
}
330
3D
100
AcDbXrecord
280
     1
270
     1
271
     1
  0
XRECORD
  5
42
102
{ACAD_REACTORS
330
3D
102
}
330
3D
100
AcDbXrecord
280
     1
270
     1
271
     1
  0
XRECORD
  5
43
102
{ACAD_REACTORS
330
3D
102
}
330
3D
100
AcDbXrecord
280
     1
270
     1
271
     1
  0
XRECORD
  5
174
102
{ACAD_REACTORS
330
35
102
}
330
35
100
AcDbXrecord
280
     1
102
MATERIAL
148
0.0
149
0.0
149
0.0
 93
        0
 94
      127
282
     0
 72
     0
 77
     0
171
     0
175
     0
179
     0
273
     0
  0
XRECORD
  5
36
102
{ACAD_REACTORS
330
35
102
}
330
35
100
AcDbXrecord
280
     1
270
     1
271
     1
  0
XRECORD
  5
37
102
{ACAD_REACTORS
330
35
102
}
330
35
100
AcDbXrecord
280
     1
270
     1
271
     1
  0
XRECORD
  5
38
102
{ACAD_REACTORS
330
35
102
}
330
35
100
AcDbXrecord
280
     1
270
     1
271
     1
  0
XRECORD
  5
39
102
{ACAD_REACTORS
330
35
102
}
330
35
100
AcDbXrecord
280
     1
270
     1
271
     1
  0
XRECORD
  5
3A
102
{ACAD_REACTORS
330
35
102
}
330
35
100
AcDbXrecord
280
     1
270
     1
271
     1
  0
XRECORD
  5
3B
102
{ACAD_REACTORS
330
35
102
}
330
35
100
AcDbXrecord
280
     1
270
     1
271
     1
  0
XRECORD
  5
16D
102
{ACAD_REACTORS
330
C
102
}
330
C
100
AcDbXrecord
280
     1
102
MATERIAL
148
0.0
149
0.0
149
0.0
 93
        0
 94
      127
282
     0
 72
     0
 77
     0
171
     0
175
     0
179
     0
273
     0
  0
XRECORD
  5
D
102
{ACAD_REACTORS
330
C
102
}
330
C
100
AcDbXrecord
280
     1
270
     1
271
     1
  0
XRECORD
  5
E
102
{ACAD_REACTORS
330
C
102
}
330
C
100
AcDbXrecord
280
     1
270
     1
271
     1
  0
XRECORD
  5
F
102
{ACAD_REACTORS
330
C
102
}
330
C
100
AcDbXrecord
280
     1
270
     1
271
     1
  0
XRECORD
  5
10
102
{ACAD_REACTORS
330
C
102
}
330
C
100
AcDbXrecord
280
     1
270
     1
271
     1
  0
XRECORD
  5
11
102
{ACAD_REACTORS
330
C
102
}
330
C
100
AcDbXrecord
280
     1
270
     1
271
     1
  0
XRECORD
  5
12
102
{ACAD_REACTORS
330
C
102
}
330
C
100
AcDbXrecord
280
     1
270
     1
271
     1
  0
CELLSTYLEMAP
  5
166
102
{ACAD_REACTORS
330
4A
102
}
330
4A
100
AcDbCellStyleMap
 90
        3
300
CELLSTYLE
  1
TABLEFORMAT_BEGIN
 90
        5
170
     1
 91
        0
 92
    32768
 62
   257
 93
        1
300
CONTENTFORMAT
  1
CONTENTFORMAT_BEGIN
 90
        0
 91
        0
 92
      512
 93
        0
300

 40
0.0
140
1.0
 94
        5
 62
     0
340
21
144
0.25
309
CONTENTFORMAT_END
171
     0
 94
        0
309
TABLEFORMAT_END
  1
CELLSTYLE_BEGIN
 90
        1
 91
        1
300
_TITLE
309
CELLSTYLE_END
300
CELLSTYLE
  1
TABLEFORMAT_BEGIN
 90
        5
170
     1
 91
        0
 92
        0
 62
   257
 93
        1
300
CONTENTFORMAT
  1
CONTENTFORMAT_BEGIN
 90
        0
 91
        0
 92
      512
 93
        0
300

 40
0.0
140
1.0
 94
        5
 62
     0
340
21
144
0.18
309
CONTENTFORMAT_END
171
     0
 94
        0
309
TABLEFORMAT_END
  1
CELLSTYLE_BEGIN
 90
        2
 91
        1
300
_HEADER
309
CELLSTYLE_END
300
CELLSTYLE
  1
TABLEFORMAT_BEGIN
 90
        5
170
     1
 91
        0
 92
        0
 62
   257
 93
        1
300
CONTENTFORMAT
  1
CONTENTFORMAT_BEGIN
 90
        0
 91
        0
 92
      512
 93
        0
300

 40
0.0
140
1.0
 94
        2
 62
     0
340
21
144
0.18
309
CONTENTFORMAT_END
171
     0
 94
        0
309
TABLEFORMAT_END
  1
CELLSTYLE_BEGIN
 90
        3
 91
        2
300
_DATA
309
CELLSTYLE_END
  0
XRECORD
  5
176
102
{ACAD_REACTORS
330
4A
102
}
330
4A
100
AcDbXrecord
280
     1
102
ACAD_ROUNDTRIP_PRE2007_TABLESTYLE
 90
      512
 91
        0
  1

 92
      512
 93
        0
  2

 94
      512
 95
        0
  3

  0
XRECORD
  5
173
102
{ACAD_REACTORS
330
172
102
}
330
172
100
AcDbXrecord
280
     1
102
RTVSPropertyOp0
 70
     1
102
RTVSPropertyOp1
 70
     1
102
RTVSPropertyOp2
 70
     1
102
RTVSPropertyOp3
 70
     1
102
RTVSPropertyOp4
 70
     1
102
RTVSPropertyOp5
 70
     1
102
RTVSPropertyOp6
 70
     1
102
RTVSPropertyOp7
 70
     1
102
RTVSPropertyOp8
 70
     1
102
RTVSPropertyOp9
 70
     1
102
RTVSPropertyOp10
 70
     1
102
RTVSPropertyOp11
 70
     1
102
RTVSPropertyOp12
 70
     1
102
RTVSPropertyOp13
 70
     1
102
RTVSPropertyOp14
 70
     1
102
RTVSPropertyOp15
 70
     1
102
RTVSPropertyOp16
 70
     1
102
RTVSPropertyOp17
 70
     1
102
RTVSPropertyOp18
 70
     1
102
RTVSPropertyOp19
 70
     1
102
RTVSPropertyOp20
 70
     1
102
RTVSPropertyOp21
 70
     1
102
RTVSPropertyOp22
 70
     1
102
RTVSPropertyOp23
 70
     1
102
RTVSPropertyOp24
 70
     1
102
RTVSPropertyOp25
 70
     1
102
RTVSPropertyOp26
 70
     1
102
RTVSPropertyOp27
 70
     1
102
RTVSPropertyOp28
 70
     1
102
RTVSPropertyOp29
 70
     1
102
RTVSPropertyOp30
 70
     1
102
RTVSPropertyOp31
 70
     1
102
RTVSPropertyOp32
 70
     1
  0
XRECORD
  5
184
102
{ACAD_REACTORS
330
183
102
}
330
183
100
AcDbXrecord
280
     1
102
RTVSPropertyOp0
 70
     1
102
RTVSPropertyOp1
 70
     1
102
RTVSPropertyOp2
 70
     1
102
RTVSPropertyOp3
 70
     1
102
RTVSPropertyOp4
 70
     1
102
RTVSPropertyOp5
 70
     1
102
RTVSPropertyOp6
 70
     1
102
RTVSPropertyOp7
 70
     1
102
RTVSPropertyOp8
 70
     1
102
RTVSPropertyOp9
 70
     1
102
RTVSPropertyOp10
 70
     1
102
RTVSPropertyOp11
 70
     1
102
RTVSPropertyOp12
 70
     1
102
RTVSPropertyOp13
 70
     1
102
RTVSPropertyOp14
 70
     1
102
RTVSPropertyOp15
 70
     1
102
RTVSPropertyOp16
 70
     1
102
RTVSPropertyOp17
 70
     1
102
RTVSPropertyOp18
 70
     1
102
RTVSPropertyOp19
 70
     1
102
RTVSPropertyOp20
 70
     1
102
RTVSPropertyOp21
 70
     1
102
RTVSPropertyOp22
 70
     1
102
RTVSPropertyOp23
 70
     1
102
RTVSPropertyOp24
 70
     1
102
RTVSPropertyOp25
 70
     1
102
RTVSPropertyOp26
 70
     1
102
RTVSPropertyOp27
 70
     1
102
RTVSPropertyOp28
 70
     1
102
RTVSPropertyOp29
 70
     1
102
RTVSPropertyOp30
 70
     1
102
RTVSPropertyOp31
 70
     1
102
RTVSPropertyOp32
 70
     1
  0
XRECORD
  5
18C
102
{ACAD_REACTORS
330
18B
102
}
330
18B
100
AcDbXrecord
280
     1
102
RTVSPropertyOp0
 70
     1
102
RTVSPropertyOp1
 70
     1
102
RTVSPropertyOp2
 70
     1
102
RTVSPropertyOp3
 70
     1
102
RTVSPropertyOp4
 70
     1
102
RTVSPropertyOp5
 70
     1
102
RTVSPropertyOp6
 70
     1
102
RTVSPropertyOp7
 70
     1
102
RTVSPropertyOp8
 70
     1
102
RTVSPropertyOp9
 70
     1
102
RTVSPropertyOp10
 70
     1
102
RTVSPropertyOp11
 70
     1
102
RTVSPropertyOp12
 70
     1
102
RTVSPropertyOp13
 70
     1
102
RTVSPropertyOp14
 70
     1
102
RTVSPropertyOp15
 70
     1
102
RTVSPropertyOp16
 70
     1
102
RTVSPropertyOp17
 70
     1
102
RTVSPropertyOp18
 70
     1
102
RTVSPropertyOp19
 70
     1
102
RTVSPropertyOp20
 70
     1
102
RTVSPropertyOp21
 70
     1
102
RTVSPropertyOp22
 70
     1
102
RTVSPropertyOp23
 70
     1
102
RTVSPropertyOp24
 70
     1
102
RTVSPropertyOp25
 70
     1
102
RTVSPropertyOp26
 70
     1
102
RTVSPropertyOp27
 70
     1
102
RTVSPropertyOp28
 70
     1
102
RTVSPropertyOp29
 70
     1
102
RTVSPropertyOp30
 70
     1
102
RTVSPropertyOp31
 70
     1
102
RTVSPropertyOp32
 70
     1
  0
XRECORD
  5
194
102
{ACAD_REACTORS
330
193
102
}
330
193
100
AcDbXrecord
280
     1
102
RTVSPropertyOp0
 70
     1
102
RTVSPropertyOp1
 70
     1
102
RTVSPropertyOp2
 70
     1
102
RTVSPropertyOp3
 70
     1
102
RTVSPropertyOp4
 70
     1
102
RTVSPropertyOp5
 70
     1
102
RTVSPropertyOp6
 70
     1
102
RTVSPropertyOp7
 70
     1
102
RTVSPropertyOp8
 70
     1
102
RTVSPropertyOp9
 70
     1
102
RTVSPropertyOp10
 70
     1
102
RTVSPropertyOp11
 70
     1
102
RTVSPropertyOp12
 70
     1
102
RTVSPropertyOp13
 70
     1
102
RTVSPropertyOp14
 70
     1
102
RTVSPropertyOp15
 70
     1
102
RTVSPropertyOp16
 70
     1
102
RTVSPropertyOp17
 70
     1
102
RTVSPropertyOp18
 70
     1
102
RTVSPropertyOp19
 70
     1
102
RTVSPropertyOp20
 70
     1
102
RTVSPropertyOp21
 70
     1
102
RTVSPropertyOp22
 70
     1
102
RTVSPropertyOp23
 70
     1
102
RTVSPropertyOp24
 70
     1
102
RTVSPropertyOp25
 70
     1
102
RTVSPropertyOp26
 70
     1
102
RTVSPropertyOp27
 70
     1
102
RTVSPropertyOp28
 70
     1
102
RTVSPropertyOp29
 70
     1
102
RTVSPropertyOp30
 70
     1
102
RTVSPropertyOp31
 70
     1
102
RTVSPropertyOp32
 70
     1
  0
XRECORD
  5
188
102
{ACAD_REACTORS
330
187
102
}
330
187
100
AcDbXrecord
280
     1
102
RTVSPropertyOp0
 70
     1
102
RTVSPropertyOp1
 70
     1
102
RTVSPropertyOp2
 70
     1
102
RTVSPropertyOp3
 70
     1
102
RTVSPropertyOp4
 70
     1
102
RTVSPropertyOp5
 70
     1
102
RTVSPropertyOp6
 70
     1
102
RTVSPropertyOp7
 70
     1
102
RTVSPropertyOp8
 70
     1
102
RTVSPropertyOp9
 70
     1
102
RTVSPropertyOp10
 70
     1
102
RTVSPropertyOp11
 70
     1
102
RTVSPropertyOp12
 70
     1
102
RTVSPropertyOp13
 70
     1
102
RTVSPropertyOp14
 70
     1
102
RTVSPropertyOp15
 70
     1
102
RTVSPropertyOp16
 70
     1
102
RTVSPropertyOp17
 70
     1
102
RTVSPropertyOp18
 70
     1
102
RTVSPropertyOp19
 70
     1
102
RTVSPropertyOp20
 70
     1
102
RTVSPropertyOp21
 70
     1
102
RTVSPropertyOp22
 70
     1
102
RTVSPropertyOp23
 70
     1
102
RTVSPropertyOp24
 70
     1
102
RTVSPropertyOp25
 70
     1
102
RTVSPropertyOp26
 70
     1
102
RTVSPropertyOp27
 70
     1
102
RTVSPropertyOp28
 70
     1
102
RTVSPropertyOp29
 70
     1
102
RTVSPropertyOp30
 70
     1
102
RTVSPropertyOp31
 70
     1
102
RTVSPropertyOp32
 70
     1
  0
XRECORD
  5
18A
102
{ACAD_REACTORS
330
189
102
}
330
189
100
AcDbXrecord
280
     1
102
RTVSPropertyOp0
 70
     1
102
RTVSPropertyOp1
 70
     1
102
RTVSPropertyOp2
 70
     1
102
RTVSPropertyOp3
 70
     1
102
RTVSPropertyOp4
 70
     1
102
RTVSPropertyOp5
 70
     1
102
RTVSPropertyOp6
 70
     1
102
RTVSPropertyOp7
 70
     1
102
RTVSPropertyOp8
 70
     1
102
RTVSPropertyOp9
 70
     1
102
RTVSPropertyOp10
 70
     1
102
RTVSPropertyOp11
 70
     1
102
RTVSPropertyOp12
 70
     1
102
RTVSPropertyOp13
 70
     1
102
RTVSPropertyOp14
 70
     1
102
RTVSPropertyOp15
 70
     1
102
RTVSPropertyOp16
 70
     1
102
RTVSPropertyOp17
 70
     1
102
RTVSPropertyOp18
 70
     1
102
RTVSPropertyOp19
 70
     1
102
RTVSPropertyOp20
 70
     1
102
RTVSPropertyOp21
 70
     1
102
RTVSPropertyOp22
 70
     1
102
RTVSPropertyOp23
 70
     1
102
RTVSPropertyOp24
 70
     1
102
RTVSPropertyOp25
 70
     1
102
RTVSPropertyOp26
 70
     1
102
RTVSPropertyOp27
 70
     1
102
RTVSPropertyOp28
 70
     1
102
RTVSPropertyOp29
 70
     1
102
RTVSPropertyOp30
 70
     1
102
RTVSPropertyOp31
 70
     1
102
RTVSPropertyOp32
 70
     1
  0
XRECORD
  5
1A4
102
{ACAD_REACTORS
330
1A3
102
}
330
1A3
100
AcDbXrecord
280
     1
102
RTVSPropertyOp0
 70
     0
102
RTVSPropertyOp1
 70
     0
102
RTVSPropertyOp2
 70
     0
102
RTVSPropertyOp3
 70
     0
102
RTVSPropertyOp4
 70
     0
102
RTVSPropertyOp5
 70
     0
102
RTVSPropertyOp6
 70
     0
102
RTVSPropertyOp7
 70
     0
102
RTVSPropertyOp8
 70
     0
102
RTVSPropertyOp9
 70
     0
102
RTVSPropertyOp10
 70
     0
102
RTVSPropertyOp11
 70
     0
102
RTVSPropertyOp12
 70
     0
102
RTVSPropertyOp13
 70
     0
102
RTVSPropertyOp14
 70
     2
102
RTVSPropertyOp15
 70
     0
102
RTVSPropertyOp16
 70
     0
102
RTVSPropertyOp17
 70
     0
102
RTVSPropertyOp18
 70
     0
102
RTVSPropertyOp19
 70
     0
102
RTVSPropertyOp20
 70
     0
102
RTVSPropertyOp21
 70
     0
102
RTVSPropertyOp22
 70
     0
102
RTVSPropertyOp23
 70
     0
102
RTVSPropertyOp24
 70
     0
102
RTVSPropertyOp25
 70
     0
102
RTVSPropertyOp26
 70
     0
102
RTVSPropertyOp27
 70
     0
102
RTVSPropertyOp28
 70
     0
102
RTVSPropertyOp29
 70
     0
102
RTVSPropertyOp30
 70
     0
102
RTVSPropertyOp31
 70
     0
102
RTVSPropertyOp32
 70
     0
  0
XRECORD
  5
192
102
{ACAD_REACTORS
330
191
102
}
330
191
100
AcDbXrecord
280
     1
102
RTVSPropertyOp0
 70
     1
102
RTVSPropertyOp1
 70
     1
102
RTVSPropertyOp2
 70
     1
102
RTVSPropertyOp3
 70
     1
102
RTVSPropertyOp4
 70
     1
102
RTVSPropertyOp5
 70
     1
102
RTVSPropertyOp6
 70
     1
102
RTVSPropertyOp7
 70
     1
102
RTVSPropertyOp8
 70
     1
102
RTVSPropertyOp9
 70
     1
102
RTVSPropertyOp10
 70
     1
102
RTVSPropertyOp11
 70
     1
102
RTVSPropertyOp12
 70
     1
102
RTVSPropertyOp13
 70
     1
102
RTVSPropertyOp14
 70
     1
102
RTVSPropertyOp15
 70
     1
102
RTVSPropertyOp16
 70
     1
102
RTVSPropertyOp17
 70
     1
102
RTVSPropertyOp18
 70
     1
102
RTVSPropertyOp19
 70
     1
102
RTVSPropertyOp20
 70
     1
102
RTVSPropertyOp21
 70
     1
102
RTVSPropertyOp22
 70
     1
102
RTVSPropertyOp23
 70
     1
102
RTVSPropertyOp24
 70
     1
102
RTVSPropertyOp25
 70
     1
102
RTVSPropertyOp26
 70
     1
102
RTVSPropertyOp27
 70
     1
102
RTVSPropertyOp28
 70
     1
102
RTVSPropertyOp29
 70
     1
102
RTVSPropertyOp30
 70
     1
102
RTVSPropertyOp31
 70
     1
102
RTVSPropertyOp32
 70
     1
  0
XRECORD
  5
17C
102
{ACAD_REACTORS
330
17B
102
}
330
17B
100
AcDbXrecord
280
     1
102
RTVSPropertyOp0
 70
     1
102
RTVSPropertyOp1
 70
     1
102
RTVSPropertyOp2
 70
     1
102
RTVSPropertyOp3
 70
     1
102
RTVSPropertyOp4
 70
     1
102
RTVSPropertyOp5
 70
     1
102
RTVSPropertyOp6
 70
     1
102
RTVSPropertyOp7
 70
     1
102
RTVSPropertyOp8
 70
     1
102
RTVSPropertyOp9
 70
     1
102
RTVSPropertyOp10
 70
     1
102
RTVSPropertyOp11
 70
     1
102
RTVSPropertyOp12
 70
     1
102
RTVSPropertyOp13
 70
     1
102
RTVSPropertyOp14
 70
     1
102
RTVSPropertyOp15
 70
     1
102
RTVSPropertyOp16
 70
     1
102
RTVSPropertyOp17
 70
     1
102
RTVSPropertyOp18
 70
     1
102
RTVSPropertyOp19
 70
     1
102
RTVSPropertyOp20
 70
     1
102
RTVSPropertyOp21
 70
     1
102
RTVSPropertyOp22
 70
     1
102
RTVSPropertyOp23
 70
     1
102
RTVSPropertyOp24
 70
     1
102
RTVSPropertyOp25
 70
     1
102
RTVSPropertyOp26
 70
     1
102
RTVSPropertyOp27
 70
     1
102
RTVSPropertyOp28
 70
     1
102
RTVSPropertyOp29
 70
     1
102
RTVSPropertyOp30
 70
     1
102
RTVSPropertyOp31
 70
     1
102
RTVSPropertyOp32
 70
     1
  0
XRECORD
  5
17E
102
{ACAD_REACTORS
330
17D
102
}
330
17D
100
AcDbXrecord
280
     1
102
RTVSPropertyOp0
 70
     1
102
RTVSPropertyOp1
 70
     1
102
RTVSPropertyOp2
 70
     1
102
RTVSPropertyOp3
 70
     1
102
RTVSPropertyOp4
 70
     1
102
RTVSPropertyOp5
 70
     1
102
RTVSPropertyOp6
 70
     1
102
RTVSPropertyOp7
 70
     1
102
RTVSPropertyOp8
 70
     1
102
RTVSPropertyOp9
 70
     1
102
RTVSPropertyOp10
 70
     1
102
RTVSPropertyOp11
 70
     1
102
RTVSPropertyOp12
 70
     1
102
RTVSPropertyOp13
 70
     1
102
RTVSPropertyOp14
 70
     1
102
RTVSPropertyOp15
 70
     1
102
RTVSPropertyOp16
 70
     1
102
RTVSPropertyOp17
 70
     1
102
RTVSPropertyOp18
 70
     1
102
RTVSPropertyOp19
 70
     1
102
RTVSPropertyOp20
 70
     1
102
RTVSPropertyOp21
 70
     1
102
RTVSPropertyOp22
 70
     1
102
RTVSPropertyOp23
 70
     1
102
RTVSPropertyOp24
 70
     1
102
RTVSPropertyOp25
 70
     1
102
RTVSPropertyOp26
 70
     1
102
RTVSPropertyOp27
 70
     1
102
RTVSPropertyOp28
 70
     1
102
RTVSPropertyOp29
 70
     1
102
RTVSPropertyOp30
 70
     1
102
RTVSPropertyOp31
 70
     1
102
RTVSPropertyOp32
 70
     1
  0
XRECORD
  5
180
102
{ACAD_REACTORS
330
17F
102
}
330
17F
100
AcDbXrecord
280
     1
102
RTVSPropertyOp0
 70
     1
102
RTVSPropertyOp1
 70
     1
102
RTVSPropertyOp2
 70
     1
102
RTVSPropertyOp3
 70
     1
102
RTVSPropertyOp4
 70
     1
102
RTVSPropertyOp5
 70
     1
102
RTVSPropertyOp6
 70
     1
102
RTVSPropertyOp7
 70
     1
102
RTVSPropertyOp8
 70
     1
102
RTVSPropertyOp9
 70
     1
102
RTVSPropertyOp10
 70
     1
102
RTVSPropertyOp11
 70
     1
102
RTVSPropertyOp12
 70
     1
102
RTVSPropertyOp13
 70
     1
102
RTVSPropertyOp14
 70
     1
102
RTVSPropertyOp15
 70
     1
102
RTVSPropertyOp16
 70
     1
102
RTVSPropertyOp17
 70
     1
102
RTVSPropertyOp18
 70
     1
102
RTVSPropertyOp19
 70
     1
102
RTVSPropertyOp20
 70
     1
102
RTVSPropertyOp21
 70
     1
102
RTVSPropertyOp22
 70
     1
102
RTVSPropertyOp23
 70
     1
102
RTVSPropertyOp24
 70
     1
102
RTVSPropertyOp25
 70
     1
102
RTVSPropertyOp26
 70
     1
102
RTVSPropertyOp27
 70
     1
102
RTVSPropertyOp28
 70
     1
102
RTVSPropertyOp29
 70
     1
102
RTVSPropertyOp30
 70
     1
102
RTVSPropertyOp31
 70
     1
102
RTVSPropertyOp32
 70
     1
  0
XRECORD
  5
182
102
{ACAD_REACTORS
330
181
102
}
330
181
100
AcDbXrecord
280
     1
102
RTVSPropertyOp0
 70
     1
102
RTVSPropertyOp1
 70
     1
102
RTVSPropertyOp2
 70
     1
102
RTVSPropertyOp3
 70
     1
102
RTVSPropertyOp4
 70
     1
102
RTVSPropertyOp5
 70
     1
102
RTVSPropertyOp6
 70
     1
102
RTVSPropertyOp7
 70
     1
102
RTVSPropertyOp8
 70
     1
102
RTVSPropertyOp9
 70
     1
102
RTVSPropertyOp10
 70
     1
102
RTVSPropertyOp11
 70
     1
102
RTVSPropertyOp12
 70
     1
102
RTVSPropertyOp13
 70
     1
102
RTVSPropertyOp14
 70
     1
102
RTVSPropertyOp15
 70
     1
102
RTVSPropertyOp16
 70
     1
102
RTVSPropertyOp17
 70
     1
102
RTVSPropertyOp18
 70
     1
102
RTVSPropertyOp19
 70
     1
102
RTVSPropertyOp20
 70
     1
102
RTVSPropertyOp21
 70
     1
102
RTVSPropertyOp22
 70
     1
102
RTVSPropertyOp23
 70
     1
102
RTVSPropertyOp24
 70
     1
102
RTVSPropertyOp25
 70
     1
102
RTVSPropertyOp26
 70
     1
102
RTVSPropertyOp27
 70
     1
102
RTVSPropertyOp28
 70
     1
102
RTVSPropertyOp29
 70
     1
102
RTVSPropertyOp30
 70
     1
102
RTVSPropertyOp31
 70
     1
102
RTVSPropertyOp32
 70
     1
  0
XRECORD
  5
186
102
{ACAD_REACTORS
330
185
102
}
330
185
100
AcDbXrecord
280
     1
102
RTVSPropertyOp0
 70
     1
102
RTVSPropertyOp1
 70
     1
102
RTVSPropertyOp2
 70
     1
102
RTVSPropertyOp3
 70
     1
102
RTVSPropertyOp4
 70
     1
102
RTVSPropertyOp5
 70
     1
102
RTVSPropertyOp6
 70
     1
102
RTVSPropertyOp7
 70
     1
102
RTVSPropertyOp8
 70
     1
102
RTVSPropertyOp9
 70
     1
102
RTVSPropertyOp10
 70
     1
102
RTVSPropertyOp11
 70
     1
102
RTVSPropertyOp12
 70
     1
102
RTVSPropertyOp13
 70
     1
102
RTVSPropertyOp14
 70
     1
102
RTVSPropertyOp15
 70
     1
102
RTVSPropertyOp16
 70
     1
102
RTVSPropertyOp17
 70
     1
102
RTVSPropertyOp18
 70
     1
102
RTVSPropertyOp19
 70
     1
102
RTVSPropertyOp20
 70
     1
102
RTVSPropertyOp21
 70
     1
102
RTVSPropertyOp22
 70
     1
102
RTVSPropertyOp23
 70
     1
102
RTVSPropertyOp24
 70
     1
102
RTVSPropertyOp25
 70
     1
102
RTVSPropertyOp26
 70
     1
102
RTVSPropertyOp27
 70
     1
102
RTVSPropertyOp28
 70
     1
102
RTVSPropertyOp29
 70
     1
102
RTVSPropertyOp30
 70
     1
102
RTVSPropertyOp31
 70
     1
102
RTVSPropertyOp32
 70
     1
  0
XRECORD
  5
1A0
102
{ACAD_REACTORS
330
19F
102
}
330
19F
100
AcDbXrecord
280
     1
102
RTVSPropertyOp0
 70
     0
102
RTVSPropertyOp1
 70
     0
102
RTVSPropertyOp2
 70
     0
102
RTVSPropertyOp3
 70
     0
102
RTVSPropertyOp4
 70
     0
102
RTVSPropertyOp5
 70
     0
102
RTVSPropertyOp6
 70
     0
102
RTVSPropertyOp7
 70
     0
102
RTVSPropertyOp8
 70
     0
102
RTVSPropertyOp9
 70
     0
102
RTVSPropertyOp10
 70
     0
102
RTVSPropertyOp11
 70
     0
102
RTVSPropertyOp12
 70
     0
102
RTVSPropertyOp13
 70
     0
102
RTVSPropertyOp14
 70
     2
102
RTVSPropertyOp15
 70
     0
102
RTVSPropertyOp16
 70
     0
102
RTVSPropertyOp17
 70
     0
102
RTVSPropertyOp18
 70
     0
102
RTVSPropertyOp19
 70
     0
102
RTVSPropertyOp20
 70
     0
102
RTVSPropertyOp21
 70
     0
102
RTVSPropertyOp22
 70
     0
102
RTVSPropertyOp23
 70
     0
102
RTVSPropertyOp24
 70
     0
102
RTVSPropertyOp25
 70
     0
102
RTVSPropertyOp26
 70
     0
102
RTVSPropertyOp27
 70
     0
102
RTVSPropertyOp28
 70
     0
102
RTVSPropertyOp29
 70
     0
102
RTVSPropertyOp30
 70
     0
102
RTVSPropertyOp31
 70
     0
102
RTVSPropertyOp32
 70
     0
  0
XRECORD
  5
190
102
{ACAD_REACTORS
330
18F
102
}
330
18F
100
AcDbXrecord
280
     1
102
RTVSPropertyOp0
 70
     1
102
RTVSPropertyOp1
 70
     1
102
RTVSPropertyOp2
 70
     1
102
RTVSPropertyOp3
 70
     1
102
RTVSPropertyOp4
 70
     1
102
RTVSPropertyOp5
 70
     1
102
RTVSPropertyOp6
 70
     1
102
RTVSPropertyOp7
 70
     1
102
RTVSPropertyOp8
 70
     1
102
RTVSPropertyOp9
 70
     1
102
RTVSPropertyOp10
 70
     1
102
RTVSPropertyOp11
 70
     1
102
RTVSPropertyOp12
 70
     1
102
RTVSPropertyOp13
 70
     1
102
RTVSPropertyOp14
 70
     1
102
RTVSPropertyOp15
 70
     1
102
RTVSPropertyOp16
 70
     1
102
RTVSPropertyOp17
 70
     1
102
RTVSPropertyOp18
 70
     1
102
RTVSPropertyOp19
 70
     1
102
RTVSPropertyOp20
 70
     1
102
RTVSPropertyOp21
 70
     1
102
RTVSPropertyOp22
 70
     1
102
RTVSPropertyOp23
 70
     1
102
RTVSPropertyOp24
 70
     1
102
RTVSPropertyOp25
 70
     1
102
RTVSPropertyOp26
 70
     1
102
RTVSPropertyOp27
 70
     1
102
RTVSPropertyOp28
 70
     1
102
RTVSPropertyOp29
 70
     1
102
RTVSPropertyOp30
 70
     1
102
RTVSPropertyOp31
 70
     1
102
RTVSPropertyOp32
 70
     1
  0
XRECORD
  5
1A2
102
{ACAD_REACTORS
330
1A1
102
}
330
1A1
100
AcDbXrecord
280
     1
102
RTVSPropertyOp0
 70
     0
102
RTVSPropertyOp1
 70
     0
102
RTVSPropertyOp2
 70
     0
102
RTVSPropertyOp3
 70
     0
102
RTVSPropertyOp4
 70
     0
102
RTVSPropertyOp5
 70
     0
102
RTVSPropertyOp6
 70
     0
102
RTVSPropertyOp7
 70
     0
102
RTVSPropertyOp8
 70
     0
102
RTVSPropertyOp9
 70
     0
102
RTVSPropertyOp10
 70
     0
102
RTVSPropertyOp11
 70
     0
102
RTVSPropertyOp12
 70
     0
102
RTVSPropertyOp13
 70
     0
102
RTVSPropertyOp14
 70
     2
102
RTVSPropertyOp15
 70
     0
102
RTVSPropertyOp16
 70
     0
102
RTVSPropertyOp17
 70
     0
102
RTVSPropertyOp18
 70
     0
102
RTVSPropertyOp19
 70
     0
102
RTVSPropertyOp20
 70
     0
102
RTVSPropertyOp21
 70
     0
102
RTVSPropertyOp22
 70
     0
102
RTVSPropertyOp23
 70
     0
102
RTVSPropertyOp24
 70
     0
102
RTVSPropertyOp25
 70
     0
102
RTVSPropertyOp26
 70
     0
102
RTVSPropertyOp27
 70
     0
102
RTVSPropertyOp28
 70
     0
102
RTVSPropertyOp29
 70
     0
102
RTVSPropertyOp30
 70
     0
102
RTVSPropertyOp31
 70
     0
102
RTVSPropertyOp32
 70
     0
  0
XRECORD
  5
178
102
{ACAD_REACTORS
330
177
102
}
330
177
100
AcDbXrecord
280
     1
102
RTVSPropertyOp0
 70
     1
102
RTVSPropertyOp1
 70
     1
102
RTVSPropertyOp2
 70
     1
102
RTVSPropertyOp3
 70
     1
102
RTVSPropertyOp4
 70
     1
102
RTVSPropertyOp5
 70
     1
102
RTVSPropertyOp6
 70
     1
102
RTVSPropertyOp7
 70
     1
102
RTVSPropertyOp8
 70
     1
102
RTVSPropertyOp9
 70
     1
102
RTVSPropertyOp10
 70
     1
102
RTVSPropertyOp11
 70
     1
102
RTVSPropertyOp12
 70
     1
102
RTVSPropertyOp13
 70
     1
102
RTVSPropertyOp14
 70
     1
102
RTVSPropertyOp15
 70
     1
102
RTVSPropertyOp16
 70
     1
102
RTVSPropertyOp17
 70
     1
102
RTVSPropertyOp18
 70
     1
102
RTVSPropertyOp19
 70
     1
102
RTVSPropertyOp20
 70
     1
102
RTVSPropertyOp21
 70
     1
102
RTVSPropertyOp22
 70
     1
102
RTVSPropertyOp23
 70
     1
102
RTVSPropertyOp24
 70
     1
102
RTVSPropertyOp25
 70
     1
102
RTVSPropertyOp26
 70
     1
102
RTVSPropertyOp27
 70
     1
102
RTVSPropertyOp28
 70
     1
102
RTVSPropertyOp29
 70
     1
102
RTVSPropertyOp30
 70
     1
102
RTVSPropertyOp31
 70
     1
102
RTVSPropertyOp32
 70
     1
  0
XRECORD
  5
19E
102
{ACAD_REACTORS
330
19D
102
}
330
19D
100
AcDbXrecord
280
     1
102
RTVSPropertyOp0
 70
     1
102
RTVSPropertyOp1
 70
     1
102
RTVSPropertyOp2
 70
     1
102
RTVSPropertyOp3
 70
     1
102
RTVSPropertyOp4
 70
     1
102
RTVSPropertyOp5
 70
     1
102
RTVSPropertyOp6
 70
     1
102
RTVSPropertyOp7
 70
     1
102
RTVSPropertyOp8
 70
     1
102
RTVSPropertyOp9
 70
     1
102
RTVSPropertyOp10
 70
     1
102
RTVSPropertyOp11
 70
     1
102
RTVSPropertyOp12
 70
     1
102
RTVSPropertyOp13
 70
     1
102
RTVSPropertyOp14
 70
     1
102
RTVSPropertyOp15
 70
     1
102
RTVSPropertyOp16
 70
     1
102
RTVSPropertyOp17
 70
     1
102
RTVSPropertyOp18
 70
     1
102
RTVSPropertyOp19
 70
     1
102
RTVSPropertyOp20
 70
     1
102
RTVSPropertyOp21
 70
     1
102
RTVSPropertyOp22
 70
     1
102
RTVSPropertyOp23
 70
     1
102
RTVSPropertyOp24
 70
     1
102
RTVSPropertyOp25
 70
     1
102
RTVSPropertyOp26
 70
     1
102
RTVSPropertyOp27
 70
     1
102
RTVSPropertyOp28
 70
     1
102
RTVSPropertyOp29
 70
     1
102
RTVSPropertyOp30
 70
     1
102
RTVSPropertyOp31
 70
     1
102
RTVSPropertyOp32
 70
     1
  0
XRECORD
  5
19C
102
{ACAD_REACTORS
330
19B
102
}
330
19B
100
AcDbXrecord
280
     1
102
RTVSPropertyOp0
 70
     1
102
RTVSPropertyOp1
 70
     1
102
RTVSPropertyOp2
 70
     1
102
RTVSPropertyOp3
 70
     1
102
RTVSPropertyOp4
 70
     1
102
RTVSPropertyOp5
 70
     1
102
RTVSPropertyOp6
 70
     1
102
RTVSPropertyOp7
 70
     1
102
RTVSPropertyOp8
 70
     1
102
RTVSPropertyOp9
 70
     1
102
RTVSPropertyOp10
 70
     1
102
RTVSPropertyOp11
 70
     1
102
RTVSPropertyOp12
 70
     1
102
RTVSPropertyOp13
 70
     1
102
RTVSPropertyOp14
 70
     1
102
RTVSPropertyOp15
 70
     1
102
RTVSPropertyOp16
 70
     1
102
RTVSPropertyOp17
 70
     1
102
RTVSPropertyOp18
 70
     1
102
RTVSPropertyOp19
 70
     1
102
RTVSPropertyOp20
 70
     1
102
RTVSPropertyOp21
 70
     1
102
RTVSPropertyOp22
 70
     1
102
RTVSPropertyOp23
 70
     1
102
RTVSPropertyOp24
 70
     1
102
RTVSPropertyOp25
 70
     1
102
RTVSPropertyOp26
 70
     1
102
RTVSPropertyOp27
 70
     1
102
RTVSPropertyOp28
 70
     1
102
RTVSPropertyOp29
 70
     1
102
RTVSPropertyOp30
 70
     1
102
RTVSPropertyOp31
 70
     1
102
RTVSPropertyOp32
 70
     1
  0
XRECORD
  5
196
102
{ACAD_REACTORS
330
195
102
}
330
195
100
AcDbXrecord
280
     1
102
RTVSPropertyOp0
 70
     1
102
RTVSPropertyOp1
 70
     1
102
RTVSPropertyOp2
 70
     1
102
RTVSPropertyOp3
 70
     1
102
RTVSPropertyOp4
 70
     1
102
RTVSPropertyOp5
 70
     1
102
RTVSPropertyOp6
 70
     1
102
RTVSPropertyOp7
 70
     1
102
RTVSPropertyOp8
 70
     1
102
RTVSPropertyOp9
 70
     1
102
RTVSPropertyOp10
 70
     1
102
RTVSPropertyOp11
 70
     1
102
RTVSPropertyOp12
 70
     1
102
RTVSPropertyOp13
 70
     1
102
RTVSPropertyOp14
 70
     1
102
RTVSPropertyOp15
 70
     1
102
RTVSPropertyOp16
 70
     1
102
RTVSPropertyOp17
 70
     1
102
RTVSPropertyOp18
 70
     1
102
RTVSPropertyOp19
 70
     1
102
RTVSPropertyOp20
 70
     1
102
RTVSPropertyOp21
 70
     1
102
RTVSPropertyOp22
 70
     1
102
RTVSPropertyOp23
 70
     1
102
RTVSPropertyOp24
 70
     1
102
RTVSPropertyOp25
 70
     1
102
RTVSPropertyOp26
 70
     1
102
RTVSPropertyOp27
 70
     1
102
RTVSPropertyOp28
 70
     1
102
RTVSPropertyOp29
 70
     1
102
RTVSPropertyOp30
 70
     1
102
RTVSPropertyOp31
 70
     1
102
RTVSPropertyOp32
 70
     1
  0
XRECORD
  5
198
102
{ACAD_REACTORS
330
197
102
}
330
197
100
AcDbXrecord
280
     1
102
RTVSPropertyOp0
 70
     1
102
RTVSPropertyOp1
 70
     1
102
RTVSPropertyOp2
 70
     1
102
RTVSPropertyOp3
 70
     1
102
RTVSPropertyOp4
 70
     1
102
RTVSPropertyOp5
 70
     1
102
RTVSPropertyOp6
 70
     1
102
RTVSPropertyOp7
 70
     1
102
RTVSPropertyOp8
 70
     1
102
RTVSPropertyOp9
 70
     1
102
RTVSPropertyOp10
 70
     1
102
RTVSPropertyOp11
 70
     1
102
RTVSPropertyOp12
 70
     1
102
RTVSPropertyOp13
 70
     1
102
RTVSPropertyOp14
 70
     1
102
RTVSPropertyOp15
 70
     1
102
RTVSPropertyOp16
 70
     1
102
RTVSPropertyOp17
 70
     1
102
RTVSPropertyOp18
 70
     1
102
RTVSPropertyOp19
 70
     1
102
RTVSPropertyOp20
 70
     1
102
RTVSPropertyOp21
 70
     1
102
RTVSPropertyOp22
 70
     1
102
RTVSPropertyOp23
 70
     1
102
RTVSPropertyOp24
 70
     1
102
RTVSPropertyOp25
 70
     1
102
RTVSPropertyOp26
 70
     1
102
RTVSPropertyOp27
 70
     1
102
RTVSPropertyOp28
 70
     1
102
RTVSPropertyOp29
 70
     1
102
RTVSPropertyOp30
 70
     1
102
RTVSPropertyOp31
 70
     1
102
RTVSPropertyOp32
 70
     1
  0
XRECORD
  5
18E
102
{ACAD_REACTORS
330
18D
102
}
330
18D
100
AcDbXrecord
280
     1
102
RTVSPropertyOp0
 70
     1
102
RTVSPropertyOp1
 70
     1
102
RTVSPropertyOp2
 70
     1
102
RTVSPropertyOp3
 70
     1
102
RTVSPropertyOp4
 70
     1
102
RTVSPropertyOp5
 70
     1
102
RTVSPropertyOp6
 70
     1
102
RTVSPropertyOp7
 70
     1
102
RTVSPropertyOp8
 70
     1
102
RTVSPropertyOp9
 70
     1
102
RTVSPropertyOp10
 70
     1
102
RTVSPropertyOp11
 70
     1
102
RTVSPropertyOp12
 70
     1
102
RTVSPropertyOp13
 70
     1
102
RTVSPropertyOp14
 70
     1
102
RTVSPropertyOp15
 70
     1
102
RTVSPropertyOp16
 70
     1
102
RTVSPropertyOp17
 70
     1
102
RTVSPropertyOp18
 70
     1
102
RTVSPropertyOp19
 70
     1
102
RTVSPropertyOp20
 70
     1
102
RTVSPropertyOp21
 70
     1
102
RTVSPropertyOp22
 70
     1
102
RTVSPropertyOp23
 70
     1
102
RTVSPropertyOp24
 70
     1
102
RTVSPropertyOp25
 70
     1
102
RTVSPropertyOp26
 70
     1
102
RTVSPropertyOp27
 70
     1
102
RTVSPropertyOp28
 70
     1
102
RTVSPropertyOp29
 70
     1
102
RTVSPropertyOp30
 70
     1
102
RTVSPropertyOp31
 70
     1
102
RTVSPropertyOp32
 70
     1
  0
XRECORD
  5
17A
102
{ACAD_REACTORS
330
179
102
}
330
179
100
AcDbXrecord
280
     1
102
RTVSPropertyOp0
 70
     1
102
RTVSPropertyOp1
 70
     1
102
RTVSPropertyOp2
 70
     1
102
RTVSPropertyOp3
 70
     1
102
RTVSPropertyOp4
 70
     1
102
RTVSPropertyOp5
 70
     1
102
RTVSPropertyOp6
 70
     1
102
RTVSPropertyOp7
 70
     1
102
RTVSPropertyOp8
 70
     1
102
RTVSPropertyOp9
 70
     1
102
RTVSPropertyOp10
 70
     1
102
RTVSPropertyOp11
 70
     1
102
RTVSPropertyOp12
 70
     1
102
RTVSPropertyOp13
 70
     1
102
RTVSPropertyOp14
 70
     1
102
RTVSPropertyOp15
 70
     1
102
RTVSPropertyOp16
 70
     1
102
RTVSPropertyOp17
 70
     1
102
RTVSPropertyOp18
 70
     1
102
RTVSPropertyOp19
 70
     1
102
RTVSPropertyOp20
 70
     1
102
RTVSPropertyOp21
 70
     1
102
RTVSPropertyOp22
 70
     1
102
RTVSPropertyOp23
 70
     1
102
RTVSPropertyOp24
 70
     1
102
RTVSPropertyOp25
 70
     1
102
RTVSPropertyOp26
 70
     1
102
RTVSPropertyOp27
 70
     1
102
RTVSPropertyOp28
 70
     1
102
RTVSPropertyOp29
 70
     1
102
RTVSPropertyOp30
 70
     1
102
RTVSPropertyOp31
 70
     1
102
RTVSPropertyOp32
 70
     1
  0
XRECORD
  5
19A
102
{ACAD_REACTORS
330
199
102
}
330
199
100
AcDbXrecord
280
     1
102
RTVSPropertyOp0
 70
     1
102
RTVSPropertyOp1
 70
     1
102
RTVSPropertyOp2
 70
     1
102
RTVSPropertyOp3
 70
     1
102
RTVSPropertyOp4
 70
     1
102
RTVSPropertyOp5
 70
     1
102
RTVSPropertyOp6
 70
     1
102
RTVSPropertyOp7
 70
     1
102
RTVSPropertyOp8
 70
     1
102
RTVSPropertyOp9
 70
     1
102
RTVSPropertyOp10
 70
     1
102
RTVSPropertyOp11
 70
     1
102
RTVSPropertyOp12
 70
     1
102
RTVSPropertyOp13
 70
     1
102
RTVSPropertyOp14
 70
     1
102
RTVSPropertyOp15
 70
     1
102
RTVSPropertyOp16
 70
     1
102
RTVSPropertyOp17
 70
     1
102
RTVSPropertyOp18
 70
     1
102
RTVSPropertyOp19
 70
     1
102
RTVSPropertyOp20
 70
     1
102
RTVSPropertyOp21
 70
     1
102
RTVSPropertyOp22
 70
     1
102
RTVSPropertyOp23
 70
     1
102
RTVSPropertyOp24
 70
     1
102
RTVSPropertyOp25
 70
     1
102
RTVSPropertyOp26
 70
     1
102
RTVSPropertyOp27
 70
     1
102
RTVSPropertyOp28
 70
     1
102
RTVSPropertyOp29
 70
     1
102
RTVSPropertyOp30
 70
     1
102
RTVSPropertyOp31
 70
     1
102
RTVSPropertyOp32
 70
     1
  0
ENDSEC
  0
EOF
