  0
SECTION
  2
HEADER
  9
$ACADVER
  1
AC1015
  9
$ACADMAINTVER
 70
    18
  9
$DWGCODEPAGE
  3
ANSI_1252
  9
$INSBASE
 10
0.0
 20
0.0
 30
0.0
  9
$EXTMIN
 10
-35.46674624829468
 20
-20.37893405100601
 30
0.0
  9
$EXTMAX
 10
35.46674624829468
 20
3097.100000000001
 30
0.0
  9
$LIMMIN
 10
0.0
 20
0.0
  9
$LIMMAX
 10
1189.0
 20
840.9999999999998
  9
$ORTHOMODE
 70
     0
  9
$REGENMODE
 70
     1
  9
$FILLMODE
 70
     1
  9
$QTEXTMODE
 70
     0
  9
$MIRRTEXT
 70
     0
  9
$LTSCALE
 40
1.0
  9
$ATTMODE
 70
     1
  9
$TEXTSIZE
 40
0.2
  9
$TRACEWID
 40
0.05
  9
$TEXTSTYLE
  7
STANDARD
  9
$CLAYER
  8
0
  9
$CELTYPE
  6
ByLayer
  9
$CECOLOR
 62
   256
  9
$CELTSCALE
 40
1.0
  9
$DISPSILH
 70
     0
  9
$DIMSCALE
 40
1.0
  9
$DIMASZ
 40
180.0
  9
$DIMEXO
 40
0.0625
  9
$DIMDLI
 40
0.38
  9
$DIMRND
 40
0.0
  9
$DIMDLE
 40
0.0
  9
$DIMEXE
 40
0.18
  9
$DIMTP
 40
0.0
  9
$DIMTM
 40
0.0
  9
$DIMTXT
 40
34.99999940395355
  9
$DIMCEN
 40
0.09
  9
$DIMTSZ
 40
0.0
  9
$DIMTOL
 70
     0
  9
$DIMLIM
 70
     0
  9
$DIMTIH
 70
     1
  9
$DIMTOH
 70
     1
  9
$DIMSE1
 70
     0
  9
$DIMSE2
 70
     0
  9
$DIMTAD
 70
     0
  9
$DIMZIN
 70
     0
  9
$DIMBLK
  1

  9
$DIMASO
 70
     1
  9
$DIMSHO
 70
     1
  9
$DIMPOST
  1

  9
$DIMAPOST
  1

  9
$DIMALT
 70
     0
  9
$DIMALTD
 70
     2
  9
$DIMALTF
 40
25.4
  9
$DIMLFAC
 40
1.0
  9
$DIMTOFL
 70
     0
  9
$DIMTVP
 40
0.0
  9
$DIMTIX
 70
     0
  9
$DIMSOXD
 70
     0
  9
$DIMSAH
 70
     0
  9
$DIMBLK1
  1

  9
$DIMBLK2
  1

  9
$DIMSTYLE
  2
STANDARD
  9
$DIMCLRD
 70
     0
  9
$DIMCLRE
 70
     0
  9
$DIMCLRT
 70
     0
  9
$DIMTFAC
 40
1.0
  9
$DIMGAP
 40
0.09
  9
$DIMJUST
 70
     0
  9
$DIMSD1
 70
     0
  9
$DIMSD2
 70
     0
  9
$DIMTOLJ
 70
     1
  9
$DIMTZIN
 70
     0
  9
$DIMALTZ
 70
     0
  9
$DIMALTTZ
 70
     0
  9
$DIMUPT
 70
     0
  9
$DIMDEC
 70
     4
  9
$DIMTDEC
 70
     4
  9
$DIMALTU
 70
     2
  9
$DIMALTTD
 70
     2
  9
$DIMTXSTY
  7
STANDARD
  9
$DIMAUNIT
 70
     0
  9
$DIMADEC
 70
     0
  9
$DIMALTRND
 40
0.0
  9
$DIMAZIN
 70
     0
  9
$DIMDSEP
 70
    46
  9
$DIMATFIT
 70
     3
  9
$DIMFRAC
 70
     0
  9
$DIMLDRBLK
  1

  9
$DIMLUNIT
 70
     2
  9
$DIMLWD
 70
    -2
  9
$DIMLWE
 70
    -2
  9
$DIMTMOVE
 70
     0
  9
$LUNITS
 70
     2
  9
$LUPREC
 70
     4
  9
$SKETCHINC
 40
0.1
  9
$FILLETRAD
 40
0.0
  9
$AUNITS
 70
     0
  9
$AUPREC
 70
     0
  9
$MENU
  1
.
  9
$ELEVATION
 40
0.0
  9
$PELEVATION
 40
0.0
  9
$THICKNESS
 40
0.0
  9
$LIMCHECK
 70
     0
  9
$CHAMFERA
 40
0.0
  9
$CHAMFERB
 40
0.0
  9
$CHAMFERC
 40
0.0
  9
$CHAMFERD
 40
0.0
  9
$SKPOLY
 70
     0
  9
$TDCREATE
 40
2454871.497639329
  9
$TDUCREATE
 40
2454871.455972662
  9
$TDUPDATE
 40
2455943.900409792
  9
$TDUUPDATE
 40
2455943.858743125
  9
$TDINDWG
 40
0.0124258218
  9
$TDUSRTIMER
 40
0.0124258218
  9
$USRTIMER
 70
     1
  9
$ANGBASE
 50
0.0
  9
$ANGDIR
 70
     0
  9
$PDMODE
 70
     0
  9
$PDSIZE
 40
0.0
  9
$PLINEWID
 40
0.0
  9
$SPLFRAME
 70
     0
  9
$SPLINETYPE
 70
     6
  9
$SPLINESEGS
 70
     8
  9
$HANDSEED
  5
164
  9
$SURFTAB1
 70
     6
  9
$SURFTAB2
 70
     6
  9
$SURFTYPE
 70
     6
  9
$SURFU
 70
     6
  9
$SURFV
 70
     6
  9
$UCSBASE
  2

  9
$UCSNAME
  2

  9
$UCSORG
 10
0.0
 20
0.0
 30
0.0
  9
$UCSXDIR
 10
1.0
 20
0.0
 30
0.0
  9
$UCSYDIR
 10
0.0
 20
1.0
 30
0.0
  9
$UCSORTHOREF
  2

  9
$UCSORTHOVIEW
 70
     0
  9
$UCSORGTOP
 10
0.0
 20
0.0
 30
0.0
  9
$UCSORGBOTTOM
 10
0.0
 20
0.0
 30
0.0
  9
$UCSORGLEFT
 10
0.0
 20
0.0
 30
0.0
  9
$UCSORGRIGHT
 10
0.0
 20
0.0
 30
0.0
  9
$UCSORGFRONT
 10
0.0
 20
0.0
 30
0.0
  9
$UCSORGBACK
 10
0.0
 20
0.0
 30
0.0
  9
$PUCSBASE
  2

  9
$PUCSNAME
  2

  9
$PUCSORG
 10
0.0
 20
0.0
 30
0.0
  9
$PUCSXDIR
 10
1.0
 20
0.0
 30
0.0
  9
$PUCSYDIR
 10
0.0
 20
1.0
 30
0.0
  9
$PUCSORTHOREF
  2

  9
$PUCSORTHOVIEW
 70
     0
  9
$PUCSORGTOP
 10
0.0
 20
0.0
 30
0.0
  9
$PUCSORGBOTTOM
 10
0.0
 20
0.0
 30
0.0
  9
$PUCSORGLEFT
 10
0.0
 20
0.0
 30
0.0
  9
$PUCSORGRIGHT
 10
0.0
 20
0.0
 30
0.0
  9
$PUCSORGFRONT
 10
0.0
 20
0.0
 30
0.0
  9
$PUCSORGBACK
 10
0.0
 20
0.0
 30
0.0
  9
$USERI1
 70
     0
  9
$USERI2
 70
     0
  9
$USERI3
 70
     0
  9
$USERI4
 70
     0
  9
$USERI5
 70
     0
  9
$USERR1
 40
0.0
  9
$USERR2
 40
0.0
  9
$USERR3
 40
0.0
  9
$USERR4
 40
0.0
  9
$USERR5
 40
0.0
  9
$WORLDVIEW
 70
     1
  9
$SHADEDGE
 70
     3
  9
$SHADEDIF
 70
    70
  9
$TILEMODE
 70
     1
  9
$MAXACTVP
 70
    64
  9
$PINSBASE
 10
0.0
 20
0.0
 30
0.0
  9
$PLIMCHECK
 70
     0
  9
$PEXTMIN
 10
0.0
 20
0.0
 30
0.0
  9
$PEXTMAX
 10
1189.0
 20
840.9999999999998
 30
0.0
  9
$PLIMMIN
 10
0.0
 20
0.0
  9
$PLIMMAX
 10
1189.0
 20
840.9999999999998
  9
$UNITMODE
 70
     0
  9
$VISRETAIN
 70
     1
  9
$PLINEGEN
 70
     0
  9
$PSLTSCALE
 70
     1
  9
$TREEDEPTH
 70
  3020
  9
$CMLSTYLE
  2
Standard
  9
$CMLJUST
 70
     0
  9
$CMLSCALE
 40
1.0
  9
$PROXYGRAPHICS
 70
     1
  9
$MEASUREMENT
 70
     1
  9
$CELWEIGHT
370
    -1
  9
$ENDCAPS
280
     0
  9
$JOINSTYLE
280
     0
  9
$LWDISPLAY
290
     0
  9
$INSUNITS
 70
     4
  9
$HYPERLINKBASE
  1

  9
$STYLESHEET
  1

  9
$XEDIT
290
     1
  9
$CEPSNTYPE
380
     0
  9
$PSTYLEMODE
290
     1
  9
$FINGERPRINTGUID
  2
{616AFCB5-F341-46C0-9B42-FA1BAFBABAA5}
  9
$VERSIONGUID
  2
{339B4904-CE4A-46B3-B186-4AF5AED021F2}
  9
$EXTNAMES
290
     1
  9
$PSVPSCALE
 40
0.0
  9
$OLESTARTUP
290
     0
  0
ENDSEC
  0
SECTION
  2
CLASSES
  0
CLASS
  1
ACDBDICTIONARYWDFLT
  2
AcDbDictionaryWithDefault
  3
ObjectDBX Classes
 90
        0
280
     0
281
     0
  0
CLASS
  1
MATERIAL
  2
AcDbMaterial
  3
ObjectDBX Classes
 90
     1153
280
     0
281
     0
  0
CLASS
  1
VISUALSTYLE
  2
AcDbVisualStyle
  3
ObjectDBX Classes
 90
     4095
280
     0
281
     0
  0
CLASS
  1
SCALE
  2
AcDbScale
  3
ObjectDBX Classes
 90
     1153
280
     0
281
     0
  0
CLASS
  1
TABLESTYLE
  2
AcDbTableStyle
  3
ObjectDBX Classes
 90
     4095
280
     0
281
     0
  0
CLASS
  1
MLEADERSTYLE
  2
AcDbMLeaderStyle
  3
ACDB_MLEADERSTYLE_CLASS
 90
     4095
280
     0
281
     0
  0
CLASS
  1
SORTENTSTABLE
  2
AcDbSortentsTable
  3
ObjectDBX Classes
 90
        0
280
     0
281
     0
  0
CLASS
  1
CELLSTYLEMAP
  2
AcDbCellStyleMap
  3
ObjectDBX Classes
 90
     1152
280
     0
281
     0
  0
CLASS
  1
DICTIONARYVAR
  2
AcDbDictionaryVar
  3
ObjectDBX Classes
 90
        0
280
     0
281
     0
  0
CLASS
  1
ACME_DOCUMENT
  2
AcMeDbDoc
  3
AcMeServices
 90
    33792
280
     1
281
     0
  0
CLASS
  1
AMGSETTINGSOBJ
  2
AmgSettingsObj
  3
"AcadM|Product Description: AutoCAD Mechanical|Company: Autodesk, Inc."
 90
    33792
280
     1
281
     0
  0
CLASS
  1
ACMESCOPE
  2
AcMeScope
  3
AcMeServices
 90
    33792
280
     1
281
     0
  0
CLASS
  1
ACMECOMMANDHISTORY
  2
AcMeCommandHistory
  3
AcMeServices
 90
    33792
280
     1
281
     0
  0
CLASS
  1
ACIMSYSVARMAN
  2
AcImSysVarManager
  3
AcMeServices
 90
    33792
280
     1
281
     0
  0
CLASS
  1
ACIMINTSYSVAR
  2
AcImIntSysVar
  3
AcMeServices
 90
    33792
280
     1
281
     0
  0
CLASS
  1
ACMEDRAWINGMAN
  2
AcMeDrawingMan
  3
AcMeServices
 90
    33792
280
     1
281
     0
  0
CLASS
  1
ACMEVIEW
  2
AcMeView
  3
AcMeServices
 90
    33792
280
     1
281
     0
  0
CLASS
  1
ACDBENTITYCACHE
  2
AcMeEntityCache
  3
AcMeServices
 90
    33792
280
     1
281
     0
  0
CLASS
  1
GSMANAGER
  2
AcMeGSManager
  3
AcMeServices
 90
    33792
280
     1
281
     0
  0
CLASS
  1
AMDTINTERNALREACTOR
  2
AmdtInternalReactor
  3
AcMeServices
 90
    33792
280
     1
281
     0
  0
CLASS
  1
ACMESTATEMGR
  2
AcMeStateMgr
  3
AcMeServices
 90
    33792
280
     1
281
     0
  0
CLASS
  1
ACGREFMASTER
  2
AcGrefMaster
  3
AcAttribServices
 90
    33792
280
     1
281
     0
  0
CLASS
  1
AM_DRAWING_MGR
  2
AcDmDwgMgr
  3
AcMechDwgViewMgmt
 90
    33792
280
     1
281
     0
  0
CLASS
  1
AM_DWG_DOCUMENT
  2
AcDmDwgDocument
  3
AcMechDwgViewMgmt
 90
    33792
280
     1
281
     0
  0
CLASS
  1
AM_DWG_SHEET
  2
AcDmSheet
  3
AcMechDwgViewMgmt
 90
    33792
280
     1
281
     0
  0
CLASS
  1
AM_VIEWDIMPARMAP
  2
AcDmViewDimParMap
  3
AcMechDwgViewMgmt
 90
    33792
280
     1
281
     0
  0
CLASS
  1
ACIMREALSYSVAR
  2
AcImRealSysVar
  3
AcMeServices
 90
    33792
280
     1
281
     0
  0
CLASS
  1
AM_DWGMGR_NAME
  2
AcDmDwgMgrName
  3
AcMechDwgViewMgmt
 90
    33792
280
     1
281
     0
  0
CLASS
  1
ACME_DATABASE
  2
AcMeDbDatabase
  3
AcMeServices
 90
    33792
280
     1
281
     0
  0
CLASS
  1
ACRFINSADJUSTERMGR
  2
AcRfInsAdjusterMgr
  3
AcMeServices
 90
    33792
280
     1
281
     0
  0
CLASS
  1
ACGREFACADMASTER
  2
AcGrefacadMaster
  3
AcGrefServices
 90
    33792
280
     1
281
     0
  0
CLASS
  1
AMDTMENUSTATEMGR
  2
AmdtMenuStateMgr
  3
McadcomServices
 90
    33792
280
     1
281
     0
  0
CLASS
  1
AMDTMCOMMENUSTATE
  2
AmdtMcomMenuState
  3
McadcomServices
 90
    33792
280
     1
281
     0
  0
CLASS
  1
AMIMASTER
  2
AmiMaster
  3
AmiServices
 90
    33792
280
     1
281
     0
  0
CLASS
  1
MAPIAMMOUDLE
  2
MApiAmModule
  3
MApiAmServices
 90
    33792
280
     1
281
     0
  0
CLASS
  1
ACIMSTRSYSVAR
  2
AcImStrSysVar
  3
AcMeServices
 90
    33792
280
     1
281
     0
  0
CLASS
  1
AMDTADMENUSTATE
  2
AmdtAdMenuState
  3
DesignerServices
 90
    33792
280
     1
281
     0
  0
CLASS
  1
ADAPPL
  2
AcAdAppl
  3
DesignerServices
 90
    33792
280
     1
281
     0
  0
CLASS
  1
DEPMGR
  2
AcAdDepMgr
  3
DesignerServices
 90
    33792
280
     1
281
     0
  0
CLASS
  1
PARAMMGR
  2
AcAdParamMgr
  3
DesignerServices
 90
    33792
280
     1
281
     0
  0
CLASS
  1
PARAMSCOPE
  2
AcAdParamScope
  3
DesignerServices
 90
    33792
280
     1
281
     0
  0
CLASS
  1
NAMEDAPPL
  2
AcAdNamedAppl
  3
DesignerServices
 90
    33792
280
     1
281
     0
  0
CLASS
  1
AMDTDMMENUSTATE
  2
AmdtDmMenuState
  3
AcMechDwgViewMgmt
 90
    33792
280
     1
281
     0
  0
CLASS
  1
AMDTAMMENUSTATE
  2
AmdtAmMenuState
  3
DesignerAssemblies
 90
    33792
280
     1
281
     0
  0
CLASS
  1
ACAMPROJECT
  2
AcAmProject
  3
DesignerAssemblies
 90
    33792
280
     1
281
     0
  0
CLASS
  1
ACAMGRCOMPDEF
  2
AcAmGrCompDef
  3
DesignerAssemblies
 90
    33792
280
     1
281
     0
  0
CLASS
  1
ACCMCONTEXT
  2
AcCmContext
  3
DesignerAssemblies
 90
    33792
280
     1
281
     0
  0
CLASS
  1
ACAMCOMPDEF
  2
AcAmCompDef
  3
DesignerAssemblies
 90
    33792
280
     1
281
     0
  0
CLASS
  1
ACAMCOMPDEFMGR
  2
AcAmCompDefMgr
  3
DesignerAssemblies
 90
    33792
280
     1
281
     0
  0
CLASS
  1
AMCONTEXTMGR
  2
AcAmContextMgr
  3
DesignerAssemblies
 90
    33792
280
     1
281
     0
  0
CLASS
  1
ACAMCONTEXTMODELER
  2
AcAmContextModeler
  3
DesignerAssemblies
 90
    33792
280
     1
281
     0
  0
CLASS
  1
ACMDATADICTIONARY
  2
AcmDataDictionary
  3
"AcmSymBB|Product Description: AutoCAD Mechanical|Company: Autodesk, Inc."
 90
    33792
280
     1
281
     0
  0
CLASS
  1
CATALOGSTATE
  2
AcAmCatalogState
  3
DesignerAssemblies
 90
    33792
280
     1
281
     0
  0
CLASS
  1
ACAMGRCOMPDEFSET
  2
AcAmGrCompDefSet
  3
DesignerAssemblies
 90
    33792
280
     1
281
     0
  0
CLASS
  1
AMDTBROWSERDBTAB
  2
AmdtBrowserDbTab
  3
McadcomServices
 90
    33792
280
     1
281
     0
  0
CLASS
  1
CBROWSERAPPOBJECT
  2
CBrowserAppObject
  3
McadcomServices
 90
    33792
280
     1
281
     0
  0
CLASS
  1
DM_PLACEHOLDER
  2
AcDmSelsetPlaceholder
  3
AcMechDwgViewMgmt
 90
    33792
280
     1
281
     0
  0
CLASS
  1
EXACXREFPANELOBJECT
  2
ExAcXREFPanelObject
  3
EXAC_ESW
 90
     1025
280
     0
281
     0
  0
CLASS
  1
NPOCOLLECTION
  2
AcDbImpNonPersistentObjectsCollection
  3
ObjectDBX Classes
 90
     1153
280
     0
281
     0
  0
CLASS
  1
ACMSTANDARDANSI
  2
AcmStandardANSI
  3
"Amdt_StdImp|Product Description: AutoCAD Mechanical|Company: Autodesk, Inc."
 90
    33792
280
     1
281
     0
  0
CLASS
  1
ACMSURFSTANDARDANSI
  2
AcmSurfTextStdANSI
  3
"Amdt_StdImp|Product Description: AutoCAD Mechanical|Company: Autodesk, Inc."
 90
    33792
280
     1
281
     0
  0
CLASS
  1
ACMFCFSTANDARDANSI
  2
AcmFCFStdANSI
  3
"Amdt_StdImp|Product Description: AutoCAD Mechanical|Company: Autodesk, Inc."
 90
    33792
280
     1
281
     0
  0
CLASS
  1
ACMWELDSTANDARDANSI
  2
AcmWeldingStdANSI
  3
"Amdt_StdImp|Product Description: AutoCAD Mechanical|Company: Autodesk, Inc."
 90
    33792
280
     1
281
     0
  0
CLASS
  1
ACMIDSTANDARDANSI
  2
AcmIdStdANSI
  3
"Amdt_StdImp|Product Description: AutoCAD Mechanical|Company: Autodesk, Inc."
 90
    33792
280
     1
281
     0
  0
CLASS
  1
ACMDATUMSTANDARDANSI
  2
AcmDatumStdANSI
  3
"Amdt_StdImp|Product Description: AutoCAD Mechanical|Company: Autodesk, Inc."
 90
    33792
280
     1
281
     0
  0
CLASS
  1
ACMBOMSTANDARDANSI
  2
AcmBOMStdANSI
  3
"Amdt_StdImp|Product Description: AutoCAD Mechanical|Company: Autodesk, Inc."
 90
    33792
280
     1
281
     0
  0
CLASS
  1
ACMDETAILSTANDARDANSI
  2
AmdtDetailSymStdANSI
  3
"Amdt_StdImp|Product Description: AutoCAD Mechanical|Company: Autodesk, Inc."
 90
    33792
280
     1
281
     0
  0
CLASS
  1
ACMSECTIONSTANDARDANSI
  2
AmdtSectionSymStdANSI
  3
"Amdt_StdImp|Product Description: AutoCAD Mechanical|Company: Autodesk, Inc."
 90
    33792
280
     1
281
     0
  0
CLASS
  1
ACMCENTERLINESTANDARDANSI
  2
AmdtCenterLineStdANSI
  3
"Amdt_StdImp|Product Description: AutoCAD Mechanical|Company: Autodesk, Inc."
 90
    33792
280
     1
281
     0
  0
CLASS
  1
ACMTHREADLINESTANDARDANSI
  2
AmdtThreadLineStdANSI
  3
"Amdt_StdImp|Product Description: AutoCAD Mechanical|Company: Autodesk, Inc."
 90
    33792
280
     1
281
     0
  0
CLASS
  1
ACMNOTESTANDARDANSI
  2
AmdtNoteStdANSI
  3
"Amdt_StdImp|Product Description: AutoCAD Mechanical|Company: Autodesk, Inc."
 90
    33792
280
     1
281
     0
  0
CLASS
  1
ACMTAPERSTANDARDANSI
  2
AcmTaperStdANSI
  3
"Amdt_StdImp|Product Description: AutoCAD Mechanical|Company: Autodesk, Inc."
 90
    33792
280
     1
281
     0
  0
CLASS
  1
ACMANOOTATIONVIEWSTANDARDANSI
  2
AmdtAnViewStdANSI
  3
"Amdt_StdImp|Product Description: AutoCAD Mechanical|Company: Autodesk, Inc."
 90
    33792
280
     1
281
     0
  0
CLASS
  1
ACAMGLAYSTD
  2
AcAmgLayStd
  3
"AmgLay|Product Description: AutoCAD Mechanical|Company: Autodesk, Inc."
 90
    33792
280
     1
281
     0
  0
CLASS
  1
ACAMGDIMSTD
  2
AcAmgDimStd
  3
"AmgDim|Product Description: AutoCAD Mechanical|Company: Autodesk, Inc."
 90
    33792
280
     1
281
     0
  0
CLASS
  1
AMGOBJPROPCFG
  2
AmgObjPropCfg
  3
"AmgLay|Product Description: AutoCAD Mechanical|Company: Autodesk, Inc."
 90
    33793
280
     1
281
     0
  0
CLASS
  1
ACAMGHOLECHARTSTDANSI
  2
AcAmgHoleChartStdANSI
  3
AmgDim|Product Description: AutoCAD Mechanical|Company: Autodesk, Inc.
 90
    33792
280
     1
281
     0
  0
CLASS
  1
ACAMGTITLESTD
  2
AcAmgTitleStd
  3
"AmgTitle|Product Description: AutoCAD Mechanical|Company: Autodesk, Inc."
 90
    36863
280
     1
281
     0
  0
CLASS
  1
AMDTNOTETEMPLATEDB
  2
AmdtNoteTemplateDB
  3
AcmSymBB|Product Description: AutoCAD Mechanical|Company: Autodesk, Inc.
 90
    33792
280
     1
281
     0
  0
CLASS
  1
ACAMGFILTERDAT
  2
AcAmgFilterDat
  3
"AcadM|Product Description: AutoCAD Mechanical|Company: Autodesk, Inc."
 90
    33792
280
     1
281
     0
  0
CLASS
  1
CAMSSTRUCTBTNSTATE
  2
StructBtnState
  3
DesignerAssemblies
 90
    33792
280
     1
281
     0
  0
CLASS
  1
ACDBPLACEHOLDER
  2
AcDbPlaceHolder
  3
ObjectDBX Classes
 90
        0
280
     0
281
     0
  0
CLASS
  1
LAYOUT
  2
AcDbLayout
  3
ObjectDBX Classes
 90
        0
280
     0
281
     0
  0
CLASS
  1
SOLID_BACKGROUND
  2
AcDbSolidBackground
  3
SCENEOE
 90
    36863
280
     0
281
     0
  0
ENDSEC
  0
SECTION
  2
TABLES
  0
TABLE
  2
VPORT
  5
28
102
{ACAD_XDICTIONARY
360
2C
102
}
330
0
100
AcDbSymbolTable
 70
     1
  0
VPORT
  5
29
330
28
100
AcDbSymbolTableRecord
100
AcDbViewportTableRecord
  2
*ACTIVE
 70
     0
 10
0.0
 20
0.0
 11
1.0
 21
1.0
 12
0.0
 22
1538.360532974498
 13
0.0
 23
0.0
 14
1.0
 24
1.0
 15
0.0
 25
0.0
 16
0.0
 26
0.0
 36
1.0
 17
0.0
 27
0.0
 37
0.0
 40
3490.374656888175
 41
1.141762452107279
 42
50.0
 43
0.0
 44
0.0
 50
0.0
 51
0.0
 71
     0
 72
   100
 73
     1
 74
     1
 75
     0
 76
     0
 77
     0
 78
     0
281
     0
 65
     1
110
0.0
120
0.0
130
0.0
111
1.0
121
0.0
131
0.0
112
0.0
122
1.0
132
0.0
 79
     0
146
0.0
  0
ENDTAB
  0
TABLE
  2
LTYPE
  5
23
330
0
100
AcDbSymbolTable
 70
     3
  0
LTYPE
  5
24
330
23
100
AcDbSymbolTableRecord
100
AcDbLinetypeTableRecord
  2
ByBlock
 70
     0
  3

 72
    65
 73
     0
 40
0.0
  0
LTYPE
  5
25
330
23
100
AcDbSymbolTableRecord
100
AcDbLinetypeTableRecord
  2
ByLayer
 70
     0
  3

 72
    65
 73
     0
 40
0.0
  0
LTYPE
  5
13
330
23
100
AcDbSymbolTableRecord
100
AcDbLinetypeTableRecord
  2
CONTINUOUS
 70
     0
  3
Solid line
 72
    65
 73
     0
 40
0.0
  0
LTYPE
  5
77
330
23
100
AcDbSymbolTableRecord
100
AcDbLinetypeTableRecord
  2
DASHDOT
 70
     0
  3
Dash dot __ . __ . __ . __ . __ . __ . __ . __
 72
    65
 73
     4
 40
1.0
 49
0.5
 74
     0
 49
-0.25
 74
     0
 49
0.0
 74
     0
 49
-0.25
 74
     0
  0
LTYPE
  5
81
330
23
100
AcDbSymbolTableRecord
100
AcDbLinetypeTableRecord
  2
DASHED
 70
     0
  3
Dashed __ __ __ __ __ __ __ __ __ __ __ __ __ _
 72
    65
 73
     2
 40
0.75
 49
0.5
 74
     0
 49
-0.25
 74
     0
  0
ENDTAB
  0
TABLE
  2
LAYER
  5
1B
102
{ACAD_XDICTIONARY
360
1C
102
}
330
0
100
AcDbSymbolTable
 70
     7
  0
LAYER
  5
6
330
1B
100
AcDbSymbolTableRecord
100
AcDbLayerTableRecord
  2
0
 70
     0
 62
     7
  6
CONTINUOUS
370
    -3
390
7
  0
LAYER
  5
F0
330
1B
100
AcDbSymbolTableRecord
100
AcDbLayerTableRecord
  2
GEB-KONTUR-A
 70
     0
 62
     5
  6
CONTINUOUS
370
    -3
390
7
  0
LAYER
  5
76
330
1B
100
AcDbSymbolTableRecord
100
AcDbLayerTableRecord
  2
GEB-SYMMETRIE
 70
     0
 62
     3
  6
DASHDOT
370
    -3
390
7
1001
AcAecLayerStandard
1000

1000

  0
LAYER
  5
80
330
1B
100
AcDbSymbolTableRecord
100
AcDbLayerTableRecord
  2
GEB-VERDECKT
 70
     0
 62
     2
  6
DASHED
370
    -3
390
7
1001
AcAecLayerStandard
1000

1000

  0
LAYER
  5
F8
330
1B
100
AcDbSymbolTableRecord
100
AcDbLayerTableRecord
  2
GEB-ART-NR
 70
     0
 62
     1
  6
CONTINUOUS
370
    18
390
7
  0
LAYER
  5
72
330
1B
100
AcDbSymbolTableRecord
100
AcDbLayerTableRecord
  2
GEB-BEZUG
 70
     0
 62
     2
  6
CONTINUOUS
370
    25
390
7
  0
LAYER
  5
F5
330
1B
100
AcDbSymbolTableRecord
100
AcDbLayerTableRecord
  2
GEB-TEXT
 70
     0
 62
     5
  6
CONTINUOUS
370
    18
390
7
  0
ENDTAB
  0
TABLE
  2
STYLE
  5
20
330
0
100
AcDbSymbolTable
 70
     1
  0
STYLE
  5
21
330
20
100
AcDbSymbolTableRecord
100
AcDbTextStyleTableRecord
  2
STANDARD
 70
     0
 40
0.0
 41
1.0
 50
0.0
 71
     0
 42
0.2
  3
ARIAL.TTF
  4

1001
ACAD
1000
Arial
1071
       34
  0
ENDTAB
  0
TABLE
  2
VIEW
  5
26
330
0
100
AcDbSymbolTable
 70
     0
  0
ENDTAB
  0
TABLE
  2
UCS
  5
27
330
0
100
AcDbSymbolTable
 70
     0
  0
ENDTAB
  0
TABLE
  2
APPID
  5
2D
330
0
100
AcDbSymbolTable
 70
     3
  0
APPID
  5
1F
330
2D
100
AcDbSymbolTableRecord
100
AcDbRegAppTableRecord
  2
ACAD
 70
     0
  0
APPID
  5
78
330
2D
100
AcDbSymbolTableRecord
100
AcDbRegAppTableRecord
  2
AcAecLayerStandard
 70
     0
  0
APPID
  5
163
330
2D
100
AcDbSymbolTableRecord
100
AcDbRegAppTableRecord
  2
ACAD_MLEADERVER
 70
     0
  0
ENDTAB
  0
TABLE
  2
DIMSTYLE
  5
2E
330
0
100
AcDbSymbolTable
 70
     1
100
AcDbDimStyleTable
 71
     1
340
2F
  0
DIMSTYLE
105
2F
330
2E
100
AcDbSymbolTableRecord
100
AcDbDimStyleTableRecord
  2
STANDARD
 70
     0
279
     2
340
21
  0
ENDTAB
  0
TABLE
  2
BLOCK_RECORD
  5
1
330
0
100
AcDbSymbolTable
 70
     1
  0
BLOCK_RECORD
  5
2
102
{ACAD_XDICTIONARY
360
3
102
}
330
1
100
AcDbSymbolTableRecord
100
AcDbBlockTableRecord
  2
*Model_Space
340
15
  0
BLOCK_RECORD
  5
17
330
1
100
AcDbSymbolTableRecord
100
AcDbBlockTableRecord
  2
*Paper_Space
340
1A
  0
BLOCK_RECORD
  5
6F
330
1
100
AcDbSymbolTableRecord
100
AcDbBlockTableRecord
  2
Einfügepunkt
340
0
102
{BLKREFS
331
6E
102
}
  0
ENDTAB
  0
ENDSEC
  0
SECTION
  2
BLOCKS
  0
BLOCK
  5
5
330
2
100
AcDbEntity
  8
0
100
AcDbBlockBegin
  2
*Model_Space
 70
     0
 10
0.0
 20
0.0
 30
0.0
  3
*Model_Space
  1

  0
ENDBLK
  5
14
330
2
100
AcDbEntity
  8
0
100
AcDbBlockEnd
  0
BLOCK
  5
18
330
17
100
AcDbEntity
 67
     1
  8
0
100
AcDbBlockBegin
  2
*Paper_Space
 70
     0
 10
0.0
 20
0.0
 30
0.0
  3
*Paper_Space
  1

  0
ENDBLK
  5
19
330
17
100
AcDbEntity
 67
     1
  8
0
100
AcDbBlockEnd
  0
BLOCK
  5
70
330
6F
100
AcDbEntity
  8
0
100
AcDbBlockBegin
  2
Einfügepunkt
 70
     0
 10
0.0
 20
0.0
 30
0.0
  3
Einfügepunkt
  1

  0
LINE
  5
71
330
6F
100
AcDbEntity
  8
GEB-BEZUG
100
AcDbLine
 10
-0.7071067811865817
 20
-0.7071067811865106
 30
0.0
 11
0.7071067811864751
 21
0.7071067811865817
 31
0.0
  0
LINE
  5
73
330
6F
100
AcDbEntity
  8
GEB-BEZUG
100
AcDbLine
 10
-0.7071067811865106
 20
0.7071067811865817
 30
0.0
 11
0.7071067811865462
 21
-0.7071067811865106
 31
0.0
  0
ENDBLK
  5
74
330
6F
100
AcDbEntity
  8
0
100
AcDbBlockEnd
  0
ENDSEC
  0
SECTION
  2
ENTITIES
  0
INSERT
  5
6E
330
2
100
AcDbEntity
  8
0
 48
25.0
100
AcDbBlockReference
  2
Einfügepunkt
 10
0.0
 20
0.0
 30
0.0
  0
LINE
  5
75
330
2
100
AcDbEntity
  8
GEB-SYMMETRIE
 48
25.0
100
AcDbLine
 10
0.0
 20
3084.600000000002
 30
0.0
 11
0.0
 21
3097.100000000001
 31
0.0
  0
LINE
  5
79
330
2
100
AcDbEntity
  8
GEB-SYMMETRIE
 48
25.0
100
AcDbLine
 10
0.0
 20
3075.900000000002
 30
0.0
 11
0.0
 21
3089.600000000002
 31
0.0
  0
LINE
  5
7A
330
2
100
AcDbEntity
  8
GEB-SYMMETRIE
 48
25.0
100
AcDbLine
 10
0.0
 20
3047.700000000002
 30
0.0
 11
0.0
 21
3080.900000000001
 31
0.0
  0
LINE
  5
7B
330
2
100
AcDbEntity
  8
GEB-SYMMETRIE
 48
25.0
100
AcDbLine
 10
0.0
 20
10.0
 30
0.0
 11
0.0
 21
-2.5
 31
0.0
  0
LINE
  5
7C
330
2
100
AcDbEntity
  8
GEB-SYMMETRIE
 48
25.0
100
AcDbLine
 10
0.0
 20
18.70000000000004
 30
0.0
 11
0.0
 21
5.0
 31
0.0
  0
LINE
  5
7D
330
2
100
AcDbEntity
  8
GEB-SYMMETRIE
 48
25.0
100
AcDbLine
 10
0.0
 20
46.90000000000009
 30
0.0
 11
0.0
 21
13.70000000000073
 31
0.0
  0
LINE
  5
7E
330
2
100
AcDbEntity
  8
GEB-SYMMETRIE
 48
25.0
100
AcDbLine
 10
0.0
 20
3048.050000000001
 30
0.0
 11
0.0
 21
46.55000000000086
 31
0.0
  0
LINE
  5
7F
330
2
100
AcDbEntity
  8
GEB-VERDECKT
 48
25.0
100
AcDbLine
 10
18.07500000000027
 20
3035.600000000001
 30
0.0
 11
18.07500000000027
 21
3045.636930574702
 31
0.0
  0
LINE
  5
82
330
2
100
AcDbEntity
  8
GEB-VERDECKT
 48
25.0
100
AcDbLine
 10
-18.07499999999982
 20
3035.600000000001
 30
0.0
 11
-18.07499999999982
 21
3045.636930574702
 31
0.0
  0
LINE
  5
83
330
2
100
AcDbEntity
  8
GEB-VERDECKT
 48
25.0
100
AcDbLine
 10
18.07500000000027
 20
3045.636930574702
 30
0.0
 11
20.40000000000009
 21
3050.200000000002
 31
0.0
  0
LINE
  5
84
330
2
100
AcDbEntity
  8
GEB-VERDECKT
 48
25.0
100
AcDbLine
 10
-18.07500000000004
 20
3045.636930574702
 30
0.0
 11
-20.39999999999986
 21
3050.200000000002
 31
0.0
  0
LINE
  5
85
330
2
100
AcDbEntity
  8
GEB-VERDECKT
 48
25.0
100
AcDbLine
 10
20.40000000000009
 20
3050.200000000002
 30
0.0
 11
20.40000000000009
 21
3078.400000000002
 31
0.0
  0
LINE
  5
86
330
2
100
AcDbEntity
  8
GEB-VERDECKT
 48
25.0
100
AcDbLine
 10
-20.39999999999986
 20
3050.200000000002
 30
0.0
 11
-20.39999999999986
 21
3078.400000000002
 31
0.0
  0
LINE
  5
87
330
2
100
AcDbEntity
  8
GEB-VERDECKT
 48
25.0
100
AcDbLine
 10
24.75
 20
3078.400000000002
 30
0.0
 11
24.75
 21
3087.100000000001
 31
0.0
  0
LINE
  5
88
330
2
100
AcDbEntity
  8
GEB-VERDECKT
 48
25.0
100
AcDbLine
 10
-24.75
 20
3078.400000000002
 30
0.0
 11
-24.75
 21
3087.100000000001
 31
0.0
  0
LINE
  5
89
330
2
100
AcDbEntity
  8
GEB-VERDECKT
 48
25.0
100
AcDbLine
 10
20.40000000000009
 20
3087.100000000001
 30
0.0
 11
20.40000000000009
 21
3094.600000000002
 31
0.0
  0
LINE
  5
8A
330
2
100
AcDbEntity
  8
GEB-VERDECKT
 48
25.0
100
AcDbLine
 10
-20.39999999999986
 20
3087.100000000001
 30
0.0
 11
-20.39999999999986
 21
3094.600000000002
 31
0.0
  0
LINE
  5
8B
330
2
100
AcDbEntity
  8
GEB-VERDECKT
 48
25.0
100
AcDbLine
 10
22.40000000000009
 20
3089.100000000001
 30
0.0
 11
22.40000000000009
 21
3094.600000000002
 31
0.0
  0
LINE
  5
8C
330
2
100
AcDbEntity
  8
GEB-VERDECKT
 48
25.0
100
AcDbLine
 10
-22.40000000000009
 20
3089.100000000001
 30
0.0
 11
-22.40000000000009
 21
3094.600000000002
 31
0.0
  0
LINE
  5
8D
330
2
100
AcDbEntity
  8
GEB-VERDECKT
 48
25.0
100
AcDbLine
 10
26.75
 20
3076.400000000001
 30
0.0
 11
26.75
 21
3089.100000000001
 31
0.0
  0
LINE
  5
8E
330
2
100
AcDbEntity
  8
GEB-VERDECKT
 48
25.0
100
AcDbLine
 10
-26.75
 20
3076.400000000001
 30
0.0
 11
-26.75
 21
3089.100000000001
 31
0.0
  0
LINE
  5
8F
330
2
100
AcDbEntity
  8
GEB-VERDECKT
 48
25.0
100
AcDbLine
 10
22.40000000000009
 20
3048.100000000002
 30
0.0
 11
22.40000000000009
 21
3076.400000000001
 31
0.0
  0
LINE
  5
90
330
2
100
AcDbEntity
  8
GEB-VERDECKT
 48
25.0
100
AcDbLine
 10
-22.40000000000009
 20
3048.100000000002
 30
0.0
 11
-22.40000000000009
 21
3076.400000000001
 31
0.0
  0
LINE
  5
91
330
2
100
AcDbEntity
  8
GEB-VERDECKT
 48
25.0
100
AcDbLine
 10
21.40000000000009
 20
3045.600000000002
 30
0.0
 11
21.40000000000009
 21
3048.100000000002
 31
0.0
  0
LINE
  5
92
330
2
100
AcDbEntity
  8
GEB-VERDECKT
 48
25.0
100
AcDbLine
 10
-21.39999999999986
 20
3045.600000000002
 30
0.0
 11
-21.39999999999986
 21
3048.100000000002
 31
0.0
  0
LINE
  5
93
330
2
100
AcDbEntity
  8
GEB-VERDECKT
 48
25.0
100
AcDbLine
 10
20.07500000000005
 20
3035.600000000001
 30
0.0
 11
20.07500000000005
 21
3045.600000000002
 31
0.0
  0
LINE
  5
94
330
2
100
AcDbEntity
  8
GEB-VERDECKT
 48
25.0
100
AcDbLine
 10
-20.07499999999982
 20
3035.600000000001
 30
0.0
 11
-20.07500000000005
 21
3045.600000000002
 31
0.0
  0
LINE
  5
95
330
2
100
AcDbEntity
  8
GEB-VERDECKT
 48
25.0
100
AcDbLine
 10
18.07500000000027
 20
3045.636930574702
 30
0.0
 11
-18.07499999999982
 21
3045.636930574702
 31
0.0
  0
LINE
  5
96
330
2
100
AcDbEntity
  8
GEB-VERDECKT
 48
25.0
100
AcDbLine
 10
20.40000000000009
 20
3050.200000000001
 30
0.0
 11
-20.39999999999986
 21
3050.200000000001
 31
0.0
  0
LINE
  5
97
330
2
100
AcDbEntity
  8
GEB-VERDECKT
 48
25.0
100
AcDbLine
 10
24.75
 20
3078.400000000002
 30
0.0
 11
-24.74999999999977
 21
3078.400000000002
 31
0.0
  0
LINE
  5
98
330
2
100
AcDbEntity
  8
GEB-VERDECKT
 48
25.0
100
AcDbLine
 10
24.75
 20
3087.100000000001
 30
0.0
 11
-24.75
 21
3087.100000000001
 31
0.0
  0
LINE
  5
99
330
2
100
AcDbEntity
  8
GEB-VERDECKT
 48
25.0
100
AcDbLine
 10
22.39999999999986
 20
3094.600000000002
 30
0.0
 11
-22.40000000000009
 21
3094.600000000002
 31
0.0
  0
LINE
  5
9A
330
2
100
AcDbEntity
  8
GEB-VERDECKT
 48
25.0
100
AcDbLine
 10
26.75
 20
3089.100000000001
 30
0.0
 11
-26.75
 21
3089.100000000001
 31
0.0
  0
LINE
  5
9B
330
2
100
AcDbEntity
  8
GEB-VERDECKT
 48
25.0
100
AcDbLine
 10
26.75
 20
3076.400000000001
 30
0.0
 11
-26.74999999999978
 21
3076.400000000001
 31
0.0
  0
LINE
  5
9C
330
2
100
AcDbEntity
  8
GEB-VERDECKT
 48
25.0
100
AcDbLine
 10
22.40000000000009
 20
3048.100000000002
 30
0.0
 11
-22.39999999999986
 21
3048.100000000002
 31
0.0
  0
LINE
  5
9D
330
2
100
AcDbEntity
  8
GEB-VERDECKT
 48
25.0
100
AcDbLine
 10
21.40000000000009
 20
3045.600000000002
 30
0.0
 11
-21.39999999999986
 21
3045.600000000002
 31
0.0
  0
LINE
  5
9E
330
2
100
AcDbEntity
  8
GEB-VERDECKT
 48
25.0
100
AcDbLine
 10
20.07500000000005
 20
3035.600000000001
 30
0.0
 11
-20.07499999999982
 21
3035.600000000001
 31
0.0
  0
SPLINE
  5
9F
330
2
100
AcDbEntity
  8
GEB-VERDECKT
 48
25.0
100
AcDbSpline
210
0.0
220
0.0
230
1.0
 70
     8
 71
     3
 72
    18
 73
    14
 74
     0
 42
0.0000000001
 43
0.0000000001
 40
2.515839392244418
 40
2.515839392244418
 40
2.515839392244418
 40
2.515839392244418
 40
2.560407317312832
 40
2.560407317312832
 40
2.769292494592967
 40
2.769292494592967
 40
3.10658663506589
 40
3.10658663506589
 40
3.792662241568975
 40
3.792662241568975
 40
4.498523124862364
 40
4.498523124862364
 40
5.026979215875235
 40
5.026979215875235
 40
5.026979215875235
 40
5.026979215875235
 10
-0.0000000000065938
 20
3072.600000000001
 30
0.0
 10
0.1490237465984592
 20
3072.600000000001
 30
0.0
 10
0.2980560814751243
 20
3072.600000014098
 30
0.0
 10
1.145509554397904
 20
3072.5999996935
 30
0.0
 10
1.842909891428462
 20
3072.600004303783
 30
0.0
 10
3.657741907320087
 20
3072.599877757626
 30
0.0
 10
4.767244468855551
 20
3072.599686769849
 30
0.0
 10
8.070660529717315
 20
3072.596736277064
 30
0.0
 10
10.17999093389198
 20
3072.591972309711
 30
0.0
 10
14.09580198250637
 20
3072.553956852963
 30
0.0
 10
15.86697463709993
 20
3072.520602330043
 30
0.0
 10
18.4743534780539
 20
3072.400627799917
 30
0.0
 10
19.4237442372189
 20
3072.33112316799
 30
0.0
 10
20.18674179911613
 20
3072.220689655174
 30
0.0
  0
SPLINE
  5
A0
330
2
100
AcDbEntity
  8
GEB-VERDECKT
 48
25.0
100
AcDbSpline
210
0.0
220
0.0
230
1.0
 70
     8
 71
     3
 72
    16
 73
    12
 74
     0
 42
0.0000000001
 43
0.0000000001
 40
0.0026302539176707
 40
0.0026302539176707
 40
0.0026302539176707
 40
0.0026302539176707
 40
0.7966428389617998
 40
0.7966428389617998
 40
1.60430316564434
 40
1.60430316564434
 40
2.119037224898859
 40
2.119037224898859
 40
2.368046377464015
 40
2.368046377464015
 40
2.515839392244418
 40
2.515839392244418
 40
2.515839392244418
 40
2.515839392244418
 10
-20.18674179912204
 20
3072.220689655174
 30
0.0
 10
-19.04191500082947
 20
3072.386387753327
 30
0.0
 10
-17.48057702551932
 20
3072.46415977546
 30
0.0
 10
-13.63149070005374
 20
3072.566758203713
 30
0.0
 10
-11.36660240365358
 20
3072.584524203795
 30
0.0
 10
-7.307176053166131
 20
3072.598158730163
 30
0.0
 10
-5.653574367217743
 20
3072.599281197255
 30
0.0
 10
-3.139607725693394
 20
3072.599956269395
 30
0.0
 10
-2.312388272603584
 20
3072.599983424181
 30
0.0
 10
-0.9882696666600168
 20
3072.600001700361
 30
0.0
 10
-0.494182054720568
 20
3072.600000000001
 30
0.0
 10
-0.0000000000065938
 20
3072.600000000001
 30
0.0
  0
SPLINE
  5
A1
330
2
100
AcDbEntity
  8
GEB-VERDECKT
 48
25.0
100
AcDbSpline
210
0.0
220
0.0
230
1.0
 70
     8
 71
     3
 72
    16
 73
    12
 74
     0
 42
0.0000000001
 43
0.0000000001
 40
0.0026302539176521
 40
0.0026302539176521
 40
0.0026302539176521
 40
0.0026302539176521
 40
0.7966428389618099
 40
0.7966428389618099
 40
1.604303165644387
 40
1.604303165644387
 40
2.119037224898871
 40
2.119037224898871
 40
2.368046377464019
 40
2.368046377464019
 40
2.515839392244391
 40
2.515839392244391
 40
2.515839392244391
 40
2.515839392244391
 10
20.18674179911613
 20
3071.97931034483
 30
0.0
 10
19.04191500082243
 20
3071.813612246676
 30
0.0
 10
17.48057702551068
 20
3071.735840224543
 30
0.0
 10
13.63149070004283
 20
3071.633241796289
 30
0.0
 10
11.36660240364199
 20
3071.615475796208
 30
0.0
 10
7.307176053153398
 20
3071.601841269839
 30
0.0
 10
5.653574367204782
 20
3071.600718802748
 30
0.0
 10
3.139607725680889
 20
3071.600043730607
 30
0.0
 10
2.312388272590851
 20
3071.600016575823
 30
0.0
 10
0.9882696666470565
 20
3071.599998299642
 30
0.0
 10
0.4941820547073803
 20
3071.600000000001
 30
0.0
 10
-0.0000000000065938
 20
3071.600000000001
 30
0.0
  0
SPLINE
  5
A2
330
2
100
AcDbEntity
  8
GEB-VERDECKT
 48
25.0
100
AcDbSpline
210
0.0
220
0.0
230
1.0
 70
     8
 71
     3
 72
    18
 73
    14
 74
     0
 42
0.0000000001
 43
0.0000000001
 40
2.515839392244391
 40
2.515839392244391
 40
2.515839392244391
 40
2.515839392244391
 40
2.560407317312768
 40
2.560407317312768
 40
2.769292494592861
 40
2.769292494592861
 40
3.106586635065751
 40
3.106586635065751
 40
3.792662241568737
 40
3.792662241568737
 40
4.498523124862092
 40
4.498523124862092
 40
5.026979215875106
 40
5.026979215875106
 40
5.026979215875106
 40
5.026979215875106
 10
-0.0000000000065938
 20
3071.600000000001
 30
0.0
 10
-0.1490237466116469
 20
3071.600000000001
 30
0.0
 10
-0.2980560814880846
 20
3071.599999985905
 30
0.0
 10
-1.145509554410864
 20
3071.600000306503
 30
0.0
 10
-1.842909891441422
 20
3071.59999569622
 30
0.0
 10
-3.657741907332592
 20
3071.600122242377
 30
0.0
 10
-4.767244468867829
 20
3071.600313230154
 30
0.0
 10
-8.070660529728911
 20
3071.60326372294
 30
0.0
 10
-10.1799909339029
 20
3071.608027690292
 30
0.0
 10
-14.09580198251546
 20
3071.646043147039
 30
0.0
 10
-15.86697463710834
 20
3071.679397669959
 30
0.0
 10
-18.47435347806072
 20
3071.799372200085
 30
0.0
 10
-19.42374423722526
 20
3071.868876832013
 30
0.0
 10
-20.18674179912204
 20
3071.97931034483
 30
0.0
  0
SPLINE
  5
A3
330
2
100
AcDbEntity
  8
GEB-VERDECKT
 48
25.0
100
AcDbSpline
210
0.0
220
0.0
230
1.0
 70
     8
 71
     3
 72
    28
 73
    24
 74
     0
 42
0.0000000001
 43
0.0000000001
 40
0.000549672068412
 40
0.000549672068412
 40
0.000549672068412
 40
0.000549672068412
 40
0.0733177656791823
 40
0.0733177656791823
 40
0.1082986036710511
 40
0.1082986036710511
 40
0.1130439421073878
 40
0.1130439421073878
 40
0.1153813164161232
 40
0.1153813164161232
 40
0.1169282292691532
 40
0.1169282292691532
 40
0.118340803302445
 40
0.118340803302445
 40
0.1201304062779208
 40
0.1201304062779208
 40
0.1234160542160876
 40
0.1234160542160876
 40
0.1318469493905364
 40
0.1318469493905364
 40
0.1639189615350106
 40
0.1639189615350106
 40
0.2618557506767484
 40
0.2618557506767484
 40
0.2618557506767484
 40
0.2618557506767484
 10
20.18674179911613
 20
3072.220689655174
 30
0.0
 10
20.29137787512173
 20
3072.205545007252
 30
0.0
 10
20.37332015153333
 20
3072.187139401309
 30
0.0
 10
20.45663194137569
 20
3072.15576685963
 30
0.0
 10
20.49015544029749
 20
3072.140195783566
 30
0.0
 10
20.50687565782482
 20
3072.117726243211
 30
0.0
 10
20.50881788205083
 20
3072.114579280033
 30
0.0
 10
20.51093162546704
 20
3072.10928867307
 30
0.0
 10
20.51157236501262
 20
3072.107268133312
 30
0.0
 10
20.5122495839139
 20
3072.103535088571
 30
0.0
 10
20.51241291281008
 20
3072.10197382133
 30
0.0
 10
20.51245158122856
 20
3072.098854475405
 30
0.0
 10
20.51234946566637
 20
3072.097407908346
 30
0.0
 10
20.51189100748684
 20
3072.094229786604
 30
0.0
 10
20.51148389570835
 20
3072.092594054947
 30
0.0
 10
20.51014175857017
 20
3072.088415202119
 30
0.0
 10
20.50897673359577
 20
3072.086032483011
 30
0.0
 10
20.50490778143376
 20
3072.079003461675
 30
0.0
 10
20.50095686998998
 20
3072.074609752297
 30
0.0
 10
20.48247151305509
 20
3072.057297901052
 30
0.0
 10
20.45994402740825
 20
3072.046335808521
 30
0.0
 10
20.38522389469085
 20
3072.015554525387
 30
0.0
 10
20.29914655863217
 20
3071.995579403959
 30
0.0
 10
20.18674179911613
 20
3071.97931034483
 30
0.0
  0
SPLINE
  5
A4
330
2
100
AcDbEntity
  8
GEB-VERDECKT
 48
25.0
100
AcDbSpline
210
0.0
220
0.0
230
1.0
 70
     8
 71
     3
 72
    28
 73
    24
 74
     0
 42
0.0000000001
 43
0.0000000001
 40
0.0005496720684029
 40
0.0005496720684029
 40
0.0005496720684029
 40
0.0005496720684029
 40
0.0733177656789432
 40
0.0733177656789432
 40
0.1082986036720185
 40
0.1082986036720185
 40
0.1130439421154877
 40
0.1130439421154877
 40
0.1153813164304004
 40
0.1153813164304004
 40
0.1169282292880301
 40
0.1169282292880301
 40
0.1183408033255262
 40
0.1183408033255262
 40
0.1201304063057141
 40
0.1201304063057141
 40
0.1234160542517059
 40
0.1234160542517059
 40
0.1318469494459536
 40
0.1318469494459536
 40
0.1639189616533398
 40
0.1639189616533398
 40
0.2618557509929207
 40
0.2618557509929207
 40
0.2618557509929207
 40
0.2618557509929207
 10
-20.18674179912204
 20
3071.97931034483
 30
0.0
 10
-20.29137787512695
 20
3071.994454992752
 30
0.0
 10
-20.37332015153879
 20
3072.012860598694
 30
0.0
 10
-20.45663194138183
 20
3072.044233140374
 30
0.0
 10
-20.49015544030294
 20
3072.059804216437
 30
0.0
 10
-20.50687565783301
 20
3072.082273756795
 30
0.0
 10
-20.50881788205743
 20
3072.085420719974
 30
0.0
 10
-20.51093162547227
 20
3072.090711326934
 30
0.0
 10
-20.51157236501786
 20
3072.092731866692
 30
0.0
 10
-20.51224958391935
 20
3072.09646491143
 30
0.0
 10
-20.51241291281508
 20
3072.098026178673
 30
0.0
 10
-20.51245158123356
 20
3072.101145524597
 30
0.0
 10
-20.51234946567183
 20
3072.102592091656
 30
0.0
 10
-20.51189100749207
 20
3072.105770213399
 30
0.0
 10
-20.51148389571381
 20
3072.107405945055
 30
0.0
 10
-20.5101417585754
 20
3072.111584797884
 30
0.0
 10
-20.50897673360055
 20
3072.113967516992
 30
0.0
 10
-20.50490778143967
 20
3072.120996538327
 30
0.0
 10
-20.5009568699968
 20
3072.125390247704
 30
0.0
 10
-20.48247151306009
 20
3072.142702098951
 30
0.0
 10
-20.45994402741235
 20
3072.153664191482
 30
0.0
 10
-20.38522389469654
 20
3072.184445474616
 30
0.0
 10
-20.29914655863831
 20
3072.204420596044
 30
0.0
 10
-20.18674179912204
 20
3072.220689655174
 30
0.0
  0
SPLINE
  5
A5
330
2
100
AcDbEntity
  8
GEB-VERDECKT
 48
25.0
100
AcDbSpline
210
0.0
220
0.0
230
1.0
 70
     8
 71
     3
 72
    18
 73
    14
 74
     0
 42
0.0000000001
 43
0.0000000001
 40
2.515839392244418
 40
2.515839392244418
 40
2.515839392244418
 40
2.515839392244418
 40
2.560407317312832
 40
2.560407317312832
 40
2.769292494592967
 40
2.769292494592967
 40
3.10658663506589
 40
3.10658663506589
 40
3.792662241568975
 40
3.792662241568975
 40
4.498523124862364
 40
4.498523124862364
 40
5.026979215875235
 40
5.026979215875235
 40
5.026979215875235
 40
5.026979215875235
 10
-0.0000000000065938
 20
3066.850000000001
 30
0.0
 10
0.1490237465984592
 20
3066.850000000001
 30
0.0
 10
0.2980560814751243
 20
3066.850000014098
 30
0.0
 10
1.145509554397904
 20
3066.8499996935
 30
0.0
 10
1.842909891428462
 20
3066.850004303783
 30
0.0
 10
3.657741907320087
 20
3066.849877757626
 30
0.0
 10
4.767244468855551
 20
3066.849686769849
 30
0.0
 10
8.070660529717315
 20
3066.846736277064
 30
0.0
 10
10.17999093389198
 20
3066.841972309711
 30
0.0
 10
14.09580198250637
 20
3066.803956852963
 30
0.0
 10
15.86697463709993
 20
3066.770602330044
 30
0.0
 10
18.4743534780539
 20
3066.650627799917
 30
0.0
 10
19.4237442372189
 20
3066.58112316799
 30
0.0
 10
20.18674179911613
 20
3066.470689655174
 30
0.0
  0
SPLINE
  5
A6
330
2
100
AcDbEntity
  8
GEB-VERDECKT
 48
25.0
100
AcDbSpline
210
0.0
220
0.0
230
1.0
 70
     8
 71
     3
 72
    16
 73
    12
 74
     0
 42
0.0000000001
 43
0.0000000001
 40
0.0026302539176707
 40
0.0026302539176707
 40
0.0026302539176707
 40
0.0026302539176707
 40
0.7966428389617998
 40
0.7966428389617998
 40
1.60430316564434
 40
1.60430316564434
 40
2.119037224898859
 40
2.119037224898859
 40
2.368046377464015
 40
2.368046377464015
 40
2.515839392244418
 40
2.515839392244418
 40
2.515839392244418
 40
2.515839392244418
 10
-20.18674179912204
 20
3066.470689655174
 30
0.0
 10
-19.04191500082947
 20
3066.636387753327
 30
0.0
 10
-17.48057702551909
 20
3066.71415977546
 30
0.0
 10
-13.63149070005374
 20
3066.816758203714
 30
0.0
 10
-11.36660240365358
 20
3066.834524203795
 30
0.0
 10
-7.307176053166131
 20
3066.848158730164
 30
0.0
 10
-5.653574367217515
 20
3066.849281197255
 30
0.0
 10
-3.139607725693394
 20
3066.849956269396
 30
0.0
 10
-2.312388272603584
 20
3066.849983424181
 30
0.0
 10
-0.9882696666600168
 20
3066.850001700361
 30
0.0
 10
-0.494182054720568
 20
3066.850000000001
 30
0.0
 10
-0.0000000000065938
 20
3066.850000000001
 30
0.0
  0
SPLINE
  5
A7
330
2
100
AcDbEntity
  8
GEB-VERDECKT
 48
25.0
100
AcDbSpline
210
0.0
220
0.0
230
1.0
 70
     8
 71
     3
 72
    16
 73
    12
 74
     0
 42
0.0000000001
 43
0.0000000001
 40
0.0026302539176523
 40
0.0026302539176523
 40
0.0026302539176523
 40
0.0026302539176523
 40
0.7966428389618099
 40
0.7966428389618099
 40
1.604303165644387
 40
1.604303165644387
 40
2.119037224898871
 40
2.119037224898871
 40
2.368046377464019
 40
2.368046377464019
 40
2.515839392244391
 40
2.515839392244391
 40
2.515839392244391
 40
2.515839392244391
 10
20.18674179911613
 20
3066.229310344829
 30
0.0
 10
19.04191500082243
 20
3066.063612246676
 30
0.0
 10
17.48057702551068
 20
3065.985840224543
 30
0.0
 10
13.63149070004283
 20
3065.88324179629
 30
0.0
 10
11.36660240364199
 20
3065.865475796208
 30
0.0
 10
7.307176053153398
 20
3065.85184126984
 30
0.0
 10
5.653574367204782
 20
3065.850718802748
 30
0.0
 10
3.139607725680889
 20
3065.850043730608
 30
0.0
 10
2.312388272590851
 20
3065.850016575823
 30
0.0
 10
0.9882696666470565
 20
3065.849998299641
 30
0.0
 10
0.4941820547073803
 20
3065.850000000001
 30
0.0
 10
-0.0000000000065938
 20
3065.850000000001
 30
0.0
  0
SPLINE
  5
A8
330
2
100
AcDbEntity
  8
GEB-VERDECKT
 48
25.0
100
AcDbSpline
210
0.0
220
0.0
230
1.0
 70
     8
 71
     3
 72
    18
 73
    14
 74
     0
 42
0.0000000001
 43
0.0000000001
 40
2.515839392244391
 40
2.515839392244391
 40
2.515839392244391
 40
2.515839392244391
 40
2.560407317312768
 40
2.560407317312768
 40
2.769292494592861
 40
2.769292494592861
 40
3.106586635065751
 40
3.106586635065751
 40
3.792662241568737
 40
3.792662241568737
 40
4.498523124862092
 40
4.498523124862092
 40
5.026979215875105
 40
5.026979215875105
 40
5.026979215875105
 40
5.026979215875105
 10
-0.0000000000065938
 20
3065.850000000001
 30
0.0
 10
-0.1490237466116469
 20
3065.850000000001
 30
0.0
 10
-0.2980560814880846
 20
3065.849999985905
 30
0.0
 10
-1.145509554410864
 20
3065.850000306503
 30
0.0
 10
-1.842909891441422
 20
3065.84999569622
 30
0.0
 10
-3.657741907332592
 20
3065.850122242377
 30
0.0
 10
-4.767244468867829
 20
3065.850313230153
 30
0.0
 10
-8.070660529728911
 20
3065.853263722939
 30
0.0
 10
-10.1799909339029
 20
3065.858027690292
 30
0.0
 10
-14.09580198251546
 20
3065.896043147039
 30
0.0
 10
-15.86697463710834
 20
3065.929397669959
 30
0.0
 10
-18.47435347806072
 20
3066.049372200085
 30
0.0
 10
-19.42374423722526
 20
3066.118876832013
 30
0.0
 10
-20.18674179912204
 20
3066.229310344829
 30
0.0
  0
SPLINE
  5
A9
330
2
100
AcDbEntity
  8
GEB-VERDECKT
 48
25.0
100
AcDbSpline
210
0.0
220
0.0
230
1.0
 70
     8
 71
     3
 72
    28
 73
    24
 74
     0
 42
0.0000000001
 43
0.0000000001
 40
0.0005496720684116
 40
0.0005496720684116
 40
0.0005496720684116
 40
0.0005496720684116
 40
0.0733177656786593
 40
0.0733177656786593
 40
0.1082986036703403
 40
0.1082986036703403
 40
0.1130439421147523
 40
0.1130439421147523
 40
0.1153813164303518
 40
0.1153813164303518
 40
0.1169282292880171
 40
0.1169282292880171
 40
0.1183408033255357
 40
0.1183408033255357
 40
0.1201304063061903
 40
0.1201304063061903
 40
0.1234160542533079
 40
0.1234160542533079
 40
0.1318469494530809
 40
0.1318469494530809
 40
0.1639189616967058
 40
0.1639189616967058
 40
0.2618557511463248
 40
0.2618557511463248
 40
0.2618557511463248
 40
0.2618557511463248
 10
20.18674179911613
 20
3066.470689655174
 30
0.0
 10
20.29137787512104
 20
3066.455545007251
 30
0.0
 10
20.37332015153311
 20
3066.437139401309
 30
0.0
 10
20.45663194137592
 20
3066.40576685963
 30
0.0
 10
20.49015544029749
 20
3066.390195783566
 30
0.0
 10
20.50687565782823
 20
3066.367726243207
 30
0.0
 10
20.50881788205243
 20
3066.364579280029
 30
0.0
 10
20.51093162546727
 20
3066.359288673069
 30
0.0
 10
20.51157236501286
 20
3066.357268133311
 30
0.0
 10
20.5122495839139
 20
3066.353535088572
 30
0.0
 10
20.51241291281008
 20
3066.35197382133
 30
0.0
 10
20.51245158122856
 20
3066.348854475405
 30
0.0
 10
20.51234946566637
 20
3066.347407908347
 30
0.0
 10
20.51189100748684
 20
3066.344229786604
 30
0.0
 10
20.51148389570858
 20
3066.342594054948
 30
0.0
 10
20.51014175857017
 20
3066.338415202119
 30
0.0
 10
20.50897673359532
 20
3066.33603248301
 30
0.0
 10
20.50490778143376
 20
3066.329003461674
 30
0.0
 10
20.50095686998975
 20
3066.324609752297
 30
0.0
 10
20.48247151305486
 20
3066.307297901052
 30
0.0
 10
20.45994402740735
 20
3066.296335808521
 30
0.0
 10
20.38522389469085
 20
3066.265554525387
 30
0.0
 10
20.29914655863217
 20
3066.245579403959
 30
0.0
 10
20.18674179911613
 20
3066.229310344829
 30
0.0
  0
SPLINE
  5
AA
330
2
100
AcDbEntity
  8
GEB-VERDECKT
 48
25.0
100
AcDbSpline
210
0.0
220
0.0
230
1.0
 70
     8
 71
     3
 72
    28
 73
    24
 74
     0
 42
0.0000000001
 43
0.0000000001
 40
0.0005496720684027
 40
0.0005496720684027
 40
0.0005496720684027
 40
0.0005496720684027
 40
0.0733177656789796
 40
0.0733177656789796
 40
0.1082986036723915
 40
0.1082986036723915
 40
0.1130439421167264
 40
0.1130439421167264
 40
0.1153813164322662
 40
0.1153813164322662
 40
0.1169282292902931
 40
0.1169282292902931
 40
0.1183408033281454
 40
0.1183408033281454
 40
0.1201304063087713
 40
0.1201304063087713
 40
0.1234160542555413
 40
0.1234160542555413
 40
0.1318469494539321
 40
0.1318469494539321
 40
0.1639189616916051
 40
0.1639189616916051
 40
0.2618557511196013
 40
0.2618557511196013
 40
0.2618557511196013
 40
0.2618557511196013
 10
-20.18674179912204
 20
3066.229310344829
 30
0.0
 10
-20.29137787512695
 20
3066.244454992752
 30
0.0
 10
-20.37332015153879
 20
3066.262860598694
 30
0.0
 10
-20.45663194138206
 20
3066.294233140374
 30
0.0
 10
-20.49015544030317
 20
3066.309804216436
 30
0.0
 10
-20.50687565783324
 20
3066.332273756796
 30
0.0
 10
-20.50881788205765
 20
3066.335420719974
 30
0.0
 10
-20.51093162547227
 20
3066.340711326934
 30
0.0
 10
-20.51157236501786
 20
3066.342731866691
 30
0.0
 10
-20.51224958391935
 20
3066.346464911431
 30
0.0
 10
-20.51241291281508
 20
3066.348026178673
 30
0.0
 10
-20.51245158123356
 20
3066.351145524597
 30
0.0
 10
-20.51234946567183
 20
3066.352592091656
 30
0.0
 10
-20.51189100749207
 20
3066.355770213398
 30
0.0
 10
-20.51148389571381
 20
3066.357405945055
 30
0.0
 10
-20.5101417585754
 20
3066.361584797884
 30
0.0
 10
-20.50897673360055
 20
3066.363967516992
 30
0.0
 10
-20.50490778143876
 20
3066.370996538328
 30
0.0
 10
-20.50095686999498
 20
3066.375390247706
 30
0.0
 10
-20.48247151306009
 20
3066.39270209895
 30
0.0
 10
-20.45994402741326
 20
3066.403664191482
 30
0.0
 10
-20.38522389469608
 20
3066.434445474616
 30
0.0
 10
-20.2991465586374
 20
3066.454420596044
 30
0.0
 10
-20.18674179912204
 20
3066.470689655174
 30
0.0
  0
SPLINE
  5
AB
330
2
100
AcDbEntity
  8
GEB-VERDECKT
 48
25.0
100
AcDbSpline
210
0.0
220
0.0
230
1.0
 70
     8
 71
     3
 72
    18
 73
    14
 74
     0
 42
0.0000000001
 43
0.0000000001
 40
2.515839392244418
 40
2.515839392244418
 40
2.515839392244418
 40
2.515839392244418
 40
2.560407317312832
 40
2.560407317312832
 40
2.769292494592967
 40
2.769292494592967
 40
3.10658663506589
 40
3.10658663506589
 40
3.792662241568975
 40
3.792662241568975
 40
4.498523124862364
 40
4.498523124862364
 40
5.026979215875235
 40
5.026979215875235
 40
5.026979215875235
 40
5.026979215875235
 10
-0.0000000000065938
 20
3061.100000000001
 30
0.0
 10
0.1490237465984592
 20
3061.100000000001
 30
0.0
 10
0.2980560814751243
 20
3061.100000014097
 30
0.0
 10
1.145509554397904
 20
3061.099999693499
 30
0.0
 10
1.842909891428462
 20
3061.100004303782
 30
0.0
 10
3.657741907320087
 20
3061.099877757625
 30
0.0
 10
4.767244468855551
 20
3061.09968676985
 30
0.0
 10
8.070660529717315
 20
3061.096736277063
 30
0.0
 10
10.17999093389198
 20
3061.091972309711
 30
0.0
 10
14.09580198250637
 20
3061.053956852964
 30
0.0
 10
15.86697463709993
 20
3061.020602330044
 30
0.0
 10
18.4743534780539
 20
3060.900627799918
 30
0.0
 10
19.4237442372189
 20
3060.83112316799
 30
0.0
 10
20.18674179911613
 20
3060.720689655174
 30
0.0
  0
SPLINE
  5
AC
330
2
100
AcDbEntity
  8
GEB-VERDECKT
 48
25.0
100
AcDbSpline
210
0.0
220
0.0
230
1.0
 70
     8
 71
     3
 72
    16
 73
    12
 74
     0
 42
0.0000000001
 43
0.0000000001
 40
0.0026302539176706
 40
0.0026302539176706
 40
0.0026302539176706
 40
0.0026302539176706
 40
0.7966428389617998
 40
0.7966428389617998
 40
1.60430316564434
 40
1.60430316564434
 40
2.119037224898859
 40
2.119037224898859
 40
2.368046377464015
 40
2.368046377464015
 40
2.515839392244418
 40
2.515839392244418
 40
2.515839392244418
 40
2.515839392244418
 10
-20.18674179912182
 20
3060.720689655174
 30
0.0
 10
-19.04191500082947
 20
3060.886387753327
 30
0.0
 10
-17.48057702551909
 20
3060.964159775459
 30
0.0
 10
-13.63149070005374
 20
3061.066758203713
 30
0.0
 10
-11.36660240365358
 20
3061.084524203796
 30
0.0
 10
-7.307176053165903
 20
3061.098158730164
 30
0.0
 10
-5.653574367217515
 20
3061.099281197255
 30
0.0
 10
-3.139607725693394
 20
3061.099956269395
 30
0.0
 10
-2.312388272603584
 20
3061.09998342418
 30
0.0
 10
-0.9882696666600168
 20
3061.100001700362
 30
0.0
 10
-0.494182054720568
 20
3061.100000000001
 30
0.0
 10
-0.0000000000065938
 20
3061.100000000001
 30
0.0
  0
SPLINE
  5
AD
330
2
100
AcDbEntity
  8
GEB-VERDECKT
 48
25.0
100
AcDbSpline
210
0.0
220
0.0
230
1.0
 70
     8
 71
     3
 72
    16
 73
    12
 74
     0
 42
0.0000000001
 43
0.0000000001
 40
0.0026302539176523
 40
0.0026302539176523
 40
0.0026302539176523
 40
0.0026302539176523
 40
0.7966428389618099
 40
0.7966428389618099
 40
1.604303165644387
 40
1.604303165644387
 40
2.119037224898871
 40
2.119037224898871
 40
2.368046377464019
 40
2.368046377464019
 40
2.515839392244391
 40
2.515839392244391
 40
2.515839392244391
 40
2.515839392244391
 10
20.18674179911613
 20
3060.479310344828
 30
0.0
 10
19.04191500082243
 20
3060.313612246676
 30
0.0
 10
17.48057702551068
 20
3060.235840224543
 30
0.0
 10
13.63149070004283
 20
3060.13324179629
 30
0.0
 10
11.36660240364199
 20
3060.115475796207
 30
0.0
 10
7.307176053153398
 20
3060.101841269839
 30
0.0
 10
5.653574367204782
 20
3060.100718802748
 30
0.0
 10
3.139607725680889
 20
3060.100043730608
 30
0.0
 10
2.312388272590851
 20
3060.100016575822
 30
0.0
 10
0.9882696666470565
 20
3060.099998299641
 30
0.0
 10
0.4941820547073803
 20
3060.100000000002
 30
0.0
 10
-0.0000000000065938
 20
3060.100000000002
 30
0.0
  0
SPLINE
  5
AE
330
2
100
AcDbEntity
  8
GEB-VERDECKT
 48
25.0
100
AcDbSpline
210
0.0
220
0.0
230
1.0
 70
     8
 71
     3
 72
    18
 73
    14
 74
     0
 42
0.0000000001
 43
0.0000000001
 40
2.515839392244391
 40
2.515839392244391
 40
2.515839392244391
 40
2.515839392244391
 40
2.560407317312768
 40
2.560407317312768
 40
2.769292494592861
 40
2.769292494592861
 40
3.106586635065751
 40
3.106586635065751
 40
3.792662241568737
 40
3.792662241568737
 40
4.498523124862092
 40
4.498523124862092
 40
5.026979215875105
 40
5.026979215875105
 40
5.026979215875105
 40
5.026979215875105
 10
-0.0000000000065938
 20
3060.100000000002
 30
0.0
 10
-0.1490237466116469
 20
3060.100000000002
 30
0.0
 10
-0.2980560814880846
 20
3060.099999985906
 30
0.0
 10
-1.145509554410864
 20
3060.100000306503
 30
0.0
 10
-1.842909891441422
 20
3060.09999569622
 30
0.0
 10
-3.657741907332592
 20
3060.100122242376
 30
0.0
 10
-4.767244468867829
 20
3060.100313230153
 30
0.0
 10
-8.070660529728684
 20
3060.103263722939
 30
0.0
 10
-10.17999093390267
 20
3060.108027690292
 30
0.0
 10
-14.09580198251546
 20
3060.146043147039
 30
0.0
 10
-15.86697463710834
 20
3060.179397669959
 30
0.0
 10
-18.47435347806072
 20
3060.299372200085
 30
0.0
 10
-19.42374423722526
 20
3060.368876832013
 30
0.0
 10
-20.18674179912182
 20
3060.479310344828
 30
0.0
  0
SPLINE
  5
AF
330
2
100
AcDbEntity
  8
GEB-VERDECKT
 48
25.0
100
AcDbSpline
210
0.0
220
0.0
230
1.0
 70
     8
 71
     3
 72
    28
 73
    24
 74
     0
 42
0.0000000001
 43
0.0000000001
 40
0.0005496720684121
 40
0.0005496720684121
 40
0.0005496720684121
 40
0.0005496720684121
 40
0.07331776567894
 40
0.07331776567894
 40
0.1082986036710411
 40
0.1082986036710411
 40
0.1130439421169878
 40
0.1130439421169878
 40
0.1153813164338578
 40
0.1153813164338578
 40
0.1169282292923663
 40
0.1169282292923663
 40
0.118340803330668
 40
0.118340803330668
 40
0.1201304063124875
 40
0.1201304063124875
 40
0.1234160542622167
 40
0.1234160542622167
 40
0.1318469494648156
 40
0.1318469494648156
 40
0.1639189617067637
 40
0.1639189617067637
 40
0.2618557511502213
 40
0.2618557511502213
 40
0.2618557511502213
 40
0.2618557511502213
 10
20.18674179911613
 20
3060.720689655174
 30
0.0
 10
20.2913778751215
 20
3060.705545007251
 30
0.0
 10
20.37332015153333
 20
3060.687139401309
 30
0.0
 10
20.45663194137592
 20
3060.655766859629
 30
0.0
 10
20.49015544029771
 20
3060.640195783566
 30
0.0
 10
20.50687565782892
 20
3060.617726243206
 30
0.0
 10
20.50881788205265
 20
3060.614579280028
 30
0.0
 10
20.51093162546727
 20
3060.609288673069
 30
0.0
 10
20.51157236501286
 20
3060.607268133311
 30
0.0
 10
20.5122495839139
 20
3060.603535088572
 30
0.0
 10
20.51241291281008
 20
3060.60197382133
 30
0.0
 10
20.51245158122856
 20
3060.598854475405
 30
0.0
 10
20.51234946566637
 20
3060.597407908347
 30
0.0
 10
20.51189100748684
 20
3060.594229786604
 30
0.0
 10
20.51148389570835
 20
3060.592594054947
 30
0.0
 10
20.5101417585704
 20
3060.58841520212
 30
0.0
 10
20.50897673359577
 20
3060.586032483011
 30
0.0
 10
20.50490778143444
 20
3060.579003461675
 30
0.0
 10
20.50095686999134
 20
3060.574609752298
 30
0.0
 10
20.48247151305486
 20
3060.557297901052
 30
0.0
 10
20.45994402740735
 20
3060.546335808521
 30
0.0
 10
20.38522389469108
 20
3060.515554525387
 30
0.0
 10
20.2991465586324
 20
3060.495579403959
 30
0.0
 10
20.18674179911613
 20
3060.479310344828
 30
0.0
  0
SPLINE
  5
B0
330
2
100
AcDbEntity
  8
GEB-VERDECKT
 48
25.0
100
AcDbSpline
210
0.0
220
0.0
230
1.0
 70
     8
 71
     3
 72
    28
 73
    24
 74
     0
 42
0.0000000001
 43
0.0000000001
 40
0.0005496720684026
 40
0.0005496720684026
 40
0.0005496720684026
 40
0.0005496720684026
 40
0.0733177656789695
 40
0.0733177656789695
 40
0.1082986036719143
 40
0.1082986036719143
 40
0.1130439421181853
 40
0.1130439421181853
 40
0.1153813164352851
 40
0.1153813164352851
 40
0.1169282292943505
 40
0.1169282292943505
 40
0.1183408033331564
 40
0.1183408033331564
 40
0.1201304063149976
 40
0.1201304063149976
 40
0.1234160542639801
 40
0.1234160542639801
 40
0.131846949468186
 40
0.131846949468186
 40
0.1639189617286662
 40
0.1639189617286662
 40
0.261855751227913
 40
0.261855751227913
 40
0.261855751227913
 40
0.261855751227913
 10
-20.18674179912182
 20
3060.479310344828
 30
0.0
 10
-20.29137787512695
 20
3060.494454992751
 30
0.0
 10
-20.37332015153879
 20
3060.512860598694
 30
0.0
 10
-20.45663194138183
 20
3060.544233140373
 30
0.0
 10
-20.49015544030294
 20
3060.559804216437
 30
0.0
 10
-20.50687565783414
 20
3060.582273756797
 30
0.0
 10
-20.50881788205789
 20
3060.585420719974
 30
0.0
 10
-20.51093162547227
 20
3060.590711326933
 30
0.0
 10
-20.51157236501786
 20
3060.592731866692
 30
0.0
 10
-20.51224958391935
 20
3060.596464911431
 30
0.0
 10
-20.51241291281508
 20
3060.598026178673
 30
0.0
 10
-20.51245158123356
 20
3060.601145524598
 30
0.0
 10
-20.51234946567161
 20
3060.602592091655
 30
0.0
 10
-20.51189100749207
 20
3060.605770213398
 30
0.0
 10
-20.51148389571381
 20
3060.607405945055
 30
0.0
 10
-20.5101417585754
 20
3060.611584797884
 30
0.0
 10
-20.50897673360055
 20
3060.613967516992
 30
0.0
 10
-20.50490778143876
 20
3060.620996538329
 30
0.0
 10
-20.50095686999498
 20
3060.625390247706
 30
0.0
 10
-20.48247151306009
 20
3060.64270209895
 30
0.0
 10
-20.4599440274128
 20
3060.653664191482
 30
0.0
 10
-20.38522389469631
 20
3060.684445474616
 30
0.0
 10
-20.29914655863763
 20
3060.704420596044
 30
0.0
 10
-20.18674179912182
 20
3060.720689655174
 30
0.0
  0
SPLINE
  5
B1
330
2
100
AcDbEntity
  8
GEB-VERDECKT
 48
25.0
100
AcDbSpline
210
0.0
220
0.0
230
1.0
 70
     8
 71
     3
 72
    18
 73
    14
 74
     0
 42
0.0000000001
 43
0.0000000001
 40
2.515839392244382
 40
2.515839392244382
 40
2.515839392244382
 40
2.515839392244382
 40
2.560407317312762
 40
2.560407317312762
 40
2.769292494592905
 40
2.769292494592905
 40
3.106586635065826
 40
3.106586635065826
 40
3.792662241568866
 40
3.792662241568866
 40
4.498523124862278
 40
4.498523124862278
 40
5.026979215875345
 40
5.026979215875345
 40
5.026979215875345
 40
5.026979215875345
 10
-0.0000000000065938
 20
3055.350000000002
 30
0.0
 10
0.1490237465984592
 20
3055.350000000002
 30
0.0
 10
0.2980560814748969
 20
3055.350000014097
 30
0.0
 10
1.145509554397676
 20
3055.3499996935
 30
0.0
 10
1.842909891428234
 20
3055.350004303783
 30
0.0
 10
3.657741907319632
 20
3055.349877757625
 30
0.0
 10
4.767244468854869
 20
3055.349686769849
 30
0.0
 10
8.070660529716406
 20
3055.346736277064
 30
0.0
 10
10.17999093389107
 20
3055.34197230971
 30
0.0
 10
14.09580198250501
 20
3055.303956852964
 30
0.0
 10
15.86697463709879
 20
3055.270602330044
 30
0.0
 10
18.47435347805322
 20
3055.150627799918
 30
0.0
 10
19.42374423721867
 20
3055.08112316799
 30
0.0
 10
20.18674179911613
 20
3054.970689655173
 30
0.0
  0
SPLINE
  5
B2
330
2
100
AcDbEntity
  8
GEB-VERDECKT
 48
25.0
100
AcDbSpline
210
0.0
220
0.0
230
1.0
 70
     8
 71
     3
 72
    16
 73
    12
 74
     0
 42
0.0000000001
 43
0.0000000001
 40
0.0026302539176706
 40
0.0026302539176706
 40
0.0026302539176706
 40
0.0026302539176706
 40
0.7966428389617996
 40
0.7966428389617996
 40
1.604303165644362
 40
1.604303165644362
 40
2.119037224898816
 40
2.119037224898816
 40
2.368046377463982
 40
2.368046377463982
 40
2.515839392244382
 40
2.515839392244382
 40
2.515839392244382
 40
2.515839392244382
 10
-20.18674179912182
 20
3054.970689655173
 30
0.0
 10
-19.04191500082947
 20
3055.136387753327
 30
0.0
 10
-17.48057702551909
 20
3055.214159775459
 30
0.0
 10
-13.63149070005352
 20
3055.316758203713
 30
0.0
 10
-11.36660240365336
 20
3055.334524203795
 30
0.0
 10
-7.307176053165903
 20
3055.348158730164
 30
0.0
 10
-5.653574367217743
 20
3055.349281197255
 30
0.0
 10
-3.139607725693849
 20
3055.349956269395
 30
0.0
 10
-2.312388272604039
 20
3055.34998342418
 30
0.0
 10
-0.9882696666602441
 20
3055.350001700362
 30
0.0
 10
-0.494182054720568
 20
3055.350000000002
 30
0.0
 10
-0.0000000000065938
 20
3055.350000000002
 30
0.0
  0
SPLINE
  5
B3
330
2
100
AcDbEntity
  8
GEB-VERDECKT
 48
25.0
100
AcDbSpline
210
0.0
220
0.0
230
1.0
 70
     8
 71
     3
 72
    16
 73
    12
 74
     0
 42
0.0000000001
 43
0.0000000001
 40
0.0026302539176522
 40
0.0026302539176522
 40
0.0026302539176522
 40
0.0026302539176522
 40
0.7966428389618099
 40
0.7966428389618099
 40
1.604303165644386
 40
1.604303165644386
 40
2.11903722489887
 40
2.11903722489887
 40
2.368046377464017
 40
2.368046377464017
 40
2.515839392244389
 40
2.515839392244389
 40
2.515839392244389
 40
2.515839392244389
 10
20.18674179911613
 20
3054.729310344829
 30
0.0
 10
19.04191500082243
 20
3054.563612246676
 30
0.0
 10
17.48057702551068
 20
3054.485840224544
 30
0.0
 10
13.63149070004283
 20
3054.383241796289
 30
0.0
 10
11.36660240364199
 20
3054.365475796207
 30
0.0
 10
7.307176053153398
 20
3054.351841269839
 30
0.0
 10
5.653574367204782
 20
3054.350718802748
 30
0.0
 10
3.139607725680889
 20
3054.350043730608
 30
0.0
 10
2.312388272590851
 20
3054.350016575823
 30
0.0
 10
0.9882696666470565
 20
3054.349998299641
 30
0.0
 10
0.4941820547073803
 20
3054.350000000001
 30
0.0
 10
-0.0000000000065938
 20
3054.350000000001
 30
0.0
  0
SPLINE
  5
B4
330
2
100
AcDbEntity
  8
GEB-VERDECKT
 48
25.0
100
AcDbSpline
210
0.0
220
0.0
230
1.0
 70
     8
 71
     3
 72
    18
 73
    14
 74
     0
 42
0.0000000001
 43
0.0000000001
 40
2.515839392244389
 40
2.515839392244389
 40
2.515839392244389
 40
2.515839392244389
 40
2.560407317312766
 40
2.560407317312766
 40
2.769292494592859
 40
2.769292494592859
 40
3.106586635065748
 40
3.106586635065748
 40
3.792662241568733
 40
3.792662241568733
 40
4.498523124862089
 40
4.498523124862089
 40
5.026979215875102
 40
5.026979215875102
 40
5.026979215875102
 40
5.026979215875102
 10
-0.0000000000065938
 20
3054.350000000001
 30
0.0
 10
-0.1490237466116469
 20
3054.350000000001
 30
0.0
 10
-0.2980560814880846
 20
3054.349999985905
 30
0.0
 10
-1.145509554410864
 20
3054.350000306503
 30
0.0
 10
-1.842909891441422
 20
3054.34999569622
 30
0.0
 10
-3.657741907332592
 20
3054.350122242377
 30
0.0
 10
-4.767244468867829
 20
3054.350313230153
 30
0.0
 10
-8.070660529728684
 20
3054.353263722939
 30
0.0
 10
-10.17999093390267
 20
3054.358027690292
 30
0.0
 10
-14.09580198251546
 20
3054.396043147039
 30
0.0
 10
-15.86697463710834
 20
3054.429397669959
 30
0.0
 10
-18.47435347806072
 20
3054.549372200085
 30
0.0
 10
-19.42374423722526
 20
3054.618876832013
 30
0.0
 10
-20.18674179912182
 20
3054.729310344829
 30
0.0
  0
SPLINE
  5
B5
330
2
100
AcDbEntity
  8
GEB-VERDECKT
 48
25.0
100
AcDbSpline
210
0.0
220
0.0
230
1.0
 70
     8
 71
     3
 72
    28
 73
    24
 74
     0
 42
0.0000000001
 43
0.0000000001
 40
0.0005496720684118
 40
0.0005496720684118
 40
0.0005496720684118
 40
0.0005496720684118
 40
0.0733177656787973
 40
0.0733177656787973
 40
0.1082986036707144
 40
0.1082986036707144
 40
0.1130439421071746
 40
0.1130439421071746
 40
0.1153813164160088
 40
0.1153813164160088
 40
0.1169282292691141
 40
0.1169282292691141
 40
0.1183408033024798
 40
0.1183408033024798
 40
0.1201304062780323
 40
0.1201304062780323
 40
0.1234160542162653
 40
0.1234160542162653
 40
0.1318469493907262
 40
0.1318469493907262
 40
0.1639189615343812
 40
0.1639189615343812
 40
0.2618557506774307
 40
0.2618557506774307
 40
0.2618557506774307
 40
0.2618557506774307
 10
20.18674179911613
 20
3054.970689655173
 30
0.0
 10
20.29137787512127
 20
3054.955545007251
 30
0.0
 10
20.37332015153333
 20
3054.937139401309
 30
0.0
 10
20.45663194137592
 20
3054.90576685963
 30
0.0
 10
20.49015544029771
 20
3054.890195783566
 30
0.0
 10
20.50687565782482
 20
3054.867726243211
 30
0.0
 10
20.50881788205083
 20
3054.864579280033
 30
0.0
 10
20.51093162546704
 20
3054.859288673068
 30
0.0
 10
20.51157236501286
 20
3054.857268133311
 30
0.0
 10
20.5122495839139
 20
3054.853535088572
 30
0.0
 10
20.51241291281008
 20
3054.851973821331
 30
0.0
 10
20.51245158122856
 20
3054.848854475405
 30
0.0
 10
20.51234946566637
 20
3054.847407908348
 30
0.0
 10
20.51189100748684
 20
3054.844229786604
 30
0.0
 10
20.51148389570835
 20
3054.842594054947
 30
0.0
 10
20.5101417585704
 20
3054.838415202119
 30
0.0
 10
20.50897673359577
 20
3054.836032483011
 30
0.0
 10
20.50490778143398
 20
3054.829003461674
 30
0.0
 10
20.50095686999021
 20
3054.824609752297
 30
0.0
 10
20.48247151305486
 20
3054.807297901052
 30
0.0
 10
20.45994402740735
 20
3054.796335808521
 30
0.0
 10
20.38522389469085
 20
3054.765554525386
 30
0.0
 10
20.29914655863195
 20
3054.745579403959
 30
0.0
 10
20.18674179911613
 20
3054.729310344829
 30
0.0
  0
SPLINE
  5
B6
330
2
100
AcDbEntity
  8
GEB-VERDECKT
 48
25.0
100
AcDbSpline
210
0.0
220
0.0
230
1.0
 70
     8
 71
     3
 72
    28
 73
    24
 74
     0
 42
0.0000000001
 43
0.0000000001
 40
0.0005496720684027
 40
0.0005496720684027
 40
0.0005496720684027
 40
0.0005496720684027
 40
0.0733177656790249
 40
0.0733177656790249
 40
0.1082986036733891
 40
0.1082986036733891
 40
0.1130439421080175
 40
0.1130439421080175
 40
0.11538131641526
 40
0.11538131641526
 40
0.1169282292675263
 40
0.1169282292675263
 40
0.1183408033001903
 40
0.1183408033001903
 40
0.1201304062747747
 40
0.1201304062747747
 40
0.123416054211009
 40
0.123416054211009
 40
0.1318469493805758
 40
0.1318469493805758
 40
0.1639189615074849
 40
0.1639189615074849
 40
0.26185575060009
 40
0.26185575060009
 40
0.26185575060009
 40
0.26185575060009
 10
-20.18674179912182
 20
3054.729310344829
 30
0.0
 10
-20.29137787512718
 20
3054.744454992752
 30
0.0
 10
-20.37332015153879
 20
3054.762860598693
 30
0.0
 10
-20.45663194138297
 20
3054.794233140374
 30
0.0
 10
-20.49015544030317
 20
3054.809804216438
 30
0.0
 10
-20.50687565782914
 20
3054.832273756791
 30
0.0
 10
-20.50881788205561
 20
3054.835420719969
 30
0.0
 10
-20.51093162547227
 20
3054.840711326933
 30
0.0
 10
-20.51157236501786
 20
3054.842731866692
 30
0.0
 10
-20.51224958391913
 20
3054.846464911431
 30
0.0
 10
-20.51241291281508
 20
3054.848026178672
 30
0.0
 10
-20.51245158123356
 20
3054.851145524598
 30
0.0
 10
-20.51234946567161
 20
3054.852592091656
 30
0.0
 10
-20.51189100749207
 20
3054.855770213398
 30
0.0
 10
-20.51148389571358
 20
3054.857405945055
 30
0.0
 10
-20.5101417585754
 20
3054.861584797883
 30
0.0
 10
-20.50897673360077
 20
3054.863967516992
 30
0.0
 10
-20.50490778143899
 20
3054.870996538329
 30
0.0
 10
-20.50095686999521
 20
3054.875390247706
 30
0.0
 10
-20.48247151306009
 20
3054.89270209895
 30
0.0
 10
-20.45994402741257
 20
3054.903664191482
 30
0.0
 10
-20.38522389469631
 20
3054.934445474617
 30
0.0
 10
-20.29914655863763
 20
3054.954420596043
 30
0.0
 10
-20.18674179912182
 20
3054.970689655173
 30
0.0
  0
LINE
  5
B7
330
2
100
AcDbEntity
  8
GEB-VERDECKT
 48
25.0
100
AcDbLine
 10
-18.07499999999982
 20
59.00000000000045
 30
0.0
 11
-18.07499999999982
 21
48.96306942529964
 31
0.0
  0
LINE
  5
B8
330
2
100
AcDbEntity
  8
GEB-VERDECKT
 48
25.0
100
AcDbLine
 10
18.07500000000027
 20
59.00000000000045
 30
0.0
 11
18.07500000000027
 21
48.96306942529964
 31
0.0
  0
LINE
  5
B9
330
2
100
AcDbEntity
  8
GEB-VERDECKT
 48
25.0
100
AcDbLine
 10
-18.07500000000004
 20
48.96306942529964
 30
0.0
 11
-20.40000000000009
 21
44.40000000000032
 31
0.0
  0
LINE
  5
BA
330
2
100
AcDbEntity
  8
GEB-VERDECKT
 48
25.0
100
AcDbLine
 10
18.07500000000027
 20
48.96306942529964
 30
0.0
 11
20.40000000000032
 21
44.40000000000032
 31
0.0
  0
LINE
  5
BB
330
2
100
AcDbEntity
  8
GEB-VERDECKT
 48
25.0
100
AcDbLine
 10
-20.39999999999986
 20
44.40000000000009
 30
0.0
 11
-20.39999999999986
 21
16.20000000000073
 31
0.0
  0
LINE
  5
BC
330
2
100
AcDbEntity
  8
GEB-VERDECKT
 48
25.0
100
AcDbLine
 10
20.40000000000009
 20
44.40000000000009
 30
0.0
 11
20.40000000000009
 21
16.20000000000073
 31
0.0
  0
LINE
  5
BD
330
2
100
AcDbEntity
  8
GEB-VERDECKT
 48
25.0
100
AcDbLine
 10
-24.75
 20
16.20000000000027
 30
0.0
 11
-24.75
 21
7.500000000000227
 31
0.0
  0
LINE
  5
BE
330
2
100
AcDbEntity
  8
GEB-VERDECKT
 48
25.0
100
AcDbLine
 10
24.75000000000023
 20
16.20000000000027
 30
0.0
 11
24.75000000000023
 21
7.500000000000227
 31
0.0
  0
LINE
  5
BF
330
2
100
AcDbEntity
  8
GEB-VERDECKT
 48
25.0
100
AcDbLine
 10
-20.39999999999986
 20
7.500000000000227
 30
0.0
 11
-20.39999999999986
 21
0.0000000000002274
 31
0.0
  0
LINE
  5
C0
330
2
100
AcDbEntity
  8
GEB-VERDECKT
 48
25.0
100
AcDbLine
 10
20.40000000000009
 20
7.500000000000227
 30
0.0
 11
20.40000000000009
 21
0.0000000000002274
 31
0.0
  0
LINE
  5
C1
330
2
100
AcDbEntity
  8
GEB-VERDECKT
 48
25.0
100
AcDbLine
 10
-22.40000000000009
 20
5.5
 30
0.0
 11
-22.40000000000009
 21
0.0000000000004547
 31
0.0
  0
LINE
  5
C2
330
2
100
AcDbEntity
  8
GEB-VERDECKT
 48
25.0
100
AcDbLine
 10
22.40000000000009
 20
5.5
 30
0.0
 11
22.40000000000009
 21
0.0000000000004547
 31
0.0
  0
LINE
  5
C3
330
2
100
AcDbEntity
  8
GEB-VERDECKT
 48
25.0
100
AcDbLine
 10
-26.75
 20
18.20000000000027
 30
0.0
 11
-26.75
 21
5.500000000000454
 31
0.0
  0
LINE
  5
C4
330
2
100
AcDbEntity
  8
GEB-VERDECKT
 48
25.0
100
AcDbLine
 10
26.75000000000023
 20
18.20000000000027
 30
0.0
 11
26.75000000000023
 21
5.500000000000454
 31
0.0
  0
LINE
  5
C5
330
2
100
AcDbEntity
  8
GEB-VERDECKT
 48
25.0
100
AcDbLine
 10
-22.40000000000009
 20
46.50000000000045
 30
0.0
 11
-22.40000000000009
 21
18.20000000000027
 31
0.0
  0
LINE
  5
C6
330
2
100
AcDbEntity
  8
GEB-VERDECKT
 48
25.0
100
AcDbLine
 10
22.40000000000009
 20
46.50000000000045
 30
0.0
 11
22.40000000000009
 21
18.20000000000027
 31
0.0
  0
LINE
  5
C7
330
2
100
AcDbEntity
  8
GEB-VERDECKT
 48
25.0
100
AcDbLine
 10
-21.40000000000009
 20
49.00000000000045
 30
0.0
 11
-21.40000000000009
 21
46.50000000000045
 31
0.0
  0
LINE
  5
C8
330
2
100
AcDbEntity
  8
GEB-VERDECKT
 48
25.0
100
AcDbLine
 10
21.40000000000032
 20
49.00000000000045
 30
0.0
 11
21.40000000000032
 21
46.50000000000045
 31
0.0
  0
LINE
  5
C9
330
2
100
AcDbEntity
  8
GEB-VERDECKT
 48
25.0
100
AcDbLine
 10
-20.07500000000005
 20
59.00000000000045
 30
0.0
 11
-20.07500000000005
 21
49.00000000000045
 31
0.0
  0
LINE
  5
CA
330
2
100
AcDbEntity
  8
GEB-VERDECKT
 48
25.0
100
AcDbLine
 10
20.07500000000027
 20
59.00000000000045
 30
0.0
 11
20.07500000000027
 21
49.00000000000045
 31
0.0
  0
LINE
  5
CB
330
2
100
AcDbEntity
  8
GEB-VERDECKT
 48
25.0
100
AcDbLine
 10
-18.07499999999982
 20
48.96306942529964
 30
0.0
 11
18.07500000000027
 21
48.96306942529964
 31
0.0
  0
LINE
  5
CC
330
2
100
AcDbEntity
  8
GEB-VERDECKT
 48
25.0
100
AcDbLine
 10
-20.39999999999986
 20
44.40000000000032
 30
0.0
 11
20.40000000000009
 21
44.40000000000032
 31
0.0
  0
LINE
  5
CD
330
2
100
AcDbEntity
  8
GEB-VERDECKT
 48
25.0
100
AcDbLine
 10
-24.75
 20
16.20000000000027
 30
0.0
 11
24.75000000000023
 21
16.20000000000027
 31
0.0
  0
LINE
  5
CE
330
2
100
AcDbEntity
  8
GEB-VERDECKT
 48
25.0
100
AcDbLine
 10
-24.75
 20
7.500000000000227
 30
0.0
 11
24.75000000000023
 21
7.500000000000227
 31
0.0
  0
LINE
  5
CF
330
2
100
AcDbEntity
  8
GEB-VERDECKT
 48
25.0
100
AcDbLine
 10
-22.40000000000009
 20
0.0000000000002274
 30
0.0
 11
22.40000000000009
 21
0.0000000000002274
 31
0.0
  0
LINE
  5
D0
330
2
100
AcDbEntity
  8
GEB-VERDECKT
 48
25.0
100
AcDbLine
 10
-26.75
 20
5.500000000000454
 30
0.0
 11
26.75000000000023
 21
5.500000000000454
 31
0.0
  0
LINE
  5
D1
330
2
100
AcDbEntity
  8
GEB-VERDECKT
 48
25.0
100
AcDbLine
 10
-26.75
 20
18.2000000000005
 30
0.0
 11
26.75000000000023
 21
18.2000000000005
 31
0.0
  0
LINE
  5
D2
330
2
100
AcDbEntity
  8
GEB-VERDECKT
 48
25.0
100
AcDbLine
 10
-22.40000000000009
 20
46.50000000000045
 30
0.0
 11
22.40000000000009
 21
46.50000000000045
 31
0.0
  0
LINE
  5
D3
330
2
100
AcDbEntity
  8
GEB-VERDECKT
 48
25.0
100
AcDbLine
 10
-21.40000000000009
 20
49.00000000000045
 30
0.0
 11
21.40000000000032
 21
49.00000000000045
 31
0.0
  0
LINE
  5
D4
330
2
100
AcDbEntity
  8
GEB-VERDECKT
 48
25.0
100
AcDbLine
 10
-20.07500000000005
 20
59.00000000000045
 30
0.0
 11
20.07500000000027
 21
59.00000000000045
 31
0.0
  0
SPLINE
  5
D5
330
2
100
AcDbEntity
  8
GEB-VERDECKT
 48
25.0
100
AcDbSpline
210
0.0
220
0.0
230
1.0
 70
     8
 71
     3
 72
    18
 73
    14
 74
     0
 42
0.0000000001
 43
0.0000000001
 40
2.515839392244428
 40
2.515839392244428
 40
2.515839392244428
 40
2.515839392244428
 40
2.560407317312801
 40
2.560407317312801
 40
2.769292494592918
 40
2.769292494592918
 40
3.10658663506583
 40
3.10658663506583
 40
3.79266224156888
 40
3.79266224156888
 40
4.498523124862285
 40
4.498523124862285
 40
5.026979215875265
 40
5.026979215875265
 40
5.026979215875265
 40
5.026979215875265
 10
-0.0000000000065938
 20
22.00000000000045
 30
0.0
 10
-0.1490237466116469
 20
22.00000000000045
 30
0.0
 10
-0.2980560814880846
 20
21.99999998590465
 30
0.0
 10
-1.145509554410864
 20
22.00000030650222
 30
0.0
 10
-1.842909891441422
 20
21.999995696219
 30
0.0
 10
-3.65774190733282
 20
22.00012224237571
 30
0.0
 10
-4.767244468868057
 20
22.00031323015264
 30
0.0
 10
-8.070660529729138
 20
22.0032637229383
 30
0.0
 10
-10.17999093390312
 20
22.0080276902911
 30
0.0
 10
-14.09580198251592
 20
22.04604314703806
 30
0.0
 10
-15.86697463710857
 20
22.07939766995787
 30
0.0
 10
-18.47435347806095
 20
22.1993722000841
 30
0.0
 10
-19.42374423722549
 20
22.26887683201176
 30
0.0
 10
-20.18674179912204
 20
22.3793103448279
 30
0.0
  0
SPLINE
  5
D6
330
2
100
AcDbEntity
  8
GEB-VERDECKT
 48
25.0
100
AcDbSpline
210
0.0
220
0.0
230
1.0
 70
     8
 71
     3
 72
    16
 73
    12
 74
     0
 42
0.0000000001
 43
0.0000000001
 40
0.0026302539176697
 40
0.0026302539176697
 40
0.0026302539176697
 40
0.0026302539176697
 40
0.796642838961812
 40
0.796642838961812
 40
1.604303165644373
 40
1.604303165644373
 40
2.119037224898893
 40
2.119037224898893
 40
2.368046377464043
 40
2.368046377464043
 40
2.515839392244428
 40
2.515839392244428
 40
2.515839392244428
 40
2.515839392244428
 10
20.18674179911636
 20
22.3793103448279
 30
0.0
 10
19.04191500082243
 20
22.21361224667476
 30
0.0
 10
17.48057702551091
 20
22.13584022454234
 30
0.0
 10
13.63149070004328
 20
22.03324179628794
 30
0.0
 10
11.36660240364244
 20
22.01547579620637
 30
0.0
 10
7.307176053153625
 20
22.001841269838
 30
0.0
 10
5.65357436720501
 20
22.00071880274686
 30
0.0
 10
3.139607725680662
 20
22.00004373060642
 30
0.0
 10
2.312388272590851
 20
22.00001657582129
 30
0.0
 10
0.9882696666470565
 20
21.99999829964008
 30
0.0
 10
0.4941820547073803
 20
22.00000000000045
 30
0.0
 10
-0.0000000000065938
 20
22.00000000000045
 30
0.0
  0
SPLINE
  5
D7
330
2
100
AcDbEntity
  8
GEB-VERDECKT
 48
25.0
100
AcDbSpline
210
0.0
220
0.0
230
1.0
 70
     8
 71
     3
 72
    16
 73
    12
 74
     0
 42
0.0000000001
 43
0.0000000001
 40
0.0026302539176523
 40
0.0026302539176523
 40
0.0026302539176523
 40
0.0026302539176523
 40
0.7966428389618072
 40
0.7966428389618072
 40
1.604303165644375
 40
1.604303165644375
 40
2.119037224898838
 40
2.119037224898838
 40
2.368046377463993
 40
2.368046377463993
 40
2.515839392244428
 40
2.515839392244428
 40
2.515839392244428
 40
2.515839392244428
 10
-20.18674179912204
 20
22.62068965517278
 30
0.0
 10
-19.04191500082947
 20
22.78638775332593
 30
0.0
 10
-17.48057702551909
 20
22.86415977545857
 30
0.0
 10
-13.63149070005352
 20
22.96675820371274
 30
0.0
 10
-11.36660240365336
 20
22.98452420379408
 30
0.0
 10
-7.307176053165903
 20
22.99815873016269
 30
0.0
 10
-5.653574367217743
 20
22.99928119725382
 30
0.0
 10
-3.139607725693849
 20
22.99995626939449
 30
0.0
 10
-2.312388272603811
 20
22.99998342417939
 30
0.0
 10
-0.9882696666604715
 20
23.00000170036037
 30
0.0
 10
-0.494182054720568
 20
23.00000000000046
 30
0.0
 10
-0.0000000000065938
 20
23.00000000000046
 30
0.0
  0
SPLINE
  5
D8
330
2
100
AcDbEntity
  8
GEB-VERDECKT
 48
25.0
100
AcDbSpline
210
0.0
220
0.0
230
1.0
 70
     8
 71
     3
 72
    18
 73
    14
 74
     0
 42
0.0000000001
 43
0.0000000001
 40
2.515839392244428
 40
2.515839392244428
 40
2.515839392244428
 40
2.515839392244428
 40
2.560407317312793
 40
2.560407317312793
 40
2.769292494592959
 40
2.769292494592959
 40
3.106586635065938
 40
3.106586635065938
 40
3.79266224156908
 40
3.79266224156908
 40
4.498523124862665
 40
4.498523124862665
 40
5.026979215875925
 40
5.026979215875925
 40
5.026979215875925
 40
5.026979215875925
 10
-0.0000000000065938
 20
23.00000000000046
 30
0.0
 10
0.1490237465984592
 20
23.00000000000046
 30
0.0
 10
0.2980560814748969
 20
23.00000001409626
 30
0.0
 10
1.145509554397449
 20
22.99999969349869
 30
0.0
 10
1.842909891428007
 20
23.00000430378191
 30
0.0
 10
3.657741907319405
 20
22.99987775762474
 30
0.0
 10
4.767244468854869
 20
22.99968676984827
 30
0.0
 10
8.070660529715951
 20
22.99673627706261
 30
0.0
 10
10.17999093389039
 20
22.99197230970981
 30
0.0
 10
14.09580198250455
 20
22.95395685296262
 30
0.0
 10
15.86697463709834
 20
22.92060233004304
 30
0.0
 10
18.47435347805322
 20
22.80062779991658
 30
0.0
 10
19.42374423721867
 20
22.73112316798915
 30
0.0
 10
20.18674179911636
 20
22.62068965517278
 30
0.0
  0
SPLINE
  5
D9
330
2
100
AcDbEntity
  8
GEB-VERDECKT
 48
25.0
100
AcDbSpline
210
0.0
220
0.0
230
1.0
 70
     8
 71
     3
 72
    28
 73
    24
 74
     0
 42
0.0000000001
 43
0.0000000001
 40
0.000549672068412
 40
0.000549672068412
 40
0.000549672068412
 40
0.000549672068412
 40
0.0733177656793008
 40
0.0733177656793008
 40
0.1082986036710136
 40
0.1082986036710136
 40
0.1130439421173589
 40
0.1130439421173589
 40
0.1153813164343101
 40
0.1153813164343101
 40
0.1169282292930952
 40
0.1169282292930952
 40
0.1183408033317643
 40
0.1183408033317643
 40
0.1201304063139346
 40
0.1201304063139346
 40
0.1234160542635917
 40
0.1234160542635917
 40
0.1318469494676996
 40
0.1318469494676996
 40
0.163918961716915
 40
0.163918961716915
 40
0.2618557511867883
 40
0.2618557511867883
 40
0.2618557511867883
 40
0.2618557511867883
 10
-20.18674179912204
 20
22.3793103448279
 30
0.0
 10
-20.29137787512764
 20
22.3944549927503
 30
0.0
 10
-20.37332015153902
 20
22.41286059869276
 30
0.0
 10
-20.45663194138069
 20
22.44423314037204
 30
0.0
 10
-20.49015544030272
 20
22.45980421643571
 30
0.0
 10
-20.50687565783414
 20
22.48227375679653
 30
0.0
 10
-20.50881788205811
 20
22.48542071997372
 30
0.0
 10
-20.51093162547227
 20
22.4907113269328
 30
0.0
 10
-20.51157236501786
 20
22.49273186669052
 30
0.0
 10
-20.51224958391935
 20
22.49646491143017
 30
0.0
 10
-20.51241291281508
 20
22.49802617867135
 30
0.0
 10
-20.51245158123356
 20
22.50114552459672
 30
0.0
 10
-20.51234946567161
 20
22.50259209165483
 30
0.0
 10
-20.51189100749207
 20
22.50577021339723
 30
0.0
 10
-20.51148389571381
 20
22.50740594505442
 30
0.0
 10
-20.5101417585754
 20
22.51158479788228
 30
0.0
 10
-20.50897673360055
 20
22.51396751699099
 30
0.0
 10
-20.50490778143967
 20
22.52099653832647
 30
0.0
 10
-20.50095686999634
 20
22.52539024770385
 30
0.0
 10
-20.48247151305986
 20
22.54270209894935
 30
0.0
 10
-20.4599440274119
 20
22.5536641914814
 30
0.0
 10
-20.38522389469631
 20
22.58444547461522
 30
0.0
 10
-20.29914655863763
 20
22.60442059604248
 30
0.0
 10
-20.18674179912204
 20
22.62068965517278
 30
0.0
  0
SPLINE
  5
DA
330
2
100
AcDbEntity
  8
GEB-VERDECKT
 48
25.0
100
AcDbSpline
210
0.0
220
0.0
230
1.0
 70
     8
 71
     3
 72
    28
 73
    24
 74
     0
 42
0.0000000001
 43
0.0000000001
 40
0.0005496720684024
 40
0.0005496720684024
 40
0.0005496720684024
 40
0.0005496720684024
 40
0.0733177656789543
 40
0.0733177656789543
 40
0.1082986036718085
 40
0.1082986036718085
 40
0.1130439421153812
 40
0.1130439421153812
 40
0.1153813164303101
 40
0.1153813164303101
 40
0.1169282292877371
 40
0.1169282292877371
 40
0.1183408033249771
 40
0.1183408033249771
 40
0.120130406304983
 40
0.120130406304983
 40
0.1234160542513166
 40
0.1234160542513166
 40
0.1318469494475599
 40
0.1318469494475599
 40
0.1639189616747492
 40
0.1639189616747492
 40
0.2618557510724027
 40
0.2618557510724027
 40
0.2618557510724027
 40
0.2618557510724027
 10
20.18674179911636
 20
22.62068965517278
 30
0.0
 10
20.29137787512173
 20
22.60554500725039
 30
0.0
 10
20.37332015153333
 20
22.58713940130792
 30
0.0
 10
20.4566319413766
 20
22.55576685962842
 30
0.0
 10
20.49015544029771
 20
22.54019578356474
 30
0.0
 10
20.506875657828
 20
22.5177262432062
 30
0.0
 10
20.5088178820522
 20
22.51457928002856
 30
0.0
 10
20.51093162546727
 20
22.50928867306789
 30
0.0
 10
20.51157236501286
 20
22.50726813330993
 30
0.0
 10
20.51224958391413
 20
22.50353508857074
 30
0.0
 10
20.51241291281008
 20
22.50197382132933
 30
0.0
 10
20.51245158122856
 20
22.49885447540419
 30
0.0
 10
20.5123494656666
 20
22.4974079083463
 30
0.0
 10
20.51189100748707
 20
22.49422978660368
 30
0.0
 10
20.51148389570858
 20
22.49259405494627
 30
0.0
 10
20.5101417585704
 20
22.4884152021184
 30
0.0
 10
20.50897673359577
 20
22.4860324830097
 30
0.0
 10
20.50490778143398
 20
22.47900346167353
 30
0.0
 10
20.50095686999021
 20
22.47460975229615
 30
0.0
 10
20.48247151305509
 20
22.45729790105179
 30
0.0
 10
20.4599440274078
 20
22.44633580851996
 30
0.0
 10
20.38522389469131
 20
22.41555452538569
 30
0.0
 10
20.29914655863286
 20
22.39557940395798
 30
0.0
 10
20.18674179911636
 20
22.3793103448279
 30
0.0
  0
SPLINE
  5
DB
330
2
100
AcDbEntity
  8
GEB-VERDECKT
 48
25.0
100
AcDbSpline
210
0.0
220
0.0
230
1.0
 70
     8
 71
     3
 72
    18
 73
    14
 74
     0
 42
0.0000000001
 43
0.0000000001
 40
2.515839392244428
 40
2.515839392244428
 40
2.515839392244428
 40
2.515839392244428
 40
2.560407317312801
 40
2.560407317312801
 40
2.769292494592918
 40
2.769292494592918
 40
3.10658663506583
 40
3.10658663506583
 40
3.79266224156888
 40
3.79266224156888
 40
4.498523124862285
 40
4.498523124862285
 40
5.026979215875265
 40
5.026979215875265
 40
5.026979215875265
 40
5.026979215875265
 10
-0.0000000000065938
 20
27.75000000000046
 30
0.0
 10
-0.1490237466116469
 20
27.75000000000046
 30
0.0
 10
-0.2980560814880846
 20
27.74999998590465
 30
0.0
 10
-1.145509554410864
 20
27.75000030650199
 30
0.0
 10
-1.842909891441422
 20
27.74999569621878
 30
0.0
 10
-3.65774190733282
 20
27.75012224237594
 30
0.0
 10
-4.767244468868057
 20
27.75031323015241
 30
0.0
 10
-8.070660529729138
 20
27.7532637229383
 30
0.0
 10
-10.17999093390312
 20
27.75802769029088
 30
0.0
 10
-14.09580198251592
 20
27.79604314703829
 30
0.0
 10
-15.86697463710857
 20
27.82939766995787
 30
0.0
 10
-18.47435347806095
 20
27.94937220008433
 30
0.0
 10
-19.42374423722549
 20
28.01887683201153
 30
0.0
 10
-20.18674179912204
 20
28.1293103448279
 30
0.0
  0
SPLINE
  5
DC
330
2
100
AcDbEntity
  8
GEB-VERDECKT
 48
25.0
100
AcDbSpline
210
0.0
220
0.0
230
1.0
 70
     8
 71
     3
 72
    16
 73
    12
 74
     0
 42
0.0000000001
 43
0.0000000001
 40
0.0026302539176697
 40
0.0026302539176697
 40
0.0026302539176697
 40
0.0026302539176697
 40
0.796642838961812
 40
0.796642838961812
 40
1.604303165644373
 40
1.604303165644373
 40
2.119037224898893
 40
2.119037224898893
 40
2.368046377464043
 40
2.368046377464043
 40
2.515839392244428
 40
2.515839392244428
 40
2.515839392244428
 40
2.515839392244428
 10
20.18674179911636
 20
28.1293103448279
 30
0.0
 10
19.04191500082243
 20
27.96361224667498
 30
0.0
 10
17.48057702551091
 20
27.88584022454211
 30
0.0
 10
13.63149070004328
 20
27.78324179628817
 30
0.0
 10
11.36660240364244
 20
27.7654757962066
 30
0.0
 10
7.307176053153625
 20
27.75184126983822
 30
0.0
 10
5.65357436720501
 20
27.75071880274686
 30
0.0
 10
3.139607725680662
 20
27.7500437306062
 30
0.0
 10
2.312388272590851
 20
27.75001657582129
 30
0.0
 10
0.9882696666470565
 20
27.74999829964031
 30
0.0
 10
0.4941820547073803
 20
27.75000000000046
 30
0.0
 10
-0.0000000000065938
 20
27.75000000000046
 30
0.0
  0
SPLINE
  5
DD
330
2
100
AcDbEntity
  8
GEB-VERDECKT
 48
25.0
100
AcDbSpline
210
0.0
220
0.0
230
1.0
 70
     8
 71
     3
 72
    16
 73
    12
 74
     0
 42
0.0000000001
 43
0.0000000001
 40
0.0026302539176525
 40
0.0026302539176525
 40
0.0026302539176525
 40
0.0026302539176525
 40
0.7966428389618072
 40
0.7966428389618072
 40
1.604303165644375
 40
1.604303165644375
 40
2.119037224898838
 40
2.119037224898838
 40
2.368046377463993
 40
2.368046377463993
 40
2.515839392244428
 40
2.515839392244428
 40
2.515839392244428
 40
2.515839392244428
 10
-20.18674179912204
 20
28.37068965517301
 30
0.0
 10
-19.04191500082947
 20
28.53638775332593
 30
0.0
 10
-17.48057702551909
 20
28.61415977545858
 30
0.0
 10
-13.63149070005352
 20
28.71675820371251
 30
0.0
 10
-11.36660240365336
 20
28.73452420379431
 30
0.0
 10
-7.307176053165903
 20
28.74815873016269
 30
0.0
 10
-5.653574367217743
 20
28.74928119725382
 30
0.0
 10
-3.139607725693849
 20
28.74995626939426
 30
0.0
 10
-2.312388272603811
 20
28.74998342417939
 30
0.0
 10
-0.9882696666604715
 20
28.75000170036037
 30
0.0
 10
-0.494182054720568
 20
28.75000000000023
 30
0.0
 10
-0.0000000000065938
 20
28.75000000000023
 30
0.0
  0
SPLINE
  5
DE
330
2
100
AcDbEntity
  8
GEB-VERDECKT
 48
25.0
100
AcDbSpline
210
0.0
220
0.0
230
1.0
 70
     8
 71
     3
 72
    18
 73
    14
 74
     0
 42
0.0000000001
 43
0.0000000001
 40
2.515839392244428
 40
2.515839392244428
 40
2.515839392244428
 40
2.515839392244428
 40
2.560407317312793
 40
2.560407317312793
 40
2.769292494592959
 40
2.769292494592959
 40
3.106586635065938
 40
3.106586635065938
 40
3.79266224156908
 40
3.79266224156908
 40
4.498523124862665
 40
4.498523124862665
 40
5.026979215875925
 40
5.026979215875925
 40
5.026979215875925
 40
5.026979215875925
 10
-0.0000000000065938
 20
28.75000000000023
 30
0.0
 10
0.1490237465984592
 20
28.75000000000023
 30
0.0
 10
0.2980560814748969
 20
28.75000001409603
 30
0.0
 10
1.145509554397449
 20
28.74999969349847
 30
0.0
 10
1.842909891428007
 20
28.75000430378168
 30
0.0
 10
3.657741907319405
 20
28.74987775762497
 30
0.0
 10
4.767244468854869
 20
28.74968676984827
 30
0.0
 10
8.070660529715951
 20
28.74673627706238
 30
0.0
 10
10.17999093389039
 20
28.74197230970958
 30
0.0
 10
14.09580198250455
 20
28.70395685296262
 30
0.0
 10
15.86697463709834
 20
28.67060233004281
 30
0.0
 10
18.47435347805322
 20
28.55062779991659
 30
0.0
 10
19.42374423721867
 20
28.48112316798916
 30
0.0
 10
20.18674179911636
 20
28.37068965517301
 30
0.0
  0
SPLINE
  5
DF
330
2
100
AcDbEntity
  8
GEB-VERDECKT
 48
25.0
100
AcDbSpline
210
0.0
220
0.0
230
1.0
 70
     8
 71
     3
 72
    28
 73
    24
 74
     0
 42
0.0000000001
 43
0.0000000001
 40
0.0005496720684115
 40
0.0005496720684115
 40
0.0005496720684115
 40
0.0005496720684115
 40
0.073317765678954
 40
0.073317765678954
 40
0.1082986036714759
 40
0.1082986036714759
 40
0.1130439421174416
 40
0.1130439421174416
 40
0.1153813164342789
 40
0.1153813164342789
 40
0.1169282292929152
 40
0.1169282292929152
 40
0.1183408033313983
 40
0.1183408033313983
 40
0.1201304063132899
 40
0.1201304063132899
 40
0.123416054262337
 40
0.123416054262337
 40
0.1318469494669618
 40
0.1318469494669618
 40
0.1639189617306789
 40
0.1639189617306789
 40
0.261855751240256
 40
0.261855751240256
 40
0.261855751240256
 40
0.261855751240256
 10
-20.18674179912204
 20
28.1293103448279
 30
0.0
 10
-20.29137787512695
 20
28.1444549927503
 30
0.0
 10
-20.37332015153879
 20
28.16286059869276
 30
0.0
 10
-20.45663194138137
 20
28.19423314037249
 30
0.0
 10
-20.49015544030294
 20
28.20980421643617
 30
0.0
 10
-20.50687565783414
 20
28.23227375679607
 30
0.0
 10
-20.50881788205789
 20
28.23542071997372
 30
0.0
 10
-20.51093162547227
 20
28.2407113269328
 30
0.0
 10
-20.51157236501786
 20
28.24273186669075
 30
0.0
 10
-20.51224958391935
 20
28.24646491142971
 30
0.0
 10
-20.51241291281508
 20
28.24802617867135
 30
0.0
 10
-20.51245158123356
 20
28.25114552459695
 30
0.0
 10
-20.51234946567161
 20
28.25259209165506
 30
0.0
 10
-20.51189100749207
 20
28.25577021339723
 30
0.0
 10
-20.51148389571381
 20
28.25740594505419
 30
0.0
 10
-20.5101417585754
 20
28.26158479788228
 30
0.0
 10
-20.50897673360055
 20
28.26396751699099
 30
0.0
 10
-20.50490778143876
 20
28.27099653832761
 30
0.0
 10
-20.50095686999475
 20
28.27539024770522
 30
0.0
 10
-20.48247151306009
 20
28.29270209894912
 30
0.0
 10
-20.4599440274128
 20
28.30366419148095
 30
0.0
 10
-20.38522389469631
 20
28.33444547461522
 30
0.0
 10
-20.29914655863786
 20
28.3544205960427
 30
0.0
 10
-20.18674179912204
 20
28.37068965517301
 30
0.0
  0
SPLINE
  5
E0
330
2
100
AcDbEntity
  8
GEB-VERDECKT
 48
25.0
100
AcDbSpline
210
0.0
220
0.0
230
1.0
 70
     8
 71
     3
 72
    28
 73
    24
 74
     0
 42
0.0000000001
 43
0.0000000001
 40
0.0005496720684023
 40
0.0005496720684023
 40
0.0005496720684023
 40
0.0005496720684023
 40
0.0733177656788685
 40
0.0733177656788685
 40
0.1082986036715544
 40
0.1082986036715544
 40
0.1130439421116897
 40
0.1130439421116897
 40
0.11538131642375
 40
0.11538131642375
 40
0.1169282292792469
 40
0.1169282292792469
 40
0.1183408033147176
 40
0.1183408033147176
 40
0.1201304062924637
 40
0.1201304062924637
 40
0.123416054234606
 40
0.123416054234606
 40
0.1318469494200796
 40
0.1318469494200796
 40
0.163918961605004
 40
0.163918961605004
 40
0.2618557508701128
 40
0.2618557508701128
 40
0.2618557508701128
 40
0.2618557508701128
 10
20.18674179911636
 20
28.37068965517301
 30
0.0
 10
20.2913778751215
 20
28.35554500725038
 30
0.0
 10
20.37332015153333
 20
28.33713940130815
 30
0.0
 10
20.4566319413766
 20
28.30576685962819
 30
0.0
 10
20.49015544029771
 20
28.29019578356474
 30
0.0
 10
20.50687565782641
 20
28.26772624320802
 30
0.0
 10
20.50881788205174
 20
28.26457928002992
 30
0.0
 10
20.51093162546727
 20
28.25928867306812
 30
0.0
 10
20.51157236501286
 20
28.25726813331016
 30
0.0
 10
20.51224958391413
 20
28.25353508857097
 30
0.0
 10
20.51241291281008
 20
28.25197382132933
 30
0.0
 10
20.51245158122856
 20
28.24885447540396
 30
0.0
 10
20.5123494656666
 20
28.2474079083463
 30
0.0
 10
20.51189100748707
 20
28.24422978660346
 30
0.0
 10
20.51148389570858
 20
28.24259405494604
 30
0.0
 10
20.5101417585704
 20
28.23841520211863
 30
0.0
 10
20.50897673359555
 20
28.23603248300992
 30
0.0
 10
20.50490778143398
 20
28.22900346167353
 30
0.0
 10
20.50095686999043
 20
28.22460975229615
 30
0.0
 10
20.48247151305509
 20
28.20729790105179
 30
0.0
 10
20.45994402740825
 20
28.19633580852019
 30
0.0
 10
20.38522389469085
 20
28.16555452538546
 30
0.0
 10
20.29914655863217
 20
28.14557940395798
 30
0.0
 10
20.18674179911636
 20
28.1293103448279
 30
0.0
  0
SPLINE
  5
E1
330
2
100
AcDbEntity
  8
GEB-VERDECKT
 48
25.0
100
AcDbSpline
210
0.0
220
0.0
230
1.0
 70
     8
 71
     3
 72
    18
 73
    14
 74
     0
 42
0.0000000001
 43
0.0000000001
 40
2.515839392244428
 40
2.515839392244428
 40
2.515839392244428
 40
2.515839392244428
 40
2.560407317312801
 40
2.560407317312801
 40
2.769292494592918
 40
2.769292494592918
 40
3.10658663506583
 40
3.10658663506583
 40
3.79266224156888
 40
3.79266224156888
 40
4.498523124862285
 40
4.498523124862285
 40
5.026979215875265
 40
5.026979215875265
 40
5.026979215875265
 40
5.026979215875265
 10
-0.0000000000065938
 20
33.50000000000023
 30
0.0
 10
-0.1490237466116469
 20
33.50000000000023
 30
0.0
 10
-0.2980560814880846
 20
33.49999998590443
 30
0.0
 10
-1.145509554410864
 20
33.50000030650199
 30
0.0
 10
-1.842909891441422
 20
33.499995696219
 30
0.0
 10
-3.65774190733282
 20
33.50012224237594
 30
0.0
 10
-4.767244468868057
 20
33.50031323015219
 30
0.0
 10
-8.070660529729138
 20
33.5032637229383
 30
0.0
 10
-10.17999093390312
 20
33.5080276902911
 30
0.0
 10
-14.09580198251592
 20
33.54604314703806
 30
0.0
 10
-15.86697463710857
 20
33.57939766995787
 30
0.0
 10
-18.47435347806095
 20
33.6993722000841
 30
0.0
 10
-19.42374423722549
 20
33.76887683201176
 30
0.0
 10
-20.18674179912204
 20
33.8793103448279
 30
0.0
  0
SPLINE
  5
E2
330
2
100
AcDbEntity
  8
GEB-VERDECKT
 48
25.0
100
AcDbSpline
210
0.0
220
0.0
230
1.0
 70
     8
 71
     3
 72
    16
 73
    12
 74
     0
 42
0.0000000001
 43
0.0000000001
 40
0.0026302539176695
 40
0.0026302539176695
 40
0.0026302539176695
 40
0.0026302539176695
 40
0.796642838961812
 40
0.796642838961812
 40
1.604303165644373
 40
1.604303165644373
 40
2.119037224898893
 40
2.119037224898893
 40
2.368046377464043
 40
2.368046377464043
 40
2.515839392244428
 40
2.515839392244428
 40
2.515839392244428
 40
2.515839392244428
 10
20.18674179911636
 20
33.8793103448279
 30
0.0
 10
19.04191500082243
 20
33.71361224667476
 30
0.0
 10
17.48057702551091
 20
33.63584022454211
 30
0.0
 10
13.63149070004328
 20
33.53324179628794
 30
0.0
 10
11.36660240364244
 20
33.51547579620638
 30
0.0
 10
7.307176053153625
 20
33.501841269838
 30
0.0
 10
5.65357436720501
 20
33.50071880274709
 30
0.0
 10
3.139607725680662
 20
33.50004373060642
 30
0.0
 10
2.312388272590851
 20
33.50001657582152
 30
0.0
 10
0.9882696666470565
 20
33.49999829964009
 30
0.0
 10
0.4941820547073803
 20
33.50000000000023
 30
0.0
 10
-0.0000000000065938
 20
33.50000000000023
 30
0.0
  0
SPLINE
  5
E3
330
2
100
AcDbEntity
  8
GEB-VERDECKT
 48
25.0
100
AcDbSpline
210
0.0
220
0.0
230
1.0
 70
     8
 71
     3
 72
    16
 73
    12
 74
     0
 42
0.0000000001
 43
0.0000000001
 40
0.0026302539176526
 40
0.0026302539176526
 40
0.0026302539176526
 40
0.0026302539176526
 40
0.7966428389618072
 40
0.7966428389618072
 40
1.604303165644375
 40
1.604303165644375
 40
2.119037224898838
 40
2.119037224898838
 40
2.368046377463993
 40
2.368046377463993
 40
2.515839392244428
 40
2.515839392244428
 40
2.515839392244428
 40
2.515839392244428
 10
-20.18674179912204
 20
34.12068965517278
 30
0.0
 10
-19.04191500082947
 20
34.28638775332593
 30
0.0
 10
-17.48057702551909
 20
34.36415977545858
 30
0.0
 10
-13.63149070005352
 20
34.46675820371274
 30
0.0
 10
-11.36660240365336
 20
34.48452420379431
 30
0.0
 10
-7.307176053165903
 20
34.49815873016269
 30
0.0
 10
-5.653574367217743
 20
34.49928119725382
 30
0.0
 10
-3.139607725693849
 20
34.49995626939426
 30
0.0
 10
-2.312388272603811
 20
34.49998342417939
 30
0.0
 10
-0.9882696666604715
 20
34.50000170036037
 30
0.0
 10
-0.494182054720568
 20
34.50000000000045
 30
0.0
 10
-0.0000000000065938
 20
34.50000000000045
 30
0.0
  0
SPLINE
  5
E4
330
2
100
AcDbEntity
  8
GEB-VERDECKT
 48
25.0
100
AcDbSpline
210
0.0
220
0.0
230
1.0
 70
     8
 71
     3
 72
    18
 73
    14
 74
     0
 42
0.0000000001
 43
0.0000000001
 40
2.515839392244428
 40
2.515839392244428
 40
2.515839392244428
 40
2.515839392244428
 40
2.560407317312793
 40
2.560407317312793
 40
2.769292494592959
 40
2.769292494592959
 40
3.106586635065938
 40
3.106586635065938
 40
3.79266224156908
 40
3.79266224156908
 40
4.498523124862665
 40
4.498523124862665
 40
5.026979215875925
 40
5.026979215875925
 40
5.026979215875925
 40
5.026979215875925
 10
-0.0000000000065938
 20
34.50000000000045
 30
0.0
 10
0.1490237465984592
 20
34.50000000000045
 30
0.0
 10
0.2980560814748969
 20
34.50000001409626
 30
0.0
 10
1.145509554397449
 20
34.4999996934987
 30
0.0
 10
1.842909891428007
 20
34.50000430378191
 30
0.0
 10
3.657741907319405
 20
34.49987775762475
 30
0.0
 10
4.767244468854869
 20
34.49968676984827
 30
0.0
 10
8.070660529715951
 20
34.49673627706261
 30
0.0
 10
10.17999093389039
 20
34.49197230970958
 30
0.0
 10
14.09580198250455
 20
34.45395685296262
 30
0.0
 10
15.86697463709834
 20
34.42060233004259
 30
0.0
 10
18.47435347805322
 20
34.30062779991658
 30
0.0
 10
19.42374423721867
 20
34.23112316798916
 30
0.0
 10
20.18674179911636
 20
34.12068965517278
 30
0.0
  0
SPLINE
  5
E5
330
2
100
AcDbEntity
  8
GEB-VERDECKT
 48
25.0
100
AcDbSpline
210
0.0
220
0.0
230
1.0
 70
     8
 71
     3
 72
    28
 73
    24
 74
     0
 42
0.0000000001
 43
0.0000000001
 40
0.0005496720684186
 40
0.0005496720684186
 40
0.0005496720684186
 40
0.0005496720684186
 40
0.0733177656792568
 40
0.0733177656792568
 40
0.1082986036725745
 40
0.1082986036725745
 40
0.1130439421151213
 40
0.1130439421151213
 40
0.1153813164292594
 40
0.1153813164292594
 40
0.1169282292861071
 40
0.1169282292861071
 40
0.1183408033229431
 40
0.1183408033229431
 40
0.1201304063027308
 40
0.1201304063027308
 40
0.1234160542478954
 40
0.1234160542478954
 40
0.131846949440476
 40
0.131846949440476
 40
0.1639189616458404
 40
0.1639189616458404
 40
0.2618557509818083
 40
0.2618557509818083
 40
0.2618557509818083
 40
0.2618557509818083
 10
-20.18674179912204
 20
33.8793103448279
 30
0.0
 10
-20.29137787512741
 20
33.89445499275053
 30
0.0
 10
-20.37332015153879
 20
33.91286059869254
 30
0.0
 10
-20.45663194138183
 20
33.94423314037249
 30
0.0
 10
-20.49015544030317
 20
33.95980421643594
 30
0.0
 10
-20.50687565783255
 20
33.98227375679403
 30
0.0
 10
-20.50881788205743
 20
33.9854207199719
 30
0.0
 10
-20.51093162547227
 20
33.9907113269328
 30
0.0
 10
-20.51157236501786
 20
33.99273186669052
 30
0.0
 10
-20.51224958391935
 20
33.99646491142994
 30
0.0
 10
-20.51241291281508
 20
33.99802617867158
 30
0.0
 10
-20.51245158123356
 20
34.00114552459672
 30
0.0
 10
-20.51234946567161
 20
34.00259209165483
 30
0.0
 10
-20.51189100749207
 20
34.005770213397
 30
0.0
 10
-20.51148389571381
 20
34.00740594505396
 30
0.0
 10
-20.5101417585754
 20
34.01158479788228
 30
0.0
 10
-20.50897673360055
 20
34.01396751699122
 30
0.0
 10
-20.50490778143967
 20
34.02099653832647
 30
0.0
 10
-20.50095686999634
 20
34.02539024770386
 30
0.0
 10
-20.48247151305986
 20
34.04270209894958
 30
0.0
 10
-20.4599440274119
 20
34.05366419148118
 30
0.0
 10
-20.38522389469631
 20
34.08444547461523
 30
0.0
 10
-20.29914655863763
 20
34.1044205960427
 30
0.0
 10
-20.18674179912204
 20
34.12068965517278
 30
0.0
  0
SPLINE
  5
E6
330
2
100
AcDbEntity
  8
GEB-VERDECKT
 48
25.0
100
AcDbSpline
210
0.0
220
0.0
230
1.0
 70
     8
 71
     3
 72
    28
 73
    24
 74
     0
 42
0.0000000001
 43
0.0000000001
 40
0.000549672068402
 40
0.000549672068402
 40
0.000549672068402
 40
0.000549672068402
 40
0.0733177656789543
 40
0.0733177656789543
 40
0.1082986036718085
 40
0.1082986036718085
 40
0.1130439421153812
 40
0.1130439421153812
 40
0.1153813164303101
 40
0.1153813164303101
 40
0.1169282292877371
 40
0.1169282292877371
 40
0.1183408033249771
 40
0.1183408033249771
 40
0.120130406304983
 40
0.120130406304983
 40
0.1234160542513166
 40
0.1234160542513166
 40
0.1318469494475599
 40
0.1318469494475599
 40
0.1639189616747492
 40
0.1639189616747492
 40
0.2618557510724715
 40
0.2618557510724715
 40
0.2618557510724715
 40
0.2618557510724715
 10
20.18674179911636
 20
34.12068965517278
 30
0.0
 10
20.29137787512173
 20
34.10554500725039
 30
0.0
 10
20.37332015153333
 20
34.08713940130815
 30
0.0
 10
20.4566319413766
 20
34.05576685962842
 30
0.0
 10
20.49015544029771
 20
34.04019578356474
 30
0.0
 10
20.506875657828
 20
34.0177262432062
 30
0.0
 10
20.5088178820522
 20
34.01457928002833
 30
0.0
 10
20.51093162546727
 20
34.00928867306789
 30
0.0
 10
20.51157236501286
 20
34.00726813330994
 30
0.0
 10
20.51224958391413
 20
34.00353508857075
 30
0.0
 10
20.51241291281008
 20
34.00197382132911
 30
0.0
 10
20.51245158122856
 20
33.99885447540419
 30
0.0
 10
20.5123494656666
 20
33.99740790834608
 30
0.0
 10
20.51189100748707
 20
33.99422978660346
 30
0.0
 10
20.51148389570858
 20
33.99259405494627
 30
0.0
 10
20.5101417585704
 20
33.98841520211841
 30
0.0
 10
20.50897673359577
 20
33.98603248300992
 30
0.0
 10
20.50490778143398
 20
33.97900346167353
 30
0.0
 10
20.50095686999021
 20
33.97460975229592
 30
0.0
 10
20.48247151305509
 20
33.95729790105179
 30
0.0
 10
20.4599440274078
 20
33.94633580851973
 30
0.0
 10
20.38522389469108
 20
33.91555452538569
 30
0.0
 10
20.29914655863263
 20
33.89557940395798
 30
0.0
 10
20.18674179911636
 20
33.8793103448279
 30
0.0
  0
SPLINE
  5
E7
330
2
100
AcDbEntity
  8
GEB-VERDECKT
 48
25.0
100
AcDbSpline
210
0.0
220
0.0
230
1.0
 70
     8
 71
     3
 72
    18
 73
    14
 74
     0
 42
0.0000000001
 43
0.0000000001
 40
2.515839392244428
 40
2.515839392244428
 40
2.515839392244428
 40
2.515839392244428
 40
2.560407317312801
 40
2.560407317312801
 40
2.769292494592918
 40
2.769292494592918
 40
3.10658663506583
 40
3.10658663506583
 40
3.79266224156888
 40
3.79266224156888
 40
4.498523124862285
 40
4.498523124862285
 40
5.026979215875265
 40
5.026979215875265
 40
5.026979215875265
 40
5.026979215875265
 10
-0.0000000000065938
 20
39.25000000000046
 30
0.0
 10
-0.1490237466116469
 20
39.25000000000046
 30
0.0
 10
-0.2980560814880846
 20
39.24999998590465
 30
0.0
 10
-1.145509554410864
 20
39.25000030650199
 30
0.0
 10
-1.842909891441422
 20
39.24999569621878
 30
0.0
 10
-3.65774190733282
 20
39.25012224237617
 30
0.0
 10
-4.767244468868057
 20
39.25031323015242
 30
0.0
 10
-8.070660529729138
 20
39.2532637229383
 30
0.0
 10
-10.17999093390312
 20
39.2580276902911
 30
0.0
 10
-14.09580198251592
 20
39.29604314703784
 30
0.0
 10
-15.86697463710857
 20
39.32939766995787
 30
0.0
 10
-18.47435347806095
 20
39.44937220008433
 30
0.0
 10
-19.42374423722549
 20
39.51887683201176
 30
0.0
 10
-20.18674179912204
 20
39.62931034482813
 30
0.0
  0
SPLINE
  5
E8
330
2
100
AcDbEntity
  8
GEB-VERDECKT
 48
25.0
100
AcDbSpline
210
0.0
220
0.0
230
1.0
 70
     8
 71
     3
 72
    16
 73
    12
 74
     0
 42
0.0000000001
 43
0.0000000001
 40
0.0026302539176696
 40
0.0026302539176696
 40
0.0026302539176696
 40
0.0026302539176696
 40
0.796642838961812
 40
0.796642838961812
 40
1.604303165644373
 40
1.604303165644373
 40
2.119037224898893
 40
2.119037224898893
 40
2.368046377464043
 40
2.368046377464043
 40
2.515839392244428
 40
2.515839392244428
 40
2.515839392244428
 40
2.515839392244428
 10
20.18674179911636
 20
39.62931034482813
 30
0.0
 10
19.04191500082243
 20
39.46361224667498
 30
0.0
 10
17.48057702551091
 20
39.38584022454234
 30
0.0
 10
13.63149070004328
 20
39.28324179628816
 30
0.0
 10
11.36660240364244
 20
39.26547579620637
 30
0.0
 10
7.307176053153625
 20
39.251841269838
 30
0.0
 10
5.65357436720501
 20
39.25071880274686
 30
0.0
 10
3.139607725680662
 20
39.2500437306062
 30
0.0
 10
2.312388272590851
 20
39.25001657582129
 30
0.0
 10
0.9882696666470565
 20
39.24999829964031
 30
0.0
 10
0.4941820547073803
 20
39.25000000000046
 30
0.0
 10
-0.0000000000065938
 20
39.25000000000046
 30
0.0
  0
SPLINE
  5
E9
330
2
100
AcDbEntity
  8
GEB-VERDECKT
 48
25.0
100
AcDbSpline
210
0.0
220
0.0
230
1.0
 70
     8
 71
     3
 72
    16
 73
    12
 74
     0
 42
0.0000000001
 43
0.0000000001
 40
0.0026302539176524
 40
0.0026302539176524
 40
0.0026302539176524
 40
0.0026302539176524
 40
0.7966428389618072
 40
0.7966428389618072
 40
1.604303165644374
 40
1.604303165644374
 40
2.119037224898837
 40
2.119037224898837
 40
2.368046377463992
 40
2.368046377463992
 40
2.515839392244426
 40
2.515839392244426
 40
2.515839392244426
 40
2.515839392244426
 10
-20.18674179912204
 20
39.87068965517256
 30
0.0
 10
-19.04191500082947
 20
40.0363877533257
 30
0.0
 10
-17.48057702551909
 20
40.11415977545857
 30
0.0
 10
-13.63149070005352
 20
40.21675820371251
 30
0.0
 10
-11.36660240365336
 20
40.23452420379453
 30
0.0
 10
-7.307176053165903
 20
40.24815873016246
 30
0.0
 10
-5.653574367217743
 20
40.24928119725382
 30
0.0
 10
-3.139607725693849
 20
40.24995626939449
 30
0.0
 10
-2.312388272603811
 20
40.24998342417939
 30
0.0
 10
-0.9882696666604715
 20
40.25000170036037
 30
0.0
 10
-0.494182054720568
 20
40.25000000000045
 30
0.0
 10
-0.0000000000065938
 20
40.25000000000045
 30
0.0
  0
SPLINE
  5
EA
330
2
100
AcDbEntity
  8
GEB-VERDECKT
 48
25.0
100
AcDbSpline
210
0.0
220
0.0
230
1.0
 70
     8
 71
     3
 72
    18
 73
    14
 74
     0
 42
0.0000000001
 43
0.0000000001
 40
2.515839392244426
 40
2.515839392244426
 40
2.515839392244426
 40
2.515839392244426
 40
2.560407317312792
 40
2.560407317312792
 40
2.769292494592957
 40
2.769292494592957
 40
3.106586635065935
 40
3.106586635065935
 40
3.792662241569077
 40
3.792662241569077
 40
4.49852312486266
 40
4.49852312486266
 40
5.026979215875918
 40
5.026979215875918
 40
5.026979215875918
 40
5.026979215875918
 10
-0.0000000000065938
 20
40.25000000000045
 30
0.0
 10
0.1490237465984592
 20
40.25000000000045
 30
0.0
 10
0.2980560814748969
 20
40.25000001409603
 30
0.0
 10
1.145509554397449
 20
40.24999969349869
 30
0.0
 10
1.842909891428007
 20
40.25000430378191
 30
0.0
 10
3.657741907319405
 20
40.24987775762475
 30
0.0
 10
4.767244468854869
 20
40.24968676984826
 30
0.0
 10
8.070660529715951
 20
40.24673627706261
 30
0.0
 10
10.17999093389039
 20
40.24197230970957
 30
0.0
 10
14.09580198250455
 20
40.20395685296285
 30
0.0
 10
15.86697463709834
 20
40.17060233004281
 30
0.0
 10
18.47435347805322
 20
40.05062779991681
 30
0.0
 10
19.42374423721867
 20
39.98112316798915
 30
0.0
 10
20.18674179911636
 20
39.87068965517256
 30
0.0
  0
SPLINE
  5
EB
330
2
100
AcDbEntity
  8
GEB-VERDECKT
 48
25.0
100
AcDbSpline
210
0.0
220
0.0
230
1.0
 70
     8
 71
     3
 72
    28
 73
    24
 74
     0
 42
0.0000000001
 43
0.0000000001
 40
0.0005496720684118
 40
0.0005496720684118
 40
0.0005496720684118
 40
0.0005496720684118
 40
0.0733177656788484
 40
0.0733177656788484
 40
0.1082986036706664
 40
0.1082986036706664
 40
0.113043942105775
 40
0.113043942105775
 40
0.1153813164135248
 40
0.1153813164135248
 40
0.1169282292661528
 40
0.1169282292661528
 40
0.118340803299179
 40
0.118340803299179
 40
0.1201304062741458
 40
0.1201304062741458
 40
0.1234160542104771
 40
0.1234160542104771
 40
0.1318469493819316
 40
0.1318469493819316
 40
0.1639189615165018
 40
0.1639189615165018
 40
0.2618557506345355
 40
0.2618557506345355
 40
0.2618557506345355
 40
0.2618557506345355
 10
-20.18674179912204
 20
39.62931034482813
 30
0.0
 10
-20.29137787512673
 20
39.6444549927503
 30
0.0
 10
-20.37332015153879
 20
39.66286059869253
 30
0.0
 10
-20.45663194138115
 20
39.69423314037204
 30
0.0
 10
-20.49015544030294
 20
39.70980421643594
 30
0.0
 10
-20.50687565782959
 20
39.73227375678994
 30
0.0
 10
-20.50881788205584
 20
39.73542071996872
 30
0.0
 10
-20.51093162547227
 20
39.74071132693234
 30
0.0
 10
-20.51157236501786
 20
39.74273186669052
 30
0.0
 10
-20.51224958391935
 20
39.74646491142994
 30
0.0
 10
-20.51241291281508
 20
39.74802617867135
 30
0.0
 10
-20.51245158123356
 20
39.75114552459695
 30
0.0
 10
-20.51234946567161
 20
39.75259209165461
 30
0.0
 10
-20.51189100749207
 20
39.75577021339723
 30
0.0
 10
-20.51148389571381
 20
39.75740594505419
 30
0.0
 10
-20.5101417585754
 20
39.76158479788228
 30
0.0
 10
-20.50897673360055
 20
39.76396751699099
 30
0.0
 10
-20.50490778143899
 20
39.77099653832738
 30
0.0
 10
-20.50095686999521
 20
39.77539024770499
 30
0.0
 10
-20.48247151306009
 20
39.79270209894935
 30
0.0
 10
-20.45994402741212
 20
39.80366419148118
 30
0.0
 10
-20.38522389469631
 20
39.83444547461522
 30
0.0
 10
-20.29914655863763
 20
39.85442059604293
 30
0.0
 10
-20.18674179912204
 20
39.87068965517256
 30
0.0
  0
SPLINE
  5
EC
330
2
100
AcDbEntity
  8
GEB-VERDECKT
 48
25.0
100
AcDbSpline
210
0.0
220
0.0
230
1.0
 70
     8
 71
     3
 72
    28
 73
    24
 74
     0
 42
0.0000000001
 43
0.0000000001
 40
0.0005496720684023
 40
0.0005496720684023
 40
0.0005496720684023
 40
0.0005496720684023
 40
0.0733177656788465
 40
0.0733177656788465
 40
0.1082986036717465
 40
0.1082986036717465
 40
0.1130439421115249
 40
0.1130439421115249
 40
0.1153813164234461
 40
0.1153813164234461
 40
0.1169282292787884
 40
0.1169282292787884
 40
0.1183408033142187
 40
0.1183408033142187
 40
0.1201304062921886
 40
0.1201304062921886
 40
0.1234160542340896
 40
0.1234160542340896
 40
0.1318469494175242
 40
0.1318469494175242
 40
0.1639189615868125
 40
0.1639189615868125
 40
0.2618557508126225
 40
0.2618557508126225
 40
0.2618557508126225
 40
0.2618557508126225
 10
20.18674179911636
 20
39.87068965517256
 30
0.0
 10
20.2913778751215
 20
39.85554500725039
 30
0.0
 10
20.37332015153333
 20
39.83713940130838
 30
0.0
 10
20.4566319413766
 20
39.80576685962842
 30
0.0
 10
20.49015544029794
 20
39.79019578356452
 30
0.0
 10
20.50687565782641
 20
39.76772624320825
 30
0.0
 10
20.50881788205152
 20
39.76457928003015
 30
0.0
 10
20.51093162546727
 20
39.75928867306766
 30
0.0
 10
20.51157236501286
 20
39.75726813330993
 30
0.0
 10
20.51224958391413
 20
39.75353508857097
 30
0.0
 10
20.51241291281008
 20
39.75197382132933
 30
0.0
 10
20.51245158122856
 20
39.74885447540373
 30
0.0
 10
20.5123494656666
 20
39.74740790834608
 30
0.0
 10
20.51189100748707
 20
39.74422978660368
 30
0.0
 10
20.51148389570858
 20
39.74259405494649
 30
0.0
 10
20.5101417585704
 20
39.73841520211863
 30
0.0
 10
20.50897673359577
 20
39.7360324830097
 30
0.0
 10
20.50490778143444
 20
39.72900346167421
 30
0.0
 10
20.50095686999134
 20
39.72460975229728
 30
0.0
 10
20.48247151305464
 20
39.70729790105134
 30
0.0
 10
20.45994402740666
 20
39.69633580851928
 30
0.0
 10
20.38522389469085
 20
39.66555452538569
 30
0.0
 10
20.29914655863217
 20
39.64557940395798
 30
0.0
 10
20.18674179911636
 20
39.62931034482813
 30
0.0
  0
LINE
  5
ED
330
2
100
AcDbEntity
  8
GEB-VERDECKT
 48
25.0
100
AcDbLine
 10
-18.07499999999982
 20
3045.550000000002
 30
0.0
 11
-18.07499999999982
 21
49.05000000000086
 31
0.0
  0
LINE
  5
EE
330
2
100
AcDbEntity
  8
GEB-VERDECKT
 48
25.0
100
AcDbLine
 10
18.07500000000027
 20
3045.550000000002
 30
0.0
 11
18.07500000000027
 21
49.05000000000086
 31
0.0
  0
LINE
  5
EF
330
2
100
AcDbEntity
  8
GEB-KONTUR-A
 48
25.0
100
AcDbLine
 10
-20.07499999999982
 20
3045.550000000002
 30
0.0
 11
-20.07499999999982
 21
49.05000000000086
 31
0.0
  0
LINE
  5
F1
330
2
100
AcDbEntity
  8
GEB-KONTUR-A
 48
25.0
100
AcDbLine
 10
20.07500000000005
 20
3045.550000000002
 30
0.0
 11
20.07500000000005
 21
49.05000000000086
 31
0.0
  0
LINE
  5
F2
330
2
100
AcDbEntity
  8
GEB-KONTUR-A
 48
25.0
100
AcDbLine
 10
20.07500000000005
 20
49.05000000000109
 30
0.0
 11
-20.07499999999982
 21
49.05000000000109
 31
0.0
  0
LINE
  5
F3
330
2
100
AcDbEntity
  8
GEB-KONTUR-A
 48
25.0
100
AcDbLine
 10
-20.07499999999982
 20
3045.550000000002
 30
0.0
 11
20.07500000000005
 21
3045.550000000002
 31
0.0
  0
TEXT
  5
F4
330
2
100
AcDbEntity
  8
GEB-TEXT
100
AcDbText
 10
-35.46674624829468
 20
-13.0
 30
0.0
 40
3.5
  1
Rohr PP-MD d40x3000 2 Muffen
 72
     1
 11
0.0
 21
-13.0
 31
0.0
100
AcDbText
  0
TEXT
  5
F6
330
2
100
AcDbEntity
  8
GEB-TEXT
100
AcDbText
 10
-18.75221691678035
 20
-7.5
 30
0.0
 40
3.5
  1
Geberit Silent PP
 72
     1
 11
0.0
 21
-7.5
 31
0.0
100
AcDbText
  0
TEXT
  5
F7
330
2
100
AcDbEntity
  8
GEB-ART-NR
100
AcDbText
 10
-24.17544479964571
 20
-19.34278125428022
 30
0.0
 40
3.5
  1
GEB-ART-NR 390.114
 72
     1
 11
0.552556564610768
 21
-19.34278125428022
 31
0.0
100
AcDbText
  0
ENDSEC
  0
SECTION
  2
OBJECTS
  0
DICTIONARY
  5
9
330
0
100
AcDbDictionary
281
     1
  3
ACAD_2007HEADERVARS_RT
350
126
  3
ACAD_COLOR
350
44
  3
ACAD_GROUP
350
31
  3
ACAD_LAYOUT
350
16
  3
ACAD_MATERIAL
350
B
  3
ACAD_MLEADERSTYLE
350
47
  3
ACAD_MLINESTYLE
350
32
  3
ACAD_PLOTSETTINGS
350
33
  3
ACAD_PLOTSTYLENAME
350
8
  3
ACAD_SCALELIST
350
45
  3
ACAD_TABLESTYLE
350
46
  3
ACAD_VISUALSTYLE
350
2B
  3
ACDB_RECOMPOSE_DATA
350
125
  3
AcDbVariableDictionary
350
FB
  0
DICTIONARY
  5
2C
330
28
100
AcDbDictionary
280
     1
281
     1
  0
DICTIONARY
  5
1C
330
1B
100
AcDbDictionary
280
     1
281
     1
  3
ACAD_LAYERFILTERS
360
1D
  3
ACLYDICTIONARY
360
1E
  0
DICTIONARY
  5
3
330
2
100
AcDbDictionary
280
     1
281
     1
  3
ACAD_SORTENTS
360
F9
  0
DICTIONARY
  5
126
102
{ACAD_REACTORS
330
9
102
}
330
9
100
AcDbDictionary
281
     1
  3
DIMARCSYM
350
127
  3
DIMLTEX1
350
129
  3
DIMLTEX2
350
12A
  3
DIMLTYPE
350
128
  0
DICTIONARY
  5
44
102
{ACAD_REACTORS
330
9
102
}
330
9
100
AcDbDictionary
281
     1
  0
DICTIONARY
  5
31
102
{ACAD_REACTORS
330
9
102
}
330
9
100
AcDbDictionary
281
     1
  0
DICTIONARY
  5
16
102
{ACAD_REACTORS
330
9
102
}
330
9
100
AcDbDictionary
281
     1
  3
Layout1
350
1A
  3
Model
350
15
  0
DICTIONARY
  5
B
102
{ACAD_REACTORS
330
9
102
}
330
9
100
AcDbDictionary
281
     1
  3
ByBlock
350
3C
  3
ByLayer
350
34
  3
Global
350
A
  0
DICTIONARY
  5
47
102
{ACAD_REACTORS
330
9
102
}
330
9
100
AcDbDictionary
281
     1
  3
Standard
350
119
  0
DICTIONARY
  5
32
102
{ACAD_REACTORS
330
9
102
}
330
9
100
AcDbDictionary
281
     1
  3
Standard
350
48
  0
DICTIONARY
  5
33
102
{ACAD_REACTORS
330
9
102
}
330
9
100
AcDbDictionary
281
     1
  0
ACDBDICTIONARYWDFLT
  5
8
102
{ACAD_REACTORS
330
9
102
}
330
9
100
AcDbDictionary
281
     1
  3
Normal
350
7
100
AcDbDictionaryWithDefault
340
7
  0
DICTIONARY
  5
45
102
{ACAD_REACTORS
330
9
102
}
330
9
100
AcDbDictionary
281
     1
  3
A0
350
4D
  3
A1
350
4E
  3
A2
350
4F
  3
A3
350
50
  3
A4
350
51
  3
A5
350
52
  3
A6
350
53
  3
A7
350
54
  3
A8
350
55
  3
A9
350
56
  3
B0
350
57
  3
B1
350
58
  3
B2
350
59
  3
B3
350
5A
  3
B4
350
5B
  3
B5
350
5C
  3
B6
350
5D
  3
B7
350
5E
  3
B8
350
5F
  3
B9
350
60
  3
C0
350
61
  3
C1
350
62
  3
C2
350
63
  3
C3
350
64
  3
C4
350
65
  3
C5
350
66
  3
C6
350
67
  3
C7
350
68
  3
C8
350
69
  3
C9
350
6A
  3
D0
350
6B
  3
D1
350
6C
  3
D2
350
6D
  0
DICTIONARY
  5
46
102
{ACAD_REACTORS
330
9
102
}
330
9
100
AcDbDictionary
281
     1
  3
Standard
350
49
  0
DICTIONARY
  5
2B
102
{ACAD_REACTORS
330
9
102
}
330
9
100
AcDbDictionary
281
     1
  3
2dWireframe
350
2A
  3
Basic
350
108
  3
Brighten
350
10C
  3
ColorChange
350
110
  3
Conceptual
350
10A
  3
Dim
350
10B
  3
EdgeColorOff
350
118
  3
Facepattern
350
10F
  3
Flat
350
104
  3
FlatWithEdges
350
105
  3
Gouraud
350
106
  3
GouraudWithEdges
350
107
  3
Hidden
350
109
  3
JitterOff
350
116
  3
Linepattern
350
10E
  3
OverhangOff
350
117
  3
Realistic
350
4B
  3
Shaded
350
115
  3
Shaded with edges
350
114
  3
Shades of Gray
350
111
  3
Sketchy
350
112
  3
Thicken
350
10D
  3
Wireframe
350
4C
  3
X-Ray
350
113
  0
XRECORD
  5
125
102
{ACAD_REACTORS
330
9
102
}
330
9
100
AcDbXrecord
280
     1
 90
        1
330
49
  0
DICTIONARY
  5
FB
102
{ACAD_REACTORS
330
9
102
}
330
9
100
AcDbDictionary
281
     1
  3
CANNOSCALE
350
FF
  3
CMLEADERSTYLE
350
FD
  3
CTABLESTYLE
350
FC
  3
DIMASSOC
350
122
  3
HIDETEXT
350
121
  3
INDEXCTL
350
120
  3
LAYEREVAL
350
101
  3
LAYERNOTIFY
350
102
  3
LIGHTINGUNITS
350
100
  3
MSLTSCALE
350
FE
  3
SORTENTS
350
11F
  3
XCLIPFRAME
350
123
  0
DICTIONARY
  5
1D
102
{ACAD_REACTORS
330
1C
102
}
330
1C
100
AcDbDictionary
281
     1
  0
DICTIONARY
  5
1E
102
{ACAD_REACTORS
330
1C
102
}
330
1C
100
AcDbDictionary
281
     1
1001
ACAD
1000
<All
  0
SORTENTSTABLE
  5
F9
102
{ACAD_REACTORS
330
3
102
}
330
3
100
AcDbSortentsTable
330
2
331
C2
  5
A9
331
83
  5
E8
331
B2
  5
B9
331
C3
  5
A8
331
84
  5
E7
331
B3
  5
B8
331
85
  5
E6
331
B4
  5
B7
331
C4
  5
A7
331
C5
  5
A6
331
86
  5
E5
331
B5
  5
B6
331
87
  5
E4
331
B6
  5
B5
331
C6
  5
A5
331
98
  5
D3
331
C7
  5
A4
331
88
  5
E3
331
B7
  5
B4
331
D8
  5
93
331
99
  5
D2
331
89
  5
E2
331
C8
  5
A3
331
9A
  5
D1
331
C9
  5
A2
331
8A
  5
E1
331
D9
  5
92
331
DA
  5
91
331
9B
  5
D0
331
8B
  5
E0
331
CA
  5
A1
331
6E
  5
F3
331
9C
  5
CF
331
CB
  5
A0
331
8C
  5
DF
331
DB
  5
90
331
DC
  5
8F
331
9D
  5
CE
331
8D
  5
DE
331
CC
  5
9F
331
9E
  5
CD
331
CD
  5
9E
331
8E
  5
DD
331
DD
  5
8E
331
DE
  5
8D
331
9F
  5
CC
331
8F
  5
DC
331
CE
  5
9D
331
A0
  5
CB
331
CF
  5
9C
331
90
  5
DB
331
DF
  5
8C
331
E0
  5
8B
331
A1
  5
CA
331
D0
  5
9B
331
91
  5
DA
331
E1
  5
8A
331
75
  5
F2
331
D1
  5
9A
331
92
  5
D9
331
A2
  5
C9
331
E2
  5
89
331
A3
  5
C8
331
D2
  5
99
331
93
  5
D8
331
E3
  5
88
331
D3
  5
98
331
94
  5
D7
331
A4
  5
C7
331
E4
  5
87
331
D4
  5
97
331
95
  5
D6
331
A5
  5
C6
331
E5
  5
86
331
A6
  5
C5
331
96
  5
D5
331
D5
  5
96
331
A7
  5
C4
331
D6
  5
95
331
97
  5
D4
331
E6
  5
85
331
B8
  5
B3
331
E7
  5
84
331
A8
  5
C3
331
D7
  5
94
331
79
  5
F1
331
7A
  5
EF
331
A9
  5
C2
331
E8
  5
83
331
B9
  5
B2
331
BA
  5
B1
331
E9
  5
82
331
AA
  5
C1
331
7B
  5
EE
331
F1
  5
79
331
F2
  5
75
331
7C
  5
ED
331
AB
  5
C0
331
EA
  5
7F
331
BB
  5
B0
331
BC
  5
AF
331
EB
  5
7E
331
AC
  5
BF
331
7D
  5
EC
331
F3
  5
6E
331
F4
  5
F7
331
7E
  5
EB
331
AD
  5
BE
331
EC
  5
7D
331
BD
  5
AE
331
BE
  5
AD
331
ED
  5
7C
331
AE
  5
BD
331
7F
  5
EA
331
BF
  5
AC
331
AF
  5
BC
331
EE
  5
7B
331
C0
  5
AB
331
EF
  5
7A
331
B0
  5
BB
331
F7
  5
F4
331
C1
  5
AA
331
B1
  5
BA
331
82
  5
E9
  0
XRECORD
  5
127
102
{ACAD_REACTORS
330
126
102
}
330
126
100
AcDbXrecord
280
     1
 70
     1
  0
XRECORD
  5
129
102
{ACAD_REACTORS
330
126
102
}
330
126
100
AcDbXrecord
280
     1
340
24
  0
XRECORD
  5
12A
102
{ACAD_REACTORS
330
126
102
}
330
126
100
AcDbXrecord
280
     1
340
24
  0
XRECORD
  5
128
102
{ACAD_REACTORS
330
126
102
}
330
126
100
AcDbXrecord
280
     1
340
24
  0
LAYOUT
  5
1A
102
{ACAD_XDICTIONARY
360
12E
102
}
102
{ACAD_REACTORS
330
16
102
}
330
16
100
AcDbPlotSettings
  1

  2
\\le-server\HP LaserJet 2100
  4

  6

 40
0.0
 41
0.0
 42
0.0
 43
0.0
 44
0.0
 45
0.0
 46
0.0
 47
0.0
 48
0.0
 49
0.0
140
0.0
141
0.0
142
1.0
143
1.0
 70
   688
 72
     0
 73
     0
 74
     5
  7

 75
    16
147
1.0
148
0.0
149
0.0
100
AcDbLayout
  1
Layout1
 70
     1
 71
     1
 10
0.0
 20
0.0
 11
1189.0
 21
840.9999999999998
 12
0.0
 22
0.0
 32
0.0
 14
0.0
 24
0.0
 34
0.0
 15
1189.0
 25
840.9999999999998
 35
0.0
146
0.0
 13
0.0
 23
0.0
 33
0.0
 16
1.0
 26
0.0
 36
0.0
 17
0.0
 27
1.0
 37
0.0
 76
     0
330
17
  0
LAYOUT
  5
15
102
{ACAD_XDICTIONARY
360
12C
102
}
102
{ACAD_REACTORS
330
16
102
}
330
16
100
AcDbPlotSettings
  1

  2
\\le-server\HP LaserJet 2100
  4

  6

 40
0.0
 41
0.0
 42
0.0
 43
0.0
 44
0.0
 45
0.0
 46
0.0
 47
0.0
 48
0.0
 49
0.0
140
0.0
141
0.0
142
1.0
143
1.0
 70
  1712
 72
     0
 73
     0
 74
     0
  7

 75
     0
147
1.0
148
0.0
149
0.0
100
AcDbLayout
  1
Model
 70
     1
 71
     0
 10
0.0
 20
0.0
 11
12.0
 21
9.0
 12
0.0
 22
0.0
 32
0.0
 14
0.0
 24
0.0
 34
0.0
 15
0.0
 25
0.0
 35
0.0
146
0.0
 13
0.0
 23
0.0
 33
0.0
 16
1.0
 26
0.0
 36
0.0
 17
0.0
 27
1.0
 37
0.0
 76
     0
330
2
331
29
  0
MATERIAL
  5
3C
102
{ACAD_XDICTIONARY
360
3D
102
}
102
{ACAD_REACTORS
330
B
102
}
330
B
100
AcDbMaterial
  1
ByBlock
 72
     0
 43
0.0208333333333333
 43
0.0
 43
0.0
 43
0.0
 43
0.0
 43
0.0208333333333333
 43
0.0
 43
0.0
 43
0.0
 43
0.0
 43
1.0
 43
0.0
 43
0.0
 43
0.0
 43
0.0
 43
1.0
 77
     0
 47
0.0208333333333333
 47
0.0
 47
0.0
 47
0.0
 47
0.0
 47
0.0208333333333333
 47
0.0
 47
0.0
 47
0.0
 47
0.0
 47
1.0
 47
0.0
 47
0.0
 47
0.0
 47
0.0
 47
1.0
171
     0
 49
0.0208333333333333
 49
0.0
 49
0.0
 49
0.0
 49
0.0
 49
0.0208333333333333
 49
0.0
 49
0.0
 49
0.0
 49
0.0
 49
1.0
 49
0.0
 49
0.0
 49
0.0
 49
0.0
 49
1.0
175
     0
142
0.0208333333333333
142
0.0
142
0.0
142
0.0
142
0.0
142
0.0208333333333333
142
0.0
142
0.0
142
0.0
142
0.0
142
1.0
142
0.0
142
0.0
142
0.0
142
0.0
142
1.0
179
     0
144
0.0208333333333333
144
0.0
144
0.0
144
0.0
144
0.0
144
0.0208333333333333
144
0.0
144
0.0
144
0.0
144
0.0
144
1.0
144
0.0
144
0.0
144
0.0
144
0.0
144
1.0
147
0.0208333333333333
147
0.0
147
0.0
147
0.0
147
0.0
147
0.0208333333333333
147
0.0
147
0.0
147
0.0
147
0.0
147
1.0
147
0.0
147
0.0
147
0.0
147
0.0
147
1.0
  0
MATERIAL
  5
34
102
{ACAD_XDICTIONARY
360
35
102
}
102
{ACAD_REACTORS
330
B
102
}
330
B
100
AcDbMaterial
  1
ByLayer
 72
     0
 43
0.0208333333333333
 43
0.0
 43
0.0
 43
0.0
 43
0.0
 43
0.0208333333333333
 43
0.0
 43
0.0
 43
0.0
 43
0.0
 43
1.0
 43
0.0
 43
0.0
 43
0.0
 43
0.0
 43
1.0
 77
     0
 47
0.0208333333333333
 47
0.0
 47
0.0
 47
0.0
 47
0.0
 47
0.0208333333333333
 47
0.0
 47
0.0
 47
0.0
 47
0.0
 47
1.0
 47
0.0
 47
0.0
 47
0.0
 47
0.0
 47
1.0
171
     0
 49
0.0208333333333333
 49
0.0
 49
0.0
 49
0.0
 49
0.0
 49
0.0208333333333333
 49
0.0
 49
0.0
 49
0.0
 49
0.0
 49
1.0
 49
0.0
 49
0.0
 49
0.0
 49
0.0
 49
1.0
175
     0
142
0.0208333333333333
142
0.0
142
0.0
142
0.0
142
0.0
142
0.0208333333333333
142
0.0
142
0.0
142
0.0
142
0.0
142
1.0
142
0.0
142
0.0
142
0.0
142
0.0
142
1.0
179
     0
144
0.0208333333333333
144
0.0
144
0.0
144
0.0
144
0.0
144
0.0208333333333333
144
0.0
144
0.0
144
0.0
144
0.0
144
1.0
144
0.0
144
0.0
144
0.0
144
0.0
144
1.0
147
0.0208333333333333
147
0.0
147
0.0
147
0.0
147
0.0
147
0.0208333333333333
147
0.0
147
0.0
147
0.0
147
0.0
147
1.0
147
0.0
147
0.0
147
0.0
147
0.0
147
1.0
  0
MATERIAL
  5
A
102
{ACAD_XDICTIONARY
360
C
102
}
102
{ACAD_REACTORS
330
B
102
}
330
B
100
AcDbMaterial
  1
Global
 72
     0
 43
0.0208333333333333
 43
0.0
 43
0.0
 43
0.0
 43
0.0
 43
0.0208333333333333
 43
0.0
 43
0.0
 43
0.0
 43
0.0
 43
1.0
 43
0.0
 43
0.0
 43
0.0
 43
0.0
 43
1.0
 77
     0
 47
0.0208333333333333
 47
0.0
 47
0.0
 47
0.0
 47
0.0
 47
0.0208333333333333
 47
0.0
 47
0.0
 47
0.0
 47
0.0
 47
1.0
 47
0.0
 47
0.0
 47
0.0
 47
0.0
 47
1.0
171
     0
 49
0.0208333333333333
 49
0.0
 49
0.0
 49
0.0
 49
0.0
 49
0.0208333333333333
 49
0.0
 49
0.0
 49
0.0
 49
0.0
 49
1.0
 49
0.0
 49
0.0
 49
0.0
 49
0.0
 49
1.0
175
     0
142
0.0208333333333333
142
0.0
142
0.0
142
0.0
142
0.0
142
0.0208333333333333
142
0.0
142
0.0
142
0.0
142
0.0
142
1.0
142
0.0
142
0.0
142
0.0
142
0.0
142
1.0
179
     0
144
0.0208333333333333
144
0.0
144
0.0
144
0.0
144
0.0
144
0.0208333333333333
144
0.0
144
0.0
144
0.0
144
0.0
144
1.0
144
0.0
144
0.0
144
0.0
144
0.0
144
1.0
147
0.0208333333333333
147
0.0
147
0.0
147
0.0
147
0.0
147
0.0208333333333333
147
0.0
147
0.0
147
0.0
147
0.0
147
1.0
147
0.0
147
0.0
147
0.0
147
0.0
147
1.0
  0
MLEADERSTYLE
  5
119
102
{ACAD_REACTORS
330
47
102
}
330
47
100
AcDbMLeaderStyle
170
     2
171
     1
172
     0
 90
        2
 40
0.0
 41
0.0
173
     1
 91
-1056964608
340
24
 92
       -2
290
     1
 42
2.0
291
     1
 43
0.36
  3
Standard
 44
4.0
300

342
21
174
     1
178
     6
175
     1
176
     0
 93
-1056964608
 45
4.0
292
     0
297
     0
 46
4.0
 94
-1056964608
 47
1.0
 49
1.0
140
1.0
293
     1
141
0.0
294
     1
177
     0
142
1.0
295
     0
296
     0
143
0.125
1001
ACAD_MLEADERVER
1070
     2
  0
MLINESTYLE
  5
48
102
{ACAD_REACTORS
330
32
102
}
330
32
100
AcDbMlineStyle
  2
STANDARD
 70
     0
  3

 62
   256
 51
90.0
 52
90.0
 71
     2
 49
0.5
 62
   256
  6
BYLAYER
 49
-0.5
 62
   256
  6
BYLAYER
  0
ACDBPLACEHOLDER
  5
7
102
{ACAD_REACTORS
330
8
102
}
330
8
  0
SCALE
  5
4D
102
{ACAD_REACTORS
330
45
102
}
330
45
100
AcDbScale
 70
     0
300
1:1
140
1.0
141
1.0
290
     1
  0
SCALE
  5
4E
102
{ACAD_REACTORS
330
45
102
}
330
45
100
AcDbScale
 70
     0
300
1:2
140
1.0
141
2.0
290
     0
  0
SCALE
  5
4F
102
{ACAD_REACTORS
330
45
102
}
330
45
100
AcDbScale
 70
     0
300
1:4
140
1.0
141
4.0
290
     0
  0
SCALE
  5
50
102
{ACAD_REACTORS
330
45
102
}
330
45
100
AcDbScale
 70
     0
300
1:5
140
1.0
141
5.0
290
     0
  0
SCALE
  5
51
102
{ACAD_REACTORS
330
45
102
}
330
45
100
AcDbScale
 70
     0
300
1:8
140
1.0
141
8.0
290
     0
  0
SCALE
  5
52
102
{ACAD_REACTORS
330
45
102
}
330
45
100
AcDbScale
 70
     0
300
1:10
140
1.0
141
10.0
290
     0
  0
SCALE
  5
53
102
{ACAD_REACTORS
330
45
102
}
330
45
100
AcDbScale
 70
     0
300
1:16
140
1.0
141
16.0
290
     0
  0
SCALE
  5
54
102
{ACAD_REACTORS
330
45
102
}
330
45
100
AcDbScale
 70
     0
300
1:20
140
1.0
141
20.0
290
     0
  0
SCALE
  5
55
102
{ACAD_REACTORS
330
45
102
}
330
45
100
AcDbScale
 70
     0
300
1:30
140
1.0
141
30.0
290
     0
  0
SCALE
  5
56
102
{ACAD_REACTORS
330
45
102
}
330
45
100
AcDbScale
 70
     0
300
1:40
140
1.0
141
40.0
290
     0
  0
SCALE
  5
57
102
{ACAD_REACTORS
330
45
102
}
330
45
100
AcDbScale
 70
     0
300
1:50
140
1.0
141
50.0
290
     0
  0
SCALE
  5
58
102
{ACAD_REACTORS
330
45
102
}
330
45
100
AcDbScale
 70
     0
300
1:100
140
1.0
141
100.0
290
     0
  0
SCALE
  5
59
102
{ACAD_REACTORS
330
45
102
}
330
45
100
AcDbScale
 70
     0
300
2:1
140
2.0
141
1.0
290
     0
  0
SCALE
  5
5A
102
{ACAD_REACTORS
330
45
102
}
330
45
100
AcDbScale
 70
     0
300
4:1
140
4.0
141
1.0
290
     0
  0
SCALE
  5
5B
102
{ACAD_REACTORS
330
45
102
}
330
45
100
AcDbScale
 70
     0
300
8:1
140
8.0
141
1.0
290
     0
  0
SCALE
  5
5C
102
{ACAD_REACTORS
330
45
102
}
330
45
100
AcDbScale
 70
     0
300
10:1
140
10.0
141
1.0
290
     0
  0
SCALE
  5
5D
102
{ACAD_REACTORS
330
45
102
}
330
45
100
AcDbScale
 70
     0
300
100:1
140
100.0
141
1.0
290
     0
  0
SCALE
  5
5E
102
{ACAD_REACTORS
330
45
102
}
330
45
100
AcDbScale
 70
     0
300
1/128" = 1'-0"
140
0.0078125
141
12.0
290
     0
  0
SCALE
  5
5F
102
{ACAD_REACTORS
330
45
102
}
330
45
100
AcDbScale
 70
     0
300
1/64" = 1'-0"
140
0.015625
141
12.0
290
     0
  0
SCALE
  5
60
102
{ACAD_REACTORS
330
45
102
}
330
45
100
AcDbScale
 70
     0
300
1/32" = 1'-0"
140
0.03125
141
12.0
290
     0
  0
SCALE
  5
61
102
{ACAD_REACTORS
330
45
102
}
330
45
100
AcDbScale
 70
     0
300
1/16" = 1'-0"
140
0.0625
141
12.0
290
     0
  0
SCALE
  5
62
102
{ACAD_REACTORS
330
45
102
}
330
45
100
AcDbScale
 70
     0
300
3/32" = 1'-0"
140
0.09375
141
12.0
290
     0
  0
SCALE
  5
63
102
{ACAD_REACTORS
330
45
102
}
330
45
100
AcDbScale
 70
     0
300
1/8" = 1'-0"
140
0.125
141
12.0
290
     0
  0
SCALE
  5
64
102
{ACAD_REACTORS
330
45
102
}
330
45
100
AcDbScale
 70
     0
300
3/16" = 1'-0"
140
0.1875
141
12.0
290
     0
  0
SCALE
  5
65
102
{ACAD_REACTORS
330
45
102
}
330
45
100
AcDbScale
 70
     0
300
1/4" = 1'-0"
140
0.25
141
12.0
290
     0
  0
SCALE
  5
66
102
{ACAD_REACTORS
330
45
102
}
330
45
100
AcDbScale
 70
     0
300
3/8" = 1'-0"
140
0.375
141
12.0
290
     0
  0
SCALE
  5
67
102
{ACAD_REACTORS
330
45
102
}
330
45
100
AcDbScale
 70
     0
300
1/2" = 1'-0"
140
0.5
141
12.0
290
     0
  0
SCALE
  5
68
102
{ACAD_REACTORS
330
45
102
}
330
45
100
AcDbScale
 70
     0
300
3/4" = 1'-0"
140
0.75
141
12.0
290
     0
  0
SCALE
  5
69
102
{ACAD_REACTORS
330
45
102
}
330
45
100
AcDbScale
 70
     0
300
1" = 1'-0"
140
1.0
141
12.0
290
     0
  0
SCALE
  5
6A
102
{ACAD_REACTORS
330
45
102
}
330
45
100
AcDbScale
 70
     0
300
1-1/2" = 1'-0"
140
1.5
141
12.0
290
     0
  0
SCALE
  5
6B
102
{ACAD_REACTORS
330
45
102
}
330
45
100
AcDbScale
 70
     0
300
3" = 1'-0"
140
3.0
141
12.0
290
     0
  0
SCALE
  5
6C
102
{ACAD_REACTORS
330
45
102
}
330
45
100
AcDbScale
 70
     0
300
6" = 1'-0"
140
6.0
141
12.0
290
     0
  0
SCALE
  5
6D
102
{ACAD_REACTORS
330
45
102
}
330
45
100
AcDbScale
 70
     0
300
1'-0" = 1'-0"
140
12.0
141
12.0
290
     0
  0
TABLESTYLE
  5
49
102
{ACAD_XDICTIONARY
360
4A
102
}
102
{ACAD_REACTORS
330
46
102
}
330
46
100
AcDbTableStyle
  3
Standard
 70
     0
 71
     0
 40
0.06
 41
0.06
280
     0
281
     0
  7
STANDARD
140
0.18
170
     2
 62
     0
 63
     7
283
     0
274
    -2
284
     1
 64
     0
275
    -2
285
     1
 65
     0
276
    -2
286
     1
 66
     0
277
    -2
287
     1
 67
     0
278
    -2
288
     1
 68
     0
279
    -2
289
     1
 69
     0
  7
STANDARD
140
0.25
170
     5
 62
     0
 63
     7
283
     0
274
    -2
284
     1
 64
     0
275
    -2
285
     1
 65
     0
276
    -2
286
     1
 66
     0
277
    -2
287
     1
 67
     0
278
    -2
288
     1
 68
     0
279
    -2
289
     1
 69
     0
  7
STANDARD
140
0.18
170
     5
 62
     0
 63
     7
283
     0
274
    -2
284
     1
 64
     0
275
    -2
285
     1
 65
     0
276
    -2
286
     1
 66
     0
277
    -2
287
     1
 67
     0
278
    -2
288
     1
 68
     0
279
    -2
289
     1
 69
     0
  0
VISUALSTYLE
  5
2A
102
{ACAD_XDICTIONARY
360
130
102
}
102
{ACAD_REACTORS
330
2B
102
}
330
2B
100
AcDbVisualStyle
  2
2dWireframe
 70
     4
 71
     0
 72
     2
 73
     0
 90
        0
 40
-0.6
 41
-30.0
 62
     5
 63
     7
 74
     1
 91
        4
 64
     7
 65
   257
 75
     1
175
     1
 42
1.0
 92
        0
 66
   257
 43
1.0
 76
     1
 77
     6
 78
     2
 67
     7
 79
     5
170
     0
171
     0
290
     0
174
     0
 93
        1
 44
0.0
173
     0
291
     0
 45
0.0
1001
ACAD
1000
AcDbSavedByObjectVersion
1070
     0
  0
VISUALSTYLE
  5
108
102
{ACAD_XDICTIONARY
360
141
102
}
102
{ACAD_REACTORS
330
2B
102
}
330
2B
100
AcDbVisualStyle
  2
Basic
 70
     7
 71
     1
 72
     0
 73
     1
 90
        0
 40
-0.6
 41
-30.0
 62
     5
 63
     7
 74
     0
 91
        4
 64
     7
 65
   257
 75
     1
175
     1
 42
1.0
 92
        8
 66
     7
 43
1.0
 76
     1
 77
     6
 78
     2
 67
     7
 79
     5
170
     0
171
     0
290
     0
174
     0
 93
        1
 44
0.0
173
     0
291
     1
 45
0.0
1001
ACAD
1000
AcDbSavedByObjectVersion
1070
     0
  0
VISUALSTYLE
  5
10C
102
{ACAD_XDICTIONARY
360
149
102
}
102
{ACAD_REACTORS
330
2B
102
}
330
2B
100
AcDbVisualStyle
  2
Brighten
 70
    12
 71
     2
 72
     2
 73
     0
 90
        0
 40
-0.6
 41
-30.0
 62
     5
 63
     7
 74
     1
 91
        4
 64
     7
 65
   257
 75
     1
175
     1
 42
1.0
 92
        8
 66
     7
 43
1.0
 76
     1
 77
     6
 78
     2
 67
     7
 79
     5
170
     0
171
     0
290
     0
174
     0
 93
        1
 44
50.0
173
     0
291
     1
 45
0.0
1001
ACAD
1000
AcDbSavedByObjectVersion
1070
     0
  0
VISUALSTYLE
  5
110
102
{ACAD_XDICTIONARY
360
151
102
}
102
{ACAD_REACTORS
330
2B
102
}
330
2B
100
AcDbVisualStyle
  2
ColorChange
 70
    16
 71
     2
 72
     2
 73
     3
 90
        0
 40
-0.6
 41
-30.0
 62
     5
 63
     8
 74
     1
 91
        4
 64
     7
 65
   257
 75
     1
175
     1
 42
1.0
 92
        8
 66
     8
 43
1.0
 76
     1
 77
     6
 78
     2
 67
     7
 79
     5
170
     0
171
     0
290
     0
174
     0
 93
        1
 44
0.0
173
     0
291
     1
 45
0.0
1001
ACAD
1000
AcDbSavedByObjectVersion
1070
     0
  0
VISUALSTYLE
  5
10A
102
{ACAD_XDICTIONARY
360
145
102
}
102
{ACAD_REACTORS
330
2B
102
}
330
2B
100
AcDbVisualStyle
  2
Conceptual
 70
     9
 71
     3
 72
     2
 73
     0
 90
        0
 40
-0.6
 41
-30.0
 62
     5
 63
     7
 74
     2
 91
        2
 64
     7
 65
   257
 75
     1
175
     1
 42
179.0
 92
        8
 66
     7
 43
1.0
 76
     1
 77
     6
 78
     2
 67
     7
 79
     3
170
     0
171
     0
290
     0
174
     0
 93
        1
 44
0.0
173
     0
291
     0
 45
0.0
1001
ACAD
1000
AcDbSavedByObjectVersion
1070
     0
  0
VISUALSTYLE
  5
10B
102
{ACAD_XDICTIONARY
360
147
102
}
102
{ACAD_REACTORS
330
2B
102
}
330
2B
100
AcDbVisualStyle
  2
Dim
 70
    11
 71
     2
 72
     2
 73
     0
 90
        0
 40
-0.6
 41
-30.0
 62
     5
 63
     7
 74
     1
 91
        4
 64
     7
 65
   257
 75
     1
175
     1
 42
1.0
 92
        8
 66
     7
 43
1.0
 76
     1
 77
     6
 78
     2
 67
     7
 79
     5
170
     0
171
     0
290
     0
174
     0
 93
        1
 44
-50.0
173
     0
291
     1
 45
0.0
1001
ACAD
1000
AcDbSavedByObjectVersion
1070
     0
  0
VISUALSTYLE
  5
118
102
{ACAD_XDICTIONARY
360
161
102
}
102
{ACAD_REACTORS
330
2B
102
}
330
2B
100
AcDbVisualStyle
  2
EdgeColorOff
 70
    22
 71
     2
 72
     2
 73
     0
 90
        0
 40
-0.6
 41
-30.0
 62
     5
 63
     7
 74
     1
 91
        4
 64
     7
 65
   257
 75
     1
175
     1
 42
1.0
 92
        8
 66
     7
 43
1.0
 76
     1
 77
     6
 78
     2
 67
     7
 79
     5
170
     0
171
     0
290
     0
174
     0
 93
        1
 44
0.0
173
     0
291
     1
 45
0.0
1001
ACAD
1000
AcDbSavedByObjectVersion
1070
     0
  0
VISUALSTYLE
  5
10F
102
{ACAD_XDICTIONARY
360
14F
102
}
102
{ACAD_REACTORS
330
2B
102
}
330
2B
100
AcDbVisualStyle
  2
Facepattern
 70
    15
 71
     2
 72
     2
 73
     0
 90
        0
 40
-0.6
 41
-30.0
 62
     5
 63
     7
 74
     1
 91
        4
 64
     7
 65
   257
 75
     1
175
     1
 42
1.0
 92
        8
 66
     7
 43
1.0
 76
     1
 77
     6
 78
     2
 67
     7
 79
     5
170
     0
171
     0
290
     0
174
     0
 93
        1
 44
0.0
173
     0
291
     1
 45
0.0
1001
ACAD
1000
AcDbSavedByObjectVersion
1070
     0
  0
VISUALSTYLE
  5
104
102
{ACAD_XDICTIONARY
360
139
102
}
102
{ACAD_REACTORS
330
2B
102
}
330
2B
100
AcDbVisualStyle
  2
Flat
 70
     0
 71
     2
 72
     1
 73
     1
 90
        2
 40
-0.6
 41
30.0
 62
     5
 63
     7
 74
     0
 91
        0
 64
     7
 65
   257
 75
     1
175
     1
 42
1.0
 92
        8
 66
     7
 43
1.0
 76
     1
 77
     6
 78
     2
 67
     7
 79
     5
170
     0
171
     0
290
     0
174
     0
 93
       13
 44
0.0
173
     0
291
     1
 45
0.0
1001
ACAD
1000
AcDbSavedByObjectVersion
1070
     0
  0
VISUALSTYLE
  5
105
102
{ACAD_XDICTIONARY
360
13B
102
}
102
{ACAD_REACTORS
330
2B
102
}
330
2B
100
AcDbVisualStyle
  2
FlatWithEdges
 70
     1
 71
     2
 72
     1
 73
     1
 90
        2
 40
-0.6
 41
30.0
 62
     5
 63
     7
 74
     1
 91
        0
 64
     7
 65
   257
 75
     1
175
     1
 42
1.0
 92
        0
 66
   257
 43
1.0
 76
     1
 77
     6
 78
     2
 67
     7
 79
     5
170
     0
171
     0
290
     0
174
     0
 93
       13
 44
0.0
173
     0
291
     1
 45
0.0
1001
ACAD
1000
AcDbSavedByObjectVersion
1070
     0
  0
VISUALSTYLE
  5
106
102
{ACAD_XDICTIONARY
360
13D
102
}
102
{ACAD_REACTORS
330
2B
102
}
330
2B
100
AcDbVisualStyle
  2
Gouraud
 70
     2
 71
     2
 72
     2
 73
     1
 90
        2
 40
-0.6
 41
30.0
 62
     5
 63
     7
 74
     0
 91
        0
 64
     7
 65
   257
 75
     1
175
     1
 42
1.0
 92
        0
 66
     7
 43
1.0
 76
     1
 77
     6
 78
     2
 67
     7
 79
     5
170
     0
171
     0
290
     0
174
     0
 93
       13
 44
0.0
173
     0
291
     1
 45
0.0
1001
ACAD
1000
AcDbSavedByObjectVersion
1070
     0
  0
VISUALSTYLE
  5
107
102
{ACAD_XDICTIONARY
360
13F
102
}
102
{ACAD_REACTORS
330
2B
102
}
330
2B
100
AcDbVisualStyle
  2
GouraudWithEdges
 70
     3
 71
     2
 72
     2
 73
     1
 90
        2
 40
-0.6
 41
30.0
 62
     5
 63
     7
 74
     1
 91
        0
 64
     7
 65
   257
 75
     1
175
     1
 42
1.0
 92
        0
 66
   257
 43
1.0
 76
     1
 77
     6
 78
     2
 67
     7
 79
     5
170
     0
171
     0
290
     0
174
     0
 93
       13
 44
0.0
173
     0
291
     1
 45
0.0
1001
ACAD
1000
AcDbSavedByObjectVersion
1070
     0
  0
VISUALSTYLE
  5
109
102
{ACAD_XDICTIONARY
360
143
102
}
102
{ACAD_REACTORS
330
2B
102
}
330
2B
100
AcDbVisualStyle
  2
Hidden
 70
     6
 71
     1
 72
     2
 73
     2
 90
        0
 40
-0.6
 41
-30.0
 62
     5
 63
     7
 74
     2
 91
        2
 64
     7
 65
   257
 75
     2
175
     1
 42
40.0
 92
        0
 66
   257
 43
1.0
 76
     1
 77
     6
 78
     2
 67
     7
 79
     3
170
     0
171
     0
290
     0
174
     0
 93
        1
 44
0.0
173
     0
291
     0
 45
0.0
1001
ACAD
1000
AcDbSavedByObjectVersion
1070
     0
  0
VISUALSTYLE
  5
116
102
{ACAD_XDICTIONARY
360
15D
102
}
102
{ACAD_REACTORS
330
2B
102
}
330
2B
100
AcDbVisualStyle
  2
JitterOff
 70
    20
 71
     2
 72
     2
 73
     0
 90
        0
 40
-0.6
 41
-30.0
 62
     5
 63
     7
 74
     1
 91
        4
 64
     7
 65
   257
 75
     1
175
     1
 42
1.0
 92
       10
 66
     7
 43
1.0
 76
     1
 77
     6
 78
     2
 67
     7
 79
     5
170
     0
171
     0
290
     0
174
     0
 93
        1
 44
0.0
173
     0
291
     1
 45
0.0
1001
ACAD
1000
AcDbSavedByObjectVersion
1070
     0
  0
VISUALSTYLE
  5
10E
102
{ACAD_XDICTIONARY
360
14D
102
}
102
{ACAD_REACTORS
330
2B
102
}
330
2B
100
AcDbVisualStyle
  2
Linepattern
 70
    14
 71
     2
 72
     2
 73
     0
 90
        0
 40
-0.6
 41
-30.0
 62
     5
 63
     7
 74
     1
 91
        4
 64
     7
 65
   257
 75
     7
175
     7
 42
1.0
 92
        8
 66
     7
 43
1.0
 76
     1
 77
     6
 78
     2
 67
     7
 79
     5
170
     0
171
     0
290
     0
174
     0
 93
        1
 44
0.0
173
     0
291
     1
 45
0.0
1001
ACAD
1000
AcDbSavedByObjectVersion
1070
     0
  0
VISUALSTYLE
  5
117
102
{ACAD_XDICTIONARY
360
15F
102
}
102
{ACAD_REACTORS
330
2B
102
}
330
2B
100
AcDbVisualStyle
  2
OverhangOff
 70
    21
 71
     2
 72
     2
 73
     0
 90
        0
 40
-0.6
 41
-30.0
 62
     5
 63
     7
 74
     1
 91
        4
 64
     7
 65
   257
 75
     1
175
     1
 42
1.0
 92
        9
 66
     7
 43
1.0
 76
     1
 77
     6
 78
     2
 67
     7
 79
     5
170
     0
171
     0
290
     0
174
     0
 93
        1
 44
0.0
173
     0
291
     1
 45
0.0
1001
ACAD
1000
AcDbSavedByObjectVersion
1070
     0
  0
VISUALSTYLE
  5
4B
102
{ACAD_XDICTIONARY
360
135
102
}
102
{ACAD_REACTORS
330
2B
102
}
330
2B
100
AcDbVisualStyle
  2
Realistic
 70
     8
 71
     2
 72
     2
 73
     0
 90
        0
 40
-0.6
 41
-30.0
 62
     5
 63
     7
 74
     1
 91
        0
 64
     7
 65
   257
 75
     1
175
     1
 42
1.0
 92
        8
 66
     8
 43
1.0
 76
     1
 77
     6
 78
     2
 67
     7
 79
     5
170
     0
171
     0
290
     0
174
     0
 93
       13
 44
0.0
173
     0
291
     0
 45
0.0
1001
ACAD
1000
AcDbSavedByObjectVersion
1070
     0
  0
VISUALSTYLE
  5
115
102
{ACAD_XDICTIONARY
360
15B
102
}
102
{ACAD_REACTORS
330
2B
102
}
330
2B
100
AcDbVisualStyle
  2
Shaded
 70
    27
 71
     2
 72
     2
 73
     1
 90
        2
 40
-0.6
 41
30.0
 62
     5
 63
     7
 74
     0
 91
        4
 64
     7
 65
   257
 75
     1
175
     1
 42
1.0
 92
        8
 66
   257
 43
1.0
 76
     1
 77
     6
 78
     2
 67
     8
 79
     3
170
     0
171
     0
290
     0
174
     0
 93
        5
 44
0.0
173
     0
291
     0
 45
0.0
1001
ACAD
1000
AcDbSavedByObjectVersion
1070
     0
  0
VISUALSTYLE
  5
114
102
{ACAD_XDICTIONARY
360
159
102
}
102
{ACAD_REACTORS
330
2B
102
}
330
2B
100
AcDbVisualStyle
  2
Shaded with edges
 70
    26
 71
     2
 72
     2
 73
     1
 90
        2
 40
-0.6
 41
30.0
 62
     5
 63
     7
 74
     1
 91
       10
 64
     7
 65
   257
 75
     2
175
     1
 42
1.0
 92
        8
 66
   257
 43
1.0
 76
     1
 77
     6
 78
     2
 67
     7
 79
     3
170
     0
171
     0
290
     0
174
     0
 93
        5
 44
0.0
173
     0
291
     0
 45
0.0
1001
ACAD
1000
AcDbSavedByObjectVersion
1070
     0
  0
VISUALSTYLE
  5
111
102
{ACAD_XDICTIONARY
360
153
102
}
102
{ACAD_REACTORS
330
2B
102
}
330
2B
100
AcDbVisualStyle
  2
Shades of Gray
 70
    23
 71
     2
 72
     2
 73
     3
 90
        0
 40
-0.6
 41
-30.0
 62
     5
 63
     7
 74
     2
 91
        2
 64
     7
 65
     7
 75
     1
175
     1
 42
40.0
 92
        8
 66
     7
 43
1.0
 76
     1
 77
     6
 78
     2
 67
     7
 79
     3
170
     0
171
     0
290
     0
174
     0
 93
        1
 44
0.0
173
     0
291
     0
 45
0.0
1001
ACAD
1000
AcDbSavedByObjectVersion
1070
     0
  0
VISUALSTYLE
  5
112
102
{ACAD_XDICTIONARY
360
155
102
}
102
{ACAD_REACTORS
330
2B
102
}
330
2B
100
AcDbVisualStyle
  2
Sketchy
 70
    24
 71
     1
 72
     2
 73
     2
 90
        0
 40
-0.6
 41
-30.0
 62
     5
 63
     7
 74
     2
 91
        2
 64
     7
 65
     7
 75
     1
175
     1
 42
40.0
 92
       11
 66
     7
 43
1.0
 76
     1
 77
     6
 78
     2
 67
     7
 79
     6
170
     0
171
     0
290
     0
174
     0
 93
        1
 44
0.0
173
     0
291
     0
 45
0.0
1001
ACAD
1000
AcDbSavedByObjectVersion
1070
     0
  0
VISUALSTYLE
  5
10D
102
{ACAD_XDICTIONARY
360
14B
102
}
102
{ACAD_REACTORS
330
2B
102
}
330
2B
100
AcDbVisualStyle
  2
Thicken
 70
    13
 71
     2
 72
     2
 73
     0
 90
        0
 40
-0.6
 41
-30.0
 62
     5
 63
     7
 74
     1
 91
        4
 64
     7
 65
   257
 75
     1
175
     1
 42
1.0
 92
       12
 66
     7
 43
1.0
 76
     1
 77
     6
 78
     2
 67
     7
 79
     5
170
     0
171
     0
290
     0
174
     0
 93
        1
 44
0.0
173
     0
291
     1
 45
0.0
1001
ACAD
1000
AcDbSavedByObjectVersion
1070
     0
  0
VISUALSTYLE
  5
4C
102
{ACAD_XDICTIONARY
360
137
102
}
102
{ACAD_REACTORS
330
2B
102
}
330
2B
100
AcDbVisualStyle
  2
Wireframe
 70
     5
 71
     0
 72
     2
 73
     0
 90
        0
 40
-0.6
 41
-30.0
 62
     5
 63
     7
 74
     1
 91
        4
 64
     7
 65
   257
 75
     1
175
     1
 42
1.0
 92
        0
 66
   257
 43
1.0
 76
     1
 77
     6
 78
     2
 67
     7
 79
     3
170
     0
171
     0
290
     0
174
     0
 93
        1
 44
0.0
173
     0
291
     0
 45
0.0
1001
ACAD
1000
AcDbSavedByObjectVersion
1070
     0
  0
VISUALSTYLE
  5
113
102
{ACAD_XDICTIONARY
360
157
102
}
102
{ACAD_REACTORS
330
2B
102
}
330
2B
100
AcDbVisualStyle
  2
X-Ray
 70
    25
 71
     2
 72
     2
 73
     1
 90
        1
 40
0.5
 41
-30.0
 62
     5
 63
     7
 74
     1
 91
        0
 64
     7
 65
   257
 75
     1
175
     1
 42
1.0
 92
        8
 66
     7
 43
1.0
 76
     1
 77
     6
 78
     2
 67
     7
 79
     3
170
     0
171
     0
290
     0
174
     0
 93
       13
 44
0.0
173
     0
291
     0
 45
0.0
1001
ACAD
1000
AcDbSavedByObjectVersion
1070
     0
  0
DICTIONARYVAR
  5
FF
102
{ACAD_REACTORS
330
FB
102
}
330
FB
100
DictionaryVariables
280
     0
  1
1:1
  0
DICTIONARYVAR
  5
FD
102
{ACAD_REACTORS
330
FB
102
}
330
FB
100
DictionaryVariables
280
     0
  1
STANDARD
  0
DICTIONARYVAR
  5
FC
102
{ACAD_REACTORS
330
FB
102
}
330
FB
100
DictionaryVariables
280
     0
  1
STANDARD
  0
DICTIONARYVAR
  5
122
102
{ACAD_REACTORS
330
FB
102
}
330
FB
100
DictionaryVariables
280
     0
  1
1
  0
DICTIONARYVAR
  5
121
102
{ACAD_REACTORS
330
FB
102
}
330
FB
100
DictionaryVariables
280
     0
  1
1
  0
DICTIONARYVAR
  5
120
102
{ACAD_REACTORS
330
FB
102
}
330
FB
100
DictionaryVariables
280
     0
  1
0
  0
DICTIONARYVAR
  5
101
102
{ACAD_REACTORS
330
FB
102
}
330
FB
100
DictionaryVariables
280
     0
  1
1
  0
DICTIONARYVAR
  5
102
102
{ACAD_REACTORS
330
FB
102
}
330
FB
100
DictionaryVariables
280
     0
  1
15
  0
DICTIONARYVAR
  5
100
102
{ACAD_REACTORS
330
FB
102
}
330
FB
100
DictionaryVariables
280
     0
  1
0
  0
DICTIONARYVAR
  5
FE
102
{ACAD_REACTORS
330
FB
102
}
330
FB
100
DictionaryVariables
280
     0
  1
0
  0
DICTIONARYVAR
  5
11F
102
{ACAD_REACTORS
330
FB
102
}
330
FB
100
DictionaryVariables
280
     0
  1
127
  0
DICTIONARYVAR
  5
123
102
{ACAD_REACTORS
330
FB
102
}
330
FB
100
DictionaryVariables
280
     0
  1
2
  0
DICTIONARY
  5
12E
330
1A
100
AcDbDictionary
280
     1
281
     1
  3
ACAD_XREC_ROUNDTRIP
360
12F
  0
DICTIONARY
  5
12C
330
15
100
AcDbDictionary
280
     1
281
     1
  3
ACAD_XREC_ROUNDTRIP
360
12D
  0
DICTIONARY
  5
3D
330
3C
100
AcDbDictionary
280
     1
281
     1
  3
ACAD_XREC_ROUNDTRIP
360
133
  3
BUMPTILE
360
3E
  3
DIFFUSETILE
360
3F
  3
OPACITYTILE
360
40
  3
REFLECTIONTILE
360
41
  3
REFRACTIONTILE
360
42
  3
SPECULARTILE
360
43
  0
DICTIONARY
  5
35
330
34
100
AcDbDictionary
280
     1
281
     1
  3
ACAD_XREC_ROUNDTRIP
360
132
  3
BUMPTILE
360
36
  3
DIFFUSETILE
360
37
  3
OPACITYTILE
360
38
  3
REFLECTIONTILE
360
39
  3
REFRACTIONTILE
360
3A
  3
SPECULARTILE
360
3B
  0
DICTIONARY
  5
C
330
A
100
AcDbDictionary
280
     1
281
     1
  3
ACAD_XREC_ROUNDTRIP
360
12B
  3
BUMPTILE
360
D
  3
DIFFUSETILE
360
E
  3
OPACITYTILE
360
F
  3
REFLECTIONTILE
360
10
  3
REFRACTIONTILE
360
11
  3
SPECULARTILE
360
12
  0
DICTIONARY
  5
4A
330
49
100
AcDbDictionary
280
     1
281
     1
  3
ACAD_ROUNDTRIP_2008_TABLESTYLE_CELLSTYLEMAP
360
124
  3
ACAD_XREC_ROUNDTRIP
360
134
  0
DICTIONARY
  5
130
330
2A
100
AcDbDictionary
280
     1
281
     1
  3
ACAD_XREC_ROUNDTRIP
360
131
  0
DICTIONARY
  5
141
330
108
100
AcDbDictionary
280
     1
281
     1
  3
ACAD_XREC_ROUNDTRIP
360
142
  0
DICTIONARY
  5
149
330
10C
100
AcDbDictionary
280
     1
281
     1
  3
ACAD_XREC_ROUNDTRIP
360
14A
  0
DICTIONARY
  5
151
330
110
100
AcDbDictionary
280
     1
281
     1
  3
ACAD_XREC_ROUNDTRIP
360
152
  0
DICTIONARY
  5
145
330
10A
100
AcDbDictionary
280
     1
281
     1
  3
ACAD_XREC_ROUNDTRIP
360
146
  0
DICTIONARY
  5
147
330
10B
100
AcDbDictionary
280
     1
281
     1
  3
ACAD_XREC_ROUNDTRIP
360
148
  0
DICTIONARY
  5
161
330
118
100
AcDbDictionary
280
     1
281
     1
  3
ACAD_XREC_ROUNDTRIP
360
162
  0
DICTIONARY
  5
14F
330
10F
100
AcDbDictionary
280
     1
281
     1
  3
ACAD_XREC_ROUNDTRIP
360
150
  0
DICTIONARY
  5
139
330
104
100
AcDbDictionary
280
     1
281
     1
  3
ACAD_XREC_ROUNDTRIP
360
13A
  0
DICTIONARY
  5
13B
330
105
100
AcDbDictionary
280
     1
281
     1
  3
ACAD_XREC_ROUNDTRIP
360
13C
  0
DICTIONARY
  5
13D
330
106
100
AcDbDictionary
280
     1
281
     1
  3
ACAD_XREC_ROUNDTRIP
360
13E
  0
DICTIONARY
  5
13F
330
107
100
AcDbDictionary
280
     1
281
     1
  3
ACAD_XREC_ROUNDTRIP
360
140
  0
DICTIONARY
  5
143
330
109
100
AcDbDictionary
280
     1
281
     1
  3
ACAD_XREC_ROUNDTRIP
360
144
  0
DICTIONARY
  5
15D
330
116
100
AcDbDictionary
280
     1
281
     1
  3
ACAD_XREC_ROUNDTRIP
360
15E
  0
DICTIONARY
  5
14D
330
10E
100
AcDbDictionary
280
     1
281
     1
  3
ACAD_XREC_ROUNDTRIP
360
14E
  0
DICTIONARY
  5
15F
330
117
100
AcDbDictionary
280
     1
281
     1
  3
ACAD_XREC_ROUNDTRIP
360
160
  0
DICTIONARY
  5
135
330
4B
100
AcDbDictionary
280
     1
281
     1
  3
ACAD_XREC_ROUNDTRIP
360
136
  0
DICTIONARY
  5
15B
330
115
100
AcDbDictionary
280
     1
281
     1
  3
ACAD_XREC_ROUNDTRIP
360
15C
  0
DICTIONARY
  5
159
330
114
100
AcDbDictionary
280
     1
281
     1
  3
ACAD_XREC_ROUNDTRIP
360
15A
  0
DICTIONARY
  5
153
330
111
100
AcDbDictionary
280
     1
281
     1
  3
ACAD_XREC_ROUNDTRIP
360
154
  0
DICTIONARY
  5
155
330
112
100
AcDbDictionary
280
     1
281
     1
  3
ACAD_XREC_ROUNDTRIP
360
156
  0
DICTIONARY
  5
14B
330
10D
100
AcDbDictionary
280
     1
281
     1
  3
ACAD_XREC_ROUNDTRIP
360
14C
  0
DICTIONARY
  5
137
330
4C
100
AcDbDictionary
280
     1
281
     1
  3
ACAD_XREC_ROUNDTRIP
360
138
  0
DICTIONARY
  5
157
330
113
100
AcDbDictionary
280
     1
281
     1
  3
ACAD_XREC_ROUNDTRIP
360
158
  0
XRECORD
  5
12F
102
{ACAD_REACTORS
330
12E
102
}
330
12E
100
AcDbXrecord
280
     1
102
SHADEPLOT
 70
     0
102
SHADEPLOTRESLEVEL
 70
     2
102
SHADEPLOTCUSTOMDPI
 70
   300
  0
XRECORD
  5
12D
102
{ACAD_REACTORS
330
12C
102
}
330
12C
100
AcDbXrecord
280
     1
102
SHADEPLOT
 70
     0
102
SHADEPLOTRESLEVEL
 70
     2
102
SHADEPLOTCUSTOMDPI
 70
   300
  0
XRECORD
  5
133
102
{ACAD_REACTORS
330
3D
102
}
330
3D
100
AcDbXrecord
280
     1
102
MATERIAL
148
0.0
149
0.0
149
0.0
 93
        0
 94
      127
282
     0
 72
     0
 77
     0
171
     0
175
     0
179
     0
273
     0
  0
XRECORD
  5
3E
102
{ACAD_REACTORS
330
3D
102
}
330
3D
100
AcDbXrecord
280
     1
270
     1
271
     1
  0
XRECORD
  5
3F
102
{ACAD_REACTORS
330
3D
102
}
330
3D
100
AcDbXrecord
280
     1
270
     1
271
     1
  0
XRECORD
  5
40
102
{ACAD_REACTORS
330
3D
102
}
330
3D
100
AcDbXrecord
280
     1
270
     1
271
     1
  0
XRECORD
  5
41
102
{ACAD_REACTORS
330
3D
102
}
330
3D
100
AcDbXrecord
280
     1
270
     1
271
     1
  0
XRECORD
  5
42
102
{ACAD_REACTORS
330
3D
102
}
330
3D
100
AcDbXrecord
280
     1
270
     1
271
     1
  0
XRECORD
  5
43
102
{ACAD_REACTORS
330
3D
102
}
330
3D
100
AcDbXrecord
280
     1
270
     1
271
     1
  0
XRECORD
  5
132
102
{ACAD_REACTORS
330
35
102
}
330
35
100
AcDbXrecord
280
     1
102
MATERIAL
148
0.0
149
0.0
149
0.0
 93
        0
 94
      127
282
     0
 72
     0
 77
     0
171
     0
175
     0
179
     0
273
     0
  0
XRECORD
  5
36
102
{ACAD_REACTORS
330
35
102
}
330
35
100
AcDbXrecord
280
     1
270
     1
271
     1
  0
XRECORD
  5
37
102
{ACAD_REACTORS
330
35
102
}
330
35
100
AcDbXrecord
280
     1
270
     1
271
     1
  0
XRECORD
  5
38
102
{ACAD_REACTORS
330
35
102
}
330
35
100
AcDbXrecord
280
     1
270
     1
271
     1
  0
XRECORD
  5
39
102
{ACAD_REACTORS
330
35
102
}
330
35
100
AcDbXrecord
280
     1
270
     1
271
     1
  0
XRECORD
  5
3A
102
{ACAD_REACTORS
330
35
102
}
330
35
100
AcDbXrecord
280
     1
270
     1
271
     1
  0
XRECORD
  5
3B
102
{ACAD_REACTORS
330
35
102
}
330
35
100
AcDbXrecord
280
     1
270
     1
271
     1
  0
XRECORD
  5
12B
102
{ACAD_REACTORS
330
C
102
}
330
C
100
AcDbXrecord
280
     1
102
MATERIAL
148
0.0
149
0.0
149
0.0
 93
        0
 94
      127
282
     0
 72
     0
 77
     0
171
     0
175
     0
179
     0
273
     0
  0
XRECORD
  5
D
102
{ACAD_REACTORS
330
C
102
}
330
C
100
AcDbXrecord
280
     1
270
     1
271
     1
  0
XRECORD
  5
E
102
{ACAD_REACTORS
330
C
102
}
330
C
100
AcDbXrecord
280
     1
270
     1
271
     1
  0
XRECORD
  5
F
102
{ACAD_REACTORS
330
C
102
}
330
C
100
AcDbXrecord
280
     1
270
     1
271
     1
  0
XRECORD
  5
10
102
{ACAD_REACTORS
330
C
102
}
330
C
100
AcDbXrecord
280
     1
270
     1
271
     1
  0
XRECORD
  5
11
102
{ACAD_REACTORS
330
C
102
}
330
C
100
AcDbXrecord
280
     1
270
     1
271
     1
  0
XRECORD
  5
12
102
{ACAD_REACTORS
330
C
102
}
330
C
100
AcDbXrecord
280
     1
270
     1
271
     1
  0
CELLSTYLEMAP
  5
124
102
{ACAD_REACTORS
330
4A
102
}
330
4A
100
AcDbCellStyleMap
 90
        3
300
CELLSTYLE
  1
TABLEFORMAT_BEGIN
 90
        5
170
     1
 91
        0
 92
    32768
 62
   257
 93
        1
300
CONTENTFORMAT
  1
CONTENTFORMAT_BEGIN
 90
        0
 91
        0
 92
      512
 93
        0
300

 40
0.0
140
1.0
 94
        5
 62
     0
340
21
144
0.25
309
CONTENTFORMAT_END
171
     0
 94
        0
309
TABLEFORMAT_END
  1
CELLSTYLE_BEGIN
 90
        1
 91
        1
300
_TITLE
309
CELLSTYLE_END
300
CELLSTYLE
  1
TABLEFORMAT_BEGIN
 90
        5
170
     1
 91
        0
 92
        0
 62
   257
 93
        1
300
CONTENTFORMAT
  1
CONTENTFORMAT_BEGIN
 90
        0
 91
        0
 92
      512
 93
        0
300

 40
0.0
140
1.0
 94
        5
 62
     0
340
21
144
0.18
309
CONTENTFORMAT_END
171
     0
 94
        0
309
TABLEFORMAT_END
  1
CELLSTYLE_BEGIN
 90
        2
 91
        1
300
_HEADER
309
CELLSTYLE_END
300
CELLSTYLE
  1
TABLEFORMAT_BEGIN
 90
        5
170
     1
 91
        0
 92
        0
 62
   257
 93
        1
300
CONTENTFORMAT
  1
CONTENTFORMAT_BEGIN
 90
        0
 91
        0
 92
      512
 93
        0
300

 40
0.0
140
1.0
 94
        2
 62
     0
340
21
144
0.18
309
CONTENTFORMAT_END
171
     0
 94
        0
309
TABLEFORMAT_END
  1
CELLSTYLE_BEGIN
 90
        3
 91
        2
300
_DATA
309
CELLSTYLE_END
  0
XRECORD
  5
134
102
{ACAD_REACTORS
330
4A
102
}
330
4A
100
AcDbXrecord
280
     1
102
ACAD_ROUNDTRIP_PRE2007_TABLESTYLE
 90
      512
 91
        0
  1

 92
      512
 93
        0
  2

 94
      512
 95
        0
  3

  0
XRECORD
  5
131
102
{ACAD_REACTORS
330
130
102
}
330
130
100
AcDbXrecord
280
     1
102
RTVSPropertyOp0
 70
     1
102
RTVSPropertyOp1
 70
     1
102
RTVSPropertyOp2
 70
     1
102
RTVSPropertyOp3
 70
     1
102
RTVSPropertyOp4
 70
     1
102
RTVSPropertyOp5
 70
     1
102
RTVSPropertyOp6
 70
     1
102
RTVSPropertyOp7
 70
     1
102
RTVSPropertyOp8
 70
     1
102
RTVSPropertyOp9
 70
     1
102
RTVSPropertyOp10
 70
     1
102
RTVSPropertyOp11
 70
     1
102
RTVSPropertyOp12
 70
     1
102
RTVSPropertyOp13
 70
     1
102
RTVSPropertyOp14
 70
     1
102
RTVSPropertyOp15
 70
     1
102
RTVSPropertyOp16
 70
     1
102
RTVSPropertyOp17
 70
     1
102
RTVSPropertyOp18
 70
     1
102
RTVSPropertyOp19
 70
     1
102
RTVSPropertyOp20
 70
     1
102
RTVSPropertyOp21
 70
     1
102
RTVSPropertyOp22
 70
     1
102
RTVSPropertyOp23
 70
     1
102
RTVSPropertyOp24
 70
     1
102
RTVSPropertyOp25
 70
     1
102
RTVSPropertyOp26
 70
     1
102
RTVSPropertyOp27
 70
     1
102
RTVSPropertyOp28
 70
     1
102
RTVSPropertyOp29
 70
     1
102
RTVSPropertyOp30
 70
     1
102
RTVSPropertyOp31
 70
     1
102
RTVSPropertyOp32
 70
     1
  0
XRECORD
  5
142
102
{ACAD_REACTORS
330
141
102
}
330
141
100
AcDbXrecord
280
     1
102
RTVSPropertyOp0
 70
     1
102
RTVSPropertyOp1
 70
     1
102
RTVSPropertyOp2
 70
     1
102
RTVSPropertyOp3
 70
     1
102
RTVSPropertyOp4
 70
     1
102
RTVSPropertyOp5
 70
     1
102
RTVSPropertyOp6
 70
     1
102
RTVSPropertyOp7
 70
     1
102
RTVSPropertyOp8
 70
     1
102
RTVSPropertyOp9
 70
     1
102
RTVSPropertyOp10
 70
     1
102
RTVSPropertyOp11
 70
     1
102
RTVSPropertyOp12
 70
     1
102
RTVSPropertyOp13
 70
     1
102
RTVSPropertyOp14
 70
     1
102
RTVSPropertyOp15
 70
     1
102
RTVSPropertyOp16
 70
     1
102
RTVSPropertyOp17
 70
     1
102
RTVSPropertyOp18
 70
     1
102
RTVSPropertyOp19
 70
     1
102
RTVSPropertyOp20
 70
     1
102
RTVSPropertyOp21
 70
     1
102
RTVSPropertyOp22
 70
     1
102
RTVSPropertyOp23
 70
     1
102
RTVSPropertyOp24
 70
     1
102
RTVSPropertyOp25
 70
     1
102
RTVSPropertyOp26
 70
     1
102
RTVSPropertyOp27
 70
     1
102
RTVSPropertyOp28
 70
     1
102
RTVSPropertyOp29
 70
     1
102
RTVSPropertyOp30
 70
     1
102
RTVSPropertyOp31
 70
     1
102
RTVSPropertyOp32
 70
     1
  0
XRECORD
  5
14A
102
{ACAD_REACTORS
330
149
102
}
330
149
100
AcDbXrecord
280
     1
102
RTVSPropertyOp0
 70
     1
102
RTVSPropertyOp1
 70
     1
102
RTVSPropertyOp2
 70
     1
102
RTVSPropertyOp3
 70
     1
102
RTVSPropertyOp4
 70
     1
102
RTVSPropertyOp5
 70
     1
102
RTVSPropertyOp6
 70
     1
102
RTVSPropertyOp7
 70
     1
102
RTVSPropertyOp8
 70
     1
102
RTVSPropertyOp9
 70
     1
102
RTVSPropertyOp10
 70
     1
102
RTVSPropertyOp11
 70
     1
102
RTVSPropertyOp12
 70
     1
102
RTVSPropertyOp13
 70
     1
102
RTVSPropertyOp14
 70
     1
102
RTVSPropertyOp15
 70
     1
102
RTVSPropertyOp16
 70
     1
102
RTVSPropertyOp17
 70
     1
102
RTVSPropertyOp18
 70
     1
102
RTVSPropertyOp19
 70
     1
102
RTVSPropertyOp20
 70
     1
102
RTVSPropertyOp21
 70
     1
102
RTVSPropertyOp22
 70
     1
102
RTVSPropertyOp23
 70
     1
102
RTVSPropertyOp24
 70
     1
102
RTVSPropertyOp25
 70
     1
102
RTVSPropertyOp26
 70
     1
102
RTVSPropertyOp27
 70
     1
102
RTVSPropertyOp28
 70
     1
102
RTVSPropertyOp29
 70
     1
102
RTVSPropertyOp30
 70
     1
102
RTVSPropertyOp31
 70
     1
102
RTVSPropertyOp32
 70
     1
  0
XRECORD
  5
152
102
{ACAD_REACTORS
330
151
102
}
330
151
100
AcDbXrecord
280
     1
102
RTVSPropertyOp0
 70
     1
102
RTVSPropertyOp1
 70
     1
102
RTVSPropertyOp2
 70
     1
102
RTVSPropertyOp3
 70
     1
102
RTVSPropertyOp4
 70
     1
102
RTVSPropertyOp5
 70
     1
102
RTVSPropertyOp6
 70
     1
102
RTVSPropertyOp7
 70
     1
102
RTVSPropertyOp8
 70
     1
102
RTVSPropertyOp9
 70
     1
102
RTVSPropertyOp10
 70
     1
102
RTVSPropertyOp11
 70
     1
102
RTVSPropertyOp12
 70
     1
102
RTVSPropertyOp13
 70
     1
102
RTVSPropertyOp14
 70
     1
102
RTVSPropertyOp15
 70
     1
102
RTVSPropertyOp16
 70
     1
102
RTVSPropertyOp17
 70
     1
102
RTVSPropertyOp18
 70
     1
102
RTVSPropertyOp19
 70
     1
102
RTVSPropertyOp20
 70
     1
102
RTVSPropertyOp21
 70
     1
102
RTVSPropertyOp22
 70
     1
102
RTVSPropertyOp23
 70
     1
102
RTVSPropertyOp24
 70
     1
102
RTVSPropertyOp25
 70
     1
102
RTVSPropertyOp26
 70
     1
102
RTVSPropertyOp27
 70
     1
102
RTVSPropertyOp28
 70
     1
102
RTVSPropertyOp29
 70
     1
102
RTVSPropertyOp30
 70
     1
102
RTVSPropertyOp31
 70
     1
102
RTVSPropertyOp32
 70
     1
  0
XRECORD
  5
146
102
{ACAD_REACTORS
330
145
102
}
330
145
100
AcDbXrecord
280
     1
102
RTVSPropertyOp0
 70
     1
102
RTVSPropertyOp1
 70
     1
102
RTVSPropertyOp2
 70
     1
102
RTVSPropertyOp3
 70
     1
102
RTVSPropertyOp4
 70
     1
102
RTVSPropertyOp5
 70
     1
102
RTVSPropertyOp6
 70
     1
102
RTVSPropertyOp7
 70
     1
102
RTVSPropertyOp8
 70
     1
102
RTVSPropertyOp9
 70
     1
102
RTVSPropertyOp10
 70
     1
102
RTVSPropertyOp11
 70
     1
102
RTVSPropertyOp12
 70
     1
102
RTVSPropertyOp13
 70
     1
102
RTVSPropertyOp14
 70
     1
102
RTVSPropertyOp15
 70
     1
102
RTVSPropertyOp16
 70
     1
102
RTVSPropertyOp17
 70
     1
102
RTVSPropertyOp18
 70
     1
102
RTVSPropertyOp19
 70
     1
102
RTVSPropertyOp20
 70
     1
102
RTVSPropertyOp21
 70
     1
102
RTVSPropertyOp22
 70
     1
102
RTVSPropertyOp23
 70
     1
102
RTVSPropertyOp24
 70
     1
102
RTVSPropertyOp25
 70
     1
102
RTVSPropertyOp26
 70
     1
102
RTVSPropertyOp27
 70
     1
102
RTVSPropertyOp28
 70
     1
102
RTVSPropertyOp29
 70
     1
102
RTVSPropertyOp30
 70
     1
102
RTVSPropertyOp31
 70
     1
102
RTVSPropertyOp32
 70
     1
  0
XRECORD
  5
148
102
{ACAD_REACTORS
330
147
102
}
330
147
100
AcDbXrecord
280
     1
102
RTVSPropertyOp0
 70
     1
102
RTVSPropertyOp1
 70
     1
102
RTVSPropertyOp2
 70
     1
102
RTVSPropertyOp3
 70
     1
102
RTVSPropertyOp4
 70
     1
102
RTVSPropertyOp5
 70
     1
102
RTVSPropertyOp6
 70
     1
102
RTVSPropertyOp7
 70
     1
102
RTVSPropertyOp8
 70
     1
102
RTVSPropertyOp9
 70
     1
102
RTVSPropertyOp10
 70
     1
102
RTVSPropertyOp11
 70
     1
102
RTVSPropertyOp12
 70
     1
102
RTVSPropertyOp13
 70
     1
102
RTVSPropertyOp14
 70
     1
102
RTVSPropertyOp15
 70
     1
102
RTVSPropertyOp16
 70
     1
102
RTVSPropertyOp17
 70
     1
102
RTVSPropertyOp18
 70
     1
102
RTVSPropertyOp19
 70
     1
102
RTVSPropertyOp20
 70
     1
102
RTVSPropertyOp21
 70
     1
102
RTVSPropertyOp22
 70
     1
102
RTVSPropertyOp23
 70
     1
102
RTVSPropertyOp24
 70
     1
102
RTVSPropertyOp25
 70
     1
102
RTVSPropertyOp26
 70
     1
102
RTVSPropertyOp27
 70
     1
102
RTVSPropertyOp28
 70
     1
102
RTVSPropertyOp29
 70
     1
102
RTVSPropertyOp30
 70
     1
102
RTVSPropertyOp31
 70
     1
102
RTVSPropertyOp32
 70
     1
  0
XRECORD
  5
162
102
{ACAD_REACTORS
330
161
102
}
330
161
100
AcDbXrecord
280
     1
102
RTVSPropertyOp0
 70
     0
102
RTVSPropertyOp1
 70
     0
102
RTVSPropertyOp2
 70
     0
102
RTVSPropertyOp3
 70
     0
102
RTVSPropertyOp4
 70
     0
102
RTVSPropertyOp5
 70
     0
102
RTVSPropertyOp6
 70
     0
102
RTVSPropertyOp7
 70
     0
102
RTVSPropertyOp8
 70
     0
102
RTVSPropertyOp9
 70
     0
102
RTVSPropertyOp10
 70
     0
102
RTVSPropertyOp11
 70
     0
102
RTVSPropertyOp12
 70
     0
102
RTVSPropertyOp13
 70
     0
102
RTVSPropertyOp14
 70
     2
102
RTVSPropertyOp15
 70
     0
102
RTVSPropertyOp16
 70
     0
102
RTVSPropertyOp17
 70
     0
102
RTVSPropertyOp18
 70
     0
102
RTVSPropertyOp19
 70
     0
102
RTVSPropertyOp20
 70
     0
102
RTVSPropertyOp21
 70
     0
102
RTVSPropertyOp22
 70
     0
102
RTVSPropertyOp23
 70
     0
102
RTVSPropertyOp24
 70
     0
102
RTVSPropertyOp25
 70
     0
102
RTVSPropertyOp26
 70
     0
102
RTVSPropertyOp27
 70
     0
102
RTVSPropertyOp28
 70
     0
102
RTVSPropertyOp29
 70
     0
102
RTVSPropertyOp30
 70
     0
102
RTVSPropertyOp31
 70
     0
102
RTVSPropertyOp32
 70
     0
  0
XRECORD
  5
150
102
{ACAD_REACTORS
330
14F
102
}
330
14F
100
AcDbXrecord
280
     1
102
RTVSPropertyOp0
 70
     1
102
RTVSPropertyOp1
 70
     1
102
RTVSPropertyOp2
 70
     1
102
RTVSPropertyOp3
 70
     1
102
RTVSPropertyOp4
 70
     1
102
RTVSPropertyOp5
 70
     1
102
RTVSPropertyOp6
 70
     1
102
RTVSPropertyOp7
 70
     1
102
RTVSPropertyOp8
 70
     1
102
RTVSPropertyOp9
 70
     1
102
RTVSPropertyOp10
 70
     1
102
RTVSPropertyOp11
 70
     1
102
RTVSPropertyOp12
 70
     1
102
RTVSPropertyOp13
 70
     1
102
RTVSPropertyOp14
 70
     1
102
RTVSPropertyOp15
 70
     1
102
RTVSPropertyOp16
 70
     1
102
RTVSPropertyOp17
 70
     1
102
RTVSPropertyOp18
 70
     1
102
RTVSPropertyOp19
 70
     1
102
RTVSPropertyOp20
 70
     1
102
RTVSPropertyOp21
 70
     1
102
RTVSPropertyOp22
 70
     1
102
RTVSPropertyOp23
 70
     1
102
RTVSPropertyOp24
 70
     1
102
RTVSPropertyOp25
 70
     1
102
RTVSPropertyOp26
 70
     1
102
RTVSPropertyOp27
 70
     1
102
RTVSPropertyOp28
 70
     1
102
RTVSPropertyOp29
 70
     1
102
RTVSPropertyOp30
 70
     1
102
RTVSPropertyOp31
 70
     1
102
RTVSPropertyOp32
 70
     1
  0
XRECORD
  5
13A
102
{ACAD_REACTORS
330
139
102
}
330
139
100
AcDbXrecord
280
     1
102
RTVSPropertyOp0
 70
     1
102
RTVSPropertyOp1
 70
     1
102
RTVSPropertyOp2
 70
     1
102
RTVSPropertyOp3
 70
     1
102
RTVSPropertyOp4
 70
     1
102
RTVSPropertyOp5
 70
     1
102
RTVSPropertyOp6
 70
     1
102
RTVSPropertyOp7
 70
     1
102
RTVSPropertyOp8
 70
     1
102
RTVSPropertyOp9
 70
     1
102
RTVSPropertyOp10
 70
     1
102
RTVSPropertyOp11
 70
     1
102
RTVSPropertyOp12
 70
     1
102
RTVSPropertyOp13
 70
     1
102
RTVSPropertyOp14
 70
     1
102
RTVSPropertyOp15
 70
     1
102
RTVSPropertyOp16
 70
     1
102
RTVSPropertyOp17
 70
     1
102
RTVSPropertyOp18
 70
     1
102
RTVSPropertyOp19
 70
     1
102
RTVSPropertyOp20
 70
     1
102
RTVSPropertyOp21
 70
     1
102
RTVSPropertyOp22
 70
     1
102
RTVSPropertyOp23
 70
     1
102
RTVSPropertyOp24
 70
     1
102
RTVSPropertyOp25
 70
     1
102
RTVSPropertyOp26
 70
     1
102
RTVSPropertyOp27
 70
     1
102
RTVSPropertyOp28
 70
     1
102
RTVSPropertyOp29
 70
     1
102
RTVSPropertyOp30
 70
     1
102
RTVSPropertyOp31
 70
     1
102
RTVSPropertyOp32
 70
     1
  0
XRECORD
  5
13C
102
{ACAD_REACTORS
330
13B
102
}
330
13B
100
AcDbXrecord
280
     1
102
RTVSPropertyOp0
 70
     1
102
RTVSPropertyOp1
 70
     1
102
RTVSPropertyOp2
 70
     1
102
RTVSPropertyOp3
 70
     1
102
RTVSPropertyOp4
 70
     1
102
RTVSPropertyOp5
 70
     1
102
RTVSPropertyOp6
 70
     1
102
RTVSPropertyOp7
 70
     1
102
RTVSPropertyOp8
 70
     1
102
RTVSPropertyOp9
 70
     1
102
RTVSPropertyOp10
 70
     1
102
RTVSPropertyOp11
 70
     1
102
RTVSPropertyOp12
 70
     1
102
RTVSPropertyOp13
 70
     1
102
RTVSPropertyOp14
 70
     1
102
RTVSPropertyOp15
 70
     1
102
RTVSPropertyOp16
 70
     1
102
RTVSPropertyOp17
 70
     1
102
RTVSPropertyOp18
 70
     1
102
RTVSPropertyOp19
 70
     1
102
RTVSPropertyOp20
 70
     1
102
RTVSPropertyOp21
 70
     1
102
RTVSPropertyOp22
 70
     1
102
RTVSPropertyOp23
 70
     1
102
RTVSPropertyOp24
 70
     1
102
RTVSPropertyOp25
 70
     1
102
RTVSPropertyOp26
 70
     1
102
RTVSPropertyOp27
 70
     1
102
RTVSPropertyOp28
 70
     1
102
RTVSPropertyOp29
 70
     1
102
RTVSPropertyOp30
 70
     1
102
RTVSPropertyOp31
 70
     1
102
RTVSPropertyOp32
 70
     1
  0
XRECORD
  5
13E
102
{ACAD_REACTORS
330
13D
102
}
330
13D
100
AcDbXrecord
280
     1
102
RTVSPropertyOp0
 70
     1
102
RTVSPropertyOp1
 70
     1
102
RTVSPropertyOp2
 70
     1
102
RTVSPropertyOp3
 70
     1
102
RTVSPropertyOp4
 70
     1
102
RTVSPropertyOp5
 70
     1
102
RTVSPropertyOp6
 70
     1
102
RTVSPropertyOp7
 70
     1
102
RTVSPropertyOp8
 70
     1
102
RTVSPropertyOp9
 70
     1
102
RTVSPropertyOp10
 70
     1
102
RTVSPropertyOp11
 70
     1
102
RTVSPropertyOp12
 70
     1
102
RTVSPropertyOp13
 70
     1
102
RTVSPropertyOp14
 70
     1
102
RTVSPropertyOp15
 70
     1
102
RTVSPropertyOp16
 70
     1
102
RTVSPropertyOp17
 70
     1
102
RTVSPropertyOp18
 70
     1
102
RTVSPropertyOp19
 70
     1
102
RTVSPropertyOp20
 70
     1
102
RTVSPropertyOp21
 70
     1
102
RTVSPropertyOp22
 70
     1
102
RTVSPropertyOp23
 70
     1
102
RTVSPropertyOp24
 70
     1
102
RTVSPropertyOp25
 70
     1
102
RTVSPropertyOp26
 70
     1
102
RTVSPropertyOp27
 70
     1
102
RTVSPropertyOp28
 70
     1
102
RTVSPropertyOp29
 70
     1
102
RTVSPropertyOp30
 70
     1
102
RTVSPropertyOp31
 70
     1
102
RTVSPropertyOp32
 70
     1
  0
XRECORD
  5
140
102
{ACAD_REACTORS
330
13F
102
}
330
13F
100
AcDbXrecord
280
     1
102
RTVSPropertyOp0
 70
     1
102
RTVSPropertyOp1
 70
     1
102
RTVSPropertyOp2
 70
     1
102
RTVSPropertyOp3
 70
     1
102
RTVSPropertyOp4
 70
     1
102
RTVSPropertyOp5
 70
     1
102
RTVSPropertyOp6
 70
     1
102
RTVSPropertyOp7
 70
     1
102
RTVSPropertyOp8
 70
     1
102
RTVSPropertyOp9
 70
     1
102
RTVSPropertyOp10
 70
     1
102
RTVSPropertyOp11
 70
     1
102
RTVSPropertyOp12
 70
     1
102
RTVSPropertyOp13
 70
     1
102
RTVSPropertyOp14
 70
     1
102
RTVSPropertyOp15
 70
     1
102
RTVSPropertyOp16
 70
     1
102
RTVSPropertyOp17
 70
     1
102
RTVSPropertyOp18
 70
     1
102
RTVSPropertyOp19
 70
     1
102
RTVSPropertyOp20
 70
     1
102
RTVSPropertyOp21
 70
     1
102
RTVSPropertyOp22
 70
     1
102
RTVSPropertyOp23
 70
     1
102
RTVSPropertyOp24
 70
     1
102
RTVSPropertyOp25
 70
     1
102
RTVSPropertyOp26
 70
     1
102
RTVSPropertyOp27
 70
     1
102
RTVSPropertyOp28
 70
     1
102
RTVSPropertyOp29
 70
     1
102
RTVSPropertyOp30
 70
     1
102
RTVSPropertyOp31
 70
     1
102
RTVSPropertyOp32
 70
     1
  0
XRECORD
  5
144
102
{ACAD_REACTORS
330
143
102
}
330
143
100
AcDbXrecord
280
     1
102
RTVSPropertyOp0
 70
     1
102
RTVSPropertyOp1
 70
     1
102
RTVSPropertyOp2
 70
     1
102
RTVSPropertyOp3
 70
     1
102
RTVSPropertyOp4
 70
     1
102
RTVSPropertyOp5
 70
     1
102
RTVSPropertyOp6
 70
     1
102
RTVSPropertyOp7
 70
     1
102
RTVSPropertyOp8
 70
     1
102
RTVSPropertyOp9
 70
     1
102
RTVSPropertyOp10
 70
     1
102
RTVSPropertyOp11
 70
     1
102
RTVSPropertyOp12
 70
     1
102
RTVSPropertyOp13
 70
     1
102
RTVSPropertyOp14
 70
     1
102
RTVSPropertyOp15
 70
     1
102
RTVSPropertyOp16
 70
     1
102
RTVSPropertyOp17
 70
     1
102
RTVSPropertyOp18
 70
     1
102
RTVSPropertyOp19
 70
     1
102
RTVSPropertyOp20
 70
     1
102
RTVSPropertyOp21
 70
     1
102
RTVSPropertyOp22
 70
     1
102
RTVSPropertyOp23
 70
     1
102
RTVSPropertyOp24
 70
     1
102
RTVSPropertyOp25
 70
     1
102
RTVSPropertyOp26
 70
     1
102
RTVSPropertyOp27
 70
     1
102
RTVSPropertyOp28
 70
     1
102
RTVSPropertyOp29
 70
     1
102
RTVSPropertyOp30
 70
     1
102
RTVSPropertyOp31
 70
     1
102
RTVSPropertyOp32
 70
     1
  0
XRECORD
  5
15E
102
{ACAD_REACTORS
330
15D
102
}
330
15D
100
AcDbXrecord
280
     1
102
RTVSPropertyOp0
 70
     0
102
RTVSPropertyOp1
 70
     0
102
RTVSPropertyOp2
 70
     0
102
RTVSPropertyOp3
 70
     0
102
RTVSPropertyOp4
 70
     0
102
RTVSPropertyOp5
 70
     0
102
RTVSPropertyOp6
 70
     0
102
RTVSPropertyOp7
 70
     0
102
RTVSPropertyOp8
 70
     0
102
RTVSPropertyOp9
 70
     0
102
RTVSPropertyOp10
 70
     0
102
RTVSPropertyOp11
 70
     0
102
RTVSPropertyOp12
 70
     0
102
RTVSPropertyOp13
 70
     0
102
RTVSPropertyOp14
 70
     2
102
RTVSPropertyOp15
 70
     0
102
RTVSPropertyOp16
 70
     0
102
RTVSPropertyOp17
 70
     0
102
RTVSPropertyOp18
 70
     0
102
RTVSPropertyOp19
 70
     0
102
RTVSPropertyOp20
 70
     0
102
RTVSPropertyOp21
 70
     0
102
RTVSPropertyOp22
 70
     0
102
RTVSPropertyOp23
 70
     0
102
RTVSPropertyOp24
 70
     0
102
RTVSPropertyOp25
 70
     0
102
RTVSPropertyOp26
 70
     0
102
RTVSPropertyOp27
 70
     0
102
RTVSPropertyOp28
 70
     0
102
RTVSPropertyOp29
 70
     0
102
RTVSPropertyOp30
 70
     0
102
RTVSPropertyOp31
 70
     0
102
RTVSPropertyOp32
 70
     0
  0
XRECORD
  5
14E
102
{ACAD_REACTORS
330
14D
102
}
330
14D
100
AcDbXrecord
280
     1
102
RTVSPropertyOp0
 70
     1
102
RTVSPropertyOp1
 70
     1
102
RTVSPropertyOp2
 70
     1
102
RTVSPropertyOp3
 70
     1
102
RTVSPropertyOp4
 70
     1
102
RTVSPropertyOp5
 70
     1
102
RTVSPropertyOp6
 70
     1
102
RTVSPropertyOp7
 70
     1
102
RTVSPropertyOp8
 70
     1
102
RTVSPropertyOp9
 70
     1
102
RTVSPropertyOp10
 70
     1
102
RTVSPropertyOp11
 70
     1
102
RTVSPropertyOp12
 70
     1
102
RTVSPropertyOp13
 70
     1
102
RTVSPropertyOp14
 70
     1
102
RTVSPropertyOp15
 70
     1
102
RTVSPropertyOp16
 70
     1
102
RTVSPropertyOp17
 70
     1
102
RTVSPropertyOp18
 70
     1
102
RTVSPropertyOp19
 70
     1
102
RTVSPropertyOp20
 70
     1
102
RTVSPropertyOp21
 70
     1
102
RTVSPropertyOp22
 70
     1
102
RTVSPropertyOp23
 70
     1
102
RTVSPropertyOp24
 70
     1
102
RTVSPropertyOp25
 70
     1
102
RTVSPropertyOp26
 70
     1
102
RTVSPropertyOp27
 70
     1
102
RTVSPropertyOp28
 70
     1
102
RTVSPropertyOp29
 70
     1
102
RTVSPropertyOp30
 70
     1
102
RTVSPropertyOp31
 70
     1
102
RTVSPropertyOp32
 70
     1
  0
XRECORD
  5
160
102
{ACAD_REACTORS
330
15F
102
}
330
15F
100
AcDbXrecord
280
     1
102
RTVSPropertyOp0
 70
     0
102
RTVSPropertyOp1
 70
     0
102
RTVSPropertyOp2
 70
     0
102
RTVSPropertyOp3
 70
     0
102
RTVSPropertyOp4
 70
     0
102
RTVSPropertyOp5
 70
     0
102
RTVSPropertyOp6
 70
     0
102
RTVSPropertyOp7
 70
     0
102
RTVSPropertyOp8
 70
     0
102
RTVSPropertyOp9
 70
     0
102
RTVSPropertyOp10
 70
     0
102
RTVSPropertyOp11
 70
     0
102
RTVSPropertyOp12
 70
     0
102
RTVSPropertyOp13
 70
     0
102
RTVSPropertyOp14
 70
     2
102
RTVSPropertyOp15
 70
     0
102
RTVSPropertyOp16
 70
     0
102
RTVSPropertyOp17
 70
     0
102
RTVSPropertyOp18
 70
     0
102
RTVSPropertyOp19
 70
     0
102
RTVSPropertyOp20
 70
     0
102
RTVSPropertyOp21
 70
     0
102
RTVSPropertyOp22
 70
     0
102
RTVSPropertyOp23
 70
     0
102
RTVSPropertyOp24
 70
     0
102
RTVSPropertyOp25
 70
     0
102
RTVSPropertyOp26
 70
     0
102
RTVSPropertyOp27
 70
     0
102
RTVSPropertyOp28
 70
     0
102
RTVSPropertyOp29
 70
     0
102
RTVSPropertyOp30
 70
     0
102
RTVSPropertyOp31
 70
     0
102
RTVSPropertyOp32
 70
     0
  0
XRECORD
  5
136
102
{ACAD_REACTORS
330
135
102
}
330
135
100
AcDbXrecord
280
     1
102
RTVSPropertyOp0
 70
     1
102
RTVSPropertyOp1
 70
     1
102
RTVSPropertyOp2
 70
     1
102
RTVSPropertyOp3
 70
     1
102
RTVSPropertyOp4
 70
     1
102
RTVSPropertyOp5
 70
     1
102
RTVSPropertyOp6
 70
     1
102
RTVSPropertyOp7
 70
     1
102
RTVSPropertyOp8
 70
     1
102
RTVSPropertyOp9
 70
     1
102
RTVSPropertyOp10
 70
     1
102
RTVSPropertyOp11
 70
     1
102
RTVSPropertyOp12
 70
     1
102
RTVSPropertyOp13
 70
     1
102
RTVSPropertyOp14
 70
     1
102
RTVSPropertyOp15
 70
     1
102
RTVSPropertyOp16
 70
     1
102
RTVSPropertyOp17
 70
     1
102
RTVSPropertyOp18
 70
     1
102
RTVSPropertyOp19
 70
     1
102
RTVSPropertyOp20
 70
     1
102
RTVSPropertyOp21
 70
     1
102
RTVSPropertyOp22
 70
     1
102
RTVSPropertyOp23
 70
     1
102
RTVSPropertyOp24
 70
     1
102
RTVSPropertyOp25
 70
     1
102
RTVSPropertyOp26
 70
     1
102
RTVSPropertyOp27
 70
     1
102
RTVSPropertyOp28
 70
     1
102
RTVSPropertyOp29
 70
     1
102
RTVSPropertyOp30
 70
     1
102
RTVSPropertyOp31
 70
     1
102
RTVSPropertyOp32
 70
     1
  0
XRECORD
  5
15C
102
{ACAD_REACTORS
330
15B
102
}
330
15B
100
AcDbXrecord
280
     1
102
RTVSPropertyOp0
 70
     1
102
RTVSPropertyOp1
 70
     1
102
RTVSPropertyOp2
 70
     1
102
RTVSPropertyOp3
 70
     1
102
RTVSPropertyOp4
 70
     1
102
RTVSPropertyOp5
 70
     1
102
RTVSPropertyOp6
 70
     1
102
RTVSPropertyOp7
 70
     1
102
RTVSPropertyOp8
 70
     1
102
RTVSPropertyOp9
 70
     1
102
RTVSPropertyOp10
 70
     1
102
RTVSPropertyOp11
 70
     1
102
RTVSPropertyOp12
 70
     1
102
RTVSPropertyOp13
 70
     1
102
RTVSPropertyOp14
 70
     1
102
RTVSPropertyOp15
 70
     1
102
RTVSPropertyOp16
 70
     1
102
RTVSPropertyOp17
 70
     1
102
RTVSPropertyOp18
 70
     1
102
RTVSPropertyOp19
 70
     1
102
RTVSPropertyOp20
 70
     1
102
RTVSPropertyOp21
 70
     1
102
RTVSPropertyOp22
 70
     1
102
RTVSPropertyOp23
 70
     1
102
RTVSPropertyOp24
 70
     1
102
RTVSPropertyOp25
 70
     1
102
RTVSPropertyOp26
 70
     1
102
RTVSPropertyOp27
 70
     1
102
RTVSPropertyOp28
 70
     1
102
RTVSPropertyOp29
 70
     1
102
RTVSPropertyOp30
 70
     1
102
RTVSPropertyOp31
 70
     1
102
RTVSPropertyOp32
 70
     1
  0
XRECORD
  5
15A
102
{ACAD_REACTORS
330
159
102
}
330
159
100
AcDbXrecord
280
     1
102
RTVSPropertyOp0
 70
     1
102
RTVSPropertyOp1
 70
     1
102
RTVSPropertyOp2
 70
     1
102
RTVSPropertyOp3
 70
     1
102
RTVSPropertyOp4
 70
     1
102
RTVSPropertyOp5
 70
     1
102
RTVSPropertyOp6
 70
     1
102
RTVSPropertyOp7
 70
     1
102
RTVSPropertyOp8
 70
     1
102
RTVSPropertyOp9
 70
     1
102
RTVSPropertyOp10
 70
     1
102
RTVSPropertyOp11
 70
     1
102
RTVSPropertyOp12
 70
     1
102
RTVSPropertyOp13
 70
     1
102
RTVSPropertyOp14
 70
     1
102
RTVSPropertyOp15
 70
     1
102
RTVSPropertyOp16
 70
     1
102
RTVSPropertyOp17
 70
     1
102
RTVSPropertyOp18
 70
     1
102
RTVSPropertyOp19
 70
     1
102
RTVSPropertyOp20
 70
     1
102
RTVSPropertyOp21
 70
     1
102
RTVSPropertyOp22
 70
     1
102
RTVSPropertyOp23
 70
     1
102
RTVSPropertyOp24
 70
     1
102
RTVSPropertyOp25
 70
     1
102
RTVSPropertyOp26
 70
     1
102
RTVSPropertyOp27
 70
     1
102
RTVSPropertyOp28
 70
     1
102
RTVSPropertyOp29
 70
     1
102
RTVSPropertyOp30
 70
     1
102
RTVSPropertyOp31
 70
     1
102
RTVSPropertyOp32
 70
     1
  0
XRECORD
  5
154
102
{ACAD_REACTORS
330
153
102
}
330
153
100
AcDbXrecord
280
     1
102
RTVSPropertyOp0
 70
     1
102
RTVSPropertyOp1
 70
     1
102
RTVSPropertyOp2
 70
     1
102
RTVSPropertyOp3
 70
     1
102
RTVSPropertyOp4
 70
     1
102
RTVSPropertyOp5
 70
     1
102
RTVSPropertyOp6
 70
     1
102
RTVSPropertyOp7
 70
     1
102
RTVSPropertyOp8
 70
     1
102
RTVSPropertyOp9
 70
     1
102
RTVSPropertyOp10
 70
     1
102
RTVSPropertyOp11
 70
     1
102
RTVSPropertyOp12
 70
     1
102
RTVSPropertyOp13
 70
     1
102
RTVSPropertyOp14
 70
     1
102
RTVSPropertyOp15
 70
     1
102
RTVSPropertyOp16
 70
     1
102
RTVSPropertyOp17
 70
     1
102
RTVSPropertyOp18
 70
     1
102
RTVSPropertyOp19
 70
     1
102
RTVSPropertyOp20
 70
     1
102
RTVSPropertyOp21
 70
     1
102
RTVSPropertyOp22
 70
     1
102
RTVSPropertyOp23
 70
     1
102
RTVSPropertyOp24
 70
     1
102
RTVSPropertyOp25
 70
     1
102
RTVSPropertyOp26
 70
     1
102
RTVSPropertyOp27
 70
     1
102
RTVSPropertyOp28
 70
     1
102
RTVSPropertyOp29
 70
     1
102
RTVSPropertyOp30
 70
     1
102
RTVSPropertyOp31
 70
     1
102
RTVSPropertyOp32
 70
     1
  0
XRECORD
  5
156
102
{ACAD_REACTORS
330
155
102
}
330
155
100
AcDbXrecord
280
     1
102
RTVSPropertyOp0
 70
     1
102
RTVSPropertyOp1
 70
     1
102
RTVSPropertyOp2
 70
     1
102
RTVSPropertyOp3
 70
     1
102
RTVSPropertyOp4
 70
     1
102
RTVSPropertyOp5
 70
     1
102
RTVSPropertyOp6
 70
     1
102
RTVSPropertyOp7
 70
     1
102
RTVSPropertyOp8
 70
     1
102
RTVSPropertyOp9
 70
     1
102
RTVSPropertyOp10
 70
     1
102
RTVSPropertyOp11
 70
     1
102
RTVSPropertyOp12
 70
     1
102
RTVSPropertyOp13
 70
     1
102
RTVSPropertyOp14
 70
     1
102
RTVSPropertyOp15
 70
     1
102
RTVSPropertyOp16
 70
     1
102
RTVSPropertyOp17
 70
     1
102
RTVSPropertyOp18
 70
     1
102
RTVSPropertyOp19
 70
     1
102
RTVSPropertyOp20
 70
     1
102
RTVSPropertyOp21
 70
     1
102
RTVSPropertyOp22
 70
     1
102
RTVSPropertyOp23
 70
     1
102
RTVSPropertyOp24
 70
     1
102
RTVSPropertyOp25
 70
     1
102
RTVSPropertyOp26
 70
     1
102
RTVSPropertyOp27
 70
     1
102
RTVSPropertyOp28
 70
     1
102
RTVSPropertyOp29
 70
     1
102
RTVSPropertyOp30
 70
     1
102
RTVSPropertyOp31
 70
     1
102
RTVSPropertyOp32
 70
     1
  0
XRECORD
  5
14C
102
{ACAD_REACTORS
330
14B
102
}
330
14B
100
AcDbXrecord
280
     1
102
RTVSPropertyOp0
 70
     1
102
RTVSPropertyOp1
 70
     1
102
RTVSPropertyOp2
 70
     1
102
RTVSPropertyOp3
 70
     1
102
RTVSPropertyOp4
 70
     1
102
RTVSPropertyOp5
 70
     1
102
RTVSPropertyOp6
 70
     1
102
RTVSPropertyOp7
 70
     1
102
RTVSPropertyOp8
 70
     1
102
RTVSPropertyOp9
 70
     1
102
RTVSPropertyOp10
 70
     1
102
RTVSPropertyOp11
 70
     1
102
RTVSPropertyOp12
 70
     1
102
RTVSPropertyOp13
 70
     1
102
RTVSPropertyOp14
 70
     1
102
RTVSPropertyOp15
 70
     1
102
RTVSPropertyOp16
 70
     1
102
RTVSPropertyOp17
 70
     1
102
RTVSPropertyOp18
 70
     1
102
RTVSPropertyOp19
 70
     1
102
RTVSPropertyOp20
 70
     1
102
RTVSPropertyOp21
 70
     1
102
RTVSPropertyOp22
 70
     1
102
RTVSPropertyOp23
 70
     1
102
RTVSPropertyOp24
 70
     1
102
RTVSPropertyOp25
 70
     1
102
RTVSPropertyOp26
 70
     1
102
RTVSPropertyOp27
 70
     1
102
RTVSPropertyOp28
 70
     1
102
RTVSPropertyOp29
 70
     1
102
RTVSPropertyOp30
 70
     1
102
RTVSPropertyOp31
 70
     1
102
RTVSPropertyOp32
 70
     1
  0
XRECORD
  5
138
102
{ACAD_REACTORS
330
137
102
}
330
137
100
AcDbXrecord
280
     1
102
RTVSPropertyOp0
 70
     1
102
RTVSPropertyOp1
 70
     1
102
RTVSPropertyOp2
 70
     1
102
RTVSPropertyOp3
 70
     1
102
RTVSPropertyOp4
 70
     1
102
RTVSPropertyOp5
 70
     1
102
RTVSPropertyOp6
 70
     1
102
RTVSPropertyOp7
 70
     1
102
RTVSPropertyOp8
 70
     1
102
RTVSPropertyOp9
 70
     1
102
RTVSPropertyOp10
 70
     1
102
RTVSPropertyOp11
 70
     1
102
RTVSPropertyOp12
 70
     1
102
RTVSPropertyOp13
 70
     1
102
RTVSPropertyOp14
 70
     1
102
RTVSPropertyOp15
 70
     1
102
RTVSPropertyOp16
 70
     1
102
RTVSPropertyOp17
 70
     1
102
RTVSPropertyOp18
 70
     1
102
RTVSPropertyOp19
 70
     1
102
RTVSPropertyOp20
 70
     1
102
RTVSPropertyOp21
 70
     1
102
RTVSPropertyOp22
 70
     1
102
RTVSPropertyOp23
 70
     1
102
RTVSPropertyOp24
 70
     1
102
RTVSPropertyOp25
 70
     1
102
RTVSPropertyOp26
 70
     1
102
RTVSPropertyOp27
 70
     1
102
RTVSPropertyOp28
 70
     1
102
RTVSPropertyOp29
 70
     1
102
RTVSPropertyOp30
 70
     1
102
RTVSPropertyOp31
 70
     1
102
RTVSPropertyOp32
 70
     1
  0
XRECORD
  5
158
102
{ACAD_REACTORS
330
157
102
}
330
157
100
AcDbXrecord
280
     1
102
RTVSPropertyOp0
 70
     1
102
RTVSPropertyOp1
 70
     1
102
RTVSPropertyOp2
 70
     1
102
RTVSPropertyOp3
 70
     1
102
RTVSPropertyOp4
 70
     1
102
RTVSPropertyOp5
 70
     1
102
RTVSPropertyOp6
 70
     1
102
RTVSPropertyOp7
 70
     1
102
RTVSPropertyOp8
 70
     1
102
RTVSPropertyOp9
 70
     1
102
RTVSPropertyOp10
 70
     1
102
RTVSPropertyOp11
 70
     1
102
RTVSPropertyOp12
 70
     1
102
RTVSPropertyOp13
 70
     1
102
RTVSPropertyOp14
 70
     1
102
RTVSPropertyOp15
 70
     1
102
RTVSPropertyOp16
 70
     1
102
RTVSPropertyOp17
 70
     1
102
RTVSPropertyOp18
 70
     1
102
RTVSPropertyOp19
 70
     1
102
RTVSPropertyOp20
 70
     1
102
RTVSPropertyOp21
 70
     1
102
RTVSPropertyOp22
 70
     1
102
RTVSPropertyOp23
 70
     1
102
RTVSPropertyOp24
 70
     1
102
RTVSPropertyOp25
 70
     1
102
RTVSPropertyOp26
 70
     1
102
RTVSPropertyOp27
 70
     1
102
RTVSPropertyOp28
 70
     1
102
RTVSPropertyOp29
 70
     1
102
RTVSPropertyOp30
 70
     1
102
RTVSPropertyOp31
 70
     1
102
RTVSPropertyOp32
 70
     1
  0
ENDSEC
  0
EOF
