  0
SECTION
  2
HEADER
  9
$ACADVER
  1
AC1015
  9
$ACADMAINTVER
 70
    18
  9
$DWGCODEPAGE
  3
ANSI_1252
  9
$INSBASE
 10
0.0
 20
0.0
 30
0.0
  9
$EXTMIN
 10
-54.73652378462339
 20
-20.42956349536507
 30
-0.0015258207003583
  9
$EXTMAX
 10
54.75467063737415
 20
241.8054669587935
 30
0.0000000349246037
  9
$LIMMIN
 10
0.0
 20
0.0
  9
$LIMMAX
 10
1189.0
 20
840.9999999999998
  9
$ORTHOMODE
 70
     0
  9
$REGENMODE
 70
     1
  9
$FILLMODE
 70
     1
  9
$QTEXTMODE
 70
     0
  9
$MIRRTEXT
 70
     0
  9
$LTSCALE
 40
1.0
  9
$ATTMODE
 70
     1
  9
$TEXTSIZE
 40
0.2
  9
$TRACEWID
 40
0.05
  9
$TEXTSTYLE
  7
STANDARD
  9
$CLAYER
  8
0
  9
$CELTYPE
  6
ByLayer
  9
$CECOLOR
 62
   256
  9
$CELTSCALE
 40
1.0
  9
$DISPSILH
 70
     0
  9
$DIMSCALE
 40
1.0
  9
$DIMASZ
 40
180.0
  9
$DIMEXO
 40
0.0625
  9
$DIMDLI
 40
0.38
  9
$DIMRND
 40
0.0
  9
$DIMDLE
 40
0.0
  9
$DIMEXE
 40
0.18
  9
$DIMTP
 40
0.0
  9
$DIMTM
 40
0.0
  9
$DIMTXT
 40
34.99999940395355
  9
$DIMCEN
 40
0.09
  9
$DIMTSZ
 40
0.0
  9
$DIMTOL
 70
     0
  9
$DIMLIM
 70
     0
  9
$DIMTIH
 70
     1
  9
$DIMTOH
 70
     1
  9
$DIMSE1
 70
     0
  9
$DIMSE2
 70
     0
  9
$DIMTAD
 70
     0
  9
$DIMZIN
 70
     0
  9
$DIMBLK
  1

  9
$DIMASO
 70
     1
  9
$DIMSHO
 70
     1
  9
$DIMPOST
  1

  9
$DIMAPOST
  1

  9
$DIMALT
 70
     0
  9
$DIMALTD
 70
     2
  9
$DIMALTF
 40
25.4
  9
$DIMLFAC
 40
1.0
  9
$DIMTOFL
 70
     0
  9
$DIMTVP
 40
0.0
  9
$DIMTIX
 70
     0
  9
$DIMSOXD
 70
     0
  9
$DIMSAH
 70
     0
  9
$DIMBLK1
  1

  9
$DIMBLK2
  1

  9
$DIMSTYLE
  2
STANDARD
  9
$DIMCLRD
 70
     0
  9
$DIMCLRE
 70
     0
  9
$DIMCLRT
 70
     0
  9
$DIMTFAC
 40
1.0
  9
$DIMGAP
 40
0.09
  9
$DIMJUST
 70
     0
  9
$DIMSD1
 70
     0
  9
$DIMSD2
 70
     0
  9
$DIMTOLJ
 70
     1
  9
$DIMTZIN
 70
     0
  9
$DIMALTZ
 70
     0
  9
$DIMALTTZ
 70
     0
  9
$DIMUPT
 70
     0
  9
$DIMDEC
 70
     4
  9
$DIMTDEC
 70
     4
  9
$DIMALTU
 70
     2
  9
$DIMALTTD
 70
     2
  9
$DIMTXSTY
  7
STANDARD
  9
$DIMAUNIT
 70
     0
  9
$DIMADEC
 70
     0
  9
$DIMALTRND
 40
0.0
  9
$DIMAZIN
 70
     0
  9
$DIMDSEP
 70
    46
  9
$DIMATFIT
 70
     3
  9
$DIMFRAC
 70
     0
  9
$DIMLDRBLK
  1

  9
$DIMLUNIT
 70
     2
  9
$DIMLWD
 70
    -2
  9
$DIMLWE
 70
    -2
  9
$DIMTMOVE
 70
     0
  9
$LUNITS
 70
     2
  9
$LUPREC
 70
     4
  9
$SKETCHINC
 40
0.1
  9
$FILLETRAD
 40
0.0
  9
$AUNITS
 70
     0
  9
$AUPREC
 70
     0
  9
$MENU
  1
.
  9
$ELEVATION
 40
0.0
  9
$PELEVATION
 40
0.0
  9
$THICKNESS
 40
0.0
  9
$LIMCHECK
 70
     0
  9
$CHAMFERA
 40
0.0
  9
$CHAMFERB
 40
0.0
  9
$CHAMFERC
 40
0.0
  9
$CHAMFERD
 40
0.0
  9
$SKPOLY
 70
     0
  9
$TDCREATE
 40
2454871.539305995
  9
$TDUCREATE
 40
2454871.455972662
  9
$TDUPDATE
 40
2455720.209551447
  9
$TDUUPDATE
 40
2455720.126218114
  9
$TDINDWG
 40
0.0124027546
  9
$TDUSRTIMER
 40
0.0124027546
  9
$USRTIMER
 70
     1
  9
$ANGBASE
 50
0.0
  9
$ANGDIR
 70
     0
  9
$PDMODE
 70
     0
  9
$PDSIZE
 40
0.0
  9
$PLINEWID
 40
0.0
  9
$SPLFRAME
 70
     0
  9
$SPLINETYPE
 70
     6
  9
$SPLINESEGS
 70
     8
  9
$HANDSEED
  5
331
  9
$SURFTAB1
 70
     6
  9
$SURFTAB2
 70
     6
  9
$SURFTYPE
 70
     6
  9
$SURFU
 70
     6
  9
$SURFV
 70
     6
  9
$UCSBASE
  2

  9
$UCSNAME
  2

  9
$UCSORG
 10
0.0
 20
0.0
 30
0.0
  9
$UCSXDIR
 10
1.0
 20
0.0
 30
0.0
  9
$UCSYDIR
 10
0.0
 20
1.0
 30
0.0
  9
$UCSORTHOREF
  2

  9
$UCSORTHOVIEW
 70
     0
  9
$UCSORGTOP
 10
0.0
 20
0.0
 30
0.0
  9
$UCSORGBOTTOM
 10
0.0
 20
0.0
 30
0.0
  9
$UCSORGLEFT
 10
0.0
 20
0.0
 30
0.0
  9
$UCSORGRIGHT
 10
0.0
 20
0.0
 30
0.0
  9
$UCSORGFRONT
 10
0.0
 20
0.0
 30
0.0
  9
$UCSORGBACK
 10
0.0
 20
0.0
 30
0.0
  9
$PUCSBASE
  2

  9
$PUCSNAME
  2

  9
$PUCSORG
 10
0.0
 20
0.0
 30
0.0
  9
$PUCSXDIR
 10
1.0
 20
0.0
 30
0.0
  9
$PUCSYDIR
 10
0.0
 20
1.0
 30
0.0
  9
$PUCSORTHOREF
  2

  9
$PUCSORTHOVIEW
 70
     0
  9
$PUCSORGTOP
 10
0.0
 20
0.0
 30
0.0
  9
$PUCSORGBOTTOM
 10
0.0
 20
0.0
 30
0.0
  9
$PUCSORGLEFT
 10
0.0
 20
0.0
 30
0.0
  9
$PUCSORGRIGHT
 10
0.0
 20
0.0
 30
0.0
  9
$PUCSORGFRONT
 10
0.0
 20
0.0
 30
0.0
  9
$PUCSORGBACK
 10
0.0
 20
0.0
 30
0.0
  9
$USERI1
 70
     0
  9
$USERI2
 70
     0
  9
$USERI3
 70
     0
  9
$USERI4
 70
     0
  9
$USERI5
 70
     0
  9
$USERR1
 40
0.0
  9
$USERR2
 40
0.0
  9
$USERR3
 40
0.0
  9
$USERR4
 40
0.0
  9
$USERR5
 40
0.0
  9
$WORLDVIEW
 70
     1
  9
$SHADEDGE
 70
     3
  9
$SHADEDIF
 70
    70
  9
$TILEMODE
 70
     1
  9
$MAXACTVP
 70
    64
  9
$PINSBASE
 10
0.0
 20
0.0
 30
0.0
  9
$PLIMCHECK
 70
     0
  9
$PEXTMIN
 10
0.0
 20
0.0
 30
0.0
  9
$PEXTMAX
 10
1189.0
 20
840.9999999999998
 30
0.0
  9
$PLIMMIN
 10
0.0
 20
0.0
  9
$PLIMMAX
 10
1189.0
 20
840.9999999999998
  9
$UNITMODE
 70
     0
  9
$VISRETAIN
 70
     1
  9
$PLINEGEN
 70
     0
  9
$PSLTSCALE
 70
     1
  9
$TREEDEPTH
 70
  3020
  9
$CMLSTYLE
  2
Standard
  9
$CMLJUST
 70
     0
  9
$CMLSCALE
 40
1.0
  9
$PROXYGRAPHICS
 70
     1
  9
$MEASUREMENT
 70
     1
  9
$CELWEIGHT
370
    -1
  9
$ENDCAPS
280
     0
  9
$JOINSTYLE
280
     0
  9
$LWDISPLAY
290
     0
  9
$INSUNITS
 70
     4
  9
$HYPERLINKBASE
  1

  9
$STYLESHEET
  1

  9
$XEDIT
290
     1
  9
$CEPSNTYPE
380
     0
  9
$PSTYLEMODE
290
     1
  9
$FINGERPRINTGUID
  2
{D03E4A48-BDF9-454E-8C2B-F8054531F2AE}
  9
$VERSIONGUID
  2
{1B73052C-BD48-4D1D-AEAA-2CC683072552}
  9
$EXTNAMES
290
     1
  9
$PSVPSCALE
 40
0.0
  9
$OLESTARTUP
290
     0
  0
ENDSEC
  0
SECTION
  2
CLASSES
  0
CLASS
  1
ACDBDICTIONARYWDFLT
  2
AcDbDictionaryWithDefault
  3
ObjectDBX Classes
 90
        0
280
     0
281
     0
  0
CLASS
  1
MATERIAL
  2
AcDbMaterial
  3
ObjectDBX Classes
 90
     1153
280
     0
281
     0
  0
CLASS
  1
VISUALSTYLE
  2
AcDbVisualStyle
  3
ObjectDBX Classes
 90
     4095
280
     0
281
     0
  0
CLASS
  1
SCALE
  2
AcDbScale
  3
ObjectDBX Classes
 90
     1153
280
     0
281
     0
  0
CLASS
  1
TABLESTYLE
  2
AcDbTableStyle
  3
ObjectDBX Classes
 90
     4095
280
     0
281
     0
  0
CLASS
  1
MLEADERSTYLE
  2
AcDbMLeaderStyle
  3
ACDB_MLEADERSTYLE_CLASS
 90
     4095
280
     0
281
     0
  0
CLASS
  1
SORTENTSTABLE
  2
AcDbSortentsTable
  3
ObjectDBX Classes
 90
        0
280
     0
281
     0
  0
CLASS
  1
CELLSTYLEMAP
  2
AcDbCellStyleMap
  3
ObjectDBX Classes
 90
     1152
280
     0
281
     0
  0
CLASS
  1
DICTIONARYVAR
  2
AcDbDictionaryVar
  3
ObjectDBX Classes
 90
        0
280
     0
281
     0
  0
CLASS
  1
ACME_DOCUMENT
  2
AcMeDbDoc
  3
AcMeServices
 90
     1024
280
     0
281
     0
  0
CLASS
  1
AMGSETTINGSOBJ
  2
AmgSettingsObj
  3
"AcadM|Product Description: AutoCAD Mechanical|Company: Autodesk, Inc."
 90
     1024
280
     0
281
     0
  0
CLASS
  1
ACMESCOPE
  2
AcMeScope
  3
AcMeServices
 90
     1024
280
     0
281
     0
  0
CLASS
  1
ACMECOMMANDHISTORY
  2
AcMeCommandHistory
  3
AcMeServices
 90
     1024
280
     0
281
     0
  0
CLASS
  1
ACIMSYSVARMAN
  2
AcImSysVarManager
  3
AcMeServices
 90
     1024
280
     0
281
     0
  0
CLASS
  1
ACIMINTSYSVAR
  2
AcImIntSysVar
  3
AcMeServices
 90
     1024
280
     0
281
     0
  0
CLASS
  1
ACMEDRAWINGMAN
  2
AcMeDrawingMan
  3
AcMeServices
 90
    33792
280
     0
281
     0
  0
CLASS
  1
ACMEVIEW
  2
AcMeView
  3
AcMeServices
 90
    33792
280
     0
281
     0
  0
CLASS
  1
ACDBENTITYCACHE
  2
AcMeEntityCache
  3
AcMeServices
 90
     1024
280
     0
281
     0
  0
CLASS
  1
GSMANAGER
  2
AcMeGSManager
  3
AcMeServices
 90
    33792
280
     1
281
     0
  0
CLASS
  1
AMDTINTERNALREACTOR
  2
AmdtInternalReactor
  3
AcMeServices
 90
     1024
280
     0
281
     0
  0
CLASS
  1
ACMESTATEMGR
  2
AcMeStateMgr
  3
AcMeServices
 90
     1024
280
     0
281
     0
  0
CLASS
  1
ACGREFMASTER
  2
AcGrefMaster
  3
AcAttribServices
 90
     1024
280
     0
281
     0
  0
CLASS
  1
AM_DRAWING_MGR
  2
AcDmDwgMgr
  3
AcMechDwgViewMgmt
 90
     1024
280
     0
281
     0
  0
CLASS
  1
AM_DWG_DOCUMENT
  2
AcDmDwgDocument
  3
AcMechDwgViewMgmt
 90
     1024
280
     0
281
     0
  0
CLASS
  1
AM_DWG_SHEET
  2
AcDmSheet
  3
AcMechDwgViewMgmt
 90
     1024
280
     0
281
     0
  0
CLASS
  1
AM_VIEWDIMPARMAP
  2
AcDmViewDimParMap
  3
AcMechDwgViewMgmt
 90
     1024
280
     0
281
     0
  0
CLASS
  1
ACIMREALSYSVAR
  2
AcImRealSysVar
  3
AcMeServices
 90
     1024
280
     0
281
     0
  0
CLASS
  1
AM_DWGMGR_NAME
  2
AcDmDwgMgrName
  3
AcMechDwgViewMgmt
 90
     1024
280
     0
281
     0
  0
CLASS
  1
ACME_DATABASE
  2
AcMeDbDatabase
  3
AcMeServices
 90
     1024
280
     0
281
     0
  0
CLASS
  1
ACRFINSADJUSTERMGR
  2
AcRfInsAdjusterMgr
  3
AcMeServices
 90
     1024
280
     0
281
     0
  0
CLASS
  1
ACGREFACADMASTER
  2
AcGrefacadMaster
  3
AcGrefServices
 90
     1024
280
     0
281
     0
  0
CLASS
  1
AMDTMENUSTATEMGR
  2
AmdtMenuStateMgr
  3
McadcomServices
 90
     1024
280
     0
281
     0
  0
CLASS
  1
AMDTMCOMMENUSTATE
  2
AmdtMcomMenuState
  3
McadcomServices
 90
     1024
280
     0
281
     0
  0
CLASS
  1
AMIMASTER
  2
AmiMaster
  3
AmiServices
 90
     1024
280
     0
281
     0
  0
CLASS
  1
MAPIAMMOUDLE
  2
MApiAmModule
  3
MApiAmServices
 90
     1024
280
     0
281
     0
  0
CLASS
  1
ACIMSTRSYSVAR
  2
AcImStrSysVar
  3
AcMeServices
 90
     1024
280
     0
281
     0
  0
CLASS
  1
AMDTADMENUSTATE
  2
AmdtAdMenuState
  3
DesignerServices
 90
    33792
280
     1
281
     0
  0
CLASS
  1
ADAPPL
  2
AcAdAppl
  3
DesignerAssemblies
 90
    33792
280
     0
281
     0
  0
CLASS
  1
DEPMGR
  2
AcAdDepMgr
  3
DesignerAssemblies
 90
    33792
280
     0
281
     0
  0
CLASS
  1
PARAMMGR
  2
AcAdParamMgr
  3
DesignerAssemblies
 90
    33792
280
     0
281
     0
  0
CLASS
  1
PARAMSCOPE
  2
AcAdParamScope
  3
DesignerAssemblies
 90
    33792
280
     0
281
     0
  0
CLASS
  1
NAMEDAPPL
  2
AcAdNamedAppl
  3
DesignerAssemblies
 90
    33792
280
     0
281
     0
  0
CLASS
  1
AMDTDMMENUSTATE
  2
AmdtDmMenuState
  3
AcMechDwgViewMgmt
 90
     1024
280
     0
281
     0
  0
CLASS
  1
AMDTAMMENUSTATE
  2
AmdtAmMenuState
  3
DesignerAssemblies
 90
     1024
280
     0
281
     0
  0
CLASS
  1
ACAMPROJECT
  2
AcAmProject
  3
DesignerAssemblies
 90
     1024
280
     0
281
     0
  0
CLASS
  1
ACAMGRCOMPDEF
  2
AcAmGrCompDef
  3
DesignerAssemblies
 90
     1024
280
     0
281
     0
  0
CLASS
  1
ACCMCONTEXT
  2
AcCmContext
  3
DesignerAssemblies
 90
    33792
280
     0
281
     0
  0
CLASS
  1
ACAMCOMPDEF
  2
AcAmCompDef
  3
DesignerAssemblies
 90
     1024
280
     0
281
     0
  0
CLASS
  1
ACAMCOMPDEFMGR
  2
AcAmCompDefMgr
  3
DesignerAssemblies
 90
     1024
280
     0
281
     0
  0
CLASS
  1
AMCONTEXTMGR
  2
AcAmContextMgr
  3
DesignerAssemblies
 90
     1024
280
     0
281
     0
  0
CLASS
  1
ACAMCONTEXTMODELER
  2
AcAmContextModeler
  3
DesignerAssemblies
 90
     1024
280
     0
281
     0
  0
CLASS
  1
ACMDATADICTIONARY
  2
AcmDataDictionary
  3
"AcmSymBB|Product Description: AutoCAD Mechanical|Company: Autodesk, Inc."
 90
     1024
280
     0
281
     0
  0
CLASS
  1
CATALOGSTATE
  2
AcAmCatalogState
  3
DesignerAssemblies
 90
    33792
280
     0
281
     0
  0
CLASS
  1
ACAMGRCOMPDEFSET
  2
AcAmGrCompDefSet
  3
DesignerAssemblies
 90
     1024
280
     0
281
     0
  0
CLASS
  1
AMDTBROWSERDBTAB
  2
AmdtBrowserDbTab
  3
McadcomServices
 90
     1024
280
     0
281
     0
  0
CLASS
  1
CBROWSERAPPOBJECT
  2
CBrowserAppObject
  3
McadcomServices
 90
     1024
280
     0
281
     0
  0
CLASS
  1
DM_PLACEHOLDER
  2
AcDmSelsetPlaceholder
  3
AcMechDwgViewMgmt
 90
     1024
280
     0
281
     0
  0
CLASS
  1
EXACXREFPANELOBJECT
  2
ExAcXREFPanelObject
  3
EXAC_ESW
 90
     1025
280
     0
281
     0
  0
CLASS
  1
NPOCOLLECTION
  2
AcDbImpNonPersistentObjectsCollection
  3
ObjectDBX Classes
 90
     1153
280
     0
281
     0
  0
CLASS
  1
ACMSTANDARDANSI
  2
AcmStandardANSI
  3
"Amdt_StdImp|Product Description: AutoCAD Mechanical|Company: Autodesk, Inc."
 90
     1024
280
     0
281
     0
  0
CLASS
  1
ACMSURFSTANDARDANSI
  2
AcmSurfTextStdANSI
  3
"Amdt_StdImp|Product Description: AutoCAD Mechanical|Company: Autodesk, Inc."
 90
     1024
280
     0
281
     0
  0
CLASS
  1
ACMFCFSTANDARDANSI
  2
AcmFCFStdANSI
  3
"Amdt_StdImp|Product Description: AutoCAD Mechanical|Company: Autodesk, Inc."
 90
     1024
280
     0
281
     0
  0
CLASS
  1
ACMWELDSTANDARDANSI
  2
AcmWeldingStdANSI
  3
"Amdt_StdImp|Product Description: AutoCAD Mechanical|Company: Autodesk, Inc."
 90
     1024
280
     0
281
     0
  0
CLASS
  1
ACMIDSTANDARDANSI
  2
AcmIdStdANSI
  3
"Amdt_StdImp|Product Description: AutoCAD Mechanical|Company: Autodesk, Inc."
 90
     1024
280
     0
281
     0
  0
CLASS
  1
ACMDATUMSTANDARDANSI
  2
AcmDatumStdANSI
  3
"Amdt_StdImp|Product Description: AutoCAD Mechanical|Company: Autodesk, Inc."
 90
     1024
280
     0
281
     0
  0
CLASS
  1
ACMBOMSTANDARDANSI
  2
AcmBOMStdANSI
  3
"Amdt_StdImp|Product Description: AutoCAD Mechanical|Company: Autodesk, Inc."
 90
     1024
280
     0
281
     0
  0
CLASS
  1
ACMDETAILSTANDARDANSI
  2
AmdtDetailSymStdANSI
  3
"Amdt_StdImp|Product Description: AutoCAD Mechanical|Company: Autodesk, Inc."
 90
     1024
280
     0
281
     0
  0
CLASS
  1
ACMSECTIONSTANDARDANSI
  2
AmdtSectionSymStdANSI
  3
"Amdt_StdImp|Product Description: AutoCAD Mechanical|Company: Autodesk, Inc."
 90
     1024
280
     0
281
     0
  0
CLASS
  1
ACMCENTERLINESTANDARDANSI
  2
AmdtCenterLineStdANSI
  3
"Amdt_StdImp|Product Description: AutoCAD Mechanical|Company: Autodesk, Inc."
 90
     1024
280
     0
281
     0
  0
CLASS
  1
ACMTHREADLINESTANDARDANSI
  2
AmdtThreadLineStdANSI
  3
"Amdt_StdImp|Product Description: AutoCAD Mechanical|Company: Autodesk, Inc."
 90
     1024
280
     0
281
     0
  0
CLASS
  1
ACMNOTESTANDARDANSI
  2
AmdtNoteStdANSI
  3
"Amdt_StdImp|Product Description: AutoCAD Mechanical|Company: Autodesk, Inc."
 90
     1024
280
     0
281
     0
  0
CLASS
  1
ACMTAPERSTANDARDANSI
  2
AcmTaperStdANSI
  3
"Amdt_StdImp|Product Description: AutoCAD Mechanical|Company: Autodesk, Inc."
 90
     1024
280
     0
281
     0
  0
CLASS
  1
ACMANOOTATIONVIEWSTANDARDANSI
  2
AmdtAnViewStdANSI
  3
"Amdt_StdImp|Product Description: AutoCAD Mechanical|Company: Autodesk, Inc."
 90
     1024
280
     0
281
     0
  0
CLASS
  1
ACAMGLAYSTD
  2
AcAmgLayStd
  3
"AmgLay|Product Description: AutoCAD Mechanical|Company: Autodesk, Inc."
 90
     1024
280
     0
281
     0
  0
CLASS
  1
ACAMGDIMSTD
  2
AcAmgDimStd
  3
"AmgDim|Product Description: AutoCAD Mechanical|Company: Autodesk, Inc."
 90
     1024
280
     0
281
     0
  0
CLASS
  1
AMGOBJPROPCFG
  2
AmgObjPropCfg
  3
"AmgLay|Product Description: AutoCAD Mechanical|Company: Autodesk, Inc."
 90
     1025
280
     0
281
     0
  0
CLASS
  1
ACAMGHOLECHARTSTDANSI
  2
AcAmgHoleChartStdANSI
  3
AmgDim|Product Description: AutoCAD Mechanical|Company: Autodesk, Inc.
 90
     1024
280
     0
281
     0
  0
CLASS
  1
ACAMGTITLESTD
  2
AcAmgTitleStd
  3
"AmgTitle|Product Description: AutoCAD Mechanical|Company: Autodesk, Inc."
 90
     4095
280
     0
281
     0
  0
CLASS
  1
AMDTNOTETEMPLATEDB
  2
AmdtNoteTemplateDB
  3
AcmSymBB|Product Description: AutoCAD Mechanical|Company: Autodesk, Inc.
 90
     1024
280
     0
281
     0
  0
CLASS
  1
ACAMGFILTERDAT
  2
AcAmgFilterDat
  3
"AcadM|Product Description: AutoCAD Mechanical|Company: Autodesk, Inc."
 90
    33792
280
     0
281
     0
  0
CLASS
  1
CAMSSTRUCTBTNSTATE
  2
StructBtnState
  3
DesignerAssemblies
 90
    33792
280
     0
281
     0
  0
CLASS
  1
ACDBPLACEHOLDER
  2
AcDbPlaceHolder
  3
ObjectDBX Classes
 90
        0
280
     0
281
     0
  0
CLASS
  1
LAYOUT
  2
AcDbLayout
  3
ObjectDBX Classes
 90
        0
280
     0
281
     0
  0
CLASS
  1
SOLID_BACKGROUND
  2
AcDbSolidBackground
  3
SCENEOE
 90
    36863
280
     0
281
     0
  0
ENDSEC
  0
SECTION
  2
TABLES
  0
TABLE
  2
VPORT
  5
28
102
{ACAD_XDICTIONARY
360
2C
102
}
330
0
100
AcDbSymbolTable
 70
     1
  0
VPORT
  5
29
330
28
100
AcDbSymbolTableRecord
100
AcDbViewportTableRecord
  2
*ACTIVE
 70
     0
 10
0.0
 20
0.0
 11
1.0
 21
1.0
 12
0.0090734263753518
 22
110.6879517317141
 13
0.0
 23
0.0
 14
1.0
 24
1.0
 15
0.0
 25
0.0
 16
0.0
 26
0.0
 36
1.0
 17
0.0
 27
0.0
 37
0.0
 40
293.6021457749223
 41
2.068965517241379
 42
50.0
 43
0.0
 44
0.0
 50
0.0
 51
0.0
 71
     0
 72
   100
 73
     1
 74
     1
 75
     0
 76
     0
 77
     0
 78
     0
281
     0
 65
     1
110
0.0
120
0.0
130
0.0
111
1.0
121
0.0
131
0.0
112
0.0
122
1.0
132
0.0
 79
     0
146
0.0
  0
ENDTAB
  0
TABLE
  2
LTYPE
  5
23
330
0
100
AcDbSymbolTable
 70
    12
  0
LTYPE
  5
24
330
23
100
AcDbSymbolTableRecord
100
AcDbLinetypeTableRecord
  2
ByBlock
 70
     0
  3

 72
    65
 73
     0
 40
0.0
  0
LTYPE
  5
25
330
23
100
AcDbSymbolTableRecord
100
AcDbLinetypeTableRecord
  2
ByLayer
 70
     0
  3

 72
    65
 73
     0
 40
0.0
  0
LTYPE
  5
1B
330
23
100
AcDbSymbolTableRecord
100
AcDbLinetypeTableRecord
  2
CONTINUOUS
 70
     0
  3
Solid line
 72
    65
 73
     0
 40
0.0
  0
LTYPE
  5
23B
330
23
100
AcDbSymbolTableRecord
100
AcDbLinetypeTableRecord
  2
HIDDEN
 70
     0
  3
Verdeckt
 72
    65
 73
     2
 40
0.375
 49
0.25
 74
     0
 49
-0.125
 74
     0
  0
LTYPE
  5
23D
330
23
100
AcDbSymbolTableRecord
100
AcDbLinetypeTableRecord
  2
PHANTOM2
 70
     0
  3
Phantom (.5x) ___ _ _ ___ _ _ ___ _ _ ___ _ _
 72
    65
 73
     6
 40
1.25
 49
0.625
 74
     0
 49
-0.125
 74
     0
 49
0.125
 74
     0
 49
-0.125
 74
     0
 49
0.125
 74
     0
 49
-0.125
 74
     0
  0
LTYPE
  5
23C
330
23
100
AcDbSymbolTableRecord
100
AcDbLinetypeTableRecord
  2
CENTER
 70
     0
  3
Mitte ____ _ ____ _ ____ _ ____ _ ____ _ ____
 72
    65
 73
     4
 40
2.0
 49
1.25
 74
     0
 49
-0.25
 74
     0
 49
0.25
 74
     0
 49
-0.25
 74
     0
  0
LTYPE
  5
23E
330
23
100
AcDbSymbolTableRecord
100
AcDbLinetypeTableRecord
  2
Amconstr
 70
     0
  3
_______________________
 72
    65
 73
     2
 40
9999.0
 49
9999.0
 74
     0
 49
0.0
 74
     0
  0
LTYPE
  5
23F
330
23
100
AcDbSymbolTableRecord
100
AcDbLinetypeTableRecord
  2
CENTER2
 70
     0
  3
Center (.5x) ___ _ ___ _ ___ _ ___ _ ___ _ ___
 72
    65
 73
     4
 40
1.125
 49
0.75
 74
     0
 49
-0.125
 74
     0
 49
0.125
 74
     0
 49
-0.125
 74
     0
  0
LTYPE
  5
240
330
23
100
AcDbSymbolTableRecord
100
AcDbLinetypeTableRecord
  2
HIDDEN2
 70
     0
  3
Hidden (.5x) _ _ _ _ _ _ _ _ _ _ _ _ _ _ _ _ _
 72
    65
 73
     2
 40
0.1875
 49
0.125
 74
     0
 49
-0.0625
 74
     0
  0
LTYPE
  5
241
330
23
100
AcDbSymbolTableRecord
100
AcDbLinetypeTableRecord
  2
Amzigzag2
 70
     0
  3
/\/-/\/-/\/-/\/-/\/-/\/
 72
    65
 73
     2
 40
0.4401
 49
0.0001
 74
     4
 75
   136
340
242
 46
0.0016
 50
0.0
 44
0.0
 45
0.0
 49
-0.4400000000000001
 74
     0
  0
LTYPE
  5
252
330
23
100
AcDbSymbolTableRecord
100
AcDbLinetypeTableRecord
  2
ACANSTGB
 70
     0
  3
__ . . __ . .
 72
    65
 73
     6
 40
0.35433070866
 49
0.15748031496
 74
     0
 49
-0.03937007874
 74
     0
 49
0.03937007874
 74
     0
 49
-0.03937007874
 74
     0
 49
0.03937007874
 74
     0
 49
-0.03937007874
 74
     0
  0
LTYPE
  5
253
330
23
100
AcDbSymbolTableRecord
100
AcDbLinetypeTableRecord
  2
ACANSTGL
 70
     0
  3
_ _ _ _ _
 72
    65
 73
     2
 40
0.11811023622
 49
0.07874015748
 74
     0
 49
-0.03937007874
 74
     0
  0
LTYPE
  5
7C
330
23
100
AcDbSymbolTableRecord
100
AcDbLinetypeTableRecord
  2
DASHDOT
 70
     0
  3
Dash dot __ . __ . __ . __ . __ . __ . __ . __
 72
    65
 73
     4
 40
1.0
 49
0.5
 74
     0
 49
-0.25
 74
     0
 49
0.0
 74
     0
 49
-0.25
 74
     0
  0
LTYPE
  5
157
330
23
100
AcDbSymbolTableRecord
100
AcDbLinetypeTableRecord
  2
DASHED
 70
     0
  3
Dashed __ __ __ __ __ __ __ __ __ __ __ __ __ _
 72
    65
 73
     2
 40
0.75
 49
0.5
 74
     0
 49
-0.25
 74
     0
  0
ENDTAB
  0
TABLE
  2
LAYER
  5
E
102
{ACAD_XDICTIONARY
360
1C
102
}
330
0
100
AcDbSymbolTable
 70
     8
  0
LAYER
  5
F
330
E
100
AcDbSymbolTableRecord
100
AcDbLayerTableRecord
  2
0
 70
     0
 62
     7
  6
CONTINUOUS
370
    -3
390
10
  0
LAYER
  5
82
330
E
100
AcDbSymbolTableRecord
100
AcDbLayerTableRecord
  2
GEB-KONTUR-A
 70
     0
 62
     5
  6
CONTINUOUS
370
    -3
390
10
  0
LAYER
  5
7B
330
E
100
AcDbSymbolTableRecord
100
AcDbLayerTableRecord
  2
GEB-SYMMETRIE
 70
     0
 62
     3
  6
DASHDOT
370
    -3
390
10
1001
AcAecLayerStandard
1000

1000

  0
LAYER
  5
156
330
E
100
AcDbSymbolTableRecord
100
AcDbLayerTableRecord
  2
GEB-VERDECKT
 70
     0
 62
     2
  6
DASHED
370
    -3
390
10
1001
AcAecLayerStandard
1000

1000

  0
LAYER
  5
76
330
E
100
AcDbSymbolTableRecord
100
AcDbLayerTableRecord
  2
Arbeitspunkt(DIN)
 70
     0
 62
     7
  6
CONTINUOUS
370
    25
390
10
  0
LAYER
  5
237
330
E
100
AcDbSymbolTableRecord
100
AcDbLayerTableRecord
  2
GEB-ART-NR
 70
     0
 62
     1
  6
CONTINUOUS
370
    18
390
10
  0
LAYER
  5
72
330
E
100
AcDbSymbolTableRecord
100
AcDbLayerTableRecord
  2
GEB-BEZUG
 70
     0
 62
     2
  6
CONTINUOUS
370
    25
390
10
  0
LAYER
  5
234
330
E
100
AcDbSymbolTableRecord
100
AcDbLayerTableRecord
  2
GEB-TEXT
 70
     0
 62
     5
  6
CONTINUOUS
370
    18
390
10
  0
ENDTAB
  0
TABLE
  2
STYLE
  5
20
330
0
100
AcDbSymbolTable
 70
     3
  0
STYLE
  5
21
330
20
100
AcDbSymbolTableRecord
100
AcDbTextStyleTableRecord
  2
STANDARD
 70
     0
 40
0.0
 41
1.0
 50
0.0
 71
     0
 42
0.2
  3
arial.ttf
  4

1001
ACAD
1000
Arial
1071
       34
  0
STYLE
  5
242
330
20
100
AcDbSymbolTableRecord
100
AcDbTextStyleTableRecord
  2

 70
     1
 40
0.0
 41
1.0
 50
0.0
 71
     0
 42
0.2
  3
genltshp.shx
  4

  0
STYLE
  5
24E
330
20
100
AcDbSymbolTableRecord
100
AcDbTextStyleTableRecord
  2
ACANSGDT
 70
     0
 40
0.0
 41
1.0
 50
0.0
 71
     0
 42
0.2
  3
amgdt.shx
  4

  0
ENDTAB
  0
TABLE
  2
VIEW
  5
26
330
0
100
AcDbSymbolTable
 70
     0
  0
ENDTAB
  0
TABLE
  2
UCS
  5
27
330
0
100
AcDbSymbolTable
 70
     0
  0
ENDTAB
  0
TABLE
  2
APPID
  5
2D
330
0
100
AcDbSymbolTable
 70
    14
  0
APPID
  5
1F
330
2D
100
AcDbSymbolTableRecord
100
AcDbRegAppTableRecord
  2
ACAD
 70
     0
  0
APPID
  5
7D
330
2D
100
AcDbSymbolTableRecord
100
AcDbRegAppTableRecord
  2
AcAecLayerStandard
 70
     0
  0
APPID
  5
291
330
2D
100
AcDbSymbolTableRecord
100
AcDbRegAppTableRecord
  2
ACATTRIBSERVICES
 70
     0
  0
APPID
  5
2BC
330
2D
100
AcDbSymbolTableRecord
100
AcDbRegAppTableRecord
  2
MCAD_NO_VIS
 70
     0
  0
APPID
  5
2BD
330
2D
100
AcDbSymbolTableRecord
100
AcDbRegAppTableRecord
  2
ACAD_TEMP_GRAPHIC
 70
     0
  0
APPID
  5
2C1
330
2D
100
AcDbSymbolTableRecord
100
AcDbRegAppTableRecord
  2
AD_DRAW
 70
     0
  0
APPID
  5
2DA
330
2D
100
AcDbSymbolTableRecord
100
AcDbRegAppTableRecord
  2
DESIGNERASSEMBLIES
 70
     0
  0
APPID
  5
2DF
330
2D
100
AcDbSymbolTableRecord
100
AcDbRegAppTableRecord
  2
ACADM_DIM_EDIT
 70
     0
  0
APPID
  5
2E0
330
2D
100
AcDbSymbolTableRecord
100
AcDbRegAppTableRecord
  2
AMDT_DM_ADJ
 70
     0
  0
APPID
  5
300
330
2D
100
AcDbSymbolTableRecord
100
AcDbRegAppTableRecord
  2
ACAD_DSTYLE_DIMARC_LENGTH_SYMBOL
 70
     0
  0
APPID
  5
301
330
2D
100
AcDbSymbolTableRecord
100
AcDbRegAppTableRecord
  2
ACAD_DSTYLE_DIM_LINETYPE
 70
     0
  0
APPID
  5
302
330
2D
100
AcDbSymbolTableRecord
100
AcDbRegAppTableRecord
  2
ACAD_DSTYLE_DIM_EXT1_LINETYPE
 70
     0
  0
APPID
  5
303
330
2D
100
AcDbSymbolTableRecord
100
AcDbRegAppTableRecord
  2
ACAD_DSTYLE_DIM_EXT2_LINETYPE
 70
     0
  0
APPID
  5
330
330
2D
100
AcDbSymbolTableRecord
100
AcDbRegAppTableRecord
  2
ACAD_MLEADERVER
 70
     0
  0
ENDTAB
  0
TABLE
  2
DIMSTYLE
  5
2E
330
0
100
AcDbSymbolTable
 70
     7
100
AcDbDimStyleTable
 71
     1
340
2F
  0
DIMSTYLE
105
2F
330
2E
100
AcDbSymbolTableRecord
100
AcDbDimStyleTableRecord
  2
STANDARD
 70
     0
279
     2
340
21
  0
DIMSTYLE
105
264
102
{ACAD_REACTORS
330
24B
102
}
330
2E
100
AcDbSymbolTableRecord
100
AcDbDimStyleTableRecord
  2
AM_ANSI
 70
     0
  4
mm
 41
0.12
 42
0.05
 43
0.5
 44
0.1
 47
0.1
 48
0.1
 78
     7
 79
     2
140
0.12
141
0.0
146
0.71
147
0.06
176
   256
177
   256
178
     2
274
     4
284
     7
340
21
371
    -1
372
    -1
1001
ACAD_DSTYLE_DIMARC_LENGTH_SYMBOL
1070
   379
1070
     1
1001
ACAD_DSTYLE_DIM_LINETYPE
1070
   380
1005
24
1001
ACAD_DSTYLE_DIM_EXT1_LINETYPE
1070
   381
1005
24
1001
ACAD_DSTYLE_DIM_EXT2_LINETYPE
1070
   382
1005
24
  0
DIMSTYLE
105
265
330
2E
100
AcDbSymbolTableRecord
100
AcDbDimStyleTableRecord
  2
AM_ANSI$3
 70
     0
  4
mm
 41
0.12
 42
0.05
 43
0.5
 44
0.1
 47
0.1
 48
0.1
 78
     7
 79
     2
140
0.12
141
0.0
146
0.71
147
0.06
176
   256
177
   256
178
     2
274
     4
284
     7
288
     1
289
     0
340
21
371
    -1
372
    -1
1001
ACAD_DSTYLE_DIMARC_LENGTH_SYMBOL
1070
   379
1070
     1
1001
ACAD_DSTYLE_DIM_LINETYPE
1070
   380
1005
24
1001
ACAD_DSTYLE_DIM_EXT1_LINETYPE
1070
   381
1005
24
1001
ACAD_DSTYLE_DIM_EXT2_LINETYPE
1070
   382
1005
24
  0
DIMSTYLE
105
266
330
2E
100
AcDbSymbolTableRecord
100
AcDbDimStyleTableRecord
  2
AM_ANSI$4
 70
     0
  4
mm
 41
0.12
 42
0.05
 43
0.5
 44
0.1
 47
0.1
 48
0.1
 78
     7
 79
     2
140
0.12
141
0.0
146
0.71
147
0.06
176
   256
177
   256
178
     2
274
     4
284
     7
288
     1
289
     0
340
21
371
    -1
372
    -1
1001
ACAD_DSTYLE_DIMARC_LENGTH_SYMBOL
1070
   379
1070
     1
1001
ACAD_DSTYLE_DIM_LINETYPE
1070
   380
1005
24
1001
ACAD_DSTYLE_DIM_EXT1_LINETYPE
1070
   381
1005
24
1001
ACAD_DSTYLE_DIM_EXT2_LINETYPE
1070
   382
1005
24
  0
DIMSTYLE
105
267
330
2E
100
AcDbSymbolTableRecord
100
AcDbDimStyleTableRecord
  2
AM_ANSI$7
 70
     0
  4
mm
 41
0.12
 42
0.05
 43
0.5
 44
0.1
 47
0.1
 48
0.1
 78
     7
 79
     2
140
0.12
141
0.0
146
0.71
147
0.06
176
   256
177
   256
178
     2
274
     4
284
     7
340
21
371
    -1
372
    -1
1001
ACAD_DSTYLE_DIMARC_LENGTH_SYMBOL
1070
   379
1070
     1
1001
ACAD_DSTYLE_DIM_LINETYPE
1070
   380
1005
24
1001
ACAD_DSTYLE_DIM_EXT1_LINETYPE
1070
   381
1005
24
1001
ACAD_DSTYLE_DIM_EXT2_LINETYPE
1070
   382
1005
24
  0
DIMSTYLE
105
268
330
2E
100
AcDbSymbolTableRecord
100
AcDbDimStyleTableRecord
  2
AM_ANSI$SF
 70
     0
  4
mm
 41
0.12
 42
0.05
 43
0.5
 44
0.1
 47
0.1
 48
0.1
 75
     1
 76
     1
 78
     7
 79
     2
140
0.12
141
0.0
146
0.71
147
0.06
176
   256
177
   256
178
     2
274
     4
284
     7
340
21
371
    -1
372
    -1
1001
ACAD_DSTYLE_DIMARC_LENGTH_SYMBOL
1070
   379
1070
     1
1001
ACAD_DSTYLE_DIM_LINETYPE
1070
   380
1005
24
1001
ACAD_DSTYLE_DIM_EXT1_LINETYPE
1070
   381
1005
24
1001
ACAD_DSTYLE_DIM_EXT2_LINETYPE
1070
   382
1005
24
  0
DIMSTYLE
105
269
330
2E
100
AcDbSymbolTableRecord
100
AcDbDimStyleTableRecord
  2
AM_ANSI$SH
 70
     0
  4
mm
 41
0.12
 42
0.05
 43
0.5
 44
0.1
 47
0.1
 48
0.1
 75
     1
 76
     1
 78
     7
 79
     2
140
0.12
141
0.0
146
0.71
147
0.06
173
     1
176
   256
177
   256
178
     2
274
     4
284
     7
340
21
343
26A
371
    -1
372
    -1
1001
ACAD_DSTYLE_DIMARC_LENGTH_SYMBOL
1070
   379
1070
     1
1001
ACAD_DSTYLE_DIM_LINETYPE
1070
   380
1005
24
1001
ACAD_DSTYLE_DIM_EXT1_LINETYPE
1070
   381
1005
24
1001
ACAD_DSTYLE_DIM_EXT2_LINETYPE
1070
   382
1005
24
  0
ENDTAB
  0
TABLE
  2
BLOCK_RECORD
  5
1
330
0
100
AcDbSymbolTable
 70
     3
  0
BLOCK_RECORD
  5
2
102
{ACAD_XDICTIONARY
360
3
102
}
330
1
100
AcDbSymbolTableRecord
100
AcDbBlockTableRecord
  2
*Model_Space
340
7
  0
BLOCK_RECORD
  5
A
330
1
100
AcDbSymbolTableRecord
100
AcDbBlockTableRecord
  2
*Paper_Space
340
D
  0
BLOCK_RECORD
  5
26A
330
1
100
AcDbSymbolTableRecord
100
AcDbBlockTableRecord
  2
GENAXEH
340
0
  0
BLOCK_RECORD
  5
6F
330
1
100
AcDbSymbolTableRecord
100
AcDbBlockTableRecord
  2
Einfügepunkt
340
0
102
{BLKREFS
331
6E
102
}
  0
ENDTAB
  0
ENDSEC
  0
SECTION
  2
BLOCKS
  0
BLOCK
  5
5
330
2
100
AcDbEntity
  8
0
100
AcDbBlockBegin
  2
*Model_Space
 70
     0
 10
0.0
 20
0.0
 30
0.0
  3
*Model_Space
  1

  0
ENDBLK
  5
6
330
2
100
AcDbEntity
  8
0
100
AcDbBlockEnd
  0
BLOCK
  5
B
330
A
100
AcDbEntity
 67
     1
  8
0
100
AcDbBlockBegin
  2
*Paper_Space
 70
     0
 10
0.0
 20
0.0
 30
0.0
  3
*Paper_Space
  1

  0
ENDBLK
  5
C
330
A
100
AcDbEntity
 67
     1
  8
0
100
AcDbBlockEnd
  0
BLOCK
  5
26B
330
26A
100
AcDbEntity
  8
0
100
AcDbBlockBegin
  2
GENAXEH
 70
     0
 10
0.0
 20
0.0
 30
0.0
  3
GENAXEH
  1

  0
LINE
  5
26C
330
26A
100
AcDbEntity
  8
0
100
AcDbLine
 10
-1.0
 20
0.0
 30
0.0
 11
1.0
 21
0.0
 31
0.0
  0
ENDBLK
  5
26D
330
26A
100
AcDbEntity
  8
0
100
AcDbBlockEnd
  0
BLOCK
  5
70
330
6F
100
AcDbEntity
  8
0
100
AcDbBlockBegin
  2
Einfügepunkt
 70
     0
 10
0.0
 20
0.0
 30
0.0
  3
Einfügepunkt
  1

  0
LINE
  5
71
330
6F
100
AcDbEntity
  8
GEB-BEZUG
100
AcDbLine
 10
-0.7071067811865817
 20
-0.7071067811865106
 30
0.0
 11
0.7071067811864751
 21
0.7071067811865817
 31
0.0
  0
LINE
  5
73
330
6F
100
AcDbEntity
  8
GEB-BEZUG
100
AcDbLine
 10
-0.7071067811865106
 20
0.7071067811865817
 30
0.0
 11
0.7071067811865462
 21
-0.7071067811865106
 31
0.0
  0
ENDBLK
  5
74
330
6F
100
AcDbEntity
  8
0
100
AcDbBlockEnd
  0
ENDSEC
  0
SECTION
  2
ENTITIES
  0
INSERT
  5
6E
330
2
100
AcDbEntity
  8
0
 48
25.0
100
AcDbBlockReference
  2
Einfügepunkt
 10
0.0
 20
0.0
 30
0.0
  0
LINE
  5
75
330
2
100
AcDbEntity
  8
Arbeitspunkt(DIN)
 48
25.0
100
AcDbLine
 10
0.0000000000001137
 20
0.0
 30
0.0
 11
0.0000000000001137
 21
-2.5
 31
0.0
  0
LINE
  5
77
330
2
100
AcDbEntity
  8
Arbeitspunkt(DIN)
 48
25.0
100
AcDbLine
 10
0.0000000000001137
 20
0.0
 30
0.0
 11
0.0000000000001137
 21
2.5
 31
0.0
  0
LINE
  5
78
330
2
100
AcDbEntity
  8
Arbeitspunkt(DIN)
 48
25.0
100
AcDbLine
 10
0.0000000000001137
 20
0.0
 30
0.0
 11
-2.499999999999886
 21
0.0
 31
0.0
  0
LINE
  5
79
330
2
100
AcDbEntity
  8
Arbeitspunkt(DIN)
 48
25.0
100
AcDbLine
 10
0.0000000000001137
 20
0.0
 30
0.0
 11
2.500000000000113
 21
0.0
 31
0.0
  0
LINE
  5
7A
330
2
100
AcDbEntity
  8
GEB-SYMMETRIE
 48
25.0
100
AcDbLine
 10
-0.0000000000125056
 20
193.3920286017921
 30
0.0
 11
-0.0000000000125056
 21
241.7920286017921
 31
0.0
  0
LINE
  5
7E
330
2
100
AcDbEntity
  8
GEB-SYMMETRIE
 48
25.0
100
AcDbLine
 10
-0.0000000000125056
 20
193.3920286017921
 30
0.0
 11
-0.0000000000125056
 21
144.9920286017921
 31
0.0
  0
LINE
  5
7F
330
2
100
AcDbEntity
  8
GEB-SYMMETRIE
 48
25.0
100
AcDbLine
 10
-0.0000000000125056
 20
193.3920286017921
 30
0.0
 11
48.39999999998759
 21
193.3920286017921
 31
0.0
  0
LINE
  5
80
330
2
100
AcDbEntity
  8
GEB-SYMMETRIE
 48
25.0
100
AcDbLine
 10
-0.0000000000125056
 20
193.3920286017921
 30
0.0
 11
-48.4000000000126
 21
193.3920286017921
 31
0.0
  0
POLYLINE
  5
81
330
2
100
AcDbEntity
  8
GEB-KONTUR-A
 48
25.0
100
AcDb2dPolyline
 66
     1
 10
0.0
 20
0.0
 30
0.0
 70
   128
  0
VERTEX
  5
83
330
81
100
AcDbEntity
  8
GEB-KONTUR-A
 48
25.0
100
AcDbVertex
100
AcDb2dVertex
 10
46.66819572446968
 20
171.9339373008461
 30
0.0
  0
VERTEX
  5
84
330
81
100
AcDbEntity
  8
GEB-KONTUR-A
 48
25.0
100
AcDbVertex
100
AcDb2dVertex
 10
47.58328437803448
 20
172.7929173629272
 30
0.0
  0
VERTEX
  5
85
330
81
100
AcDbEntity
  8
GEB-KONTUR-A
 48
25.0
100
AcDbVertex
100
AcDb2dVertex
 10
48.45519542692398
 20
173.6796873602362
 30
0.0
  0
VERTEX
  5
86
330
81
100
AcDbEntity
  8
GEB-KONTUR-A
 48
25.0
100
AcDbVertex
100
AcDb2dVertex
 10
49.28150653837452
 20
174.5939296984971
 30
0.0
  0
VERTEX
  5
87
330
81
100
AcDbEntity
  8
GEB-KONTUR-A
 48
25.0
100
AcDbVertex
100
AcDb2dVertex
 10
50.05978107450778
 20
175.5353286514289
 30
0.0
  0
VERTEX
  5
88
330
81
100
AcDbEntity
  8
GEB-KONTUR-A
 48
25.0
100
AcDbVertex
100
AcDb2dVertex
 10
50.7875919341883
 20
176.5035688492316
 30
0.0
  0
VERTEX
  5
89
330
81
100
AcDbEntity
  8
GEB-KONTUR-A
 48
25.0
100
AcDbVertex
100
AcDb2dVertex
 10
51.46251201628093
 20
177.4983322612934
 30
0.0
  0
VERTEX
  5
8A
330
81
100
AcDbEntity
  8
GEB-KONTUR-A
 48
25.0
100
AcDbVertex
100
AcDb2dVertex
 10
52.08209991453577
 20
178.5193035976692
 30
0.0
  0
VERTEX
  5
8B
330
81
100
AcDbEntity
  8
GEB-KONTUR-A
 48
25.0
100
AcDbVertex
100
AcDb2dVertex
 10
52.64393806456053
 20
179.5661664561764
 30
0.0
  0
VERTEX
  5
8C
330
81
100
AcDbEntity
  8
GEB-KONTUR-A
 48
25.0
100
AcDbVertex
100
AcDb2dVertex
 10
53.14558506010541
 20
180.6386039184408
 30
0.0
  0
VERTEX
  5
8D
330
81
100
AcDbEntity
  8
GEB-KONTUR-A
 48
25.0
100
AcDbVertex
100
AcDb2dVertex
 10
53.58461856840654
 20
181.7363003964944
 30
0.0
  0
VERTEX
  5
8E
330
81
100
AcDbEntity
  8
GEB-KONTUR-A
 48
25.0
100
AcDbVertex
100
AcDb2dVertex
 10
53.95740985869008
 20
182.8583279946732
 30
0.0
  0
VERTEX
  5
8F
330
81
100
AcDbEntity
  8
GEB-KONTUR-A
 48
25.0
100
AcDbVertex
100
AcDb2dVertex
 10
54.25925731657628
 20
184.0007178382388
 30
0.0
  0
VERTEX
  5
90
330
81
100
AcDbEntity
  8
GEB-KONTUR-A
 48
25.0
100
AcDbVertex
100
AcDb2dVertex
 10
54.48911190031697
 20
185.1589774314927
 30
0.0
  0
VERTEX
  5
91
330
81
100
AcDbEntity
  8
GEB-KONTUR-A
 48
25.0
100
AcDbVertex
100
AcDb2dVertex
 10
54.64610099791253
 20
186.3286460915626
 30
0.0
  0
VERTEX
  5
92
330
81
100
AcDbEntity
  8
GEB-KONTUR-A
 48
25.0
100
AcDbVertex
100
AcDb2dVertex
 10
54.72935199736366
 20
187.5052613953889
 30
0.0
  0
VERTEX
  5
93
330
81
100
AcDbEntity
  8
GEB-KONTUR-A
 48
25.0
100
AcDbVertex
100
AcDb2dVertex
 10
54.73798751829907
 20
188.6843617713793
 30
0.0
  0
VERTEX
  5
94
330
81
100
AcDbEntity
  8
GEB-KONTUR-A
 48
25.0
100
AcDbVertex
100
AcDb2dVertex
 10
54.67113494871933
 20
189.8614855734356
 30
0.0
  0
VERTEX
  5
95
330
81
100
AcDbEntity
  8
GEB-KONTUR-A
 48
25.0
100
AcDbVertex
100
AcDb2dVertex
 10
54.52792644499663
 20
191.0321715971453
 30
0.0
  0
VERTEX
  5
96
330
81
100
AcDbEntity
  8
GEB-KONTUR-A
 48
25.0
100
AcDbVertex
100
AcDb2dVertex
 10
54.30828094481398
 20
192.1914067821093
 30
0.0
  0
VERTEX
  5
97
330
81
100
AcDbEntity
  8
GEB-KONTUR-A
 48
25.0
100
AcDbVertex
100
AcDb2dVertex
 10
54.01600360869384
 20
193.333788415251
 30
0.0
  0
VERTEX
  5
98
330
81
100
AcDbEntity
  8
GEB-KONTUR-A
 48
25.0
100
AcDbVertex
100
AcDb2dVertex
 10
53.65419387816451
 20
194.457198186162
 30
0.0
  0
VERTEX
  5
99
330
81
100
AcDbEntity
  8
GEB-KONTUR-A
 48
25.0
100
AcDbVertex
100
AcDb2dVertex
 10
53.22573661803289
 20
195.5597823334833
 30
0.0
  0
VERTEX
  5
9A
330
81
100
AcDbEntity
  8
GEB-KONTUR-A
 48
25.0
100
AcDbVertex
100
AcDb2dVertex
 10
52.73353576659292
 20
196.6396839773097
 30
0.0
  0
VERTEX
  5
9B
330
81
100
AcDbEntity
  8
GEB-KONTUR-A
 48
25.0
100
AcDbVertex
100
AcDb2dVertex
 10
52.18047618865148
 20
197.6950502503515
 30
0.0
  0
VERTEX
  5
9C
330
81
100
AcDbEntity
  8
GEB-KONTUR-A
 48
25.0
100
AcDbVertex
100
AcDb2dVertex
 10
51.56945705413034
 20
198.7240245307998
 30
0.0
  0
VERTEX
  5
9D
330
81
100
AcDbEntity
  8
GEB-KONTUR-A
 48
25.0
100
AcDbVertex
100
AcDb2dVertex
 10
50.90336322783684
 20
199.7247522430803
 30
0.0
  0
VERTEX
  5
9E
330
81
100
AcDbEntity
  8
GEB-KONTUR-A
 48
25.0
100
AcDbVertex
100
AcDb2dVertex
 10
50.18533229827176
 20
200.6965713274214
 30
0.0
  0
VERTEX
  5
9F
330
81
100
AcDbEntity
  8
GEB-KONTUR-A
 48
25.0
100
AcDbVertex
100
AcDb2dVertex
 10
49.41777706145569
 20
201.6406477221063
 30
0.0
  0
VERTEX
  5
A0
330
81
100
AcDbEntity
  8
GEB-KONTUR-A
 48
25.0
100
AcDbVertex
100
AcDb2dVertex
 10
48.60226154326756
 20
202.557332074733
 30
0.0
  0
VERTEX
  5
A1
330
81
100
AcDbEntity
  8
GEB-KONTUR-A
 48
25.0
100
AcDbVertex
100
AcDb2dVertex
 10
47.74034500121479
 20
203.4469701904062
 30
0.0
  0
VERTEX
  5
A2
330
81
100
AcDbEntity
  8
GEB-KONTUR-A
 48
25.0
100
AcDbVertex
100
AcDb2dVertex
 10
46.83358192443279
 20
204.3099038309532
 30
0.0
  0
VERTEX
  5
A3
330
81
100
AcDbEntity
  8
GEB-KONTUR-A
 48
25.0
100
AcDbVertex
100
AcDb2dVertex
 10
45.88353157042933
 20
205.1464768842911
 30
0.0
  0
VERTEX
  5
A4
330
81
100
AcDbEntity
  8
GEB-KONTUR-A
 48
25.0
100
AcDbVertex
100
AcDb2dVertex
 10
44.8917531967113
 20
205.9570311122477
 30
0.0
  0
VERTEX
  5
A5
330
81
100
AcDbEntity
  8
GEB-KONTUR-A
 48
25.0
100
AcDbVertex
100
AcDb2dVertex
 10
43.85980129241488
 20
206.741911723881
 30
0.0
  0
VERTEX
  5
A6
330
81
100
AcDbEntity
  8
GEB-KONTUR-A
 48
25.0
100
AcDbVertex
100
AcDb2dVertex
 10
42.78923988341853
 20
207.5014616731112
 30
0.0
  0
VERTEX
  5
A7
330
81
100
AcDbEntity
  8
GEB-KONTUR-A
 48
25.0
100
AcDbVertex
100
AcDb2dVertex
 10
41.68143749236662
 20
208.2360655899125
 30
0.0
  0
VERTEX
  5
A8
330
81
100
AcDbEntity
  8
GEB-KONTUR-A
 48
25.0
100
AcDbVertex
100
AcDb2dVertex
 10
40.53696632384901
 20
208.9460878424183
 30
0.0
  0
VERTEX
  5
A9
330
81
100
AcDbEntity
  8
GEB-KONTUR-A
 48
25.0
100
AcDbVertex
100
AcDb2dVertex
 10
39.35683012008338
 20
209.6315356556607
 30
0.0
  0
VERTEX
  5
AA
330
81
100
AcDbEntity
  8
GEB-KONTUR-A
 48
25.0
100
AcDbVertex
100
AcDb2dVertex
 10
38.14212322234812
 20
210.2923861558634
 30
0.0
  0
VERTEX
  5
AB
330
81
100
AcDbEntity
  8
GEB-KONTUR-A
 48
25.0
100
AcDbVertex
100
AcDb2dVertex
 10
36.89393758773531
 20
210.9286165982969
 30
0.0
  0
VERTEX
  5
AC
330
81
100
AcDbEntity
  8
GEB-KONTUR-A
 48
25.0
100
AcDbVertex
100
AcDb2dVertex
 10
35.61336278915167
 20
211.5402038510893
 30
0.0
  0
VERTEX
  5
AD
330
81
100
AcDbEntity
  8
GEB-KONTUR-A
 48
25.0
100
AcDbVertex
100
AcDb2dVertex
 10
34.30148601531767
 20
212.1271262970802
 30
0.0
  0
VERTEX
  5
AE
330
81
100
AcDbEntity
  8
GEB-KONTUR-A
 48
25.0
100
AcDbVertex
100
AcDb2dVertex
 10
32.95940160751161
 20
212.6893573571665
 30
0.0
  0
VERTEX
  5
AF
330
81
100
AcDbEntity
  8
GEB-KONTUR-A
 48
25.0
100
AcDbVertex
100
AcDb2dVertex
 10
31.58819437026807
 20
213.226877669326
 30
0.0
  0
VERTEX
  5
B0
330
81
100
AcDbEntity
  8
GEB-KONTUR-A
 48
25.0
100
AcDbVertex
100
AcDb2dVertex
 10
30.18895626067979
 20
213.7396631676893
 30
0.0
  0
VERTEX
  5
B1
330
81
100
AcDbEntity
  8
GEB-KONTUR-A
 48
25.0
100
AcDbVertex
100
AcDb2dVertex
 10
28.76277923583871
 20
214.2276896573385
 30
0.0
  0
VERTEX
  5
B2
330
81
100
AcDbEntity
  8
GEB-KONTUR-A
 48
25.0
100
AcDbVertex
100
AcDb2dVertex
 10
27.31077194213765
 20
214.6907565056253
 30
0.0
  0
VERTEX
  5
B3
330
81
100
AcDbEntity
  8
GEB-KONTUR-A
 48
25.0
100
AcDbVertex
100
AcDb2dVertex
 10
25.8342242240899
 20
215.1285715860581
 30
0.0
  0
VERTEX
  5
B4
330
81
100
AcDbEntity
  8
GEB-KONTUR-A
 48
25.0
100
AcDbVertex
100
AcDb2dVertex
 10
24.33450222015324
 20
215.5409699786639
 30
0.0
  0
VERTEX
  5
B5
330
81
100
AcDbEntity
  8
GEB-KONTUR-A
 48
25.0
100
AcDbVertex
100
AcDb2dVertex
 10
22.81296730041459
 20
215.9277844438074
 30
0.0
  0
VERTEX
  5
B6
330
81
100
AcDbEntity
  8
GEB-KONTUR-A
 48
25.0
100
AcDbVertex
100
AcDb2dVertex
 10
21.27098083496083
 20
216.2888501260392
 30
0.0
  0
VERTEX
  5
B7
330
81
100
AcDbEntity
  8
GEB-KONTUR-A
 48
25.0
100
AcDbVertex
100
AcDb2dVertex
 10
19.70990657806396
 20
216.623999785724
 30
0.0
  0
VERTEX
  5
B8
330
81
100
AcDbEntity
  8
GEB-KONTUR-A
 48
25.0
100
AcDbVertex
100
AcDb2dVertex
 10
18.13110828399669
 20
216.9330683738408
 30
0.0
  0
VERTEX
  5
B9
330
81
100
AcDbEntity
  8
GEB-KONTUR-A
 48
25.0
100
AcDbVertex
100
AcDb2dVertex
 10
16.53594851493858
 20
217.2158911639881
 30
0.0
  0
VERTEX
  5
BA
330
81
100
AcDbEntity
  8
GEB-KONTUR-A
 48
25.0
100
AcDbVertex
100
AcDb2dVertex
 10
14.9257886409764
 20
217.4723031716687
 30
0.0
  0
VERTEX
  5
BB
330
81
100
AcDbEntity
  8
GEB-KONTUR-A
 48
25.0
100
AcDbVertex
100
AcDb2dVertex
 10
13.30199241638229
 20
217.7021348375855
 30
0.0
  0
VERTEX
  5
BC
330
81
100
AcDbEntity
  8
GEB-KONTUR-A
 48
25.0
100
AcDbVertex
100
AcDb2dVertex
 10
11.66594386100826
 20
217.9052166541683
 30
0.0
  0
VERTEX
  5
BD
330
81
100
AcDbEntity
  8
GEB-KONTUR-A
 48
25.0
100
AcDbVertex
100
AcDb2dVertex
 10
10.01920104026862
 20
218.0813791890455
 30
0.0
  0
VERTEX
  5
BE
330
81
100
AcDbEntity
  8
GEB-KONTUR-A
 48
25.0
100
AcDbVertex
100
AcDb2dVertex
 10
8.363304734230723
 20
218.2305678800357
 30
0.0
  0
VERTEX
  5
BF
330
81
100
AcDbEntity
  8
GEB-KONTUR-A
 48
25.0
100
AcDbVertex
100
AcDb2dVertex
 10
6.699782013894036
 20
218.3527453123247
 30
0.0
  0
VERTEX
  5
C0
330
81
100
AcDbEntity
  8
GEB-KONTUR-A
 48
25.0
100
AcDbVertex
100
AcDb2dVertex
 10
5.03015637397857
 20
218.4478740065737
 30
0.0
  0
VERTEX
  5
C1
330
81
100
AcDbEntity
  8
GEB-KONTUR-A
 48
25.0
100
AcDbVertex
100
AcDb2dVertex
 10
3.355954885483697
 20
218.5159091373151
 30
0.0
  0
VERTEX
  5
C2
330
81
100
AcDbEntity
  8
GEB-KONTUR-A
 48
25.0
100
AcDbVertex
100
AcDb2dVertex
 10
1.678702235222772
 20
218.556815738444
 30
0.0
  0
VERTEX
  5
C3
330
81
100
AcDbEntity
  8
GEB-KONTUR-A
 48
25.0
100
AcDbVertex
100
AcDb2dVertex
 10
-0.0000759997819841
 20
218.5705538173884
 30
0.0
  0
VERTEX
  5
C4
330
81
100
AcDbEntity
  8
GEB-KONTUR-A
 48
25.0
100
AcDbVertex
100
AcDb2dVertex
 10
-1.678854376076742
 20
218.5570835106239
 30
0.0
  0
VERTEX
  5
C5
330
81
100
AcDbEntity
  8
GEB-KONTUR-A
 48
25.0
100
AcDbVertex
100
AcDb2dVertex
 10
-3.356107175349279
 20
218.5163625059163
 30
0.0
  0
VERTEX
  5
C6
330
81
100
AcDbEntity
  8
GEB-KONTUR-A
 48
25.0
100
AcDbVertex
100
AcDb2dVertex
 10
-5.030307769774481
 20
218.4483559016846
 30
0.0
  0
VERTEX
  5
C7
330
81
100
AcDbEntity
  8
GEB-KONTUR-A
 48
25.0
100
AcDbVertex
100
AcDb2dVertex
 10
-6.69984757900147
 20
218.3530827810134
 30
0.0
  0
VERTEX
  5
C8
330
81
100
AcDbEntity
  8
GEB-KONTUR-A
 48
25.0
100
AcDbVertex
100
AcDb2dVertex
 10
-8.363202214240345
 20
218.2306631861428
 30
0.0
  0
VERTEX
  5
C9
330
81
100
AcDbEntity
  8
GEB-KONTUR-A
 48
25.0
100
AcDbVertex
100
AcDb2dVertex
 10
-10.01890897750786
 20
218.0812215213455
 30
0.0
  0
VERTEX
  5
CA
330
81
100
AcDbEntity
  8
GEB-KONTUR-A
 48
25.0
100
AcDbVertex
100
AcDb2dVertex
 10
-11.66550278663578
 20
217.9048819973226
 30
0.0
  0
VERTEX
  5
CB
330
81
100
AcDbEntity
  8
GEB-KONTUR-A
 48
25.0
100
AcDbVertex
100
AcDb2dVertex
 10
-13.30152153968765
 20
217.7017714670567
 30
0.0
  0
VERTEX
  5
CC
330
81
100
AcDbEntity
  8
GEB-KONTUR-A
 48
25.0
100
AcDbVertex
100
AcDb2dVertex
 10
-14.92550253868057
 20
217.4720116925391
 30
0.0
  0
VERTEX
  5
CD
330
81
100
AcDbEntity
  8
GEB-KONTUR-A
 48
25.0
100
AcDbVertex
100
AcDb2dVertex
 10
-16.5359818935392
 20
217.2157271425665
 30
0.0
  0
VERTEX
  5
CE
330
81
100
AcDbEntity
  8
GEB-KONTUR-A
 48
25.0
100
AcDbVertex
100
AcDb2dVertex
 10
-18.13149571418751
 20
216.9330444765496
 30
0.0
  0
VERTEX
  5
CF
330
81
100
AcDbEntity
  8
GEB-KONTUR-A
 48
25.0
100
AcDbVertex
100
AcDb2dVertex
 10
-19.71058249473571
 20
216.6240879697136
 30
0.0
  0
VERTEX
  5
D0
330
81
100
AcDbEntity
  8
GEB-KONTUR-A
 48
25.0
100
AcDbVertex
100
AcDb2dVertex
 10
-21.27177953720104
 20
216.2889819618072
 30
0.0
  0
VERTEX
  5
D1
330
81
100
AcDbEntity
  8
GEB-KONTUR-A
 48
25.0
100
AcDbVertex
100
AcDb2dVertex
 10
-22.81361103057907
 20
215.9279189367765
 30
0.0
  0
VERTEX
  5
D2
330
81
100
AcDbEntity
  8
GEB-KONTUR-A
 48
25.0
100
AcDbVertex
100
AcDb2dVertex
 10
-24.33474779129085
 20
215.5411510712079
 30
0.0
  0
VERTEX
  5
D3
330
81
100
AcDbEntity
  8
GEB-KONTUR-A
 48
25.0
100
AcDbVertex
100
AcDb2dVertex
 10
-25.83397865295478
 20
215.1288247677867
 30
0.0
  0
VERTEX
  5
D4
330
81
100
AcDbEntity
  8
GEB-KONTUR-A
 48
25.0
100
AcDbVertex
100
AcDb2dVertex
 10
-27.31009483337505
 20
214.6910871357615
 30
0.0
  0
VERTEX
  5
D5
330
81
100
AcDbEntity
  8
GEB-KONTUR-A
 48
25.0
100
AcDbVertex
100
AcDb2dVertex
 10
-28.76189470291251
 20
214.2280829647191
 30
0.0
  0
VERTEX
  5
D6
330
81
100
AcDbEntity
  8
GEB-KONTUR-A
 48
25.0
100
AcDbVertex
100
AcDb2dVertex
 10
-30.18816709518569
 20
213.7399522758749
 30
0.0
  0
VERTEX
  5
D7
330
81
100
AcDbEntity
  8
GEB-KONTUR-A
 48
25.0
100
AcDbVertex
100
AcDb2dVertex
 10
-31.58770799637011
 20
213.2268397297679
 30
0.0
  0
VERTEX
  5
D8
330
81
100
AcDbEntity
  8
GEB-KONTUR-A
 48
25.0
100
AcDbVertex
100
AcDb2dVertex
 10
-32.9593086242694
 20
212.6888925001706
 30
0.0
  0
VERTEX
  5
D9
330
81
100
AcDbEntity
  8
GEB-KONTUR-A
 48
25.0
100
AcDbVertex
100
AcDb2dVertex
 10
-34.30176019668795
 20
212.1262518003916
 30
0.0
  0
VERTEX
  5
DA
330
81
100
AcDbEntity
  8
GEB-KONTUR-A
 48
25.0
100
AcDbVertex
100
AcDb2dVertex
 10
-35.61386108398676
 20
211.5390636121106
 30
0.0
  0
VERTEX
  5
DB
330
81
100
AcDbEntity
  8
GEB-KONTUR-A
 48
25.0
100
AcDbVertex
100
AcDb2dVertex
 10
-36.89444780350005
 20
210.9274933936333
 30
0.0
  0
VERTEX
  5
DC
330
81
100
AcDbEntity
  8
GEB-KONTUR-A
 48
25.0
100
AcDbVertex
100
AcDb2dVertex
 10
-38.14274072647391
 20
210.2917504467474
 30
0.0
  0
VERTEX
  5
DD
330
81
100
AcDbEntity
  8
GEB-KONTUR-A
 48
25.0
100
AcDbVertex
100
AcDb2dVertex
 10
-39.35766935348841
 20
209.6316709052739
 30
0.0
  0
VERTEX
  5
DE
330
81
100
AcDbEntity
  8
GEB-KONTUR-A
 48
25.0
100
AcDbVertex
100
AcDb2dVertex
 10
-40.53807735443467
 20
208.9470228897537
 30
0.0
  0
VERTEX
  5
DF
330
81
100
AcDbEntity
  8
GEB-KONTUR-A
 48
25.0
100
AcDbVertex
100
AcDb2dVertex
 10
-41.68282032013337
 20
208.2375767758657
 30
0.0
  0
VERTEX
  5
E0
330
81
100
AcDbEntity
  8
GEB-KONTUR-A
 48
25.0
100
AcDbVertex
100
AcDb2dVertex
 10
-42.79073238373235
 20
207.503103326432
 30
0.0
  0
VERTEX
  5
E1
330
81
100
AcDbEntity
  8
GEB-KONTUR-A
 48
25.0
100
AcDbVertex
100
AcDb2dVertex
 10
-43.86066913605191
 20
206.7433717250383
 30
0.0
  0
VERTEX
  5
E2
330
81
100
AcDbEntity
  8
GEB-KONTUR-A
 48
25.0
100
AcDbVertex
100
AcDb2dVertex
 10
-44.89146709442638
 20
205.9581536685041
 30
0.0
  0
VERTEX
  5
E3
330
81
100
AcDbEntity
  8
GEB-KONTUR-A
 48
25.0
100
AcDbVertex
100
AcDb2dVertex
 10
-45.88197708130405
 20
205.1472185985113
 30
0.0
  0
VERTEX
  5
E4
330
81
100
AcDbEntity
  8
GEB-KONTUR-A
 48
25.0
100
AcDbVertex
100
AcDb2dVertex
 10
-46.83104515076252
 20
204.310336890738
 30
0.0
  0
VERTEX
  5
E5
330
81
100
AcDbEntity
  8
GEB-KONTUR-A
 48
25.0
100
AcDbVertex
100
AcDb2dVertex
 10
-47.73751735687847
 20
203.4472779868661
 30
0.0
  0
VERTEX
  5
E6
330
81
100
AcDbEntity
  8
GEB-KONTUR-A
 48
25.0
100
AcDbVertex
100
AcDb2dVertex
 10
-48.60041141510646
 20
202.5569395775923
 30
0.0
  0
VERTEX
  5
E7
330
81
100
AcDbEntity
  8
GEB-KONTUR-A
 48
25.0
100
AcDbVertex
100
AcDb2dVertex
 10
-49.41810607910827
 20
201.6378567483749
 30
0.0
  0
VERTEX
  5
E8
330
81
100
AcDbEntity
  8
GEB-KONTUR-A
 48
25.0
100
AcDbVertex
100
AcDb2dVertex
 10
-50.18798828125705
 20
200.6907027504172
 30
0.0
  0
VERTEX
  5
E9
330
81
100
AcDbEntity
  8
GEB-KONTUR-A
 48
25.0
100
AcDbVertex
100
AcDb2dVertex
 10
-50.90740680695319
 20
199.7162104479616
 30
0.0
  0
VERTEX
  5
EA
330
81
100
AcDbEntity
  8
GEB-KONTUR-A
 48
25.0
100
AcDbVertex
100
AcDb2dVertex
 10
-51.57372951508353
 20
198.7151098540659
 30
0.0
  0
VERTEX
  5
EB
330
81
100
AcDbEntity
  8
GEB-KONTUR-A
 48
25.0
100
AcDbVertex
100
AcDb2dVertex
 10
-52.18430519104822
 20
197.6881315778344
 30
0.0
  0
VERTEX
  5
EC
330
81
100
AcDbEntity
  8
GEB-KONTUR-A
 48
25.0
100
AcDbVertex
100
AcDb2dVertex
 10
-52.73649692536264
 20
196.6360062283716
 30
0.0
  0
VERTEX
  5
ED
330
81
100
AcDbEntity
  8
GEB-KONTUR-A
 48
25.0
100
AcDbVertex
100
AcDb2dVertex
 10
-53.22765827179864
 20
195.5594655270197
 30
0.0
  0
VERTEX
  5
EE
330
81
100
AcDbEntity
  8
GEB-KONTUR-A
 48
25.0
100
AcDbVertex
100
AcDb2dVertex
 10
-53.65515708924272
 20
194.4592395666914
 30
0.0
  0
VERTEX
  5
EF
330
81
100
AcDbEntity
  8
GEB-KONTUR-A
 48
25.0
100
AcDbVertex
100
AcDb2dVertex
 10
-54.01633739472413
 20
193.3360592545148
 30
0.0
  0
VERTEX
  5
F0
330
81
100
AcDbEntity
  8
GEB-KONTUR-A
 48
25.0
100
AcDbVertex
100
AcDb2dVertex
 10
-54.30754184723923
 20
192.1917056743157
 30
0.0
  0
VERTEX
  5
F1
330
81
100
AcDbEntity
  8
GEB-KONTUR-A
 48
25.0
100
AcDbVertex
100
AcDb2dVertex
 10
-54.52473640442963
 20
191.0315540270517
 30
0.0
  0
VERTEX
  5
F2
330
81
100
AcDbEntity
  8
GEB-KONTUR-A
 48
25.0
100
AcDbVertex
100
AcDb2dVertex
 10
-54.66762542725724
 20
189.8603078802698
 30
0.0
  0
VERTEX
  5
F3
330
81
100
AcDbEntity
  8
GEB-KONTUR-A
 48
25.0
100
AcDbVertex
100
AcDb2dVertex
 10
-54.73606109620289
 20
188.6825811106817
 30
0.0
  0
VERTEX
  5
F4
330
81
100
AcDbEntity
  8
GEB-KONTUR-A
 48
25.0
100
AcDbVertex
100
AcDb2dVertex
 10
-54.72990989686241
 20
187.5029882602024
 30
0.0
  0
VERTEX
  5
F5
330
81
100
AcDbEntity
  8
GEB-KONTUR-A
 48
25.0
100
AcDbVertex
100
AcDb2dVertex
 10
-54.64902877808845
 20
186.3261425403408
 30
0.0
  0
VERTEX
  5
F6
330
81
100
AcDbEntity
  8
GEB-KONTUR-A
 48
25.0
100
AcDbVertex
100
AcDb2dVertex
 10
-54.49328422547648
 20
185.1566578278085
 30
0.0
  0
VERTEX
  5
F7
330
81
100
AcDbEntity
  8
GEB-KONTUR-A
 48
25.0
100
AcDbVertex
100
AcDb2dVertex
 10
-54.2625284195077
 20
183.9991484410034
 30
0.0
  0
VERTEX
  5
F8
330
81
100
AcDbEntity
  8
GEB-KONTUR-A
 48
25.0
100
AcDbVertex
100
AcDb2dVertex
 10
-53.95821094514293
 20
182.8586900148726
 30
0.0
  0
VERTEX
  5
F9
330
81
100
AcDbEntity
  8
GEB-KONTUR-A
 48
25.0
100
AcDbVertex
100
AcDb2dVertex
 10
-53.58477592469649
 20
181.7388969385883
 30
0.0
  0
VERTEX
  5
FA
330
81
100
AcDbEntity
  8
GEB-KONTUR-A
 48
25.0
100
AcDbVertex
100
AcDb2dVertex
 10
-53.14514636994829
 20
180.6411177243336
 30
0.0
  0
VERTEX
  5
FB
330
81
100
AcDbEntity
  8
GEB-KONTUR-A
 48
25.0
100
AcDbVertex
100
AcDb2dVertex
 10
-52.64218807221926
 20
179.5666685766708
 30
0.0
  0
VERTEX
  5
FC
330
81
100
AcDbEntity
  8
GEB-KONTUR-A
 48
25.0
100
AcDbVertex
100
AcDb2dVertex
 10
-52.07877635957311
 20
178.5168633958317
 30
0.0
  0
VERTEX
  5
FD
330
81
100
AcDbEntity
  8
GEB-KONTUR-A
 48
25.0
100
AcDbVertex
100
AcDb2dVertex
 10
-51.45777702333089
 20
177.4930197167843
 30
0.0
  0
VERTEX
  5
FE
330
81
100
AcDbEntity
  8
GEB-KONTUR-A
 48
25.0
100
AcDbVertex
100
AcDb2dVertex
 10
-50.78205108644159
 20
176.4964513014474
 30
0.0
  0
VERTEX
  5
FF
330
81
100
AcDbEntity
  8
GEB-KONTUR-A
 48
25.0
100
AcDbVertex
100
AcDb2dVertex
 10
-50.05447864534085
 20
175.5284744926962
 30
0.0
  0
VERTEX
  5
100
330
81
100
AcDbEntity
  8
GEB-KONTUR-A
 48
25.0
100
AcDbVertex
100
AcDb2dVertex
 10
-49.27754402162304
 20
174.5890716966274
 30
0.0
  0
VERTEX
  5
101
330
81
100
AcDbEntity
  8
GEB-KONTUR-A
 48
25.0
100
AcDbVertex
100
AcDb2dVertex
 10
-48.45300197603013
 20
173.6770817631905
 30
0.0
  0
VERTEX
  5
102
330
81
100
AcDbEntity
  8
GEB-KONTUR-A
 48
25.0
100
AcDbVertex
100
AcDb2dVertex
 10
-47.58262634279072
 20
172.792154750686
 30
0.0
  0
VERTEX
  5
103
330
81
100
AcDbEntity
  8
GEB-KONTUR-A
 48
25.0
100
AcDbVertex
100
AcDb2dVertex
 10
-46.66819572450492
 20
171.9339373008461
 30
0.0
  0
SEQEND
  5
104
330
81
100
AcDbEntity
  8
GEB-KONTUR-A
 48
25.0
  0
LINE
  5
105
330
2
100
AcDbEntity
  8
GEB-KONTUR-A
 48
25.0
100
AcDbLine
 10
40.89767211371213
 20
166.7237987228254
 30
0.0
 11
46.66819512938502
 21
171.933937035556
 31
0.0
  0
LINE
  5
106
330
2
100
AcDbEntity
  8
GEB-KONTUR-A
 48
25.0
100
AcDbLine
 10
-40.89767211374464
 20
166.7237987228271
 30
0.0
 11
-46.66819512942129
 21
171.9339370355579
 31
0.0
  0
LINE
  5
107
330
2
100
AcDbEntity
  8
GEB-KONTUR-A
 48
25.0
100
AcDbLine
 10
46.74999999999522
 20
141.430504374725
 30
0.0
 11
46.74999999999068
 21
172.0080460208626
 31
0.0
  0
LINE
  5
108
330
2
100
AcDbEntity
  8
GEB-KONTUR-A
 48
25.0
100
AcDbLine
 10
-46.75000000000466
 20
141.4305043747269
 30
0.0
 11
-46.7500000000092
 21
172.0080460208644
 31
0.0
  0
POLYLINE
  5
109
330
2
100
AcDbEntity
  8
GEB-KONTUR-A
 48
25.0
100
AcDb2dPolyline
 66
     1
 10
0.0
 20
0.0
 30
0.0
 70
   128
  0
VERTEX
  5
10A
330
109
100
AcDbEntity
  8
GEB-KONTUR-A
 48
25.0
100
AcDbVertex
100
AcDb2dVertex
 10
-46.75000190735215
 20
141.430504374726
 30
0.0
  0
VERTEX
  5
10B
330
109
100
AcDbEntity
  8
GEB-KONTUR-A
 48
25.0
100
AcDbVertex
100
AcDb2dVertex
 10
-46.72655105591218
 20
140.6233974504259
 30
0.0
  0
VERTEX
  5
10C
330
109
100
AcDbEntity
  8
GEB-KONTUR-A
 48
25.0
100
AcDbVertex
100
AcDb2dVertex
 10
-46.65669441223577
 20
139.8184280331767
 30
0.0
  0
VERTEX
  5
10D
330
109
100
AcDbEntity
  8
GEB-KONTUR-A
 48
25.0
100
AcDbVertex
100
AcDb2dVertex
 10
-46.54117107391812
 20
139.0172790029539
 30
0.0
  0
VERTEX
  5
10E
330
109
100
AcDbEntity
  8
GEB-KONTUR-A
 48
25.0
100
AcDbVertex
100
AcDb2dVertex
 10
-46.38072490692616
 20
138.221641796818
 30
0.0
  0
VERTEX
  5
10F
330
109
100
AcDbEntity
  8
GEB-KONTUR-A
 48
25.0
100
AcDbVertex
100
AcDb2dVertex
 10
-46.17609500885532
 20
137.43319936925
 30
0.0
  0
VERTEX
  5
110
330
109
100
AcDbEntity
  8
GEB-KONTUR-A
 48
25.0
100
AcDbVertex
100
AcDb2dVertex
 10
-45.92802047730049
 20
136.6536388042619
 30
0.0
  0
VERTEX
  5
111
330
109
100
AcDbEntity
  8
GEB-KONTUR-A
 48
25.0
100
AcDbVertex
100
AcDb2dVertex
 10
-45.63737869263275
 20
135.884589393062
 30
0.0
  0
VERTEX
  5
112
330
109
100
AcDbEntity
  8
GEB-KONTUR-A
 48
25.0
100
AcDbVertex
100
AcDb2dVertex
 10
-45.30562400818484
 20
135.1270327201263
 30
0.0
  0
VERTEX
  5
113
330
109
100
AcDbEntity
  8
GEB-KONTUR-A
 48
25.0
100
AcDbVertex
100
AcDb2dVertex
 10
-44.9339485168523
 20
134.3814960725899
 30
0.0
  0
VERTEX
  5
114
330
109
100
AcDbEntity
  8
GEB-KONTUR-A
 48
25.0
100
AcDbVertex
100
AcDb2dVertex
 10
-44.52350139618602
 20
133.6484987337553
 30
0.0
  0
VERTEX
  5
115
330
109
100
AcDbEntity
  8
GEB-KONTUR-A
 48
25.0
100
AcDbVertex
100
AcDb2dVertex
 10
-44.07544136048068
 20
132.9285656065719
 30
0.0
  0
VERTEX
  5
116
330
109
100
AcDbEntity
  8
GEB-KONTUR-A
 48
25.0
100
AcDbVertex
100
AcDb2dVertex
 10
-43.59090805054449
 20
132.2222150802726
 30
0.0
  0
VERTEX
  5
117
330
109
100
AcDbEntity
  8
GEB-KONTUR-A
 48
25.0
100
AcDbVertex
100
AcDb2dVertex
 10
-43.07105541230021
 20
131.5299584771207
 30
0.0
  0
VERTEX
  5
118
330
109
100
AcDbEntity
  8
GEB-KONTUR-A
 48
25.0
100
AcDbVertex
100
AcDb2dVertex
 10
-42.51694679261049
 20
130.8519545289385
 30
0.0
  0
VERTEX
  5
119
330
109
100
AcDbEntity
  8
GEB-KONTUR-A
 48
25.0
100
AcDbVertex
100
AcDb2dVertex
 10
-41.92941188813074
 20
130.1881784769753
 30
0.0
  0
VERTEX
  5
11A
330
109
100
AcDbEntity
  8
GEB-KONTUR-A
 48
25.0
100
AcDbVertex
100
AcDb2dVertex
 10
-41.30925655365842
 20
129.5386906656672
 30
0.0
  0
VERTEX
  5
11B
330
109
100
AcDbEntity
  8
GEB-KONTUR-A
 48
25.0
100
AcDbVertex
100
AcDb2dVertex
 10
-40.65728187561922
 20
128.9035532275899
 30
0.0
  0
VERTEX
  5
11C
330
109
100
AcDbEntity
  8
GEB-KONTUR-A
 48
25.0
100
AcDbVertex
100
AcDb2dVertex
 10
-39.97429609299615
 20
128.2828205895096
 30
0.0
  0
VERTEX
  5
11D
330
109
100
AcDbEntity
  8
GEB-KONTUR-A
 48
25.0
100
AcDbVertex
100
AcDb2dVertex
 10
-39.26109790802934
 20
127.6765507544706
 30
0.0
  0
VERTEX
  5
11E
330
109
100
AcDbEntity
  8
GEB-KONTUR-A
 48
25.0
100
AcDbVertex
100
AcDb2dVertex
 10
-38.51844072342885
 20
127.0847892513368
 30
0.0
  0
VERTEX
  5
11F
330
109
100
AcDbEntity
  8
GEB-KONTUR-A
 48
25.0
100
AcDbVertex
100
AcDb2dVertex
 10
-37.74694681168603
 20
126.5075577671137
 30
0.0
  0
VERTEX
  5
120
330
109
100
AcDbEntity
  8
GEB-KONTUR-A
 48
25.0
100
AcDbVertex
100
AcDb2dVertex
 10
-36.94727182389329
 20
125.9449535124563
 30
0.0
  0
VERTEX
  5
121
330
109
100
AcDbEntity
  8
GEB-KONTUR-A
 48
25.0
100
AcDbVertex
100
AcDb2dVertex
 10
-36.12007379532907
 20
125.39706250152
 30
0.0
  0
VERTEX
  5
122
330
109
100
AcDbEntity
  8
GEB-KONTUR-A
 48
25.0
100
AcDbVertex
100
AcDb2dVertex
 10
-35.26601552964337
 20
124.8639807528669
 30
0.0
  0
VERTEX
  5
123
330
109
100
AcDbEntity
  8
GEB-KONTUR-A
 48
25.0
100
AcDbVertex
100
AcDb2dVertex
 10
-34.3857526779284
 20
124.3457954727453
 30
0.0
  0
VERTEX
  5
124
330
109
100
AcDbEntity
  8
GEB-KONTUR-A
 48
25.0
100
AcDbVertex
100
AcDb2dVertex
 10
-33.47994327546292
 20
123.8426038718104
 30
0.0
  0
VERTEX
  5
125
330
109
100
AcDbEntity
  8
GEB-KONTUR-A
 48
25.0
100
AcDbVertex
100
AcDb2dVertex
 10
-32.54923582078175
 20
123.354537303469
 30
0.0
  0
VERTEX
  5
126
330
109
100
AcDbEntity
  8
GEB-KONTUR-A
 48
25.0
100
AcDbVertex
100
AcDb2dVertex
 10
-31.59432888032166
 20
122.8817670531676
 30
0.0
  0
VERTEX
  5
127
330
109
100
AcDbEntity
  8
GEB-KONTUR-A
 48
25.0
100
AcDbVertex
100
AcDb2dVertex
 10
-30.6159329414487
 20
122.4244472493885
 30
0.0
  0
VERTEX
  5
128
330
109
100
AcDbEntity
  8
GEB-KONTUR-A
 48
25.0
100
AcDbVertex
100
AcDb2dVertex
 10
-29.61476087571396
 20
121.982739087583
 30
0.0
  0
VERTEX
  5
129
330
109
100
AcDbEntity
  8
GEB-KONTUR-A
 48
25.0
100
AcDbVertex
100
AcDb2dVertex
 10
-28.59152317048359
 20
121.5568090848258
 30
0.0
  0
VERTEX
  5
12A
330
109
100
AcDbEntity
  8
GEB-KONTUR-A
 48
25.0
100
AcDbVertex
100
AcDb2dVertex
 10
-27.54693031312286
 20
121.1468166912228
 30
0.0
  0
SEQEND
  5
12B
330
109
100
AcDbEntity
  8
GEB-KONTUR-A
 48
25.0
  0
POLYLINE
  5
12C
330
2
100
AcDbEntity
  8
GEB-KONTUR-A
 48
25.0
100
AcDb2dPolyline
 66
     1
 10
0.0
 20
0.0
 30
0.0
 70
   128
  0
VERTEX
  5
12D
330
12C
100
AcDbEntity
  8
GEB-KONTUR-A
 48
25.0
100
AcDbVertex
100
AcDb2dVertex
 10
27.54693031309785
 20
121.1468166912228
 30
0.0
  0
VERTEX
  5
12E
330
12C
100
AcDbEntity
  8
GEB-KONTUR-A
 48
25.0
100
AcDbVertex
100
AcDb2dVertex
 10
28.5915231704588
 20
121.5568090848258
 30
0.0
  0
VERTEX
  5
12F
330
12C
100
AcDbEntity
  8
GEB-KONTUR-A
 48
25.0
100
AcDbVertex
100
AcDb2dVertex
 10
29.61476087568986
 20
121.982739087583
 30
0.0
  0
VERTEX
  5
130
330
12C
100
AcDbEntity
  8
GEB-KONTUR-A
 48
25.0
100
AcDbVertex
100
AcDb2dVertex
 10
30.61593294142483
 20
122.4244472493885
 30
0.0
  0
VERTEX
  5
131
330
12C
100
AcDbEntity
  8
GEB-KONTUR-A
 48
25.0
100
AcDbVertex
100
AcDb2dVertex
 10
31.59432888029846
 20
122.8817670531676
 30
0.0
  0
VERTEX
  5
132
330
12C
100
AcDbEntity
  8
GEB-KONTUR-A
 48
25.0
100
AcDbVertex
100
AcDb2dVertex
 10
32.54923582075878
 20
123.354537303469
 30
0.0
  0
VERTEX
  5
133
330
12C
100
AcDbEntity
  8
GEB-KONTUR-A
 48
25.0
100
AcDbVertex
100
AcDb2dVertex
 10
33.47994327544041
 20
123.8426038718104
 30
0.0
  0
VERTEX
  5
134
330
12C
100
AcDbEntity
  8
GEB-KONTUR-A
 48
25.0
100
AcDbVertex
100
AcDb2dVertex
 10
34.38575267790657
 20
124.3457954727453
 30
0.0
  0
VERTEX
  5
135
330
12C
100
AcDbEntity
  8
GEB-KONTUR-A
 48
25.0
100
AcDbVertex
100
AcDb2dVertex
 10
35.26601552962177
 20
124.8639807528669
 30
0.0
  0
VERTEX
  5
136
330
12C
100
AcDbEntity
  8
GEB-KONTUR-A
 48
25.0
100
AcDbVertex
100
AcDb2dVertex
 10
36.12007379530814
 20
125.39706250152
 30
0.0
  0
VERTEX
  5
137
330
12C
100
AcDbEntity
  8
GEB-KONTUR-A
 48
25.0
100
AcDbVertex
100
AcDb2dVertex
 10
36.94727182387282
 20
125.9449535124563
 30
0.0
  0
VERTEX
  5
138
330
12C
100
AcDbEntity
  8
GEB-KONTUR-A
 48
25.0
100
AcDbVertex
100
AcDb2dVertex
 10
37.74694681166602
 20
126.5075577671137
 30
0.0
  0
VERTEX
  5
139
330
12C
100
AcDbEntity
  8
GEB-KONTUR-A
 48
25.0
100
AcDbVertex
100
AcDb2dVertex
 10
38.51844072340952
 20
127.0847892513368
 30
0.0
  0
VERTEX
  5
13A
330
12C
100
AcDbEntity
  8
GEB-KONTUR-A
 48
25.0
100
AcDbVertex
100
AcDb2dVertex
 10
39.2610979080107
 20
127.6765507544706
 30
0.0
  0
VERTEX
  5
13B
330
12C
100
AcDbEntity
  8
GEB-KONTUR-A
 48
25.0
100
AcDbVertex
100
AcDb2dVertex
 10
39.97429609297796
 20
128.2828205895096
 30
0.0
  0
VERTEX
  5
13C
330
12C
100
AcDbEntity
  8
GEB-KONTUR-A
 48
25.0
100
AcDbVertex
100
AcDb2dVertex
 10
40.65728187560148
 20
128.9035532275899
 30
0.0
  0
VERTEX
  5
13D
330
12C
100
AcDbEntity
  8
GEB-KONTUR-A
 48
25.0
100
AcDbVertex
100
AcDb2dVertex
 10
41.30925655364137
 20
129.5386906656672
 30
0.0
  0
VERTEX
  5
13E
330
12C
100
AcDbEntity
  8
GEB-KONTUR-A
 48
25.0
100
AcDbVertex
100
AcDb2dVertex
 10
41.92941188811437
 20
130.1881784769753
 30
0.0
  0
VERTEX
  5
13F
330
12C
100
AcDbEntity
  8
GEB-KONTUR-A
 48
25.0
100
AcDbVertex
100
AcDb2dVertex
 10
42.51694679259458
 20
130.8519545289385
 30
0.0
  0
VERTEX
  5
140
330
12C
100
AcDbEntity
  8
GEB-KONTUR-A
 48
25.0
100
AcDbVertex
100
AcDb2dVertex
 10
43.07105541228475
 20
131.5299584771207
 30
0.0
  0
VERTEX
  5
141
330
12C
100
AcDbEntity
  8
GEB-KONTUR-A
 48
25.0
100
AcDbVertex
100
AcDb2dVertex
 10
43.59090805052971
 20
132.2222150802726
 30
0.0
  0
VERTEX
  5
142
330
12C
100
AcDbEntity
  8
GEB-KONTUR-A
 48
25.0
100
AcDbVertex
100
AcDb2dVertex
 10
44.07544136046658
 20
132.9285656065719
 30
0.0
  0
VERTEX
  5
143
330
12C
100
AcDbEntity
  8
GEB-KONTUR-A
 48
25.0
100
AcDbVertex
100
AcDb2dVertex
 10
44.52350139617237
 20
133.6484987337553
 30
0.0
  0
VERTEX
  5
144
330
12C
100
AcDbEntity
  8
GEB-KONTUR-A
 48
25.0
100
AcDbVertex
100
AcDb2dVertex
 10
44.93394851683911
 20
134.3814960725899
 30
0.0
  0
VERTEX
  5
145
330
12C
100
AcDbEntity
  8
GEB-KONTUR-A
 48
25.0
100
AcDbVertex
100
AcDb2dVertex
 10
45.30562400817257
 20
135.1270327201263
 30
0.0
  0
VERTEX
  5
146
330
12C
100
AcDbEntity
  8
GEB-KONTUR-A
 48
25.0
100
AcDbVertex
100
AcDb2dVertex
 10
45.63737869262115
 20
135.884589393062
 30
0.0
  0
VERTEX
  5
147
330
12C
100
AcDbEntity
  8
GEB-KONTUR-A
 48
25.0
100
AcDbVertex
100
AcDb2dVertex
 10
45.92802047728935
 20
136.6536388042619
 30
0.0
  0
VERTEX
  5
148
330
12C
100
AcDbEntity
  8
GEB-KONTUR-A
 48
25.0
100
AcDbVertex
100
AcDb2dVertex
 10
46.17609500884486
 20
137.43319936925
 30
0.0
  0
VERTEX
  5
149
330
12C
100
AcDbEntity
  8
GEB-KONTUR-A
 48
25.0
100
AcDbVertex
100
AcDb2dVertex
 10
46.38072490691661
 20
138.221641796818
 30
0.0
  0
VERTEX
  5
14A
330
12C
100
AcDbEntity
  8
GEB-KONTUR-A
 48
25.0
100
AcDbVertex
100
AcDb2dVertex
 10
46.54117107390902
 20
139.0172790029539
 30
0.0
  0
VERTEX
  5
14B
330
12C
100
AcDbEntity
  8
GEB-KONTUR-A
 48
25.0
100
AcDbVertex
100
AcDb2dVertex
 10
46.65669441222712
 20
139.8184280331767
 30
0.0
  0
VERTEX
  5
14C
330
12C
100
AcDbEntity
  8
GEB-KONTUR-A
 48
25.0
100
AcDbVertex
100
AcDb2dVertex
 10
46.72655105590422
 20
140.6233974504259
 30
0.0
  0
VERTEX
  5
14D
330
12C
100
AcDbEntity
  8
GEB-KONTUR-A
 48
25.0
100
AcDbVertex
100
AcDb2dVertex
 10
46.7500019073451
 20
141.4305043747258
 30
0.0
  0
SEQEND
  5
14E
330
12C
100
AcDbEntity
  8
GEB-KONTUR-A
 48
25.0
  0
ELLIPSE
  5
14F
330
2
100
AcDbEntity
  8
GEB-KONTUR-A
 48
25.0
100
AcDbEllipse
 10
-0.0000000000125056
 20
193.3920286017921
 30
0.0
 11
-45.89999999999996
 21
0.000000000000697
 31
0.0
210
0.0
220
0.0
230
1.0
 40
0.4999999999999971
 41
0.0
 42
6.283185307179585
  0
ELLIPSE
  5
150
330
2
100
AcDbEntity
  8
GEB-KONTUR-A
 48
25.0
100
AcDbEllipse
 10
-0.0000000000102318
 20
178.0479202746064
 30
0.0
 11
46.74999999999999
 21
0.0000000000094758
 31
0.0
210
0.0
220
0.0
230
1.0
 40
0.4999999999999972
 41
3.647332037491223
 42
5.777445923276385
  0
ELLIPSE
  5
151
330
2
100
AcDbEntity
  8
GEB-KONTUR-A
 48
25.0
100
AcDbEllipse
 10
-0.0000000000043201
 20
139.2221395950757
 30
0.0
 11
45.44999999999999
 21
0.0000000000092149
 31
0.0
210
0.0
220
0.0
230
1.0
 40
0.4999999999999972
 41
4.061249562144363
 42
5.363528398623862
  0
ELLIPSE
  5
152
330
2
100
AcDbEntity
  8
GEB-KONTUR-A
 48
25.0
100
AcDbEllipse
 10
-0.0000000000122782
 20
191.7465803346017
 30
0.0
 11
-45.90000000000002
 21
-0.0000000000093081
 31
0.0
210
0.0
220
0.0
230
1.0
 40
0.4999999999999971
 41
3.763248036225354
 42
5.661529924542411
  0
ELLIPSE
  5
153
330
2
100
AcDbEntity
  8
GEB-KONTUR-A
 48
25.0
100
AcDbEllipse
 10
-0.0000000000125056
 20
193.0456184402783
 30
0.0
 11
45.49999999999996
 21
0.0000000000068723
 31
0.0
210
0.0
220
0.0
230
0.9999999999999998
 40
0.4999999999999971
 41
5.673908358980797
 42
10.03405490896748
  0
ELLIPSE
  5
154
330
2
100
AcDbEntity
  8
GEB-KONTUR-A
 48
25.0
100
AcDbEllipse
 10
-0.0000000000123919
 20
192.0929904961153
 30
0.0
 11
45.49999999999997
 21
0.0000000000068703
 31
0.0
210
0.0
220
0.0
230
0.9999999999999998
 40
0.4999999999999972
 41
0.0209384078185334
 42
3.120654245770575
  0
LINE
  5
155
330
2
100
AcDbEntity
  8
GEB-VERDECKT
 48
25.0
100
AcDbLine
 10
37.1505944321932
 20
179.9108998162144
 30
0.0
 11
37.47719306456406
 21
180.1418399238902
 31
0.0
  0
LINE
  5
158
330
2
100
AcDbEntity
  8
GEB-VERDECKT
 48
25.0
100
AcDbLine
 10
-37.15059443223208
 20
179.910899816216
 30
0.0
 11
-37.47719306460329
 21
180.1418399238918
 31
0.0
  0
LINE
  5
159
330
2
100
AcDbEntity
  8
GEB-VERDECKT
 48
25.0
100
AcDbLine
 10
46.74999999999068
 20
172.0080460208626
 30
0.0
 11
46.74999999998988
 21
178.0479202746055
 31
0.0
  0
LINE
  5
15A
330
2
100
AcDbEntity
  8
GEB-VERDECKT
 48
25.0
100
AcDbLine
 10
-46.7500000000092
 20
172.0080460208644
 30
0.0
 11
-46.75000000001023
 21
178.0479202746073
 31
0.0
  0
LINE
  5
15B
330
2
100
AcDbEntity
  8
GEB-VERDECKT
 48
25.0
100
AcDbLine
 10
43.94999999999572
 20
139.2221395950748
 30
0.0
 11
43.94999999999538
 21
141.3439018343467
 31
0.0
  0
LINE
  5
15C
330
2
100
AcDbEntity
  8
GEB-VERDECKT
 48
25.0
100
AcDbLine
 10
-43.95000000000436
 20
139.2221395950765
 30
0.0
 11
-43.95000000000459
 21
141.4305043747269
 31
0.0
  0
LINE
  5
15D
330
2
100
AcDbEntity
  8
GEB-VERDECKT
 48
25.0
100
AcDbLine
 10
44.74999999999545
 20
141.430504374725
 30
0.0
 11
44.74999999998988
 21
177.9131906390722
 31
0.0
  0
LINE
  5
15E
330
2
100
AcDbEntity
  8
GEB-VERDECKT
 48
25.0
100
AcDbLine
 10
-44.75000000000465
 20
141.4305043747269
 30
0.0
 11
-44.75000000001023
 21
177.9131906390739
 31
0.0
  0
POLYLINE
  5
15F
330
2
100
AcDbEntity
  8
GEB-VERDECKT
 48
25.0
100
AcDb2dPolyline
 66
     1
 10
0.0
 20
0.0
 30
0.0
 70
   128
  0
VERTEX
  5
160
330
15F
100
AcDbEntity
  8
GEB-VERDECKT
 48
25.0
100
AcDbVertex
100
AcDb2dVertex
 10
-44.74999904633546
 20
177.9131901450222
 30
0.0
  0
VERTEX
  5
161
330
15F
100
AcDbEntity
  8
GEB-VERDECKT
 48
25.0
100
AcDbVertex
100
AcDb2dVertex
 10
-44.73066806794236
 20
177.3006676576162
 30
0.0
  0
VERTEX
  5
162
330
15F
100
AcDbEntity
  8
GEB-VERDECKT
 48
25.0
100
AcDbVertex
100
AcDb2dVertex
 10
-44.67248916627045
 20
176.6876459135544
 30
0.0
  0
VERTEX
  5
163
330
15F
100
AcDbEntity
  8
GEB-VERDECKT
 48
25.0
100
AcDbVertex
100
AcDb2dVertex
 10
-44.57520484925407
 20
176.0736926235126
 30
0.0
  0
VERTEX
  5
164
330
15F
100
AcDbEntity
  8
GEB-VERDECKT
 48
25.0
100
AcDbVertex
100
AcDb2dVertex
 10
-44.43849086762611
 20
175.4583919207725
 30
0.0
  0
VERTEX
  5
165
330
15F
100
AcDbEntity
  8
GEB-VERDECKT
 48
25.0
100
AcDbVertex
100
AcDb2dVertex
 10
-44.2618227005123
 20
174.8416153383969
 30
0.0
  0
VERTEX
  5
166
330
15F
100
AcDbEntity
  8
GEB-VERDECKT
 48
25.0
100
AcDbVertex
100
AcDb2dVertex
 10
-44.04463768006576
 20
174.2234108001892
 30
0.0
  0
VERTEX
  5
167
330
15F
100
AcDbEntity
  8
GEB-VERDECKT
 48
25.0
100
AcDbVertex
100
AcDb2dVertex
 10
-43.78637790681182
 20
173.6038556371961
 30
0.0
  0
VERTEX
  5
168
330
15F
100
AcDbEntity
  8
GEB-VERDECKT
 48
25.0
100
AcDbVertex
100
AcDb2dVertex
 10
-43.48649978638968
 20
172.9833429658068
 30
0.0
  0
VERTEX
  5
169
330
15F
100
AcDbEntity
  8
GEB-VERDECKT
 48
25.0
100
AcDbVertex
100
AcDb2dVertex
 10
-43.144578933729
 20
172.3624767025976
 30
0.0
  0
VERTEX
  5
16A
330
15F
100
AcDbEntity
  8
GEB-VERDECKT
 48
25.0
100
AcDbVertex
100
AcDb2dVertex
 10
-42.76021003724508
 20
171.7418725780879
 30
0.0
  0
VERTEX
  5
16B
330
15F
100
AcDbEntity
  8
GEB-VERDECKT
 48
25.0
100
AcDbVertex
100
AcDb2dVertex
 10
-42.33311653138594
 20
171.1223192755718
 30
0.0
  0
VERTEX
  5
16C
330
15F
100
AcDbEntity
  8
GEB-VERDECKT
 48
25.0
100
AcDbVertex
100
AcDb2dVertex
 10
-41.86324119569303
 20
170.5047459794496
 30
0.0
  0
VERTEX
  5
16D
330
15F
100
AcDbEntity
  8
GEB-VERDECKT
 48
25.0
100
AcDbVertex
100
AcDb2dVertex
 10
-41.35054588319337
 20
169.8900861633626
 30
0.0
  0
VERTEX
  5
16E
330
15F
100
AcDbEntity
  8
GEB-VERDECKT
 48
25.0
100
AcDbVertex
100
AcDb2dVertex
 10
-40.79511642457555
 20
169.2793178959143
 30
0.0
  0
VERTEX
  5
16F
330
15F
100
AcDbEntity
  8
GEB-VERDECKT
 48
25.0
100
AcDbVertex
100
AcDb2dVertex
 10
-40.19727706910714
 20
168.673460498223
 30
0.0
  0
VERTEX
  5
170
330
15F
100
AcDbEntity
  8
GEB-VERDECKT
 48
25.0
100
AcDbVertex
100
AcDb2dVertex
 10
-39.55737590791364
 20
168.0735233611217
 30
0.0
  0
SEQEND
  5
171
330
15F
100
AcDbEntity
  8
GEB-VERDECKT
 48
25.0
  0
POLYLINE
  5
172
330
2
100
AcDbEntity
  8
GEB-VERDECKT
 48
25.0
100
AcDb2dPolyline
 66
     1
 10
0.0
 20
0.0
 30
0.0
 70
   128
  0
VERTEX
  5
173
330
172
100
AcDbEntity
  8
GEB-VERDECKT
 48
25.0
100
AcDbVertex
100
AcDb2dVertex
 10
39.55737590788226
 20
168.0735233611217
 30
0.0
  0
VERTEX
  5
174
330
172
100
AcDbEntity
  8
GEB-VERDECKT
 48
25.0
100
AcDbVertex
100
AcDb2dVertex
 10
40.19727706907644
 20
168.673460498223
 30
0.0
  0
VERTEX
  5
175
330
172
100
AcDbEntity
  8
GEB-VERDECKT
 48
25.0
100
AcDbVertex
100
AcDb2dVertex
 10
40.79511642454554
 20
169.2793178959143
 30
0.0
  0
VERTEX
  5
176
330
172
100
AcDbEntity
  8
GEB-VERDECKT
 48
25.0
100
AcDbVertex
100
AcDb2dVertex
 10
41.35054588316404
 20
169.8900861633626
 30
0.0
  0
VERTEX
  5
177
330
172
100
AcDbEntity
  8
GEB-VERDECKT
 48
25.0
100
AcDbVertex
100
AcDb2dVertex
 10
41.86324119566438
 20
170.5047459794496
 30
0.0
  0
VERTEX
  5
178
330
172
100
AcDbEntity
  8
GEB-VERDECKT
 48
25.0
100
AcDbVertex
100
AcDb2dVertex
 10
42.3331165313582
 20
171.1223192755718
 30
0.0
  0
VERTEX
  5
179
330
172
100
AcDbEntity
  8
GEB-VERDECKT
 48
25.0
100
AcDbVertex
100
AcDb2dVertex
 10
42.7602100372178
 20
171.7418725780879
 30
0.0
  0
VERTEX
  5
17A
330
172
100
AcDbEntity
  8
GEB-VERDECKT
 48
25.0
100
AcDbVertex
100
AcDb2dVertex
 10
43.14457893370263
 20
172.3624767025976
 30
0.0
  0
VERTEX
  5
17B
330
172
100
AcDbEntity
  8
GEB-VERDECKT
 48
25.0
100
AcDbVertex
100
AcDb2dVertex
 10
43.48649978636422
 20
172.9833429658068
 30
0.0
  0
VERTEX
  5
17C
330
172
100
AcDbEntity
  8
GEB-VERDECKT
 48
25.0
100
AcDbVertex
100
AcDb2dVertex
 10
43.78637790678681
 20
173.6038556371961
 30
0.0
  0
VERTEX
  5
17D
330
172
100
AcDbEntity
  8
GEB-VERDECKT
 48
25.0
100
AcDbVertex
100
AcDb2dVertex
 10
44.04463768004165
 20
174.2234108001892
 30
0.0
  0
VERTEX
  5
17E
330
172
100
AcDbEntity
  8
GEB-VERDECKT
 48
25.0
100
AcDbVertex
100
AcDb2dVertex
 10
44.26182270048866
 20
174.8416153383969
 30
0.0
  0
VERTEX
  5
17F
330
172
100
AcDbEntity
  8
GEB-VERDECKT
 48
25.0
100
AcDbVertex
100
AcDb2dVertex
 10
44.43849086760337
 20
175.4583919207725
 30
0.0
  0
VERTEX
  5
180
330
172
100
AcDbEntity
  8
GEB-VERDECKT
 48
25.0
100
AcDbVertex
100
AcDb2dVertex
 10
44.57520484923224
 20
176.0736926235126
 30
0.0
  0
VERTEX
  5
181
330
172
100
AcDbEntity
  8
GEB-VERDECKT
 48
25.0
100
AcDbVertex
100
AcDb2dVertex
 10
44.67248916624908
 20
176.6876459135544
 30
0.0
  0
VERTEX
  5
182
330
172
100
AcDbEntity
  8
GEB-VERDECKT
 48
25.0
100
AcDbVertex
100
AcDb2dVertex
 10
44.73066806792189
 20
177.3006676576162
 30
0.0
  0
VERTEX
  5
183
330
172
100
AcDbEntity
  8
GEB-VERDECKT
 48
25.0
100
AcDbVertex
100
AcDb2dVertex
 10
44.7499990463159
 20
177.9131901450218
 30
0.0
  0
SEQEND
  5
184
330
172
100
AcDbEntity
  8
GEB-VERDECKT
 48
25.0
  0
LINE
  5
185
330
2
100
AcDbEntity
  8
GEB-VERDECKT
 48
25.0
100
AcDbLine
 10
39.55737545235502
 20
168.0735234852292
 30
0.0
 11
45.39491330109581
 21
173.3441687135963
 31
0.0
  0
LINE
  5
186
330
2
100
AcDbEntity
  8
GEB-VERDECKT
 48
25.0
100
AcDbLine
 10
-39.55737545238753
 20
168.0735234852309
 30
0.0
 11
-45.39491330113196
 21
173.3441687135981
 31
0.0
  0
POLYLINE
  5
187
330
2
100
AcDbEntity
  8
GEB-VERDECKT
 48
25.0
100
AcDb2dPolyline
 66
     1
 10
0.0
 20
0.0
 30
0.0
 70
   128
  0
VERTEX
  5
188
330
187
100
AcDbEntity
  8
GEB-VERDECKT
 48
25.0
100
AcDbVertex
100
AcDb2dVertex
 10
45.39491176603462
 20
173.344169241743
 30
0.0
  0
VERTEX
  5
189
330
187
100
AcDbEntity
  8
GEB-VERDECKT
 48
25.0
100
AcDbVertex
100
AcDb2dVertex
 10
46.25566482542217
 20
174.1521564441231
 30
0.0
  0
VERTEX
  5
18A
330
187
100
AcDbEntity
  8
GEB-VERDECKT
 48
25.0
100
AcDbVertex
100
AcDb2dVertex
 10
47.07237720487808
 20
174.9828270667882
 30
0.0
  0
VERTEX
  5
18B
330
187
100
AcDbEntity
  8
GEB-VERDECKT
 48
25.0
100
AcDbVertex
100
AcDb2dVertex
 10
47.84321308134326
 20
175.8357270582989
 30
0.0
  0
VERTEX
  5
18C
330
187
100
AcDbEntity
  8
GEB-VERDECKT
 48
25.0
100
AcDbVertex
100
AcDb2dVertex
 10
48.56634140013034
 20
176.710400579076
 30
0.0
  0
VERTEX
  5
18D
330
187
100
AcDbEntity
  8
GEB-VERDECKT
 48
25.0
100
AcDbVertex
100
AcDb2dVertex
 10
49.23993110655158
 20
177.6063924654421
 30
0.0
  0
VERTEX
  5
18E
330
187
100
AcDbEntity
  8
GEB-VERDECKT
 48
25.0
100
AcDbVertex
100
AcDb2dVertex
 10
49.8621511459196
 20
178.5232474738649
 30
0.0
  0
VERTEX
  5
18F
330
187
100
AcDbEntity
  8
GEB-VERDECKT
 48
25.0
100
AcDbVertex
100
AcDb2dVertex
 10
50.43117046354701
 20
179.460509764765
 30
0.0
  0
VERTEX
  5
190
330
187
100
AcDbEntity
  8
GEB-VERDECKT
 48
25.0
100
AcDbVertex
100
AcDb2dVertex
 10
50.94514846800291
 20
180.4177242543203
 30
0.0
  0
VERTEX
  5
191
330
187
100
AcDbEntity
  8
GEB-VERDECKT
 48
25.0
100
AcDbVertex
100
AcDb2dVertex
 10
51.40225887297162
 20
181.3944366515258
 30
0.0
  0
VERTEX
  5
192
330
187
100
AcDbEntity
  8
GEB-VERDECKT
 48
25.0
100
AcDbVertex
100
AcDb2dVertex
 10
51.80067062376543
 20
182.3901910583447
 30
0.0
  0
VERTEX
  5
193
330
187
100
AcDbEntity
  8
GEB-VERDECKT
 48
25.0
100
AcDbVertex
100
AcDb2dVertex
 10
52.13751792906362
 20
183.4040378134869
 30
0.0
  0
VERTEX
  5
194
330
187
100
AcDbEntity
  8
GEB-VERDECKT
 48
25.0
100
AcDbVertex
100
AcDb2dVertex
 10
52.40959167479161
 20
184.4329704805085
 30
0.0
  0
VERTEX
  5
195
330
187
100
AcDbEntity
  8
GEB-VERDECKT
 48
25.0
100
AcDbVertex
100
AcDb2dVertex
 10
52.61629104612996
 20
185.4736675727511
 30
0.0
  0
VERTEX
  5
196
330
187
100
AcDbEntity
  8
GEB-VERDECKT
 48
25.0
100
AcDbVertex
100
AcDb2dVertex
 10
52.75707244871819
 20
186.5228167780847
 30
0.0
  0
VERTEX
  5
197
330
187
100
AcDbEntity
  8
GEB-VERDECKT
 48
25.0
100
AcDbVertex
100
AcDb2dVertex
 10
52.83140659331093
 20
187.5771078172415
 30
0.0
  0
VERTEX
  5
198
330
187
100
AcDbEntity
  8
GEB-VERDECKT
 48
25.0
100
AcDbVertex
100
AcDb2dVertex
 10
52.83876419066235
 20
188.6332284898506
 30
0.0
  0
VERTEX
  5
199
330
187
100
AcDbEntity
  8
GEB-VERDECKT
 48
25.0
100
AcDbVertex
100
AcDb2dVertex
 10
52.77859687804062
 20
189.687867851441
 30
0.0
  0
VERTEX
  5
19A
330
187
100
AcDbEntity
  8
GEB-VERDECKT
 48
25.0
100
AcDbVertex
100
AcDb2dVertex
 10
52.65038490294341
 20
190.7377142923387
 30
0.0
  0
VERTEX
  5
19B
330
187
100
AcDbEntity
  8
GEB-VERDECKT
 48
25.0
100
AcDbVertex
100
AcDb2dVertex
 10
52.45366096495558
 20
191.7793975318519
 30
0.0
  0
VERTEX
  5
19C
330
187
100
AcDbEntity
  8
GEB-VERDECKT
 48
25.0
100
AcDbVertex
100
AcDb2dVertex
 10
52.19058990477538
 20
192.808603444199
 30
0.0
  0
VERTEX
  5
19D
330
187
100
AcDbEntity
  8
GEB-VERDECKT
 48
25.0
100
AcDbVertex
100
AcDb2dVertex
 10
51.86388969420455
 20
193.8231870281304
 30
0.0
  0
VERTEX
  5
19E
330
187
100
AcDbEntity
  8
GEB-VERDECKT
 48
25.0
100
AcDbVertex
100
AcDb2dVertex
 10
51.47563934325262
 20
194.8218594215626
 30
0.0
  0
VERTEX
  5
19F
330
187
100
AcDbEntity
  8
GEB-VERDECKT
 48
25.0
100
AcDbVertex
100
AcDb2dVertex
 10
51.02792263030142
 20
195.8033317224844
 30
0.0
  0
VERTEX
  5
1A0
330
187
100
AcDbEntity
  8
GEB-VERDECKT
 48
25.0
100
AcDbVertex
100
AcDb2dVertex
 10
50.5228376388468
 20
196.7663162209773
 30
0.0
  0
VERTEX
  5
1A1
330
187
100
AcDbEntity
  8
GEB-VERDECKT
 48
25.0
100
AcDbVertex
100
AcDb2dVertex
 10
49.96245384215524
 20
197.7095231209605
 30
0.0
  0
VERTEX
  5
1A2
330
187
100
AcDbEntity
  8
GEB-VERDECKT
 48
25.0
100
AcDbVertex
100
AcDb2dVertex
 10
49.34886932372307
 20
198.6316652686345
 30
0.0
  0
VERTEX
  5
1A3
330
187
100
AcDbEntity
  8
GEB-VERDECKT
 48
25.0
100
AcDbVertex
100
AcDb2dVertex
 10
48.68416309355985
 20
199.5314540600113
 30
0.0
  0
VERTEX
  5
1A4
330
187
100
AcDbEntity
  8
GEB-VERDECKT
 48
25.0
100
AcDbVertex
100
AcDb2dVertex
 10
47.97045230864807
 20
200.4086188812935
 30
0.0
  0
VERTEX
  5
1A5
330
187
100
AcDbEntity
  8
GEB-VERDECKT
 48
25.0
100
AcDbVertex
100
AcDb2dVertex
 10
47.20929145812351
 20
201.2638395350019
 30
0.0
  0
VERTEX
  5
1A6
330
187
100
AcDbEntity
  8
GEB-VERDECKT
 48
25.0
100
AcDbVertex
100
AcDb2dVertex
 10
46.40191555022602
 20
202.0971251750766
 30
0.0
  0
VERTEX
  5
1A7
330
187
100
AcDbEntity
  8
GEB-VERDECKT
 48
25.0
100
AcDbVertex
100
AcDb2dVertex
 10
45.54955482482341
 20
202.9084812009385
 30
0.0
  0
VERTEX
  5
1A8
330
187
100
AcDbEntity
  8
GEB-VERDECKT
 48
25.0
100
AcDbVertex
100
AcDb2dVertex
 10
44.65343475341273
 20
203.697916330191
 30
0.0
  0
VERTEX
  5
1A9
330
187
100
AcDbEntity
  8
GEB-VERDECKT
 48
25.0
100
AcDbVertex
100
AcDb2dVertex
 10
43.71479034423328
 20
204.4654355444493
 30
0.0
  0
VERTEX
  5
1AA
330
187
100
AcDbEntity
  8
GEB-VERDECKT
 48
25.0
100
AcDbVertex
100
AcDb2dVertex
 10
42.73485183715365
 20
205.2110473032212
 30
0.0
  0
VERTEX
  5
1AB
330
187
100
AcDbEntity
  8
GEB-VERDECKT
 48
25.0
100
AcDbVertex
100
AcDb2dVertex
 10
41.71484470366999
 20
205.9347570059277
 30
0.0
  0
VERTEX
  5
1AC
330
187
100
AcDbEntity
  8
GEB-VERDECKT
 48
25.0
100
AcDbVertex
100
AcDb2dVertex
 10
40.65600872039397
 20
206.6365729523665
 30
0.0
  0
VERTEX
  5
1AD
330
187
100
AcDbEntity
  8
GEB-VERDECKT
 48
25.0
100
AcDbVertex
100
AcDb2dVertex
 10
39.55954074859267
 20
207.3165011565351
 30
0.0
  0
VERTEX
  5
1AE
330
187
100
AcDbEntity
  8
GEB-VERDECKT
 48
25.0
100
AcDbVertex
100
AcDb2dVertex
 10
38.42622518539099
 20
207.9744965294862
 30
0.0
  0
VERTEX
  5
1AF
330
187
100
AcDbEntity
  8
GEB-VERDECKT
 48
25.0
100
AcDbVertex
100
AcDb2dVertex
 10
37.25706815719309
 20
208.6103637551265
 30
0.0
  0
VERTEX
  5
1B0
330
187
100
AcDbEntity
  8
GEB-VERDECKT
 48
25.0
100
AcDbVertex
100
AcDb2dVertex
 10
36.05322360992159
 20
209.2238872989815
 30
0.0
  0
VERTEX
  5
1B1
330
187
100
AcDbEntity
  8
GEB-VERDECKT
 48
25.0
100
AcDbVertex
100
AcDb2dVertex
 10
34.81585025787115
 20
209.8148499182914
 30
0.0
  0
VERTEX
  5
1B2
330
187
100
AcDbEntity
  8
GEB-VERDECKT
 48
25.0
100
AcDbVertex
100
AcDb2dVertex
 10
33.5460996627786
 20
210.3830382046716
 30
0.0
  0
VERTEX
  5
1B3
330
187
100
AcDbEntity
  8
GEB-VERDECKT
 48
25.0
100
AcDbVertex
100
AcDb2dVertex
 10
32.2451329231244
 20
210.9282327892727
 30
0.0
  0
VERTEX
  5
1B4
330
187
100
AcDbEntity
  8
GEB-VERDECKT
 48
25.0
100
AcDbVertex
100
AcDb2dVertex
 10
30.91410160064527
 20
211.4502190716168
 30
0.0
  0
VERTEX
  5
1B5
330
187
100
AcDbEntity
  8
GEB-VERDECKT
 48
25.0
100
AcDbVertex
100
AcDb2dVertex
 10
29.55416440963609
 20
211.9487798089445
 30
0.0
  0
VERTEX
  5
1B6
330
187
100
AcDbEntity
  8
GEB-VERDECKT
 48
25.0
100
AcDbVertex
100
AcDb2dVertex
 10
28.16647529601937
 20
212.423697340691
 30
0.0
  0
VERTEX
  5
1B7
330
187
100
AcDbEntity
  8
GEB-VERDECKT
 48
25.0
100
AcDbVertex
100
AcDb2dVertex
 10
26.75219297408955
 20
212.8747601264655
 30
0.0
  0
VERTEX
  5
1B8
330
187
100
AcDbEntity
  8
GEB-VERDECKT
 48
25.0
100
AcDbVertex
100
AcDb2dVertex
 10
25.31251668929986
 20
213.3016743802737
 30
0.0
  0
VERTEX
  5
1B9
330
187
100
AcDbEntity
  8
GEB-VERDECKT
 48
25.0
100
AcDbVertex
100
AcDb2dVertex
 10
23.84884119033757
 20
213.7041184236684
 30
0.0
  0
VERTEX
  5
1BA
330
187
100
AcDbEntity
  8
GEB-VERDECKT
 48
25.0
100
AcDbVertex
100
AcDb2dVertex
 10
22.36260175704911
 20
214.0818833862888
 30
0.0
  0
VERTEX
  5
1BB
330
187
100
AcDbEntity
  8
GEB-VERDECKT
 48
25.0
100
AcDbVertex
100
AcDb2dVertex
 10
20.85523843765248
 20
214.4347611720607
 30
0.0
  0
VERTEX
  5
1BC
330
187
100
AcDbEntity
  8
GEB-VERDECKT
 48
25.0
100
AcDbVertex
100
AcDb2dVertex
 10
19.32818293571472
 20
214.7625465852871
 30
0.0
  0
VERTEX
  5
1BD
330
187
100
AcDbEntity
  8
GEB-VERDECKT
 48
25.0
100
AcDbVertex
100
AcDb2dVertex
 10
17.78287410736095
 20
215.0650262453309
 30
0.0
  0
VERTEX
  5
1BE
330
187
100
AcDbEntity
  8
GEB-VERDECKT
 48
25.0
100
AcDbVertex
100
AcDb2dVertex
 10
16.22074842453026
 20
215.3419974697291
 30
0.0
  0
VERTEX
  5
1BF
330
187
100
AcDbEntity
  8
GEB-VERDECKT
 48
25.0
100
AcDbVertex
100
AcDb2dVertex
 10
14.64324235916183
 20
215.5932522914554
 30
0.0
  0
VERTEX
  5
1C0
330
187
100
AcDbEntity
  8
GEB-VERDECKT
 48
25.0
100
AcDbVertex
100
AcDb2dVertex
 10
13.05179238319442
 20
215.8185826144355
 30
0.0
  0
VERTEX
  5
1C1
330
187
100
AcDbEntity
  8
GEB-VERDECKT
 48
25.0
100
AcDbVertex
100
AcDb2dVertex
 10
11.44783377647456
 20
216.0177828558291
 30
0.0
  0
VERTEX
  5
1C2
330
187
100
AcDbEntity
  8
GEB-VERDECKT
 48
25.0
100
AcDbVertex
100
AcDb2dVertex
 10
9.832832217217173
 20
216.190639948021
 30
0.0
  0
VERTEX
  5
1C3
330
187
100
AcDbEntity
  8
GEB-VERDECKT
 48
25.0
100
AcDbVertex
100
AcDb2dVertex
 10
8.208402395249095
 20
216.3370079586822
 30
0.0
  0
VERTEX
  5
1C4
330
187
100
AcDbEntity
  8
GEB-VERDECKT
 48
25.0
100
AcDbVertex
100
AcDb2dVertex
 10
6.576125621796563
 20
216.4568542898974
 30
0.0
  0
VERTEX
  5
1C5
330
187
100
AcDbEntity
  8
GEB-VERDECKT
 48
25.0
100
AcDbVertex
100
AcDb2dVertex
 10
4.937570691109613
 20
216.5501485375639
 30
0.0
  0
VERTEX
  5
1C6
330
187
100
AcDbEntity
  8
GEB-VERDECKT
 48
25.0
100
AcDbVertex
100
AcDb2dVertex
 10
3.294308781624749
 20
216.6168552711129
 30
0.0
  0
VERTEX
  5
1C7
330
187
100
AcDbEntity
  8
GEB-VERDECKT
 48
25.0
100
AcDbVertex
100
AcDb2dVertex
 10
1.647909581662133
 20
216.6569509809035
 30
0.0
  0
VERTEX
  5
1C8
330
187
100
AcDbEntity
  8
GEB-VERDECKT
 48
25.0
100
AcDbVertex
100
AcDb2dVertex
 10
-0.0000566871121919
 20
216.6704026205522
 30
0.0
  0
VERTEX
  5
1C9
330
187
100
AcDbEntity
  8
GEB-VERDECKT
 48
25.0
100
AcDbVertex
100
AcDb2dVertex
 10
-1.648019999264761
 20
216.6571772727232
 30
0.0
  0
VERTEX
  5
1CA
330
187
100
AcDbEntity
  8
GEB-VERDECKT
 48
25.0
100
AcDbVertex
100
AcDb2dVertex
 10
-3.294410109519049
 20
216.6172515568239
 30
0.0
  0
VERTEX
  5
1CB
330
187
100
AcDbEntity
  8
GEB-VERDECKT
 48
25.0
100
AcDbVertex
100
AcDb2dVertex
 10
-4.937657117842718
 20
216.5505900422847
 30
0.0
  0
VERTEX
  5
1CC
330
187
100
AcDbEntity
  8
GEB-VERDECKT
 48
25.0
100
AcDbVertex
100
AcDb2dVertex
 10
-6.576180458067938
 20
216.4571674805186
 30
0.0
  0
VERTEX
  5
1CD
330
187
100
AcDbEntity
  8
GEB-VERDECKT
 48
25.0
100
AcDbVertex
100
AcDb2dVertex
 10
-8.208338022231373
 20
216.3370589976419
 30
0.0
  0
VERTEX
  5
1CE
330
187
100
AcDbEntity
  8
GEB-VERDECKT
 48
25.0
100
AcDbVertex
100
AcDb2dVertex
 10
-9.832604527472767
 20
216.1904243378403
 30
0.0
  0
VERTEX
  5
1CF
330
187
100
AcDbEntity
  8
GEB-VERDECKT
 48
25.0
100
AcDbVertex
100
AcDb2dVertex
 10
-11.44748330116215
 20
216.0174278782246
 30
0.0
  0
VERTEX
  5
1D0
330
187
100
AcDbEntity
  8
GEB-VERDECKT
 48
25.0
100
AcDbVertex
100
AcDb2dVertex
 10
-13.0514776706691
 20
215.8182337378099
 30
0.0
  0
VERTEX
  5
1D1
330
187
100
AcDbEntity
  8
GEB-VERDECKT
 48
25.0
100
AcDbVertex
100
AcDb2dVertex
 10
-14.6430897712703
 20
215.5930040385692
 30
0.0
  0
VERTEX
  5
1D2
330
187
100
AcDbEntity
  8
GEB-VERDECKT
 48
25.0
100
AcDbVertex
100
AcDb2dVertex
 10
-16.22082352638222
 20
215.3419077969372
 30
0.0
  0
VERTEX
  5
1D3
330
187
100
AcDbEntity
  8
GEB-VERDECKT
 48
25.0
100
AcDbVertex
100
AcDb2dVertex
 10
-17.78318285942066
 20
215.0651046216533
 30
0.0
  0
VERTEX
  5
1D4
330
187
100
AcDbEntity
  8
GEB-VERDECKT
 48
25.0
100
AcDbVertex
100
AcDb2dVertex
 10
-19.32866930961609
 20
214.7627610159185
 30
0.0
  0
VERTEX
  5
1D5
330
187
100
AcDbEntity
  8
GEB-VERDECKT
 48
25.0
100
AcDbVertex
100
AcDb2dVertex
 10
-20.85578680038464
 20
214.4350391017054
 30
0.0
  0
VERTEX
  5
1D6
330
187
100
AcDbEntity
  8
GEB-VERDECKT
 48
25.0
100
AcDbVertex
100
AcDb2dVertex
 10
-22.36303806304977
 20
214.082107317933
 30
0.0
  0
VERTEX
  5
1D7
330
187
100
AcDbEntity
  8
GEB-VERDECKT
 48
25.0
100
AcDbVertex
100
AcDb2dVertex
 10
-23.84893655777034
 20
213.7042446372718
 30
0.0
  0
VERTEX
  5
1D8
330
187
100
AcDbEntity
  8
GEB-VERDECKT
 48
25.0
100
AcDbVertex
100
AcDb2dVertex
 10
-25.31219482421943
 20
213.3017307885615
 30
0.0
  0
VERTEX
  5
1D9
330
187
100
AcDbEntity
  8
GEB-VERDECKT
 48
25.0
100
AcDbVertex
100
AcDb2dVertex
 10
-26.75156354904277
 20
212.8748106577235
 30
0.0
  0
VERTEX
  5
1DA
330
187
100
AcDbEntity
  8
GEB-VERDECKT
 48
25.0
100
AcDbVertex
100
AcDb2dVertex
 10
-28.16580295562858
 20
212.4237286144887
 30
0.0
  0
VERTEX
  5
1DB
330
187
100
AcDbEntity
  8
GEB-VERDECKT
 48
25.0
100
AcDbVertex
100
AcDb2dVertex
 10
-29.5536661148085
 20
211.948727418689
 30
0.0
  0
VERTEX
  5
1DC
330
187
100
AcDbEntity
  8
GEB-VERDECKT
 48
25.0
100
AcDbVertex
100
AcDb2dVertex
 10
-30.91390848159961
 20
211.4500562084263
 30
0.0
  0
VERTEX
  5
1DD
330
187
100
AcDbEntity
  8
GEB-VERDECKT
 48
25.0
100
AcDbVertex
100
AcDb2dVertex
 10
-32.24528789520446
 20
210.9279557771529
 30
0.0
  0
VERTEX
  5
1DE
330
187
100
AcDbEntity
  8
GEB-VERDECKT
 48
25.0
100
AcDbVertex
100
AcDb2dVertex
 10
-33.54655981064059
 20
210.3826715269818
 30
0.0
  0
VERTEX
  5
1DF
330
187
100
AcDbEntity
  8
GEB-VERDECKT
 48
25.0
100
AcDbVertex
100
AcDb2dVertex
 10
-34.81647729873896
 20
209.8144487616409
 30
0.0
  0
VERTEX
  5
1E0
330
187
100
AcDbEntity
  8
GEB-VERDECKT
 48
25.0
100
AcDbVertex
100
AcDb2dVertex
 10
-36.05380058288847
 20
209.2235335591454
 30
0.0
  0
VERTEX
  5
1E1
330
187
100
AcDbEntity
  8
GEB-VERDECKT
 48
25.0
100
AcDbVertex
100
AcDb2dVertex
 10
-37.2574663162261
 20
208.6102307793398
 30
0.0
  0
VERTEX
  5
1E2
330
187
100
AcDbEntity
  8
GEB-VERDECKT
 48
25.0
100
AcDbVertex
100
AcDb2dVertex
 10
-38.42653274536463
 20
207.9747333258765
 30
0.0
  0
VERTEX
  5
1E3
330
187
100
AcDbEntity
  8
GEB-VERDECKT
 48
25.0
100
AcDbVertex
100
AcDb2dVertex
 10
-39.55989360809679
 20
207.3170838677868
 30
0.0
  0
VERTEX
  5
1E4
330
187
100
AcDbEntity
  8
GEB-VERDECKT
 48
25.0
100
AcDbVertex
100
AcDb2dVertex
 10
-40.65644264221589
 20
206.6373294246678
 30
0.0
  0
VERTEX
  5
1E5
330
187
100
AcDbEntity
  8
GEB-VERDECKT
 48
25.0
100
AcDbVertex
100
AcDb2dVertex
 10
-41.71506881714299
 20
205.9355141157392
 30
0.0
  0
VERTEX
  5
1E6
330
187
100
AcDbEntity
  8
GEB-VERDECKT
 48
25.0
100
AcDbVertex
100
AcDb2dVertex
 10
-42.73467540741421
 20
205.2116837685055
 30
0.0
  0
VERTEX
  5
1E7
330
187
100
AcDbEntity
  8
GEB-VERDECKT
 48
25.0
100
AcDbVertex
100
AcDb2dVertex
 10
-43.71415138245128
 20
204.465883952375
 30
0.0
  0
VERTEX
  5
1E8
330
187
100
AcDbEntity
  8
GEB-VERDECKT
 48
25.0
100
AcDbVertex
100
AcDb2dVertex
 10
-44.65238571167515
 20
203.6981602367561
 30
0.0
  0
VERTEX
  5
1E9
330
187
100
AcDbEntity
  8
GEB-VERDECKT
 48
25.0
100
AcDbVertex
100
AcDb2dVertex
 10
-45.54828166962238
 20
202.9085576748664
 30
0.0
  0
VERTEX
  5
1EA
330
187
100
AcDbEntity
  8
GEB-VERDECKT
 48
25.0
100
AcDbVertex
100
AcDb2dVertex
 10
-46.40072345734234
 20
202.097123802494
 30
0.0
  0
VERTEX
  5
1EB
330
187
100
AcDbEntity
  8
GEB-VERDECKT
 48
25.0
100
AcDbVertex
100
AcDb2dVertex
 10
-47.20868110657375
 20
201.2635864401921
 30
0.0
  0
VERTEX
  5
1EC
330
187
100
AcDbEntity
  8
GEB-VERDECKT
 48
25.0
100
AcDbVertex
100
AcDb2dVertex
 10
-47.97097682953551
 20
200.4068913724507
 30
0.0
  0
VERTEX
  5
1ED
330
187
100
AcDbEntity
  8
GEB-VERDECKT
 48
25.0
100
AcDbVertex
100
AcDb2dVertex
 10
-48.68570327759494
 20
199.5276492935973
 30
0.0
  0
VERTEX
  5
1EE
330
187
100
AcDbEntity
  8
GEB-VERDECKT
 48
25.0
100
AcDbVertex
100
AcDb2dVertex
 10
-49.35087680817389
 20
198.6266684554123
 30
0.0
  0
VERTEX
  5
1EF
330
187
100
AcDbEntity
  8
GEB-VERDECKT
 48
25.0
100
AcDbVertex
100
AcDb2dVertex
 10
-49.96452808380912
 20
197.704756771725
 30
0.0
  0
VERTEX
  5
1F0
330
187
100
AcDbEntity
  8
GEB-VERDECKT
 48
25.0
100
AcDbVertex
100
AcDb2dVertex
 10
-50.52467823029383
 20
196.7627230903622
 30
0.0
  0
VERTEX
  5
1F1
330
187
100
AcDbEntity
  8
GEB-VERDECKT
 48
25.0
100
AcDbVertex
100
AcDb2dVertex
 10
-51.02934837342172
 20
195.8013759211999
 30
0.0
  0
VERTEX
  5
1F2
330
187
100
AcDbEntity
  8
GEB-VERDECKT
 48
25.0
100
AcDbVertex
100
AcDb2dVertex
 10
-51.47656440735772
 20
194.8215235160184
 30
0.0
  0
VERTEX
  5
1F3
330
187
100
AcDbEntity
  8
GEB-VERDECKT
 48
25.0
100
AcDbVertex
100
AcDb2dVertex
 10
-51.86434268952348
 20
193.8239738285746
 30
0.0
  0
VERTEX
  5
1F4
330
187
100
AcDbEntity
  8
GEB-VERDECKT
 48
25.0
100
AcDbVertex
100
AcDb2dVertex
 10
-52.19071865082764
 20
192.8095358849358
 30
0.0
  0
VERTEX
  5
1F5
330
187
100
AcDbEntity
  8
GEB-VERDECKT
 48
25.0
100
AcDbVertex
100
AcDb2dVertex
 10
-52.45330333710739
 20
191.7794064083574
 30
0.0
  0
VERTEX
  5
1F6
330
187
100
AcDbEntity
  8
GEB-VERDECKT
 48
25.0
100
AcDbVertex
100
AcDb2dVertex
 10
-52.6488161087143
 20
190.7374613604622
 30
0.0
  0
VERTEX
  5
1F7
330
187
100
AcDbEntity
  8
GEB-VERDECKT
 48
25.0
100
AcDbVertex
100
AcDb2dVertex
 10
-52.77698993683975
 20
189.6872995117169
 30
0.0
  0
VERTEX
  5
1F8
330
187
100
AcDbEntity
  8
GEB-VERDECKT
 48
25.0
100
AcDbVertex
100
AcDb2dVertex
 10
-52.83793449403003
 20
188.6323115086845
 30
0.0
  0
VERTEX
  5
1F9
330
187
100
AcDbEntity
  8
GEB-VERDECKT
 48
25.0
100
AcDbVertex
100
AcDb2dVertex
 10
-52.83175945283165
 20
187.5758899562839
 30
0.0
  0
VERTEX
  5
1FA
330
187
100
AcDbEntity
  8
GEB-VERDECKT
 48
25.0
100
AcDbVertex
100
AcDb2dVertex
 10
-52.75858879090583
 20
186.5214262035341
 30
0.0
  0
VERTEX
  5
1FB
330
187
100
AcDbEntity
  8
GEB-VERDECKT
 48
25.0
100
AcDbVertex
100
AcDb2dVertex
 10
-52.61852741242717
 20
185.4723124136684
 30
0.0
  0
VERTEX
  5
1FC
330
187
100
AcDbEntity
  8
GEB-VERDECKT
 48
25.0
100
AcDbVertex
100
AcDb2dVertex
 10
-52.41169929505701
 20
184.4319397494412
 30
0.0
  0
VERTEX
  5
1FD
330
187
100
AcDbEntity
  8
GEB-VERDECKT
 48
25.0
100
AcDbVertex
100
AcDb2dVertex
 10
-52.13825702668589
 20
183.4037179727358
 30
0.0
  0
VERTEX
  5
1FE
330
187
100
AcDbEntity
  8
GEB-VERDECKT
 48
25.0
100
AcDbVertex
100
AcDb2dVertex
 10
-51.80081367494063
 20
182.391151799821
 30
0.0
  0
VERTEX
  5
1FF
330
187
100
AcDbEntity
  8
GEB-VERDECKT
 48
25.0
100
AcDbVertex
100
AcDb2dVertex
 10
-51.4022445678853
 20
181.3957557727317
 30
0.0
  0
VERTEX
  5
200
330
187
100
AcDbEntity
  8
GEB-VERDECKT
 48
25.0
100
AcDbVertex
100
AcDb2dVertex
 10
-50.94457149507082
 20
180.4183961677855
 30
0.0
  0
VERTEX
  5
201
330
187
100
AcDbEntity
  8
GEB-VERDECKT
 48
25.0
100
AcDbVertex
100
AcDb2dVertex
 10
-50.42983531953405
 20
179.4599381490623
 30
0.0
  0
VERTEX
  5
202
330
187
100
AcDbEntity
  8
GEB-VERDECKT
 48
25.0
100
AcDbVertex
100
AcDb2dVertex
 10
-49.86006259919759
 20
178.5212504355234
 30
0.0
  0
VERTEX
  5
203
330
187
100
AcDbEntity
  8
GEB-VERDECKT
 48
25.0
100
AcDbVertex
100
AcDb2dVertex
 10
-49.23728466035516
 20
177.6031984892715
 30
0.0
  0
VERTEX
  5
204
330
187
100
AcDbEntity
  8
GEB-VERDECKT
 48
25.0
100
AcDbVertex
100
AcDb2dVertex
 10
-48.56352806092923
 20
176.7066488846478
 30
0.0
  0
VERTEX
  5
205
330
187
100
AcDbEntity
  8
GEB-VERDECKT
 48
25.0
100
AcDbVertex
100
AcDb2dVertex
 10
-47.84082412721386
 20
175.8324670039002
 30
0.0
  0
VERTEX
  5
206
330
187
100
AcDbEntity
  8
GEB-VERDECKT
 48
25.0
100
AcDbVertex
100
AcDb2dVertex
 10
-47.07099914552475
 20
174.9810370414568
 30
0.0
  0
VERTEX
  5
207
330
187
100
AcDbEntity
  8
GEB-VERDECKT
 48
25.0
100
AcDbVertex
100
AcDb2dVertex
 10
-46.25524520875751
 20
174.1516274300777
 30
0.0
  0
VERTEX
  5
208
330
187
100
AcDbEntity
  8
GEB-VERDECKT
 48
25.0
100
AcDbVertex
100
AcDb2dVertex
 10
-45.39491176606986
 20
173.344169241743
 30
0.0
  0
SEQEND
  5
209
330
187
100
AcDbEntity
  8
GEB-VERDECKT
 48
25.0
  0
LINE
  5
20A
330
2
100
AcDbEntity
  8
GEB-VERDECKT
 48
25.0
100
AcDbLine
 10
-37.15059443221571
 20
205.2277091201808
 30
0.0
 11
-37.47719306458691
 21
204.996769012505
 31
0.0
  0
LINE
  5
20B
330
2
100
AcDbEntity
  8
GEB-VERDECKT
 48
25.0
100
AcDbLine
 10
37.15059443220525
 20
205.2277091201793
 30
0.0
 11
37.47719306457657
 21
204.9967690125035
 31
0.0
  0
LINE
  5
20C
330
2
100
AcDbEntity
  8
GEB-VERDECKT
 48
25.0
100
AcDbLine
 10
45.4999999999876
 20
192.0929904961145
 30
0.0
 11
45.4999999999876
 21
193.0456184402774
 31
0.0
  0
LINE
  5
20D
330
2
100
AcDbEntity
  8
GEB-VERDECKT
 48
25.0
100
AcDbLine
 10
-45.50000000001228
 20
192.0929904961164
 30
0.0
 11
-45.5000000000125
 21
193.0456184402792
 31
0.0
  0
ELLIPSE
  5
20E
330
2
100
AcDbEntity
  8
GEB-VERDECKT
 48
25.0
100
AcDbEllipse
 10
-0.0000000000102318
 20
178.0479202746064
 30
0.0
 11
46.74999999999999
 21
0.0000000000070588
 31
0.0
210
0.0
220
0.0
230
1.0
 40
0.4999999999999972
 41
5.777445923276931
 42
9.930517344671354
  0
ELLIPSE
  5
20F
330
2
100
AcDbEntity
  8
GEB-VERDECKT
 48
25.0
100
AcDbEllipse
 10
-0.0000000000043201
 20
139.2221395950757
 30
0.0
 11
45.45
 21
0.0000000000068701
 31
0.0
210
0.0
220
0.0
230
1.0
 40
0.4999999999999972
 41
5.363528398624094
 42
10.34443486932418
  0
ELLIPSE
  5
210
330
2
100
AcDbEntity
  8
GEB-VERDECKT
 48
25.0
100
AcDbEllipse
 10
-0.0000000000043201
 20
139.2221395950757
 30
0.0
 11
-43.95000000000002
 21
0.0000000000006674
 31
0.0
210
0.0
220
0.0
230
1.0
 40
0.499999999999997
 41
0.0
 42
6.283185307179585
  0
ELLIPSE
  5
211
330
2
100
AcDbEntity
  8
GEB-VERDECKT
 48
25.0
100
AcDbEllipse
 10
-0.0000000000122782
 20
191.7465803346017
 30
0.0
 11
-45.90000000000002
 21
-0.0000000000069345
 31
0.0
210
0.0
220
0.0
230
1.0
 40
0.4999999999999972
 41
5.661529924542874
 42
10.04643334340541
  0
ELLIPSE
  5
212
330
2
100
AcDbEntity
  8
GEB-VERDECKT
 48
25.0
100
AcDbEllipse
 10
-0.0000000000125056
 20
193.0456184402783
 30
0.0
 11
45.49999999999996
 21
0.0000000000092282
 31
0.0
210
0.0
220
0.0
230
0.9999999999999998
 40
0.4999999999999972
 41
3.750869601787421
 42
5.673908358980328
  0
ELLIPSE
  5
213
330
2
100
AcDbEntity
  8
GEB-VERDECKT
 48
25.0
100
AcDbEllipse
 10
-0.0000000000123919
 20
192.0929904961153
 30
0.0
 11
-45.49999999999997
 21
-0.0000000000068707
 31
0.0
210
0.0
220
0.0
230
0.9999999999999998
 40
0.4999999999999972
 41
6.262246899360367
 42
9.445716368587905
  0
ELLIPSE
  5
214
330
2
100
AcDbEntity
  8
GEB-VERDECKT
 48
25.0
100
AcDbEllipse
 10
-0.0000000000046612
 20
141.4305043747259
 30
0.0
 11
43.95000000000002
 21
0.0000000000066348
 31
0.0
210
0.0
220
0.0
230
1.0
 40
0.499999999999997
 41
0.0424378413537035
 42
6.240747465825227
  0
ELLIPSE
  5
215
330
2
100
AcDbEntity
  8
GEB-VERDECKT
 48
25.0
100
AcDbEllipse
 10
-0.0000000000046612
 20
141.430504374726
 30
0.0
 11
-44.75000000000003
 21
0.0000000000006795
 31
0.0
210
0.0
220
0.0
230
1.0
 40
0.4999999999999971
 41
0.0
 42
6.283185307179585
  0
LINE
  5
216
330
2
100
AcDbEntity
  8
GEB-VERDECKT
 48
25.0
100
AcDbLine
 10
-5.593750000004774
 20
141.430504374726
 30
0.0
 11
-5.593750000004547
 21
141.3439018343475
 31
0.0
  0
LINE
  5
217
330
2
100
AcDbEntity
  8
GEB-VERDECKT
 48
25.0
100
AcDbLine
 10
43.9104296152143
 20
142.3627960413919
 30
0.0
 11
5.273838076345555
 21
142.3627960413926
 31
0.0
  0
LINE
  5
218
330
2
100
AcDbEntity
  8
GEB-VERDECKT
 48
25.0
100
AcDbLine
 10
43.9104296152143
 20
142.2761935010136
 30
0.0
 11
43.9104296152143
 21
142.3627960413919
 31
0.0
  0
LINE
  5
219
330
2
100
AcDbEntity
  8
GEB-VERDECKT
 48
25.0
100
AcDbLine
 10
5.273838076345555
 20
142.3627960413926
 30
0.0
 11
5.273838076345555
 21
142.2761935010141
 31
0.0
  0
ELLIPSE
  5
21A
330
2
100
AcDbEntity
  8
GEB-VERDECKT
 48
25.0
100
AcDbEllipse
 10
-0.0000000000046612
 20
141.430504374726
 30
0.0
 11
5.593749999999998
 21
0.0000000000008392
 31
0.0
210
0.0
220
0.0
230
1.0
 40
0.4999999999999968
 41
0.3398369094537957
 42
5.943348397725181
  0
LINE
  5
21B
330
2
100
AcDbEntity
  8
GEB-VERDECKT
 48
25.0
100
AcDbLine
 10
5.273838076344532
 20
140.4982127080593
 30
0.0
 11
5.273838076344532
 21
140.4116101676808
 31
0.0
  0
LINE
  5
21C
330
2
100
AcDbEntity
  8
GEB-VERDECKT
 48
25.0
100
AcDbLine
 10
5.273838076344532
 20
140.4982127080593
 30
0.0
 11
43.91042961521338
 21
140.4982127080586
 31
0.0
  0
LINE
  5
21D
330
2
100
AcDbEntity
  8
GEB-VERDECKT
 48
25.0
100
AcDbLine
 10
43.91042961521338
 20
140.4982127080586
 30
0.0
 11
43.91042961521338
 21
140.4116101676802
 31
0.0
  0
LINE
  5
21E
330
2
100
AcDbEntity
  8
GEB-VERDECKT
 48
25.0
100
AcDbLine
 10
43.9104296152143
 20
142.2761935010136
 30
0.0
 11
5.273838076345555
 21
142.2761935010141
 31
0.0
  0
ELLIPSE
  5
21F
330
2
100
AcDbEntity
  8
GEB-VERDECKT
 48
25.0
100
AcDbEllipse
 10
-0.0000000000046612
 20
141.3439018343475
 30
0.0
 11
5.593749999999998
 21
0.0000000000008392
 31
0.0
210
0.0
220
0.0
230
1.0
 40
0.4999999999999968
 41
0.3398369094537957
 42
5.943348397725181
  0
LINE
  5
220
330
2
100
AcDbEntity
  8
GEB-VERDECKT
 48
25.0
100
AcDbLine
 10
5.273838076344532
 20
140.4116101676808
 30
0.0
 11
43.91042961521338
 21
140.4116101676802
 31
0.0
  0
ELLIPSE
  5
221
330
2
100
AcDbEntity
  8
GEB-VERDECKT
 48
25.0
100
AcDbEllipse
 10
-0.00000000000216
 20
141.3439018343468
 30
0.0
 11
43.94999999999747
 21
0.0000000000075263
 31
0.0
210
0.0
220
0.0
230
1.0
 40
0.4999999999999972
 41
6.24074746582521
 42
6.325623148533283
  0
LINE
  5
222
330
2
100
AcDbEntity
  8
GEB-VERDECKT
 48
25.0
100
AcDbLine
 10
-44.45000000000447
 20
137.0537920628519
 30
0.0
 11
-44.45000000000391
 21
133.5249450236915
 31
0.0
  0
LINE
  5
223
330
2
100
AcDbEntity
  8
GEB-VERDECKT
 48
25.0
100
AcDbLine
 10
44.44999999999618
 20
133.5249450236886
 30
0.0
 11
44.44999999999573
 21
137.0537920628519
 31
0.0
  0
LINE
  5
224
330
2
100
AcDbEntity
  8
GEB-VERDECKT
 48
25.0
100
AcDbLine
 10
44.44999999999573
 20
137.0537920628519
 30
0.0
 11
44.44999999999481
 21
141.4305043747259
 31
0.0
  0
LINE
  5
225
330
2
100
AcDbEntity
  8
GEB-VERDECKT
 48
25.0
100
AcDbLine
 10
-44.45000000000436
 20
137.0537920628519
 30
0.0
 11
-44.45000000000516
 21
141.4305043747259
 31
0.0
  0
LINE
  5
226
330
2
100
AcDbEntity
  8
GEB-VERDECKT
 48
25.0
100
AcDbLine
 10
40.00000000000011
 20
0.0
 30
0.0
 11
40.00000000000011
 21
80.05379206285203
 31
0.0
  0
LINE
  5
227
330
2
100
AcDbEntity
  8
GEB-VERDECKT
 48
25.0
100
AcDbLine
 10
-39.99999999999989
 20
0.0
 30
0.0
 11
-39.99999999999989
 21
80.05379206285203
 31
0.0
  0
LINE
  5
228
330
2
100
AcDbEntity
  8
GEB-VERDECKT
 48
25.0
100
AcDbLine
 10
-40.00000000000443
 20
137.0537920628519
 30
0.0
 11
-40.0
 21
80.05379206285216
 31
0.0
  0
LINE
  5
229
330
2
100
AcDbEntity
  8
GEB-VERDECKT
 48
25.0
100
AcDbLine
 10
40.00000000000011
 20
80.05379206285203
 30
0.0
 11
39.99999999999557
 21
137.0537920628519
 31
0.0
  0
LINE
  5
22A
330
2
100
AcDbEntity
  8
GEB-VERDECKT
 48
25.0
100
AcDbLine
 10
39.99999999999557
 20
137.0537920628519
 30
0.0
 11
39.99999999999488
 21
141.430504374726
 31
0.0
  0
LINE
  5
22B
330
2
100
AcDbEntity
  8
GEB-VERDECKT
 48
25.0
100
AcDbLine
 10
-40.00000000000443
 20
137.0537920628519
 30
0.0
 11
-40.00000000000511
 21
141.430504374726
 31
0.0
  0
LINE
  5
22C
330
2
100
AcDbEntity
  8
GEB-KONTUR-A
 48
25.0
100
AcDbLine
 10
44.45000000000027
 20
0.0
 30
0.0
 11
44.45000000000027
 21
80.05379206285203
 31
0.0
  0
LINE
  5
22D
330
2
100
AcDbEntity
  8
GEB-KONTUR-A
 48
25.0
100
AcDbLine
 10
-44.44999999999993
 20
0.0
 30
0.0
 11
-44.44999999999993
 21
80.05379206285203
 31
0.0
  0
LINE
  5
22E
330
2
100
AcDbEntity
  8
GEB-KONTUR-A
 48
25.0
100
AcDbLine
 10
-44.45000000000391
 20
133.5249450236913
 30
0.0
 11
-44.44999999999993
 21
80.05379206285203
 31
0.0
  0
LINE
  5
22F
330
2
100
AcDbEntity
  8
GEB-KONTUR-A
 48
25.0
100
AcDbLine
 10
44.45000000000027
 20
80.05379206285203
 30
0.0
 11
44.44999999999618
 21
133.5249450236886
 31
0.0
  0
LINE
  5
230
330
2
100
AcDbEntity
  8
GEB-KONTUR-A
 48
25.0
100
AcDbLine
 10
-44.44999999999981
 20
0.0
 30
0.0
 11
44.45000000000004
 21
0.0
 31
0.0
  0
ELLIPSE
  5
231
330
2
100
AcDbEntity
  8
GEB-VERDECKT
 48
25.0
100
AcDbEllipse
 10
-0.0000000000051159
 20
141.4305043747259
 30
0.0
 11
-44.44999999999999
 21
0.0
 31
0.0
210
0.0
220
0.0
230
1.0
 40
0.4999999999999997
 41
0.0
 42
6.283185307179585
  0
ELLIPSE
  5
232
330
2
100
AcDbEntity
  8
GEB-VERDECKT
 48
25.0
100
AcDbEllipse
 10
-0.0000000000051159
 20
141.4305043747259
 30
0.0
 11
-40.0
 21
0.0
 31
0.0
210
0.0
220
0.0
230
1.0
 40
0.4999999999999996
 41
0.0
 42
6.283185307179585
  0
TEXT
  5
233
330
2
100
AcDbEntity
  8
GEB-TEXT
100
AcDbText
 10
-37.63335607095385
 20
-13.0
 30
0.0
 40
3.5
  1
BOGEN M/ EEND EST 30G D88.9
 72
     1
 11
-0.0000000000125056
 21
-13.0
 31
0.0
100
AcDbText
  0
TEXT
  5
235
330
2
100
AcDbEntity
  8
GEB-TEXT
100
AcDbText
 10
-18.0706002728638
 20
-7.5
 30
0.0
 40
3.5
  1
Geberit Mapress
 72
     1
 11
-0.0000000000125056
 21
-7.5
 31
0.0
100
AcDbText
  0
TEXT
  5
236
330
2
100
AcDbEntity
  8
GEB-ART-NR
100
AcDbText
 10
-22.13656348997188
 20
-19.34278125428022
 30
0.0
 40
3.5
  1
GEB-ART-NR 36139
 72
     1
 11
0.5525565645983761
 21
-19.34278125428022
 31
0.0
100
AcDbText
  0
ENDSEC
  0
SECTION
  2
OBJECTS
  0
DICTIONARY
  5
9
330
0
100
AcDbDictionary
281
     1
  3
ACAD_2007HEADERVARS_RT
350
2ED
  3
ACAD_COLOR
350
44
  3
ACAD_GROUP
350
31
  3
ACAD_LAYOUT
350
8
  3
ACAD_MATERIAL
350
13
  3
ACAD_MLEADERSTYLE
350
47
  3
ACAD_MLINESTYLE
350
32
  3
ACAD_PLOTSETTINGS
350
33
  3
ACAD_PLOTSTYLENAME
350
11
  3
ACAD_SCALELIST
350
45
  3
ACAD_TABLESTYLE
350
46
  3
ACAD_VISUALSTYLE
350
2B
  3
ACDB_RECOMPOSE_DATA
350
2EC
  3
AcDbVariableDictionary
350
296
  3
AcmDictionary
350
249
  3
AcmSystemVariableManager
350
304
  3
AMG
350
23A
  0
DICTIONARY
  5
2C
330
28
100
AcDbDictionary
280
     1
281
     1
  0
DICTIONARY
  5
1C
330
E
100
AcDbDictionary
280
     1
281
     1
  3
ACAD_LAYERFILTERS
360
1D
  3
ACLYDICTIONARY
360
1E
  0
DICTIONARY
  5
3
330
2
100
AcDbDictionary
280
     1
281
     1
  3
ACAD_SORTENTS
360
238
  0
DICTIONARY
  5
2ED
102
{ACAD_REACTORS
330
9
102
}
330
9
100
AcDbDictionary
281
     1
  3
DIMARCSYM
350
2EE
  3
DIMLTEX1
350
2F0
  3
DIMLTEX2
350
2F1
  3
DIMLTYPE
350
2EF
  0
DICTIONARY
  5
44
102
{ACAD_REACTORS
330
9
102
}
330
9
100
AcDbDictionary
281
     1
  0
DICTIONARY
  5
31
102
{ACAD_REACTORS
330
9
102
}
330
9
100
AcDbDictionary
281
     1
  0
DICTIONARY
  5
8
102
{ACAD_REACTORS
330
9
102
}
330
9
100
AcDbDictionary
281
     1
  3
Layout1
350
D
  3
Model
350
7
  0
DICTIONARY
  5
13
102
{ACAD_REACTORS
330
9
102
}
330
9
100
AcDbDictionary
281
     1
  3
ByBlock
350
3C
  3
ByLayer
350
34
  3
Global
350
12
  0
DICTIONARY
  5
47
102
{ACAD_REACTORS
330
9
102
}
330
9
100
AcDbDictionary
281
     1
  3
Standard
350
2B4
  0
DICTIONARY
  5
32
102
{ACAD_REACTORS
330
9
102
}
330
9
100
AcDbDictionary
281
     1
  3
Standard
350
48
  0
DICTIONARY
  5
33
102
{ACAD_REACTORS
330
9
102
}
330
9
100
AcDbDictionary
281
     1
  0
ACDBDICTIONARYWDFLT
  5
11
102
{ACAD_REACTORS
330
9
102
}
330
9
100
AcDbDictionary
281
     1
  3
Normal
350
10
100
AcDbDictionaryWithDefault
340
10
  0
DICTIONARY
  5
45
102
{ACAD_REACTORS
330
9
102
}
330
9
100
AcDbDictionary
281
     1
  3
A0
350
4D
  3
A1
350
4E
  3
A2
350
4F
  3
A3
350
50
  3
A4
350
51
  3
A5
350
52
  3
A6
350
53
  3
A7
350
54
  3
A8
350
55
  3
A9
350
56
  3
B0
350
57
  3
B1
350
58
  3
B2
350
59
  3
B3
350
5A
  3
B4
350
5B
  3
B5
350
5C
  3
B6
350
5D
  3
B7
350
5E
  3
B8
350
5F
  3
B9
350
60
  3
C0
350
61
  3
C1
350
62
  3
C2
350
63
  3
C3
350
64
  3
C4
350
65
  3
C5
350
66
  3
C6
350
67
  3
C7
350
68
  3
C8
350
69
  3
C9
350
6A
  3
D0
350
6B
  3
D1
350
6C
  3
D2
350
6D
  0
DICTIONARY
  5
46
102
{ACAD_REACTORS
330
9
102
}
330
9
100
AcDbDictionary
281
     1
  3
Standard
350
49
  0
DICTIONARY
  5
2B
102
{ACAD_REACTORS
330
9
102
}
330
9
100
AcDbDictionary
281
     1
  3
2dWireframe
350
2A
  3
Basic
350
2A3
  3
Brighten
350
2A7
  3
ColorChange
350
2AB
  3
Conceptual
350
2A5
  3
Dim
350
2A6
  3
EdgeColorOff
350
2B3
  3
Facepattern
350
2AA
  3
Flat
350
29F
  3
FlatWithEdges
350
2A0
  3
Gouraud
350
2A1
  3
GouraudWithEdges
350
2A2
  3
Hidden
350
2A4
  3
JitterOff
350
2B1
  3
Linepattern
350
2A9
  3
OverhangOff
350
2B2
  3
Realistic
350
4B
  3
Shaded
350
2B0
  3
Shaded with edges
350
2AF
  3
Shades of Gray
350
2AC
  3
Sketchy
350
2AD
  3
Thicken
350
2A8
  3
Wireframe
350
4C
  3
X-Ray
350
2AE
  0
XRECORD
  5
2EC
102
{ACAD_REACTORS
330
9
102
}
330
9
100
AcDbXrecord
280
     1
 90
        1
330
49
  0
DICTIONARY
  5
296
102
{ACAD_REACTORS
330
9
102
}
330
9
100
AcDbDictionary
281
     1
  3
CANNOSCALE
350
29A
  3
CMLEADERSTYLE
350
298
  3
CTABLESTYLE
350
297
  3
DIMASSOC
350
2E9
  3
HIDETEXT
350
2E8
  3
INDEXCTL
350
2E7
  3
LAYEREVAL
350
29C
  3
LAYERNOTIFY
350
29D
  3
LIGHTINGUNITS
350
29B
  3
MSLTSCALE
350
299
  3
SORTENTS
350
2E6
  3
XCLIPFRAME
350
2EA
  0
DICTIONARY
  5
249
102
{ACAD_REACTORS
330
9
102
}
330
9
100
AcDbDictionary
281
     1
  3
AcmStdDictionary
350
24A
  0
DICTIONARY
  5
23A
102
{ACAD_REACTORS
330
9
102
}
330
9
100
AcDbDictionary
281
     1
  3
AcMgSettings
350
244
  0
DICTIONARY
  5
1D
102
{ACAD_REACTORS
330
1C
102
}
330
1C
100
AcDbDictionary
281
     1
  0
DICTIONARY
  5
1E
102
{ACAD_REACTORS
330
1C
102
}
330
1C
100
AcDbDictionary
281
     1
1001
ACAD
1000
<All
  0
SORTENTSTABLE
  5
238
102
{ACAD_REACTORS
330
3
102
}
330
3
100
AcDbSortentsTable
330
2
331
220
  5
151
331
211
  5
186
331
15F
  5
214
331
186
  5
211
331
80
  5
22A
331
75
  5
231
331
15A
  5
219
331
172
  5
213
331
21F
  5
152
331
22E
  5
79
331
155
  5
21C
331
229
  5
81
331
21A
  5
159
331
20B
  5
20E
331
150
  5
221
331
233
  5
236
331
224
  5
109
331
105
  5
228
331
215
  5
15E
331
210
  5
187
331
185
  5
212
331
15E
  5
215
331
14F
  5
222
331
159
  5
21A
331
22D
  5
7A
331
20F
  5
20A
331
21E
  5
153
331
12C
  5
223
331
7F
  5
22B
331
7A
  5
22D
331
228
  5
105
331
219
  5
15A
331
20A
  5
20F
331
109
  5
224
331
154
  5
21D
331
232
  5
6E
331
223
  5
12C
331
214
  5
15F
331
6E
  5
232
331
15D
  5
216
331
22C
  5
7E
331
20E
  5
20B
331
21D
  5
154
331
158
  5
21B
331
7E
  5
22C
331
79
  5
22E
331
236
  5
233
331
227
  5
106
331
218
  5
15B
331
108
  5
225
331
153
  5
21E
331
231
  5
75
331
222
  5
14F
331
213
  5
172
331
15C
  5
217
331
77
  5
230
331
22B
  5
7F
331
21C
  5
155
331
20D
  5
20C
331
78
  5
22F
331
226
  5
107
331
217
  5
15C
331
107
  5
226
331
152
  5
21F
331
230
  5
77
331
221
  5
150
331
212
  5
185
331
187
  5
210
331
81
  5
229
331
15B
  5
218
331
22F
  5
78
331
22A
  5
80
331
21B
  5
158
331
20C
  5
20D
331
151
  5
220
331
225
  5
108
331
106
  5
227
331
216
  5
15D
  0
XRECORD
  5
2EE
102
{ACAD_REACTORS
330
2ED
102
}
330
2ED
100
AcDbXrecord
280
     1
 70
     1
  0
XRECORD
  5
2F0
102
{ACAD_REACTORS
330
2ED
102
}
330
2ED
100
AcDbXrecord
280
     1
340
24
  0
XRECORD
  5
2F1
102
{ACAD_REACTORS
330
2ED
102
}
330
2ED
100
AcDbXrecord
280
     1
340
24
  0
XRECORD
  5
2EF
102
{ACAD_REACTORS
330
2ED
102
}
330
2ED
100
AcDbXrecord
280
     1
340
24
  0
LAYOUT
  5
D
102
{ACAD_XDICTIONARY
360
2F4
102
}
102
{ACAD_REACTORS
330
8
102
}
330
8
100
AcDbPlotSettings
  1

  2
\\le-server\HP LaserJet 2100
  4

  6

 40
0.0
 41
0.0
 42
0.0
 43
0.0
 44
0.0
 45
0.0
 46
0.0
 47
0.0
 48
0.0
 49
0.0
140
0.0
141
0.0
142
1.0
143
1.0
 70
   688
 72
     0
 73
     0
 74
     5
  7

 75
    16
147
1.0
148
0.0
149
0.0
100
AcDbLayout
  1
Layout1
 70
     1
 71
     1
 10
0.0
 20
0.0
 11
1189.0
 21
840.9999999999998
 12
0.0
 22
0.0
 32
0.0
 14
0.0
 24
0.0
 34
0.0
 15
1189.0
 25
840.9999999999998
 35
0.0
146
0.0
 13
0.0
 23
0.0
 33
0.0
 16
1.0
 26
0.0
 36
0.0
 17
0.0
 27
1.0
 37
0.0
 76
     0
330
A
  0
LAYOUT
  5
7
102
{ACAD_XDICTIONARY
360
2F2
102
}
102
{ACAD_REACTORS
330
8
102
}
330
8
100
AcDbPlotSettings
  1

  2
\\le-server\HP LaserJet 2100
  4

  6

 40
0.0
 41
0.0
 42
0.0
 43
0.0
 44
0.0
 45
0.0
 46
0.0
 47
0.0
 48
0.0
 49
0.0
140
0.0
141
0.0
142
1.0
143
1.0
 70
  1712
 72
     0
 73
     0
 74
     0
  7

 75
     0
147
1.0
148
0.0
149
0.0
100
AcDbLayout
  1
Model
 70
     1
 71
     0
 10
0.0
 20
0.0
 11
12.0
 21
9.0
 12
0.0
 22
0.0
 32
0.0
 14
0.0
 24
0.0
 34
0.0
 15
0.0
 25
0.0
 35
0.0
146
0.0
 13
0.0
 23
0.0
 33
0.0
 16
1.0
 26
0.0
 36
0.0
 17
0.0
 27
1.0
 37
0.0
 76
     0
330
2
331
29
  0
MATERIAL
  5
3C
102
{ACAD_XDICTIONARY
360
3D
102
}
102
{ACAD_REACTORS
330
13
102
}
330
13
100
AcDbMaterial
  1
ByBlock
 72
     0
 43
0.0208333333333333
 43
0.0
 43
0.0
 43
0.0
 43
0.0
 43
0.0208333333333333
 43
0.0
 43
0.0
 43
0.0
 43
0.0
 43
1.0
 43
0.0
 43
0.0
 43
0.0
 43
0.0
 43
1.0
 77
     0
 47
0.0208333333333333
 47
0.0
 47
0.0
 47
0.0
 47
0.0
 47
0.0208333333333333
 47
0.0
 47
0.0
 47
0.0
 47
0.0
 47
1.0
 47
0.0
 47
0.0
 47
0.0
 47
0.0
 47
1.0
171
     0
 49
0.0208333333333333
 49
0.0
 49
0.0
 49
0.0
 49
0.0
 49
0.0208333333333333
 49
0.0
 49
0.0
 49
0.0
 49
0.0
 49
1.0
 49
0.0
 49
0.0
 49
0.0
 49
0.0
 49
1.0
175
     0
142
0.0208333333333333
142
0.0
142
0.0
142
0.0
142
0.0
142
0.0208333333333333
142
0.0
142
0.0
142
0.0
142
0.0
142
1.0
142
0.0
142
0.0
142
0.0
142
0.0
142
1.0
179
     0
144
0.0208333333333333
144
0.0
144
0.0
144
0.0
144
0.0
144
0.0208333333333333
144
0.0
144
0.0
144
0.0
144
0.0
144
1.0
144
0.0
144
0.0
144
0.0
144
0.0
144
1.0
147
0.0208333333333333
147
0.0
147
0.0
147
0.0
147
0.0
147
0.0208333333333333
147
0.0
147
0.0
147
0.0
147
0.0
147
1.0
147
0.0
147
0.0
147
0.0
147
0.0
147
1.0
  0
MATERIAL
  5
34
102
{ACAD_XDICTIONARY
360
35
102
}
102
{ACAD_REACTORS
330
13
102
}
330
13
100
AcDbMaterial
  1
ByLayer
 72
     0
 43
0.0208333333333333
 43
0.0
 43
0.0
 43
0.0
 43
0.0
 43
0.0208333333333333
 43
0.0
 43
0.0
 43
0.0
 43
0.0
 43
1.0
 43
0.0
 43
0.0
 43
0.0
 43
0.0
 43
1.0
 77
     0
 47
0.0208333333333333
 47
0.0
 47
0.0
 47
0.0
 47
0.0
 47
0.0208333333333333
 47
0.0
 47
0.0
 47
0.0
 47
0.0
 47
1.0
 47
0.0
 47
0.0
 47
0.0
 47
0.0
 47
1.0
171
     0
 49
0.0208333333333333
 49
0.0
 49
0.0
 49
0.0
 49
0.0
 49
0.0208333333333333
 49
0.0
 49
0.0
 49
0.0
 49
0.0
 49
1.0
 49
0.0
 49
0.0
 49
0.0
 49
0.0
 49
1.0
175
     0
142
0.0208333333333333
142
0.0
142
0.0
142
0.0
142
0.0
142
0.0208333333333333
142
0.0
142
0.0
142
0.0
142
0.0
142
1.0
142
0.0
142
0.0
142
0.0
142
0.0
142
1.0
179
     0
144
0.0208333333333333
144
0.0
144
0.0
144
0.0
144
0.0
144
0.0208333333333333
144
0.0
144
0.0
144
0.0
144
0.0
144
1.0
144
0.0
144
0.0
144
0.0
144
0.0
144
1.0
147
0.0208333333333333
147
0.0
147
0.0
147
0.0
147
0.0
147
0.0208333333333333
147
0.0
147
0.0
147
0.0
147
0.0
147
1.0
147
0.0
147
0.0
147
0.0
147
0.0
147
1.0
  0
MATERIAL
  5
12
102
{ACAD_XDICTIONARY
360
14
102
}
102
{ACAD_REACTORS
330
13
102
}
330
13
100
AcDbMaterial
  1
Global
 72
     0
 43
0.0208333333333333
 43
0.0
 43
0.0
 43
0.0
 43
0.0
 43
0.0208333333333333
 43
0.0
 43
0.0
 43
0.0
 43
0.0
 43
1.0
 43
0.0
 43
0.0
 43
0.0
 43
0.0
 43
1.0
 77
     0
 47
0.0208333333333333
 47
0.0
 47
0.0
 47
0.0
 47
0.0
 47
0.0208333333333333
 47
0.0
 47
0.0
 47
0.0
 47
0.0
 47
1.0
 47
0.0
 47
0.0
 47
0.0
 47
0.0
 47
1.0
171
     0
 49
0.0208333333333333
 49
0.0
 49
0.0
 49
0.0
 49
0.0
 49
0.0208333333333333
 49
0.0
 49
0.0
 49
0.0
 49
0.0
 49
1.0
 49
0.0
 49
0.0
 49
0.0
 49
0.0
 49
1.0
175
     0
142
0.0208333333333333
142
0.0
142
0.0
142
0.0
142
0.0
142
0.0208333333333333
142
0.0
142
0.0
142
0.0
142
0.0
142
1.0
142
0.0
142
0.0
142
0.0
142
0.0
142
1.0
179
     0
144
0.0208333333333333
144
0.0
144
0.0
144
0.0
144
0.0
144
0.0208333333333333
144
0.0
144
0.0
144
0.0
144
0.0
144
1.0
144
0.0
144
0.0
144
0.0
144
0.0
144
1.0
147
0.0208333333333333
147
0.0
147
0.0
147
0.0
147
0.0
147
0.0208333333333333
147
0.0
147
0.0
147
0.0
147
0.0
147
1.0
147
0.0
147
0.0
147
0.0
147
0.0
147
1.0
  0
MLEADERSTYLE
  5
2B4
102
{ACAD_REACTORS
330
47
102
}
330
47
100
AcDbMLeaderStyle
170
     2
171
     1
172
     0
 90
        2
 40
0.0
 41
0.0
173
     1
 91
-1056964608
340
24
 92
       -2
290
     1
 42
2.0
291
     1
 43
0.36
  3
Standard
 44
4.0
300

342
21
174
     1
178
     6
175
     1
176
     0
 93
-1056964608
 45
4.0
292
     0
297
     0
 46
4.0
 94
-1056964608
 47
1.0
 49
1.0
140
1.0
293
     1
141
0.0
294
     1
177
     0
142
1.0
295
     0
296
     0
143
0.125
1001
ACAD_MLEADERVER
1070
     2
  0
MLINESTYLE
  5
48
102
{ACAD_REACTORS
330
32
102
}
330
32
100
AcDbMlineStyle
  2
STANDARD
 70
     0
  3

 62
   256
 51
90.0
 52
90.0
 71
     2
 49
0.5
 62
   256
  6
BYLAYER
 49
-0.5
 62
   256
  6
BYLAYER
  0
ACDBPLACEHOLDER
  5
10
102
{ACAD_REACTORS
330
11
102
}
330
11
  0
SCALE
  5
4D
102
{ACAD_REACTORS
330
45
102
}
330
45
100
AcDbScale
 70
     0
300
1:1
140
1.0
141
1.0
290
     1
  0
SCALE
  5
4E
102
{ACAD_REACTORS
330
45
102
}
330
45
100
AcDbScale
 70
     0
300
1:2
140
1.0
141
2.0
290
     0
  0
SCALE
  5
4F
102
{ACAD_REACTORS
330
45
102
}
330
45
100
AcDbScale
 70
     0
300
1:4
140
1.0
141
4.0
290
     0
  0
SCALE
  5
50
102
{ACAD_REACTORS
330
45
102
}
330
45
100
AcDbScale
 70
     0
300
1:5
140
1.0
141
5.0
290
     0
  0
SCALE
  5
51
102
{ACAD_REACTORS
330
45
102
}
330
45
100
AcDbScale
 70
     0
300
1:8
140
1.0
141
8.0
290
     0
  0
SCALE
  5
52
102
{ACAD_REACTORS
330
45
102
}
330
45
100
AcDbScale
 70
     0
300
1:10
140
1.0
141
10.0
290
     0
  0
SCALE
  5
53
102
{ACAD_REACTORS
330
45
102
}
330
45
100
AcDbScale
 70
     0
300
1:16
140
1.0
141
16.0
290
     0
  0
SCALE
  5
54
102
{ACAD_REACTORS
330
45
102
}
330
45
100
AcDbScale
 70
     0
300
1:20
140
1.0
141
20.0
290
     0
  0
SCALE
  5
55
102
{ACAD_REACTORS
330
45
102
}
330
45
100
AcDbScale
 70
     0
300
1:30
140
1.0
141
30.0
290
     0
  0
SCALE
  5
56
102
{ACAD_REACTORS
330
45
102
}
330
45
100
AcDbScale
 70
     0
300
1:40
140
1.0
141
40.0
290
     0
  0
SCALE
  5
57
102
{ACAD_REACTORS
330
45
102
}
330
45
100
AcDbScale
 70
     0
300
1:50
140
1.0
141
50.0
290
     0
  0
SCALE
  5
58
102
{ACAD_REACTORS
330
45
102
}
330
45
100
AcDbScale
 70
     0
300
1:100
140
1.0
141
100.0
290
     0
  0
SCALE
  5
59
102
{ACAD_REACTORS
330
45
102
}
330
45
100
AcDbScale
 70
     0
300
2:1
140
2.0
141
1.0
290
     0
  0
SCALE
  5
5A
102
{ACAD_REACTORS
330
45
102
}
330
45
100
AcDbScale
 70
     0
300
4:1
140
4.0
141
1.0
290
     0
  0
SCALE
  5
5B
102
{ACAD_REACTORS
330
45
102
}
330
45
100
AcDbScale
 70
     0
300
8:1
140
8.0
141
1.0
290
     0
  0
SCALE
  5
5C
102
{ACAD_REACTORS
330
45
102
}
330
45
100
AcDbScale
 70
     0
300
10:1
140
10.0
141
1.0
290
     0
  0
SCALE
  5
5D
102
{ACAD_REACTORS
330
45
102
}
330
45
100
AcDbScale
 70
     0
300
100:1
140
100.0
141
1.0
290
     0
  0
SCALE
  5
5E
102
{ACAD_REACTORS
330
45
102
}
330
45
100
AcDbScale
 70
     0
300
1/128" = 1'-0"
140
0.0078125
141
12.0
290
     0
  0
SCALE
  5
5F
102
{ACAD_REACTORS
330
45
102
}
330
45
100
AcDbScale
 70
     0
300
1/64" = 1'-0"
140
0.015625
141
12.0
290
     0
  0
SCALE
  5
60
102
{ACAD_REACTORS
330
45
102
}
330
45
100
AcDbScale
 70
     0
300
1/32" = 1'-0"
140
0.03125
141
12.0
290
     0
  0
SCALE
  5
61
102
{ACAD_REACTORS
330
45
102
}
330
45
100
AcDbScale
 70
     0
300
1/16" = 1'-0"
140
0.0625
141
12.0
290
     0
  0
SCALE
  5
62
102
{ACAD_REACTORS
330
45
102
}
330
45
100
AcDbScale
 70
     0
300
3/32" = 1'-0"
140
0.09375
141
12.0
290
     0
  0
SCALE
  5
63
102
{ACAD_REACTORS
330
45
102
}
330
45
100
AcDbScale
 70
     0
300
1/8" = 1'-0"
140
0.125
141
12.0
290
     0
  0
SCALE
  5
64
102
{ACAD_REACTORS
330
45
102
}
330
45
100
AcDbScale
 70
     0
300
3/16" = 1'-0"
140
0.1875
141
12.0
290
     0
  0
SCALE
  5
65
102
{ACAD_REACTORS
330
45
102
}
330
45
100
AcDbScale
 70
     0
300
1/4" = 1'-0"
140
0.25
141
12.0
290
     0
  0
SCALE
  5
66
102
{ACAD_REACTORS
330
45
102
}
330
45
100
AcDbScale
 70
     0
300
3/8" = 1'-0"
140
0.375
141
12.0
290
     0
  0
SCALE
  5
67
102
{ACAD_REACTORS
330
45
102
}
330
45
100
AcDbScale
 70
     0
300
1/2" = 1'-0"
140
0.5
141
12.0
290
     0
  0
SCALE
  5
68
102
{ACAD_REACTORS
330
45
102
}
330
45
100
AcDbScale
 70
     0
300
3/4" = 1'-0"
140
0.75
141
12.0
290
     0
  0
SCALE
  5
69
102
{ACAD_REACTORS
330
45
102
}
330
45
100
AcDbScale
 70
     0
300
1" = 1'-0"
140
1.0
141
12.0
290
     0
  0
SCALE
  5
6A
102
{ACAD_REACTORS
330
45
102
}
330
45
100
AcDbScale
 70
     0
300
1-1/2" = 1'-0"
140
1.5
141
12.0
290
     0
  0
SCALE
  5
6B
102
{ACAD_REACTORS
330
45
102
}
330
45
100
AcDbScale
 70
     0
300
3" = 1'-0"
140
3.0
141
12.0
290
     0
  0
SCALE
  5
6C
102
{ACAD_REACTORS
330
45
102
}
330
45
100
AcDbScale
 70
     0
300
6" = 1'-0"
140
6.0
141
12.0
290
     0
  0
SCALE
  5
6D
102
{ACAD_REACTORS
330
45
102
}
330
45
100
AcDbScale
 70
     0
300
1'-0" = 1'-0"
140
12.0
141
12.0
290
     0
  0
TABLESTYLE
  5
49
102
{ACAD_XDICTIONARY
360
4A
102
}
102
{ACAD_REACTORS
330
46
102
}
330
46
100
AcDbTableStyle
  3
Standard
 70
     0
 71
     0
 40
0.06
 41
0.06
280
     0
281
     0
  7
STANDARD
140
0.18
170
     2
 62
     0
 63
     7
283
     0
274
    -2
284
     1
 64
     0
275
    -2
285
     1
 65
     0
276
    -2
286
     1
 66
     0
277
    -2
287
     1
 67
     0
278
    -2
288
     1
 68
     0
279
    -2
289
     1
 69
     0
  7
STANDARD
140
0.25
170
     5
 62
     0
 63
     7
283
     0
274
    -2
284
     1
 64
     0
275
    -2
285
     1
 65
     0
276
    -2
286
     1
 66
     0
277
    -2
287
     1
 67
     0
278
    -2
288
     1
 68
     0
279
    -2
289
     1
 69
     0
  7
STANDARD
140
0.18
170
     5
 62
     0
 63
     7
283
     0
274
    -2
284
     1
 64
     0
275
    -2
285
     1
 65
     0
276
    -2
286
     1
 66
     0
277
    -2
287
     1
 67
     0
278
    -2
288
     1
 68
     0
279
    -2
289
     1
 69
     0
  0
VISUALSTYLE
  5
2A
102
{ACAD_XDICTIONARY
360
2F7
102
}
102
{ACAD_REACTORS
330
2B
102
}
330
2B
100
AcDbVisualStyle
  2
2dWireframe
 70
     4
 71
     0
 72
     2
 73
     0
 90
        0
 40
-0.6
 41
-30.0
 62
     5
 63
     7
 74
     1
 91
        4
 64
     7
 65
   257
 75
     1
175
     1
 42
1.0
 92
        0
 66
   257
 43
1.0
 76
     1
 77
     6
 78
     2
 67
     7
 79
     5
170
     0
171
     0
290
     0
174
     0
 93
        1
 44
0.0
173
     0
291
     0
 45
0.0
1001
ACAD
1000
AcDbSavedByObjectVersion
1070
     0
  0
VISUALSTYLE
  5
2A3
102
{ACAD_XDICTIONARY
360
30E
102
}
102
{ACAD_REACTORS
330
2B
102
}
330
2B
100
AcDbVisualStyle
  2
Basic
 70
     7
 71
     1
 72
     0
 73
     1
 90
        0
 40
-0.6
 41
-30.0
 62
     5
 63
     7
 74
     0
 91
        4
 64
     7
 65
   257
 75
     1
175
     1
 42
1.0
 92
        8
 66
     7
 43
1.0
 76
     1
 77
     6
 78
     2
 67
     7
 79
     5
170
     0
171
     0
290
     0
174
     0
 93
        1
 44
0.0
173
     0
291
     1
 45
0.0
1001
ACAD
1000
AcDbSavedByObjectVersion
1070
     0
  0
VISUALSTYLE
  5
2A7
102
{ACAD_XDICTIONARY
360
316
102
}
102
{ACAD_REACTORS
330
2B
102
}
330
2B
100
AcDbVisualStyle
  2
Brighten
 70
    12
 71
     2
 72
     2
 73
     0
 90
        0
 40
-0.6
 41
-30.0
 62
     5
 63
     7
 74
     1
 91
        4
 64
     7
 65
   257
 75
     1
175
     1
 42
1.0
 92
        8
 66
     7
 43
1.0
 76
     1
 77
     6
 78
     2
 67
     7
 79
     5
170
     0
171
     0
290
     0
174
     0
 93
        1
 44
50.0
173
     0
291
     1
 45
0.0
1001
ACAD
1000
AcDbSavedByObjectVersion
1070
     0
  0
VISUALSTYLE
  5
2AB
102
{ACAD_XDICTIONARY
360
31E
102
}
102
{ACAD_REACTORS
330
2B
102
}
330
2B
100
AcDbVisualStyle
  2
ColorChange
 70
    16
 71
     2
 72
     2
 73
     3
 90
        0
 40
-0.6
 41
-30.0
 62
     5
 63
     8
 74
     1
 91
        4
 64
     7
 65
   257
 75
     1
175
     1
 42
1.0
 92
        8
 66
     8
 43
1.0
 76
     1
 77
     6
 78
     2
 67
     7
 79
     5
170
     0
171
     0
290
     0
174
     0
 93
        1
 44
0.0
173
     0
291
     1
 45
0.0
1001
ACAD
1000
AcDbSavedByObjectVersion
1070
     0
  0
VISUALSTYLE
  5
2A5
102
{ACAD_XDICTIONARY
360
312
102
}
102
{ACAD_REACTORS
330
2B
102
}
330
2B
100
AcDbVisualStyle
  2
Conceptual
 70
     9
 71
     3
 72
     2
 73
     0
 90
        0
 40
-0.6
 41
-30.0
 62
     5
 63
     7
 74
     2
 91
        2
 64
     7
 65
   257
 75
     1
175
     1
 42
179.0
 92
        8
 66
     7
 43
1.0
 76
     1
 77
     6
 78
     2
 67
     7
 79
     3
170
     0
171
     0
290
     0
174
     0
 93
        1
 44
0.0
173
     0
291
     0
 45
0.0
1001
ACAD
1000
AcDbSavedByObjectVersion
1070
     0
  0
VISUALSTYLE
  5
2A6
102
{ACAD_XDICTIONARY
360
314
102
}
102
{ACAD_REACTORS
330
2B
102
}
330
2B
100
AcDbVisualStyle
  2
Dim
 70
    11
 71
     2
 72
     2
 73
     0
 90
        0
 40
-0.6
 41
-30.0
 62
     5
 63
     7
 74
     1
 91
        4
 64
     7
 65
   257
 75
     1
175
     1
 42
1.0
 92
        8
 66
     7
 43
1.0
 76
     1
 77
     6
 78
     2
 67
     7
 79
     5
170
     0
171
     0
290
     0
174
     0
 93
        1
 44
-50.0
173
     0
291
     1
 45
0.0
1001
ACAD
1000
AcDbSavedByObjectVersion
1070
     0
  0
VISUALSTYLE
  5
2B3
102
{ACAD_XDICTIONARY
360
32E
102
}
102
{ACAD_REACTORS
330
2B
102
}
330
2B
100
AcDbVisualStyle
  2
EdgeColorOff
 70
    22
 71
     2
 72
     2
 73
     0
 90
        0
 40
-0.6
 41
-30.0
 62
     5
 63
     7
 74
     1
 91
        4
 64
     7
 65
   257
 75
     1
175
     1
 42
1.0
 92
        8
 66
     7
 43
1.0
 76
     1
 77
     6
 78
     2
 67
     7
 79
     5
170
     0
171
     0
290
     0
174
     0
 93
        1
 44
0.0
173
     0
291
     1
 45
0.0
1001
ACAD
1000
AcDbSavedByObjectVersion
1070
     0
  0
VISUALSTYLE
  5
2AA
102
{ACAD_XDICTIONARY
360
31C
102
}
102
{ACAD_REACTORS
330
2B
102
}
330
2B
100
AcDbVisualStyle
  2
Facepattern
 70
    15
 71
     2
 72
     2
 73
     0
 90
        0
 40
-0.6
 41
-30.0
 62
     5
 63
     7
 74
     1
 91
        4
 64
     7
 65
   257
 75
     1
175
     1
 42
1.0
 92
        8
 66
     7
 43
1.0
 76
     1
 77
     6
 78
     2
 67
     7
 79
     5
170
     0
171
     0
290
     0
174
     0
 93
        1
 44
0.0
173
     0
291
     1
 45
0.0
1001
ACAD
1000
AcDbSavedByObjectVersion
1070
     0
  0
VISUALSTYLE
  5
29F
102
{ACAD_XDICTIONARY
360
306
102
}
102
{ACAD_REACTORS
330
2B
102
}
330
2B
100
AcDbVisualStyle
  2
Flat
 70
     0
 71
     2
 72
     1
 73
     1
 90
        2
 40
-0.6
 41
30.0
 62
     5
 63
     7
 74
     0
 91
        0
 64
     7
 65
   257
 75
     1
175
     1
 42
1.0
 92
        8
 66
     7
 43
1.0
 76
     1
 77
     6
 78
     2
 67
     7
 79
     5
170
     0
171
     0
290
     0
174
     0
 93
       13
 44
0.0
173
     0
291
     1
 45
0.0
1001
ACAD
1000
AcDbSavedByObjectVersion
1070
     0
  0
VISUALSTYLE
  5
2A0
102
{ACAD_XDICTIONARY
360
308
102
}
102
{ACAD_REACTORS
330
2B
102
}
330
2B
100
AcDbVisualStyle
  2
FlatWithEdges
 70
     1
 71
     2
 72
     1
 73
     1
 90
        2
 40
-0.6
 41
30.0
 62
     5
 63
     7
 74
     1
 91
        0
 64
     7
 65
   257
 75
     1
175
     1
 42
1.0
 92
        0
 66
   257
 43
1.0
 76
     1
 77
     6
 78
     2
 67
     7
 79
     5
170
     0
171
     0
290
     0
174
     0
 93
       13
 44
0.0
173
     0
291
     1
 45
0.0
1001
ACAD
1000
AcDbSavedByObjectVersion
1070
     0
  0
VISUALSTYLE
  5
2A1
102
{ACAD_XDICTIONARY
360
30A
102
}
102
{ACAD_REACTORS
330
2B
102
}
330
2B
100
AcDbVisualStyle
  2
Gouraud
 70
     2
 71
     2
 72
     2
 73
     1
 90
        2
 40
-0.6
 41
30.0
 62
     5
 63
     7
 74
     0
 91
        0
 64
     7
 65
   257
 75
     1
175
     1
 42
1.0
 92
        0
 66
     7
 43
1.0
 76
     1
 77
     6
 78
     2
 67
     7
 79
     5
170
     0
171
     0
290
     0
174
     0
 93
       13
 44
0.0
173
     0
291
     1
 45
0.0
1001
ACAD
1000
AcDbSavedByObjectVersion
1070
     0
  0
VISUALSTYLE
  5
2A2
102
{ACAD_XDICTIONARY
360
30C
102
}
102
{ACAD_REACTORS
330
2B
102
}
330
2B
100
AcDbVisualStyle
  2
GouraudWithEdges
 70
     3
 71
     2
 72
     2
 73
     1
 90
        2
 40
-0.6
 41
30.0
 62
     5
 63
     7
 74
     1
 91
        0
 64
     7
 65
   257
 75
     1
175
     1
 42
1.0
 92
        0
 66
   257
 43
1.0
 76
     1
 77
     6
 78
     2
 67
     7
 79
     5
170
     0
171
     0
290
     0
174
     0
 93
       13
 44
0.0
173
     0
291
     1
 45
0.0
1001
ACAD
1000
AcDbSavedByObjectVersion
1070
     0
  0
VISUALSTYLE
  5
2A4
102
{ACAD_XDICTIONARY
360
310
102
}
102
{ACAD_REACTORS
330
2B
102
}
330
2B
100
AcDbVisualStyle
  2
Hidden
 70
     6
 71
     1
 72
     2
 73
     2
 90
        0
 40
-0.6
 41
-30.0
 62
     5
 63
     7
 74
     2
 91
        2
 64
     7
 65
   257
 75
     2
175
     1
 42
40.0
 92
        0
 66
   257
 43
1.0
 76
     1
 77
     6
 78
     2
 67
     7
 79
     3
170
     0
171
     0
290
     0
174
     0
 93
        1
 44
0.0
173
     0
291
     0
 45
0.0
1001
ACAD
1000
AcDbSavedByObjectVersion
1070
     0
  0
VISUALSTYLE
  5
2B1
102
{ACAD_XDICTIONARY
360
32A
102
}
102
{ACAD_REACTORS
330
2B
102
}
330
2B
100
AcDbVisualStyle
  2
JitterOff
 70
    20
 71
     2
 72
     2
 73
     0
 90
        0
 40
-0.6
 41
-30.0
 62
     5
 63
     7
 74
     1
 91
        4
 64
     7
 65
   257
 75
     1
175
     1
 42
1.0
 92
       10
 66
     7
 43
1.0
 76
     1
 77
     6
 78
     2
 67
     7
 79
     5
170
     0
171
     0
290
     0
174
     0
 93
        1
 44
0.0
173
     0
291
     1
 45
0.0
1001
ACAD
1000
AcDbSavedByObjectVersion
1070
     0
  0
VISUALSTYLE
  5
2A9
102
{ACAD_XDICTIONARY
360
31A
102
}
102
{ACAD_REACTORS
330
2B
102
}
330
2B
100
AcDbVisualStyle
  2
Linepattern
 70
    14
 71
     2
 72
     2
 73
     0
 90
        0
 40
-0.6
 41
-30.0
 62
     5
 63
     7
 74
     1
 91
        4
 64
     7
 65
   257
 75
     7
175
     7
 42
1.0
 92
        8
 66
     7
 43
1.0
 76
     1
 77
     6
 78
     2
 67
     7
 79
     5
170
     0
171
     0
290
     0
174
     0
 93
        1
 44
0.0
173
     0
291
     1
 45
0.0
1001
ACAD
1000
AcDbSavedByObjectVersion
1070
     0
  0
VISUALSTYLE
  5
2B2
102
{ACAD_XDICTIONARY
360
32C
102
}
102
{ACAD_REACTORS
330
2B
102
}
330
2B
100
AcDbVisualStyle
  2
OverhangOff
 70
    21
 71
     2
 72
     2
 73
     0
 90
        0
 40
-0.6
 41
-30.0
 62
     5
 63
     7
 74
     1
 91
        4
 64
     7
 65
   257
 75
     1
175
     1
 42
1.0
 92
        9
 66
     7
 43
1.0
 76
     1
 77
     6
 78
     2
 67
     7
 79
     5
170
     0
171
     0
290
     0
174
     0
 93
        1
 44
0.0
173
     0
291
     1
 45
0.0
1001
ACAD
1000
AcDbSavedByObjectVersion
1070
     0
  0
VISUALSTYLE
  5
4B
102
{ACAD_XDICTIONARY
360
2FC
102
}
102
{ACAD_REACTORS
330
2B
102
}
330
2B
100
AcDbVisualStyle
  2
Realistic
 70
     8
 71
     2
 72
     2
 73
     0
 90
        0
 40
-0.6
 41
-30.0
 62
     5
 63
     7
 74
     1
 91
        0
 64
     7
 65
   257
 75
     1
175
     1
 42
1.0
 92
        8
 66
     8
 43
1.0
 76
     1
 77
     6
 78
     2
 67
     7
 79
     5
170
     0
171
     0
290
     0
174
     0
 93
       13
 44
0.0
173
     0
291
     0
 45
0.0
1001
ACAD
1000
AcDbSavedByObjectVersion
1070
     0
  0
VISUALSTYLE
  5
2B0
102
{ACAD_XDICTIONARY
360
328
102
}
102
{ACAD_REACTORS
330
2B
102
}
330
2B
100
AcDbVisualStyle
  2
Shaded
 70
    27
 71
     2
 72
     2
 73
     1
 90
        2
 40
-0.6
 41
30.0
 62
     5
 63
     7
 74
     0
 91
        4
 64
     7
 65
   257
 75
     1
175
     1
 42
1.0
 92
        8
 66
   257
 43
1.0
 76
     1
 77
     6
 78
     2
 67
     8
 79
     3
170
     0
171
     0
290
     0
174
     0
 93
        5
 44
0.0
173
     0
291
     0
 45
0.0
1001
ACAD
1000
AcDbSavedByObjectVersion
1070
     0
  0
VISUALSTYLE
  5
2AF
102
{ACAD_XDICTIONARY
360
326
102
}
102
{ACAD_REACTORS
330
2B
102
}
330
2B
100
AcDbVisualStyle
  2
Shaded with edges
 70
    26
 71
     2
 72
     2
 73
     1
 90
        2
 40
-0.6
 41
30.0
 62
     5
 63
     7
 74
     1
 91
       10
 64
     7
 65
   257
 75
     2
175
     1
 42
1.0
 92
        8
 66
   257
 43
1.0
 76
     1
 77
     6
 78
     2
 67
     7
 79
     3
170
     0
171
     0
290
     0
174
     0
 93
        5
 44
0.0
173
     0
291
     0
 45
0.0
1001
ACAD
1000
AcDbSavedByObjectVersion
1070
     0
  0
VISUALSTYLE
  5
2AC
102
{ACAD_XDICTIONARY
360
320
102
}
102
{ACAD_REACTORS
330
2B
102
}
330
2B
100
AcDbVisualStyle
  2
Shades of Gray
 70
    23
 71
     2
 72
     2
 73
     3
 90
        0
 40
-0.6
 41
-30.0
 62
     5
 63
     7
 74
     2
 91
        2
 64
     7
 65
     7
 75
     1
175
     1
 42
40.0
 92
        8
 66
     7
 43
1.0
 76
     1
 77
     6
 78
     2
 67
     7
 79
     3
170
     0
171
     0
290
     0
174
     0
 93
        1
 44
0.0
173
     0
291
     0
 45
0.0
1001
ACAD
1000
AcDbSavedByObjectVersion
1070
     0
  0
VISUALSTYLE
  5
2AD
102
{ACAD_XDICTIONARY
360
322
102
}
102
{ACAD_REACTORS
330
2B
102
}
330
2B
100
AcDbVisualStyle
  2
Sketchy
 70
    24
 71
     1
 72
     2
 73
     2
 90
        0
 40
-0.6
 41
-30.0
 62
     5
 63
     7
 74
     2
 91
        2
 64
     7
 65
     7
 75
     1
175
     1
 42
40.0
 92
       11
 66
     7
 43
1.0
 76
     1
 77
     6
 78
     2
 67
     7
 79
     6
170
     0
171
     0
290
     0
174
     0
 93
        1
 44
0.0
173
     0
291
     0
 45
0.0
1001
ACAD
1000
AcDbSavedByObjectVersion
1070
     0
  0
VISUALSTYLE
  5
2A8
102
{ACAD_XDICTIONARY
360
318
102
}
102
{ACAD_REACTORS
330
2B
102
}
330
2B
100
AcDbVisualStyle
  2
Thicken
 70
    13
 71
     2
 72
     2
 73
     0
 90
        0
 40
-0.6
 41
-30.0
 62
     5
 63
     7
 74
     1
 91
        4
 64
     7
 65
   257
 75
     1
175
     1
 42
1.0
 92
       12
 66
     7
 43
1.0
 76
     1
 77
     6
 78
     2
 67
     7
 79
     5
170
     0
171
     0
290
     0
174
     0
 93
        1
 44
0.0
173
     0
291
     1
 45
0.0
1001
ACAD
1000
AcDbSavedByObjectVersion
1070
     0
  0
VISUALSTYLE
  5
4C
102
{ACAD_XDICTIONARY
360
2FE
102
}
102
{ACAD_REACTORS
330
2B
102
}
330
2B
100
AcDbVisualStyle
  2
Wireframe
 70
     5
 71
     0
 72
     2
 73
     0
 90
        0
 40
-0.6
 41
-30.0
 62
     5
 63
     7
 74
     1
 91
        4
 64
     7
 65
   257
 75
     1
175
     1
 42
1.0
 92
        0
 66
   257
 43
1.0
 76
     1
 77
     6
 78
     2
 67
     7
 79
     3
170
     0
171
     0
290
     0
174
     0
 93
        1
 44
0.0
173
     0
291
     0
 45
0.0
1001
ACAD
1000
AcDbSavedByObjectVersion
1070
     0
  0
VISUALSTYLE
  5
2AE
102
{ACAD_XDICTIONARY
360
324
102
}
102
{ACAD_REACTORS
330
2B
102
}
330
2B
100
AcDbVisualStyle
  2
X-Ray
 70
    25
 71
     2
 72
     2
 73
     1
 90
        1
 40
0.5
 41
-30.0
 62
     5
 63
     7
 74
     1
 91
        0
 64
     7
 65
   257
 75
     1
175
     1
 42
1.0
 92
        8
 66
     7
 43
1.0
 76
     1
 77
     6
 78
     2
 67
     7
 79
     3
170
     0
171
     0
290
     0
174
     0
 93
       13
 44
0.0
173
     0
291
     0
 45
0.0
1001
ACAD
1000
AcDbSavedByObjectVersion
1070
     0
  0
DICTIONARYVAR
  5
29A
102
{ACAD_REACTORS
330
296
102
}
330
296
100
DictionaryVariables
280
     0
  1
1:1
  0
DICTIONARYVAR
  5
298
102
{ACAD_REACTORS
330
296
102
}
330
296
100
DictionaryVariables
280
     0
  1
STANDARD
  0
DICTIONARYVAR
  5
297
102
{ACAD_REACTORS
330
296
102
}
330
296
100
DictionaryVariables
280
     0
  1
STANDARD
  0
DICTIONARYVAR
  5
2E9
102
{ACAD_REACTORS
330
296
102
}
330
296
100
DictionaryVariables
280
     0
  1
1
  0
DICTIONARYVAR
  5
2E8
102
{ACAD_REACTORS
330
296
102
}
330
296
100
DictionaryVariables
280
     0
  1
1
  0
DICTIONARYVAR
  5
2E7
102
{ACAD_REACTORS
330
296
102
}
330
296
100
DictionaryVariables
280
     0
  1
0
  0
DICTIONARYVAR
  5
29C
102
{ACAD_REACTORS
330
296
102
}
330
296
100
DictionaryVariables
280
     0
  1
1
  0
DICTIONARYVAR
  5
29D
102
{ACAD_REACTORS
330
296
102
}
330
296
100
DictionaryVariables
280
     0
  1
15
  0
DICTIONARYVAR
  5
29B
102
{ACAD_REACTORS
330
296
102
}
330
296
100
DictionaryVariables
280
     0
  1
0
  0
DICTIONARYVAR
  5
299
102
{ACAD_REACTORS
330
296
102
}
330
296
100
DictionaryVariables
280
     0
  1
0
  0
DICTIONARYVAR
  5
2E6
102
{ACAD_REACTORS
330
296
102
}
330
296
100
DictionaryVariables
280
     0
  1
127
  0
DICTIONARYVAR
  5
2EA
102
{ACAD_REACTORS
330
296
102
}
330
296
100
DictionaryVariables
280
     0
  1
2
  0
DICTIONARY
  5
24A
102
{ACAD_REACTORS
330
249
102
}
330
249
100
AcDbDictionary
281
     1
  0
DICTIONARY
  5
244
102
{ACAD_REACTORS
330
23A
102
}
330
23A
100
AcDbDictionary
281
     1
  3
DWGSETTINGS
350
243
  3
TRANSSETTINGS
350
245
  0
DICTIONARY
  5
2F4
330
D
100
AcDbDictionary
280
     1
281
     1
  3
ACAD_XREC_ROUNDTRIP
360
2F5
  0
DICTIONARY
  5
2F2
330
7
100
AcDbDictionary
280
     1
281
     1
  3
ACAD_XREC_ROUNDTRIP
360
2F3
  0
DICTIONARY
  5
3D
330
3C
100
AcDbDictionary
280
     1
281
     1
  3
ACAD_XREC_ROUNDTRIP
360
2FA
  3
BUMPTILE
360
3E
  3
DIFFUSETILE
360
3F
  3
OPACITYTILE
360
40
  3
REFLECTIONTILE
360
41
  3
REFRACTIONTILE
360
42
  3
SPECULARTILE
360
43
  0
DICTIONARY
  5
35
330
34
100
AcDbDictionary
280
     1
281
     1
  3
ACAD_XREC_ROUNDTRIP
360
2F9
  3
BUMPTILE
360
36
  3
DIFFUSETILE
360
37
  3
OPACITYTILE
360
38
  3
REFLECTIONTILE
360
39
  3
REFRACTIONTILE
360
3A
  3
SPECULARTILE
360
3B
  0
DICTIONARY
  5
14
330
12
100
AcDbDictionary
280
     1
281
     1
  3
ACAD_XREC_ROUNDTRIP
360
2F6
  3
BUMPTILE
360
15
  3
DIFFUSETILE
360
16
  3
OPACITYTILE
360
17
  3
REFLECTIONTILE
360
18
  3
REFRACTIONTILE
360
19
  3
SPECULARTILE
360
1A
  0
DICTIONARY
  5
4A
330
49
100
AcDbDictionary
280
     1
281
     1
  3
ACAD_ROUNDTRIP_2008_TABLESTYLE_CELLSTYLEMAP
360
2EB
  3
ACAD_XREC_ROUNDTRIP
360
2FB
  0
DICTIONARY
  5
2F7
330
2A
100
AcDbDictionary
280
     1
281
     1
  3
ACAD_XREC_ROUNDTRIP
360
2F8
  0
DICTIONARY
  5
30E
330
2A3
100
AcDbDictionary
280
     1
281
     1
  3
ACAD_XREC_ROUNDTRIP
360
30F
  0
DICTIONARY
  5
316
330
2A7
100
AcDbDictionary
280
     1
281
     1
  3
ACAD_XREC_ROUNDTRIP
360
317
  0
DICTIONARY
  5
31E
330
2AB
100
AcDbDictionary
280
     1
281
     1
  3
ACAD_XREC_ROUNDTRIP
360
31F
  0
DICTIONARY
  5
312
330
2A5
100
AcDbDictionary
280
     1
281
     1
  3
ACAD_XREC_ROUNDTRIP
360
313
  0
DICTIONARY
  5
314
330
2A6
100
AcDbDictionary
280
     1
281
     1
  3
ACAD_XREC_ROUNDTRIP
360
315
  0
DICTIONARY
  5
32E
330
2B3
100
AcDbDictionary
280
     1
281
     1
  3
ACAD_XREC_ROUNDTRIP
360
32F
  0
DICTIONARY
  5
31C
330
2AA
100
AcDbDictionary
280
     1
281
     1
  3
ACAD_XREC_ROUNDTRIP
360
31D
  0
DICTIONARY
  5
306
330
29F
100
AcDbDictionary
280
     1
281
     1
  3
ACAD_XREC_ROUNDTRIP
360
307
  0
DICTIONARY
  5
308
330
2A0
100
AcDbDictionary
280
     1
281
     1
  3
ACAD_XREC_ROUNDTRIP
360
309
  0
DICTIONARY
  5
30A
330
2A1
100
AcDbDictionary
280
     1
281
     1
  3
ACAD_XREC_ROUNDTRIP
360
30B
  0
DICTIONARY
  5
30C
330
2A2
100
AcDbDictionary
280
     1
281
     1
  3
ACAD_XREC_ROUNDTRIP
360
30D
  0
DICTIONARY
  5
310
330
2A4
100
AcDbDictionary
280
     1
281
     1
  3
ACAD_XREC_ROUNDTRIP
360
311
  0
DICTIONARY
  5
32A
330
2B1
100
AcDbDictionary
280
     1
281
     1
  3
ACAD_XREC_ROUNDTRIP
360
32B
  0
DICTIONARY
  5
31A
330
2A9
100
AcDbDictionary
280
     1
281
     1
  3
ACAD_XREC_ROUNDTRIP
360
31B
  0
DICTIONARY
  5
32C
330
2B2
100
AcDbDictionary
280
     1
281
     1
  3
ACAD_XREC_ROUNDTRIP
360
32D
  0
DICTIONARY
  5
2FC
330
4B
100
AcDbDictionary
280
     1
281
     1
  3
ACAD_XREC_ROUNDTRIP
360
2FD
  0
DICTIONARY
  5
328
330
2B0
100
AcDbDictionary
280
     1
281
     1
  3
ACAD_XREC_ROUNDTRIP
360
329
  0
DICTIONARY
  5
326
330
2AF
100
AcDbDictionary
280
     1
281
     1
  3
ACAD_XREC_ROUNDTRIP
360
327
  0
DICTIONARY
  5
320
330
2AC
100
AcDbDictionary
280
     1
281
     1
  3
ACAD_XREC_ROUNDTRIP
360
321
  0
DICTIONARY
  5
322
330
2AD
100
AcDbDictionary
280
     1
281
     1
  3
ACAD_XREC_ROUNDTRIP
360
323
  0
DICTIONARY
  5
318
330
2A8
100
AcDbDictionary
280
     1
281
     1
  3
ACAD_XREC_ROUNDTRIP
360
319
  0
DICTIONARY
  5
2FE
330
4C
100
AcDbDictionary
280
     1
281
     1
  3
ACAD_XREC_ROUNDTRIP
360
2FF
  0
DICTIONARY
  5
324
330
2AE
100
AcDbDictionary
280
     1
281
     1
  3
ACAD_XREC_ROUNDTRIP
360
325
  0
XRECORD
  5
2F5
102
{ACAD_REACTORS
330
2F4
102
}
330
2F4
100
AcDbXrecord
280
     1
102
SHADEPLOT
 70
     0
102
SHADEPLOTRESLEVEL
 70
     2
102
SHADEPLOTCUSTOMDPI
 70
   300
  0
XRECORD
  5
2F3
102
{ACAD_REACTORS
330
2F2
102
}
330
2F2
100
AcDbXrecord
280
     1
102
SHADEPLOT
 70
     0
102
SHADEPLOTRESLEVEL
 70
     2
102
SHADEPLOTCUSTOMDPI
 70
   300
  0
XRECORD
  5
2FA
102
{ACAD_REACTORS
330
3D
102
}
330
3D
100
AcDbXrecord
280
     1
102
MATERIAL
148
0.0
149
0.0
149
0.0
 93
        0
 94
      127
282
     0
 72
     0
 77
     0
171
     0
175
     0
179
     0
273
     0
  0
XRECORD
  5
3E
102
{ACAD_REACTORS
330
3D
102
}
330
3D
100
AcDbXrecord
280
     1
270
     1
271
     1
  0
XRECORD
  5
3F
102
{ACAD_REACTORS
330
3D
102
}
330
3D
100
AcDbXrecord
280
     1
270
     1
271
     1
  0
XRECORD
  5
40
102
{ACAD_REACTORS
330
3D
102
}
330
3D
100
AcDbXrecord
280
     1
270
     1
271
     1
  0
XRECORD
  5
41
102
{ACAD_REACTORS
330
3D
102
}
330
3D
100
AcDbXrecord
280
     1
270
     1
271
     1
  0
XRECORD
  5
42
102
{ACAD_REACTORS
330
3D
102
}
330
3D
100
AcDbXrecord
280
     1
270
     1
271
     1
  0
XRECORD
  5
43
102
{ACAD_REACTORS
330
3D
102
}
330
3D
100
AcDbXrecord
280
     1
270
     1
271
     1
  0
XRECORD
  5
2F9
102
{ACAD_REACTORS
330
35
102
}
330
35
100
AcDbXrecord
280
     1
102
MATERIAL
148
0.0
149
0.0
149
0.0
 93
        0
 94
      127
282
     0
 72
     0
 77
     0
171
     0
175
     0
179
     0
273
     0
  0
XRECORD
  5
36
102
{ACAD_REACTORS
330
35
102
}
330
35
100
AcDbXrecord
280
     1
270
     1
271
     1
  0
XRECORD
  5
37
102
{ACAD_REACTORS
330
35
102
}
330
35
100
AcDbXrecord
280
     1
270
     1
271
     1
  0
XRECORD
  5
38
102
{ACAD_REACTORS
330
35
102
}
330
35
100
AcDbXrecord
280
     1
270
     1
271
     1
  0
XRECORD
  5
39
102
{ACAD_REACTORS
330
35
102
}
330
35
100
AcDbXrecord
280
     1
270
     1
271
     1
  0
XRECORD
  5
3A
102
{ACAD_REACTORS
330
35
102
}
330
35
100
AcDbXrecord
280
     1
270
     1
271
     1
  0
XRECORD
  5
3B
102
{ACAD_REACTORS
330
35
102
}
330
35
100
AcDbXrecord
280
     1
270
     1
271
     1
  0
XRECORD
  5
2F6
102
{ACAD_REACTORS
330
14
102
}
330
14
100
AcDbXrecord
280
     1
102
MATERIAL
148
0.0
149
0.0
149
0.0
 93
        0
 94
      127
282
     0
 72
     0
 77
     0
171
     0
175
     0
179
     0
273
     0
  0
XRECORD
  5
15
102
{ACAD_REACTORS
330
14
102
}
330
14
100
AcDbXrecord
280
     1
270
     1
271
     1
  0
XRECORD
  5
16
102
{ACAD_REACTORS
330
14
102
}
330
14
100
AcDbXrecord
280
     1
270
     1
271
     1
  0
XRECORD
  5
17
102
{ACAD_REACTORS
330
14
102
}
330
14
100
AcDbXrecord
280
     1
270
     1
271
     1
  0
XRECORD
  5
18
102
{ACAD_REACTORS
330
14
102
}
330
14
100
AcDbXrecord
280
     1
270
     1
271
     1
  0
XRECORD
  5
19
102
{ACAD_REACTORS
330
14
102
}
330
14
100
AcDbXrecord
280
     1
270
     1
271
     1
  0
XRECORD
  5
1A
102
{ACAD_REACTORS
330
14
102
}
330
14
100
AcDbXrecord
280
     1
270
     1
271
     1
  0
CELLSTYLEMAP
  5
2EB
102
{ACAD_REACTORS
330
4A
102
}
330
4A
100
AcDbCellStyleMap
 90
        3
300
CELLSTYLE
  1
TABLEFORMAT_BEGIN
 90
        5
170
     1
 91
        0
 92
    32768
 62
   257
 93
        1
300
CONTENTFORMAT
  1
CONTENTFORMAT_BEGIN
 90
        0
 91
        0
 92
      512
 93
        0
300

 40
0.0
140
1.0
 94
        5
 62
     0
340
21
144
0.25
309
CONTENTFORMAT_END
171
     0
 94
        0
309
TABLEFORMAT_END
  1
CELLSTYLE_BEGIN
 90
        1
 91
        1
300
_TITLE
309
CELLSTYLE_END
300
CELLSTYLE
  1
TABLEFORMAT_BEGIN
 90
        5
170
     1
 91
        0
 92
        0
 62
   257
 93
        1
300
CONTENTFORMAT
  1
CONTENTFORMAT_BEGIN
 90
        0
 91
        0
 92
      512
 93
        0
300

 40
0.0
140
1.0
 94
        5
 62
     0
340
21
144
0.18
309
CONTENTFORMAT_END
171
     0
 94
        0
309
TABLEFORMAT_END
  1
CELLSTYLE_BEGIN
 90
        2
 91
        1
300
_HEADER
309
CELLSTYLE_END
300
CELLSTYLE
  1
TABLEFORMAT_BEGIN
 90
        5
170
     1
 91
        0
 92
        0
 62
   257
 93
        1
300
CONTENTFORMAT
  1
CONTENTFORMAT_BEGIN
 90
        0
 91
        0
 92
      512
 93
        0
300

 40
0.0
140
1.0
 94
        2
 62
     0
340
21
144
0.18
309
CONTENTFORMAT_END
171
     0
 94
        0
309
TABLEFORMAT_END
  1
CELLSTYLE_BEGIN
 90
        3
 91
        2
300
_DATA
309
CELLSTYLE_END
  0
XRECORD
  5
2FB
102
{ACAD_REACTORS
330
4A
102
}
330
4A
100
AcDbXrecord
280
     1
102
ACAD_ROUNDTRIP_PRE2007_TABLESTYLE
 90
      512
 91
        0
  1

 92
      512
 93
        0
  2

 94
      512
 95
        0
  3

  0
XRECORD
  5
2F8
102
{ACAD_REACTORS
330
2F7
102
}
330
2F7
100
AcDbXrecord
280
     1
102
RTVSPropertyOp0
 70
     1
102
RTVSPropertyOp1
 70
     1
102
RTVSPropertyOp2
 70
     1
102
RTVSPropertyOp3
 70
     1
102
RTVSPropertyOp4
 70
     1
102
RTVSPropertyOp5
 70
     1
102
RTVSPropertyOp6
 70
     1
102
RTVSPropertyOp7
 70
     1
102
RTVSPropertyOp8
 70
     1
102
RTVSPropertyOp9
 70
     1
102
RTVSPropertyOp10
 70
     1
102
RTVSPropertyOp11
 70
     1
102
RTVSPropertyOp12
 70
     1
102
RTVSPropertyOp13
 70
     1
102
RTVSPropertyOp14
 70
     1
102
RTVSPropertyOp15
 70
     1
102
RTVSPropertyOp16
 70
     1
102
RTVSPropertyOp17
 70
     1
102
RTVSPropertyOp18
 70
     1
102
RTVSPropertyOp19
 70
     1
102
RTVSPropertyOp20
 70
     1
102
RTVSPropertyOp21
 70
     1
102
RTVSPropertyOp22
 70
     1
102
RTVSPropertyOp23
 70
     1
102
RTVSPropertyOp24
 70
     1
102
RTVSPropertyOp25
 70
     1
102
RTVSPropertyOp26
 70
     1
102
RTVSPropertyOp27
 70
     1
102
RTVSPropertyOp28
 70
     1
102
RTVSPropertyOp29
 70
     1
102
RTVSPropertyOp30
 70
     1
102
RTVSPropertyOp31
 70
     1
102
RTVSPropertyOp32
 70
     1
  0
XRECORD
  5
30F
102
{ACAD_REACTORS
330
30E
102
}
330
30E
100
AcDbXrecord
280
     1
102
RTVSPropertyOp0
 70
     1
102
RTVSPropertyOp1
 70
     1
102
RTVSPropertyOp2
 70
     1
102
RTVSPropertyOp3
 70
     1
102
RTVSPropertyOp4
 70
     1
102
RTVSPropertyOp5
 70
     1
102
RTVSPropertyOp6
 70
     1
102
RTVSPropertyOp7
 70
     1
102
RTVSPropertyOp8
 70
     1
102
RTVSPropertyOp9
 70
     1
102
RTVSPropertyOp10
 70
     1
102
RTVSPropertyOp11
 70
     1
102
RTVSPropertyOp12
 70
     1
102
RTVSPropertyOp13
 70
     1
102
RTVSPropertyOp14
 70
     1
102
RTVSPropertyOp15
 70
     1
102
RTVSPropertyOp16
 70
     1
102
RTVSPropertyOp17
 70
     1
102
RTVSPropertyOp18
 70
     1
102
RTVSPropertyOp19
 70
     1
102
RTVSPropertyOp20
 70
     1
102
RTVSPropertyOp21
 70
     1
102
RTVSPropertyOp22
 70
     1
102
RTVSPropertyOp23
 70
     1
102
RTVSPropertyOp24
 70
     1
102
RTVSPropertyOp25
 70
     1
102
RTVSPropertyOp26
 70
     1
102
RTVSPropertyOp27
 70
     1
102
RTVSPropertyOp28
 70
     1
102
RTVSPropertyOp29
 70
     1
102
RTVSPropertyOp30
 70
     1
102
RTVSPropertyOp31
 70
     1
102
RTVSPropertyOp32
 70
     1
  0
XRECORD
  5
317
102
{ACAD_REACTORS
330
316
102
}
330
316
100
AcDbXrecord
280
     1
102
RTVSPropertyOp0
 70
     1
102
RTVSPropertyOp1
 70
     1
102
RTVSPropertyOp2
 70
     1
102
RTVSPropertyOp3
 70
     1
102
RTVSPropertyOp4
 70
     1
102
RTVSPropertyOp5
 70
     1
102
RTVSPropertyOp6
 70
     1
102
RTVSPropertyOp7
 70
     1
102
RTVSPropertyOp8
 70
     1
102
RTVSPropertyOp9
 70
     1
102
RTVSPropertyOp10
 70
     1
102
RTVSPropertyOp11
 70
     1
102
RTVSPropertyOp12
 70
     1
102
RTVSPropertyOp13
 70
     1
102
RTVSPropertyOp14
 70
     1
102
RTVSPropertyOp15
 70
     1
102
RTVSPropertyOp16
 70
     1
102
RTVSPropertyOp17
 70
     1
102
RTVSPropertyOp18
 70
     1
102
RTVSPropertyOp19
 70
     1
102
RTVSPropertyOp20
 70
     1
102
RTVSPropertyOp21
 70
     1
102
RTVSPropertyOp22
 70
     1
102
RTVSPropertyOp23
 70
     1
102
RTVSPropertyOp24
 70
     1
102
RTVSPropertyOp25
 70
     1
102
RTVSPropertyOp26
 70
     1
102
RTVSPropertyOp27
 70
     1
102
RTVSPropertyOp28
 70
     1
102
RTVSPropertyOp29
 70
     1
102
RTVSPropertyOp30
 70
     1
102
RTVSPropertyOp31
 70
     1
102
RTVSPropertyOp32
 70
     1
  0
XRECORD
  5
31F
102
{ACAD_REACTORS
330
31E
102
}
330
31E
100
AcDbXrecord
280
     1
102
RTVSPropertyOp0
 70
     1
102
RTVSPropertyOp1
 70
     1
102
RTVSPropertyOp2
 70
     1
102
RTVSPropertyOp3
 70
     1
102
RTVSPropertyOp4
 70
     1
102
RTVSPropertyOp5
 70
     1
102
RTVSPropertyOp6
 70
     1
102
RTVSPropertyOp7
 70
     1
102
RTVSPropertyOp8
 70
     1
102
RTVSPropertyOp9
 70
     1
102
RTVSPropertyOp10
 70
     1
102
RTVSPropertyOp11
 70
     1
102
RTVSPropertyOp12
 70
     1
102
RTVSPropertyOp13
 70
     1
102
RTVSPropertyOp14
 70
     1
102
RTVSPropertyOp15
 70
     1
102
RTVSPropertyOp16
 70
     1
102
RTVSPropertyOp17
 70
     1
102
RTVSPropertyOp18
 70
     1
102
RTVSPropertyOp19
 70
     1
102
RTVSPropertyOp20
 70
     1
102
RTVSPropertyOp21
 70
     1
102
RTVSPropertyOp22
 70
     1
102
RTVSPropertyOp23
 70
     1
102
RTVSPropertyOp24
 70
     1
102
RTVSPropertyOp25
 70
     1
102
RTVSPropertyOp26
 70
     1
102
RTVSPropertyOp27
 70
     1
102
RTVSPropertyOp28
 70
     1
102
RTVSPropertyOp29
 70
     1
102
RTVSPropertyOp30
 70
     1
102
RTVSPropertyOp31
 70
     1
102
RTVSPropertyOp32
 70
     1
  0
XRECORD
  5
313
102
{ACAD_REACTORS
330
312
102
}
330
312
100
AcDbXrecord
280
     1
102
RTVSPropertyOp0
 70
     1
102
RTVSPropertyOp1
 70
     1
102
RTVSPropertyOp2
 70
     1
102
RTVSPropertyOp3
 70
     1
102
RTVSPropertyOp4
 70
     1
102
RTVSPropertyOp5
 70
     1
102
RTVSPropertyOp6
 70
     1
102
RTVSPropertyOp7
 70
     1
102
RTVSPropertyOp8
 70
     1
102
RTVSPropertyOp9
 70
     1
102
RTVSPropertyOp10
 70
     1
102
RTVSPropertyOp11
 70
     1
102
RTVSPropertyOp12
 70
     1
102
RTVSPropertyOp13
 70
     1
102
RTVSPropertyOp14
 70
     1
102
RTVSPropertyOp15
 70
     1
102
RTVSPropertyOp16
 70
     1
102
RTVSPropertyOp17
 70
     1
102
RTVSPropertyOp18
 70
     1
102
RTVSPropertyOp19
 70
     1
102
RTVSPropertyOp20
 70
     1
102
RTVSPropertyOp21
 70
     1
102
RTVSPropertyOp22
 70
     1
102
RTVSPropertyOp23
 70
     1
102
RTVSPropertyOp24
 70
     1
102
RTVSPropertyOp25
 70
     1
102
RTVSPropertyOp26
 70
     1
102
RTVSPropertyOp27
 70
     1
102
RTVSPropertyOp28
 70
     1
102
RTVSPropertyOp29
 70
     1
102
RTVSPropertyOp30
 70
     1
102
RTVSPropertyOp31
 70
     1
102
RTVSPropertyOp32
 70
     1
  0
XRECORD
  5
315
102
{ACAD_REACTORS
330
314
102
}
330
314
100
AcDbXrecord
280
     1
102
RTVSPropertyOp0
 70
     1
102
RTVSPropertyOp1
 70
     1
102
RTVSPropertyOp2
 70
     1
102
RTVSPropertyOp3
 70
     1
102
RTVSPropertyOp4
 70
     1
102
RTVSPropertyOp5
 70
     1
102
RTVSPropertyOp6
 70
     1
102
RTVSPropertyOp7
 70
     1
102
RTVSPropertyOp8
 70
     1
102
RTVSPropertyOp9
 70
     1
102
RTVSPropertyOp10
 70
     1
102
RTVSPropertyOp11
 70
     1
102
RTVSPropertyOp12
 70
     1
102
RTVSPropertyOp13
 70
     1
102
RTVSPropertyOp14
 70
     1
102
RTVSPropertyOp15
 70
     1
102
RTVSPropertyOp16
 70
     1
102
RTVSPropertyOp17
 70
     1
102
RTVSPropertyOp18
 70
     1
102
RTVSPropertyOp19
 70
     1
102
RTVSPropertyOp20
 70
     1
102
RTVSPropertyOp21
 70
     1
102
RTVSPropertyOp22
 70
     1
102
RTVSPropertyOp23
 70
     1
102
RTVSPropertyOp24
 70
     1
102
RTVSPropertyOp25
 70
     1
102
RTVSPropertyOp26
 70
     1
102
RTVSPropertyOp27
 70
     1
102
RTVSPropertyOp28
 70
     1
102
RTVSPropertyOp29
 70
     1
102
RTVSPropertyOp30
 70
     1
102
RTVSPropertyOp31
 70
     1
102
RTVSPropertyOp32
 70
     1
  0
XRECORD
  5
32F
102
{ACAD_REACTORS
330
32E
102
}
330
32E
100
AcDbXrecord
280
     1
102
RTVSPropertyOp0
 70
     0
102
RTVSPropertyOp1
 70
     0
102
RTVSPropertyOp2
 70
     0
102
RTVSPropertyOp3
 70
     0
102
RTVSPropertyOp4
 70
     0
102
RTVSPropertyOp5
 70
     0
102
RTVSPropertyOp6
 70
     0
102
RTVSPropertyOp7
 70
     0
102
RTVSPropertyOp8
 70
     0
102
RTVSPropertyOp9
 70
     0
102
RTVSPropertyOp10
 70
     0
102
RTVSPropertyOp11
 70
     0
102
RTVSPropertyOp12
 70
     0
102
RTVSPropertyOp13
 70
     0
102
RTVSPropertyOp14
 70
     2
102
RTVSPropertyOp15
 70
     0
102
RTVSPropertyOp16
 70
     0
102
RTVSPropertyOp17
 70
     0
102
RTVSPropertyOp18
 70
     0
102
RTVSPropertyOp19
 70
     0
102
RTVSPropertyOp20
 70
     0
102
RTVSPropertyOp21
 70
     0
102
RTVSPropertyOp22
 70
     0
102
RTVSPropertyOp23
 70
     0
102
RTVSPropertyOp24
 70
     0
102
RTVSPropertyOp25
 70
     0
102
RTVSPropertyOp26
 70
     0
102
RTVSPropertyOp27
 70
     0
102
RTVSPropertyOp28
 70
     0
102
RTVSPropertyOp29
 70
     0
102
RTVSPropertyOp30
 70
     0
102
RTVSPropertyOp31
 70
     0
102
RTVSPropertyOp32
 70
     0
  0
XRECORD
  5
31D
102
{ACAD_REACTORS
330
31C
102
}
330
31C
100
AcDbXrecord
280
     1
102
RTVSPropertyOp0
 70
     1
102
RTVSPropertyOp1
 70
     1
102
RTVSPropertyOp2
 70
     1
102
RTVSPropertyOp3
 70
     1
102
RTVSPropertyOp4
 70
     1
102
RTVSPropertyOp5
 70
     1
102
RTVSPropertyOp6
 70
     1
102
RTVSPropertyOp7
 70
     1
102
RTVSPropertyOp8
 70
     1
102
RTVSPropertyOp9
 70
     1
102
RTVSPropertyOp10
 70
     1
102
RTVSPropertyOp11
 70
     1
102
RTVSPropertyOp12
 70
     1
102
RTVSPropertyOp13
 70
     1
102
RTVSPropertyOp14
 70
     1
102
RTVSPropertyOp15
 70
     1
102
RTVSPropertyOp16
 70
     1
102
RTVSPropertyOp17
 70
     1
102
RTVSPropertyOp18
 70
     1
102
RTVSPropertyOp19
 70
     1
102
RTVSPropertyOp20
 70
     1
102
RTVSPropertyOp21
 70
     1
102
RTVSPropertyOp22
 70
     1
102
RTVSPropertyOp23
 70
     1
102
RTVSPropertyOp24
 70
     1
102
RTVSPropertyOp25
 70
     1
102
RTVSPropertyOp26
 70
     1
102
RTVSPropertyOp27
 70
     1
102
RTVSPropertyOp28
 70
     1
102
RTVSPropertyOp29
 70
     1
102
RTVSPropertyOp30
 70
     1
102
RTVSPropertyOp31
 70
     1
102
RTVSPropertyOp32
 70
     1
  0
XRECORD
  5
307
102
{ACAD_REACTORS
330
306
102
}
330
306
100
AcDbXrecord
280
     1
102
RTVSPropertyOp0
 70
     1
102
RTVSPropertyOp1
 70
     1
102
RTVSPropertyOp2
 70
     1
102
RTVSPropertyOp3
 70
     1
102
RTVSPropertyOp4
 70
     1
102
RTVSPropertyOp5
 70
     1
102
RTVSPropertyOp6
 70
     1
102
RTVSPropertyOp7
 70
     1
102
RTVSPropertyOp8
 70
     1
102
RTVSPropertyOp9
 70
     1
102
RTVSPropertyOp10
 70
     1
102
RTVSPropertyOp11
 70
     1
102
RTVSPropertyOp12
 70
     1
102
RTVSPropertyOp13
 70
     1
102
RTVSPropertyOp14
 70
     1
102
RTVSPropertyOp15
 70
     1
102
RTVSPropertyOp16
 70
     1
102
RTVSPropertyOp17
 70
     1
102
RTVSPropertyOp18
 70
     1
102
RTVSPropertyOp19
 70
     1
102
RTVSPropertyOp20
 70
     1
102
RTVSPropertyOp21
 70
     1
102
RTVSPropertyOp22
 70
     1
102
RTVSPropertyOp23
 70
     1
102
RTVSPropertyOp24
 70
     1
102
RTVSPropertyOp25
 70
     1
102
RTVSPropertyOp26
 70
     1
102
RTVSPropertyOp27
 70
     1
102
RTVSPropertyOp28
 70
     1
102
RTVSPropertyOp29
 70
     1
102
RTVSPropertyOp30
 70
     1
102
RTVSPropertyOp31
 70
     1
102
RTVSPropertyOp32
 70
     1
  0
XRECORD
  5
309
102
{ACAD_REACTORS
330
308
102
}
330
308
100
AcDbXrecord
280
     1
102
RTVSPropertyOp0
 70
     1
102
RTVSPropertyOp1
 70
     1
102
RTVSPropertyOp2
 70
     1
102
RTVSPropertyOp3
 70
     1
102
RTVSPropertyOp4
 70
     1
102
RTVSPropertyOp5
 70
     1
102
RTVSPropertyOp6
 70
     1
102
RTVSPropertyOp7
 70
     1
102
RTVSPropertyOp8
 70
     1
102
RTVSPropertyOp9
 70
     1
102
RTVSPropertyOp10
 70
     1
102
RTVSPropertyOp11
 70
     1
102
RTVSPropertyOp12
 70
     1
102
RTVSPropertyOp13
 70
     1
102
RTVSPropertyOp14
 70
     1
102
RTVSPropertyOp15
 70
     1
102
RTVSPropertyOp16
 70
     1
102
RTVSPropertyOp17
 70
     1
102
RTVSPropertyOp18
 70
     1
102
RTVSPropertyOp19
 70
     1
102
RTVSPropertyOp20
 70
     1
102
RTVSPropertyOp21
 70
     1
102
RTVSPropertyOp22
 70
     1
102
RTVSPropertyOp23
 70
     1
102
RTVSPropertyOp24
 70
     1
102
RTVSPropertyOp25
 70
     1
102
RTVSPropertyOp26
 70
     1
102
RTVSPropertyOp27
 70
     1
102
RTVSPropertyOp28
 70
     1
102
RTVSPropertyOp29
 70
     1
102
RTVSPropertyOp30
 70
     1
102
RTVSPropertyOp31
 70
     1
102
RTVSPropertyOp32
 70
     1
  0
XRECORD
  5
30B
102
{ACAD_REACTORS
330
30A
102
}
330
30A
100
AcDbXrecord
280
     1
102
RTVSPropertyOp0
 70
     1
102
RTVSPropertyOp1
 70
     1
102
RTVSPropertyOp2
 70
     1
102
RTVSPropertyOp3
 70
     1
102
RTVSPropertyOp4
 70
     1
102
RTVSPropertyOp5
 70
     1
102
RTVSPropertyOp6
 70
     1
102
RTVSPropertyOp7
 70
     1
102
RTVSPropertyOp8
 70
     1
102
RTVSPropertyOp9
 70
     1
102
RTVSPropertyOp10
 70
     1
102
RTVSPropertyOp11
 70
     1
102
RTVSPropertyOp12
 70
     1
102
RTVSPropertyOp13
 70
     1
102
RTVSPropertyOp14
 70
     1
102
RTVSPropertyOp15
 70
     1
102
RTVSPropertyOp16
 70
     1
102
RTVSPropertyOp17
 70
     1
102
RTVSPropertyOp18
 70
     1
102
RTVSPropertyOp19
 70
     1
102
RTVSPropertyOp20
 70
     1
102
RTVSPropertyOp21
 70
     1
102
RTVSPropertyOp22
 70
     1
102
RTVSPropertyOp23
 70
     1
102
RTVSPropertyOp24
 70
     1
102
RTVSPropertyOp25
 70
     1
102
RTVSPropertyOp26
 70
     1
102
RTVSPropertyOp27
 70
     1
102
RTVSPropertyOp28
 70
     1
102
RTVSPropertyOp29
 70
     1
102
RTVSPropertyOp30
 70
     1
102
RTVSPropertyOp31
 70
     1
102
RTVSPropertyOp32
 70
     1
  0
XRECORD
  5
30D
102
{ACAD_REACTORS
330
30C
102
}
330
30C
100
AcDbXrecord
280
     1
102
RTVSPropertyOp0
 70
     1
102
RTVSPropertyOp1
 70
     1
102
RTVSPropertyOp2
 70
     1
102
RTVSPropertyOp3
 70
     1
102
RTVSPropertyOp4
 70
     1
102
RTVSPropertyOp5
 70
     1
102
RTVSPropertyOp6
 70
     1
102
RTVSPropertyOp7
 70
     1
102
RTVSPropertyOp8
 70
     1
102
RTVSPropertyOp9
 70
     1
102
RTVSPropertyOp10
 70
     1
102
RTVSPropertyOp11
 70
     1
102
RTVSPropertyOp12
 70
     1
102
RTVSPropertyOp13
 70
     1
102
RTVSPropertyOp14
 70
     1
102
RTVSPropertyOp15
 70
     1
102
RTVSPropertyOp16
 70
     1
102
RTVSPropertyOp17
 70
     1
102
RTVSPropertyOp18
 70
     1
102
RTVSPropertyOp19
 70
     1
102
RTVSPropertyOp20
 70
     1
102
RTVSPropertyOp21
 70
     1
102
RTVSPropertyOp22
 70
     1
102
RTVSPropertyOp23
 70
     1
102
RTVSPropertyOp24
 70
     1
102
RTVSPropertyOp25
 70
     1
102
RTVSPropertyOp26
 70
     1
102
RTVSPropertyOp27
 70
     1
102
RTVSPropertyOp28
 70
     1
102
RTVSPropertyOp29
 70
     1
102
RTVSPropertyOp30
 70
     1
102
RTVSPropertyOp31
 70
     1
102
RTVSPropertyOp32
 70
     1
  0
XRECORD
  5
311
102
{ACAD_REACTORS
330
310
102
}
330
310
100
AcDbXrecord
280
     1
102
RTVSPropertyOp0
 70
     1
102
RTVSPropertyOp1
 70
     1
102
RTVSPropertyOp2
 70
     1
102
RTVSPropertyOp3
 70
     1
102
RTVSPropertyOp4
 70
     1
102
RTVSPropertyOp5
 70
     1
102
RTVSPropertyOp6
 70
     1
102
RTVSPropertyOp7
 70
     1
102
RTVSPropertyOp8
 70
     1
102
RTVSPropertyOp9
 70
     1
102
RTVSPropertyOp10
 70
     1
102
RTVSPropertyOp11
 70
     1
102
RTVSPropertyOp12
 70
     1
102
RTVSPropertyOp13
 70
     1
102
RTVSPropertyOp14
 70
     1
102
RTVSPropertyOp15
 70
     1
102
RTVSPropertyOp16
 70
     1
102
RTVSPropertyOp17
 70
     1
102
RTVSPropertyOp18
 70
     1
102
RTVSPropertyOp19
 70
     1
102
RTVSPropertyOp20
 70
     1
102
RTVSPropertyOp21
 70
     1
102
RTVSPropertyOp22
 70
     1
102
RTVSPropertyOp23
 70
     1
102
RTVSPropertyOp24
 70
     1
102
RTVSPropertyOp25
 70
     1
102
RTVSPropertyOp26
 70
     1
102
RTVSPropertyOp27
 70
     1
102
RTVSPropertyOp28
 70
     1
102
RTVSPropertyOp29
 70
     1
102
RTVSPropertyOp30
 70
     1
102
RTVSPropertyOp31
 70
     1
102
RTVSPropertyOp32
 70
     1
  0
XRECORD
  5
32B
102
{ACAD_REACTORS
330
32A
102
}
330
32A
100
AcDbXrecord
280
     1
102
RTVSPropertyOp0
 70
     0
102
RTVSPropertyOp1
 70
     0
102
RTVSPropertyOp2
 70
     0
102
RTVSPropertyOp3
 70
     0
102
RTVSPropertyOp4
 70
     0
102
RTVSPropertyOp5
 70
     0
102
RTVSPropertyOp6
 70
     0
102
RTVSPropertyOp7
 70
     0
102
RTVSPropertyOp8
 70
     0
102
RTVSPropertyOp9
 70
     0
102
RTVSPropertyOp10
 70
     0
102
RTVSPropertyOp11
 70
     0
102
RTVSPropertyOp12
 70
     0
102
RTVSPropertyOp13
 70
     0
102
RTVSPropertyOp14
 70
     2
102
RTVSPropertyOp15
 70
     0
102
RTVSPropertyOp16
 70
     0
102
RTVSPropertyOp17
 70
     0
102
RTVSPropertyOp18
 70
     0
102
RTVSPropertyOp19
 70
     0
102
RTVSPropertyOp20
 70
     0
102
RTVSPropertyOp21
 70
     0
102
RTVSPropertyOp22
 70
     0
102
RTVSPropertyOp23
 70
     0
102
RTVSPropertyOp24
 70
     0
102
RTVSPropertyOp25
 70
     0
102
RTVSPropertyOp26
 70
     0
102
RTVSPropertyOp27
 70
     0
102
RTVSPropertyOp28
 70
     0
102
RTVSPropertyOp29
 70
     0
102
RTVSPropertyOp30
 70
     0
102
RTVSPropertyOp31
 70
     0
102
RTVSPropertyOp32
 70
     0
  0
XRECORD
  5
31B
102
{ACAD_REACTORS
330
31A
102
}
330
31A
100
AcDbXrecord
280
     1
102
RTVSPropertyOp0
 70
     1
102
RTVSPropertyOp1
 70
     1
102
RTVSPropertyOp2
 70
     1
102
RTVSPropertyOp3
 70
     1
102
RTVSPropertyOp4
 70
     1
102
RTVSPropertyOp5
 70
     1
102
RTVSPropertyOp6
 70
     1
102
RTVSPropertyOp7
 70
     1
102
RTVSPropertyOp8
 70
     1
102
RTVSPropertyOp9
 70
     1
102
RTVSPropertyOp10
 70
     1
102
RTVSPropertyOp11
 70
     1
102
RTVSPropertyOp12
 70
     1
102
RTVSPropertyOp13
 70
     1
102
RTVSPropertyOp14
 70
     1
102
RTVSPropertyOp15
 70
     1
102
RTVSPropertyOp16
 70
     1
102
RTVSPropertyOp17
 70
     1
102
RTVSPropertyOp18
 70
     1
102
RTVSPropertyOp19
 70
     1
102
RTVSPropertyOp20
 70
     1
102
RTVSPropertyOp21
 70
     1
102
RTVSPropertyOp22
 70
     1
102
RTVSPropertyOp23
 70
     1
102
RTVSPropertyOp24
 70
     1
102
RTVSPropertyOp25
 70
     1
102
RTVSPropertyOp26
 70
     1
102
RTVSPropertyOp27
 70
     1
102
RTVSPropertyOp28
 70
     1
102
RTVSPropertyOp29
 70
     1
102
RTVSPropertyOp30
 70
     1
102
RTVSPropertyOp31
 70
     1
102
RTVSPropertyOp32
 70
     1
  0
XRECORD
  5
32D
102
{ACAD_REACTORS
330
32C
102
}
330
32C
100
AcDbXrecord
280
     1
102
RTVSPropertyOp0
 70
     0
102
RTVSPropertyOp1
 70
     0
102
RTVSPropertyOp2
 70
     0
102
RTVSPropertyOp3
 70
     0
102
RTVSPropertyOp4
 70
     0
102
RTVSPropertyOp5
 70
     0
102
RTVSPropertyOp6
 70
     0
102
RTVSPropertyOp7
 70
     0
102
RTVSPropertyOp8
 70
     0
102
RTVSPropertyOp9
 70
     0
102
RTVSPropertyOp10
 70
     0
102
RTVSPropertyOp11
 70
     0
102
RTVSPropertyOp12
 70
     0
102
RTVSPropertyOp13
 70
     0
102
RTVSPropertyOp14
 70
     2
102
RTVSPropertyOp15
 70
     0
102
RTVSPropertyOp16
 70
     0
102
RTVSPropertyOp17
 70
     0
102
RTVSPropertyOp18
 70
     0
102
RTVSPropertyOp19
 70
     0
102
RTVSPropertyOp20
 70
     0
102
RTVSPropertyOp21
 70
     0
102
RTVSPropertyOp22
 70
     0
102
RTVSPropertyOp23
 70
     0
102
RTVSPropertyOp24
 70
     0
102
RTVSPropertyOp25
 70
     0
102
RTVSPropertyOp26
 70
     0
102
RTVSPropertyOp27
 70
     0
102
RTVSPropertyOp28
 70
     0
102
RTVSPropertyOp29
 70
     0
102
RTVSPropertyOp30
 70
     0
102
RTVSPropertyOp31
 70
     0
102
RTVSPropertyOp32
 70
     0
  0
XRECORD
  5
2FD
102
{ACAD_REACTORS
330
2FC
102
}
330
2FC
100
AcDbXrecord
280
     1
102
RTVSPropertyOp0
 70
     1
102
RTVSPropertyOp1
 70
     1
102
RTVSPropertyOp2
 70
     1
102
RTVSPropertyOp3
 70
     1
102
RTVSPropertyOp4
 70
     1
102
RTVSPropertyOp5
 70
     1
102
RTVSPropertyOp6
 70
     1
102
RTVSPropertyOp7
 70
     1
102
RTVSPropertyOp8
 70
     1
102
RTVSPropertyOp9
 70
     1
102
RTVSPropertyOp10
 70
     1
102
RTVSPropertyOp11
 70
     1
102
RTVSPropertyOp12
 70
     1
102
RTVSPropertyOp13
 70
     1
102
RTVSPropertyOp14
 70
     1
102
RTVSPropertyOp15
 70
     1
102
RTVSPropertyOp16
 70
     1
102
RTVSPropertyOp17
 70
     1
102
RTVSPropertyOp18
 70
     1
102
RTVSPropertyOp19
 70
     1
102
RTVSPropertyOp20
 70
     1
102
RTVSPropertyOp21
 70
     1
102
RTVSPropertyOp22
 70
     1
102
RTVSPropertyOp23
 70
     1
102
RTVSPropertyOp24
 70
     1
102
RTVSPropertyOp25
 70
     1
102
RTVSPropertyOp26
 70
     1
102
RTVSPropertyOp27
 70
     1
102
RTVSPropertyOp28
 70
     1
102
RTVSPropertyOp29
 70
     1
102
RTVSPropertyOp30
 70
     1
102
RTVSPropertyOp31
 70
     1
102
RTVSPropertyOp32
 70
     1
  0
XRECORD
  5
329
102
{ACAD_REACTORS
330
328
102
}
330
328
100
AcDbXrecord
280
     1
102
RTVSPropertyOp0
 70
     1
102
RTVSPropertyOp1
 70
     1
102
RTVSPropertyOp2
 70
     1
102
RTVSPropertyOp3
 70
     1
102
RTVSPropertyOp4
 70
     1
102
RTVSPropertyOp5
 70
     1
102
RTVSPropertyOp6
 70
     1
102
RTVSPropertyOp7
 70
     1
102
RTVSPropertyOp8
 70
     1
102
RTVSPropertyOp9
 70
     1
102
RTVSPropertyOp10
 70
     1
102
RTVSPropertyOp11
 70
     1
102
RTVSPropertyOp12
 70
     1
102
RTVSPropertyOp13
 70
     1
102
RTVSPropertyOp14
 70
     1
102
RTVSPropertyOp15
 70
     1
102
RTVSPropertyOp16
 70
     1
102
RTVSPropertyOp17
 70
     1
102
RTVSPropertyOp18
 70
     1
102
RTVSPropertyOp19
 70
     1
102
RTVSPropertyOp20
 70
     1
102
RTVSPropertyOp21
 70
     1
102
RTVSPropertyOp22
 70
     1
102
RTVSPropertyOp23
 70
     1
102
RTVSPropertyOp24
 70
     1
102
RTVSPropertyOp25
 70
     1
102
RTVSPropertyOp26
 70
     1
102
RTVSPropertyOp27
 70
     1
102
RTVSPropertyOp28
 70
     1
102
RTVSPropertyOp29
 70
     1
102
RTVSPropertyOp30
 70
     1
102
RTVSPropertyOp31
 70
     1
102
RTVSPropertyOp32
 70
     1
  0
XRECORD
  5
327
102
{ACAD_REACTORS
330
326
102
}
330
326
100
AcDbXrecord
280
     1
102
RTVSPropertyOp0
 70
     1
102
RTVSPropertyOp1
 70
     1
102
RTVSPropertyOp2
 70
     1
102
RTVSPropertyOp3
 70
     1
102
RTVSPropertyOp4
 70
     1
102
RTVSPropertyOp5
 70
     1
102
RTVSPropertyOp6
 70
     1
102
RTVSPropertyOp7
 70
     1
102
RTVSPropertyOp8
 70
     1
102
RTVSPropertyOp9
 70
     1
102
RTVSPropertyOp10
 70
     1
102
RTVSPropertyOp11
 70
     1
102
RTVSPropertyOp12
 70
     1
102
RTVSPropertyOp13
 70
     1
102
RTVSPropertyOp14
 70
     1
102
RTVSPropertyOp15
 70
     1
102
RTVSPropertyOp16
 70
     1
102
RTVSPropertyOp17
 70
     1
102
RTVSPropertyOp18
 70
     1
102
RTVSPropertyOp19
 70
     1
102
RTVSPropertyOp20
 70
     1
102
RTVSPropertyOp21
 70
     1
102
RTVSPropertyOp22
 70
     1
102
RTVSPropertyOp23
 70
     1
102
RTVSPropertyOp24
 70
     1
102
RTVSPropertyOp25
 70
     1
102
RTVSPropertyOp26
 70
     1
102
RTVSPropertyOp27
 70
     1
102
RTVSPropertyOp28
 70
     1
102
RTVSPropertyOp29
 70
     1
102
RTVSPropertyOp30
 70
     1
102
RTVSPropertyOp31
 70
     1
102
RTVSPropertyOp32
 70
     1
  0
XRECORD
  5
321
102
{ACAD_REACTORS
330
320
102
}
330
320
100
AcDbXrecord
280
     1
102
RTVSPropertyOp0
 70
     1
102
RTVSPropertyOp1
 70
     1
102
RTVSPropertyOp2
 70
     1
102
RTVSPropertyOp3
 70
     1
102
RTVSPropertyOp4
 70
     1
102
RTVSPropertyOp5
 70
     1
102
RTVSPropertyOp6
 70
     1
102
RTVSPropertyOp7
 70
     1
102
RTVSPropertyOp8
 70
     1
102
RTVSPropertyOp9
 70
     1
102
RTVSPropertyOp10
 70
     1
102
RTVSPropertyOp11
 70
     1
102
RTVSPropertyOp12
 70
     1
102
RTVSPropertyOp13
 70
     1
102
RTVSPropertyOp14
 70
     1
102
RTVSPropertyOp15
 70
     1
102
RTVSPropertyOp16
 70
     1
102
RTVSPropertyOp17
 70
     1
102
RTVSPropertyOp18
 70
     1
102
RTVSPropertyOp19
 70
     1
102
RTVSPropertyOp20
 70
     1
102
RTVSPropertyOp21
 70
     1
102
RTVSPropertyOp22
 70
     1
102
RTVSPropertyOp23
 70
     1
102
RTVSPropertyOp24
 70
     1
102
RTVSPropertyOp25
 70
     1
102
RTVSPropertyOp26
 70
     1
102
RTVSPropertyOp27
 70
     1
102
RTVSPropertyOp28
 70
     1
102
RTVSPropertyOp29
 70
     1
102
RTVSPropertyOp30
 70
     1
102
RTVSPropertyOp31
 70
     1
102
RTVSPropertyOp32
 70
     1
  0
XRECORD
  5
323
102
{ACAD_REACTORS
330
322
102
}
330
322
100
AcDbXrecord
280
     1
102
RTVSPropertyOp0
 70
     1
102
RTVSPropertyOp1
 70
     1
102
RTVSPropertyOp2
 70
     1
102
RTVSPropertyOp3
 70
     1
102
RTVSPropertyOp4
 70
     1
102
RTVSPropertyOp5
 70
     1
102
RTVSPropertyOp6
 70
     1
102
RTVSPropertyOp7
 70
     1
102
RTVSPropertyOp8
 70
     1
102
RTVSPropertyOp9
 70
     1
102
RTVSPropertyOp10
 70
     1
102
RTVSPropertyOp11
 70
     1
102
RTVSPropertyOp12
 70
     1
102
RTVSPropertyOp13
 70
     1
102
RTVSPropertyOp14
 70
     1
102
RTVSPropertyOp15
 70
     1
102
RTVSPropertyOp16
 70
     1
102
RTVSPropertyOp17
 70
     1
102
RTVSPropertyOp18
 70
     1
102
RTVSPropertyOp19
 70
     1
102
RTVSPropertyOp20
 70
     1
102
RTVSPropertyOp21
 70
     1
102
RTVSPropertyOp22
 70
     1
102
RTVSPropertyOp23
 70
     1
102
RTVSPropertyOp24
 70
     1
102
RTVSPropertyOp25
 70
     1
102
RTVSPropertyOp26
 70
     1
102
RTVSPropertyOp27
 70
     1
102
RTVSPropertyOp28
 70
     1
102
RTVSPropertyOp29
 70
     1
102
RTVSPropertyOp30
 70
     1
102
RTVSPropertyOp31
 70
     1
102
RTVSPropertyOp32
 70
     1
  0
XRECORD
  5
319
102
{ACAD_REACTORS
330
318
102
}
330
318
100
AcDbXrecord
280
     1
102
RTVSPropertyOp0
 70
     1
102
RTVSPropertyOp1
 70
     1
102
RTVSPropertyOp2
 70
     1
102
RTVSPropertyOp3
 70
     1
102
RTVSPropertyOp4
 70
     1
102
RTVSPropertyOp5
 70
     1
102
RTVSPropertyOp6
 70
     1
102
RTVSPropertyOp7
 70
     1
102
RTVSPropertyOp8
 70
     1
102
RTVSPropertyOp9
 70
     1
102
RTVSPropertyOp10
 70
     1
102
RTVSPropertyOp11
 70
     1
102
RTVSPropertyOp12
 70
     1
102
RTVSPropertyOp13
 70
     1
102
RTVSPropertyOp14
 70
     1
102
RTVSPropertyOp15
 70
     1
102
RTVSPropertyOp16
 70
     1
102
RTVSPropertyOp17
 70
     1
102
RTVSPropertyOp18
 70
     1
102
RTVSPropertyOp19
 70
     1
102
RTVSPropertyOp20
 70
     1
102
RTVSPropertyOp21
 70
     1
102
RTVSPropertyOp22
 70
     1
102
RTVSPropertyOp23
 70
     1
102
RTVSPropertyOp24
 70
     1
102
RTVSPropertyOp25
 70
     1
102
RTVSPropertyOp26
 70
     1
102
RTVSPropertyOp27
 70
     1
102
RTVSPropertyOp28
 70
     1
102
RTVSPropertyOp29
 70
     1
102
RTVSPropertyOp30
 70
     1
102
RTVSPropertyOp31
 70
     1
102
RTVSPropertyOp32
 70
     1
  0
XRECORD
  5
2FF
102
{ACAD_REACTORS
330
2FE
102
}
330
2FE
100
AcDbXrecord
280
     1
102
RTVSPropertyOp0
 70
     1
102
RTVSPropertyOp1
 70
     1
102
RTVSPropertyOp2
 70
     1
102
RTVSPropertyOp3
 70
     1
102
RTVSPropertyOp4
 70
     1
102
RTVSPropertyOp5
 70
     1
102
RTVSPropertyOp6
 70
     1
102
RTVSPropertyOp7
 70
     1
102
RTVSPropertyOp8
 70
     1
102
RTVSPropertyOp9
 70
     1
102
RTVSPropertyOp10
 70
     1
102
RTVSPropertyOp11
 70
     1
102
RTVSPropertyOp12
 70
     1
102
RTVSPropertyOp13
 70
     1
102
RTVSPropertyOp14
 70
     1
102
RTVSPropertyOp15
 70
     1
102
RTVSPropertyOp16
 70
     1
102
RTVSPropertyOp17
 70
     1
102
RTVSPropertyOp18
 70
     1
102
RTVSPropertyOp19
 70
     1
102
RTVSPropertyOp20
 70
     1
102
RTVSPropertyOp21
 70
     1
102
RTVSPropertyOp22
 70
     1
102
RTVSPropertyOp23
 70
     1
102
RTVSPropertyOp24
 70
     1
102
RTVSPropertyOp25
 70
     1
102
RTVSPropertyOp26
 70
     1
102
RTVSPropertyOp27
 70
     1
102
RTVSPropertyOp28
 70
     1
102
RTVSPropertyOp29
 70
     1
102
RTVSPropertyOp30
 70
     1
102
RTVSPropertyOp31
 70
     1
102
RTVSPropertyOp32
 70
     1
  0
XRECORD
  5
325
102
{ACAD_REACTORS
330
324
102
}
330
324
100
AcDbXrecord
280
     1
102
RTVSPropertyOp0
 70
     1
102
RTVSPropertyOp1
 70
     1
102
RTVSPropertyOp2
 70
     1
102
RTVSPropertyOp3
 70
     1
102
RTVSPropertyOp4
 70
     1
102
RTVSPropertyOp5
 70
     1
102
RTVSPropertyOp6
 70
     1
102
RTVSPropertyOp7
 70
     1
102
RTVSPropertyOp8
 70
     1
102
RTVSPropertyOp9
 70
     1
102
RTVSPropertyOp10
 70
     1
102
RTVSPropertyOp11
 70
     1
102
RTVSPropertyOp12
 70
     1
102
RTVSPropertyOp13
 70
     1
102
RTVSPropertyOp14
 70
     1
102
RTVSPropertyOp15
 70
     1
102
RTVSPropertyOp16
 70
     1
102
RTVSPropertyOp17
 70
     1
102
RTVSPropertyOp18
 70
     1
102
RTVSPropertyOp19
 70
     1
102
RTVSPropertyOp20
 70
     1
102
RTVSPropertyOp21
 70
     1
102
RTVSPropertyOp22
 70
     1
102
RTVSPropertyOp23
 70
     1
102
RTVSPropertyOp24
 70
     1
102
RTVSPropertyOp25
 70
     1
102
RTVSPropertyOp26
 70
     1
102
RTVSPropertyOp27
 70
     1
102
RTVSPropertyOp28
 70
     1
102
RTVSPropertyOp29
 70
     1
102
RTVSPropertyOp30
 70
     1
102
RTVSPropertyOp31
 70
     1
102
RTVSPropertyOp32
 70
     1
  0
ENDSEC
  0
EOF
