  0
SECTION
  2
HEADER
  9
$ACADVER
  1
AC1015
  9
$ACADMAINTVER
 70
    18
  9
$DWGCODEPAGE
  3
ANSI_1252
  9
$INSBASE
 10
0.0
 20
0.0
 30
0.0
  9
$EXTMIN
 10
-35.59597505628608
 20
-20.42956349536507
 30
-0.0015258207003583
  9
$EXTMAX
 10
35.61412190903684
 20
115.7247630766646
 30
0.0000000349246037
  9
$LIMMIN
 10
0.0
 20
0.0
  9
$LIMMAX
 10
1189.0
 20
840.9999999999998
  9
$ORTHOMODE
 70
     0
  9
$REGENMODE
 70
     1
  9
$FILLMODE
 70
     1
  9
$QTEXTMODE
 70
     0
  9
$MIRRTEXT
 70
     0
  9
$LTSCALE
 40
1.0
  9
$ATTMODE
 70
     1
  9
$TEXTSIZE
 40
0.2
  9
$TRACEWID
 40
0.05
  9
$TEXTSTYLE
  7
STANDARD
  9
$CLAYER
  8
0
  9
$CELTYPE
  6
ByLayer
  9
$CECOLOR
 62
   256
  9
$CELTSCALE
 40
1.0
  9
$DISPSILH
 70
     0
  9
$DIMSCALE
 40
1.0
  9
$DIMASZ
 40
180.0
  9
$DIMEXO
 40
0.0625
  9
$DIMDLI
 40
0.38
  9
$DIMRND
 40
0.0
  9
$DIMDLE
 40
0.0
  9
$DIMEXE
 40
0.18
  9
$DIMTP
 40
0.0
  9
$DIMTM
 40
0.0
  9
$DIMTXT
 40
34.99999940395355
  9
$DIMCEN
 40
0.09
  9
$DIMTSZ
 40
0.0
  9
$DIMTOL
 70
     0
  9
$DIMLIM
 70
     0
  9
$DIMTIH
 70
     1
  9
$DIMTOH
 70
     1
  9
$DIMSE1
 70
     0
  9
$DIMSE2
 70
     0
  9
$DIMTAD
 70
     0
  9
$DIMZIN
 70
     0
  9
$DIMBLK
  1

  9
$DIMASO
 70
     1
  9
$DIMSHO
 70
     1
  9
$DIMPOST
  1

  9
$DIMAPOST
  1

  9
$DIMALT
 70
     0
  9
$DIMALTD
 70
     2
  9
$DIMALTF
 40
25.4
  9
$DIMLFAC
 40
1.0
  9
$DIMTOFL
 70
     0
  9
$DIMTVP
 40
0.0
  9
$DIMTIX
 70
     0
  9
$DIMSOXD
 70
     0
  9
$DIMSAH
 70
     0
  9
$DIMBLK1
  1

  9
$DIMBLK2
  1

  9
$DIMSTYLE
  2
STANDARD
  9
$DIMCLRD
 70
     0
  9
$DIMCLRE
 70
     0
  9
$DIMCLRT
 70
     0
  9
$DIMTFAC
 40
1.0
  9
$DIMGAP
 40
0.09
  9
$DIMJUST
 70
     0
  9
$DIMSD1
 70
     0
  9
$DIMSD2
 70
     0
  9
$DIMTOLJ
 70
     1
  9
$DIMTZIN
 70
     0
  9
$DIMALTZ
 70
     0
  9
$DIMALTTZ
 70
     0
  9
$DIMUPT
 70
     0
  9
$DIMDEC
 70
     4
  9
$DIMTDEC
 70
     4
  9
$DIMALTU
 70
     2
  9
$DIMALTTD
 70
     2
  9
$DIMTXSTY
  7
STANDARD
  9
$DIMAUNIT
 70
     0
  9
$DIMADEC
 70
     0
  9
$DIMALTRND
 40
0.0
  9
$DIMAZIN
 70
     0
  9
$DIMDSEP
 70
    46
  9
$DIMATFIT
 70
     3
  9
$DIMFRAC
 70
     0
  9
$DIMLDRBLK
  1

  9
$DIMLUNIT
 70
     2
  9
$DIMLWD
 70
    -2
  9
$DIMLWE
 70
    -2
  9
$DIMTMOVE
 70
     0
  9
$LUNITS
 70
     2
  9
$LUPREC
 70
     4
  9
$SKETCHINC
 40
0.1
  9
$FILLETRAD
 40
0.0
  9
$AUNITS
 70
     0
  9
$AUPREC
 70
     0
  9
$MENU
  1
.
  9
$ELEVATION
 40
0.0
  9
$PELEVATION
 40
0.0
  9
$THICKNESS
 40
0.0
  9
$LIMCHECK
 70
     0
  9
$CHAMFERA
 40
0.0
  9
$CHAMFERB
 40
0.0
  9
$CHAMFERC
 40
0.0
  9
$CHAMFERD
 40
0.0
  9
$SKPOLY
 70
     0
  9
$TDCREATE
 40
2454871.539305995
  9
$TDUCREATE
 40
2454871.455972662
  9
$TDUPDATE
 40
2455720.207725752
  9
$TDUUPDATE
 40
2455720.124392419
  9
$TDINDWG
 40
0.0124168750
  9
$TDUSRTIMER
 40
0.0124168750
  9
$USRTIMER
 70
     1
  9
$ANGBASE
 50
0.0
  9
$ANGDIR
 70
     0
  9
$PDMODE
 70
     0
  9
$PDSIZE
 40
0.0
  9
$PLINEWID
 40
0.0
  9
$SPLFRAME
 70
     0
  9
$SPLINETYPE
 70
     6
  9
$SPLINESEGS
 70
     8
  9
$HANDSEED
  5
508
  9
$SURFTAB1
 70
     6
  9
$SURFTAB2
 70
     6
  9
$SURFTYPE
 70
     6
  9
$SURFU
 70
     6
  9
$SURFV
 70
     6
  9
$UCSBASE
  2

  9
$UCSNAME
  2

  9
$UCSORG
 10
0.0
 20
0.0
 30
0.0
  9
$UCSXDIR
 10
1.0
 20
0.0
 30
0.0
  9
$UCSYDIR
 10
0.0
 20
1.0
 30
0.0
  9
$UCSORTHOREF
  2

  9
$UCSORTHOVIEW
 70
     0
  9
$UCSORGTOP
 10
0.0
 20
0.0
 30
0.0
  9
$UCSORGBOTTOM
 10
0.0
 20
0.0
 30
0.0
  9
$UCSORGLEFT
 10
0.0
 20
0.0
 30
0.0
  9
$UCSORGRIGHT
 10
0.0
 20
0.0
 30
0.0
  9
$UCSORGFRONT
 10
0.0
 20
0.0
 30
0.0
  9
$UCSORGBACK
 10
0.0
 20
0.0
 30
0.0
  9
$PUCSBASE
  2

  9
$PUCSNAME
  2

  9
$PUCSORG
 10
0.0
 20
0.0
 30
0.0
  9
$PUCSXDIR
 10
1.0
 20
0.0
 30
0.0
  9
$PUCSYDIR
 10
0.0
 20
1.0
 30
0.0
  9
$PUCSORTHOREF
  2

  9
$PUCSORTHOVIEW
 70
     0
  9
$PUCSORGTOP
 10
0.0
 20
0.0
 30
0.0
  9
$PUCSORGBOTTOM
 10
0.0
 20
0.0
 30
0.0
  9
$PUCSORGLEFT
 10
0.0
 20
0.0
 30
0.0
  9
$PUCSORGRIGHT
 10
0.0
 20
0.0
 30
0.0
  9
$PUCSORGFRONT
 10
0.0
 20
0.0
 30
0.0
  9
$PUCSORGBACK
 10
0.0
 20
0.0
 30
0.0
  9
$USERI1
 70
     0
  9
$USERI2
 70
     0
  9
$USERI3
 70
     0
  9
$USERI4
 70
     0
  9
$USERI5
 70
     0
  9
$USERR1
 40
0.0
  9
$USERR2
 40
0.0
  9
$USERR3
 40
0.0
  9
$USERR4
 40
0.0
  9
$USERR5
 40
0.0
  9
$WORLDVIEW
 70
     1
  9
$SHADEDGE
 70
     3
  9
$SHADEDIF
 70
    70
  9
$TILEMODE
 70
     1
  9
$MAXACTVP
 70
    64
  9
$PINSBASE
 10
0.0
 20
0.0
 30
0.0
  9
$PLIMCHECK
 70
     0
  9
$PEXTMIN
 10
0.0
 20
0.0
 30
0.0
  9
$PEXTMAX
 10
1189.0
 20
840.9999999999998
 30
0.0
  9
$PLIMMIN
 10
0.0
 20
0.0
  9
$PLIMMAX
 10
1189.0
 20
840.9999999999998
  9
$UNITMODE
 70
     0
  9
$VISRETAIN
 70
     1
  9
$PLINEGEN
 70
     0
  9
$PSLTSCALE
 70
     1
  9
$TREEDEPTH
 70
  3020
  9
$CMLSTYLE
  2
Standard
  9
$CMLJUST
 70
     0
  9
$CMLSCALE
 40
1.0
  9
$PROXYGRAPHICS
 70
     1
  9
$MEASUREMENT
 70
     1
  9
$CELWEIGHT
370
    -1
  9
$ENDCAPS
280
     0
  9
$JOINSTYLE
280
     0
  9
$LWDISPLAY
290
     0
  9
$INSUNITS
 70
     4
  9
$HYPERLINKBASE
  1

  9
$STYLESHEET
  1

  9
$XEDIT
290
     1
  9
$CEPSNTYPE
380
     0
  9
$PSTYLEMODE
290
     1
  9
$FINGERPRINTGUID
  2
{ED96C1CE-E7AC-4FCE-9021-DF709DB3DBA5}
  9
$VERSIONGUID
  2
{AF36CB2C-0FF7-4CD6-984A-CA43956EC037}
  9
$EXTNAMES
290
     1
  9
$PSVPSCALE
 40
0.0
  9
$OLESTARTUP
290
     0
  0
ENDSEC
  0
SECTION
  2
CLASSES
  0
CLASS
  1
ACDBDICTIONARYWDFLT
  2
AcDbDictionaryWithDefault
  3
ObjectDBX Classes
 90
        0
280
     0
281
     0
  0
CLASS
  1
MATERIAL
  2
AcDbMaterial
  3
ObjectDBX Classes
 90
     1153
280
     0
281
     0
  0
CLASS
  1
VISUALSTYLE
  2
AcDbVisualStyle
  3
ObjectDBX Classes
 90
     4095
280
     0
281
     0
  0
CLASS
  1
SCALE
  2
AcDbScale
  3
ObjectDBX Classes
 90
     1153
280
     0
281
     0
  0
CLASS
  1
TABLESTYLE
  2
AcDbTableStyle
  3
ObjectDBX Classes
 90
     4095
280
     0
281
     0
  0
CLASS
  1
MLEADERSTYLE
  2
AcDbMLeaderStyle
  3
ACDB_MLEADERSTYLE_CLASS
 90
     4095
280
     0
281
     0
  0
CLASS
  1
SORTENTSTABLE
  2
AcDbSortentsTable
  3
ObjectDBX Classes
 90
        0
280
     0
281
     0
  0
CLASS
  1
CELLSTYLEMAP
  2
AcDbCellStyleMap
  3
ObjectDBX Classes
 90
     1152
280
     0
281
     0
  0
CLASS
  1
DICTIONARYVAR
  2
AcDbDictionaryVar
  3
ObjectDBX Classes
 90
        0
280
     0
281
     0
  0
CLASS
  1
ACME_DOCUMENT
  2
AcMeDbDoc
  3
AcMeServices
 90
     1024
280
     0
281
     0
  0
CLASS
  1
AMGSETTINGSOBJ
  2
AmgSettingsObj
  3
"AcadM|Product Description: AutoCAD Mechanical|Company: Autodesk, Inc."
 90
     1024
280
     0
281
     0
  0
CLASS
  1
ACMESCOPE
  2
AcMeScope
  3
AcMeServices
 90
     1024
280
     0
281
     0
  0
CLASS
  1
ACMECOMMANDHISTORY
  2
AcMeCommandHistory
  3
AcMeServices
 90
     1024
280
     0
281
     0
  0
CLASS
  1
ACIMSYSVARMAN
  2
AcImSysVarManager
  3
AcMeServices
 90
     1024
280
     0
281
     0
  0
CLASS
  1
ACIMINTSYSVAR
  2
AcImIntSysVar
  3
AcMeServices
 90
     1024
280
     0
281
     0
  0
CLASS
  1
ACMEDRAWINGMAN
  2
AcMeDrawingMan
  3
AcMeServices
 90
    33792
280
     0
281
     0
  0
CLASS
  1
ACMEVIEW
  2
AcMeView
  3
AcMeServices
 90
    33792
280
     0
281
     0
  0
CLASS
  1
ACDBENTITYCACHE
  2
AcMeEntityCache
  3
AcMeServices
 90
     1024
280
     0
281
     0
  0
CLASS
  1
GSMANAGER
  2
AcMeGSManager
  3
AcMeServices
 90
    33792
280
     1
281
     0
  0
CLASS
  1
AMDTINTERNALREACTOR
  2
AmdtInternalReactor
  3
AcMeServices
 90
     1024
280
     0
281
     0
  0
CLASS
  1
ACMESTATEMGR
  2
AcMeStateMgr
  3
AcMeServices
 90
     1024
280
     0
281
     0
  0
CLASS
  1
ACGREFMASTER
  2
AcGrefMaster
  3
AcAttribServices
 90
     1024
280
     0
281
     0
  0
CLASS
  1
AM_DRAWING_MGR
  2
AcDmDwgMgr
  3
AcMechDwgViewMgmt
 90
     1024
280
     0
281
     0
  0
CLASS
  1
AM_DWG_DOCUMENT
  2
AcDmDwgDocument
  3
AcMechDwgViewMgmt
 90
     1024
280
     0
281
     0
  0
CLASS
  1
AM_DWG_SHEET
  2
AcDmSheet
  3
AcMechDwgViewMgmt
 90
     1024
280
     0
281
     0
  0
CLASS
  1
AM_VIEWDIMPARMAP
  2
AcDmViewDimParMap
  3
AcMechDwgViewMgmt
 90
     1024
280
     0
281
     0
  0
CLASS
  1
ACIMREALSYSVAR
  2
AcImRealSysVar
  3
AcMeServices
 90
     1024
280
     0
281
     0
  0
CLASS
  1
AM_DWGMGR_NAME
  2
AcDmDwgMgrName
  3
AcMechDwgViewMgmt
 90
     1024
280
     0
281
     0
  0
CLASS
  1
ACME_DATABASE
  2
AcMeDbDatabase
  3
AcMeServices
 90
     1024
280
     0
281
     0
  0
CLASS
  1
ACRFINSADJUSTERMGR
  2
AcRfInsAdjusterMgr
  3
AcMeServices
 90
     1024
280
     0
281
     0
  0
CLASS
  1
ACGREFACADMASTER
  2
AcGrefacadMaster
  3
AcGrefServices
 90
     1024
280
     0
281
     0
  0
CLASS
  1
AMDTMENUSTATEMGR
  2
AmdtMenuStateMgr
  3
McadcomServices
 90
     1024
280
     0
281
     0
  0
CLASS
  1
AMDTMCOMMENUSTATE
  2
AmdtMcomMenuState
  3
McadcomServices
 90
     1024
280
     0
281
     0
  0
CLASS
  1
AMIMASTER
  2
AmiMaster
  3
AmiServices
 90
     1024
280
     0
281
     0
  0
CLASS
  1
MAPIAMMOUDLE
  2
MApiAmModule
  3
MApiAmServices
 90
     1024
280
     0
281
     0
  0
CLASS
  1
ACIMSTRSYSVAR
  2
AcImStrSysVar
  3
AcMeServices
 90
     1024
280
     0
281
     0
  0
CLASS
  1
AMDTADMENUSTATE
  2
AmdtAdMenuState
  3
DesignerServices
 90
    33792
280
     1
281
     0
  0
CLASS
  1
ADAPPL
  2
AcAdAppl
  3
DesignerAssemblies
 90
    33792
280
     0
281
     0
  0
CLASS
  1
DEPMGR
  2
AcAdDepMgr
  3
DesignerAssemblies
 90
    33792
280
     0
281
     0
  0
CLASS
  1
PARAMMGR
  2
AcAdParamMgr
  3
DesignerAssemblies
 90
    33792
280
     0
281
     0
  0
CLASS
  1
PARAMSCOPE
  2
AcAdParamScope
  3
DesignerAssemblies
 90
    33792
280
     0
281
     0
  0
CLASS
  1
NAMEDAPPL
  2
AcAdNamedAppl
  3
DesignerAssemblies
 90
    33792
280
     0
281
     0
  0
CLASS
  1
AMDTDMMENUSTATE
  2
AmdtDmMenuState
  3
AcMechDwgViewMgmt
 90
     1024
280
     0
281
     0
  0
CLASS
  1
AMDTAMMENUSTATE
  2
AmdtAmMenuState
  3
DesignerAssemblies
 90
     1024
280
     0
281
     0
  0
CLASS
  1
ACAMPROJECT
  2
AcAmProject
  3
DesignerAssemblies
 90
     1024
280
     0
281
     0
  0
CLASS
  1
ACAMGRCOMPDEF
  2
AcAmGrCompDef
  3
DesignerAssemblies
 90
     1024
280
     0
281
     0
  0
CLASS
  1
ACCMCONTEXT
  2
AcCmContext
  3
DesignerAssemblies
 90
    33792
280
     0
281
     0
  0
CLASS
  1
ACAMCOMPDEF
  2
AcAmCompDef
  3
DesignerAssemblies
 90
     1024
280
     0
281
     0
  0
CLASS
  1
ACAMCOMPDEFMGR
  2
AcAmCompDefMgr
  3
DesignerAssemblies
 90
     1024
280
     0
281
     0
  0
CLASS
  1
AMCONTEXTMGR
  2
AcAmContextMgr
  3
DesignerAssemblies
 90
     1024
280
     0
281
     0
  0
CLASS
  1
ACAMCONTEXTMODELER
  2
AcAmContextModeler
  3
DesignerAssemblies
 90
     1024
280
     0
281
     0
  0
CLASS
  1
ACMDATADICTIONARY
  2
AcmDataDictionary
  3
"AcmSymBB|Product Description: AutoCAD Mechanical|Company: Autodesk, Inc."
 90
     1024
280
     0
281
     0
  0
CLASS
  1
CATALOGSTATE
  2
AcAmCatalogState
  3
DesignerAssemblies
 90
    33792
280
     0
281
     0
  0
CLASS
  1
ACAMGRCOMPDEFSET
  2
AcAmGrCompDefSet
  3
DesignerAssemblies
 90
     1024
280
     0
281
     0
  0
CLASS
  1
AMDTBROWSERDBTAB
  2
AmdtBrowserDbTab
  3
McadcomServices
 90
     1024
280
     0
281
     0
  0
CLASS
  1
CBROWSERAPPOBJECT
  2
CBrowserAppObject
  3
McadcomServices
 90
     1024
280
     0
281
     0
  0
CLASS
  1
DM_PLACEHOLDER
  2
AcDmSelsetPlaceholder
  3
AcMechDwgViewMgmt
 90
     1024
280
     0
281
     0
  0
CLASS
  1
EXACXREFPANELOBJECT
  2
ExAcXREFPanelObject
  3
EXAC_ESW
 90
     1025
280
     0
281
     0
  0
CLASS
  1
NPOCOLLECTION
  2
AcDbImpNonPersistentObjectsCollection
  3
ObjectDBX Classes
 90
     1153
280
     0
281
     0
  0
CLASS
  1
ACMSTANDARDANSI
  2
AcmStandardANSI
  3
"Amdt_StdImp|Product Description: AutoCAD Mechanical|Company: Autodesk, Inc."
 90
     1024
280
     0
281
     0
  0
CLASS
  1
ACMSURFSTANDARDANSI
  2
AcmSurfTextStdANSI
  3
"Amdt_StdImp|Product Description: AutoCAD Mechanical|Company: Autodesk, Inc."
 90
     1024
280
     0
281
     0
  0
CLASS
  1
ACMFCFSTANDARDANSI
  2
AcmFCFStdANSI
  3
"Amdt_StdImp|Product Description: AutoCAD Mechanical|Company: Autodesk, Inc."
 90
     1024
280
     0
281
     0
  0
CLASS
  1
ACMWELDSTANDARDANSI
  2
AcmWeldingStdANSI
  3
"Amdt_StdImp|Product Description: AutoCAD Mechanical|Company: Autodesk, Inc."
 90
     1024
280
     0
281
     0
  0
CLASS
  1
ACMIDSTANDARDANSI
  2
AcmIdStdANSI
  3
"Amdt_StdImp|Product Description: AutoCAD Mechanical|Company: Autodesk, Inc."
 90
     1024
280
     0
281
     0
  0
CLASS
  1
ACMDATUMSTANDARDANSI
  2
AcmDatumStdANSI
  3
"Amdt_StdImp|Product Description: AutoCAD Mechanical|Company: Autodesk, Inc."
 90
     1024
280
     0
281
     0
  0
CLASS
  1
ACMBOMSTANDARDANSI
  2
AcmBOMStdANSI
  3
"Amdt_StdImp|Product Description: AutoCAD Mechanical|Company: Autodesk, Inc."
 90
     1024
280
     0
281
     0
  0
CLASS
  1
ACMDETAILSTANDARDANSI
  2
AmdtDetailSymStdANSI
  3
"Amdt_StdImp|Product Description: AutoCAD Mechanical|Company: Autodesk, Inc."
 90
     1024
280
     0
281
     0
  0
CLASS
  1
ACMSECTIONSTANDARDANSI
  2
AmdtSectionSymStdANSI
  3
"Amdt_StdImp|Product Description: AutoCAD Mechanical|Company: Autodesk, Inc."
 90
     1024
280
     0
281
     0
  0
CLASS
  1
ACMCENTERLINESTANDARDANSI
  2
AmdtCenterLineStdANSI
  3
"Amdt_StdImp|Product Description: AutoCAD Mechanical|Company: Autodesk, Inc."
 90
     1024
280
     0
281
     0
  0
CLASS
  1
ACMTHREADLINESTANDARDANSI
  2
AmdtThreadLineStdANSI
  3
"Amdt_StdImp|Product Description: AutoCAD Mechanical|Company: Autodesk, Inc."
 90
     1024
280
     0
281
     0
  0
CLASS
  1
ACMNOTESTANDARDANSI
  2
AmdtNoteStdANSI
  3
"Amdt_StdImp|Product Description: AutoCAD Mechanical|Company: Autodesk, Inc."
 90
     1024
280
     0
281
     0
  0
CLASS
  1
ACMTAPERSTANDARDANSI
  2
AcmTaperStdANSI
  3
"Amdt_StdImp|Product Description: AutoCAD Mechanical|Company: Autodesk, Inc."
 90
     1024
280
     0
281
     0
  0
CLASS
  1
ACMANOOTATIONVIEWSTANDARDANSI
  2
AmdtAnViewStdANSI
  3
"Amdt_StdImp|Product Description: AutoCAD Mechanical|Company: Autodesk, Inc."
 90
     1024
280
     0
281
     0
  0
CLASS
  1
ACAMGLAYSTD
  2
AcAmgLayStd
  3
"AmgLay|Product Description: AutoCAD Mechanical|Company: Autodesk, Inc."
 90
     1024
280
     0
281
     0
  0
CLASS
  1
ACAMGDIMSTD
  2
AcAmgDimStd
  3
"AmgDim|Product Description: AutoCAD Mechanical|Company: Autodesk, Inc."
 90
     1024
280
     0
281
     0
  0
CLASS
  1
AMGOBJPROPCFG
  2
AmgObjPropCfg
  3
"AmgLay|Product Description: AutoCAD Mechanical|Company: Autodesk, Inc."
 90
     1025
280
     0
281
     0
  0
CLASS
  1
ACAMGHOLECHARTSTDANSI
  2
AcAmgHoleChartStdANSI
  3
AmgDim|Product Description: AutoCAD Mechanical|Company: Autodesk, Inc.
 90
     1024
280
     0
281
     0
  0
CLASS
  1
ACAMGTITLESTD
  2
AcAmgTitleStd
  3
"AmgTitle|Product Description: AutoCAD Mechanical|Company: Autodesk, Inc."
 90
     4095
280
     0
281
     0
  0
CLASS
  1
AMDTNOTETEMPLATEDB
  2
AmdtNoteTemplateDB
  3
AcmSymBB|Product Description: AutoCAD Mechanical|Company: Autodesk, Inc.
 90
     1024
280
     0
281
     0
  0
CLASS
  1
ACAMGFILTERDAT
  2
AcAmgFilterDat
  3
"AcadM|Product Description: AutoCAD Mechanical|Company: Autodesk, Inc."
 90
    33792
280
     0
281
     0
  0
CLASS
  1
CAMSSTRUCTBTNSTATE
  2
StructBtnState
  3
DesignerAssemblies
 90
    33792
280
     0
281
     0
  0
CLASS
  1
ACDBPLACEHOLDER
  2
AcDbPlaceHolder
  3
ObjectDBX Classes
 90
        0
280
     0
281
     0
  0
CLASS
  1
LAYOUT
  2
AcDbLayout
  3
ObjectDBX Classes
 90
        0
280
     0
281
     0
  0
CLASS
  1
SOLID_BACKGROUND
  2
AcDbSolidBackground
  3
SCENEOE
 90
    36863
280
     0
281
     0
  0
ENDSEC
  0
SECTION
  2
TABLES
  0
TABLE
  2
VPORT
  5
28
102
{ACAD_XDICTIONARY
360
2C
102
}
330
0
100
AcDbSymbolTable
 70
     1
  0
VPORT
  5
29
330
28
100
AcDbSymbolTableRecord
100
AcDbViewportTableRecord
  2
*ACTIVE
 70
     0
 10
0.0
 20
0.0
 11
1.0
 21
1.0
 12
0.0090734263753802
 22
47.64759979064979
 13
0.0
 23
0.0
 14
1.0
 24
1.0
 15
0.0
 25
0.0
 16
0.0
 26
0.0
 36
1.0
 17
0.0
 27
0.0
 37
0.0
 40
152.4403599658496
 41
2.068965517241379
 42
50.0
 43
0.0
 44
0.0
 50
0.0
 51
0.0
 71
     0
 72
   100
 73
     1
 74
     1
 75
     0
 76
     0
 77
     0
 78
     0
281
     0
 65
     1
110
0.0
120
0.0
130
0.0
111
1.0
121
0.0
131
0.0
112
0.0
122
1.0
132
0.0
 79
     0
146
0.0
  0
ENDTAB
  0
TABLE
  2
LTYPE
  5
23
330
0
100
AcDbSymbolTable
 70
    12
  0
LTYPE
  5
24
330
23
100
AcDbSymbolTableRecord
100
AcDbLinetypeTableRecord
  2
ByBlock
 70
     0
  3

 72
    65
 73
     0
 40
0.0
  0
LTYPE
  5
25
330
23
100
AcDbSymbolTableRecord
100
AcDbLinetypeTableRecord
  2
ByLayer
 70
     0
  3

 72
    65
 73
     0
 40
0.0
  0
LTYPE
  5
1B
330
23
100
AcDbSymbolTableRecord
100
AcDbLinetypeTableRecord
  2
CONTINUOUS
 70
     0
  3
Solid line
 72
    65
 73
     0
 40
0.0
  0
LTYPE
  5
412
330
23
100
AcDbSymbolTableRecord
100
AcDbLinetypeTableRecord
  2
HIDDEN
 70
     0
  3
Verdeckt
 72
    65
 73
     2
 40
0.375
 49
0.25
 74
     0
 49
-0.125
 74
     0
  0
LTYPE
  5
414
330
23
100
AcDbSymbolTableRecord
100
AcDbLinetypeTableRecord
  2
PHANTOM2
 70
     0
  3
Phantom (.5x) ___ _ _ ___ _ _ ___ _ _ ___ _ _
 72
    65
 73
     6
 40
1.25
 49
0.625
 74
     0
 49
-0.125
 74
     0
 49
0.125
 74
     0
 49
-0.125
 74
     0
 49
0.125
 74
     0
 49
-0.125
 74
     0
  0
LTYPE
  5
413
330
23
100
AcDbSymbolTableRecord
100
AcDbLinetypeTableRecord
  2
CENTER
 70
     0
  3
Mitte ____ _ ____ _ ____ _ ____ _ ____ _ ____
 72
    65
 73
     4
 40
2.0
 49
1.25
 74
     0
 49
-0.25
 74
     0
 49
0.25
 74
     0
 49
-0.25
 74
     0
  0
LTYPE
  5
415
330
23
100
AcDbSymbolTableRecord
100
AcDbLinetypeTableRecord
  2
Amconstr
 70
     0
  3
_______________________
 72
    65
 73
     2
 40
9999.0
 49
9999.0
 74
     0
 49
0.0
 74
     0
  0
LTYPE
  5
416
330
23
100
AcDbSymbolTableRecord
100
AcDbLinetypeTableRecord
  2
CENTER2
 70
     0
  3
Center (.5x) ___ _ ___ _ ___ _ ___ _ ___ _ ___
 72
    65
 73
     4
 40
1.125
 49
0.75
 74
     0
 49
-0.125
 74
     0
 49
0.125
 74
     0
 49
-0.125
 74
     0
  0
LTYPE
  5
417
330
23
100
AcDbSymbolTableRecord
100
AcDbLinetypeTableRecord
  2
HIDDEN2
 70
     0
  3
Hidden (.5x) _ _ _ _ _ _ _ _ _ _ _ _ _ _ _ _ _
 72
    65
 73
     2
 40
0.1875
 49
0.125
 74
     0
 49
-0.0625
 74
     0
  0
LTYPE
  5
418
330
23
100
AcDbSymbolTableRecord
100
AcDbLinetypeTableRecord
  2
Amzigzag2
 70
     0
  3
/\/-/\/-/\/-/\/-/\/-/\/
 72
    65
 73
     2
 40
0.4401
 49
0.0001
 74
     4
 75
   136
340
419
 46
0.0016
 50
0.0
 44
0.0
 45
0.0
 49
-0.4400000000000001
 74
     0
  0
LTYPE
  5
429
330
23
100
AcDbSymbolTableRecord
100
AcDbLinetypeTableRecord
  2
ACANSTGB
 70
     0
  3
__ . . __ . .
 72
    65
 73
     6
 40
0.35433070866
 49
0.15748031496
 74
     0
 49
-0.03937007874
 74
     0
 49
0.03937007874
 74
     0
 49
-0.03937007874
 74
     0
 49
0.03937007874
 74
     0
 49
-0.03937007874
 74
     0
  0
LTYPE
  5
42A
330
23
100
AcDbSymbolTableRecord
100
AcDbLinetypeTableRecord
  2
ACANSTGL
 70
     0
  3
_ _ _ _ _
 72
    65
 73
     2
 40
0.11811023622
 49
0.07874015748
 74
     0
 49
-0.03937007874
 74
     0
  0
LTYPE
  5
7C
330
23
100
AcDbSymbolTableRecord
100
AcDbLinetypeTableRecord
  2
DASHDOT
 70
     0
  3
Dash dot __ . __ . __ . __ . __ . __ . __ . __
 72
    65
 73
     4
 40
1.0
 49
0.5
 74
     0
 49
-0.25
 74
     0
 49
0.0
 74
     0
 49
-0.25
 74
     0
  0
LTYPE
  5
127
330
23
100
AcDbSymbolTableRecord
100
AcDbLinetypeTableRecord
  2
DASHED
 70
     0
  3
Dashed __ __ __ __ __ __ __ __ __ __ __ __ __ _
 72
    65
 73
     2
 40
0.75
 49
0.5
 74
     0
 49
-0.25
 74
     0
  0
ENDTAB
  0
TABLE
  2
LAYER
  5
E
102
{ACAD_XDICTIONARY
360
1C
102
}
330
0
100
AcDbSymbolTable
 70
     8
  0
LAYER
  5
F
330
E
100
AcDbSymbolTableRecord
100
AcDbLayerTableRecord
  2
0
 70
     0
 62
     7
  6
CONTINUOUS
370
    -3
390
10
  0
LAYER
  5
82
330
E
100
AcDbSymbolTableRecord
100
AcDbLayerTableRecord
  2
GEB-KONTUR-A
 70
     0
 62
     5
  6
CONTINUOUS
370
    -3
390
10
  0
LAYER
  5
7B
330
E
100
AcDbSymbolTableRecord
100
AcDbLayerTableRecord
  2
GEB-SYMMETRIE
 70
     0
 62
     3
  6
DASHDOT
370
    -3
390
10
1001
AcAecLayerStandard
1000

1000

  0
LAYER
  5
126
330
E
100
AcDbSymbolTableRecord
100
AcDbLayerTableRecord
  2
GEB-VERDECKT
 70
     0
 62
     2
  6
DASHED
370
    -3
390
10
1001
AcAecLayerStandard
1000

1000

  0
LAYER
  5
76
330
E
100
AcDbSymbolTableRecord
100
AcDbLayerTableRecord
  2
Arbeitspunkt(DIN)
 70
     0
 62
     7
  6
CONTINUOUS
370
    25
390
10
  0
LAYER
  5
40E
330
E
100
AcDbSymbolTableRecord
100
AcDbLayerTableRecord
  2
GEB-ART-NR
 70
     0
 62
     1
  6
CONTINUOUS
370
    18
390
10
  0
LAYER
  5
72
330
E
100
AcDbSymbolTableRecord
100
AcDbLayerTableRecord
  2
GEB-BEZUG
 70
     0
 62
     2
  6
CONTINUOUS
370
    25
390
10
  0
LAYER
  5
40B
330
E
100
AcDbSymbolTableRecord
100
AcDbLayerTableRecord
  2
GEB-TEXT
 70
     0
 62
     5
  6
CONTINUOUS
370
    18
390
10
  0
ENDTAB
  0
TABLE
  2
STYLE
  5
20
330
0
100
AcDbSymbolTable
 70
     3
  0
STYLE
  5
21
330
20
100
AcDbSymbolTableRecord
100
AcDbTextStyleTableRecord
  2
STANDARD
 70
     0
 40
0.0
 41
1.0
 50
0.0
 71
     0
 42
0.2
  3
arial.ttf
  4

1001
ACAD
1000
Arial
1071
       34
  0
STYLE
  5
419
330
20
100
AcDbSymbolTableRecord
100
AcDbTextStyleTableRecord
  2

 70
     1
 40
0.0
 41
1.0
 50
0.0
 71
     0
 42
0.2
  3
genltshp.shx
  4

  0
STYLE
  5
425
330
20
100
AcDbSymbolTableRecord
100
AcDbTextStyleTableRecord
  2
ACANSGDT
 70
     0
 40
0.0
 41
1.0
 50
0.0
 71
     0
 42
0.2
  3
amgdt.shx
  4

  0
ENDTAB
  0
TABLE
  2
VIEW
  5
26
330
0
100
AcDbSymbolTable
 70
     0
  0
ENDTAB
  0
TABLE
  2
UCS
  5
27
330
0
100
AcDbSymbolTable
 70
     0
  0
ENDTAB
  0
TABLE
  2
APPID
  5
2D
330
0
100
AcDbSymbolTable
 70
    14
  0
APPID
  5
1F
330
2D
100
AcDbSymbolTableRecord
100
AcDbRegAppTableRecord
  2
ACAD
 70
     0
  0
APPID
  5
7D
330
2D
100
AcDbSymbolTableRecord
100
AcDbRegAppTableRecord
  2
AcAecLayerStandard
 70
     0
  0
APPID
  5
468
330
2D
100
AcDbSymbolTableRecord
100
AcDbRegAppTableRecord
  2
ACATTRIBSERVICES
 70
     0
  0
APPID
  5
493
330
2D
100
AcDbSymbolTableRecord
100
AcDbRegAppTableRecord
  2
MCAD_NO_VIS
 70
     0
  0
APPID
  5
494
330
2D
100
AcDbSymbolTableRecord
100
AcDbRegAppTableRecord
  2
ACAD_TEMP_GRAPHIC
 70
     0
  0
APPID
  5
498
330
2D
100
AcDbSymbolTableRecord
100
AcDbRegAppTableRecord
  2
AD_DRAW
 70
     0
  0
APPID
  5
4B1
330
2D
100
AcDbSymbolTableRecord
100
AcDbRegAppTableRecord
  2
DESIGNERASSEMBLIES
 70
     0
  0
APPID
  5
4B6
330
2D
100
AcDbSymbolTableRecord
100
AcDbRegAppTableRecord
  2
ACADM_DIM_EDIT
 70
     0
  0
APPID
  5
4B7
330
2D
100
AcDbSymbolTableRecord
100
AcDbRegAppTableRecord
  2
AMDT_DM_ADJ
 70
     0
  0
APPID
  5
4D7
330
2D
100
AcDbSymbolTableRecord
100
AcDbRegAppTableRecord
  2
ACAD_DSTYLE_DIMARC_LENGTH_SYMBOL
 70
     0
  0
APPID
  5
4D8
330
2D
100
AcDbSymbolTableRecord
100
AcDbRegAppTableRecord
  2
ACAD_DSTYLE_DIM_LINETYPE
 70
     0
  0
APPID
  5
4D9
330
2D
100
AcDbSymbolTableRecord
100
AcDbRegAppTableRecord
  2
ACAD_DSTYLE_DIM_EXT1_LINETYPE
 70
     0
  0
APPID
  5
4DA
330
2D
100
AcDbSymbolTableRecord
100
AcDbRegAppTableRecord
  2
ACAD_DSTYLE_DIM_EXT2_LINETYPE
 70
     0
  0
APPID
  5
507
330
2D
100
AcDbSymbolTableRecord
100
AcDbRegAppTableRecord
  2
ACAD_MLEADERVER
 70
     0
  0
ENDTAB
  0
TABLE
  2
DIMSTYLE
  5
2E
330
0
100
AcDbSymbolTable
 70
     7
100
AcDbDimStyleTable
 71
     1
340
2F
  0
DIMSTYLE
105
2F
330
2E
100
AcDbSymbolTableRecord
100
AcDbDimStyleTableRecord
  2
STANDARD
 70
     0
279
     2
340
21
  0
DIMSTYLE
105
43B
102
{ACAD_REACTORS
330
422
102
}
330
2E
100
AcDbSymbolTableRecord
100
AcDbDimStyleTableRecord
  2
AM_ANSI
 70
     0
  4
mm
 41
0.12
 42
0.05
 43
0.5
 44
0.1
 47
0.1
 48
0.1
 78
     7
 79
     2
140
0.12
141
0.0
146
0.71
147
0.06
176
   256
177
   256
178
     2
274
     4
284
     7
340
21
371
    -1
372
    -1
1001
ACAD_DSTYLE_DIMARC_LENGTH_SYMBOL
1070
   379
1070
     1
1001
ACAD_DSTYLE_DIM_LINETYPE
1070
   380
1005
24
1001
ACAD_DSTYLE_DIM_EXT1_LINETYPE
1070
   381
1005
24
1001
ACAD_DSTYLE_DIM_EXT2_LINETYPE
1070
   382
1005
24
  0
DIMSTYLE
105
43C
330
2E
100
AcDbSymbolTableRecord
100
AcDbDimStyleTableRecord
  2
AM_ANSI$3
 70
     0
  4
mm
 41
0.12
 42
0.05
 43
0.5
 44
0.1
 47
0.1
 48
0.1
 78
     7
 79
     2
140
0.12
141
0.0
146
0.71
147
0.06
176
   256
177
   256
178
     2
274
     4
284
     7
288
     1
289
     0
340
21
371
    -1
372
    -1
1001
ACAD_DSTYLE_DIMARC_LENGTH_SYMBOL
1070
   379
1070
     1
1001
ACAD_DSTYLE_DIM_LINETYPE
1070
   380
1005
24
1001
ACAD_DSTYLE_DIM_EXT1_LINETYPE
1070
   381
1005
24
1001
ACAD_DSTYLE_DIM_EXT2_LINETYPE
1070
   382
1005
24
  0
DIMSTYLE
105
43D
330
2E
100
AcDbSymbolTableRecord
100
AcDbDimStyleTableRecord
  2
AM_ANSI$4
 70
     0
  4
mm
 41
0.12
 42
0.05
 43
0.5
 44
0.1
 47
0.1
 48
0.1
 78
     7
 79
     2
140
0.12
141
0.0
146
0.71
147
0.06
176
   256
177
   256
178
     2
274
     4
284
     7
288
     1
289
     0
340
21
371
    -1
372
    -1
1001
ACAD_DSTYLE_DIMARC_LENGTH_SYMBOL
1070
   379
1070
     1
1001
ACAD_DSTYLE_DIM_LINETYPE
1070
   380
1005
24
1001
ACAD_DSTYLE_DIM_EXT1_LINETYPE
1070
   381
1005
24
1001
ACAD_DSTYLE_DIM_EXT2_LINETYPE
1070
   382
1005
24
  0
DIMSTYLE
105
43E
330
2E
100
AcDbSymbolTableRecord
100
AcDbDimStyleTableRecord
  2
AM_ANSI$7
 70
     0
  4
mm
 41
0.12
 42
0.05
 43
0.5
 44
0.1
 47
0.1
 48
0.1
 78
     7
 79
     2
140
0.12
141
0.0
146
0.71
147
0.06
176
   256
177
   256
178
     2
274
     4
284
     7
340
21
371
    -1
372
    -1
1001
ACAD_DSTYLE_DIMARC_LENGTH_SYMBOL
1070
   379
1070
     1
1001
ACAD_DSTYLE_DIM_LINETYPE
1070
   380
1005
24
1001
ACAD_DSTYLE_DIM_EXT1_LINETYPE
1070
   381
1005
24
1001
ACAD_DSTYLE_DIM_EXT2_LINETYPE
1070
   382
1005
24
  0
DIMSTYLE
105
43F
330
2E
100
AcDbSymbolTableRecord
100
AcDbDimStyleTableRecord
  2
AM_ANSI$SF
 70
     0
  4
mm
 41
0.12
 42
0.05
 43
0.5
 44
0.1
 47
0.1
 48
0.1
 75
     1
 76
     1
 78
     7
 79
     2
140
0.12
141
0.0
146
0.71
147
0.06
176
   256
177
   256
178
     2
274
     4
284
     7
340
21
371
    -1
372
    -1
1001
ACAD_DSTYLE_DIMARC_LENGTH_SYMBOL
1070
   379
1070
     1
1001
ACAD_DSTYLE_DIM_LINETYPE
1070
   380
1005
24
1001
ACAD_DSTYLE_DIM_EXT1_LINETYPE
1070
   381
1005
24
1001
ACAD_DSTYLE_DIM_EXT2_LINETYPE
1070
   382
1005
24
  0
DIMSTYLE
105
440
330
2E
100
AcDbSymbolTableRecord
100
AcDbDimStyleTableRecord
  2
AM_ANSI$SH
 70
     0
  4
mm
 41
0.12
 42
0.05
 43
0.5
 44
0.1
 47
0.1
 48
0.1
 75
     1
 76
     1
 78
     7
 79
     2
140
0.12
141
0.0
146
0.71
147
0.06
173
     1
176
   256
177
   256
178
     2
274
     4
284
     7
340
21
343
441
371
    -1
372
    -1
1001
ACAD_DSTYLE_DIMARC_LENGTH_SYMBOL
1070
   379
1070
     1
1001
ACAD_DSTYLE_DIM_LINETYPE
1070
   380
1005
24
1001
ACAD_DSTYLE_DIM_EXT1_LINETYPE
1070
   381
1005
24
1001
ACAD_DSTYLE_DIM_EXT2_LINETYPE
1070
   382
1005
24
  0
ENDTAB
  0
TABLE
  2
BLOCK_RECORD
  5
1
330
0
100
AcDbSymbolTable
 70
     3
  0
BLOCK_RECORD
  5
2
102
{ACAD_XDICTIONARY
360
3
102
}
330
1
100
AcDbSymbolTableRecord
100
AcDbBlockTableRecord
  2
*Model_Space
340
7
  0
BLOCK_RECORD
  5
A
330
1
100
AcDbSymbolTableRecord
100
AcDbBlockTableRecord
  2
*Paper_Space
340
D
  0
BLOCK_RECORD
  5
441
330
1
100
AcDbSymbolTableRecord
100
AcDbBlockTableRecord
  2
GENAXEH
340
0
  0
BLOCK_RECORD
  5
6F
330
1
100
AcDbSymbolTableRecord
100
AcDbBlockTableRecord
  2
Einfügepunkt
340
0
102
{BLKREFS
331
6E
102
}
  0
ENDTAB
  0
ENDSEC
  0
SECTION
  2
BLOCKS
  0
BLOCK
  5
5
330
2
100
AcDbEntity
  8
0
100
AcDbBlockBegin
  2
*Model_Space
 70
     0
 10
0.0
 20
0.0
 30
0.0
  3
*Model_Space
  1

  0
ENDBLK
  5
6
330
2
100
AcDbEntity
  8
0
100
AcDbBlockEnd
  0
BLOCK
  5
B
330
A
100
AcDbEntity
 67
     1
  8
0
100
AcDbBlockBegin
  2
*Paper_Space
 70
     0
 10
0.0
 20
0.0
 30
0.0
  3
*Paper_Space
  1

  0
ENDBLK
  5
C
330
A
100
AcDbEntity
 67
     1
  8
0
100
AcDbBlockEnd
  0
BLOCK
  5
442
330
441
100
AcDbEntity
  8
0
100
AcDbBlockBegin
  2
GENAXEH
 70
     0
 10
0.0
 20
0.0
 30
0.0
  3
GENAXEH
  1

  0
LINE
  5
443
330
441
100
AcDbEntity
  8
0
100
AcDbLine
 10
-1.0
 20
0.0
 30
0.0
 11
1.0
 21
0.0
 31
0.0
  0
ENDBLK
  5
444
330
441
100
AcDbEntity
  8
0
100
AcDbBlockEnd
  0
BLOCK
  5
70
330
6F
100
AcDbEntity
  8
0
100
AcDbBlockBegin
  2
Einfügepunkt
 70
     0
 10
0.0
 20
0.0
 30
0.0
  3
Einfügepunkt
  1

  0
LINE
  5
71
330
6F
100
AcDbEntity
  8
GEB-BEZUG
100
AcDbLine
 10
-0.7071067811865817
 20
-0.7071067811865106
 30
0.0
 11
0.7071067811864751
 21
0.7071067811865817
 31
0.0
  0
LINE
  5
73
330
6F
100
AcDbEntity
  8
GEB-BEZUG
100
AcDbLine
 10
-0.7071067811865106
 20
0.7071067811865817
 30
0.0
 11
0.7071067811865462
 21
-0.7071067811865106
 31
0.0
  0
ENDBLK
  5
74
330
6F
100
AcDbEntity
  8
0
100
AcDbBlockEnd
  0
ENDSEC
  0
SECTION
  2
ENTITIES
  0
INSERT
  5
6E
330
2
100
AcDbEntity
  8
0
 48
25.0
100
AcDbBlockReference
  2
Einfügepunkt
 10
0.0
 20
0.0
 30
0.0
  0
LINE
  5
75
330
2
100
AcDbEntity
  8
Arbeitspunkt(DIN)
 48
25.0
100
AcDbLine
 10
0.0
 20
0.0
 30
0.0
 11
0.0
 21
-2.5
 31
0.0
  0
LINE
  5
77
330
2
100
AcDbEntity
  8
Arbeitspunkt(DIN)
 48
25.0
100
AcDbLine
 10
0.0
 20
0.0
 30
0.0
 11
0.0
 21
2.5
 31
0.0
  0
LINE
  5
78
330
2
100
AcDbEntity
  8
Arbeitspunkt(DIN)
 48
25.0
100
AcDbLine
 10
0.0
 20
0.0
 30
0.0
 11
-2.5
 21
0.0
 31
0.0
  0
LINE
  5
79
330
2
100
AcDbEntity
  8
Arbeitspunkt(DIN)
 48
25.0
100
AcDbLine
 10
0.0
 20
0.0
 30
0.0
 11
2.5
 21
0.0
 31
0.0
  0
LINE
  5
7A
330
2
100
AcDbEntity
  8
GEB-SYMMETRIE
 48
25.0
100
AcDbLine
 10
-0.0000000000048885
 20
91.17210506462289
 30
0.0
 11
-0.0000000000048885
 21
115.7221050646228
 31
0.0
  0
LINE
  5
7E
330
2
100
AcDbEntity
  8
GEB-SYMMETRIE
 48
25.0
100
AcDbLine
 10
-0.0000000000048885
 20
91.17210506462289
 30
0.0
 11
-0.0000000000048885
 21
66.62210506462293
 31
0.0
  0
LINE
  5
7F
330
2
100
AcDbEntity
  8
GEB-SYMMETRIE
 48
25.0
100
AcDbLine
 10
-0.0000000000048885
 20
91.17210506462289
 30
0.0
 11
24.54999999999518
 21
91.17210506462289
 31
0.0
  0
LINE
  5
80
330
2
100
AcDbEntity
  8
GEB-SYMMETRIE
 48
25.0
100
AcDbLine
 10
-0.0000000000048885
 20
91.17210506462289
 30
0.0
 11
-24.55000000000485
 21
91.17210506462289
 31
0.0
  0
POLYLINE
  5
81
330
2
100
AcDbEntity
  8
GEB-KONTUR-A
 48
25.0
100
AcDb2dPolyline
 66
     1
 10
0.0
 20
0.0
 30
0.0
 70
   128
  0
VERTEX
  5
83
330
81
100
AcDbEntity
  8
GEB-KONTUR-A
 48
25.0
100
AcDbVertex
100
AcDb2dVertex
 10
23.99503946303651
 20
81.37343919930765
 30
0.0
  0
VERTEX
  5
84
330
81
100
AcDbEntity
  8
GEB-KONTUR-A
 48
25.0
100
AcDbVertex
100
AcDb2dVertex
 10
24.35801982879002
 20
81.82237440246911
 30
0.0
  0
VERTEX
  5
85
330
81
100
AcDbEntity
  8
GEB-KONTUR-A
 48
25.0
100
AcDbVertex
100
AcDb2dVertex
 10
24.69950199126572
 20
82.28588996365875
 30
0.0
  0
VERTEX
  5
86
330
81
100
AcDbEntity
  8
GEB-KONTUR-A
 48
25.0
100
AcDbVertex
100
AcDb2dVertex
 10
25.01811981200558
 20
82.76333853599942
 30
0.0
  0
VERTEX
  5
87
330
81
100
AcDbEntity
  8
GEB-KONTUR-A
 48
25.0
100
AcDbVertex
100
AcDb2dVertex
 10
25.31251192092293
 20
83.25407324887805
 30
0.0
  0
VERTEX
  5
88
330
81
100
AcDbEntity
  8
GEB-KONTUR-A
 48
25.0
100
AcDbVertex
100
AcDb2dVertex
 10
25.58131456374542
 20
83.75744641746678
 30
0.0
  0
VERTEX
  5
89
330
81
100
AcDbEntity
  8
GEB-KONTUR-A
 48
25.0
100
AcDbVertex
100
AcDb2dVertex
 10
25.82316160201469
 20
84.27281061503379
 30
0.0
  0
VERTEX
  5
8A
330
81
100
AcDbEntity
  8
GEB-KONTUR-A
 48
25.0
100
AcDbVertex
100
AcDb2dVertex
 10
26.03669404982986
 20
84.79951886188178
 30
0.0
  0
VERTEX
  5
8B
330
81
100
AcDbEntity
  8
GEB-KONTUR-A
 48
25.0
100
AcDbVertex
100
AcDb2dVertex
 10
26.22054338454677
 20
85.33692388029033
 30
0.0
  0
VERTEX
  5
8C
330
81
100
AcDbEntity
  8
GEB-KONTUR-A
 48
25.0
100
AcDbVertex
100
AcDb2dVertex
 10
26.37335062026477
 20
85.88437783641984
 30
0.0
  0
VERTEX
  5
8D
330
81
100
AcDbEntity
  8
GEB-KONTUR-A
 48
25.0
100
AcDbVertex
100
AcDb2dVertex
 10
26.49375200271118
 20
86.44123364148947
 30
0.0
  0
VERTEX
  5
8E
330
81
100
AcDbEntity
  8
GEB-KONTUR-A
 48
25.0
100
AcDbVertex
100
AcDb2dVertex
 10
26.57999277114402
 20
87.0058309837467
 30
0.0
  0
VERTEX
  5
8F
330
81
100
AcDbEntity
  8
GEB-KONTUR-A
 48
25.0
100
AcDbVertex
100
AcDb2dVertex
 10
26.63102626800082
 20
87.5748847558998
 30
0.0
  0
VERTEX
  5
90
330
81
100
AcDbEntity
  8
GEB-KONTUR-A
 48
25.0
100
AcDbVertex
100
AcDb2dVertex
 10
26.64718151092109
 20
88.14617233093953
 30
0.0
  0
VERTEX
  5
91
330
81
100
AcDbEntity
  8
GEB-KONTUR-A
 48
25.0
100
AcDbVertex
100
AcDb2dVertex
 10
26.62881374358722
 20
88.71749629192322
 30
0.0
  0
VERTEX
  5
92
330
81
100
AcDbEntity
  8
GEB-KONTUR-A
 48
25.0
100
AcDbVertex
100
AcDb2dVertex
 10
26.57626867293914
 20
89.28665933541322
 30
0.0
  0
VERTEX
  5
93
330
81
100
AcDbEntity
  8
GEB-KONTUR-A
 48
25.0
100
AcDbVertex
100
AcDb2dVertex
 10
26.48990392684562
 20
89.85146393329079
 30
0.0
  0
VERTEX
  5
94
330
81
100
AcDbEntity
  8
GEB-KONTUR-A
 48
25.0
100
AcDbVertex
100
AcDb2dVertex
 10
26.37006759643202
 20
90.40971213734314
 30
0.0
  0
VERTEX
  5
95
330
81
100
AcDbEntity
  8
GEB-KONTUR-A
 48
25.0
100
AcDbVertex
100
AcDb2dVertex
 10
26.21711254119532
 20
90.9592064729469
 30
0.0
  0
VERTEX
  5
96
330
81
100
AcDbEntity
  8
GEB-KONTUR-A
 48
25.0
100
AcDbVertex
100
AcDb2dVertex
 10
26.03255271911292
 20
91.49780657311612
 30
0.0
  0
VERTEX
  5
97
330
81
100
AcDbEntity
  8
GEB-KONTUR-A
 48
25.0
100
AcDbVertex
100
AcDb2dVertex
 10
25.81840515136423
 20
92.02463106140669
 30
0.0
  0
VERTEX
  5
98
330
81
100
AcDbEntity
  8
GEB-KONTUR-A
 48
25.0
100
AcDbVertex
100
AcDb2dVertex
 10
25.57601690292074
 20
92.5393080905269
 30
0.0
  0
VERTEX
  5
99
330
81
100
AcDbEntity
  8
GEB-KONTUR-A
 48
25.0
100
AcDbVertex
100
AcDb2dVertex
 10
25.30673027038301
 20
93.04146572406409
 30
0.0
  0
VERTEX
  5
9A
330
81
100
AcDbEntity
  8
GEB-KONTUR-A
 48
25.0
100
AcDbVertex
100
AcDb2dVertex
 10
25.01189470290877
 20
93.53073285978439
 30
0.0
  0
VERTEX
  5
9B
330
81
100
AcDbEntity
  8
GEB-KONTUR-A
 48
25.0
100
AcDbVertex
100
AcDb2dVertex
 10
24.69285011291276
 20
94.00673754131151
 30
0.0
  0
VERTEX
  5
9C
330
81
100
AcDbEntity
  8
GEB-KONTUR-A
 48
25.0
100
AcDbVertex
100
AcDb2dVertex
 10
24.35094594955228
 20
94.46910794131747
 30
0.0
  0
VERTEX
  5
9D
330
81
100
AcDbEntity
  8
GEB-KONTUR-A
 48
25.0
100
AcDbVertex
100
AcDb2dVertex
 10
23.98752212524221
 20
94.91747210342555
 30
0.0
  0
VERTEX
  5
9E
330
81
100
AcDbEntity
  8
GEB-KONTUR-A
 48
25.0
100
AcDbVertex
100
AcDb2dVertex
 10
23.60384225845155
 20
95.35196319492014
 30
0.0
  0
VERTEX
  5
9F
330
81
100
AcDbEntity
  8
GEB-KONTUR-A
 48
25.0
100
AcDbVertex
100
AcDb2dVertex
 10
23.2006549835188
 20
95.77327387095124
 30
0.0
  0
VERTEX
  5
A0
330
81
100
AcDbEntity
  8
GEB-KONTUR-A
 48
25.0
100
AcDbVertex
100
AcDb2dVertex
 10
22.77853250503381
 20
96.18163319368683
 30
0.0
  0
VERTEX
  5
A1
330
81
100
AcDbEntity
  8
GEB-KONTUR-A
 48
25.0
100
AcDbVertex
100
AcDb2dVertex
 10
22.33804702758664
 20
96.57726857833461
 30
0.0
  0
VERTEX
  5
A2
330
81
100
AcDbEntity
  8
GEB-KONTUR-A
 48
25.0
100
AcDbVertex
100
AcDb2dVertex
 10
21.87976360320931
 20
96.96040671500838
 30
0.0
  0
VERTEX
  5
A3
330
81
100
AcDbEntity
  8
GEB-KONTUR-A
 48
25.0
100
AcDbVertex
100
AcDb2dVertex
 10
21.40425682067769
 20
97.33127389134768
 30
0.0
  0
VERTEX
  5
A4
330
81
100
AcDbEntity
  8
GEB-KONTUR-A
 48
25.0
100
AcDbVertex
100
AcDb2dVertex
 10
20.91209411621014
 20
97.69009626594323
 30
0.0
  0
VERTEX
  5
A5
330
81
100
AcDbEntity
  8
GEB-KONTUR-A
 48
25.0
100
AcDbVertex
100
AcDb2dVertex
 10
20.4038453102105
 20
98.03710006191067
 30
0.0
  0
VERTEX
  5
A6
330
81
100
AcDbEntity
  8
GEB-KONTUR-A
 48
25.0
100
AcDbVertex
100
AcDb2dVertex
 10
19.88008260726872
 20
98.37251322598035
 30
0.0
  0
VERTEX
  5
A7
330
81
100
AcDbEntity
  8
GEB-KONTUR-A
 48
25.0
100
AcDbVertex
100
AcDb2dVertex
 10
19.34137344360306
 20
98.69656085369877
 30
0.0
  0
VERTEX
  5
A8
330
81
100
AcDbEntity
  8
GEB-KONTUR-A
 48
25.0
100
AcDbVertex
100
AcDb2dVertex
 10
18.78817081451382
 20
99.00945196522275
 30
0.0
  0
VERTEX
  5
A9
330
81
100
AcDbEntity
  8
GEB-KONTUR-A
 48
25.0
100
AcDbVertex
100
AcDb2dVertex
 10
18.22067618370045
 20
99.31125235680168
 30
0.0
  0
VERTEX
  5
AA
330
81
100
AcDbEntity
  8
GEB-KONTUR-A
 48
25.0
100
AcDbVertex
100
AcDb2dVertex
 10
17.63932704925537
 20
99.60196453178674
 30
0.0
  0
VERTEX
  5
AB
330
81
100
AcDbEntity
  8
GEB-KONTUR-A
 48
25.0
100
AcDbVertex
100
AcDb2dVertex
 10
17.04456806182873
 20
99.88158910700349
 30
0.0
  0
VERTEX
  5
AC
330
81
100
AcDbEntity
  8
GEB-KONTUR-A
 48
25.0
100
AcDbVertex
100
AcDb2dVertex
 10
16.43684864044201
 20
100.1501280204193
 30
0.0
  0
VERTEX
  5
AD
330
81
100
AcDbEntity
  8
GEB-KONTUR-A
 48
25.0
100
AcDbVertex
100
AcDb2dVertex
 10
15.81661581993137
 20
100.4075819533838
 30
0.0
  0
VERTEX
  5
AE
330
81
100
AcDbEntity
  8
GEB-KONTUR-A
 48
25.0
100
AcDbVertex
100
AcDb2dVertex
 10
15.18431663513229
 20
100.6539533108625
 30
0.0
  0
VERTEX
  5
AF
330
81
100
AcDbEntity
  8
GEB-KONTUR-A
 48
25.0
100
AcDbVertex
100
AcDb2dVertex
 10
14.54040050506648
 20
100.8892417111604
 30
0.0
  0
VERTEX
  5
B0
330
81
100
AcDbEntity
  8
GEB-KONTUR-A
 48
25.0
100
AcDbVertex
100
AcDb2dVertex
 10
13.88531446456977
 20
101.1134501230277
 30
0.0
  0
VERTEX
  5
B1
330
81
100
AcDbEntity
  8
GEB-KONTUR-A
 48
25.0
100
AcDbVertex
100
AcDb2dVertex
 10
13.21950554847785
 20
101.3265798883844
 30
0.0
  0
VERTEX
  5
B2
330
81
100
AcDbEntity
  8
GEB-KONTUR-A
 48
25.0
100
AcDbVertex
100
AcDb2dVertex
 10
12.54342317581256
 20
101.5286310925345
 30
0.0
  0
VERTEX
  5
B3
330
81
100
AcDbEntity
  8
GEB-KONTUR-A
 48
25.0
100
AcDbVertex
100
AcDb2dVertex
 10
11.85751438140971
 20
101.719595690767
 30
0.0
  0
VERTEX
  5
B4
330
81
100
AcDbEntity
  8
GEB-KONTUR-A
 48
25.0
100
AcDbVertex
100
AcDb2dVertex
 10
11.16228580474956
 20
101.8993549523849
 30
0.0
  0
VERTEX
  5
B5
330
81
100
AcDbEntity
  8
GEB-KONTUR-A
 48
25.0
100
AcDbVertex
100
AcDb2dVertex
 10
10.45829892158622
 20
102.0678370739845
 30
0.0
  0
VERTEX
  5
B6
330
81
100
AcDbEntity
  8
GEB-KONTUR-A
 48
25.0
100
AcDbVertex
100
AcDb2dVertex
 10
9.746114611626808
 20
102.2249924355939
 30
0.0
  0
VERTEX
  5
B7
330
81
100
AcDbEntity
  8
GEB-KONTUR-A
 48
25.0
100
AcDbVertex
100
AcDb2dVertex
 10
9.026297330857573
 20
102.370772673858
 30
0.0
  0
VERTEX
  5
B8
330
81
100
AcDbEntity
  8
GEB-KONTUR-A
 48
25.0
100
AcDbVertex
100
AcDb2dVertex
 10
8.299408555032073
 20
102.5051281688052
 30
0.0
  0
VERTEX
  5
B9
330
81
100
AcDbEntity
  8
GEB-KONTUR-A
 48
25.0
100
AcDbVertex
100
AcDb2dVertex
 10
7.566012144090223
 20
102.6280093327254
 30
0.0
  0
VERTEX
  5
BA
330
81
100
AcDbEntity
  8
GEB-KONTUR-A
 48
25.0
100
AcDbVertex
100
AcDb2dVertex
 10
6.826669573785352
 20
102.7393689298326
 30
0.0
  0
VERTEX
  5
BB
330
81
100
AcDbEntity
  8
GEB-KONTUR-A
 48
25.0
100
AcDbVertex
100
AcDb2dVertex
 10
6.081944704057264
 20
102.8391562125861
 30
0.0
  0
VERTEX
  5
BC
330
81
100
AcDbEntity
  8
GEB-KONTUR-A
 48
25.0
100
AcDbVertex
100
AcDb2dVertex
 10
5.332400202752751
 20
102.9273215287515
 30
0.0
  0
VERTEX
  5
BD
330
81
100
AcDbEntity
  8
GEB-KONTUR-A
 48
25.0
100
AcDbVertex
100
AcDb2dVertex
 10
4.578597843648594
 20
103.0038177393294
 30
0.0
  0
VERTEX
  5
BE
330
81
100
AcDbEntity
  8
GEB-KONTUR-A
 48
25.0
100
AcDbVertex
100
AcDb2dVertex
 10
3.821103274823826
 20
103.0685933547532
 30
0.0
  0
VERTEX
  5
BF
330
81
100
AcDbEntity
  8
GEB-KONTUR-A
 48
25.0
100
AcDbVertex
100
AcDb2dVertex
 10
3.060542345048588
 20
103.1215974616431
 30
0.0
  0
VERTEX
  5
C0
330
81
100
AcDbEntity
  8
GEB-KONTUR-A
 48
25.0
100
AcDbVertex
100
AcDb2dVertex
 10
2.297542691232365
 20
103.1628184568905
 30
0.0
  0
VERTEX
  5
C1
330
81
100
AcDbEntity
  8
GEB-KONTUR-A
 48
25.0
100
AcDbVertex
100
AcDb2dVertex
 10
1.532713770867985
 20
103.1922578213463
 30
0.0
  0
VERTEX
  5
C2
330
81
100
AcDbEntity
  8
GEB-KONTUR-A
 48
25.0
100
AcDbVertex
100
AcDb2dVertex
 10
0.7666651159540834
 20
103.2099170358615
 30
0.0
  0
VERTEX
  5
C3
330
81
100
AcDbEntity
  8
GEB-KONTUR-A
 48
25.0
100
AcDbVertex
100
AcDb2dVertex
 10
0.0000064912558173
 20
103.2157987411179
 30
0.0
  0
VERTEX
  5
C4
330
81
100
AcDbEntity
  8
GEB-KONTUR-A
 48
25.0
100
AcDbVertex
100
AcDb2dVertex
 10
-0.7666525989754974
 20
103.2099020660427
 30
0.0
  0
VERTEX
  5
C5
330
81
100
AcDbEntity
  8
GEB-KONTUR-A
 48
25.0
100
AcDbVertex
100
AcDb2dVertex
 10
-1.532702445982295
 20
103.1922320032414
 30
0.0
  0
VERTEX
  5
C6
330
81
100
AcDbEntity
  8
GEB-KONTUR-A
 48
25.0
100
AcDbVertex
100
AcDb2dVertex
 10
-2.297533601520854
 20
103.1627864895482
 30
0.0
  0
VERTEX
  5
C7
330
81
100
AcDbEntity
  8
GEB-KONTUR-A
 48
25.0
100
AcDbVertex
100
AcDb2dVertex
 10
-3.060536384580927
 20
103.121569325476
 30
0.0
  0
VERTEX
  5
C8
330
81
100
AcDbEntity
  8
GEB-KONTUR-A
 48
25.0
100
AcDbVertex
100
AcDb2dVertex
 10
-3.821100890634852
 20
103.0685808643065
 30
0.0
  0
VERTEX
  5
C9
330
81
100
AcDbEntity
  8
GEB-KONTUR-A
 48
25.0
100
AcDbVertex
100
AcDb2dVertex
 10
-4.578616023062068
 20
103.0038241983891
 30
0.0
  0
VERTEX
  5
CA
330
81
100
AcDbEntity
  8
GEB-KONTUR-A
 48
25.0
100
AcDbVertex
100
AcDb2dVertex
 10
-5.332440733908015
 20
102.9273375682833
 30
0.0
  0
VERTEX
  5
CB
330
81
100
AcDbEntity
  8
GEB-KONTUR-A
 48
25.0
100
AcDbVertex
100
AcDb2dVertex
 10
-6.081992983816576
 20
102.8391758219978
 30
0.0
  0
VERTEX
  5
CC
330
81
100
AcDbEntity
  8
GEB-KONTUR-A
 48
25.0
100
AcDbVertex
100
AcDb2dVertex
 10
-6.826712489126634
 20
102.7393896070883
 30
0.0
  0
VERTEX
  5
CD
330
81
100
AcDbEntity
  8
GEB-KONTUR-A
 48
25.0
100
AcDbVertex
100
AcDb2dVertex
 10
-7.566041946409654
 20
102.6280283467559
 30
0.0
  0
VERTEX
  5
CE
330
81
100
AcDbEntity
  8
GEB-KONTUR-A
 48
25.0
100
AcDbVertex
100
AcDb2dVertex
 10
-8.299421072004975
 20
102.5051427208182
 30
0.0
  0
VERTEX
  5
CF
330
81
100
AcDbEntity
  8
GEB-KONTUR-A
 48
25.0
100
AcDbVertex
100
AcDb2dVertex
 10
-9.026290774344147
 20
102.3707833445687
 30
0.0
  0
VERTEX
  5
D0
330
81
100
AcDbEntity
  8
GEB-KONTUR-A
 48
25.0
100
AcDbVertex
100
AcDb2dVertex
 10
-9.746092557905967
 20
102.2249972570226
 30
0.0
  0
VERTEX
  5
D1
330
81
100
AcDbEntity
  8
GEB-KONTUR-A
 48
25.0
100
AcDbVertex
100
AcDb2dVertex
 10
-10.45826792716866
 20
102.0678386820143
 30
0.0
  0
VERTEX
  5
D2
330
81
100
AcDbEntity
  8
GEB-KONTUR-A
 48
25.0
100
AcDbVertex
100
AcDb2dVertex
 10
-11.16225600242512
 20
101.8993534987277
 30
0.0
  0
VERTEX
  5
D3
330
81
100
AcDbEntity
  8
GEB-KONTUR-A
 48
25.0
100
AcDbVertex
100
AcDb2dVertex
 10
-11.85749888420002
 20
101.7195947066426
 30
0.0
  0
VERTEX
  5
D4
330
81
100
AcDbEntity
  8
GEB-KONTUR-A
 48
25.0
100
AcDbVertex
100
AcDb2dVertex
 10
-12.54343748092572
 20
101.5286144389642
 30
0.0
  0
VERTEX
  5
D5
330
81
100
AcDbEntity
  8
GEB-KONTUR-A
 48
25.0
100
AcDbVertex
100
AcDb2dVertex
 10
-13.21954369544914
 20
101.3265382205976
 30
0.0
  0
VERTEX
  5
D6
330
81
100
AcDbEntity
  8
GEB-KONTUR-A
 48
25.0
100
AcDbVertex
100
AcDb2dVertex
 10
-13.88536453247002
 20
101.1133992219217
 30
0.0
  0
VERTEX
  5
D7
330
81
100
AcDbEntity
  8
GEB-KONTUR-A
 48
25.0
100
AcDbVertex
100
AcDb2dVertex
 10
-14.54045295715275
 20
100.8891920360089
 30
0.0
  0
VERTEX
  5
D8
330
81
100
AcDbEntity
  8
GEB-KONTUR-A
 48
25.0
100
AcDbVertex
100
AcDb2dVertex
 10
-15.1843631267543
 20
100.6539147676869
 30
0.0
  0
VERTEX
  5
D9
330
81
100
AcDbEntity
  8
GEB-KONTUR-A
 48
25.0
100
AcDbVertex
100
AcDb2dVertex
 10
-15.81665158271755
 20
100.4075596581043
 30
0.0
  0
VERTEX
  5
DA
330
81
100
AcDbEntity
  8
GEB-KONTUR-A
 48
25.0
100
AcDbVertex
100
AcDb2dVertex
 10
-16.43687129020679
 20
100.150123088473
 30
0.0
  0
VERTEX
  5
DB
330
81
100
AcDbEntity
  8
GEB-KONTUR-A
 48
25.0
100
AcDbVertex
100
AcDb2dVertex
 10
-17.04457879066456
 20
99.88160137548106
 30
0.0
  0
VERTEX
  5
DC
330
81
100
AcDbEntity
  8
GEB-KONTUR-A
 48
25.0
100
AcDbVertex
100
AcDb2dVertex
 10
-17.63932585716247
 20
99.60198792010828
 30
0.0
  0
VERTEX
  5
DD
330
81
100
AcDbEntity
  8
GEB-KONTUR-A
 48
25.0
100
AcDbVertex
100
AcDb2dVertex
 10
-18.2206702232362
 20
99.31127910356657
 30
0.0
  0
VERTEX
  5
DE
330
81
100
AcDbEntity
  8
GEB-KONTUR-A
 48
25.0
100
AcDbVertex
100
AcDb2dVertex
 10
-18.78816366195713
 20
99.009470050451
 30
0.0
  0
VERTEX
  5
DF
330
81
100
AcDbEntity
  8
GEB-KONTUR-A
 48
25.0
100
AcDbVertex
100
AcDb2dVertex
 10
-19.3413650989537
 20
98.69655594988069
 30
0.0
  0
VERTEX
  5
E0
330
81
100
AcDbEntity
  8
GEB-KONTUR-A
 48
25.0
100
AcDbVertex
100
AcDb2dVertex
 10
-19.88011479377803
 20
98.3724881817667
 30
0.0
  0
VERTEX
  5
E1
330
81
100
AcDbEntity
  8
GEB-KONTUR-A
 48
25.0
100
AcDbVertex
100
AcDb2dVertex
 10
-20.4040479660041
 20
98.03706862729473
 30
0.0
  0
VERTEX
  5
E2
330
81
100
AcDbEntity
  8
GEB-KONTUR-A
 48
25.0
100
AcDbVertex
100
AcDb2dVertex
 10
-20.91254711151202
 20
97.69006855904866
 30
0.0
  0
VERTEX
  5
E3
330
81
100
AcDbEntity
  8
GEB-KONTUR-A
 48
25.0
100
AcDbVertex
100
AcDb2dVertex
 10
-21.40499353408916
 20
97.33125633390422
 30
0.0
  0
VERTEX
  5
E4
330
81
100
AcDbEntity
  8
GEB-KONTUR-A
 48
25.0
100
AcDbVertex
100
AcDb2dVertex
 10
-21.88076972961539
 20
96.96040388501536
 30
0.0
  0
VERTEX
  5
E5
330
81
100
AcDbEntity
  8
GEB-KONTUR-A
 48
25.0
100
AcDbVertex
100
AcDb2dVertex
 10
-22.33925819397098
 20
96.57728010078006
 30
0.0
  0
VERTEX
  5
E6
330
81
100
AcDbEntity
  8
GEB-KONTUR-A
 48
25.0
100
AcDbVertex
100
AcDb2dVertex
 10
-22.77984142303626
 20
96.18165519073716
 30
0.0
  0
VERTEX
  5
E7
330
81
100
AcDbEntity
  8
GEB-KONTUR-A
 48
25.0
100
AcDbVertex
100
AcDb2dVertex
 10
-23.20189952850512
 20
95.77329970237622
 30
0.0
  0
VERTEX
  5
E8
330
81
100
AcDbEntity
  8
GEB-KONTUR-A
 48
25.0
100
AcDbVertex
100
AcDb2dVertex
 10
-23.60481739044371
 20
95.35198397428349
 30
0.0
  0
VERTEX
  5
E9
330
81
100
AcDbEntity
  8
GEB-KONTUR-A
 48
25.0
100
AcDbVertex
100
AcDb2dVertex
 10
-23.98797750473216
 20
94.91747729733209
 30
0.0
  0
VERTEX
  5
EA
330
81
100
AcDbEntity
  8
GEB-KONTUR-A
 48
25.0
100
AcDbVertex
100
AcDb2dVertex
 10
-24.35075759887912
 20
94.46954994558428
 30
0.0
  0
VERTEX
  5
EB
330
81
100
AcDbEntity
  8
GEB-KONTUR-A
 48
25.0
100
AcDbVertex
100
AcDb2dVertex
 10
-24.69233512878645
 20
94.0075294046186
 30
0.0
  0
VERTEX
  5
EC
330
81
100
AcDbEntity
  8
GEB-KONTUR-A
 48
25.0
100
AcDbVertex
100
AcDb2dVertex
 10
-25.01118421554827
 20
93.53065456833736
 30
0.0
  0
VERTEX
  5
ED
330
81
100
AcDbEntity
  8
GEB-KONTUR-A
 48
25.0
100
AcDbVertex
100
AcDb2dVertex
 10
-25.30592203140532
 20
93.03976826990606
 30
0.0
  0
VERTEX
  5
EE
330
81
100
AcDbEntity
  8
GEB-KONTUR-A
 48
25.0
100
AcDbVertex
100
AcDb2dVertex
 10
-25.57518005371378
 20
92.53577924821081
 30
0.0
  0
VERTEX
  5
EF
330
81
100
AcDbEntity
  8
GEB-KONTUR-A
 48
25.0
100
AcDbVertex
100
AcDb2dVertex
 10
-25.81758975982962
 20
92.01959594411471
 30
0.0
  0
VERTEX
  5
F0
330
81
100
AcDbEntity
  8
GEB-KONTUR-A
 48
25.0
100
AcDbVertex
100
AcDb2dVertex
 10
-26.03178739548059
 20
91.49212633148215
 30
0.0
  0
VERTEX
  5
F1
330
81
100
AcDbEntity
  8
GEB-KONTUR-A
 48
25.0
100
AcDbVertex
100
AcDb2dVertex
 10
-26.21640205383642
 20
90.95427918912708
 30
0.0
  0
VERTEX
  5
F2
330
81
100
AcDbEntity
  8
GEB-KONTUR-A
 48
25.0
100
AcDbVertex
100
AcDb2dVertex
 10
-26.37006759643907
 20
90.40696332509208
 30
0.0
  0
VERTEX
  5
F3
330
81
100
AcDbEntity
  8
GEB-KONTUR-A
 48
25.0
100
AcDbVertex
100
AcDb2dVertex
 10
-26.49141788483041
 20
89.85108651503731
 30
0.0
  0
VERTEX
  5
F4
330
81
100
AcDbEntity
  8
GEB-KONTUR-A
 48
25.0
100
AcDbVertex
100
AcDb2dVertex
 10
-26.57908201218049
 20
89.28755740337932
 30
0.0
  0
VERTEX
  5
F5
330
81
100
AcDbEntity
  8
GEB-KONTUR-A
 48
25.0
100
AcDbVertex
100
AcDb2dVertex
 10
-26.63152694702558
 20
88.71853808652657
 30
0.0
  0
VERTEX
  5
F6
330
81
100
AcDbEntity
  8
GEB-KONTUR-A
 48
25.0
100
AcDbVertex
100
AcDb2dVertex
 10
-26.64836168289606
 20
88.14742802105945
 30
0.0
  0
VERTEX
  5
F7
330
81
100
AcDbEntity
  8
GEB-KONTUR-A
 48
25.0
100
AcDbVertex
100
AcDb2dVertex
 10
-26.63020133972623
 20
87.57633436845607
 30
0.0
  0
VERTEX
  5
F8
330
81
100
AcDbEntity
  8
GEB-KONTUR-A
 48
25.0
100
AcDbVertex
100
AcDb2dVertex
 10
-26.57767772675027
 20
87.00735319933039
 30
0.0
  0
VERTEX
  5
F9
330
81
100
AcDbEntity
  8
GEB-KONTUR-A
 48
25.0
100
AcDbVertex
100
AcDb2dVertex
 10
-26.49141073227418
 20
86.44258026450007
 30
0.0
  0
VERTEX
  5
FA
330
81
100
AcDbEntity
  8
GEB-KONTUR-A
 48
25.0
100
AcDbVertex
100
AcDb2dVertex
 10
-26.37202978134656
 20
85.88411159761722
 30
0.0
  0
VERTEX
  5
FB
330
81
100
AcDbEntity
  8
GEB-KONTUR-A
 48
25.0
100
AcDbVertex
100
AcDb2dVertex
 10
-26.22015714645909
 20
85.33404286515395
 30
0.0
  0
VERTEX
  5
FC
330
81
100
AcDbEntity
  8
GEB-KONTUR-A
 48
25.0
100
AcDbVertex
100
AcDb2dVertex
 10
-26.03644847870408
 20
84.794467067421
 30
0.0
  0
VERTEX
  5
FD
330
81
100
AcDbEntity
  8
GEB-KONTUR-A
 48
25.0
100
AcDbVertex
100
AcDb2dVertex
 10
-25.82276105881295
 20
84.26693112829218
 30
0.0
  0
VERTEX
  5
FE
330
81
100
AcDbEntity
  8
GEB-KONTUR-A
 48
25.0
100
AcDbVertex
100
AcDb2dVertex
 10
-25.58088302612885
 20
83.75185742269014
 30
0.0
  0
VERTEX
  5
FF
330
81
100
AcDbEntity
  8
GEB-KONTUR-A
 48
25.0
100
AcDbVertex
100
AcDb2dVertex
 10
-25.31213760376579
 20
83.24953263979399
 30
0.0
  0
VERTEX
  5
100
330
81
100
AcDbEntity
  8
GEB-KONTUR-A
 48
25.0
100
AcDbVertex
100
AcDb2dVertex
 10
-25.01785516739506
 20
82.76024220753322
 30
0.0
  0
VERTEX
  5
101
330
81
100
AcDbEntity
  8
GEB-KONTUR-A
 48
25.0
100
AcDbVertex
100
AcDb2dVertex
 10
-24.69935894013076
 20
82.2842729640987
 30
0.0
  0
VERTEX
  5
102
330
81
100
AcDbEntity
  8
GEB-KONTUR-A
 48
25.0
100
AcDbVertex
100
AcDb2dVertex
 10
-24.35797929764431
 20
81.82190978130098
 30
0.0
  0
VERTEX
  5
103
330
81
100
AcDbEntity
  8
GEB-KONTUR-A
 48
25.0
100
AcDbVertex
100
AcDb2dVertex
 10
-23.99503946304992
 20
81.37343919930765
 30
0.0
  0
SEQEND
  5
104
330
81
100
AcDbEntity
  8
GEB-KONTUR-A
 48
25.0
  0
LINE
  5
105
330
2
100
AcDbEntity
  8
GEB-KONTUR-A
 48
25.0
100
AcDbLine
 10
20.90799500477431
 20
77.72277010258722
 30
0.0
 11
23.99503882601982
 21
81.37343961405861
 31
0.0
  0
LINE
  5
106
330
2
100
AcDbEntity
  8
GEB-KONTUR-A
 48
25.0
100
AcDbLine
 10
-20.9079950047859
 20
77.72277010258801
 30
0.0
 11
-23.99503882603347
 21
81.37343961405964
 31
0.0
  0
LINE
  5
107
330
2
100
AcDbEntity
  8
GEB-KONTUR-A
 48
25.0
100
AcDbLine
 10
22.69999999999914
 20
65.19134295108949
 30
0.0
 11
22.69999999999686
 21
79.84195543951966
 31
0.0
  0
LINE
  5
108
330
2
100
AcDbEntity
  8
GEB-KONTUR-A
 48
25.0
100
AcDbLine
 10
-22.70000000000095
 20
65.19134295109029
 30
0.0
 11
-22.70000000000312
 21
79.84195543952068
 31
0.0
  0
POLYLINE
  5
109
330
2
100
AcDbEntity
  8
GEB-KONTUR-A
 48
25.0
100
AcDb2dPolyline
 66
     1
 10
0.0
 20
0.0
 30
0.0
 70
   128
  0
VERTEX
  5
10A
330
109
100
AcDbEntity
  8
GEB-KONTUR-A
 48
25.0
100
AcDbVertex
100
AcDb2dVertex
 10
-22.69999980926559
 20
65.19134295108983
 30
0.0
  0
VERTEX
  5
10B
330
109
100
AcDbEntity
  8
GEB-KONTUR-A
 48
25.0
100
AcDbVertex
100
AcDb2dVertex
 10
-22.66401290893611
 20
64.36874910917459
 30
0.0
  0
VERTEX
  5
10C
330
109
100
AcDbEntity
  8
GEB-KONTUR-A
 48
25.0
100
AcDbVertex
100
AcDb2dVertex
 10
-22.5571870803841
 20
63.55505335147393
 30
0.0
  0
VERTEX
  5
10D
330
109
100
AcDbEntity
  8
GEB-KONTUR-A
 48
25.0
100
AcDbVertex
100
AcDb2dVertex
 10
-22.38240718841655
 20
62.75841564651591
 30
0.0
  0
VERTEX
  5
10E
330
109
100
AcDbEntity
  8
GEB-KONTUR-A
 48
25.0
100
AcDbVertex
100
AcDb2dVertex
 10
-22.14411735534782
 20
61.98572019749974
 30
0.0
  0
VERTEX
  5
10F
330
109
100
AcDbEntity
  8
GEB-KONTUR-A
 48
25.0
100
AcDbVertex
100
AcDb2dVertex
 10
-21.84773921966701
 20
61.24204670087249
 30
0.0
  0
VERTEX
  5
110
330
109
100
AcDbEntity
  8
GEB-KONTUR-A
 48
25.0
100
AcDbVertex
100
AcDb2dVertex
 10
-21.49904012680213
 20
60.53090627005997
 30
0.0
  0
VERTEX
  5
111
330
109
100
AcDbEntity
  8
GEB-KONTUR-A
 48
25.0
100
AcDbVertex
100
AcDb2dVertex
 10
-21.10369682312182
 20
59.85408102029714
 30
0.0
  0
VERTEX
  5
112
330
109
100
AcDbEntity
  8
GEB-KONTUR-A
 48
25.0
100
AcDbVertex
100
AcDb2dVertex
 10
-20.66691160202219
 20
59.21207561956873
 30
0.0
  0
SEQEND
  5
113
330
109
100
AcDbEntity
  8
GEB-KONTUR-A
 48
25.0
  0
POLYLINE
  5
114
330
2
100
AcDbEntity
  8
GEB-KONTUR-A
 48
25.0
100
AcDb2dPolyline
 66
     1
 10
0.0
 20
0.0
 30
0.0
 70
   128
  0
VERTEX
  5
115
330
114
100
AcDbEntity
  8
GEB-KONTUR-A
 48
25.0
100
AcDbVertex
100
AcDb2dVertex
 10
20.66691160201833
 20
59.21207561956873
 30
0.0
  0
VERTEX
  5
116
330
114
100
AcDbEntity
  8
GEB-KONTUR-A
 48
25.0
100
AcDbVertex
100
AcDb2dVertex
 10
21.10369682311841
 20
59.85408102029714
 30
0.0
  0
VERTEX
  5
117
330
114
100
AcDbEntity
  8
GEB-KONTUR-A
 48
25.0
100
AcDbVertex
100
AcDb2dVertex
 10
21.49904012679895
 20
60.53090627005997
 30
0.0
  0
VERTEX
  5
118
330
114
100
AcDbEntity
  8
GEB-KONTUR-A
 48
25.0
100
AcDbVertex
100
AcDb2dVertex
 10
21.84773921966405
 20
61.24204670087249
 30
0.0
  0
VERTEX
  5
119
330
114
100
AcDbEntity
  8
GEB-KONTUR-A
 48
25.0
100
AcDbVertex
100
AcDb2dVertex
 10
22.14411735534554
 20
61.98572019749974
 30
0.0
  0
VERTEX
  5
11A
330
114
100
AcDbEntity
  8
GEB-KONTUR-A
 48
25.0
100
AcDbVertex
100
AcDb2dVertex
 10
22.38240718841451
 20
62.75841564651591
 30
0.0
  0
VERTEX
  5
11B
330
114
100
AcDbEntity
  8
GEB-KONTUR-A
 48
25.0
100
AcDbVertex
100
AcDb2dVertex
 10
22.55718708038251
 20
63.55505335147393
 30
0.0
  0
VERTEX
  5
11C
330
114
100
AcDbEntity
  8
GEB-KONTUR-A
 48
25.0
100
AcDbVertex
100
AcDb2dVertex
 10
22.66401290893498
 20
64.36874910917459
 30
0.0
  0
VERTEX
  5
11D
330
114
100
AcDbEntity
  8
GEB-KONTUR-A
 48
25.0
100
AcDbVertex
100
AcDb2dVertex
 10
22.69999980926468
 20
65.19134295108973
 30
0.0
  0
SEQEND
  5
11E
330
114
100
AcDbEntity
  8
GEB-KONTUR-A
 48
25.0
  0
ELLIPSE
  5
11F
330
2
100
AcDbEntity
  8
GEB-KONTUR-A
 48
25.0
100
AcDbEllipse
 10
-0.0000000000048885
 20
91.17210506462289
 30
0.0
 11
-22.04999999999996
 21
0.0000000000003347
 31
0.0
210
0.0
220
0.0
230
1.0
 40
0.4999999999999972
 41
0.0
 42
6.283185307179585
  0
ELLIPSE
  5
120
330
2
100
AcDbEntity
  8
GEB-KONTUR-A
 48
25.0
100
AcDbEllipse
 10
-0.0000000000034106
 20
82.14277419987343
 30
0.0
 11
22.7
 21
0.0000000000045997
 31
0.0
210
0.0
220
0.0
230
1.0
 40
0.499999999999997
 41
3.541602784819104
 42
5.883175175948387
  0
ELLIPSE
  5
121
330
2
100
AcDbEntity
  8
GEB-KONTUR-A
 48
25.0
100
AcDbEllipse
 10
-0.0000000000005684
 20
62.98297817143953
 30
0.0
 11
-21.99999999999999
 21
-0.0000000000033196
 31
0.0
210
0.0
220
0.0
230
1.0
 40
0.499999999999997
 41
0.3499057012767959
 42
2.791686952312312
  0
ELLIPSE
  5
122
330
2
100
AcDbEntity
  8
GEB-KONTUR-A
 48
25.0
100
AcDbEllipse
 10
-0.0000000000046612
 20
89.91636822913552
 30
0.0
 11
-22.05000000000002
 21
-0.0000000000044675
 31
0.0
210
0.0
220
0.0
230
1.0
 40
0.499999999999997
 41
3.769958762829746
 42
5.654819197938027
  0
ELLIPSE
  5
123
330
2
100
AcDbEntity
  8
GEB-KONTUR-A
 48
25.0
100
AcDbEllipse
 10
-0.0000000000048885
 20
90.82569490310902
 30
0.0
 11
21.64999999999999
 21
0.0000000000032674
 31
0.0
210
0.0
220
0.0
230
1.0
 40
0.499999999999997
 41
5.680710498872696
 42
10.02725276907559
  0
ELLIPSE
  5
124
330
2
100
AcDbEntity
  8
GEB-KONTUR-A
 48
25.0
100
AcDbEllipse
 10
-0.0000000000046612
 20
90.26277839064926
 30
0.0
 11
21.64999999999999
 21
0.0000000000032695
 31
0.0
210
0.0
220
0.0
230
1.0
 40
0.499999999999997
 41
0.0260036931826156
 42
3.115588960406507
  0
LINE
  5
125
330
2
100
AcDbEntity
  8
GEB-VERDECKT
 48
25.0
100
AcDbLine
 10
17.67715097707776
 20
84.57587823913149
 30
0.0
 11
18.00374960944862
 21
84.80681834680741
 31
0.0
  0
LINE
  5
128
330
2
100
AcDbEntity
  8
GEB-VERDECKT
 48
25.0
100
AcDbLine
 10
-17.67715097709401
 20
84.57587823913218
 30
0.0
 11
-18.0037496094651
 21
84.80681834680808
 31
0.0
  0
LINE
  5
129
330
2
100
AcDbEntity
  8
GEB-VERDECKT
 48
25.0
100
AcDbLine
 10
22.69999999999686
 20
79.84195543951966
 30
0.0
 11
22.69999999999652
 21
82.14277419987297
 31
0.0
  0
LINE
  5
12A
330
2
100
AcDbEntity
  8
GEB-VERDECKT
 48
25.0
100
AcDbLine
 10
-22.70000000000312
 20
79.84195543952068
 30
0.0
 11
-22.70000000000357
 21
82.14277419987388
 31
0.0
  0
LINE
  5
12B
330
2
100
AcDbEntity
  8
GEB-VERDECKT
 48
25.0
100
AcDbLine
 10
20.49999999999943
 20
62.98297817143907
 30
0.0
 11
20.49999999999909
 21
65.10474041071097
 31
0.0
  0
LINE
  5
12C
330
2
100
AcDbEntity
  8
GEB-VERDECKT
 48
25.0
100
AcDbLine
 10
-20.50000000000057
 20
62.98297817143986
 30
0.0
 11
-20.50000000000102
 21
65.19134295109029
 31
0.0
  0
LINE
  5
12D
330
2
100
AcDbEntity
  8
GEB-VERDECKT
 48
25.0
100
AcDbLine
 10
21.14999999999907
 20
65.19134295108949
 30
0.0
 11
21.14999999999657
 21
82.00114212689085
 31
0.0
  0
LINE
  5
12E
330
2
100
AcDbEntity
  8
GEB-VERDECKT
 48
25.0
100
AcDbLine
 10
-21.15000000000089
 20
65.19134295109029
 30
0.0
 11
-21.1500000000035
 21
82.00114212689175
 31
0.0
  0
POLYLINE
  5
12F
330
2
100
AcDbEntity
  8
GEB-VERDECKT
 48
25.0
100
AcDb2dPolyline
 66
     1
 10
0.0
 20
0.0
 30
0.0
 70
   128
  0
VERTEX
  5
130
330
12F
100
AcDbEntity
  8
GEB-VERDECKT
 48
25.0
100
AcDbVertex
100
AcDb2dVertex
 10
-21.15000009537073
 20
82.00114161349086
 30
0.0
  0
VERTEX
  5
131
330
12F
100
AcDbEntity
  8
GEB-VERDECKT
 48
25.0
100
AcDbVertex
100
AcDb2dVertex
 10
-21.12916231155748
 20
81.58449064564639
 30
0.0
  0
VERTEX
  5
132
330
12F
100
AcDbEntity
  8
GEB-VERDECKT
 48
25.0
100
AcDbVertex
100
AcDb2dVertex
 10
-21.06616258621603
 20
81.165620528849
 30
0.0
  0
VERTEX
  5
133
330
12F
100
AcDbEntity
  8
GEB-VERDECKT
 48
25.0
100
AcDbVertex
100
AcDb2dVertex
 10
-20.95981836319379
 20
80.74273142662162
 30
0.0
  0
VERTEX
  5
134
330
12F
100
AcDbEntity
  8
GEB-VERDECKT
 48
25.0
100
AcDbVertex
100
AcDb2dVertex
 10
-20.80838680267778
 20
80.31472889503765
 30
0.0
  0
VERTEX
  5
135
330
12F
100
AcDbEntity
  8
GEB-VERDECKT
 48
25.0
100
AcDbVertex
100
AcDb2dVertex
 10
-20.60995340347756
 20
79.88144898228938
 30
0.0
  0
VERTEX
  5
136
330
12F
100
AcDbEntity
  8
GEB-VERDECKT
 48
25.0
100
AcDbVertex
100
AcDb2dVertex
 10
-20.36271333694958
 20
79.44348978828895
 30
0.0
  0
VERTEX
  5
137
330
12F
100
AcDbEntity
  8
GEB-VERDECKT
 48
25.0
100
AcDbVertex
100
AcDb2dVertex
 10
-20.06522893906163
 20
79.00220433350773
 30
0.0
  0
VERTEX
  5
138
330
12F
100
AcDbEntity
  8
GEB-VERDECKT
 48
25.0
100
AcDbVertex
100
AcDb2dVertex
 10
-19.71655607224068
 20
78.55942425444141
 30
0.0
  0
SEQEND
  5
139
330
12F
100
AcDbEntity
  8
GEB-VERDECKT
 48
25.0
  0
POLYLINE
  5
13A
330
2
100
AcDbEntity
  8
GEB-VERDECKT
 48
25.0
100
AcDb2dPolyline
 66
     1
 10
0.0
 20
0.0
 30
0.0
 70
   128
  0
VERTEX
  5
13B
330
13A
100
AcDbEntity
  8
GEB-VERDECKT
 48
25.0
100
AcDbVertex
100
AcDb2dVertex
 10
19.71655607222954
 20
78.55942425444141
 30
0.0
  0
VERTEX
  5
13C
330
13A
100
AcDbEntity
  8
GEB-VERDECKT
 48
25.0
100
AcDbVertex
100
AcDb2dVertex
 10
20.06522893905117
 20
79.00220433350773
 30
0.0
  0
VERTEX
  5
13D
330
13A
100
AcDbEntity
  8
GEB-VERDECKT
 48
25.0
100
AcDbVertex
100
AcDb2dVertex
 10
20.36271333693958
 20
79.44348978828895
 30
0.0
  0
VERTEX
  5
13E
330
13A
100
AcDbEntity
  8
GEB-VERDECKT
 48
25.0
100
AcDbVertex
100
AcDb2dVertex
 10
20.60995340346824
 20
79.88144898228938
 30
0.0
  0
VERTEX
  5
13F
330
13A
100
AcDbEntity
  8
GEB-VERDECKT
 48
25.0
100
AcDbVertex
100
AcDb2dVertex
 10
20.80838680266891
 20
80.31472889503765
 30
0.0
  0
VERTEX
  5
140
330
13A
100
AcDbEntity
  8
GEB-VERDECKT
 48
25.0
100
AcDbVertex
100
AcDb2dVertex
 10
20.95981836318561
 20
80.74273142662162
 30
0.0
  0
VERTEX
  5
141
330
13A
100
AcDbEntity
  8
GEB-VERDECKT
 48
25.0
100
AcDbVertex
100
AcDb2dVertex
 10
21.06616258620829
 20
81.165620528849
 30
0.0
  0
VERTEX
  5
142
330
13A
100
AcDbEntity
  8
GEB-VERDECKT
 48
25.0
100
AcDbVertex
100
AcDb2dVertex
 10
21.12916231155043
 20
81.58449064564639
 30
0.0
  0
VERTEX
  5
143
330
13A
100
AcDbEntity
  8
GEB-VERDECKT
 48
25.0
100
AcDbVertex
100
AcDb2dVertex
 10
21.15000009536414
 20
82.00114161349063
 30
0.0
  0
SEQEND
  5
144
330
13A
100
AcDbEntity
  8
GEB-VERDECKT
 48
25.0
  0
LINE
  5
145
330
2
100
AcDbEntity
  8
GEB-VERDECKT
 48
25.0
100
AcDbLine
 10
19.71655580262143
 20
78.55942424149282
 30
0.0
 11
22.88783202129093
 21
82.30970511676719
 31
0.0
  0
LINE
  5
146
330
2
100
AcDbEntity
  8
GEB-VERDECKT
 48
25.0
100
AcDbLine
 10
-19.71655580263291
 20
78.5594242414935
 30
0.0
 11
-22.88783202130446
 21
82.30970511676799
 31
0.0
  0
POLYLINE
  5
147
330
2
100
AcDbEntity
  8
GEB-VERDECKT
 48
25.0
100
AcDb2dPolyline
 66
     1
 10
0.0
 20
0.0
 30
0.0
 70
   128
  0
VERTEX
  5
148
330
147
100
AcDbEntity
  8
GEB-VERDECKT
 48
25.0
100
AcDbVertex
100
AcDb2dVertex
 10
22.88783311843201
 20
82.30970512087754
 30
0.0
  0
VERTEX
  5
149
330
147
100
AcDbEntity
  8
GEB-VERDECKT
 48
25.0
100
AcDbVertex
100
AcDb2dVertex
 10
23.21120738982518
 20
82.70955415157891
 30
0.0
  0
VERTEX
  5
14A
330
147
100
AcDbEntity
  8
GEB-VERDECKT
 48
25.0
100
AcDbVertex
100
AcDb2dVertex
 10
23.51347208022446
 20
83.11962470931542
 30
0.0
  0
VERTEX
  5
14B
330
147
100
AcDbEntity
  8
GEB-VERDECKT
 48
25.0
100
AcDbVertex
100
AcDb2dVertex
 10
23.79375934600216
 20
83.53938773642402
 30
0.0
  0
VERTEX
  5
14C
330
147
100
AcDbEntity
  8
GEB-VERDECKT
 48
25.0
100
AcDbVertex
100
AcDb2dVertex
 10
24.05120372771615
 20
83.96831272505323
 30
0.0
  0
VERTEX
  5
14D
330
147
100
AcDbEntity
  8
GEB-VERDECKT
 48
25.0
100
AcDbVertex
100
AcDb2dVertex
 10
24.28494453429596
 20
84.40587031951713
 30
0.0
  0
VERTEX
  5
14E
330
147
100
AcDbEntity
  8
GEB-VERDECKT
 48
25.0
100
AcDbVertex
100
AcDb2dVertex
 10
24.49411869048515
 20
84.85153027005981
 30
0.0
  0
VERTEX
  5
14F
330
147
100
AcDbEntity
  8
GEB-VERDECKT
 48
25.0
100
AcDbVertex
100
AcDb2dVertex
 10
24.67785835265579
 20
85.30476266487619
 30
0.0
  0
VERTEX
  5
150
330
147
100
AcDbEntity
  8
GEB-VERDECKT
 48
25.0
100
AcDbVertex
100
AcDb2dVertex
 10
24.8353028297372
 20
85.76503836644826
 30
0.0
  0
VERTEX
  5
151
330
147
100
AcDbEntity
  8
GEB-VERDECKT
 48
25.0
100
AcDbVertex
100
AcDb2dVertex
 10
24.96558904647327
 20
86.23182679776789
 30
0.0
  0
VERTEX
  5
152
330
147
100
AcDbEntity
  8
GEB-VERDECKT
 48
25.0
100
AcDbVertex
100
AcDb2dVertex
 10
25.06784915923584
 20
86.7045987468116
 30
0.0
  0
VERTEX
  5
153
330
147
100
AcDbEntity
  8
GEB-VERDECKT
 48
25.0
100
AcDbVertex
100
AcDb2dVertex
 10
25.14106273650657
 20
87.18244089134453
 30
0.0
  0
VERTEX
  5
154
330
147
100
AcDbEntity
  8
GEB-VERDECKT
 48
25.0
100
AcDbVertex
100
AcDb2dVertex
 10
25.18435478209994
 20
87.66314096485814
 30
0.0
  0
VERTEX
  5
155
330
147
100
AcDbEntity
  8
GEB-VERDECKT
 48
25.0
100
AcDbVertex
100
AcDb2dVertex
 10
25.19797325133857
 20
88.1452325664245
 30
0.0
  0
VERTEX
  5
156
330
147
100
AcDbEntity
  8
GEB-VERDECKT
 48
25.0
100
AcDbVertex
100
AcDb2dVertex
 10
25.18224477767535
 20
88.62733820898824
 30
0.0
  0
VERTEX
  5
157
330
147
100
AcDbEntity
  8
GEB-VERDECKT
 48
25.0
100
AcDbVertex
100
AcDb2dVertex
 10
25.13748168944915
 20
89.1080808285543
 30
0.0
  0
VERTEX
  5
158
330
147
100
AcDbEntity
  8
GEB-VERDECKT
 48
25.0
100
AcDbVertex
100
AcDb2dVertex
 10
25.06400585174186
 20
89.58608258683943
 30
0.0
  0
VERTEX
  5
159
330
147
100
AcDbEntity
  8
GEB-VERDECKT
 48
25.0
100
AcDbVertex
100
AcDb2dVertex
 10
24.96213674544936
 20
90.05996609655994
 30
0.0
  0
VERTEX
  5
15A
330
147
100
AcDbEntity
  8
GEB-VERDECKT
 48
25.0
100
AcDbVertex
100
AcDb2dVertex
 10
24.83219146728175
 20
90.52835452655074
 30
0.0
  0
VERTEX
  5
15B
330
147
100
AcDbEntity
  8
GEB-VERDECKT
 48
25.0
100
AcDbVertex
100
AcDb2dVertex
 10
24.6744990348783
 20
90.9898700824208
 30
0.0
  0
VERTEX
  5
15C
330
147
100
AcDbEntity
  8
GEB-VERDECKT
 48
25.0
100
AcDbVertex
100
AcDb2dVertex
 10
24.49023246764841
 20
91.44334319435847
 30
0.0
  0
VERTEX
  5
15D
330
147
100
AcDbEntity
  8
GEB-VERDECKT
 48
25.0
100
AcDbVertex
100
AcDb2dVertex
 10
24.28066492080404
 20
91.88838507484218
 30
0.0
  0
VERTEX
  5
15E
330
147
100
AcDbEntity
  8
GEB-VERDECKT
 48
25.0
100
AcDbVertex
100
AcDb2dVertex
 10
24.04660463332857
 20
92.32478177355085
 30
0.0
  0
VERTEX
  5
15F
330
147
100
AcDbEntity
  8
GEB-VERDECKT
 48
25.0
100
AcDbVertex
100
AcDb2dVertex
 10
23.78885269164777
 20
92.75232060141263
 30
0.0
  0
VERTEX
  5
160
330
147
100
AcDbEntity
  8
GEB-VERDECKT
 48
25.0
100
AcDbVertex
100
AcDb2dVertex
 10
23.50821733474504
 20
93.17078771719058
 30
0.0
  0
VERTEX
  5
161
330
147
100
AcDbEntity
  8
GEB-VERDECKT
 48
25.0
100
AcDbVertex
100
AcDb2dVertex
 10
23.20550203323148
 20
93.57997000474176
 30
0.0
  0
VERTEX
  5
162
330
147
100
AcDbEntity
  8
GEB-VERDECKT
 48
25.0
100
AcDbVertex
100
AcDb2dVertex
 10
22.88151264190481
 20
93.9796544769714
 30
0.0
  0
VERTEX
  5
163
330
147
100
AcDbEntity
  8
GEB-VERDECKT
 48
25.0
100
AcDbVertex
100
AcDb2dVertex
 10
22.53705501556215
 20
94.36962729264223
 30
0.0
  0
VERTEX
  5
164
330
147
100
AcDbEntity
  8
GEB-VERDECKT
 48
25.0
100
AcDbVertex
100
AcDb2dVertex
 10
22.17293262481519
 20
94.74967739111196
 30
0.0
  0
VERTEX
  5
165
330
147
100
AcDbEntity
  8
GEB-VERDECKT
 48
25.0
100
AcDbVertex
100
AcDb2dVertex
 10
21.78975820541223
 20
95.11996520515424
 30
0.0
  0
VERTEX
  5
166
330
147
100
AcDbEntity
  8
GEB-VERDECKT
 48
25.0
100
AcDbVertex
100
AcDb2dVertex
 10
21.38794422149533
 20
95.48070324241791
 30
0.0
  0
VERTEX
  5
167
330
147
100
AcDbEntity
  8
GEB-VERDECKT
 48
25.0
100
AcDbVertex
100
AcDb2dVertex
 10
20.96793651580697
 20
95.83188803565281
 30
0.0
  0
VERTEX
  5
168
330
147
100
AcDbEntity
  8
GEB-VERDECKT
 48
25.0
100
AcDbVertex
100
AcDb2dVertex
 10
20.53018808364766
 20
96.17351313737698
 30
0.0
  0
VERTEX
  5
169
330
147
100
AcDbEntity
  8
GEB-VERDECKT
 48
25.0
100
AcDbVertex
100
AcDb2dVertex
 10
20.07515192031781
 20
96.50557461334233
 30
0.0
  0
VERTEX
  5
16A
330
147
100
AcDbEntity
  8
GEB-VERDECKT
 48
25.0
100
AcDbVertex
100
AcDb2dVertex
 10
19.6032762527459
 20
96.82806707911153
 30
0.0
  0
VERTEX
  5
16B
330
147
100
AcDbEntity
  8
GEB-VERDECKT
 48
25.0
100
AcDbVertex
100
AcDb2dVertex
 10
19.11501288413944
 20
97.14098600439013
 30
0.0
  0
VERTEX
  5
16C
330
147
100
AcDbEntity
  8
GEB-VERDECKT
 48
25.0
100
AcDbVertex
100
AcDb2dVertex
 10
18.61081242561295
 20
97.44432553774231
 30
0.0
  0
VERTEX
  5
16D
330
147
100
AcDbEntity
  8
GEB-VERDECKT
 48
25.0
100
AcDbVertex
100
AcDb2dVertex
 10
18.09112548828091
 20
97.73808161587192
 30
0.0
  0
VERTEX
  5
16E
330
147
100
AcDbEntity
  8
GEB-VERDECKT
 48
25.0
100
AcDbVertex
100
AcDb2dVertex
 10
17.55640387535084
 20
98.02224838734344
 30
0.0
  0
VERTEX
  5
16F
330
147
100
AcDbEntity
  8
GEB-VERDECKT
 48
25.0
100
AcDbVertex
100
AcDb2dVertex
 10
17.00708031654358
 20
98.29681111495062
 30
0.0
  0
VERTEX
  5
170
330
147
100
AcDbEntity
  8
GEB-VERDECKT
 48
25.0
100
AcDbVertex
100
AcDb2dVertex
 10
16.4435124397279
 20
98.56166115811834
 30
0.0
  0
VERTEX
  5
171
330
147
100
AcDbEntity
  8
GEB-VERDECKT
 48
25.0
100
AcDbVertex
100
AcDb2dVertex
 10
15.86617588996898
 20
98.81669520803121
 30
0.0
  0
VERTEX
  5
172
330
147
100
AcDbEntity
  8
GEB-VERDECKT
 48
25.0
100
AcDbVertex
100
AcDb2dVertex
 10
15.27557492256199
 20
99.06181875539108
 30
0.0
  0
VERTEX
  5
173
330
147
100
AcDbEntity
  8
GEB-VERDECKT
 48
25.0
100
AcDbVertex
100
AcDb2dVertex
 10
14.67221021652267
 20
99.29693894999104
 30
0.0
  0
VERTEX
  5
174
330
147
100
AcDbEntity
  8
GEB-VERDECKT
 48
25.0
100
AcDbVertex
100
AcDb2dVertex
 10
14.05658364296016
 20
99.5219600904403
 30
0.0
  0
VERTEX
  5
175
330
147
100
AcDbEntity
  8
GEB-VERDECKT
 48
25.0
100
AcDbVertex
100
AcDb2dVertex
 10
13.42919826507636
 20
99.73678945557971
 30
0.0
  0
VERTEX
  5
176
330
147
100
AcDbEntity
  8
GEB-VERDECKT
 48
25.0
100
AcDbVertex
100
AcDb2dVertex
 10
12.79055595398017
 20
99.9413320691125
 30
0.0
  0
VERTEX
  5
177
330
147
100
AcDbEntity
  8
GEB-VERDECKT
 48
25.0
100
AcDbVertex
100
AcDb2dVertex
 10
12.14115858078082
 20
100.1354949517841
 30
0.0
  0
VERTEX
  5
178
330
147
100
AcDbEntity
  8
GEB-VERDECKT
 48
25.0
100
AcDbVertex
100
AcDb2dVertex
 10
11.48150682449443
 20
100.3191832563456
 30
0.0
  0
VERTEX
  5
179
330
147
100
AcDbEntity
  8
GEB-VERDECKT
 48
25.0
100
AcDbVertex
100
AcDb2dVertex
 10
10.81210374832255
 20
100.4923016193562
 30
0.0
  0
VERTEX
  5
17A
330
147
100
AcDbEntity
  8
GEB-VERDECKT
 48
25.0
100
AcDbVertex
100
AcDb2dVertex
 10
10.13345956802482
 20
100.6547515125048
 30
0.0
  0
VERTEX
  5
17B
330
147
100
AcDbEntity
  8
GEB-VERDECKT
 48
25.0
100
AcDbVertex
100
AcDb2dVertex
 10
9.446156024933998
 20
100.8064050203019
 30
0.0
  0
VERTEX
  5
17C
330
147
100
AcDbEntity
  8
GEB-VERDECKT
 48
25.0
100
AcDbVertex
100
AcDb2dVertex
 10
8.75080406665927
 20
100.9471898991432
 30
0.0
  0
VERTEX
  5
17D
330
147
100
AcDbEntity
  8
GEB-VERDECKT
 48
25.0
100
AcDbVertex
100
AcDb2dVertex
 10
8.048009872437773
 20
101.0770393560964
 30
0.0
  0
VERTEX
  5
17E
330
147
100
AcDbEntity
  8
GEB-VERDECKT
 48
25.0
100
AcDbVertex
100
AcDb2dVertex
 10
7.338378429414319
 20
101.1958897873637
 30
0.0
  0
VERTEX
  5
17F
330
147
100
AcDbEntity
  8
GEB-VERDECKT
 48
25.0
100
AcDbVertex
100
AcDb2dVertex
 10
6.622516512872266
 20
101.3036781053392
 30
0.0
  0
VERTEX
  5
180
330
147
100
AcDbEntity
  8
GEB-VERDECKT
 48
25.0
100
AcDbVertex
100
AcDb2dVertex
 10
5.901029706002759
 20
101.4003371299468
 30
0.0
  0
VERTEX
  5
181
330
147
100
AcDbEntity
  8
GEB-VERDECKT
 48
25.0
100
AcDbVertex
100
AcDb2dVertex
 10
5.174524188043278
 20
101.4858036445325
 30
0.0
  0
VERTEX
  5
182
330
147
100
AcDbEntity
  8
GEB-VERDECKT
 48
25.0
100
AcDbVertex
100
AcDb2dVertex
 10
4.443606436254185
 20
101.5600116611132
 30
0.0
  0
VERTEX
  5
183
330
147
100
AcDbEntity
  8
GEB-VERDECKT
 48
25.0
100
AcDbVertex
100
AcDb2dVertex
 10
3.708882033826512
 20
101.6228980920829
 30
0.0
  0
VERTEX
  5
184
330
147
100
AcDbEntity
  8
GEB-VERDECKT
 48
25.0
100
AcDbVertex
100
AcDb2dVertex
 10
2.970957159997624
 20
101.6743982705987
 30
0.0
  0
VERTEX
  5
185
330
147
100
AcDbEntity
  8
GEB-VERDECKT
 48
25.0
100
AcDbVertex
100
AcDb2dVertex
 10
2.230453044177693
 20
101.7144482670448
 30
0.0
  0
VERTEX
  5
186
330
147
100
AcDbEntity
  8
GEB-VERDECKT
 48
25.0
100
AcDbVertex
100
AcDb2dVertex
 10
1.488038301469487
 20
101.7430239508051
 30
0.0
  0
VERTEX
  5
187
330
147
100
AcDbEntity
  8
GEB-VERDECKT
 48
25.0
100
AcDbVertex
100
AcDb2dVertex
 10
0.7443516701475801
 20
101.7601381397446
 30
0.0
  0
VERTEX
  5
188
330
147
100
AcDbEntity
  8
GEB-VERDECKT
 48
25.0
100
AcDbVertex
100
AcDb2dVertex
 10
0.0000284568130837
 20
101.7658017837345
 30
0.0
  0
VERTEX
  5
189
330
147
100
AcDbEntity
  8
GEB-VERDECKT
 48
25.0
100
AcDbVertex
100
AcDb2dVertex
 10
-0.7442959398015319
 20
101.7600302138738
 30
0.0
  0
VERTEX
  5
18A
330
147
100
AcDbEntity
  8
GEB-VERDECKT
 48
25.0
100
AcDbVertex
100
AcDb2dVertex
 10
-1.487986296413737
 20
101.7428345090809
 30
0.0
  0
VERTEX
  5
18B
330
147
100
AcDbEntity
  8
GEB-VERDECKT
 48
25.0
100
AcDbVertex
100
AcDb2dVertex
 10
-2.230406999586421
 20
101.7142288083622
 30
0.0
  0
VERTEX
  5
18C
330
147
100
AcDbEntity
  8
GEB-VERDECKT
 48
25.0
100
AcDbVertex
100
AcDb2dVertex
 10
-2.970922887323695
 20
101.6742265748217
 30
0.0
  0
VERTEX
  5
18D
330
147
100
AcDbEntity
  8
GEB-VERDECKT
 48
25.0
100
AcDbVertex
100
AcDb2dVertex
 10
-3.708898723123866
 20
101.622839692328
 30
0.0
  0
VERTEX
  5
18E
330
147
100
AcDbEntity
  8
GEB-VERDECKT
 48
25.0
100
AcDbVertex
100
AcDb2dVertex
 10
-4.443699121473628
 20
101.5600812368419
 30
0.0
  0
VERTEX
  5
18F
330
147
100
AcDbEntity
  8
GEB-VERDECKT
 48
25.0
100
AcDbVertex
100
AcDb2dVertex
 10
-5.174688696859675
 20
101.485964413372
 30
0.0
  0
VERTEX
  5
190
330
147
100
AcDbEntity
  8
GEB-VERDECKT
 48
25.0
100
AcDbVertex
100
AcDb2dVertex
 10
-5.901213884352159
 20
101.4005226311819
 30
0.0
  0
VERTEX
  5
191
330
147
100
AcDbEntity
  8
GEB-VERDECKT
 48
25.0
100
AcDbVertex
100
AcDb2dVertex
 10
-6.622651219366503
 20
101.3038354768058
 30
0.0
  0
VERTEX
  5
192
330
147
100
AcDbEntity
  8
GEB-VERDECKT
 48
25.0
100
AcDbVertex
100
AcDb2dVertex
 10
-7.338419556616258
 20
101.1959887054797
 30
0.0
  0
VERTEX
  5
193
330
147
100
AcDbEntity
  8
GEB-VERDECKT
 48
25.0
100
AcDbVertex
100
AcDb2dVertex
 10
-8.047939538954437
 20
101.0770613376888
 30
0.0
  0
VERTEX
  5
194
330
147
100
AcDbEntity
  8
GEB-VERDECKT
 48
25.0
100
AcDbVertex
100
AcDb2dVertex
 10
-8.750630617140473
 20
100.9471388705734
 30
0.0
  0
VERTEX
  5
195
330
147
100
AcDbEntity
  8
GEB-VERDECKT
 48
25.0
100
AcDbVertex
100
AcDb2dVertex
 10
-9.445912241934593
 20
100.8063005827141
 30
0.0
  0
VERTEX
  5
196
330
147
100
AcDbEntity
  8
GEB-VERDECKT
 48
25.0
100
AcDbVertex
100
AcDb2dVertex
 10
-10.1332044601429
 20
100.6546317131557
 30
0.0
  0
VERTEX
  5
197
330
147
100
AcDbEntity
  8
GEB-VERDECKT
 48
25.0
100
AcDbVertex
100
AcDb2dVertex
 10
-10.81192851066487
 20
100.4922143118082
 30
0.0
  0
VERTEX
  5
198
330
147
100
AcDbEntity
  8
GEB-VERDECKT
 48
25.0
100
AcDbVertex
100
AcDb2dVertex
 10
-11.4815020561208
 20
100.319128591249
 30
0.0
  0
VERTEX
  5
199
330
147
100
AcDbEntity
  8
GEB-VERDECKT
 48
25.0
100
AcDbVertex
100
AcDb2dVertex
 10
-12.14134573936383
 20
100.1354600486191
 30
0.0
  0
VERTEX
  5
19A
330
147
100
AcDbEntity
  8
GEB-VERDECKT
 48
25.0
100
AcDbVertex
100
AcDb2dVertex
 10
-12.79087901115349
 20
99.94128992887851
 30
0.0
  0
VERTEX
  5
19B
330
147
100
AcDbEntity
  8
GEB-VERDECKT
 48
25.0
100
AcDbVertex
100
AcDb2dVertex
 10
-13.4295439720147
 20
99.73675526645401
 30
0.0
  0
VERTEX
  5
19C
330
147
100
AcDbEntity
  8
GEB-VERDECKT
 48
25.0
100
AcDbVertex
100
AcDb2dVertex
 10
-14.05685782432499
 20
99.52196448221616
 30
0.0
  0
VERTEX
  5
19D
330
147
100
AcDbEntity
  8
GEB-VERDECKT
 48
25.0
100
AcDbVertex
100
AcDb2dVertex
 10
-14.67235445976212
 20
99.29699870661705
 30
0.0
  0
VERTEX
  5
19E
330
147
100
AcDbEntity
  8
GEB-VERDECKT
 48
25.0
100
AcDbVertex
100
AcDb2dVertex
 10
-15.27556419372524
 20
99.06193860310953
 30
0.0
  0
VERTEX
  5
19F
330
147
100
AcDbEntity
  8
GEB-VERDECKT
 48
25.0
100
AcDbVertex
100
AcDb2dVertex
 10
-15.86602210998524
 20
98.81686543119338
 30
0.0
  0
VERTEX
  5
1A0
330
147
100
AcDbEntity
  8
GEB-VERDECKT
 48
25.0
100
AcDbVertex
100
AcDb2dVertex
 10
-16.44326090812672
 20
98.56185972527374
 30
0.0
  0
VERTEX
  5
1A1
330
147
100
AcDbEntity
  8
GEB-VERDECKT
 48
25.0
100
AcDbVertex
100
AcDb2dVertex
 10
-17.00681090354919
 20
98.29700227785156
 30
0.0
  0
VERTEX
  5
1A2
330
147
100
AcDbEntity
  8
GEB-VERDECKT
 48
25.0
100
AcDbVertex
100
AcDb2dVertex
 10
-17.55620718002331
 20
98.02237409033068
 30
0.0
  0
VERTEX
  5
1A3
330
147
100
AcDbEntity
  8
GEB-VERDECKT
 48
25.0
100
AcDbVertex
100
AcDb2dVertex
 10
-18.09098243713413
 20
97.73805595521231
 30
0.0
  0
VERTEX
  5
1A4
330
147
100
AcDbEntity
  8
GEB-VERDECKT
 48
25.0
100
AcDbVertex
100
AcDb2dVertex
 10
-18.6106681823735
 20
97.44412840690154
 30
0.0
  0
VERTEX
  5
1A5
330
147
100
AcDbEntity
  8
GEB-VERDECKT
 48
25.0
100
AcDbVertex
100
AcDb2dVertex
 10
-19.11481261253413
 20
97.1406713652267
 30
0.0
  0
VERTEX
  5
1A6
330
147
100
AcDbEntity
  8
GEB-VERDECKT
 48
25.0
100
AcDbVertex
100
AcDb2dVertex
 10
-19.60315585136482
 20
96.82771528696697
 30
0.0
  0
VERTEX
  5
1A7
330
147
100
AcDbEntity
  8
GEB-VERDECKT
 48
25.0
100
AcDbVertex
100
AcDb2dVertex
 10
-20.0752568244942
 20
96.50524476705971
 30
0.0
  0
VERTEX
  5
1A8
330
147
100
AcDbEntity
  8
GEB-VERDECKT
 48
25.0
100
AcDbVertex
100
AcDb2dVertex
 10
-20.53059816360576
 20
96.17324393344359
 30
0.0
  0
VERTEX
  5
1A9
330
147
100
AcDbEntity
  8
GEB-VERDECKT
 48
25.0
100
AcDbVertex
100
AcDb2dVertex
 10
-20.96865415573234
 20
95.83169717215332
 30
0.0
  0
VERTEX
  5
1AA
330
147
100
AcDbEntity
  8
GEB-VERDECKT
 48
25.0
100
AcDbVertex
100
AcDb2dVertex
 10
-21.3889074325574
 20
95.48058788603317
 30
0.0
  0
VERTEX
  5
1AB
330
147
100
AcDbEntity
  8
GEB-VERDECKT
 48
25.0
100
AcDbVertex
100
AcDb2dVertex
 10
-21.79083585739295
 20
95.1199011862119
 30
0.0
  0
VERTEX
  5
1AC
330
147
100
AcDbEntity
  8
GEB-VERDECKT
 48
25.0
100
AcDbVertex
100
AcDb2dVertex
 10
-22.17392206192187
 20
94.74962047553402
 30
0.0
  0
VERTEX
  5
1AD
330
147
100
AcDbEntity
  8
GEB-VERDECKT
 48
25.0
100
AcDbVertex
100
AcDb2dVertex
 10
-22.53764152527037
 20
94.36973026908196
 30
0.0
  0
VERTEX
  5
1AE
330
147
100
AcDbEntity
  8
GEB-VERDECKT
 48
25.0
100
AcDbVertex
100
AcDb2dVertex
 10
-22.88147449493601
 20
93.98021439677108
 30
0.0
  0
VERTEX
  5
1AF
330
147
100
AcDbEntity
  8
GEB-VERDECKT
 48
25.0
100
AcDbVertex
100
AcDb2dVertex
 10
-23.20490360260226
 20
93.58105711558824
 30
0.0
  0
VERTEX
  5
1B0
330
147
100
AcDbEntity
  8
GEB-VERDECKT
 48
25.0
100
AcDbVertex
100
AcDb2dVertex
 10
-23.50737810135115
 20
93.17218865206701
 30
0.0
  0
VERTEX
  5
1B1
330
147
100
AcDbEntity
  8
GEB-VERDECKT
 48
25.0
100
AcDbVertex
100
AcDb2dVertex
 10
-23.78794431686663
 20
92.75304150053887
 30
0.0
  0
VERTEX
  5
1B2
330
147
100
AcDbEntity
  8
GEB-VERDECKT
 48
25.0
100
AcDbVertex
100
AcDb2dVertex
 10
-24.04567480087553
 20
92.32405651833131
 30
0.0
  0
VERTEX
  5
1B3
330
147
100
AcDbEntity
  8
GEB-VERDECKT
 48
25.0
100
AcDbVertex
100
AcDb2dVertex
 10
-24.27973031997965
 20
91.88598532451385
 30
0.0
  0
VERTEX
  5
1B4
330
147
100
AcDbEntity
  8
GEB-VERDECKT
 48
25.0
100
AcDbVertex
100
AcDb2dVertex
 10
-24.48927164078054
 20
91.43958043222472
 30
0.0
  0
VERTEX
  5
1B5
330
147
100
AcDbEntity
  8
GEB-VERDECKT
 48
25.0
100
AcDbVertex
100
AcDb2dVertex
 10
-24.67346429825159
 20
90.98559371862894
 30
0.0
  0
VERTEX
  5
1B6
330
147
100
AcDbEntity
  8
GEB-VERDECKT
 48
25.0
100
AcDbVertex
100
AcDb2dVertex
 10
-24.8314666748081
 20
90.52477728975793
 30
0.0
  0
VERTEX
  5
1B7
330
147
100
AcDbEntity
  8
GEB-VERDECKT
 48
25.0
100
AcDbVertex
100
AcDb2dVertex
 10
-24.96244192123766
 20
90.05788361882286
 30
0.0
  0
VERTEX
  5
1B8
330
147
100
AcDbEntity
  8
GEB-VERDECKT
 48
25.0
100
AcDbVertex
100
AcDb2dVertex
 10
-25.06555318832773
 20
89.58566480650574
 30
0.0
  0
VERTEX
  5
1B9
330
147
100
AcDbEntity
  8
GEB-VERDECKT
 48
25.0
100
AcDbVertex
100
AcDb2dVertex
 10
-25.13995885849397
 20
89.10887321693383
 30
0.0
  0
VERTEX
  5
1BA
330
147
100
AcDbEntity
  8
GEB-VERDECKT
 48
25.0
100
AcDbVertex
100
AcDb2dVertex
 10
-25.18481254578046
 20
88.62832206177619
 30
0.0
  0
VERTEX
  5
1BB
330
147
100
AcDbEntity
  8
GEB-VERDECKT
 48
25.0
100
AcDbVertex
100
AcDb2dVertex
 10
-25.19941091537897
 20
88.1462346350438
 30
0.0
  0
VERTEX
  5
1BC
330
147
100
AcDbEntity
  8
GEB-VERDECKT
 48
25.0
100
AcDbVertex
100
AcDb2dVertex
 10
-25.1840734481857
 20
87.66435989812611
 30
0.0
  0
VERTEX
  5
1BD
330
147
100
AcDbEntity
  8
GEB-VERDECKT
 48
25.0
100
AcDbVertex
100
AcDb2dVertex
 10
-25.13934850693215
 20
87.18394540206077
 30
0.0
  0
VERTEX
  5
1BE
330
147
100
AcDbEntity
  8
GEB-VERDECKT
 48
25.0
100
AcDbVertex
100
AcDb2dVertex
 10
-25.06578445435059
 20
86.70623852011647
 30
0.0
  0
VERTEX
  5
1BF
330
147
100
AcDbEntity
  8
GEB-VERDECKT
 48
25.0
100
AcDbVertex
100
AcDb2dVertex
 10
-24.96392488480115
 20
86.23248662143168
 30
0.0
  0
VERTEX
  5
1C0
330
147
100
AcDbEntity
  8
GEB-VERDECKT
 48
25.0
100
AcDbVertex
100
AcDb2dVertex
 10
-24.83431816101597
 20
85.76393648712315
 30
0.0
  0
VERTEX
  5
1C1
330
147
100
AcDbEntity
  8
GEB-VERDECKT
 48
25.0
100
AcDbVertex
100
AcDb2dVertex
 10
-24.67751026154099
 20
85.30183615420686
 30
0.0
  0
VERTEX
  5
1C2
330
147
100
AcDbEntity
  8
GEB-VERDECKT
 48
25.0
100
AcDbVertex
100
AcDb2dVertex
 10
-24.49404954910836
 20
84.84743236387179
 30
0.0
  0
VERTEX
  5
1C3
330
147
100
AcDbEntity
  8
GEB-VERDECKT
 48
25.0
100
AcDbVertex
100
AcDb2dVertex
 10
-24.28477048874481
 20
84.401713276554
 30
0.0
  0
VERTEX
  5
1C4
330
147
100
AcDbEntity
  8
GEB-VERDECKT
 48
25.0
100
AcDbVertex
100
AcDb2dVertex
 10
-24.05100345612175
 20
83.9648187790442
 30
0.0
  0
VERTEX
  5
1C5
330
147
100
AcDbEntity
  8
GEB-VERDECKT
 48
25.0
100
AcDbVertex
100
AcDb2dVertex
 10
-23.79359483719486
 20
83.53695314164212
 30
0.0
  0
VERTEX
  5
1C6
330
147
100
AcDbEntity
  8
GEB-VERDECKT
 48
25.0
100
AcDbVertex
100
AcDb2dVertex
 10
-23.51337671280532
 20
83.11833435651283
 30
0.0
  0
VERTEX
  5
1C7
330
147
100
AcDbEntity
  8
GEB-VERDECKT
 48
25.0
100
AcDbVertex
100
AcDb2dVertex
 10
-23.21117877960842
 20
82.7091793035837
 30
0.0
  0
VERTEX
  5
1C8
330
147
100
AcDbEntity
  8
GEB-VERDECKT
 48
25.0
100
AcDbVertex
100
AcDb2dVertex
 10
-22.88783311844543
 20
82.30970512087754
 30
0.0
  0
SEQEND
  5
1C9
330
147
100
AcDbEntity
  8
GEB-VERDECKT
 48
25.0
  0
LINE
  5
1CA
330
2
100
AcDbEntity
  8
GEB-VERDECKT
 48
25.0
100
AcDbLine
 10
-17.67715097708606
 20
96.51259505462769
 30
0.0
 11
-18.00374960945703
 21
96.2816549469518
 31
0.0
  0
LINE
  5
1CB
330
2
100
AcDbEntity
  8
GEB-VERDECKT
 48
25.0
100
AcDbLine
 10
17.67715097708333
 20
96.51259505462689
 30
0.0
 11
18.00374960945464
 21
96.2816549469511
 31
0.0
  0
LINE
  5
1CC
330
2
100
AcDbEntity
  8
GEB-VERDECKT
 48
25.0
100
AcDbLine
 10
21.6499999999952
 20
90.2627783906488
 30
0.0
 11
21.6499999999952
 21
90.82569490310868
 31
0.0
  0
LINE
  5
1CD
330
2
100
AcDbEntity
  8
GEB-VERDECKT
 48
25.0
100
AcDbLine
 10
-21.65000000000475
 20
90.2627783906496
 30
0.0
 11
-21.65000000000475
 21
90.82569490310959
 31
0.0
  0
ELLIPSE
  5
1CE
330
2
100
AcDbEntity
  8
GEB-VERDECKT
 48
25.0
100
AcDbEllipse
 10
-0.0000000000034106
 20
82.14277419987343
 30
0.0
 11
22.7
 21
0.0000000000034256
 31
0.0
210
0.0
220
0.0
230
1.0
 40
0.4999999999999972
 41
5.883175175948988
 42
9.82478809199928
  0
ELLIPSE
  5
1CF
330
2
100
AcDbEntity
  8
GEB-VERDECKT
 48
25.0
100
AcDbEllipse
 10
-0.0000000000005684
 20
62.98297817143953
 30
0.0
 11
22.0
 21
0.0000000000033201
 31
0.0
210
0.0
220
0.0
230
1.0
 40
0.499999999999997
 41
5.933279605902105
 42
9.774683662046175
  0
ELLIPSE
  5
1D0
330
2
100
AcDbEntity
  8
GEB-VERDECKT
 48
25.0
100
AcDbEllipse
 10
-0.0000000000005684
 20
62.98297817143953
 30
0.0
 11
-20.5
 21
0.0000000000003112
 31
0.0
210
0.0
220
0.0
230
1.0
 40
0.499999999999997
 41
0.0
 42
6.283185307179585
  0
ELLIPSE
  5
1D1
330
2
100
AcDbEntity
  8
GEB-VERDECKT
 48
25.0
100
AcDbEllipse
 10
-0.0000000000046612
 20
89.91636822913552
 30
0.0
 11
-22.05000000000002
 21
-0.0000000000033273
 31
0.0
210
0.0
220
0.0
230
1.0
 40
0.4999999999999972
 41
5.654819197938482
 42
10.0531440700098
  0
ELLIPSE
  5
1D2
330
2
100
AcDbEntity
  8
GEB-VERDECKT
 48
25.0
100
AcDbEllipse
 10
-0.0000000000048885
 20
90.82569490310902
 30
0.0
 11
21.64999999999999
 21
0.0000000000043887
 31
0.0
210
0.0
220
0.0
230
1.0
 40
0.4999999999999972
 41
3.744067461895522
 42
5.680710498872215
  0
ELLIPSE
  5
1D3
330
2
100
AcDbEntity
  8
GEB-VERDECKT
 48
25.0
100
AcDbEllipse
 10
-0.0000000000046612
 20
90.26277839064926
 30
0.0
 11
-21.64999999999999
 21
-0.0000000000032693
 31
0.0
210
0.0
220
0.0
230
1.0
 40
0.4999999999999972
 41
6.257181613996287
 42
9.450781653951981
  0
ELLIPSE
  5
1D4
330
2
100
AcDbEntity
  8
GEB-VERDECKT
 48
25.0
100
AcDbEllipse
 10
-0.0000000000007958
 20
65.19134295108983
 30
0.0
 11
20.49999999999999
 21
0.0000000000030945
 31
0.0
210
0.0
220
0.0
230
1.0
 40
0.4999999999999973
 41
0.0430010557953221
 42
6.240184251383604
  0
ELLIPSE
  5
1D5
330
2
100
AcDbEntity
  8
GEB-VERDECKT
 48
25.0
100
AcDbEllipse
 10
-0.0000000000007958
 20
65.19134295108983
 30
0.0
 11
-21.15
 21
0.0000000000003211
 31
0.0
210
0.0
220
0.0
230
1.0
 40
0.4999999999999971
 41
0.0
 42
6.283185307179585
  0
LINE
  5
1D6
330
2
100
AcDbEntity
  8
GEB-VERDECKT
 48
25.0
100
AcDbLine
 10
-2.643750000000864
 20
65.19134295108983
 30
0.0
 11
-2.643750000000864
 21
65.10474041071131
 31
0.0
  0
LINE
  5
1D7
330
2
100
AcDbEntity
  8
GEB-VERDECKT
 48
25.0
100
AcDbLine
 10
20.48104973963678
 20
65.63196795108956
 30
0.0
 11
2.492551403681886
 21
65.63196795108979
 31
0.0
  0
LINE
  5
1D8
330
2
100
AcDbEntity
  8
GEB-VERDECKT
 48
25.0
100
AcDbLine
 10
20.48104973963678
 20
65.54536541071104
 30
0.0
 11
20.48104973963678
 21
65.63196795108956
 31
0.0
  0
LINE
  5
1D9
330
2
100
AcDbEntity
  8
GEB-VERDECKT
 48
25.0
100
AcDbLine
 10
2.492551403681886
 20
65.63196795108979
 30
0.0
 11
2.492551403681886
 21
65.54536541071127
 31
0.0
  0
ELLIPSE
  5
1DA
330
2
100
AcDbEntity
  8
GEB-VERDECKT
 48
25.0
100
AcDbEllipse
 10
-0.0000000000007958
 20
65.19134295108983
 30
0.0
 11
2.643749999999998
 21
0.0000000000003986
 31
0.0
210
0.0
220
0.0
230
1.0
 40
0.499999999999997
 41
0.3398369094537728
 42
5.943348397725188
  0
LINE
  5
1DB
330
2
100
AcDbEntity
  8
GEB-VERDECKT
 48
25.0
100
AcDbLine
 10
2.492551403681432
 20
64.75071795108977
 30
0.0
 11
2.492551403681432
 21
64.66411541071136
 31
0.0
  0
LINE
  5
1DC
330
2
100
AcDbEntity
  8
GEB-VERDECKT
 48
25.0
100
AcDbLine
 10
2.492551403681432
 20
64.75071795108977
 30
0.0
 11
20.48104973963621
 21
64.75071795108954
 31
0.0
  0
LINE
  5
1DD
330
2
100
AcDbEntity
  8
GEB-VERDECKT
 48
25.0
100
AcDbLine
 10
20.48104973963621
 20
64.75071795108954
 30
0.0
 11
20.48104973963632
 21
64.66411541071114
 31
0.0
  0
LINE
  5
1DE
330
2
100
AcDbEntity
  8
GEB-VERDECKT
 48
25.0
100
AcDbLine
 10
20.48104973963678
 20
65.54536541071104
 30
0.0
 11
2.492551403681886
 21
65.54536541071127
 31
0.0
  0
ELLIPSE
  5
1DF
330
2
100
AcDbEntity
  8
GEB-VERDECKT
 48
25.0
100
AcDbEllipse
 10
-0.0000000000007958
 20
65.10474041071131
 30
0.0
 11
2.643749999999998
 21
0.0000000000003986
 31
0.0
210
0.0
220
0.0
230
1.0
 40
0.499999999999997
 41
0.3398369094537728
 42
5.943348397725188
  0
LINE
  5
1E0
330
2
100
AcDbEntity
  8
GEB-VERDECKT
 48
25.0
100
AcDbLine
 10
2.492551403681432
 20
64.66411541071136
 30
0.0
 11
20.48104973963632
 21
64.66411541071114
 31
0.0
  0
ELLIPSE
  5
1E1
330
2
100
AcDbEntity
  8
GEB-VERDECKT
 48
25.0
100
AcDbEllipse
 10
0.0000000000007958
 20
65.10474041071109
 30
0.0
 11
20.4999999999982
 21
0.0000000000035106
 31
0.0
210
0.0
220
0.0
230
1.0
 40
0.4999999999999972
 41
6.240184251383588
 42
6.326186362974913
  0
LINE
  5
1E2
330
2
100
AcDbEntity
  8
GEB-VERDECKT
 48
25.0
100
AcDbLine
 10
-21.00000000000193
 20
64.32031060088582
 30
0.0
 11
-21.00000000000125
 21
59.6930726410111
 31
0.0
  0
LINE
  5
1E3
330
2
100
AcDbEntity
  8
GEB-VERDECKT
 48
25.0
100
AcDbLine
 10
20.99999999999875
 20
59.69307264100746
 30
0.0
 11
20.99999999999807
 21
64.32031060088593
 31
0.0
  0
LINE
  5
1E4
330
2
100
AcDbEntity
  8
GEB-VERDECKT
 48
25.0
100
AcDbLine
 10
20.0
 20
0.0
 30
0.0
 11
20.0
 21
39.99536070147144
 31
0.0
  0
LINE
  5
1E5
330
2
100
AcDbEntity
  8
GEB-VERDECKT
 48
25.0
100
AcDbLine
 10
-20.0
 20
0.0
 30
0.0
 11
-20.0
 21
39.99536070147144
 31
0.0
  0
LINE
  5
1E6
330
2
100
AcDbEntity
  8
GEB-VERDECKT
 48
25.0
100
AcDbLine
 10
-20.00000000000182
 20
64.32031060088582
 30
0.0
 11
-19.99999999999988
 21
39.99536070147144
 31
0.0
  0
LINE
  5
1E7
330
2
100
AcDbEntity
  8
GEB-VERDECKT
 48
25.0
100
AcDbLine
 10
20.0
 20
39.99536070147144
 30
0.0
 11
19.99999999999818
 21
64.32031060088582
 31
0.0
  0
LINE
  5
1E8
330
2
100
AcDbEntity
  8
GEB-KONTUR-A
 48
25.0
100
AcDbLine
 10
20.99999999999988
 20
0.0
 30
0.0
 11
20.99999999999988
 21
39.99536070147144
 31
0.0
  0
LINE
  5
1E9
330
2
100
AcDbEntity
  8
GEB-KONTUR-A
 48
25.0
100
AcDbLine
 10
-20.99999999999988
 20
0.0
 30
0.0
 11
-20.99999999999988
 21
39.99536070147144
 31
0.0
  0
LINE
  5
1EA
330
2
100
AcDbEntity
  8
GEB-KONTUR-A
 48
25.0
100
AcDbLine
 10
-21.00000000000125
 20
59.69307264101122
 30
0.0
 11
-21.00000000000012
 21
39.99536070147144
 31
0.0
  0
LINE
  5
1EB
330
2
100
AcDbEntity
  8
GEB-KONTUR-A
 48
25.0
100
AcDbLine
 10
20.99999999999988
 20
39.99536070147144
 30
0.0
 11
20.99999999999875
 21
59.69307264100746
 31
0.0
  0
LINE
  5
1EC
330
2
100
AcDbEntity
  8
GEB-KONTUR-A
 48
25.0
100
AcDbLine
 10
-20.99999999999988
 20
0.0
 30
0.0
 11
20.99999999999988
 21
0.0
 31
0.0
  0
POLYLINE
  5
1ED
330
2
100
AcDbEntity
  8
GEB-VERDECKT
 48
25.0
100
AcDb2dPolyline
 66
     1
 10
0.0
 20
0.0
 30
0.0
 70
   128
  0
VERTEX
  5
1EE
330
1ED
100
AcDbEntity
  8
GEB-VERDECKT
 48
25.0
100
AcDbVertex
100
AcDb2dVertex
 10
19.99999999999818
 20
64.3253183364867
 30
0.0
  0
VERTEX
  5
1EF
330
1ED
100
AcDbEntity
  8
GEB-VERDECKT
 48
25.0
100
AcDbVertex
100
AcDb2dVertex
 10
19.99363780021497
 20
64.5669126510619
 30
0.0
  0
VERTEX
  5
1F0
330
1ED
100
AcDbEntity
  8
GEB-VERDECKT
 48
25.0
100
AcDbVertex
100
AcDb2dVertex
 10
19.97486591338952
 20
64.8132562637328
 30
0.0
  0
VERTEX
  5
1F1
330
1ED
100
AcDbEntity
  8
GEB-VERDECKT
 48
25.0
100
AcDbVertex
100
AcDb2dVertex
 10
19.94344234466405
 20
65.06342887878407
 30
0.0
  0
VERTEX
  5
1F2
330
1ED
100
AcDbEntity
  8
GEB-VERDECKT
 48
25.0
100
AcDbVertex
100
AcDb2dVertex
 10
19.89912271499509
 20
65.31651973724354
 30
0.0
  0
VERTEX
  5
1F3
330
1ED
100
AcDbEntity
  8
GEB-VERDECKT
 48
25.0
100
AcDbVertex
100
AcDb2dVertex
 10
19.8416650295245
 20
65.57161808013905
 30
0.0
  0
VERTEX
  5
1F4
330
1ED
100
AcDbEntity
  8
GEB-VERDECKT
 48
25.0
100
AcDbVertex
100
AcDb2dVertex
 10
19.77082490920906
 20
65.82781314849842
 30
0.0
  0
VERTEX
  5
1F5
330
1ED
100
AcDbEntity
  8
GEB-VERDECKT
 48
25.0
100
AcDbVertex
100
AcDb2dVertex
 10
19.68636155128377
 20
66.08418941497792
 30
0.0
  0
VERTEX
  5
1F6
330
1ED
100
AcDbEntity
  8
GEB-VERDECKT
 48
25.0
100
AcDbVertex
100
AcDb2dVertex
 10
19.58803176879803
 20
66.33984088897694
 30
0.0
  0
VERTEX
  5
1F7
330
1ED
100
AcDbEntity
  8
GEB-VERDECKT
 48
25.0
100
AcDbVertex
100
AcDb2dVertex
 10
19.4759774208062
 20
66.59388542175282
 30
0.0
  0
VERTEX
  5
1F8
330
1ED
100
AcDbEntity
  8
GEB-VERDECKT
 48
25.0
100
AcDbVertex
100
AcDb2dVertex
 10
19.35104131698551
 20
66.84552669525135
 30
0.0
  0
VERTEX
  5
1F9
330
1ED
100
AcDbEntity
  8
GEB-VERDECKT
 48
25.0
100
AcDbVertex
100
AcDb2dVertex
 10
19.21415090560867
 20
67.09396362304676
 30
0.0
  0
VERTEX
  5
1FA
330
1ED
100
AcDbEntity
  8
GEB-VERDECKT
 48
25.0
100
AcDbVertex
100
AcDb2dVertex
 10
19.06622767448391
 20
67.33840942382801
 30
0.0
  0
VERTEX
  5
1FB
330
1ED
100
AcDbEntity
  8
GEB-VERDECKT
 48
25.0
100
AcDbVertex
100
AcDb2dVertex
 10
18.90819549560535
 20
67.57805824279774
 30
0.0
  0
VERTEX
  5
1FC
330
1ED
100
AcDbEntity
  8
GEB-VERDECKT
 48
25.0
100
AcDbVertex
100
AcDb2dVertex
 10
18.74098062515258
 20
67.81211376190174
 30
0.0
  0
VERTEX
  5
1FD
330
1ED
100
AcDbEntity
  8
GEB-VERDECKT
 48
25.0
100
AcDbVertex
100
AcDb2dVertex
 10
18.56550455093383
 20
68.03978919982899
 30
0.0
  0
VERTEX
  5
1FE
330
1ED
100
AcDbEntity
  8
GEB-VERDECKT
 48
25.0
100
AcDbVertex
100
AcDb2dVertex
 10
18.3815371990205
 20
68.2616615295409
 30
0.0
  0
VERTEX
  5
1FF
330
1ED
100
AcDbEntity
  8
GEB-VERDECKT
 48
25.0
100
AcDbVertex
100
AcDb2dVertex
 10
18.1832587718967
 20
68.48474979400624
 30
0.0
  0
VERTEX
  5
200
330
1ED
100
AcDbEntity
  8
GEB-VERDECKT
 48
25.0
100
AcDbVertex
100
AcDb2dVertex
 10
17.97012209892318
 20
68.70941162109364
 30
0.0
  0
VERTEX
  5
201
330
1ED
100
AcDbEntity
  8
GEB-VERDECKT
 48
25.0
100
AcDbVertex
100
AcDb2dVertex
 10
17.74259805679378
 20
68.93475532531727
 30
0.0
  0
VERTEX
  5
202
330
1ED
100
AcDbEntity
  8
GEB-VERDECKT
 48
25.0
100
AcDbVertex
100
AcDb2dVertex
 10
17.501158714295
 20
69.15988922119129
 30
0.0
  0
VERTEX
  5
203
330
1ED
100
AcDbEntity
  8
GEB-VERDECKT
 48
25.0
100
AcDbVertex
100
AcDb2dVertex
 10
17.24627614021369
 20
69.38393115997303
 30
0.0
  0
VERTEX
  5
204
330
1ED
100
AcDbEntity
  8
GEB-VERDECKT
 48
25.0
100
AcDbVertex
100
AcDb2dVertex
 10
16.97842359542926
 20
69.60597991943348
 30
0.0
  0
VERTEX
  5
205
330
1ED
100
AcDbEntity
  8
GEB-VERDECKT
 48
25.0
100
AcDbVertex
100
AcDb2dVertex
 10
16.69807076454265
 20
69.82515335082997
 30
0.0
  0
VERTEX
  5
206
330
1ED
100
AcDbEntity
  8
GEB-VERDECKT
 48
25.0
100
AcDbVertex
100
AcDb2dVertex
 10
16.40576481819266
 20
70.04058361053456
 30
0.0
  0
VERTEX
  5
207
330
1ED
100
AcDbEntity
  8
GEB-VERDECKT
 48
25.0
100
AcDbVertex
100
AcDb2dVertex
 10
16.10265851020926
 20
70.25160789489735
 30
0.0
  0
VERTEX
  5
208
330
1ED
100
AcDbEntity
  8
GEB-VERDECKT
 48
25.0
100
AcDbVertex
100
AcDb2dVertex
 10
15.79021453857547
 20
70.45767307281483
 30
0.0
  0
VERTEX
  5
209
330
1ED
100
AcDbEntity
  8
GEB-VERDECKT
 48
25.0
100
AcDbVertex
100
AcDb2dVertex
 10
15.46989560127406
 20
70.65821170806874
 30
0.0
  0
VERTEX
  5
20A
330
1ED
100
AcDbEntity
  8
GEB-VERDECKT
 48
25.0
100
AcDbVertex
100
AcDb2dVertex
 10
15.1431655883805
 20
70.85267066955555
 30
0.0
  0
VERTEX
  5
20B
330
1ED
100
AcDbEntity
  8
GEB-VERDECKT
 48
25.0
100
AcDbVertex
100
AcDb2dVertex
 10
14.81148600578467
 20
71.04049205780018
 30
0.0
  0
VERTEX
  5
20C
330
1ED
100
AcDbEntity
  8
GEB-VERDECKT
 48
25.0
100
AcDbVertex
100
AcDb2dVertex
 10
14.47632074356249
 20
71.22111320495594
 30
0.0
  0
VERTEX
  5
20D
330
1ED
100
AcDbEntity
  8
GEB-VERDECKT
 48
25.0
100
AcDbVertex
100
AcDb2dVertex
 10
14.13913369178954
 20
71.39397621154774
 30
0.0
  0
VERTEX
  5
20E
330
1ED
100
AcDbEntity
  8
GEB-VERDECKT
 48
25.0
100
AcDbVertex
100
AcDb2dVertex
 10
13.79317879677001
 20
71.56257152557362
 30
0.0
  0
VERTEX
  5
20F
330
1ED
100
AcDbEntity
  8
GEB-VERDECKT
 48
25.0
100
AcDbVertex
100
AcDb2dVertex
 10
13.43172550201609
 20
71.73014640808094
 30
0.0
  0
VERTEX
  5
210
330
1ED
100
AcDbEntity
  8
GEB-VERDECKT
 48
25.0
100
AcDbVertex
100
AcDb2dVertex
 10
13.05589318275645
 20
71.8959617614745
 30
0.0
  0
VERTEX
  5
211
330
1ED
100
AcDbEntity
  8
GEB-VERDECKT
 48
25.0
100
AcDbVertex
100
AcDb2dVertex
 10
12.66679644584872
 20
72.0592975616454
 30
0.0
  0
VERTEX
  5
212
330
1ED
100
AcDbEntity
  8
GEB-VERDECKT
 48
25.0
100
AcDbVertex
100
AcDb2dVertex
 10
12.26555585861433
 20
72.21941471099842
 30
0.0
  0
VERTEX
  5
213
330
1ED
100
AcDbEntity
  8
GEB-VERDECKT
 48
25.0
100
AcDbVertex
100
AcDb2dVertex
 10
11.8532860279106
 20
72.37558364868153
 30
0.0
  0
VERTEX
  5
214
330
1ED
100
AcDbEntity
  8
GEB-VERDECKT
 48
25.0
100
AcDbVertex
100
AcDb2dVertex
 10
11.43110513687372
 20
72.52707004547108
 30
0.0
  0
VERTEX
  5
215
330
1ED
100
AcDbEntity
  8
GEB-VERDECKT
 48
25.0
100
AcDbVertex
100
AcDb2dVertex
 10
11.00013256073236
 20
72.67314434051503
 30
0.0
  0
VERTEX
  5
216
330
1ED
100
AcDbEntity
  8
GEB-VERDECKT
 48
25.0
100
AcDbVertex
100
AcDb2dVertex
 10
10.56169986725115
 20
72.8132390975951
 30
0.0
  0
VERTEX
  5
217
330
1ED
100
AcDbEntity
  8
GEB-VERDECKT
 48
25.0
100
AcDbVertex
100
AcDb2dVertex
 10
10.11753797531389
 20
72.94707298278797
 30
0.0
  0
VERTEX
  5
218
330
1ED
100
AcDbEntity
  8
GEB-VERDECKT
 48
25.0
100
AcDbVertex
100
AcDb2dVertex
 10
9.669429063799725
 20
73.07442188262928
 30
0.0
  0
VERTEX
  5
219
330
1ED
100
AcDbEntity
  8
GEB-VERDECKT
 48
25.0
100
AcDbVertex
100
AcDb2dVertex
 10
9.21915292740141
 20
73.19504261016835
 30
0.0
  0
VERTEX
  5
21A
330
1ED
100
AcDbEntity
  8
GEB-VERDECKT
 48
25.0
100
AcDbVertex
100
AcDb2dVertex
 10
8.768488168719159
 20
73.30870151519764
 30
0.0
  0
VERTEX
  5
21B
330
1ED
100
AcDbEntity
  8
GEB-VERDECKT
 48
25.0
100
AcDbVertex
100
AcDb2dVertex
 10
8.319214582446079
 20
73.41516017913807
 30
0.0
  0
VERTEX
  5
21C
330
1ED
100
AcDbEntity
  8
GEB-VERDECKT
 48
25.0
100
AcDbVertex
100
AcDb2dVertex
 10
7.873113155367832
 20
73.51418495178211
 30
0.0
  0
VERTEX
  5
21D
330
1ED
100
AcDbEntity
  8
GEB-VERDECKT
 48
25.0
100
AcDbVertex
100
AcDb2dVertex
 10
7.429299950602626
 20
73.6060857772826
 30
0.0
  0
VERTEX
  5
21E
330
1ED
100
AcDbEntity
  8
GEB-VERDECKT
 48
25.0
100
AcDbVertex
100
AcDb2dVertex
 10
6.97372972965536
 20
73.69376659393299
 30
0.0
  0
VERTEX
  5
21F
330
1ED
100
AcDbEntity
  8
GEB-VERDECKT
 48
25.0
100
AcDbVertex
100
AcDb2dVertex
 10
6.505412459376429
 20
73.77730846405018
 30
0.0
  0
VERTEX
  5
220
330
1ED
100
AcDbEntity
  8
GEB-VERDECKT
 48
25.0
100
AcDbVertex
100
AcDb2dVertex
 10
6.025940775874232
 20
73.85624885559071
 30
0.0
  0
VERTEX
  5
221
330
1ED
100
AcDbEntity
  8
GEB-VERDECKT
 48
25.0
100
AcDbVertex
100
AcDb2dVertex
 10
5.53690731525728
 20
73.93012523651112
 30
0.0
  0
VERTEX
  5
222
330
1ED
100
AcDbEntity
  8
GEB-VERDECKT
 48
25.0
100
AcDbVertex
100
AcDb2dVertex
 10
5.039904117587298
 20
73.99847984313954
 30
0.0
  0
VERTEX
  5
223
330
1ED
100
AcDbEntity
  8
GEB-VERDECKT
 48
25.0
100
AcDbVertex
100
AcDb2dVertex
 10
4.536525309088915
 20
74.06084060668934
 30
0.0
  0
VERTEX
  5
224
330
1ED
100
AcDbEntity
  8
GEB-VERDECKT
 48
25.0
100
AcDbVertex
100
AcDb2dVertex
 10
4.028361737731188
 20
74.11675453186024
 30
0.0
  0
VERTEX
  5
225
330
1ED
100
AcDbEntity
  8
GEB-VERDECKT
 48
25.0
100
AcDbVertex
100
AcDb2dVertex
 10
3.517023622992951
 20
74.16579246520985
 30
0.0
  0
VERTEX
  5
226
330
1ED
100
AcDbEntity
  8
GEB-VERDECKT
 48
25.0
100
AcDbVertex
100
AcDb2dVertex
 10
3.004261851314026
 20
74.20790195465077
 30
0.0
  0
VERTEX
  5
227
330
1ED
100
AcDbEntity
  8
GEB-VERDECKT
 48
25.0
100
AcDbVertex
100
AcDb2dVertex
 10
2.491901367906052
 20
74.24319267272938
 30
0.0
  0
VERTEX
  5
228
330
1ED
100
AcDbEntity
  8
GEB-VERDECKT
 48
25.0
100
AcDbVertex
100
AcDb2dVertex
 10
1.981767416003663
 20
74.2717933654784
 30
0.0
  0
VERTEX
  5
229
330
1ED
100
AcDbEntity
  8
GEB-VERDECKT
 48
25.0
100
AcDbVertex
100
AcDb2dVertex
 10
1.475684940818268
 20
74.29382801055897
 30
0.0
  0
VERTEX
  5
22A
330
1ED
100
AcDbEntity
  8
GEB-VERDECKT
 48
25.0
100
AcDbVertex
100
AcDb2dVertex
 10
0.975479483607728
 20
74.30941104888905
 30
0.0
  0
VERTEX
  5
22B
330
1ED
100
AcDbEntity
  8
GEB-VERDECKT
 48
25.0
100
AcDbVertex
100
AcDb2dVertex
 10
0.4829760640892573
 20
74.31867122650135
 30
0.0
  0
VERTEX
  5
22C
330
1ED
100
AcDbEntity
  8
GEB-VERDECKT
 48
25.0
100
AcDbVertex
100
AcDb2dVertex
 10
0.0000000000032969
 20
74.32173252105702
 30
0.0
  0
SEQEND
  5
22D
330
1ED
100
AcDbEntity
  8
GEB-VERDECKT
 48
25.0
  0
POLYLINE
  5
22E
330
2
100
AcDbEntity
  8
GEB-VERDECKT
 48
25.0
100
AcDb2dPolyline
 66
     1
 10
0.0
 20
0.0
 30
0.0
 70
   128
  0
VERTEX
  5
22F
330
22E
100
AcDbEntity
  8
GEB-VERDECKT
 48
25.0
100
AcDbVertex
100
AcDb2dVertex
 10
0.0000000000032969
 20
74.32173252105702
 30
0.0
  0
VERTEX
  5
230
330
22E
100
AcDbEntity
  8
GEB-VERDECKT
 48
25.0
100
AcDbVertex
100
AcDb2dVertex
 10
-0.4829760640826635
 20
74.31867122650135
 30
0.0
  0
VERTEX
  5
231
330
22E
100
AcDbEntity
  8
GEB-VERDECKT
 48
25.0
100
AcDbVertex
100
AcDb2dVertex
 10
-0.9754794836011342
 20
74.30941104888905
 30
0.0
  0
VERTEX
  5
232
330
22E
100
AcDbEntity
  8
GEB-VERDECKT
 48
25.0
100
AcDbVertex
100
AcDb2dVertex
 10
-1.475684940811675
 20
74.29382801055897
 30
0.0
  0
VERTEX
  5
233
330
22E
100
AcDbEntity
  8
GEB-VERDECKT
 48
25.0
100
AcDbVertex
100
AcDb2dVertex
 10
-1.981767415997069
 20
74.2717933654784
 30
0.0
  0
VERTEX
  5
234
330
22E
100
AcDbEntity
  8
GEB-VERDECKT
 48
25.0
100
AcDbVertex
100
AcDb2dVertex
 10
-2.491901367899458
 20
74.24319267272938
 30
0.0
  0
VERTEX
  5
235
330
22E
100
AcDbEntity
  8
GEB-VERDECKT
 48
25.0
100
AcDbVertex
100
AcDb2dVertex
 10
-3.004261851307433
 20
74.20790195465077
 30
0.0
  0
VERTEX
  5
236
330
22E
100
AcDbEntity
  8
GEB-VERDECKT
 48
25.0
100
AcDbVertex
100
AcDb2dVertex
 10
-3.517023622986357
 20
74.16579246520985
 30
0.0
  0
VERTEX
  5
237
330
22E
100
AcDbEntity
  8
GEB-VERDECKT
 48
25.0
100
AcDbVertex
100
AcDb2dVertex
 10
-4.028361737725049
 20
74.11675453186024
 30
0.0
  0
VERTEX
  5
238
330
22E
100
AcDbEntity
  8
GEB-VERDECKT
 48
25.0
100
AcDbVertex
100
AcDb2dVertex
 10
-4.536525309082776
 20
74.06084060668934
 30
0.0
  0
VERTEX
  5
239
330
22E
100
AcDbEntity
  8
GEB-VERDECKT
 48
25.0
100
AcDbVertex
100
AcDb2dVertex
 10
-5.039904117581158
 20
73.99847984313954
 30
0.0
  0
VERTEX
  5
23A
330
22E
100
AcDbEntity
  8
GEB-VERDECKT
 48
25.0
100
AcDbVertex
100
AcDb2dVertex
 10
-5.536907315251141
 20
73.93012523651112
 30
0.0
  0
VERTEX
  5
23B
330
22E
100
AcDbEntity
  8
GEB-VERDECKT
 48
25.0
100
AcDbVertex
100
AcDb2dVertex
 10
-6.02594077586832
 20
73.85624885559071
 30
0.0
  0
VERTEX
  5
23C
330
22E
100
AcDbEntity
  8
GEB-VERDECKT
 48
25.0
100
AcDbVertex
100
AcDb2dVertex
 10
-6.505412459370518
 20
73.77730846405018
 30
0.0
  0
VERTEX
  5
23D
330
22E
100
AcDbEntity
  8
GEB-VERDECKT
 48
25.0
100
AcDbVertex
100
AcDb2dVertex
 10
-6.973729729649448
 20
73.69376659393299
 30
0.0
  0
VERTEX
  5
23E
330
22E
100
AcDbEntity
  8
GEB-VERDECKT
 48
25.0
100
AcDbVertex
100
AcDb2dVertex
 10
-7.429299950596714
 20
73.6060857772826
 30
0.0
  0
VERTEX
  5
23F
330
22E
100
AcDbEntity
  8
GEB-VERDECKT
 48
25.0
100
AcDbVertex
100
AcDb2dVertex
 10
-7.873113155362148
 20
73.51418495178211
 30
0.0
  0
VERTEX
  5
240
330
22E
100
AcDbEntity
  8
GEB-VERDECKT
 48
25.0
100
AcDbVertex
100
AcDb2dVertex
 10
-8.319214582440395
 20
73.41516017913807
 30
0.0
  0
VERTEX
  5
241
330
22E
100
AcDbEntity
  8
GEB-VERDECKT
 48
25.0
100
AcDbVertex
100
AcDb2dVertex
 10
-8.768488168713702
 20
73.30870151519764
 30
0.0
  0
VERTEX
  5
242
330
22E
100
AcDbEntity
  8
GEB-VERDECKT
 48
25.0
100
AcDbVertex
100
AcDb2dVertex
 10
-9.219152927395953
 20
73.19504261016835
 30
0.0
  0
VERTEX
  5
243
330
22E
100
AcDbEntity
  8
GEB-VERDECKT
 48
25.0
100
AcDbVertex
100
AcDb2dVertex
 10
-9.669429063794268
 20
73.07442188262928
 30
0.0
  0
VERTEX
  5
244
330
22E
100
AcDbEntity
  8
GEB-VERDECKT
 48
25.0
100
AcDbVertex
100
AcDb2dVertex
 10
-10.11753797530866
 20
72.94707298278797
 30
0.0
  0
VERTEX
  5
245
330
22E
100
AcDbEntity
  8
GEB-VERDECKT
 48
25.0
100
AcDbVertex
100
AcDb2dVertex
 10
-10.56169986724592
 20
72.8132390975951
 30
0.0
  0
VERTEX
  5
246
330
22E
100
AcDbEntity
  8
GEB-VERDECKT
 48
25.0
100
AcDbVertex
100
AcDb2dVertex
 10
-11.00013256072759
 20
72.67314434051503
 30
0.0
  0
VERTEX
  5
247
330
22E
100
AcDbEntity
  8
GEB-VERDECKT
 48
25.0
100
AcDbVertex
100
AcDb2dVertex
 10
-11.43110513686895
 20
72.52707004547108
 30
0.0
  0
VERTEX
  5
248
330
22E
100
AcDbEntity
  8
GEB-VERDECKT
 48
25.0
100
AcDbVertex
100
AcDb2dVertex
 10
-11.85328602790605
 20
72.37558364868153
 30
0.0
  0
VERTEX
  5
249
330
22E
100
AcDbEntity
  8
GEB-VERDECKT
 48
25.0
100
AcDbVertex
100
AcDb2dVertex
 10
-12.26555585860978
 20
72.21941471099842
 30
0.0
  0
VERTEX
  5
24A
330
22E
100
AcDbEntity
  8
GEB-VERDECKT
 48
25.0
100
AcDbVertex
100
AcDb2dVertex
 10
-12.6667964458444
 20
72.0592975616454
 30
0.0
  0
VERTEX
  5
24B
330
22E
100
AcDbEntity
  8
GEB-VERDECKT
 48
25.0
100
AcDbVertex
100
AcDb2dVertex
 10
-13.05589318275258
 20
71.8959617614745
 30
0.0
  0
VERTEX
  5
24C
330
22E
100
AcDbEntity
  8
GEB-VERDECKT
 48
25.0
100
AcDbVertex
100
AcDb2dVertex
 10
-13.43172550201223
 20
71.73014640808094
 30
0.0
  0
VERTEX
  5
24D
330
22E
100
AcDbEntity
  8
GEB-VERDECKT
 48
25.0
100
AcDbVertex
100
AcDb2dVertex
 10
-13.79317879676637
 20
71.56257152557362
 30
0.0
  0
VERTEX
  5
24E
330
22E
100
AcDbEntity
  8
GEB-VERDECKT
 48
25.0
100
AcDbVertex
100
AcDb2dVertex
 10
-14.1391336917859
 20
71.39397621154774
 30
0.0
  0
VERTEX
  5
24F
330
22E
100
AcDbEntity
  8
GEB-VERDECKT
 48
25.0
100
AcDbVertex
100
AcDb2dVertex
 10
-14.47632074355908
 20
71.22111320495594
 30
0.0
  0
VERTEX
  5
250
330
22E
100
AcDbEntity
  8
GEB-VERDECKT
 48
25.0
100
AcDbVertex
100
AcDb2dVertex
 10
-14.81148600578149
 20
71.04049205780018
 30
0.0
  0
VERTEX
  5
251
330
22E
100
AcDbEntity
  8
GEB-VERDECKT
 48
25.0
100
AcDbVertex
100
AcDb2dVertex
 10
-15.14316558837731
 20
70.85267066955555
 30
0.0
  0
VERTEX
  5
252
330
22E
100
AcDbEntity
  8
GEB-VERDECKT
 48
25.0
100
AcDbVertex
100
AcDb2dVertex
 10
-15.4698956012711
 20
70.65821170806874
 30
0.0
  0
VERTEX
  5
253
330
22E
100
AcDbEntity
  8
GEB-VERDECKT
 48
25.0
100
AcDbVertex
100
AcDb2dVertex
 10
-15.79021453857297
 20
70.45767307281483
 30
0.0
  0
VERTEX
  5
254
330
22E
100
AcDbEntity
  8
GEB-VERDECKT
 48
25.0
100
AcDbVertex
100
AcDb2dVertex
 10
-16.10265851020699
 20
70.25160789489735
 30
0.0
  0
VERTEX
  5
255
330
22E
100
AcDbEntity
  8
GEB-VERDECKT
 48
25.0
100
AcDbVertex
100
AcDb2dVertex
 10
-16.40576481819039
 20
70.04058361053456
 30
0.0
  0
VERTEX
  5
256
330
22E
100
AcDbEntity
  8
GEB-VERDECKT
 48
25.0
100
AcDbVertex
100
AcDb2dVertex
 10
-16.6980707645406
 20
69.82515335082997
 30
0.0
  0
VERTEX
  5
257
330
22E
100
AcDbEntity
  8
GEB-VERDECKT
 48
25.0
100
AcDbVertex
100
AcDb2dVertex
 10
-16.97842359542767
 20
69.60597991943348
 30
0.0
  0
VERTEX
  5
258
330
22E
100
AcDbEntity
  8
GEB-VERDECKT
 48
25.0
100
AcDbVertex
100
AcDb2dVertex
 10
-17.24627614021233
 20
69.38393115997303
 30
0.0
  0
VERTEX
  5
259
330
22E
100
AcDbEntity
  8
GEB-VERDECKT
 48
25.0
100
AcDbVertex
100
AcDb2dVertex
 10
-17.50115871429386
 20
69.15988922119129
 30
0.0
  0
VERTEX
  5
25A
330
22E
100
AcDbEntity
  8
GEB-VERDECKT
 48
25.0
100
AcDbVertex
100
AcDb2dVertex
 10
-17.74259805679264
 20
68.93475532531727
 30
0.0
  0
VERTEX
  5
25B
330
22E
100
AcDbEntity
  8
GEB-VERDECKT
 48
25.0
100
AcDbVertex
100
AcDb2dVertex
 10
-17.97012209892227
 20
68.70941162109364
 30
0.0
  0
VERTEX
  5
25C
330
22E
100
AcDbEntity
  8
GEB-VERDECKT
 48
25.0
100
AcDbVertex
100
AcDb2dVertex
 10
-18.18325877189602
 20
68.48474979400624
 30
0.0
  0
VERTEX
  5
25D
330
22E
100
AcDbEntity
  8
GEB-VERDECKT
 48
25.0
100
AcDbVertex
100
AcDb2dVertex
 10
-18.38153719902027
 20
68.2616615295409
 30
0.0
  0
VERTEX
  5
25E
330
22E
100
AcDbEntity
  8
GEB-VERDECKT
 48
25.0
100
AcDbVertex
100
AcDb2dVertex
 10
-18.56550455093383
 20
68.03978919982899
 30
0.0
  0
VERTEX
  5
25F
330
22E
100
AcDbEntity
  8
GEB-VERDECKT
 48
25.0
100
AcDbVertex
100
AcDb2dVertex
 10
-18.74098062515258
 20
67.81211376190174
 30
0.0
  0
VERTEX
  5
260
330
22E
100
AcDbEntity
  8
GEB-VERDECKT
 48
25.0
100
AcDbVertex
100
AcDb2dVertex
 10
-18.90819549560558
 20
67.57805824279774
 30
0.0
  0
VERTEX
  5
261
330
22E
100
AcDbEntity
  8
GEB-VERDECKT
 48
25.0
100
AcDbVertex
100
AcDb2dVertex
 10
-19.06622767448459
 20
67.33840942382801
 30
0.0
  0
VERTEX
  5
262
330
22E
100
AcDbEntity
  8
GEB-VERDECKT
 48
25.0
100
AcDbVertex
100
AcDb2dVertex
 10
-19.21415090560958
 20
67.09396362304676
 30
0.0
  0
VERTEX
  5
263
330
22E
100
AcDbEntity
  8
GEB-VERDECKT
 48
25.0
100
AcDbVertex
100
AcDb2dVertex
 10
-19.35104131698665
 20
66.84552669525135
 30
0.0
  0
VERTEX
  5
264
330
22E
100
AcDbEntity
  8
GEB-VERDECKT
 48
25.0
100
AcDbVertex
100
AcDb2dVertex
 10
-19.47597742080757
 20
66.59388542175282
 30
0.0
  0
VERTEX
  5
265
330
22E
100
AcDbEntity
  8
GEB-VERDECKT
 48
25.0
100
AcDbVertex
100
AcDb2dVertex
 10
-19.58803176879962
 20
66.33984088897694
 30
0.0
  0
VERTEX
  5
266
330
22E
100
AcDbEntity
  8
GEB-VERDECKT
 48
25.0
100
AcDbVertex
100
AcDb2dVertex
 10
-19.68636155128581
 20
66.08418941497792
 30
0.0
  0
VERTEX
  5
267
330
22E
100
AcDbEntity
  8
GEB-VERDECKT
 48
25.0
100
AcDbVertex
100
AcDb2dVertex
 10
-19.77082490921134
 20
65.82781314849842
 30
0.0
  0
VERTEX
  5
268
330
22E
100
AcDbEntity
  8
GEB-VERDECKT
 48
25.0
100
AcDbVertex
100
AcDb2dVertex
 10
-19.84166502952701
 20
65.57161808013905
 30
0.0
  0
VERTEX
  5
269
330
22E
100
AcDbEntity
  8
GEB-VERDECKT
 48
25.0
100
AcDbVertex
100
AcDb2dVertex
 10
-19.89912271499759
 20
65.31651973724354
 30
0.0
  0
VERTEX
  5
26A
330
22E
100
AcDbEntity
  8
GEB-VERDECKT
 48
25.0
100
AcDbVertex
100
AcDb2dVertex
 10
-19.943442344667
 20
65.06342887878407
 30
0.0
  0
VERTEX
  5
26B
330
22E
100
AcDbEntity
  8
GEB-VERDECKT
 48
25.0
100
AcDbVertex
100
AcDb2dVertex
 10
-19.9748659133927
 20
64.8132562637328
 30
0.0
  0
VERTEX
  5
26C
330
22E
100
AcDbEntity
  8
GEB-VERDECKT
 48
25.0
100
AcDbVertex
100
AcDb2dVertex
 10
-19.99363780021838
 20
64.5669126510619
 30
0.0
  0
VERTEX
  5
26D
330
22E
100
AcDbEntity
  8
GEB-VERDECKT
 48
25.0
100
AcDbVertex
100
AcDb2dVertex
 10
-20.00000000000182
 20
64.3253183364867
 30
0.0
  0
SEQEND
  5
26E
330
22E
100
AcDbEntity
  8
GEB-VERDECKT
 48
25.0
  0
POLYLINE
  5
26F
330
2
100
AcDbEntity
  8
GEB-VERDECKT
 48
25.0
100
AcDb2dPolyline
 66
     1
 10
0.0
 20
0.0
 30
0.0
 70
   128
  0
VERTEX
  5
270
330
26F
100
AcDbEntity
  8
GEB-VERDECKT
 48
25.0
100
AcDbVertex
100
AcDb2dVertex
 10
20.99999904632387
 20
64.32281494140614
 30
0.0
  0
VERTEX
  5
271
330
26F
100
AcDbEntity
  8
GEB-VERDECKT
 48
25.0
100
AcDbVertex
100
AcDb2dVertex
 10
20.99436283111379
 20
64.08284664154042
 30
0.0
  0
VERTEX
  5
272
330
26F
100
AcDbEntity
  8
GEB-VERDECKT
 48
25.0
100
AcDbVertex
100
AcDb2dVertex
 10
20.97706317901395
 20
63.83834362030018
 30
0.0
  0
VERTEX
  5
273
330
26F
100
AcDbEntity
  8
GEB-VERDECKT
 48
25.0
100
AcDbVertex
100
AcDb2dVertex
 10
20.9478831291176
 20
63.5901117324828
 30
0.0
  0
VERTEX
  5
274
330
26F
100
AcDbEntity
  8
GEB-VERDECKT
 48
25.0
100
AcDbVertex
100
AcDb2dVertex
 10
20.90660572051763
 20
63.33896636962879
 30
0.0
  0
VERTEX
  5
275
330
26F
100
AcDbEntity
  8
GEB-VERDECKT
 48
25.0
100
AcDbVertex
100
AcDb2dVertex
 10
20.85301160812116
 20
63.0857229232787
 30
0.0
  0
VERTEX
  5
276
330
26F
100
AcDbEntity
  8
GEB-VERDECKT
 48
25.0
100
AcDbVertex
100
AcDb2dVertex
 10
20.78688383102155
 20
62.83119201660145
 30
0.0
  0
VERTEX
  5
277
330
26F
100
AcDbEntity
  8
GEB-VERDECKT
 48
25.0
100
AcDbVertex
100
AcDb2dVertex
 10
20.70800542831148
 20
62.57618904113758
 30
0.0
  0
VERTEX
  5
278
330
26F
100
AcDbEntity
  8
GEB-VERDECKT
 48
25.0
100
AcDbVertex
100
AcDb2dVertex
 10
20.61615467071249
 20
62.32152938842762
 30
0.0
  0
VERTEX
  5
279
330
26F
100
AcDbEntity
  8
GEB-VERDECKT
 48
25.0
100
AcDbVertex
100
AcDb2dVertex
 10
20.51120519637766
 20
62.06801414489735
 30
0.0
  0
VERTEX
  5
27A
330
26F
100
AcDbEntity
  8
GEB-VERDECKT
 48
25.0
100
AcDbVertex
100
AcDb2dVertex
 10
20.39368629455259
 20
61.81638240814198
 30
0.0
  0
VERTEX
  5
27B
330
26F
100
AcDbEntity
  8
GEB-VERDECKT
 48
25.0
100
AcDbVertex
100
AcDb2dVertex
 10
20.26442289352087
 20
61.56734943389881
 30
0.0
  0
VERTEX
  5
27C
330
26F
100
AcDbEntity
  8
GEB-VERDECKT
 48
25.0
100
AcDbVertex
100
AcDb2dVertex
 10
20.12423515319483
 20
61.321620941162
 30
0.0
  0
VERTEX
  5
27D
330
26F
100
AcDbEntity
  8
GEB-VERDECKT
 48
25.0
100
AcDbVertex
100
AcDb2dVertex
 10
19.97395038604384
 20
61.07990264892567
 30
0.0
  0
VERTEX
  5
27E
330
26F
100
AcDbEntity
  8
GEB-VERDECKT
 48
25.0
100
AcDbVertex
100
AcDb2dVertex
 10
19.81439232825858
 20
60.84290981292713
 30
0.0
  0
VERTEX
  5
27F
330
26F
100
AcDbEntity
  8
GEB-VERDECKT
 48
25.0
100
AcDbVertex
100
AcDb2dVertex
 10
19.64638352393729
 20
60.61135292053211
 30
0.0
  0
VERTEX
  5
280
330
26F
100
AcDbEntity
  8
GEB-VERDECKT
 48
25.0
100
AcDbVertex
100
AcDb2dVertex
 10
19.47075009345622
 20
60.38594245910633
 30
0.0
  0
VERTEX
  5
281
330
26F
100
AcDbEntity
  8
GEB-VERDECKT
 48
25.0
100
AcDbVertex
100
AcDb2dVertex
 10
19.28675532340605
 20
60.16551971435536
 30
0.0
  0
VERTEX
  5
282
330
26F
100
AcDbEntity
  8
GEB-VERDECKT
 48
25.0
100
AcDbVertex
100
AcDb2dVertex
 10
19.0889585018117
 20
59.94357109069813
 30
0.0
  0
VERTEX
  5
283
330
26F
100
AcDbEntity
  8
GEB-VERDECKT
 48
25.0
100
AcDbVertex
100
AcDb2dVertex
 10
18.87717843055304
 20
59.72015857696522
 30
0.0
  0
VERTEX
  5
284
330
26F
100
AcDbEntity
  8
GEB-VERDECKT
 48
25.0
100
AcDbVertex
100
AcDb2dVertex
 10
18.65183472632941
 20
59.49606895446766
 30
0.0
  0
VERTEX
  5
285
330
26F
100
AcDbEntity
  8
GEB-VERDECKT
 48
25.0
100
AcDbVertex
100
AcDb2dVertex
 10
18.41334819793258
 20
59.27209854125965
 30
0.0
  0
VERTEX
  5
286
330
26F
100
AcDbEntity
  8
GEB-VERDECKT
 48
25.0
100
AcDbVertex
100
AcDb2dVertex
 10
18.16214084624789
 20
59.04903888702381
 30
0.0
  0
VERTEX
  5
287
330
26F
100
AcDbEntity
  8
GEB-VERDECKT
 48
25.0
100
AcDbVertex
100
AcDb2dVertex
 10
17.89863348006736
 20
58.82768630981445
 30
0.0
  0
VERTEX
  5
288
330
26F
100
AcDbEntity
  8
GEB-VERDECKT
 48
25.0
100
AcDbVertex
100
AcDb2dVertex
 10
17.62324571609008
 20
58.60883235931396
 30
0.0
  0
VERTEX
  5
289
330
26F
100
AcDbEntity
  8
GEB-VERDECKT
 48
25.0
100
AcDbVertex
100
AcDb2dVertex
 10
17.33641028403747
 20
58.39326858520507
 30
0.0
  0
VERTEX
  5
28A
330
26F
100
AcDbEntity
  8
GEB-VERDECKT
 48
25.0
100
AcDbVertex
100
AcDb2dVertex
 10
17.03894257544971
 20
58.18165302276611
 30
0.0
  0
VERTEX
  5
28B
330
26F
100
AcDbEntity
  8
GEB-VERDECKT
 48
25.0
100
AcDbVertex
100
AcDb2dVertex
 10
16.732119321818
 20
57.97449588775634
 30
0.0
  0
VERTEX
  5
28C
330
26F
100
AcDbEntity
  8
GEB-VERDECKT
 48
25.0
100
AcDbVertex
100
AcDb2dVertex
 10
16.41724348067714
 20
57.77229309082031
 30
0.0
  0
VERTEX
  5
28D
330
26F
100
AcDbEntity
  8
GEB-VERDECKT
 48
25.0
100
AcDbVertex
100
AcDb2dVertex
 10
16.09562158584072
 20
57.5755500793457
 30
0.0
  0
VERTEX
  5
28E
330
26F
100
AcDbEntity
  8
GEB-VERDECKT
 48
25.0
100
AcDbVertex
100
AcDb2dVertex
 10
15.76855659484329
 20
57.38475799560546
 30
0.0
  0
VERTEX
  5
28F
330
26F
100
AcDbEntity
  8
GEB-VERDECKT
 48
25.0
100
AcDbVertex
100
AcDb2dVertex
 10
15.43735384940544
 20
57.20041275024414
 30
0.0
  0
VERTEX
  5
290
330
26F
100
AcDbEntity
  8
GEB-VERDECKT
 48
25.0
100
AcDbVertex
100
AcDb2dVertex
 10
15.1033163070623
 20
57.02301979064941
 30
0.0
  0
VERTEX
  5
291
330
26F
100
AcDbEntity
  8
GEB-VERDECKT
 48
25.0
100
AcDbVertex
100
AcDb2dVertex
 10
14.76731538772014
 20
56.85285568237304
 30
0.0
  0
VERTEX
  5
292
330
26F
100
AcDbEntity
  8
GEB-VERDECKT
 48
25.0
100
AcDbVertex
100
AcDb2dVertex
 10
14.4202458858432
 20
56.68530941009521
 30
0.0
  0
VERTEX
  5
293
330
26F
100
AcDbEntity
  8
GEB-VERDECKT
 48
25.0
100
AcDbVertex
100
AcDb2dVertex
 10
14.0587580203952
 20
56.51884078979492
 30
0.0
  0
VERTEX
  5
294
330
26F
100
AcDbEntity
  8
GEB-VERDECKT
 48
25.0
100
AcDbVertex
100
AcDb2dVertex
 10
13.68384718894356
 20
56.35409832000732
 30
0.0
  0
VERTEX
  5
295
330
26F
100
AcDbEntity
  8
GEB-VERDECKT
 48
25.0
100
AcDbVertex
100
AcDb2dVertex
 10
13.29650878905647
 20
56.19174003601074
 30
0.0
  0
VERTEX
  5
296
330
26F
100
AcDbEntity
  8
GEB-VERDECKT
 48
25.0
100
AcDbVertex
100
AcDb2dVertex
 10
12.89774179458004
 20
56.03241443634033
 30
0.0
  0
VERTEX
  5
297
330
26F
100
AcDbEntity
  8
GEB-VERDECKT
 48
25.0
100
AcDbVertex
100
AcDb2dVertex
 10
12.48853921889633
 20
55.87677478790283
 30
0.0
  0
VERTEX
  5
298
330
26F
100
AcDbEntity
  8
GEB-VERDECKT
 48
25.0
100
AcDbVertex
100
AcDb2dVertex
 10
12.0699000358519
 20
55.72546958923339
 30
0.0
  0
VERTEX
  5
299
330
26F
100
AcDbEntity
  8
GEB-VERDECKT
 48
25.0
100
AcDbVertex
100
AcDb2dVertex
 10
11.64281845092137
 20
55.57916164398193
 30
0.0
  0
VERTEX
  5
29A
330
26F
100
AcDbEntity
  8
GEB-VERDECKT
 48
25.0
100
AcDbVertex
100
AcDb2dVertex
 10
11.20840549468357
 20
55.43841361999511
 30
0.0
  0
VERTEX
  5
29B
330
26F
100
AcDbEntity
  8
GEB-VERDECKT
 48
25.0
100
AcDbVertex
100
AcDb2dVertex
 10
10.76816558837242
 20
55.30349731445312
 30
0.0
  0
VERTEX
  5
29C
330
26F
100
AcDbEntity
  8
GEB-VERDECKT
 48
25.0
100
AcDbVertex
100
AcDb2dVertex
 10
10.32368659972496
 20
55.17462253570556
 30
0.0
  0
VERTEX
  5
29D
330
26F
100
AcDbEntity
  8
GEB-VERDECKT
 48
25.0
100
AcDbVertex
100
AcDb2dVertex
 10
9.87655282019898
 20
55.05199909210205
 30
0.0
  0
VERTEX
  5
29E
330
26F
100
AcDbEntity
  8
GEB-VERDECKT
 48
25.0
100
AcDbVertex
100
AcDb2dVertex
 10
9.42835330962464
 20
54.93584632873535
 30
0.0
  0
VERTEX
  5
29F
330
26F
100
AcDbEntity
  8
GEB-VERDECKT
 48
25.0
100
AcDbVertex
100
AcDb2dVertex
 10
8.980674147599188
 20
54.82636451721191
 30
0.0
  0
VERTEX
  5
2A0
330
26F
100
AcDbEntity
  8
GEB-VERDECKT
 48
25.0
100
AcDbVertex
100
AcDb2dVertex
 10
8.535103201859328
 20
54.72377300262451
 30
0.0
  0
VERTEX
  5
2A1
330
26F
100
AcDbEntity
  8
GEB-VERDECKT
 48
25.0
100
AcDbVertex
100
AcDb2dVertex
 10
8.093226552002761
 20
54.62827682495117
 30
0.0
  0
VERTEX
  5
2A2
330
26F
100
AcDbEntity
  8
GEB-VERDECKT
 48
25.0
100
AcDbVertex
100
AcDb2dVertex
 10
7.649179697029921
 20
54.53857421875
 30
0.0
  0
VERTEX
  5
2A3
330
26F
100
AcDbEntity
  8
GEB-VERDECKT
 48
25.0
100
AcDbVertex
100
AcDb2dVertex
 10
7.192274928086021
 20
54.45250511169433
 30
0.0
  0
VERTEX
  5
2A4
330
26F
100
AcDbEntity
  8
GEB-VERDECKT
 48
25.0
100
AcDbVertex
100
AcDb2dVertex
 10
6.723760962479332
 20
54.37045097351074
 30
0.0
  0
VERTEX
  5
2A5
330
26F
100
AcDbEntity
  8
GEB-VERDECKT
 48
25.0
100
AcDbVertex
100
AcDb2dVertex
 10
6.245057582848289
 20
54.29282665252685
 30
0.0
  0
VERTEX
  5
2A6
330
26F
100
AcDbEntity
  8
GEB-VERDECKT
 48
25.0
100
AcDbVertex
100
AcDb2dVertex
 10
5.757585763924112
 20
54.22004222869873
 30
0.0
  0
VERTEX
  5
2A7
330
26F
100
AcDbEntity
  8
GEB-VERDECKT
 48
25.0
100
AcDbVertex
100
AcDb2dVertex
 10
5.262767076485147
 20
54.15250778198242
 30
0.0
  0
VERTEX
  5
2A8
330
26F
100
AcDbEntity
  8
GEB-VERDECKT
 48
25.0
100
AcDbVertex
100
AcDb2dVertex
 10
4.762022495262613
 20
54.09064292907714
 30
0.0
  0
VERTEX
  5
2A9
330
26F
100
AcDbEntity
  8
GEB-VERDECKT
 48
25.0
100
AcDbVertex
100
AcDb2dVertex
 10
4.256771802895059
 20
54.03485298156738
 30
0.0
  0
VERTEX
  5
2AA
330
26F
100
AcDbEntity
  8
GEB-VERDECKT
 48
25.0
100
AcDbVertex
100
AcDb2dVertex
 10
3.748447895042886
 20
53.98552894592285
 30
0.0
  0
VERTEX
  5
2AB
330
26F
100
AcDbEntity
  8
GEB-VERDECKT
 48
25.0
100
AcDbVertex
100
AcDb2dVertex
 10
3.238603472702379
 20
53.94274711608886
 30
0.0
  0
VERTEX
  5
2AC
330
26F
100
AcDbEntity
  8
GEB-VERDECKT
 48
25.0
100
AcDbVertex
100
AcDb2dVertex
 10
2.728866040699358
 20
53.9064073562622
 30
0.0
  0
VERTEX
  5
2AD
330
26F
100
AcDbEntity
  8
GEB-VERDECKT
 48
25.0
100
AcDbVertex
100
AcDb2dVertex
 10
2.220863997928972
 20
53.8763952255249
 30
0.0
  0
VERTEX
  5
2AE
330
26F
100
AcDbEntity
  8
GEB-VERDECKT
 48
25.0
100
AcDbVertex
100
AcDb2dVertex
 10
1.716226190321322
 20
53.85260105133056
 30
0.0
  0
VERTEX
  5
2AF
330
26F
100
AcDbEntity
  8
GEB-VERDECKT
 48
25.0
100
AcDbVertex
100
AcDb2dVertex
 10
1.216581091277475
 20
53.83491992950439
 30
0.0
  0
VERTEX
  5
2B0
330
26F
100
AcDbEntity
  8
GEB-VERDECKT
 48
25.0
100
AcDbVertex
100
AcDb2dVertex
 10
0.723557546727534
 20
53.82323741912841
 30
0.0
  0
VERTEX
  5
2B1
330
26F
100
AcDbEntity
  8
GEB-VERDECKT
 48
25.0
100
AcDbVertex
100
AcDb2dVertex
 10
0.2387840300725657
 20
53.81744861602783
 30
0.0
  0
VERTEX
  5
2B2
330
26F
100
AcDbEntity
  8
GEB-VERDECKT
 48
25.0
100
AcDbVertex
100
AcDb2dVertex
 10
-0.2387840300871176
 20
53.81744861602783
 30
0.0
  0
VERTEX
  5
2B3
330
26F
100
AcDbEntity
  8
GEB-VERDECKT
 48
25.0
100
AcDbVertex
100
AcDb2dVertex
 10
-0.7235575467420859
 20
53.82323741912841
 30
0.0
  0
VERTEX
  5
2B4
330
26F
100
AcDbEntity
  8
GEB-VERDECKT
 48
25.0
100
AcDbVertex
100
AcDb2dVertex
 10
-1.216581091292027
 20
53.83491992950439
 30
0.0
  0
VERTEX
  5
2B5
330
26F
100
AcDbEntity
  8
GEB-VERDECKT
 48
25.0
100
AcDbVertex
100
AcDb2dVertex
 10
-1.716226190335873
 20
53.85260105133056
 30
0.0
  0
VERTEX
  5
2B6
330
26F
100
AcDbEntity
  8
GEB-VERDECKT
 48
25.0
100
AcDbVertex
100
AcDb2dVertex
 10
-2.220863997943524
 20
53.8763952255249
 30
0.0
  0
VERTEX
  5
2B7
330
26F
100
AcDbEntity
  8
GEB-VERDECKT
 48
25.0
100
AcDbVertex
100
AcDb2dVertex
 10
-2.72886604071391
 20
53.9064073562622
 30
0.0
  0
VERTEX
  5
2B8
330
26F
100
AcDbEntity
  8
GEB-VERDECKT
 48
25.0
100
AcDbVertex
100
AcDb2dVertex
 10
-3.238603472716931
 20
53.94274711608886
 30
0.0
  0
VERTEX
  5
2B9
330
26F
100
AcDbEntity
  8
GEB-VERDECKT
 48
25.0
100
AcDbVertex
100
AcDb2dVertex
 10
-3.748447895057211
 20
53.98552894592285
 30
0.0
  0
VERTEX
  5
2BA
330
26F
100
AcDbEntity
  8
GEB-VERDECKT
 48
25.0
100
AcDbVertex
100
AcDb2dVertex
 10
-4.256771802909383
 20
54.03485298156738
 30
0.0
  0
VERTEX
  5
2BB
330
26F
100
AcDbEntity
  8
GEB-VERDECKT
 48
25.0
100
AcDbVertex
100
AcDb2dVertex
 10
-4.762022495276937
 20
54.09064292907714
 30
0.0
  0
VERTEX
  5
2BC
330
26F
100
AcDbEntity
  8
GEB-VERDECKT
 48
25.0
100
AcDbVertex
100
AcDb2dVertex
 10
-5.262767076499471
 20
54.15250778198242
 30
0.0
  0
VERTEX
  5
2BD
330
26F
100
AcDbEntity
  8
GEB-VERDECKT
 48
25.0
100
AcDbVertex
100
AcDb2dVertex
 10
-5.757585763938436
 20
54.22004222869873
 30
0.0
  0
VERTEX
  5
2BE
330
26F
100
AcDbEntity
  8
GEB-VERDECKT
 48
25.0
100
AcDbVertex
100
AcDb2dVertex
 10
-6.245057582862159
 20
54.29282665252685
 30
0.0
  0
VERTEX
  5
2BF
330
26F
100
AcDbEntity
  8
GEB-VERDECKT
 48
25.0
100
AcDbVertex
100
AcDb2dVertex
 10
-6.723760962493201
 20
54.37045097351074
 30
0.0
  0
VERTEX
  5
2C0
330
26F
100
AcDbEntity
  8
GEB-VERDECKT
 48
25.0
100
AcDbVertex
100
AcDb2dVertex
 10
-7.192274928099891
 20
54.45250511169433
 30
0.0
  0
VERTEX
  5
2C1
330
26F
100
AcDbEntity
  8
GEB-VERDECKT
 48
25.0
100
AcDbVertex
100
AcDb2dVertex
 10
-7.649179697043564
 20
54.53857421875
 30
0.0
  0
VERTEX
  5
2C2
330
26F
100
AcDbEntity
  8
GEB-VERDECKT
 48
25.0
100
AcDbVertex
100
AcDb2dVertex
 10
-8.093226552016403
 20
54.62827682495117
 30
0.0
  0
VERTEX
  5
2C3
330
26F
100
AcDbEntity
  8
GEB-VERDECKT
 48
25.0
100
AcDbVertex
100
AcDb2dVertex
 10
-8.535103201872971
 20
54.72377300262451
 30
0.0
  0
VERTEX
  5
2C4
330
26F
100
AcDbEntity
  8
GEB-VERDECKT
 48
25.0
100
AcDbVertex
100
AcDb2dVertex
 10
-8.980674147612603
 20
54.82636451721191
 30
0.0
  0
VERTEX
  5
2C5
330
26F
100
AcDbEntity
  8
GEB-VERDECKT
 48
25.0
100
AcDbVertex
100
AcDb2dVertex
 10
-9.428353309638055
 20
54.93584632873535
 30
0.0
  0
VERTEX
  5
2C6
330
26F
100
AcDbEntity
  8
GEB-VERDECKT
 48
25.0
100
AcDbVertex
100
AcDb2dVertex
 10
-9.876552820212395
 20
55.05199909210205
 30
0.0
  0
VERTEX
  5
2C7
330
26F
100
AcDbEntity
  8
GEB-VERDECKT
 48
25.0
100
AcDbVertex
100
AcDb2dVertex
 10
-10.32368659973792
 20
55.17462253570556
 30
0.0
  0
VERTEX
  5
2C8
330
26F
100
AcDbEntity
  8
GEB-VERDECKT
 48
25.0
100
AcDbVertex
100
AcDb2dVertex
 10
-10.76816558838538
 20
55.30349731445312
 30
0.0
  0
VERTEX
  5
2C9
330
26F
100
AcDbEntity
  8
GEB-VERDECKT
 48
25.0
100
AcDbVertex
100
AcDb2dVertex
 10
-11.2084054946963
 20
55.43841361999511
 30
0.0
  0
VERTEX
  5
2CA
330
26F
100
AcDbEntity
  8
GEB-VERDECKT
 48
25.0
100
AcDbVertex
100
AcDb2dVertex
 10
-11.6428184509341
 20
55.57916164398193
 30
0.0
  0
VERTEX
  5
2CB
330
26F
100
AcDbEntity
  8
GEB-VERDECKT
 48
25.0
100
AcDbVertex
100
AcDb2dVertex
 10
-12.0699000358644
 20
55.72546958923339
 30
0.0
  0
VERTEX
  5
2CC
330
26F
100
AcDbEntity
  8
GEB-VERDECKT
 48
25.0
100
AcDbVertex
100
AcDb2dVertex
 10
-12.48853921890884
 20
55.87677478790283
 30
0.0
  0
VERTEX
  5
2CD
330
26F
100
AcDbEntity
  8
GEB-VERDECKT
 48
25.0
100
AcDbVertex
100
AcDb2dVertex
 10
-12.89774179459232
 20
56.03241443634033
 30
0.0
  0
VERTEX
  5
2CE
330
26F
100
AcDbEntity
  8
GEB-VERDECKT
 48
25.0
100
AcDbVertex
100
AcDb2dVertex
 10
-13.29650878906852
 20
56.19174003601074
 30
0.0
  0
VERTEX
  5
2CF
330
26F
100
AcDbEntity
  8
GEB-VERDECKT
 48
25.0
100
AcDbVertex
100
AcDb2dVertex
 10
-13.68384718895561
 20
56.35409832000732
 30
0.0
  0
VERTEX
  5
2D0
330
26F
100
AcDbEntity
  8
GEB-VERDECKT
 48
25.0
100
AcDbVertex
100
AcDb2dVertex
 10
-14.0587580204068
 20
56.51884078979492
 30
0.0
  0
VERTEX
  5
2D1
330
26F
100
AcDbEntity
  8
GEB-VERDECKT
 48
25.0
100
AcDbVertex
100
AcDb2dVertex
 10
-14.4202458858548
 20
56.68530941009521
 30
0.0
  0
VERTEX
  5
2D2
330
26F
100
AcDbEntity
  8
GEB-VERDECKT
 48
25.0
100
AcDbVertex
100
AcDb2dVertex
 10
-14.76731538773151
 20
56.85285568237304
 30
0.0
  0
VERTEX
  5
2D3
330
26F
100
AcDbEntity
  8
GEB-VERDECKT
 48
25.0
100
AcDbVertex
100
AcDb2dVertex
 10
-15.10331630707344
 20
57.02301979064941
 30
0.0
  0
VERTEX
  5
2D4
330
26F
100
AcDbEntity
  8
GEB-VERDECKT
 48
25.0
100
AcDbVertex
100
AcDb2dVertex
 10
-15.43735384941658
 20
57.20041275024414
 30
0.0
  0
VERTEX
  5
2D5
330
26F
100
AcDbEntity
  8
GEB-VERDECKT
 48
25.0
100
AcDbVertex
100
AcDb2dVertex
 10
-15.76855659485397
 20
57.38475799560546
 30
0.0
  0
VERTEX
  5
2D6
330
26F
100
AcDbEntity
  8
GEB-VERDECKT
 48
25.0
100
AcDbVertex
100
AcDb2dVertex
 10
-16.09562158585118
 20
57.5755500793457
 30
0.0
  0
VERTEX
  5
2D7
330
26F
100
AcDbEntity
  8
GEB-VERDECKT
 48
25.0
100
AcDbVertex
100
AcDb2dVertex
 10
-16.4172434806876
 20
57.77229309082031
 30
0.0
  0
VERTEX
  5
2D8
330
26F
100
AcDbEntity
  8
GEB-VERDECKT
 48
25.0
100
AcDbVertex
100
AcDb2dVertex
 10
-16.73211932182823
 20
57.97449588775634
 30
0.0
  0
VERTEX
  5
2D9
330
26F
100
AcDbEntity
  8
GEB-VERDECKT
 48
25.0
100
AcDbVertex
100
AcDb2dVertex
 10
-17.03894257545971
 20
58.18165302276611
 30
0.0
  0
VERTEX
  5
2DA
330
26F
100
AcDbEntity
  8
GEB-VERDECKT
 48
25.0
100
AcDbVertex
100
AcDb2dVertex
 10
-17.33641028404725
 20
58.39326858520507
 30
0.0
  0
VERTEX
  5
2DB
330
26F
100
AcDbEntity
  8
GEB-VERDECKT
 48
25.0
100
AcDbVertex
100
AcDb2dVertex
 10
-17.62324571609986
 20
58.60883235931396
 30
0.0
  0
VERTEX
  5
2DC
330
26F
100
AcDbEntity
  8
GEB-VERDECKT
 48
25.0
100
AcDbVertex
100
AcDb2dVertex
 10
-17.89863348007668
 20
58.82768630981445
 30
0.0
  0
VERTEX
  5
2DD
330
26F
100
AcDbEntity
  8
GEB-VERDECKT
 48
25.0
100
AcDbVertex
100
AcDb2dVertex
 10
-18.16214084625699
 20
59.04903888702381
 30
0.0
  0
VERTEX
  5
2DE
330
26F
100
AcDbEntity
  8
GEB-VERDECKT
 48
25.0
100
AcDbVertex
100
AcDb2dVertex
 10
-18.41334819794144
 20
59.27209854125965
 30
0.0
  0
VERTEX
  5
2DF
330
26F
100
AcDbEntity
  8
GEB-VERDECKT
 48
25.0
100
AcDbVertex
100
AcDb2dVertex
 10
-18.65183472633782
 20
59.49606895446766
 30
0.0
  0
VERTEX
  5
2E0
330
26F
100
AcDbEntity
  8
GEB-VERDECKT
 48
25.0
100
AcDbVertex
100
AcDb2dVertex
 10
-18.87717843056146
 20
59.72015857696522
 30
0.0
  0
VERTEX
  5
2E1
330
26F
100
AcDbEntity
  8
GEB-VERDECKT
 48
25.0
100
AcDbVertex
100
AcDb2dVertex
 10
-19.08895850181989
 20
59.94357109069813
 30
0.0
  0
VERTEX
  5
2E2
330
26F
100
AcDbEntity
  8
GEB-VERDECKT
 48
25.0
100
AcDbVertex
100
AcDb2dVertex
 10
-19.28675532341401
 20
60.16551971435536
 30
0.0
  0
VERTEX
  5
2E3
330
26F
100
AcDbEntity
  8
GEB-VERDECKT
 48
25.0
100
AcDbVertex
100
AcDb2dVertex
 10
-19.47075009346395
 20
60.38594245910633
 30
0.0
  0
VERTEX
  5
2E4
330
26F
100
AcDbEntity
  8
GEB-VERDECKT
 48
25.0
100
AcDbVertex
100
AcDb2dVertex
 10
-19.64638352394479
 20
60.61135292053211
 30
0.0
  0
VERTEX
  5
2E5
330
26F
100
AcDbEntity
  8
GEB-VERDECKT
 48
25.0
100
AcDbVertex
100
AcDb2dVertex
 10
-19.81439232826608
 20
60.84290981292713
 30
0.0
  0
VERTEX
  5
2E6
330
26F
100
AcDbEntity
  8
GEB-VERDECKT
 48
25.0
100
AcDbVertex
100
AcDb2dVertex
 10
-19.97395038605089
 20
61.07990264892567
 30
0.0
  0
VERTEX
  5
2E7
330
26F
100
AcDbEntity
  8
GEB-VERDECKT
 48
25.0
100
AcDbVertex
100
AcDb2dVertex
 10
-20.12423515320165
 20
61.321620941162
 30
0.0
  0
VERTEX
  5
2E8
330
26F
100
AcDbEntity
  8
GEB-VERDECKT
 48
25.0
100
AcDbVertex
100
AcDb2dVertex
 10
-20.26442289352747
 20
61.56734943389881
 30
0.0
  0
VERTEX
  5
2E9
330
26F
100
AcDbEntity
  8
GEB-VERDECKT
 48
25.0
100
AcDbVertex
100
AcDb2dVertex
 10
-20.39368629455873
 20
61.81638240814198
 30
0.0
  0
VERTEX
  5
2EA
330
26F
100
AcDbEntity
  8
GEB-VERDECKT
 48
25.0
100
AcDbVertex
100
AcDb2dVertex
 10
-20.51120519638357
 20
62.06801414489735
 30
0.0
  0
VERTEX
  5
2EB
330
26F
100
AcDbEntity
  8
GEB-VERDECKT
 48
25.0
100
AcDbVertex
100
AcDb2dVertex
 10
-20.61615467071817
 20
62.32152938842762
 30
0.0
  0
VERTEX
  5
2EC
330
26F
100
AcDbEntity
  8
GEB-VERDECKT
 48
25.0
100
AcDbVertex
100
AcDb2dVertex
 10
-20.70800542831694
 20
62.57618904113758
 30
0.0
  0
VERTEX
  5
2ED
330
26F
100
AcDbEntity
  8
GEB-VERDECKT
 48
25.0
100
AcDbVertex
100
AcDb2dVertex
 10
-20.78688383102679
 20
62.83119201660145
 30
0.0
  0
VERTEX
  5
2EE
330
26F
100
AcDbEntity
  8
GEB-VERDECKT
 48
25.0
100
AcDbVertex
100
AcDb2dVertex
 10
-20.85301160812639
 20
63.0857229232787
 30
0.0
  0
VERTEX
  5
2EF
330
26F
100
AcDbEntity
  8
GEB-VERDECKT
 48
25.0
100
AcDbVertex
100
AcDb2dVertex
 10
-20.90660572052241
 20
63.33896636962879
 30
0.0
  0
VERTEX
  5
2F0
330
26F
100
AcDbEntity
  8
GEB-VERDECKT
 48
25.0
100
AcDbVertex
100
AcDb2dVertex
 10
-20.94788312912215
 20
63.5901117324828
 30
0.0
  0
VERTEX
  5
2F1
330
26F
100
AcDbEntity
  8
GEB-VERDECKT
 48
25.0
100
AcDbVertex
100
AcDb2dVertex
 10
-20.97706317901828
 20
63.83834362030018
 30
0.0
  0
VERTEX
  5
2F2
330
26F
100
AcDbEntity
  8
GEB-VERDECKT
 48
25.0
100
AcDbVertex
100
AcDb2dVertex
 10
-20.99436283111765
 20
64.08284664154042
 30
0.0
  0
VERTEX
  5
2F3
330
26F
100
AcDbEntity
  8
GEB-VERDECKT
 48
25.0
100
AcDbVertex
100
AcDb2dVertex
 10
-20.9999990463275
 20
64.32281494140614
 30
0.0
  0
SEQEND
  5
2F4
330
26F
100
AcDbEntity
  8
GEB-VERDECKT
 48
25.0
  0
LINE
  5
2F5
330
2
100
AcDbEntity
  8
GEB-VERDECKT
 48
25.0
100
AcDbLine
 10
20.99999999999807
 20
64.32531754730553
 30
0.0
 11
20.99999999999795
 21
65.19134295108983
 31
0.0
  0
LINE
  5
2F6
330
2
100
AcDbEntity
  8
GEB-VERDECKT
 48
25.0
100
AcDbLine
 10
-21.00000000000182
 20
64.32531754730553
 30
0.0
 11
-21.00000000000193
 21
65.19134295108983
 31
0.0
  0
LINE
  5
2F7
330
2
100
AcDbEntity
  8
GEB-VERDECKT
 48
25.0
100
AcDbLine
 10
19.99999999999818
 20
64.32531754730553
 30
0.0
 11
19.99999999999807
 21
65.19134295108983
 31
0.0
  0
LINE
  5
2F8
330
2
100
AcDbEntity
  8
GEB-VERDECKT
 48
25.0
100
AcDbLine
 10
-20.00000000000182
 20
64.32531754730553
 30
0.0
 11
-20.00000000000193
 21
65.19134295108983
 31
0.0
  0
POLYLINE
  5
2F9
330
2
100
AcDbEntity
  8
GEB-VERDECKT
 48
25.0
100
AcDb2dPolyline
 66
     1
 10
0.0
 20
0.0
 30
0.0
 70
   128
  0
VERTEX
  5
2FA
330
2F9
100
AcDbEntity
  8
GEB-VERDECKT
 48
25.0
100
AcDbVertex
100
AcDb2dVertex
 10
-19.99999880790892
 20
64.32281494140614
 30
0.0
  0
VERTEX
  5
2FB
330
2F9
100
AcDbEntity
  8
GEB-VERDECKT
 48
25.0
100
AcDbVertex
100
AcDb2dVertex
 10
-19.99410033226206
 20
64.08318996429432
 30
0.0
  0
VERTEX
  5
2FC
330
2F9
100
AcDbEntity
  8
GEB-VERDECKT
 48
25.0
100
AcDbVertex
100
AcDb2dVertex
 10
-19.97599363327242
 20
63.83886337280262
 30
0.0
  0
VERTEX
  5
2FD
330
2F9
100
AcDbEntity
  8
GEB-VERDECKT
 48
25.0
100
AcDbVertex
100
AcDb2dVertex
 10
-19.94543671608198
 20
63.59071254730213
 30
0.0
  0
VERTEX
  5
2FE
330
2F9
100
AcDbEntity
  8
GEB-VERDECKT
 48
25.0
100
AcDbVertex
100
AcDb2dVertex
 10
-19.90219354629755
 20
63.33964347839344
 30
0.0
  0
VERTEX
  5
2FF
330
2F9
100
AcDbEntity
  8
GEB-VERDECKT
 48
25.0
100
AcDbVertex
100
AcDb2dVertex
 10
-19.84602332115435
 20
63.08653831481922
 30
0.0
  0
VERTEX
  5
300
330
2F9
100
AcDbEntity
  8
GEB-VERDECKT
 48
25.0
100
AcDbVertex
100
AcDb2dVertex
 10
-19.77668762207293
 20
62.8322935104369
 30
0.0
  0
VERTEX
  5
301
330
2F9
100
AcDbEntity
  8
GEB-VERDECKT
 48
25.0
100
AcDbVertex
100
AcDb2dVertex
 10
-19.69394803047453
 20
62.57779598236073
 30
0.0
  0
VERTEX
  5
302
330
2F9
100
AcDbEntity
  8
GEB-VERDECKT
 48
25.0
100
AcDbVertex
100
AcDb2dVertex
 10
-19.59756493568704
 20
62.32394695281971
 30
0.0
  0
VERTEX
  5
303
330
2F9
100
AcDbEntity
  8
GEB-VERDECKT
 48
25.0
100
AcDbVertex
100
AcDb2dVertex
 10
-19.48760747909841
 20
62.07159519195545
 30
0.0
  0
VERTEX
  5
304
330
2F9
100
AcDbEntity
  8
GEB-VERDECKT
 48
25.0
100
AcDbVertex
100
AcDb2dVertex
 10
-19.36487317085573
 20
61.82154178619374
 30
0.0
  0
VERTEX
  5
305
330
2F9
100
AcDbEntity
  8
GEB-VERDECKT
 48
25.0
100
AcDbVertex
100
AcDb2dVertex
 10
-19.23026442528101
 20
61.57455444335926
 30
0.0
  0
VERTEX
  5
306
330
2F9
100
AcDbEntity
  8
GEB-VERDECKT
 48
25.0
100
AcDbVertex
100
AcDb2dVertex
 10
-19.0846872329746
 20
61.33141517639149
 30
0.0
  0
VERTEX
  5
307
330
2F9
100
AcDbEntity
  8
GEB-VERDECKT
 48
25.0
100
AcDbVertex
100
AcDb2dVertex
 10
-18.92904281616563
 20
61.09290599822987
 30
0.0
  0
VERTEX
  5
308
330
2F9
100
AcDbEntity
  8
GEB-VERDECKT
 48
25.0
100
AcDbVertex
100
AcDb2dVertex
 10
-18.76423478126901
 20
60.85979938507069
 30
0.0
  0
VERTEX
  5
309
330
2F9
100
AcDbEntity
  8
GEB-VERDECKT
 48
25.0
100
AcDbVertex
100
AcDb2dVertex
 10
-18.59116792679208
 20
60.63287258148182
 30
0.0
  0
VERTEX
  5
30A
330
2F9
100
AcDbEntity
  8
GEB-VERDECKT
 48
25.0
100
AcDbVertex
100
AcDb2dVertex
 10
-18.41017246246724
 20
60.41222572326649
 30
0.0
  0
VERTEX
  5
30B
330
2F9
100
AcDbEntity
  8
GEB-VERDECKT
 48
25.0
100
AcDbVertex
100
AcDb2dVertex
 10
-18.21571469307343
 20
60.19110679626454
 30
0.0
  0
VERTEX
  5
30C
330
2F9
100
AcDbEntity
  8
GEB-VERDECKT
 48
25.0
100
AcDbVertex
100
AcDb2dVertex
 10
-18.00654768944196
 20
59.96830463409413
 30
0.0
  0
VERTEX
  5
30D
330
2F9
100
AcDbEntity
  8
GEB-VERDECKT
 48
25.0
100
AcDbVertex
100
AcDb2dVertex
 10
-17.78313398361627
 20
59.74467754364003
 30
0.0
  0
VERTEX
  5
30E
330
2F9
100
AcDbEntity
  8
GEB-VERDECKT
 48
25.0
100
AcDbVertex
100
AcDb2dVertex
 10
-17.54593372345391
 20
59.52110767364491
 30
0.0
  0
VERTEX
  5
30F
330
2F9
100
AcDbEntity
  8
GEB-VERDECKT
 48
25.0
100
AcDbVertex
100
AcDb2dVertex
 10
-17.2954082489058
 20
59.29845333099354
 30
0.0
  0
VERTEX
  5
310
330
2F9
100
AcDbEntity
  8
GEB-VERDECKT
 48
25.0
100
AcDbVertex
100
AcDb2dVertex
 10
-17.03202009201504
 20
59.07759189605702
 30
0.0
  0
VERTEX
  5
311
330
2F9
100
AcDbEntity
  8
GEB-VERDECKT
 48
25.0
100
AcDbVertex
100
AcDb2dVertex
 10
-16.75622940063943
 20
58.85939121246337
 30
0.0
  0
VERTEX
  5
312
330
2F9
100
AcDbEntity
  8
GEB-VERDECKT
 48
25.0
100
AcDbVertex
100
AcDb2dVertex
 10
-16.46852612495911
 20
58.64470958709716
 30
0.0
  0
VERTEX
  5
313
330
2F9
100
AcDbEntity
  8
GEB-VERDECKT
 48
25.0
100
AcDbVertex
100
AcDb2dVertex
 10
-16.16989254951966
 20
58.43424797058105
 30
0.0
  0
VERTEX
  5
314
330
2F9
100
AcDbEntity
  8
GEB-VERDECKT
 48
25.0
100
AcDbVertex
100
AcDb2dVertex
 10
-15.86174488068127
 20
58.22854995727539
 30
0.0
  0
VERTEX
  5
315
330
2F9
100
AcDbEntity
  8
GEB-VERDECKT
 48
25.0
100
AcDbVertex
100
AcDb2dVertex
 10
-15.54551362991844
 20
58.02816867828369
 30
0.0
  0
VERTEX
  5
316
330
2F9
100
AcDbEntity
  8
GEB-VERDECKT
 48
25.0
100
AcDbVertex
100
AcDb2dVertex
 10
-15.22262811661289
 20
57.83364295959472
 30
0.0
  0
VERTEX
  5
317
330
2F9
100
AcDbEntity
  8
GEB-VERDECKT
 48
25.0
100
AcDbVertex
100
AcDb2dVertex
 10
-14.89451766014622
 20
57.64552593231201
 30
0.0
  0
VERTEX
  5
318
330
2F9
100
AcDbEntity
  8
GEB-VERDECKT
 48
25.0
100
AcDbVertex
100
AcDb2dVertex
 10
-14.56261396408615
 20
57.46436119079589
 30
0.0
  0
VERTEX
  5
319
330
2F9
100
AcDbEntity
  8
GEB-VERDECKT
 48
25.0
100
AcDbVertex
100
AcDb2dVertex
 10
-14.22834515572128
 20
57.29069232940673
 30
0.0
  0
VERTEX
  5
31A
330
2F9
100
AcDbEntity
  8
GEB-VERDECKT
 48
25.0
100
AcDbVertex
100
AcDb2dVertex
 10
-13.88879060745796
 20
57.12291240692138
 30
0.0
  0
VERTEX
  5
31B
330
2F9
100
AcDbEntity
  8
GEB-VERDECKT
 48
25.0
100
AcDbVertex
100
AcDb2dVertex
 10
-13.53420376778217
 20
56.95621013641357
 30
0.0
  0
VERTEX
  5
31C
330
2F9
100
AcDbEntity
  8
GEB-VERDECKT
 48
25.0
100
AcDbVertex
100
AcDb2dVertex
 10
-13.16514253616901
 20
56.79103374481201
 30
0.0
  0
VERTEX
  5
31D
330
2F9
100
AcDbEntity
  8
GEB-VERDECKT
 48
25.0
100
AcDbVertex
100
AcDb2dVertex
 10
-12.782698869711
 20
56.62809371948242
 30
0.0
  0
VERTEX
  5
31E
330
2F9
100
AcDbEntity
  8
GEB-VERDECKT
 48
25.0
100
AcDbVertex
100
AcDb2dVertex
 10
-12.38796591759308
 20
56.46811008453369
 30
0.0
  0
VERTEX
  5
31F
330
2F9
100
AcDbEntity
  8
GEB-VERDECKT
 48
25.0
100
AcDbVertex
100
AcDb2dVertex
 10
-11.98203444481498
 20
56.31179809570312
 30
0.0
  0
VERTEX
  5
320
330
2F9
100
AcDbEntity
  8
GEB-VERDECKT
 48
25.0
100
AcDbVertex
100
AcDb2dVertex
 10
-11.56599760056156
 20
56.15986824035644
 30
0.0
  0
VERTEX
  5
321
330
2F9
100
AcDbEntity
  8
GEB-VERDECKT
 48
25.0
100
AcDbVertex
100
AcDb2dVertex
 10
-11.14094734192508
 20
56.01304054260253
 30
0.0
  0
VERTEX
  5
322
330
2F9
100
AcDbEntity
  8
GEB-VERDECKT
 48
25.0
100
AcDbVertex
100
AcDb2dVertex
 10
-10.70806145668655
 20
55.87196826934814
 30
0.0
  0
VERTEX
  5
323
330
2F9
100
AcDbEntity
  8
GEB-VERDECKT
 48
25.0
100
AcDbVertex
100
AcDb2dVertex
 10
-10.26894688606887
 20
55.73698043823242
 30
0.0
  0
VERTEX
  5
324
330
2F9
100
AcDbEntity
  8
GEB-VERDECKT
 48
25.0
100
AcDbVertex
100
AcDb2dVertex
 10
-9.825343489653278
 20
55.60830116271972
 30
0.0
  0
VERTEX
  5
325
330
2F9
100
AcDbEntity
  8
GEB-VERDECKT
 48
25.0
100
AcDbVertex
100
AcDb2dVertex
 10
-9.378991723066974
 20
55.48617362976074
 30
0.0
  0
VERTEX
  5
326
330
2F9
100
AcDbEntity
  8
GEB-VERDECKT
 48
25.0
100
AcDbVertex
100
AcDb2dVertex
 10
-8.931630849844623
 20
55.37081718444824
 30
0.0
  0
VERTEX
  5
327
330
2F9
100
AcDbEntity
  8
GEB-VERDECKT
 48
25.0
100
AcDbVertex
100
AcDb2dVertex
 10
-8.485001325613779
 20
55.26247024536132
 30
0.0
  0
VERTEX
  5
328
330
2F9
100
AcDbEntity
  8
GEB-VERDECKT
 48
25.0
100
AcDbVertex
100
AcDb2dVertex
 10
-8.040841221815867
 20
55.16136646270751
 30
0.0
  0
VERTEX
  5
329
330
2F9
100
AcDbEntity
  8
GEB-VERDECKT
 48
25.0
100
AcDbVertex
100
AcDb2dVertex
 10
-7.600748538977654
 20
55.06769657135009
 30
0.0
  0
VERTEX
  5
32A
330
2F9
100
AcDbEntity
  8
GEB-VERDECKT
 48
25.0
100
AcDbVertex
100
AcDb2dVertex
 10
-7.15393781662658
 20
54.9791669845581
 30
0.0
  0
VERTEX
  5
32B
330
2F9
100
AcDbEntity
  8
GEB-VERDECKT
 48
25.0
100
AcDbVertex
100
AcDb2dVertex
 10
-6.693948507315667
 20
54.89453792572021
 30
0.0
  0
VERTEX
  5
32C
330
2F9
100
AcDbEntity
  8
GEB-VERDECKT
 48
25.0
100
AcDbVertex
100
AcDb2dVertex
 10
-6.222338676459344
 20
54.81425762176513
 30
0.0
  0
VERTEX
  5
32D
330
2F9
100
AcDbEntity
  8
GEB-VERDECKT
 48
25.0
100
AcDbVertex
100
AcDb2dVertex
 10
-5.740666389472153
 20
54.73877906799316
 30
0.0
  0
VERTEX
  5
32E
330
2F9
100
AcDbEntity
  8
GEB-VERDECKT
 48
25.0
100
AcDbVertex
100
AcDb2dVertex
 10
-5.250487923628952
 20
54.66856002807617
 30
0.0
  0
VERTEX
  5
32F
330
2F9
100
AcDbEntity
  8
GEB-VERDECKT
 48
25.0
100
AcDbVertex
100
AcDb2dVertex
 10
-4.753361642367508
 20
54.60404872894287
 30
0.0
  0
VERTEX
  5
330
330
2F9
100
AcDbEntity
  8
GEB-VERDECKT
 48
25.0
100
AcDbVertex
100
AcDb2dVertex
 10
-4.250845313079025
 20
54.54569816589355
 30
0.0
  0
VERTEX
  5
331
330
2F9
100
AcDbEntity
  8
GEB-VERDECKT
 48
25.0
100
AcDbVertex
100
AcDb2dVertex
 10
-3.74449729920127
 20
54.49395656585693
 30
0.0
  0
VERTEX
  5
332
330
2F9
100
AcDbEntity
  8
GEB-VERDECKT
 48
25.0
100
AcDbVertex
100
AcDb2dVertex
 10
-3.235956728465339
 20
54.44907665252685
 30
0.0
  0
VERTEX
  5
333
330
2F9
100
AcDbEntity
  8
GEB-VERDECKT
 48
25.0
100
AcDbVertex
100
AcDb2dVertex
 10
-2.726996839053413
 20
54.41096305847167
 30
0.0
  0
VERTEX
  5
334
330
2F9
100
AcDbEntity
  8
GEB-VERDECKT
 48
25.0
100
AcDbVertex
100
AcDb2dVertex
 10
-2.219402939088126
 20
54.37950134277343
 30
0.0
  0
VERTEX
  5
335
330
2F9
100
AcDbEntity
  8
GEB-VERDECKT
 48
25.0
100
AcDbVertex
100
AcDb2dVertex
 10
-1.714960038668891
 20
54.35457229614257
 30
0.0
  0
VERTEX
  5
336
330
2F9
100
AcDbEntity
  8
GEB-VERDECKT
 48
25.0
100
AcDbVertex
100
AcDb2dVertex
 10
-1.215453445918342
 20
54.33605194091796
 30
0.0
  0
VERTEX
  5
337
330
2F9
100
AcDbEntity
  8
GEB-VERDECKT
 48
25.0
100
AcDbVertex
100
AcDb2dVertex
 10
-0.7226686179707258
 20
54.32382583618164
 30
0.0
  0
VERTEX
  5
338
330
2F9
100
AcDbEntity
  8
GEB-VERDECKT
 48
25.0
100
AcDbVertex
100
AcDb2dVertex
 10
-0.2383908443222253
 20
54.31776523590087
 30
0.0
  0
VERTEX
  5
339
330
2F9
100
AcDbEntity
  8
GEB-VERDECKT
 48
25.0
100
AcDbVertex
100
AcDb2dVertex
 10
0.2383908443083555
 20
54.31776523590087
 30
0.0
  0
VERTEX
  5
33A
330
2F9
100
AcDbEntity
  8
GEB-VERDECKT
 48
25.0
100
AcDbVertex
100
AcDb2dVertex
 10
0.722668617956856
 20
54.32382583618164
 30
0.0
  0
VERTEX
  5
33B
330
2F9
100
AcDbEntity
  8
GEB-VERDECKT
 48
25.0
100
AcDbVertex
100
AcDb2dVertex
 10
1.215453445904472
 20
54.33605194091796
 30
0.0
  0
VERTEX
  5
33C
330
2F9
100
AcDbEntity
  8
GEB-VERDECKT
 48
25.0
100
AcDbVertex
100
AcDb2dVertex
 10
1.714960038655021
 20
54.35457229614257
 30
0.0
  0
VERTEX
  5
33D
330
2F9
100
AcDbEntity
  8
GEB-VERDECKT
 48
25.0
100
AcDbVertex
100
AcDb2dVertex
 10
2.219402939074257
 20
54.37950134277343
 30
0.0
  0
VERTEX
  5
33E
330
2F9
100
AcDbEntity
  8
GEB-VERDECKT
 48
25.0
100
AcDbVertex
100
AcDb2dVertex
 10
2.726996839039543
 20
54.41096305847167
 30
0.0
  0
VERTEX
  5
33F
330
2F9
100
AcDbEntity
  8
GEB-VERDECKT
 48
25.0
100
AcDbVertex
100
AcDb2dVertex
 10
3.235956728451469
 20
54.44907665252685
 30
0.0
  0
VERTEX
  5
340
330
2F9
100
AcDbEntity
  8
GEB-VERDECKT
 48
25.0
100
AcDbVertex
100
AcDb2dVertex
 10
3.744497299187401
 20
54.49395656585693
 30
0.0
  0
VERTEX
  5
341
330
2F9
100
AcDbEntity
  8
GEB-VERDECKT
 48
25.0
100
AcDbVertex
100
AcDb2dVertex
 10
4.250845313065383
 20
54.54569816589355
 30
0.0
  0
VERTEX
  5
342
330
2F9
100
AcDbEntity
  8
GEB-VERDECKT
 48
25.0
100
AcDbVertex
100
AcDb2dVertex
 10
4.753361642353866
 20
54.60404872894287
 30
0.0
  0
VERTEX
  5
343
330
2F9
100
AcDbEntity
  8
GEB-VERDECKT
 48
25.0
100
AcDbVertex
100
AcDb2dVertex
 10
5.25048792361531
 20
54.66856002807617
 30
0.0
  0
VERTEX
  5
344
330
2F9
100
AcDbEntity
  8
GEB-VERDECKT
 48
25.0
100
AcDbVertex
100
AcDb2dVertex
 10
5.74066638945851
 20
54.73877906799316
 30
0.0
  0
VERTEX
  5
345
330
2F9
100
AcDbEntity
  8
GEB-VERDECKT
 48
25.0
100
AcDbVertex
100
AcDb2dVertex
 10
6.222338676445929
 20
54.81425762176513
 30
0.0
  0
VERTEX
  5
346
330
2F9
100
AcDbEntity
  8
GEB-VERDECKT
 48
25.0
100
AcDbVertex
100
AcDb2dVertex
 10
6.693948507302252
 20
54.89453792572021
 30
0.0
  0
VERTEX
  5
347
330
2F9
100
AcDbEntity
  8
GEB-VERDECKT
 48
25.0
100
AcDbVertex
100
AcDb2dVertex
 10
7.153937816613165
 20
54.9791669845581
 30
0.0
  0
VERTEX
  5
348
330
2F9
100
AcDbEntity
  8
GEB-VERDECKT
 48
25.0
100
AcDbVertex
100
AcDb2dVertex
 10
7.600748538964239
 20
55.06769657135009
 30
0.0
  0
VERTEX
  5
349
330
2F9
100
AcDbEntity
  8
GEB-VERDECKT
 48
25.0
100
AcDbVertex
100
AcDb2dVertex
 10
8.040841221802907
 20
55.16136646270751
 30
0.0
  0
VERTEX
  5
34A
330
2F9
100
AcDbEntity
  8
GEB-VERDECKT
 48
25.0
100
AcDbVertex
100
AcDb2dVertex
 10
8.485001325600819
 20
55.26247024536132
 30
0.0
  0
VERTEX
  5
34B
330
2F9
100
AcDbEntity
  8
GEB-VERDECKT
 48
25.0
100
AcDbVertex
100
AcDb2dVertex
 10
8.93163084983189
 20
55.37081718444824
 30
0.0
  0
VERTEX
  5
34C
330
2F9
100
AcDbEntity
  8
GEB-VERDECKT
 48
25.0
100
AcDbVertex
100
AcDb2dVertex
 10
9.378991723054241
 20
55.48617362976074
 30
0.0
  0
VERTEX
  5
34D
330
2F9
100
AcDbEntity
  8
GEB-VERDECKT
 48
25.0
100
AcDbVertex
100
AcDb2dVertex
 10
9.825343489640545
 20
55.60830116271972
 30
0.0
  0
VERTEX
  5
34E
330
2F9
100
AcDbEntity
  8
GEB-VERDECKT
 48
25.0
100
AcDbVertex
100
AcDb2dVertex
 10
10.26894688605637
 20
55.73698043823242
 30
0.0
  0
VERTEX
  5
34F
330
2F9
100
AcDbEntity
  8
GEB-VERDECKT
 48
25.0
100
AcDbVertex
100
AcDb2dVertex
 10
10.70806145667404
 20
55.87196826934814
 30
0.0
  0
VERTEX
  5
350
330
2F9
100
AcDbEntity
  8
GEB-VERDECKT
 48
25.0
100
AcDbVertex
100
AcDb2dVertex
 10
11.1409473419128
 20
56.01304054260253
 30
0.0
  0
VERTEX
  5
351
330
2F9
100
AcDbEntity
  8
GEB-VERDECKT
 48
25.0
100
AcDbVertex
100
AcDb2dVertex
 10
11.56599760054928
 20
56.15986824035644
 30
0.0
  0
VERTEX
  5
352
330
2F9
100
AcDbEntity
  8
GEB-VERDECKT
 48
25.0
100
AcDbVertex
100
AcDb2dVertex
 10
11.98203444480293
 20
56.31179809570312
 30
0.0
  0
VERTEX
  5
353
330
2F9
100
AcDbEntity
  8
GEB-VERDECKT
 48
25.0
100
AcDbVertex
100
AcDb2dVertex
 10
12.38796591758148
 20
56.46811008453369
 30
0.0
  0
VERTEX
  5
354
330
2F9
100
AcDbEntity
  8
GEB-VERDECKT
 48
25.0
100
AcDbVertex
100
AcDb2dVertex
 10
12.7826988696994
 20
56.62809371948242
 30
0.0
  0
VERTEX
  5
355
330
2F9
100
AcDbEntity
  8
GEB-VERDECKT
 48
25.0
100
AcDbVertex
100
AcDb2dVertex
 10
13.16514253615764
 20
56.79103374481201
 30
0.0
  0
VERTEX
  5
356
330
2F9
100
AcDbEntity
  8
GEB-VERDECKT
 48
25.0
100
AcDbVertex
100
AcDb2dVertex
 10
13.5342037677708
 20
56.95621013641357
 30
0.0
  0
VERTEX
  5
357
330
2F9
100
AcDbEntity
  8
GEB-VERDECKT
 48
25.0
100
AcDbVertex
100
AcDb2dVertex
 10
13.88879060744682
 20
57.12291240692138
 30
0.0
  0
VERTEX
  5
358
330
2F9
100
AcDbEntity
  8
GEB-VERDECKT
 48
25.0
100
AcDbVertex
100
AcDb2dVertex
 10
14.2283451557106
 20
57.29069232940673
 30
0.0
  0
VERTEX
  5
359
330
2F9
100
AcDbEntity
  8
GEB-VERDECKT
 48
25.0
100
AcDbVertex
100
AcDb2dVertex
 10
14.56261396407547
 20
57.46436119079589
 30
0.0
  0
VERTEX
  5
35A
330
2F9
100
AcDbEntity
  8
GEB-VERDECKT
 48
25.0
100
AcDbVertex
100
AcDb2dVertex
 10
14.89451766013576
 20
57.64552593231201
 30
0.0
  0
VERTEX
  5
35B
330
2F9
100
AcDbEntity
  8
GEB-VERDECKT
 48
25.0
100
AcDbVertex
100
AcDb2dVertex
 10
15.22262811660243
 20
57.83364295959472
 30
0.0
  0
VERTEX
  5
35C
330
2F9
100
AcDbEntity
  8
GEB-VERDECKT
 48
25.0
100
AcDbVertex
100
AcDb2dVertex
 10
15.54551362990821
 20
58.02816867828369
 30
0.0
  0
VERTEX
  5
35D
330
2F9
100
AcDbEntity
  8
GEB-VERDECKT
 48
25.0
100
AcDbVertex
100
AcDb2dVertex
 10
15.86174488067127
 20
58.22854995727539
 30
0.0
  0
VERTEX
  5
35E
330
2F9
100
AcDbEntity
  8
GEB-VERDECKT
 48
25.0
100
AcDbVertex
100
AcDb2dVertex
 10
16.16989254950988
 20
58.43424797058105
 30
0.0
  0
VERTEX
  5
35F
330
2F9
100
AcDbEntity
  8
GEB-VERDECKT
 48
25.0
100
AcDbVertex
100
AcDb2dVertex
 10
16.46852612494933
 20
58.64470958709716
 30
0.0
  0
VERTEX
  5
360
330
2F9
100
AcDbEntity
  8
GEB-VERDECKT
 48
25.0
100
AcDbVertex
100
AcDb2dVertex
 10
16.7562294006301
 20
58.85939121246337
 30
0.0
  0
VERTEX
  5
361
330
2F9
100
AcDbEntity
  8
GEB-VERDECKT
 48
25.0
100
AcDbVertex
100
AcDb2dVertex
 10
17.03202009200595
 20
59.07759189605702
 30
0.0
  0
VERTEX
  5
362
330
2F9
100
AcDbEntity
  8
GEB-VERDECKT
 48
25.0
100
AcDbVertex
100
AcDb2dVertex
 10
17.29540824889693
 20
59.29845333099354
 30
0.0
  0
VERTEX
  5
363
330
2F9
100
AcDbEntity
  8
GEB-VERDECKT
 48
25.0
100
AcDbVertex
100
AcDb2dVertex
 10
17.5459337234455
 20
59.52110767364491
 30
0.0
  0
VERTEX
  5
364
330
2F9
100
AcDbEntity
  8
GEB-VERDECKT
 48
25.0
100
AcDbVertex
100
AcDb2dVertex
 10
17.78313398360785
 20
59.74467754364003
 30
0.0
  0
VERTEX
  5
365
330
2F9
100
AcDbEntity
  8
GEB-VERDECKT
 48
25.0
100
AcDbVertex
100
AcDb2dVertex
 10
18.00654768943377
 20
59.96830463409413
 30
0.0
  0
VERTEX
  5
366
330
2F9
100
AcDbEntity
  8
GEB-VERDECKT
 48
25.0
100
AcDbVertex
100
AcDb2dVertex
 10
18.21571469306548
 20
60.19110679626454
 30
0.0
  0
VERTEX
  5
367
330
2F9
100
AcDbEntity
  8
GEB-VERDECKT
 48
25.0
100
AcDbVertex
100
AcDb2dVertex
 10
18.41017246245951
 20
60.41222572326649
 30
0.0
  0
VERTEX
  5
368
330
2F9
100
AcDbEntity
  8
GEB-VERDECKT
 48
25.0
100
AcDbVertex
100
AcDb2dVertex
 10
18.59116792678458
 20
60.63287258148182
 30
0.0
  0
VERTEX
  5
369
330
2F9
100
AcDbEntity
  8
GEB-VERDECKT
 48
25.0
100
AcDbVertex
100
AcDb2dVertex
 10
18.76423478126151
 20
60.85979938507069
 30
0.0
  0
VERTEX
  5
36A
330
2F9
100
AcDbEntity
  8
GEB-VERDECKT
 48
25.0
100
AcDbVertex
100
AcDb2dVertex
 10
18.92904281615858
 20
61.09290599822987
 30
0.0
  0
VERTEX
  5
36B
330
2F9
100
AcDbEntity
  8
GEB-VERDECKT
 48
25.0
100
AcDbVertex
100
AcDb2dVertex
 10
19.08468723296778
 20
61.33141517639149
 30
0.0
  0
VERTEX
  5
36C
330
2F9
100
AcDbEntity
  8
GEB-VERDECKT
 48
25.0
100
AcDbVertex
100
AcDb2dVertex
 10
19.23026442527441
 20
61.57455444335926
 30
0.0
  0
VERTEX
  5
36D
330
2F9
100
AcDbEntity
  8
GEB-VERDECKT
 48
25.0
100
AcDbVertex
100
AcDb2dVertex
 10
19.36487317084959
 20
61.82154178619374
 30
0.0
  0
VERTEX
  5
36E
330
2F9
100
AcDbEntity
  8
GEB-VERDECKT
 48
25.0
100
AcDbVertex
100
AcDb2dVertex
 10
19.4876074790925
 20
62.07159519195545
 30
0.0
  0
VERTEX
  5
36F
330
2F9
100
AcDbEntity
  8
GEB-VERDECKT
 48
25.0
100
AcDbVertex
100
AcDb2dVertex
 10
19.59756493568136
 20
62.32394695281971
 30
0.0
  0
VERTEX
  5
370
330
2F9
100
AcDbEntity
  8
GEB-VERDECKT
 48
25.0
100
AcDbVertex
100
AcDb2dVertex
 10
19.69394803046907
 20
62.57779598236073
 30
0.0
  0
VERTEX
  5
371
330
2F9
100
AcDbEntity
  8
GEB-VERDECKT
 48
25.0
100
AcDbVertex
100
AcDb2dVertex
 10
19.7766876220677
 20
62.8322935104369
 30
0.0
  0
VERTEX
  5
372
330
2F9
100
AcDbEntity
  8
GEB-VERDECKT
 48
25.0
100
AcDbVertex
100
AcDb2dVertex
 10
19.84602332114912
 20
63.08653831481922
 30
0.0
  0
VERTEX
  5
373
330
2F9
100
AcDbEntity
  8
GEB-VERDECKT
 48
25.0
100
AcDbVertex
100
AcDb2dVertex
 10
19.90219354629278
 20
63.33964347839344
 30
0.0
  0
VERTEX
  5
374
330
2F9
100
AcDbEntity
  8
GEB-VERDECKT
 48
25.0
100
AcDbVertex
100
AcDb2dVertex
 10
19.94543671607743
 20
63.59071254730213
 30
0.0
  0
VERTEX
  5
375
330
2F9
100
AcDbEntity
  8
GEB-VERDECKT
 48
25.0
100
AcDbVertex
100
AcDb2dVertex
 10
19.9759936332681
 20
63.83886337280262
 30
0.0
  0
VERTEX
  5
376
330
2F9
100
AcDbEntity
  8
GEB-VERDECKT
 48
25.0
100
AcDbVertex
100
AcDb2dVertex
 10
19.9941003322582
 20
64.08318996429432
 30
0.0
  0
VERTEX
  5
377
330
2F9
100
AcDbEntity
  8
GEB-VERDECKT
 48
25.0
100
AcDbVertex
100
AcDb2dVertex
 10
19.99999880790528
 20
64.32281494140614
 30
0.0
  0
SEQEND
  5
378
330
2F9
100
AcDbEntity
  8
GEB-VERDECKT
 48
25.0
  0
ELLIPSE
  5
379
330
2
100
AcDbEntity
  8
GEB-VERDECKT
 48
25.0
100
AcDbEllipse
 10
-0.000000000001819
 20
64.32531754730553
 30
0.0
 11
21.0
 21
0.0000000000035957
 31
0.0
210
0.0
220
0.0
230
1.0
 40
0.4999999999999994
 41
3.141831055924853
 42
6.282946904843394
  0
LINE
  5
37A
330
2
100
AcDbEntity
  8
GEB-VERDECKT
 48
25.0
100
AcDbLine
 10
20.99999904632387
 20
64.3253183364867
 30
0.0
 11
20.99999904632387
 21
64.32281494140614
 31
0.0
  0
ELLIPSE
  5
37B
330
2
100
AcDbEntity
  8
GEB-VERDECKT
 48
25.0
100
AcDbEllipse
 10
-0.0000000000019327
 20
65.19134295108983
 30
0.0
 11
-21.0
 21
0.0
 31
0.0
210
0.0
220
0.0
230
1.0
 40
0.4999999999999995
 41
0.0
 42
6.283185307179585
  0
LINE
  5
37C
330
2
100
AcDbEntity
  8
GEB-VERDECKT
 48
25.0
100
AcDbLine
 10
-20.00000000000182
 20
64.3253183364867
 30
0.0
 11
-19.99999880790892
 21
64.32281494140614
 31
0.0
  0
ELLIPSE
  5
37D
330
2
100
AcDbEntity
  8
GEB-VERDECKT
 48
25.0
100
AcDbEllipse
 10
-0.000000000001819
 20
64.32531754730553
 30
0.0
 11
-20.0
 21
-0.000000000003433
 31
0.0
210
0.0
220
0.0
230
1.0
 40
0.4999999999999997
 41
0.0002503224523139
 42
3.141342331136721
  0
LINE
  5
37E
330
2
100
AcDbEntity
  8
GEB-VERDECKT
 48
25.0
100
AcDbLine
 10
19.99999880790528
 20
64.32281494140614
 30
0.0
 11
19.99999999999818
 21
64.3253183364867
 31
0.0
  0
ELLIPSE
  5
37F
330
2
100
AcDbEntity
  8
GEB-VERDECKT
 48
25.0
100
AcDbEllipse
 10
-0.000000000001819
 20
64.32531754730553
 30
0.0
 11
20.0
 21
0.0
 31
0.0
210
0.0
220
0.0
230
1.0
 40
0.4999999999999997
 41
0.000000000002051
 42
3.141592653591843
  0
ELLIPSE
  5
380
330
2
100
AcDbEntity
  8
GEB-VERDECKT
 48
25.0
100
AcDbEllipse
 10
-0.0000000000019327
 20
65.19134295108983
 30
0.0
 11
-20.0
 21
0.0
 31
0.0
210
0.0
220
0.0
230
1.0
 40
0.4999999999999996
 41
0.0
 42
6.283185307179585
  0
POLYLINE
  5
381
330
2
100
AcDbEntity
  8
GEB-VERDECKT
 48
25.0
100
AcDb2dPolyline
 66
     1
 10
0.0
 20
0.0
 30
0.0
 70
   128
  0
VERTEX
  5
382
330
381
100
AcDbEntity
  8
GEB-VERDECKT
 48
25.0
100
AcDbVertex
100
AcDb2dVertex
 10
0.0000000000035243
 20
74.82178211212147
 30
0.0
  0
VERTEX
  5
383
330
381
100
AcDbEntity
  8
GEB-VERDECKT
 48
25.0
100
AcDbVertex
100
AcDb2dVertex
 10
0.4834916070138889
 20
74.81885910034169
 30
0.0
  0
VERTEX
  5
384
330
381
100
AcDbEntity
  8
GEB-VERDECKT
 48
25.0
100
AcDbVertex
100
AcDb2dVertex
 10
0.9761655330693201
 20
74.8100185394286
 30
0.0
  0
VERTEX
  5
385
330
381
100
AcDbEntity
  8
GEB-VERDECKT
 48
25.0
100
AcDbVertex
100
AcDb2dVertex
 10
1.476358473304458
 20
74.79514598846424
 30
0.0
  0
VERTEX
  5
386
330
381
100
AcDbEntity
  8
GEB-VERDECKT
 48
25.0
100
AcDbVertex
100
AcDb2dVertex
 10
1.982407271865554
 20
74.77413177490223
 30
0.0
  0
VERTEX
  5
387
330
381
100
AcDbEntity
  8
GEB-VERDECKT
 48
25.0
100
AcDbVertex
100
AcDb2dVertex
 10
2.492648661140151
 20
74.7468614578246
 30
0.0
  0
VERTEX
  5
388
330
381
100
AcDbEntity
  8
GEB-VERDECKT
 48
25.0
100
AcDbVertex
100
AcDb2dVertex
 10
3.005419373515792
 20
74.71323013305653
 30
0.0
  0
VERTEX
  5
389
330
381
100
AcDbEntity
  8
GEB-VERDECKT
 48
25.0
100
AcDbVertex
100
AcDb2dVertex
 10
3.519055843356682
 20
74.67311859130848
 30
0.0
  0
VERTEX
  5
38A
330
381
100
AcDbEntity
  8
GEB-VERDECKT
 48
25.0
100
AcDbVertex
100
AcDb2dVertex
 10
4.031895399097038
 20
74.62641716003407
 30
0.0
  0
VERTEX
  5
38B
330
381
100
AcDbEntity
  8
GEB-VERDECKT
 48
25.0
100
AcDbVertex
100
AcDb2dVertex
 10
4.542298018935753
 20
74.57307815551747
 30
0.0
  0
VERTEX
  5
38C
330
381
100
AcDbEntity
  8
GEB-VERDECKT
 48
25.0
100
AcDbVertex
100
AcDb2dVertex
 10
5.048761963847709
 20
74.51339244842518
 30
0.0
  0
VERTEX
  5
38D
330
381
100
AcDbEntity
  8
GEB-VERDECKT
 48
25.0
100
AcDbVertex
100
AcDb2dVertex
 10
5.549836158755852
 20
74.44777965545643
 30
0.0
  0
VERTEX
  5
38E
330
381
100
AcDbEntity
  8
GEB-VERDECKT
 48
25.0
100
AcDbVertex
100
AcDb2dVertex
 10
6.044068932536561
 20
74.37666416168202
 30
0.0
  0
VERTEX
  5
38F
330
381
100
AcDbEntity
  8
GEB-VERDECKT
 48
25.0
100
AcDbVertex
100
AcDb2dVertex
 10
6.530010104182679
 20
74.30046558380116
 30
0.0
  0
VERTEX
  5
390
330
381
100
AcDbEntity
  8
GEB-VERDECKT
 48
25.0
100
AcDbVertex
100
AcDb2dVertex
 10
7.006207108500916
 20
74.21960830688465
 30
0.0
  0
VERTEX
  5
391
330
381
100
AcDbEntity
  8
GEB-VERDECKT
 48
25.0
100
AcDbVertex
100
AcDb2dVertex
 10
7.471209168437212
 20
74.13451194763172
 30
0.0
  0
VERTEX
  5
392
330
381
100
AcDbEntity
  8
GEB-VERDECKT
 48
25.0
100
AcDbVertex
100
AcDb2dVertex
 10
7.923565506938189
 20
74.04559612274159
 30
0.0
  0
VERTEX
  5
393
330
381
100
AcDbEntity
  8
GEB-VERDECKT
 48
25.0
100
AcDbVertex
100
AcDb2dVertex
 10
8.367397785189837
 20
73.95211219787586
 30
0.0
  0
VERTEX
  5
394
330
381
100
AcDbEntity
  8
GEB-VERDECKT
 48
25.0
100
AcDbVertex
100
AcDb2dVertex
 10
8.814949393275355
 20
73.85148048400868
 30
0.0
  0
VERTEX
  5
395
330
381
100
AcDbEntity
  8
GEB-VERDECKT
 48
25.0
100
AcDbVertex
100
AcDb2dVertex
 10
9.265242815020656
 20
73.7437868118285
 30
0.0
  0
VERTEX
  5
396
330
381
100
AcDbEntity
  8
GEB-VERDECKT
 48
25.0
100
AcDbVertex
100
AcDb2dVertex
 10
9.716656208041285
 20
73.62924098968495
 30
0.0
  0
VERTEX
  5
397
330
381
100
AcDbEntity
  8
GEB-VERDECKT
 48
25.0
100
AcDbVertex
100
AcDb2dVertex
 10
10.16756772995279
 20
73.5080575942992
 30
0.0
  0
VERTEX
  5
398
330
381
100
AcDbEntity
  8
GEB-VERDECKT
 48
25.0
100
AcDbVertex
100
AcDb2dVertex
 10
10.61635494232462
 20
73.38046073913563
 30
0.0
  0
VERTEX
  5
399
330
381
100
AcDbEntity
  8
GEB-VERDECKT
 48
25.0
100
AcDbVertex
100
AcDb2dVertex
 10
11.06139659881864
 20
73.24666023254383
 30
0.0
  0
VERTEX
  5
39A
330
381
100
AcDbEntity
  8
GEB-VERDECKT
 48
25.0
100
AcDbVertex
100
AcDb2dVertex
 10
11.50107026100431
 20
73.10686588287342
 30
0.0
  0
VERTEX
  5
39B
330
381
100
AcDbEntity
  8
GEB-VERDECKT
 48
25.0
100
AcDbVertex
100
AcDb2dVertex
 10
11.93377971649431
 20
72.96132087707508
 30
0.0
  0
VERTEX
  5
39C
330
381
100
AcDbEntity
  8
GEB-VERDECKT
 48
25.0
100
AcDbVertex
100
AcDb2dVertex
 10
12.35825657844805
 20
72.81050205230702
 30
0.0
  0
VERTEX
  5
39D
330
381
100
AcDbEntity
  8
GEB-VERDECKT
 48
25.0
100
AcDbVertex
100
AcDb2dVertex
 10
12.77347922325373
 20
72.65506744384754
 30
0.0
  0
VERTEX
  5
39E
330
381
100
AcDbEntity
  8
GEB-VERDECKT
 48
25.0
100
AcDbVertex
100
AcDb2dVertex
 10
13.17842721939314
 20
72.49568939208973
 30
0.0
  0
VERTEX
  5
39F
330
381
100
AcDbEntity
  8
GEB-VERDECKT
 48
25.0
100
AcDbVertex
100
AcDb2dVertex
 10
13.57208490371931
 20
72.33303546905506
 30
0.0
  0
VERTEX
  5
3A0
330
381
100
AcDbEntity
  8
GEB-VERDECKT
 48
25.0
100
AcDbVertex
100
AcDb2dVertex
 10
13.95343184471346
 20
72.16776847839344
 30
0.0
  0
VERTEX
  5
3A1
330
381
100
AcDbEntity
  8
GEB-VERDECKT
 48
25.0
100
AcDbVertex
100
AcDb2dVertex
 10
14.32145118713595
 20
72.00056076049794
 30
0.0
  0
VERTEX
  5
3A2
330
381
100
AcDbEntity
  8
GEB-VERDECKT
 48
25.0
100
AcDbVertex
100
AcDb2dVertex
 10
14.67512488365366
 20
71.83207511901844
 30
0.0
  0
VERTEX
  5
3A3
330
381
100
AcDbEntity
  8
GEB-VERDECKT
 48
25.0
100
AcDbVertex
100
AcDb2dVertex
 10
15.01528739929381
 20
71.66204452514637
 30
0.0
  0
VERTEX
  5
3A4
330
381
100
AcDbEntity
  8
GEB-VERDECKT
 48
25.0
100
AcDbVertex
100
AcDb2dVertex
 10
15.35226464271727
 20
71.48530960082997
 30
0.0
  0
VERTEX
  5
3A5
330
381
100
AcDbEntity
  8
GEB-VERDECKT
 48
25.0
100
AcDbVertex
100
AcDb2dVertex
 10
15.68670868873766
 20
71.3013982772826
 30
0.0
  0
VERTEX
  5
3A6
330
381
100
AcDbEntity
  8
GEB-VERDECKT
 48
25.0
100
AcDbVertex
100
AcDb2dVertex
 10
16.01728320121924
 20
71.1108112335204
 30
0.0
  0
VERTEX
  5
3A7
330
381
100
AcDbEntity
  8
GEB-VERDECKT
 48
25.0
100
AcDbVertex
100
AcDb2dVertex
 10
16.34265661239783
 20
70.9140634536742
 30
0.0
  0
VERTEX
  5
3A8
330
381
100
AcDbEntity
  8
GEB-VERDECKT
 48
25.0
100
AcDbVertex
100
AcDb2dVertex
 10
16.66149616241603
 20
70.71166038513172
 30
0.0
  0
VERTEX
  5
3A9
330
381
100
AcDbEntity
  8
GEB-VERDECKT
 48
25.0
100
AcDbVertex
100
AcDb2dVertex
 10
16.97246670723086
 20
70.50411701202381
 30
0.0
  0
VERTEX
  5
3AA
330
381
100
AcDbEntity
  8
GEB-VERDECKT
 48
25.0
100
AcDbVertex
100
AcDb2dVertex
 10
17.2742354869855
 20
70.29193878173817
 30
0.0
  0
VERTEX
  5
3AB
330
381
100
AcDbEntity
  8
GEB-VERDECKT
 48
25.0
100
AcDbVertex
100
AcDb2dVertex
 10
17.56547808647269
 20
70.07563591003407
 30
0.0
  0
VERTEX
  5
3AC
330
381
100
AcDbEntity
  8
GEB-VERDECKT
 48
25.0
100
AcDbVertex
100
AcDb2dVertex
 10
17.84521937370402
 20
69.85583782196034
 30
0.0
  0
VERTEX
  5
3AD
330
381
100
AcDbEntity
  8
GEB-VERDECKT
 48
25.0
100
AcDbVertex
100
AcDb2dVertex
 10
18.11299204826434
 20
69.63334560394276
 30
0.0
  0
VERTEX
  5
3AE
330
381
100
AcDbEntity
  8
GEB-VERDECKT
 48
25.0
100
AcDbVertex
100
AcDb2dVertex
 10
18.36836457252571
 20
69.4089651107787
 30
0.0
  0
VERTEX
  5
3AF
330
381
100
AcDbEntity
  8
GEB-VERDECKT
 48
25.0
100
AcDbVertex
100
AcDb2dVertex
 10
18.61090898513862
 20
69.18351173400868
 30
0.0
  0
VERTEX
  5
3B0
330
381
100
AcDbEntity
  8
GEB-VERDECKT
 48
25.0
100
AcDbVertex
100
AcDb2dVertex
 10
18.84019374847469
 20
68.95779609680165
 30
0.0
  0
VERTEX
  5
3B1
330
381
100
AcDbEntity
  8
GEB-VERDECKT
 48
25.0
100
AcDbVertex
100
AcDb2dVertex
 10
19.05578970909164
 20
68.73262882232655
 30
0.0
  0
VERTEX
  5
3B2
330
381
100
AcDbEntity
  8
GEB-VERDECKT
 48
25.0
100
AcDbVertex
100
AcDb2dVertex
 10
19.2572653293613
 20
68.50882053375233
 30
0.0
  0
VERTEX
  5
3B3
330
381
100
AcDbEntity
  8
GEB-VERDECKT
 48
25.0
100
AcDbVertex
100
AcDb2dVertex
 10
19.4444239139558
 20
68.28689575195301
 30
0.0
  0
VERTEX
  5
3B4
330
381
100
AcDbEntity
  8
GEB-VERDECKT
 48
25.0
100
AcDbVertex
100
AcDb2dVertex
 10
19.62235569953918
 20
68.06082725524891
 30
0.0
  0
VERTEX
  5
3B5
330
381
100
AcDbEntity
  8
GEB-VERDECKT
 48
25.0
100
AcDbVertex
100
AcDb2dVertex
 10
19.79266762733459
 20
67.82842159271229
 30
0.0
  0
VERTEX
  5
3B6
330
381
100
AcDbEntity
  8
GEB-VERDECKT
 48
25.0
100
AcDbVertex
100
AcDb2dVertex
 10
19.95451688766468
 20
67.59041309356678
 30
0.0
  0
VERTEX
  5
3B7
330
381
100
AcDbEntity
  8
GEB-VERDECKT
 48
25.0
100
AcDbVertex
100
AcDb2dVertex
 10
20.10706186294521
 20
67.34751701354969
 30
0.0
  0
VERTEX
  5
3B8
330
381
100
AcDbEntity
  8
GEB-VERDECKT
 48
25.0
100
AcDbVertex
100
AcDb2dVertex
 10
20.2494597434993
 20
67.10046291351307
 30
0.0
  0
VERTEX
  5
3B9
330
381
100
AcDbEntity
  8
GEB-VERDECKT
 48
25.0
100
AcDbVertex
100
AcDb2dVertex
 10
20.3808689117426
 20
66.84998035430897
 30
0.0
  0
VERTEX
  5
3BA
330
381
100
AcDbEntity
  8
GEB-VERDECKT
 48
25.0
100
AcDbVertex
100
AcDb2dVertex
 10
20.50045013427666
 20
66.59678936004628
 30
0.0
  0
VERTEX
  5
3BB
330
381
100
AcDbEntity
  8
GEB-VERDECKT
 48
25.0
100
AcDbVertex
100
AcDb2dVertex
 10
20.60735702514569
 20
66.34161472320545
 30
0.0
  0
VERTEX
  5
3BC
330
381
100
AcDbEntity
  8
GEB-VERDECKT
 48
25.0
100
AcDbVertex
100
AcDb2dVertex
 10
20.70099353790181
 20
66.08520984649647
 30
0.0
  0
VERTEX
  5
3BD
330
381
100
AcDbEntity
  8
GEB-VERDECKT
 48
25.0
100
AcDbVertex
100
AcDb2dVertex
 10
20.78145503997689
 20
65.82839012145985
 30
0.0
  0
VERTEX
  5
3BE
330
381
100
AcDbEntity
  8
GEB-VERDECKT
 48
25.0
100
AcDbVertex
100
AcDb2dVertex
 10
20.84896802902097
 20
65.57198524475086
 30
0.0
  0
VERTEX
  5
3BF
330
381
100
AcDbEntity
  8
GEB-VERDECKT
 48
25.0
100
AcDbVertex
100
AcDb2dVertex
 10
20.90374708175534
 20
65.31682968139637
 30
0.0
  0
VERTEX
  5
3C0
330
381
100
AcDbEntity
  8
GEB-VERDECKT
 48
25.0
100
AcDbVertex
100
AcDb2dVertex
 10
20.94601869582982
 20
65.06375312805165
 30
0.0
  0
VERTEX
  5
3C1
330
381
100
AcDbEntity
  8
GEB-VERDECKT
 48
25.0
100
AcDbVertex
100
AcDb2dVertex
 10
20.97600460052331
 20
64.81359004974354
 30
0.0
  0
VERTEX
  5
3C2
330
381
100
AcDbEntity
  8
GEB-VERDECKT
 48
25.0
100
AcDbVertex
100
AcDb2dVertex
 10
20.99392414092847
 20
64.56716537475575
 30
0.0
  0
VERTEX
  5
3C3
330
381
100
AcDbEntity
  8
GEB-VERDECKT
 48
25.0
100
AcDbVertex
100
AcDb2dVertex
 10
20.99999904632387
 20
64.3253183364867
 30
0.0
  0
SEQEND
  5
3C4
330
381
100
AcDbEntity
  8
GEB-VERDECKT
 48
25.0
  0
ELLIPSE
  5
3C5
330
2
100
AcDbEntity
  8
GEB-VERDECKT
 48
25.0
100
AcDbEllipse
 10
-0.000000000001819
 20
64.32531754730553
 30
0.0
 11
-21.00000000000001
 21
-0.0000000000036002
 31
0.0
210
0.0
220
0.0
230
1.0
 40
0.4999999999999992
 41
3.141592653589761
 42
6.283423709515471
  0
POLYLINE
  5
3C6
330
2
100
AcDbEntity
  8
GEB-VERDECKT
 48
25.0
100
AcDb2dPolyline
 66
     1
 10
0.0
 20
0.0
 30
0.0
 70
   128
  0
VERTEX
  5
3C7
330
3C6
100
AcDbEntity
  8
GEB-VERDECKT
 48
25.0
100
AcDbVertex
100
AcDb2dVertex
 10
-20.9999990463275
 20
64.32281494140614
 30
0.0
  0
VERTEX
  5
3C8
330
3C6
100
AcDbEntity
  8
GEB-VERDECKT
 48
25.0
100
AcDbVertex
100
AcDb2dVertex
 10
-20.99403858184985
 20
64.56465244293202
 30
0.0
  0
VERTEX
  5
3C9
330
3C6
100
AcDbEntity
  8
GEB-VERDECKT
 48
25.0
100
AcDbVertex
100
AcDb2dVertex
 10
-20.97623586654822
 20
64.81107234954823
 30
0.0
  0
VERTEX
  5
3CA
330
3C6
100
AcDbEntity
  8
GEB-VERDECKT
 48
25.0
100
AcDbVertex
100
AcDb2dVertex
 10
-20.94636917114406
 20
65.0612449645995
 30
0.0
  0
VERTEX
  5
3CB
330
3C6
100
AcDbEntity
  8
GEB-VERDECKT
 48
25.0
100
AcDbVertex
100
AcDb2dVertex
 10
-20.90421438217288
 20
65.31433582305897
 30
0.0
  0
VERTEX
  5
3CC
330
3C6
100
AcDbEntity
  8
GEB-VERDECKT
 48
25.0
100
AcDbVertex
100
AcDb2dVertex
 10
-20.84954977035648
 20
65.56951522827137
 30
0.0
  0
VERTEX
  5
3CD
330
3C6
100
AcDbEntity
  8
GEB-VERDECKT
 48
25.0
100
AcDbVertex
100
AcDb2dVertex
 10
-20.78215360641593
 20
65.82594871520985
 30
0.0
  0
VERTEX
  5
3CE
330
3C6
100
AcDbEntity
  8
GEB-VERDECKT
 48
25.0
100
AcDbVertex
100
AcDb2dVertex
 10
-20.7018041610728
 20
66.08281135559071
 30
0.0
  0
VERTEX
  5
3CF
330
3C6
100
AcDbEntity
  8
GEB-VERDECKT
 48
25.0
100
AcDbVertex
100
AcDb2dVertex
 10
-20.60827732086261
 20
66.3392686843871
 30
0.0
  0
VERTEX
  5
3D0
330
3C6
100
AcDbEntity
  8
GEB-VERDECKT
 48
25.0
100
AcDbVertex
100
AcDb2dVertex
 10
-20.50147056579658
 20
66.59449577331532
 30
0.0
  0
VERTEX
  5
3D1
330
3C6
100
AcDbEntity
  8
GEB-VERDECKT
 48
25.0
100
AcDbVertex
100
AcDb2dVertex
 10
-20.38198232650814
 20
66.84774875640858
 30
0.0
  0
VERTEX
  5
3D2
330
3C6
100
AcDbEntity
  8
GEB-VERDECKT
 48
25.0
100
AcDbVertex
100
AcDb2dVertex
 10
-20.25064945220993
 20
67.09830284118641
 30
0.0
  0
VERTEX
  5
3D3
330
3C6
100
AcDbEntity
  8
GEB-VERDECKT
 48
25.0
100
AcDbVertex
100
AcDb2dVertex
 10
-20.10832071304355
 20
67.34542369842518
 30
0.0
  0
VERTEX
  5
3D4
330
3C6
100
AcDbEntity
  8
GEB-VERDECKT
 48
25.0
100
AcDbVertex
100
AcDb2dVertex
 10
-19.95583295822155
 20
67.58839607238758
 30
0.0
  0
VERTEX
  5
3D5
330
3C6
100
AcDbEntity
  8
GEB-VERDECKT
 48
25.0
100
AcDbVertex
100
AcDb2dVertex
 10
-19.79403138160705
 20
67.82649040222157
 30
0.0
  0
VERTEX
  5
3D6
330
3C6
100
AcDbEntity
  8
GEB-VERDECKT
 48
25.0
100
AcDbVertex
100
AcDb2dVertex
 10
-19.6237576007843
 20
68.05898189544667
 30
0.0
  0
VERTEX
  5
3D7
330
3C6
100
AcDbEntity
  8
GEB-VERDECKT
 48
25.0
100
AcDbVertex
100
AcDb2dVertex
 10
-19.44585442543018
 20
68.28514099121083
 30
0.0
  0
VERTEX
  5
3D8
330
3C6
100
AcDbEntity
  8
GEB-VERDECKT
 48
25.0
100
AcDbVertex
100
AcDb2dVertex
 10
-19.25876617431606
 20
68.50709438323963
 30
0.0
  0
VERTEX
  5
3D9
330
3C6
100
AcDbEntity
  8
GEB-VERDECKT
 48
25.0
100
AcDbVertex
100
AcDb2dVertex
 10
-19.05736804008438
 20
68.73093128204335
 30
0.0
  0
VERTEX
  5
3DA
330
3C6
100
AcDbEntity
  8
GEB-VERDECKT
 48
25.0
100
AcDbVertex
100
AcDb2dVertex
 10
-18.84184122085514
 20
68.95612716674794
 30
0.0
  0
VERTEX
  5
3DB
330
3C6
100
AcDbEntity
  8
GEB-VERDECKT
 48
25.0
100
AcDbVertex
100
AcDb2dVertex
 10
-18.61261844634941
 20
69.18187618255604
 30
0.0
  0
VERTEX
  5
3DC
330
3C6
100
AcDbEntity
  8
GEB-VERDECKT
 48
25.0
100
AcDbVertex
100
AcDb2dVertex
 10
-18.37012887000969
 20
69.4073724746703
 30
0.0
  0
VERTEX
  5
3DD
330
3C6
100
AcDbEntity
  8
GEB-VERDECKT
 48
25.0
100
AcDbVertex
100
AcDb2dVertex
 10
-18.11480164527813
 20
69.6317958831786
 30
0.0
  0
VERTEX
  5
3DE
330
3C6
100
AcDbEntity
  8
GEB-VERDECKT
 48
25.0
100
AcDbVertex
100
AcDb2dVertex
 10
-17.84706950187581
 20
69.85434055328358
 30
0.0
  0
VERTEX
  5
3DF
330
3C6
100
AcDbEntity
  8
GEB-VERDECKT
 48
25.0
100
AcDbVertex
100
AcDb2dVertex
 10
-17.56736159324532
 20
70.07419586181629
 30
0.0
  0
VERTEX
  5
3E0
330
3C6
100
AcDbEntity
  8
GEB-VERDECKT
 48
25.0
100
AcDbVertex
100
AcDb2dVertex
 10
-17.2761464118945
 20
70.29055595397938
 30
0.0
  0
VERTEX
  5
3E1
330
3C6
100
AcDbEntity
  8
GEB-VERDECKT
 48
25.0
100
AcDbVertex
100
AcDb2dVertex
 10
-16.97439074516171
 20
70.50280094146717
 30
0.0
  0
VERTEX
  5
3E2
330
3C6
100
AcDbEntity
  8
GEB-VERDECKT
 48
25.0
100
AcDbVertex
100
AcDb2dVertex
 10
-16.66342377662511
 20
70.71040630340565
 30
0.0
  0
VERTEX
  5
3E3
330
3C6
100
AcDbEntity
  8
GEB-VERDECKT
 48
25.0
100
AcDbVertex
100
AcDb2dVertex
 10
-16.34457707404931
 20
70.91287612915028
 30
0.0
  0
VERTEX
  5
3E4
330
3C6
100
AcDbEntity
  8
GEB-VERDECKT
 48
25.0
100
AcDbVertex
100
AcDb2dVertex
 10
-16.01918458938439
 20
71.10968589782704
 30
0.0
  0
VERTEX
  5
3E5
330
3C6
100
AcDbEntity
  8
GEB-VERDECKT
 48
25.0
100
AcDbVertex
100
AcDb2dVertex
 10
-15.68858265876599
 20
71.30033969879139
 30
0.0
  0
VERTEX
  5
3E6
330
3C6
100
AcDbEntity
  8
GEB-VERDECKT
 48
25.0
100
AcDbVertex
100
AcDb2dVertex
 10
-15.35410284995851
 20
71.48432254791249
 30
0.0
  0
VERTEX
  5
3E7
330
3C6
100
AcDbEntity
  8
GEB-VERDECKT
 48
25.0
100
AcDbVertex
100
AcDb2dVertex
 10
-15.01708149909791
 20
71.66112422943104
 30
0.0
  0
VERTEX
  5
3E8
330
3C6
100
AcDbEntity
  8
GEB-VERDECKT
 48
25.0
100
AcDbVertex
100
AcDb2dVertex
 10
-14.67690706252858
 20
71.83120250701893
 30
0.0
  0
VERTEX
  5
3E9
330
3C6
100
AcDbEntity
  8
GEB-VERDECKT
 48
25.0
100
AcDbVertex
100
AcDb2dVertex
 10
-14.32325243949674
 20
71.9997215270995
 30
0.0
  0
VERTEX
  5
3EA
330
3C6
100
AcDbEntity
  8
GEB-VERDECKT
 48
25.0
100
AcDbVertex
100
AcDb2dVertex
 10
-13.95524144172452
 20
72.16696739196766
 30
0.0
  0
VERTEX
  5
3EB
330
3C6
100
AcDbEntity
  8
GEB-VERDECKT
 48
25.0
100
AcDbVertex
100
AcDb2dVertex
 10
-13.57389450073015
 20
72.33226776123036
 30
0.0
  0
VERTEX
  5
3EC
330
3C6
100
AcDbEntity
  8
GEB-VERDECKT
 48
25.0
100
AcDbVertex
100
AcDb2dVertex
 10
-13.18022727966081
 20
72.49496459960926
 30
0.0
  0
VERTEX
  5
3ED
330
3C6
100
AcDbEntity
  8
GEB-VERDECKT
 48
25.0
100
AcDbVertex
100
AcDb2dVertex
 10
-12.77526140212774
 20
72.65438079833973
 30
0.0
  0
VERTEX
  5
3EE
330
3C6
100
AcDbEntity
  8
GEB-VERDECKT
 48
25.0
100
AcDbVertex
100
AcDb2dVertex
 10
-12.36001491546369
 20
72.80985832214344
 30
0.0
  0
VERTEX
  5
3EF
330
3C6
100
AcDbEntity
  8
GEB-VERDECKT
 48
25.0
100
AcDbVertex
100
AcDb2dVertex
 10
-11.93550467490888
 20
72.96072483062733
 30
0.0
  0
VERTEX
  5
3F0
330
3C6
100
AcDbEntity
  8
GEB-VERDECKT
 48
25.0
100
AcDbVertex
100
AcDb2dVertex
 10
-11.502757072446
 20
73.10631752014149
 30
0.0
  0
VERTEX
  5
3F1
330
3C6
100
AcDbEntity
  8
GEB-VERDECKT
 48
25.0
100
AcDbVertex
100
AcDb2dVertex
 10
-11.06303453445161
 20
73.24615001678456
 30
0.0
  0
VERTEX
  5
3F2
330
3C6
100
AcDbEntity
  8
GEB-VERDECKT
 48
25.0
100
AcDbVertex
100
AcDb2dVertex
 10
-10.61793804168417
 20
73.37999820709217
 30
0.0
  0
VERTEX
  5
3F3
330
3C6
100
AcDbEntity
  8
GEB-VERDECKT
 48
25.0
100
AcDbVertex
100
AcDb2dVertex
 10
-10.16908884048177
 20
73.50763797759999
 30
0.0
  0
VERTEX
  5
3F4
330
3C6
100
AcDbEntity
  8
GEB-VERDECKT
 48
25.0
100
AcDbVertex
100
AcDb2dVertex
 10
-9.718109369274998
 20
73.62885951995838
 30
0.0
  0
VERTEX
  5
3F5
330
3C6
100
AcDbEntity
  8
GEB-VERDECKT
 48
25.0
100
AcDbVertex
100
AcDb2dVertex
 10
-9.266622662541294
 20
73.7434434890746
 30
0.0
  0
VERTEX
  5
3F6
330
3C6
100
AcDbEntity
  8
GEB-VERDECKT
 48
25.0
100
AcDbVertex
100
AcDb2dVertex
 10
-8.816251158711338
 20
73.85118007659901
 30
0.0
  0
VERTEX
  5
3F7
330
3C6
100
AcDbEntity
  8
GEB-VERDECKT
 48
25.0
100
AcDbVertex
100
AcDb2dVertex
 10
-8.368617296215802
 20
73.95184516906727
 30
0.0
  0
VERTEX
  5
3F8
330
3C6
100
AcDbEntity
  8
GEB-VERDECKT
 48
25.0
100
AcDbVertex
100
AcDb2dVertex
 10
-7.924712896343976
 20
74.04536247253407
 30
0.0
  0
VERTEX
  5
3F9
330
3C6
100
AcDbEntity
  8
GEB-VERDECKT
 48
25.0
100
AcDbVertex
100
AcDb2dVertex
 10
-7.472317218777448
 20
74.13430213928211
 30
0.0
  0
VERTEX
  5
3FA
330
3C6
100
AcDbEntity
  8
GEB-VERDECKT
 48
25.0
100
AcDbVertex
100
AcDb2dVertex
 10
-7.007268071171324
 20
74.21942234039295
 30
0.0
  0
VERTEX
  5
3FB
330
3C6
100
AcDbEntity
  8
GEB-VERDECKT
 48
25.0
100
AcDbVertex
100
AcDb2dVertex
 10
-6.531016826626341
 20
74.30030345916737
 30
0.0
  0
VERTEX
  5
3FC
330
3C6
100
AcDbEntity
  8
GEB-VERDECKT
 48
25.0
100
AcDbVertex
100
AcDb2dVertex
 10
-6.045016050335448
 20
74.37652111053456
 30
0.0
  0
VERTEX
  5
3FD
330
3C6
100
AcDbEntity
  8
GEB-VERDECKT
 48
25.0
100
AcDbVertex
100
AcDb2dVertex
 10
-5.550717711445258
 20
74.44766044616688
 30
0.0
  0
VERTEX
  5
3FE
330
3C6
100
AcDbEntity
  8
GEB-VERDECKT
 48
25.0
100
AcDbVertex
100
AcDb2dVertex
 10
-5.049573183056281
 20
74.51328754425038
 30
0.0
  0
VERTEX
  5
3FF
330
3C6
100
AcDbEntity
  8
GEB-VERDECKT
 48
25.0
100
AcDbVertex
100
AcDb2dVertex
 10
-4.543034732338355
 20
74.57299709320057
 30
0.0
  0
VERTEX
  5
400
330
3C6
100
AcDbEntity
  8
GEB-VERDECKT
 48
25.0
100
AcDbVertex
100
AcDb2dVertex
 10
-4.032554626461433
 20
74.6263551712035
 30
0.0
  0
VERTEX
  5
401
330
3C6
100
AcDbEntity
  8
GEB-VERDECKT
 48
25.0
100
AcDbVertex
100
AcDb2dVertex
 10
-3.519634604450629
 20
74.67307090759266
 30
0.0
  0
VERTEX
  5
402
330
3C6
100
AcDbEntity
  8
GEB-VERDECKT
 48
25.0
100
AcDbVertex
100
AcDb2dVertex
 10
-3.005915284153275
 20
74.71319198608387
 30
0.0
  0
VERTEX
  5
403
330
3C6
100
AcDbEntity
  8
GEB-VERDECKT
 48
25.0
100
AcDbVertex
100
AcDb2dVertex
 10
-2.4930605292285
 20
74.74683761596669
 30
0.0
  0
VERTEX
  5
404
330
3C6
100
AcDbEntity
  8
GEB-VERDECKT
 48
25.0
100
AcDbVertex
100
AcDb2dVertex
 10
-1.982734650369934
 20
74.77411746978749
 30
0.0
  0
VERTEX
  5
405
330
3C6
100
AcDbEntity
  8
GEB-VERDECKT
 48
25.0
100
AcDbVertex
100
AcDb2dVertex
 10
-1.476601660248093
 20
74.79513645172108
 30
0.0
  0
VERTEX
  5
406
330
3C6
100
AcDbEntity
  8
GEB-VERDECKT
 48
25.0
100
AcDbVertex
100
AcDb2dVertex
 10
-0.9763254225218815
 20
74.81001377105702
 30
0.0
  0
VERTEX
  5
407
330
3C6
100
AcDbEntity
  8
GEB-VERDECKT
 48
25.0
100
AcDbVertex
100
AcDb2dVertex
 10
-0.4835702106321378
 20
74.81885910034169
 30
0.0
  0
VERTEX
  5
408
330
3C6
100
AcDbEntity
  8
GEB-VERDECKT
 48
25.0
100
AcDbVertex
100
AcDb2dVertex
 10
0.0000000000035243
 20
74.82178211212147
 30
0.0
  0
SEQEND
  5
409
330
3C6
100
AcDbEntity
  8
GEB-VERDECKT
 48
25.0
  0
TEXT
  5
40A
330
2
100
AcDbEntity
  8
GEB-TEXT
100
AcDbText
 10
-35.59447476126
 20
-13.0
 30
0.0
 40
3.5
  1
BOGEN M/ EEND EST 30G D42
 72
     1
 11
-0.0000000000048885
 21
-13.0
 31
0.0
100
AcDbText
  0
TEXT
  5
40C
330
2
100
AcDbEntity
  8
GEB-TEXT
100
AcDbText
 10
-18.07060027285618
 20
-7.5
 30
0.0
 40
3.5
  1
Geberit Mapress
 72
     1
 11
-0.0000000000048885
 21
-7.5
 31
0.0
100
AcDbText
  0
TEXT
  5
40D
330
2
100
AcDbEntity
  8
GEB-ART-NR
100
AcDbText
 10
-22.13656348996427
 20
-19.34278125428022
 30
0.0
 40
3.5
  1
GEB-ART-NR 36136
 72
     1
 11
0.5525565646059932
 21
-19.34278125428022
 31
0.0
100
AcDbText
  0
ENDSEC
  0
SECTION
  2
OBJECTS
  0
DICTIONARY
  5
9
330
0
100
AcDbDictionary
281
     1
  3
ACAD_2007HEADERVARS_RT
350
4C4
  3
ACAD_COLOR
350
44
  3
ACAD_GROUP
350
31
  3
ACAD_LAYOUT
350
8
  3
ACAD_MATERIAL
350
13
  3
ACAD_MLEADERSTYLE
350
47
  3
ACAD_MLINESTYLE
350
32
  3
ACAD_PLOTSETTINGS
350
33
  3
ACAD_PLOTSTYLENAME
350
11
  3
ACAD_SCALELIST
350
45
  3
ACAD_TABLESTYLE
350
46
  3
ACAD_VISUALSTYLE
350
2B
  3
ACDB_RECOMPOSE_DATA
350
4C3
  3
AcDbVariableDictionary
350
46D
  3
AcmDictionary
350
420
  3
AcmSystemVariableManager
350
4DB
  3
AMG
350
411
  0
DICTIONARY
  5
2C
330
28
100
AcDbDictionary
280
     1
281
     1
  0
DICTIONARY
  5
1C
330
E
100
AcDbDictionary
280
     1
281
     1
  3
ACAD_LAYERFILTERS
360
1D
  3
ACLYDICTIONARY
360
1E
  0
DICTIONARY
  5
3
330
2
100
AcDbDictionary
280
     1
281
     1
  3
ACAD_SORTENTS
360
40F
  0
DICTIONARY
  5
4C4
102
{ACAD_REACTORS
330
9
102
}
330
9
100
AcDbDictionary
281
     1
  3
DIMARCSYM
350
4C5
  3
DIMLTEX1
350
4C7
  3
DIMLTEX2
350
4C8
  3
DIMLTYPE
350
4C6
  0
DICTIONARY
  5
44
102
{ACAD_REACTORS
330
9
102
}
330
9
100
AcDbDictionary
281
     1
  0
DICTIONARY
  5
31
102
{ACAD_REACTORS
330
9
102
}
330
9
100
AcDbDictionary
281
     1
  0
DICTIONARY
  5
8
102
{ACAD_REACTORS
330
9
102
}
330
9
100
AcDbDictionary
281
     1
  3
Layout1
350
D
  3
Model
350
7
  0
DICTIONARY
  5
13
102
{ACAD_REACTORS
330
9
102
}
330
9
100
AcDbDictionary
281
     1
  3
ByBlock
350
3C
  3
ByLayer
350
34
  3
Global
350
12
  0
DICTIONARY
  5
47
102
{ACAD_REACTORS
330
9
102
}
330
9
100
AcDbDictionary
281
     1
  3
Standard
350
48B
  0
DICTIONARY
  5
32
102
{ACAD_REACTORS
330
9
102
}
330
9
100
AcDbDictionary
281
     1
  3
Standard
350
48
  0
DICTIONARY
  5
33
102
{ACAD_REACTORS
330
9
102
}
330
9
100
AcDbDictionary
281
     1
  0
ACDBDICTIONARYWDFLT
  5
11
102
{ACAD_REACTORS
330
9
102
}
330
9
100
AcDbDictionary
281
     1
  3
Normal
350
10
100
AcDbDictionaryWithDefault
340
10
  0
DICTIONARY
  5
45
102
{ACAD_REACTORS
330
9
102
}
330
9
100
AcDbDictionary
281
     1
  3
A0
350
4D
  3
A1
350
4E
  3
A2
350
4F
  3
A3
350
50
  3
A4
350
51
  3
A5
350
52
  3
A6
350
53
  3
A7
350
54
  3
A8
350
55
  3
A9
350
56
  3
B0
350
57
  3
B1
350
58
  3
B2
350
59
  3
B3
350
5A
  3
B4
350
5B
  3
B5
350
5C
  3
B6
350
5D
  3
B7
350
5E
  3
B8
350
5F
  3
B9
350
60
  3
C0
350
61
  3
C1
350
62
  3
C2
350
63
  3
C3
350
64
  3
C4
350
65
  3
C5
350
66
  3
C6
350
67
  3
C7
350
68
  3
C8
350
69
  3
C9
350
6A
  3
D0
350
6B
  3
D1
350
6C
  3
D2
350
6D
  0
DICTIONARY
  5
46
102
{ACAD_REACTORS
330
9
102
}
330
9
100
AcDbDictionary
281
     1
  3
Standard
350
49
  0
DICTIONARY
  5
2B
102
{ACAD_REACTORS
330
9
102
}
330
9
100
AcDbDictionary
281
     1
  3
2dWireframe
350
2A
  3
Basic
350
47A
  3
Brighten
350
47E
  3
ColorChange
350
482
  3
Conceptual
350
47C
  3
Dim
350
47D
  3
EdgeColorOff
350
48A
  3
Facepattern
350
481
  3
Flat
350
476
  3
FlatWithEdges
350
477
  3
Gouraud
350
478
  3
GouraudWithEdges
350
479
  3
Hidden
350
47B
  3
JitterOff
350
488
  3
Linepattern
350
480
  3
OverhangOff
350
489
  3
Realistic
350
4B
  3
Shaded
350
487
  3
Shaded with edges
350
486
  3
Shades of Gray
350
483
  3
Sketchy
350
484
  3
Thicken
350
47F
  3
Wireframe
350
4C
  3
X-Ray
350
485
  0
XRECORD
  5
4C3
102
{ACAD_REACTORS
330
9
102
}
330
9
100
AcDbXrecord
280
     1
 90
        1
330
49
  0
DICTIONARY
  5
46D
102
{ACAD_REACTORS
330
9
102
}
330
9
100
AcDbDictionary
281
     1
  3
CANNOSCALE
350
471
  3
CMLEADERSTYLE
350
46F
  3
CTABLESTYLE
350
46E
  3
DIMASSOC
350
4C0
  3
HIDETEXT
350
4BF
  3
INDEXCTL
350
4BE
  3
LAYEREVAL
350
473
  3
LAYERNOTIFY
350
474
  3
LIGHTINGUNITS
350
472
  3
MSLTSCALE
350
470
  3
SORTENTS
350
4BD
  3
XCLIPFRAME
350
4C1
  0
DICTIONARY
  5
420
102
{ACAD_REACTORS
330
9
102
}
330
9
100
AcDbDictionary
281
     1
  3
AcmStdDictionary
350
421
  0
DICTIONARY
  5
411
102
{ACAD_REACTORS
330
9
102
}
330
9
100
AcDbDictionary
281
     1
  3
AcMgSettings
350
41B
  0
DICTIONARY
  5
1D
102
{ACAD_REACTORS
330
1C
102
}
330
1C
100
AcDbDictionary
281
     1
  0
DICTIONARY
  5
1E
102
{ACAD_REACTORS
330
1C
102
}
330
1C
100
AcDbDictionary
281
     1
1001
ACAD
1000
<All
  0
SORTENTSTABLE
  5
40F
102
{ACAD_REACTORS
330
3
102
}
330
3
100
AcDbSortentsTable
330
2
331
122
  5
1EC
331
37C
  5
7F
331
2F9
  5
106
331
12D
  5
1E3
331
80
  5
37B
331
1E8
  5
128
331
7A
  5
37E
331
145
  5
1DF
331
1DC
  5
1CA
331
1CD
  5
1D9
331
109
  5
2F6
331
381
  5
77
331
75
  5
3C5
331
26F
  5
11F
331
1E2
  5
12E
331
121
  5
1ED
331
1ED
  5
121
331
40A
  5
40D
331
37B
  5
80
331
2F8
  5
107
331
7F
  5
37C
331
12C
  5
1E4
331
1D2
  5
1D4
331
1E7
  5
129
331
79
  5
37F
331
1DB
  5
1CB
331
1CC
  5
1DA
331
108
  5
2F7
331
22E
  5
120
331
380
  5
78
331
1E1
  5
12F
331
1D7
  5
1CF
331
120
  5
22E
331
1EC
  5
122
331
37A
  5
81
331
2F7
  5
108
331
7E
  5
37D
331
13A
  5
1E0
331
12B
  5
1E5
331
1D1
  5
1D5
331
1E6
  5
12A
331
78
  5
380
331
1DA
  5
1CC
331
125
  5
1E9
331
1CB
  5
1DB
331
107
  5
2F8
331
37F
  5
79
331
1E0
  5
13A
331
1D6
  5
1D0
331
1EB
  5
123
331
379
  5
105
331
2F6
  5
109
331
12A
  5
1E6
331
1D0
  5
1D6
331
1DF
  5
145
331
1E5
  5
12B
331
3C6
  5
6E
331
1D9
  5
1CD
331
124
  5
1EA
331
1CA
  5
1DC
331
106
  5
2F9
331
37E
  5
7A
331
40D
  5
40A
331
12F
  5
1E1
331
1D5
  5
1D1
331
1EA
  5
124
331
6E
  5
3C6
331
2F5
  5
114
331
147
  5
1DD
331
129
  5
1E7
331
1CF
  5
1D7
331
1DE
  5
146
331
1E4
  5
12C
331
3C5
  5
75
331
77
  5
381
331
123
  5
1EB
331
114
  5
2F5
331
1D8
  5
1CE
331
105
  5
379
331
37D
  5
7E
331
1D4
  5
1D2
331
12E
  5
1E2
331
11F
  5
26F
331
81
  5
37A
331
1E9
  5
125
331
1DD
  5
147
331
1CE
  5
1D8
331
128
  5
1E8
331
146
  5
1DE
331
1E3
  5
12D
  0
XRECORD
  5
4C5
102
{ACAD_REACTORS
330
4C4
102
}
330
4C4
100
AcDbXrecord
280
     1
 70
     1
  0
XRECORD
  5
4C7
102
{ACAD_REACTORS
330
4C4
102
}
330
4C4
100
AcDbXrecord
280
     1
340
24
  0
XRECORD
  5
4C8
102
{ACAD_REACTORS
330
4C4
102
}
330
4C4
100
AcDbXrecord
280
     1
340
24
  0
XRECORD
  5
4C6
102
{ACAD_REACTORS
330
4C4
102
}
330
4C4
100
AcDbXrecord
280
     1
340
24
  0
LAYOUT
  5
D
102
{ACAD_XDICTIONARY
360
4CB
102
}
102
{ACAD_REACTORS
330
8
102
}
330
8
100
AcDbPlotSettings
  1

  2
\\le-server\HP LaserJet 2100
  4

  6

 40
0.0
 41
0.0
 42
0.0
 43
0.0
 44
0.0
 45
0.0
 46
0.0
 47
0.0
 48
0.0
 49
0.0
140
0.0
141
0.0
142
1.0
143
1.0
 70
   688
 72
     0
 73
     0
 74
     5
  7

 75
    16
147
1.0
148
0.0
149
0.0
100
AcDbLayout
  1
Layout1
 70
     1
 71
     1
 10
0.0
 20
0.0
 11
1189.0
 21
840.9999999999998
 12
0.0
 22
0.0
 32
0.0
 14
0.0
 24
0.0
 34
0.0
 15
1189.0
 25
840.9999999999998
 35
0.0
146
0.0
 13
0.0
 23
0.0
 33
0.0
 16
1.0
 26
0.0
 36
0.0
 17
0.0
 27
1.0
 37
0.0
 76
     0
330
A
  0
LAYOUT
  5
7
102
{ACAD_XDICTIONARY
360
4C9
102
}
102
{ACAD_REACTORS
330
8
102
}
330
8
100
AcDbPlotSettings
  1

  2
\\le-server\HP LaserJet 2100
  4

  6

 40
0.0
 41
0.0
 42
0.0
 43
0.0
 44
0.0
 45
0.0
 46
0.0
 47
0.0
 48
0.0
 49
0.0
140
0.0
141
0.0
142
1.0
143
1.0
 70
  1712
 72
     0
 73
     0
 74
     0
  7

 75
     0
147
1.0
148
0.0
149
0.0
100
AcDbLayout
  1
Model
 70
     1
 71
     0
 10
0.0
 20
0.0
 11
12.0
 21
9.0
 12
0.0
 22
0.0
 32
0.0
 14
0.0
 24
0.0
 34
0.0
 15
0.0
 25
0.0
 35
0.0
146
0.0
 13
0.0
 23
0.0
 33
0.0
 16
1.0
 26
0.0
 36
0.0
 17
0.0
 27
1.0
 37
0.0
 76
     0
330
2
331
29
  0
MATERIAL
  5
3C
102
{ACAD_XDICTIONARY
360
3D
102
}
102
{ACAD_REACTORS
330
13
102
}
330
13
100
AcDbMaterial
  1
ByBlock
 72
     0
 43
0.0208333333333333
 43
0.0
 43
0.0
 43
0.0
 43
0.0
 43
0.0208333333333333
 43
0.0
 43
0.0
 43
0.0
 43
0.0
 43
1.0
 43
0.0
 43
0.0
 43
0.0
 43
0.0
 43
1.0
 77
     0
 47
0.0208333333333333
 47
0.0
 47
0.0
 47
0.0
 47
0.0
 47
0.0208333333333333
 47
0.0
 47
0.0
 47
0.0
 47
0.0
 47
1.0
 47
0.0
 47
0.0
 47
0.0
 47
0.0
 47
1.0
171
     0
 49
0.0208333333333333
 49
0.0
 49
0.0
 49
0.0
 49
0.0
 49
0.0208333333333333
 49
0.0
 49
0.0
 49
0.0
 49
0.0
 49
1.0
 49
0.0
 49
0.0
 49
0.0
 49
0.0
 49
1.0
175
     0
142
0.0208333333333333
142
0.0
142
0.0
142
0.0
142
0.0
142
0.0208333333333333
142
0.0
142
0.0
142
0.0
142
0.0
142
1.0
142
0.0
142
0.0
142
0.0
142
0.0
142
1.0
179
     0
144
0.0208333333333333
144
0.0
144
0.0
144
0.0
144
0.0
144
0.0208333333333333
144
0.0
144
0.0
144
0.0
144
0.0
144
1.0
144
0.0
144
0.0
144
0.0
144
0.0
144
1.0
147
0.0208333333333333
147
0.0
147
0.0
147
0.0
147
0.0
147
0.0208333333333333
147
0.0
147
0.0
147
0.0
147
0.0
147
1.0
147
0.0
147
0.0
147
0.0
147
0.0
147
1.0
  0
MATERIAL
  5
34
102
{ACAD_XDICTIONARY
360
35
102
}
102
{ACAD_REACTORS
330
13
102
}
330
13
100
AcDbMaterial
  1
ByLayer
 72
     0
 43
0.0208333333333333
 43
0.0
 43
0.0
 43
0.0
 43
0.0
 43
0.0208333333333333
 43
0.0
 43
0.0
 43
0.0
 43
0.0
 43
1.0
 43
0.0
 43
0.0
 43
0.0
 43
0.0
 43
1.0
 77
     0
 47
0.0208333333333333
 47
0.0
 47
0.0
 47
0.0
 47
0.0
 47
0.0208333333333333
 47
0.0
 47
0.0
 47
0.0
 47
0.0
 47
1.0
 47
0.0
 47
0.0
 47
0.0
 47
0.0
 47
1.0
171
     0
 49
0.0208333333333333
 49
0.0
 49
0.0
 49
0.0
 49
0.0
 49
0.0208333333333333
 49
0.0
 49
0.0
 49
0.0
 49
0.0
 49
1.0
 49
0.0
 49
0.0
 49
0.0
 49
0.0
 49
1.0
175
     0
142
0.0208333333333333
142
0.0
142
0.0
142
0.0
142
0.0
142
0.0208333333333333
142
0.0
142
0.0
142
0.0
142
0.0
142
1.0
142
0.0
142
0.0
142
0.0
142
0.0
142
1.0
179
     0
144
0.0208333333333333
144
0.0
144
0.0
144
0.0
144
0.0
144
0.0208333333333333
144
0.0
144
0.0
144
0.0
144
0.0
144
1.0
144
0.0
144
0.0
144
0.0
144
0.0
144
1.0
147
0.0208333333333333
147
0.0
147
0.0
147
0.0
147
0.0
147
0.0208333333333333
147
0.0
147
0.0
147
0.0
147
0.0
147
1.0
147
0.0
147
0.0
147
0.0
147
0.0
147
1.0
  0
MATERIAL
  5
12
102
{ACAD_XDICTIONARY
360
14
102
}
102
{ACAD_REACTORS
330
13
102
}
330
13
100
AcDbMaterial
  1
Global
 72
     0
 43
0.0208333333333333
 43
0.0
 43
0.0
 43
0.0
 43
0.0
 43
0.0208333333333333
 43
0.0
 43
0.0
 43
0.0
 43
0.0
 43
1.0
 43
0.0
 43
0.0
 43
0.0
 43
0.0
 43
1.0
 77
     0
 47
0.0208333333333333
 47
0.0
 47
0.0
 47
0.0
 47
0.0
 47
0.0208333333333333
 47
0.0
 47
0.0
 47
0.0
 47
0.0
 47
1.0
 47
0.0
 47
0.0
 47
0.0
 47
0.0
 47
1.0
171
     0
 49
0.0208333333333333
 49
0.0
 49
0.0
 49
0.0
 49
0.0
 49
0.0208333333333333
 49
0.0
 49
0.0
 49
0.0
 49
0.0
 49
1.0
 49
0.0
 49
0.0
 49
0.0
 49
0.0
 49
1.0
175
     0
142
0.0208333333333333
142
0.0
142
0.0
142
0.0
142
0.0
142
0.0208333333333333
142
0.0
142
0.0
142
0.0
142
0.0
142
1.0
142
0.0
142
0.0
142
0.0
142
0.0
142
1.0
179
     0
144
0.0208333333333333
144
0.0
144
0.0
144
0.0
144
0.0
144
0.0208333333333333
144
0.0
144
0.0
144
0.0
144
0.0
144
1.0
144
0.0
144
0.0
144
0.0
144
0.0
144
1.0
147
0.0208333333333333
147
0.0
147
0.0
147
0.0
147
0.0
147
0.0208333333333333
147
0.0
147
0.0
147
0.0
147
0.0
147
1.0
147
0.0
147
0.0
147
0.0
147
0.0
147
1.0
  0
MLEADERSTYLE
  5
48B
102
{ACAD_REACTORS
330
47
102
}
330
47
100
AcDbMLeaderStyle
170
     2
171
     1
172
     0
 90
        2
 40
0.0
 41
0.0
173
     1
 91
-1056964608
340
24
 92
       -2
290
     1
 42
2.0
291
     1
 43
0.36
  3
Standard
 44
4.0
300

342
21
174
     1
178
     6
175
     1
176
     0
 93
-1056964608
 45
4.0
292
     0
297
     0
 46
4.0
 94
-1056964608
 47
1.0
 49
1.0
140
1.0
293
     1
141
0.0
294
     1
177
     0
142
1.0
295
     0
296
     0
143
0.125
1001
ACAD_MLEADERVER
1070
     2
  0
MLINESTYLE
  5
48
102
{ACAD_REACTORS
330
32
102
}
330
32
100
AcDbMlineStyle
  2
STANDARD
 70
     0
  3

 62
   256
 51
90.0
 52
90.0
 71
     2
 49
0.5
 62
   256
  6
BYLAYER
 49
-0.5
 62
   256
  6
BYLAYER
  0
ACDBPLACEHOLDER
  5
10
102
{ACAD_REACTORS
330
11
102
}
330
11
  0
SCALE
  5
4D
102
{ACAD_REACTORS
330
45
102
}
330
45
100
AcDbScale
 70
     0
300
1:1
140
1.0
141
1.0
290
     1
  0
SCALE
  5
4E
102
{ACAD_REACTORS
330
45
102
}
330
45
100
AcDbScale
 70
     0
300
1:2
140
1.0
141
2.0
290
     0
  0
SCALE
  5
4F
102
{ACAD_REACTORS
330
45
102
}
330
45
100
AcDbScale
 70
     0
300
1:4
140
1.0
141
4.0
290
     0
  0
SCALE
  5
50
102
{ACAD_REACTORS
330
45
102
}
330
45
100
AcDbScale
 70
     0
300
1:5
140
1.0
141
5.0
290
     0
  0
SCALE
  5
51
102
{ACAD_REACTORS
330
45
102
}
330
45
100
AcDbScale
 70
     0
300
1:8
140
1.0
141
8.0
290
     0
  0
SCALE
  5
52
102
{ACAD_REACTORS
330
45
102
}
330
45
100
AcDbScale
 70
     0
300
1:10
140
1.0
141
10.0
290
     0
  0
SCALE
  5
53
102
{ACAD_REACTORS
330
45
102
}
330
45
100
AcDbScale
 70
     0
300
1:16
140
1.0
141
16.0
290
     0
  0
SCALE
  5
54
102
{ACAD_REACTORS
330
45
102
}
330
45
100
AcDbScale
 70
     0
300
1:20
140
1.0
141
20.0
290
     0
  0
SCALE
  5
55
102
{ACAD_REACTORS
330
45
102
}
330
45
100
AcDbScale
 70
     0
300
1:30
140
1.0
141
30.0
290
     0
  0
SCALE
  5
56
102
{ACAD_REACTORS
330
45
102
}
330
45
100
AcDbScale
 70
     0
300
1:40
140
1.0
141
40.0
290
     0
  0
SCALE
  5
57
102
{ACAD_REACTORS
330
45
102
}
330
45
100
AcDbScale
 70
     0
300
1:50
140
1.0
141
50.0
290
     0
  0
SCALE
  5
58
102
{ACAD_REACTORS
330
45
102
}
330
45
100
AcDbScale
 70
     0
300
1:100
140
1.0
141
100.0
290
     0
  0
SCALE
  5
59
102
{ACAD_REACTORS
330
45
102
}
330
45
100
AcDbScale
 70
     0
300
2:1
140
2.0
141
1.0
290
     0
  0
SCALE
  5
5A
102
{ACAD_REACTORS
330
45
102
}
330
45
100
AcDbScale
 70
     0
300
4:1
140
4.0
141
1.0
290
     0
  0
SCALE
  5
5B
102
{ACAD_REACTORS
330
45
102
}
330
45
100
AcDbScale
 70
     0
300
8:1
140
8.0
141
1.0
290
     0
  0
SCALE
  5
5C
102
{ACAD_REACTORS
330
45
102
}
330
45
100
AcDbScale
 70
     0
300
10:1
140
10.0
141
1.0
290
     0
  0
SCALE
  5
5D
102
{ACAD_REACTORS
330
45
102
}
330
45
100
AcDbScale
 70
     0
300
100:1
140
100.0
141
1.0
290
     0
  0
SCALE
  5
5E
102
{ACAD_REACTORS
330
45
102
}
330
45
100
AcDbScale
 70
     0
300
1/128" = 1'-0"
140
0.0078125
141
12.0
290
     0
  0
SCALE
  5
5F
102
{ACAD_REACTORS
330
45
102
}
330
45
100
AcDbScale
 70
     0
300
1/64" = 1'-0"
140
0.015625
141
12.0
290
     0
  0
SCALE
  5
60
102
{ACAD_REACTORS
330
45
102
}
330
45
100
AcDbScale
 70
     0
300
1/32" = 1'-0"
140
0.03125
141
12.0
290
     0
  0
SCALE
  5
61
102
{ACAD_REACTORS
330
45
102
}
330
45
100
AcDbScale
 70
     0
300
1/16" = 1'-0"
140
0.0625
141
12.0
290
     0
  0
SCALE
  5
62
102
{ACAD_REACTORS
330
45
102
}
330
45
100
AcDbScale
 70
     0
300
3/32" = 1'-0"
140
0.09375
141
12.0
290
     0
  0
SCALE
  5
63
102
{ACAD_REACTORS
330
45
102
}
330
45
100
AcDbScale
 70
     0
300
1/8" = 1'-0"
140
0.125
141
12.0
290
     0
  0
SCALE
  5
64
102
{ACAD_REACTORS
330
45
102
}
330
45
100
AcDbScale
 70
     0
300
3/16" = 1'-0"
140
0.1875
141
12.0
290
     0
  0
SCALE
  5
65
102
{ACAD_REACTORS
330
45
102
}
330
45
100
AcDbScale
 70
     0
300
1/4" = 1'-0"
140
0.25
141
12.0
290
     0
  0
SCALE
  5
66
102
{ACAD_REACTORS
330
45
102
}
330
45
100
AcDbScale
 70
     0
300
3/8" = 1'-0"
140
0.375
141
12.0
290
     0
  0
SCALE
  5
67
102
{ACAD_REACTORS
330
45
102
}
330
45
100
AcDbScale
 70
     0
300
1/2" = 1'-0"
140
0.5
141
12.0
290
     0
  0
SCALE
  5
68
102
{ACAD_REACTORS
330
45
102
}
330
45
100
AcDbScale
 70
     0
300
3/4" = 1'-0"
140
0.75
141
12.0
290
     0
  0
SCALE
  5
69
102
{ACAD_REACTORS
330
45
102
}
330
45
100
AcDbScale
 70
     0
300
1" = 1'-0"
140
1.0
141
12.0
290
     0
  0
SCALE
  5
6A
102
{ACAD_REACTORS
330
45
102
}
330
45
100
AcDbScale
 70
     0
300
1-1/2" = 1'-0"
140
1.5
141
12.0
290
     0
  0
SCALE
  5
6B
102
{ACAD_REACTORS
330
45
102
}
330
45
100
AcDbScale
 70
     0
300
3" = 1'-0"
140
3.0
141
12.0
290
     0
  0
SCALE
  5
6C
102
{ACAD_REACTORS
330
45
102
}
330
45
100
AcDbScale
 70
     0
300
6" = 1'-0"
140
6.0
141
12.0
290
     0
  0
SCALE
  5
6D
102
{ACAD_REACTORS
330
45
102
}
330
45
100
AcDbScale
 70
     0
300
1'-0" = 1'-0"
140
12.0
141
12.0
290
     0
  0
TABLESTYLE
  5
49
102
{ACAD_XDICTIONARY
360
4A
102
}
102
{ACAD_REACTORS
330
46
102
}
330
46
100
AcDbTableStyle
  3
Standard
 70
     0
 71
     0
 40
0.06
 41
0.06
280
     0
281
     0
  7
STANDARD
140
0.18
170
     2
 62
     0
 63
     7
283
     0
274
    -2
284
     1
 64
     0
275
    -2
285
     1
 65
     0
276
    -2
286
     1
 66
     0
277
    -2
287
     1
 67
     0
278
    -2
288
     1
 68
     0
279
    -2
289
     1
 69
     0
  7
STANDARD
140
0.25
170
     5
 62
     0
 63
     7
283
     0
274
    -2
284
     1
 64
     0
275
    -2
285
     1
 65
     0
276
    -2
286
     1
 66
     0
277
    -2
287
     1
 67
     0
278
    -2
288
     1
 68
     0
279
    -2
289
     1
 69
     0
  7
STANDARD
140
0.18
170
     5
 62
     0
 63
     7
283
     0
274
    -2
284
     1
 64
     0
275
    -2
285
     1
 65
     0
276
    -2
286
     1
 66
     0
277
    -2
287
     1
 67
     0
278
    -2
288
     1
 68
     0
279
    -2
289
     1
 69
     0
  0
VISUALSTYLE
  5
2A
102
{ACAD_XDICTIONARY
360
4CE
102
}
102
{ACAD_REACTORS
330
2B
102
}
330
2B
100
AcDbVisualStyle
  2
2dWireframe
 70
     4
 71
     0
 72
     2
 73
     0
 90
        0
 40
-0.6
 41
-30.0
 62
     5
 63
     7
 74
     1
 91
        4
 64
     7
 65
   257
 75
     1
175
     1
 42
1.0
 92
        0
 66
   257
 43
1.0
 76
     1
 77
     6
 78
     2
 67
     7
 79
     5
170
     0
171
     0
290
     0
174
     0
 93
        1
 44
0.0
173
     0
291
     0
 45
0.0
1001
ACAD
1000
AcDbSavedByObjectVersion
1070
     0
  0
VISUALSTYLE
  5
47A
102
{ACAD_XDICTIONARY
360
4E5
102
}
102
{ACAD_REACTORS
330
2B
102
}
330
2B
100
AcDbVisualStyle
  2
Basic
 70
     7
 71
     1
 72
     0
 73
     1
 90
        0
 40
-0.6
 41
-30.0
 62
     5
 63
     7
 74
     0
 91
        4
 64
     7
 65
   257
 75
     1
175
     1
 42
1.0
 92
        8
 66
     7
 43
1.0
 76
     1
 77
     6
 78
     2
 67
     7
 79
     5
170
     0
171
     0
290
     0
174
     0
 93
        1
 44
0.0
173
     0
291
     1
 45
0.0
1001
ACAD
1000
AcDbSavedByObjectVersion
1070
     0
  0
VISUALSTYLE
  5
47E
102
{ACAD_XDICTIONARY
360
4ED
102
}
102
{ACAD_REACTORS
330
2B
102
}
330
2B
100
AcDbVisualStyle
  2
Brighten
 70
    12
 71
     2
 72
     2
 73
     0
 90
        0
 40
-0.6
 41
-30.0
 62
     5
 63
     7
 74
     1
 91
        4
 64
     7
 65
   257
 75
     1
175
     1
 42
1.0
 92
        8
 66
     7
 43
1.0
 76
     1
 77
     6
 78
     2
 67
     7
 79
     5
170
     0
171
     0
290
     0
174
     0
 93
        1
 44
50.0
173
     0
291
     1
 45
0.0
1001
ACAD
1000
AcDbSavedByObjectVersion
1070
     0
  0
VISUALSTYLE
  5
482
102
{ACAD_XDICTIONARY
360
4F5
102
}
102
{ACAD_REACTORS
330
2B
102
}
330
2B
100
AcDbVisualStyle
  2
ColorChange
 70
    16
 71
     2
 72
     2
 73
     3
 90
        0
 40
-0.6
 41
-30.0
 62
     5
 63
     8
 74
     1
 91
        4
 64
     7
 65
   257
 75
     1
175
     1
 42
1.0
 92
        8
 66
     8
 43
1.0
 76
     1
 77
     6
 78
     2
 67
     7
 79
     5
170
     0
171
     0
290
     0
174
     0
 93
        1
 44
0.0
173
     0
291
     1
 45
0.0
1001
ACAD
1000
AcDbSavedByObjectVersion
1070
     0
  0
VISUALSTYLE
  5
47C
102
{ACAD_XDICTIONARY
360
4E9
102
}
102
{ACAD_REACTORS
330
2B
102
}
330
2B
100
AcDbVisualStyle
  2
Conceptual
 70
     9
 71
     3
 72
     2
 73
     0
 90
        0
 40
-0.6
 41
-30.0
 62
     5
 63
     7
 74
     2
 91
        2
 64
     7
 65
   257
 75
     1
175
     1
 42
179.0
 92
        8
 66
     7
 43
1.0
 76
     1
 77
     6
 78
     2
 67
     7
 79
     3
170
     0
171
     0
290
     0
174
     0
 93
        1
 44
0.0
173
     0
291
     0
 45
0.0
1001
ACAD
1000
AcDbSavedByObjectVersion
1070
     0
  0
VISUALSTYLE
  5
47D
102
{ACAD_XDICTIONARY
360
4EB
102
}
102
{ACAD_REACTORS
330
2B
102
}
330
2B
100
AcDbVisualStyle
  2
Dim
 70
    11
 71
     2
 72
     2
 73
     0
 90
        0
 40
-0.6
 41
-30.0
 62
     5
 63
     7
 74
     1
 91
        4
 64
     7
 65
   257
 75
     1
175
     1
 42
1.0
 92
        8
 66
     7
 43
1.0
 76
     1
 77
     6
 78
     2
 67
     7
 79
     5
170
     0
171
     0
290
     0
174
     0
 93
        1
 44
-50.0
173
     0
291
     1
 45
0.0
1001
ACAD
1000
AcDbSavedByObjectVersion
1070
     0
  0
VISUALSTYLE
  5
48A
102
{ACAD_XDICTIONARY
360
505
102
}
102
{ACAD_REACTORS
330
2B
102
}
330
2B
100
AcDbVisualStyle
  2
EdgeColorOff
 70
    22
 71
     2
 72
     2
 73
     0
 90
        0
 40
-0.6
 41
-30.0
 62
     5
 63
     7
 74
     1
 91
        4
 64
     7
 65
   257
 75
     1
175
     1
 42
1.0
 92
        8
 66
     7
 43
1.0
 76
     1
 77
     6
 78
     2
 67
     7
 79
     5
170
     0
171
     0
290
     0
174
     0
 93
        1
 44
0.0
173
     0
291
     1
 45
0.0
1001
ACAD
1000
AcDbSavedByObjectVersion
1070
     0
  0
VISUALSTYLE
  5
481
102
{ACAD_XDICTIONARY
360
4F3
102
}
102
{ACAD_REACTORS
330
2B
102
}
330
2B
100
AcDbVisualStyle
  2
Facepattern
 70
    15
 71
     2
 72
     2
 73
     0
 90
        0
 40
-0.6
 41
-30.0
 62
     5
 63
     7
 74
     1
 91
        4
 64
     7
 65
   257
 75
     1
175
     1
 42
1.0
 92
        8
 66
     7
 43
1.0
 76
     1
 77
     6
 78
     2
 67
     7
 79
     5
170
     0
171
     0
290
     0
174
     0
 93
        1
 44
0.0
173
     0
291
     1
 45
0.0
1001
ACAD
1000
AcDbSavedByObjectVersion
1070
     0
  0
VISUALSTYLE
  5
476
102
{ACAD_XDICTIONARY
360
4DD
102
}
102
{ACAD_REACTORS
330
2B
102
}
330
2B
100
AcDbVisualStyle
  2
Flat
 70
     0
 71
     2
 72
     1
 73
     1
 90
        2
 40
-0.6
 41
30.0
 62
     5
 63
     7
 74
     0
 91
        0
 64
     7
 65
   257
 75
     1
175
     1
 42
1.0
 92
        8
 66
     7
 43
1.0
 76
     1
 77
     6
 78
     2
 67
     7
 79
     5
170
     0
171
     0
290
     0
174
     0
 93
       13
 44
0.0
173
     0
291
     1
 45
0.0
1001
ACAD
1000
AcDbSavedByObjectVersion
1070
     0
  0
VISUALSTYLE
  5
477
102
{ACAD_XDICTIONARY
360
4DF
102
}
102
{ACAD_REACTORS
330
2B
102
}
330
2B
100
AcDbVisualStyle
  2
FlatWithEdges
 70
     1
 71
     2
 72
     1
 73
     1
 90
        2
 40
-0.6
 41
30.0
 62
     5
 63
     7
 74
     1
 91
        0
 64
     7
 65
   257
 75
     1
175
     1
 42
1.0
 92
        0
 66
   257
 43
1.0
 76
     1
 77
     6
 78
     2
 67
     7
 79
     5
170
     0
171
     0
290
     0
174
     0
 93
       13
 44
0.0
173
     0
291
     1
 45
0.0
1001
ACAD
1000
AcDbSavedByObjectVersion
1070
     0
  0
VISUALSTYLE
  5
478
102
{ACAD_XDICTIONARY
360
4E1
102
}
102
{ACAD_REACTORS
330
2B
102
}
330
2B
100
AcDbVisualStyle
  2
Gouraud
 70
     2
 71
     2
 72
     2
 73
     1
 90
        2
 40
-0.6
 41
30.0
 62
     5
 63
     7
 74
     0
 91
        0
 64
     7
 65
   257
 75
     1
175
     1
 42
1.0
 92
        0
 66
     7
 43
1.0
 76
     1
 77
     6
 78
     2
 67
     7
 79
     5
170
     0
171
     0
290
     0
174
     0
 93
       13
 44
0.0
173
     0
291
     1
 45
0.0
1001
ACAD
1000
AcDbSavedByObjectVersion
1070
     0
  0
VISUALSTYLE
  5
479
102
{ACAD_XDICTIONARY
360
4E3
102
}
102
{ACAD_REACTORS
330
2B
102
}
330
2B
100
AcDbVisualStyle
  2
GouraudWithEdges
 70
     3
 71
     2
 72
     2
 73
     1
 90
        2
 40
-0.6
 41
30.0
 62
     5
 63
     7
 74
     1
 91
        0
 64
     7
 65
   257
 75
     1
175
     1
 42
1.0
 92
        0
 66
   257
 43
1.0
 76
     1
 77
     6
 78
     2
 67
     7
 79
     5
170
     0
171
     0
290
     0
174
     0
 93
       13
 44
0.0
173
     0
291
     1
 45
0.0
1001
ACAD
1000
AcDbSavedByObjectVersion
1070
     0
  0
VISUALSTYLE
  5
47B
102
{ACAD_XDICTIONARY
360
4E7
102
}
102
{ACAD_REACTORS
330
2B
102
}
330
2B
100
AcDbVisualStyle
  2
Hidden
 70
     6
 71
     1
 72
     2
 73
     2
 90
        0
 40
-0.6
 41
-30.0
 62
     5
 63
     7
 74
     2
 91
        2
 64
     7
 65
   257
 75
     2
175
     1
 42
40.0
 92
        0
 66
   257
 43
1.0
 76
     1
 77
     6
 78
     2
 67
     7
 79
     3
170
     0
171
     0
290
     0
174
     0
 93
        1
 44
0.0
173
     0
291
     0
 45
0.0
1001
ACAD
1000
AcDbSavedByObjectVersion
1070
     0
  0
VISUALSTYLE
  5
488
102
{ACAD_XDICTIONARY
360
501
102
}
102
{ACAD_REACTORS
330
2B
102
}
330
2B
100
AcDbVisualStyle
  2
JitterOff
 70
    20
 71
     2
 72
     2
 73
     0
 90
        0
 40
-0.6
 41
-30.0
 62
     5
 63
     7
 74
     1
 91
        4
 64
     7
 65
   257
 75
     1
175
     1
 42
1.0
 92
       10
 66
     7
 43
1.0
 76
     1
 77
     6
 78
     2
 67
     7
 79
     5
170
     0
171
     0
290
     0
174
     0
 93
        1
 44
0.0
173
     0
291
     1
 45
0.0
1001
ACAD
1000
AcDbSavedByObjectVersion
1070
     0
  0
VISUALSTYLE
  5
480
102
{ACAD_XDICTIONARY
360
4F1
102
}
102
{ACAD_REACTORS
330
2B
102
}
330
2B
100
AcDbVisualStyle
  2
Linepattern
 70
    14
 71
     2
 72
     2
 73
     0
 90
        0
 40
-0.6
 41
-30.0
 62
     5
 63
     7
 74
     1
 91
        4
 64
     7
 65
   257
 75
     7
175
     7
 42
1.0
 92
        8
 66
     7
 43
1.0
 76
     1
 77
     6
 78
     2
 67
     7
 79
     5
170
     0
171
     0
290
     0
174
     0
 93
        1
 44
0.0
173
     0
291
     1
 45
0.0
1001
ACAD
1000
AcDbSavedByObjectVersion
1070
     0
  0
VISUALSTYLE
  5
489
102
{ACAD_XDICTIONARY
360
503
102
}
102
{ACAD_REACTORS
330
2B
102
}
330
2B
100
AcDbVisualStyle
  2
OverhangOff
 70
    21
 71
     2
 72
     2
 73
     0
 90
        0
 40
-0.6
 41
-30.0
 62
     5
 63
     7
 74
     1
 91
        4
 64
     7
 65
   257
 75
     1
175
     1
 42
1.0
 92
        9
 66
     7
 43
1.0
 76
     1
 77
     6
 78
     2
 67
     7
 79
     5
170
     0
171
     0
290
     0
174
     0
 93
        1
 44
0.0
173
     0
291
     1
 45
0.0
1001
ACAD
1000
AcDbSavedByObjectVersion
1070
     0
  0
VISUALSTYLE
  5
4B
102
{ACAD_XDICTIONARY
360
4D3
102
}
102
{ACAD_REACTORS
330
2B
102
}
330
2B
100
AcDbVisualStyle
  2
Realistic
 70
     8
 71
     2
 72
     2
 73
     0
 90
        0
 40
-0.6
 41
-30.0
 62
     5
 63
     7
 74
     1
 91
        0
 64
     7
 65
   257
 75
     1
175
     1
 42
1.0
 92
        8
 66
     8
 43
1.0
 76
     1
 77
     6
 78
     2
 67
     7
 79
     5
170
     0
171
     0
290
     0
174
     0
 93
       13
 44
0.0
173
     0
291
     0
 45
0.0
1001
ACAD
1000
AcDbSavedByObjectVersion
1070
     0
  0
VISUALSTYLE
  5
487
102
{ACAD_XDICTIONARY
360
4FF
102
}
102
{ACAD_REACTORS
330
2B
102
}
330
2B
100
AcDbVisualStyle
  2
Shaded
 70
    27
 71
     2
 72
     2
 73
     1
 90
        2
 40
-0.6
 41
30.0
 62
     5
 63
     7
 74
     0
 91
        4
 64
     7
 65
   257
 75
     1
175
     1
 42
1.0
 92
        8
 66
   257
 43
1.0
 76
     1
 77
     6
 78
     2
 67
     8
 79
     3
170
     0
171
     0
290
     0
174
     0
 93
        5
 44
0.0
173
     0
291
     0
 45
0.0
1001
ACAD
1000
AcDbSavedByObjectVersion
1070
     0
  0
VISUALSTYLE
  5
486
102
{ACAD_XDICTIONARY
360
4FD
102
}
102
{ACAD_REACTORS
330
2B
102
}
330
2B
100
AcDbVisualStyle
  2
Shaded with edges
 70
    26
 71
     2
 72
     2
 73
     1
 90
        2
 40
-0.6
 41
30.0
 62
     5
 63
     7
 74
     1
 91
       10
 64
     7
 65
   257
 75
     2
175
     1
 42
1.0
 92
        8
 66
   257
 43
1.0
 76
     1
 77
     6
 78
     2
 67
     7
 79
     3
170
     0
171
     0
290
     0
174
     0
 93
        5
 44
0.0
173
     0
291
     0
 45
0.0
1001
ACAD
1000
AcDbSavedByObjectVersion
1070
     0
  0
VISUALSTYLE
  5
483
102
{ACAD_XDICTIONARY
360
4F7
102
}
102
{ACAD_REACTORS
330
2B
102
}
330
2B
100
AcDbVisualStyle
  2
Shades of Gray
 70
    23
 71
     2
 72
     2
 73
     3
 90
        0
 40
-0.6
 41
-30.0
 62
     5
 63
     7
 74
     2
 91
        2
 64
     7
 65
     7
 75
     1
175
     1
 42
40.0
 92
        8
 66
     7
 43
1.0
 76
     1
 77
     6
 78
     2
 67
     7
 79
     3
170
     0
171
     0
290
     0
174
     0
 93
        1
 44
0.0
173
     0
291
     0
 45
0.0
1001
ACAD
1000
AcDbSavedByObjectVersion
1070
     0
  0
VISUALSTYLE
  5
484
102
{ACAD_XDICTIONARY
360
4F9
102
}
102
{ACAD_REACTORS
330
2B
102
}
330
2B
100
AcDbVisualStyle
  2
Sketchy
 70
    24
 71
     1
 72
     2
 73
     2
 90
        0
 40
-0.6
 41
-30.0
 62
     5
 63
     7
 74
     2
 91
        2
 64
     7
 65
     7
 75
     1
175
     1
 42
40.0
 92
       11
 66
     7
 43
1.0
 76
     1
 77
     6
 78
     2
 67
     7
 79
     6
170
     0
171
     0
290
     0
174
     0
 93
        1
 44
0.0
173
     0
291
     0
 45
0.0
1001
ACAD
1000
AcDbSavedByObjectVersion
1070
     0
  0
VISUALSTYLE
  5
47F
102
{ACAD_XDICTIONARY
360
4EF
102
}
102
{ACAD_REACTORS
330
2B
102
}
330
2B
100
AcDbVisualStyle
  2
Thicken
 70
    13
 71
     2
 72
     2
 73
     0
 90
        0
 40
-0.6
 41
-30.0
 62
     5
 63
     7
 74
     1
 91
        4
 64
     7
 65
   257
 75
     1
175
     1
 42
1.0
 92
       12
 66
     7
 43
1.0
 76
     1
 77
     6
 78
     2
 67
     7
 79
     5
170
     0
171
     0
290
     0
174
     0
 93
        1
 44
0.0
173
     0
291
     1
 45
0.0
1001
ACAD
1000
AcDbSavedByObjectVersion
1070
     0
  0
VISUALSTYLE
  5
4C
102
{ACAD_XDICTIONARY
360
4D5
102
}
102
{ACAD_REACTORS
330
2B
102
}
330
2B
100
AcDbVisualStyle
  2
Wireframe
 70
     5
 71
     0
 72
     2
 73
     0
 90
        0
 40
-0.6
 41
-30.0
 62
     5
 63
     7
 74
     1
 91
        4
 64
     7
 65
   257
 75
     1
175
     1
 42
1.0
 92
        0
 66
   257
 43
1.0
 76
     1
 77
     6
 78
     2
 67
     7
 79
     3
170
     0
171
     0
290
     0
174
     0
 93
        1
 44
0.0
173
     0
291
     0
 45
0.0
1001
ACAD
1000
AcDbSavedByObjectVersion
1070
     0
  0
VISUALSTYLE
  5
485
102
{ACAD_XDICTIONARY
360
4FB
102
}
102
{ACAD_REACTORS
330
2B
102
}
330
2B
100
AcDbVisualStyle
  2
X-Ray
 70
    25
 71
     2
 72
     2
 73
     1
 90
        1
 40
0.5
 41
-30.0
 62
     5
 63
     7
 74
     1
 91
        0
 64
     7
 65
   257
 75
     1
175
     1
 42
1.0
 92
        8
 66
     7
 43
1.0
 76
     1
 77
     6
 78
     2
 67
     7
 79
     3
170
     0
171
     0
290
     0
174
     0
 93
       13
 44
0.0
173
     0
291
     0
 45
0.0
1001
ACAD
1000
AcDbSavedByObjectVersion
1070
     0
  0
DICTIONARYVAR
  5
471
102
{ACAD_REACTORS
330
46D
102
}
330
46D
100
DictionaryVariables
280
     0
  1
1:1
  0
DICTIONARYVAR
  5
46F
102
{ACAD_REACTORS
330
46D
102
}
330
46D
100
DictionaryVariables
280
     0
  1
STANDARD
  0
DICTIONARYVAR
  5
46E
102
{ACAD_REACTORS
330
46D
102
}
330
46D
100
DictionaryVariables
280
     0
  1
STANDARD
  0
DICTIONARYVAR
  5
4C0
102
{ACAD_REACTORS
330
46D
102
}
330
46D
100
DictionaryVariables
280
     0
  1
1
  0
DICTIONARYVAR
  5
4BF
102
{ACAD_REACTORS
330
46D
102
}
330
46D
100
DictionaryVariables
280
     0
  1
1
  0
DICTIONARYVAR
  5
4BE
102
{ACAD_REACTORS
330
46D
102
}
330
46D
100
DictionaryVariables
280
     0
  1
0
  0
DICTIONARYVAR
  5
473
102
{ACAD_REACTORS
330
46D
102
}
330
46D
100
DictionaryVariables
280
     0
  1
1
  0
DICTIONARYVAR
  5
474
102
{ACAD_REACTORS
330
46D
102
}
330
46D
100
DictionaryVariables
280
     0
  1
15
  0
DICTIONARYVAR
  5
472
102
{ACAD_REACTORS
330
46D
102
}
330
46D
100
DictionaryVariables
280
     0
  1
0
  0
DICTIONARYVAR
  5
470
102
{ACAD_REACTORS
330
46D
102
}
330
46D
100
DictionaryVariables
280
     0
  1
0
  0
DICTIONARYVAR
  5
4BD
102
{ACAD_REACTORS
330
46D
102
}
330
46D
100
DictionaryVariables
280
     0
  1
127
  0
DICTIONARYVAR
  5
4C1
102
{ACAD_REACTORS
330
46D
102
}
330
46D
100
DictionaryVariables
280
     0
  1
2
  0
DICTIONARY
  5
421
102
{ACAD_REACTORS
330
420
102
}
330
420
100
AcDbDictionary
281
     1
  0
DICTIONARY
  5
41B
102
{ACAD_REACTORS
330
411
102
}
330
411
100
AcDbDictionary
281
     1
  3
DWGSETTINGS
350
41A
  3
TRANSSETTINGS
350
41C
  0
DICTIONARY
  5
4CB
330
D
100
AcDbDictionary
280
     1
281
     1
  3
ACAD_XREC_ROUNDTRIP
360
4CC
  0
DICTIONARY
  5
4C9
330
7
100
AcDbDictionary
280
     1
281
     1
  3
ACAD_XREC_ROUNDTRIP
360
4CA
  0
DICTIONARY
  5
3D
330
3C
100
AcDbDictionary
280
     1
281
     1
  3
ACAD_XREC_ROUNDTRIP
360
4D1
  3
BUMPTILE
360
3E
  3
DIFFUSETILE
360
3F
  3
OPACITYTILE
360
40
  3
REFLECTIONTILE
360
41
  3
REFRACTIONTILE
360
42
  3
SPECULARTILE
360
43
  0
DICTIONARY
  5
35
330
34
100
AcDbDictionary
280
     1
281
     1
  3
ACAD_XREC_ROUNDTRIP
360
4D0
  3
BUMPTILE
360
36
  3
DIFFUSETILE
360
37
  3
OPACITYTILE
360
38
  3
REFLECTIONTILE
360
39
  3
REFRACTIONTILE
360
3A
  3
SPECULARTILE
360
3B
  0
DICTIONARY
  5
14
330
12
100
AcDbDictionary
280
     1
281
     1
  3
ACAD_XREC_ROUNDTRIP
360
4CD
  3
BUMPTILE
360
15
  3
DIFFUSETILE
360
16
  3
OPACITYTILE
360
17
  3
REFLECTIONTILE
360
18
  3
REFRACTIONTILE
360
19
  3
SPECULARTILE
360
1A
  0
DICTIONARY
  5
4A
330
49
100
AcDbDictionary
280
     1
281
     1
  3
ACAD_ROUNDTRIP_2008_TABLESTYLE_CELLSTYLEMAP
360
4C2
  3
ACAD_XREC_ROUNDTRIP
360
4D2
  0
DICTIONARY
  5
4CE
330
2A
100
AcDbDictionary
280
     1
281
     1
  3
ACAD_XREC_ROUNDTRIP
360
4CF
  0
DICTIONARY
  5
4E5
330
47A
100
AcDbDictionary
280
     1
281
     1
  3
ACAD_XREC_ROUNDTRIP
360
4E6
  0
DICTIONARY
  5
4ED
330
47E
100
AcDbDictionary
280
     1
281
     1
  3
ACAD_XREC_ROUNDTRIP
360
4EE
  0
DICTIONARY
  5
4F5
330
482
100
AcDbDictionary
280
     1
281
     1
  3
ACAD_XREC_ROUNDTRIP
360
4F6
  0
DICTIONARY
  5
4E9
330
47C
100
AcDbDictionary
280
     1
281
     1
  3
ACAD_XREC_ROUNDTRIP
360
4EA
  0
DICTIONARY
  5
4EB
330
47D
100
AcDbDictionary
280
     1
281
     1
  3
ACAD_XREC_ROUNDTRIP
360
4EC
  0
DICTIONARY
  5
505
330
48A
100
AcDbDictionary
280
     1
281
     1
  3
ACAD_XREC_ROUNDTRIP
360
506
  0
DICTIONARY
  5
4F3
330
481
100
AcDbDictionary
280
     1
281
     1
  3
ACAD_XREC_ROUNDTRIP
360
4F4
  0
DICTIONARY
  5
4DD
330
476
100
AcDbDictionary
280
     1
281
     1
  3
ACAD_XREC_ROUNDTRIP
360
4DE
  0
DICTIONARY
  5
4DF
330
477
100
AcDbDictionary
280
     1
281
     1
  3
ACAD_XREC_ROUNDTRIP
360
4E0
  0
DICTIONARY
  5
4E1
330
478
100
AcDbDictionary
280
     1
281
     1
  3
ACAD_XREC_ROUNDTRIP
360
4E2
  0
DICTIONARY
  5
4E3
330
479
100
AcDbDictionary
280
     1
281
     1
  3
ACAD_XREC_ROUNDTRIP
360
4E4
  0
DICTIONARY
  5
4E7
330
47B
100
AcDbDictionary
280
     1
281
     1
  3
ACAD_XREC_ROUNDTRIP
360
4E8
  0
DICTIONARY
  5
501
330
488
100
AcDbDictionary
280
     1
281
     1
  3
ACAD_XREC_ROUNDTRIP
360
502
  0
DICTIONARY
  5
4F1
330
480
100
AcDbDictionary
280
     1
281
     1
  3
ACAD_XREC_ROUNDTRIP
360
4F2
  0
DICTIONARY
  5
503
330
489
100
AcDbDictionary
280
     1
281
     1
  3
ACAD_XREC_ROUNDTRIP
360
504
  0
DICTIONARY
  5
4D3
330
4B
100
AcDbDictionary
280
     1
281
     1
  3
ACAD_XREC_ROUNDTRIP
360
4D4
  0
DICTIONARY
  5
4FF
330
487
100
AcDbDictionary
280
     1
281
     1
  3
ACAD_XREC_ROUNDTRIP
360
500
  0
DICTIONARY
  5
4FD
330
486
100
AcDbDictionary
280
     1
281
     1
  3
ACAD_XREC_ROUNDTRIP
360
4FE
  0
DICTIONARY
  5
4F7
330
483
100
AcDbDictionary
280
     1
281
     1
  3
ACAD_XREC_ROUNDTRIP
360
4F8
  0
DICTIONARY
  5
4F9
330
484
100
AcDbDictionary
280
     1
281
     1
  3
ACAD_XREC_ROUNDTRIP
360
4FA
  0
DICTIONARY
  5
4EF
330
47F
100
AcDbDictionary
280
     1
281
     1
  3
ACAD_XREC_ROUNDTRIP
360
4F0
  0
DICTIONARY
  5
4D5
330
4C
100
AcDbDictionary
280
     1
281
     1
  3
ACAD_XREC_ROUNDTRIP
360
4D6
  0
DICTIONARY
  5
4FB
330
485
100
AcDbDictionary
280
     1
281
     1
  3
ACAD_XREC_ROUNDTRIP
360
4FC
  0
XRECORD
  5
4CC
102
{ACAD_REACTORS
330
4CB
102
}
330
4CB
100
AcDbXrecord
280
     1
102
SHADEPLOT
 70
     0
102
SHADEPLOTRESLEVEL
 70
     2
102
SHADEPLOTCUSTOMDPI
 70
   300
  0
XRECORD
  5
4CA
102
{ACAD_REACTORS
330
4C9
102
}
330
4C9
100
AcDbXrecord
280
     1
102
SHADEPLOT
 70
     0
102
SHADEPLOTRESLEVEL
 70
     2
102
SHADEPLOTCUSTOMDPI
 70
   300
  0
XRECORD
  5
4D1
102
{ACAD_REACTORS
330
3D
102
}
330
3D
100
AcDbXrecord
280
     1
102
MATERIAL
148
0.0
149
0.0
149
0.0
 93
        0
 94
      127
282
     0
 72
     0
 77
     0
171
     0
175
     0
179
     0
273
     0
  0
XRECORD
  5
3E
102
{ACAD_REACTORS
330
3D
102
}
330
3D
100
AcDbXrecord
280
     1
270
     1
271
     1
  0
XRECORD
  5
3F
102
{ACAD_REACTORS
330
3D
102
}
330
3D
100
AcDbXrecord
280
     1
270
     1
271
     1
  0
XRECORD
  5
40
102
{ACAD_REACTORS
330
3D
102
}
330
3D
100
AcDbXrecord
280
     1
270
     1
271
     1
  0
XRECORD
  5
41
102
{ACAD_REACTORS
330
3D
102
}
330
3D
100
AcDbXrecord
280
     1
270
     1
271
     1
  0
XRECORD
  5
42
102
{ACAD_REACTORS
330
3D
102
}
330
3D
100
AcDbXrecord
280
     1
270
     1
271
     1
  0
XRECORD
  5
43
102
{ACAD_REACTORS
330
3D
102
}
330
3D
100
AcDbXrecord
280
     1
270
     1
271
     1
  0
XRECORD
  5
4D0
102
{ACAD_REACTORS
330
35
102
}
330
35
100
AcDbXrecord
280
     1
102
MATERIAL
148
0.0
149
0.0
149
0.0
 93
        0
 94
      127
282
     0
 72
     0
 77
     0
171
     0
175
     0
179
     0
273
     0
  0
XRECORD
  5
36
102
{ACAD_REACTORS
330
35
102
}
330
35
100
AcDbXrecord
280
     1
270
     1
271
     1
  0
XRECORD
  5
37
102
{ACAD_REACTORS
330
35
102
}
330
35
100
AcDbXrecord
280
     1
270
     1
271
     1
  0
XRECORD
  5
38
102
{ACAD_REACTORS
330
35
102
}
330
35
100
AcDbXrecord
280
     1
270
     1
271
     1
  0
XRECORD
  5
39
102
{ACAD_REACTORS
330
35
102
}
330
35
100
AcDbXrecord
280
     1
270
     1
271
     1
  0
XRECORD
  5
3A
102
{ACAD_REACTORS
330
35
102
}
330
35
100
AcDbXrecord
280
     1
270
     1
271
     1
  0
XRECORD
  5
3B
102
{ACAD_REACTORS
330
35
102
}
330
35
100
AcDbXrecord
280
     1
270
     1
271
     1
  0
XRECORD
  5
4CD
102
{ACAD_REACTORS
330
14
102
}
330
14
100
AcDbXrecord
280
     1
102
MATERIAL
148
0.0
149
0.0
149
0.0
 93
        0
 94
      127
282
     0
 72
     0
 77
     0
171
     0
175
     0
179
     0
273
     0
  0
XRECORD
  5
15
102
{ACAD_REACTORS
330
14
102
}
330
14
100
AcDbXrecord
280
     1
270
     1
271
     1
  0
XRECORD
  5
16
102
{ACAD_REACTORS
330
14
102
}
330
14
100
AcDbXrecord
280
     1
270
     1
271
     1
  0
XRECORD
  5
17
102
{ACAD_REACTORS
330
14
102
}
330
14
100
AcDbXrecord
280
     1
270
     1
271
     1
  0
XRECORD
  5
18
102
{ACAD_REACTORS
330
14
102
}
330
14
100
AcDbXrecord
280
     1
270
     1
271
     1
  0
XRECORD
  5
19
102
{ACAD_REACTORS
330
14
102
}
330
14
100
AcDbXrecord
280
     1
270
     1
271
     1
  0
XRECORD
  5
1A
102
{ACAD_REACTORS
330
14
102
}
330
14
100
AcDbXrecord
280
     1
270
     1
271
     1
  0
CELLSTYLEMAP
  5
4C2
102
{ACAD_REACTORS
330
4A
102
}
330
4A
100
AcDbCellStyleMap
 90
        3
300
CELLSTYLE
  1
TABLEFORMAT_BEGIN
 90
        5
170
     1
 91
        0
 92
    32768
 62
   257
 93
        1
300
CONTENTFORMAT
  1
CONTENTFORMAT_BEGIN
 90
        0
 91
        0
 92
      512
 93
        0
300

 40
0.0
140
1.0
 94
        5
 62
     0
340
21
144
0.25
309
CONTENTFORMAT_END
171
     0
 94
        0
309
TABLEFORMAT_END
  1
CELLSTYLE_BEGIN
 90
        1
 91
        1
300
_TITLE
309
CELLSTYLE_END
300
CELLSTYLE
  1
TABLEFORMAT_BEGIN
 90
        5
170
     1
 91
        0
 92
        0
 62
   257
 93
        1
300
CONTENTFORMAT
  1
CONTENTFORMAT_BEGIN
 90
        0
 91
        0
 92
      512
 93
        0
300

 40
0.0
140
1.0
 94
        5
 62
     0
340
21
144
0.18
309
CONTENTFORMAT_END
171
     0
 94
        0
309
TABLEFORMAT_END
  1
CELLSTYLE_BEGIN
 90
        2
 91
        1
300
_HEADER
309
CELLSTYLE_END
300
CELLSTYLE
  1
TABLEFORMAT_BEGIN
 90
        5
170
     1
 91
        0
 92
        0
 62
   257
 93
        1
300
CONTENTFORMAT
  1
CONTENTFORMAT_BEGIN
 90
        0
 91
        0
 92
      512
 93
        0
300

 40
0.0
140
1.0
 94
        2
 62
     0
340
21
144
0.18
309
CONTENTFORMAT_END
171
     0
 94
        0
309
TABLEFORMAT_END
  1
CELLSTYLE_BEGIN
 90
        3
 91
        2
300
_DATA
309
CELLSTYLE_END
  0
XRECORD
  5
4D2
102
{ACAD_REACTORS
330
4A
102
}
330
4A
100
AcDbXrecord
280
     1
102
ACAD_ROUNDTRIP_PRE2007_TABLESTYLE
 90
      512
 91
        0
  1

 92
      512
 93
        0
  2

 94
      512
 95
        0
  3

  0
XRECORD
  5
4CF
102
{ACAD_REACTORS
330
4CE
102
}
330
4CE
100
AcDbXrecord
280
     1
102
RTVSPropertyOp0
 70
     1
102
RTVSPropertyOp1
 70
     1
102
RTVSPropertyOp2
 70
     1
102
RTVSPropertyOp3
 70
     1
102
RTVSPropertyOp4
 70
     1
102
RTVSPropertyOp5
 70
     1
102
RTVSPropertyOp6
 70
     1
102
RTVSPropertyOp7
 70
     1
102
RTVSPropertyOp8
 70
     1
102
RTVSPropertyOp9
 70
     1
102
RTVSPropertyOp10
 70
     1
102
RTVSPropertyOp11
 70
     1
102
RTVSPropertyOp12
 70
     1
102
RTVSPropertyOp13
 70
     1
102
RTVSPropertyOp14
 70
     1
102
RTVSPropertyOp15
 70
     1
102
RTVSPropertyOp16
 70
     1
102
RTVSPropertyOp17
 70
     1
102
RTVSPropertyOp18
 70
     1
102
RTVSPropertyOp19
 70
     1
102
RTVSPropertyOp20
 70
     1
102
RTVSPropertyOp21
 70
     1
102
RTVSPropertyOp22
 70
     1
102
RTVSPropertyOp23
 70
     1
102
RTVSPropertyOp24
 70
     1
102
RTVSPropertyOp25
 70
     1
102
RTVSPropertyOp26
 70
     1
102
RTVSPropertyOp27
 70
     1
102
RTVSPropertyOp28
 70
     1
102
RTVSPropertyOp29
 70
     1
102
RTVSPropertyOp30
 70
     1
102
RTVSPropertyOp31
 70
     1
102
RTVSPropertyOp32
 70
     1
  0
XRECORD
  5
4E6
102
{ACAD_REACTORS
330
4E5
102
}
330
4E5
100
AcDbXrecord
280
     1
102
RTVSPropertyOp0
 70
     1
102
RTVSPropertyOp1
 70
     1
102
RTVSPropertyOp2
 70
     1
102
RTVSPropertyOp3
 70
     1
102
RTVSPropertyOp4
 70
     1
102
RTVSPropertyOp5
 70
     1
102
RTVSPropertyOp6
 70
     1
102
RTVSPropertyOp7
 70
     1
102
RTVSPropertyOp8
 70
     1
102
RTVSPropertyOp9
 70
     1
102
RTVSPropertyOp10
 70
     1
102
RTVSPropertyOp11
 70
     1
102
RTVSPropertyOp12
 70
     1
102
RTVSPropertyOp13
 70
     1
102
RTVSPropertyOp14
 70
     1
102
RTVSPropertyOp15
 70
     1
102
RTVSPropertyOp16
 70
     1
102
RTVSPropertyOp17
 70
     1
102
RTVSPropertyOp18
 70
     1
102
RTVSPropertyOp19
 70
     1
102
RTVSPropertyOp20
 70
     1
102
RTVSPropertyOp21
 70
     1
102
RTVSPropertyOp22
 70
     1
102
RTVSPropertyOp23
 70
     1
102
RTVSPropertyOp24
 70
     1
102
RTVSPropertyOp25
 70
     1
102
RTVSPropertyOp26
 70
     1
102
RTVSPropertyOp27
 70
     1
102
RTVSPropertyOp28
 70
     1
102
RTVSPropertyOp29
 70
     1
102
RTVSPropertyOp30
 70
     1
102
RTVSPropertyOp31
 70
     1
102
RTVSPropertyOp32
 70
     1
  0
XRECORD
  5
4EE
102
{ACAD_REACTORS
330
4ED
102
}
330
4ED
100
AcDbXrecord
280
     1
102
RTVSPropertyOp0
 70
     1
102
RTVSPropertyOp1
 70
     1
102
RTVSPropertyOp2
 70
     1
102
RTVSPropertyOp3
 70
     1
102
RTVSPropertyOp4
 70
     1
102
RTVSPropertyOp5
 70
     1
102
RTVSPropertyOp6
 70
     1
102
RTVSPropertyOp7
 70
     1
102
RTVSPropertyOp8
 70
     1
102
RTVSPropertyOp9
 70
     1
102
RTVSPropertyOp10
 70
     1
102
RTVSPropertyOp11
 70
     1
102
RTVSPropertyOp12
 70
     1
102
RTVSPropertyOp13
 70
     1
102
RTVSPropertyOp14
 70
     1
102
RTVSPropertyOp15
 70
     1
102
RTVSPropertyOp16
 70
     1
102
RTVSPropertyOp17
 70
     1
102
RTVSPropertyOp18
 70
     1
102
RTVSPropertyOp19
 70
     1
102
RTVSPropertyOp20
 70
     1
102
RTVSPropertyOp21
 70
     1
102
RTVSPropertyOp22
 70
     1
102
RTVSPropertyOp23
 70
     1
102
RTVSPropertyOp24
 70
     1
102
RTVSPropertyOp25
 70
     1
102
RTVSPropertyOp26
 70
     1
102
RTVSPropertyOp27
 70
     1
102
RTVSPropertyOp28
 70
     1
102
RTVSPropertyOp29
 70
     1
102
RTVSPropertyOp30
 70
     1
102
RTVSPropertyOp31
 70
     1
102
RTVSPropertyOp32
 70
     1
  0
XRECORD
  5
4F6
102
{ACAD_REACTORS
330
4F5
102
}
330
4F5
100
AcDbXrecord
280
     1
102
RTVSPropertyOp0
 70
     1
102
RTVSPropertyOp1
 70
     1
102
RTVSPropertyOp2
 70
     1
102
RTVSPropertyOp3
 70
     1
102
RTVSPropertyOp4
 70
     1
102
RTVSPropertyOp5
 70
     1
102
RTVSPropertyOp6
 70
     1
102
RTVSPropertyOp7
 70
     1
102
RTVSPropertyOp8
 70
     1
102
RTVSPropertyOp9
 70
     1
102
RTVSPropertyOp10
 70
     1
102
RTVSPropertyOp11
 70
     1
102
RTVSPropertyOp12
 70
     1
102
RTVSPropertyOp13
 70
     1
102
RTVSPropertyOp14
 70
     1
102
RTVSPropertyOp15
 70
     1
102
RTVSPropertyOp16
 70
     1
102
RTVSPropertyOp17
 70
     1
102
RTVSPropertyOp18
 70
     1
102
RTVSPropertyOp19
 70
     1
102
RTVSPropertyOp20
 70
     1
102
RTVSPropertyOp21
 70
     1
102
RTVSPropertyOp22
 70
     1
102
RTVSPropertyOp23
 70
     1
102
RTVSPropertyOp24
 70
     1
102
RTVSPropertyOp25
 70
     1
102
RTVSPropertyOp26
 70
     1
102
RTVSPropertyOp27
 70
     1
102
RTVSPropertyOp28
 70
     1
102
RTVSPropertyOp29
 70
     1
102
RTVSPropertyOp30
 70
     1
102
RTVSPropertyOp31
 70
     1
102
RTVSPropertyOp32
 70
     1
  0
XRECORD
  5
4EA
102
{ACAD_REACTORS
330
4E9
102
}
330
4E9
100
AcDbXrecord
280
     1
102
RTVSPropertyOp0
 70
     1
102
RTVSPropertyOp1
 70
     1
102
RTVSPropertyOp2
 70
     1
102
RTVSPropertyOp3
 70
     1
102
RTVSPropertyOp4
 70
     1
102
RTVSPropertyOp5
 70
     1
102
RTVSPropertyOp6
 70
     1
102
RTVSPropertyOp7
 70
     1
102
RTVSPropertyOp8
 70
     1
102
RTVSPropertyOp9
 70
     1
102
RTVSPropertyOp10
 70
     1
102
RTVSPropertyOp11
 70
     1
102
RTVSPropertyOp12
 70
     1
102
RTVSPropertyOp13
 70
     1
102
RTVSPropertyOp14
 70
     1
102
RTVSPropertyOp15
 70
     1
102
RTVSPropertyOp16
 70
     1
102
RTVSPropertyOp17
 70
     1
102
RTVSPropertyOp18
 70
     1
102
RTVSPropertyOp19
 70
     1
102
RTVSPropertyOp20
 70
     1
102
RTVSPropertyOp21
 70
     1
102
RTVSPropertyOp22
 70
     1
102
RTVSPropertyOp23
 70
     1
102
RTVSPropertyOp24
 70
     1
102
RTVSPropertyOp25
 70
     1
102
RTVSPropertyOp26
 70
     1
102
RTVSPropertyOp27
 70
     1
102
RTVSPropertyOp28
 70
     1
102
RTVSPropertyOp29
 70
     1
102
RTVSPropertyOp30
 70
     1
102
RTVSPropertyOp31
 70
     1
102
RTVSPropertyOp32
 70
     1
  0
XRECORD
  5
4EC
102
{ACAD_REACTORS
330
4EB
102
}
330
4EB
100
AcDbXrecord
280
     1
102
RTVSPropertyOp0
 70
     1
102
RTVSPropertyOp1
 70
     1
102
RTVSPropertyOp2
 70
     1
102
RTVSPropertyOp3
 70
     1
102
RTVSPropertyOp4
 70
     1
102
RTVSPropertyOp5
 70
     1
102
RTVSPropertyOp6
 70
     1
102
RTVSPropertyOp7
 70
     1
102
RTVSPropertyOp8
 70
     1
102
RTVSPropertyOp9
 70
     1
102
RTVSPropertyOp10
 70
     1
102
RTVSPropertyOp11
 70
     1
102
RTVSPropertyOp12
 70
     1
102
RTVSPropertyOp13
 70
     1
102
RTVSPropertyOp14
 70
     1
102
RTVSPropertyOp15
 70
     1
102
RTVSPropertyOp16
 70
     1
102
RTVSPropertyOp17
 70
     1
102
RTVSPropertyOp18
 70
     1
102
RTVSPropertyOp19
 70
     1
102
RTVSPropertyOp20
 70
     1
102
RTVSPropertyOp21
 70
     1
102
RTVSPropertyOp22
 70
     1
102
RTVSPropertyOp23
 70
     1
102
RTVSPropertyOp24
 70
     1
102
RTVSPropertyOp25
 70
     1
102
RTVSPropertyOp26
 70
     1
102
RTVSPropertyOp27
 70
     1
102
RTVSPropertyOp28
 70
     1
102
RTVSPropertyOp29
 70
     1
102
RTVSPropertyOp30
 70
     1
102
RTVSPropertyOp31
 70
     1
102
RTVSPropertyOp32
 70
     1
  0
XRECORD
  5
506
102
{ACAD_REACTORS
330
505
102
}
330
505
100
AcDbXrecord
280
     1
102
RTVSPropertyOp0
 70
     0
102
RTVSPropertyOp1
 70
     0
102
RTVSPropertyOp2
 70
     0
102
RTVSPropertyOp3
 70
     0
102
RTVSPropertyOp4
 70
     0
102
RTVSPropertyOp5
 70
     0
102
RTVSPropertyOp6
 70
     0
102
RTVSPropertyOp7
 70
     0
102
RTVSPropertyOp8
 70
     0
102
RTVSPropertyOp9
 70
     0
102
RTVSPropertyOp10
 70
     0
102
RTVSPropertyOp11
 70
     0
102
RTVSPropertyOp12
 70
     0
102
RTVSPropertyOp13
 70
     0
102
RTVSPropertyOp14
 70
     2
102
RTVSPropertyOp15
 70
     0
102
RTVSPropertyOp16
 70
     0
102
RTVSPropertyOp17
 70
     0
102
RTVSPropertyOp18
 70
     0
102
RTVSPropertyOp19
 70
     0
102
RTVSPropertyOp20
 70
     0
102
RTVSPropertyOp21
 70
     0
102
RTVSPropertyOp22
 70
     0
102
RTVSPropertyOp23
 70
     0
102
RTVSPropertyOp24
 70
     0
102
RTVSPropertyOp25
 70
     0
102
RTVSPropertyOp26
 70
     0
102
RTVSPropertyOp27
 70
     0
102
RTVSPropertyOp28
 70
     0
102
RTVSPropertyOp29
 70
     0
102
RTVSPropertyOp30
 70
     0
102
RTVSPropertyOp31
 70
     0
102
RTVSPropertyOp32
 70
     0
  0
XRECORD
  5
4F4
102
{ACAD_REACTORS
330
4F3
102
}
330
4F3
100
AcDbXrecord
280
     1
102
RTVSPropertyOp0
 70
     1
102
RTVSPropertyOp1
 70
     1
102
RTVSPropertyOp2
 70
     1
102
RTVSPropertyOp3
 70
     1
102
RTVSPropertyOp4
 70
     1
102
RTVSPropertyOp5
 70
     1
102
RTVSPropertyOp6
 70
     1
102
RTVSPropertyOp7
 70
     1
102
RTVSPropertyOp8
 70
     1
102
RTVSPropertyOp9
 70
     1
102
RTVSPropertyOp10
 70
     1
102
RTVSPropertyOp11
 70
     1
102
RTVSPropertyOp12
 70
     1
102
RTVSPropertyOp13
 70
     1
102
RTVSPropertyOp14
 70
     1
102
RTVSPropertyOp15
 70
     1
102
RTVSPropertyOp16
 70
     1
102
RTVSPropertyOp17
 70
     1
102
RTVSPropertyOp18
 70
     1
102
RTVSPropertyOp19
 70
     1
102
RTVSPropertyOp20
 70
     1
102
RTVSPropertyOp21
 70
     1
102
RTVSPropertyOp22
 70
     1
102
RTVSPropertyOp23
 70
     1
102
RTVSPropertyOp24
 70
     1
102
RTVSPropertyOp25
 70
     1
102
RTVSPropertyOp26
 70
     1
102
RTVSPropertyOp27
 70
     1
102
RTVSPropertyOp28
 70
     1
102
RTVSPropertyOp29
 70
     1
102
RTVSPropertyOp30
 70
     1
102
RTVSPropertyOp31
 70
     1
102
RTVSPropertyOp32
 70
     1
  0
XRECORD
  5
4DE
102
{ACAD_REACTORS
330
4DD
102
}
330
4DD
100
AcDbXrecord
280
     1
102
RTVSPropertyOp0
 70
     1
102
RTVSPropertyOp1
 70
     1
102
RTVSPropertyOp2
 70
     1
102
RTVSPropertyOp3
 70
     1
102
RTVSPropertyOp4
 70
     1
102
RTVSPropertyOp5
 70
     1
102
RTVSPropertyOp6
 70
     1
102
RTVSPropertyOp7
 70
     1
102
RTVSPropertyOp8
 70
     1
102
RTVSPropertyOp9
 70
     1
102
RTVSPropertyOp10
 70
     1
102
RTVSPropertyOp11
 70
     1
102
RTVSPropertyOp12
 70
     1
102
RTVSPropertyOp13
 70
     1
102
RTVSPropertyOp14
 70
     1
102
RTVSPropertyOp15
 70
     1
102
RTVSPropertyOp16
 70
     1
102
RTVSPropertyOp17
 70
     1
102
RTVSPropertyOp18
 70
     1
102
RTVSPropertyOp19
 70
     1
102
RTVSPropertyOp20
 70
     1
102
RTVSPropertyOp21
 70
     1
102
RTVSPropertyOp22
 70
     1
102
RTVSPropertyOp23
 70
     1
102
RTVSPropertyOp24
 70
     1
102
RTVSPropertyOp25
 70
     1
102
RTVSPropertyOp26
 70
     1
102
RTVSPropertyOp27
 70
     1
102
RTVSPropertyOp28
 70
     1
102
RTVSPropertyOp29
 70
     1
102
RTVSPropertyOp30
 70
     1
102
RTVSPropertyOp31
 70
     1
102
RTVSPropertyOp32
 70
     1
  0
XRECORD
  5
4E0
102
{ACAD_REACTORS
330
4DF
102
}
330
4DF
100
AcDbXrecord
280
     1
102
RTVSPropertyOp0
 70
     1
102
RTVSPropertyOp1
 70
     1
102
RTVSPropertyOp2
 70
     1
102
RTVSPropertyOp3
 70
     1
102
RTVSPropertyOp4
 70
     1
102
RTVSPropertyOp5
 70
     1
102
RTVSPropertyOp6
 70
     1
102
RTVSPropertyOp7
 70
     1
102
RTVSPropertyOp8
 70
     1
102
RTVSPropertyOp9
 70
     1
102
RTVSPropertyOp10
 70
     1
102
RTVSPropertyOp11
 70
     1
102
RTVSPropertyOp12
 70
     1
102
RTVSPropertyOp13
 70
     1
102
RTVSPropertyOp14
 70
     1
102
RTVSPropertyOp15
 70
     1
102
RTVSPropertyOp16
 70
     1
102
RTVSPropertyOp17
 70
     1
102
RTVSPropertyOp18
 70
     1
102
RTVSPropertyOp19
 70
     1
102
RTVSPropertyOp20
 70
     1
102
RTVSPropertyOp21
 70
     1
102
RTVSPropertyOp22
 70
     1
102
RTVSPropertyOp23
 70
     1
102
RTVSPropertyOp24
 70
     1
102
RTVSPropertyOp25
 70
     1
102
RTVSPropertyOp26
 70
     1
102
RTVSPropertyOp27
 70
     1
102
RTVSPropertyOp28
 70
     1
102
RTVSPropertyOp29
 70
     1
102
RTVSPropertyOp30
 70
     1
102
RTVSPropertyOp31
 70
     1
102
RTVSPropertyOp32
 70
     1
  0
XRECORD
  5
4E2
102
{ACAD_REACTORS
330
4E1
102
}
330
4E1
100
AcDbXrecord
280
     1
102
RTVSPropertyOp0
 70
     1
102
RTVSPropertyOp1
 70
     1
102
RTVSPropertyOp2
 70
     1
102
RTVSPropertyOp3
 70
     1
102
RTVSPropertyOp4
 70
     1
102
RTVSPropertyOp5
 70
     1
102
RTVSPropertyOp6
 70
     1
102
RTVSPropertyOp7
 70
     1
102
RTVSPropertyOp8
 70
     1
102
RTVSPropertyOp9
 70
     1
102
RTVSPropertyOp10
 70
     1
102
RTVSPropertyOp11
 70
     1
102
RTVSPropertyOp12
 70
     1
102
RTVSPropertyOp13
 70
     1
102
RTVSPropertyOp14
 70
     1
102
RTVSPropertyOp15
 70
     1
102
RTVSPropertyOp16
 70
     1
102
RTVSPropertyOp17
 70
     1
102
RTVSPropertyOp18
 70
     1
102
RTVSPropertyOp19
 70
     1
102
RTVSPropertyOp20
 70
     1
102
RTVSPropertyOp21
 70
     1
102
RTVSPropertyOp22
 70
     1
102
RTVSPropertyOp23
 70
     1
102
RTVSPropertyOp24
 70
     1
102
RTVSPropertyOp25
 70
     1
102
RTVSPropertyOp26
 70
     1
102
RTVSPropertyOp27
 70
     1
102
RTVSPropertyOp28
 70
     1
102
RTVSPropertyOp29
 70
     1
102
RTVSPropertyOp30
 70
     1
102
RTVSPropertyOp31
 70
     1
102
RTVSPropertyOp32
 70
     1
  0
XRECORD
  5
4E4
102
{ACAD_REACTORS
330
4E3
102
}
330
4E3
100
AcDbXrecord
280
     1
102
RTVSPropertyOp0
 70
     1
102
RTVSPropertyOp1
 70
     1
102
RTVSPropertyOp2
 70
     1
102
RTVSPropertyOp3
 70
     1
102
RTVSPropertyOp4
 70
     1
102
RTVSPropertyOp5
 70
     1
102
RTVSPropertyOp6
 70
     1
102
RTVSPropertyOp7
 70
     1
102
RTVSPropertyOp8
 70
     1
102
RTVSPropertyOp9
 70
     1
102
RTVSPropertyOp10
 70
     1
102
RTVSPropertyOp11
 70
     1
102
RTVSPropertyOp12
 70
     1
102
RTVSPropertyOp13
 70
     1
102
RTVSPropertyOp14
 70
     1
102
RTVSPropertyOp15
 70
     1
102
RTVSPropertyOp16
 70
     1
102
RTVSPropertyOp17
 70
     1
102
RTVSPropertyOp18
 70
     1
102
RTVSPropertyOp19
 70
     1
102
RTVSPropertyOp20
 70
     1
102
RTVSPropertyOp21
 70
     1
102
RTVSPropertyOp22
 70
     1
102
RTVSPropertyOp23
 70
     1
102
RTVSPropertyOp24
 70
     1
102
RTVSPropertyOp25
 70
     1
102
RTVSPropertyOp26
 70
     1
102
RTVSPropertyOp27
 70
     1
102
RTVSPropertyOp28
 70
     1
102
RTVSPropertyOp29
 70
     1
102
RTVSPropertyOp30
 70
     1
102
RTVSPropertyOp31
 70
     1
102
RTVSPropertyOp32
 70
     1
  0
XRECORD
  5
4E8
102
{ACAD_REACTORS
330
4E7
102
}
330
4E7
100
AcDbXrecord
280
     1
102
RTVSPropertyOp0
 70
     1
102
RTVSPropertyOp1
 70
     1
102
RTVSPropertyOp2
 70
     1
102
RTVSPropertyOp3
 70
     1
102
RTVSPropertyOp4
 70
     1
102
RTVSPropertyOp5
 70
     1
102
RTVSPropertyOp6
 70
     1
102
RTVSPropertyOp7
 70
     1
102
RTVSPropertyOp8
 70
     1
102
RTVSPropertyOp9
 70
     1
102
RTVSPropertyOp10
 70
     1
102
RTVSPropertyOp11
 70
     1
102
RTVSPropertyOp12
 70
     1
102
RTVSPropertyOp13
 70
     1
102
RTVSPropertyOp14
 70
     1
102
RTVSPropertyOp15
 70
     1
102
RTVSPropertyOp16
 70
     1
102
RTVSPropertyOp17
 70
     1
102
RTVSPropertyOp18
 70
     1
102
RTVSPropertyOp19
 70
     1
102
RTVSPropertyOp20
 70
     1
102
RTVSPropertyOp21
 70
     1
102
RTVSPropertyOp22
 70
     1
102
RTVSPropertyOp23
 70
     1
102
RTVSPropertyOp24
 70
     1
102
RTVSPropertyOp25
 70
     1
102
RTVSPropertyOp26
 70
     1
102
RTVSPropertyOp27
 70
     1
102
RTVSPropertyOp28
 70
     1
102
RTVSPropertyOp29
 70
     1
102
RTVSPropertyOp30
 70
     1
102
RTVSPropertyOp31
 70
     1
102
RTVSPropertyOp32
 70
     1
  0
XRECORD
  5
502
102
{ACAD_REACTORS
330
501
102
}
330
501
100
AcDbXrecord
280
     1
102
RTVSPropertyOp0
 70
     0
102
RTVSPropertyOp1
 70
     0
102
RTVSPropertyOp2
 70
     0
102
RTVSPropertyOp3
 70
     0
102
RTVSPropertyOp4
 70
     0
102
RTVSPropertyOp5
 70
     0
102
RTVSPropertyOp6
 70
     0
102
RTVSPropertyOp7
 70
     0
102
RTVSPropertyOp8
 70
     0
102
RTVSPropertyOp9
 70
     0
102
RTVSPropertyOp10
 70
     0
102
RTVSPropertyOp11
 70
     0
102
RTVSPropertyOp12
 70
     0
102
RTVSPropertyOp13
 70
     0
102
RTVSPropertyOp14
 70
     2
102
RTVSPropertyOp15
 70
     0
102
RTVSPropertyOp16
 70
     0
102
RTVSPropertyOp17
 70
     0
102
RTVSPropertyOp18
 70
     0
102
RTVSPropertyOp19
 70
     0
102
RTVSPropertyOp20
 70
     0
102
RTVSPropertyOp21
 70
     0
102
RTVSPropertyOp22
 70
     0
102
RTVSPropertyOp23
 70
     0
102
RTVSPropertyOp24
 70
     0
102
RTVSPropertyOp25
 70
     0
102
RTVSPropertyOp26
 70
     0
102
RTVSPropertyOp27
 70
     0
102
RTVSPropertyOp28
 70
     0
102
RTVSPropertyOp29
 70
     0
102
RTVSPropertyOp30
 70
     0
102
RTVSPropertyOp31
 70
     0
102
RTVSPropertyOp32
 70
     0
  0
XRECORD
  5
4F2
102
{ACAD_REACTORS
330
4F1
102
}
330
4F1
100
AcDbXrecord
280
     1
102
RTVSPropertyOp0
 70
     1
102
RTVSPropertyOp1
 70
     1
102
RTVSPropertyOp2
 70
     1
102
RTVSPropertyOp3
 70
     1
102
RTVSPropertyOp4
 70
     1
102
RTVSPropertyOp5
 70
     1
102
RTVSPropertyOp6
 70
     1
102
RTVSPropertyOp7
 70
     1
102
RTVSPropertyOp8
 70
     1
102
RTVSPropertyOp9
 70
     1
102
RTVSPropertyOp10
 70
     1
102
RTVSPropertyOp11
 70
     1
102
RTVSPropertyOp12
 70
     1
102
RTVSPropertyOp13
 70
     1
102
RTVSPropertyOp14
 70
     1
102
RTVSPropertyOp15
 70
     1
102
RTVSPropertyOp16
 70
     1
102
RTVSPropertyOp17
 70
     1
102
RTVSPropertyOp18
 70
     1
102
RTVSPropertyOp19
 70
     1
102
RTVSPropertyOp20
 70
     1
102
RTVSPropertyOp21
 70
     1
102
RTVSPropertyOp22
 70
     1
102
RTVSPropertyOp23
 70
     1
102
RTVSPropertyOp24
 70
     1
102
RTVSPropertyOp25
 70
     1
102
RTVSPropertyOp26
 70
     1
102
RTVSPropertyOp27
 70
     1
102
RTVSPropertyOp28
 70
     1
102
RTVSPropertyOp29
 70
     1
102
RTVSPropertyOp30
 70
     1
102
RTVSPropertyOp31
 70
     1
102
RTVSPropertyOp32
 70
     1
  0
XRECORD
  5
504
102
{ACAD_REACTORS
330
503
102
}
330
503
100
AcDbXrecord
280
     1
102
RTVSPropertyOp0
 70
     0
102
RTVSPropertyOp1
 70
     0
102
RTVSPropertyOp2
 70
     0
102
RTVSPropertyOp3
 70
     0
102
RTVSPropertyOp4
 70
     0
102
RTVSPropertyOp5
 70
     0
102
RTVSPropertyOp6
 70
     0
102
RTVSPropertyOp7
 70
     0
102
RTVSPropertyOp8
 70
     0
102
RTVSPropertyOp9
 70
     0
102
RTVSPropertyOp10
 70
     0
102
RTVSPropertyOp11
 70
     0
102
RTVSPropertyOp12
 70
     0
102
RTVSPropertyOp13
 70
     0
102
RTVSPropertyOp14
 70
     2
102
RTVSPropertyOp15
 70
     0
102
RTVSPropertyOp16
 70
     0
102
RTVSPropertyOp17
 70
     0
102
RTVSPropertyOp18
 70
     0
102
RTVSPropertyOp19
 70
     0
102
RTVSPropertyOp20
 70
     0
102
RTVSPropertyOp21
 70
     0
102
RTVSPropertyOp22
 70
     0
102
RTVSPropertyOp23
 70
     0
102
RTVSPropertyOp24
 70
     0
102
RTVSPropertyOp25
 70
     0
102
RTVSPropertyOp26
 70
     0
102
RTVSPropertyOp27
 70
     0
102
RTVSPropertyOp28
 70
     0
102
RTVSPropertyOp29
 70
     0
102
RTVSPropertyOp30
 70
     0
102
RTVSPropertyOp31
 70
     0
102
RTVSPropertyOp32
 70
     0
  0
XRECORD
  5
4D4
102
{ACAD_REACTORS
330
4D3
102
}
330
4D3
100
AcDbXrecord
280
     1
102
RTVSPropertyOp0
 70
     1
102
RTVSPropertyOp1
 70
     1
102
RTVSPropertyOp2
 70
     1
102
RTVSPropertyOp3
 70
     1
102
RTVSPropertyOp4
 70
     1
102
RTVSPropertyOp5
 70
     1
102
RTVSPropertyOp6
 70
     1
102
RTVSPropertyOp7
 70
     1
102
RTVSPropertyOp8
 70
     1
102
RTVSPropertyOp9
 70
     1
102
RTVSPropertyOp10
 70
     1
102
RTVSPropertyOp11
 70
     1
102
RTVSPropertyOp12
 70
     1
102
RTVSPropertyOp13
 70
     1
102
RTVSPropertyOp14
 70
     1
102
RTVSPropertyOp15
 70
     1
102
RTVSPropertyOp16
 70
     1
102
RTVSPropertyOp17
 70
     1
102
RTVSPropertyOp18
 70
     1
102
RTVSPropertyOp19
 70
     1
102
RTVSPropertyOp20
 70
     1
102
RTVSPropertyOp21
 70
     1
102
RTVSPropertyOp22
 70
     1
102
RTVSPropertyOp23
 70
     1
102
RTVSPropertyOp24
 70
     1
102
RTVSPropertyOp25
 70
     1
102
RTVSPropertyOp26
 70
     1
102
RTVSPropertyOp27
 70
     1
102
RTVSPropertyOp28
 70
     1
102
RTVSPropertyOp29
 70
     1
102
RTVSPropertyOp30
 70
     1
102
RTVSPropertyOp31
 70
     1
102
RTVSPropertyOp32
 70
     1
  0
XRECORD
  5
500
102
{ACAD_REACTORS
330
4FF
102
}
330
4FF
100
AcDbXrecord
280
     1
102
RTVSPropertyOp0
 70
     1
102
RTVSPropertyOp1
 70
     1
102
RTVSPropertyOp2
 70
     1
102
RTVSPropertyOp3
 70
     1
102
RTVSPropertyOp4
 70
     1
102
RTVSPropertyOp5
 70
     1
102
RTVSPropertyOp6
 70
     1
102
RTVSPropertyOp7
 70
     1
102
RTVSPropertyOp8
 70
     1
102
RTVSPropertyOp9
 70
     1
102
RTVSPropertyOp10
 70
     1
102
RTVSPropertyOp11
 70
     1
102
RTVSPropertyOp12
 70
     1
102
RTVSPropertyOp13
 70
     1
102
RTVSPropertyOp14
 70
     1
102
RTVSPropertyOp15
 70
     1
102
RTVSPropertyOp16
 70
     1
102
RTVSPropertyOp17
 70
     1
102
RTVSPropertyOp18
 70
     1
102
RTVSPropertyOp19
 70
     1
102
RTVSPropertyOp20
 70
     1
102
RTVSPropertyOp21
 70
     1
102
RTVSPropertyOp22
 70
     1
102
RTVSPropertyOp23
 70
     1
102
RTVSPropertyOp24
 70
     1
102
RTVSPropertyOp25
 70
     1
102
RTVSPropertyOp26
 70
     1
102
RTVSPropertyOp27
 70
     1
102
RTVSPropertyOp28
 70
     1
102
RTVSPropertyOp29
 70
     1
102
RTVSPropertyOp30
 70
     1
102
RTVSPropertyOp31
 70
     1
102
RTVSPropertyOp32
 70
     1
  0
XRECORD
  5
4FE
102
{ACAD_REACTORS
330
4FD
102
}
330
4FD
100
AcDbXrecord
280
     1
102
RTVSPropertyOp0
 70
     1
102
RTVSPropertyOp1
 70
     1
102
RTVSPropertyOp2
 70
     1
102
RTVSPropertyOp3
 70
     1
102
RTVSPropertyOp4
 70
     1
102
RTVSPropertyOp5
 70
     1
102
RTVSPropertyOp6
 70
     1
102
RTVSPropertyOp7
 70
     1
102
RTVSPropertyOp8
 70
     1
102
RTVSPropertyOp9
 70
     1
102
RTVSPropertyOp10
 70
     1
102
RTVSPropertyOp11
 70
     1
102
RTVSPropertyOp12
 70
     1
102
RTVSPropertyOp13
 70
     1
102
RTVSPropertyOp14
 70
     1
102
RTVSPropertyOp15
 70
     1
102
RTVSPropertyOp16
 70
     1
102
RTVSPropertyOp17
 70
     1
102
RTVSPropertyOp18
 70
     1
102
RTVSPropertyOp19
 70
     1
102
RTVSPropertyOp20
 70
     1
102
RTVSPropertyOp21
 70
     1
102
RTVSPropertyOp22
 70
     1
102
RTVSPropertyOp23
 70
     1
102
RTVSPropertyOp24
 70
     1
102
RTVSPropertyOp25
 70
     1
102
RTVSPropertyOp26
 70
     1
102
RTVSPropertyOp27
 70
     1
102
RTVSPropertyOp28
 70
     1
102
RTVSPropertyOp29
 70
     1
102
RTVSPropertyOp30
 70
     1
102
RTVSPropertyOp31
 70
     1
102
RTVSPropertyOp32
 70
     1
  0
XRECORD
  5
4F8
102
{ACAD_REACTORS
330
4F7
102
}
330
4F7
100
AcDbXrecord
280
     1
102
RTVSPropertyOp0
 70
     1
102
RTVSPropertyOp1
 70
     1
102
RTVSPropertyOp2
 70
     1
102
RTVSPropertyOp3
 70
     1
102
RTVSPropertyOp4
 70
     1
102
RTVSPropertyOp5
 70
     1
102
RTVSPropertyOp6
 70
     1
102
RTVSPropertyOp7
 70
     1
102
RTVSPropertyOp8
 70
     1
102
RTVSPropertyOp9
 70
     1
102
RTVSPropertyOp10
 70
     1
102
RTVSPropertyOp11
 70
     1
102
RTVSPropertyOp12
 70
     1
102
RTVSPropertyOp13
 70
     1
102
RTVSPropertyOp14
 70
     1
102
RTVSPropertyOp15
 70
     1
102
RTVSPropertyOp16
 70
     1
102
RTVSPropertyOp17
 70
     1
102
RTVSPropertyOp18
 70
     1
102
RTVSPropertyOp19
 70
     1
102
RTVSPropertyOp20
 70
     1
102
RTVSPropertyOp21
 70
     1
102
RTVSPropertyOp22
 70
     1
102
RTVSPropertyOp23
 70
     1
102
RTVSPropertyOp24
 70
     1
102
RTVSPropertyOp25
 70
     1
102
RTVSPropertyOp26
 70
     1
102
RTVSPropertyOp27
 70
     1
102
RTVSPropertyOp28
 70
     1
102
RTVSPropertyOp29
 70
     1
102
RTVSPropertyOp30
 70
     1
102
RTVSPropertyOp31
 70
     1
102
RTVSPropertyOp32
 70
     1
  0
XRECORD
  5
4FA
102
{ACAD_REACTORS
330
4F9
102
}
330
4F9
100
AcDbXrecord
280
     1
102
RTVSPropertyOp0
 70
     1
102
RTVSPropertyOp1
 70
     1
102
RTVSPropertyOp2
 70
     1
102
RTVSPropertyOp3
 70
     1
102
RTVSPropertyOp4
 70
     1
102
RTVSPropertyOp5
 70
     1
102
RTVSPropertyOp6
 70
     1
102
RTVSPropertyOp7
 70
     1
102
RTVSPropertyOp8
 70
     1
102
RTVSPropertyOp9
 70
     1
102
RTVSPropertyOp10
 70
     1
102
RTVSPropertyOp11
 70
     1
102
RTVSPropertyOp12
 70
     1
102
RTVSPropertyOp13
 70
     1
102
RTVSPropertyOp14
 70
     1
102
RTVSPropertyOp15
 70
     1
102
RTVSPropertyOp16
 70
     1
102
RTVSPropertyOp17
 70
     1
102
RTVSPropertyOp18
 70
     1
102
RTVSPropertyOp19
 70
     1
102
RTVSPropertyOp20
 70
     1
102
RTVSPropertyOp21
 70
     1
102
RTVSPropertyOp22
 70
     1
102
RTVSPropertyOp23
 70
     1
102
RTVSPropertyOp24
 70
     1
102
RTVSPropertyOp25
 70
     1
102
RTVSPropertyOp26
 70
     1
102
RTVSPropertyOp27
 70
     1
102
RTVSPropertyOp28
 70
     1
102
RTVSPropertyOp29
 70
     1
102
RTVSPropertyOp30
 70
     1
102
RTVSPropertyOp31
 70
     1
102
RTVSPropertyOp32
 70
     1
  0
XRECORD
  5
4F0
102
{ACAD_REACTORS
330
4EF
102
}
330
4EF
100
AcDbXrecord
280
     1
102
RTVSPropertyOp0
 70
     1
102
RTVSPropertyOp1
 70
     1
102
RTVSPropertyOp2
 70
     1
102
RTVSPropertyOp3
 70
     1
102
RTVSPropertyOp4
 70
     1
102
RTVSPropertyOp5
 70
     1
102
RTVSPropertyOp6
 70
     1
102
RTVSPropertyOp7
 70
     1
102
RTVSPropertyOp8
 70
     1
102
RTVSPropertyOp9
 70
     1
102
RTVSPropertyOp10
 70
     1
102
RTVSPropertyOp11
 70
     1
102
RTVSPropertyOp12
 70
     1
102
RTVSPropertyOp13
 70
     1
102
RTVSPropertyOp14
 70
     1
102
RTVSPropertyOp15
 70
     1
102
RTVSPropertyOp16
 70
     1
102
RTVSPropertyOp17
 70
     1
102
RTVSPropertyOp18
 70
     1
102
RTVSPropertyOp19
 70
     1
102
RTVSPropertyOp20
 70
     1
102
RTVSPropertyOp21
 70
     1
102
RTVSPropertyOp22
 70
     1
102
RTVSPropertyOp23
 70
     1
102
RTVSPropertyOp24
 70
     1
102
RTVSPropertyOp25
 70
     1
102
RTVSPropertyOp26
 70
     1
102
RTVSPropertyOp27
 70
     1
102
RTVSPropertyOp28
 70
     1
102
RTVSPropertyOp29
 70
     1
102
RTVSPropertyOp30
 70
     1
102
RTVSPropertyOp31
 70
     1
102
RTVSPropertyOp32
 70
     1
  0
XRECORD
  5
4D6
102
{ACAD_REACTORS
330
4D5
102
}
330
4D5
100
AcDbXrecord
280
     1
102
RTVSPropertyOp0
 70
     1
102
RTVSPropertyOp1
 70
     1
102
RTVSPropertyOp2
 70
     1
102
RTVSPropertyOp3
 70
     1
102
RTVSPropertyOp4
 70
     1
102
RTVSPropertyOp5
 70
     1
102
RTVSPropertyOp6
 70
     1
102
RTVSPropertyOp7
 70
     1
102
RTVSPropertyOp8
 70
     1
102
RTVSPropertyOp9
 70
     1
102
RTVSPropertyOp10
 70
     1
102
RTVSPropertyOp11
 70
     1
102
RTVSPropertyOp12
 70
     1
102
RTVSPropertyOp13
 70
     1
102
RTVSPropertyOp14
 70
     1
102
RTVSPropertyOp15
 70
     1
102
RTVSPropertyOp16
 70
     1
102
RTVSPropertyOp17
 70
     1
102
RTVSPropertyOp18
 70
     1
102
RTVSPropertyOp19
 70
     1
102
RTVSPropertyOp20
 70
     1
102
RTVSPropertyOp21
 70
     1
102
RTVSPropertyOp22
 70
     1
102
RTVSPropertyOp23
 70
     1
102
RTVSPropertyOp24
 70
     1
102
RTVSPropertyOp25
 70
     1
102
RTVSPropertyOp26
 70
     1
102
RTVSPropertyOp27
 70
     1
102
RTVSPropertyOp28
 70
     1
102
RTVSPropertyOp29
 70
     1
102
RTVSPropertyOp30
 70
     1
102
RTVSPropertyOp31
 70
     1
102
RTVSPropertyOp32
 70
     1
  0
XRECORD
  5
4FC
102
{ACAD_REACTORS
330
4FB
102
}
330
4FB
100
AcDbXrecord
280
     1
102
RTVSPropertyOp0
 70
     1
102
RTVSPropertyOp1
 70
     1
102
RTVSPropertyOp2
 70
     1
102
RTVSPropertyOp3
 70
     1
102
RTVSPropertyOp4
 70
     1
102
RTVSPropertyOp5
 70
     1
102
RTVSPropertyOp6
 70
     1
102
RTVSPropertyOp7
 70
     1
102
RTVSPropertyOp8
 70
     1
102
RTVSPropertyOp9
 70
     1
102
RTVSPropertyOp10
 70
     1
102
RTVSPropertyOp11
 70
     1
102
RTVSPropertyOp12
 70
     1
102
RTVSPropertyOp13
 70
     1
102
RTVSPropertyOp14
 70
     1
102
RTVSPropertyOp15
 70
     1
102
RTVSPropertyOp16
 70
     1
102
RTVSPropertyOp17
 70
     1
102
RTVSPropertyOp18
 70
     1
102
RTVSPropertyOp19
 70
     1
102
RTVSPropertyOp20
 70
     1
102
RTVSPropertyOp21
 70
     1
102
RTVSPropertyOp22
 70
     1
102
RTVSPropertyOp23
 70
     1
102
RTVSPropertyOp24
 70
     1
102
RTVSPropertyOp25
 70
     1
102
RTVSPropertyOp26
 70
     1
102
RTVSPropertyOp27
 70
     1
102
RTVSPropertyOp28
 70
     1
102
RTVSPropertyOp29
 70
     1
102
RTVSPropertyOp30
 70
     1
102
RTVSPropertyOp31
 70
     1
102
RTVSPropertyOp32
 70
     1
  0
ENDSEC
  0
EOF
