  0
SECTION
  2
HEADER
  9
$ACADVER
  1
AC1027
  9
$ACADMAINTVER
 70
   105
  9
$DWGCODEPAGE
  3
ANSI_1252
  9
$REQUIREDVERSIONS
160
                 0
  9
$COMMENTS
  1
File was created by Cadenas
  9
$CUSTOMPROPERTYTAG
  1
NN
  9
$CUSTOMPROPERTY
  1
Geberit Mapress Carbon Steel set of connector T-pieces for inlet and return flow, with union connector for Euro cone
  9
$CUSTOMPROPERTYTAG
  1
NT
  9
$CUSTOMPROPERTY
  1

  9
$CUSTOMPROPERTYTAG
  1
NB
  9
$CUSTOMPROPERTY
  1
24046
  9
$CUSTOMPROPERTYTAG
  1
NBSYN
  9
$CUSTOMPROPERTY
  1
$ARTNRT.
  9
$CUSTOMPROPERTYTAG
  1
LINA
  9
$CUSTOMPROPERTY
  1
24046
  9
$CUSTOMPROPERTYTAG
  1
CATALOG
  9
$CUSTOMPROPERTY
  1
GEBERIT
  9
$CUSTOMPROPERTYTAG
  1
ARTNRT
  9
$CUSTOMPROPERTY
  1
24046
  9
$CUSTOMPROPERTYTAG
  1
AD
  9
$CUSTOMPROPERTY
  1
5
  9
$CUSTOMPROPERTYTAG
  1
D
  9
$CUSTOMPROPERTY
  1
18.0
  9
$CUSTOMPROPERTYTAG
  1
D1
  9
$CUSTOMPROPERTY
  1
15.0
  9
$CUSTOMPROPERTYTAG
  1
DN
  9
$CUSTOMPROPERTY
  1
15 / 12
  9
$CUSTOMPROPERTYTAG
  1
L
  9
$CUSTOMPROPERTY
  1
2.9
  9
$CUSTOMPROPERTYTAG
  1
L1
  9
$CUSTOMPROPERTY
  1
12.7
  9
$CUSTOMPROPERTYTAG
  1
LL1
  9
$CUSTOMPROPERTY
  1
6.8
  9
$CUSTOMPROPERTYTAG
  1
Z
  9
$CUSTOMPROPERTY
  1
10.0
  9
$CUSTOMPROPERTYTAG
  1
Z1
  9
$CUSTOMPROPERTY
  1
1.7
  9
$CUSTOMPROPERTYTAG
  1
COMPANY
  9
$CUSTOMPROPERTY
  1
geberit
  9
$INSBASE
 10
0.0
 20
0.0
 30
0.0
  9
$EXTMIN
 10
1.000000000000000E+20
 20
1.000000000000000E+20
 30
1.000000000000000E+20
  9
$EXTMAX
 10
-1.000000000000000E+20
 20
-1.000000000000000E+20
 30
-1.000000000000000E+20
  9
$LIMMIN
 10
0.0
 20
0.0
  9
$LIMMAX
 10
420.0
 20
297.0
  9
$ORTHOMODE
 70
     0
  9
$REGENMODE
 70
     1
  9
$FILLMODE
 70
     1
  9
$QTEXTMODE
 70
     0
  9
$MIRRTEXT
 70
     1
  9
$LTSCALE
 40
1.0
  9
$ATTMODE
 70
     1
  9
$TEXTSIZE
 40
2.5
  9
$TRACEWID
 40
1.0
  9
$TEXTSTYLE
  7
Standard
  9
$CLAYER
  8
0
  9
$CELTYPE
  6
ByLayer
  9
$CECOLOR
 62
   256
  9
$CELTSCALE
 40
1.0
  9
$DISPSILH
 70
     0
  9
$DIMSCALE
 40
1.0
  9
$DIMASZ
 40
2.5
  9
$DIMEXO
 40
0.625
  9
$DIMDLI
 40
3.75
  9
$DIMRND
 40
0.0
  9
$DIMDLE
 40
0.0
  9
$DIMEXE
 40
1.25
  9
$DIMTP
 40
0.0
  9
$DIMTM
 40
0.0
  9
$DIMTXT
 40
2.5
  9
$DIMCEN
 40
2.5
  9
$DIMTSZ
 40
0.0
  9
$DIMTOL
 70
     0
  9
$DIMLIM
 70
     0
  9
$DIMTIH
 70
     0
  9
$DIMTOH
 70
     0
  9
$DIMSE1
 70
     0
  9
$DIMSE2
 70
     0
  9
$DIMTAD
 70
     1
  9
$DIMZIN
 70
     8
  9
$DIMBLK
  1

  9
$DIMASO
 70
     1
  9
$DIMSHO
 70
     1
  9
$DIMPOST
  1

  9
$DIMAPOST
  1

  9
$DIMALT
 70
     0
  9
$DIMALTD
 70
     3
  9
$DIMALTF
 40
0.03937007874016
  9
$DIMLFAC
 40
1.0
  9
$DIMTOFL
 70
     1
  9
$DIMTVP
 40
0.0
  9
$DIMTIX
 70
     0
  9
$DIMSOXD
 70
     0
  9
$DIMSAH
 70
     0
  9
$DIMBLK1
  1

  9
$DIMBLK2
  1

  9
$DIMSTYLE
  2
ISO-25
  9
$DIMCLRD
 70
     0
  9
$DIMCLRE
 70
     0
  9
$DIMCLRT
 70
     0
  9
$DIMTFAC
 40
1.0
  9
$DIMGAP
 40
0.625
  9
$DIMJUST
 70
     0
  9
$DIMSD1
 70
     0
  9
$DIMSD2
 70
     0
  9
$DIMTOLJ
 70
     0
  9
$DIMTZIN
 70
     8
  9
$DIMALTZ
 70
     0
  9
$DIMALTTZ
 70
     0
  9
$DIMUPT
 70
     0
  9
$DIMDEC
 70
     2
  9
$DIMTDEC
 70
     2
  9
$DIMALTU
 70
     2
  9
$DIMALTTD
 70
     3
  9
$DIMTXSTY
  7
Standard
  9
$DIMAUNIT
 70
     0
  9
$DIMADEC
 70
     0
  9
$DIMALTRND
 40
0.0
  9
$DIMAZIN
 70
     0
  9
$DIMDSEP
 70
    44
  9
$DIMATFIT
 70
     3
  9
$DIMFRAC
 70
     0
  9
$DIMLDRBLK
  1

  9
$DIMLUNIT
 70
     2
  9
$DIMLWD
 70
    -2
  9
$DIMLWE
 70
    -2
  9
$DIMTMOVE
 70
     0
  9
$DIMFXL
 40
1.0
  9
$DIMFXLON
 70
     0
  9
$DIMJOGANG
 40
0.7853981633974483
  9
$DIMTFILL
 70
     0
  9
$DIMTFILLCLR
 70
     0
  9
$DIMARCSYM
 70
     0
  9
$DIMLTYPE
  6

  9
$DIMLTEX1
  6

  9
$DIMLTEX2
  6

  9
$DIMTXTDIRECTION
 70
     0
  9
$LUNITS
 70
     2
  9
$LUPREC
 70
     4
  9
$SKETCHINC
 40
1.0
  9
$FILLETRAD
 40
10.0
  9
$AUNITS
 70
     0
  9
$AUPREC
 70
     0
  9
$MENU
  1
.
  9
$ELEVATION
 40
0.0
  9
$PELEVATION
 40
0.0
  9
$THICKNESS
 40
0.0
  9
$LIMCHECK
 70
     0
  9
$CHAMFERA
 40
0.0
  9
$CHAMFERB
 40
0.0
  9
$CHAMFERC
 40
0.0
  9
$CHAMFERD
 40
0.0
  9
$SKPOLY
 70
     0
  9
$TDCREATE
 40
2458934.670203819
  9
$TDUCREATE
 40
2458934.628537153
  9
$TDUPDATE
 40
2458934.670203981
  9
$TDUUPDATE
 40
2458934.628537315
  9
$TDINDWG
 40
0.0000000116
  9
$TDUSRTIMER
 40
0.0000000116
  9
$USRTIMER
 70
     1
  9
$ANGBASE
 50
0.0
  9
$ANGDIR
 70
     0
  9
$PDMODE
 70
     0
  9
$PDSIZE
 40
0.0
  9
$PLINEWID
 40
0.0
  9
$SPLFRAME
 70
     0
  9
$SPLINETYPE
 70
     6
  9
$SPLINESEGS
 70
     8
  9
$HANDSEED
  5
208
  9
$SURFTAB1
 70
     6
  9
$SURFTAB2
 70
     6
  9
$SURFTYPE
 70
     6
  9
$SURFU
 70
     6
  9
$SURFV
 70
     6
  9
$UCSBASE
  2

  9
$UCSNAME
  2

  9
$UCSORG
 10
0.0
 20
0.0
 30
0.0
  9
$UCSXDIR
 10
1.0
 20
0.0
 30
0.0
  9
$UCSYDIR
 10
0.0
 20
1.0
 30
0.0
  9
$UCSORTHOREF
  2

  9
$UCSORTHOVIEW
 70
     0
  9
$UCSORGTOP
 10
0.0
 20
0.0
 30
0.0
  9
$UCSORGBOTTOM
 10
0.0
 20
0.0
 30
0.0
  9
$UCSORGLEFT
 10
0.0
 20
0.0
 30
0.0
  9
$UCSORGRIGHT
 10
0.0
 20
0.0
 30
0.0
  9
$UCSORGFRONT
 10
0.0
 20
0.0
 30
0.0
  9
$UCSORGBACK
 10
0.0
 20
0.0
 30
0.0
  9
$PUCSBASE
  2

  9
$PUCSNAME
  2

  9
$PUCSORG
 10
0.0
 20
0.0
 30
0.0
  9
$PUCSXDIR
 10
1.0
 20
0.0
 30
0.0
  9
$PUCSYDIR
 10
0.0
 20
1.0
 30
0.0
  9
$PUCSORTHOREF
  2

  9
$PUCSORTHOVIEW
 70
     0
  9
$PUCSORGTOP
 10
0.0
 20
0.0
 30
0.0
  9
$PUCSORGBOTTOM
 10
0.0
 20
0.0
 30
0.0
  9
$PUCSORGLEFT
 10
0.0
 20
0.0
 30
0.0
  9
$PUCSORGRIGHT
 10
0.0
 20
0.0
 30
0.0
  9
$PUCSORGFRONT
 10
0.0
 20
0.0
 30
0.0
  9
$PUCSORGBACK
 10
0.0
 20
0.0
 30
0.0
  9
$USERI1
 70
     0
  9
$USERI2
 70
     0
  9
$USERI3
 70
     0
  9
$USERI4
 70
     0
  9
$USERI5
 70
     0
  9
$USERR1
 40
0.0
  9
$USERR2
 40
0.0
  9
$USERR3
 40
0.0
  9
$USERR4
 40
0.0
  9
$USERR5
 40
0.0
  9
$WORLDVIEW
 70
     1
  9
$SHADEDGE
 70
     3
  9
$SHADEDIF
 70
    70
  9
$TILEMODE
 70
     1
  9
$MAXACTVP
 70
    64
  9
$PINSBASE
 10
0.0
 20
0.0
 30
0.0
  9
$PLIMCHECK
 70
     0
  9
$PEXTMIN
 10
1.000000000000000E+20
 20
1.000000000000000E+20
 30
1.000000000000000E+20
  9
$PEXTMAX
 10
-1.000000000000000E+20
 20
-1.000000000000000E+20
 30
-1.000000000000000E+20
  9
$PLIMMIN
 10
0.0
 20
0.0
  9
$PLIMMAX
 10
420.0
 20
297.0
  9
$UNITMODE
 70
     0
  9
$VISRETAIN
 70
     1
  9
$PLINEGEN
 70
     0
  9
$PSLTSCALE
 70
     1
  9
$TREEDEPTH
 70
  3020
  9
$CMLSTYLE
  2
Standard
  9
$CMLJUST
 70
     0
  9
$CMLSCALE
 40
20.0
  9
$PROXYGRAPHICS
 70
     1
  9
$MEASUREMENT
 70
     1
  9
$CELWEIGHT
370
    -1
  9
$ENDCAPS
280
     0
  9
$JOINSTYLE
280
     0
  9
$LWDISPLAY
290
     0
  9
$INSUNITS
 70
     4
  9
$HYPERLINKBASE
  1

  9
$STYLESHEET
  1

  9
$XEDIT
290
     1
  9
$CEPSNTYPE
380
     0
  9
$PSTYLEMODE
290
     1
  9
$FINGERPRINTGUID
  2
{69ED42A6-B49A-4620-A11A-962CDE338431}
  9
$VERSIONGUID
  2
{FAEB1C32-E019-11D5-929B-00C0DF256EC4}
  9
$EXTNAMES
290
     1
  9
$PSVPSCALE
 40
0.0
  9
$OLESTARTUP
290
     0
  9
$SORTENTS
280
   127
  9
$INDEXCTL
280
     0
  9
$HIDETEXT
280
     1
  9
$XCLIPFRAME
280
     2
  9
$HALOGAP
280
     0
  9
$OBSCOLOR
 70
   257
  9
$OBSLTYPE
280
     0
  9
$INTERSECTIONDISPLAY
280
     0
  9
$INTERSECTIONCOLOR
 70
   257
  9
$DIMASSOC
280
     2
  9
$PROJECTNAME
  1

  9
$CAMERADISPLAY
290
     0
  9
$LENSLENGTH
 40
50.0
  9
$CAMERAHEIGHT
 40
0.0
  9
$STEPSPERSEC
 40
2.0
  9
$STEPSIZE
 40
6.0
  9
$3DDWFPREC
 40
2.0
  9
$PSOLWIDTH
 40
5.0
  9
$PSOLHEIGHT
 40
80.0
  9
$LOFTANG1
 40
1.570796326794897
  9
$LOFTANG2
 40
1.570796326794897
  9
$LOFTMAG1
 40
0.0
  9
$LOFTMAG2
 40
0.0
  9
$LOFTPARAM
 70
     7
  9
$LOFTNORMALS
280
     1
  9
$LATITUDE
 40
37.795
  9
$LONGITUDE
 40
-122.394
  9
$NORTHDIRECTION
 40
0.0
  9
$TIMEZONE
 70
 -8000
  9
$LIGHTGLYPHDISPLAY
280
     1
  9
$TILEMODELIGHTSYNCH
280
     1
  9
$CMATERIAL
347
44
  9
$SOLIDHIST
280
     0
  9
$SHOWHIST
280
     1
  9
$DWFFRAME
280
     2
  9
$DGNFRAME
280
     2
  9
$REALWORLDSCALE
290
     1
  9
$INTERFERECOLOR
 62
   256
  9
$CSHADOW
280
     0
  9
$SHADOWPLANELOCATION
 40
0.0
  0
ENDSEC
  0
SECTION
  2
CLASSES
  0
CLASS
  1
ACDBDICTIONARYWDFLT
  2
AcDbDictionaryWithDefault
  3
ObjectDBX Classes
 90
        0
 91
        4
280
     0
281
     0
  0
CLASS
  1
VISUALSTYLE
  2
AcDbVisualStyle
  3
ObjectDBX Classes
 90
     4095
 91
        4
280
     0
281
     0
  0
CLASS
  1
MATERIAL
  2
AcDbMaterial
  3
ObjectDBX Classes
 90
     1153
 91
        4
280
     0
281
     0
  0
CLASS
  1
SCALE
  2
AcDbScale
  3
ObjectDBX Classes
 90
     1153
 91
        4
280
     0
281
     0
  0
CLASS
  1
TABLESTYLE
  2
AcDbTableStyle
  3
ObjectDBX Classes
 90
     4095
 91
        4
280
     0
281
     0
  0
CLASS
  1
MLEADERSTYLE
  2
AcDbMLeaderStyle
  3
ACDB_MLEADERSTYLE_CLASS
 90
     4095
 91
        4
280
     0
281
     0
  0
CLASS
  1
SUN
  2
AcDbSun
  3
SCENEOE
 90
     1153
 91
        4
280
     0
281
     0
  0
CLASS
  1
DICTIONARYVAR
  2
AcDbDictionaryVar
  3
ObjectDBX Classes
 90
        0
 91
        4
280
     0
281
     0
  0
CLASS
  1
CELLSTYLEMAP
  2
AcDbCellStyleMap
  3
ObjectDBX Classes
 90
     1152
 91
        4
280
     0
281
     0
  0
ENDSEC
  0
SECTION
  2
TABLES
  0
TABLE
  2
VPORT
  5
8
330
0
100
AcDbSymbolTable
 70
     1
  0
VPORT
  5
29
330
8
100
AcDbSymbolTableRecord
100
AcDbViewportTableRecord
  2
*Active
 70
     0
 10
0.0
 20
0.0
 11
1.0
 21
1.0
 12
11.30756000000002
 22
39.61642813588973
 13
0.0
 23
0.0
 14
10.0
 24
10.0
 15
10.0
 25
10.0
 16
0.0
 26
0.0
 36
1.0
 17
0.0
 27
0.0
 37
0.0
 40
159.0933534529619
 41
0.2411629497227482
 42
50.0
 43
0.0
 44
0.0
 50
0.0
 51
0.0
 71
     0
 72
   100
 73
     1
 74
     3
 75
     0
 76
     0
 77
     0
 78
     0
281
     0
 65
     1
110
0.0
120
0.0
130
0.0
111
1.0
121
0.0
131
0.0
112
0.0
122
1.0
132
0.0
 79
     0
146
0.0
348
2F
 60
     3
 61
     5
292
     1
282
     1
141
0.0
142
0.0
 63
   250
361
6D
  0
ENDTAB
  0
TABLE
  2
LTYPE
  5
5
330
0
100
AcDbSymbolTable
 70
     3
  0
LTYPE
  5
14
330
5
100
AcDbSymbolTableRecord
100
AcDbLinetypeTableRecord
  2
ByBlock
 70
     0
  3

 72
    65
 73
     0
 40
0.0
  0
LTYPE
  5
15
330
5
100
AcDbSymbolTableRecord
100
AcDbLinetypeTableRecord
  2
ByLayer
 70
     0
  3

 72
    65
 73
     0
 40
0.0
  0
LTYPE
  5
16
330
5
100
AcDbSymbolTableRecord
100
AcDbLinetypeTableRecord
  2
Continuous
 70
     0
  3
Solid line
 72
    65
 73
     0
 40
0.0
  0
LTYPE
  5
9B
330
5
100
AcDbSymbolTableRecord
100
AcDbLinetypeTableRecord
  2
Dashed
 70
     0
  3

 72
    65
 73
     2
 40
2.0
 49
1.0
 74
     0
 49
-1.0
 74
     0
  0
LTYPE
  5
103
330
5
100
AcDbSymbolTableRecord
100
AcDbLinetypeTableRecord
  2
Center
 70
     0
  3

 72
    65
 73
     4
 40
1.5
 49
0.45
 74
     0
 49
-0.5
 74
     0
 49
0.05
 74
     0
 49
-0.5
 74
     0
  0
ENDTAB
  0
TABLE
  2
LAYER
  5
2
330
0
100
AcDbSymbolTable
 70
     7
  0
LAYER
  5
10
330
2
100
AcDbSymbolTableRecord
100
AcDbLayerTableRecord
  2
0
 70
     0
 62
     7
  6
Continuous
370
    -3
390
F
347
46
348
0
  0
LAYER
  5
6E
330
2
100
AcDbSymbolTableRecord
100
AcDbLayerTableRecord
  2
AM_6
 70
     0
 62
    -2
  6
Continuous
370
    35
390
F
347
46
348
0
  0
LAYER
  5
9C
330
2
100
AcDbSymbolTableRecord
100
AcDbLayerTableRecord
  2
VER
 70
     0
 62
    -6
  6
Dashed
370
    25
390
F
347
46
348
0
  0
LAYER
  5
FE
330
2
100
AcDbSymbolTableRecord
100
AcDbLayerTableRecord
  2
GEW
 70
     0
 62
     3
  6
Continuous
370
    25
390
F
347
46
348
0
  0
LAYER
  5
104
330
2
100
AcDbSymbolTableRecord
100
AcDbLayerTableRecord
  2
MITTE
 70
     0
 62
     7
  6
Center
370
    25
390
F
347
46
348
0
  0
LAYER
  5
10B
330
2
100
AcDbSymbolTableRecord
100
AcDbLayerTableRecord
  2
050
 70
     0
 62
     7
  6
Continuous
370
    50
390
F
347
46
348
0
  0
LAYER
  5
1F9
330
2
100
AcDbSymbolTableRecord
100
AcDbLayerTableRecord
  2
2d ConnectionPoints
 70
     0
 62
    -7
  6
Continuous
370
    50
390
F
347
46
348
0
  0
ENDTAB
  0
TABLE
  2
STYLE
  5
3
330
0
100
AcDbSymbolTable
 70
     1
  0
STYLE
  5
11
330
3
100
AcDbSymbolTableRecord
100
AcDbTextStyleTableRecord
  2
Standard
 70
     0
 40
0.0
 41
1.0
 50
0.0
 71
     0
 42
2.5
  3
txt
  4

  0
ENDTAB
  0
TABLE
  2
VIEW
  5
6
330
0
100
AcDbSymbolTable
 70
     0
  0
ENDTAB
  0
TABLE
  2
UCS
  5
7
330
0
100
AcDbSymbolTable
 70
     0
  0
ENDTAB
  0
TABLE
  2
APPID
  5
9
330
0
100
AcDbSymbolTable
 70
     1
  0
APPID
  5
12
330
9
100
AcDbSymbolTableRecord
100
AcDbRegAppTableRecord
  2
ACAD
 70
     0
  0
ENDTAB
  0
TABLE
  2
DIMSTYLE
  5
A
330
0
100
AcDbSymbolTable
 70
     1
100
AcDbDimStyleTable
  0
DIMSTYLE
105
27
330
A
100
AcDbSymbolTableRecord
100
AcDbDimStyleTableRecord
  2
ISO-25
 70
     0
 41
2.5
 42
0.625
 43
3.75
 44
1.25
 73
     0
 74
     0
 77
     1
 78
     8
140
2.5
141
2.5
143
0.03937007874016
147
0.625
171
     3
172
     1
178
     0
271
     2
272
     2
274
     3
278
    44
283
     0
284
     8
340
11
  0
ENDTAB
  0
TABLE
  2
BLOCK_RECORD
  5
1
330
0
100
AcDbSymbolTable
 70
     3
  0
BLOCK_RECORD
  5
1F
330
1
100
AcDbSymbolTableRecord
100
AcDbBlockTableRecord
  2
*Model_Space
340
22
 70
     0
280
     1
281
     0
  0
BLOCK_RECORD
  5
1B
330
1
100
AcDbSymbolTableRecord
100
AcDbBlockTableRecord
  2
*Paper_Space
340
1E
 70
     0
280
     1
281
     0
  0
BLOCK_RECORD
  5
23
330
1
100
AcDbSymbolTableRecord
100
AcDbBlockTableRecord
  2
*Paper_Space0
340
26
 70
     0
280
     1
281
     0
  0
BLOCK_RECORD
  5
80
330
1
100
AcDbSymbolTableRecord
100
AcDbBlockTableRecord
  2
1_24046_2_0_in_24046_3
340
0
102
{BLKREFS
331
81
102
}
 70
     0
280
     1
281
     0
  0
BLOCK_RECORD
  5
124
330
1
100
AcDbSymbolTableRecord
100
AcDbBlockTableRecord
  2
2_24046_1_0_in_24046_3
340
0
102
{BLKREFS
331
125
102
}
 70
     0
280
     1
281
     0
  0
ENDTAB
  0
ENDSEC
  0
SECTION
  2
BLOCKS
  0
BLOCK
  5
20
330
1F
100
AcDbEntity
  8
0
100
AcDbBlockBegin
  2
*Model_Space
 70
     0
 10
0.0
 20
0.0
 30
0.0
  3
*Model_Space
  1

  0
ENDBLK
  5
21
330
1F
100
AcDbEntity
  8
0
100
AcDbBlockEnd
  0
BLOCK
  5
1C
330
1B
100
AcDbEntity
 67
     1
  8
0
100
AcDbBlockBegin
  2
*Paper_Space
 70
     0
 10
0.0
 20
0.0
 30
0.0
  3
*Paper_Space
  1

  0
ENDBLK
  5
1D
330
1B
100
AcDbEntity
 67
     1
  8
0
100
AcDbBlockEnd
  0
BLOCK
  5
24
330
23
100
AcDbEntity
  8
0
100
AcDbBlockBegin
  2
*Paper_Space0
 70
     0
 10
0.0
 20
0.0
 30
0.0
  3
*Paper_Space0
  1

  0
ENDBLK
  5
25
330
23
100
AcDbEntity
  8
0
100
AcDbBlockEnd
  0
BLOCK
  5
82
330
80
100
AcDbEntity
  8
0
100
AcDbBlockBegin
  2
1_24046_2_0_in_24046_3
 70
     2
 10
0.0
 20
0.0
 30
0.0
  3
1_24046_2_0_in_24046_3
  1

  0
ATTDEF
  5
84
330
80
100
AcDbEntity
  8
AM_6
100
AcDbText
 10
26.61512000000001
 20
115.0585
 30
0.0
 40
0.5
  1
Geberit Mapress Carbon Steel set of connector T-pieces for inlet and return flow, with union connector for Euro cone - part2
100
AcDbAttributeDefinition
  3

  2
NN
 70
     8
280
     0
  0
ATTDEF
  5
85
330
80
100
AcDbEntity
  8
AM_6
100
AcDbText
 10
26.61512000000001
 20
114.5585
 30
0.0
 40
0.5
  1

100
AcDbAttributeDefinition
  3

  2
NT
 70
     8
280
     0
  0
ATTDEF
  5
86
330
80
100
AcDbEntity
  8
AM_6
100
AcDbText
 10
26.61512000000001
 20
114.0585
 30
0.0
 40
0.5
  1
24046_2
100
AcDbAttributeDefinition
  3

  2
NB
 70
     8
280
     0
  0
ATTDEF
  5
87
330
80
100
AcDbEntity
  8
AM_6
100
AcDbText
 10
26.61512000000001
 20
113.5585
 30
0.0
 40
0.5
  1
$ARTNRT._2
100
AcDbAttributeDefinition
  3

  2
NBSYN
 70
     8
280
     0
  0
ATTDEF
  5
88
330
80
100
AcDbEntity
  8
AM_6
100
AcDbText
 10
26.61512000000001
 20
113.0585
 30
0.0
 40
0.5
  1
24046
100
AcDbAttributeDefinition
  3

  2
LINA
 70
     8
280
     0
  0
ATTDEF
  5
89
330
80
100
AcDbEntity
  8
AM_6
100
AcDbText
 10
26.61512000000001
 20
112.5585
 30
0.0
 40
0.5
  1
GEBERIT
100
AcDbAttributeDefinition
  3

  2
CATALOG
 70
     8
280
     0
  0
ATTDEF
  5
8A
330
80
100
AcDbEntity
  8
AM_6
100
AcDbText
 10
26.61512000000001
 20
112.0585
 30
0.0
 40
0.5
  1
24046
100
AcDbAttributeDefinition
  3

  2
ARTNRT
 70
     8
280
     0
  0
ATTDEF
  5
8B
330
80
100
AcDbEntity
  8
AM_6
100
AcDbText
 10
26.61512000000001
 20
111.5585
 30
0.0
 40
0.5
  1
5
100
AcDbAttributeDefinition
  3

  2
AD
 70
     8
280
     0
  0
ATTDEF
  5
8C
330
80
100
AcDbEntity
  8
AM_6
100
AcDbText
 10
26.61512000000001
 20
111.0585
 30
0.0
 40
0.5
  1
18.0
100
AcDbAttributeDefinition
  3

  2
D
 70
     8
280
     0
  0
ATTDEF
  5
8D
330
80
100
AcDbEntity
  8
AM_6
100
AcDbText
 10
26.61512000000001
 20
110.5585
 30
0.0
 40
0.5
  1
15.0
100
AcDbAttributeDefinition
  3

  2
D1
 70
     8
280
     0
  0
ATTDEF
  5
8E
330
80
100
AcDbEntity
  8
AM_6
100
AcDbText
 10
26.61512000000001
 20
110.0585
 30
0.0
 40
0.5
  1
15 / 12
100
AcDbAttributeDefinition
  3

  2
DN
 70
     8
280
     0
  0
ATTDEF
  5
8F
330
80
100
AcDbEntity
  8
AM_6
100
AcDbText
 10
26.61512000000001
 20
109.5585
 30
0.0
 40
0.5
  1
2.9
100
AcDbAttributeDefinition
  3

  2
L
 70
     8
280
     0
  0
ATTDEF
  5
90
330
80
100
AcDbEntity
  8
AM_6
100
AcDbText
 10
26.61512000000001
 20
109.0585
 30
0.0
 40
0.5
  1
12.7
100
AcDbAttributeDefinition
  3

  2
L1
 70
     8
280
     0
  0
ATTDEF
  5
91
330
80
100
AcDbEntity
  8
AM_6
100
AcDbText
 10
26.61512000000001
 20
108.5585
 30
0.0
 40
0.5
  1
6.8
100
AcDbAttributeDefinition
  3

  2
LL1
 70
     8
280
     0
  0
ATTDEF
  5
92
330
80
100
AcDbEntity
  8
AM_6
100
AcDbText
 10
26.61512000000001
 20
108.0585
 30
0.0
 40
0.5
  1
10.0
100
AcDbAttributeDefinition
  3

  2
Z
 70
     8
280
     0
  0
ATTDEF
  5
93
330
80
100
AcDbEntity
  8
AM_6
100
AcDbText
 10
26.61512000000001
 20
107.5585
 30
0.0
 40
0.5
  1
1.7
100
AcDbAttributeDefinition
  3

  2
Z1
 70
     8
280
     0
  0
ATTDEF
  5
94
330
80
100
AcDbEntity
  8
AM_6
100
AcDbText
 10
26.61512000000001
 20
107.0585
 30
0.0
 40
0.5
  1
2.150
100
AcDbAttributeDefinition
  3

  2
L1X
 70
     8
280
     0
  0
ATTDEF
  5
95
330
80
100
AcDbEntity
  8
AM_6
100
AcDbText
 10
26.61512000000001
 20
106.5585
 30
0.0
 40
0.5
  1
2.7
100
AcDbAttributeDefinition
  3

  2
R
 70
     8
280
     0
  0
ATTDEF
  5
96
330
80
100
AcDbEntity
  8
AM_6
100
AcDbText
 10
26.61512000000001
 20
106.0585
 30
0.0
 40
0.5
  1
20.0
100
AcDbAttributeDefinition
  3

  2
DX
 70
     8
280
     0
  0
ATTDEF
  5
97
330
80
100
AcDbEntity
  8
AM_6
100
AcDbText
 10
26.61512000000001
 20
105.5585
 30
0.0
 40
0.5
  1
2.25
100
AcDbAttributeDefinition
  3

  2
DXX
 70
     8
280
     0
  0
ATTDEF
  5
98
330
80
100
AcDbEntity
  8
AM_6
100
AcDbText
 10
26.61512000000001
 20
105.0585
 30
0.0
 40
0.5
  1
3.002
100
AcDbAttributeDefinition
  3

  2
LX
 70
     8
280
     0
  0
ATTDEF
  5
99
330
80
100
AcDbEntity
  8
AM_6
100
AcDbText
 10
26.61512000000001
 20
104.5585
 30
0.0
 40
0.5
  1
24.0
100
AcDbAttributeDefinition
  3

  2
ANGLE
 70
     8
280
     0
  0
ATTDEF
  5
9A
330
80
100
AcDbEntity
  8
AM_6
100
AcDbText
 10
26.61512000000001
 20
104.0585
 30
0.0
 40
0.5
  1
geberit
100
AcDbAttributeDefinition
  3

  2
COMPANY
 70
     8
280
     0
  0
LINE
  5
9D
330
80
100
AcDbEntity
  8
VER
100
AcDbLine
 10
7.531695488854592
 20
10.96479859341446
 30
0.0
 11
-7.46830451114541
 21
27.62398631585237
 31
0.0
  0
LINE
  5
9E
330
80
100
AcDbEntity
  8
VER
100
AcDbLine
 10
2.724277892421842
 20
38.75477860039626
 30
0.0
 11
2.724277892421842
 21
31.24522139960374
 31
0.0
  0
LWPOLYLINE
  5
9F
330
80
100
AcDbEntity
  8
VER
100
AcDbPolyline
 90
       13
 70
     0
 43
0.0
 10
2.724277892421842
 20
31.24522139960374
 10
2.456687183578303
 20
31.84535819813493
 10
2.233420160433232
 20
32.47200406389776
 10
2.056006086547493
 20
33.13065118225219
 10
1.931244575449768
 20
33.80753068691062
 10
1.863414580069087
 20
34.4682691487417
 10
1.847771864667014
 20
35.13695066385182
 10
1.886420517925648
 20
35.81861180548592
 10
1.980751952284274
 20
36.49930938782302
 10
2.105445103913051
 20
37.0754605049183
 10
2.270505847097414
 20
37.64361569721626
 10
2.477775041744458
 20
38.2067616405168
 10
2.724277892421842
 20
38.75477860039626
  0
ARC
  5
A0
330
80
100
AcDbEntity
  8
VER
100
AcDbCircle
 10
10.34999999999984
 20
35.00000000000001
 30
0.0
 40
8.499999999999856
100
AcDbArc
 50
206.2148671307434
 51
153.7851328692567
  0
LWPOLYLINE
  5
A1
330
80
100
AcDbEntity
  8
VER
100
AcDbPolyline
 90
       19
 70
     0
 43
0.0
 10
2.724277892421842
 20
28.53096897997901
 10
2.275207199582213
 20
29.099798667903
 10
1.86340439733654
 20
29.70542107338238
 10
1.484023237339683
 20
30.36374301736799
 10
1.154602855785544
 20
31.05139843724122
 10
0.8864040259130057
 20
31.74086119930885
 10
0.6700527811495607
 20
32.44891096888797
 10
0.5038452299195174
 20
33.18883440867363
 10
0.3944039245100311
 20
33.93934560372909
 10
0.3409978274425921
 20
34.74973759730382
 10
0.3536481633853409
 20
35.56179365280553
 10
0.4356554851756255
 20
36.39263721623799
 10
0.5868696552130597
 20
37.21365091048973
 10
0.8038773207680109
 20
38.01052031347088
 10
1.086024456817154
 20
38.7861415037242
 10
1.443155679021208
 20
39.5577617911116
 10
1.862821264082928
 20
40.29365031362615
 10
2.273081989900625
 20
40.89746928403721
 10
2.724277892421845
 20
41.46903102002099
  0
ARC
  5
A2
330
80
100
AcDbEntity
  8
VER
100
AcDbCircle
 10
10.34999999999992
 20
35.0
 30
0.0
 40
9.99999999999994
100
AcDbArc
 50
220.3085139364066
 51
139.6914860635934
  0
LINE
  5
A3
330
80
100
AcDbEntity
  8
VER
100
AcDbLine
 10
4.606797250358211
 20
41.86700242979705
 30
0.0
 11
4.606797250358211
 21
28.13299757020297
 31
0.0
  0
LINE
  5
A4
330
80
100
AcDbEntity
  8
VER
100
AcDbLine
 10
0.8500000000000012
 20
35.68897154762907
 30
0.0
 11
0.8500000000000012
 21
34.31102845237084
 31
0.0
  0
LINE
  5
A5
330
80
100
AcDbEntity
  8
VER
100
AcDbLine
 10
-0.6500000000023781
 20
35.94486655569209
 30
0.0
 11
-0.6500000000000541
 21
34.05513344428368
 31
0.0
  0
LWPOLYLINE
  5
A6
330
80
100
AcDbEntity
  8
VER
100
AcDbPolyline
 90
        5
 70
     0
 43
0.0
 10
4.606797250358211
 20
41.86700242979705
 10
5.145856023183955
 20
42.12809600238071
 10
5.693660080579166
 20
42.35131970090428
 10
6.250186280260278
 20
42.54122566460281
 10
6.811684978233569
 20
42.70069527174061
  0
LWPOLYLINE
  5
A7
330
80
100
AcDbEntity
  8
VER
100
AcDbPolyline
 90
        4
 70
     0
 43
0.0
 10
5.78622981028642
 20
27.61467454086394
 10
5.701288038967181
 20
27.64583972402557
 10
5.150828619517319
 20
27.86969753301223
 10
4.606797250358211
 20
28.13299757020297
  0
LWPOLYLINE
  5
A8
330
80
100
AcDbEntity
  8
VER
100
AcDbPolyline
 90
        3
 70
     0
 43
0.0
 10
6.811684978233576
 20
27.2993047282594
 10
6.254764730329242
 20
27.45735035546629
 10
5.78622981028642
 20
27.61467454086394
  0
LWPOLYLINE
  5
A9
330
80
100
AcDbEntity
  8
VER
100
AcDbPolyline
 90
       12
 70
     0
 43
0.0
 10
4.606797250358213
 20
41.86700242979703
 10
4.197984469296125
 20
41.64009740555593
 10
3.812205456121523
 20
41.40268556747951
 10
3.447236212939538
 20
41.15344442629891
 10
3.106182087137071
 20
40.89448893341176
 10
2.782688053212728
 20
40.6202957652769
 10
2.484505401155288
 20
40.3366179933574
 10
2.209987324934071
 20
40.04161531618547
 10
1.961282405521762
 20
39.73720509721223
 10
1.74341204119946
 20
39.43085302398745
 10
1.550096141849607
 20
39.11506144967039
 10
1.496102369697544
 20
39.01695873882761
  0
LWPOLYLINE
  5
AA
330
80
100
AcDbEntity
  8
VER
100
AcDbPolyline
 90
        3
 70
     0
 43
0.0
 10
0.8500000000000012
 20
34.31102845237084
 10
0.8216991915889159
 20
34.9976710899207
 10
0.8500000000000012
 20
35.68897154762907
  0
LWPOLYLINE
  5
AB
330
80
100
AcDbEntity
  8
VER
100
AcDbPolyline
 90
       10
 70
     0
 43
0.0
 10
0.850000000000001
 20
34.31102845237677
 10
0.8512870792883048
 20
34.00639990172691
 10
0.8560114782776269
 20
33.72763883947793
 10
0.8658300716006148
 20
33.45912277115704
 10
0.8813233928545633
 20
33.20785223534557
 10
0.9294972262222295
 20
32.75499173609538
 10
1.002936799596543
 20
32.33615108089943
 10
1.10275706266768
 20
31.94201935435939
 10
1.309563425165564
 20
31.36923227962879
 10
1.496171662189104
 20
30.98291205012476
  0
ARC
  5
AC
330
80
100
AcDbEntity
  8
VER
100
AcDbCircle
 10
8.987033051569117
 20
35.00000000000001
 30
0.0
 40
8.500000000005627
100
AcDbArc
 50
208.2069947414678
 51
151.7961114928268
  0
LWPOLYLINE
  5
AD
330
80
100
AcDbEntity
  8
VER
100
AcDbPolyline
 90
       11
 70
     0
 43
0.0
 10
1.496102369697544
 20
39.01695873882761
 10
1.380288923990431
 20
38.78722436431485
 10
1.235063641946166
 20
38.44814031692423
 10
1.112004572951361
 20
38.08904000115897
 10
1.013854963984297
 20
37.71362945767557
 10
0.9395105298601706
 20
37.31400023186324
 10
0.8888937096698223
 20
36.88484498610894
 10
0.8702162733597029
 20
36.62439774764459
 10
0.8580860821585897
 20
36.34526716454806
 10
0.8517070619854895
 20
36.03614846552837
 10
0.8500000000000005
 20
35.68897154762314
  0
LWPOLYLINE
  5
AE
330
80
100
AcDbEntity
  8
VER
100
AcDbPolyline
 90
        9
 70
     0
 43
0.0
 10
1.496171662189104
 20
30.98291205012476
 10
1.582082579960242
 20
30.82910037305609
 10
1.862542350390797
 20
30.39624362400759
 10
2.190416331917549
 20
29.9809039568923
 10
2.565246197805474
 20
29.58319494834919
 10
3.000444458176452
 20
29.19180658487055
 10
3.485569710294644
 20
28.81914445429701
 10
4.019217701685887
 20
28.46687418821271
 10
4.606797250358209
 20
28.13299757020296
  0
LINE
  5
AF
330
80
100
AcDbEntity
  8
VER
100
AcDbLine
 10
-0.0471008626325528
 20
30.71244598594592
 30
0.0
 11
-0.0648981437321879
 21
30.74999510375536
 31
0.0
  0
LWPOLYLINE
  5
B0
330
80
100
AcDbEntity
  8
VER
100
AcDbPolyline
 90
        8
 70
     0
 43
0.0
 10
3.482476975409482
 20
27.26383794079264
 10
3.023397238267719
 20
27.5346112369716
 10
2.590590803124053
 20
27.81603419081081
 10
2.181609544457657
 20
28.10978987747877
 10
1.799975266163721
 20
28.41348866030267
 10
1.438607760961259
 20
28.73370024412831
 10
1.106261898197852
 20
29.06373602888483
 10
1.026862997129167
 20
29.14870728585716
  0
LWPOLYLINE
  5
B1
330
80
100
AcDbEntity
  8
VER
100
AcDbPolyline
 90
        4
 70
     0
 43
0.0
 10
-0.6500000000000541
 20
34.05513344428368
 10
-0.695205571193245
 20
34.98408385518749
 10
-0.6522140639714235
 20
35.92149504605904
 10
-0.6500000000023781
 20
35.94486655569209
  0
LWPOLYLINE
  5
B2
330
80
100
AcDbEntity
  8
VER
100
AcDbPolyline
 90
       10
 70
     0
 43
0.0
 10
-0.6499999999999988
 20
35.94486655569952
 10
-0.6488842579045224
 20
36.20582217797573
 10
-0.6450697425524882
 20
36.44940912938908
 10
-0.6265081220330779
 20
36.90596488562063
 10
-0.5898651514813081
 20
37.33575434242533
 10
-0.5335009453836743
 20
37.73848091195605
 10
-0.4616285148231012
 20
38.09841078769699
 10
-0.3709889350279715
 20
38.4438631668012
 10
-0.1305486325788085
 20
39.10494443563878
 10
-0.0648778196411825
 20
39.25004818202525
  0
ARC
  5
B3
330
80
100
AcDbEntity
  8
VER
100
AcDbCircle
 10
8.987033051562754
 20
35.00000000000001
 30
0.0
 40
10.00000000000002
100
AcDbArc
 50
207.4238255059942
 51
154.8458136312618
  0
ARC
  5
B4
330
80
100
AcDbEntity
  8
VER
100
AcDbCircle
 10
8.987033051452753
 20
34.99999999994795
 30
0.0
 40
9.999999999878323
100
AcDbArc
 50
205.1515866927326
 51
205.6281393178998
  0
LWPOLYLINE
  5
B5
330
80
100
AcDbEntity
  8
VER
100
AcDbPolyline
 90
       10
 70
     0
 43
0.0
 10
-0.0648981437321879
 20
30.74999510375536
 10
-0.1099675669972865
 20
30.8483917102347
 10
-0.266308776859898
 20
31.23644419385663
 10
-0.3970824256392196
 20
31.64722632310998
 10
-0.4993166979077696
 20
32.07670750949266
 10
-0.5742765014368802
 20
32.53475518981247
 10
-0.6222879537140122
 20
33.02864049927427
 10
-0.6439512235060953
 20
33.50480414011542
 10
-0.6486435687389784
 20
33.76860246727336
 10
-0.6499999999999985
 20
34.0551334442835
  0
LWPOLYLINE
  5
B6
330
80
100
AcDbEntity
  8
VER
100
AcDbPolyline
 90
        8
 70
     0
 43
0.0
 10
0.943450879048327
 20
40.75909937891569
 10
1.15578522724035
 20
40.9879720104683
 10
1.472734483157276
 20
41.29811101499575
 10
1.815489785496333
 20
41.59949565997735
 10
2.191322704877421
 20
41.897541726825
 10
2.59354442976813
 20
42.18598277448825
 10
3.024966993383845
 20
42.46636066815736
 10
3.482476975408407
 20
42.73616205920676
  0
LINE
  5
B7
330
80
100
AcDbEntity
  8
VER
100
AcDbLine
 10
-0.0648778196411825
 20
39.25004818202525
 30
0.0
 11
0.0343962104427907
 21
39.45116018471828
 31
0.0
  0
LWPOLYLINE
  5
B8
330
80
100
AcDbEntity
  8
VER
100
AcDbPolyline
 90
        5
 70
     0
 43
0.0
 10
3.482476975409481
 20
27.26383794079263
 10
3.927491162841017
 20
27.02874341966255
 10
4.378618427410195
 20
26.81847612461075
 10
4.835892396435838
 20
26.6308018382523
 10
5.297263779156617
 20
26.46451008081145
  0
LWPOLYLINE
  5
B9
330
80
100
AcDbEntity
  8
VER
100
AcDbPolyline
 90
        5
 70
     0
 43
0.0
 10
5.297263779156611
 20
43.53548991918854
 10
4.838465277347015
 20
43.37018724231562
 10
4.382845417951681
 20
43.18337132678392
 10
3.930204524890165
 20
42.97260211939195
 10
3.482476975408407
 20
42.73616205920676
  0
LINE
  5
BA
330
80
100
AcDbEntity
  8
VER
100
AcDbLine
 10
3.482476975408407
 20
42.73616205920676
 30
0.0
 11
3.482476975409481
 21
27.26383794079263
 31
0.0
  0
LINE
  5
BB
330
80
100
AcDbEntity
  8
VER
100
AcDbLine
 10
21.05410250487683
 20
32.58537899975106
 30
0.0
 11
21.05410250487683
 21
37.41462100024896
 31
0.0
  0
LINE
  5
BC
330
80
100
AcDbEntity
  8
VER
100
AcDbLine
 10
11.36124255697975
 20
43.49999256499161
 30
0.0
 11
11.36857803887364
 21
43.49997969741526
 31
0.0
  0
LINE
  5
BD
330
80
100
AcDbEntity
  8
VER
100
AcDbLine
 10
11.36857803887391
 20
26.50002030258474
 30
0.0
 11
11.36124255697998
 21
26.5000074350084
 31
0.0
  0
LWPOLYLINE
  5
BE
330
80
100
AcDbEntity
  8
VER
100
AcDbPolyline
 90
        5
 70
     0
 43
0.0
 10
6.811684978233569
 20
42.70069527174061
 10
7.691623340340033
 20
42.92732767051717
 10
8.573216864148316
 20
43.13932714135196
 10
9.459035727413536
 20
43.31739995422878
 10
10.35
 20
43.44312599670004
  0
ELLIPSE
  5
BF
330
80
100
AcDbEntity
  8
VER
100
AcDbEllipse
 10
10.19318063584458
 20
35.00000000000009
 30
0.0
 11
2.702211717593282E-13
 21
-8.500000000000085
 31
0.0
210
0.0
220
0.0
230
1.0
 40
0.9396926207859065
 41
5.846040586378266
 42
6.353406902552692
  0
LWPOLYLINE
  5
C0
330
80
100
AcDbEntity
  8
VER
100
AcDbPolyline
 90
        5
 70
     0
 43
0.0
 10
10.35
 20
26.55687400330005
 10
9.715884319626888
 20
26.6401103026428
 10
9.083116241337493
 20
26.75270532098623
 10
7.820442946814036
 20
27.04026537300344
 10
6.811684978233576
 20
27.2993047282594
  0
LINE
  5
C1
330
80
100
AcDbEntity
  8
VER
100
AcDbLine
 10
11.42855929790914
 20
43.49981563223708
 30
0.0
 11
11.36124255697975
 21
43.49999256499161
 31
0.0
  0
LWPOLYLINE
  5
C2
330
80
100
AcDbEntity
  8
VER
100
AcDbPolyline
 90
       13
 70
     0
 43
0.0
 10
18.4612276526856
 20
39.70100412980705
 10
18.1993056722039
 20
40.07325411272579
 10
17.75440307664573
 20
40.62167750085284
 10
17.26558763208863
 20
41.13135032424437
 10
16.72014749170025
 20
41.61152132309778
 10
16.13577158524102
 20
42.04346402279871
 10
15.5341324679469
 20
42.41406767468875
 10
14.9038601219634
 20
42.73355795319524
 10
14.2299023550721
 20
43.00646276250885
 10
13.53514675755125
 20
43.22096569418632
 10
13.00406255900733
 20
43.34231985275213
 10
12.46631210976206
 20
43.42950870740224
 10
12.35424848326168
 20
43.44325965636794
  0
LWPOLYLINE
  5
C3
330
80
100
AcDbEntity
  8
VER
100
AcDbPolyline
 90
       16
 70
     0
 43
0.0
 10
18.45831966723207
 20
30.29462134842307
 10
18.65641869510117
 20
30.60695642178903
 10
19.00547965199982
 20
31.24503717723033
 10
19.29879752392403
 20
31.91058578019028
 10
19.52803553556187
 20
32.57861784221591
 10
19.70109026314395
 20
33.26335779931127
 10
19.81905144586288
 20
33.98052468869364
 10
19.87538883288084
 20
34.70514128588785
 10
19.87050141163518
 20
35.41114162727688
 10
19.80710287346026
 20
36.11430662920596
 10
19.68102667116871
 20
36.829814443784
 10
19.49438338449377
 20
37.53196190564563
 10
19.25608730907333
 20
38.19652130995338
 10
18.9635317912921
 20
38.83904422534961
 10
18.60777256176847
 20
39.472467392454
 10
18.4612276526856
 20
39.70100412980705
  0
LWPOLYLINE
  5
C4
330
80
100
AcDbEntity
  8
VER
100
AcDbPolyline
 90
       13
 70
     0
 43
0.0
 10
11.36124255697998
 20
26.5000074350084
 10
12.15242461236047
 20
26.53576420335229
 10
12.94370519286776
 20
26.64611156494643
 10
13.63380564387512
 20
26.8056147605955
 10
14.30829239819937
 20
27.02182495675379
 10
14.98113769646928
 20
27.30218580266629
 10
15.62757480683093
 20
27.63899636230544
 10
16.22512177728145
 20
28.01773564213854
 10
16.78918807886744
 20
28.44474208472097
 10
17.33047603625612
 20
28.93164788899552
 10
17.82820508404065
 20
29.46300013076789
 10
18.26607329439045
 20
30.01777539144418
 10
18.45831966723207
 20
30.29462134842307
  0
ELLIPSE
  5
C5
330
80
100
AcDbEntity
  8
VER
100
AcDbEllipse
 10
10.19318063584559
 20
35.00000000001583
 30
0.0
 11
4.279014469067871E-12
 21
-8.499999999984169
 31
0.0
210
0.0
220
0.0
230
1.0
 40
0.9396926207859061
 41
3.071371058212625
 42
3.578737374391462
  0
ELLIPSE
  5
C6
330
80
100
AcDbEntity
  8
VER
100
AcDbEllipse
 10
10.19318063585411
 20
34.9999999999486
 30
0.0
 11
-4.833356648919742E-11
 21
-8.499999999948436
 31
0.0
210
0.0
220
0.0
230
1.0
 40
0.9396926207858567
 41
0.0725030725801883
 42
3.069089581021654
  0
LINE
  5
C7
330
80
100
AcDbEntity
  8
VER
100
AcDbLine
 10
11.36857803887335
 20
25.00001725719131
 30
0.0
 11
11.36124255698142
 21
25.00000631975637
 31
0.0
  0
LINE
  5
C8
330
80
100
AcDbEntity
  8
VER
100
AcDbLine
 10
11.36124255698219
 20
44.99999368024363
 30
0.0
 11
11.36857803887359
 21
44.99998274280868
 31
0.0
  0
ELLIPSE
  5
C9
330
80
100
AcDbEntity
  8
VER
100
AcDbEllipse
 10
11.38714476050839
 20
35.00000000000057
 30
0.0
 11
7.432216402691749E-12
 21
-10.00000000000057
 31
0.0
210
0.0
220
0.0
230
1.0
 40
0.9993908270190959
 41
6.02650696134663
 42
6.281327502222722
  0
ELLIPSE
  5
CA
330
80
100
AcDbEntity
  8
VER
100
AcDbEllipse
 10
11.38714476050826
 20
35.00000000000032
 30
0.0
 11
-6.502072165797912E-13
 21
-9.999999999999673
 31
0.0
210
0.0
220
0.0
230
1.0
 40
0.9993908270190955
 41
3.14345045854594
 42
3.39827099942208
  0
LWPOLYLINE
  5
CB
330
80
100
AcDbEntity
  8
VER
100
AcDbPolyline
 90
        5
 70
     0
 43
0.0
 10
18.007224603187
 20
27.51207125809459
 10
18.34400679896311
 20
27.82410969017397
 10
18.93278204940613
 20
28.44611735554484
 10
19.45130135276828
 20
29.09606458051477
 10
19.77629989873482
 20
29.56773361149888
  0
LWPOLYLINE
  5
CC
330
80
100
AcDbEntity
  8
VER
100
AcDbPolyline
 90
        8
 70
     0
 43
0.0
 10
13.68018392063267
 20
25.26925500899305
 10
13.98207309955456
 20
25.34572212054143
 10
14.77692620618323
 20
25.59593483003341
 10
15.57024501951435
 20
25.92163865630969
 10
16.3328385107975
 20
26.31392416909911
 10
17.03809649370143
 20
26.75579604018006
 10
17.70426556120707
 20
27.25465238592824
 10
18.007224603187
 20
27.51207125809459
  0
LINE
  5
CD
330
80
100
AcDbEntity
  8
VER
100
AcDbLine
 10
11.36124255698142
 20
25.00000631975637
 30
0.0
 11
11.55774517315268
 21
25.00171137314932
 31
0.0
  0
LINE
  5
CE
330
80
100
AcDbEntity
  8
VER
100
AcDbLine
 10
8.553165017293022
 20
25.39749824623023
 30
0.0
 11
8.85
 21
25.32237064527462
 31
0.0
  0
LWPOLYLINE
  5
CF
330
80
100
AcDbEntity
  8
VER
100
AcDbPolyline
 90
        3
 70
     0
 43
0.0
 10
7.820555386620948
 20
25.60733763430795
 10
7.955666793680087
 20
25.56630702651203
 10
8.553165017293022
 20
25.39749824623023
  0
LINE
  5
D0
330
80
100
AcDbEntity
  8
VER
100
AcDbLine
 10
7.531134462843906
 20
25.69825093856104
 30
0.0
 11
7.820555386620948
 21
25.60733763430795
 31
0.0
  0
LWPOLYLINE
  5
D1
330
80
100
AcDbEntity
  8
VER
100
AcDbPolyline
 90
        4
 70
     0
 43
0.0
 10
6.108865394421069
 20
26.18354152457704
 10
6.18231228050565
 20
26.15775360912365
 10
7.067378287561234
 20
25.85111561708653
 10
7.531134462843906
 20
25.69825093856104
  0
LINE
  5
D2
330
80
100
AcDbEntity
  8
VER
100
AcDbLine
 10
5.297263779156617
 20
26.46451008081145
 30
0.0
 11
6.108865394421069
 21
26.18354152457704
 31
0.0
  0
ELLIPSE
  5
D3
330
80
100
AcDbEntity
  8
VER
100
AcDbEllipse
 10
10.19318063584482
 20
34.99999999999983
 30
0.0
 11
-2.559790818935031E-12
 21
-9.999999999999801
 31
0.0
210
0.0
220
0.0
230
1.0
 40
0.9396926207859224
 41
5.735148456951932
 42
9.972814810997546
  0
LINE
  5
D4
330
80
100
AcDbEntity
  8
VER
100
AcDbLine
 10
6.110448045209655
 20
43.81701409056657
 30
0.0
 11
5.297263779156611
 21
43.53548991918854
 31
0.0
  0
LWPOLYLINE
  5
D5
330
80
100
AcDbEntity
  8
VER
100
AcDbPolyline
 90
        4
 70
     0
 43
0.0
 10
7.531133891464456
 20
44.30174887819877
 10
7.069076653198053
 20
44.14945756621934
 10
6.183159829450664
 20
43.84254398465215
 10
6.110448045209655
 20
43.81701409056657
  0
LINE
  5
D6
330
80
100
AcDbEntity
  8
VER
100
AcDbLine
 10
7.827759501136852
 20
44.39487396082681
 30
0.0
 11
7.531133891464456
 21
44.30174887819877
 31
0.0
  0
LWPOLYLINE
  5
D7
330
80
100
AcDbEntity
  8
VER
100
AcDbPolyline
 90
        3
 70
     0
 43
0.0
 10
8.56606449482728
 20
44.60589552198493
 10
7.957345214583141
 20
44.43419660693252
 10
7.827759501136852
 20
44.39487396082681
  0
LINE
  5
D8
330
80
100
AcDbEntity
  8
VER
100
AcDbLine
 10
8.85
 20
44.67762935472537
 30
0.0
 11
8.56606449482728
 21
44.60589552198493
 31
0.0
  0
LINE
  5
D9
330
80
100
AcDbEntity
  8
VER
100
AcDbLine
 10
11.45115126944376
 20
44.99969152187837
 30
0.0
 11
11.36124255698219
 21
44.99999368024363
 31
0.0
  0
LWPOLYLINE
  5
DA
330
80
100
AcDbEntity
  8
VER
100
AcDbPolyline
 90
        7
 70
     0
 43
0.0
 10
18.0022766771618
 20
42.49230224164929
 10
17.70400338266002
 20
42.74547537407925
 10
17.01915318654415
 20
43.25723863309458
 10
16.31366485988514
 20
43.69690760505578
 10
15.57417732786609
 20
44.07662003924325
 10
14.78300866510229
 20
44.40179473094918
 10
14.38160845814095
 20
44.53762926914565
  0
LWPOLYLINE
  5
DB
330
80
100
AcDbEntity
  8
VER
100
AcDbPolyline
 90
        5
 70
     0
 43
0.0
 10
19.67688599336388
 20
40.58281868603233
 10
19.43471586884808
 20
40.92662784727609
 10
18.9146826876023
 20
41.57457768148752
 10
18.34274564617181
 20
42.17720692447237
 10
18.0022766771618
 20
42.49230224164929
  0
LINE
  5
DC
330
80
100
AcDbEntity
  8
VER
100
AcDbLine
 10
19.81263204947994
 20
40.37573490639728
 30
0.0
 11
19.67688599336388
 21
40.58281868603233
 31
0.0
  0
LINE
  5
DD
330
80
100
AcDbEntity
  8
VER
100
AcDbLine
 10
8.85
 20
44.68245836551854
 30
0.0
 11
8.85
 21
25.31754163448145
 31
0.0
  0
LINE
  5
DE
330
80
100
AcDbEntity
  8
VER
100
AcDbLine
 10
3.960002592076194
 20
42.39529973538307
 30
0.0
 11
3.960002592091247
 21
27.60470026460751
 31
0.0
  0
LINE
  5
DF
330
80
100
AcDbEntity
  8
VER
100
AcDbLine
 10
10.35
 20
26.86321053745225
 30
0.0
 11
10.35
 21
26.55752572788564
 31
0.0
  0
LINE
  5
E0
330
80
100
AcDbEntity
  8
VER
100
AcDbLine
 10
10.35
 20
43.44247427211437
 30
0.0
 11
10.35
 21
43.13678946254775
 31
0.0
  0
LWPOLYLINE
  5
E1
330
80
100
AcDbEntity
  8
VER
100
AcDbPolyline
 90
        3
 70
     0
 43
0.0
 10
10.35
 20
43.44247427211437
 10
9.662332428028224
 20
43.33964373358859
 10
9.59333295604281
 20
43.32665969889072
  0
LWPOLYLINE
  5
E2
330
80
100
AcDbEntity
  8
VER
100
AcDbPolyline
 90
        3
 70
     0
 43
0.0
 10
9.592177529063932
 20
26.67356211046602
 10
9.640804409818218
 20
26.6643642436914
 10
10.35
 20
26.55752572788564
  0
ARC
  5
E3
330
80
100
AcDbEntity
  8
VER
100
AcDbCircle
 10
11.35000000000831
 20
35.0
 30
0.0
 40
8.50000000000098
100
AcDbArc
 50
263.2436729693566
 51
96.75632703064346
  0
LWPOLYLINE
  5
E4
330
80
100
AcDbEntity
  8
VER
100
AcDbPolyline
 90
        3
 70
     0
 43
0.0
 10
3.960002592076194
 20
42.39529973538307
 10
3.410171211348302
 20
42.0544846406391
 10
2.871542700552515
 20
41.73913629952544
  0
LWPOLYLINE
  5
E5
330
80
100
AcDbEntity
  8
VER
100
AcDbPolyline
 90
        3
 70
     0
 43
0.0
 10
2.871542700552521
 20
28.26086370047457
 10
3.22930704291265
 20
28.05445275773687
 10
3.960002592091247
 20
27.60470026460751
  0
LINE
  5
E6
330
80
100
AcDbEntity
  8
VER
100
AcDbLine
 10
4.825271233094971
 20
27.07816101891899
 30
0.0
 11
3.960002592091247
 21
27.60470026460751
 31
0.0
  0
LWPOLYLINE
  5
E7
330
80
100
AcDbEntity
  8
VER
100
AcDbPolyline
 90
        8
 70
     0
 43
0.0
 10
8.85
 20
25.31754163448145
 10
8.222397486572131
 20
25.49895770307992
 10
7.601296134810268
 20
25.71548540665166
 10
6.983226918639724
 20
25.96578897204056
 10
6.372458185229283
 20
26.24522356322818
 10
5.76053946874482
 20
26.5548316432103
 10
5.155559304340896
 20
26.88707301473999
 10
4.825271233094971
 20
27.07816101891899
  0
ARC
  5
E8
330
80
100
AcDbEntity
  8
VER
100
AcDbCircle
 10
11.35000000000018
 20
34.99999999999952
 30
0.0
 40
9.999999999999591
100
AcDbArc
 50
255.5224878140684
 51
328.3721905758409
  0
LWPOLYLINE
  5
E9
330
80
100
AcDbEntity
  8
VER
100
AcDbPolyline
 90
        8
 70
     0
 43
0.0
 10
4.823147161526188
 20
42.92059005535688
 10
5.133753725597322
 20
43.1005094180888
 10
5.73005863070225
 20
43.42902392473658
 10
6.333081339556019
 20
43.73571829314245
 10
6.949406931342865
 20
44.01955145810037
 10
7.573178323875229
 20
44.27386788538054
 10
8.208182392709523
 20
44.49649038492871
 10
8.85
 20
44.68245836551854
  0
LINE
  5
EA
330
80
100
AcDbEntity
  8
VER
100
AcDbLine
 10
3.960002592076194
 20
42.39529973538307
 30
0.0
 11
4.823147161526188
 21
42.92059005535688
 31
0.0
  0
ARC
  5
EB
330
80
100
AcDbEntity
  8
VER
100
AcDbCircle
 10
11.35000000000002
 20
35.00000000000005
 30
0.0
 40
9.99999999999996
100
AcDbArc
 50
31.62780942415955
 51
104.4775121859301
  0
LINE
  5
EC
330
80
100
AcDbEntity
  8
VER
100
AcDbLine
 10
11.37125889311056
 20
43.5
 30
0.0
 11
7.891818305704004
 21
43.5
 31
0.0
  0
LINE
  5
ED
330
80
100
AcDbEntity
  8
VER
100
AcDbLine
 10
7.891818305704004
 20
26.5
 30
0.0
 11
11.37125733580479
 21
26.5
 31
0.0
  0
ELLIPSE
  5
EE
330
80
100
AcDbEntity
  8
VER
100
AcDbEllipse
 10
9.6209091528514
 20
35.00000000000318
 30
0.0
 11
2.506959975282454E-12
 21
8.499999999996824
 31
0.0
210
0.0
220
0.0
230
1.0
 40
0.9135454576425998
 41
3.035084829264774
 42
6.389693131504242
  0
LWPOLYLINE
  5
EF
330
80
100
AcDbEntity
  8
VER
100
AcDbPolyline
 90
        3
 70
     0
 43
0.0
 10
2.329970368232111
 20
28.57418574379912
 10
2.749054946251985
 20
28.32950182214031
 10
2.871542700552521
 20
28.26086370047457
  0
LWPOLYLINE
  5
F0
330
80
100
AcDbEntity
  8
VER
100
AcDbPolyline
 90
       11
 70
     0
 43
0.0
 10
-1.658873718637684
 20
32.70085139426012
 10
-1.563919658281727
 20
32.4685988990726
 10
-1.332386138026241
 20
32.01692235388664
 10
-1.064364290145988
 20
31.59008735584644
 10
-0.7608580567494717
 20
31.17729477917632
 10
-0.3188128711569758
 20
30.66055686939431
 10
0.1832767908779379
 20
30.16002118512099
 10
0.7432596664957802
 20
29.67616778230767
 10
1.358984492837062
 20
29.20947671690559
 10
2.028300007042294
 20
28.76042804486605
 10
2.329970368232111
 20
28.57418574379912
  0
LWPOLYLINE
  5
F1
330
80
100
AcDbEntity
  8
VER
100
AcDbPolyline
 90
       18
 70
     0
 43
0.0
 10
-1.664183027114499
 20
37.28605872451605
 10
-1.790256762535176
 20
36.94709227734619
 10
-1.931235983723703
 20
36.43498382440227
 10
-1.987832054994762
 20
36.15556212969898
 10
-2.034292798096034
 20
35.84640874568816
 10
-2.055760249617529
 20
35.64959005041617
 10
-2.072295205057555
 20
35.43647773719259
 10
-2.080793700210545
 20
35.26358620416848
 10
-2.08518033569172
 20
35.08346272669713
 10
-2.08492708263593
 20
34.89939823378953
 10
-2.080131117060177
 20
34.71849083326742
 10
-2.068349355670555
 20
34.50406821180998
 10
-2.051319060174775
 20
34.30472996084715
 10
-2.014297067745686
 20
34.00604076248941
 10
-1.967856623883124
 20
33.73673632529361
 10
-1.913505947484392
 20
33.48967313398457
 10
-1.757960908803946
 20
32.95591611718002
 10
-1.658873718637684
 20
32.70085139426012
  0
LWPOLYLINE
  5
F2
330
80
100
AcDbEntity
  8
VER
100
AcDbPolyline
 90
       11
 70
     0
 43
0.0
 10
2.32671459565129
 20
41.4238505241077
 10
2.076612269819667
 20
41.26987007415769
 10
1.343683824587515
 20
40.77917786636961
 10
0.6759370481546482
 20
40.2685197229893
 10
0.0765516238196564
 20
39.73935569084485
 10
-0.3901096621327563
 20
39.26185724237377
 10
-0.8042296098866638
 20
38.7670912617271
 10
-1.164532664221289
 20
38.25278857651916
 10
-1.405749113315234
 20
37.84227202817898
 10
-1.614709142576108
 20
37.41161413686321
 10
-1.664183027114499
 20
37.28605872451605
  0
LINE
  5
F3
330
80
100
AcDbEntity
  8
VER
100
AcDbLine
 10
2.871542700552515
 20
41.73913629952544
 30
0.0
 11
2.32671459565129
 21
41.4238505241077
 31
0.0
  0
LINE
  5
F4
330
80
100
AcDbEntity
  8
VER
100
AcDbLine
 10
11.37125889310665
 20
45.0
 30
0.0
 11
7.891818305704004
 21
45.0
 31
0.0
  0
LINE
  5
F5
330
80
100
AcDbEntity
  8
VER
100
AcDbLine
 10
7.891818305704004
 20
25.0
 30
0.0
 11
11.37125733580088
 21
25.0
 31
0.0
  0
ELLIPSE
  5
F6
330
80
100
AcDbEntity
  8
VER
100
AcDbEllipse
 10
9.620909152852033
 20
34.99999999999996
 30
0.0
 11
-2.825347524068051E-14
 21
10.00000000000004
 31
0.0
210
0.0
220
0.0
230
1.0
 40
0.9135454576426014
 41
2.31028960904619
 42
7.114488351723177
  0
ARC
  5
F7
330
80
100
AcDbEntity
  8
VER
100
AcDbCircle
 10
7.891818305704005
 20
35.0
 30
0.0
 40
9.999999999999996
100
AcDbArc
 50
90.09080899477712
 51
269.9091910052229
  0
LWPOLYLINE
  5
F8
330
80
100
AcDbEntity
  8
VER
100
AcDbPolyline
 90
       39
 70
     0
 43
0.0
 10
7.875969152846538
 20
44.99998744020979
 10
8.647791020747361
 20
44.97133971493306
 10
9.415110085781796
 20
44.8832981414479
 10
10.19207171943128
 20
44.73179596321754
 10
10.95464242361085
 20
44.51940693650441
 10
11.73453430011556
 20
44.23213631820369
 10
12.48792885822497
 20
43.88120305977775
 10
13.22996993415509
 20
43.45593280356152
 10
13.93303558347368
 20
42.96892049168374
 10
14.57386763736921
 20
42.4396924600355
 10
15.168623817363
 20
41.85916186902521
 10
15.72806100487484
 20
41.21224296701268
 10
16.23028310142706
 20
40.51996420735563
 10
16.65980223221158
 20
39.80845765570741
 10
17.02886285626141
 20
39.06379341024237
 10
17.34262193035188
 20
38.26817581760239
 10
17.58737866838144
 20
37.44869541872364
 10
17.75716841065562
 20
36.63513745599868
 10
17.85893458240521
 20
35.81030434203329
 10
17.89165328857778
 20
34.95569741120833
 10
17.85136363198249
 20
34.10141394746829
 10
17.74229474377771
 20
33.27752468986932
 10
17.56530647251749
 20
32.46551253967996
 10
17.31331022740636
 20
31.64826127384002
 10
16.99253058180757
 20
30.85548120192733
 10
16.61690458012247
 20
30.11413499865222
 10
16.18111949725225
 20
29.40647823318825
 10
15.67282146277727
 20
28.71870614566489
 10
15.10771785206532
 20
28.0767931031333
 10
14.50787524887427
 20
27.50156030503977
 10
13.86241492007051
 20
26.97803165871896
 10
13.15511002522965
 20
26.49726967852205
 10
12.40937995998213
 20
26.07858549893595
 10
11.65293517637248
 20
25.73432100684374
 10
10.8705568947665
 20
25.4539476002889
 10
10.04397403661907
 20
25.23440281874046
 10
9.201678642776663
 20
25.08615786400833
 10
8.540254422448589
 20
25.02107005446687
 10
7.875969152846538
 20
25.0000125597902
  0
ARC
  5
F9
330
80
100
AcDbEntity
  8
VER
100
AcDbCircle
 10
7.860120000000006
 20
34.99999999999999
 30
0.0
 40
9.999999999999986
100
AcDbArc
 50
89.90919100528554
 51
270.0908089947145
  0
CIRCLE
  5
FA
330
80
100
AcDbEntity
  8
VER
100
AcDbCircle
 10
7.86012000000001
 20
35.0
 30
0.0
 40
10.49999999999999
  0
CIRCLE
  5
FB
330
80
100
AcDbEntity
  8
VER
100
AcDbCircle
 10
7.86012000000001
 20
35.0
 30
0.0
 40
11.38298245314677
  0
CIRCLE
  5
FC
330
80
100
AcDbEntity
  8
VER
100
AcDbCircle
 10
7.86012000000001
 20
35.0
 30
0.0
 40
11.59999999999999
  0
CIRCLE
  5
FD
330
80
100
AcDbEntity
  8
VER
100
AcDbCircle
 10
7.86012000000001
 20
35.0
 30
0.0
 40
12.61171051958027
  0
LINE
  5
FF
330
80
100
AcDbEntity
  8
GEW
100
AcDbLine
 10
13.00000000000002
 20
115.0585
 30
0.0
 11
19.50000000000001
 21
115.0585
 31
0.0
  0
LINE
  5
100
330
80
100
AcDbEntity
  8
GEW
100
AcDbLine
 10
12.99999999999999
 20
90.9415
 30
0.0
 11
19.5
 21
90.9415
 31
0.0
  0
ELLIPSE
  5
101
330
80
100
AcDbEntity
  8
VER
100
AcDbEllipse
 10
9.668516525781877
 20
34.9999999999993
 30
0.0
 11
-5.527613031626871E-12
 21
8.500000000000718
 31
0.0
210
0.0
220
0.0
230
1.0
 40
0.9659258262890772
 41
0.0
 42
6.283185307179586
  0
ELLIPSE
  5
102
330
80
100
AcDbEntity
  8
VER
100
AcDbEllipse
 10
9.668516525781362
 20
35.00000000000001
 30
0.0
 11
-5.045793573318359E-14
 21
10.00000000000001
 31
0.0
210
0.0
220
0.0
230
1.0
 40
0.9659258262890683
 41
0.0
 42
6.283185307179586
  0
LINE
  5
105
330
80
100
AcDbEntity
  8
MITTE
100
AcDbLine
 10
7.891818305704008
 20
26.075
 30
0.0
 11
7.891818305704008
 21
43.925
 31
0.0
  0
LINE
  5
106
330
80
100
AcDbEntity
  8
MITTE
100
AcDbLine
 10
-5.894879999999987
 20
35.0
 30
0.0
 11
21.61512000000001
 21
35.0
 31
0.0
  0
LINE
  5
107
330
80
100
AcDbEntity
  8
MITTE
100
AcDbLine
 10
7.86012000000001
 20
21.245
 30
0.0
 11
7.86012000000001
 21
48.755
 31
0.0
  0
LINE
  5
108
330
80
100
AcDbEntity
  8
MITTE
100
AcDbLine
 10
10.35000000000001
 20
24.49999999999999
 30
0.0
 11
10.35000000000001
 21
45.50000000000001
 31
0.0
  0
LINE
  5
109
330
80
100
AcDbEntity
  8
MITTE
100
AcDbLine
 10
8.987033051562719
 20
24.49999999999999
 30
0.0
 11
8.987033051562719
 21
45.50000000000001
 31
0.0
  0
LINE
  5
10A
330
80
100
AcDbEntity
  8
MITTE
100
AcDbLine
 10
11.35000000000011
 20
26.07499999999988
 30
0.0
 11
11.35000000000011
 21
43.92500000000492
 31
0.0
  0
LINE
  5
10C
330
80
100
AcDbEntity
  8
050
100
AcDbLine
 10
21.05410250487683
 20
32.46307876935562
 30
0.0
 11
21.05410250487683
 21
32.58537899975106
 31
0.0
  0
LINE
  5
10D
330
80
100
AcDbEntity
  8
050
100
AcDbLine
 10
21.05410250487683
 20
37.41462100024896
 30
0.0
 11
21.05410250487683
 21
37.53692123064438
 31
0.0
  0
LWPOLYLINE
  5
10E
330
80
100
AcDbEntity
  8
050
100
AcDbPolyline
 90
        5
 70
     0
 43
0.0
 10
20.01160521319572
 20
29.94968833426003
 10
20.32869277071152
 20
30.53526466625009
 10
20.67785495720742
 20
31.31640622382495
 10
20.88295681416411
 20
31.88301123055386
 10
21.05410250487683
 20
32.46307876935562
  0
LWPOLYLINE
  5
10F
330
80
100
AcDbEntity
  8
050
100
AcDbPolyline
 90
        3
 70
     0
 43
0.0
 10
19.77629989873482
 20
29.56773361149888
 10
19.91412890647459
 20
29.7867771800358
 10
20.01160521319572
 20
29.94968833426003
  0
LWPOLYLINE
  5
110
330
80
100
AcDbEntity
  8
050
100
AcDbPolyline
 90
        6
 70
     0
 43
0.0
 10
21.05410250487683
 20
37.53692123064438
 10
20.94269660898196
 20
37.92873359325537
 10
20.66644753462761
 20
38.71207683996665
 10
20.32622299533802
 20
39.46982858090573
 10
19.9115780030192
 20
40.2172653627031
 10
19.81263204947994
 20
40.37573490639728
  0
ELLIPSE
  5
111
330
80
100
AcDbEntity
  8
050
100
AcDbEllipse
 10
11.38714476050808
 20
35.0
 30
0.0
 11
-1.836970198721075E-15
 21
-10.00000000000025
 31
0.0
210
0.0
220
0.0
230
1.0
 40
0.9993908270190958
 41
1.314300975058638
 42
1.827291678531156
  0
LINE
  5
112
330
80
100
AcDbEntity
  8
050
100
AcDbLine
 10
10.35
 20
43.13678946254775
 30
0.0
 11
10.35
 21
26.86321053745225
 31
0.0
  0
LWPOLYLINE
  5
113
330
80
100
AcDbEntity
  8
050
100
AcDbPolyline
 90
        8
 70
     0
 43
0.0
 10
9.59333295604281
 20
43.32665969889072
 10
8.979593947183472
 20
43.1903913351636
 10
8.296654337738069
 20
42.99722383833007
 10
7.620567731154345
 20
42.76616963943253
 10
6.938780122482053
 20
42.49671482537624
 10
6.263991105180702
 20
42.19841979739298
 10
5.593428120096785
 20
41.87591926081849
 10
4.927716655626294
 20
41.53651425752309
  0
LWPOLYLINE
  5
114
330
80
100
AcDbEntity
  8
050
100
AcDbPolyline
 90
        8
 70
     0
 43
0.0
 10
4.927716655626294
 20
28.46348574246649
 10
5.577319276809266
 20
28.13209170018891
 10
6.231508674545089
 20
27.81664891219206
 10
6.893123578512589
 20
27.52252843047109
 10
7.561439696392942
 20
27.25580663419177
 10
8.245636518999333
 20
27.0188739740362
 10
8.936892816184738
 20
26.82043434134177
 10
9.592177529063932
 20
26.67356211046602
  0
ARC
  5
115
330
80
100
AcDbEntity
  8
050
100
AcDbCircle
 10
11.35000000000002
 20
35.00000000000001
 30
0.0
 40
9.999999999999977
100
AcDbArc
 50
328.3721905758391
 51
31.62780942415978
  0
ELLIPSE
  5
116
330
80
100
AcDbEntity
  8
050
100
AcDbEllipse
 10
9.620909152851969
 20
34.99999999999992
 30
0.0
 11
-6.742517421742128E-14
 21
8.499999999999915
 31
0.0
210
0.0
220
0.0
230
1.0
 40
0.9135454576426001
 41
2.395376647008449
 42
3.035084829264329
  0
ELLIPSE
  5
117
330
80
100
AcDbEntity
  8
050
100
AcDbEllipse
 10
9.62090915285205
 20
34.99999999999994
 30
0.0
 11
-1.013979987709525E-13
 21
8.500000000000064
 31
0.0
210
0.0
220
0.0
230
1.0
 40
0.9135454576426025
 41
0.1065078243243622
 42
0.7462160065813181
  0
LINE
  5
118
330
80
100
AcDbEntity
  8
050
100
AcDbLine
 10
4.927716655626294
 20
28.46348574246649
 30
0.0
 11
4.349428434214075
 21
28.75876500214466
 31
0.0
  0
LINE
  5
119
330
80
100
AcDbEntity
  8
050
100
AcDbLine
 10
4.927716655626294
 20
41.53651425752309
 30
0.0
 11
4.927716655626294
 21
28.46348574246649
 31
0.0
  0
LINE
  5
11A
330
80
100
AcDbEntity
  8
050
100
AcDbLine
 10
4.349428434214078
 20
41.24123499785536
 30
0.0
 11
4.927716655626294
 21
41.53651425752309
 31
0.0
  0
LWPOLYLINE
  5
11B
330
80
100
AcDbEntity
  8
050
100
AcDbPolyline
 90
       19
 70
     0
 43
0.0
 10
-0.5895656764507033
 20
34.98542710674835
 10
-0.5884157256689598
 20
35.1201735976809
 10
-0.5833741524690902
 20
35.28005306443754
 10
-0.57118130436961
 20
35.48015267977493
 10
-0.5538954036372721
 20
35.66547655081552
 10
-0.5151724647574485
 20
35.95272013801661
 10
-0.4666923897523353
 20
36.21055503310958
 10
-0.4099969520661609
 20
36.44664254421637
 10
-0.2487229958543218
 20
36.95384978068586
 10
-0.047526911113824
 20
37.41694441709924
 10
0.1925726574602238
 20
37.84589272799749
 10
0.4705570651727138
 20
38.2506609879216
 10
0.7854076673285375
 20
38.64121547141252
 10
1.295661110339459
 20
39.17825612219075
 10
1.881632099825286
 20
39.6935115600084
 10
2.539994589438738
 20
40.18561183088357
 10
3.267422532832533
 20
40.65318698083434
 10
4.060589883659389
 20
41.09486705587882
 10
4.349428434214078
 20
41.24123499785536
  0
LWPOLYLINE
  5
11C
330
80
100
AcDbEntity
  8
050
100
AcDbPolyline
 90
       21
 70
     0
 43
0.0
 10
4.349428434214075
 20
28.75876500214466
 10
3.67262688457508
 20
29.11346251124738
 10
3.03964825764081
 20
29.486218756887
 10
2.452592593107852
 20
29.8758112449948
 10
1.913559930672794
 20
30.28101748150202
 10
1.424650310032223
 20
30.70061497233992
 10
0.9995988954508123
 20
31.1205445859212
 10
0.6211292295885823
 20
31.55668630158494
 10
0.2903338783679434
 20
32.01082869455065
 10
0.067810442125461
 20
32.37377252266066
 10
-0.1262034214465085
 20
32.75438737972549
 10
-0.2907782433575536
 20
33.16335953004209
 10
-0.4249845546172628
 20
33.61137523790736
 10
-0.4752330766663928
 20
33.83107915993074
 10
-0.5184580202624232
 20
34.06921121908133
 10
-0.5433005909581826
 20
34.24423502090014
 10
-0.5639503022975851
 20
34.43417905263778
 10
-0.5792789813136876
 20
34.63969228026887
 10
-0.5862545216445879
 20
34.79542656690372
 10
-0.5894349391507532
 20
34.95674954538186
 10
-0.5895656764507033
 20
34.98542710674835
  0
CIRCLE
  5
11D
330
80
100
AcDbEntity
  8
050
100
AcDbCircle
 10
7.891818305704008
 20
35.0
 30
0.0
 40
8.5
  0
CIRCLE
  5
11E
330
80
100
AcDbEntity
  8
050
100
AcDbCircle
 10
7.86012000000001
 20
35.0
 30
0.0
 40
9.271271933566487
  0
CIRCLE
  5
11F
330
80
100
AcDbEntity
  8
050
100
AcDbCircle
 10
7.86012000000001
 20
35.0
 30
0.0
 40
9.399999999999983
  0
CIRCLE
  5
120
330
80
100
AcDbEntity
  8
050
100
AcDbCircle
 10
7.86012000000001
 20
35.0
 30
0.0
 40
13.1
  0
CIRCLE
  5
121
330
80
100
AcDbEntity
  8
050
100
AcDbCircle
 10
7.86012000000001
 20
35.0
 30
0.0
 40
10.39999999999998
  0
CIRCLE
  5
122
330
80
100
AcDbEntity
  8
050
100
AcDbCircle
 10
7.86012000000001
 20
35.0
 30
0.0
 40
9.799999999999967
  0
CIRCLE
  5
123
330
80
100
AcDbEntity
  8
050
100
AcDbCircle
 10
7.860120000000004
 20
35.00000000000002
 30
0.0
 40
8.999999999999972
  0
ENDBLK
  5
83
330
80
100
AcDbEntity
  8
0
100
AcDbBlockEnd
  0
BLOCK
  5
126
330
124
100
AcDbEntity
  8
0
100
AcDbBlockBegin
  2
2_24046_1_0_in_24046_3
 70
     2
 10
0.0
 20
0.0
 30
0.0
  3
2_24046_1_0_in_24046_3
  1

  0
ATTDEF
  5
128
330
124
100
AcDbEntity
  8
AM_6
100
AcDbText
 10
26.61512
 20
117.0
 30
0.0
 40
0.5
  1
Geberit Mapress Carbon Steel set of connector T-pieces for inlet and return flow, with union connector for Euro cone - part1
100
AcDbAttributeDefinition
  3

  2
NN
 70
     8
280
     0
  0
ATTDEF
  5
129
330
124
100
AcDbEntity
  8
AM_6
100
AcDbText
 10
26.61512
 20
116.5
 30
0.0
 40
0.5
  1

100
AcDbAttributeDefinition
  3

  2
NT
 70
     8
280
     0
  0
ATTDEF
  5
12A
330
124
100
AcDbEntity
  8
AM_6
100
AcDbText
 10
26.61512
 20
116.0
 30
0.0
 40
0.5
  1
24046_1
100
AcDbAttributeDefinition
  3

  2
NB
 70
     8
280
     0
  0
ATTDEF
  5
12B
330
124
100
AcDbEntity
  8
AM_6
100
AcDbText
 10
26.61512
 20
115.5
 30
0.0
 40
0.5
  1
$ARTNRT._1
100
AcDbAttributeDefinition
  3

  2
NBSYN
 70
     8
280
     0
  0
ATTDEF
  5
12C
330
124
100
AcDbEntity
  8
AM_6
100
AcDbText
 10
26.61512
 20
115.0
 30
0.0
 40
0.5
  1
24046
100
AcDbAttributeDefinition
  3

  2
LINA
 70
     8
280
     0
  0
ATTDEF
  5
12D
330
124
100
AcDbEntity
  8
AM_6
100
AcDbText
 10
26.61512
 20
114.5
 30
0.0
 40
0.5
  1
GEBERIT
100
AcDbAttributeDefinition
  3

  2
CATALOG
 70
     8
280
     0
  0
ATTDEF
  5
12E
330
124
100
AcDbEntity
  8
AM_6
100
AcDbText
 10
26.61512
 20
114.0
 30
0.0
 40
0.5
  1
24046
100
AcDbAttributeDefinition
  3

  2
ARTNRT
 70
     8
280
     0
  0
ATTDEF
  5
12F
330
124
100
AcDbEntity
  8
AM_6
100
AcDbText
 10
26.61512
 20
113.5
 30
0.0
 40
0.5
  1
5
100
AcDbAttributeDefinition
  3

  2
AD
 70
     8
280
     0
  0
ATTDEF
  5
130
330
124
100
AcDbEntity
  8
AM_6
100
AcDbText
 10
26.61512
 20
113.0
 30
0.0
 40
0.5
  1
18.0
100
AcDbAttributeDefinition
  3

  2
D
 70
     8
280
     0
  0
ATTDEF
  5
131
330
124
100
AcDbEntity
  8
AM_6
100
AcDbText
 10
26.61512
 20
112.5
 30
0.0
 40
0.5
  1
15.0
100
AcDbAttributeDefinition
  3

  2
D1
 70
     8
280
     0
  0
ATTDEF
  5
132
330
124
100
AcDbEntity
  8
AM_6
100
AcDbText
 10
26.61512
 20
112.0
 30
0.0
 40
0.5
  1
15 / 12
100
AcDbAttributeDefinition
  3

  2
DN
 70
     8
280
     0
  0
ATTDEF
  5
133
330
124
100
AcDbEntity
  8
AM_6
100
AcDbText
 10
26.61512
 20
111.5
 30
0.0
 40
0.5
  1
2.9
100
AcDbAttributeDefinition
  3

  2
L
 70
     8
280
     0
  0
ATTDEF
  5
134
330
124
100
AcDbEntity
  8
AM_6
100
AcDbText
 10
26.61512
 20
111.0
 30
0.0
 40
0.5
  1
12.7
100
AcDbAttributeDefinition
  3

  2
L1
 70
     8
280
     0
  0
ATTDEF
  5
135
330
124
100
AcDbEntity
  8
AM_6
100
AcDbText
 10
26.61512
 20
110.5
 30
0.0
 40
0.5
  1
6.8
100
AcDbAttributeDefinition
  3

  2
LL1
 70
     8
280
     0
  0
ATTDEF
  5
136
330
124
100
AcDbEntity
  8
AM_6
100
AcDbText
 10
26.61512
 20
110.0
 30
0.0
 40
0.5
  1
10.0
100
AcDbAttributeDefinition
  3

  2
Z
 70
     8
280
     0
  0
ATTDEF
  5
137
330
124
100
AcDbEntity
  8
AM_6
100
AcDbText
 10
26.61512
 20
109.5
 30
0.0
 40
0.5
  1
1.7
100
AcDbAttributeDefinition
  3

  2
Z1
 70
     8
280
     0
  0
ATTDEF
  5
138
330
124
100
AcDbEntity
  8
AM_6
100
AcDbText
 10
26.61512
 20
109.0
 30
0.0
 40
0.5
  1
2.150
100
AcDbAttributeDefinition
  3

  2
L1X
 70
     8
280
     0
  0
ATTDEF
  5
139
330
124
100
AcDbEntity
  8
AM_6
100
AcDbText
 10
26.61512
 20
108.5
 30
0.0
 40
0.5
  1
2.7
100
AcDbAttributeDefinition
  3

  2
R
 70
     8
280
     0
  0
ATTDEF
  5
13A
330
124
100
AcDbEntity
  8
AM_6
100
AcDbText
 10
26.61512
 20
108.0
 30
0.0
 40
0.5
  1
20.0
100
AcDbAttributeDefinition
  3

  2
DX
 70
     8
280
     0
  0
ATTDEF
  5
13B
330
124
100
AcDbEntity
  8
AM_6
100
AcDbText
 10
26.61512
 20
107.5
 30
0.0
 40
0.5
  1
2.25
100
AcDbAttributeDefinition
  3

  2
DXX
 70
     8
280
     0
  0
ATTDEF
  5
13C
330
124
100
AcDbEntity
  8
AM_6
100
AcDbText
 10
26.61512
 20
107.0
 30
0.0
 40
0.5
  1
3.002
100
AcDbAttributeDefinition
  3

  2
LX
 70
     8
280
     0
  0
ATTDEF
  5
13D
330
124
100
AcDbEntity
  8
AM_6
100
AcDbText
 10
26.61512
 20
106.5
 30
0.0
 40
0.5
  1
24.0
100
AcDbAttributeDefinition
  3

  2
ANGLE
 70
     8
280
     0
  0
ATTDEF
  5
13E
330
124
100
AcDbEntity
  8
AM_6
100
AcDbText
 10
26.61512
 20
106.0
 30
0.0
 40
0.5
  1
1
100
AcDbAttributeDefinition
  3

  2
V
 70
     8
280
     0
  0
ATTDEF
  5
13F
330
124
100
AcDbEntity
  8
AM_6
100
AcDbText
 10
26.61512
 20
105.5
 30
0.0
 40
0.5
  1
geberit
100
AcDbAttributeDefinition
  3

  2
COMPANY
 70
     8
280
     0
  0
LINE
  5
140
330
124
100
AcDbEntity
  8
VER
100
AcDbLine
 10
-4.000000000000003
 20
96.5
 30
0.0
 11
-4.000000000000003
 21
109.5
 31
0.0
  0
LINE
  5
141
330
124
100
AcDbEntity
  8
VER
100
AcDbLine
 10
9.999999999999996
 20
109.5
 30
0.0
 11
-4.000000000000003
 21
109.5
 31
0.0
  0
LINE
  5
142
330
124
100
AcDbEntity
  8
VER
100
AcDbLine
 10
-4.000000000000003
 20
96.5
 30
0.0
 11
9.999999999999996
 21
96.5
 31
0.0
  0
LINE
  5
143
330
124
100
AcDbEntity
  8
VER
100
AcDbLine
 10
9.999999999999996
 20
96.5
 30
0.0
 11
9.999999999999996
 21
109.5
 31
0.0
  0
LINE
  5
144
330
124
100
AcDbEntity
  8
VER
100
AcDbLine
 10
9.999999999999996
 20
96.5
 30
0.0
 11
10.5
 21
96.0
 31
0.0
  0
LINE
  5
145
330
124
100
AcDbEntity
  8
VER
100
AcDbLine
 10
10.5
 20
110.0
 30
0.0
 11
9.999999999999996
 21
109.5
 31
0.0
  0
LINE
  5
146
330
124
100
AcDbEntity
  8
VER
100
AcDbLine
 10
2.724277892421874
 20
3.754778600396337
 30
0.0
 11
2.724277892421874
 21
-3.754778600396337
 31
0.0
  0
LINE
  5
147
330
124
100
AcDbEntity
  8
VER
100
AcDbLine
 10
7.531695488854624
 20
-13.09588245749323
 30
0.0
 11
7.531695488854624
 21
-9.593435900250576
 31
0.0
  0
LINE
  5
148
330
124
100
AcDbEntity
  8
VER
100
AcDbLine
 10
7.531695488854624
 20
21.90411754250677
 30
0.0
 11
7.531695488854624
 21
48.09588245749324
 31
0.0
  0
LINE
  5
149
330
124
100
AcDbEntity
  8
VER
100
AcDbLine
 10
7.531695488854624
 20
9.593435900250565
 30
0.0
 11
7.531695488854624
 21
13.09588245749323
 31
0.0
  0
LINE
  5
14A
330
124
100
AcDbEntity
  8
VER
100
AcDbLine
 10
16.5
 20
112.0
 30
0.0
 11
10.5
 21
112.0
 31
0.0
  0
LINE
  5
14B
330
124
100
AcDbEntity
  8
VER
100
AcDbLine
 10
10.5
 20
94.0
 30
0.0
 11
16.5
 21
94.0
 31
0.0
  0
LINE
  5
14C
330
124
100
AcDbEntity
  8
VER
100
AcDbLine
 10
16.5
 20
94.0
 30
0.0
 11
16.5
 21
112.0
 31
0.0
  0
LINE
  5
14D
330
124
100
AcDbEntity
  8
VER
100
AcDbLine
 10
16.5
 20
94.0
 30
0.0
 11
19.5
 21
92.26794919243115
 31
0.0
  0
LINE
  5
14E
330
124
100
AcDbEntity
  8
VER
100
AcDbLine
 10
19.5
 20
113.7320508075689
 30
0.0
 11
16.5
 21
112.0
 31
0.0
  0
LWPOLYLINE
  5
14F
330
124
100
AcDbEntity
  8
VER
100
AcDbPolyline
 90
       13
 70
     0
 43
0.0
 10
2.724277892421874
 20
-3.754778600396337
 10
2.45668718357833
 20
-3.154641801865143
 10
2.233420160433252
 20
-2.527995936102315
 10
2.056006086547503
 20
-1.86934881774788
 10
1.931244575449777
 20
-1.192469313089452
 10
1.863414580069086
 20
-0.5317308512583669
 10
1.84777186466701
 20
0.1369506638517516
 10
1.886420517925636
 20
0.8186118054858484
 10
1.980751952284258
 20
1.499309387822948
 10
2.10544510391304
 20
2.075460504918265
 10
2.270505847097411
 20
2.643615697216266
 10
2.477775041744469
 20
3.206761640516843
 10
2.724277892421874
 20
3.754778600396337
  0
ARC
  5
150
330
124
100
AcDbEntity
  8
VER
100
AcDbCircle
 10
10.34999999999899
 20
0.0000000000000007
 30
0.0
 40
8.499999999999096
100
AcDbArc
 50
206.2148671307464
 51
153.7851328692535
  0
LWPOLYLINE
  5
151
330
124
100
AcDbEntity
  8
VER
100
AcDbPolyline
 90
       19
 70
     0
 43
0.0
 10
2.724277892421874
 20
-6.469031020021027
 10
2.275207199582242
 20
-5.900201332097049
 10
1.863404397336566
 20
-5.294578926617673
 10
1.484023237339707
 20
-4.636256982632054
 10
1.154602855785564
 20
-3.948601562758836
 10
0.8864040259130228
 20
-3.259138800691209
 10
0.6700527811495748
 20
-2.551089031112092
 10
0.5038452299195263
 20
-1.811165591326436
 10
0.3944039245100344
 20
-1.060654396270972
 10
0.3409978274425909
 20
-0.2502624026962386
 10
0.3536481633853353
 20
0.5617936528054639
 10
0.435655485175613
 20
1.392637216237933
 10
0.5868696552130396
 20
2.213650910489657
 10
0.8038773207679863
 20
3.010520313470814
 10
1.086024456817126
 20
3.786141503724142
 10
1.443155679021175
 20
4.557761791111548
 10
1.862821264082891
 20
5.293650313626102
 10
2.273081989900621
 20
5.897469284037212
 10
2.724277892421877
 20
6.469031020021027
  0
ARC
  5
152
330
124
100
AcDbEntity
  8
VER
100
AcDbCircle
 10
10.35000000000002
 20
0.0
 30
0.0
 40
10.00000000000002
100
AcDbArc
 50
220.3085139364065
 51
139.6914860635935
  0
LINE
  5
153
330
124
100
AcDbEntity
  8
VER
100
AcDbLine
 10
4.606797250358208
 20
6.867002429797042
 30
0.0
 11
4.606797250358208
 21
-6.867002429797028
 31
0.0
  0
LINE
  5
154
330
124
100
AcDbEntity
  8
VER
100
AcDbLine
 10
0.8499999999999981
 20
0.6889715476290637
 30
0.0
 11
0.8499999999999981
 21
-0.6889715476291538
 31
0.0
  0
LINE
  5
155
330
124
100
AcDbEntity
  8
VER
100
AcDbLine
 10
-0.6499999999977806
 20
0.9448665557400954
 30
0.0
 11
-0.6500000000000559
 21
-0.9448665557163609
 31
0.0
  0
LWPOLYLINE
  5
156
330
124
100
AcDbEntity
  8
VER
100
AcDbPolyline
 90
        5
 70
     0
 43
0.0
 10
4.606797250358208
 20
6.867002429797042
 10
5.145856023183952
 20
7.128096002380715
 10
5.693660080579163
 20
7.351319700904281
 10
6.250186280260276
 20
7.541225664602809
 10
6.811684978233567
 20
7.70069527174061
  0
LWPOLYLINE
  5
157
330
124
100
AcDbEntity
  8
VER
100
AcDbPolyline
 90
        4
 70
     0
 43
0.0
 10
5.786229810286399
 20
-7.385325459136046
 10
5.701288038967178
 20
-7.354160275974429
 10
5.150828619517316
 20
-7.13030246698777
 10
4.606797250358208
 20
-6.867002429797028
  0
LWPOLYLINE
  5
158
330
124
100
AcDbEntity
  8
VER
100
AcDbPolyline
 90
        3
 70
     0
 43
0.0
 10
6.811684978233574
 20
-7.700695271740603
 10
6.25476473032924
 20
-7.542649644533706
 10
5.786229810286399
 20
-7.385325459136046
  0
LWPOLYLINE
  5
159
330
124
100
AcDbEntity
  8
VER
100
AcDbPolyline
 90
       12
 70
     0
 43
0.0
 10
4.60679725035821
 20
6.867002429797036
 10
4.197984469296122
 20
6.64009740555593
 10
3.81220545612152
 20
6.40268556747951
 10
3.447236212939535
 20
6.153444426298907
 10
3.106182087137068
 20
5.894488933411754
 10
2.782688053212725
 20
5.620295765276902
 10
2.484505401155285
 20
5.336617993357402
 10
2.209987324934068
 20
5.041615316185473
 10
1.961282405521759
 20
4.737205097212225
 10
1.743412041199456
 20
4.430853023987446
 10
1.550096141849603
 20
4.115061449670384
 10
1.496102369697542
 20
4.016958738827615
  0
LWPOLYLINE
  5
15A
330
124
100
AcDbEntity
  8
VER
100
AcDbPolyline
 90
        3
 70
     0
 43
0.0
 10
0.8499999999999981
 20
-0.6889715476291538
 10
0.8216991915889129
 20
-0.0023289100792995
 10
0.8499999999999981
 20
0.6889715476290637
  0
LWPOLYLINE
  5
15B
330
124
100
AcDbEntity
  8
VER
100
AcDbPolyline
 90
       10
 70
     0
 43
0.0
 10
0.8499999999999979
 20
-0.6889715476232211
 10
0.8512870792883018
 20
-0.9936000982730884
 10
0.8560114782776238
 20
-1.272361160522071
 10
0.8658300716006118
 20
-1.540877228842958
 10
0.8813233928545602
 20
-1.792147764654427
 10
0.9294972262222264
 20
-2.245008263904627
 10
1.00293679959654
 20
-2.663848919100563
 10
1.102757062667677
 20
-3.057980645640609
 10
1.309563425165561
 20
-3.630767720371214
 10
1.4961716621891
 20
-4.017087949875243
  0
ARC
  5
15C
330
124
100
AcDbEntity
  8
VER
100
AcDbCircle
 10
8.987033051564438
 20
0.0000000000000027
 30
0.0
 40
8.500000000001506
100
AcDbArc
 50
208.2069947414826
 51
151.7961114928119
  0
LWPOLYLINE
  5
15D
330
124
100
AcDbEntity
  8
VER
100
AcDbPolyline
 90
       11
 70
     0
 43
0.0
 10
1.496102369697542
 20
4.016958738827615
 10
1.380288923990428
 20
3.787224364314848
 10
1.235063641946162
 20
3.448140316924225
 10
1.112004572951357
 20
3.089040001158974
 10
1.013854963984294
 20
2.71362945767557
 10
0.9395105298601675
 20
2.314000231863234
 10
0.8888937096698193
 20
1.884844986108948
 10
0.8702162733596999
 20
1.624397747644585
 10
0.8580860821585866
 20
1.345267164548063
 10
0.8517070619854864
 20
1.03614846552837
 10
0.8499999999999974
 20
0.6889715476231413
  0
LWPOLYLINE
  5
15E
330
124
100
AcDbEntity
  8
VER
100
AcDbPolyline
 90
        9
 70
     0
 43
0.0
 10
1.4961716621891
 20
-4.017087949875243
 10
1.582082579960238
 20
-4.170899626943916
 10
1.862542350390793
 20
-4.603756375992408
 10
2.190416331917546
 20
-5.019096043107699
 10
2.565246197805471
 20
-5.416805051650809
 10
3.000444458176449
 20
-5.808193415129451
 10
3.485569710294641
 20
-6.180855545702989
 10
4.019217701685885
 20
-6.533125811787291
 10
4.606797250358206
 20
-6.867002429797036
  0
LINE
  5
15F
330
124
100
AcDbEntity
  8
VER
100
AcDbLine
 10
-0.0471008626324684
 20
-4.287554014054267
 30
0.0
 11
-0.0648981437321893
 21
-4.250004896244639
 31
0.0
  0
LWPOLYLINE
  5
160
330
124
100
AcDbEntity
  8
VER
100
AcDbPolyline
 90
        8
 70
     0
 43
0.0
 10
3.48247697540942
 20
-7.736162059207334
 10
3.023397238267668
 20
-7.465388763028369
 10
2.59059080312401
 20
-7.183965809189161
 10
2.181609544457622
 20
-6.890210122521209
 10
1.799975266163694
 20
-6.586511339697308
 10
1.438607760961238
 20
-6.266299755871674
 10
1.106261898197835
 20
-5.936263971115157
 10
1.026862997129139
 20
-5.851292714142808
  0
LWPOLYLINE
  5
161
330
124
100
AcDbEntity
  8
VER
100
AcDbPolyline
 90
        4
 70
     0
 43
0.0
 10
-0.6500000000000559
 20
-0.9448665557163609
 10
-0.6952055711932486
 20
-0.0159161448125347
 10
-0.6522140639714264
 20
0.9214950460590433
 10
-0.6499999999977806
 20
0.9448665557400954
  0
LWPOLYLINE
  5
162
330
124
100
AcDbEntity
  8
VER
100
AcDbPolyline
 90
       10
 70
     0
 43
0.0
 10
-0.6500000000000004
 20
0.9448665557331808
 10
-0.6488842579020239
 20
1.205822178011039
 10
-0.6450697425519374
 20
1.449409129413187
 10
-0.6265081220321264
 20
1.905964885636231
 10
-0.589865151480501
 20
2.335754342432585
 10
-0.5335009453836806
 20
2.73848091195604
 10
-0.4616285148231116
 20
3.098410787696976
 10
-0.3709889350279865
 20
3.443863166801168
 10
-0.1305486325788238
 20
4.104944435638746
 10
-0.064877819641189
 20
4.250048182025242
  0
ARC
  5
163
330
124
100
AcDbEntity
  8
VER
100
AcDbCircle
 10
8.987033051562756
 20
0.0
 30
0.0
 40
10.00000000000002
100
AcDbArc
 50
207.4238255059932
 51
154.8458136312618
  0
ARC
  5
164
330
124
100
AcDbEntity
  8
VER
100
AcDbCircle
 10
8.98703305157277
 20
0.0000000000047935
 30
0.0
 40
10.00000000001113
100
AcDbArc
 50
205.1515866927352
 51
205.6281393178957
  0
LWPOLYLINE
  5
165
330
124
100
AcDbEntity
  8
VER
100
AcDbPolyline
 90
       10
 70
     0
 43
0.0
 10
-0.0648981437321893
 20
-4.250004896244639
 10
-0.10996756699729
 20
-4.151608289765299
 10
-0.2663087768599027
 20
-3.763555806143373
 10
-0.3970824256392241
 20
-3.352773676890016
 10
-0.4993166979077738
 20
-2.923292490507341
 10
-0.5742765014368846
 20
-2.465244810187533
 10
-0.6222879537140167
 20
-1.971359500725727
 10
-0.6439512235060982
 20
-1.495195859884588
 10
-0.6486435687389811
 20
-1.23139753272665
 10
-0.65
 20
-0.9448665557165379
  0
LWPOLYLINE
  5
166
330
124
100
AcDbEntity
  8
VER
100
AcDbPolyline
 90
        8
 70
     0
 43
0.0
 10
0.9434508790483551
 20
5.759099378915711
 10
1.155785227240314
 20
5.987972010468266
 10
1.472734483157242
 20
6.298111014995722
 10
1.815489785496304
 20
6.599495659977333
 10
2.191322704877397
 20
6.897541726824989
 10
2.593544429768111
 20
7.185982774488242
 10
3.024966993383833
 20
7.466360668157347
 10
3.482476975408405
 20
7.736162059206762
  0
LINE
  5
167
330
124
100
AcDbEntity
  8
VER
100
AcDbLine
 10
-0.064877819641189
 20
4.250048182025242
 30
0.0
 11
0.0343962104427877
 21
4.451160184718281
 31
0.0
  0
LWPOLYLINE
  5
168
330
124
100
AcDbEntity
  8
VER
100
AcDbPolyline
 90
        5
 70
     0
 43
0.0
 10
3.48247697540942
 20
-7.736162059207328
 10
3.927491162840966
 20
-7.971256580337424
 10
4.378618427410162
 20
-8.18152387538924
 10
4.835892396435818
 20
-8.369198161747697
 10
5.297263779156615
 20
-8.53548991918855
  0
LWPOLYLINE
  5
169
330
124
100
AcDbEntity
  8
VER
100
AcDbPolyline
 90
        5
 70
     0
 43
0.0
 10
5.29726377915661
 20
8.535489919188546
 10
4.838465277347012
 20
8.370187242315613
 10
4.382845417951678
 20
8.183371326783922
 10
3.930204524890162
 20
7.972602119391957
 10
3.482476975408404
 20
7.736162059206762
  0
LINE
  5
16A
330
124
100
AcDbEntity
  8
VER
100
AcDbLine
 10
3.482476975408404
 20
7.736162059206762
 30
0.0
 11
3.48247697540942
 21
-7.736162059207328
 31
0.0
  0
LINE
  5
16B
330
124
100
AcDbEntity
  8
VER
100
AcDbLine
 10
21.05410250487683
 20
-2.414621000248939
 30
0.0
 11
21.05410250487683
 21
2.414621000248956
 31
0.0
  0
LINE
  5
16C
330
124
100
AcDbEntity
  8
VER
100
AcDbLine
 10
11.36124255697974
 20
8.499992564991606
 30
0.0
 11
11.36857803887364
 21
8.499979697415263
 31
0.0
  0
LINE
  5
16D
330
124
100
AcDbEntity
  8
VER
100
AcDbLine
 10
11.3685780388739
 20
-8.499979697415261
 30
0.0
 11
11.36124255697997
 21
-8.499992564991603
 31
0.0
  0
LWPOLYLINE
  5
16E
330
124
100
AcDbEntity
  8
VER
100
AcDbPolyline
 90
        5
 70
     0
 43
0.0
 10
6.811684978233567
 20
7.70069527174061
 10
7.691623340340031
 20
7.927327670517174
 10
8.573216864148312
 20
8.139327141351966
 10
9.459035727413532
 20
8.317399954228783
 10
10.35
 20
8.443125996700038
  0
ELLIPSE
  5
16F
330
124
100
AcDbEntity
  8
VER
100
AcDbEllipse
 10
10.19318063584456
 20
-0.0000000000000835
 30
0.0
 11
5.128519130324407E-14
 21
-8.499999999999917
 31
0.0
210
0.0
220
0.0
230
1.0
 40
0.9396926207859074
 41
5.846040586378288
 42
6.353406902550788
  0
LWPOLYLINE
  5
170
330
124
100
AcDbEntity
  8
VER
100
AcDbPolyline
 90
        5
 70
     0
 43
0.0
 10
10.35
 20
-8.443125996699948
 10
9.715884319626886
 20
-8.359889697357202
 10
9.083116241337489
 20
-8.247294679013772
 10
7.820442946814032
 20
-7.959734626996559
 10
6.811684978233574
 20
-7.700695271740603
  0
LINE
  5
171
330
124
100
AcDbEntity
  8
VER
100
AcDbLine
 10
11.42855929790915
 20
8.499815632237082
 30
0.0
 11
11.36124255697974
 21
8.499992564991606
 31
0.0
  0
LWPOLYLINE
  5
172
330
124
100
AcDbEntity
  8
VER
100
AcDbPolyline
 90
       13
 70
     0
 43
0.0
 10
18.46122765268559
 20
4.701004129807066
 10
18.19930567220389
 20
5.073254112725794
 10
17.75440307664573
 20
5.621677500852844
 10
17.26558763208862
 20
6.131350324244361
 10
16.72014749170024
 20
6.611521323097783
 10
16.13577158524101
 20
7.04346402279871
 10
15.5341324679469
 20
7.414067674688746
 10
14.9038601219634
 20
7.733557953195233
 10
14.22990235507209
 20
8.006462762508846
 10
13.53514675755125
 20
8.220965694186324
 10
13.00406255900732
 20
8.34231985275214
 10
12.46631210976206
 20
8.429508707402244
 10
12.3542484832616
 20
8.443259656367955
  0
LWPOLYLINE
  5
173
330
124
100
AcDbEntity
  8
VER
100
AcDbPolyline
 90
       16
 70
     0
 43
0.0
 10
18.45831966723207
 20
-4.705378651576924
 10
18.65641869510117
 20
-4.393043578210975
 10
19.00547965199982
 20
-3.754962822769669
 10
19.29879752392403
 20
-3.089414219809721
 10
19.52803553556187
 20
-2.421382157784091
 10
19.70109026314395
 20
-1.73664220068874
 10
19.81905144586288
 20
-1.019475311306355
 10
19.87538883288084
 20
-0.2948587141121534
 10
19.87050141163517
 20
0.4111416272768765
 10
19.80710287346025
 20
1.114306629205964
 10
19.6810266711687
 20
1.829814443783998
 10
19.49438338449377
 20
2.531961905645634
 10
19.25608730907333
 20
3.196521309953383
 10
18.96353179129209
 20
3.83904422534961
 10
18.60777256176847
 20
4.472467392453994
 10
18.46122765268559
 20
4.701004129807066
  0
LWPOLYLINE
  5
174
330
124
100
AcDbEntity
  8
VER
100
AcDbPolyline
 90
       13
 70
     0
 43
0.0
 10
11.36124255697997
 20
-8.499992564991603
 10
12.15242461236047
 20
-8.464235796647706
 10
12.94370519286775
 20
-8.353888435053566
 10
13.63380564387512
 20
-8.194385239404502
 10
14.30829239819937
 20
-7.97817504324621
 10
14.98113769646928
 20
-7.697814197333706
 10
15.62757480683093
 20
-7.361003637694561
 10
16.22512177728145
 20
-6.982264357861458
 10
16.78918807886744
 20
-6.555257915279028
 10
17.33047603625612
 20
-6.068352111004483
 10
17.82820508404064
 20
-5.536999869232107
 10
18.26607329439045
 20
-4.98222460855582
 10
18.45831966723207
 20
-4.705378651576924
  0
ELLIPSE
  5
175
330
124
100
AcDbEntity
  8
VER
100
AcDbEllipse
 10
10.19318063584442
 20
0.0000000000026059
 30
0.0
 11
-2.138074613256908E-12
 21
-8.499999999997394
 31
0.0
210
0.0
220
0.0
230
1.0
 40
0.9396926207859108
 41
3.071371058218813
 42
3.578737374391456
  0
ELLIPSE
  5
176
330
124
100
AcDbEntity
  8
VER
100
AcDbEllipse
 10
10.19318063585266
 20
-0.0000000000308678
 30
0.0
 11
-4.833356648931452E-11
 21
-8.499999999969029
 31
0.0
210
0.0
220
0.0
230
1.0
 40
0.9396926207858531
 41
0.0725030725796136
 42
3.069089581022801
  0
LINE
  5
177
330
124
100
AcDbEntity
  8
VER
100
AcDbLine
 10
11.36857803887335
 20
-9.999982742808692
 30
0.0
 11
11.36124255698141
 21
-9.99999368024363
 31
0.0
  0
LINE
  5
178
330
124
100
AcDbEntity
  8
VER
100
AcDbLine
 10
11.36124255698219
 20
9.99999368024363
 30
0.0
 11
11.36857803887358
 21
9.999982742808687
 31
0.0
  0
ELLIPSE
  5
179
330
124
100
AcDbEntity
  8
VER
100
AcDbEllipse
 10
11.38714476050837
 20
0.0000000000003944
 30
0.0
 11
7.432216402691622E-12
 21
-10.0000000000004
 31
0.0
210
0.0
220
0.0
230
1.0
 40
0.9993908270190958
 41
6.026506961346627
 42
6.281327502222722
  0
ELLIPSE
  5
17A
330
124
100
AcDbEntity
  8
VER
100
AcDbEllipse
 10
11.38714476050828
 20
0.0000000000002096
 30
0.0
 11
-8.633700373078241E-13
 21
-9.999999999999787
 31
0.0
210
0.0
220
0.0
230
1.0
 40
0.9993908270190957
 41
3.143450458545963
 42
3.3982709994221
  0
LWPOLYLINE
  5
17B
330
124
100
AcDbEntity
  8
VER
100
AcDbPolyline
 90
        5
 70
     0
 43
0.0
 10
18.00722460318699
 20
-7.487928741905417
 10
18.34400679896311
 20
-7.17589030982603
 10
18.93278204940613
 20
-6.55388264445516
 10
19.45130135276828
 20
-5.90393541948523
 10
19.77629989873482
 20
-5.432266388501119
  0
LWPOLYLINE
  5
17C
330
124
100
AcDbEntity
  8
VER
100
AcDbPolyline
 90
        8
 70
     0
 43
0.0
 10
13.68018392063273
 20
-9.730744991006933
 10
13.98207309955456
 20
-9.654277879458565
 10
14.77692620618323
 20
-9.40406516996659
 10
15.57024501951435
 20
-9.07836134369031
 10
16.3328385107975
 20
-8.686075830900894
 10
17.03809649370143
 20
-8.244203959819938
 10
17.70426556120707
 20
-7.745347614071766
 10
18.00722460318699
 20
-7.487928741905417
  0
LINE
  5
17D
330
124
100
AcDbEntity
  8
VER
100
AcDbLine
 10
11.36124255698141
 20
-9.99999368024363
 30
0.0
 11
11.55774517315262
 21
-9.998288626850677
 31
0.0
  0
LINE
  5
17E
330
124
100
AcDbEntity
  8
VER
100
AcDbLine
 10
8.55316501729301
 20
-9.602501753769767
 30
0.0
 11
8.849999999999996
 21
-9.677629354725374
 31
0.0
  0
LWPOLYLINE
  5
17F
330
124
100
AcDbEntity
  8
VER
100
AcDbPolyline
 90
        3
 70
     0
 43
0.0
 10
7.820555386620968
 20
-9.392662365692056
 10
7.955666793680076
 20
-9.433692973487963
 10
8.55316501729301
 20
-9.602501753769767
  0
LWPOLYLINE
  5
180
330
124
100
AcDbEntity
  8
VER
100
AcDbPolyline
 90
        4
 70
     0
 43
0.0
 10
6.108865394421088
 20
-8.816458475422962
 10
6.182312280505644
 20
-8.842246390876353
 10
7.067378287561229
 20
-9.14888438291346
 10
7.820555386620968
 20
-9.392662365692056
  0
LINE
  5
181
330
124
100
AcDbEntity
  8
VER
100
AcDbLine
 10
5.297263779156615
 20
-8.53548991918855
 30
0.0
 11
6.108865394421088
 21
-8.816458475422962
 31
0.0
  0
ELLIPSE
  5
182
330
124
100
AcDbEntity
  8
VER
100
AcDbEllipse
 10
10.19318063584056
 20
-0.0000000000076312
 30
0.0
 11
-1.334104599747732E-12
 21
-9.999999999991175
 31
0.0
210
0.0
220
0.0
230
1.0
 40
0.9396926207859143
 41
5.735148456951798
 42
9.972814810996649
  0
LINE
  5
183
330
124
100
AcDbEntity
  8
VER
100
AcDbLine
 10
6.11044804520958
 20
8.817014090566552
 30
0.0
 11
5.29726377915661
 21
8.535489919188546
 31
0.0
  0
LWPOLYLINE
  5
184
330
124
100
AcDbEntity
  8
VER
100
AcDbPolyline
 90
        4
 70
     0
 43
0.0
 10
7.827759501136843
 20
9.394873960826798
 10
7.06907665319805
 20
9.149457566219342
 10
6.183159829450662
 20
8.842543984652153
 10
6.11044804520958
 20
8.817014090566552
  0
LWPOLYLINE
  5
185
330
124
100
AcDbEntity
  8
VER
100
AcDbPolyline
 90
        3
 70
     0
 43
0.0
 10
8.566064494827327
 20
9.605895521984952
 10
7.957345214583137
 20
9.434196606932524
 10
7.827759501136843
 20
9.394873960826798
  0
LINE
  5
186
330
124
100
AcDbEntity
  8
VER
100
AcDbLine
 10
8.849999999999996
 20
9.677629354725374
 30
0.0
 11
8.566064494827327
 21
9.605895521984952
 31
0.0
  0
LINE
  5
187
330
124
100
AcDbEntity
  8
VER
100
AcDbLine
 10
11.45115126944381
 20
9.999691521878365
 30
0.0
 11
11.36124255698219
 21
9.99999368024363
 31
0.0
  0
LWPOLYLINE
  5
188
330
124
100
AcDbEntity
  8
VER
100
AcDbPolyline
 90
        7
 70
     0
 43
0.0
 10
18.00227667716186
 20
7.492302241649249
 10
17.70400338266001
 20
7.745475374079241
 10
17.01915318654413
 20
8.257238633094584
 10
16.31366485988512
 20
8.696907605055793
 10
15.57417732786607
 20
9.076620039243256
 10
14.78300866510227
 20
9.401794730949188
 10
14.38160845814087
 20
9.53762926914567
  0
LWPOLYLINE
  5
189
330
124
100
AcDbEntity
  8
VER
100
AcDbPolyline
 90
        5
 70
     0
 43
0.0
 10
19.67688599336388
 20
5.582818686032335
 10
19.43471586884807
 20
5.926627847276094
 10
18.91468268760229
 20
6.574577681487524
 10
18.3427456461718
 20
7.17720692447238
 10
18.00227667716186
 20
7.492302241649249
  0
LINE
  5
18A
330
124
100
AcDbEntity
  8
VER
100
AcDbLine
 10
19.81263204947994
 20
5.375734906397291
 30
0.0
 11
19.67688599336388
 21
5.582818686032335
 31
0.0
  0
LINE
  5
18B
330
124
100
AcDbEntity
  8
VER
100
AcDbLine
 10
8.849999999999996
 20
9.682458365518544
 30
0.0
 11
8.849999999999996
 21
-9.682458365518546
 31
0.0
  0
LINE
  5
18C
330
124
100
AcDbEntity
  8
VER
100
AcDbLine
 10
3.960002592076192
 20
7.395299735383068
 30
0.0
 11
3.960002592091246
 21
-7.395299735392484
 31
0.0
  0
LINE
  5
18D
330
124
100
AcDbEntity
  8
VER
100
AcDbLine
 10
10.34999999999999
 20
-8.136789462547748
 30
0.0
 11
10.34999999999999
 21
-8.442474272114364
 31
0.0
  0
LINE
  5
18E
330
124
100
AcDbEntity
  8
VER
100
AcDbLine
 10
10.34999999999999
 20
8.442474272114364
 30
0.0
 11
10.34999999999999
 21
8.13678946254775
 31
0.0
  0
LWPOLYLINE
  5
18F
330
124
100
AcDbEntity
  8
VER
100
AcDbPolyline
 90
        3
 70
     0
 43
0.0
 10
10.34999999999999
 20
8.442474272114364
 10
9.66233242802822
 20
8.339643733588586
 10
9.593332956042794
 20
8.32665969889071
  0
LWPOLYLINE
  5
190
330
124
100
AcDbEntity
  8
VER
100
AcDbPolyline
 90
        3
 70
     0
 43
0.0
 10
9.592177529063942
 20
-8.326437889533985
 10
9.640804409818214
 20
-8.335635756308596
 10
10.34999999999999
 20
-8.442474272114364
  0
ARC
  5
191
330
124
100
AcDbEntity
  8
VER
100
AcDbCircle
 10
11.3499999999997
 20
-0.0000000000000009
 30
0.0
 40
8.499999999999968
100
AcDbArc
 50
263.243672969414
 51
96.7563270305859
  0
LWPOLYLINE
  5
192
330
124
100
AcDbEntity
  8
VER
100
AcDbPolyline
 90
        3
 70
     0
 43
0.0
 10
3.960002592076192
 20
7.395299735383068
 10
3.410171211348299
 20
7.054484640639104
 10
2.871542700552513
 20
6.739136299525439
  0
LWPOLYLINE
  5
193
330
124
100
AcDbEntity
  8
VER
100
AcDbPolyline
 90
        3
 70
     0
 43
0.0
 10
2.871542700552514
 20
-6.739136299525429
 10
3.229307042912646
 20
-6.94554724226313
 10
3.960002592091246
 20
-7.395299735392484
  0
LINE
  5
194
330
124
100
AcDbEntity
  8
VER
100
AcDbLine
 10
4.825271233094981
 20
-7.921838981081009
 30
0.0
 11
3.960002592091246
 21
-7.395299735392484
 31
0.0
  0
LWPOLYLINE
  5
195
330
124
100
AcDbEntity
  8
VER
100
AcDbPolyline
 90
        8
 70
     0
 43
0.0
 10
8.849999999999996
 20
-9.682458365518546
 10
8.222397486572127
 20
-9.501042296920083
 10
7.601296134810266
 20
-9.284514593348337
 10
6.983226918639722
 20
-9.034211027959442
 10
6.37245818522928
 20
-8.754776436771824
 10
5.760539468744818
 20
-8.445168356789697
 10
5.155559304340893
 20
-8.112926985260009
 10
4.825271233094981
 20
-7.921838981081009
  0
ARC
  5
196
330
124
100
AcDbEntity
  8
VER
100
AcDbCircle
 10
11.35000000000003
 20
-0.0000000000000888
 30
0.0
 40
9.999999999999925
100
AcDbArc
 50
255.5224878140698
 51
328.3721905758376
  0
LWPOLYLINE
  5
197
330
124
100
AcDbEntity
  8
VER
100
AcDbPolyline
 90
        8
 70
     0
 43
0.0
 10
4.823147161526153
 20
7.920590055356863
 10
5.13375372559732
 20
8.100509418088798
 10
5.730058630702247
 20
8.42902392473658
 10
6.333081339556016
 20
8.735718293142451
 10
6.949406931342862
 20
9.01955145810037
 10
7.573178323875227
 20
9.273867885380538
 10
8.208182392709519
 20
9.49649038492871
 10
8.849999999999996
 20
9.682458365518544
  0
LINE
  5
198
330
124
100
AcDbEntity
  8
VER
100
AcDbLine
 10
3.960002592076192
 20
7.395299735383068
 30
0.0
 11
4.823147161526153
 21
7.920590055356863
 31
0.0
  0
ARC
  5
199
330
124
100
AcDbEntity
  8
VER
100
AcDbCircle
 10
11.34999999999999
 20
-0.0000000000000133
 30
0.0
 40
10.00000000000001
100
AcDbArc
 50
31.62780942416279
 51
104.4775121859299
  0
LINE
  5
19A
330
124
100
AcDbEntity
  8
VER
100
AcDbLine
 10
11.37125889311056
 20
8.5
 30
0.0
 11
7.891818305704001
 21
8.5
 31
0.0
  0
LINE
  5
19B
330
124
100
AcDbEntity
  8
VER
100
AcDbLine
 10
7.891818305704001
 20
-8.5
 30
0.0
 11
11.37125733580479
 21
-8.5
 31
0.0
  0
ELLIPSE
  5
19C
330
124
100
AcDbEntity
  8
VER
100
AcDbEllipse
 10
9.620909152853862
 20
0.0000000000000568
 30
0.0
 11
-1.124070969404492E-11
 21
8.499999999999943
 31
0.0
210
0.0
220
0.0
230
1.0
 40
0.9135454576426179
 41
3.035084829262045
 42
6.389693131504446
  0
LWPOLYLINE
  5
19D
330
124
100
AcDbEntity
  8
VER
100
AcDbPolyline
 90
        3
 70
     0
 43
0.0
 10
2.329970368232101
 20
-6.425814256200868
 10
2.749054946252104
 20
-6.670498177859758
 10
2.871542700552514
 20
-6.739136299525429
  0
LWPOLYLINE
  5
19E
330
124
100
AcDbEntity
  8
VER
100
AcDbPolyline
 90
       11
 70
     0
 43
0.0
 10
-1.658873718637687
 20
-2.299148605739893
 10
-1.563919658281707
 20
-2.531401100927464
 10
-1.332386138026207
 20
-2.983077646113427
 10
-1.064364290145938
 20
-3.409912644153638
 10
-0.760858056749404
 20
-3.822705220823775
 10
-0.3188128711568989
 20
-4.339443130605785
 10
0.1832767908780241
 20
-4.839978814879086
 10
0.7432596664958755
 20
-5.323832217692416
 10
1.358984492837165
 20
-5.790523283094484
 10
2.028300007042405
 20
-6.239571955134023
 10
2.329970368232101
 20
-6.425814256200868
  0
LWPOLYLINE
  5
19F
330
124
100
AcDbEntity
  8
VER
100
AcDbPolyline
 90
       18
 70
     0
 43
0.0
 10
-1.664183027114507
 20
2.286058724516038
 10
-1.790256762535177
 20
1.947092277346185
 10
-1.931235983723703
 20
1.434983824402266
 10
-1.987832054994761
 20
1.155562129698973
 10
-2.034292798096033
 20
0.8464087456881639
 10
-2.05576024961753
 20
0.6495900504161698
 10
-2.072295205057557
 20
0.4364777371925997
 10
-2.080793700210548
 20
0.2635862041684873
 10
-2.085180335691722
 20
0.0834627266971359
 10
-2.084927082635935
 20
-0.1006017662104688
 10
-2.080131117060185
 20
-0.281509166732568
 10
-2.068349355670563
 20
-0.4959317881900183
 10
-2.051319060174783
 20
-0.695270039152842
 10
-2.014297067745691
 20
-0.9939592375105937
 10
-1.967856623883125
 20
-1.263263674706413
 10
-1.913505947484389
 20
-1.510326866015464
 10
-1.757960908803935
 20
-2.044083882820035
 10
-1.658873718637687
 20
-2.299148605739893
  0
LWPOLYLINE
  5
1A0
330
124
100
AcDbEntity
  8
VER
100
AcDbPolyline
 90
       11
 70
     0
 43
0.0
 10
2.326714595651296
 20
6.423850524107704
 10
2.076612269819665
 20
6.269870074157694
 10
1.343683824587512
 20
5.779177866369615
 10
0.6759370481546456
 20
5.268519722989293
 10
0.0765516238196537
 20
4.739355690844837
 10
-0.3901096621327591
 20
4.261857242373774
 10
-0.8042296098866673
 20
3.767091261727106
 10
-1.164532664221293
 20
3.252788576519158
 10
-1.405749113315236
 20
2.842272028178984
 10
-1.61470914257611
 20
2.411614136863208
 10
-1.664183027114507
 20
2.286058724516038
  0
LINE
  5
1A1
330
124
100
AcDbEntity
  8
VER
100
AcDbLine
 10
2.871542700552513
 20
6.739136299525439
 30
0.0
 11
2.326714595651296
 21
6.423850524107704
 31
0.0
  0
LINE
  5
1A2
330
124
100
AcDbEntity
  8
VER
100
AcDbLine
 10
11.37125889310665
 20
10.0
 30
0.0
 11
7.891818305704001
 21
10.0
 31
0.0
  0
LINE
  5
1A3
330
124
100
AcDbEntity
  8
VER
100
AcDbLine
 10
7.891818305704001
 20
-10.0
 30
0.0
 11
11.37125733580088
 21
-10.0
 31
0.0
  0
ELLIPSE
  5
1A4
330
124
100
AcDbEntity
  8
VER
100
AcDbEllipse
 10
9.620909152851988
 20
0.0000000000000311
 30
0.0
 11
-3.828568698926937E-15
 21
9.999999999999968
 31
0.0
210
0.0
220
0.0
230
1.0
 40
0.913545457642602
 41
2.3102896090462
 42
7.114488351723181
  0
ARC
  5
1A5
330
124
100
AcDbEntity
  8
VER
100
AcDbCircle
 10
7.891818305704004
 20
-0.0000000000000018
 30
0.0
 40
10.0
100
AcDbArc
 50
90.09080899477713
 51
269.9091910052229
  0
LWPOLYLINE
  5
1A6
330
124
100
AcDbEntity
  8
VER
100
AcDbPolyline
 90
       39
 70
     0
 43
0.0
 10
7.875969152846534
 20
9.999987440209795
 10
8.647791020747357
 20
9.971339714933054
 10
9.415110085781793
 20
9.8832981414479
 10
10.19207171943128
 20
9.731795963217534
 10
10.95464242361084
 20
9.51940693650441
 10
11.73453430011556
 20
9.232136318203688
 10
12.48792885822497
 20
8.881203059777743
 10
13.22996993415508
 20
8.455932803561529
 10
13.93303558347368
 20
7.968920491683747
 10
14.57386763736921
 20
7.4396924600355
 10
15.168623817363
 20
6.859161869025205
 10
15.72806100487484
 20
6.212242967012688
 10
16.23028310142705
 20
5.519964207355642
 10
16.65980223221158
 20
4.808457655707414
 10
17.02886285626141
 20
4.063793410242371
 10
17.34262193035188
 20
3.268175817602394
 10
17.58737866838144
 20
2.448695418723643
 10
17.75716841065562
 20
1.635137455998678
 10
17.8589345824052
 20
0.8103043420332954
 10
17.89165328857777
 20
-0.0443025887916781
 10
17.85136363198248
 20
-0.8985860525317114
 10
17.74229474377771
 20
-1.722475310130676
 10
17.56530647251748
 20
-2.534487460320048
 10
17.31331022740636
 20
-3.351738726159979
 10
16.99253058180757
 20
-4.144518798072673
 10
16.61690458012247
 20
-4.885865001347786
 10
16.18111949725225
 20
-5.59352176681175
 10
15.67282146277727
 20
-6.28129385433511
 10
15.10771785206532
 20
-6.923206896866697
 10
14.50787524887426
 20
-7.498439694960224
 10
13.86241492007051
 20
-8.021968341281038
 10
13.15511002522965
 20
-8.502730321477951
 10
12.40937995998212
 20
-8.921414501064055
 10
11.65293517637248
 20
-9.265678993156264
 10
10.8705568947665
 20
-9.546052399711098
 10
10.04397403661907
 20
-9.765597181259537
 10
9.20167864277666
 20
-9.913842135991672
 10
8.540254422448585
 20
-9.978929945533134
 10
7.875969152846534
 20
-9.999987440209798
  0
ARC
  5
1A7
330
124
100
AcDbEntity
  8
VER
100
AcDbCircle
 10
7.860120000000005
 20
-0.0000000000000018
 30
0.0
 40
9.999999999999982
100
AcDbArc
 50
89.90919100528555
 51
270.0908089947145
  0
CIRCLE
  5
1A8
330
124
100
AcDbEntity
  8
VER
100
AcDbCircle
 10
7.860120000000007
 20
0.0
 30
0.0
 40
10.49999999999999
  0
CIRCLE
  5
1A9
330
124
100
AcDbEntity
  8
VER
100
AcDbCircle
 10
7.860120000000007
 20
0.0
 30
0.0
 40
11.38298245314677
  0
CIRCLE
  5
1AA
330
124
100
AcDbEntity
  8
VER
100
AcDbCircle
 10
7.860120000000007
 20
0.0
 30
0.0
 40
11.59999999999999
  0
CIRCLE
  5
1AB
330
124
100
AcDbEntity
  8
VER
100
AcDbCircle
 10
7.860120000000007
 20
0.0
 30
0.0
 40
12.61171051958027
  0
ELLIPSE
  5
1AC
330
124
100
AcDbEntity
  8
VER
100
AcDbEllipse
 10
9.66851652578136
 20
-0.0000000000000018
 30
0.0
 11
5.204748896376249E-16
 21
8.499999999999996
 31
0.0
210
0.0
220
0.0
230
1.0
 40
0.9659258262890681
 41
0.0
 42
6.283185307179586
  0
ELLIPSE
  5
1AD
330
124
100
AcDbEntity
  8
VER
100
AcDbEllipse
 10
9.668516525781357
 20
0.0000000000000071
 30
0.0
 11
3.835990623682903E-14
 21
10.00000000000001
 31
0.0
210
0.0
220
0.0
230
1.0
 40
0.9659258262890681
 41
0.0
 42
6.283185307179586
  0
LINE
  5
1AE
330
124
100
AcDbEntity
  8
MITTE
100
AcDbLine
 10
7.891818305704004
 20
-8.925
 30
0.0
 11
7.891818305704004
 21
8.925
 31
0.0
  0
LINE
  5
1AF
330
124
100
AcDbEntity
  8
MITTE
100
AcDbLine
 10
-5.89487999999999
 20
0.0
 30
0.0
 11
21.61512
 21
0.0
 31
0.0
  0
LINE
  5
1B0
330
124
100
AcDbEntity
  8
MITTE
100
AcDbLine
 10
7.860120000000007
 20
-13.755
 30
0.0
 11
7.860120000000007
 21
13.755
 31
0.0
  0
LINE
  5
1B1
330
124
100
AcDbEntity
  8
MITTE
100
AcDbLine
 10
1.499999999999997
 20
104.25
 30
0.0
 11
1.499999999999997
 21
76.75000000000001
 31
0.0
  0
LINE
  5
1B2
330
124
100
AcDbEntity
  8
MITTE
100
AcDbLine
 10
0.0316954888546241
 20
73.82949016875156
 30
0.0
 11
0.0316954888546241
 21
-38.37050983124844
 31
0.0
  0
LINE
  5
1B3
330
124
100
AcDbEntity
  8
MITTE
100
AcDbLine
 10
20.675
 20
103.0
 30
0.0
 11
-5.175000000000002
 21
103.0
 31
0.0
  0
LINE
  5
1B4
330
124
100
AcDbEntity
  8
MITTE
100
AcDbLine
 10
11.35000000000003
 20
-8.925000000000091
 30
0.0
 11
11.35000000000003
 21
8.925000000003761
 31
0.0
  0
LINE
  5
1B5
330
124
100
AcDbEntity
  8
MITTE
100
AcDbLine
 10
10.35
 20
-10.5
 30
0.0
 11
10.35
 21
10.50000000000003
 31
0.0
  0
LINE
  5
1B6
330
124
100
AcDbEntity
  8
MITTE
100
AcDbLine
 10
8.987033051562719
 20
-10.5
 30
0.0
 11
8.987033051562719
 21
10.50000000000002
 31
0.0
  0
LINE
  5
1B7
330
124
100
AcDbEntity
  8
050
100
AcDbLine
 10
9.499999999999996
 20
91.10000000000001
 30
0.0
 11
10.5
 21
91.10000000000001
 31
0.0
  0
LINE
  5
1B8
330
124
100
AcDbEntity
  8
050
100
AcDbLine
 10
9.499999999999996
 20
91.10000000000001
 30
0.0
 11
9.499999999999996
 21
92.0
 31
0.0
  0
ARC
  5
1B9
330
124
100
AcDbEntity
  8
050
100
AcDbCircle
 10
15.03169548885442
 20
68.72949016875168
 30
0.0
 40
22.49999999999979
100
AcDbArc
 50
162.0000000000004
 51
180.0000000000004
  0
ARC
  5
1BA
330
124
100
AcDbEntity
  8
050
100
AcDbCircle
 10
15.03169548885433
 20
68.72949016875167
 30
0.0
 40
7.499999999999701
100
AcDbArc
 50
162.0000000000001
 51
180.0000000000006
  0
ARC
  5
1BB
330
124
100
AcDbEntity
  8
050
100
AcDbCircle
 10
-13.50000000000021
 20
78.00000000000003
 30
0.0
 40
22.50000000000021
100
AcDbArc
 50
342.0000000000001
 51
359.9999999999999
  0
ARC
  5
1BC
330
124
100
AcDbEntity
  8
050
100
AcDbCircle
 10
-13.50000000000037
 20
78.00000000000007
 30
0.0
 40
7.500000000000369
100
AcDbArc
 50
342.0000000000004
 51
359.9999999999996
  0
LINE
  5
1BD
330
124
100
AcDbEntity
  8
050
100
AcDbLine
 10
7.898771616640953
 20
71.04711762656368
 30
0.0
 11
-6.367076127786349
 21
75.6823725421879
 31
0.0
  0
LINE
  5
1BE
330
124
100
AcDbEntity
  8
050
100
AcDbLine
 10
7.531695488854624
 20
-24.03520140658558
 30
0.0
 11
7.531695488854624
 21
-13.09588245749323
 31
0.0
  0
LINE
  5
1BF
330
124
100
AcDbEntity
  8
050
100
AcDbLine
 10
7.531695488854624
 20
48.09588245749324
 30
0.0
 11
7.531695488854624
 21
68.72949016875154
 31
0.0
  0
LINE
  5
1C0
330
124
100
AcDbEntity
  8
050
100
AcDbLine
 10
7.531695488854624
 20
13.09588245749323
 30
0.0
 11
7.531695488854624
 21
21.90411754250677
 31
0.0
  0
LINE
  5
1C1
330
124
100
AcDbEntity
  8
050
100
AcDbLine
 10
-7.468304511145376
 20
68.72949016875154
 30
0.0
 11
-7.468304511145376
 21
-7.37601368414768
 31
0.0
  0
LINE
  5
1C2
330
124
100
AcDbEntity
  8
050
100
AcDbLine
 10
7.531695488854626
 20
-24.03520140658558
 30
0.0
 11
-7.468304511145377
 21
-7.376013684147675
 31
0.0
  0
LINE
  5
1C3
330
124
100
AcDbEntity
  8
050
100
AcDbLine
 10
7.531695488854626
 20
68.72949016875157
 30
0.0
 11
-7.468304511145374
 21
68.72949016875154
 31
0.0
  0
LINE
  5
1C4
330
124
100
AcDbEntity
  8
050
100
AcDbLine
 10
-6.000000000000003
 20
92.0
 30
0.0
 11
-6.000000000000003
 21
78.00000000000001
 31
0.0
  0
LINE
  5
1C5
330
124
100
AcDbEntity
  8
050
100
AcDbLine
 10
8.999999999999996
 20
78.00000000000001
 30
0.0
 11
8.999999999999996
 21
92.0
 31
0.0
  0
LINE
  5
1C6
330
124
100
AcDbEntity
  8
050
100
AcDbLine
 10
8.999999999999996
 20
78.00000000000001
 30
0.0
 11
-6.000000000000003
 21
78.00000000000001
 31
0.0
  0
LINE
  5
1C7
330
124
100
AcDbEntity
  8
050
100
AcDbLine
 10
11.56870779386422
 20
114.0
 30
0.0
 11
11.4
 21
114.0
 31
0.0
  0
LINE
  5
1C8
330
124
100
AcDbEntity
  8
050
100
AcDbLine
 10
11.4
 20
92.0
 30
0.0
 11
11.56870779386422
 21
92.0
 31
0.0
  0
LINE
  5
1C9
330
124
100
AcDbEntity
  8
050
100
AcDbLine
 10
11.56870779386422
 20
92.0
 30
0.0
 11
11.56870779386422
 21
114.0
 31
0.0
  0
ARC
  5
1CA
330
124
100
AcDbEntity
  8
050
100
AcDbCircle
 10
11.56870779386427
 20
114.8999999999999
 30
0.0
 40
0.8999999999998494
100
AcDbArc
 50
269.9999999999966
 51
315.0000000000041
  0
ARC
  5
1CB
330
124
100
AcDbEntity
  8
050
100
AcDbCircle
 10
11.56870779386427
 20
91.10000000000015
 30
0.0
 40
0.8999999999998488
100
AcDbArc
 50
44.99999999999577
 51
90.00000000000318
  0
LINE
  5
1CC
330
124
100
AcDbEntity
  8
050
100
AcDbLine
 10
11.4
 20
92.0
 30
0.0
 11
11.4
 21
114.0
 31
0.0
  0
LINE
  5
1CD
330
124
100
AcDbEntity
  8
050
100
AcDbLine
 10
10.5
 20
91.10000000000001
 30
0.0
 11
10.5
 21
117.0
 31
0.0
  0
ARC
  5
1CE
330
124
100
AcDbEntity
  8
050
100
AcDbCircle
 10
11.39999999999993
 20
114.8999999999999
 30
0.0
 40
0.8999999999999311
100
AcDbArc
 50
179.9999999999964
 51
270.0000000000044
  0
ARC
  5
1CF
330
124
100
AcDbEntity
  8
050
100
AcDbCircle
 10
11.39999999999993
 20
91.10000000000007
 30
0.0
 40
0.8999999999999346
100
AcDbArc
 50
89.99999999999605
 51
180.0000000000036
  0
LINE
  5
1D0
330
124
100
AcDbEntity
  8
050
100
AcDbLine
 10
10.5
 20
110.211102550928
 30
0.0
 11
-7.500000000000004
 21
110.211102550928
 31
0.0
  0
LINE
  5
1D1
330
124
100
AcDbEntity
  8
050
100
AcDbLine
 10
10.5
 20
117.0
 30
0.0
 11
-7.500000000000003
 21
117.0
 31
0.0
  0
LINE
  5
1D2
330
124
100
AcDbEntity
  8
050
100
AcDbLine
 10
-7.500000000000003
 20
117.0
 30
0.0
 11
-7.500000000000004
 21
92.0
 31
0.0
  0
LINE
  5
1D3
330
124
100
AcDbEntity
  8
050
100
AcDbLine
 10
10.5
 20
92.0
 30
0.0
 11
-7.500000000000004
 21
92.0
 31
0.0
  0
LINE
  5
1D4
330
124
100
AcDbEntity
  8
050
100
AcDbLine
 10
10.5
 20
95.78889744907201
 30
0.0
 11
-7.500000000000004
 21
95.78889744907201
 31
0.0
  0
LINE
  5
1D5
330
124
100
AcDbEntity
  8
050
100
AcDbLine
 10
12.2051038969321
 20
91.73639610306789
 30
0.0
 11
12.2051038969321
 21
114.2636038969321
 31
0.0
  0
LINE
  5
1D6
330
124
100
AcDbEntity
  8
050
100
AcDbLine
 10
12.2051038969321
 20
91.73639610306789
 30
0.0
 11
14.16249999999999
 21
89.779
 31
0.0
  0
LINE
  5
1D7
330
124
100
AcDbEntity
  8
050
100
AcDbLine
 10
14.16249999999999
 20
116.221
 30
0.0
 11
12.2051038969321
 21
114.2636038969321
 31
0.0
  0
LINE
  5
1D8
330
124
100
AcDbEntity
  8
050
100
AcDbLine
 10
14.16249999999999
 20
89.779
 30
0.0
 11
14.16249999999999
 21
116.221
 31
0.0
  0
LINE
  5
1D9
330
124
100
AcDbEntity
  8
050
100
AcDbLine
 10
18.3375
 20
116.221
 30
0.0
 11
14.16249999999999
 21
116.221
 31
0.0
  0
LINE
  5
1DA
330
124
100
AcDbEntity
  8
050
100
AcDbLine
 10
14.16249999999999
 20
89.779
 30
0.0
 11
18.3375
 21
89.779
 31
0.0
  0
LINE
  5
1DB
330
124
100
AcDbEntity
  8
050
100
AcDbLine
 10
18.3375
 20
89.779
 30
0.0
 11
18.3375
 21
116.221
 31
0.0
  0
LINE
  5
1DC
330
124
100
AcDbEntity
  8
050
100
AcDbLine
 10
19.5
 20
90.9415
 30
0.0
 11
19.5
 21
115.0585
 31
0.0
  0
LINE
  5
1DD
330
124
100
AcDbEntity
  8
050
100
AcDbLine
 10
19.5
 20
115.0585
 30
0.0
 11
18.3375
 21
116.221
 31
0.0
  0
LINE
  5
1DE
330
124
100
AcDbEntity
  8
050
100
AcDbLine
 10
18.3375
 20
89.779
 30
0.0
 11
19.5
 21
90.9415
 31
0.0
  0
LINE
  5
1DF
330
124
100
AcDbEntity
  8
050
100
AcDbLine
 10
21.05410250487683
 20
-2.53692123064438
 30
0.0
 11
21.05410250487683
 21
-2.414621000248939
 31
0.0
  0
LINE
  5
1E0
330
124
100
AcDbEntity
  8
050
100
AcDbLine
 10
21.05410250487683
 20
2.414621000248956
 30
0.0
 11
21.05410250487683
 21
2.53692123064438
 31
0.0
  0
LWPOLYLINE
  5
1E1
330
124
100
AcDbEntity
  8
050
100
AcDbPolyline
 90
        5
 70
     0
 43
0.0
 10
20.01160521319568
 20
-5.050311665740038
 10
20.32869277071152
 20
-4.464735333749907
 10
20.67785495720742
 20
-3.68359377617505
 10
20.88295681416411
 20
-3.116988769446133
 10
21.05410250487683
 20
-2.53692123064438
  0
LWPOLYLINE
  5
1E2
330
124
100
AcDbEntity
  8
050
100
AcDbPolyline
 90
        3
 70
     0
 43
0.0
 10
19.77629989873482
 20
-5.432266388501119
 10
19.91412890647459
 20
-5.213222819964197
 10
20.01160521319568
 20
-5.050311665740038
  0
LWPOLYLINE
  5
1E3
330
124
100
AcDbEntity
  8
050
100
AcDbPolyline
 90
        6
 70
     0
 43
0.0
 10
21.05410250487683
 20
2.53692123064438
 10
20.94269660898195
 20
2.928733593255375
 10
20.66644753462761
 20
3.71207683996665
 10
20.32622299533802
 20
4.469828580905725
 10
19.91157800301919
 20
5.217265362703106
 10
19.81263204947994
 20
5.375734906397291
  0
ELLIPSE
  5
1E4
330
124
100
AcDbEntity
  8
050
100
AcDbEllipse
 10
11.38714476050838
 20
0.0000000000000002
 30
0.0
 11
-1.836970198721020E-15
 21
-9.999999999999948
 31
0.0
210
0.0
220
0.0
230
1.0
 40
0.9993908270190957
 41
1.31430097505863
 42
1.827291678531163
  0
LINE
  5
1E5
330
124
100
AcDbEntity
  8
050
100
AcDbLine
 10
10.34999999999999
 20
8.13678946254775
 30
0.0
 11
10.34999999999999
 21
-8.136789462547748
 31
0.0
  0
LWPOLYLINE
  5
1E6
330
124
100
AcDbEntity
  8
050
100
AcDbPolyline
 90
        8
 70
     0
 43
0.0
 10
9.593332956042794
 20
8.32665969889071
 10
8.979593947183469
 20
8.190391335163604
 10
8.296654337738065
 20
7.99722383833007
 10
7.620567731154343
 20
7.766169639432531
 10
6.938780122482051
 20
7.496714825376248
 10
6.2639911051807
 20
7.198419797392979
 10
5.593428120096783
 20
6.875919260818486
 10
4.927716655626291
 20
6.536514257523093
  0
LWPOLYLINE
  5
1E7
330
124
100
AcDbEntity
  8
050
100
AcDbPolyline
 90
        8
 70
     0
 43
0.0
 10
4.927716655626291
 20
-6.536514257533512
 10
5.577319276809264
 20
-6.867908299811095
 10
6.231508674545086
 20
-7.183351087807935
 10
6.893123578512586
 20
-7.47747156952891
 10
7.561439696392939
 20
-7.744193365808231
 10
8.24563651899933
 20
-7.981126025963795
 10
8.936892816184734
 20
-8.179565658658225
 10
9.592177529063942
 20
-8.326437889533985
  0
ARC
  5
1E8
330
124
100
AcDbEntity
  8
050
100
AcDbCircle
 10
11.34999999999998
 20
0.0
 30
0.0
 40
10.00000000000001
100
AcDbArc
 50
328.3721905758374
 51
31.6278094241627
  0
ELLIPSE
  5
1E9
330
124
100
AcDbEntity
  8
050
100
AcDbEllipse
 10
9.620909152852
 20
0.0000000000000213
 30
0.0
 11
-4.855138279879444E-14
 21
8.500000000000025
 31
0.0
210
0.0
220
0.0
230
1.0
 40
0.9135454576425998
 41
2.395376647008455
 42
3.035084829263719
  0
ELLIPSE
  5
1EA
330
124
100
AcDbEntity
  8
050
100
AcDbEllipse
 10
9.620909152851945
 20
-0.0000000000000018
 30
0.0
 11
3.761089241203283E-13
 21
8.500000000000005
 31
0.0
210
0.0
220
0.0
230
1.0
 40
0.9135454576425979
 41
0.1065078243261093
 42
0.7462160065813725
  0
LINE
  5
1EB
330
124
100
AcDbEntity
  8
050
100
AcDbLine
 10
4.927716655626291
 20
-6.536514257533512
 30
0.0
 11
4.349428434214072
 21
-6.241234997855342
 31
0.0
  0
LINE
  5
1EC
330
124
100
AcDbEntity
  8
050
100
AcDbLine
 10
4.927716655626291
 20
6.536514257523093
 30
0.0
 11
4.927716655626291
 21
-6.536514257533512
 31
0.0
  0
LINE
  5
1ED
330
124
100
AcDbEntity
  8
050
100
AcDbLine
 10
4.349428434214075
 20
6.241234997855353
 30
0.0
 11
4.927716655626291
 21
6.536514257523093
 31
0.0
  0
LWPOLYLINE
  5
1EE
330
124
100
AcDbEntity
  8
050
100
AcDbPolyline
 90
       19
 70
     0
 43
0.0
 10
-0.589565676450705
 20
-0.014572893251661
 10
-0.5884157256689628
 20
0.120173597680899
 10
-0.5833741524690932
 20
0.2800530644375375
 10
-0.5711813043696131
 20
0.4801526797749353
 10
-0.5538954036372751
 20
0.6654765508155198
 10
-0.5151724647574515
 20
0.9527201380166127
 10
-0.4666923897523383
 20
1.210555033109576
 10
-0.4099969520661639
 20
1.446642544216371
 10
-0.2487229958543248
 20
1.95384978068586
 10
-0.0475269111138271
 20
2.416944417099234
 10
0.1925726574602208
 20
2.845892727997491
 10
0.4705570651727108
 20
3.250660987921594
 10
0.7854076673285345
 20
3.64121547141252
 10
1.295661110339455
 20
4.178256122190752
 10
1.881632099825282
 20
4.693511560008398
 10
2.539994589438735
 20
5.185611830883563
 10
3.267422532832529
 20
5.653186980834338
 10
4.060589883659386
 20
6.094867055878816
 10
4.349428434214075
 20
6.241234997855353
  0
LWPOLYLINE
  5
1EF
330
124
100
AcDbEntity
  8
050
100
AcDbPolyline
 90
       21
 70
     0
 43
0.0
 10
4.349428434214072
 20
-6.241234997855342
 10
3.672626884575077
 20
-5.886537488752622
 10
3.039648257640807
 20
-5.513781243113001
 10
2.452592593107849
 20
-5.124188755005203
 10
1.913559930672791
 20
-4.718982518497985
 10
1.42465031003222
 20
-4.299385027660079
 10
0.9995988954508089
 20
-3.879455414078803
 10
0.6211292295885793
 20
-3.443313698415059
 10
0.2903338783679403
 20
-2.989171305449355
 10
0.0678104421254579
 20
-2.62622747733934
 10
-0.1262034214465116
 20
-2.245612620274513
 10
-0.2907782433575567
 20
-1.83664046995792
 10
-0.4249845546172659
 20
-1.388624762092637
 10
-0.4752330766663957
 20
-1.168920840069268
 10
-0.5184580202624262
 20
-0.9307887809186683
 10
-0.5433005909581856
 20
-0.7557649790998627
 10
-0.5639503022975881
 20
-0.565820947362225
 10
-0.5792789813136906
 20
-0.3603077197311295
 10
-0.5862545216445909
 20
-0.2045734330962737
 10
-0.5894349391507562
 20
-0.0432504546181434
 10
-0.589565676450705
 20
-0.014572893251661
  0
CIRCLE
  5
1F0
330
124
100
AcDbEntity
  8
050
100
AcDbCircle
 10
7.891818305704004
 20
0.0
 30
0.0
 40
8.5
  0
CIRCLE
  5
1F1
330
124
100
AcDbEntity
  8
050
100
AcDbCircle
 10
7.860120000000007
 20
0.0
 30
0.0
 40
9.271271933566487
  0
CIRCLE
  5
1F2
330
124
100
AcDbEntity
  8
050
100
AcDbCircle
 10
7.860120000000007
 20
0.0
 30
0.0
 40
9.399999999999983
  0
CIRCLE
  5
1F3
330
124
100
AcDbEntity
  8
050
100
AcDbCircle
 10
7.860120000000007
 20
0.0
 30
0.0
 40
13.1
  0
CIRCLE
  5
1F4
330
124
100
AcDbEntity
  8
050
100
AcDbCircle
 10
7.860120000000007
 20
0.0
 30
0.0
 40
10.39999999999998
  0
CIRCLE
  5
1F5
330
124
100
AcDbEntity
  8
050
100
AcDbCircle
 10
7.860120000000007
 20
0.0
 30
0.0
 40
9.799999999999967
  0
LINE
  5
1F6
330
124
100
AcDbEntity
  8
GEW
100
AcDbLine
 10
12.99999999999998
 20
115.0585
 30
0.0
 11
19.5
 21
115.0585
 31
0.0
  0
LINE
  5
1F7
330
124
100
AcDbEntity
  8
GEW
100
AcDbLine
 10
13.00000000000001
 20
90.94149999999998
 30
0.0
 11
19.49999999999997
 21
90.94149999999998
 31
0.0
  0
CIRCLE
  5
1F8
330
124
100
AcDbEntity
  8
050
100
AcDbCircle
 10
7.860120000000009
 20
0.0000000000000009
 30
0.0
 40
8.999999999999986
  0
ENDBLK
  5
127
330
124
100
AcDbEntity
  8
0
100
AcDbBlockEnd
  0
ENDSEC
  0
SECTION
  2
ENTITIES
  0
ATTDEF
  5
6F
330
1F
100
AcDbEntity
  8
AM_6
100
AcDbText
 10
26.61512000000001
 20
117.0
 30
0.0
 40
0.5
  1
Geberit Mapress Carbon Steel set of connector T-pieces for inlet and return flow, with union connector for Euro cone
100
AcDbAttributeDefinition
  3

  2
NN
 70
     8
280
     0
  0
ATTDEF
  5
70
330
1F
100
AcDbEntity
  8
AM_6
100
AcDbText
 10
26.61512000000001
 20
116.5
 30
0.0
 40
0.5
  1

100
AcDbAttributeDefinition
  3

  2
NT
 70
     8
280
     0
  0
ATTDEF
  5
71
330
1F
100
AcDbEntity
  8
AM_6
100
AcDbText
 10
26.61512000000001
 20
116.0
 30
0.0
 40
0.5
  1
24046
100
AcDbAttributeDefinition
  3

  2
NB
 70
     8
280
     0
  0
ATTDEF
  5
72
330
1F
100
AcDbEntity
  8
AM_6
100
AcDbText
 10
26.61512000000001
 20
115.5
 30
0.0
 40
0.5
  1
$ARTNRT.
100
AcDbAttributeDefinition
  3

  2
NBSYN
 70
     8
280
     0
  0
ATTDEF
  5
73
330
1F
100
AcDbEntity
  8
AM_6
100
AcDbText
 10
26.61512000000001
 20
115.0
 30
0.0
 40
0.5
  1
24046
100
AcDbAttributeDefinition
  3

  2
LINA
 70
     8
280
     0
  0
ATTDEF
  5
74
330
1F
100
AcDbEntity
  8
AM_6
100
AcDbText
 10
26.61512000000001
 20
114.5
 30
0.0
 40
0.5
  1
GEBERIT
100
AcDbAttributeDefinition
  3

  2
CATALOG
 70
     8
280
     0
  0
ATTDEF
  5
75
330
1F
100
AcDbEntity
  8
AM_6
100
AcDbText
 10
26.61512000000001
 20
114.0
 30
0.0
 40
0.5
  1
24046
100
AcDbAttributeDefinition
  3

  2
ARTNRT
 70
     8
280
     0
  0
ATTDEF
  5
76
330
1F
100
AcDbEntity
  8
AM_6
100
AcDbText
 10
26.61512000000001
 20
113.5
 30
0.0
 40
0.5
  1
5
100
AcDbAttributeDefinition
  3

  2
AD
 70
     8
280
     0
  0
ATTDEF
  5
77
330
1F
100
AcDbEntity
  8
AM_6
100
AcDbText
 10
26.61512000000001
 20
113.0
 30
0.0
 40
0.5
  1
18.0
100
AcDbAttributeDefinition
  3

  2
D
 70
     8
280
     0
  0
ATTDEF
  5
78
330
1F
100
AcDbEntity
  8
AM_6
100
AcDbText
 10
26.61512000000001
 20
112.5
 30
0.0
 40
0.5
  1
15.0
100
AcDbAttributeDefinition
  3

  2
D1
 70
     8
280
     0
  0
ATTDEF
  5
79
330
1F
100
AcDbEntity
  8
AM_6
100
AcDbText
 10
26.61512000000001
 20
112.0
 30
0.0
 40
0.5
  1
15 / 12
100
AcDbAttributeDefinition
  3

  2
DN
 70
     8
280
     0
  0
ATTDEF
  5
7A
330
1F
100
AcDbEntity
  8
AM_6
100
AcDbText
 10
26.61512000000001
 20
111.5
 30
0.0
 40
0.5
  1
2.9
100
AcDbAttributeDefinition
  3

  2
L
 70
     8
280
     0
  0
ATTDEF
  5
7B
330
1F
100
AcDbEntity
  8
AM_6
100
AcDbText
 10
26.61512000000001
 20
111.0
 30
0.0
 40
0.5
  1
12.7
100
AcDbAttributeDefinition
  3

  2
L1
 70
     8
280
     0
  0
ATTDEF
  5
7C
330
1F
100
AcDbEntity
  8
AM_6
100
AcDbText
 10
26.61512000000001
 20
110.5
 30
0.0
 40
0.5
  1
6.8
100
AcDbAttributeDefinition
  3

  2
LL1
 70
     8
280
     0
  0
ATTDEF
  5
7D
330
1F
100
AcDbEntity
  8
AM_6
100
AcDbText
 10
26.61512000000001
 20
110.0
 30
0.0
 40
0.5
  1
10.0
100
AcDbAttributeDefinition
  3

  2
Z
 70
     8
280
     0
  0
ATTDEF
  5
7E
330
1F
100
AcDbEntity
  8
AM_6
100
AcDbText
 10
26.61512000000001
 20
109.5
 30
0.0
 40
0.5
  1
1.7
100
AcDbAttributeDefinition
  3

  2
Z1
 70
     8
280
     0
  0
ATTDEF
  5
7F
330
1F
100
AcDbEntity
  8
AM_6
100
AcDbText
 10
26.61512000000001
 20
109.0
 30
0.0
 40
0.5
  1
geberit
100
AcDbAttributeDefinition
  3

  2
COMPANY
 70
     8
280
     0
  0
INSERT
  5
81
330
1F
100
AcDbEntity
  8
0
100
AcDbBlockReference
  2
1_24046_2_0_in_24046_3
 10
0.0
 20
0.0
 30
0.0
  0
INSERT
  5
125
330
1F
100
AcDbEntity
  8
0
100
AcDbBlockReference
  2
2_24046_1_0_in_24046_3
 10
0.0
 20
0.0
 30
0.0
  0
POINT
  5
1FA
330
1F
100
AcDbEntity
  8
2d ConnectionPoints
100
AcDbPoint
 10
0.0
 20
24.0
 30
0.0
  0
POINT
  5
1FB
330
1F
100
AcDbEntity
  8
2d ConnectionPoints
100
AcDbPoint
 10
0.0
 20
24.0
 30
0.0
  0
POINT
  5
1FC
330
1F
100
AcDbEntity
  8
2d ConnectionPoints
100
AcDbPoint
 10
0.0
 20
24.0
 30
0.0
  0
POINT
  5
1FD
330
1F
100
AcDbEntity
  8
2d ConnectionPoints
100
AcDbPoint
 10
-0.0000000000000031
 20
59.0
 30
0.0
  0
ENDSEC
  0
SECTION
  2
OBJECTS
  0
DICTIONARY
  5
C
330
0
100
AcDbDictionary
281
     1
  3
ACAD_DETAILVIEWSTYLE
350
205
  3
ACAD_GROUP
350
D
  3
ACAD_LAYOUT
350
1A
  3
ACAD_MATERIAL
350
43
  3
ACAD_MLEADERSTYLE
350
6B
  3
ACAD_MLINESTYLE
350
17
  3
ACAD_PLOTSETTINGS
350
19
  3
ACAD_PLOTSTYLENAME
350
E
  3
ACAD_SCALELIST
350
47
  3
ACAD_SECTIONVIEWSTYLE
350
206
  3
ACAD_TABLESTYLE
350
69
  3
ACAD_VISUALSTYLE
350
2A
  3
ACDB_RECOMPOSE_DATA
350
202
  3
AcDbVariableDictionary
350
1FE
  0
SUN
  5
6D
330
29
100
AcDbSun
 90
        1
290
     0
 63
     7
421
 16777215
 40
1.0
291
     1
 91
  2455826
 92
 54000000
292
     0
 70
     2
 71
   256
280
     1
  0
DICTIONARY
  5
205
102
{ACAD_REACTORS
330
C
102
}
330
C
100
AcDbDictionary
281
     1
  0
DICTIONARY
  5
D
102
{ACAD_REACTORS
330
C
102
}
330
C
100
AcDbDictionary
281
     1
  0
DICTIONARY
  5
1A
102
{ACAD_REACTORS
330
C
102
}
330
C
100
AcDbDictionary
281
     1
  3
Layout1
350
1E
  3
Layout2
350
26
  3
Model
350
22
  0
DICTIONARY
  5
43
102
{ACAD_REACTORS
330
C
102
}
330
C
100
AcDbDictionary
281
     1
  3
ByBlock
350
45
  3
ByLayer
350
44
  3
Global
350
46
  0
DICTIONARY
  5
6B
102
{ACAD_REACTORS
330
C
102
}
330
C
100
AcDbDictionary
281
     1
  3
Standard
350
6C
  0
DICTIONARY
  5
17
102
{ACAD_REACTORS
330
C
102
}
330
C
100
AcDbDictionary
281
     1
  3
Standard
350
18
  0
DICTIONARY
  5
19
102
{ACAD_REACTORS
330
C
102
}
330
C
100
AcDbDictionary
281
     1
  0
ACDBDICTIONARYWDFLT
  5
E
102
{ACAD_REACTORS
330
C
102
}
330
C
100
AcDbDictionary
281
     1
  3
Normal
350
F
100
AcDbDictionaryWithDefault
340
F
  0
DICTIONARY
  5
47
102
{ACAD_REACTORS
330
C
102
}
330
C
100
AcDbDictionary
281
     1
  3
A0
350
48
  3
A1
350
49
  3
A2
350
4A
  3
A3
350
4B
  3
A4
350
4C
  3
A5
350
4D
  3
A6
350
4E
  3
A7
350
4F
  3
A8
350
50
  3
A9
350
51
  3
B0
350
52
  3
B1
350
53
  3
B2
350
54
  3
B3
350
55
  3
B4
350
56
  3
B5
350
57
  3
B6
350
58
  3
B7
350
59
  3
B8
350
5A
  3
B9
350
5B
  3
C0
350
5C
  3
C1
350
5D
  3
C2
350
5E
  3
C3
350
5F
  3
C4
350
60
  3
C5
350
61
  3
C6
350
62
  3
C7
350
63
  3
C8
350
64
  3
C9
350
65
  3
D0
350
66
  3
D1
350
67
  3
D2
350
68
  0
DICTIONARY
  5
206
102
{ACAD_REACTORS
330
C
102
}
330
C
100
AcDbDictionary
281
     1
  0
DICTIONARY
  5
69
102
{ACAD_REACTORS
330
C
102
}
330
C
100
AcDbDictionary
281
     1
  3
Standard
350
6A
  0
DICTIONARY
  5
2A
102
{ACAD_REACTORS
330
C
102
}
330
C
100
AcDbDictionary
281
     1
  3
2dWireframe
350
2F
  3
Basic
350
32
  3
Brighten
350
36
  3
ColorChange
350
3A
  3
Conceptual
350
34
  3
Dim
350
35
  3
EdgeColorOff
350
3D
  3
Facepattern
350
39
  3
Flat
350
2B
  3
FlatWithEdges
350
2C
  3
Gouraud
350
2D
  3
GouraudWithEdges
350
2E
  3
Hidden
350
31
  3
JitterOff
350
3B
  3
Linepattern
350
38
  3
OverhangOff
350
3C
  3
Realistic
350
33
  3
Shaded
350
42
  3
Shaded with edges
350
41
  3
Shades of Gray
350
3E
  3
Sketchy
350
3F
  3
Thicken
350
37
  3
Wireframe
350
30
  3
X-Ray
350
40
  0
XRECORD
  5
202
102
{ACAD_REACTORS
330
C
102
}
330
C
100
AcDbXrecord
280
     1
 90
        1
330
6A
  0
DICTIONARY
  5
1FE
102
{ACAD_REACTORS
330
C
102
}
330
C
100
AcDbDictionary
281
     1
  3
CANNOSCALE
350
1FF
  3
CMLEADERSTYLE
350
204
  3
CTABLESTYLE
350
203
  3
SECTIONTHICKNESSINC
350
207
  0
LAYOUT
  5
1E
102
{ACAD_REACTORS
330
1A
102
}
330
1A
100
AcDbPlotSettings
  1

  2
none_device
  4

  6

 40
0.0
 41
0.0
 42
0.0
 43
0.0
 44
0.0
 45
0.0
 46
0.0
 47
0.0
 48
0.0
 49
0.0
140
0.0
141
0.0
142
1.0
143
1.0
 70
   688
 72
     1
 73
     0
 74
     5
  7

 75
    16
 76
     0
 77
     2
 78
   300
147
1.0
148
0.0
149
0.0
100
AcDbLayout
  1
Layout1
 70
     1
 71
     1
 10
0.0
 20
0.0
 11
420.0
 21
297.0
 12
0.0
 22
0.0
 32
0.0
 14
1.000000000000000E+20
 24
1.000000000000000E+20
 34
1.000000000000000E+20
 15
-1.000000000000000E+20
 25
-1.000000000000000E+20
 35
-1.000000000000000E+20
146
0.0
 13
0.0
 23
0.0
 33
0.0
 16
1.0
 26
0.0
 36
0.0
 17
0.0
 27
1.0
 37
0.0
 76
     0
330
1B
  0
LAYOUT
  5
26
102
{ACAD_REACTORS
330
1A
102
}
330
1A
100
AcDbPlotSettings
  1

  2
none_device
  4

  6

 40
0.0
 41
0.0
 42
0.0
 43
0.0
 44
0.0
 45
0.0
 46
0.0
 47
0.0
 48
0.0
 49
0.0
140
0.0
141
0.0
142
1.0
143
1.0
 70
   688
 72
     1
 73
     0
 74
     5
  7

 75
    16
 76
     0
 77
     2
 78
   300
147
1.0
148
0.0
149
0.0
100
AcDbLayout
  1
Layout2
 70
     1
 71
     2
 10
0.0
 20
0.0
 11
0.0
 21
0.0
 12
0.0
 22
0.0
 32
0.0
 14
0.0
 24
0.0
 34
0.0
 15
0.0
 25
0.0
 35
0.0
146
0.0
 13
0.0
 23
0.0
 33
0.0
 16
1.0
 26
0.0
 36
0.0
 17
0.0
 27
1.0
 37
0.0
 76
     0
330
23
  0
LAYOUT
  5
22
102
{ACAD_REACTORS
330
1A
102
}
330
1A
100
AcDbPlotSettings
  1

  2
none_device
  4
Letter_(8.50_x_11.00_Inches)
  6

 40
6.35
 41
6.35
 42
6.35000508
 43
6.35000508
 44
215.9
 45
279.4
 46
0.0
 47
0.0
 48
0.0
 49
0.0
140
0.0
141
0.0
142
1.0
143
1.0
 70
  1712
 72
     1
 73
     0
 74
     0
  7

 75
     0
 76
     0
 77
     2
 78
   300
147
1.0
148
0.0
149
0.0
100
AcDbLayout
  1
Model
 70
     1
 71
     0
 10
0.0
 20
0.0
 11
420.0
 21
297.0
 12
0.0
 22
0.0
 32
0.0
 14
1.000000000000000E+20
 24
1.000000000000000E+20
 34
1.000000000000000E+20
 15
-1.000000000000000E+20
 25
-1.000000000000000E+20
 35
-1.000000000000000E+20
146
0.0
 13
0.0
 23
0.0
 33
0.0
 16
1.0
 26
0.0
 36
0.0
 17
0.0
 27
1.0
 37
0.0
 76
     0
330
1F
331
29
  0
MATERIAL
  5
45
102
{ACAD_REACTORS
330
43
102
}
330
43
100
AcDbMaterial
  1
ByBlock
 72
     1
 94
      127
  0
MATERIAL
  5
44
102
{ACAD_REACTORS
330
43
102
}
330
43
100
AcDbMaterial
  1
ByLayer
 72
     1
 94
      127
  0
MATERIAL
  5
46
102
{ACAD_REACTORS
330
43
102
}
330
43
100
AcDbMaterial
  1
Global
 72
     1
 94
      127
  0
MLEADERSTYLE
  5
6C
102
{ACAD_REACTORS
330
6B
102
}
330
6B
100
AcDbMLeaderStyle
179
     2
170
     2
171
     1
172
     0
 90
        2
 40
0.0
 41
0.0
173
     1
 91
-1056964608
340
14
 92
       -2
290
     1
 42
2.0
291
     1
 43
8.0
  3
Standard
341
0
 44
4.0
300

342
11
174
     1
178
     6
175
     1
176
     0
 93
-1056964608
 45
4.0
292
     0
297
     0
 46
4.0
343
0
 94
-1056964608
 47
1.0
 49
1.0
140
1.0
293
     1
141
0.0
294
     1
177
     0
142
1.0
295
     0
296
     0
143
3.75
271
     0
272
     9
273
     9
298
     0
  0
MLINESTYLE
  5
18
102
{ACAD_REACTORS
330
17
102
}
330
17
100
AcDbMlineStyle
  2
Standard
 70
     0
  3

 62
   256
 51
90.0
 52
90.0
 71
     2
 49
0.5
 62
   256
  6
BYLAYER
 49
-0.5
 62
   256
  6
BYLAYER
  0
ACDBPLACEHOLDER
  5
F
102
{ACAD_REACTORS
330
E
102
}
330
E
  0
SCALE
  5
48
102
{ACAD_REACTORS
330
47
102
}
330
47
100
AcDbScale
 70
     0
300
1:1
140
1.0
141
1.0
290
     1
  0
SCALE
  5
49
102
{ACAD_REACTORS
330
47
102
}
330
47
100
AcDbScale
 70
     0
300
1:2
140
1.0
141
2.0
290
     0
  0
SCALE
  5
4A
102
{ACAD_REACTORS
330
47
102
}
330
47
100
AcDbScale
 70
     0
300
1:4
140
1.0
141
4.0
290
     0
  0
SCALE
  5
4B
102
{ACAD_REACTORS
330
47
102
}
330
47
100
AcDbScale
 70
     0
300
1:5
140
1.0
141
5.0
290
     0
  0
SCALE
  5
4C
102
{ACAD_REACTORS
330
47
102
}
330
47
100
AcDbScale
 70
     0
300
1:8
140
1.0
141
8.0
290
     0
  0
SCALE
  5
4D
102
{ACAD_REACTORS
330
47
102
}
330
47
100
AcDbScale
 70
     0
300
1:10
140
1.0
141
10.0
290
     0
  0
SCALE
  5
4E
102
{ACAD_REACTORS
330
47
102
}
330
47
100
AcDbScale
 70
     0
300
1:16
140
1.0
141
16.0
290
     0
  0
SCALE
  5
4F
102
{ACAD_REACTORS
330
47
102
}
330
47
100
AcDbScale
 70
     0
300
1:20
140
1.0
141
20.0
290
     0
  0
SCALE
  5
50
102
{ACAD_REACTORS
330
47
102
}
330
47
100
AcDbScale
 70
     0
300
1:30
140
1.0
141
30.0
290
     0
  0
SCALE
  5
51
102
{ACAD_REACTORS
330
47
102
}
330
47
100
AcDbScale
 70
     0
300
1:40
140
1.0
141
40.0
290
     0
  0
SCALE
  5
52
102
{ACAD_REACTORS
330
47
102
}
330
47
100
AcDbScale
 70
     0
300
1:50
140
1.0
141
50.0
290
     0
  0
SCALE
  5
53
102
{ACAD_REACTORS
330
47
102
}
330
47
100
AcDbScale
 70
     0
300
1:100
140
1.0
141
100.0
290
     0
  0
SCALE
  5
54
102
{ACAD_REACTORS
330
47
102
}
330
47
100
AcDbScale
 70
     0
300
2:1
140
2.0
141
1.0
290
     0
  0
SCALE
  5
55
102
{ACAD_REACTORS
330
47
102
}
330
47
100
AcDbScale
 70
     0
300
4:1
140
4.0
141
1.0
290
     0
  0
SCALE
  5
56
102
{ACAD_REACTORS
330
47
102
}
330
47
100
AcDbScale
 70
     0
300
8:1
140
8.0
141
1.0
290
     0
  0
SCALE
  5
57
102
{ACAD_REACTORS
330
47
102
}
330
47
100
AcDbScale
 70
     0
300
10:1
140
10.0
141
1.0
290
     0
  0
SCALE
  5
58
102
{ACAD_REACTORS
330
47
102
}
330
47
100
AcDbScale
 70
     0
300
100:1
140
100.0
141
1.0
290
     0
  0
SCALE
  5
59
102
{ACAD_REACTORS
330
47
102
}
330
47
100
AcDbScale
 70
     0
300
1/128" = 1'-0"
140
0.0078125
141
12.0
290
     0
  0
SCALE
  5
5A
102
{ACAD_REACTORS
330
47
102
}
330
47
100
AcDbScale
 70
     0
300
1/64" = 1'-0"
140
0.015625
141
12.0
290
     0
  0
SCALE
  5
5B
102
{ACAD_REACTORS
330
47
102
}
330
47
100
AcDbScale
 70
     0
300
1/32" = 1'-0"
140
0.03125
141
12.0
290
     0
  0
SCALE
  5
5C
102
{ACAD_REACTORS
330
47
102
}
330
47
100
AcDbScale
 70
     0
300
1/16" = 1'-0"
140
0.0625
141
12.0
290
     0
  0
SCALE
  5
5D
102
{ACAD_REACTORS
330
47
102
}
330
47
100
AcDbScale
 70
     0
300
3/32" = 1'-0"
140
0.09375
141
12.0
290
     0
  0
SCALE
  5
5E
102
{ACAD_REACTORS
330
47
102
}
330
47
100
AcDbScale
 70
     0
300
1/8" = 1'-0"
140
0.125
141
12.0
290
     0
  0
SCALE
  5
5F
102
{ACAD_REACTORS
330
47
102
}
330
47
100
AcDbScale
 70
     0
300
3/16" = 1'-0"
140
0.1875
141
12.0
290
     0
  0
SCALE
  5
60
102
{ACAD_REACTORS
330
47
102
}
330
47
100
AcDbScale
 70
     0
300
1/4" = 1'-0"
140
0.25
141
12.0
290
     0
  0
SCALE
  5
61
102
{ACAD_REACTORS
330
47
102
}
330
47
100
AcDbScale
 70
     0
300
3/8" = 1'-0"
140
0.375
141
12.0
290
     0
  0
SCALE
  5
62
102
{ACAD_REACTORS
330
47
102
}
330
47
100
AcDbScale
 70
     0
300
1/2" = 1'-0"
140
0.5
141
12.0
290
     0
  0
SCALE
  5
63
102
{ACAD_REACTORS
330
47
102
}
330
47
100
AcDbScale
 70
     0
300
3/4" = 1'-0"
140
0.75
141
12.0
290
     0
  0
SCALE
  5
64
102
{ACAD_REACTORS
330
47
102
}
330
47
100
AcDbScale
 70
     0
300
1" = 1'-0"
140
1.0
141
12.0
290
     0
  0
SCALE
  5
65
102
{ACAD_REACTORS
330
47
102
}
330
47
100
AcDbScale
 70
     0
300
1-1/2" = 1'-0"
140
1.5
141
12.0
290
     0
  0
SCALE
  5
66
102
{ACAD_REACTORS
330
47
102
}
330
47
100
AcDbScale
 70
     0
300
3" = 1'-0"
140
3.0
141
12.0
290
     0
  0
SCALE
  5
67
102
{ACAD_REACTORS
330
47
102
}
330
47
100
AcDbScale
 70
     0
300
6" = 1'-0"
140
6.0
141
12.0
290
     0
  0
SCALE
  5
68
102
{ACAD_REACTORS
330
47
102
}
330
47
100
AcDbScale
 70
     0
300
1'-0" = 1'-0"
140
12.0
141
12.0
290
     0
  0
TABLESTYLE
  5
6A
102
{ACAD_REACTORS
330
69
102
}
102
{ACAD_XDICTIONARY
360
200
102
}
330
69
100
AcDbTableStyle
  3
Standard
 70
     0
 71
     0
 40
0.06
 41
0.06
280
     0
281
     0
  7
Standard
140
4.5
170
     2
 62
     0
 63
   257
283
     0
 90
        4
 91
        0
  1

274
    -2
284
     1
 64
     0
275
    -2
285
     1
 65
     0
276
    -2
286
     1
 66
     0
277
    -2
287
     1
 67
     0
278
    -2
288
     1
 68
     0
279
    -2
289
     1
 69
     0
  7
Standard
140
6.0
170
     5
 62
     0
 63
   257
283
     0
 90
        4
 91
        0
  1

274
    -2
284
     1
 64
     0
275
    -2
285
     1
 65
     0
276
    -2
286
     1
 66
     0
277
    -2
287
     1
 67
     0
278
    -2
288
     1
 68
     0
279
    -2
289
     1
 69
     0
  7
Standard
140
4.5
170
     5
 62
     0
 63
   257
283
     0
 90
        4
 91
        0
  1

274
    -2
284
     1
 64
     0
275
    -2
285
     1
 65
     0
276
    -2
286
     1
 66
     0
277
    -2
287
     1
 67
     0
278
    -2
288
     1
 68
     0
279
    -2
289
     1
 69
     0
  0
VISUALSTYLE
  5
2F
102
{ACAD_REACTORS
330
2A
102
}
330
2A
100
AcDbVisualStyle
  2
2dWireframe
 70
     4
177
     3
291
     0
 70
    58
 90
        0
176
     1
 90
        2
176
     1
 90
        0
176
     1
 90
        0
176
     1
 40
0.6
176
     1
 40
30.0
176
     1
 62
     7
420
 16777215
176
     1
 90
        1
176
     1
 90
        4
176
     1
 62
     7
176
     1
 62
   257
176
     1
 90
        1
176
     1
 90
        1
176
     1
 40
1.0
176
     1
 90
        0
176
     1
 62
   257
176
     1
 40
1.0
176
     1
 90
        1
176
     1
 90
        6
176
     1
 90
        2
176
     1
 62
     7
176
     1
 90
        5
176
     1
 90
        0
176
     1
 90
        0
176
     1
290
     0
176
     1
 90
        1
176
     1
 40
0.0
176
     1
 90
        0
176
     1
290
     1
176
     1
290
     1
176
     1
290
     0
176
     1
290
     0
176
     1
290
     0
176
     1
290
     0
176
     1
290
     0
176
     1
290
     0
176
     1
290
     0
176
     1
 90
       50
176
     1
 40
0.0
176
     1
 40
1.0
176
     1
 90
        0
176
     1
 62
    18
420
        0
176
     1
 90
       50
176
     1
 90
        3
176
     1
 62
     5
420
      255
176
     1
290
     0
176
     1
 90
       50
176
     1
 90
       50
176
     1
 90
       50
176
     1
290
     0
176
     1
 90
       50
176
     1
 62
   256
176
     0
 40
1.0
176
     0
 90
        2
176
     1
  1
strokes_ogs.tif
176
     1
290
     0
176
     1
 40
1.0
176
     1
 40
1.0
176
     1
  0
VISUALSTYLE
  5
32
102
{ACAD_REACTORS
330
2A
102
}
330
2A
100
AcDbVisualStyle
  2
Basic
 70
     7
177
     3
291
     1
 70
    58
 90
        1
176
     1
 90
        0
176
     1
 90
        1
176
     1
 90
        0
176
     1
 40
0.6
176
     1
 40
30.0
176
     1
 62
     7
420
 16777215
176
     1
 90
        0
176
     1
 90
        4
176
     1
 62
     7
176
     1
 62
   257
176
     1
 90
        1
176
     1
 90
        1
176
     1
 40
1.0
176
     1
 90
        8
176
     1
 62
     7
176
     1
 40
1.0
176
     1
 90
        1
176
     1
 90
        6
176
     1
 90
        2
176
     1
 62
     7
176
     1
 90
        5
176
     1
 90
        0
176
     1
 90
        0
176
     1
290
     0
176
     1
 90
        1
176
     1
 40
0.0
176
     1
 90
        0
176
     1
290
     0
176
     1
290
     1
176
     1
290
     1
176
     1
290
     0
176
     1
290
     0
176
     1
290
     0
176
     1
290
     0
176
     1
290
     0
176
     1
290
     0
176
     1
 90
       50
176
     1
 40
0.0
176
     1
 40
1.0
176
     1
 90
        0
176
     1
 62
    18
420
        0
176
     1
 90
       50
176
     1
 90
        3
176
     1
 62
     5
420
      255
176
     1
290
     0
176
     1
 90
       50
176
     1
 90
       50
176
     1
 90
       50
176
     1
290
     0
176
     1
 90
       50
176
     1
 62
   256
176
     0
 40
1.0
176
     0
 90
        2
176
     1
  1
strokes_ogs.tif
176
     1
290
     0
176
     1
 40
1.0
176
     1
 40
1.0
176
     1
  0
VISUALSTYLE
  5
36
102
{ACAD_REACTORS
330
2A
102
}
330
2A
100
AcDbVisualStyle
  2
Brighten
 70
    12
177
     3
291
     1
 70
    58
 90
        2
176
     1
 90
        2
176
     1
 90
        0
176
     1
 90
        0
176
     1
 40
0.6
176
     1
 40
30.0
176
     1
 62
     7
420
 16777215
176
     1
 90
        1
176
     1
 90
        4
176
     1
 62
     7
176
     1
 62
   257
176
     1
 90
        1
176
     1
 90
        1
176
     1
 40
1.0
176
     1
 90
        8
176
     1
 62
     7
176
     1
 40
1.0
176
     1
 90
        1
176
     1
 90
        6
176
     1
 90
        2
176
     1
 62
     7
176
     1
 90
        5
176
     1
 90
        0
176
     1
 90
        0
176
     1
290
     0
176
     1
 90
        1
176
     1
 40
50.0
176
     1
 90
        0
176
     1
290
     0
176
     1
290
     1
176
     1
290
     1
176
     1
290
     0
176
     1
290
     0
176
     1
290
     0
176
     1
290
     0
176
     1
290
     0
176
     1
290
     0
176
     1
 90
       50
176
     1
 40
0.0
176
     1
 40
1.0
176
     1
 90
        0
176
     1
 62
    18
420
        0
176
     1
 90
       50
176
     1
 90
        3
176
     1
 62
     5
420
      255
176
     1
290
     0
176
     1
 90
       50
176
     1
 90
       50
176
     1
 90
       50
176
     1
290
     0
176
     1
 90
       50
176
     1
 62
   256
176
     0
 40
1.0
176
     0
 90
        2
176
     1
  1
strokes_ogs.tif
176
     1
290
     0
176
     1
 40
1.0
176
     1
 40
1.0
176
     1
  0
VISUALSTYLE
  5
3A
102
{ACAD_REACTORS
330
2A
102
}
330
2A
100
AcDbVisualStyle
  2
ColorChange
 70
    16
177
     3
291
     1
 70
    58
 90
        2
176
     1
 90
        2
176
     1
 90
        3
176
     1
 90
        0
176
     1
 40
0.6
176
     1
 40
30.0
176
     1
 62
     8
420
  8421504
176
     1
 90
        1
176
     1
 90
        4
176
     1
 62
     7
176
     1
 62
   257
176
     1
 90
        1
176
     1
 90
        1
176
     1
 40
1.0
176
     1
 90
        8
176
     1
 62
     8
420
  8421504
176
     1
 40
1.0
176
     1
 90
        1
176
     1
 90
        6
176
     1
 90
        2
176
     1
 62
     7
176
     1
 90
        5
176
     1
 90
        0
176
     1
 90
        0
176
     1
290
     0
176
     1
 90
        1
176
     1
 40
0.0
176
     1
 90
        0
176
     1
290
     0
176
     1
290
     1
176
     1
290
     1
176
     1
290
     0
176
     1
290
     0
176
     1
290
     0
176
     1
290
     0
176
     1
290
     0
176
     1
290
     0
176
     1
 90
       50
176
     1
 40
0.0
176
     1
 40
1.0
176
     1
 90
        0
176
     1
 62
    18
420
        0
176
     1
 90
       50
176
     1
 90
        3
176
     1
 62
     5
420
      255
176
     1
290
     0
176
     1
 90
       50
176
     1
 90
       50
176
     1
 90
       50
176
     1
290
     0
176
     1
 90
       50
176
     1
 62
   256
176
     0
 40
1.0
176
     0
 90
        2
176
     1
  1
strokes_ogs.tif
176
     1
290
     0
176
     1
 40
1.0
176
     1
 40
1.0
176
     1
  0
VISUALSTYLE
  5
34
102
{ACAD_REACTORS
330
2A
102
}
330
2A
100
AcDbVisualStyle
  2
Conceptual
 70
     9
177
     3
291
     0
 70
    58
 90
        3
176
     1
 90
        2
176
     1
 90
        0
176
     1
 90
        0
176
     1
 40
0.6
176
     1
 40
30.0
176
     1
 62
     7
420
 16777215
176
     1
 90
        2
176
     1
 90
        2
176
     1
 62
     7
176
     1
 62
   257
176
     1
 90
        1
176
     1
 90
        1
176
     1
 40
179.0
176
     1
 90
        8
176
     1
 62
     7
176
     1
 40
1.0
176
     1
 90
        1
176
     1
 90
        6
176
     1
 90
        2
176
     1
 62
     7
176
     1
 90
        3
176
     1
 90
        0
176
     1
 90
        0
176
     1
290
     0
176
     1
 90
        1
176
     1
 40
0.0
176
     1
 90
        0
176
     1
290
     0
176
     1
290
     1
176
     1
290
     1
176
     1
290
     0
176
     1
290
     0
176
     1
290
     0
176
     1
290
     0
176
     1
290
     0
176
     1
290
     0
176
     1
 90
       50
176
     1
 40
0.0
176
     1
 40
1.0
176
     1
 90
        0
176
     1
 62
    18
420
        0
176
     1
 90
       50
176
     1
 90
        3
176
     1
 62
     5
420
      255
176
     1
290
     0
176
     1
 90
       50
176
     1
 90
       50
176
     1
 90
       50
176
     1
290
     0
176
     1
 90
       50
176
     1
 62
   256
176
     0
 40
1.0
176
     0
 90
        2
176
     1
  1
strokes_ogs.tif
176
     1
290
     0
176
     1
 40
1.0
176
     1
 40
1.0
176
     1
  0
VISUALSTYLE
  5
35
102
{ACAD_REACTORS
330
2A
102
}
330
2A
100
AcDbVisualStyle
  2
Dim
 70
    11
177
     3
291
     1
 70
    58
 90
        2
176
     1
 90
        2
176
     1
 90
        0
176
     1
 90
        0
176
     1
 40
0.6
176
     1
 40
30.0
176
     1
 62
     7
420
 16777215
176
     1
 90
        1
176
     1
 90
        4
176
     1
 62
     7
176
     1
 62
   257
176
     1
 90
        1
176
     1
 90
        1
176
     1
 40
1.0
176
     1
 90
        8
176
     1
 62
     7
176
     1
 40
1.0
176
     1
 90
        1
176
     1
 90
        6
176
     1
 90
        2
176
     1
 62
     7
176
     1
 90
        5
176
     1
 90
        0
176
     1
 90
        0
176
     1
290
     0
176
     1
 90
        1
176
     1
 40
-50.0
176
     1
 90
        0
176
     1
290
     0
176
     1
290
     1
176
     1
290
     1
176
     1
290
     0
176
     1
290
     0
176
     1
290
     0
176
     1
290
     0
176
     1
290
     0
176
     1
290
     0
176
     1
 90
       50
176
     1
 40
0.0
176
     1
 40
1.0
176
     1
 90
        0
176
     1
 62
    18
420
        0
176
     1
 90
       50
176
     1
 90
        3
176
     1
 62
     5
420
      255
176
     1
290
     0
176
     1
 90
       50
176
     1
 90
       50
176
     1
 90
       50
176
     1
290
     0
176
     1
 90
       50
176
     1
 62
   256
176
     0
 40
1.0
176
     0
 90
        2
176
     1
  1
strokes_ogs.tif
176
     1
290
     0
176
     1
 40
1.0
176
     1
 40
1.0
176
     1
  0
VISUALSTYLE
  5
3D
102
{ACAD_REACTORS
330
2A
102
}
330
2A
100
AcDbVisualStyle
  2
EdgeColorOff
 70
    22
177
     3
291
     1
 70
    58
 90
        2
176
     0
 90
        2
176
     0
 90
        0
176
     0
 90
        0
176
     0
 40
0.6
176
     0
 40
30.0
176
     0
 62
     7
420
 16777215
176
     0
 90
        1
176
     0
 90
        4
176
     0
 62
     7
176
     0
 62
   257
176
     0
 90
        1
176
     0
 90
        1
176
     0
 40
1.0
176
     0
 90
        8
176
     2
 62
     7
176
     0
 40
1.0
176
     0
 90
        1
176
     0
 90
        6
176
     0
 90
        2
176
     0
 62
     7
176
     0
 90
        5
176
     0
 90
        0
176
     0
 90
        0
176
     0
290
     0
176
     0
 90
        1
176
     0
 40
0.0
176
     0
 90
        0
176
     0
290
     0
176
     0
290
     1
176
     0
290
     1
176
     0
290
     0
176
     0
290
     0
176
     0
290
     0
176
     0
290
     0
176
     0
290
     0
176
     0
290
     0
176
     0
 90
       50
176
     0
 40
0.0
176
     0
 40
1.0
176
     0
 90
        0
176
     0
 62
    18
420
        0
176
     0
 90
       50
176
     0
 90
        3
176
     0
 62
     5
420
      255
176
     0
290
     0
176
     0
 90
       50
176
     0
 90
       50
176
     0
 90
       50
176
     0
290
     0
176
     0
 90
       50
176
     0
 62
   256
176
     0
 40
1.0
176
     0
 90
        2
176
     0
  1
strokes_ogs.tif
176
     0
290
     0
176
     0
 40
1.0
176
     0
 40
1.0
176
     0
  0
VISUALSTYLE
  5
39
102
{ACAD_REACTORS
330
2A
102
}
330
2A
100
AcDbVisualStyle
  2
Facepattern
 70
    15
177
     3
291
     1
 70
    58
 90
        2
176
     1
 90
        2
176
     1
 90
        0
176
     1
 90
        0
176
     1
 40
0.6
176
     1
 40
30.0
176
     1
 62
     7
420
 16777215
176
     1
 90
        1
176
     1
 90
        4
176
     1
 62
     7
176
     1
 62
   257
176
     1
 90
        1
176
     1
 90
        1
176
     1
 40
1.0
176
     1
 90
        8
176
     1
 62
     7
176
     1
 40
1.0
176
     1
 90
        1
176
     1
 90
        6
176
     1
 90
        2
176
     1
 62
     7
176
     1
 90
        5
176
     1
 90
        0
176
     1
 90
        0
176
     1
290
     0
176
     1
 90
        1
176
     1
 40
0.0
176
     1
 90
        0
176
     1
290
     0
176
     1
290
     1
176
     1
290
     1
176
     1
290
     0
176
     1
290
     0
176
     1
290
     0
176
     1
290
     0
176
     1
290
     0
176
     1
290
     0
176
     1
 90
       50
176
     1
 40
0.0
176
     1
 40
1.0
176
     1
 90
        0
176
     1
 62
    18
420
        0
176
     1
 90
       50
176
     1
 90
        3
176
     1
 62
     5
420
      255
176
     1
290
     0
176
     1
 90
       50
176
     1
 90
       50
176
     1
 90
       50
176
     1
290
     0
176
     1
 90
       50
176
     1
 62
   256
176
     0
 40
1.0
176
     0
 90
        2
176
     1
  1
strokes_ogs.tif
176
     1
290
     0
176
     1
 40
1.0
176
     1
 40
1.0
176
     1
  0
VISUALSTYLE
  5
2B
102
{ACAD_REACTORS
330
2A
102
}
330
2A
100
AcDbVisualStyle
  2
Flat
 70
     0
177
     3
291
     1
 70
    58
 90
        2
176
     1
 90
        1
176
     1
 90
        1
176
     1
 90
        2
176
     1
 40
0.6
176
     1
 40
30.0
176
     1
 62
     7
420
 16777215
176
     1
 90
        0
176
     1
 90
        0
176
     1
 62
     7
176
     1
 62
   257
176
     1
 90
        1
176
     1
 90
        1
176
     1
 40
1.0
176
     1
 90
        8
176
     1
 62
     7
176
     1
 40
1.0
176
     1
 90
        1
176
     1
 90
        6
176
     1
 90
        2
176
     1
 62
     7
176
     1
 90
        5
176
     1
 90
        0
176
     1
 90
        0
176
     1
290
     0
176
     1
 90
       13
176
     1
 40
0.0
176
     1
 90
        0
176
     1
290
     0
176
     1
290
     1
176
     1
290
     1
176
     1
290
     0
176
     1
290
     0
176
     1
290
     0
176
     1
290
     0
176
     1
290
     0
176
     1
290
     0
176
     1
 90
       50
176
     1
 40
0.0
176
     1
 40
1.0
176
     1
 90
        0
176
     1
 62
    18
420
        0
176
     1
 90
       50
176
     1
 90
        3
176
     1
 62
     5
420
      255
176
     1
290
     0
176
     1
 90
       50
176
     1
 90
       50
176
     1
 90
       50
176
     1
290
     0
176
     1
 90
       50
176
     1
 62
   256
176
     0
 40
1.0
176
     0
 90
        2
176
     1
  1
strokes_ogs.tif
176
     1
290
     0
176
     1
 40
1.0
176
     1
 40
1.0
176
     1
  0
VISUALSTYLE
  5
2C
102
{ACAD_REACTORS
330
2A
102
}
330
2A
100
AcDbVisualStyle
  2
FlatWithEdges
 70
     1
177
     3
291
     1
 70
    58
 90
        2
176
     1
 90
        1
176
     1
 90
        1
176
     1
 90
        2
176
     1
 40
0.6
176
     1
 40
30.0
176
     1
 62
     7
420
 16777215
176
     1
 90
        1
176
     1
 90
        0
176
     1
 62
     7
176
     1
 62
   257
176
     1
 90
        1
176
     1
 90
        1
176
     1
 40
1.0
176
     1
 90
        0
176
     1
 62
   257
176
     1
 40
1.0
176
     1
 90
        1
176
     1
 90
        6
176
     1
 90
        2
176
     1
 62
     7
176
     1
 90
        5
176
     1
 90
        0
176
     1
 90
        0
176
     1
290
     0
176
     1
 90
       13
176
     1
 40
0.0
176
     1
 90
        0
176
     1
290
     0
176
     1
290
     1
176
     1
290
     1
176
     1
290
     0
176
     1
290
     0
176
     1
290
     0
176
     1
290
     0
176
     1
290
     0
176
     1
290
     0
176
     1
 90
       50
176
     1
 40
0.0
176
     1
 40
1.0
176
     1
 90
        0
176
     1
 62
    18
420
        0
176
     1
 90
       50
176
     1
 90
        3
176
     1
 62
     5
420
      255
176
     1
290
     0
176
     1
 90
       50
176
     1
 90
       50
176
     1
 90
       50
176
     1
290
     0
176
     1
 90
       50
176
     1
 62
   256
176
     0
 40
1.0
176
     0
 90
        2
176
     1
  1
strokes_ogs.tif
176
     1
290
     0
176
     1
 40
1.0
176
     1
 40
1.0
176
     1
  0
VISUALSTYLE
  5
2D
102
{ACAD_REACTORS
330
2A
102
}
330
2A
100
AcDbVisualStyle
  2
Gouraud
 70
     2
177
     3
291
     1
 70
    58
 90
        2
176
     1
 90
        2
176
     1
 90
        1
176
     1
 90
        2
176
     1
 40
0.6
176
     1
 40
30.0
176
     1
 62
     7
420
 16777215
176
     1
 90
        0
176
     1
 90
        0
176
     1
 62
     7
176
     1
 62
   257
176
     1
 90
        1
176
     1
 90
        1
176
     1
 40
1.0
176
     1
 90
        0
176
     1
 62
     7
176
     1
 40
1.0
176
     1
 90
        1
176
     1
 90
        6
176
     1
 90
        2
176
     1
 62
     7
176
     1
 90
        5
176
     1
 90
        0
176
     1
 90
        0
176
     1
290
     0
176
     1
 90
       13
176
     1
 40
0.0
176
     1
 90
        0
176
     1
290
     0
176
     1
290
     1
176
     1
290
     1
176
     1
290
     0
176
     1
290
     0
176
     1
290
     0
176
     1
290
     0
176
     1
290
     0
176
     1
290
     0
176
     1
 90
       50
176
     1
 40
0.0
176
     1
 40
1.0
176
     1
 90
        0
176
     1
 62
    18
420
        0
176
     1
 90
       50
176
     1
 90
        3
176
     1
 62
     5
420
      255
176
     1
290
     0
176
     1
 90
       50
176
     1
 90
       50
176
     1
 90
       50
176
     1
290
     0
176
     1
 90
       50
176
     1
 62
   256
176
     0
 40
1.0
176
     0
 90
        2
176
     1
  1
strokes_ogs.tif
176
     1
290
     0
176
     1
 40
1.0
176
     1
 40
1.0
176
     1
  0
VISUALSTYLE
  5
2E
102
{ACAD_REACTORS
330
2A
102
}
330
2A
100
AcDbVisualStyle
  2
GouraudWithEdges
 70
     3
177
     3
291
     1
 70
    58
 90
        2
176
     1
 90
        2
176
     1
 90
        1
176
     1
 90
        2
176
     1
 40
0.6
176
     1
 40
30.0
176
     1
 62
     7
420
 16777215
176
     1
 90
        1
176
     1
 90
        0
176
     1
 62
     7
176
     1
 62
   257
176
     1
 90
        1
176
     1
 90
        1
176
     1
 40
1.0
176
     1
 90
        0
176
     1
 62
   257
176
     1
 40
1.0
176
     1
 90
        1
176
     1
 90
        6
176
     1
 90
        2
176
     1
 62
     7
176
     1
 90
        5
176
     1
 90
        0
176
     1
 90
        0
176
     1
290
     0
176
     1
 90
       13
176
     1
 40
0.0
176
     1
 90
        0
176
     1
290
     0
176
     1
290
     1
176
     1
290
     1
176
     1
290
     0
176
     1
290
     0
176
     1
290
     0
176
     1
290
     0
176
     1
290
     0
176
     1
290
     0
176
     1
 90
       50
176
     1
 40
0.0
176
     1
 40
1.0
176
     1
 90
        0
176
     1
 62
    18
420
        0
176
     1
 90
       50
176
     1
 90
        3
176
     1
 62
     5
420
      255
176
     1
290
     0
176
     1
 90
       50
176
     1
 90
       50
176
     1
 90
       50
176
     1
290
     0
176
     1
 90
       50
176
     1
 62
   256
176
     0
 40
1.0
176
     0
 90
        2
176
     1
  1
strokes_ogs.tif
176
     1
290
     0
176
     1
 40
1.0
176
     1
 40
1.0
176
     1
  0
VISUALSTYLE
  5
31
102
{ACAD_REACTORS
330
2A
102
}
330
2A
100
AcDbVisualStyle
  2
Hidden
 70
     6
177
     3
291
     0
 70
    58
 90
        1
176
     1
 90
        2
176
     1
 90
        2
176
     1
 90
        0
176
     1
 40
0.6
176
     1
 40
30.0
176
     1
 62
     7
420
 16777215
176
     1
 90
        2
176
     1
 90
        2
176
     1
 62
     7
176
     1
 62
   257
176
     1
 90
        2
176
     1
 90
        1
176
     1
 40
40.0
176
     1
 90
        0
176
     1
 62
   257
176
     1
 40
1.0
176
     1
 90
        1
176
     1
 90
        6
176
     1
 90
        2
176
     1
 62
     7
176
     1
 90
        3
176
     1
 90
        0
176
     1
 90
        0
176
     1
290
     0
176
     1
 90
        1
176
     1
 40
0.0
176
     1
 90
        0
176
     1
290
     0
176
     1
290
     1
176
     1
290
     1
176
     1
290
     0
176
     1
290
     0
176
     1
290
     0
176
     1
290
     0
176
     1
290
     0
176
     1
290
     0
176
     1
 90
       50
176
     1
 40
0.0
176
     1
 40
1.0
176
     1
 90
        0
176
     1
 62
    18
420
        0
176
     1
 90
       50
176
     1
 90
        3
176
     1
 62
     5
420
      255
176
     1
290
     0
176
     1
 90
       50
176
     1
 90
       50
176
     1
 90
       50
176
     1
290
     0
176
     1
 90
       50
176
     1
 62
   256
176
     0
 40
1.0
176
     0
 90
        2
176
     1
  1
strokes_ogs.tif
176
     1
290
     0
176
     1
 40
1.0
176
     1
 40
1.0
176
     1
  0
VISUALSTYLE
  5
3B
102
{ACAD_REACTORS
330
2A
102
}
330
2A
100
AcDbVisualStyle
  2
JitterOff
 70
    20
177
     3
291
     1
 70
    58
 90
        2
176
     0
 90
        2
176
     0
 90
        0
176
     0
 90
        0
176
     0
 40
0.6
176
     0
 40
30.0
176
     0
 62
     7
420
 16777215
176
     0
 90
        1
176
     0
 90
        4
176
     0
 62
     7
176
     0
 62
   257
176
     0
 90
        1
176
     0
 90
        1
176
     0
 40
1.0
176
     0
 90
       10
176
     2
 62
     7
176
     0
 40
1.0
176
     0
 90
        1
176
     0
 90
        6
176
     0
 90
        2
176
     0
 62
     7
176
     0
 90
        5
176
     0
 90
        0
176
     0
 90
        0
176
     0
290
     0
176
     0
 90
        1
176
     0
 40
0.0
176
     0
 90
        0
176
     0
290
     0
176
     0
290
     1
176
     0
290
     1
176
     0
290
     0
176
     0
290
     0
176
     0
290
     0
176
     0
290
     0
176
     0
290
     0
176
     0
290
     0
176
     0
 90
       50
176
     0
 40
0.0
176
     0
 40
1.0
176
     0
 90
        0
176
     0
 62
    18
420
        0
176
     0
 90
       50
176
     0
 90
        3
176
     0
 62
     5
420
      255
176
     0
290
     0
176
     0
 90
       50
176
     0
 90
       50
176
     0
 90
       50
176
     0
290
     0
176
     0
 90
       50
176
     0
 62
   256
176
     0
 40
1.0
176
     0
 90
        2
176
     0
  1
strokes_ogs.tif
176
     0
290
     0
176
     0
 40
1.0
176
     0
 40
1.0
176
     0
  0
VISUALSTYLE
  5
38
102
{ACAD_REACTORS
330
2A
102
}
330
2A
100
AcDbVisualStyle
  2
Linepattern
 70
    14
177
     3
291
     1
 70
    58
 90
        2
176
     1
 90
        2
176
     1
 90
        0
176
     1
 90
        0
176
     1
 40
0.6
176
     1
 40
30.0
176
     1
 62
     7
420
 16777215
176
     1
 90
        1
176
     1
 90
        4
176
     1
 62
     7
176
     1
 62
   257
176
     1
 90
        7
176
     1
 90
        7
176
     1
 40
1.0
176
     1
 90
        8
176
     1
 62
     7
176
     1
 40
1.0
176
     1
 90
        1
176
     1
 90
        6
176
     1
 90
        2
176
     1
 62
     7
176
     1
 90
        5
176
     1
 90
        0
176
     1
 90
        0
176
     1
290
     0
176
     1
 90
        1
176
     1
 40
0.0
176
     1
 90
        0
176
     1
290
     0
176
     1
290
     1
176
     1
290
     1
176
     1
290
     0
176
     1
290
     0
176
     1
290
     0
176
     1
290
     0
176
     1
290
     0
176
     1
290
     0
176
     1
 90
       50
176
     1
 40
0.0
176
     1
 40
1.0
176
     1
 90
        0
176
     1
 62
    18
420
        0
176
     1
 90
       50
176
     1
 90
        3
176
     1
 62
     5
420
      255
176
     1
290
     0
176
     1
 90
       50
176
     1
 90
       50
176
     1
 90
       50
176
     1
290
     0
176
     1
 90
       50
176
     1
 62
   256
176
     0
 40
1.0
176
     0
 90
        2
176
     1
  1
strokes_ogs.tif
176
     1
290
     0
176
     1
 40
1.0
176
     1
 40
1.0
176
     1
  0
VISUALSTYLE
  5
3C
102
{ACAD_REACTORS
330
2A
102
}
330
2A
100
AcDbVisualStyle
  2
OverhangOff
 70
    21
177
     3
291
     1
 70
    58
 90
        2
176
     0
 90
        2
176
     0
 90
        0
176
     0
 90
        0
176
     0
 40
0.6
176
     0
 40
30.0
176
     0
 62
     7
420
 16777215
176
     0
 90
        1
176
     0
 90
        4
176
     0
 62
     7
176
     0
 62
   257
176
     0
 90
        1
176
     0
 90
        1
176
     0
 40
1.0
176
     0
 90
        9
176
     2
 62
     7
176
     0
 40
1.0
176
     0
 90
        1
176
     0
 90
        6
176
     0
 90
        2
176
     0
 62
     7
176
     0
 90
        5
176
     0
 90
        0
176
     0
 90
        0
176
     0
290
     0
176
     0
 90
        1
176
     0
 40
0.0
176
     0
 90
        0
176
     0
290
     0
176
     0
290
     1
176
     0
290
     1
176
     0
290
     0
176
     0
290
     0
176
     0
290
     0
176
     0
290
     0
176
     0
290
     0
176
     0
290
     0
176
     0
 90
       50
176
     0
 40
0.0
176
     0
 40
1.0
176
     0
 90
        0
176
     0
 62
    18
420
        0
176
     0
 90
       50
176
     0
 90
        3
176
     0
 62
     5
420
      255
176
     0
290
     0
176
     0
 90
       50
176
     0
 90
       50
176
     0
 90
       50
176
     0
290
     0
176
     0
 90
       50
176
     0
 62
   256
176
     0
 40
1.0
176
     0
 90
        2
176
     0
  1
strokes_ogs.tif
176
     0
290
     0
176
     0
 40
1.0
176
     0
 40
1.0
176
     0
  0
VISUALSTYLE
  5
33
102
{ACAD_REACTORS
330
2A
102
}
330
2A
100
AcDbVisualStyle
  2
Realistic
 70
     8
177
     3
291
     0
 70
    58
 90
        2
176
     1
 90
        3
176
     1
 90
        0
176
     1
 90
        2
176
     1
 40
0.6
176
     1
 40
30.0
176
     1
 62
     7
420
 16777215
176
     1
 90
        0
176
     1
 90
        0
176
     1
 62
     7
176
     1
 62
   257
176
     1
 90
        1
176
     1
 90
        1
176
     1
 40
1.0
176
     1
 90
        8
176
     1
 62
   257
176
     1
 40
1.0
176
     1
 90
        1
176
     1
 90
        6
176
     1
 90
        2
176
     1
 62
     7
176
     1
 90
        3
176
     1
 90
        0
176
     1
 90
        0
176
     1
290
     0
176
     1
 90
       13
176
     1
 40
0.0
176
     1
 90
        0
176
     1
290
     0
176
     1
290
     1
176
     1
290
     1
176
     1
290
     0
176
     1
290
     0
176
     1
290
     0
176
     1
290
     0
176
     1
290
     0
176
     1
290
     0
176
     1
 90
       50
176
     1
 40
0.0
176
     1
 40
1.0
176
     1
 90
        0
176
     1
 62
    18
420
        0
176
     1
 90
       50
176
     1
 90
        3
176
     1
 62
     5
420
      255
176
     1
290
     0
176
     1
 90
       50
176
     1
 90
       50
176
     1
 90
       50
176
     1
290
     0
176
     1
 90
       50
176
     1
 62
   256
176
     0
 40
1.0
176
     0
 90
        2
176
     1
  1
strokes_ogs.tif
176
     1
290
     0
176
     1
 40
1.0
176
     1
 40
1.0
176
     1
  0
VISUALSTYLE
  5
42
102
{ACAD_REACTORS
330
2A
102
}
330
2A
100
AcDbVisualStyle
  2
Shaded
 70
    27
177
     3
291
     0
 70
    58
 90
        2
176
     1
 90
        2
176
     1
 90
        1
176
     1
 90
        2
176
     1
 40
0.6
176
     1
 40
30.0
176
     1
 62
     7
420
 16777215
176
     1
 90
        0
176
     1
 90
        4
176
     1
 62
     7
176
     1
 62
   257
176
     1
 90
        1
176
     1
 90
        1
176
     1
 40
1.0
176
     1
 90
        8
176
     1
 62
   257
176
     1
 40
1.0
176
     1
 90
        1
176
     1
 90
        6
176
     1
 90
        2
176
     1
 62
     8
420
  7895160
176
     1
 90
        3
176
     1
 90
        0
176
     1
 90
        0
176
     1
290
     0
176
     1
 90
        5
176
     1
 40
0.0
176
     1
 90
        0
176
     1
290
     0
176
     1
290
     1
176
     1
290
     1
176
     1
290
     0
176
     1
290
     0
176
     1
290
     0
176
     1
290
     0
176
     1
290
     0
176
     1
290
     0
176
     1
 90
       50
176
     1
 40
0.0
176
     1
 40
1.0
176
     1
 90
        0
176
     1
 62
    18
420
        0
176
     1
 90
       50
176
     1
 90
        3
176
     1
 62
     5
420
      255
176
     1
290
     0
176
     1
 90
       50
176
     1
 90
       50
176
     1
 90
       50
176
     1
290
     0
176
     1
 90
       50
176
     1
 62
   256
176
     0
 40
1.0
176
     0
 90
        2
176
     1
  1
strokes_ogs.tif
176
     1
290
     0
176
     1
 40
1.0
176
     1
 40
1.0
176
     1
  0
VISUALSTYLE
  5
41
102
{ACAD_REACTORS
330
2A
102
}
330
2A
100
AcDbVisualStyle
  2
Shaded with edges
 70
    26
177
     3
291
     0
 70
    58
 90
        2
176
     1
 90
        2
176
     1
 90
        1
176
     1
 90
        2
176
     1
 40
0.6
176
     1
 40
30.0
176
     1
 62
     7
420
 16777215
176
     1
 90
        1
176
     1
 90
       10
176
     1
 62
     7
176
     1
 62
   257
176
     1
 90
        2
176
     1
 90
        1
176
     1
 40
1.0
176
     1
 90
        8
176
     1
 62
   257
176
     1
 40
1.0
176
     1
 90
        1
176
     1
 90
        6
176
     1
 90
        2
176
     1
 62
     7
176
     1
 90
        3
176
     1
 90
        0
176
     1
 90
        0
176
     1
290
     0
176
     1
 90
        5
176
     1
 40
0.0
176
     1
 90
        0
176
     1
290
     0
176
     1
290
     1
176
     1
290
     1
176
     1
290
     0
176
     1
290
     0
176
     1
290
     0
176
     1
290
     0
176
     1
290
     0
176
     1
290
     0
176
     1
 90
       50
176
     1
 40
0.0
176
     1
 40
1.0
176
     1
 90
        0
176
     1
 62
    18
420
        0
176
     1
 90
       50
176
     1
 90
        3
176
     1
 62
     5
420
      255
176
     1
290
     0
176
     1
 90
       50
176
     1
 90
       50
176
     1
 90
       50
176
     1
290
     0
176
     1
 90
       50
176
     1
 62
   256
176
     0
 40
1.0
176
     0
 90
        2
176
     1
  1
strokes_ogs.tif
176
     1
290
     0
176
     1
 40
1.0
176
     1
 40
1.0
176
     1
  0
VISUALSTYLE
  5
3E
102
{ACAD_REACTORS
330
2A
102
}
330
2A
100
AcDbVisualStyle
  2
Shades of Gray
 70
    23
177
     3
291
     0
 70
    58
 90
        2
176
     1
 90
        2
176
     1
 90
        3
176
     1
 90
        0
176
     1
 40
0.6
176
     1
 40
30.0
176
     1
 62
     7
420
 16777215
176
     1
 90
        2
176
     1
 90
        2
176
     1
 62
     7
176
     1
 62
     7
176
     1
 90
        1
176
     1
 90
        1
176
     1
 40
40.0
176
     1
 90
        8
176
     1
 62
     7
176
     1
 40
1.0
176
     1
 90
        1
176
     1
 90
        6
176
     1
 90
        2
176
     1
 62
     7
176
     1
 90
        3
176
     1
 90
        0
176
     1
 90
        0
176
     1
290
     0
176
     1
 90
        1
176
     1
 40
0.0
176
     1
 90
        0
176
     1
290
     0
176
     1
290
     1
176
     1
290
     1
176
     1
290
     0
176
     1
290
     0
176
     1
290
     0
176
     1
290
     0
176
     1
290
     0
176
     1
290
     0
176
     1
 90
       50
176
     1
 40
0.0
176
     1
 40
1.0
176
     1
 90
        0
176
     1
 62
    18
420
        0
176
     1
 90
       50
176
     1
 90
        3
176
     1
 62
     5
420
      255
176
     1
290
     0
176
     1
 90
       50
176
     1
 90
       50
176
     1
 90
       50
176
     1
290
     0
176
     1
 90
       50
176
     1
 62
   256
176
     0
 40
1.0
176
     0
 90
        2
176
     1
  1
strokes_ogs.tif
176
     1
290
     0
176
     1
 40
1.0
176
     1
 40
1.0
176
     1
  0
VISUALSTYLE
  5
3F
102
{ACAD_REACTORS
330
2A
102
}
330
2A
100
AcDbVisualStyle
  2
Sketchy
 70
    24
177
     3
291
     0
 70
    58
 90
        1
176
     1
 90
        2
176
     1
 90
        2
176
     1
 90
        0
176
     1
 40
0.6
176
     1
 40
30.0
176
     1
 62
     7
420
 16777215
176
     1
 90
        2
176
     1
 90
        2
176
     1
 62
     7
176
     1
 62
     7
176
     1
 90
        1
176
     1
 90
        1
176
     1
 40
40.0
176
     1
 90
       11
176
     1
 62
     7
176
     1
 40
1.0
176
     1
 90
        1
176
     1
 90
        6
176
     1
 90
        2
176
     1
 62
     7
176
     1
 90
        6
176
     1
 90
        0
176
     1
 90
        0
176
     1
290
     0
176
     1
 90
        1
176
     1
 40
0.0
176
     1
 90
        0
176
     1
290
     0
176
     1
290
     1
176
     1
290
     1
176
     1
290
     0
176
     1
290
     0
176
     1
290
     0
176
     1
290
     0
176
     1
290
     0
176
     1
290
     0
176
     1
 90
       50
176
     1
 40
0.0
176
     1
 40
1.0
176
     1
 90
        0
176
     1
 62
    18
420
        0
176
     1
 90
       50
176
     1
 90
        3
176
     1
 62
     5
420
      255
176
     1
290
     0
176
     1
 90
       50
176
     1
 90
       50
176
     1
 90
       50
176
     1
290
     0
176
     1
 90
       50
176
     1
 62
   256
176
     0
 40
1.0
176
     0
 90
        2
176
     1
  1
strokes_ogs.tif
176
     1
290
     0
176
     1
 40
1.0
176
     1
 40
1.0
176
     1
  0
VISUALSTYLE
  5
37
102
{ACAD_REACTORS
330
2A
102
}
330
2A
100
AcDbVisualStyle
  2
Thicken
 70
    13
177
     3
291
     1
 70
    58
 90
        2
176
     1
 90
        2
176
     1
 90
        0
176
     1
 90
        0
176
     1
 40
0.6
176
     1
 40
30.0
176
     1
 62
     7
420
 16777215
176
     1
 90
        1
176
     1
 90
        4
176
     1
 62
     7
176
     1
 62
   257
176
     1
 90
        1
176
     1
 90
        1
176
     1
 40
1.0
176
     1
 90
       12
176
     1
 62
     7
176
     1
 40
1.0
176
     1
 90
        1
176
     1
 90
        6
176
     1
 90
        2
176
     1
 62
     7
176
     1
 90
        5
176
     1
 90
        0
176
     1
 90
        0
176
     1
290
     0
176
     1
 90
        1
176
     1
 40
0.0
176
     1
 90
        0
176
     1
290
     0
176
     1
290
     1
176
     1
290
     1
176
     1
290
     0
176
     1
290
     0
176
     1
290
     0
176
     1
290
     0
176
     1
290
     0
176
     1
290
     0
176
     1
 90
       50
176
     1
 40
0.0
176
     1
 40
1.0
176
     1
 90
        0
176
     1
 62
    18
420
        0
176
     1
 90
       50
176
     1
 90
        3
176
     1
 62
     5
420
      255
176
     1
290
     0
176
     1
 90
       50
176
     1
 90
       50
176
     1
 90
       50
176
     1
290
     0
176
     1
 90
       50
176
     1
 62
   256
176
     0
 40
1.0
176
     0
 90
        2
176
     1
  1
strokes_ogs.tif
176
     1
290
     0
176
     1
 40
1.0
176
     1
 40
1.0
176
     1
  0
VISUALSTYLE
  5
30
102
{ACAD_REACTORS
330
2A
102
}
330
2A
100
AcDbVisualStyle
  2
Wireframe
 70
     5
177
     3
291
     0
 70
    58
 90
        0
176
     1
 90
        2
176
     1
 90
        0
176
     1
 90
        0
176
     1
 40
0.6
176
     1
 40
30.0
176
     1
 62
     7
420
 16777215
176
     1
 90
        1
176
     1
 90
        4
176
     1
 62
     7
176
     1
 62
   257
176
     1
 90
        1
176
     1
 90
        1
176
     1
 40
1.0
176
     1
 90
        0
176
     1
 62
   257
176
     1
 40
1.0
176
     1
 90
        1
176
     1
 90
        6
176
     1
 90
        2
176
     1
 62
     7
176
     1
 90
        3
176
     1
 90
        0
176
     1
 90
        0
176
     1
290
     0
176
     1
 90
        1
176
     1
 40
0.0
176
     1
 90
        0
176
     1
290
     0
176
     1
290
     1
176
     1
290
     1
176
     1
290
     0
176
     1
290
     0
176
     1
290
     0
176
     1
290
     0
176
     1
290
     0
176
     1
290
     0
176
     1
 90
       50
176
     1
 40
0.0
176
     1
 40
1.0
176
     1
 90
        0
176
     1
 62
    18
420
        0
176
     1
 90
       50
176
     1
 90
        3
176
     1
 62
     5
420
      255
176
     1
290
     0
176
     1
 90
       50
176
     1
 90
       50
176
     1
 90
       50
176
     1
290
     0
176
     1
 90
       50
176
     1
 62
   256
176
     0
 40
1.0
176
     0
 90
        2
176
     1
  1
strokes_ogs.tif
176
     1
290
     0
176
     1
 40
1.0
176
     1
 40
1.0
176
     1
  0
VISUALSTYLE
  5
40
102
{ACAD_REACTORS
330
2A
102
}
330
2A
100
AcDbVisualStyle
  2
X-Ray
 70
    25
177
     3
291
     0
 70
    58
 90
        2
176
     1
 90
        2
176
     1
 90
        1
176
     1
 90
        1
176
     1
 40
0.5
176
     1
 40
30.0
176
     1
 62
     7
420
 16777215
176
     1
 90
        1
176
     1
 90
        0
176
     1
 62
     7
176
     1
 62
   257
176
     1
 90
        1
176
     1
 90
        1
176
     1
 40
1.0
176
     1
 90
        8
176
     1
 62
     7
176
     1
 40
1.0
176
     1
 90
        1
176
     1
 90
        6
176
     1
 90
        2
176
     1
 62
     7
176
     1
 90
        3
176
     1
 90
        0
176
     1
 90
        0
176
     1
290
     0
176
     1
 90
       13
176
     1
 40
0.0
176
     1
 90
        0
176
     1
290
     0
176
     1
290
     1
176
     1
290
     1
176
     1
290
     0
176
     1
290
     0
176
     1
290
     0
176
     1
290
     0
176
     1
290
     0
176
     1
290
     0
176
     1
 90
       50
176
     1
 40
0.0
176
     1
 40
1.0
176
     1
 90
        0
176
     1
 62
    18
420
        0
176
     1
 90
       50
176
     1
 90
        3
176
     1
 62
     5
420
      255
176
     1
290
     0
176
     1
 90
       50
176
     1
 90
       50
176
     1
 90
       50
176
     1
290
     0
176
     1
 90
       50
176
     1
 62
   256
176
     0
 40
1.0
176
     0
 90
        2
176
     1
  1
strokes_ogs.tif
176
     1
290
     0
176
     1
 40
1.0
176
     1
 40
1.0
176
     1
  0
DICTIONARYVAR
  5
1FF
102
{ACAD_REACTORS
330
1FE
102
}
330
1FE
100
DictionaryVariables
280
     0
  1
1:1
  0
DICTIONARYVAR
  5
204
102
{ACAD_REACTORS
330
1FE
102
}
330
1FE
100
DictionaryVariables
280
     0
  1
Standard
  0
DICTIONARYVAR
  5
203
102
{ACAD_REACTORS
330
1FE
102
}
330
1FE
100
DictionaryVariables
280
     0
  1
Standard
  0
DICTIONARYVAR
  5
207
102
{ACAD_REACTORS
330
1FE
102
}
330
1FE
100
DictionaryVariables
280
     0
  1
6.000000
  0
DICTIONARY
  5
200
330
6A
100
AcDbDictionary
280
     1
281
     1
  3
ACAD_ROUNDTRIP_2008_TABLESTYLE_CELLSTYLEMAP
360
201
  0
CELLSTYLEMAP
  5
201
102
{ACAD_REACTORS
330
200
102
}
330
200
100
AcDbCellStyleMap
 90
        3
300
CELLSTYLE
  1
TABLEFORMAT_BEGIN
 90
        5
170
     1
 91
        0
 92
    32768
 62
   257
 93
        1
300
CONTENTFORMAT
  1
CONTENTFORMAT_BEGIN
 90
        0
 91
        0
 92
        4
 93
        0
300

 40
0.0
140
1.0
 94
        5
 62
     0
340
11
144
6.0
309
CONTENTFORMAT_END
171
     1
301
MARGIN
  1
CELLMARGIN_BEGIN
 40
1.5
 40
1.5
 40
1.5
 40
1.5
 40
1.5
 40
1.5
309
CELLMARGIN_END
 94
        6
 95
        1
302
GRIDFORMAT
  1
GRIDFORMAT_BEGIN
 90
        0
 91
        1
 62
     0
 92
       -2
340
14
 93
        0
 40
0.045
309
GRIDFORMAT_END
 95
        2
302
GRIDFORMAT
  1
GRIDFORMAT_BEGIN
 90
        0
 91
        1
 62
     0
 92
       -2
340
14
 93
        0
 40
0.045
309
GRIDFORMAT_END
 95
        4
302
GRIDFORMAT
  1
GRIDFORMAT_BEGIN
 90
        0
 91
        1
 62
     0
 92
       -2
340
14
 93
        0
 40
0.045
309
GRIDFORMAT_END
 95
        8
302
GRIDFORMAT
  1
GRIDFORMAT_BEGIN
 90
        0
 91
        1
 62
     0
 92
       -2
340
14
 93
        0
 40
0.045
309
GRIDFORMAT_END
 95
       16
302
GRIDFORMAT
  1
GRIDFORMAT_BEGIN
 90
        0
 91
        1
 62
     0
 92
       -2
340
14
 93
        0
 40
0.045
309
GRIDFORMAT_END
 95
       32
302
GRIDFORMAT
  1
GRIDFORMAT_BEGIN
 90
        0
 91
        1
 62
     0
 92
       -2
340
14
 93
        0
 40
0.045
309
GRIDFORMAT_END
309
TABLEFORMAT_END
  1
CELLSTYLE_BEGIN
 90
        1
 91
        1
300
_TITLE
309
CELLSTYLE_END
300
CELLSTYLE
  1
TABLEFORMAT_BEGIN
 90
        5
170
     1
 91
        0
 92
        0
 62
   257
 93
        1
300
CONTENTFORMAT
  1
CONTENTFORMAT_BEGIN
 90
        0
 91
        0
 92
        4
 93
        0
300

 40
0.0
140
1.0
 94
        5
 62
     0
340
11
144
4.5
309
CONTENTFORMAT_END
171
     1
301
MARGIN
  1
CELLMARGIN_BEGIN
 40
1.5
 40
1.5
 40
1.5
 40
1.5
 40
1.5
 40
1.5
309
CELLMARGIN_END
 94
        6
 95
        1
302
GRIDFORMAT
  1
GRIDFORMAT_BEGIN
 90
        0
 91
        1
 62
     0
 92
       -2
340
14
 93
        0
 40
0.045
309
GRIDFORMAT_END
 95
        2
302
GRIDFORMAT
  1
GRIDFORMAT_BEGIN
 90
        0
 91
        1
 62
     0
 92
       -2
340
14
 93
        0
 40
0.045
309
GRIDFORMAT_END
 95
        4
302
GRIDFORMAT
  1
GRIDFORMAT_BEGIN
 90
        0
 91
        1
 62
     0
 92
       -2
340
14
 93
        0
 40
0.045
309
GRIDFORMAT_END
 95
        8
302
GRIDFORMAT
  1
GRIDFORMAT_BEGIN
 90
        0
 91
        1
 62
     0
 92
       -2
340
14
 93
        0
 40
0.045
309
GRIDFORMAT_END
 95
       16
302
GRIDFORMAT
  1
GRIDFORMAT_BEGIN
 90
        0
 91
        1
 62
     0
 92
       -2
340
14
 93
        0
 40
0.045
309
GRIDFORMAT_END
 95
       32
302
GRIDFORMAT
  1
GRIDFORMAT_BEGIN
 90
        0
 91
        1
 62
     0
 92
       -2
340
14
 93
        0
 40
0.045
309
GRIDFORMAT_END
309
TABLEFORMAT_END
  1
CELLSTYLE_BEGIN
 90
        2
 91
        1
300
_HEADER
309
CELLSTYLE_END
300
CELLSTYLE
  1
TABLEFORMAT_BEGIN
 90
        5
170
     1
 91
        0
 92
        0
 62
   257
 93
        1
300
CONTENTFORMAT
  1
CONTENTFORMAT_BEGIN
 90
        0
 91
        0
 92
        4
 93
        0
300

 40
0.0
140
1.0
 94
        2
 62
     0
340
11
144
4.5
309
CONTENTFORMAT_END
171
     1
301
MARGIN
  1
CELLMARGIN_BEGIN
 40
1.5
 40
1.5
 40
1.5
 40
1.5
 40
1.5
 40
1.5
309
CELLMARGIN_END
 94
        6
 95
        1
302
GRIDFORMAT
  1
GRIDFORMAT_BEGIN
 90
        0
 91
        1
 62
     0
 92
       -2
340
14
 93
        0
 40
0.045
309
GRIDFORMAT_END
 95
        2
302
GRIDFORMAT
  1
GRIDFORMAT_BEGIN
 90
        0
 91
        1
 62
     0
 92
       -2
340
14
 93
        0
 40
0.045
309
GRIDFORMAT_END
 95
        4
302
GRIDFORMAT
  1
GRIDFORMAT_BEGIN
 90
        0
 91
        1
 62
     0
 92
       -2
340
14
 93
        0
 40
0.045
309
GRIDFORMAT_END
 95
        8
302
GRIDFORMAT
  1
GRIDFORMAT_BEGIN
 90
        0
 91
        1
 62
     0
 92
       -2
340
14
 93
        0
 40
0.045
309
GRIDFORMAT_END
 95
       16
302
GRIDFORMAT
  1
GRIDFORMAT_BEGIN
 90
        0
 91
        1
 62
     0
 92
       -2
340
14
 93
        0
 40
0.045
309
GRIDFORMAT_END
 95
       32
302
GRIDFORMAT
  1
GRIDFORMAT_BEGIN
 90
        0
 91
        1
 62
     0
 92
       -2
340
14
 93
        0
 40
0.045
309
GRIDFORMAT_END
309
TABLEFORMAT_END
  1
CELLSTYLE_BEGIN
 90
        3
 91
        2
300
_DATA
309
CELLSTYLE_END
  0
ENDSEC
  0
EOF
