  0
SECTION
  2
HEADER
  9
$ACADVER
  1
AC1015
  9
$ACADMAINTVER
 70
    18
  9
$DWGCODEPAGE
  3
ANSI_1252
  9
$INSBASE
 10
0.0
 20
0.0
 30
0.0
  9
$EXTMIN
 10
-2.57626066237708
 20
-61.23736383584037
 30
-0.0015258207003583
  9
$EXTMAX
 10
103.3771072174154
 20
43.3486643595952
 30
0.0000000349246037
  9
$LIMMIN
 10
0.0
 20
0.0
  9
$LIMMAX
 10
1189.0
 20
840.9999999999998
  9
$ORTHOMODE
 70
     0
  9
$REGENMODE
 70
     1
  9
$FILLMODE
 70
     1
  9
$QTEXTMODE
 70
     0
  9
$MIRRTEXT
 70
     0
  9
$LTSCALE
 40
1.0
  9
$ATTMODE
 70
     1
  9
$TEXTSIZE
 40
0.2
  9
$TRACEWID
 40
0.05
  9
$TEXTSTYLE
  7
STANDARD
  9
$CLAYER
  8
0
  9
$CELTYPE
  6
ByLayer
  9
$CECOLOR
 62
   256
  9
$CELTSCALE
 40
1.0
  9
$DISPSILH
 70
     0
  9
$DIMSCALE
 40
1.0
  9
$DIMASZ
 40
180.0
  9
$DIMEXO
 40
0.0625
  9
$DIMDLI
 40
0.38
  9
$DIMRND
 40
0.0
  9
$DIMDLE
 40
0.0
  9
$DIMEXE
 40
0.18
  9
$DIMTP
 40
0.0
  9
$DIMTM
 40
0.0
  9
$DIMTXT
 40
34.99999940395355
  9
$DIMCEN
 40
0.09
  9
$DIMTSZ
 40
0.0
  9
$DIMTOL
 70
     0
  9
$DIMLIM
 70
     0
  9
$DIMTIH
 70
     1
  9
$DIMTOH
 70
     1
  9
$DIMSE1
 70
     0
  9
$DIMSE2
 70
     0
  9
$DIMTAD
 70
     0
  9
$DIMZIN
 70
     0
  9
$DIMBLK
  1

  9
$DIMASO
 70
     1
  9
$DIMSHO
 70
     1
  9
$DIMPOST
  1

  9
$DIMAPOST
  1

  9
$DIMALT
 70
     0
  9
$DIMALTD
 70
     2
  9
$DIMALTF
 40
25.4
  9
$DIMLFAC
 40
1.0
  9
$DIMTOFL
 70
     0
  9
$DIMTVP
 40
0.0
  9
$DIMTIX
 70
     0
  9
$DIMSOXD
 70
     0
  9
$DIMSAH
 70
     0
  9
$DIMBLK1
  1

  9
$DIMBLK2
  1

  9
$DIMSTYLE
  2
STANDARD
  9
$DIMCLRD
 70
     0
  9
$DIMCLRE
 70
     0
  9
$DIMCLRT
 70
     0
  9
$DIMTFAC
 40
1.0
  9
$DIMGAP
 40
0.09
  9
$DIMJUST
 70
     0
  9
$DIMSD1
 70
     0
  9
$DIMSD2
 70
     0
  9
$DIMTOLJ
 70
     1
  9
$DIMTZIN
 70
     0
  9
$DIMALTZ
 70
     0
  9
$DIMALTTZ
 70
     0
  9
$DIMUPT
 70
     0
  9
$DIMDEC
 70
     4
  9
$DIMTDEC
 70
     4
  9
$DIMALTU
 70
     2
  9
$DIMALTTD
 70
     2
  9
$DIMTXSTY
  7
STANDARD
  9
$DIMAUNIT
 70
     0
  9
$DIMADEC
 70
     0
  9
$DIMALTRND
 40
0.0
  9
$DIMAZIN
 70
     0
  9
$DIMDSEP
 70
    46
  9
$DIMATFIT
 70
     3
  9
$DIMFRAC
 70
     0
  9
$DIMLDRBLK
  1

  9
$DIMLUNIT
 70
     2
  9
$DIMLWD
 70
    -2
  9
$DIMLWE
 70
    -2
  9
$DIMTMOVE
 70
     0
  9
$LUNITS
 70
     2
  9
$LUPREC
 70
     4
  9
$SKETCHINC
 40
0.1
  9
$FILLETRAD
 40
0.0
  9
$AUNITS
 70
     0
  9
$AUPREC
 70
     0
  9
$MENU
  1
.
  9
$ELEVATION
 40
0.0
  9
$PELEVATION
 40
0.0
  9
$THICKNESS
 40
0.0
  9
$LIMCHECK
 70
     0
  9
$CHAMFERA
 40
0.0
  9
$CHAMFERB
 40
0.0
  9
$CHAMFERC
 40
0.0
  9
$CHAMFERD
 40
0.0
  9
$SKPOLY
 70
     0
  9
$TDCREATE
 40
2454871.539305995
  9
$TDUCREATE
 40
2454871.455972662
  9
$TDUPDATE
 40
2455721.994952037
  9
$TDUUPDATE
 40
2455721.911618704
  9
$TDINDWG
 40
0.0122256944
  9
$TDUSRTIMER
 40
0.0122256944
  9
$USRTIMER
 70
     1
  9
$ANGBASE
 50
0.0
  9
$ANGDIR
 70
     0
  9
$PDMODE
 70
     0
  9
$PDSIZE
 40
0.0
  9
$PLINEWID
 40
0.0
  9
$SPLFRAME
 70
     0
  9
$SPLINETYPE
 70
     6
  9
$SPLINESEGS
 70
     8
  9
$HANDSEED
  5
643
  9
$SURFTAB1
 70
     6
  9
$SURFTAB2
 70
     6
  9
$SURFTYPE
 70
     6
  9
$SURFU
 70
     6
  9
$SURFV
 70
     6
  9
$UCSBASE
  2

  9
$UCSNAME
  2

  9
$UCSORG
 10
0.0
 20
0.0
 30
0.0
  9
$UCSXDIR
 10
1.0
 20
0.0
 30
0.0
  9
$UCSYDIR
 10
0.0
 20
1.0
 30
0.0
  9
$UCSORTHOREF
  2

  9
$UCSORTHOVIEW
 70
     0
  9
$UCSORGTOP
 10
0.0
 20
0.0
 30
0.0
  9
$UCSORGBOTTOM
 10
0.0
 20
0.0
 30
0.0
  9
$UCSORGLEFT
 10
0.0
 20
0.0
 30
0.0
  9
$UCSORGRIGHT
 10
0.0
 20
0.0
 30
0.0
  9
$UCSORGFRONT
 10
0.0
 20
0.0
 30
0.0
  9
$UCSORGBACK
 10
0.0
 20
0.0
 30
0.0
  9
$PUCSBASE
  2

  9
$PUCSNAME
  2

  9
$PUCSORG
 10
0.0
 20
0.0
 30
0.0
  9
$PUCSXDIR
 10
1.0
 20
0.0
 30
0.0
  9
$PUCSYDIR
 10
0.0
 20
1.0
 30
0.0
  9
$PUCSORTHOREF
  2

  9
$PUCSORTHOVIEW
 70
     0
  9
$PUCSORGTOP
 10
0.0
 20
0.0
 30
0.0
  9
$PUCSORGBOTTOM
 10
0.0
 20
0.0
 30
0.0
  9
$PUCSORGLEFT
 10
0.0
 20
0.0
 30
0.0
  9
$PUCSORGRIGHT
 10
0.0
 20
0.0
 30
0.0
  9
$PUCSORGFRONT
 10
0.0
 20
0.0
 30
0.0
  9
$PUCSORGBACK
 10
0.0
 20
0.0
 30
0.0
  9
$USERI1
 70
     0
  9
$USERI2
 70
     0
  9
$USERI3
 70
     0
  9
$USERI4
 70
     0
  9
$USERI5
 70
     0
  9
$USERR1
 40
0.0
  9
$USERR2
 40
0.0
  9
$USERR3
 40
0.0
  9
$USERR4
 40
0.0
  9
$USERR5
 40
0.0
  9
$WORLDVIEW
 70
     1
  9
$SHADEDGE
 70
     3
  9
$SHADEDIF
 70
    70
  9
$TILEMODE
 70
     1
  9
$MAXACTVP
 70
    64
  9
$PINSBASE
 10
0.0
 20
0.0
 30
0.0
  9
$PLIMCHECK
 70
     0
  9
$PEXTMIN
 10
0.0
 20
0.0
 30
0.0
  9
$PEXTMAX
 10
1189.0
 20
840.9999999999998
 30
0.0
  9
$PLIMMIN
 10
0.0
 20
0.0
  9
$PLIMMAX
 10
1189.0
 20
840.9999999999998
  9
$UNITMODE
 70
     0
  9
$VISRETAIN
 70
     1
  9
$PLINEGEN
 70
     0
  9
$PSLTSCALE
 70
     1
  9
$TREEDEPTH
 70
  3020
  9
$CMLSTYLE
  2
Standard
  9
$CMLJUST
 70
     0
  9
$CMLSCALE
 40
1.0
  9
$PROXYGRAPHICS
 70
     1
  9
$MEASUREMENT
 70
     1
  9
$CELWEIGHT
370
    -1
  9
$ENDCAPS
280
     0
  9
$JOINSTYLE
280
     0
  9
$LWDISPLAY
290
     0
  9
$INSUNITS
 70
     4
  9
$HYPERLINKBASE
  1

  9
$STYLESHEET
  1

  9
$XEDIT
290
     1
  9
$CEPSNTYPE
380
     0
  9
$PSTYLEMODE
290
     1
  9
$FINGERPRINTGUID
  2
{00DCB724-2C86-4925-8CFE-95DCEEC7C6DB}
  9
$VERSIONGUID
  2
{A1251CF4-35DC-42AC-B892-59FA828649C1}
  9
$EXTNAMES
290
     1
  9
$PSVPSCALE
 40
0.0
  9
$OLESTARTUP
290
     0
  0
ENDSEC
  0
SECTION
  2
CLASSES
  0
CLASS
  1
ACDBDICTIONARYWDFLT
  2
AcDbDictionaryWithDefault
  3
ObjectDBX Classes
 90
        0
280
     0
281
     0
  0
CLASS
  1
MATERIAL
  2
AcDbMaterial
  3
ObjectDBX Classes
 90
     1153
280
     0
281
     0
  0
CLASS
  1
VISUALSTYLE
  2
AcDbVisualStyle
  3
ObjectDBX Classes
 90
     4095
280
     0
281
     0
  0
CLASS
  1
SCALE
  2
AcDbScale
  3
ObjectDBX Classes
 90
     1153
280
     0
281
     0
  0
CLASS
  1
TABLESTYLE
  2
AcDbTableStyle
  3
ObjectDBX Classes
 90
     4095
280
     0
281
     0
  0
CLASS
  1
MLEADERSTYLE
  2
AcDbMLeaderStyle
  3
ACDB_MLEADERSTYLE_CLASS
 90
     4095
280
     0
281
     0
  0
CLASS
  1
SORTENTSTABLE
  2
AcDbSortentsTable
  3
ObjectDBX Classes
 90
        0
280
     0
281
     0
  0
CLASS
  1
CELLSTYLEMAP
  2
AcDbCellStyleMap
  3
ObjectDBX Classes
 90
     1152
280
     0
281
     0
  0
CLASS
  1
DICTIONARYVAR
  2
AcDbDictionaryVar
  3
ObjectDBX Classes
 90
        0
280
     0
281
     0
  0
CLASS
  1
ACME_DOCUMENT
  2
AcMeDbDoc
  3
AcMeServices
 90
     1024
280
     0
281
     0
  0
CLASS
  1
AMGSETTINGSOBJ
  2
AmgSettingsObj
  3
"AcadM|Product Description: AutoCAD Mechanical|Company: Autodesk, Inc."
 90
     1024
280
     0
281
     0
  0
CLASS
  1
ACMESCOPE
  2
AcMeScope
  3
AcMeServices
 90
     1024
280
     0
281
     0
  0
CLASS
  1
ACMECOMMANDHISTORY
  2
AcMeCommandHistory
  3
AcMeServices
 90
     1024
280
     0
281
     0
  0
CLASS
  1
ACIMSYSVARMAN
  2
AcImSysVarManager
  3
AcMeServices
 90
     1024
280
     0
281
     0
  0
CLASS
  1
ACIMINTSYSVAR
  2
AcImIntSysVar
  3
AcMeServices
 90
     1024
280
     0
281
     0
  0
CLASS
  1
ACMEDRAWINGMAN
  2
AcMeDrawingMan
  3
AcMeServices
 90
    33792
280
     0
281
     0
  0
CLASS
  1
ACMEVIEW
  2
AcMeView
  3
AcMeServices
 90
    33792
280
     0
281
     0
  0
CLASS
  1
ACDBENTITYCACHE
  2
AcMeEntityCache
  3
AcMeServices
 90
     1024
280
     0
281
     0
  0
CLASS
  1
GSMANAGER
  2
AcMeGSManager
  3
AcMeServices
 90
    33792
280
     1
281
     0
  0
CLASS
  1
AMDTINTERNALREACTOR
  2
AmdtInternalReactor
  3
AcMeServices
 90
     1024
280
     0
281
     0
  0
CLASS
  1
ACMESTATEMGR
  2
AcMeStateMgr
  3
AcMeServices
 90
     1024
280
     0
281
     0
  0
CLASS
  1
ACGREFMASTER
  2
AcGrefMaster
  3
AcAttribServices
 90
     1024
280
     0
281
     0
  0
CLASS
  1
AM_DRAWING_MGR
  2
AcDmDwgMgr
  3
AcMechDwgViewMgmt
 90
     1024
280
     0
281
     0
  0
CLASS
  1
AM_DWG_DOCUMENT
  2
AcDmDwgDocument
  3
AcMechDwgViewMgmt
 90
     1024
280
     0
281
     0
  0
CLASS
  1
AM_DWG_SHEET
  2
AcDmSheet
  3
AcMechDwgViewMgmt
 90
     1024
280
     0
281
     0
  0
CLASS
  1
AM_VIEWDIMPARMAP
  2
AcDmViewDimParMap
  3
AcMechDwgViewMgmt
 90
     1024
280
     0
281
     0
  0
CLASS
  1
ACIMREALSYSVAR
  2
AcImRealSysVar
  3
AcMeServices
 90
     1024
280
     0
281
     0
  0
CLASS
  1
AM_DWGMGR_NAME
  2
AcDmDwgMgrName
  3
AcMechDwgViewMgmt
 90
     1024
280
     0
281
     0
  0
CLASS
  1
ACME_DATABASE
  2
AcMeDbDatabase
  3
AcMeServices
 90
     1024
280
     0
281
     0
  0
CLASS
  1
ACRFINSADJUSTERMGR
  2
AcRfInsAdjusterMgr
  3
AcMeServices
 90
     1024
280
     0
281
     0
  0
CLASS
  1
ACGREFACADMASTER
  2
AcGrefacadMaster
  3
AcGrefServices
 90
     1024
280
     0
281
     0
  0
CLASS
  1
AMDTMENUSTATEMGR
  2
AmdtMenuStateMgr
  3
McadcomServices
 90
     1024
280
     0
281
     0
  0
CLASS
  1
AMDTMCOMMENUSTATE
  2
AmdtMcomMenuState
  3
McadcomServices
 90
     1024
280
     0
281
     0
  0
CLASS
  1
AMIMASTER
  2
AmiMaster
  3
AmiServices
 90
     1024
280
     0
281
     0
  0
CLASS
  1
MAPIAMMOUDLE
  2
MApiAmModule
  3
MApiAmServices
 90
     1024
280
     0
281
     0
  0
CLASS
  1
ACIMSTRSYSVAR
  2
AcImStrSysVar
  3
AcMeServices
 90
     1024
280
     0
281
     0
  0
CLASS
  1
AMDTADMENUSTATE
  2
AmdtAdMenuState
  3
DesignerServices
 90
    33792
280
     1
281
     0
  0
CLASS
  1
ADAPPL
  2
AcAdAppl
  3
DesignerAssemblies
 90
    33792
280
     0
281
     0
  0
CLASS
  1
DEPMGR
  2
AcAdDepMgr
  3
DesignerAssemblies
 90
    33792
280
     0
281
     0
  0
CLASS
  1
PARAMMGR
  2
AcAdParamMgr
  3
DesignerAssemblies
 90
    33792
280
     0
281
     0
  0
CLASS
  1
PARAMSCOPE
  2
AcAdParamScope
  3
DesignerAssemblies
 90
    33792
280
     0
281
     0
  0
CLASS
  1
NAMEDAPPL
  2
AcAdNamedAppl
  3
DesignerAssemblies
 90
    33792
280
     0
281
     0
  0
CLASS
  1
AMDTDMMENUSTATE
  2
AmdtDmMenuState
  3
AcMechDwgViewMgmt
 90
     1024
280
     0
281
     0
  0
CLASS
  1
AMDTAMMENUSTATE
  2
AmdtAmMenuState
  3
DesignerAssemblies
 90
     1024
280
     0
281
     0
  0
CLASS
  1
ACAMPROJECT
  2
AcAmProject
  3
DesignerAssemblies
 90
     1024
280
     0
281
     0
  0
CLASS
  1
ACAMGRCOMPDEF
  2
AcAmGrCompDef
  3
DesignerAssemblies
 90
     1024
280
     0
281
     0
  0
CLASS
  1
ACCMCONTEXT
  2
AcCmContext
  3
DesignerAssemblies
 90
    33792
280
     0
281
     0
  0
CLASS
  1
ACAMCOMPDEF
  2
AcAmCompDef
  3
DesignerAssemblies
 90
     1024
280
     0
281
     0
  0
CLASS
  1
ACAMCOMPDEFMGR
  2
AcAmCompDefMgr
  3
DesignerAssemblies
 90
     1024
280
     0
281
     0
  0
CLASS
  1
AMCONTEXTMGR
  2
AcAmContextMgr
  3
DesignerAssemblies
 90
     1024
280
     0
281
     0
  0
CLASS
  1
ACAMCONTEXTMODELER
  2
AcAmContextModeler
  3
DesignerAssemblies
 90
     1024
280
     0
281
     0
  0
CLASS
  1
ACMDATADICTIONARY
  2
AcmDataDictionary
  3
"AcmSymBB|Product Description: AutoCAD Mechanical|Company: Autodesk, Inc."
 90
     1024
280
     0
281
     0
  0
CLASS
  1
CATALOGSTATE
  2
AcAmCatalogState
  3
DesignerAssemblies
 90
    33792
280
     0
281
     0
  0
CLASS
  1
ACAMGRCOMPDEFSET
  2
AcAmGrCompDefSet
  3
DesignerAssemblies
 90
     1024
280
     0
281
     0
  0
CLASS
  1
AMDTBROWSERDBTAB
  2
AmdtBrowserDbTab
  3
McadcomServices
 90
     1024
280
     0
281
     0
  0
CLASS
  1
CBROWSERAPPOBJECT
  2
CBrowserAppObject
  3
McadcomServices
 90
     1024
280
     0
281
     0
  0
CLASS
  1
DM_PLACEHOLDER
  2
AcDmSelsetPlaceholder
  3
AcMechDwgViewMgmt
 90
     1024
280
     0
281
     0
  0
CLASS
  1
EXACXREFPANELOBJECT
  2
ExAcXREFPanelObject
  3
EXAC_ESW
 90
     1025
280
     0
281
     0
  0
CLASS
  1
NPOCOLLECTION
  2
AcDbImpNonPersistentObjectsCollection
  3
ObjectDBX Classes
 90
     1153
280
     0
281
     0
  0
CLASS
  1
ACMSTANDARDANSI
  2
AcmStandardANSI
  3
"Amdt_StdImp|Product Description: AutoCAD Mechanical|Company: Autodesk, Inc."
 90
     1024
280
     0
281
     0
  0
CLASS
  1
ACMSURFSTANDARDANSI
  2
AcmSurfTextStdANSI
  3
"Amdt_StdImp|Product Description: AutoCAD Mechanical|Company: Autodesk, Inc."
 90
     1024
280
     0
281
     0
  0
CLASS
  1
ACMFCFSTANDARDANSI
  2
AcmFCFStdANSI
  3
"Amdt_StdImp|Product Description: AutoCAD Mechanical|Company: Autodesk, Inc."
 90
     1024
280
     0
281
     0
  0
CLASS
  1
ACMWELDSTANDARDANSI
  2
AcmWeldingStdANSI
  3
"Amdt_StdImp|Product Description: AutoCAD Mechanical|Company: Autodesk, Inc."
 90
     1024
280
     0
281
     0
  0
CLASS
  1
ACMIDSTANDARDANSI
  2
AcmIdStdANSI
  3
"Amdt_StdImp|Product Description: AutoCAD Mechanical|Company: Autodesk, Inc."
 90
     1024
280
     0
281
     0
  0
CLASS
  1
ACMDATUMSTANDARDANSI
  2
AcmDatumStdANSI
  3
"Amdt_StdImp|Product Description: AutoCAD Mechanical|Company: Autodesk, Inc."
 90
     1024
280
     0
281
     0
  0
CLASS
  1
ACMBOMSTANDARDANSI
  2
AcmBOMStdANSI
  3
"Amdt_StdImp|Product Description: AutoCAD Mechanical|Company: Autodesk, Inc."
 90
     1024
280
     0
281
     0
  0
CLASS
  1
ACMDETAILSTANDARDANSI
  2
AmdtDetailSymStdANSI
  3
"Amdt_StdImp|Product Description: AutoCAD Mechanical|Company: Autodesk, Inc."
 90
     1024
280
     0
281
     0
  0
CLASS
  1
ACMSECTIONSTANDARDANSI
  2
AmdtSectionSymStdANSI
  3
"Amdt_StdImp|Product Description: AutoCAD Mechanical|Company: Autodesk, Inc."
 90
     1024
280
     0
281
     0
  0
CLASS
  1
ACMCENTERLINESTANDARDANSI
  2
AmdtCenterLineStdANSI
  3
"Amdt_StdImp|Product Description: AutoCAD Mechanical|Company: Autodesk, Inc."
 90
     1024
280
     0
281
     0
  0
CLASS
  1
ACMTHREADLINESTANDARDANSI
  2
AmdtThreadLineStdANSI
  3
"Amdt_StdImp|Product Description: AutoCAD Mechanical|Company: Autodesk, Inc."
 90
     1024
280
     0
281
     0
  0
CLASS
  1
ACMNOTESTANDARDANSI
  2
AmdtNoteStdANSI
  3
"Amdt_StdImp|Product Description: AutoCAD Mechanical|Company: Autodesk, Inc."
 90
     1024
280
     0
281
     0
  0
CLASS
  1
ACMTAPERSTANDARDANSI
  2
AcmTaperStdANSI
  3
"Amdt_StdImp|Product Description: AutoCAD Mechanical|Company: Autodesk, Inc."
 90
     1024
280
     0
281
     0
  0
CLASS
  1
ACMANOOTATIONVIEWSTANDARDANSI
  2
AmdtAnViewStdANSI
  3
"Amdt_StdImp|Product Description: AutoCAD Mechanical|Company: Autodesk, Inc."
 90
     1024
280
     0
281
     0
  0
CLASS
  1
ACAMGLAYSTD
  2
AcAmgLayStd
  3
"AmgLay|Product Description: AutoCAD Mechanical|Company: Autodesk, Inc."
 90
     1024
280
     0
281
     0
  0
CLASS
  1
ACAMGDIMSTD
  2
AcAmgDimStd
  3
"AmgDim|Product Description: AutoCAD Mechanical|Company: Autodesk, Inc."
 90
     1024
280
     0
281
     0
  0
CLASS
  1
AMGOBJPROPCFG
  2
AmgObjPropCfg
  3
"AmgLay|Product Description: AutoCAD Mechanical|Company: Autodesk, Inc."
 90
     1025
280
     0
281
     0
  0
CLASS
  1
ACAMGHOLECHARTSTDANSI
  2
AcAmgHoleChartStdANSI
  3
AmgDim|Product Description: AutoCAD Mechanical|Company: Autodesk, Inc.
 90
     1024
280
     0
281
     0
  0
CLASS
  1
ACAMGTITLESTD
  2
AcAmgTitleStd
  3
"AmgTitle|Product Description: AutoCAD Mechanical|Company: Autodesk, Inc."
 90
     4095
280
     0
281
     0
  0
CLASS
  1
AMDTNOTETEMPLATEDB
  2
AmdtNoteTemplateDB
  3
AcmSymBB|Product Description: AutoCAD Mechanical|Company: Autodesk, Inc.
 90
     1024
280
     0
281
     0
  0
CLASS
  1
ACAMGFILTERDAT
  2
AcAmgFilterDat
  3
"AcadM|Product Description: AutoCAD Mechanical|Company: Autodesk, Inc."
 90
    33792
280
     0
281
     0
  0
CLASS
  1
CAMSSTRUCTBTNSTATE
  2
StructBtnState
  3
DesignerAssemblies
 90
    33792
280
     0
281
     0
  0
CLASS
  1
ACDBPLACEHOLDER
  2
AcDbPlaceHolder
  3
ObjectDBX Classes
 90
        0
280
     0
281
     0
  0
CLASS
  1
LAYOUT
  2
AcDbLayout
  3
ObjectDBX Classes
 90
        0
280
     0
281
     0
  0
CLASS
  1
SOLID_BACKGROUND
  2
AcDbSolidBackground
  3
SCENEOE
 90
    36863
280
     0
281
     0
  0
ENDSEC
  0
SECTION
  2
TABLES
  0
TABLE
  2
VPORT
  5
28
102
{ACAD_XDICTIONARY
360
2C
102
}
330
0
100
AcDbSymbolTable
 70
     1
  0
VPORT
  5
29
330
28
100
AcDbSymbolTableRecord
100
AcDbViewportTableRecord
  2
*ACTIVE
 70
     0
 10
0.0
 20
0.0
 11
1.0
 21
1.0
 12
50.40042327751918
 22
-8.944349738122582
 13
0.0
 23
0.0
 14
1.0
 24
1.0
 15
0.0
 25
0.0
 16
0.0
 26
0.0
 36
1.0
 17
0.0
 27
0.0
 37
0.0
 40
117.0960349693794
 41
2.068965517241379
 42
50.0
 43
0.0
 44
0.0
 50
0.0
 51
0.0
 71
     0
 72
   100
 73
     1
 74
     1
 75
     0
 76
     0
 77
     0
 78
     0
281
     0
 65
     1
110
0.0
120
0.0
130
0.0
111
1.0
121
0.0
131
0.0
112
0.0
122
1.0
132
0.0
 79
     0
146
0.0
  0
ENDTAB
  0
TABLE
  2
LTYPE
  5
23
330
0
100
AcDbSymbolTable
 70
    11
  0
LTYPE
  5
24
330
23
100
AcDbSymbolTableRecord
100
AcDbLinetypeTableRecord
  2
ByBlock
 70
     0
  3

 72
    65
 73
     0
 40
0.0
  0
LTYPE
  5
25
330
23
100
AcDbSymbolTableRecord
100
AcDbLinetypeTableRecord
  2
ByLayer
 70
     0
  3

 72
    65
 73
     0
 40
0.0
  0
LTYPE
  5
1B
330
23
100
AcDbSymbolTableRecord
100
AcDbLinetypeTableRecord
  2
CONTINUOUS
 70
     0
  3
Solid line
 72
    65
 73
     0
 40
0.0
  0
LTYPE
  5
54D
330
23
100
AcDbSymbolTableRecord
100
AcDbLinetypeTableRecord
  2
HIDDEN
 70
     0
  3
Verdeckt
 72
    65
 73
     2
 40
0.375
 49
0.25
 74
     0
 49
-0.125
 74
     0
  0
LTYPE
  5
54F
330
23
100
AcDbSymbolTableRecord
100
AcDbLinetypeTableRecord
  2
PHANTOM2
 70
     0
  3
Phantom (.5x) ___ _ _ ___ _ _ ___ _ _ ___ _ _
 72
    65
 73
     6
 40
1.25
 49
0.625
 74
     0
 49
-0.125
 74
     0
 49
0.125
 74
     0
 49
-0.125
 74
     0
 49
0.125
 74
     0
 49
-0.125
 74
     0
  0
LTYPE
  5
54E
330
23
100
AcDbSymbolTableRecord
100
AcDbLinetypeTableRecord
  2
CENTER
 70
     0
  3
Mitte ____ _ ____ _ ____ _ ____ _ ____ _ ____
 72
    65
 73
     4
 40
2.0
 49
1.25
 74
     0
 49
-0.25
 74
     0
 49
0.25
 74
     0
 49
-0.25
 74
     0
  0
LTYPE
  5
550
330
23
100
AcDbSymbolTableRecord
100
AcDbLinetypeTableRecord
  2
Amconstr
 70
     0
  3
_______________________
 72
    65
 73
     2
 40
9999.0
 49
9999.0
 74
     0
 49
0.0
 74
     0
  0
LTYPE
  5
551
330
23
100
AcDbSymbolTableRecord
100
AcDbLinetypeTableRecord
  2
CENTER2
 70
     0
  3
Center (.5x) ___ _ ___ _ ___ _ ___ _ ___ _ ___
 72
    65
 73
     4
 40
1.125
 49
0.75
 74
     0
 49
-0.125
 74
     0
 49
0.125
 74
     0
 49
-0.125
 74
     0
  0
LTYPE
  5
552
330
23
100
AcDbSymbolTableRecord
100
AcDbLinetypeTableRecord
  2
HIDDEN2
 70
     0
  3
Hidden (.5x) _ _ _ _ _ _ _ _ _ _ _ _ _ _ _ _ _
 72
    65
 73
     2
 40
0.1875
 49
0.125
 74
     0
 49
-0.0625
 74
     0
  0
LTYPE
  5
553
330
23
100
AcDbSymbolTableRecord
100
AcDbLinetypeTableRecord
  2
Amzigzag2
 70
     0
  3
/\/-/\/-/\/-/\/-/\/-/\/
 72
    65
 73
     2
 40
0.4401
 49
0.0001
 74
     4
 75
   136
340
554
 46
0.0016
 50
0.0
 44
0.0
 45
0.0
 49
-0.4400000000000001
 74
     0
  0
LTYPE
  5
564
330
23
100
AcDbSymbolTableRecord
100
AcDbLinetypeTableRecord
  2
ACANSTGB
 70
     0
  3
__ . . __ . .
 72
    65
 73
     6
 40
0.35433070866
 49
0.15748031496
 74
     0
 49
-0.03937007874
 74
     0
 49
0.03937007874
 74
     0
 49
-0.03937007874
 74
     0
 49
0.03937007874
 74
     0
 49
-0.03937007874
 74
     0
  0
LTYPE
  5
565
330
23
100
AcDbSymbolTableRecord
100
AcDbLinetypeTableRecord
  2
ACANSTGL
 70
     0
  3
_ _ _ _ _
 72
    65
 73
     2
 40
0.11811023622
 49
0.07874015748
 74
     0
 49
-0.03937007874
 74
     0
  0
LTYPE
  5
7C
330
23
100
AcDbSymbolTableRecord
100
AcDbLinetypeTableRecord
  2
DASHED
 70
     0
  3
Dashed __ __ __ __ __ __ __ __ __ __ __ __ __ _
 72
    65
 73
     2
 40
0.75
 49
0.5
 74
     0
 49
-0.25
 74
     0
  0
ENDTAB
  0
TABLE
  2
LAYER
  5
E
102
{ACAD_XDICTIONARY
360
1C
102
}
330
0
100
AcDbSymbolTable
 70
     7
  0
LAYER
  5
F
330
E
100
AcDbSymbolTableRecord
100
AcDbLayerTableRecord
  2
0
 70
     0
 62
     7
  6
CONTINUOUS
370
    -3
390
10
  0
LAYER
  5
80
330
E
100
AcDbSymbolTableRecord
100
AcDbLayerTableRecord
  2
GEB-KONTUR-A
 70
     0
 62
     5
  6
CONTINUOUS
370
    -3
390
10
  0
LAYER
  5
7B
330
E
100
AcDbSymbolTableRecord
100
AcDbLayerTableRecord
  2
GEB-VERDECKT
 70
     0
 62
     2
  6
DASHED
370
    -3
390
10
1001
AcAecLayerStandard
1000

1000

  0
LAYER
  5
76
330
E
100
AcDbSymbolTableRecord
100
AcDbLayerTableRecord
  2
Arbeitspunkt(DIN)
 70
     0
 62
     7
  6
CONTINUOUS
370
    25
390
10
  0
LAYER
  5
549
330
E
100
AcDbSymbolTableRecord
100
AcDbLayerTableRecord
  2
GEB-ART-NR
 70
     0
 62
     1
  6
CONTINUOUS
370
    18
390
10
  0
LAYER
  5
72
330
E
100
AcDbSymbolTableRecord
100
AcDbLayerTableRecord
  2
GEB-BEZUG
 70
     0
 62
     2
  6
CONTINUOUS
370
    25
390
10
  0
LAYER
  5
546
330
E
100
AcDbSymbolTableRecord
100
AcDbLayerTableRecord
  2
GEB-TEXT
 70
     0
 62
     5
  6
CONTINUOUS
370
    18
390
10
  0
ENDTAB
  0
TABLE
  2
STYLE
  5
20
330
0
100
AcDbSymbolTable
 70
     3
  0
STYLE
  5
21
330
20
100
AcDbSymbolTableRecord
100
AcDbTextStyleTableRecord
  2
STANDARD
 70
     0
 40
0.0
 41
1.0
 50
0.0
 71
     0
 42
0.2
  3
arial.ttf
  4

1001
ACAD
1000
Arial
1071
       34
  0
STYLE
  5
554
330
20
100
AcDbSymbolTableRecord
100
AcDbTextStyleTableRecord
  2

 70
     1
 40
0.0
 41
1.0
 50
0.0
 71
     0
 42
0.2
  3
genltshp.shx
  4

  0
STYLE
  5
560
330
20
100
AcDbSymbolTableRecord
100
AcDbTextStyleTableRecord
  2
ACANSGDT
 70
     0
 40
0.0
 41
1.0
 50
0.0
 71
     0
 42
0.2
  3
amgdt.shx
  4

  0
ENDTAB
  0
TABLE
  2
VIEW
  5
26
330
0
100
AcDbSymbolTable
 70
     0
  0
ENDTAB
  0
TABLE
  2
UCS
  5
27
330
0
100
AcDbSymbolTable
 70
     0
  0
ENDTAB
  0
TABLE
  2
APPID
  5
2D
330
0
100
AcDbSymbolTable
 70
    14
  0
APPID
  5
1F
330
2D
100
AcDbSymbolTableRecord
100
AcDbRegAppTableRecord
  2
ACAD
 70
     0
  0
APPID
  5
7D
330
2D
100
AcDbSymbolTableRecord
100
AcDbRegAppTableRecord
  2
AcAecLayerStandard
 70
     0
  0
APPID
  5
5A3
330
2D
100
AcDbSymbolTableRecord
100
AcDbRegAppTableRecord
  2
ACATTRIBSERVICES
 70
     0
  0
APPID
  5
5CE
330
2D
100
AcDbSymbolTableRecord
100
AcDbRegAppTableRecord
  2
MCAD_NO_VIS
 70
     0
  0
APPID
  5
5CF
330
2D
100
AcDbSymbolTableRecord
100
AcDbRegAppTableRecord
  2
ACAD_TEMP_GRAPHIC
 70
     0
  0
APPID
  5
5D3
330
2D
100
AcDbSymbolTableRecord
100
AcDbRegAppTableRecord
  2
AD_DRAW
 70
     0
  0
APPID
  5
5EC
330
2D
100
AcDbSymbolTableRecord
100
AcDbRegAppTableRecord
  2
DESIGNERASSEMBLIES
 70
     0
  0
APPID
  5
5F1
330
2D
100
AcDbSymbolTableRecord
100
AcDbRegAppTableRecord
  2
ACADM_DIM_EDIT
 70
     0
  0
APPID
  5
5F2
330
2D
100
AcDbSymbolTableRecord
100
AcDbRegAppTableRecord
  2
AMDT_DM_ADJ
 70
     0
  0
APPID
  5
612
330
2D
100
AcDbSymbolTableRecord
100
AcDbRegAppTableRecord
  2
ACAD_DSTYLE_DIMARC_LENGTH_SYMBOL
 70
     0
  0
APPID
  5
613
330
2D
100
AcDbSymbolTableRecord
100
AcDbRegAppTableRecord
  2
ACAD_DSTYLE_DIM_LINETYPE
 70
     0
  0
APPID
  5
614
330
2D
100
AcDbSymbolTableRecord
100
AcDbRegAppTableRecord
  2
ACAD_DSTYLE_DIM_EXT1_LINETYPE
 70
     0
  0
APPID
  5
615
330
2D
100
AcDbSymbolTableRecord
100
AcDbRegAppTableRecord
  2
ACAD_DSTYLE_DIM_EXT2_LINETYPE
 70
     0
  0
APPID
  5
642
330
2D
100
AcDbSymbolTableRecord
100
AcDbRegAppTableRecord
  2
ACAD_MLEADERVER
 70
     0
  0
ENDTAB
  0
TABLE
  2
DIMSTYLE
  5
2E
330
0
100
AcDbSymbolTable
 70
     7
100
AcDbDimStyleTable
 71
     1
340
2F
  0
DIMSTYLE
105
2F
330
2E
100
AcDbSymbolTableRecord
100
AcDbDimStyleTableRecord
  2
STANDARD
 70
     0
279
     2
340
21
  0
DIMSTYLE
105
576
102
{ACAD_REACTORS
330
55D
102
}
330
2E
100
AcDbSymbolTableRecord
100
AcDbDimStyleTableRecord
  2
AM_ANSI
 70
     0
  4
mm
 41
0.12
 42
0.05
 43
0.5
 44
0.1
 47
0.1
 48
0.1
 78
     7
 79
     2
140
0.12
141
0.0
146
0.71
147
0.06
176
   256
177
   256
178
     2
274
     4
284
     7
340
21
371
    -1
372
    -1
1001
ACAD_DSTYLE_DIMARC_LENGTH_SYMBOL
1070
   379
1070
     1
1001
ACAD_DSTYLE_DIM_LINETYPE
1070
   380
1005
24
1001
ACAD_DSTYLE_DIM_EXT1_LINETYPE
1070
   381
1005
24
1001
ACAD_DSTYLE_DIM_EXT2_LINETYPE
1070
   382
1005
24
  0
DIMSTYLE
105
577
330
2E
100
AcDbSymbolTableRecord
100
AcDbDimStyleTableRecord
  2
AM_ANSI$3
 70
     0
  4
mm
 41
0.12
 42
0.05
 43
0.5
 44
0.1
 47
0.1
 48
0.1
 78
     7
 79
     2
140
0.12
141
0.0
146
0.71
147
0.06
176
   256
177
   256
178
     2
274
     4
284
     7
288
     1
289
     0
340
21
371
    -1
372
    -1
1001
ACAD_DSTYLE_DIMARC_LENGTH_SYMBOL
1070
   379
1070
     1
1001
ACAD_DSTYLE_DIM_LINETYPE
1070
   380
1005
24
1001
ACAD_DSTYLE_DIM_EXT1_LINETYPE
1070
   381
1005
24
1001
ACAD_DSTYLE_DIM_EXT2_LINETYPE
1070
   382
1005
24
  0
DIMSTYLE
105
578
330
2E
100
AcDbSymbolTableRecord
100
AcDbDimStyleTableRecord
  2
AM_ANSI$4
 70
     0
  4
mm
 41
0.12
 42
0.05
 43
0.5
 44
0.1
 47
0.1
 48
0.1
 78
     7
 79
     2
140
0.12
141
0.0
146
0.71
147
0.06
176
   256
177
   256
178
     2
274
     4
284
     7
288
     1
289
     0
340
21
371
    -1
372
    -1
1001
ACAD_DSTYLE_DIMARC_LENGTH_SYMBOL
1070
   379
1070
     1
1001
ACAD_DSTYLE_DIM_LINETYPE
1070
   380
1005
24
1001
ACAD_DSTYLE_DIM_EXT1_LINETYPE
1070
   381
1005
24
1001
ACAD_DSTYLE_DIM_EXT2_LINETYPE
1070
   382
1005
24
  0
DIMSTYLE
105
579
330
2E
100
AcDbSymbolTableRecord
100
AcDbDimStyleTableRecord
  2
AM_ANSI$7
 70
     0
  4
mm
 41
0.12
 42
0.05
 43
0.5
 44
0.1
 47
0.1
 48
0.1
 78
     7
 79
     2
140
0.12
141
0.0
146
0.71
147
0.06
176
   256
177
   256
178
     2
274
     4
284
     7
340
21
371
    -1
372
    -1
1001
ACAD_DSTYLE_DIMARC_LENGTH_SYMBOL
1070
   379
1070
     1
1001
ACAD_DSTYLE_DIM_LINETYPE
1070
   380
1005
24
1001
ACAD_DSTYLE_DIM_EXT1_LINETYPE
1070
   381
1005
24
1001
ACAD_DSTYLE_DIM_EXT2_LINETYPE
1070
   382
1005
24
  0
DIMSTYLE
105
57A
330
2E
100
AcDbSymbolTableRecord
100
AcDbDimStyleTableRecord
  2
AM_ANSI$SF
 70
     0
  4
mm
 41
0.12
 42
0.05
 43
0.5
 44
0.1
 47
0.1
 48
0.1
 75
     1
 76
     1
 78
     7
 79
     2
140
0.12
141
0.0
146
0.71
147
0.06
176
   256
177
   256
178
     2
274
     4
284
     7
340
21
371
    -1
372
    -1
1001
ACAD_DSTYLE_DIMARC_LENGTH_SYMBOL
1070
   379
1070
     1
1001
ACAD_DSTYLE_DIM_LINETYPE
1070
   380
1005
24
1001
ACAD_DSTYLE_DIM_EXT1_LINETYPE
1070
   381
1005
24
1001
ACAD_DSTYLE_DIM_EXT2_LINETYPE
1070
   382
1005
24
  0
DIMSTYLE
105
57B
330
2E
100
AcDbSymbolTableRecord
100
AcDbDimStyleTableRecord
  2
AM_ANSI$SH
 70
     0
  4
mm
 41
0.12
 42
0.05
 43
0.5
 44
0.1
 47
0.1
 48
0.1
 75
     1
 76
     1
 78
     7
 79
     2
140
0.12
141
0.0
146
0.71
147
0.06
173
     1
176
   256
177
   256
178
     2
274
     4
284
     7
340
21
343
57C
371
    -1
372
    -1
1001
ACAD_DSTYLE_DIMARC_LENGTH_SYMBOL
1070
   379
1070
     1
1001
ACAD_DSTYLE_DIM_LINETYPE
1070
   380
1005
24
1001
ACAD_DSTYLE_DIM_EXT1_LINETYPE
1070
   381
1005
24
1001
ACAD_DSTYLE_DIM_EXT2_LINETYPE
1070
   382
1005
24
  0
ENDTAB
  0
TABLE
  2
BLOCK_RECORD
  5
1
330
0
100
AcDbSymbolTable
 70
     3
  0
BLOCK_RECORD
  5
2
102
{ACAD_XDICTIONARY
360
3
102
}
330
1
100
AcDbSymbolTableRecord
100
AcDbBlockTableRecord
  2
*Model_Space
340
7
  0
BLOCK_RECORD
  5
A
330
1
100
AcDbSymbolTableRecord
100
AcDbBlockTableRecord
  2
*Paper_Space
340
D
  0
BLOCK_RECORD
  5
57C
330
1
100
AcDbSymbolTableRecord
100
AcDbBlockTableRecord
  2
GENAXEH
340
0
  0
BLOCK_RECORD
  5
6F
330
1
100
AcDbSymbolTableRecord
100
AcDbBlockTableRecord
  2
Einfügepunkt
340
0
102
{BLKREFS
331
6E
102
}
  0
ENDTAB
  0
ENDSEC
  0
SECTION
  2
BLOCKS
  0
BLOCK
  5
5
330
2
100
AcDbEntity
  8
0
100
AcDbBlockBegin
  2
*Model_Space
 70
     0
 10
0.0
 20
0.0
 30
0.0
  3
*Model_Space
  1

  0
ENDBLK
  5
6
330
2
100
AcDbEntity
  8
0
100
AcDbBlockEnd
  0
BLOCK
  5
B
330
A
100
AcDbEntity
 67
     1
  8
0
100
AcDbBlockBegin
  2
*Paper_Space
 70
     0
 10
0.0
 20
0.0
 30
0.0
  3
*Paper_Space
  1

  0
ENDBLK
  5
C
330
A
100
AcDbEntity
 67
     1
  8
0
100
AcDbBlockEnd
  0
BLOCK
  5
57D
330
57C
100
AcDbEntity
  8
0
100
AcDbBlockBegin
  2
GENAXEH
 70
     0
 10
0.0
 20
0.0
 30
0.0
  3
GENAXEH
  1

  0
LINE
  5
57E
330
57C
100
AcDbEntity
  8
0
100
AcDbLine
 10
-1.0
 20
0.0
 30
0.0
 11
1.0
 21
0.0
 31
0.0
  0
ENDBLK
  5
57F
330
57C
100
AcDbEntity
  8
0
100
AcDbBlockEnd
  0
BLOCK
  5
70
330
6F
100
AcDbEntity
  8
0
100
AcDbBlockBegin
  2
Einfügepunkt
 70
     0
 10
0.0
 20
0.0
 30
0.0
  3
Einfügepunkt
  1

  0
LINE
  5
71
330
6F
100
AcDbEntity
  8
GEB-BEZUG
100
AcDbLine
 10
-0.7071067811865817
 20
-0.7071067811865106
 30
0.0
 11
0.7071067811864751
 21
0.7071067811865817
 31
0.0
  0
LINE
  5
73
330
6F
100
AcDbEntity
  8
GEB-BEZUG
100
AcDbLine
 10
-0.7071067811865106
 20
0.7071067811865817
 30
0.0
 11
0.7071067811865462
 21
-0.7071067811865106
 31
0.0
  0
ENDBLK
  5
74
330
6F
100
AcDbEntity
  8
0
100
AcDbBlockEnd
  0
ENDSEC
  0
SECTION
  2
ENTITIES
  0
INSERT
  5
6E
330
2
100
AcDbEntity
  8
0
 48
25.0
100
AcDbBlockReference
  2
Einfügepunkt
 10
0.0
 20
0.0
 30
0.0
  0
LINE
  5
75
330
2
100
AcDbEntity
  8
Arbeitspunkt(DIN)
 48
25.0
100
AcDbLine
 10
0.0
 20
0.0
 30
0.0
 11
0.0
 21
-2.5
 31
0.0
  0
LINE
  5
77
330
2
100
AcDbEntity
  8
Arbeitspunkt(DIN)
 48
25.0
100
AcDbLine
 10
0.0
 20
0.0
 30
0.0
 11
0.0
 21
2.500000000000113
 31
0.0
  0
LINE
  5
78
330
2
100
AcDbEntity
  8
Arbeitspunkt(DIN)
 48
25.0
100
AcDbLine
 10
0.0
 20
0.0
 30
0.0
 11
-2.5
 21
0.0
 31
0.0
  0
LINE
  5
79
330
2
100
AcDbEntity
  8
Arbeitspunkt(DIN)
 48
25.0
100
AcDbLine
 10
0.0
 20
0.0
 30
0.0
 11
2.5
 21
0.0
 31
0.0
  0
LINE
  5
7A
330
2
100
AcDbEntity
  8
GEB-VERDECKT
 48
25.0
100
AcDbLine
 10
52.30000000000001
 20
27.99999999999978
 30
0.0
 11
50.0
 21
30.29999999999984
 31
0.0
  0
LINE
  5
7E
330
2
100
AcDbEntity
  8
GEB-VERDECKT
 48
25.0
100
AcDbLine
 10
52.30000000000001
 20
-27.99999999999954
 30
0.0
 11
50.0
 21
-30.2999999999995
 31
0.0
  0
POLYLINE
  5
7F
330
2
100
AcDbEntity
  8
GEB-KONTUR-A
 48
25.0
100
AcDb2dPolyline
 66
     1
 10
0.0
 20
0.0
 30
0.0
 70
   128
  0
VERTEX
  5
81
330
7F
100
AcDbEntity
  8
GEB-KONTUR-A
 48
25.0
100
AcDbVertex
100
AcDb2dVertex
 10
75.44555501937868
 20
-21.65063619613602
 30
0.0
  0
VERTEX
  5
82
330
7F
100
AcDbEntity
  8
GEB-KONTUR-A
 48
25.0
100
AcDbVertex
100
AcDb2dVertex
 10
75.51956729888917
 20
-21.92956447601273
 30
0.0
  0
VERTEX
  5
83
330
7F
100
AcDbEntity
  8
GEB-KONTUR-A
 48
25.0
100
AcDbVertex
100
AcDb2dVertex
 10
75.59153156280519
 20
-22.20626592636063
 30
0.0
  0
VERTEX
  5
84
330
7F
100
AcDbEntity
  8
GEB-KONTUR-A
 48
25.0
100
AcDbVertex
100
AcDb2dVertex
 10
75.6614811897278
 20
-22.48082160949662
 30
0.0
  0
VERTEX
  5
85
330
7F
100
AcDbEntity
  8
GEB-KONTUR-A
 48
25.0
100
AcDbVertex
100
AcDb2dVertex
 10
75.72944002151491
 20
-22.753307819366
 30
0.0
  0
VERTEX
  5
86
330
7F
100
AcDbEntity
  8
GEB-KONTUR-A
 48
25.0
100
AcDbVertex
100
AcDb2dVertex
 10
75.79543190002443
 20
-23.0238008499141
 30
0.0
  0
VERTEX
  5
87
330
7F
100
AcDbEntity
  8
GEB-KONTUR-A
 48
25.0
100
AcDbVertex
100
AcDb2dVertex
 10
75.85948305130006
 20
-23.29237222671463
 30
0.0
  0
VERTEX
  5
88
330
7F
100
AcDbEntity
  8
GEB-KONTUR-A
 48
25.0
100
AcDbVertex
100
AcDb2dVertex
 10
75.92161493301393
 20
-23.55909824371293
 30
0.0
  0
VERTEX
  5
89
330
7F
100
AcDbEntity
  8
GEB-KONTUR-A
 48
25.0
100
AcDbVertex
100
AcDb2dVertex
 10
75.98185138702394
 20
-23.82404804229691
 30
0.0
  0
VERTEX
  5
8A
330
7F
100
AcDbEntity
  8
GEB-KONTUR-A
 48
25.0
100
AcDbVertex
100
AcDb2dVertex
 10
76.04021387100221
 20
-24.08729314804032
 30
0.0
  0
VERTEX
  5
8B
330
7F
100
AcDbEntity
  8
GEB-KONTUR-A
 48
25.0
100
AcDbVertex
100
AcDb2dVertex
 10
76.09672145843507
 20
-24.34890508651688
 30
0.0
  0
VERTEX
  5
8C
330
7F
100
AcDbEntity
  8
GEB-KONTUR-A
 48
25.0
100
AcDbVertex
100
AcDb2dVertex
 10
76.15139083862306
 20
-24.60894823074295
 30
0.0
  0
VERTEX
  5
8D
330
7F
100
AcDbEntity
  8
GEB-KONTUR-A
 48
25.0
100
AcDbVertex
100
AcDb2dVertex
 10
76.20424585342409
 20
-24.86749410629227
 30
0.0
  0
VERTEX
  5
8E
330
7F
100
AcDbEntity
  8
GEB-KONTUR-A
 48
25.0
100
AcDbVertex
100
AcDb2dVertex
 10
76.2552984237671
 20
-25.1246047019954
 30
0.0
  0
VERTEX
  5
8F
330
7F
100
AcDbEntity
  8
GEB-KONTUR-A
 48
25.0
100
AcDbVertex
100
AcDb2dVertex
 10
76.30456762313844
 20
-25.38034677505448
 30
0.0
  0
VERTEX
  5
90
330
7F
100
AcDbEntity
  8
GEB-KONTUR-A
 48
25.0
100
AcDbVertex
100
AcDb2dVertex
 10
76.35206775665285
 20
-25.63478708267167
 30
0.0
  0
VERTEX
  5
91
330
7F
100
AcDbEntity
  8
GEB-KONTUR-A
 48
25.0
100
AcDbVertex
100
AcDb2dVertex
 10
76.39781312942506
 20
-25.88798761367741
 30
0.0
  0
VERTEX
  5
92
330
7F
100
AcDbEntity
  8
GEB-KONTUR-A
 48
25.0
100
AcDbVertex
100
AcDb2dVertex
 10
76.44181804656984
 20
-26.14001035690251
 30
0.0
  0
VERTEX
  5
93
330
7F
100
AcDbEntity
  8
GEB-KONTUR-A
 48
25.0
100
AcDbVertex
100
AcDb2dVertex
 10
76.48409681320192
 20
-26.39092206954899
 30
0.0
  0
VERTEX
  5
94
330
7F
100
AcDbEntity
  8
GEB-KONTUR-A
 48
25.0
100
AcDbVertex
100
AcDb2dVertex
 10
76.52465896606447
 20
-26.64077758789006
 30
0.0
  0
VERTEX
  5
95
330
7F
100
AcDbEntity
  8
GEB-KONTUR-A
 48
25.0
100
AcDbVertex
100
AcDb2dVertex
 10
76.56351404190065
 20
-26.88964366912785
 30
0.0
  0
VERTEX
  5
96
330
7F
100
AcDbEntity
  8
GEB-KONTUR-A
 48
25.0
100
AcDbVertex
100
AcDb2dVertex
 10
76.60067634582521
 20
-27.13757991790715
 30
0.0
  0
VERTEX
  5
97
330
7F
100
AcDbEntity
  8
GEB-KONTUR-A
 48
25.0
100
AcDbVertex
100
AcDb2dVertex
 10
76.63615541458131
 20
-27.38464593887272
 30
0.0
  0
VERTEX
  5
98
330
7F
100
AcDbEntity
  8
GEB-KONTUR-A
 48
25.0
100
AcDbVertex
100
AcDb2dVertex
 10
76.66995363235475
 20
-27.63090133666935
 30
0.0
  0
VERTEX
  5
99
330
7F
100
AcDbEntity
  8
GEB-KONTUR-A
 48
25.0
100
AcDbVertex
100
AcDb2dVertex
 10
76.70208530426027
 20
-27.87640333175602
 30
0.0
  0
VERTEX
  5
9A
330
7F
100
AcDbEntity
  8
GEB-KONTUR-A
 48
25.0
100
AcDbVertex
100
AcDb2dVertex
 10
76.73255519866945
 20
-28.12121629714909
 30
0.0
  0
VERTEX
  5
9B
330
7F
100
AcDbEntity
  8
GEB-KONTUR-A
 48
25.0
100
AcDbVertex
100
AcDb2dVertex
 10
76.76136808395387
 20
-28.36539268493595
 30
0.0
  0
VERTEX
  5
9C
330
7F
100
AcDbEntity
  8
GEB-KONTUR-A
 48
25.0
100
AcDbVertex
100
AcDb2dVertex
 10
76.7885334968567
 20
-28.60899686813298
 30
0.0
  0
VERTEX
  5
9D
330
7F
100
AcDbEntity
  8
GEB-KONTUR-A
 48
25.0
100
AcDbVertex
100
AcDb2dVertex
 10
76.81404905319215
 20
-28.85208129882756
 30
0.0
  0
VERTEX
  5
9E
330
7F
100
AcDbEntity
  8
GEB-KONTUR-A
 48
25.0
100
AcDbVertex
100
AcDb2dVertex
 10
76.83792428970338
 20
-29.09471035003605
 30
0.0
  0
VERTEX
  5
9F
330
7F
100
AcDbEntity
  8
GEB-KONTUR-A
 48
25.0
100
AcDbVertex
100
AcDb2dVertex
 10
76.86016159057619
 20
-29.33693647384587
 30
0.0
  0
VERTEX
  5
A0
330
7F
100
AcDbEntity
  8
GEB-KONTUR-A
 48
25.0
100
AcDbVertex
100
AcDb2dVertex
 10
76.88076095581056
 20
-29.57881927490177
 30
0.0
  0
VERTEX
  5
A1
330
7F
100
AcDbEntity
  8
GEB-KONTUR-A
 48
25.0
100
AcDbVertex
100
AcDb2dVertex
 10
76.8997247695923
 20
-29.82042074203434
 30
0.0
  0
VERTEX
  5
A2
330
7F
100
AcDbEntity
  8
GEB-KONTUR-A
 48
25.0
100
AcDbVertex
100
AcDb2dVertex
 10
76.9170530319214
 20
-30.06179332733097
 30
0.0
  0
VERTEX
  5
A3
330
7F
100
AcDbEntity
  8
GEB-KONTUR-A
 48
25.0
100
AcDbVertex
100
AcDb2dVertex
 10
76.93274812698366
 20
-30.30299663543644
 30
0.0
  0
VERTEX
  5
A4
330
7F
100
AcDbEntity
  8
GEB-KONTUR-A
 48
25.0
100
AcDbVertex
100
AcDb2dVertex
 10
76.94680767059328
 20
-30.54409265518132
 30
0.0
  0
VERTEX
  5
A5
330
7F
100
AcDbEntity
  8
GEB-KONTUR-A
 48
25.0
100
AcDbVertex
100
AcDb2dVertex
 10
76.95922689437868
 20
-30.785133838653
 30
0.0
  0
VERTEX
  5
A6
330
7F
100
AcDbEntity
  8
GEB-KONTUR-A
 48
25.0
100
AcDbVertex
100
AcDb2dVertex
 10
76.97000818252565
 20
-31.02618455886784
 30
0.0
  0
VERTEX
  5
A7
330
7F
100
AcDbEntity
  8
GEB-KONTUR-A
 48
25.0
100
AcDbVertex
100
AcDb2dVertex
 10
76.97914438247682
 20
-31.26729965209904
 30
0.0
  0
VERTEX
  5
A8
330
7F
100
AcDbEntity
  8
GEB-KONTUR-A
 48
25.0
100
AcDbVertex
100
AcDb2dVertex
 10
76.98663549423219
 20
-31.50853872299137
 30
0.0
  0
VERTEX
  5
A9
330
7F
100
AcDbEntity
  8
GEB-KONTUR-A
 48
25.0
100
AcDbVertex
100
AcDb2dVertex
 10
76.9924719810486
 20
-31.7499661445612
 30
0.0
  0
VERTEX
  5
AA
330
7F
100
AcDbEntity
  8
GEB-KONTUR-A
 48
25.0
100
AcDbVertex
100
AcDb2dVertex
 10
76.99664907455446
 20
-31.99163436889592
 30
0.0
  0
VERTEX
  5
AB
330
7F
100
AcDbEntity
  8
GEB-KONTUR-A
 48
25.0
100
AcDbVertex
100
AcDb2dVertex
 10
76.9991596221924
 20
-32.23361015319767
 30
0.0
  0
VERTEX
  5
AC
330
7F
100
AcDbEntity
  8
GEB-KONTUR-A
 48
25.0
100
AcDbVertex
100
AcDb2dVertex
 10
76.99999885559083
 20
-32.47595310211125
 30
0.0
  0
SEQEND
  5
AD
330
7F
100
AcDbEntity
  8
GEB-KONTUR-A
 48
25.0
  0
POLYLINE
  5
AE
330
2
100
AcDbEntity
  8
GEB-KONTUR-A
 48
25.0
100
AcDb2dPolyline
 66
     1
 10
0.0
 20
0.0
 30
0.0
 70
   128
  0
VERTEX
  5
AF
330
AE
100
AcDbEntity
  8
GEB-KONTUR-A
 48
25.0
100
AcDbVertex
100
AcDb2dVertex
 10
76.99999885559083
 20
-32.47595310211125
 30
0.0
  0
VERTEX
  5
B0
330
AE
100
AcDbEntity
  8
GEB-KONTUR-A
 48
25.0
100
AcDbVertex
100
AcDb2dVertex
 10
76.9991596221924
 20
-32.71829366683903
 30
0.0
  0
VERTEX
  5
B1
330
AE
100
AcDbEntity
  8
GEB-KONTUR-A
 48
25.0
100
AcDbVertex
100
AcDb2dVertex
 10
76.99664907455446
 20
-32.96026945114079
 30
0.0
  0
VERTEX
  5
B2
330
AE
100
AcDbEntity
  8
GEB-KONTUR-A
 48
25.0
100
AcDbVertex
100
AcDb2dVertex
 10
76.9924719810486
 20
-33.2019400596613
 30
0.0
  0
VERTEX
  5
B3
330
AE
100
AcDbEntity
  8
GEB-KONTUR-A
 48
25.0
100
AcDbVertex
100
AcDb2dVertex
 10
76.98663549423219
 20
-33.44336509704533
 30
0.0
  0
VERTEX
  5
B4
330
AE
100
AcDbEntity
  8
GEB-KONTUR-A
 48
25.0
100
AcDbVertex
100
AcDb2dVertex
 10
76.97914438247682
 20
-33.68460655212345
 30
0.0
  0
VERTEX
  5
B5
330
AE
100
AcDbEntity
  8
GEB-KONTUR-A
 48
25.0
100
AcDbVertex
100
AcDb2dVertex
 10
76.97000818252565
 20
-33.92572164535466
 30
0.0
  0
VERTEX
  5
B6
330
AE
100
AcDbEntity
  8
GEB-KONTUR-A
 48
25.0
100
AcDbVertex
100
AcDb2dVertex
 10
76.95922689437868
 20
-34.16676998138371
 30
0.0
  0
VERTEX
  5
B7
330
AE
100
AcDbEntity
  8
GEB-KONTUR-A
 48
25.0
100
AcDbVertex
100
AcDb2dVertex
 10
76.94680767059328
 20
-34.40781354904118
 30
0.0
  0
VERTEX
  5
B8
330
AE
100
AcDbEntity
  8
GEB-KONTUR-A
 48
25.0
100
AcDbVertex
100
AcDb2dVertex
 10
76.93274812698366
 20
-34.64890718460026
 30
0.0
  0
VERTEX
  5
B9
330
AE
100
AcDbEntity
  8
GEB-KONTUR-A
 48
25.0
100
AcDbVertex
100
AcDb2dVertex
 10
76.9170530319214
 20
-34.89011287689152
 30
0.0
  0
VERTEX
  5
BA
330
AE
100
AcDbEntity
  8
GEB-KONTUR-A
 48
25.0
100
AcDbVertex
100
AcDb2dVertex
 10
76.8997247695923
 20
-35.13148546218815
 30
0.0
  0
VERTEX
  5
BB
330
AE
100
AcDbEntity
  8
GEB-KONTUR-A
 48
25.0
100
AcDbVertex
100
AcDb2dVertex
 10
76.88076095581056
 20
-35.37308454513493
 30
0.0
  0
VERTEX
  5
BC
330
AE
100
AcDbEntity
  8
GEB-KONTUR-A
 48
25.0
100
AcDbVertex
100
AcDb2dVertex
 10
76.86016159057619
 20
-35.61496973037663
 30
0.0
  0
VERTEX
  5
BD
330
AE
100
AcDbEntity
  8
GEB-KONTUR-A
 48
25.0
100
AcDbVertex
100
AcDb2dVertex
 10
76.83792428970338
 20
-35.85719585418644
 30
0.0
  0
VERTEX
  5
BE
330
AE
100
AcDbEntity
  8
GEB-KONTUR-A
 48
25.0
100
AcDbVertex
100
AcDb2dVertex
 10
76.81404905319215
 20
-36.09982252120915
 30
0.0
  0
VERTEX
  5
BF
330
AE
100
AcDbEntity
  8
GEB-KONTUR-A
 48
25.0
100
AcDbVertex
100
AcDb2dVertex
 10
76.7885334968567
 20
-36.34290933608952
 30
0.0
  0
VERTEX
  5
C0
330
AE
100
AcDbEntity
  8
GEB-KONTUR-A
 48
25.0
100
AcDbVertex
100
AcDb2dVertex
 10
76.76136808395387
 20
-36.58651113510075
 30
0.0
  0
VERTEX
  5
C1
330
AE
100
AcDbEntity
  8
GEB-KONTUR-A
 48
25.0
100
AcDbVertex
100
AcDb2dVertex
 10
76.73255519866945
 20
-36.83068990707341
 30
0.0
  0
VERTEX
  5
C2
330
AE
100
AcDbEntity
  8
GEB-KONTUR-A
 48
25.0
100
AcDbVertex
100
AcDb2dVertex
 10
76.70208530426027
 20
-37.07550048828068
 30
0.0
  0
VERTEX
  5
C3
330
AE
100
AcDbEntity
  8
GEB-KONTUR-A
 48
25.0
100
AcDbVertex
100
AcDb2dVertex
 10
76.66995363235475
 20
-37.32100486755314
 30
0.0
  0
VERTEX
  5
C4
330
AE
100
AcDbEntity
  8
GEB-KONTUR-A
 48
25.0
100
AcDbVertex
100
AcDb2dVertex
 10
76.63615541458131
 20
-37.56726026534977
 30
0.0
  0
VERTEX
  5
C5
330
AE
100
AcDbEntity
  8
GEB-KONTUR-A
 48
25.0
100
AcDbVertex
100
AcDb2dVertex
 10
76.60067634582521
 20
-37.81432390212956
 30
0.0
  0
VERTEX
  5
C6
330
AE
100
AcDbEntity
  8
GEB-KONTUR-A
 48
25.0
100
AcDbVertex
100
AcDb2dVertex
 10
76.56351404190065
 20
-38.06226015090874
 30
0.0
  0
VERTEX
  5
C7
330
AE
100
AcDbEntity
  8
GEB-KONTUR-A
 48
25.0
100
AcDbVertex
100
AcDb2dVertex
 10
76.52465896606447
 20
-38.31112623214654
 30
0.0
  0
VERTEX
  5
C8
330
AE
100
AcDbEntity
  8
GEB-KONTUR-A
 48
25.0
100
AcDbVertex
100
AcDb2dVertex
 10
76.48409681320192
 20
-38.56098413467339
 30
0.0
  0
VERTEX
  5
C9
330
AE
100
AcDbEntity
  8
GEB-KONTUR-A
 48
25.0
100
AcDbVertex
100
AcDb2dVertex
 10
76.44181804656984
 20
-38.81189346313409
 30
0.0
  0
VERTEX
  5
CA
330
AE
100
AcDbEntity
  8
GEB-KONTUR-A
 48
25.0
100
AcDbVertex
100
AcDb2dVertex
 10
76.39781312942506
 20
-39.06391859054497
 30
0.0
  0
VERTEX
  5
CB
330
AE
100
AcDbEntity
  8
GEB-KONTUR-A
 48
25.0
100
AcDbVertex
100
AcDb2dVertex
 10
76.35206775665285
 20
-39.31711912155083
 30
0.0
  0
VERTEX
  5
CC
330
AE
100
AcDbEntity
  8
GEB-KONTUR-A
 48
25.0
100
AcDbVertex
100
AcDb2dVertex
 10
76.30456762313844
 20
-39.57155704498223
 30
0.0
  0
VERTEX
  5
CD
330
AE
100
AcDbEntity
  8
GEB-KONTUR-A
 48
25.0
100
AcDbVertex
100
AcDb2dVertex
 10
76.2552984237671
 20
-39.8273015022271
 30
0.0
  0
VERTEX
  5
CE
330
AE
100
AcDbEntity
  8
GEB-KONTUR-A
 48
25.0
100
AcDbVertex
100
AcDb2dVertex
 10
76.20424585342409
 20
-40.08441448211601
 30
0.0
  0
VERTEX
  5
CF
330
AE
100
AcDbEntity
  8
GEB-KONTUR-A
 48
25.0
100
AcDbVertex
100
AcDb2dVertex
 10
76.15139083862306
 20
-40.34295558929374
 30
0.0
  0
VERTEX
  5
D0
330
AE
100
AcDbEntity
  8
GEB-KONTUR-A
 48
25.0
100
AcDbVertex
100
AcDb2dVertex
 10
76.09672145843507
 20
-40.60299873351982
 30
0.0
  0
VERTEX
  5
D1
330
AE
100
AcDbEntity
  8
GEB-KONTUR-A
 48
25.0
100
AcDbVertex
100
AcDb2dVertex
 10
76.04021387100221
 20
-40.86461067199638
 30
0.0
  0
VERTEX
  5
D2
330
AE
100
AcDbEntity
  8
GEB-KONTUR-A
 48
25.0
100
AcDbVertex
100
AcDb2dVertex
 10
75.98185138702394
 20
-41.12785816192558
 30
0.0
  0
VERTEX
  5
D3
330
AE
100
AcDbEntity
  8
GEB-KONTUR-A
 48
25.0
100
AcDbVertex
100
AcDb2dVertex
 10
75.92161493301393
 20
-41.39280796050957
 30
0.0
  0
VERTEX
  5
D4
330
AE
100
AcDbEntity
  8
GEB-KONTUR-A
 48
25.0
100
AcDbVertex
100
AcDb2dVertex
 10
75.85948305130006
 20
-41.65953159332207
 30
0.0
  0
VERTEX
  5
D5
330
AE
100
AcDbEntity
  8
GEB-KONTUR-A
 48
25.0
100
AcDbVertex
100
AcDb2dVertex
 10
75.79543190002443
 20
-41.92810535430839
 30
0.0
  0
VERTEX
  5
D6
330
AE
100
AcDbEntity
  8
GEB-KONTUR-A
 48
25.0
100
AcDbVertex
100
AcDb2dVertex
 10
75.72944002151491
 20
-42.1985960006707
 30
0.0
  0
VERTEX
  5
D7
330
AE
100
AcDbEntity
  8
GEB-KONTUR-A
 48
25.0
100
AcDbVertex
100
AcDb2dVertex
 10
75.6614811897278
 20
-42.47108459472587
 30
0.0
  0
VERTEX
  5
D8
330
AE
100
AcDbEntity
  8
GEB-KONTUR-A
 48
25.0
100
AcDbVertex
100
AcDb2dVertex
 10
75.59153156280519
 20
-42.74563789367607
 30
0.0
  0
VERTEX
  5
D9
330
AE
100
AcDbEntity
  8
GEB-KONTUR-A
 48
25.0
100
AcDbVertex
100
AcDb2dVertex
 10
75.51956729888917
 20
-43.02234172820976
 30
0.0
  0
VERTEX
  5
DA
330
AE
100
AcDbEntity
  8
GEB-KONTUR-A
 48
25.0
100
AcDbVertex
100
AcDb2dVertex
 10
75.44555501937868
 20
-43.30127239227226
 30
0.0
  0
SEQEND
  5
DB
330
AE
100
AcDbEntity
  8
GEB-KONTUR-A
 48
25.0
  0
POLYLINE
  5
DC
330
2
100
AcDbEntity
  8
GEB-KONTUR-A
 48
25.0
100
AcDb2dPolyline
 66
     1
 10
0.0
 20
0.0
 30
0.0
 70
   128
  0
VERTEX
  5
DD
330
DC
100
AcDbEntity
  8
GEB-KONTUR-A
 48
25.0
100
AcDbVertex
100
AcDb2dVertex
 10
67.5544460296631
 20
-43.30127239227226
 30
0.0
  0
VERTEX
  5
DE
330
DC
100
AcDbEntity
  8
GEB-KONTUR-A
 48
25.0
100
AcDbVertex
100
AcDb2dVertex
 10
67.4804337501526
 20
-43.02234172820976
 30
0.0
  0
VERTEX
  5
DF
330
DC
100
AcDbEntity
  8
GEB-KONTUR-A
 48
25.0
100
AcDbVertex
100
AcDb2dVertex
 10
67.40846710205079
 20
-42.74563789367607
 30
0.0
  0
VERTEX
  5
E0
330
DC
100
AcDbEntity
  8
GEB-KONTUR-A
 48
25.0
100
AcDbVertex
100
AcDb2dVertex
 10
67.33851747512819
 20
-42.47108459472587
 30
0.0
  0
VERTEX
  5
E1
330
DC
100
AcDbEntity
  8
GEB-KONTUR-A
 48
25.0
100
AcDbVertex
100
AcDb2dVertex
 10
67.27056102752687
 20
-42.1985960006707
 30
0.0
  0
VERTEX
  5
E2
330
DC
100
AcDbEntity
  8
GEB-KONTUR-A
 48
25.0
100
AcDbVertex
100
AcDb2dVertex
 10
67.20456914901735
 20
-41.92810535430839
 30
0.0
  0
VERTEX
  5
E3
330
DC
100
AcDbEntity
  8
GEB-KONTUR-A
 48
25.0
100
AcDbVertex
100
AcDb2dVertex
 10
67.14051799774171
 20
-41.65953159332207
 30
0.0
  0
VERTEX
  5
E4
330
DC
100
AcDbEntity
  8
GEB-KONTUR-A
 48
25.0
100
AcDbVertex
100
AcDb2dVertex
 10
67.07838373184205
 20
-41.39280796050957
 30
0.0
  0
VERTEX
  5
E5
330
DC
100
AcDbEntity
  8
GEB-KONTUR-A
 48
25.0
100
AcDbVertex
100
AcDb2dVertex
 10
67.01814727783204
 20
-41.12785816192558
 30
0.0
  0
VERTEX
  5
E6
330
DC
100
AcDbEntity
  8
GEB-KONTUR-A
 48
25.0
100
AcDbVertex
100
AcDb2dVertex
 10
66.95978717803956
 20
-40.86461067199638
 30
0.0
  0
VERTEX
  5
E7
330
DC
100
AcDbEntity
  8
GEB-KONTUR-A
 48
25.0
100
AcDbVertex
100
AcDb2dVertex
 10
66.9032795906067
 20
-40.60299873351982
 30
0.0
  0
VERTEX
  5
E8
330
DC
100
AcDbEntity
  8
GEB-KONTUR-A
 48
25.0
100
AcDbVertex
100
AcDb2dVertex
 10
66.84860782623292
 20
-40.34295558929374
 30
0.0
  0
VERTEX
  5
E9
330
DC
100
AcDbEntity
  8
GEB-KONTUR-A
 48
25.0
100
AcDbVertex
100
AcDb2dVertex
 10
66.79575519561769
 20
-40.08441448211601
 30
0.0
  0
VERTEX
  5
EA
330
DC
100
AcDbEntity
  8
GEB-KONTUR-A
 48
25.0
100
AcDbVertex
100
AcDb2dVertex
 10
66.74470262527467
 20
-39.8273015022271
 30
0.0
  0
VERTEX
  5
EB
330
DC
100
AcDbEntity
  8
GEB-KONTUR-A
 48
25.0
100
AcDbVertex
100
AcDb2dVertex
 10
66.69543342590333
 20
-39.57155704498234
 30
0.0
  0
VERTEX
  5
EC
330
DC
100
AcDbEntity
  8
GEB-KONTUR-A
 48
25.0
100
AcDbVertex
100
AcDb2dVertex
 10
66.64793329238893
 20
-39.31711912155094
 30
0.0
  0
VERTEX
  5
ED
330
DC
100
AcDbEntity
  8
GEB-KONTUR-A
 48
25.0
100
AcDbVertex
100
AcDb2dVertex
 10
66.60218791961671
 20
-39.06391859054508
 30
0.0
  0
VERTEX
  5
EE
330
DC
100
AcDbEntity
  8
GEB-KONTUR-A
 48
25.0
100
AcDbVertex
100
AcDb2dVertex
 10
66.55818061828615
 20
-38.8118934631342
 30
0.0
  0
VERTEX
  5
EF
330
DC
100
AcDbEntity
  8
GEB-KONTUR-A
 48
25.0
100
AcDbVertex
100
AcDb2dVertex
 10
66.51590423583986
 20
-38.5609841346735
 30
0.0
  0
VERTEX
  5
F0
330
DC
100
AcDbEntity
  8
GEB-KONTUR-A
 48
25.0
100
AcDbVertex
100
AcDb2dVertex
 10
66.47534208297731
 20
-38.31112623214665
 30
0.0
  0
VERTEX
  5
F1
330
DC
100
AcDbEntity
  8
GEB-KONTUR-A
 48
25.0
100
AcDbVertex
100
AcDb2dVertex
 10
66.43648462295534
 20
-38.06226015090885
 30
0.0
  0
VERTEX
  5
F2
330
DC
100
AcDbEntity
  8
GEB-KONTUR-A
 48
25.0
100
AcDbVertex
100
AcDb2dVertex
 10
66.39932231903078
 20
-37.81432390212956
 30
0.0
  0
VERTEX
  5
F3
330
DC
100
AcDbEntity
  8
GEB-KONTUR-A
 48
25.0
100
AcDbVertex
100
AcDb2dVertex
 10
66.36384563446046
 20
-37.56726026534977
 30
0.0
  0
VERTEX
  5
F4
330
DC
100
AcDbEntity
  8
GEB-KONTUR-A
 48
25.0
100
AcDbVertex
100
AcDb2dVertex
 10
66.33004503250123
 20
-37.32100486755314
 30
0.0
  0
VERTEX
  5
F5
330
DC
100
AcDbEntity
  8
GEB-KONTUR-A
 48
25.0
100
AcDbVertex
100
AcDb2dVertex
 10
66.29791336059572
 20
-37.07550048828068
 30
0.0
  0
VERTEX
  5
F6
330
DC
100
AcDbEntity
  8
GEB-KONTUR-A
 48
25.0
100
AcDbVertex
100
AcDb2dVertex
 10
66.26744346618654
 20
-36.83068990707341
 30
0.0
  0
VERTEX
  5
F7
330
DC
100
AcDbEntity
  8
GEB-KONTUR-A
 48
25.0
100
AcDbVertex
100
AcDb2dVertex
 10
66.23863058090211
 20
-36.58651113510075
 30
0.0
  0
VERTEX
  5
F8
330
DC
100
AcDbEntity
  8
GEB-KONTUR-A
 48
25.0
100
AcDbVertex
100
AcDb2dVertex
 10
66.21146755218507
 20
-36.34290933608952
 30
0.0
  0
VERTEX
  5
F9
330
DC
100
AcDbEntity
  8
GEB-KONTUR-A
 48
25.0
100
AcDbVertex
100
AcDb2dVertex
 10
66.18594961166383
 20
-36.09982252120915
 30
0.0
  0
VERTEX
  5
FA
330
DC
100
AcDbEntity
  8
GEB-KONTUR-A
 48
25.0
100
AcDbVertex
100
AcDb2dVertex
 10
66.1620743751526
 20
-35.85719585418644
 30
0.0
  0
VERTEX
  5
FB
330
DC
100
AcDbEntity
  8
GEB-KONTUR-A
 48
25.0
100
AcDbVertex
100
AcDb2dVertex
 10
66.13983945846559
 20
-35.61496973037663
 30
0.0
  0
VERTEX
  5
FC
330
DC
100
AcDbEntity
  8
GEB-KONTUR-A
 48
25.0
100
AcDbVertex
100
AcDb2dVertex
 10
66.11924009323121
 20
-35.37308454513493
 30
0.0
  0
VERTEX
  5
FD
330
DC
100
AcDbEntity
  8
GEB-KONTUR-A
 48
25.0
100
AcDbVertex
100
AcDb2dVertex
 10
66.10027389526369
 20
-35.13148546218815
 30
0.0
  0
VERTEX
  5
FE
330
DC
100
AcDbEntity
  8
GEB-KONTUR-A
 48
25.0
100
AcDbVertex
100
AcDb2dVertex
 10
66.08294563293458
 20
-34.89011287689152
 30
0.0
  0
VERTEX
  5
FF
330
DC
100
AcDbEntity
  8
GEB-KONTUR-A
 48
25.0
100
AcDbVertex
100
AcDb2dVertex
 10
66.06725053787233
 20
-34.64890718460026
 30
0.0
  0
VERTEX
  5
100
330
DC
100
AcDbEntity
  8
GEB-KONTUR-A
 48
25.0
100
AcDbVertex
100
AcDb2dVertex
 10
66.0531933784485
 20
-34.40781354904118
 30
0.0
  0
VERTEX
  5
101
330
DC
100
AcDbEntity
  8
GEB-KONTUR-A
 48
25.0
100
AcDbVertex
100
AcDb2dVertex
 10
66.04077177047731
 20
-34.16676998138371
 30
0.0
  0
VERTEX
  5
102
330
DC
100
AcDbEntity
  8
GEB-KONTUR-A
 48
25.0
100
AcDbVertex
100
AcDb2dVertex
 10
66.02999286651613
 20
-33.92572164535466
 30
0.0
  0
VERTEX
  5
103
330
DC
100
AcDbEntity
  8
GEB-KONTUR-A
 48
25.0
100
AcDbVertex
100
AcDb2dVertex
 10
66.02085428237916
 20
-33.68460655212345
 30
0.0
  0
VERTEX
  5
104
330
DC
100
AcDbEntity
  8
GEB-KONTUR-A
 48
25.0
100
AcDbVertex
100
AcDb2dVertex
 10
66.01336555480958
 20
-33.44336509704533
 30
0.0
  0
VERTEX
  5
105
330
DC
100
AcDbEntity
  8
GEB-KONTUR-A
 48
25.0
100
AcDbVertex
100
AcDb2dVertex
 10
66.00752906799318
 20
-33.2019400596613
 30
0.0
  0
VERTEX
  5
106
330
DC
100
AcDbEntity
  8
GEB-KONTUR-A
 48
25.0
100
AcDbVertex
100
AcDb2dVertex
 10
66.00335197448732
 20
-32.96026945114079
 30
0.0
  0
VERTEX
  5
107
330
DC
100
AcDbEntity
  8
GEB-KONTUR-A
 48
25.0
100
AcDbVertex
100
AcDb2dVertex
 10
66.00083904266359
 20
-32.71829366683903
 30
0.0
  0
VERTEX
  5
108
330
DC
100
AcDbEntity
  8
GEB-KONTUR-A
 48
25.0
100
AcDbVertex
100
AcDb2dVertex
 10
65.99999980926515
 20
-32.47595310211125
 30
0.0
  0
SEQEND
  5
109
330
DC
100
AcDbEntity
  8
GEB-KONTUR-A
 48
25.0
  0
POLYLINE
  5
10A
330
2
100
AcDbEntity
  8
GEB-KONTUR-A
 48
25.0
100
AcDb2dPolyline
 66
     1
 10
0.0
 20
0.0
 30
0.0
 70
   128
  0
VERTEX
  5
10B
330
10A
100
AcDbEntity
  8
GEB-KONTUR-A
 48
25.0
100
AcDbVertex
100
AcDb2dVertex
 10
65.99999980926515
 20
-32.47595310211125
 30
0.0
  0
VERTEX
  5
10C
330
10A
100
AcDbEntity
  8
GEB-KONTUR-A
 48
25.0
100
AcDbVertex
100
AcDb2dVertex
 10
66.00083904266359
 20
-32.23361015319767
 30
0.0
  0
VERTEX
  5
10D
330
10A
100
AcDbEntity
  8
GEB-KONTUR-A
 48
25.0
100
AcDbVertex
100
AcDb2dVertex
 10
66.00335197448732
 20
-31.99163436889592
 30
0.0
  0
VERTEX
  5
10E
330
10A
100
AcDbEntity
  8
GEB-KONTUR-A
 48
25.0
100
AcDbVertex
100
AcDb2dVertex
 10
66.00752906799318
 20
-31.7499661445612
 30
0.0
  0
VERTEX
  5
10F
330
10A
100
AcDbEntity
  8
GEB-KONTUR-A
 48
25.0
100
AcDbVertex
100
AcDb2dVertex
 10
66.01336555480958
 20
-31.50853872299137
 30
0.0
  0
VERTEX
  5
110
330
10A
100
AcDbEntity
  8
GEB-KONTUR-A
 48
25.0
100
AcDbVertex
100
AcDb2dVertex
 10
66.02085428237916
 20
-31.26729965209904
 30
0.0
  0
VERTEX
  5
111
330
10A
100
AcDbEntity
  8
GEB-KONTUR-A
 48
25.0
100
AcDbVertex
100
AcDb2dVertex
 10
66.02999286651613
 20
-31.02618455886784
 30
0.0
  0
VERTEX
  5
112
330
10A
100
AcDbEntity
  8
GEB-KONTUR-A
 48
25.0
100
AcDbVertex
100
AcDb2dVertex
 10
66.04077177047731
 20
-30.785133838653
 30
0.0
  0
VERTEX
  5
113
330
10A
100
AcDbEntity
  8
GEB-KONTUR-A
 48
25.0
100
AcDbVertex
100
AcDb2dVertex
 10
66.0531933784485
 20
-30.54409265518132
 30
0.0
  0
VERTEX
  5
114
330
10A
100
AcDbEntity
  8
GEB-KONTUR-A
 48
25.0
100
AcDbVertex
100
AcDb2dVertex
 10
66.06725053787233
 20
-30.30299663543644
 30
0.0
  0
VERTEX
  5
115
330
10A
100
AcDbEntity
  8
GEB-KONTUR-A
 48
25.0
100
AcDbVertex
100
AcDb2dVertex
 10
66.08294563293458
 20
-30.06179332733097
 30
0.0
  0
VERTEX
  5
116
330
10A
100
AcDbEntity
  8
GEB-KONTUR-A
 48
25.0
100
AcDbVertex
100
AcDb2dVertex
 10
66.10027389526369
 20
-29.82042074203434
 30
0.0
  0
VERTEX
  5
117
330
10A
100
AcDbEntity
  8
GEB-KONTUR-A
 48
25.0
100
AcDbVertex
100
AcDb2dVertex
 10
66.11924009323121
 20
-29.57881927490177
 30
0.0
  0
VERTEX
  5
118
330
10A
100
AcDbEntity
  8
GEB-KONTUR-A
 48
25.0
100
AcDbVertex
100
AcDb2dVertex
 10
66.13983945846559
 20
-29.33693647384587
 30
0.0
  0
VERTEX
  5
119
330
10A
100
AcDbEntity
  8
GEB-KONTUR-A
 48
25.0
100
AcDbVertex
100
AcDb2dVertex
 10
66.1620743751526
 20
-29.09471035003605
 30
0.0
  0
VERTEX
  5
11A
330
10A
100
AcDbEntity
  8
GEB-KONTUR-A
 48
25.0
100
AcDbVertex
100
AcDb2dVertex
 10
66.18594961166383
 20
-28.85208129882756
 30
0.0
  0
VERTEX
  5
11B
330
10A
100
AcDbEntity
  8
GEB-KONTUR-A
 48
25.0
100
AcDbVertex
100
AcDb2dVertex
 10
66.21146755218507
 20
-28.60899686813298
 30
0.0
  0
VERTEX
  5
11C
330
10A
100
AcDbEntity
  8
GEB-KONTUR-A
 48
25.0
100
AcDbVertex
100
AcDb2dVertex
 10
66.23863058090211
 20
-28.36539268493595
 30
0.0
  0
VERTEX
  5
11D
330
10A
100
AcDbEntity
  8
GEB-KONTUR-A
 48
25.0
100
AcDbVertex
100
AcDb2dVertex
 10
66.26744346618654
 20
-28.12121629714909
 30
0.0
  0
VERTEX
  5
11E
330
10A
100
AcDbEntity
  8
GEB-KONTUR-A
 48
25.0
100
AcDbVertex
100
AcDb2dVertex
 10
66.29791336059572
 20
-27.87640333175602
 30
0.0
  0
VERTEX
  5
11F
330
10A
100
AcDbEntity
  8
GEB-KONTUR-A
 48
25.0
100
AcDbVertex
100
AcDb2dVertex
 10
66.33004503250123
 20
-27.63090133666935
 30
0.0
  0
VERTEX
  5
120
330
10A
100
AcDbEntity
  8
GEB-KONTUR-A
 48
25.0
100
AcDbVertex
100
AcDb2dVertex
 10
66.36384563446046
 20
-27.38464593887284
 30
0.0
  0
VERTEX
  5
121
330
10A
100
AcDbEntity
  8
GEB-KONTUR-A
 48
25.0
100
AcDbVertex
100
AcDb2dVertex
 10
66.39932231903078
 20
-27.13757991790726
 30
0.0
  0
VERTEX
  5
122
330
10A
100
AcDbEntity
  8
GEB-KONTUR-A
 48
25.0
100
AcDbVertex
100
AcDb2dVertex
 10
66.43648462295534
 20
-26.88964366912796
 30
0.0
  0
VERTEX
  5
123
330
10A
100
AcDbEntity
  8
GEB-KONTUR-A
 48
25.0
100
AcDbVertex
100
AcDb2dVertex
 10
66.47534208297731
 20
-26.64077758789017
 30
0.0
  0
VERTEX
  5
124
330
10A
100
AcDbEntity
  8
GEB-KONTUR-A
 48
25.0
100
AcDbVertex
100
AcDb2dVertex
 10
66.51590423583986
 20
-26.39092206954911
 30
0.0
  0
VERTEX
  5
125
330
10A
100
AcDbEntity
  8
GEB-KONTUR-A
 48
25.0
100
AcDbVertex
100
AcDb2dVertex
 10
66.55818061828615
 20
-26.14001035690262
 30
0.0
  0
VERTEX
  5
126
330
10A
100
AcDbEntity
  8
GEB-KONTUR-A
 48
25.0
100
AcDbVertex
100
AcDb2dVertex
 10
66.60218791961671
 20
-25.88798761367752
 30
0.0
  0
VERTEX
  5
127
330
10A
100
AcDbEntity
  8
GEB-KONTUR-A
 48
25.0
100
AcDbVertex
100
AcDb2dVertex
 10
66.64793329238893
 20
-25.63478708267167
 30
0.0
  0
VERTEX
  5
128
330
10A
100
AcDbEntity
  8
GEB-KONTUR-A
 48
25.0
100
AcDbVertex
100
AcDb2dVertex
 10
66.69543342590333
 20
-25.38034677505448
 30
0.0
  0
VERTEX
  5
129
330
10A
100
AcDbEntity
  8
GEB-KONTUR-A
 48
25.0
100
AcDbVertex
100
AcDb2dVertex
 10
66.74470262527467
 20
-25.1246047019954
 30
0.0
  0
VERTEX
  5
12A
330
10A
100
AcDbEntity
  8
GEB-KONTUR-A
 48
25.0
100
AcDbVertex
100
AcDb2dVertex
 10
66.79575519561769
 20
-24.86749410629227
 30
0.0
  0
VERTEX
  5
12B
330
10A
100
AcDbEntity
  8
GEB-KONTUR-A
 48
25.0
100
AcDbVertex
100
AcDb2dVertex
 10
66.84860782623292
 20
-24.60894823074295
 30
0.0
  0
VERTEX
  5
12C
330
10A
100
AcDbEntity
  8
GEB-KONTUR-A
 48
25.0
100
AcDbVertex
100
AcDb2dVertex
 10
66.9032795906067
 20
-24.34890508651688
 30
0.0
  0
VERTEX
  5
12D
330
10A
100
AcDbEntity
  8
GEB-KONTUR-A
 48
25.0
100
AcDbVertex
100
AcDb2dVertex
 10
66.95978717803956
 20
-24.08729314804032
 30
0.0
  0
VERTEX
  5
12E
330
10A
100
AcDbEntity
  8
GEB-KONTUR-A
 48
25.0
100
AcDbVertex
100
AcDb2dVertex
 10
67.01814727783204
 20
-23.82404804229691
 30
0.0
  0
VERTEX
  5
12F
330
10A
100
AcDbEntity
  8
GEB-KONTUR-A
 48
25.0
100
AcDbVertex
100
AcDb2dVertex
 10
67.07838373184205
 20
-23.55909824371293
 30
0.0
  0
VERTEX
  5
130
330
10A
100
AcDbEntity
  8
GEB-KONTUR-A
 48
25.0
100
AcDbVertex
100
AcDb2dVertex
 10
67.14051799774171
 20
-23.29237222671463
 30
0.0
  0
VERTEX
  5
131
330
10A
100
AcDbEntity
  8
GEB-KONTUR-A
 48
25.0
100
AcDbVertex
100
AcDb2dVertex
 10
67.20456914901735
 20
-23.0238008499141
 30
0.0
  0
VERTEX
  5
132
330
10A
100
AcDbEntity
  8
GEB-KONTUR-A
 48
25.0
100
AcDbVertex
100
AcDb2dVertex
 10
67.27056102752687
 20
-22.753307819366
 30
0.0
  0
VERTEX
  5
133
330
10A
100
AcDbEntity
  8
GEB-KONTUR-A
 48
25.0
100
AcDbVertex
100
AcDb2dVertex
 10
67.33851747512819
 20
-22.48082160949662
 30
0.0
  0
VERTEX
  5
134
330
10A
100
AcDbEntity
  8
GEB-KONTUR-A
 48
25.0
100
AcDbVertex
100
AcDb2dVertex
 10
67.40846710205079
 20
-22.20626592636063
 30
0.0
  0
VERTEX
  5
135
330
10A
100
AcDbEntity
  8
GEB-KONTUR-A
 48
25.0
100
AcDbVertex
100
AcDb2dVertex
 10
67.4804337501526
 20
-21.92956447601273
 30
0.0
  0
VERTEX
  5
136
330
10A
100
AcDbEntity
  8
GEB-KONTUR-A
 48
25.0
100
AcDbVertex
100
AcDb2dVertex
 10
67.5544460296631
 20
-21.65063619613602
 30
0.0
  0
SEQEND
  5
137
330
10A
100
AcDbEntity
  8
GEB-KONTUR-A
 48
25.0
  0
POLYLINE
  5
138
330
2
100
AcDbEntity
  8
GEB-KONTUR-A
 48
25.0
100
AcDb2dPolyline
 66
     1
 10
0.0
 20
0.0
 30
0.0
 70
   128
  0
VERTEX
  5
139
330
138
100
AcDbEntity
  8
GEB-KONTUR-A
 48
25.0
100
AcDbVertex
100
AcDb2dVertex
 10
75.44555501937868
 20
21.65063619613647
 30
0.0
  0
VERTEX
  5
13A
330
138
100
AcDbEntity
  8
GEB-KONTUR-A
 48
25.0
100
AcDbVertex
100
AcDb2dVertex
 10
75.51956729888917
 20
21.09277963638306
 30
0.0
  0
VERTEX
  5
13B
330
138
100
AcDbEntity
  8
GEB-KONTUR-A
 48
25.0
100
AcDbVertex
100
AcDb2dVertex
 10
75.59153156280519
 20
20.53937435150146
 30
0.0
  0
VERTEX
  5
13C
330
138
100
AcDbEntity
  8
GEB-KONTUR-A
 48
25.0
100
AcDbVertex
100
AcDb2dVertex
 10
75.6614811897278
 20
19.99026179313659
 30
0.0
  0
VERTEX
  5
13D
330
138
100
AcDbEntity
  8
GEB-KONTUR-A
 48
25.0
100
AcDbVertex
100
AcDb2dVertex
 10
75.72944002151491
 20
19.44528937339782
 30
0.0
  0
VERTEX
  5
13E
330
138
100
AcDbEntity
  8
GEB-KONTUR-A
 48
25.0
100
AcDbVertex
100
AcDb2dVertex
 10
75.79543190002443
 20
18.90430569648742
 30
0.0
  0
VERTEX
  5
13F
330
138
100
AcDbEntity
  8
GEB-KONTUR-A
 48
25.0
100
AcDbVertex
100
AcDb2dVertex
 10
75.85948305130006
 20
18.36716175079345
 30
0.0
  0
VERTEX
  5
140
330
138
100
AcDbEntity
  8
GEB-KONTUR-A
 48
25.0
100
AcDbVertex
100
AcDb2dVertex
 10
75.92161493301393
 20
17.83370971679687
 30
0.0
  0
VERTEX
  5
141
330
138
100
AcDbEntity
  8
GEB-KONTUR-A
 48
25.0
100
AcDbVertex
100
AcDb2dVertex
 10
75.98185138702394
 20
17.30380892753601
 30
0.0
  0
VERTEX
  5
142
330
138
100
AcDbEntity
  8
GEB-KONTUR-A
 48
25.0
100
AcDbVertex
100
AcDb2dVertex
 10
76.04021387100221
 20
16.7773175239563
 30
0.0
  0
VERTEX
  5
143
330
138
100
AcDbEntity
  8
GEB-KONTUR-A
 48
25.0
100
AcDbVertex
100
AcDb2dVertex
 10
76.09672145843507
 20
16.25409603118896
 30
0.0
  0
VERTEX
  5
144
330
138
100
AcDbEntity
  8
GEB-KONTUR-A
 48
25.0
100
AcDbVertex
100
AcDb2dVertex
 10
76.15139083862306
 20
15.73400735855102
 30
0.0
  0
VERTEX
  5
145
330
138
100
AcDbEntity
  8
GEB-KONTUR-A
 48
25.0
100
AcDbVertex
100
AcDb2dVertex
 10
76.20424585342409
 20
15.21691918373108
 30
0.0
  0
VERTEX
  5
146
330
138
100
AcDbEntity
  8
GEB-KONTUR-A
 48
25.0
100
AcDbVertex
100
AcDb2dVertex
 10
76.2552984237671
 20
14.70269680023193
 30
0.0
  0
VERTEX
  5
147
330
138
100
AcDbEntity
  8
GEB-KONTUR-A
 48
25.0
100
AcDbVertex
100
AcDb2dVertex
 10
76.30456762313844
 20
14.19121146202087
 30
0.0
  0
VERTEX
  5
148
330
138
100
AcDbEntity
  8
GEB-KONTUR-A
 48
25.0
100
AcDbVertex
100
AcDb2dVertex
 10
76.35206775665285
 20
13.68233084678661
 30
0.0
  0
VERTEX
  5
149
330
138
100
AcDbEntity
  8
GEB-KONTUR-A
 48
25.0
100
AcDbVertex
100
AcDb2dVertex
 10
76.39781312942506
 20
13.17593097686779
 30
0.0
  0
VERTEX
  5
14A
330
138
100
AcDbEntity
  8
GEB-KONTUR-A
 48
25.0
100
AcDbVertex
100
AcDb2dVertex
 10
76.44181804656984
 20
12.6718831062318
 30
0.0
  0
VERTEX
  5
14B
330
138
100
AcDbEntity
  8
GEB-KONTUR-A
 48
25.0
100
AcDbVertex
100
AcDb2dVertex
 10
76.48409681320192
 20
12.17006325721752
 30
0.0
  0
VERTEX
  5
14C
330
138
100
AcDbEntity
  8
GEB-KONTUR-A
 48
25.0
100
AcDbVertex
100
AcDb2dVertex
 10
76.52465896606447
 20
11.6703486442567
 30
0.0
  0
VERTEX
  5
14D
330
138
100
AcDbEntity
  8
GEB-KONTUR-A
 48
25.0
100
AcDbVertex
100
AcDb2dVertex
 10
76.56351404190065
 20
11.17261528968822
 30
0.0
  0
VERTEX
  5
14E
330
138
100
AcDbEntity
  8
GEB-KONTUR-A
 48
25.0
100
AcDbVertex
100
AcDb2dVertex
 10
76.60067634582521
 20
10.67674398422252
 30
0.0
  0
VERTEX
  5
14F
330
138
100
AcDbEntity
  8
GEB-KONTUR-A
 48
25.0
100
AcDbVertex
100
AcDb2dVertex
 10
76.63615541458131
 20
10.18261313438427
 30
0.0
  0
VERTEX
  5
150
330
138
100
AcDbEntity
  8
GEB-KONTUR-A
 48
25.0
100
AcDbVertex
100
AcDb2dVertex
 10
76.66995363235475
 20
9.690103530883902
 30
0.0
  0
VERTEX
  5
151
330
138
100
AcDbEntity
  8
GEB-KONTUR-A
 48
25.0
100
AcDbVertex
100
AcDb2dVertex
 10
76.70208530426027
 20
9.199096560478324
 30
0.0
  0
VERTEX
  5
152
330
138
100
AcDbEntity
  8
GEB-KONTUR-A
 48
25.0
100
AcDbVertex
100
AcDb2dVertex
 10
76.73255519866945
 20
8.709474205970877
 30
0.0
  0
VERTEX
  5
153
330
138
100
AcDbEntity
  8
GEB-KONTUR-A
 48
25.0
100
AcDbVertex
100
AcDb2dVertex
 10
76.76136808395387
 20
8.221118450164908
 30
0.0
  0
VERTEX
  5
154
330
138
100
AcDbEntity
  8
GEB-KONTUR-A
 48
25.0
100
AcDbVertex
100
AcDb2dVertex
 10
76.7885334968567
 20
7.733913064003104
 30
0.0
  0
VERTEX
  5
155
330
138
100
AcDbEntity
  8
GEB-KONTUR-A
 48
25.0
100
AcDbVertex
100
AcDb2dVertex
 10
76.81404905319215
 20
7.247741222381705
 30
0.0
  0
VERTEX
  5
156
330
138
100
AcDbEntity
  8
GEB-KONTUR-A
 48
25.0
100
AcDbVertex
100
AcDb2dVertex
 10
76.83792428970338
 20
6.762486696243399
 30
0.0
  0
VERTEX
  5
157
330
138
100
AcDbEntity
  8
GEB-KONTUR-A
 48
25.0
100
AcDbVertex
100
AcDb2dVertex
 10
76.86016159057619
 20
6.278033256530875
 30
0.0
  0
VERTEX
  5
158
330
138
100
AcDbEntity
  8
GEB-KONTUR-A
 48
25.0
100
AcDbVertex
100
AcDb2dVertex
 10
76.88076095581056
 20
5.79426467418682
 30
0.0
  0
VERTEX
  5
159
330
138
100
AcDbEntity
  8
GEB-KONTUR-A
 48
25.0
100
AcDbVertex
100
AcDb2dVertex
 10
76.8997247695923
 20
5.31106531620037
 30
0.0
  0
VERTEX
  5
15A
330
138
100
AcDbEntity
  8
GEB-KONTUR-A
 48
25.0
100
AcDbVertex
100
AcDb2dVertex
 10
76.9170530319214
 20
4.828319251537436
 30
0.0
  0
VERTEX
  5
15B
330
138
100
AcDbEntity
  8
GEB-KONTUR-A
 48
25.0
100
AcDbVertex
100
AcDb2dVertex
 10
76.93274812698366
 20
4.345910251140708
 30
0.0
  0
VERTEX
  5
15C
330
138
100
AcDbEntity
  8
GEB-KONTUR-A
 48
25.0
100
AcDbVertex
100
AcDb2dVertex
 10
76.94680767059328
 20
3.863721489906424
 30
0.0
  0
VERTEX
  5
15D
330
138
100
AcDbEntity
  8
GEB-KONTUR-A
 48
25.0
100
AcDbVertex
100
AcDb2dVertex
 10
76.95922689437868
 20
3.381636142730826
 30
0.0
  0
VERTEX
  5
15E
330
138
100
AcDbEntity
  8
GEB-KONTUR-A
 48
25.0
100
AcDbVertex
100
AcDb2dVertex
 10
76.97000818252565
 20
2.89953708648693
 30
0.0
  0
VERTEX
  5
15F
330
138
100
AcDbEntity
  8
GEB-KONTUR-A
 48
25.0
100
AcDbVertex
100
AcDb2dVertex
 10
76.97914438247682
 20
2.417306452989691
 30
0.0
  0
VERTEX
  5
160
330
138
100
AcDbEntity
  8
GEB-KONTUR-A
 48
25.0
100
AcDbVertex
100
AcDb2dVertex
 10
76.98663549423219
 20
1.934825479984397
 30
0.0
  0
VERTEX
  5
161
330
138
100
AcDbEntity
  8
GEB-KONTUR-A
 48
25.0
100
AcDbVertex
100
AcDb2dVertex
 10
76.9924719810486
 20
1.45197510719322
 30
0.0
  0
VERTEX
  5
162
330
138
100
AcDbEntity
  8
GEB-KONTUR-A
 48
25.0
100
AcDbVertex
100
AcDb2dVertex
 10
76.99664907455446
 20
0.9686349332334884
 30
0.0
  0
VERTEX
  5
163
330
138
100
AcDbEntity
  8
GEB-KONTUR-A
 48
25.0
100
AcDbVertex
100
AcDb2dVertex
 10
76.9991596221924
 20
0.4846839979293236
 30
0.0
  0
VERTEX
  5
164
330
138
100
AcDbEntity
  8
GEB-KONTUR-A
 48
25.0
100
AcDbVertex
100
AcDb2dVertex
 10
76.99999885559083
 20
0.0000000000002274
 30
0.0
  0
SEQEND
  5
165
330
138
100
AcDbEntity
  8
GEB-KONTUR-A
 48
25.0
  0
POLYLINE
  5
166
330
2
100
AcDbEntity
  8
GEB-KONTUR-A
 48
25.0
100
AcDb2dPolyline
 66
     1
 10
0.0
 20
0.0
 30
0.0
 70
   128
  0
VERTEX
  5
167
330
166
100
AcDbEntity
  8
GEB-KONTUR-A
 48
25.0
100
AcDbVertex
100
AcDb2dVertex
 10
76.99999885559083
 20
0.0000000000002274
 30
0.0
  0
VERTEX
  5
168
330
166
100
AcDbEntity
  8
GEB-KONTUR-A
 48
25.0
100
AcDbVertex
100
AcDb2dVertex
 10
76.9991596221924
 20
-0.4846839979288689
 30
0.0
  0
VERTEX
  5
169
330
166
100
AcDbEntity
  8
GEB-KONTUR-A
 48
25.0
100
AcDbVertex
100
AcDb2dVertex
 10
76.99664907455446
 20
-0.9686349332330337
 30
0.0
  0
VERTEX
  5
16A
330
166
100
AcDbEntity
  8
GEB-KONTUR-A
 48
25.0
100
AcDbVertex
100
AcDb2dVertex
 10
76.9924719810486
 20
-1.451975107192765
 30
0.0
  0
VERTEX
  5
16B
330
166
100
AcDbEntity
  8
GEB-KONTUR-A
 48
25.0
100
AcDbVertex
100
AcDb2dVertex
 10
76.98663549423219
 20
-1.934825479984056
 30
0.0
  0
VERTEX
  5
16C
330
166
100
AcDbEntity
  8
GEB-KONTUR-A
 48
25.0
100
AcDbVertex
100
AcDb2dVertex
 10
76.97914438247682
 20
-2.41730645298935
 30
0.0
  0
VERTEX
  5
16D
330
166
100
AcDbEntity
  8
GEB-KONTUR-A
 48
25.0
100
AcDbVertex
100
AcDb2dVertex
 10
76.97000818252565
 20
-2.899537086486589
 30
0.0
  0
VERTEX
  5
16E
330
166
100
AcDbEntity
  8
GEB-KONTUR-A
 48
25.0
100
AcDbVertex
100
AcDb2dVertex
 10
76.95922689437868
 20
-3.381636142730485
 30
0.0
  0
VERTEX
  5
16F
330
166
100
AcDbEntity
  8
GEB-KONTUR-A
 48
25.0
100
AcDbVertex
100
AcDb2dVertex
 10
76.94680767059328
 20
-3.863721489906083
 30
0.0
  0
VERTEX
  5
170
330
166
100
AcDbEntity
  8
GEB-KONTUR-A
 48
25.0
100
AcDbVertex
100
AcDb2dVertex
 10
76.93274812698366
 20
-4.345910251140367
 30
0.0
  0
VERTEX
  5
171
330
166
100
AcDbEntity
  8
GEB-KONTUR-A
 48
25.0
100
AcDbVertex
100
AcDb2dVertex
 10
76.9170530319214
 20
-4.828319251537095
 30
0.0
  0
VERTEX
  5
172
330
166
100
AcDbEntity
  8
GEB-KONTUR-A
 48
25.0
100
AcDbVertex
100
AcDb2dVertex
 10
76.8997247695923
 20
-5.311065316200028
 30
0.0
  0
VERTEX
  5
173
330
166
100
AcDbEntity
  8
GEB-KONTUR-A
 48
25.0
100
AcDbVertex
100
AcDb2dVertex
 10
76.88076095581056
 20
-5.794264674186479
 30
0.0
  0
VERTEX
  5
174
330
166
100
AcDbEntity
  8
GEB-KONTUR-A
 48
25.0
100
AcDbVertex
100
AcDb2dVertex
 10
76.86016159057619
 20
-6.278033256530534
 30
0.0
  0
VERTEX
  5
175
330
166
100
AcDbEntity
  8
GEB-KONTUR-A
 48
25.0
100
AcDbVertex
100
AcDb2dVertex
 10
76.83792428970338
 20
-6.762486696243058
 30
0.0
  0
VERTEX
  5
176
330
166
100
AcDbEntity
  8
GEB-KONTUR-A
 48
25.0
100
AcDbVertex
100
AcDb2dVertex
 10
76.81404905319215
 20
-7.247741222381364
 30
0.0
  0
VERTEX
  5
177
330
166
100
AcDbEntity
  8
GEB-KONTUR-A
 48
25.0
100
AcDbVertex
100
AcDb2dVertex
 10
76.7885334968567
 20
-7.733913064002649
 30
0.0
  0
VERTEX
  5
178
330
166
100
AcDbEntity
  8
GEB-KONTUR-A
 48
25.0
100
AcDbVertex
100
AcDb2dVertex
 10
76.76136808395387
 20
-8.221118450164453
 30
0.0
  0
VERTEX
  5
179
330
166
100
AcDbEntity
  8
GEB-KONTUR-A
 48
25.0
100
AcDbVertex
100
AcDb2dVertex
 10
76.73255519866945
 20
-8.709474205970423
 30
0.0
  0
VERTEX
  5
17A
330
166
100
AcDbEntity
  8
GEB-KONTUR-A
 48
25.0
100
AcDbVertex
100
AcDb2dVertex
 10
76.70208530426027
 20
-9.199096560477869
 30
0.0
  0
VERTEX
  5
17B
330
166
100
AcDbEntity
  8
GEB-KONTUR-A
 48
25.0
100
AcDbVertex
100
AcDb2dVertex
 10
76.66995363235475
 20
-9.690103530883448
 30
0.0
  0
VERTEX
  5
17C
330
166
100
AcDbEntity
  8
GEB-KONTUR-A
 48
25.0
100
AcDbVertex
100
AcDb2dVertex
 10
76.63615541458131
 20
-10.18261313438381
 30
0.0
  0
VERTEX
  5
17D
330
166
100
AcDbEntity
  8
GEB-KONTUR-A
 48
25.0
100
AcDbVertex
100
AcDb2dVertex
 10
76.60067634582521
 20
-10.67674398422207
 30
0.0
  0
VERTEX
  5
17E
330
166
100
AcDbEntity
  8
GEB-KONTUR-A
 48
25.0
100
AcDbVertex
100
AcDb2dVertex
 10
76.56351404190065
 20
-11.17261528968777
 30
0.0
  0
VERTEX
  5
17F
330
166
100
AcDbEntity
  8
GEB-KONTUR-A
 48
25.0
100
AcDbVertex
100
AcDb2dVertex
 10
76.52465896606447
 20
-11.67034864425625
 30
0.0
  0
VERTEX
  5
180
330
166
100
AcDbEntity
  8
GEB-KONTUR-A
 48
25.0
100
AcDbVertex
100
AcDb2dVertex
 10
76.48409681320192
 20
-12.17006325721706
 30
0.0
  0
VERTEX
  5
181
330
166
100
AcDbEntity
  8
GEB-KONTUR-A
 48
25.0
100
AcDbVertex
100
AcDb2dVertex
 10
76.44181804656984
 20
-12.67188310623135
 30
0.0
  0
VERTEX
  5
182
330
166
100
AcDbEntity
  8
GEB-KONTUR-A
 48
25.0
100
AcDbVertex
100
AcDb2dVertex
 10
76.39781312942506
 20
-13.17593097686733
 30
0.0
  0
VERTEX
  5
183
330
166
100
AcDbEntity
  8
GEB-KONTUR-A
 48
25.0
100
AcDbVertex
100
AcDb2dVertex
 10
76.35206775665285
 20
-13.68233084678616
 30
0.0
  0
VERTEX
  5
184
330
166
100
AcDbEntity
  8
GEB-KONTUR-A
 48
25.0
100
AcDbVertex
100
AcDb2dVertex
 10
76.30456762313844
 20
-14.19121146202053
 30
0.0
  0
VERTEX
  5
185
330
166
100
AcDbEntity
  8
GEB-KONTUR-A
 48
25.0
100
AcDbVertex
100
AcDb2dVertex
 10
76.2552984237671
 20
-14.70269680023159
 30
0.0
  0
VERTEX
  5
186
330
166
100
AcDbEntity
  8
GEB-KONTUR-A
 48
25.0
100
AcDbVertex
100
AcDb2dVertex
 10
76.20424585342409
 20
-15.21691918373074
 30
0.0
  0
VERTEX
  5
187
330
166
100
AcDbEntity
  8
GEB-KONTUR-A
 48
25.0
100
AcDbVertex
100
AcDb2dVertex
 10
76.15139083862306
 20
-15.73400735855068
 30
0.0
  0
VERTEX
  5
188
330
166
100
AcDbEntity
  8
GEB-KONTUR-A
 48
25.0
100
AcDbVertex
100
AcDb2dVertex
 10
76.09672145843507
 20
-16.25409603118862
 30
0.0
  0
VERTEX
  5
189
330
166
100
AcDbEntity
  8
GEB-KONTUR-A
 48
25.0
100
AcDbVertex
100
AcDb2dVertex
 10
76.04021387100221
 20
-16.77731752395596
 30
0.0
  0
VERTEX
  5
18A
330
166
100
AcDbEntity
  8
GEB-KONTUR-A
 48
25.0
100
AcDbVertex
100
AcDb2dVertex
 10
75.98185138702394
 20
-17.30380892753567
 30
0.0
  0
VERTEX
  5
18B
330
166
100
AcDbEntity
  8
GEB-KONTUR-A
 48
25.0
100
AcDbVertex
100
AcDb2dVertex
 10
75.92161493301393
 20
-17.83370971679653
 30
0.0
  0
VERTEX
  5
18C
330
166
100
AcDbEntity
  8
GEB-KONTUR-A
 48
25.0
100
AcDbVertex
100
AcDb2dVertex
 10
75.85948305130006
 20
-18.36716175079311
 30
0.0
  0
VERTEX
  5
18D
330
166
100
AcDbEntity
  8
GEB-KONTUR-A
 48
25.0
100
AcDbVertex
100
AcDb2dVertex
 10
75.79543190002443
 20
-18.90430569648708
 30
0.0
  0
VERTEX
  5
18E
330
166
100
AcDbEntity
  8
GEB-KONTUR-A
 48
25.0
100
AcDbVertex
100
AcDb2dVertex
 10
75.72944002151491
 20
-19.44528937339748
 30
0.0
  0
VERTEX
  5
18F
330
166
100
AcDbEntity
  8
GEB-KONTUR-A
 48
25.0
100
AcDbVertex
100
AcDb2dVertex
 10
75.6614811897278
 20
-19.99026179313625
 30
0.0
  0
VERTEX
  5
190
330
166
100
AcDbEntity
  8
GEB-KONTUR-A
 48
25.0
100
AcDbVertex
100
AcDb2dVertex
 10
75.59153156280519
 20
-20.53937435150101
 30
0.0
  0
VERTEX
  5
191
330
166
100
AcDbEntity
  8
GEB-KONTUR-A
 48
25.0
100
AcDbVertex
100
AcDb2dVertex
 10
75.51956729888917
 20
-21.0927796363826
 30
0.0
  0
VERTEX
  5
192
330
166
100
AcDbEntity
  8
GEB-KONTUR-A
 48
25.0
100
AcDbVertex
100
AcDb2dVertex
 10
75.44555501937868
 20
-21.65063619613602
 30
0.0
  0
SEQEND
  5
193
330
166
100
AcDbEntity
  8
GEB-KONTUR-A
 48
25.0
  0
LINE
  5
194
330
2
100
AcDbEntity
  8
GEB-KONTUR-A
 48
25.0
100
AcDbLine
 10
75.44555433772325
 20
-21.65063509461049
 30
0.0
 11
67.5544456622768
 21
-21.65063509461049
 31
0.0
  0
POLYLINE
  5
195
330
2
100
AcDbEntity
  8
GEB-KONTUR-A
 48
25.0
100
AcDb2dPolyline
 66
     1
 10
0.0
 20
0.0
 30
0.0
 70
   128
  0
VERTEX
  5
196
330
195
100
AcDbEntity
  8
GEB-KONTUR-A
 48
25.0
100
AcDbVertex
100
AcDb2dVertex
 10
67.5544460296631
 20
-21.65063619613602
 30
0.0
  0
VERTEX
  5
197
330
195
100
AcDbEntity
  8
GEB-KONTUR-A
 48
25.0
100
AcDbVertex
100
AcDb2dVertex
 10
67.4804337501526
 20
-21.09277963638271
 30
0.0
  0
VERTEX
  5
198
330
195
100
AcDbEntity
  8
GEB-KONTUR-A
 48
25.0
100
AcDbVertex
100
AcDb2dVertex
 10
67.40846710205079
 20
-20.53937435150112
 30
0.0
  0
VERTEX
  5
199
330
195
100
AcDbEntity
  8
GEB-KONTUR-A
 48
25.0
100
AcDbVertex
100
AcDb2dVertex
 10
67.33851747512819
 20
-19.99026179313625
 30
0.0
  0
VERTEX
  5
19A
330
195
100
AcDbEntity
  8
GEB-KONTUR-A
 48
25.0
100
AcDbVertex
100
AcDb2dVertex
 10
67.27056102752687
 20
-19.44528937339748
 30
0.0
  0
VERTEX
  5
19B
330
195
100
AcDbEntity
  8
GEB-KONTUR-A
 48
25.0
100
AcDbVertex
100
AcDb2dVertex
 10
67.20456914901735
 20
-18.90430569648708
 30
0.0
  0
VERTEX
  5
19C
330
195
100
AcDbEntity
  8
GEB-KONTUR-A
 48
25.0
100
AcDbVertex
100
AcDb2dVertex
 10
67.14051799774171
 20
-18.36716175079311
 30
0.0
  0
VERTEX
  5
19D
330
195
100
AcDbEntity
  8
GEB-KONTUR-A
 48
25.0
100
AcDbVertex
100
AcDb2dVertex
 10
67.07838373184205
 20
-17.83370971679653
 30
0.0
  0
VERTEX
  5
19E
330
195
100
AcDbEntity
  8
GEB-KONTUR-A
 48
25.0
100
AcDbVertex
100
AcDb2dVertex
 10
67.01814727783204
 20
-17.30380892753567
 30
0.0
  0
VERTEX
  5
19F
330
195
100
AcDbEntity
  8
GEB-KONTUR-A
 48
25.0
100
AcDbVertex
100
AcDb2dVertex
 10
66.95978717803956
 20
-16.77731752395596
 30
0.0
  0
VERTEX
  5
1A0
330
195
100
AcDbEntity
  8
GEB-KONTUR-A
 48
25.0
100
AcDbVertex
100
AcDb2dVertex
 10
66.9032795906067
 20
-16.25409603118862
 30
0.0
  0
VERTEX
  5
1A1
330
195
100
AcDbEntity
  8
GEB-KONTUR-A
 48
25.0
100
AcDbVertex
100
AcDb2dVertex
 10
66.84860782623292
 20
-15.73400735855068
 30
0.0
  0
VERTEX
  5
1A2
330
195
100
AcDbEntity
  8
GEB-KONTUR-A
 48
25.0
100
AcDbVertex
100
AcDb2dVertex
 10
66.79575519561769
 20
-15.21691918373074
 30
0.0
  0
VERTEX
  5
1A3
330
195
100
AcDbEntity
  8
GEB-KONTUR-A
 48
25.0
100
AcDbVertex
100
AcDb2dVertex
 10
66.74470262527467
 20
-14.70269680023159
 30
0.0
  0
VERTEX
  5
1A4
330
195
100
AcDbEntity
  8
GEB-KONTUR-A
 48
25.0
100
AcDbVertex
100
AcDb2dVertex
 10
66.69543342590333
 20
-14.19121146202053
 30
0.0
  0
VERTEX
  5
1A5
330
195
100
AcDbEntity
  8
GEB-KONTUR-A
 48
25.0
100
AcDbVertex
100
AcDb2dVertex
 10
66.64793329238893
 20
-13.68233084678616
 30
0.0
  0
VERTEX
  5
1A6
330
195
100
AcDbEntity
  8
GEB-KONTUR-A
 48
25.0
100
AcDbVertex
100
AcDb2dVertex
 10
66.60218791961671
 20
-13.17593097686733
 30
0.0
  0
VERTEX
  5
1A7
330
195
100
AcDbEntity
  8
GEB-KONTUR-A
 48
25.0
100
AcDbVertex
100
AcDb2dVertex
 10
66.55818061828615
 20
-12.67188310623135
 30
0.0
  0
VERTEX
  5
1A8
330
195
100
AcDbEntity
  8
GEB-KONTUR-A
 48
25.0
100
AcDbVertex
100
AcDb2dVertex
 10
66.51590423583986
 20
-12.17006325721706
 30
0.0
  0
VERTEX
  5
1A9
330
195
100
AcDbEntity
  8
GEB-KONTUR-A
 48
25.0
100
AcDbVertex
100
AcDb2dVertex
 10
66.47534208297731
 20
-11.67034864425625
 30
0.0
  0
VERTEX
  5
1AA
330
195
100
AcDbEntity
  8
GEB-KONTUR-A
 48
25.0
100
AcDbVertex
100
AcDb2dVertex
 10
66.43648462295534
 20
-11.17261528968777
 30
0.0
  0
VERTEX
  5
1AB
330
195
100
AcDbEntity
  8
GEB-KONTUR-A
 48
25.0
100
AcDbVertex
100
AcDb2dVertex
 10
66.39932231903078
 20
-10.67674398422207
 30
0.0
  0
VERTEX
  5
1AC
330
195
100
AcDbEntity
  8
GEB-KONTUR-A
 48
25.0
100
AcDbVertex
100
AcDb2dVertex
 10
66.36384563446046
 20
-10.18261313438381
 30
0.0
  0
VERTEX
  5
1AD
330
195
100
AcDbEntity
  8
GEB-KONTUR-A
 48
25.0
100
AcDbVertex
100
AcDb2dVertex
 10
66.33004503250123
 20
-9.690103530883448
 30
0.0
  0
VERTEX
  5
1AE
330
195
100
AcDbEntity
  8
GEB-KONTUR-A
 48
25.0
100
AcDbVertex
100
AcDb2dVertex
 10
66.29791336059572
 20
-9.199096560477983
 30
0.0
  0
VERTEX
  5
1AF
330
195
100
AcDbEntity
  8
GEB-KONTUR-A
 48
25.0
100
AcDbVertex
100
AcDb2dVertex
 10
66.26744346618654
 20
-8.709474205970536
 30
0.0
  0
VERTEX
  5
1B0
330
195
100
AcDbEntity
  8
GEB-KONTUR-A
 48
25.0
100
AcDbVertex
100
AcDb2dVertex
 10
66.23863058090211
 20
-8.221118450164567
 30
0.0
  0
VERTEX
  5
1B1
330
195
100
AcDbEntity
  8
GEB-KONTUR-A
 48
25.0
100
AcDbVertex
100
AcDb2dVertex
 10
66.21146755218507
 20
-7.733913064002763
 30
0.0
  0
VERTEX
  5
1B2
330
195
100
AcDbEntity
  8
GEB-KONTUR-A
 48
25.0
100
AcDbVertex
100
AcDb2dVertex
 10
66.18594961166383
 20
-7.247741222381364
 30
0.0
  0
VERTEX
  5
1B3
330
195
100
AcDbEntity
  8
GEB-KONTUR-A
 48
25.0
100
AcDbVertex
100
AcDb2dVertex
 10
66.1620743751526
 20
-6.762486696243058
 30
0.0
  0
VERTEX
  5
1B4
330
195
100
AcDbEntity
  8
GEB-KONTUR-A
 48
25.0
100
AcDbVertex
100
AcDb2dVertex
 10
66.13983945846559
 20
-6.278033256530534
 30
0.0
  0
VERTEX
  5
1B5
330
195
100
AcDbEntity
  8
GEB-KONTUR-A
 48
25.0
100
AcDbVertex
100
AcDb2dVertex
 10
66.11924009323121
 20
-5.794264674186479
 30
0.0
  0
VERTEX
  5
1B6
330
195
100
AcDbEntity
  8
GEB-KONTUR-A
 48
25.0
100
AcDbVertex
100
AcDb2dVertex
 10
66.10027389526369
 20
-5.311065316200028
 30
0.0
  0
VERTEX
  5
1B7
330
195
100
AcDbEntity
  8
GEB-KONTUR-A
 48
25.0
100
AcDbVertex
100
AcDb2dVertex
 10
66.08294563293458
 20
-4.828319251537095
 30
0.0
  0
VERTEX
  5
1B8
330
195
100
AcDbEntity
  8
GEB-KONTUR-A
 48
25.0
100
AcDbVertex
100
AcDb2dVertex
 10
66.06725053787233
 20
-4.345910251140367
 30
0.0
  0
VERTEX
  5
1B9
330
195
100
AcDbEntity
  8
GEB-KONTUR-A
 48
25.0
100
AcDbVertex
100
AcDb2dVertex
 10
66.0531933784485
 20
-3.863721489906083
 30
0.0
  0
VERTEX
  5
1BA
330
195
100
AcDbEntity
  8
GEB-KONTUR-A
 48
25.0
100
AcDbVertex
100
AcDb2dVertex
 10
66.04077177047731
 20
-3.381636142730485
 30
0.0
  0
VERTEX
  5
1BB
330
195
100
AcDbEntity
  8
GEB-KONTUR-A
 48
25.0
100
AcDbVertex
100
AcDb2dVertex
 10
66.02999286651613
 20
-2.899537086486589
 30
0.0
  0
VERTEX
  5
1BC
330
195
100
AcDbEntity
  8
GEB-KONTUR-A
 48
25.0
100
AcDbVertex
100
AcDb2dVertex
 10
66.02085428237916
 20
-2.41730645298935
 30
0.0
  0
VERTEX
  5
1BD
330
195
100
AcDbEntity
  8
GEB-KONTUR-A
 48
25.0
100
AcDbVertex
100
AcDb2dVertex
 10
66.01336555480958
 20
-1.934825479984056
 30
0.0
  0
VERTEX
  5
1BE
330
195
100
AcDbEntity
  8
GEB-KONTUR-A
 48
25.0
100
AcDbVertex
100
AcDb2dVertex
 10
66.00752906799318
 20
-1.451975107192765
 30
0.0
  0
VERTEX
  5
1BF
330
195
100
AcDbEntity
  8
GEB-KONTUR-A
 48
25.0
100
AcDbVertex
100
AcDb2dVertex
 10
66.00335197448732
 20
-0.9686349332330337
 30
0.0
  0
VERTEX
  5
1C0
330
195
100
AcDbEntity
  8
GEB-KONTUR-A
 48
25.0
100
AcDbVertex
100
AcDb2dVertex
 10
66.00083904266359
 20
-0.4846839979288689
 30
0.0
  0
VERTEX
  5
1C1
330
195
100
AcDbEntity
  8
GEB-KONTUR-A
 48
25.0
100
AcDbVertex
100
AcDb2dVertex
 10
65.99999980926515
 20
0.0000000000002274
 30
0.0
  0
SEQEND
  5
1C2
330
195
100
AcDbEntity
  8
GEB-KONTUR-A
 48
25.0
  0
POLYLINE
  5
1C3
330
2
100
AcDbEntity
  8
GEB-KONTUR-A
 48
25.0
100
AcDb2dPolyline
 66
     1
 10
0.0
 20
0.0
 30
0.0
 70
   128
  0
VERTEX
  5
1C4
330
1C3
100
AcDbEntity
  8
GEB-KONTUR-A
 48
25.0
100
AcDbVertex
100
AcDb2dVertex
 10
65.99999980926515
 20
0.0000000000002274
 30
0.0
  0
VERTEX
  5
1C5
330
1C3
100
AcDbEntity
  8
GEB-KONTUR-A
 48
25.0
100
AcDbVertex
100
AcDb2dVertex
 10
66.00083904266359
 20
0.4846839979293236
 30
0.0
  0
VERTEX
  5
1C6
330
1C3
100
AcDbEntity
  8
GEB-KONTUR-A
 48
25.0
100
AcDbVertex
100
AcDb2dVertex
 10
66.00335197448732
 20
0.9686349332334884
 30
0.0
  0
VERTEX
  5
1C7
330
1C3
100
AcDbEntity
  8
GEB-KONTUR-A
 48
25.0
100
AcDbVertex
100
AcDb2dVertex
 10
66.00752906799318
 20
1.45197510719322
 30
0.0
  0
VERTEX
  5
1C8
330
1C3
100
AcDbEntity
  8
GEB-KONTUR-A
 48
25.0
100
AcDbVertex
100
AcDb2dVertex
 10
66.01336555480958
 20
1.934825479984397
 30
0.0
  0
VERTEX
  5
1C9
330
1C3
100
AcDbEntity
  8
GEB-KONTUR-A
 48
25.0
100
AcDbVertex
100
AcDb2dVertex
 10
66.02085428237916
 20
2.417306452989691
 30
0.0
  0
VERTEX
  5
1CA
330
1C3
100
AcDbEntity
  8
GEB-KONTUR-A
 48
25.0
100
AcDbVertex
100
AcDb2dVertex
 10
66.02999286651613
 20
2.89953708648693
 30
0.0
  0
VERTEX
  5
1CB
330
1C3
100
AcDbEntity
  8
GEB-KONTUR-A
 48
25.0
100
AcDbVertex
100
AcDb2dVertex
 10
66.04077177047731
 20
3.381636142730826
 30
0.0
  0
VERTEX
  5
1CC
330
1C3
100
AcDbEntity
  8
GEB-KONTUR-A
 48
25.0
100
AcDbVertex
100
AcDb2dVertex
 10
66.0531933784485
 20
3.863721489906424
 30
0.0
  0
VERTEX
  5
1CD
330
1C3
100
AcDbEntity
  8
GEB-KONTUR-A
 48
25.0
100
AcDbVertex
100
AcDb2dVertex
 10
66.06725053787233
 20
4.345910251140708
 30
0.0
  0
VERTEX
  5
1CE
330
1C3
100
AcDbEntity
  8
GEB-KONTUR-A
 48
25.0
100
AcDbVertex
100
AcDb2dVertex
 10
66.08294563293458
 20
4.828319251537436
 30
0.0
  0
VERTEX
  5
1CF
330
1C3
100
AcDbEntity
  8
GEB-KONTUR-A
 48
25.0
100
AcDbVertex
100
AcDb2dVertex
 10
66.10027389526369
 20
5.31106531620037
 30
0.0
  0
VERTEX
  5
1D0
330
1C3
100
AcDbEntity
  8
GEB-KONTUR-A
 48
25.0
100
AcDbVertex
100
AcDb2dVertex
 10
66.11924009323121
 20
5.79426467418682
 30
0.0
  0
VERTEX
  5
1D1
330
1C3
100
AcDbEntity
  8
GEB-KONTUR-A
 48
25.0
100
AcDbVertex
100
AcDb2dVertex
 10
66.13983945846559
 20
6.278033256530875
 30
0.0
  0
VERTEX
  5
1D2
330
1C3
100
AcDbEntity
  8
GEB-KONTUR-A
 48
25.0
100
AcDbVertex
100
AcDb2dVertex
 10
66.1620743751526
 20
6.762486696243399
 30
0.0
  0
VERTEX
  5
1D3
330
1C3
100
AcDbEntity
  8
GEB-KONTUR-A
 48
25.0
100
AcDbVertex
100
AcDb2dVertex
 10
66.18594961166383
 20
7.247741222381705
 30
0.0
  0
VERTEX
  5
1D4
330
1C3
100
AcDbEntity
  8
GEB-KONTUR-A
 48
25.0
100
AcDbVertex
100
AcDb2dVertex
 10
66.21146755218507
 20
7.733913064003104
 30
0.0
  0
VERTEX
  5
1D5
330
1C3
100
AcDbEntity
  8
GEB-KONTUR-A
 48
25.0
100
AcDbVertex
100
AcDb2dVertex
 10
66.23863058090211
 20
8.221118450164908
 30
0.0
  0
VERTEX
  5
1D6
330
1C3
100
AcDbEntity
  8
GEB-KONTUR-A
 48
25.0
100
AcDbVertex
100
AcDb2dVertex
 10
66.26744346618654
 20
8.709474205970877
 30
0.0
  0
VERTEX
  5
1D7
330
1C3
100
AcDbEntity
  8
GEB-KONTUR-A
 48
25.0
100
AcDbVertex
100
AcDb2dVertex
 10
66.29791336059572
 20
9.199096560478324
 30
0.0
  0
VERTEX
  5
1D8
330
1C3
100
AcDbEntity
  8
GEB-KONTUR-A
 48
25.0
100
AcDbVertex
100
AcDb2dVertex
 10
66.33004503250123
 20
9.690103530883902
 30
0.0
  0
VERTEX
  5
1D9
330
1C3
100
AcDbEntity
  8
GEB-KONTUR-A
 48
25.0
100
AcDbVertex
100
AcDb2dVertex
 10
66.36384563446046
 20
10.18261313438427
 30
0.0
  0
VERTEX
  5
1DA
330
1C3
100
AcDbEntity
  8
GEB-KONTUR-A
 48
25.0
100
AcDbVertex
100
AcDb2dVertex
 10
66.39932231903078
 20
10.67674398422252
 30
0.0
  0
VERTEX
  5
1DB
330
1C3
100
AcDbEntity
  8
GEB-KONTUR-A
 48
25.0
100
AcDbVertex
100
AcDb2dVertex
 10
66.43648462295534
 20
11.17261528968822
 30
0.0
  0
VERTEX
  5
1DC
330
1C3
100
AcDbEntity
  8
GEB-KONTUR-A
 48
25.0
100
AcDbVertex
100
AcDb2dVertex
 10
66.47534208297731
 20
11.6703486442567
 30
0.0
  0
VERTEX
  5
1DD
330
1C3
100
AcDbEntity
  8
GEB-KONTUR-A
 48
25.0
100
AcDbVertex
100
AcDb2dVertex
 10
66.51590423583986
 20
12.1700632572174
 30
0.0
  0
VERTEX
  5
1DE
330
1C3
100
AcDbEntity
  8
GEB-KONTUR-A
 48
25.0
100
AcDbVertex
100
AcDb2dVertex
 10
66.55818061828615
 20
12.67188310623169
 30
0.0
  0
VERTEX
  5
1DF
330
1C3
100
AcDbEntity
  8
GEB-KONTUR-A
 48
25.0
100
AcDbVertex
100
AcDb2dVertex
 10
66.60218791961671
 20
13.17593097686767
 30
0.0
  0
VERTEX
  5
1E0
330
1C3
100
AcDbEntity
  8
GEB-KONTUR-A
 48
25.0
100
AcDbVertex
100
AcDb2dVertex
 10
66.64793329238893
 20
13.6823308467865
 30
0.0
  0
VERTEX
  5
1E1
330
1C3
100
AcDbEntity
  8
GEB-KONTUR-A
 48
25.0
100
AcDbVertex
100
AcDb2dVertex
 10
66.69543342590333
 20
14.19121146202087
 30
0.0
  0
VERTEX
  5
1E2
330
1C3
100
AcDbEntity
  8
GEB-KONTUR-A
 48
25.0
100
AcDbVertex
100
AcDb2dVertex
 10
66.74470262527467
 20
14.70269680023193
 30
0.0
  0
VERTEX
  5
1E3
330
1C3
100
AcDbEntity
  8
GEB-KONTUR-A
 48
25.0
100
AcDbVertex
100
AcDb2dVertex
 10
66.79575519561769
 20
15.21691918373108
 30
0.0
  0
VERTEX
  5
1E4
330
1C3
100
AcDbEntity
  8
GEB-KONTUR-A
 48
25.0
100
AcDbVertex
100
AcDb2dVertex
 10
66.84860782623292
 20
15.73400735855102
 30
0.0
  0
VERTEX
  5
1E5
330
1C3
100
AcDbEntity
  8
GEB-KONTUR-A
 48
25.0
100
AcDbVertex
100
AcDb2dVertex
 10
66.9032795906067
 20
16.25409603118896
 30
0.0
  0
VERTEX
  5
1E6
330
1C3
100
AcDbEntity
  8
GEB-KONTUR-A
 48
25.0
100
AcDbVertex
100
AcDb2dVertex
 10
66.95978717803956
 20
16.7773175239563
 30
0.0
  0
VERTEX
  5
1E7
330
1C3
100
AcDbEntity
  8
GEB-KONTUR-A
 48
25.0
100
AcDbVertex
100
AcDb2dVertex
 10
67.01814727783204
 20
17.30380892753601
 30
0.0
  0
VERTEX
  5
1E8
330
1C3
100
AcDbEntity
  8
GEB-KONTUR-A
 48
25.0
100
AcDbVertex
100
AcDb2dVertex
 10
67.07838373184205
 20
17.83370971679687
 30
0.0
  0
VERTEX
  5
1E9
330
1C3
100
AcDbEntity
  8
GEB-KONTUR-A
 48
25.0
100
AcDbVertex
100
AcDb2dVertex
 10
67.14051799774171
 20
18.36716175079345
 30
0.0
  0
VERTEX
  5
1EA
330
1C3
100
AcDbEntity
  8
GEB-KONTUR-A
 48
25.0
100
AcDbVertex
100
AcDb2dVertex
 10
67.20456914901735
 20
18.90430569648742
 30
0.0
  0
VERTEX
  5
1EB
330
1C3
100
AcDbEntity
  8
GEB-KONTUR-A
 48
25.0
100
AcDbVertex
100
AcDb2dVertex
 10
67.27056102752687
 20
19.44528937339782
 30
0.0
  0
VERTEX
  5
1EC
330
1C3
100
AcDbEntity
  8
GEB-KONTUR-A
 48
25.0
100
AcDbVertex
100
AcDb2dVertex
 10
67.33851747512819
 20
19.99026179313659
 30
0.0
  0
VERTEX
  5
1ED
330
1C3
100
AcDbEntity
  8
GEB-KONTUR-A
 48
25.0
100
AcDbVertex
100
AcDb2dVertex
 10
67.40846710205079
 20
20.53937435150146
 30
0.0
  0
VERTEX
  5
1EE
330
1C3
100
AcDbEntity
  8
GEB-KONTUR-A
 48
25.0
100
AcDbVertex
100
AcDb2dVertex
 10
67.4804337501526
 20
21.09277963638306
 30
0.0
  0
VERTEX
  5
1EF
330
1C3
100
AcDbEntity
  8
GEB-KONTUR-A
 48
25.0
100
AcDbVertex
100
AcDb2dVertex
 10
67.5544460296631
 20
21.65063619613647
 30
0.0
  0
SEQEND
  5
1F0
330
1C3
100
AcDbEntity
  8
GEB-KONTUR-A
 48
25.0
  0
LINE
  5
1F1
330
2
100
AcDbEntity
  8
GEB-KONTUR-A
 48
25.0
100
AcDbLine
 10
75.44555433772325
 20
43.30127018922167
 30
0.0
 11
67.5544456622768
 21
43.30127018922167
 31
0.0
  0
POLYLINE
  5
1F2
330
2
100
AcDbEntity
  8
GEB-KONTUR-A
 48
25.0
100
AcDb2dPolyline
 66
     1
 10
0.0
 20
0.0
 30
0.0
 70
   128
  0
VERTEX
  5
1F3
330
1F2
100
AcDbEntity
  8
GEB-KONTUR-A
 48
25.0
100
AcDbVertex
100
AcDb2dVertex
 10
75.44555501937868
 20
43.30127239227261
 30
0.0
  0
VERTEX
  5
1F4
330
1F2
100
AcDbEntity
  8
GEB-KONTUR-A
 48
25.0
100
AcDbVertex
100
AcDb2dVertex
 10
75.51956729888917
 20
43.02234172821011
 30
0.0
  0
VERTEX
  5
1F5
330
1F2
100
AcDbEntity
  8
GEB-KONTUR-A
 48
25.0
100
AcDbVertex
100
AcDb2dVertex
 10
75.59153156280519
 20
42.74563789367642
 30
0.0
  0
VERTEX
  5
1F6
330
1F2
100
AcDbEntity
  8
GEB-KONTUR-A
 48
25.0
100
AcDbVertex
100
AcDb2dVertex
 10
75.6614811897278
 20
42.47108459472622
 30
0.0
  0
VERTEX
  5
1F7
330
1F2
100
AcDbEntity
  8
GEB-KONTUR-A
 48
25.0
100
AcDbVertex
100
AcDb2dVertex
 10
75.72944002151491
 20
42.19859600067104
 30
0.0
  0
VERTEX
  5
1F8
330
1F2
100
AcDbEntity
  8
GEB-KONTUR-A
 48
25.0
100
AcDbVertex
100
AcDb2dVertex
 10
75.79543190002443
 20
41.92810535430874
 30
0.0
  0
VERTEX
  5
1F9
330
1F2
100
AcDbEntity
  8
GEB-KONTUR-A
 48
25.0
100
AcDbVertex
100
AcDb2dVertex
 10
75.85948305130006
 20
41.65953159332241
 30
0.0
  0
VERTEX
  5
1FA
330
1F2
100
AcDbEntity
  8
GEB-KONTUR-A
 48
25.0
100
AcDbVertex
100
AcDb2dVertex
 10
75.92161493301393
 20
41.39280796050991
 30
0.0
  0
VERTEX
  5
1FB
330
1F2
100
AcDbEntity
  8
GEB-KONTUR-A
 48
25.0
100
AcDbVertex
100
AcDb2dVertex
 10
75.98185138702394
 20
41.12785816192593
 30
0.0
  0
VERTEX
  5
1FC
330
1F2
100
AcDbEntity
  8
GEB-KONTUR-A
 48
25.0
100
AcDbVertex
100
AcDb2dVertex
 10
76.04021387100221
 20
40.86461067199673
 30
0.0
  0
VERTEX
  5
1FD
330
1F2
100
AcDbEntity
  8
GEB-KONTUR-A
 48
25.0
100
AcDbVertex
100
AcDb2dVertex
 10
76.09672145843507
 20
40.60299873352017
 30
0.0
  0
VERTEX
  5
1FE
330
1F2
100
AcDbEntity
  8
GEB-KONTUR-A
 48
25.0
100
AcDbVertex
100
AcDb2dVertex
 10
76.15139083862306
 20
40.34295558929409
 30
0.0
  0
VERTEX
  5
1FF
330
1F2
100
AcDbEntity
  8
GEB-KONTUR-A
 48
25.0
100
AcDbVertex
100
AcDb2dVertex
 10
76.20424585342409
 20
40.08441448211636
 30
0.0
  0
VERTEX
  5
200
330
1F2
100
AcDbEntity
  8
GEB-KONTUR-A
 48
25.0
100
AcDbVertex
100
AcDb2dVertex
 10
76.2552984237671
 20
39.82730150222744
 30
0.0
  0
VERTEX
  5
201
330
1F2
100
AcDbEntity
  8
GEB-KONTUR-A
 48
25.0
100
AcDbVertex
100
AcDb2dVertex
 10
76.30456762313844
 20
39.57155704498257
 30
0.0
  0
VERTEX
  5
202
330
1F2
100
AcDbEntity
  8
GEB-KONTUR-A
 48
25.0
100
AcDbVertex
100
AcDb2dVertex
 10
76.35206775665285
 20
39.31711912155117
 30
0.0
  0
VERTEX
  5
203
330
1F2
100
AcDbEntity
  8
GEB-KONTUR-A
 48
25.0
100
AcDbVertex
100
AcDb2dVertex
 10
76.39781312942506
 20
39.06391859054532
 30
0.0
  0
VERTEX
  5
204
330
1F2
100
AcDbEntity
  8
GEB-KONTUR-A
 48
25.0
100
AcDbVertex
100
AcDb2dVertex
 10
76.44181804656984
 20
38.81189346313443
 30
0.0
  0
VERTEX
  5
205
330
1F2
100
AcDbEntity
  8
GEB-KONTUR-A
 48
25.0
100
AcDbVertex
100
AcDb2dVertex
 10
76.48409681320192
 20
38.56098413467373
 30
0.0
  0
VERTEX
  5
206
330
1F2
100
AcDbEntity
  8
GEB-KONTUR-A
 48
25.0
100
AcDbVertex
100
AcDb2dVertex
 10
76.52465896606447
 20
38.31112623214688
 30
0.0
  0
VERTEX
  5
207
330
1F2
100
AcDbEntity
  8
GEB-KONTUR-A
 48
25.0
100
AcDbVertex
100
AcDb2dVertex
 10
76.56351404190065
 20
38.06226015090931
 30
0.0
  0
VERTEX
  5
208
330
1F2
100
AcDbEntity
  8
GEB-KONTUR-A
 48
25.0
100
AcDbVertex
100
AcDb2dVertex
 10
76.60067634582521
 20
37.81432390213002
 30
0.0
  0
VERTEX
  5
209
330
1F2
100
AcDbEntity
  8
GEB-KONTUR-A
 48
25.0
100
AcDbVertex
100
AcDb2dVertex
 10
76.63615541458131
 20
37.56726026535023
 30
0.0
  0
VERTEX
  5
20A
330
1F2
100
AcDbEntity
  8
GEB-KONTUR-A
 48
25.0
100
AcDbVertex
100
AcDb2dVertex
 10
76.66995363235475
 20
37.3210048675536
 30
0.0
  0
VERTEX
  5
20B
330
1F2
100
AcDbEntity
  8
GEB-KONTUR-A
 48
25.0
100
AcDbVertex
100
AcDb2dVertex
 10
76.70208530426027
 20
37.07550048828114
 30
0.0
  0
VERTEX
  5
20C
330
1F2
100
AcDbEntity
  8
GEB-KONTUR-A
 48
25.0
100
AcDbVertex
100
AcDb2dVertex
 10
76.73255519866945
 20
36.83068990707386
 30
0.0
  0
VERTEX
  5
20D
330
1F2
100
AcDbEntity
  8
GEB-KONTUR-A
 48
25.0
100
AcDbVertex
100
AcDb2dVertex
 10
76.76136808395387
 20
36.58651113510121
 30
0.0
  0
VERTEX
  5
20E
330
1F2
100
AcDbEntity
  8
GEB-KONTUR-A
 48
25.0
100
AcDbVertex
100
AcDb2dVertex
 10
76.7885334968567
 20
36.34290933608998
 30
0.0
  0
VERTEX
  5
20F
330
1F2
100
AcDbEntity
  8
GEB-KONTUR-A
 48
25.0
100
AcDbVertex
100
AcDb2dVertex
 10
76.81404905319215
 20
36.09982252120961
 30
0.0
  0
VERTEX
  5
210
330
1F2
100
AcDbEntity
  8
GEB-KONTUR-A
 48
25.0
100
AcDbVertex
100
AcDb2dVertex
 10
76.83792428970338
 20
35.8571958541869
 30
0.0
  0
VERTEX
  5
211
330
1F2
100
AcDbEntity
  8
GEB-KONTUR-A
 48
25.0
100
AcDbVertex
100
AcDb2dVertex
 10
76.86016159057619
 20
35.61496973037709
 30
0.0
  0
VERTEX
  5
212
330
1F2
100
AcDbEntity
  8
GEB-KONTUR-A
 48
25.0
100
AcDbVertex
100
AcDb2dVertex
 10
76.88076095581056
 20
35.37308454513539
 30
0.0
  0
VERTEX
  5
213
330
1F2
100
AcDbEntity
  8
GEB-KONTUR-A
 48
25.0
100
AcDbVertex
100
AcDb2dVertex
 10
76.8997247695923
 20
35.13148546218861
 30
0.0
  0
VERTEX
  5
214
330
1F2
100
AcDbEntity
  8
GEB-KONTUR-A
 48
25.0
100
AcDbVertex
100
AcDb2dVertex
 10
76.9170530319214
 20
34.89011287689198
 30
0.0
  0
VERTEX
  5
215
330
1F2
100
AcDbEntity
  8
GEB-KONTUR-A
 48
25.0
100
AcDbVertex
100
AcDb2dVertex
 10
76.93274812698366
 20
34.64890718460072
 30
0.0
  0
VERTEX
  5
216
330
1F2
100
AcDbEntity
  8
GEB-KONTUR-A
 48
25.0
100
AcDbVertex
100
AcDb2dVertex
 10
76.94680767059328
 20
34.40781354904164
 30
0.0
  0
VERTEX
  5
217
330
1F2
100
AcDbEntity
  8
GEB-KONTUR-A
 48
25.0
100
AcDbVertex
100
AcDb2dVertex
 10
76.95922689437868
 20
34.16676998138417
 30
0.0
  0
VERTEX
  5
218
330
1F2
100
AcDbEntity
  8
GEB-KONTUR-A
 48
25.0
100
AcDbVertex
100
AcDb2dVertex
 10
76.97000818252565
 20
33.92572164535511
 30
0.0
  0
VERTEX
  5
219
330
1F2
100
AcDbEntity
  8
GEB-KONTUR-A
 48
25.0
100
AcDbVertex
100
AcDb2dVertex
 10
76.97914438247682
 20
33.68460655212391
 30
0.0
  0
VERTEX
  5
21A
330
1F2
100
AcDbEntity
  8
GEB-KONTUR-A
 48
25.0
100
AcDbVertex
100
AcDb2dVertex
 10
76.98663549423219
 20
33.44336509704579
 30
0.0
  0
VERTEX
  5
21B
330
1F2
100
AcDbEntity
  8
GEB-KONTUR-A
 48
25.0
100
AcDbVertex
100
AcDb2dVertex
 10
76.9924719810486
 20
33.20194005966175
 30
0.0
  0
VERTEX
  5
21C
330
1F2
100
AcDbEntity
  8
GEB-KONTUR-A
 48
25.0
100
AcDbVertex
100
AcDb2dVertex
 10
76.99664907455446
 20
32.96026945114125
 30
0.0
  0
VERTEX
  5
21D
330
1F2
100
AcDbEntity
  8
GEB-KONTUR-A
 48
25.0
100
AcDbVertex
100
AcDb2dVertex
 10
76.9991596221924
 20
32.71829366683949
 30
0.0
  0
VERTEX
  5
21E
330
1F2
100
AcDbEntity
  8
GEB-KONTUR-A
 48
25.0
100
AcDbVertex
100
AcDb2dVertex
 10
76.99999885559083
 20
32.4759531021117
 30
0.0
  0
SEQEND
  5
21F
330
1F2
100
AcDbEntity
  8
GEB-KONTUR-A
 48
25.0
  0
POLYLINE
  5
220
330
2
100
AcDbEntity
  8
GEB-KONTUR-A
 48
25.0
100
AcDb2dPolyline
 66
     1
 10
0.0
 20
0.0
 30
0.0
 70
   128
  0
VERTEX
  5
221
330
220
100
AcDbEntity
  8
GEB-KONTUR-A
 48
25.0
100
AcDbVertex
100
AcDb2dVertex
 10
76.99999885559083
 20
32.4759531021117
 30
0.0
  0
VERTEX
  5
222
330
220
100
AcDbEntity
  8
GEB-KONTUR-A
 48
25.0
100
AcDbVertex
100
AcDb2dVertex
 10
76.9991596221924
 20
32.23361015319813
 30
0.0
  0
VERTEX
  5
223
330
220
100
AcDbEntity
  8
GEB-KONTUR-A
 48
25.0
100
AcDbVertex
100
AcDb2dVertex
 10
76.99664907455446
 20
31.99163436889637
 30
0.0
  0
VERTEX
  5
224
330
220
100
AcDbEntity
  8
GEB-KONTUR-A
 48
25.0
100
AcDbVertex
100
AcDb2dVertex
 10
76.9924719810486
 20
31.74996614456166
 30
0.0
  0
VERTEX
  5
225
330
220
100
AcDbEntity
  8
GEB-KONTUR-A
 48
25.0
100
AcDbVertex
100
AcDb2dVertex
 10
76.98663549423219
 20
31.50853872299183
 30
0.0
  0
VERTEX
  5
226
330
220
100
AcDbEntity
  8
GEB-KONTUR-A
 48
25.0
100
AcDbVertex
100
AcDb2dVertex
 10
76.97914438247682
 20
31.2672996520995
 30
0.0
  0
VERTEX
  5
227
330
220
100
AcDbEntity
  8
GEB-KONTUR-A
 48
25.0
100
AcDbVertex
100
AcDb2dVertex
 10
76.97000818252565
 20
31.0261845588683
 30
0.0
  0
VERTEX
  5
228
330
220
100
AcDbEntity
  8
GEB-KONTUR-A
 48
25.0
100
AcDbVertex
100
AcDb2dVertex
 10
76.95922689437868
 20
30.78513383865345
 30
0.0
  0
VERTEX
  5
229
330
220
100
AcDbEntity
  8
GEB-KONTUR-A
 48
25.0
100
AcDbVertex
100
AcDb2dVertex
 10
76.94680767059328
 20
30.54409265518177
 30
0.0
  0
VERTEX
  5
22A
330
220
100
AcDbEntity
  8
GEB-KONTUR-A
 48
25.0
100
AcDbVertex
100
AcDb2dVertex
 10
76.93274812698366
 20
30.3029966354369
 30
0.0
  0
VERTEX
  5
22B
330
220
100
AcDbEntity
  8
GEB-KONTUR-A
 48
25.0
100
AcDbVertex
100
AcDb2dVertex
 10
76.9170530319214
 20
30.06179332733143
 30
0.0
  0
VERTEX
  5
22C
330
220
100
AcDbEntity
  8
GEB-KONTUR-A
 48
25.0
100
AcDbVertex
100
AcDb2dVertex
 10
76.8997247695923
 20
29.8204207420348
 30
0.0
  0
VERTEX
  5
22D
330
220
100
AcDbEntity
  8
GEB-KONTUR-A
 48
25.0
100
AcDbVertex
100
AcDb2dVertex
 10
76.88076095581056
 20
29.57881927490223
 30
0.0
  0
VERTEX
  5
22E
330
220
100
AcDbEntity
  8
GEB-KONTUR-A
 48
25.0
100
AcDbVertex
100
AcDb2dVertex
 10
76.86016159057619
 20
29.33693647384632
 30
0.0
  0
VERTEX
  5
22F
330
220
100
AcDbEntity
  8
GEB-KONTUR-A
 48
25.0
100
AcDbVertex
100
AcDb2dVertex
 10
76.83792428970338
 20
29.09471035003651
 30
0.0
  0
VERTEX
  5
230
330
220
100
AcDbEntity
  8
GEB-KONTUR-A
 48
25.0
100
AcDbVertex
100
AcDb2dVertex
 10
76.81404905319215
 20
28.85208129882801
 30
0.0
  0
VERTEX
  5
231
330
220
100
AcDbEntity
  8
GEB-KONTUR-A
 48
25.0
100
AcDbVertex
100
AcDb2dVertex
 10
76.7885334968567
 20
28.60899686813343
 30
0.0
  0
VERTEX
  5
232
330
220
100
AcDbEntity
  8
GEB-KONTUR-A
 48
25.0
100
AcDbVertex
100
AcDb2dVertex
 10
76.76136808395387
 20
28.36539268493641
 30
0.0
  0
VERTEX
  5
233
330
220
100
AcDbEntity
  8
GEB-KONTUR-A
 48
25.0
100
AcDbVertex
100
AcDb2dVertex
 10
76.73255519866945
 20
28.12121629714955
 30
0.0
  0
VERTEX
  5
234
330
220
100
AcDbEntity
  8
GEB-KONTUR-A
 48
25.0
100
AcDbVertex
100
AcDb2dVertex
 10
76.70208530426027
 20
27.87640333175648
 30
0.0
  0
VERTEX
  5
235
330
220
100
AcDbEntity
  8
GEB-KONTUR-A
 48
25.0
100
AcDbVertex
100
AcDb2dVertex
 10
76.66995363235475
 20
27.63090133666981
 30
0.0
  0
VERTEX
  5
236
330
220
100
AcDbEntity
  8
GEB-KONTUR-A
 48
25.0
100
AcDbVertex
100
AcDb2dVertex
 10
76.63615541458131
 20
27.38464593887318
 30
0.0
  0
VERTEX
  5
237
330
220
100
AcDbEntity
  8
GEB-KONTUR-A
 48
25.0
100
AcDbVertex
100
AcDb2dVertex
 10
76.60067634582521
 20
27.1375799179076
 30
0.0
  0
VERTEX
  5
238
330
220
100
AcDbEntity
  8
GEB-KONTUR-A
 48
25.0
100
AcDbVertex
100
AcDb2dVertex
 10
76.56351404190065
 20
26.88964366912831
 30
0.0
  0
VERTEX
  5
239
330
220
100
AcDbEntity
  8
GEB-KONTUR-A
 48
25.0
100
AcDbVertex
100
AcDb2dVertex
 10
76.52465896606447
 20
26.64077758789051
 30
0.0
  0
VERTEX
  5
23A
330
220
100
AcDbEntity
  8
GEB-KONTUR-A
 48
25.0
100
AcDbVertex
100
AcDb2dVertex
 10
76.48409681320192
 20
26.39092206954945
 30
0.0
  0
VERTEX
  5
23B
330
220
100
AcDbEntity
  8
GEB-KONTUR-A
 48
25.0
100
AcDbVertex
100
AcDb2dVertex
 10
76.44181804656984
 20
26.14001035690296
 30
0.0
  0
VERTEX
  5
23C
330
220
100
AcDbEntity
  8
GEB-KONTUR-A
 48
25.0
100
AcDbVertex
100
AcDb2dVertex
 10
76.39781312942506
 20
25.88798761367787
 30
0.0
  0
VERTEX
  5
23D
330
220
100
AcDbEntity
  8
GEB-KONTUR-A
 48
25.0
100
AcDbVertex
100
AcDb2dVertex
 10
76.35206775665285
 20
25.63478708267212
 30
0.0
  0
VERTEX
  5
23E
330
220
100
AcDbEntity
  8
GEB-KONTUR-A
 48
25.0
100
AcDbVertex
100
AcDb2dVertex
 10
76.30456762313844
 20
25.38034677505493
 30
0.0
  0
VERTEX
  5
23F
330
220
100
AcDbEntity
  8
GEB-KONTUR-A
 48
25.0
100
AcDbVertex
100
AcDb2dVertex
 10
76.2552984237671
 20
25.12460470199585
 30
0.0
  0
VERTEX
  5
240
330
220
100
AcDbEntity
  8
GEB-KONTUR-A
 48
25.0
100
AcDbVertex
100
AcDb2dVertex
 10
76.20424585342409
 20
24.86749410629272
 30
0.0
  0
VERTEX
  5
241
330
220
100
AcDbEntity
  8
GEB-KONTUR-A
 48
25.0
100
AcDbVertex
100
AcDb2dVertex
 10
76.15139083862306
 20
24.60894823074341
 30
0.0
  0
VERTEX
  5
242
330
220
100
AcDbEntity
  8
GEB-KONTUR-A
 48
25.0
100
AcDbVertex
100
AcDb2dVertex
 10
76.09672145843507
 20
24.34890508651733
 30
0.0
  0
VERTEX
  5
243
330
220
100
AcDbEntity
  8
GEB-KONTUR-A
 48
25.0
100
AcDbVertex
100
AcDb2dVertex
 10
76.04021387100221
 20
24.08729314804077
 30
0.0
  0
VERTEX
  5
244
330
220
100
AcDbEntity
  8
GEB-KONTUR-A
 48
25.0
100
AcDbVertex
100
AcDb2dVertex
 10
75.98185138702394
 20
23.82404804229736
 30
0.0
  0
VERTEX
  5
245
330
220
100
AcDbEntity
  8
GEB-KONTUR-A
 48
25.0
100
AcDbVertex
100
AcDb2dVertex
 10
75.92161493301393
 20
23.55909824371338
 30
0.0
  0
VERTEX
  5
246
330
220
100
AcDbEntity
  8
GEB-KONTUR-A
 48
25.0
100
AcDbVertex
100
AcDb2dVertex
 10
75.85948305130006
 20
23.29237222671509
 30
0.0
  0
VERTEX
  5
247
330
220
100
AcDbEntity
  8
GEB-KONTUR-A
 48
25.0
100
AcDbVertex
100
AcDb2dVertex
 10
75.79543190002443
 20
23.02380084991455
 30
0.0
  0
VERTEX
  5
248
330
220
100
AcDbEntity
  8
GEB-KONTUR-A
 48
25.0
100
AcDbVertex
100
AcDb2dVertex
 10
75.72944002151491
 20
22.75330781936645
 30
0.0
  0
VERTEX
  5
249
330
220
100
AcDbEntity
  8
GEB-KONTUR-A
 48
25.0
100
AcDbVertex
100
AcDb2dVertex
 10
75.6614811897278
 20
22.48082160949707
 30
0.0
  0
VERTEX
  5
24A
330
220
100
AcDbEntity
  8
GEB-KONTUR-A
 48
25.0
100
AcDbVertex
100
AcDb2dVertex
 10
75.59153156280519
 20
22.20626592636108
 30
0.0
  0
VERTEX
  5
24B
330
220
100
AcDbEntity
  8
GEB-KONTUR-A
 48
25.0
100
AcDbVertex
100
AcDb2dVertex
 10
75.51956729888917
 20
21.92956447601318
 30
0.0
  0
VERTEX
  5
24C
330
220
100
AcDbEntity
  8
GEB-KONTUR-A
 48
25.0
100
AcDbVertex
100
AcDb2dVertex
 10
75.44555501937868
 20
21.65063619613647
 30
0.0
  0
SEQEND
  5
24D
330
220
100
AcDbEntity
  8
GEB-KONTUR-A
 48
25.0
  0
LINE
  5
24E
330
2
100
AcDbEntity
  8
GEB-KONTUR-A
 48
25.0
100
AcDbLine
 10
75.44555433772325
 20
21.65063509461095
 30
0.0
 11
67.5544456622768
 21
21.65063509461095
 31
0.0
  0
POLYLINE
  5
24F
330
2
100
AcDbEntity
  8
GEB-KONTUR-A
 48
25.0
100
AcDb2dPolyline
 66
     1
 10
0.0
 20
0.0
 30
0.0
 70
   128
  0
VERTEX
  5
250
330
24F
100
AcDbEntity
  8
GEB-KONTUR-A
 48
25.0
100
AcDbVertex
100
AcDb2dVertex
 10
67.5544460296631
 20
21.65063619613647
 30
0.0
  0
VERTEX
  5
251
330
24F
100
AcDbEntity
  8
GEB-KONTUR-A
 48
25.0
100
AcDbVertex
100
AcDb2dVertex
 10
67.4804337501526
 20
21.92956447601318
 30
0.0
  0
VERTEX
  5
252
330
24F
100
AcDbEntity
  8
GEB-KONTUR-A
 48
25.0
100
AcDbVertex
100
AcDb2dVertex
 10
67.40846710205079
 20
22.20626592636108
 30
0.0
  0
VERTEX
  5
253
330
24F
100
AcDbEntity
  8
GEB-KONTUR-A
 48
25.0
100
AcDbVertex
100
AcDb2dVertex
 10
67.33851747512819
 20
22.48082160949707
 30
0.0
  0
VERTEX
  5
254
330
24F
100
AcDbEntity
  8
GEB-KONTUR-A
 48
25.0
100
AcDbVertex
100
AcDb2dVertex
 10
67.27056102752687
 20
22.75330781936645
 30
0.0
  0
VERTEX
  5
255
330
24F
100
AcDbEntity
  8
GEB-KONTUR-A
 48
25.0
100
AcDbVertex
100
AcDb2dVertex
 10
67.20456914901735
 20
23.02380084991455
 30
0.0
  0
VERTEX
  5
256
330
24F
100
AcDbEntity
  8
GEB-KONTUR-A
 48
25.0
100
AcDbVertex
100
AcDb2dVertex
 10
67.14051799774171
 20
23.29237222671509
 30
0.0
  0
VERTEX
  5
257
330
24F
100
AcDbEntity
  8
GEB-KONTUR-A
 48
25.0
100
AcDbVertex
100
AcDb2dVertex
 10
67.07838373184205
 20
23.55909824371338
 30
0.0
  0
VERTEX
  5
258
330
24F
100
AcDbEntity
  8
GEB-KONTUR-A
 48
25.0
100
AcDbVertex
100
AcDb2dVertex
 10
67.01814727783204
 20
23.82404804229736
 30
0.0
  0
VERTEX
  5
259
330
24F
100
AcDbEntity
  8
GEB-KONTUR-A
 48
25.0
100
AcDbVertex
100
AcDb2dVertex
 10
66.95978717803956
 20
24.08729314804077
 30
0.0
  0
VERTEX
  5
25A
330
24F
100
AcDbEntity
  8
GEB-KONTUR-A
 48
25.0
100
AcDbVertex
100
AcDb2dVertex
 10
66.9032795906067
 20
24.34890508651722
 30
0.0
  0
VERTEX
  5
25B
330
24F
100
AcDbEntity
  8
GEB-KONTUR-A
 48
25.0
100
AcDbVertex
100
AcDb2dVertex
 10
66.84860782623292
 20
24.6089482307433
 30
0.0
  0
VERTEX
  5
25C
330
24F
100
AcDbEntity
  8
GEB-KONTUR-A
 48
25.0
100
AcDbVertex
100
AcDb2dVertex
 10
66.79575519561769
 20
24.86749410629261
 30
0.0
  0
VERTEX
  5
25D
330
24F
100
AcDbEntity
  8
GEB-KONTUR-A
 48
25.0
100
AcDbVertex
100
AcDb2dVertex
 10
66.74470262527467
 20
25.12460470199574
 30
0.0
  0
VERTEX
  5
25E
330
24F
100
AcDbEntity
  8
GEB-KONTUR-A
 48
25.0
100
AcDbVertex
100
AcDb2dVertex
 10
66.69543342590333
 20
25.38034677505482
 30
0.0
  0
VERTEX
  5
25F
330
24F
100
AcDbEntity
  8
GEB-KONTUR-A
 48
25.0
100
AcDbVertex
100
AcDb2dVertex
 10
66.64793329238893
 20
25.63478708267201
 30
0.0
  0
VERTEX
  5
260
330
24F
100
AcDbEntity
  8
GEB-KONTUR-A
 48
25.0
100
AcDbVertex
100
AcDb2dVertex
 10
66.60218791961671
 20
25.88798761367787
 30
0.0
  0
VERTEX
  5
261
330
24F
100
AcDbEntity
  8
GEB-KONTUR-A
 48
25.0
100
AcDbVertex
100
AcDb2dVertex
 10
66.55818061828615
 20
26.14001035690296
 30
0.0
  0
VERTEX
  5
262
330
24F
100
AcDbEntity
  8
GEB-KONTUR-A
 48
25.0
100
AcDbVertex
100
AcDb2dVertex
 10
66.51590423583986
 20
26.39092206954945
 30
0.0
  0
VERTEX
  5
263
330
24F
100
AcDbEntity
  8
GEB-KONTUR-A
 48
25.0
100
AcDbVertex
100
AcDb2dVertex
 10
66.47534208297731
 20
26.64077758789051
 30
0.0
  0
VERTEX
  5
264
330
24F
100
AcDbEntity
  8
GEB-KONTUR-A
 48
25.0
100
AcDbVertex
100
AcDb2dVertex
 10
66.43648462295534
 20
26.88964366912831
 30
0.0
  0
VERTEX
  5
265
330
24F
100
AcDbEntity
  8
GEB-KONTUR-A
 48
25.0
100
AcDbVertex
100
AcDb2dVertex
 10
66.39932231903078
 20
27.1375799179076
 30
0.0
  0
VERTEX
  5
266
330
24F
100
AcDbEntity
  8
GEB-KONTUR-A
 48
25.0
100
AcDbVertex
100
AcDb2dVertex
 10
66.36384563446046
 20
27.38464593887318
 30
0.0
  0
VERTEX
  5
267
330
24F
100
AcDbEntity
  8
GEB-KONTUR-A
 48
25.0
100
AcDbVertex
100
AcDb2dVertex
 10
66.33004503250123
 20
27.63090133666981
 30
0.0
  0
VERTEX
  5
268
330
24F
100
AcDbEntity
  8
GEB-KONTUR-A
 48
25.0
100
AcDbVertex
100
AcDb2dVertex
 10
66.29791336059572
 20
27.87640333175648
 30
0.0
  0
VERTEX
  5
269
330
24F
100
AcDbEntity
  8
GEB-KONTUR-A
 48
25.0
100
AcDbVertex
100
AcDb2dVertex
 10
66.26744346618654
 20
28.12121629714955
 30
0.0
  0
VERTEX
  5
26A
330
24F
100
AcDbEntity
  8
GEB-KONTUR-A
 48
25.0
100
AcDbVertex
100
AcDb2dVertex
 10
66.23863058090211
 20
28.36539268493641
 30
0.0
  0
VERTEX
  5
26B
330
24F
100
AcDbEntity
  8
GEB-KONTUR-A
 48
25.0
100
AcDbVertex
100
AcDb2dVertex
 10
66.21146755218507
 20
28.60899686813343
 30
0.0
  0
VERTEX
  5
26C
330
24F
100
AcDbEntity
  8
GEB-KONTUR-A
 48
25.0
100
AcDbVertex
100
AcDb2dVertex
 10
66.18594961166383
 20
28.85208129882801
 30
0.0
  0
VERTEX
  5
26D
330
24F
100
AcDbEntity
  8
GEB-KONTUR-A
 48
25.0
100
AcDbVertex
100
AcDb2dVertex
 10
66.1620743751526
 20
29.09471035003651
 30
0.0
  0
VERTEX
  5
26E
330
24F
100
AcDbEntity
  8
GEB-KONTUR-A
 48
25.0
100
AcDbVertex
100
AcDb2dVertex
 10
66.13983945846559
 20
29.33693647384632
 30
0.0
  0
VERTEX
  5
26F
330
24F
100
AcDbEntity
  8
GEB-KONTUR-A
 48
25.0
100
AcDbVertex
100
AcDb2dVertex
 10
66.11924009323121
 20
29.57881927490223
 30
0.0
  0
VERTEX
  5
270
330
24F
100
AcDbEntity
  8
GEB-KONTUR-A
 48
25.0
100
AcDbVertex
100
AcDb2dVertex
 10
66.10027389526369
 20
29.8204207420348
 30
0.0
  0
VERTEX
  5
271
330
24F
100
AcDbEntity
  8
GEB-KONTUR-A
 48
25.0
100
AcDbVertex
100
AcDb2dVertex
 10
66.08294563293458
 20
30.06179332733143
 30
0.0
  0
VERTEX
  5
272
330
24F
100
AcDbEntity
  8
GEB-KONTUR-A
 48
25.0
100
AcDbVertex
100
AcDb2dVertex
 10
66.06725053787233
 20
30.3029966354369
 30
0.0
  0
VERTEX
  5
273
330
24F
100
AcDbEntity
  8
GEB-KONTUR-A
 48
25.0
100
AcDbVertex
100
AcDb2dVertex
 10
66.0531933784485
 20
30.54409265518177
 30
0.0
  0
VERTEX
  5
274
330
24F
100
AcDbEntity
  8
GEB-KONTUR-A
 48
25.0
100
AcDbVertex
100
AcDb2dVertex
 10
66.04077177047731
 20
30.78513383865345
 30
0.0
  0
VERTEX
  5
275
330
24F
100
AcDbEntity
  8
GEB-KONTUR-A
 48
25.0
100
AcDbVertex
100
AcDb2dVertex
 10
66.02999286651613
 20
31.0261845588683
 30
0.0
  0
VERTEX
  5
276
330
24F
100
AcDbEntity
  8
GEB-KONTUR-A
 48
25.0
100
AcDbVertex
100
AcDb2dVertex
 10
66.02085428237916
 20
31.2672996520995
 30
0.0
  0
VERTEX
  5
277
330
24F
100
AcDbEntity
  8
GEB-KONTUR-A
 48
25.0
100
AcDbVertex
100
AcDb2dVertex
 10
66.01336555480958
 20
31.50853872299183
 30
0.0
  0
VERTEX
  5
278
330
24F
100
AcDbEntity
  8
GEB-KONTUR-A
 48
25.0
100
AcDbVertex
100
AcDb2dVertex
 10
66.00752906799318
 20
31.74996614456166
 30
0.0
  0
VERTEX
  5
279
330
24F
100
AcDbEntity
  8
GEB-KONTUR-A
 48
25.0
100
AcDbVertex
100
AcDb2dVertex
 10
66.00335197448732
 20
31.99163436889637
 30
0.0
  0
VERTEX
  5
27A
330
24F
100
AcDbEntity
  8
GEB-KONTUR-A
 48
25.0
100
AcDbVertex
100
AcDb2dVertex
 10
66.00083904266359
 20
32.23361015319813
 30
0.0
  0
VERTEX
  5
27B
330
24F
100
AcDbEntity
  8
GEB-KONTUR-A
 48
25.0
100
AcDbVertex
100
AcDb2dVertex
 10
65.99999980926515
 20
32.4759531021117
 30
0.0
  0
SEQEND
  5
27C
330
24F
100
AcDbEntity
  8
GEB-KONTUR-A
 48
25.0
  0
POLYLINE
  5
27D
330
2
100
AcDbEntity
  8
GEB-KONTUR-A
 48
25.0
100
AcDb2dPolyline
 66
     1
 10
0.0
 20
0.0
 30
0.0
 70
   128
  0
VERTEX
  5
27E
330
27D
100
AcDbEntity
  8
GEB-KONTUR-A
 48
25.0
100
AcDbVertex
100
AcDb2dVertex
 10
65.99999980926515
 20
32.4759531021117
 30
0.0
  0
VERTEX
  5
27F
330
27D
100
AcDbEntity
  8
GEB-KONTUR-A
 48
25.0
100
AcDbVertex
100
AcDb2dVertex
 10
66.00083904266359
 20
32.71829366683949
 30
0.0
  0
VERTEX
  5
280
330
27D
100
AcDbEntity
  8
GEB-KONTUR-A
 48
25.0
100
AcDbVertex
100
AcDb2dVertex
 10
66.00335197448732
 20
32.96026945114125
 30
0.0
  0
VERTEX
  5
281
330
27D
100
AcDbEntity
  8
GEB-KONTUR-A
 48
25.0
100
AcDbVertex
100
AcDb2dVertex
 10
66.00752906799318
 20
33.20194005966175
 30
0.0
  0
VERTEX
  5
282
330
27D
100
AcDbEntity
  8
GEB-KONTUR-A
 48
25.0
100
AcDbVertex
100
AcDb2dVertex
 10
66.01336555480958
 20
33.44336509704579
 30
0.0
  0
VERTEX
  5
283
330
27D
100
AcDbEntity
  8
GEB-KONTUR-A
 48
25.0
100
AcDbVertex
100
AcDb2dVertex
 10
66.02085428237916
 20
33.68460655212391
 30
0.0
  0
VERTEX
  5
284
330
27D
100
AcDbEntity
  8
GEB-KONTUR-A
 48
25.0
100
AcDbVertex
100
AcDb2dVertex
 10
66.02999286651613
 20
33.92572164535511
 30
0.0
  0
VERTEX
  5
285
330
27D
100
AcDbEntity
  8
GEB-KONTUR-A
 48
25.0
100
AcDbVertex
100
AcDb2dVertex
 10
66.04077177047731
 20
34.16676998138417
 30
0.0
  0
VERTEX
  5
286
330
27D
100
AcDbEntity
  8
GEB-KONTUR-A
 48
25.0
100
AcDbVertex
100
AcDb2dVertex
 10
66.0531933784485
 20
34.40781354904164
 30
0.0
  0
VERTEX
  5
287
330
27D
100
AcDbEntity
  8
GEB-KONTUR-A
 48
25.0
100
AcDbVertex
100
AcDb2dVertex
 10
66.06725053787233
 20
34.64890718460072
 30
0.0
  0
VERTEX
  5
288
330
27D
100
AcDbEntity
  8
GEB-KONTUR-A
 48
25.0
100
AcDbVertex
100
AcDb2dVertex
 10
66.08294563293458
 20
34.89011287689198
 30
0.0
  0
VERTEX
  5
289
330
27D
100
AcDbEntity
  8
GEB-KONTUR-A
 48
25.0
100
AcDbVertex
100
AcDb2dVertex
 10
66.10027389526369
 20
35.13148546218861
 30
0.0
  0
VERTEX
  5
28A
330
27D
100
AcDbEntity
  8
GEB-KONTUR-A
 48
25.0
100
AcDbVertex
100
AcDb2dVertex
 10
66.11924009323121
 20
35.37308454513539
 30
0.0
  0
VERTEX
  5
28B
330
27D
100
AcDbEntity
  8
GEB-KONTUR-A
 48
25.0
100
AcDbVertex
100
AcDb2dVertex
 10
66.13983945846559
 20
35.61496973037709
 30
0.0
  0
VERTEX
  5
28C
330
27D
100
AcDbEntity
  8
GEB-KONTUR-A
 48
25.0
100
AcDbVertex
100
AcDb2dVertex
 10
66.1620743751526
 20
35.8571958541869
 30
0.0
  0
VERTEX
  5
28D
330
27D
100
AcDbEntity
  8
GEB-KONTUR-A
 48
25.0
100
AcDbVertex
100
AcDb2dVertex
 10
66.18594961166383
 20
36.09982252120961
 30
0.0
  0
VERTEX
  5
28E
330
27D
100
AcDbEntity
  8
GEB-KONTUR-A
 48
25.0
100
AcDbVertex
100
AcDb2dVertex
 10
66.21146755218507
 20
36.34290933608998
 30
0.0
  0
VERTEX
  5
28F
330
27D
100
AcDbEntity
  8
GEB-KONTUR-A
 48
25.0
100
AcDbVertex
100
AcDb2dVertex
 10
66.23863058090211
 20
36.58651113510098
 30
0.0
  0
VERTEX
  5
290
330
27D
100
AcDbEntity
  8
GEB-KONTUR-A
 48
25.0
100
AcDbVertex
100
AcDb2dVertex
 10
66.26744346618654
 20
36.83068990707364
 30
0.0
  0
VERTEX
  5
291
330
27D
100
AcDbEntity
  8
GEB-KONTUR-A
 48
25.0
100
AcDbVertex
100
AcDb2dVertex
 10
66.29791336059572
 20
37.07550048828091
 30
0.0
  0
VERTEX
  5
292
330
27D
100
AcDbEntity
  8
GEB-KONTUR-A
 48
25.0
100
AcDbVertex
100
AcDb2dVertex
 10
66.33004503250123
 20
37.32100486755337
 30
0.0
  0
VERTEX
  5
293
330
27D
100
AcDbEntity
  8
GEB-KONTUR-A
 48
25.0
100
AcDbVertex
100
AcDb2dVertex
 10
66.36384563446046
 20
37.56726026535
 30
0.0
  0
VERTEX
  5
294
330
27D
100
AcDbEntity
  8
GEB-KONTUR-A
 48
25.0
100
AcDbVertex
100
AcDb2dVertex
 10
66.39932231903078
 20
37.81432390212979
 30
0.0
  0
VERTEX
  5
295
330
27D
100
AcDbEntity
  8
GEB-KONTUR-A
 48
25.0
100
AcDbVertex
100
AcDb2dVertex
 10
66.43648462295534
 20
38.06226015090908
 30
0.0
  0
VERTEX
  5
296
330
27D
100
AcDbEntity
  8
GEB-KONTUR-A
 48
25.0
100
AcDbVertex
100
AcDb2dVertex
 10
66.47534208297731
 20
38.31112623214688
 30
0.0
  0
VERTEX
  5
297
330
27D
100
AcDbEntity
  8
GEB-KONTUR-A
 48
25.0
100
AcDbVertex
100
AcDb2dVertex
 10
66.51590423583986
 20
38.56098413467373
 30
0.0
  0
VERTEX
  5
298
330
27D
100
AcDbEntity
  8
GEB-KONTUR-A
 48
25.0
100
AcDbVertex
100
AcDb2dVertex
 10
66.55818061828615
 20
38.81189346313443
 30
0.0
  0
VERTEX
  5
299
330
27D
100
AcDbEntity
  8
GEB-KONTUR-A
 48
25.0
100
AcDbVertex
100
AcDb2dVertex
 10
66.60218791961671
 20
39.06391859054532
 30
0.0
  0
VERTEX
  5
29A
330
27D
100
AcDbEntity
  8
GEB-KONTUR-A
 48
25.0
100
AcDbVertex
100
AcDb2dVertex
 10
66.64793329238893
 20
39.31711912155117
 30
0.0
  0
VERTEX
  5
29B
330
27D
100
AcDbEntity
  8
GEB-KONTUR-A
 48
25.0
100
AcDbVertex
100
AcDb2dVertex
 10
66.69543342590333
 20
39.57155704498257
 30
0.0
  0
VERTEX
  5
29C
330
27D
100
AcDbEntity
  8
GEB-KONTUR-A
 48
25.0
100
AcDbVertex
100
AcDb2dVertex
 10
66.74470262527467
 20
39.82730150222744
 30
0.0
  0
VERTEX
  5
29D
330
27D
100
AcDbEntity
  8
GEB-KONTUR-A
 48
25.0
100
AcDbVertex
100
AcDb2dVertex
 10
66.79575519561769
 20
40.08441448211636
 30
0.0
  0
VERTEX
  5
29E
330
27D
100
AcDbEntity
  8
GEB-KONTUR-A
 48
25.0
100
AcDbVertex
100
AcDb2dVertex
 10
66.84860782623292
 20
40.34295558929409
 30
0.0
  0
VERTEX
  5
29F
330
27D
100
AcDbEntity
  8
GEB-KONTUR-A
 48
25.0
100
AcDbVertex
100
AcDb2dVertex
 10
66.9032795906067
 20
40.60299873352017
 30
0.0
  0
VERTEX
  5
2A0
330
27D
100
AcDbEntity
  8
GEB-KONTUR-A
 48
25.0
100
AcDbVertex
100
AcDb2dVertex
 10
66.95978717803956
 20
40.86461067199673
 30
0.0
  0
VERTEX
  5
2A1
330
27D
100
AcDbEntity
  8
GEB-KONTUR-A
 48
25.0
100
AcDbVertex
100
AcDb2dVertex
 10
67.01814727783204
 20
41.12785816192593
 30
0.0
  0
VERTEX
  5
2A2
330
27D
100
AcDbEntity
  8
GEB-KONTUR-A
 48
25.0
100
AcDbVertex
100
AcDb2dVertex
 10
67.07838373184205
 20
41.39280796050991
 30
0.0
  0
VERTEX
  5
2A3
330
27D
100
AcDbEntity
  8
GEB-KONTUR-A
 48
25.0
100
AcDbVertex
100
AcDb2dVertex
 10
67.14051799774171
 20
41.65953159332241
 30
0.0
  0
VERTEX
  5
2A4
330
27D
100
AcDbEntity
  8
GEB-KONTUR-A
 48
25.0
100
AcDbVertex
100
AcDb2dVertex
 10
67.20456914901735
 20
41.92810535430874
 30
0.0
  0
VERTEX
  5
2A5
330
27D
100
AcDbEntity
  8
GEB-KONTUR-A
 48
25.0
100
AcDbVertex
100
AcDb2dVertex
 10
67.27056102752687
 20
42.19859600067104
 30
0.0
  0
VERTEX
  5
2A6
330
27D
100
AcDbEntity
  8
GEB-KONTUR-A
 48
25.0
100
AcDbVertex
100
AcDb2dVertex
 10
67.33851747512819
 20
42.47108459472622
 30
0.0
  0
VERTEX
  5
2A7
330
27D
100
AcDbEntity
  8
GEB-KONTUR-A
 48
25.0
100
AcDbVertex
100
AcDb2dVertex
 10
67.40846710205079
 20
42.74563789367642
 30
0.0
  0
VERTEX
  5
2A8
330
27D
100
AcDbEntity
  8
GEB-KONTUR-A
 48
25.0
100
AcDbVertex
100
AcDb2dVertex
 10
67.4804337501526
 20
43.02234172821011
 30
0.0
  0
VERTEX
  5
2A9
330
27D
100
AcDbEntity
  8
GEB-KONTUR-A
 48
25.0
100
AcDbVertex
100
AcDb2dVertex
 10
67.5544460296631
 20
43.30127239227261
 30
0.0
  0
SEQEND
  5
2AA
330
27D
100
AcDbEntity
  8
GEB-KONTUR-A
 48
25.0
  0
LINE
  5
2AB
330
2
100
AcDbEntity
  8
GEB-KONTUR-A
 48
25.0
100
AcDbLine
 10
75.44555433772325
 20
-43.30127018922121
 30
0.0
 11
67.5544456622768
 21
-43.30127018922133
 31
0.0
  0
LINE
  5
2AC
330
2
100
AcDbEntity
  8
GEB-KONTUR-A
 48
25.0
100
AcDbLine
 10
62.54587681188997
 20
34.69899999999973
 30
0.0
 11
57.80000000000024
 21
34.69899999999973
 31
0.0
  0
LINE
  5
2AD
330
2
100
AcDbEntity
  8
GEB-KONTUR-A
 48
25.0
100
AcDbLine
 10
62.54587681188997
 20
-34.69899999999939
 30
0.0
 11
57.80000000000007
 21
-34.69899999999939
 31
0.0
  0
LINE
  5
2AE
330
2
100
AcDbEntity
  8
GEB-KONTUR-A
 48
25.0
100
AcDbLine
 10
63.70000000000004
 20
32.69999999999982
 30
0.0
 11
62.54587681188997
 21
34.69899999999973
 31
0.0
  0
LINE
  5
2AF
330
2
100
AcDbEntity
  8
GEB-KONTUR-A
 48
25.0
100
AcDbLine
 10
63.70000000000004
 20
-32.69999999999948
 30
0.0
 11
62.54587681188997
 21
-34.69899999999939
 31
0.0
  0
LINE
  5
2B0
330
2
100
AcDbEntity
  8
GEB-KONTUR-A
 48
25.0
100
AcDbLine
 10
66.0
 20
32.69999999999982
 30
0.0
 11
63.70000000000004
 21
32.69999999999982
 31
0.0
  0
LINE
  5
2B1
330
2
100
AcDbEntity
  8
GEB-KONTUR-A
 48
25.0
100
AcDbLine
 10
66.0
 20
-32.69999999999948
 30
0.0
 11
63.70000000000004
 21
-32.69999999999948
 31
0.0
  0
LINE
  5
2B2
330
2
100
AcDbEntity
  8
GEB-KONTUR-A
 48
25.0
100
AcDbLine
 10
66.0
 20
37.49999999999966
 30
0.0
 11
67.5544456622768
 21
43.30127018922167
 31
0.0
  0
LINE
  5
2B3
330
2
100
AcDbEntity
  8
GEB-KONTUR-A
 48
25.0
100
AcDbLine
 10
77.0
 20
37.49999999999989
 30
0.0
 11
75.44555433772325
 21
43.30127018922167
 31
0.0
  0
LINE
  5
2B4
330
2
100
AcDbEntity
  8
GEB-KONTUR-A
 48
25.0
100
AcDbLine
 10
100.9999999999999
 20
29.8069999999999
 30
0.0
 11
77.0
 21
29.80699999999979
 31
0.0
  0
LINE
  5
2B5
330
2
100
AcDbEntity
  8
GEB-KONTUR-A
 48
25.0
100
AcDbLine
 10
101.0
 20
-29.80699999999933
 30
0.0
 11
77.00000000000006
 21
-29.80699999999945
 31
0.0
  0
LINE
  5
2B6
330
2
100
AcDbEntity
  8
GEB-KONTUR-A
 48
25.0
100
AcDbLine
 10
103.3
 20
27.50699999999995
 30
0.0
 11
101.0
 21
29.8069999999999
 31
0.0
  0
LINE
  5
2B7
330
2
100
AcDbEntity
  8
GEB-KONTUR-A
 48
25.0
100
AcDbLine
 10
103.3
 20
-27.50699999999938
 30
0.0
 11
101.0
 21
-29.80699999999933
 31
0.0
  0
LINE
  5
2B8
330
2
100
AcDbEntity
  8
GEB-KONTUR-A
 48
25.0
100
AcDbLine
 10
77.0
 20
-37.49999999999943
 30
0.0
 11
75.44555433772325
 21
-43.30127018922121
 31
0.0
  0
LINE
  5
2B9
330
2
100
AcDbEntity
  8
GEB-KONTUR-A
 48
25.0
100
AcDbLine
 10
66.0
 20
-37.49999999999943
 30
0.0
 11
67.5544456622768
 21
-43.30127018922133
 31
0.0
  0
LINE
  5
2BA
330
2
100
AcDbEntity
  8
GEB-KONTUR-A
 48
25.0
100
AcDbLine
 10
62.54587681188997
 20
34.69899999999973
 30
0.0
 11
62.54587681188997
 21
-34.69899999999939
 31
0.0
  0
LINE
  5
2BB
330
2
100
AcDbEntity
  8
GEB-KONTUR-A
 48
25.0
100
AcDbLine
 10
63.70000000000004
 20
32.69999999999982
 30
0.0
 11
63.70000000000004
 21
-32.69999999999948
 31
0.0
  0
LINE
  5
2BC
330
2
100
AcDbEntity
  8
GEB-KONTUR-A
 48
25.0
100
AcDbLine
 10
66.0
 20
37.49999999999989
 30
0.0
 11
66.0
 21
32.47595264191625
 31
0.0
  0
LINE
  5
2BD
330
2
100
AcDbEntity
  8
GEB-KONTUR-A
 48
25.0
100
AcDbLine
 10
77.0
 20
37.49999999999989
 30
0.0
 11
77.0
 21
32.47595264191625
 31
0.0
  0
LINE
  5
2BE
330
2
100
AcDbEntity
  8
GEB-KONTUR-A
 48
25.0
100
AcDbLine
 10
101.0
 20
29.8069999999999
 30
0.0
 11
101.0
 21
-29.80699999999933
 31
0.0
  0
LINE
  5
2BF
330
2
100
AcDbEntity
  8
GEB-KONTUR-A
 48
25.0
100
AcDbLine
 10
103.3
 20
27.50699999999995
 30
0.0
 11
103.3
 21
-27.50699999999938
 31
0.0
  0
LINE
  5
2C0
330
2
100
AcDbEntity
  8
GEB-KONTUR-A
 48
25.0
100
AcDbLine
 10
77.0
 20
32.47595264191625
 30
0.0
 11
77.0
 21
0.0000000000002274
 31
0.0
  0
LINE
  5
2C1
330
2
100
AcDbEntity
  8
GEB-KONTUR-A
 48
25.0
100
AcDbLine
 10
77.0
 20
0.0000000000001137
 30
0.0
 11
77.0
 21
-32.47595264191591
 31
0.0
  0
LINE
  5
2C2
330
2
100
AcDbEntity
  8
GEB-KONTUR-A
 48
25.0
100
AcDbLine
 10
77.0
 20
-32.47595264191591
 30
0.0
 11
77.0
 21
-37.49999999999943
 31
0.0
  0
LINE
  5
2C3
330
2
100
AcDbEntity
  8
GEB-KONTUR-A
 48
25.0
100
AcDbLine
 10
66.0
 20
32.47595264191625
 30
0.0
 11
66.0
 21
0.0000000000002274
 31
0.0
  0
LINE
  5
2C4
330
2
100
AcDbEntity
  8
GEB-KONTUR-A
 48
25.0
100
AcDbLine
 10
66.0
 20
0.0000000000001137
 30
0.0
 11
66.0
 21
-32.47595264191591
 31
0.0
  0
LINE
  5
2C5
330
2
100
AcDbEntity
  8
GEB-KONTUR-A
 48
25.0
100
AcDbLine
 10
66.0
 20
-32.47595264191591
 30
0.0
 11
66.0
 21
-37.49999999999943
 31
0.0
  0
LINE
  5
2C6
330
2
100
AcDbEntity
  8
GEB-VERDECKT
 48
25.0
100
AcDbLine
 10
50.0
 20
-32.39899999999955
 30
0.0
 11
52.30000000000001
 21
-34.6989999999995
 31
0.0
  0
LINE
  5
2C7
330
2
100
AcDbEntity
  8
GEB-VERDECKT
 48
25.0
100
AcDbLine
 10
50.0
 20
32.39899999999977
 30
0.0
 11
52.30000000000001
 21
34.69899999999973
 31
0.0
  0
LINE
  5
2C8
330
2
100
AcDbEntity
  8
GEB-VERDECKT
 48
25.0
100
AcDbLine
 10
57.80000000000024
 20
34.69899999999973
 30
0.0
 11
52.30000000000001
 21
34.69899999999973
 31
0.0
  0
LINE
  5
2C9
330
2
100
AcDbEntity
  8
GEB-VERDECKT
 48
25.0
100
AcDbLine
 10
57.80000000000007
 20
-34.69899999999939
 30
0.0
 11
52.30000000000001
 21
-34.69899999999939
 31
0.0
  0
LINE
  5
2CA
330
2
100
AcDbEntity
  8
GEB-VERDECKT
 48
25.0
100
AcDbLine
 10
103.3
 20
25.49999999999989
 30
0.0
 11
75.0
 21
25.49999999999989
 31
0.0
  0
LINE
  5
2CB
330
2
100
AcDbEntity
  8
GEB-VERDECKT
 48
25.0
100
AcDbLine
 10
103.3
 20
-25.49999999999943
 30
0.0
 11
75.0
 21
-25.49999999999954
 31
0.0
  0
LINE
  5
2CC
330
2
100
AcDbEntity
  8
GEB-VERDECKT
 48
25.0
100
AcDbLine
 10
75.0
 20
27.99999999999989
 30
0.0
 11
52.30000000000001
 21
27.99999999999978
 31
0.0
  0
LINE
  5
2CD
330
2
100
AcDbEntity
  8
GEB-VERDECKT
 48
25.0
100
AcDbLine
 10
75.0
 20
-27.99999999999954
 30
0.0
 11
52.30000000000001
 21
-27.99999999999954
 31
0.0
  0
LINE
  5
2CE
330
2
100
AcDbEntity
  8
GEB-VERDECKT
 48
25.0
100
AcDbLine
 10
52.30000000000001
 20
34.69899999999973
 30
0.0
 11
52.30000000000001
 21
-34.69899999999939
 31
0.0
  0
LINE
  5
2CF
330
2
100
AcDbEntity
  8
GEB-VERDECKT
 48
25.0
100
AcDbLine
 10
75.0
 20
27.99999999999978
 30
0.0
 11
75.0
 21
-27.99999999999954
 31
0.0
  0
LINE
  5
2D0
330
2
100
AcDbEntity
  8
GEB-VERDECKT
 48
25.0
100
AcDbLine
 10
50.0
 20
32.39899999999977
 30
0.0
 11
50.0
 21
-32.39899999999955
 31
0.0
  0
ARC
  5
2D1
330
2
100
AcDbEntity
  8
GEB-KONTUR-A
 48
25.0
100
AcDbCircle
 10
30.99999999999994
 20
-30.84999999999979
 30
0.0
 40
1.999999999999995
100
AcDbArc
 50
0.0
 51
90.0
  0
ARC
  5
2D2
330
2
100
AcDbEntity
  8
GEB-KONTUR-A
 48
25.0
100
AcDbCircle
 10
30.99999999999994
 20
30.84999999999991
 30
0.0
 40
1.999999999999995
100
AcDbArc
 50
270.0
 51
0.0
  0
LINE
  5
2D3
330
2
100
AcDbEntity
  8
GEB-VERDECKT
 48
25.0
100
AcDbLine
 10
0.4000000000000341
 20
27.49999999999989
 30
0.0
 11
0.0
 21
27.89999999999987
 31
0.0
  0
LINE
  5
2D4
330
2
100
AcDbEntity
  8
GEB-VERDECKT
 48
25.0
100
AcDbLine
 10
0.4000000000000341
 20
-27.49999999999977
 30
0.0
 11
0.0000000000000568
 21
-27.89999999999975
 31
0.0
  0
LINE
  5
2D5
330
2
100
AcDbEntity
  8
GEB-VERDECKT
 48
25.0
100
AcDbLine
 10
0.4000000000000341
 20
-27.49999999999977
 30
0.0
 11
0.4000000000000341
 21
27.49999999999989
 31
0.0
  0
ARC
  5
2D6
330
2
100
AcDbEntity
  8
GEB-KONTUR-A
 48
25.0
100
AcDbCircle
 10
3.500000000000028
 20
-29.0999999999998
 30
0.0
 40
3.499999999999986
100
AcDbArc
 50
180.0
 51
310.0000000000001
  0
ARC
  5
2D7
330
2
100
AcDbEntity
  8
GEB-KONTUR-A
 48
25.0
100
AcDbCircle
 10
3.500000000000028
 20
29.0999999999998
 30
0.0
 40
3.499999999999992
100
AcDbArc
 50
49.99999999999991
 51
180.0
  0
LINE
  5
2D8
330
2
100
AcDbEntity
  8
GEB-KONTUR-A
 48
25.0
100
AcDbLine
 10
9.242971792160005
 20
28.84999999999991
 30
0.0
 11
5.749756633902904
 21
31.78115555091631
 31
0.0
  0
LINE
  5
2D9
330
2
100
AcDbEntity
  8
GEB-KONTUR-A
 48
25.0
100
AcDbLine
 10
9.242971792160005
 20
-28.8499999999998
 30
0.0
 11
5.749756633902904
 21
-31.7811555509162
 31
0.0
  0
LINE
  5
2DA
330
2
100
AcDbEntity
  8
GEB-KONTUR-A
 48
25.0
100
AcDbLine
 10
34.80000000000013
 20
31.24999999999989
 30
0.0
 11
32.99999999999994
 21
31.24999999999989
 31
0.0
  0
LINE
  5
2DB
330
2
100
AcDbEntity
  8
GEB-KONTUR-A
 48
25.0
100
AcDbLine
 10
34.80000000000007
 20
-31.24999999999977
 30
0.0
 11
32.99999999999994
 21
-31.24999999999977
 31
0.0
  0
LINE
  5
2DC
330
2
100
AcDbEntity
  8
GEB-KONTUR-A
 48
25.0
100
AcDbLine
 10
30.99999999999994
 20
28.84999999999991
 30
0.0
 11
9.242971792160005
 21
28.84999999999991
 31
0.0
  0
LINE
  5
2DD
330
2
100
AcDbEntity
  8
GEB-KONTUR-A
 48
25.0
100
AcDbLine
 10
30.99999999999994
 20
-28.8499999999998
 30
0.0
 11
9.242971792160005
 21
-28.8499999999998
 31
0.0
  0
LINE
  5
2DE
330
2
100
AcDbEntity
  8
GEB-KONTUR-A
 48
25.0
100
AcDbLine
 10
9.242971792160005
 20
28.84999999999991
 30
0.0
 11
9.242971792160005
 21
-28.8499999999998
 31
0.0
  0
LINE
  5
2DF
330
2
100
AcDbEntity
  8
GEB-KONTUR-A
 48
25.0
100
AcDbLine
 10
32.99999999999994
 20
31.24999999999989
 30
0.0
 11
32.99999999999994
 21
-31.24999999999977
 31
0.0
  0
LINE
  5
2E0
330
2
100
AcDbEntity
  8
GEB-KONTUR-A
 48
25.0
100
AcDbLine
 10
0.0000000000000568
 20
29.09999999999991
 30
0.0
 11
0.0000000000000568
 21
-29.0999999999998
 31
0.0
  0
LINE
  5
2E1
330
2
100
AcDbEntity
  8
GEB-VERDECKT
 48
25.0
100
AcDbLine
 10
8.039327353388813
 20
27.9018666706429
 30
0.0
 11
4.7855752193731
 21
30.63208888623774
 31
0.0
  0
LINE
  5
2E2
330
2
100
AcDbEntity
  8
GEB-VERDECKT
 48
25.0
100
AcDbLine
 10
8.039327353388813
 20
-27.9018666706429
 30
0.0
 11
4.7855752193731
 21
-30.63208888623774
 31
0.0
  0
ARC
  5
2E3
330
2
100
AcDbEntity
  8
GEB-VERDECKT
 48
25.0
100
AcDbCircle
 10
3.500000000000028
 20
-29.0999999999998
 30
0.0
 40
1.999999999999992
100
AcDbArc
 50
180.0
 51
310.0000000000001
  0
ARC
  5
2E4
330
2
100
AcDbEntity
  8
GEB-VERDECKT
 48
25.0
100
AcDbCircle
 10
3.500000000000028
 20
29.0999999999998
 30
0.0
 40
1.999999999999995
100
AcDbArc
 50
49.99999999999991
 51
180.0
  0
LINE
  5
2E5
330
2
100
AcDbEntity
  8
GEB-VERDECKT
 48
25.0
100
AcDbLine
 10
39.2111456180001
 20
31.24999999999989
 30
0.0
 11
34.80000000000013
 21
31.24999999999989
 31
0.0
  0
LINE
  5
2E6
330
2
100
AcDbEntity
  8
GEB-VERDECKT
 48
25.0
100
AcDbLine
 10
39.2111456180001
 20
-31.24999999999977
 30
0.0
 11
34.80000000000007
 21
-31.24999999999977
 31
0.0
  0
LINE
  5
2E7
330
2
100
AcDbEntity
  8
GEB-VERDECKT
 48
25.0
100
AcDbLine
 10
34.99999999999995
 20
27.19999999999982
 30
0.0
 11
9.96769018244845
 21
27.19999999999982
 31
0.0
  0
LINE
  5
2E8
330
2
100
AcDbEntity
  8
GEB-VERDECKT
 48
25.0
100
AcDbLine
 10
34.99999999999995
 20
-27.19999999999982
 30
0.0
 11
9.96769018244845
 21
-27.19999999999982
 31
0.0
  0
ARC
  5
2E9
330
2
100
AcDbEntity
  8
GEB-VERDECKT
 48
25.0
100
AcDbCircle
 10
9.96769018244845
 20
-30.19999999999982
 30
0.0
 40
2.999999999999988
100
AcDbArc
 50
90.0
 51
130.0000000000001
  0
ARC
  5
2EA
330
2
100
AcDbEntity
  8
GEB-VERDECKT
 48
25.0
100
AcDbCircle
 10
9.96769018244845
 20
30.19999999999982
 30
0.0
 40
2.999999999999993
100
AcDbArc
 50
229.9999999999999
 51
270.0
  0
LINE
  5
2EB
330
2
100
AcDbEntity
  8
GEB-VERDECKT
 48
25.0
100
AcDbLine
 10
1.500000000000028
 20
27.49999999999989
 30
0.0
 11
0.4000000000000341
 21
27.49999999999989
 31
0.0
  0
LINE
  5
2EC
330
2
100
AcDbEntity
  8
GEB-VERDECKT
 48
25.0
100
AcDbLine
 10
1.500000000000028
 20
-27.49999999999977
 30
0.0
 11
0.4000000000000341
 21
-27.49999999999977
 31
0.0
  0
LINE
  5
2ED
330
2
100
AcDbEntity
  8
GEB-VERDECKT
 48
25.0
100
AcDbLine
 10
46.99999999999994
 20
31.24999999999989
 30
0.0
 11
42.78885438199978
 21
31.24999999999989
 31
0.0
  0
LINE
  5
2EE
330
2
100
AcDbEntity
  8
GEB-VERDECKT
 48
25.0
100
AcDbLine
 10
46.99999999999994
 20
-31.24999999999977
 30
0.0
 11
42.78885438199978
 21
-31.24999999999977
 31
0.0
  0
LINE
  5
2EF
330
2
100
AcDbEntity
  8
GEB-VERDECKT
 48
25.0
100
AcDbLine
 10
46.99999999999994
 20
25.49999999999978
 30
0.0
 11
34.99999999999995
 21
25.49999999999978
 31
0.0
  0
LINE
  5
2F0
330
2
100
AcDbEntity
  8
GEB-VERDECKT
 48
25.0
100
AcDbLine
 10
46.99999999999994
 20
-25.49999999999978
 30
0.0
 11
34.99999999999995
 21
-25.49999999999978
 31
0.0
  0
LINE
  5
2F1
330
2
100
AcDbEntity
  8
GEB-VERDECKT
 48
25.0
100
AcDbLine
 10
1.500000000000028
 20
29.0999999999998
 30
0.0
 11
1.500000000000028
 21
-29.0999999999998
 31
0.0
  0
LINE
  5
2F2
330
2
100
AcDbEntity
  8
GEB-VERDECKT
 48
25.0
100
AcDbLine
 10
34.99999999999995
 20
27.19999999999982
 30
0.0
 11
34.99999999999995
 21
-27.19999999999982
 31
0.0
  0
LINE
  5
2F3
330
2
100
AcDbEntity
  8
GEB-VERDECKT
 48
25.0
100
AcDbLine
 10
46.99999999999994
 20
31.24999999999989
 30
0.0
 11
46.99999999999994
 21
-31.24999999999977
 31
0.0
  0
ARC
  5
2F4
330
2
100
AcDbEntity
  8
GEB-VERDECKT
 48
25.0
100
AcDbCircle
 10
40.99999999999994
 20
31.44999999999982
 30
0.0
 40
1.799999999999995
100
AcDbArc
 50
186.3793702084413
 51
353.6206297915587
  0
ARC
  5
2F5
330
2
100
AcDbEntity
  8
GEB-VERDECKT
 48
25.0
100
AcDbCircle
 10
40.99999999999994
 20
-31.44999999999982
 30
0.0
 40
1.799999999999995
100
AcDbArc
 50
6.379370208441354
 51
173.6206297915586
  0
LINE
  5
2F6
330
2
100
AcDbEntity
  8
GEB-VERDECKT
 48
25.0
100
AcDbLine
 10
39.2111456180001
 20
31.24999999999989
 30
0.0
 11
39.2111456180001
 21
-31.24999999999977
 31
0.0
  0
LINE
  5
2F7
330
2
100
AcDbEntity
  8
GEB-VERDECKT
 48
25.0
100
AcDbLine
 10
42.78885438199978
 20
-31.24999999999977
 30
0.0
 11
42.78885438199978
 21
31.24999999999989
 31
0.0
  0
LINE
  5
2F8
330
2
100
AcDbEntity
  8
GEB-VERDECKT
 48
25.0
100
AcDbLine
 10
34.99999999999995
 20
-6.519999999999868
 30
0.0
 11
35.09999999999997
 21
-6.519999999999868
 31
0.0
  0
LINE
  5
2F9
330
2
100
AcDbEntity
  8
GEB-VERDECKT
 48
25.0
100
AcDbLine
 10
34.99999999999995
 20
6.519999999999981
 30
0.0
 11
35.09999999999997
 21
6.519999999999981
 31
0.0
  0
LINE
  5
2FA
330
2
100
AcDbEntity
  8
GEB-VERDECKT
 48
25.0
100
AcDbLine
 10
35.09999999999997
 20
1.629999999999995
 30
0.0
 11
35.09999999999997
 21
-1.629999999999881
 31
0.0
  0
LINE
  5
2FB
330
2
100
AcDbEntity
  8
GEB-VERDECKT
 48
25.0
100
AcDbLine
 10
35.09999999999997
 20
1.629999999999995
 30
0.0
 11
35.09999999999997
 21
6.519999999999981
 31
0.0
  0
LINE
  5
2FC
330
2
100
AcDbEntity
  8
GEB-VERDECKT
 48
25.0
100
AcDbLine
 10
35.09999999999997
 20
-6.519999999999868
 30
0.0
 11
35.09999999999997
 21
-1.629999999999881
 31
0.0
  0
LINE
  5
2FD
330
2
100
AcDbEntity
  8
GEB-VERDECKT
 48
25.0
100
AcDbLine
 10
35.09999999999997
 20
1.629999999999995
 30
0.0
 11
34.99999999999995
 21
1.629999999999995
 31
0.0
  0
LINE
  5
2FE
330
2
100
AcDbEntity
  8
GEB-VERDECKT
 48
25.0
100
AcDbLine
 10
34.99999999999995
 20
-1.629999999999881
 30
0.0
 11
35.09999999999997
 21
-1.629999999999881
 31
0.0
  0
LINE
  5
2FF
330
2
100
AcDbEntity
  8
GEB-VERDECKT
 48
25.0
100
AcDbLine
 10
39.80000000000024
 20
-33.21999999999935
 30
0.0
 11
55.23829685560503
 21
-33.21999999999935
 31
0.0
  0
LINE
  5
300
330
2
100
AcDbEntity
  8
GEB-VERDECKT
 48
25.0
100
AcDbLine
 10
39.79999999999995
 20
33.21999999999923
 30
0.0
 11
55.23829685560475
 21
33.21999999999923
 31
0.0
  0
POLYLINE
  5
301
330
2
100
AcDbEntity
  8
GEB-KONTUR-A
 48
25.0
100
AcDb2dPolyline
 66
     1
 10
0.0
 20
0.0
 30
0.0
 70
   128
  0
VERTEX
  5
302
330
301
100
AcDbEntity
  8
GEB-KONTUR-A
 48
25.0
100
AcDbVertex
100
AcDb2dVertex
 10
38.14936499595649
 20
21.65063619613602
 30
0.0
  0
VERTEX
  5
303
330
301
100
AcDbEntity
  8
GEB-KONTUR-A
 48
25.0
100
AcDbVertex
100
AcDb2dVertex
 10
37.98989157676704
 20
21.92956447601273
 30
0.0
  0
VERTEX
  5
304
330
301
100
AcDbEntity
  8
GEB-KONTUR-A
 48
25.0
100
AcDbVertex
100
AcDb2dVertex
 10
37.83482532501228
 20
22.20626592636063
 30
0.0
  0
VERTEX
  5
305
330
301
100
AcDbEntity
  8
GEB-KONTUR-A
 48
25.0
100
AcDbVertex
100
AcDb2dVertex
 10
37.68410604000099
 20
22.48082160949662
 30
0.0
  0
VERTEX
  5
306
330
301
100
AcDbEntity
  8
GEB-KONTUR-A
 48
25.0
100
AcDbVertex
100
AcDb2dVertex
 10
37.53767709732063
 20
22.753307819366
 30
0.0
  0
VERTEX
  5
307
330
301
100
AcDbEntity
  8
GEB-KONTUR-A
 48
25.0
100
AcDbVertex
100
AcDb2dVertex
 10
37.39548336267478
 20
23.0238008499141
 30
0.0
  0
VERTEX
  5
308
330
301
100
AcDbEntity
  8
GEB-KONTUR-A
 48
25.0
100
AcDbVertex
100
AcDb2dVertex
 10
37.25747283101089
 20
23.29237222671463
 30
0.0
  0
VERTEX
  5
309
330
301
100
AcDbEntity
  8
GEB-KONTUR-A
 48
25.0
100
AcDbVertex
100
AcDb2dVertex
 10
37.12359558343894
 20
23.55909824371293
 30
0.0
  0
VERTEX
  5
30A
330
301
100
AcDbEntity
  8
GEB-KONTUR-A
 48
25.0
100
AcDbVertex
100
AcDb2dVertex
 10
36.99380378723152
 20
23.82404804229691
 30
0.0
  0
VERTEX
  5
30B
330
301
100
AcDbEntity
  8
GEB-KONTUR-A
 48
25.0
100
AcDbVertex
100
AcDb2dVertex
 10
36.86805214285858
 20
24.08729314804032
 30
0.0
  0
VERTEX
  5
30C
330
301
100
AcDbEntity
  8
GEB-KONTUR-A
 48
25.0
100
AcDbVertex
100
AcDb2dVertex
 10
36.74629698991783
 20
24.34890508651688
 30
0.0
  0
VERTEX
  5
30D
330
301
100
AcDbEntity
  8
GEB-KONTUR-A
 48
25.0
100
AcDbVertex
100
AcDb2dVertex
 10
36.62849749922759
 20
24.60894823074295
 30
0.0
  0
VERTEX
  5
30E
330
301
100
AcDbEntity
  8
GEB-KONTUR-A
 48
25.0
100
AcDbVertex
100
AcDb2dVertex
 10
36.51461418271066
 20
24.86749410629227
 30
0.0
  0
VERTEX
  5
30F
330
301
100
AcDbEntity
  8
GEB-KONTUR-A
 48
25.0
100
AcDbVertex
100
AcDb2dVertex
 10
36.40461023449899
 20
25.1246047019954
 30
0.0
  0
VERTEX
  5
310
330
301
100
AcDbEntity
  8
GEB-KONTUR-A
 48
25.0
100
AcDbVertex
100
AcDb2dVertex
 10
36.2984503388405
 20
25.38034677505448
 30
0.0
  0
VERTEX
  5
311
330
301
100
AcDbEntity
  8
GEB-KONTUR-A
 48
25.0
100
AcDbVertex
100
AcDb2dVertex
 10
36.19610141515733
 20
25.63478708267167
 30
0.0
  0
VERTEX
  5
312
330
301
100
AcDbEntity
  8
GEB-KONTUR-A
 48
25.0
100
AcDbVertex
100
AcDb2dVertex
 10
36.09753217101098
 20
25.88798761367752
 30
0.0
  0
VERTEX
  5
313
330
301
100
AcDbEntity
  8
GEB-KONTUR-A
 48
25.0
100
AcDbVertex
100
AcDb2dVertex
 10
36.00271340012552
 20
26.14001035690262
 30
0.0
  0
VERTEX
  5
314
330
301
100
AcDbEntity
  8
GEB-KONTUR-A
 48
25.0
100
AcDbVertex
100
AcDb2dVertex
 10
35.91161760985853
 20
26.39092206954911
 30
0.0
  0
VERTEX
  5
315
330
301
100
AcDbEntity
  8
GEB-KONTUR-A
 48
25.0
100
AcDbVertex
100
AcDb2dVertex
 10
35.82421902120115
 20
26.64077758789017
 30
0.0
  0
VERTEX
  5
316
330
301
100
AcDbEntity
  8
GEB-KONTUR-A
 48
25.0
100
AcDbVertex
100
AcDb2dVertex
 10
35.74049401581289
 20
26.88964366912796
 30
0.0
  0
VERTEX
  5
317
330
301
100
AcDbEntity
  8
GEB-KONTUR-A
 48
25.0
100
AcDbVertex
100
AcDb2dVertex
 10
35.66042046546937
 20
27.13757991790726
 30
0.0
  0
VERTEX
  5
318
330
301
100
AcDbEntity
  8
GEB-KONTUR-A
 48
25.0
100
AcDbVertex
100
AcDb2dVertex
 10
35.58397817909719
 20
27.38464593887284
 30
0.0
  0
VERTEX
  5
319
330
301
100
AcDbEntity
  8
GEB-KONTUR-A
 48
25.0
100
AcDbVertex
100
AcDb2dVertex
 10
35.51114860475065
 20
27.63090133666935
 30
0.0
  0
VERTEX
  5
31A
330
301
100
AcDbEntity
  8
GEB-KONTUR-A
 48
25.0
100
AcDbVertex
100
AcDb2dVertex
 10
35.44191505312921
 20
27.87640333175602
 30
0.0
  0
VERTEX
  5
31B
330
301
100
AcDbEntity
  8
GEB-KONTUR-A
 48
25.0
100
AcDbVertex
100
AcDb2dVertex
 10
35.37626254856588
 20
28.12121629714909
 30
0.0
  0
VERTEX
  5
31C
330
301
100
AcDbEntity
  8
GEB-KONTUR-A
 48
25.0
100
AcDbVertex
100
AcDb2dVertex
 10
35.31417779177429
 20
28.36539268493595
 30
0.0
  0
VERTEX
  5
31D
330
301
100
AcDbEntity
  8
GEB-KONTUR-A
 48
25.0
100
AcDbVertex
100
AcDb2dVertex
 10
35.2556491598487
 20
28.60899686813298
 30
0.0
  0
VERTEX
  5
31E
330
301
100
AcDbEntity
  8
GEB-KONTUR-A
 48
25.0
100
AcDbVertex
100
AcDb2dVertex
 10
35.20066685527564
 20
28.85208129882756
 30
0.0
  0
VERTEX
  5
31F
330
301
100
AcDbEntity
  8
GEB-KONTUR-A
 48
25.0
100
AcDbVertex
100
AcDb2dVertex
 10
35.14922268241645
 20
29.09471035003605
 30
0.0
  0
VERTEX
  5
320
330
301
100
AcDbEntity
  8
GEB-KONTUR-A
 48
25.0
100
AcDbVertex
100
AcDb2dVertex
 10
35.10131014063956
 20
29.33693647384587
 30
0.0
  0
VERTEX
  5
321
330
301
100
AcDbEntity
  8
GEB-KONTUR-A
 48
25.0
100
AcDbVertex
100
AcDb2dVertex
 10
35.05692449882628
 20
29.57881927490177
 30
0.0
  0
VERTEX
  5
322
330
301
100
AcDbEntity
  8
GEB-KONTUR-A
 48
25.0
100
AcDbVertex
100
AcDb2dVertex
 10
35.01606268361212
 20
29.82042074203434
 30
0.0
  0
VERTEX
  5
323
330
301
100
AcDbEntity
  8
GEB-KONTUR-A
 48
25.0
100
AcDbVertex
100
AcDb2dVertex
 10
34.97872333526613
 20
30.06179332733097
 30
0.0
  0
VERTEX
  5
324
330
301
100
AcDbEntity
  8
GEB-KONTUR-A
 48
25.0
100
AcDbVertex
100
AcDb2dVertex
 10
34.94490676112474
 20
30.30299663543644
 30
0.0
  0
VERTEX
  5
325
330
301
100
AcDbEntity
  8
GEB-KONTUR-A
 48
25.0
100
AcDbVertex
100
AcDb2dVertex
 10
34.91461505666376
 20
30.54409265518132
 30
0.0
  0
VERTEX
  5
326
330
301
100
AcDbEntity
  8
GEB-KONTUR-A
 48
25.0
100
AcDbVertex
100
AcDb2dVertex
 10
34.88785199373962
 20
30.785133838653
 30
0.0
  0
VERTEX
  5
327
330
301
100
AcDbEntity
  8
GEB-KONTUR-A
 48
25.0
100
AcDbVertex
100
AcDb2dVertex
 10
34.86462309975178
 20
31.02618455886784
 30
0.0
  0
VERTEX
  5
328
330
301
100
AcDbEntity
  8
GEB-KONTUR-A
 48
25.0
100
AcDbVertex
100
AcDb2dVertex
 10
34.84493565298618
 20
31.26729965209904
 30
0.0
  0
VERTEX
  5
329
330
301
100
AcDbEntity
  8
GEB-KONTUR-A
 48
25.0
100
AcDbVertex
100
AcDb2dVertex
 10
34.82879870589824
 20
31.50853872299137
 30
0.0
  0
VERTEX
  5
32A
330
301
100
AcDbEntity
  8
GEB-KONTUR-A
 48
25.0
100
AcDbVertex
100
AcDb2dVertex
 10
34.81622309675441
 20
31.7499661445612
 30
0.0
  0
VERTEX
  5
32B
330
301
100
AcDbEntity
  8
GEB-KONTUR-A
 48
25.0
100
AcDbVertex
100
AcDb2dVertex
 10
34.8072214758256
 20
31.99163436889592
 30
0.0
  0
VERTEX
  5
32C
330
301
100
AcDbEntity
  8
GEB-KONTUR-A
 48
25.0
100
AcDbVertex
100
AcDb2dVertex
 10
34.8018083286704
 20
32.23361015319767
 30
0.0
  0
VERTEX
  5
32D
330
301
100
AcDbEntity
  8
GEB-KONTUR-A
 48
25.0
100
AcDbVertex
100
AcDb2dVertex
 10
34.80000000000001
 20
32.47595310211125
 30
0.0
  0
SEQEND
  5
32E
330
301
100
AcDbEntity
  8
GEB-KONTUR-A
 48
25.0
  0
POLYLINE
  5
32F
330
2
100
AcDbEntity
  8
GEB-KONTUR-A
 48
25.0
100
AcDb2dPolyline
 66
     1
 10
0.0
 20
0.0
 30
0.0
 70
   128
  0
VERTEX
  5
330
330
32F
100
AcDbEntity
  8
GEB-KONTUR-A
 48
25.0
100
AcDbVertex
100
AcDb2dVertex
 10
34.80000000000001
 20
32.47595310211125
 30
0.0
  0
VERTEX
  5
331
330
32F
100
AcDbEntity
  8
GEB-KONTUR-A
 48
25.0
100
AcDbVertex
100
AcDb2dVertex
 10
34.8018083286704
 20
32.71829366683903
 30
0.0
  0
VERTEX
  5
332
330
32F
100
AcDbEntity
  8
GEB-KONTUR-A
 48
25.0
100
AcDbVertex
100
AcDb2dVertex
 10
34.8072214758256
 20
32.96026945114079
 30
0.0
  0
VERTEX
  5
333
330
32F
100
AcDbEntity
  8
GEB-KONTUR-A
 48
25.0
100
AcDbVertex
100
AcDb2dVertex
 10
34.81622309675436
 20
33.2019400596613
 30
0.0
  0
VERTEX
  5
334
330
32F
100
AcDbEntity
  8
GEB-KONTUR-A
 48
25.0
100
AcDbVertex
100
AcDb2dVertex
 10
34.82879870589818
 20
33.44336509704533
 30
0.0
  0
VERTEX
  5
335
330
32F
100
AcDbEntity
  8
GEB-KONTUR-A
 48
25.0
100
AcDbVertex
100
AcDb2dVertex
 10
34.84493565298612
 20
33.68460655212345
 30
0.0
  0
VERTEX
  5
336
330
32F
100
AcDbEntity
  8
GEB-KONTUR-A
 48
25.0
100
AcDbVertex
100
AcDb2dVertex
 10
34.86462309975173
 20
33.92572164535466
 30
0.0
  0
VERTEX
  5
337
330
32F
100
AcDbEntity
  8
GEB-KONTUR-A
 48
25.0
100
AcDbVertex
100
AcDb2dVertex
 10
34.88785199373956
 20
34.16676998138348
 30
0.0
  0
VERTEX
  5
338
330
32F
100
AcDbEntity
  8
GEB-KONTUR-A
 48
25.0
100
AcDbVertex
100
AcDb2dVertex
 10
34.91461505666371
 20
34.40781354904095
 30
0.0
  0
VERTEX
  5
339
330
32F
100
AcDbEntity
  8
GEB-KONTUR-A
 48
25.0
100
AcDbVertex
100
AcDb2dVertex
 10
34.94490676112468
 20
34.64890718460003
 30
0.0
  0
VERTEX
  5
33A
330
32F
100
AcDbEntity
  8
GEB-KONTUR-A
 48
25.0
100
AcDbVertex
100
AcDb2dVertex
 10
34.97872333526607
 20
34.89011287689129
 30
0.0
  0
VERTEX
  5
33B
330
32F
100
AcDbEntity
  8
GEB-KONTUR-A
 48
25.0
100
AcDbVertex
100
AcDb2dVertex
 10
35.01606268361206
 20
35.13148546218793
 30
0.0
  0
VERTEX
  5
33C
330
32F
100
AcDbEntity
  8
GEB-KONTUR-A
 48
25.0
100
AcDbVertex
100
AcDb2dVertex
 10
35.05692449882622
 20
35.3730845451347
 30
0.0
  0
VERTEX
  5
33D
330
32F
100
AcDbEntity
  8
GEB-KONTUR-A
 48
25.0
100
AcDbVertex
100
AcDb2dVertex
 10
35.1013101406395
 20
35.6149697303764
 30
0.0
  0
VERTEX
  5
33E
330
32F
100
AcDbEntity
  8
GEB-KONTUR-A
 48
25.0
100
AcDbVertex
100
AcDb2dVertex
 10
35.14922268241639
 20
35.85719585418622
 30
0.0
  0
VERTEX
  5
33F
330
32F
100
AcDbEntity
  8
GEB-KONTUR-A
 48
25.0
100
AcDbVertex
100
AcDb2dVertex
 10
35.20066685527559
 20
36.09982252120892
 30
0.0
  0
VERTEX
  5
340
330
32F
100
AcDbEntity
  8
GEB-KONTUR-A
 48
25.0
100
AcDbVertex
100
AcDb2dVertex
 10
35.25564915984864
 20
36.34290933608929
 30
0.0
  0
VERTEX
  5
341
330
32F
100
AcDbEntity
  8
GEB-KONTUR-A
 48
25.0
100
AcDbVertex
100
AcDb2dVertex
 10
35.31417779177423
 20
36.58651113510052
 30
0.0
  0
VERTEX
  5
342
330
32F
100
AcDbEntity
  8
GEB-KONTUR-A
 48
25.0
100
AcDbVertex
100
AcDb2dVertex
 10
35.37626254856582
 20
36.83068990707318
 30
0.0
  0
VERTEX
  5
343
330
32F
100
AcDbEntity
  8
GEB-KONTUR-A
 48
25.0
100
AcDbVertex
100
AcDb2dVertex
 10
35.44191505312915
 20
37.07550048828045
 30
0.0
  0
VERTEX
  5
344
330
32F
100
AcDbEntity
  8
GEB-KONTUR-A
 48
25.0
100
AcDbVertex
100
AcDb2dVertex
 10
35.51114860475059
 20
37.32100486755292
 30
0.0
  0
VERTEX
  5
345
330
32F
100
AcDbEntity
  8
GEB-KONTUR-A
 48
25.0
100
AcDbVertex
100
AcDb2dVertex
 10
35.58397817909713
 20
37.56726026534955
 30
0.0
  0
VERTEX
  5
346
330
32F
100
AcDbEntity
  8
GEB-KONTUR-A
 48
25.0
100
AcDbVertex
100
AcDb2dVertex
 10
35.66042046546932
 20
37.81432390212933
 30
0.0
  0
VERTEX
  5
347
330
32F
100
AcDbEntity
  8
GEB-KONTUR-A
 48
25.0
100
AcDbVertex
100
AcDb2dVertex
 10
35.74049401581283
 20
38.06226015090863
 30
0.0
  0
VERTEX
  5
348
330
32F
100
AcDbEntity
  8
GEB-KONTUR-A
 48
25.0
100
AcDbVertex
100
AcDb2dVertex
 10
35.82421902120109
 20
38.31112623214642
 30
0.0
  0
VERTEX
  5
349
330
32F
100
AcDbEntity
  8
GEB-KONTUR-A
 48
25.0
100
AcDbVertex
100
AcDb2dVertex
 10
35.91161760985847
 20
38.56098413467328
 30
0.0
  0
VERTEX
  5
34A
330
32F
100
AcDbEntity
  8
GEB-KONTUR-A
 48
25.0
100
AcDbVertex
100
AcDb2dVertex
 10
36.00271340012546
 20
38.81189346313397
 30
0.0
  0
VERTEX
  5
34B
330
32F
100
AcDbEntity
  8
GEB-KONTUR-A
 48
25.0
100
AcDbVertex
100
AcDb2dVertex
 10
36.09753217101093
 20
39.06391859054486
 30
0.0
  0
VERTEX
  5
34C
330
32F
100
AcDbEntity
  8
GEB-KONTUR-A
 48
25.0
100
AcDbVertex
100
AcDb2dVertex
 10
36.19610141515727
 20
39.31711912155072
 30
0.0
  0
VERTEX
  5
34D
330
32F
100
AcDbEntity
  8
GEB-KONTUR-A
 48
25.0
100
AcDbVertex
100
AcDb2dVertex
 10
36.29845033884044
 20
39.57155704498211
 30
0.0
  0
VERTEX
  5
34E
330
32F
100
AcDbEntity
  8
GEB-KONTUR-A
 48
25.0
100
AcDbVertex
100
AcDb2dVertex
 10
36.40461023449893
 20
39.82730150222699
 30
0.0
  0
VERTEX
  5
34F
330
32F
100
AcDbEntity
  8
GEB-KONTUR-A
 48
25.0
100
AcDbVertex
100
AcDb2dVertex
 10
36.5146141827106
 20
40.0844144821159
 30
0.0
  0
VERTEX
  5
350
330
32F
100
AcDbEntity
  8
GEB-KONTUR-A
 48
25.0
100
AcDbVertex
100
AcDb2dVertex
 10
36.62849749922748
 20
40.34295558929364
 30
0.0
  0
VERTEX
  5
351
330
32F
100
AcDbEntity
  8
GEB-KONTUR-A
 48
25.0
100
AcDbVertex
100
AcDb2dVertex
 10
36.74629698991771
 20
40.60299873351971
 30
0.0
  0
VERTEX
  5
352
330
32F
100
AcDbEntity
  8
GEB-KONTUR-A
 48
25.0
100
AcDbVertex
100
AcDb2dVertex
 10
36.8680521428584
 20
40.86461067199627
 30
0.0
  0
VERTEX
  5
353
330
32F
100
AcDbEntity
  8
GEB-KONTUR-A
 48
25.0
100
AcDbVertex
100
AcDb2dVertex
 10
36.99380378723134
 20
41.12785816192547
 30
0.0
  0
VERTEX
  5
354
330
32F
100
AcDbEntity
  8
GEB-KONTUR-A
 48
25.0
100
AcDbVertex
100
AcDb2dVertex
 10
37.12359558343877
 20
41.39280796050934
 30
0.0
  0
VERTEX
  5
355
330
32F
100
AcDbEntity
  8
GEB-KONTUR-A
 48
25.0
100
AcDbVertex
100
AcDb2dVertex
 10
37.25747283101072
 20
41.65953159332184
 30
0.0
  0
VERTEX
  5
356
330
32F
100
AcDbEntity
  8
GEB-KONTUR-A
 48
25.0
100
AcDbVertex
100
AcDb2dVertex
 10
37.39548336267461
 20
41.92810535430817
 30
0.0
  0
VERTEX
  5
357
330
32F
100
AcDbEntity
  8
GEB-KONTUR-A
 48
25.0
100
AcDbVertex
100
AcDb2dVertex
 10
37.53767709732045
 20
42.19859600067048
 30
0.0
  0
VERTEX
  5
358
330
32F
100
AcDbEntity
  8
GEB-KONTUR-A
 48
25.0
100
AcDbVertex
100
AcDb2dVertex
 10
37.68410604000081
 20
42.47108459472565
 30
0.0
  0
VERTEX
  5
359
330
32F
100
AcDbEntity
  8
GEB-KONTUR-A
 48
25.0
100
AcDbVertex
100
AcDb2dVertex
 10
37.8348253250121
 20
42.74563789367585
 30
0.0
  0
VERTEX
  5
35A
330
32F
100
AcDbEntity
  8
GEB-KONTUR-A
 48
25.0
100
AcDbVertex
100
AcDb2dVertex
 10
37.98989157676686
 20
43.02234172820954
 30
0.0
  0
VERTEX
  5
35B
330
32F
100
AcDbEntity
  8
GEB-KONTUR-A
 48
25.0
100
AcDbVertex
100
AcDb2dVertex
 10
38.14936499595632
 20
43.30127239227204
 30
0.0
  0
SEQEND
  5
35C
330
32F
100
AcDbEntity
  8
GEB-KONTUR-A
 48
25.0
  0
POLYLINE
  5
35D
330
2
100
AcDbEntity
  8
GEB-KONTUR-A
 48
25.0
100
AcDb2dPolyline
 66
     1
 10
0.0
 20
0.0
 30
0.0
 70
   128
  0
VERTEX
  5
35E
330
35D
100
AcDbEntity
  8
GEB-KONTUR-A
 48
25.0
100
AcDbVertex
100
AcDb2dVertex
 10
54.45063452720621
 20
43.30127239227204
 30
0.0
  0
VERTEX
  5
35F
330
35D
100
AcDbEntity
  8
GEB-KONTUR-A
 48
25.0
100
AcDbVertex
100
AcDb2dVertex
 10
54.61010794639566
 20
43.02234172820954
 30
0.0
  0
VERTEX
  5
360
330
35D
100
AcDbEntity
  8
GEB-KONTUR-A
 48
25.0
100
AcDbVertex
100
AcDb2dVertex
 10
54.76517419815042
 20
42.74563789367585
 30
0.0
  0
VERTEX
  5
361
330
35D
100
AcDbEntity
  8
GEB-KONTUR-A
 48
25.0
100
AcDbVertex
100
AcDb2dVertex
 10
54.91589288711526
 20
42.47108459472565
 30
0.0
  0
VERTEX
  5
362
330
35D
100
AcDbEntity
  8
GEB-KONTUR-A
 48
25.0
100
AcDbVertex
100
AcDb2dVertex
 10
55.06232242584207
 20
42.19859600067048
 30
0.0
  0
VERTEX
  5
363
330
35D
100
AcDbEntity
  8
GEB-KONTUR-A
 48
25.0
100
AcDbVertex
100
AcDb2dVertex
 10
55.20451765060403
 20
41.92810535430817
 30
0.0
  0
VERTEX
  5
364
330
35D
100
AcDbEntity
  8
GEB-KONTUR-A
 48
25.0
100
AcDbVertex
100
AcDb2dVertex
 10
55.34252624511697
 20
41.65953159332184
 30
0.0
  0
VERTEX
  5
365
330
35D
100
AcDbEntity
  8
GEB-KONTUR-A
 48
25.0
100
AcDbVertex
100
AcDb2dVertex
 10
55.47640542983987
 20
41.39280796050934
 30
0.0
  0
VERTEX
  5
366
330
35D
100
AcDbEntity
  8
GEB-KONTUR-A
 48
25.0
100
AcDbVertex
100
AcDb2dVertex
 10
55.60619573593118
 20
41.12785816192547
 30
0.0
  0
VERTEX
  5
367
330
35D
100
AcDbEntity
  8
GEB-KONTUR-A
 48
25.0
100
AcDbVertex
100
AcDb2dVertex
 10
55.73194723129251
 20
40.86461067199627
 30
0.0
  0
VERTEX
  5
368
330
35D
100
AcDbEntity
  8
GEB-KONTUR-A
 48
25.0
100
AcDbVertex
100
AcDb2dVertex
 10
55.8537028312681
 20
40.60299873351971
 30
0.0
  0
VERTEX
  5
369
330
35D
100
AcDbEntity
  8
GEB-KONTUR-A
 48
25.0
100
AcDbVertex
100
AcDb2dVertex
 10
55.97150306701639
 20
40.34295558929364
 30
0.0
  0
VERTEX
  5
36A
330
35D
100
AcDbEntity
  8
GEB-KONTUR-A
 48
25.0
100
AcDbVertex
100
AcDb2dVertex
 10
56.08538608551004
 20
40.0844144821159
 30
0.0
  0
VERTEX
  5
36B
330
35D
100
AcDbEntity
  8
GEB-KONTUR-A
 48
25.0
100
AcDbVertex
100
AcDb2dVertex
 10
56.19539003372171
 20
39.82730150222699
 30
0.0
  0
VERTEX
  5
36C
330
35D
100
AcDbEntity
  8
GEB-KONTUR-A
 48
25.0
100
AcDbVertex
100
AcDb2dVertex
 10
56.30155067443832
 20
39.57155704498211
 30
0.0
  0
VERTEX
  5
36D
330
35D
100
AcDbEntity
  8
GEB-KONTUR-A
 48
25.0
100
AcDbVertex
100
AcDb2dVertex
 10
56.40389900207503
 20
39.31711912155072
 30
0.0
  0
VERTEX
  5
36E
330
35D
100
AcDbEntity
  8
GEB-KONTUR-A
 48
25.0
100
AcDbVertex
100
AcDb2dVertex
 10
56.50246839523299
 20
39.06391859054486
 30
0.0
  0
VERTEX
  5
36F
330
35D
100
AcDbEntity
  8
GEB-KONTUR-A
 48
25.0
100
AcDbVertex
100
AcDb2dVertex
 10
56.59728746414169
 20
38.81189346313397
 30
0.0
  0
VERTEX
  5
370
330
35D
100
AcDbEntity
  8
GEB-KONTUR-A
 48
25.0
100
AcDbVertex
100
AcDb2dVertex
 10
56.68838243484481
 20
38.56098413467328
 30
0.0
  0
VERTEX
  5
371
330
35D
100
AcDbEntity
  8
GEB-KONTUR-A
 48
25.0
100
AcDbVertex
100
AcDb2dVertex
 10
56.77578191757186
 20
38.31112623214642
 30
0.0
  0
VERTEX
  5
372
330
35D
100
AcDbEntity
  8
GEB-KONTUR-A
 48
25.0
100
AcDbVertex
100
AcDb2dVertex
 10
56.85950498580917
 20
38.06226015090863
 30
0.0
  0
VERTEX
  5
373
330
35D
100
AcDbEntity
  8
GEB-KONTUR-A
 48
25.0
100
AcDbVertex
100
AcDb2dVertex
 10
56.93958024978622
 20
37.81432390212933
 30
0.0
  0
VERTEX
  5
374
330
35D
100
AcDbEntity
  8
GEB-KONTUR-A
 48
25.0
100
AcDbVertex
100
AcDb2dVertex
 10
57.01602201461776
 20
37.56726026534955
 30
0.0
  0
VERTEX
  5
375
330
35D
100
AcDbEntity
  8
GEB-KONTUR-A
 48
25.0
100
AcDbVertex
100
AcDb2dVertex
 10
57.08885173797591
 20
37.32100486755292
 30
0.0
  0
VERTEX
  5
376
330
35D
100
AcDbEntity
  8
GEB-KONTUR-A
 48
25.0
100
AcDbVertex
100
AcDb2dVertex
 10
57.15808610916122
 20
37.07550048828045
 30
0.0
  0
VERTEX
  5
377
330
35D
100
AcDbEntity
  8
GEB-KONTUR-A
 48
25.0
100
AcDbVertex
100
AcDb2dVertex
 10
57.22373704910262
 20
36.83068990707318
 30
0.0
  0
VERTEX
  5
378
330
35D
100
AcDbEntity
  8
GEB-KONTUR-A
 48
25.0
100
AcDbVertex
100
AcDb2dVertex
 10
57.28582124710067
 20
36.58651113510052
 30
0.0
  0
VERTEX
  5
379
330
35D
100
AcDbEntity
  8
GEB-KONTUR-A
 48
25.0
100
AcDbVertex
100
AcDb2dVertex
 10
57.34435062408431
 20
36.34290933608929
 30
0.0
  0
VERTEX
  5
37A
330
35D
100
AcDbEntity
  8
GEB-KONTUR-A
 48
25.0
100
AcDbVertex
100
AcDb2dVertex
 10
57.39933233261092
 20
36.09982252120892
 30
0.0
  0
VERTEX
  5
37B
330
35D
100
AcDbEntity
  8
GEB-KONTUR-A
 48
25.0
100
AcDbVertex
100
AcDb2dVertex
 10
57.45077829360946
 20
35.85719585418622
 30
0.0
  0
VERTEX
  5
37C
330
35D
100
AcDbEntity
  8
GEB-KONTUR-A
 48
25.0
100
AcDbVertex
100
AcDb2dVertex
 10
57.49869089126571
 20
35.6149697303764
 30
0.0
  0
VERTEX
  5
37D
330
35D
100
AcDbEntity
  8
GEB-KONTUR-A
 48
25.0
100
AcDbVertex
100
AcDb2dVertex
 10
57.54307489395126
 20
35.3730845451347
 30
0.0
  0
VERTEX
  5
37E
330
35D
100
AcDbEntity
  8
GEB-KONTUR-A
 48
25.0
100
AcDbVertex
100
AcDb2dVertex
 10
57.58393745422347
 20
35.13148546218793
 30
0.0
  0
VERTEX
  5
37F
330
35D
100
AcDbEntity
  8
GEB-KONTUR-A
 48
25.0
100
AcDbVertex
100
AcDb2dVertex
 10
57.62127618789657
 20
34.89011287689129
 30
0.0
  0
VERTEX
  5
380
330
35D
100
AcDbEntity
  8
GEB-KONTUR-A
 48
25.0
100
AcDbVertex
100
AcDb2dVertex
 10
57.65509347915633
 20
34.64890718460003
 30
0.0
  0
VERTEX
  5
381
330
35D
100
AcDbEntity
  8
GEB-KONTUR-A
 48
25.0
100
AcDbVertex
100
AcDb2dVertex
 10
57.68538455963119
 20
34.40781354904095
 30
0.0
  0
VERTEX
  5
382
330
35D
100
AcDbEntity
  8
GEB-KONTUR-A
 48
25.0
100
AcDbVertex
100
AcDb2dVertex
 10
57.71214704513534
 20
34.16676998138348
 30
0.0
  0
VERTEX
  5
383
330
35D
100
AcDbEntity
  8
GEB-KONTUR-A
 48
25.0
100
AcDbVertex
100
AcDb2dVertex
 10
57.7353761672972
 20
33.92572164535466
 30
0.0
  0
VERTEX
  5
384
330
35D
100
AcDbEntity
  8
GEB-KONTUR-A
 48
25.0
100
AcDbVertex
100
AcDb2dVertex
 10
57.75506477355941
 20
33.68460655212345
 30
0.0
  0
VERTEX
  5
385
330
35D
100
AcDbEntity
  8
GEB-KONTUR-A
 48
25.0
100
AcDbVertex
100
AcDb2dVertex
 10
57.771200942993
 20
33.44336509704533
 30
0.0
  0
VERTEX
  5
386
330
35D
100
AcDbEntity
  8
GEB-KONTUR-A
 48
25.0
100
AcDbVertex
100
AcDb2dVertex
 10
57.78377752304061
 20
33.2019400596613
 30
0.0
  0
VERTEX
  5
387
330
35D
100
AcDbEntity
  8
GEB-KONTUR-A
 48
25.0
100
AcDbVertex
100
AcDb2dVertex
 10
57.79277782440169
 20
32.96026945114079
 30
0.0
  0
VERTEX
  5
388
330
35D
100
AcDbEntity
  8
GEB-KONTUR-A
 48
25.0
100
AcDbVertex
100
AcDb2dVertex
 10
57.79819231033309
 20
32.71829366683903
 30
0.0
  0
VERTEX
  5
389
330
35D
100
AcDbEntity
  8
GEB-KONTUR-A
 48
25.0
100
AcDbVertex
100
AcDb2dVertex
 10
57.79999952316268
 20
32.47595310211125
 30
0.0
  0
SEQEND
  5
38A
330
35D
100
AcDbEntity
  8
GEB-KONTUR-A
 48
25.0
  0
POLYLINE
  5
38B
330
2
100
AcDbEntity
  8
GEB-KONTUR-A
 48
25.0
100
AcDb2dPolyline
 66
     1
 10
0.0
 20
0.0
 30
0.0
 70
   128
  0
VERTEX
  5
38C
330
38B
100
AcDbEntity
  8
GEB-KONTUR-A
 48
25.0
100
AcDbVertex
100
AcDb2dVertex
 10
57.79999952316268
 20
32.47595310211125
 30
0.0
  0
VERTEX
  5
38D
330
38B
100
AcDbEntity
  8
GEB-KONTUR-A
 48
25.0
100
AcDbVertex
100
AcDb2dVertex
 10
57.79819231033314
 20
32.23361015319767
 30
0.0
  0
VERTEX
  5
38E
330
38B
100
AcDbEntity
  8
GEB-KONTUR-A
 48
25.0
100
AcDbVertex
100
AcDb2dVertex
 10
57.79277782440175
 20
31.99163436889592
 30
0.0
  0
VERTEX
  5
38F
330
38B
100
AcDbEntity
  8
GEB-KONTUR-A
 48
25.0
100
AcDbVertex
100
AcDb2dVertex
 10
57.78377752304066
 20
31.7499661445612
 30
0.0
  0
VERTEX
  5
390
330
38B
100
AcDbEntity
  8
GEB-KONTUR-A
 48
25.0
100
AcDbVertex
100
AcDb2dVertex
 10
57.77120094299306
 20
31.50853872299137
 30
0.0
  0
VERTEX
  5
391
330
38B
100
AcDbEntity
  8
GEB-KONTUR-A
 48
25.0
100
AcDbVertex
100
AcDb2dVertex
 10
57.75506477355946
 20
31.26729965209904
 30
0.0
  0
VERTEX
  5
392
330
38B
100
AcDbEntity
  8
GEB-KONTUR-A
 48
25.0
100
AcDbVertex
100
AcDb2dVertex
 10
57.73537616729726
 20
31.02618455886784
 30
0.0
  0
VERTEX
  5
393
330
38B
100
AcDbEntity
  8
GEB-KONTUR-A
 48
25.0
100
AcDbVertex
100
AcDb2dVertex
 10
57.71214704513539
 20
30.785133838653
 30
0.0
  0
VERTEX
  5
394
330
38B
100
AcDbEntity
  8
GEB-KONTUR-A
 48
25.0
100
AcDbVertex
100
AcDb2dVertex
 10
57.68538455963124
 20
30.54409265518132
 30
0.0
  0
VERTEX
  5
395
330
38B
100
AcDbEntity
  8
GEB-KONTUR-A
 48
25.0
100
AcDbVertex
100
AcDb2dVertex
 10
57.65509347915639
 20
30.30299663543644
 30
0.0
  0
VERTEX
  5
396
330
38B
100
AcDbEntity
  8
GEB-KONTUR-A
 48
25.0
100
AcDbVertex
100
AcDb2dVertex
 10
57.62127618789662
 20
30.06179332733097
 30
0.0
  0
VERTEX
  5
397
330
38B
100
AcDbEntity
  8
GEB-KONTUR-A
 48
25.0
100
AcDbVertex
100
AcDb2dVertex
 10
57.58393745422353
 20
29.82042074203434
 30
0.0
  0
VERTEX
  5
398
330
38B
100
AcDbEntity
  8
GEB-KONTUR-A
 48
25.0
100
AcDbVertex
100
AcDb2dVertex
 10
57.54307489395131
 20
29.57881927490177
 30
0.0
  0
VERTEX
  5
399
330
38B
100
AcDbEntity
  8
GEB-KONTUR-A
 48
25.0
100
AcDbVertex
100
AcDb2dVertex
 10
57.49869089126576
 20
29.33693647384587
 30
0.0
  0
VERTEX
  5
39A
330
38B
100
AcDbEntity
  8
GEB-KONTUR-A
 48
25.0
100
AcDbVertex
100
AcDb2dVertex
 10
57.45077829360951
 20
29.09471035003605
 30
0.0
  0
VERTEX
  5
39B
330
38B
100
AcDbEntity
  8
GEB-KONTUR-A
 48
25.0
100
AcDbVertex
100
AcDb2dVertex
 10
57.39933233261098
 20
28.85208129882756
 30
0.0
  0
VERTEX
  5
39C
330
38B
100
AcDbEntity
  8
GEB-KONTUR-A
 48
25.0
100
AcDbVertex
100
AcDb2dVertex
 10
57.34435062408437
 20
28.60899686813298
 30
0.0
  0
VERTEX
  5
39D
330
38B
100
AcDbEntity
  8
GEB-KONTUR-A
 48
25.0
100
AcDbVertex
100
AcDb2dVertex
 10
57.28582124710072
 20
28.36539268493595
 30
0.0
  0
VERTEX
  5
39E
330
38B
100
AcDbEntity
  8
GEB-KONTUR-A
 48
25.0
100
AcDbVertex
100
AcDb2dVertex
 10
57.22373704910268
 20
28.12121629714909
 30
0.0
  0
VERTEX
  5
39F
330
38B
100
AcDbEntity
  8
GEB-KONTUR-A
 48
25.0
100
AcDbVertex
100
AcDb2dVertex
 10
57.15808610916127
 20
27.87640333175602
 30
0.0
  0
VERTEX
  5
3A0
330
38B
100
AcDbEntity
  8
GEB-KONTUR-A
 48
25.0
100
AcDbVertex
100
AcDb2dVertex
 10
57.08885173797597
 20
27.63090133666935
 30
0.0
  0
VERTEX
  5
3A1
330
38B
100
AcDbEntity
  8
GEB-KONTUR-A
 48
25.0
100
AcDbVertex
100
AcDb2dVertex
 10
57.01602201461781
 20
27.38464593887284
 30
0.0
  0
VERTEX
  5
3A2
330
38B
100
AcDbEntity
  8
GEB-KONTUR-A
 48
25.0
100
AcDbVertex
100
AcDb2dVertex
 10
56.93958024978627
 20
27.13757991790726
 30
0.0
  0
VERTEX
  5
3A3
330
38B
100
AcDbEntity
  8
GEB-KONTUR-A
 48
25.0
100
AcDbVertex
100
AcDb2dVertex
 10
56.85950498580922
 20
26.88964366912796
 30
0.0
  0
VERTEX
  5
3A4
330
38B
100
AcDbEntity
  8
GEB-KONTUR-A
 48
25.0
100
AcDbVertex
100
AcDb2dVertex
 10
56.77578191757191
 20
26.64077758789017
 30
0.0
  0
VERTEX
  5
3A5
330
38B
100
AcDbEntity
  8
GEB-KONTUR-A
 48
25.0
100
AcDbVertex
100
AcDb2dVertex
 10
56.68838243484486
 20
26.39092206954911
 30
0.0
  0
VERTEX
  5
3A6
330
38B
100
AcDbEntity
  8
GEB-KONTUR-A
 48
25.0
100
AcDbVertex
100
AcDb2dVertex
 10
56.59728746414174
 20
26.14001035690262
 30
0.0
  0
VERTEX
  5
3A7
330
38B
100
AcDbEntity
  8
GEB-KONTUR-A
 48
25.0
100
AcDbVertex
100
AcDb2dVertex
 10
56.50246839523305
 20
25.88798761367752
 30
0.0
  0
VERTEX
  5
3A8
330
38B
100
AcDbEntity
  8
GEB-KONTUR-A
 48
25.0
100
AcDbVertex
100
AcDb2dVertex
 10
56.40389900207509
 20
25.63478708267167
 30
0.0
  0
VERTEX
  5
3A9
330
38B
100
AcDbEntity
  8
GEB-KONTUR-A
 48
25.0
100
AcDbVertex
100
AcDb2dVertex
 10
56.30155067443837
 20
25.38034677505448
 30
0.0
  0
VERTEX
  5
3AA
330
38B
100
AcDbEntity
  8
GEB-KONTUR-A
 48
25.0
100
AcDbVertex
100
AcDb2dVertex
 10
56.19539003372182
 20
25.1246047019954
 30
0.0
  0
VERTEX
  5
3AB
330
38B
100
AcDbEntity
  8
GEB-KONTUR-A
 48
25.0
100
AcDbVertex
100
AcDb2dVertex
 10
56.08538608551015
 20
24.86749410629227
 30
0.0
  0
VERTEX
  5
3AC
330
38B
100
AcDbEntity
  8
GEB-KONTUR-A
 48
25.0
100
AcDbVertex
100
AcDb2dVertex
 10
55.97150306701649
 20
24.60894823074295
 30
0.0
  0
VERTEX
  5
3AD
330
38B
100
AcDbEntity
  8
GEB-KONTUR-A
 48
25.0
100
AcDbVertex
100
AcDb2dVertex
 10
55.8537028312682
 20
24.34890508651688
 30
0.0
  0
VERTEX
  5
3AE
330
38B
100
AcDbEntity
  8
GEB-KONTUR-A
 48
25.0
100
AcDbVertex
100
AcDb2dVertex
 10
55.73194723129262
 20
24.08729314804032
 30
0.0
  0
VERTEX
  5
3AF
330
38B
100
AcDbEntity
  8
GEB-KONTUR-A
 48
25.0
100
AcDbVertex
100
AcDb2dVertex
 10
55.60619573593129
 20
23.82404804229691
 30
0.0
  0
VERTEX
  5
3B0
330
38B
100
AcDbEntity
  8
GEB-KONTUR-A
 48
25.0
100
AcDbVertex
100
AcDb2dVertex
 10
55.47640542983998
 20
23.55909824371293
 30
0.0
  0
VERTEX
  5
3B1
330
38B
100
AcDbEntity
  8
GEB-KONTUR-A
 48
25.0
100
AcDbVertex
100
AcDb2dVertex
 10
55.34252624511714
 20
23.29237222671463
 30
0.0
  0
VERTEX
  5
3B2
330
38B
100
AcDbEntity
  8
GEB-KONTUR-A
 48
25.0
100
AcDbVertex
100
AcDb2dVertex
 10
55.2045176506042
 20
23.0238008499141
 30
0.0
  0
VERTEX
  5
3B3
330
38B
100
AcDbEntity
  8
GEB-KONTUR-A
 48
25.0
100
AcDbVertex
100
AcDb2dVertex
 10
55.06232242584224
 20
22.753307819366
 30
0.0
  0
VERTEX
  5
3B4
330
38B
100
AcDbEntity
  8
GEB-KONTUR-A
 48
25.0
100
AcDbVertex
100
AcDb2dVertex
 10
54.91589288711543
 20
22.48082160949662
 30
0.0
  0
VERTEX
  5
3B5
330
38B
100
AcDbEntity
  8
GEB-KONTUR-A
 48
25.0
100
AcDbVertex
100
AcDb2dVertex
 10
54.76517419815059
 20
22.20626592636063
 30
0.0
  0
VERTEX
  5
3B6
330
38B
100
AcDbEntity
  8
GEB-KONTUR-A
 48
25.0
100
AcDbVertex
100
AcDb2dVertex
 10
54.61010794639583
 20
21.92956447601273
 30
0.0
  0
VERTEX
  5
3B7
330
38B
100
AcDbEntity
  8
GEB-KONTUR-A
 48
25.0
100
AcDbVertex
100
AcDb2dVertex
 10
54.45063452720638
 20
21.65063619613602
 30
0.0
  0
SEQEND
  5
3B8
330
38B
100
AcDbEntity
  8
GEB-KONTUR-A
 48
25.0
  0
POLYLINE
  5
3B9
330
2
100
AcDbEntity
  8
GEB-KONTUR-A
 48
25.0
100
AcDb2dPolyline
 66
     1
 10
0.0
 20
0.0
 30
0.0
 70
   128
  0
VERTEX
  5
3BA
330
3B9
100
AcDbEntity
  8
GEB-KONTUR-A
 48
25.0
100
AcDbVertex
100
AcDb2dVertex
 10
38.14936499595666
 20
-21.65063619613602
 30
0.0
  0
VERTEX
  5
3BB
330
3B9
100
AcDbEntity
  8
GEB-KONTUR-A
 48
25.0
100
AcDbVertex
100
AcDb2dVertex
 10
37.98989157676721
 20
-21.0927796363826
 30
0.0
  0
VERTEX
  5
3BC
330
3B9
100
AcDbEntity
  8
GEB-KONTUR-A
 48
25.0
100
AcDbVertex
100
AcDb2dVertex
 10
37.83482532501245
 20
-20.53937435150101
 30
0.0
  0
VERTEX
  5
3BD
330
3B9
100
AcDbEntity
  8
GEB-KONTUR-A
 48
25.0
100
AcDbVertex
100
AcDb2dVertex
 10
37.68410604000115
 20
-19.99026179313614
 30
0.0
  0
VERTEX
  5
3BE
330
3B9
100
AcDbEntity
  8
GEB-KONTUR-A
 48
25.0
100
AcDbVertex
100
AcDb2dVertex
 10
37.5376770973208
 20
-19.44528937339737
 30
0.0
  0
VERTEX
  5
3BF
330
3B9
100
AcDbEntity
  8
GEB-KONTUR-A
 48
25.0
100
AcDbVertex
100
AcDb2dVertex
 10
37.39548336267495
 20
-18.90430569648697
 30
0.0
  0
VERTEX
  5
3C0
330
3B9
100
AcDbEntity
  8
GEB-KONTUR-A
 48
25.0
100
AcDbVertex
100
AcDb2dVertex
 10
37.25747283101106
 20
-18.36716175079311
 30
0.0
  0
VERTEX
  5
3C1
330
3B9
100
AcDbEntity
  8
GEB-KONTUR-A
 48
25.0
100
AcDbVertex
100
AcDb2dVertex
 10
37.12359558343911
 20
-17.83370971679653
 30
0.0
  0
VERTEX
  5
3C2
330
3B9
100
AcDbEntity
  8
GEB-KONTUR-A
 48
25.0
100
AcDbVertex
100
AcDb2dVertex
 10
36.99380378723168
 20
-17.30380892753567
 30
0.0
  0
VERTEX
  5
3C3
330
3B9
100
AcDbEntity
  8
GEB-KONTUR-A
 48
25.0
100
AcDbVertex
100
AcDb2dVertex
 10
36.86805214285874
 20
-16.77731752395596
 30
0.0
  0
VERTEX
  5
3C4
330
3B9
100
AcDbEntity
  8
GEB-KONTUR-A
 48
25.0
100
AcDbVertex
100
AcDb2dVertex
 10
36.74629698991799
 20
-16.25409603118862
 30
0.0
  0
VERTEX
  5
3C5
330
3B9
100
AcDbEntity
  8
GEB-KONTUR-A
 48
25.0
100
AcDbVertex
100
AcDb2dVertex
 10
36.62849749922776
 20
-15.73400735855068
 30
0.0
  0
VERTEX
  5
3C6
330
3B9
100
AcDbEntity
  8
GEB-KONTUR-A
 48
25.0
100
AcDbVertex
100
AcDb2dVertex
 10
36.51461418271089
 20
-15.21691918373074
 30
0.0
  0
VERTEX
  5
3C7
330
3B9
100
AcDbEntity
  8
GEB-KONTUR-A
 48
25.0
100
AcDbVertex
100
AcDb2dVertex
 10
36.40461023449922
 20
-14.70269680023159
 30
0.0
  0
VERTEX
  5
3C8
330
3B9
100
AcDbEntity
  8
GEB-KONTUR-A
 48
25.0
100
AcDbVertex
100
AcDb2dVertex
 10
36.29845033884072
 20
-14.19121146202053
 30
0.0
  0
VERTEX
  5
3C9
330
3B9
100
AcDbEntity
  8
GEB-KONTUR-A
 48
25.0
100
AcDbVertex
100
AcDb2dVertex
 10
36.19610141515756
 20
-13.68233084678616
 30
0.0
  0
VERTEX
  5
3CA
330
3B9
100
AcDbEntity
  8
GEB-KONTUR-A
 48
25.0
100
AcDbVertex
100
AcDb2dVertex
 10
36.09753217101121
 20
-13.17593097686733
 30
0.0
  0
VERTEX
  5
3CB
330
3B9
100
AcDbEntity
  8
GEB-KONTUR-A
 48
25.0
100
AcDbVertex
100
AcDb2dVertex
 10
36.00271340012574
 20
-12.67188310623135
 30
0.0
  0
VERTEX
  5
3CC
330
3B9
100
AcDbEntity
  8
GEB-KONTUR-A
 48
25.0
100
AcDbVertex
100
AcDb2dVertex
 10
35.91161760985875
 20
-12.17006325721706
 30
0.0
  0
VERTEX
  5
3CD
330
3B9
100
AcDbEntity
  8
GEB-KONTUR-A
 48
25.0
100
AcDbVertex
100
AcDb2dVertex
 10
35.82421902120132
 20
-11.67034864425636
 30
0.0
  0
VERTEX
  5
3CE
330
3B9
100
AcDbEntity
  8
GEB-KONTUR-A
 48
25.0
100
AcDbVertex
100
AcDb2dVertex
 10
35.74049401581306
 20
-11.17261528968788
 30
0.0
  0
VERTEX
  5
3CF
330
3B9
100
AcDbEntity
  8
GEB-KONTUR-A
 48
25.0
100
AcDbVertex
100
AcDb2dVertex
 10
35.66042046546954
 20
-10.67674398422218
 30
0.0
  0
VERTEX
  5
3D0
330
3B9
100
AcDbEntity
  8
GEB-KONTUR-A
 48
25.0
100
AcDbVertex
100
AcDb2dVertex
 10
35.58397817909736
 20
-10.18261313438393
 30
0.0
  0
VERTEX
  5
3D1
330
3B9
100
AcDbEntity
  8
GEB-KONTUR-A
 48
25.0
100
AcDbVertex
100
AcDb2dVertex
 10
35.51114860475081
 20
-9.690103530883561
 30
0.0
  0
VERTEX
  5
3D2
330
3B9
100
AcDbEntity
  8
GEB-KONTUR-A
 48
25.0
100
AcDbVertex
100
AcDb2dVertex
 10
35.44191505312938
 20
-9.199096560477983
 30
0.0
  0
VERTEX
  5
3D3
330
3B9
100
AcDbEntity
  8
GEB-KONTUR-A
 48
25.0
100
AcDbVertex
100
AcDb2dVertex
 10
35.37626254856605
 20
-8.709474205970536
 30
0.0
  0
VERTEX
  5
3D4
330
3B9
100
AcDbEntity
  8
GEB-KONTUR-A
 48
25.0
100
AcDbVertex
100
AcDb2dVertex
 10
35.31417779177445
 20
-8.221118450164567
 30
0.0
  0
VERTEX
  5
3D5
330
3B9
100
AcDbEntity
  8
GEB-KONTUR-A
 48
25.0
100
AcDbVertex
100
AcDb2dVertex
 10
35.25564915984887
 20
-7.733913064002763
 30
0.0
  0
VERTEX
  5
3D6
330
3B9
100
AcDbEntity
  8
GEB-KONTUR-A
 48
25.0
100
AcDbVertex
100
AcDb2dVertex
 10
35.20066685527581
 20
-7.247741222381364
 30
0.0
  0
VERTEX
  5
3D7
330
3B9
100
AcDbEntity
  8
GEB-KONTUR-A
 48
25.0
100
AcDbVertex
100
AcDb2dVertex
 10
35.14922268241662
 20
-6.762486696243058
 30
0.0
  0
VERTEX
  5
3D8
330
3B9
100
AcDbEntity
  8
GEB-KONTUR-A
 48
25.0
100
AcDbVertex
100
AcDb2dVertex
 10
35.10131014063972
 20
-6.278033256530534
 30
0.0
  0
VERTEX
  5
3D9
330
3B9
100
AcDbEntity
  8
GEB-KONTUR-A
 48
25.0
100
AcDbVertex
100
AcDb2dVertex
 10
35.05692449882645
 20
-5.794264674186479
 30
0.0
  0
VERTEX
  5
3DA
330
3B9
100
AcDbEntity
  8
GEB-KONTUR-A
 48
25.0
100
AcDbVertex
100
AcDb2dVertex
 10
35.01606268361229
 20
-5.311065316200028
 30
0.0
  0
VERTEX
  5
3DB
330
3B9
100
AcDbEntity
  8
GEB-KONTUR-A
 48
25.0
100
AcDbVertex
100
AcDb2dVertex
 10
34.97872333526629
 20
-4.828319251537209
 30
0.0
  0
VERTEX
  5
3DC
330
3B9
100
AcDbEntity
  8
GEB-KONTUR-A
 48
25.0
100
AcDbVertex
100
AcDb2dVertex
 10
34.94490676112491
 20
-4.34591025114048
 30
0.0
  0
VERTEX
  5
3DD
330
3B9
100
AcDbEntity
  8
GEB-KONTUR-A
 48
25.0
100
AcDbVertex
100
AcDb2dVertex
 10
34.91461505666393
 20
-3.863721489906197
 30
0.0
  0
VERTEX
  5
3DE
330
3B9
100
AcDbEntity
  8
GEB-KONTUR-A
 48
25.0
100
AcDbVertex
100
AcDb2dVertex
 10
34.88785199373979
 20
-3.381636142730599
 30
0.0
  0
VERTEX
  5
3DF
330
3B9
100
AcDbEntity
  8
GEB-KONTUR-A
 48
25.0
100
AcDbVertex
100
AcDb2dVertex
 10
34.86462309975195
 20
-2.899537086486702
 30
0.0
  0
VERTEX
  5
3E0
330
3B9
100
AcDbEntity
  8
GEB-KONTUR-A
 48
25.0
100
AcDbVertex
100
AcDb2dVertex
 10
34.84493565298635
 20
-2.417306452989464
 30
0.0
  0
VERTEX
  5
3E1
330
3B9
100
AcDbEntity
  8
GEB-KONTUR-A
 48
25.0
100
AcDbVertex
100
AcDb2dVertex
 10
34.82879870589841
 20
-1.934825479984169
 30
0.0
  0
VERTEX
  5
3E2
330
3B9
100
AcDbEntity
  8
GEB-KONTUR-A
 48
25.0
100
AcDbVertex
100
AcDb2dVertex
 10
34.81622309675458
 20
-1.451975107192993
 30
0.0
  0
VERTEX
  5
3E3
330
3B9
100
AcDbEntity
  8
GEB-KONTUR-A
 48
25.0
100
AcDbVertex
100
AcDb2dVertex
 10
34.80722147582583
 20
-0.9686349332332611
 30
0.0
  0
VERTEX
  5
3E4
330
3B9
100
AcDbEntity
  8
GEB-KONTUR-A
 48
25.0
100
AcDbVertex
100
AcDb2dVertex
 10
34.80180832867063
 20
-0.4846839979290963
 30
0.0
  0
VERTEX
  5
3E5
330
3B9
100
AcDbEntity
  8
GEB-KONTUR-A
 48
25.0
100
AcDbVertex
100
AcDb2dVertex
 10
34.80000000000018
 20
0.0
 30
0.0
  0
SEQEND
  5
3E6
330
3B9
100
AcDbEntity
  8
GEB-KONTUR-A
 48
25.0
  0
POLYLINE
  5
3E7
330
2
100
AcDbEntity
  8
GEB-KONTUR-A
 48
25.0
100
AcDb2dPolyline
 66
     1
 10
0.0
 20
0.0
 30
0.0
 70
   128
  0
VERTEX
  5
3E8
330
3E7
100
AcDbEntity
  8
GEB-KONTUR-A
 48
25.0
100
AcDbVertex
100
AcDb2dVertex
 10
34.80000000000018
 20
0.0
 30
0.0
  0
VERTEX
  5
3E9
330
3E7
100
AcDbEntity
  8
GEB-KONTUR-A
 48
25.0
100
AcDbVertex
100
AcDb2dVertex
 10
34.80180832867063
 20
0.4846839979290963
 30
0.0
  0
VERTEX
  5
3EA
330
3E7
100
AcDbEntity
  8
GEB-KONTUR-A
 48
25.0
100
AcDbVertex
100
AcDb2dVertex
 10
34.80722147582583
 20
0.9686349332332611
 30
0.0
  0
VERTEX
  5
3EB
330
3E7
100
AcDbEntity
  8
GEB-KONTUR-A
 48
25.0
100
AcDbVertex
100
AcDb2dVertex
 10
34.81622309675458
 20
1.451975107192993
 30
0.0
  0
VERTEX
  5
3EC
330
3E7
100
AcDbEntity
  8
GEB-KONTUR-A
 48
25.0
100
AcDbVertex
100
AcDb2dVertex
 10
34.82879870589841
 20
1.934825479984283
 30
0.0
  0
VERTEX
  5
3ED
330
3E7
100
AcDbEntity
  8
GEB-KONTUR-A
 48
25.0
100
AcDbVertex
100
AcDb2dVertex
 10
34.84493565298635
 20
2.417306452989578
 30
0.0
  0
VERTEX
  5
3EE
330
3E7
100
AcDbEntity
  8
GEB-KONTUR-A
 48
25.0
100
AcDbVertex
100
AcDb2dVertex
 10
34.86462309975195
 20
2.899537086486816
 30
0.0
  0
VERTEX
  5
3EF
330
3E7
100
AcDbEntity
  8
GEB-KONTUR-A
 48
25.0
100
AcDbVertex
100
AcDb2dVertex
 10
34.88785199373979
 20
3.381636142730712
 30
0.0
  0
VERTEX
  5
3F0
330
3E7
100
AcDbEntity
  8
GEB-KONTUR-A
 48
25.0
100
AcDbVertex
100
AcDb2dVertex
 10
34.91461505666393
 20
3.863721489906311
 30
0.0
  0
VERTEX
  5
3F1
330
3E7
100
AcDbEntity
  8
GEB-KONTUR-A
 48
25.0
100
AcDbVertex
100
AcDb2dVertex
 10
34.94490676112491
 20
4.345910251140594
 30
0.0
  0
VERTEX
  5
3F2
330
3E7
100
AcDbEntity
  8
GEB-KONTUR-A
 48
25.0
100
AcDbVertex
100
AcDb2dVertex
 10
34.97872333526624
 20
4.828319251537322
 30
0.0
  0
VERTEX
  5
3F3
330
3E7
100
AcDbEntity
  8
GEB-KONTUR-A
 48
25.0
100
AcDbVertex
100
AcDb2dVertex
 10
35.01606268361224
 20
5.311065316200256
 30
0.0
  0
VERTEX
  5
3F4
330
3E7
100
AcDbEntity
  8
GEB-KONTUR-A
 48
25.0
100
AcDbVertex
100
AcDb2dVertex
 10
35.05692449882639
 20
5.794264674186706
 30
0.0
  0
VERTEX
  5
3F5
330
3E7
100
AcDbEntity
  8
GEB-KONTUR-A
 48
25.0
100
AcDbVertex
100
AcDb2dVertex
 10
35.10131014063967
 20
6.278033256530761
 30
0.0
  0
VERTEX
  5
3F6
330
3E7
100
AcDbEntity
  8
GEB-KONTUR-A
 48
25.0
100
AcDbVertex
100
AcDb2dVertex
 10
35.14922268241657
 20
6.762486696243286
 30
0.0
  0
VERTEX
  5
3F7
330
3E7
100
AcDbEntity
  8
GEB-KONTUR-A
 48
25.0
100
AcDbVertex
100
AcDb2dVertex
 10
35.20066685527576
 20
7.247741222381478
 30
0.0
  0
VERTEX
  5
3F8
330
3E7
100
AcDbEntity
  8
GEB-KONTUR-A
 48
25.0
100
AcDbVertex
100
AcDb2dVertex
 10
35.25564915984882
 20
7.733913064002877
 30
0.0
  0
VERTEX
  5
3F9
330
3E7
100
AcDbEntity
  8
GEB-KONTUR-A
 48
25.0
100
AcDbVertex
100
AcDb2dVertex
 10
35.3141777917744
 20
8.221118450164681
 30
0.0
  0
VERTEX
  5
3FA
330
3E7
100
AcDbEntity
  8
GEB-KONTUR-A
 48
25.0
100
AcDbVertex
100
AcDb2dVertex
 10
35.37626254856599
 20
8.70947420597065
 30
0.0
  0
VERTEX
  5
3FB
330
3E7
100
AcDbEntity
  8
GEB-KONTUR-A
 48
25.0
100
AcDbVertex
100
AcDb2dVertex
 10
35.44191505312932
 20
9.199096560478096
 30
0.0
  0
VERTEX
  5
3FC
330
3E7
100
AcDbEntity
  8
GEB-KONTUR-A
 48
25.0
100
AcDbVertex
100
AcDb2dVertex
 10
35.51114860475076
 20
9.690103530883675
 30
0.0
  0
VERTEX
  5
3FD
330
3E7
100
AcDbEntity
  8
GEB-KONTUR-A
 48
25.0
100
AcDbVertex
100
AcDb2dVertex
 10
35.5839781790973
 20
10.18261313438404
 30
0.0
  0
VERTEX
  5
3FE
330
3E7
100
AcDbEntity
  8
GEB-KONTUR-A
 48
25.0
100
AcDbVertex
100
AcDb2dVertex
 10
35.66042046546949
 20
10.6767439842223
 30
0.0
  0
VERTEX
  5
3FF
330
3E7
100
AcDbEntity
  8
GEB-KONTUR-A
 48
25.0
100
AcDbVertex
100
AcDb2dVertex
 10
35.740494015813
 20
11.17261528968799
 30
0.0
  0
VERTEX
  5
400
330
3E7
100
AcDbEntity
  8
GEB-KONTUR-A
 48
25.0
100
AcDbVertex
100
AcDb2dVertex
 10
35.8242190212012
 20
11.67034864425648
 30
0.0
  0
VERTEX
  5
401
330
3E7
100
AcDbEntity
  8
GEB-KONTUR-A
 48
25.0
100
AcDbVertex
100
AcDb2dVertex
 10
35.91161760985858
 20
12.17006325721729
 30
0.0
  0
VERTEX
  5
402
330
3E7
100
AcDbEntity
  8
GEB-KONTUR-A
 48
25.0
100
AcDbVertex
100
AcDb2dVertex
 10
36.00271340012557
 20
12.67188310623157
 30
0.0
  0
VERTEX
  5
403
330
3E7
100
AcDbEntity
  8
GEB-KONTUR-A
 48
25.0
100
AcDbVertex
100
AcDb2dVertex
 10
36.09753217101104
 20
13.17593097686756
 30
0.0
  0
VERTEX
  5
404
330
3E7
100
AcDbEntity
  8
GEB-KONTUR-A
 48
25.0
100
AcDbVertex
100
AcDb2dVertex
 10
36.19610141515739
 20
13.68233084678638
 30
0.0
  0
VERTEX
  5
405
330
3E7
100
AcDbEntity
  8
GEB-KONTUR-A
 48
25.0
100
AcDbVertex
100
AcDb2dVertex
 10
36.29845033884055
 20
14.19121146202053
 30
0.0
  0
VERTEX
  5
406
330
3E7
100
AcDbEntity
  8
GEB-KONTUR-A
 48
25.0
100
AcDbVertex
100
AcDb2dVertex
 10
36.40461023449905
 20
14.70269680023159
 30
0.0
  0
VERTEX
  5
407
330
3E7
100
AcDbEntity
  8
GEB-KONTUR-A
 48
25.0
100
AcDbVertex
100
AcDb2dVertex
 10
36.51461418271072
 20
15.21691918373074
 30
0.0
  0
VERTEX
  5
408
330
3E7
100
AcDbEntity
  8
GEB-KONTUR-A
 48
25.0
100
AcDbVertex
100
AcDb2dVertex
 10
36.62849749922759
 20
15.73400735855068
 30
0.0
  0
VERTEX
  5
409
330
3E7
100
AcDbEntity
  8
GEB-KONTUR-A
 48
25.0
100
AcDbVertex
100
AcDb2dVertex
 10
36.74629698991783
 20
16.25409603118862
 30
0.0
  0
VERTEX
  5
40A
330
3E7
100
AcDbEntity
  8
GEB-KONTUR-A
 48
25.0
100
AcDbVertex
100
AcDb2dVertex
 10
36.86805214285858
 20
16.77731752395596
 30
0.0
  0
VERTEX
  5
40B
330
3E7
100
AcDbEntity
  8
GEB-KONTUR-A
 48
25.0
100
AcDbVertex
100
AcDb2dVertex
 10
36.99380378723152
 20
17.30380892753567
 30
0.0
  0
VERTEX
  5
40C
330
3E7
100
AcDbEntity
  8
GEB-KONTUR-A
 48
25.0
100
AcDbVertex
100
AcDb2dVertex
 10
37.12359558343894
 20
17.83370971679653
 30
0.0
  0
VERTEX
  5
40D
330
3E7
100
AcDbEntity
  8
GEB-KONTUR-A
 48
25.0
100
AcDbVertex
100
AcDb2dVertex
 10
37.25747283101089
 20
18.36716175079311
 30
0.0
  0
VERTEX
  5
40E
330
3E7
100
AcDbEntity
  8
GEB-KONTUR-A
 48
25.0
100
AcDbVertex
100
AcDb2dVertex
 10
37.39548336267478
 20
18.90430569648708
 30
0.0
  0
VERTEX
  5
40F
330
3E7
100
AcDbEntity
  8
GEB-KONTUR-A
 48
25.0
100
AcDbVertex
100
AcDb2dVertex
 10
37.53767709732063
 20
19.44528937339748
 30
0.0
  0
VERTEX
  5
410
330
3E7
100
AcDbEntity
  8
GEB-KONTUR-A
 48
25.0
100
AcDbVertex
100
AcDb2dVertex
 10
37.68410604000099
 20
19.99026179313625
 30
0.0
  0
VERTEX
  5
411
330
3E7
100
AcDbEntity
  8
GEB-KONTUR-A
 48
25.0
100
AcDbVertex
100
AcDb2dVertex
 10
37.83482532501228
 20
20.53937435150101
 30
0.0
  0
VERTEX
  5
412
330
3E7
100
AcDbEntity
  8
GEB-KONTUR-A
 48
25.0
100
AcDbVertex
100
AcDb2dVertex
 10
37.98989157676704
 20
21.0927796363826
 30
0.0
  0
VERTEX
  5
413
330
3E7
100
AcDbEntity
  8
GEB-KONTUR-A
 48
25.0
100
AcDbVertex
100
AcDb2dVertex
 10
38.14936499595649
 20
21.65063619613602
 30
0.0
  0
SEQEND
  5
414
330
3E7
100
AcDbEntity
  8
GEB-KONTUR-A
 48
25.0
  0
LINE
  5
415
330
2
100
AcDbEntity
  8
GEB-KONTUR-A
 48
25.0
100
AcDbLine
 10
38.14936490538912
 20
21.65063509461061
 30
0.0
 11
54.45063509461096
 21
21.65063509461061
 31
0.0
  0
POLYLINE
  5
416
330
2
100
AcDbEntity
  8
GEB-KONTUR-A
 48
25.0
100
AcDb2dPolyline
 66
     1
 10
0.0
 20
0.0
 30
0.0
 70
   128
  0
VERTEX
  5
417
330
416
100
AcDbEntity
  8
GEB-KONTUR-A
 48
25.0
100
AcDbVertex
100
AcDb2dVertex
 10
54.45063452720638
 20
21.65063619613602
 30
0.0
  0
VERTEX
  5
418
330
416
100
AcDbEntity
  8
GEB-KONTUR-A
 48
25.0
100
AcDbVertex
100
AcDb2dVertex
 10
54.61010794639583
 20
21.0927796363826
 30
0.0
  0
VERTEX
  5
419
330
416
100
AcDbEntity
  8
GEB-KONTUR-A
 48
25.0
100
AcDbVertex
100
AcDb2dVertex
 10
54.76517419815059
 20
20.53937435150101
 30
0.0
  0
VERTEX
  5
41A
330
416
100
AcDbEntity
  8
GEB-KONTUR-A
 48
25.0
100
AcDbVertex
100
AcDb2dVertex
 10
54.91589288711543
 20
19.99026179313625
 30
0.0
  0
VERTEX
  5
41B
330
416
100
AcDbEntity
  8
GEB-KONTUR-A
 48
25.0
100
AcDbVertex
100
AcDb2dVertex
 10
55.06232242584224
 20
19.44528937339748
 30
0.0
  0
VERTEX
  5
41C
330
416
100
AcDbEntity
  8
GEB-KONTUR-A
 48
25.0
100
AcDbVertex
100
AcDb2dVertex
 10
55.2045176506042
 20
18.90430569648708
 30
0.0
  0
VERTEX
  5
41D
330
416
100
AcDbEntity
  8
GEB-KONTUR-A
 48
25.0
100
AcDbVertex
100
AcDb2dVertex
 10
55.34252624511714
 20
18.36716175079311
 30
0.0
  0
VERTEX
  5
41E
330
416
100
AcDbEntity
  8
GEB-KONTUR-A
 48
25.0
100
AcDbVertex
100
AcDb2dVertex
 10
55.47640542984004
 20
17.83370971679653
 30
0.0
  0
VERTEX
  5
41F
330
416
100
AcDbEntity
  8
GEB-KONTUR-A
 48
25.0
100
AcDbVertex
100
AcDb2dVertex
 10
55.60619573593135
 20
17.30380892753567
 30
0.0
  0
VERTEX
  5
420
330
416
100
AcDbEntity
  8
GEB-KONTUR-A
 48
25.0
100
AcDbVertex
100
AcDb2dVertex
 10
55.73194723129268
 20
16.77731752395596
 30
0.0
  0
VERTEX
  5
421
330
416
100
AcDbEntity
  8
GEB-KONTUR-A
 48
25.0
100
AcDbVertex
100
AcDb2dVertex
 10
55.85370283126827
 20
16.25409603118862
 30
0.0
  0
VERTEX
  5
422
330
416
100
AcDbEntity
  8
GEB-KONTUR-A
 48
25.0
100
AcDbVertex
100
AcDb2dVertex
 10
55.97150306701656
 20
15.73400735855068
 30
0.0
  0
VERTEX
  5
423
330
416
100
AcDbEntity
  8
GEB-KONTUR-A
 48
25.0
100
AcDbVertex
100
AcDb2dVertex
 10
56.08538608551021
 20
15.21691918373074
 30
0.0
  0
VERTEX
  5
424
330
416
100
AcDbEntity
  8
GEB-KONTUR-A
 48
25.0
100
AcDbVertex
100
AcDb2dVertex
 10
56.19539003372188
 20
14.70269680023159
 30
0.0
  0
VERTEX
  5
425
330
416
100
AcDbEntity
  8
GEB-KONTUR-A
 48
25.0
100
AcDbVertex
100
AcDb2dVertex
 10
56.30155067443843
 20
14.19121146202053
 30
0.0
  0
VERTEX
  5
426
330
416
100
AcDbEntity
  8
GEB-KONTUR-A
 48
25.0
100
AcDbVertex
100
AcDb2dVertex
 10
56.40389900207515
 20
13.68233084678638
 30
0.0
  0
VERTEX
  5
427
330
416
100
AcDbEntity
  8
GEB-KONTUR-A
 48
25.0
100
AcDbVertex
100
AcDb2dVertex
 10
56.50246839523311
 20
13.17593097686756
 30
0.0
  0
VERTEX
  5
428
330
416
100
AcDbEntity
  8
GEB-KONTUR-A
 48
25.0
100
AcDbVertex
100
AcDb2dVertex
 10
56.5972874641418
 20
12.67188310623157
 30
0.0
  0
VERTEX
  5
429
330
416
100
AcDbEntity
  8
GEB-KONTUR-A
 48
25.0
100
AcDbVertex
100
AcDb2dVertex
 10
56.68838243484493
 20
12.17006325721729
 30
0.0
  0
VERTEX
  5
42A
330
416
100
AcDbEntity
  8
GEB-KONTUR-A
 48
25.0
100
AcDbVertex
100
AcDb2dVertex
 10
56.77578191757198
 20
11.67034864425648
 30
0.0
  0
VERTEX
  5
42B
330
416
100
AcDbEntity
  8
GEB-KONTUR-A
 48
25.0
100
AcDbVertex
100
AcDb2dVertex
 10
56.85950498580928
 20
11.17261528968799
 30
0.0
  0
VERTEX
  5
42C
330
416
100
AcDbEntity
  8
GEB-KONTUR-A
 48
25.0
100
AcDbVertex
100
AcDb2dVertex
 10
56.93958024978633
 20
10.6767439842223
 30
0.0
  0
VERTEX
  5
42D
330
416
100
AcDbEntity
  8
GEB-KONTUR-A
 48
25.0
100
AcDbVertex
100
AcDb2dVertex
 10
57.01602201461787
 20
10.18261313438404
 30
0.0
  0
VERTEX
  5
42E
330
416
100
AcDbEntity
  8
GEB-KONTUR-A
 48
25.0
100
AcDbVertex
100
AcDb2dVertex
 10
57.08885173797603
 20
9.690103530883675
 30
0.0
  0
VERTEX
  5
42F
330
416
100
AcDbEntity
  8
GEB-KONTUR-A
 48
25.0
100
AcDbVertex
100
AcDb2dVertex
 10
57.15808610916133
 20
9.199096560478096
 30
0.0
  0
VERTEX
  5
430
330
416
100
AcDbEntity
  8
GEB-KONTUR-A
 48
25.0
100
AcDbVertex
100
AcDb2dVertex
 10
57.22373704910274
 20
8.70947420597065
 30
0.0
  0
VERTEX
  5
431
330
416
100
AcDbEntity
  8
GEB-KONTUR-A
 48
25.0
100
AcDbVertex
100
AcDb2dVertex
 10
57.28582124710078
 20
8.221118450164681
 30
0.0
  0
VERTEX
  5
432
330
416
100
AcDbEntity
  8
GEB-KONTUR-A
 48
25.0
100
AcDbVertex
100
AcDb2dVertex
 10
57.34435062408443
 20
7.733913064002877
 30
0.0
  0
VERTEX
  5
433
330
416
100
AcDbEntity
  8
GEB-KONTUR-A
 48
25.0
100
AcDbVertex
100
AcDb2dVertex
 10
57.39933233261104
 20
7.247741222381478
 30
0.0
  0
VERTEX
  5
434
330
416
100
AcDbEntity
  8
GEB-KONTUR-A
 48
25.0
100
AcDbVertex
100
AcDb2dVertex
 10
57.45077829360957
 20
6.762486696243286
 30
0.0
  0
VERTEX
  5
435
330
416
100
AcDbEntity
  8
GEB-KONTUR-A
 48
25.0
100
AcDbVertex
100
AcDb2dVertex
 10
57.49869089126582
 20
6.278033256530761
 30
0.0
  0
VERTEX
  5
436
330
416
100
AcDbEntity
  8
GEB-KONTUR-A
 48
25.0
100
AcDbVertex
100
AcDb2dVertex
 10
57.54307489395137
 20
5.794264674186706
 30
0.0
  0
VERTEX
  5
437
330
416
100
AcDbEntity
  8
GEB-KONTUR-A
 48
25.0
100
AcDbVertex
100
AcDb2dVertex
 10
57.58393745422359
 20
5.311065316200256
 30
0.0
  0
VERTEX
  5
438
330
416
100
AcDbEntity
  8
GEB-KONTUR-A
 48
25.0
100
AcDbVertex
100
AcDb2dVertex
 10
57.62127618789674
 20
4.828319251537322
 30
0.0
  0
VERTEX
  5
439
330
416
100
AcDbEntity
  8
GEB-KONTUR-A
 48
25.0
100
AcDbVertex
100
AcDb2dVertex
 10
57.6550934791565
 20
4.345910251140594
 30
0.0
  0
VERTEX
  5
43A
330
416
100
AcDbEntity
  8
GEB-KONTUR-A
 48
25.0
100
AcDbVertex
100
AcDb2dVertex
 10
57.68538455963136
 20
3.863721489906311
 30
0.0
  0
VERTEX
  5
43B
330
416
100
AcDbEntity
  8
GEB-KONTUR-A
 48
25.0
100
AcDbVertex
100
AcDb2dVertex
 10
57.71214704513551
 20
3.381636142730712
 30
0.0
  0
VERTEX
  5
43C
330
416
100
AcDbEntity
  8
GEB-KONTUR-A
 48
25.0
100
AcDbVertex
100
AcDb2dVertex
 10
57.73537616729737
 20
2.899537086486816
 30
0.0
  0
VERTEX
  5
43D
330
416
100
AcDbEntity
  8
GEB-KONTUR-A
 48
25.0
100
AcDbVertex
100
AcDb2dVertex
 10
57.75506477355958
 20
2.417306452989578
 30
0.0
  0
VERTEX
  5
43E
330
416
100
AcDbEntity
  8
GEB-KONTUR-A
 48
25.0
100
AcDbVertex
100
AcDb2dVertex
 10
57.77120094299317
 20
1.934825479984283
 30
0.0
  0
VERTEX
  5
43F
330
416
100
AcDbEntity
  8
GEB-KONTUR-A
 48
25.0
100
AcDbVertex
100
AcDb2dVertex
 10
57.78377752304078
 20
1.451975107192993
 30
0.0
  0
VERTEX
  5
440
330
416
100
AcDbEntity
  8
GEB-KONTUR-A
 48
25.0
100
AcDbVertex
100
AcDb2dVertex
 10
57.79277782440186
 20
0.9686349332332611
 30
0.0
  0
VERTEX
  5
441
330
416
100
AcDbEntity
  8
GEB-KONTUR-A
 48
25.0
100
AcDbVertex
100
AcDb2dVertex
 10
57.79819231033326
 20
0.4846839979290963
 30
0.0
  0
VERTEX
  5
442
330
416
100
AcDbEntity
  8
GEB-KONTUR-A
 48
25.0
100
AcDbVertex
100
AcDb2dVertex
 10
57.79999952316285
 20
0.0
 30
0.0
  0
SEQEND
  5
443
330
416
100
AcDbEntity
  8
GEB-KONTUR-A
 48
25.0
  0
POLYLINE
  5
444
330
2
100
AcDbEntity
  8
GEB-KONTUR-A
 48
25.0
100
AcDb2dPolyline
 66
     1
 10
0.0
 20
0.0
 30
0.0
 70
   128
  0
VERTEX
  5
445
330
444
100
AcDbEntity
  8
GEB-KONTUR-A
 48
25.0
100
AcDbVertex
100
AcDb2dVertex
 10
57.79999952316285
 20
0.0
 30
0.0
  0
VERTEX
  5
446
330
444
100
AcDbEntity
  8
GEB-KONTUR-A
 48
25.0
100
AcDbVertex
100
AcDb2dVertex
 10
57.79819231033326
 20
-0.4846839979290963
 30
0.0
  0
VERTEX
  5
447
330
444
100
AcDbEntity
  8
GEB-KONTUR-A
 48
25.0
100
AcDbVertex
100
AcDb2dVertex
 10
57.79277782440186
 20
-0.9686349332332611
 30
0.0
  0
VERTEX
  5
448
330
444
100
AcDbEntity
  8
GEB-KONTUR-A
 48
25.0
100
AcDbVertex
100
AcDb2dVertex
 10
57.78377752304084
 20
-1.451975107192993
 30
0.0
  0
VERTEX
  5
449
330
444
100
AcDbEntity
  8
GEB-KONTUR-A
 48
25.0
100
AcDbVertex
100
AcDb2dVertex
 10
57.77120094299323
 20
-1.934825479984169
 30
0.0
  0
VERTEX
  5
44A
330
444
100
AcDbEntity
  8
GEB-KONTUR-A
 48
25.0
100
AcDbVertex
100
AcDb2dVertex
 10
57.75506477355964
 20
-2.417306452989464
 30
0.0
  0
VERTEX
  5
44B
330
444
100
AcDbEntity
  8
GEB-KONTUR-A
 48
25.0
100
AcDbVertex
100
AcDb2dVertex
 10
57.73537616729743
 20
-2.899537086486702
 30
0.0
  0
VERTEX
  5
44C
330
444
100
AcDbEntity
  8
GEB-KONTUR-A
 48
25.0
100
AcDbVertex
100
AcDb2dVertex
 10
57.71214704513557
 20
-3.381636142730599
 30
0.0
  0
VERTEX
  5
44D
330
444
100
AcDbEntity
  8
GEB-KONTUR-A
 48
25.0
100
AcDbVertex
100
AcDb2dVertex
 10
57.68538455963142
 20
-3.863721489906197
 30
0.0
  0
VERTEX
  5
44E
330
444
100
AcDbEntity
  8
GEB-KONTUR-A
 48
25.0
100
AcDbVertex
100
AcDb2dVertex
 10
57.65509347915656
 20
-4.34591025114048
 30
0.0
  0
VERTEX
  5
44F
330
444
100
AcDbEntity
  8
GEB-KONTUR-A
 48
25.0
100
AcDbVertex
100
AcDb2dVertex
 10
57.6212761878968
 20
-4.828319251537209
 30
0.0
  0
VERTEX
  5
450
330
444
100
AcDbEntity
  8
GEB-KONTUR-A
 48
25.0
100
AcDbVertex
100
AcDb2dVertex
 10
57.5839374542237
 20
-5.311065316200028
 30
0.0
  0
VERTEX
  5
451
330
444
100
AcDbEntity
  8
GEB-KONTUR-A
 48
25.0
100
AcDbVertex
100
AcDb2dVertex
 10
57.54307489395149
 20
-5.794264674186479
 30
0.0
  0
VERTEX
  5
452
330
444
100
AcDbEntity
  8
GEB-KONTUR-A
 48
25.0
100
AcDbVertex
100
AcDb2dVertex
 10
57.49869089126594
 20
-6.278033256530534
 30
0.0
  0
VERTEX
  5
453
330
444
100
AcDbEntity
  8
GEB-KONTUR-A
 48
25.0
100
AcDbVertex
100
AcDb2dVertex
 10
57.45077829360969
 20
-6.762486696243058
 30
0.0
  0
VERTEX
  5
454
330
444
100
AcDbEntity
  8
GEB-KONTUR-A
 48
25.0
100
AcDbVertex
100
AcDb2dVertex
 10
57.39933233261115
 20
-7.247741222381364
 30
0.0
  0
VERTEX
  5
455
330
444
100
AcDbEntity
  8
GEB-KONTUR-A
 48
25.0
100
AcDbVertex
100
AcDb2dVertex
 10
57.34435062408454
 20
-7.733913064002763
 30
0.0
  0
VERTEX
  5
456
330
444
100
AcDbEntity
  8
GEB-KONTUR-A
 48
25.0
100
AcDbVertex
100
AcDb2dVertex
 10
57.2858212471009
 20
-8.221118450164567
 30
0.0
  0
VERTEX
  5
457
330
444
100
AcDbEntity
  8
GEB-KONTUR-A
 48
25.0
100
AcDbVertex
100
AcDb2dVertex
 10
57.22373704910285
 20
-8.709474205970536
 30
0.0
  0
VERTEX
  5
458
330
444
100
AcDbEntity
  8
GEB-KONTUR-A
 48
25.0
100
AcDbVertex
100
AcDb2dVertex
 10
57.15808610916145
 20
-9.199096560477983
 30
0.0
  0
VERTEX
  5
459
330
444
100
AcDbEntity
  8
GEB-KONTUR-A
 48
25.0
100
AcDbVertex
100
AcDb2dVertex
 10
57.08885173797614
 20
-9.690103530883561
 30
0.0
  0
VERTEX
  5
45A
330
444
100
AcDbEntity
  8
GEB-KONTUR-A
 48
25.0
100
AcDbVertex
100
AcDb2dVertex
 10
57.01602201461799
 20
-10.18261313438393
 30
0.0
  0
VERTEX
  5
45B
330
444
100
AcDbEntity
  8
GEB-KONTUR-A
 48
25.0
100
AcDbVertex
100
AcDb2dVertex
 10
56.93958024978645
 20
-10.67674398422218
 30
0.0
  0
VERTEX
  5
45C
330
444
100
AcDbEntity
  8
GEB-KONTUR-A
 48
25.0
100
AcDbVertex
100
AcDb2dVertex
 10
56.8595049858094
 20
-11.17261528968788
 30
0.0
  0
VERTEX
  5
45D
330
444
100
AcDbEntity
  8
GEB-KONTUR-A
 48
25.0
100
AcDbVertex
100
AcDb2dVertex
 10
56.77578191757209
 20
-11.67034864425636
 30
0.0
  0
VERTEX
  5
45E
330
444
100
AcDbEntity
  8
GEB-KONTUR-A
 48
25.0
100
AcDbVertex
100
AcDb2dVertex
 10
56.68838243484504
 20
-12.17006325721706
 30
0.0
  0
VERTEX
  5
45F
330
444
100
AcDbEntity
  8
GEB-KONTUR-A
 48
25.0
100
AcDbVertex
100
AcDb2dVertex
 10
56.59728746414192
 20
-12.67188310623135
 30
0.0
  0
VERTEX
  5
460
330
444
100
AcDbEntity
  8
GEB-KONTUR-A
 48
25.0
100
AcDbVertex
100
AcDb2dVertex
 10
56.50246839523322
 20
-13.17593097686733
 30
0.0
  0
VERTEX
  5
461
330
444
100
AcDbEntity
  8
GEB-KONTUR-A
 48
25.0
100
AcDbVertex
100
AcDb2dVertex
 10
56.40389900207527
 20
-13.68233084678616
 30
0.0
  0
VERTEX
  5
462
330
444
100
AcDbEntity
  8
GEB-KONTUR-A
 48
25.0
100
AcDbVertex
100
AcDb2dVertex
 10
56.30155067443855
 20
-14.19121146202053
 30
0.0
  0
VERTEX
  5
463
330
444
100
AcDbEntity
  8
GEB-KONTUR-A
 48
25.0
100
AcDbVertex
100
AcDb2dVertex
 10
56.19539003372199
 20
-14.70269680023159
 30
0.0
  0
VERTEX
  5
464
330
444
100
AcDbEntity
  8
GEB-KONTUR-A
 48
25.0
100
AcDbVertex
100
AcDb2dVertex
 10
56.08538608551038
 20
-15.21691918373074
 30
0.0
  0
VERTEX
  5
465
330
444
100
AcDbEntity
  8
GEB-KONTUR-A
 48
25.0
100
AcDbVertex
100
AcDb2dVertex
 10
55.97150306701673
 20
-15.73400735855068
 30
0.0
  0
VERTEX
  5
466
330
444
100
AcDbEntity
  8
GEB-KONTUR-A
 48
25.0
100
AcDbVertex
100
AcDb2dVertex
 10
55.85370283126843
 20
-16.25409603118862
 30
0.0
  0
VERTEX
  5
467
330
444
100
AcDbEntity
  8
GEB-KONTUR-A
 48
25.0
100
AcDbVertex
100
AcDb2dVertex
 10
55.73194723129285
 20
-16.77731752395596
 30
0.0
  0
VERTEX
  5
468
330
444
100
AcDbEntity
  8
GEB-KONTUR-A
 48
25.0
100
AcDbVertex
100
AcDb2dVertex
 10
55.60619573593152
 20
-17.30380892753567
 30
0.0
  0
VERTEX
  5
469
330
444
100
AcDbEntity
  8
GEB-KONTUR-A
 48
25.0
100
AcDbVertex
100
AcDb2dVertex
 10
55.47640542984021
 20
-17.83370971679653
 30
0.0
  0
VERTEX
  5
46A
330
444
100
AcDbEntity
  8
GEB-KONTUR-A
 48
25.0
100
AcDbVertex
100
AcDb2dVertex
 10
55.34252624511731
 20
-18.36716175079311
 30
0.0
  0
VERTEX
  5
46B
330
444
100
AcDbEntity
  8
GEB-KONTUR-A
 48
25.0
100
AcDbVertex
100
AcDb2dVertex
 10
55.20451765060437
 20
-18.90430569648697
 30
0.0
  0
VERTEX
  5
46C
330
444
100
AcDbEntity
  8
GEB-KONTUR-A
 48
25.0
100
AcDbVertex
100
AcDb2dVertex
 10
55.06232242584241
 20
-19.44528937339737
 30
0.0
  0
VERTEX
  5
46D
330
444
100
AcDbEntity
  8
GEB-KONTUR-A
 48
25.0
100
AcDbVertex
100
AcDb2dVertex
 10
54.9158928871156
 20
-19.99026179313614
 30
0.0
  0
VERTEX
  5
46E
330
444
100
AcDbEntity
  8
GEB-KONTUR-A
 48
25.0
100
AcDbVertex
100
AcDb2dVertex
 10
54.76517419815076
 20
-20.53937435150101
 30
0.0
  0
VERTEX
  5
46F
330
444
100
AcDbEntity
  8
GEB-KONTUR-A
 48
25.0
100
AcDbVertex
100
AcDb2dVertex
 10
54.61010794639605
 20
-21.0927796363826
 30
0.0
  0
VERTEX
  5
470
330
444
100
AcDbEntity
  8
GEB-KONTUR-A
 48
25.0
100
AcDbVertex
100
AcDb2dVertex
 10
54.4506345272066
 20
-21.65063619613602
 30
0.0
  0
SEQEND
  5
471
330
444
100
AcDbEntity
  8
GEB-KONTUR-A
 48
25.0
  0
LINE
  5
472
330
2
100
AcDbEntity
  8
GEB-KONTUR-A
 48
25.0
100
AcDbLine
 10
38.14936490538935
 20
-43.30127018922098
 30
0.0
 11
54.45063509461113
 21
-43.30127018922098
 31
0.0
  0
POLYLINE
  5
473
330
2
100
AcDbEntity
  8
GEB-KONTUR-A
 48
25.0
100
AcDb2dPolyline
 66
     1
 10
0.0
 20
0.0
 30
0.0
 70
   128
  0
VERTEX
  5
474
330
473
100
AcDbEntity
  8
GEB-KONTUR-A
 48
25.0
100
AcDbVertex
100
AcDb2dVertex
 10
38.14936499595672
 20
-43.30127239227192
 30
0.0
  0
VERTEX
  5
475
330
473
100
AcDbEntity
  8
GEB-KONTUR-A
 48
25.0
100
AcDbVertex
100
AcDb2dVertex
 10
37.98989157676726
 20
-43.02234172820942
 30
0.0
  0
VERTEX
  5
476
330
473
100
AcDbEntity
  8
GEB-KONTUR-A
 48
25.0
100
AcDbVertex
100
AcDb2dVertex
 10
37.8348253250125
 20
-42.74563789367573
 30
0.0
  0
VERTEX
  5
477
330
473
100
AcDbEntity
  8
GEB-KONTUR-A
 48
25.0
100
AcDbVertex
100
AcDb2dVertex
 10
37.68410604000121
 20
-42.47108459472565
 30
0.0
  0
VERTEX
  5
478
330
473
100
AcDbEntity
  8
GEB-KONTUR-A
 48
25.0
100
AcDbVertex
100
AcDb2dVertex
 10
37.53767709732085
 20
-42.19859600067048
 30
0.0
  0
VERTEX
  5
479
330
473
100
AcDbEntity
  8
GEB-KONTUR-A
 48
25.0
100
AcDbVertex
100
AcDb2dVertex
 10
37.39548336267501
 20
-41.92810535430817
 30
0.0
  0
VERTEX
  5
47A
330
473
100
AcDbEntity
  8
GEB-KONTUR-A
 48
25.0
100
AcDbVertex
100
AcDb2dVertex
 10
37.25747283101112
 20
-41.65953159332184
 30
0.0
  0
VERTEX
  5
47B
330
473
100
AcDbEntity
  8
GEB-KONTUR-A
 48
25.0
100
AcDbVertex
100
AcDb2dVertex
 10
37.12359558343917
 20
-41.39280796050934
 30
0.0
  0
VERTEX
  5
47C
330
473
100
AcDbEntity
  8
GEB-KONTUR-A
 48
25.0
100
AcDbVertex
100
AcDb2dVertex
 10
36.99380378723174
 20
-41.12785816192536
 30
0.0
  0
VERTEX
  5
47D
330
473
100
AcDbEntity
  8
GEB-KONTUR-A
 48
25.0
100
AcDbVertex
100
AcDb2dVertex
 10
36.8680521428588
 20
-40.86461067199616
 30
0.0
  0
VERTEX
  5
47E
330
473
100
AcDbEntity
  8
GEB-KONTUR-A
 48
25.0
100
AcDbVertex
100
AcDb2dVertex
 10
36.74629698991805
 20
-40.6029987335196
 30
0.0
  0
VERTEX
  5
47F
330
473
100
AcDbEntity
  8
GEB-KONTUR-A
 48
25.0
100
AcDbVertex
100
AcDb2dVertex
 10
36.62849749922782
 20
-40.34295558929352
 30
0.0
  0
VERTEX
  5
480
330
473
100
AcDbEntity
  8
GEB-KONTUR-A
 48
25.0
100
AcDbVertex
100
AcDb2dVertex
 10
36.51461418271094
 20
-40.08441448211579
 30
0.0
  0
VERTEX
  5
481
330
473
100
AcDbEntity
  8
GEB-KONTUR-A
 48
25.0
100
AcDbVertex
100
AcDb2dVertex
 10
36.40461023449927
 20
-39.82730150222688
 30
0.0
  0
VERTEX
  5
482
330
473
100
AcDbEntity
  8
GEB-KONTUR-A
 48
25.0
100
AcDbVertex
100
AcDb2dVertex
 10
36.29845033884078
 20
-39.571557044982
 30
0.0
  0
VERTEX
  5
483
330
473
100
AcDbEntity
  8
GEB-KONTUR-A
 48
25.0
100
AcDbVertex
100
AcDb2dVertex
 10
36.19610141515761
 20
-39.31711912155072
 30
0.0
  0
VERTEX
  5
484
330
473
100
AcDbEntity
  8
GEB-KONTUR-A
 48
25.0
100
AcDbVertex
100
AcDb2dVertex
 10
36.09753217101127
 20
-39.06391859054486
 30
0.0
  0
VERTEX
  5
485
330
473
100
AcDbEntity
  8
GEB-KONTUR-A
 48
25.0
100
AcDbVertex
100
AcDb2dVertex
 10
36.0027134001258
 20
-38.81189346313397
 30
0.0
  0
VERTEX
  5
486
330
473
100
AcDbEntity
  8
GEB-KONTUR-A
 48
25.0
100
AcDbVertex
100
AcDb2dVertex
 10
35.91161760985881
 20
-38.56098413467328
 30
0.0
  0
VERTEX
  5
487
330
473
100
AcDbEntity
  8
GEB-KONTUR-A
 48
25.0
100
AcDbVertex
100
AcDb2dVertex
 10
35.82421902120143
 20
-38.31112623214642
 30
0.0
  0
VERTEX
  5
488
330
473
100
AcDbEntity
  8
GEB-KONTUR-A
 48
25.0
100
AcDbVertex
100
AcDb2dVertex
 10
35.74049401581317
 20
-38.06226015090863
 30
0.0
  0
VERTEX
  5
489
330
473
100
AcDbEntity
  8
GEB-KONTUR-A
 48
25.0
100
AcDbVertex
100
AcDb2dVertex
 10
35.66042046546966
 20
-37.81432390212933
 30
0.0
  0
VERTEX
  5
48A
330
473
100
AcDbEntity
  8
GEB-KONTUR-A
 48
25.0
100
AcDbVertex
100
AcDb2dVertex
 10
35.58397817909747
 20
-37.56726026534955
 30
0.0
  0
VERTEX
  5
48B
330
473
100
AcDbEntity
  8
GEB-KONTUR-A
 48
25.0
100
AcDbVertex
100
AcDb2dVertex
 10
35.51114860475093
 20
-37.32100486755292
 30
0.0
  0
VERTEX
  5
48C
330
473
100
AcDbEntity
  8
GEB-KONTUR-A
 48
25.0
100
AcDbVertex
100
AcDb2dVertex
 10
35.44191505312949
 20
-37.07550048828045
 30
0.0
  0
VERTEX
  5
48D
330
473
100
AcDbEntity
  8
GEB-KONTUR-A
 48
25.0
100
AcDbVertex
100
AcDb2dVertex
 10
35.37626254856616
 20
-36.83068990707318
 30
0.0
  0
VERTEX
  5
48E
330
473
100
AcDbEntity
  8
GEB-KONTUR-A
 48
25.0
100
AcDbVertex
100
AcDb2dVertex
 10
35.31417779177457
 20
-36.58651113510052
 30
0.0
  0
VERTEX
  5
48F
330
473
100
AcDbEntity
  8
GEB-KONTUR-A
 48
25.0
100
AcDbVertex
100
AcDb2dVertex
 10
35.25564915984899
 20
-36.34290933608929
 30
0.0
  0
VERTEX
  5
490
330
473
100
AcDbEntity
  8
GEB-KONTUR-A
 48
25.0
100
AcDbVertex
100
AcDb2dVertex
 10
35.20066685527593
 20
-36.09982252120892
 30
0.0
  0
VERTEX
  5
491
330
473
100
AcDbEntity
  8
GEB-KONTUR-A
 48
25.0
100
AcDbVertex
100
AcDb2dVertex
 10
35.14922268241674
 20
-35.85719585418622
 30
0.0
  0
VERTEX
  5
492
330
473
100
AcDbEntity
  8
GEB-KONTUR-A
 48
25.0
100
AcDbVertex
100
AcDb2dVertex
 10
35.10131014063984
 20
-35.6149697303764
 30
0.0
  0
VERTEX
  5
493
330
473
100
AcDbEntity
  8
GEB-KONTUR-A
 48
25.0
100
AcDbVertex
100
AcDb2dVertex
 10
35.05692449882656
 20
-35.3730845451347
 30
0.0
  0
VERTEX
  5
494
330
473
100
AcDbEntity
  8
GEB-KONTUR-A
 48
25.0
100
AcDbVertex
100
AcDb2dVertex
 10
35.01606268361241
 20
-35.13148546218793
 30
0.0
  0
VERTEX
  5
495
330
473
100
AcDbEntity
  8
GEB-KONTUR-A
 48
25.0
100
AcDbVertex
100
AcDb2dVertex
 10
34.97872333526641
 20
-34.89011287689129
 30
0.0
  0
VERTEX
  5
496
330
473
100
AcDbEntity
  8
GEB-KONTUR-A
 48
25.0
100
AcDbVertex
100
AcDb2dVertex
 10
34.94490676112503
 20
-34.64890718460003
 30
0.0
  0
VERTEX
  5
497
330
473
100
AcDbEntity
  8
GEB-KONTUR-A
 48
25.0
100
AcDbVertex
100
AcDb2dVertex
 10
34.91461505666405
 20
-34.40781354904095
 30
0.0
  0
VERTEX
  5
498
330
473
100
AcDbEntity
  8
GEB-KONTUR-A
 48
25.0
100
AcDbVertex
100
AcDb2dVertex
 10
34.8878519937399
 20
-34.16676998138348
 30
0.0
  0
VERTEX
  5
499
330
473
100
AcDbEntity
  8
GEB-KONTUR-A
 48
25.0
100
AcDbVertex
100
AcDb2dVertex
 10
34.86462309975207
 20
-33.92572164535443
 30
0.0
  0
VERTEX
  5
49A
330
473
100
AcDbEntity
  8
GEB-KONTUR-A
 48
25.0
100
AcDbVertex
100
AcDb2dVertex
 10
34.84493565298647
 20
-33.68460655212323
 30
0.0
  0
VERTEX
  5
49B
330
473
100
AcDbEntity
  8
GEB-KONTUR-A
 48
25.0
100
AcDbVertex
100
AcDb2dVertex
 10
34.82879870589852
 20
-33.4433650970451
 30
0.0
  0
VERTEX
  5
49C
330
473
100
AcDbEntity
  8
GEB-KONTUR-A
 48
25.0
100
AcDbVertex
100
AcDb2dVertex
 10
34.8162230967547
 20
-33.20194005966107
 30
0.0
  0
VERTEX
  5
49D
330
473
100
AcDbEntity
  8
GEB-KONTUR-A
 48
25.0
100
AcDbVertex
100
AcDb2dVertex
 10
34.80722147582594
 20
-32.96026945114056
 30
0.0
  0
VERTEX
  5
49E
330
473
100
AcDbEntity
  8
GEB-KONTUR-A
 48
25.0
100
AcDbVertex
100
AcDb2dVertex
 10
34.80180832867075
 20
-32.7182936668388
 30
0.0
  0
VERTEX
  5
49F
330
473
100
AcDbEntity
  8
GEB-KONTUR-A
 48
25.0
100
AcDbVertex
100
AcDb2dVertex
 10
34.8000000000003
 20
-32.47595310211114
 30
0.0
  0
SEQEND
  5
4A0
330
473
100
AcDbEntity
  8
GEB-KONTUR-A
 48
25.0
  0
POLYLINE
  5
4A1
330
2
100
AcDbEntity
  8
GEB-KONTUR-A
 48
25.0
100
AcDb2dPolyline
 66
     1
 10
0.0
 20
0.0
 30
0.0
 70
   128
  0
VERTEX
  5
4A2
330
4A1
100
AcDbEntity
  8
GEB-KONTUR-A
 48
25.0
100
AcDbVertex
100
AcDb2dVertex
 10
34.8000000000003
 20
-32.47595310211114
 30
0.0
  0
VERTEX
  5
4A3
330
4A1
100
AcDbEntity
  8
GEB-KONTUR-A
 48
25.0
100
AcDbVertex
100
AcDb2dVertex
 10
34.80180832867075
 20
-32.23361015319756
 30
0.0
  0
VERTEX
  5
4A4
330
4A1
100
AcDbEntity
  8
GEB-KONTUR-A
 48
25.0
100
AcDbVertex
100
AcDb2dVertex
 10
34.80722147582594
 20
-31.9916343688958
 30
0.0
  0
VERTEX
  5
4A5
330
4A1
100
AcDbEntity
  8
GEB-KONTUR-A
 48
25.0
100
AcDbVertex
100
AcDb2dVertex
 10
34.8162230967547
 20
-31.74996614456109
 30
0.0
  0
VERTEX
  5
4A6
330
4A1
100
AcDbEntity
  8
GEB-KONTUR-A
 48
25.0
100
AcDbVertex
100
AcDb2dVertex
 10
34.82879870589852
 20
-31.50853872299126
 30
0.0
  0
VERTEX
  5
4A7
330
4A1
100
AcDbEntity
  8
GEB-KONTUR-A
 48
25.0
100
AcDbVertex
100
AcDb2dVertex
 10
34.84493565298647
 20
-31.26729965209893
 30
0.0
  0
VERTEX
  5
4A8
330
4A1
100
AcDbEntity
  8
GEB-KONTUR-A
 48
25.0
100
AcDbVertex
100
AcDb2dVertex
 10
34.86462309975207
 20
-31.02618455886773
 30
0.0
  0
VERTEX
  5
4A9
330
4A1
100
AcDbEntity
  8
GEB-KONTUR-A
 48
25.0
100
AcDbVertex
100
AcDb2dVertex
 10
34.8878519937399
 20
-30.78513383865288
 30
0.0
  0
VERTEX
  5
4AA
330
4A1
100
AcDbEntity
  8
GEB-KONTUR-A
 48
25.0
100
AcDbVertex
100
AcDb2dVertex
 10
34.91461505666405
 20
-30.5440926551812
 30
0.0
  0
VERTEX
  5
4AB
330
4A1
100
AcDbEntity
  8
GEB-KONTUR-A
 48
25.0
100
AcDbVertex
100
AcDb2dVertex
 10
34.94490676112503
 20
-30.30299663543633
 30
0.0
  0
VERTEX
  5
4AC
330
4A1
100
AcDbEntity
  8
GEB-KONTUR-A
 48
25.0
100
AcDbVertex
100
AcDb2dVertex
 10
34.97872333526641
 20
-30.06179332733086
 30
0.0
  0
VERTEX
  5
4AD
330
4A1
100
AcDbEntity
  8
GEB-KONTUR-A
 48
25.0
100
AcDbVertex
100
AcDb2dVertex
 10
35.01606268361241
 20
-29.82042074203423
 30
0.0
  0
VERTEX
  5
4AE
330
4A1
100
AcDbEntity
  8
GEB-KONTUR-A
 48
25.0
100
AcDbVertex
100
AcDb2dVertex
 10
35.05692449882656
 20
-29.57881927490166
 30
0.0
  0
VERTEX
  5
4AF
330
4A1
100
AcDbEntity
  8
GEB-KONTUR-A
 48
25.0
100
AcDbVertex
100
AcDb2dVertex
 10
35.10131014063984
 20
-29.33693647384576
 30
0.0
  0
VERTEX
  5
4B0
330
4A1
100
AcDbEntity
  8
GEB-KONTUR-A
 48
25.0
100
AcDbVertex
100
AcDb2dVertex
 10
35.14922268241674
 20
-29.09471035003594
 30
0.0
  0
VERTEX
  5
4B1
330
4A1
100
AcDbEntity
  8
GEB-KONTUR-A
 48
25.0
100
AcDbVertex
100
AcDb2dVertex
 10
35.20066685527593
 20
-28.85208129882756
 30
0.0
  0
VERTEX
  5
4B2
330
4A1
100
AcDbEntity
  8
GEB-KONTUR-A
 48
25.0
100
AcDbVertex
100
AcDb2dVertex
 10
35.25564915984899
 20
-28.60899686813298
 30
0.0
  0
VERTEX
  5
4B3
330
4A1
100
AcDbEntity
  8
GEB-KONTUR-A
 48
25.0
100
AcDbVertex
100
AcDb2dVertex
 10
35.31417779177457
 20
-28.36539268493595
 30
0.0
  0
VERTEX
  5
4B4
330
4A1
100
AcDbEntity
  8
GEB-KONTUR-A
 48
25.0
100
AcDbVertex
100
AcDb2dVertex
 10
35.37626254856616
 20
-28.12121629714909
 30
0.0
  0
VERTEX
  5
4B5
330
4A1
100
AcDbEntity
  8
GEB-KONTUR-A
 48
25.0
100
AcDbVertex
100
AcDb2dVertex
 10
35.44191505312949
 20
-27.87640333175602
 30
0.0
  0
VERTEX
  5
4B6
330
4A1
100
AcDbEntity
  8
GEB-KONTUR-A
 48
25.0
100
AcDbVertex
100
AcDb2dVertex
 10
35.51114860475093
 20
-27.63090133666935
 30
0.0
  0
VERTEX
  5
4B7
330
4A1
100
AcDbEntity
  8
GEB-KONTUR-A
 48
25.0
100
AcDbVertex
100
AcDb2dVertex
 10
35.58397817909747
 20
-27.38464593887272
 30
0.0
  0
VERTEX
  5
4B8
330
4A1
100
AcDbEntity
  8
GEB-KONTUR-A
 48
25.0
100
AcDbVertex
100
AcDb2dVertex
 10
35.66042046546966
 20
-27.13757991790715
 30
0.0
  0
VERTEX
  5
4B9
330
4A1
100
AcDbEntity
  8
GEB-KONTUR-A
 48
25.0
100
AcDbVertex
100
AcDb2dVertex
 10
35.74049401581317
 20
-26.88964366912785
 30
0.0
  0
VERTEX
  5
4BA
330
4A1
100
AcDbEntity
  8
GEB-KONTUR-A
 48
25.0
100
AcDbVertex
100
AcDb2dVertex
 10
35.82421902120143
 20
-26.64077758789006
 30
0.0
  0
VERTEX
  5
4BB
330
4A1
100
AcDbEntity
  8
GEB-KONTUR-A
 48
25.0
100
AcDbVertex
100
AcDb2dVertex
 10
35.91161760985881
 20
-26.39092206954899
 30
0.0
  0
VERTEX
  5
4BC
330
4A1
100
AcDbEntity
  8
GEB-KONTUR-A
 48
25.0
100
AcDbVertex
100
AcDb2dVertex
 10
36.0027134001258
 20
-26.14001035690251
 30
0.0
  0
VERTEX
  5
4BD
330
4A1
100
AcDbEntity
  8
GEB-KONTUR-A
 48
25.0
100
AcDbVertex
100
AcDb2dVertex
 10
36.09753217101127
 20
-25.88798761367741
 30
0.0
  0
VERTEX
  5
4BE
330
4A1
100
AcDbEntity
  8
GEB-KONTUR-A
 48
25.0
100
AcDbVertex
100
AcDb2dVertex
 10
36.19610141515761
 20
-25.63478708267155
 30
0.0
  0
VERTEX
  5
4BF
330
4A1
100
AcDbEntity
  8
GEB-KONTUR-A
 48
25.0
100
AcDbVertex
100
AcDb2dVertex
 10
36.29845033884078
 20
-25.38034677505436
 30
0.0
  0
VERTEX
  5
4C0
330
4A1
100
AcDbEntity
  8
GEB-KONTUR-A
 48
25.0
100
AcDbVertex
100
AcDb2dVertex
 10
36.40461023449927
 20
-25.12460470199528
 30
0.0
  0
VERTEX
  5
4C1
330
4A1
100
AcDbEntity
  8
GEB-KONTUR-A
 48
25.0
100
AcDbVertex
100
AcDb2dVertex
 10
36.51461418271094
 20
-24.86749410629216
 30
0.0
  0
VERTEX
  5
4C2
330
4A1
100
AcDbEntity
  8
GEB-KONTUR-A
 48
25.0
100
AcDbVertex
100
AcDb2dVertex
 10
36.62849749922782
 20
-24.60894823074284
 30
0.0
  0
VERTEX
  5
4C3
330
4A1
100
AcDbEntity
  8
GEB-KONTUR-A
 48
25.0
100
AcDbVertex
100
AcDb2dVertex
 10
36.74629698991805
 20
-24.34890508651676
 30
0.0
  0
VERTEX
  5
4C4
330
4A1
100
AcDbEntity
  8
GEB-KONTUR-A
 48
25.0
100
AcDbVertex
100
AcDb2dVertex
 10
36.8680521428588
 20
-24.0872931480402
 30
0.0
  0
VERTEX
  5
4C5
330
4A1
100
AcDbEntity
  8
GEB-KONTUR-A
 48
25.0
100
AcDbVertex
100
AcDb2dVertex
 10
36.99380378723174
 20
-23.82404804229679
 30
0.0
  0
VERTEX
  5
4C6
330
4A1
100
AcDbEntity
  8
GEB-KONTUR-A
 48
25.0
100
AcDbVertex
100
AcDb2dVertex
 10
37.12359558343917
 20
-23.55909824371281
 30
0.0
  0
VERTEX
  5
4C7
330
4A1
100
AcDbEntity
  8
GEB-KONTUR-A
 48
25.0
100
AcDbVertex
100
AcDb2dVertex
 10
37.25747283101112
 20
-23.29237222671452
 30
0.0
  0
VERTEX
  5
4C8
330
4A1
100
AcDbEntity
  8
GEB-KONTUR-A
 48
25.0
100
AcDbVertex
100
AcDb2dVertex
 10
37.39548336267501
 20
-23.02380084991398
 30
0.0
  0
VERTEX
  5
4C9
330
4A1
100
AcDbEntity
  8
GEB-KONTUR-A
 48
25.0
100
AcDbVertex
100
AcDb2dVertex
 10
37.53767709732085
 20
-22.75330781936589
 30
0.0
  0
VERTEX
  5
4CA
330
4A1
100
AcDbEntity
  8
GEB-KONTUR-A
 48
25.0
100
AcDbVertex
100
AcDb2dVertex
 10
37.68410604000121
 20
-22.4808216094965
 30
0.0
  0
VERTEX
  5
4CB
330
4A1
100
AcDbEntity
  8
GEB-KONTUR-A
 48
25.0
100
AcDbVertex
100
AcDb2dVertex
 10
37.83482532501245
 20
-22.20626592636051
 30
0.0
  0
VERTEX
  5
4CC
330
4A1
100
AcDbEntity
  8
GEB-KONTUR-A
 48
25.0
100
AcDbVertex
100
AcDb2dVertex
 10
37.98989157676721
 20
-21.92956447601273
 30
0.0
  0
VERTEX
  5
4CD
330
4A1
100
AcDbEntity
  8
GEB-KONTUR-A
 48
25.0
100
AcDbVertex
100
AcDb2dVertex
 10
38.14936499595666
 20
-21.65063619613602
 30
0.0
  0
SEQEND
  5
4CE
330
4A1
100
AcDbEntity
  8
GEB-KONTUR-A
 48
25.0
  0
LINE
  5
4CF
330
2
100
AcDbEntity
  8
GEB-KONTUR-A
 48
25.0
100
AcDbLine
 10
38.14936490538929
 20
-21.65063509461049
 30
0.0
 11
54.45063509461113
 21
-21.65063509461049
 31
0.0
  0
POLYLINE
  5
4D0
330
2
100
AcDbEntity
  8
GEB-KONTUR-A
 48
25.0
100
AcDb2dPolyline
 66
     1
 10
0.0
 20
0.0
 30
0.0
 70
   128
  0
VERTEX
  5
4D1
330
4D0
100
AcDbEntity
  8
GEB-KONTUR-A
 48
25.0
100
AcDbVertex
100
AcDb2dVertex
 10
54.4506345272066
 20
-21.65063619613602
 30
0.0
  0
VERTEX
  5
4D2
330
4D0
100
AcDbEntity
  8
GEB-KONTUR-A
 48
25.0
100
AcDbVertex
100
AcDb2dVertex
 10
54.61010794639605
 20
-21.92956447601273
 30
0.0
  0
VERTEX
  5
4D3
330
4D0
100
AcDbEntity
  8
GEB-KONTUR-A
 48
25.0
100
AcDbVertex
100
AcDb2dVertex
 10
54.76517419815081
 20
-22.20626592636051
 30
0.0
  0
VERTEX
  5
4D4
330
4D0
100
AcDbEntity
  8
GEB-KONTUR-A
 48
25.0
100
AcDbVertex
100
AcDb2dVertex
 10
54.91589288711566
 20
-22.4808216094965
 30
0.0
  0
VERTEX
  5
4D5
330
4D0
100
AcDbEntity
  8
GEB-KONTUR-A
 48
25.0
100
AcDbVertex
100
AcDb2dVertex
 10
55.06232242584246
 20
-22.75330781936589
 30
0.0
  0
VERTEX
  5
4D6
330
4D0
100
AcDbEntity
  8
GEB-KONTUR-A
 48
25.0
100
AcDbVertex
100
AcDb2dVertex
 10
55.20451765060442
 20
-23.02380084991398
 30
0.0
  0
VERTEX
  5
4D7
330
4D0
100
AcDbEntity
  8
GEB-KONTUR-A
 48
25.0
100
AcDbVertex
100
AcDb2dVertex
 10
55.34252624511736
 20
-23.29237222671452
 30
0.0
  0
VERTEX
  5
4D8
330
4D0
100
AcDbEntity
  8
GEB-KONTUR-A
 48
25.0
100
AcDbVertex
100
AcDb2dVertex
 10
55.47640542984021
 20
-23.55909824371281
 30
0.0
  0
VERTEX
  5
4D9
330
4D0
100
AcDbEntity
  8
GEB-KONTUR-A
 48
25.0
100
AcDbVertex
100
AcDb2dVertex
 10
55.60619573593157
 20
-23.82404804229679
 30
0.0
  0
VERTEX
  5
4DA
330
4D0
100
AcDbEntity
  8
GEB-KONTUR-A
 48
25.0
100
AcDbVertex
100
AcDb2dVertex
 10
55.7319472312929
 20
-24.0872931480402
 30
0.0
  0
VERTEX
  5
4DB
330
4D0
100
AcDbEntity
  8
GEB-KONTUR-A
 48
25.0
100
AcDbVertex
100
AcDb2dVertex
 10
55.85370283126849
 20
-24.34890508651676
 30
0.0
  0
VERTEX
  5
4DC
330
4D0
100
AcDbEntity
  8
GEB-KONTUR-A
 48
25.0
100
AcDbVertex
100
AcDb2dVertex
 10
55.97150306701673
 20
-24.60894823074284
 30
0.0
  0
VERTEX
  5
4DD
330
4D0
100
AcDbEntity
  8
GEB-KONTUR-A
 48
25.0
100
AcDbVertex
100
AcDb2dVertex
 10
56.08538608551043
 20
-24.86749410629216
 30
0.0
  0
VERTEX
  5
4DE
330
4D0
100
AcDbEntity
  8
GEB-KONTUR-A
 48
25.0
100
AcDbVertex
100
AcDb2dVertex
 10
56.1953900337221
 20
-25.12460470199528
 30
0.0
  0
VERTEX
  5
4DF
330
4D0
100
AcDbEntity
  8
GEB-KONTUR-A
 48
25.0
100
AcDbVertex
100
AcDb2dVertex
 10
56.30155067443865
 20
-25.38034677505436
 30
0.0
  0
VERTEX
  5
4E0
330
4D0
100
AcDbEntity
  8
GEB-KONTUR-A
 48
25.0
100
AcDbVertex
100
AcDb2dVertex
 10
56.40389900207537
 20
-25.63478708267155
 30
0.0
  0
VERTEX
  5
4E1
330
4D0
100
AcDbEntity
  8
GEB-KONTUR-A
 48
25.0
100
AcDbVertex
100
AcDb2dVertex
 10
56.50246839523333
 20
-25.88798761367741
 30
0.0
  0
VERTEX
  5
4E2
330
4D0
100
AcDbEntity
  8
GEB-KONTUR-A
 48
25.0
100
AcDbVertex
100
AcDb2dVertex
 10
56.59728746414202
 20
-26.14001035690251
 30
0.0
  0
VERTEX
  5
4E3
330
4D0
100
AcDbEntity
  8
GEB-KONTUR-A
 48
25.0
100
AcDbVertex
100
AcDb2dVertex
 10
56.68838243484509
 20
-26.39092206954899
 30
0.0
  0
VERTEX
  5
4E4
330
4D0
100
AcDbEntity
  8
GEB-KONTUR-A
 48
25.0
100
AcDbVertex
100
AcDb2dVertex
 10
56.7757819175722
 20
-26.64077758789006
 30
0.0
  0
VERTEX
  5
4E5
330
4D0
100
AcDbEntity
  8
GEB-KONTUR-A
 48
25.0
100
AcDbVertex
100
AcDb2dVertex
 10
56.8595049858095
 20
-26.88964366912785
 30
0.0
  0
VERTEX
  5
4E6
330
4D0
100
AcDbEntity
  8
GEB-KONTUR-A
 48
25.0
100
AcDbVertex
100
AcDb2dVertex
 10
56.93958024978655
 20
-27.13757991790715
 30
0.0
  0
VERTEX
  5
4E7
330
4D0
100
AcDbEntity
  8
GEB-KONTUR-A
 48
25.0
100
AcDbVertex
100
AcDb2dVertex
 10
57.0160220146181
 20
-27.38464593887272
 30
0.0
  0
VERTEX
  5
4E8
330
4D0
100
AcDbEntity
  8
GEB-KONTUR-A
 48
25.0
100
AcDbVertex
100
AcDb2dVertex
 10
57.08885173797625
 20
-27.63090133666935
 30
0.0
  0
VERTEX
  5
4E9
330
4D0
100
AcDbEntity
  8
GEB-KONTUR-A
 48
25.0
100
AcDbVertex
100
AcDb2dVertex
 10
57.15808610916155
 20
-27.87640333175602
 30
0.0
  0
VERTEX
  5
4EA
330
4D0
100
AcDbEntity
  8
GEB-KONTUR-A
 48
25.0
100
AcDbVertex
100
AcDb2dVertex
 10
57.22373704910296
 20
-28.12121629714909
 30
0.0
  0
VERTEX
  5
4EB
330
4D0
100
AcDbEntity
  8
GEB-KONTUR-A
 48
25.0
100
AcDbVertex
100
AcDb2dVertex
 10
57.28582124710101
 20
-28.36539268493595
 30
0.0
  0
VERTEX
  5
4EC
330
4D0
100
AcDbEntity
  8
GEB-KONTUR-A
 48
25.0
100
AcDbVertex
100
AcDb2dVertex
 10
57.34435062408465
 20
-28.60899686813298
 30
0.0
  0
VERTEX
  5
4ED
330
4D0
100
AcDbEntity
  8
GEB-KONTUR-A
 48
25.0
100
AcDbVertex
100
AcDb2dVertex
 10
57.39933233261126
 20
-28.85208129882756
 30
0.0
  0
VERTEX
  5
4EE
330
4D0
100
AcDbEntity
  8
GEB-KONTUR-A
 48
25.0
100
AcDbVertex
100
AcDb2dVertex
 10
57.4507782936098
 20
-29.09471035003594
 30
0.0
  0
VERTEX
  5
4EF
330
4D0
100
AcDbEntity
  8
GEB-KONTUR-A
 48
25.0
100
AcDbVertex
100
AcDb2dVertex
 10
57.49869089126605
 20
-29.33693647384576
 30
0.0
  0
VERTEX
  5
4F0
330
4D0
100
AcDbEntity
  8
GEB-KONTUR-A
 48
25.0
100
AcDbVertex
100
AcDb2dVertex
 10
57.54307489395159
 20
-29.57881927490166
 30
0.0
  0
VERTEX
  5
4F1
330
4D0
100
AcDbEntity
  8
GEB-KONTUR-A
 48
25.0
100
AcDbVertex
100
AcDb2dVertex
 10
57.58393745422381
 20
-29.82042074203423
 30
0.0
  0
VERTEX
  5
4F2
330
4D0
100
AcDbEntity
  8
GEB-KONTUR-A
 48
25.0
100
AcDbVertex
100
AcDb2dVertex
 10
57.62127618789691
 20
-30.06179332733086
 30
0.0
  0
VERTEX
  5
4F3
330
4D0
100
AcDbEntity
  8
GEB-KONTUR-A
 48
25.0
100
AcDbVertex
100
AcDb2dVertex
 10
57.65509347915667
 20
-30.30299663543633
 30
0.0
  0
VERTEX
  5
4F4
330
4D0
100
AcDbEntity
  8
GEB-KONTUR-A
 48
25.0
100
AcDbVertex
100
AcDb2dVertex
 10
57.68538455963152
 20
-30.5440926551812
 30
0.0
  0
VERTEX
  5
4F5
330
4D0
100
AcDbEntity
  8
GEB-KONTUR-A
 48
25.0
100
AcDbVertex
100
AcDb2dVertex
 10
57.71214704513567
 20
-30.78513383865288
 30
0.0
  0
VERTEX
  5
4F6
330
4D0
100
AcDbEntity
  8
GEB-KONTUR-A
 48
25.0
100
AcDbVertex
100
AcDb2dVertex
 10
57.73537616729754
 20
-31.02618455886773
 30
0.0
  0
VERTEX
  5
4F7
330
4D0
100
AcDbEntity
  8
GEB-KONTUR-A
 48
25.0
100
AcDbVertex
100
AcDb2dVertex
 10
57.75506477355975
 20
-31.26729965209893
 30
0.0
  0
VERTEX
  5
4F8
330
4D0
100
AcDbEntity
  8
GEB-KONTUR-A
 48
25.0
100
AcDbVertex
100
AcDb2dVertex
 10
57.77120094299334
 20
-31.50853872299126
 30
0.0
  0
VERTEX
  5
4F9
330
4D0
100
AcDbEntity
  8
GEB-KONTUR-A
 48
25.0
100
AcDbVertex
100
AcDb2dVertex
 10
57.78377752304095
 20
-31.74996614456109
 30
0.0
  0
VERTEX
  5
4FA
330
4D0
100
AcDbEntity
  8
GEB-KONTUR-A
 48
25.0
100
AcDbVertex
100
AcDb2dVertex
 10
57.79277782440203
 20
-31.9916343688958
 30
0.0
  0
VERTEX
  5
4FB
330
4D0
100
AcDbEntity
  8
GEB-KONTUR-A
 48
25.0
100
AcDbVertex
100
AcDb2dVertex
 10
57.79819231033343
 20
-32.23361015319756
 30
0.0
  0
VERTEX
  5
4FC
330
4D0
100
AcDbEntity
  8
GEB-KONTUR-A
 48
25.0
100
AcDbVertex
100
AcDb2dVertex
 10
57.79999952316302
 20
-32.47595310211114
 30
0.0
  0
SEQEND
  5
4FD
330
4D0
100
AcDbEntity
  8
GEB-KONTUR-A
 48
25.0
  0
POLYLINE
  5
4FE
330
2
100
AcDbEntity
  8
GEB-KONTUR-A
 48
25.0
100
AcDb2dPolyline
 66
     1
 10
0.0
 20
0.0
 30
0.0
 70
   128
  0
VERTEX
  5
4FF
330
4FE
100
AcDbEntity
  8
GEB-KONTUR-A
 48
25.0
100
AcDbVertex
100
AcDb2dVertex
 10
57.79999952316302
 20
-32.47595310211114
 30
0.0
  0
VERTEX
  5
500
330
4FE
100
AcDbEntity
  8
GEB-KONTUR-A
 48
25.0
100
AcDbVertex
100
AcDb2dVertex
 10
57.79819231033343
 20
-32.7182936668388
 30
0.0
  0
VERTEX
  5
501
330
4FE
100
AcDbEntity
  8
GEB-KONTUR-A
 48
25.0
100
AcDbVertex
100
AcDb2dVertex
 10
57.79277782440203
 20
-32.96026945114056
 30
0.0
  0
VERTEX
  5
502
330
4FE
100
AcDbEntity
  8
GEB-KONTUR-A
 48
25.0
100
AcDbVertex
100
AcDb2dVertex
 10
57.78377752304095
 20
-33.20194005966107
 30
0.0
  0
VERTEX
  5
503
330
4FE
100
AcDbEntity
  8
GEB-KONTUR-A
 48
25.0
100
AcDbVertex
100
AcDb2dVertex
 10
57.77120094299334
 20
-33.4433650970451
 30
0.0
  0
VERTEX
  5
504
330
4FE
100
AcDbEntity
  8
GEB-KONTUR-A
 48
25.0
100
AcDbVertex
100
AcDb2dVertex
 10
57.75506477355975
 20
-33.68460655212323
 30
0.0
  0
VERTEX
  5
505
330
4FE
100
AcDbEntity
  8
GEB-KONTUR-A
 48
25.0
100
AcDbVertex
100
AcDb2dVertex
 10
57.73537616729754
 20
-33.92572164535443
 30
0.0
  0
VERTEX
  5
506
330
4FE
100
AcDbEntity
  8
GEB-KONTUR-A
 48
25.0
100
AcDbVertex
100
AcDb2dVertex
 10
57.71214704513567
 20
-34.16676998138348
 30
0.0
  0
VERTEX
  5
507
330
4FE
100
AcDbEntity
  8
GEB-KONTUR-A
 48
25.0
100
AcDbVertex
100
AcDb2dVertex
 10
57.68538455963152
 20
-34.40781354904095
 30
0.0
  0
VERTEX
  5
508
330
4FE
100
AcDbEntity
  8
GEB-KONTUR-A
 48
25.0
100
AcDbVertex
100
AcDb2dVertex
 10
57.65509347915667
 20
-34.64890718460003
 30
0.0
  0
VERTEX
  5
509
330
4FE
100
AcDbEntity
  8
GEB-KONTUR-A
 48
25.0
100
AcDbVertex
100
AcDb2dVertex
 10
57.62127618789691
 20
-34.89011287689129
 30
0.0
  0
VERTEX
  5
50A
330
4FE
100
AcDbEntity
  8
GEB-KONTUR-A
 48
25.0
100
AcDbVertex
100
AcDb2dVertex
 10
57.58393745422381
 20
-35.13148546218793
 30
0.0
  0
VERTEX
  5
50B
330
4FE
100
AcDbEntity
  8
GEB-KONTUR-A
 48
25.0
100
AcDbVertex
100
AcDb2dVertex
 10
57.54307489395159
 20
-35.3730845451347
 30
0.0
  0
VERTEX
  5
50C
330
4FE
100
AcDbEntity
  8
GEB-KONTUR-A
 48
25.0
100
AcDbVertex
100
AcDb2dVertex
 10
57.49869089126605
 20
-35.6149697303764
 30
0.0
  0
VERTEX
  5
50D
330
4FE
100
AcDbEntity
  8
GEB-KONTUR-A
 48
25.0
100
AcDbVertex
100
AcDb2dVertex
 10
57.4507782936098
 20
-35.85719585418622
 30
0.0
  0
VERTEX
  5
50E
330
4FE
100
AcDbEntity
  8
GEB-KONTUR-A
 48
25.0
100
AcDbVertex
100
AcDb2dVertex
 10
57.39933233261126
 20
-36.09982252120892
 30
0.0
  0
VERTEX
  5
50F
330
4FE
100
AcDbEntity
  8
GEB-KONTUR-A
 48
25.0
100
AcDbVertex
100
AcDb2dVertex
 10
57.34435062408465
 20
-36.34290933608929
 30
0.0
  0
VERTEX
  5
510
330
4FE
100
AcDbEntity
  8
GEB-KONTUR-A
 48
25.0
100
AcDbVertex
100
AcDb2dVertex
 10
57.28582124710101
 20
-36.58651113510052
 30
0.0
  0
VERTEX
  5
511
330
4FE
100
AcDbEntity
  8
GEB-KONTUR-A
 48
25.0
100
AcDbVertex
100
AcDb2dVertex
 10
57.22373704910296
 20
-36.83068990707318
 30
0.0
  0
VERTEX
  5
512
330
4FE
100
AcDbEntity
  8
GEB-KONTUR-A
 48
25.0
100
AcDbVertex
100
AcDb2dVertex
 10
57.15808610916155
 20
-37.07550048828045
 30
0.0
  0
VERTEX
  5
513
330
4FE
100
AcDbEntity
  8
GEB-KONTUR-A
 48
25.0
100
AcDbVertex
100
AcDb2dVertex
 10
57.08885173797625
 20
-37.32100486755292
 30
0.0
  0
VERTEX
  5
514
330
4FE
100
AcDbEntity
  8
GEB-KONTUR-A
 48
25.0
100
AcDbVertex
100
AcDb2dVertex
 10
57.0160220146181
 20
-37.56726026534955
 30
0.0
  0
VERTEX
  5
515
330
4FE
100
AcDbEntity
  8
GEB-KONTUR-A
 48
25.0
100
AcDbVertex
100
AcDb2dVertex
 10
56.93958024978655
 20
-37.81432390212933
 30
0.0
  0
VERTEX
  5
516
330
4FE
100
AcDbEntity
  8
GEB-KONTUR-A
 48
25.0
100
AcDbVertex
100
AcDb2dVertex
 10
56.8595049858095
 20
-38.06226015090863
 30
0.0
  0
VERTEX
  5
517
330
4FE
100
AcDbEntity
  8
GEB-KONTUR-A
 48
25.0
100
AcDbVertex
100
AcDb2dVertex
 10
56.7757819175722
 20
-38.31112623214642
 30
0.0
  0
VERTEX
  5
518
330
4FE
100
AcDbEntity
  8
GEB-KONTUR-A
 48
25.0
100
AcDbVertex
100
AcDb2dVertex
 10
56.68838243484515
 20
-38.56098413467328
 30
0.0
  0
VERTEX
  5
519
330
4FE
100
AcDbEntity
  8
GEB-KONTUR-A
 48
25.0
100
AcDbVertex
100
AcDb2dVertex
 10
56.59728746414202
 20
-38.81189346313397
 30
0.0
  0
VERTEX
  5
51A
330
4FE
100
AcDbEntity
  8
GEB-KONTUR-A
 48
25.0
100
AcDbVertex
100
AcDb2dVertex
 10
56.50246839523333
 20
-39.06391859054486
 30
0.0
  0
VERTEX
  5
51B
330
4FE
100
AcDbEntity
  8
GEB-KONTUR-A
 48
25.0
100
AcDbVertex
100
AcDb2dVertex
 10
56.40389900207537
 20
-39.31711912155072
 30
0.0
  0
VERTEX
  5
51C
330
4FE
100
AcDbEntity
  8
GEB-KONTUR-A
 48
25.0
100
AcDbVertex
100
AcDb2dVertex
 10
56.30155067443865
 20
-39.571557044982
 30
0.0
  0
VERTEX
  5
51D
330
4FE
100
AcDbEntity
  8
GEB-KONTUR-A
 48
25.0
100
AcDbVertex
100
AcDb2dVertex
 10
56.1953900337221
 20
-39.82730150222688
 30
0.0
  0
VERTEX
  5
51E
330
4FE
100
AcDbEntity
  8
GEB-KONTUR-A
 48
25.0
100
AcDbVertex
100
AcDb2dVertex
 10
56.08538608551043
 20
-40.08441448211579
 30
0.0
  0
VERTEX
  5
51F
330
4FE
100
AcDbEntity
  8
GEB-KONTUR-A
 48
25.0
100
AcDbVertex
100
AcDb2dVertex
 10
55.97150306701678
 20
-40.34295558929352
 30
0.0
  0
VERTEX
  5
520
330
4FE
100
AcDbEntity
  8
GEB-KONTUR-A
 48
25.0
100
AcDbVertex
100
AcDb2dVertex
 10
55.85370283126849
 20
-40.6029987335196
 30
0.0
  0
VERTEX
  5
521
330
4FE
100
AcDbEntity
  8
GEB-KONTUR-A
 48
25.0
100
AcDbVertex
100
AcDb2dVertex
 10
55.7319472312929
 20
-40.86461067199616
 30
0.0
  0
VERTEX
  5
522
330
4FE
100
AcDbEntity
  8
GEB-KONTUR-A
 48
25.0
100
AcDbVertex
100
AcDb2dVertex
 10
55.60619573593157
 20
-41.12785816192536
 30
0.0
  0
VERTEX
  5
523
330
4FE
100
AcDbEntity
  8
GEB-KONTUR-A
 48
25.0
100
AcDbVertex
100
AcDb2dVertex
 10
55.47640542984026
 20
-41.39280796050934
 30
0.0
  0
VERTEX
  5
524
330
4FE
100
AcDbEntity
  8
GEB-KONTUR-A
 48
25.0
100
AcDbVertex
100
AcDb2dVertex
 10
55.34252624511736
 20
-41.65953159332184
 30
0.0
  0
VERTEX
  5
525
330
4FE
100
AcDbEntity
  8
GEB-KONTUR-A
 48
25.0
100
AcDbVertex
100
AcDb2dVertex
 10
55.20451765060442
 20
-41.92810535430817
 30
0.0
  0
VERTEX
  5
526
330
4FE
100
AcDbEntity
  8
GEB-KONTUR-A
 48
25.0
100
AcDbVertex
100
AcDb2dVertex
 10
55.06232242584246
 20
-42.19859600067048
 30
0.0
  0
VERTEX
  5
527
330
4FE
100
AcDbEntity
  8
GEB-KONTUR-A
 48
25.0
100
AcDbVertex
100
AcDb2dVertex
 10
54.91589288711566
 20
-42.47108459472565
 30
0.0
  0
VERTEX
  5
528
330
4FE
100
AcDbEntity
  8
GEB-KONTUR-A
 48
25.0
100
AcDbVertex
100
AcDb2dVertex
 10
54.76517419815081
 20
-42.74563789367573
 30
0.0
  0
VERTEX
  5
529
330
4FE
100
AcDbEntity
  8
GEB-KONTUR-A
 48
25.0
100
AcDbVertex
100
AcDb2dVertex
 10
54.61010794639605
 20
-43.02234172820942
 30
0.0
  0
VERTEX
  5
52A
330
4FE
100
AcDbEntity
  8
GEB-KONTUR-A
 48
25.0
100
AcDbVertex
100
AcDb2dVertex
 10
54.4506345272066
 20
-43.30127239227192
 30
0.0
  0
SEQEND
  5
52B
330
4FE
100
AcDbEntity
  8
GEB-KONTUR-A
 48
25.0
  0
LINE
  5
52C
330
2
100
AcDbEntity
  8
GEB-KONTUR-A
 48
25.0
100
AcDbLine
 10
38.14936490538895
 20
43.3012701892211
 30
0.0
 11
54.45063509461078
 21
43.3012701892211
 31
0.0
  0
LINE
  5
52D
330
2
100
AcDbEntity
  8
GEB-VERDECKT
 48
25.0
100
AcDbLine
 10
55.23829685560508
 20
-33.21999999999923
 30
0.0
 11
57.80000000000012
 21
-34.69899999999973
 31
0.0
  0
LINE
  5
52E
330
2
100
AcDbEntity
  8
GEB-VERDECKT
 48
25.0
100
AcDbLine
 10
55.23829685560475
 20
33.21999999999923
 30
0.0
 11
57.79999999999984
 21
34.69899999999973
 31
0.0
  0
LINE
  5
52F
330
2
100
AcDbEntity
  8
GEB-VERDECKT
 48
25.0
100
AcDbLine
 10
55.23829685560503
 20
-33.21999999999935
 30
0.0
 11
55.23829685560475
 21
33.21999999999923
 31
0.0
  0
LINE
  5
530
330
2
100
AcDbEntity
  8
GEB-KONTUR-A
 48
25.0
100
AcDbLine
 10
57.80000000000018
 20
-37.4999999999992
 30
0.0
 11
54.45063509461113
 21
-43.30127018922098
 31
0.0
  0
LINE
  5
531
330
2
100
AcDbEntity
  8
GEB-KONTUR-A
 48
25.0
100
AcDbLine
 10
34.8000000000003
 20
-37.4999999999992
 30
0.0
 11
38.14936490538935
 21
-43.30127018922098
 31
0.0
  0
LINE
  5
532
330
2
100
AcDbEntity
  8
GEB-KONTUR-A
 48
25.0
100
AcDbLine
 10
34.79999999999995
 20
37.4999999999992
 30
0.0
 11
38.14936490538895
 21
43.3012701892211
 31
0.0
  0
LINE
  5
533
330
2
100
AcDbEntity
  8
GEB-KONTUR-A
 48
25.0
100
AcDbLine
 10
57.79999999999984
 20
37.4999999999992
 30
0.0
 11
54.45063509461078
 21
43.3012701892211
 31
0.0
  0
LINE
  5
534
330
2
100
AcDbEntity
  8
GEB-KONTUR-A
 48
25.0
100
AcDbLine
 10
57.80000000000018
 20
-37.4999999999992
 30
0.0
 11
57.80000000000018
 21
-32.47595264191569
 31
0.0
  0
LINE
  5
535
330
2
100
AcDbEntity
  8
GEB-KONTUR-A
 48
25.0
100
AcDbLine
 10
57.80000000000018
 20
-32.4759526419158
 30
0.0
 11
57.80000000000001
 21
0.0000000000001137
 31
0.0
  0
LINE
  5
536
330
2
100
AcDbEntity
  8
GEB-KONTUR-A
 48
25.0
100
AcDbLine
 10
57.80000000000007
 20
0.0000000000001137
 30
0.0
 11
57.7999999999999
 21
32.4759526419158
 31
0.0
  0
LINE
  5
537
330
2
100
AcDbEntity
  8
GEB-KONTUR-A
 48
25.0
100
AcDbLine
 10
57.79999999999984
 20
32.47595264191569
 30
0.0
 11
57.79999999999984
 21
37.4999999999992
 31
0.0
  0
LINE
  5
538
330
2
100
AcDbEntity
  8
GEB-KONTUR-A
 48
25.0
100
AcDbLine
 10
34.80000000000001
 20
32.4759526419158
 30
0.0
 11
34.79999999999995
 21
37.4999999999992
 31
0.0
  0
LINE
  5
539
330
2
100
AcDbEntity
  8
GEB-KONTUR-A
 48
25.0
100
AcDbLine
 10
34.80000000000018
 20
0.0000000000001137
 30
0.0
 11
34.80000000000001
 21
32.4759526419158
 31
0.0
  0
LINE
  5
53A
330
2
100
AcDbEntity
  8
GEB-KONTUR-A
 48
25.0
100
AcDbLine
 10
34.8000000000003
 20
-32.4759526419158
 30
0.0
 11
34.80000000000018
 21
0.0
 31
0.0
  0
LINE
  5
53B
330
2
100
AcDbEntity
  8
GEB-KONTUR-A
 48
25.0
100
AcDbLine
 10
34.8000000000003
 20
-37.4999999999992
 30
0.0
 11
34.8000000000003
 21
-32.47595264191569
 31
0.0
  0
LINE
  5
53C
330
2
100
AcDbEntity
  8
GEB-VERDECKT
 48
25.0
100
AcDbLine
 10
38.69148748315615
 20
-31.29999999999939
 30
0.0
 11
39.8000000000003
 21
-33.21999999999935
 31
0.0
  0
LINE
  5
53D
330
2
100
AcDbEntity
  8
GEB-VERDECKT
 48
25.0
100
AcDbLine
 10
38.69148748315587
 20
31.29999999999939
 30
0.0
 11
39.7999999999999
 21
33.21999999999923
 31
0.0
  0
LINE
  5
53E
330
2
100
AcDbEntity
  8
GEB-VERDECKT
 48
25.0
100
AcDbLine
 10
38.69148748315587
 20
31.29999999999939
 30
0.0
 11
35.80000000000001
 21
31.29999999999939
 31
0.0
  0
LINE
  5
53F
330
2
100
AcDbEntity
  8
GEB-VERDECKT
 48
25.0
100
AcDbLine
 10
38.69148748315615
 20
-31.29999999999939
 30
0.0
 11
35.80000000000024
 21
-31.29999999999939
 31
0.0
  0
LINE
  5
540
330
2
100
AcDbEntity
  8
GEB-VERDECKT
 48
25.0
100
AcDbLine
 10
39.80000000000024
 20
-33.21999999999935
 30
0.0
 11
39.79999999999995
 21
33.21999999999923
 31
0.0
  0
LINE
  5
541
330
2
100
AcDbEntity
  8
GEB-VERDECKT
 48
25.0
100
AcDbLine
 10
38.69148748315587
 20
31.29999999999939
 30
0.0
 11
38.69148748315615
 21
-31.29999999999939
 31
0.0
  0
LINE
  5
542
330
2
100
AcDbEntity
  8
GEB-VERDECKT
 48
25.0
100
AcDbLine
 10
35.80000000000001
 20
31.29999999999939
 30
0.0
 11
34.79999999999995
 21
32.29999999999939
 31
0.0
  0
LINE
  5
543
330
2
100
AcDbEntity
  8
GEB-VERDECKT
 48
25.0
100
AcDbLine
 10
35.80000000000024
 20
-31.29999999999939
 30
0.0
 11
34.8000000000003
 21
-32.29999999999928
 31
0.0
  0
LINE
  5
544
330
2
100
AcDbEntity
  8
GEB-VERDECKT
 48
25.0
100
AcDbLine
 10
35.80000000000024
 20
-31.29999999999939
 30
0.0
 11
35.79999999999996
 21
31.29999999999939
 31
0.0
  0
TEXT
  5
545
330
2
100
AcDbEntity
  8
GEB-TEXT
100
AcDbText
 10
6.787278308321944
 20
-53.80127018922133
 30
0.0
 40
3.5
  1
Ü-Verschr AG EST d54-R2 LEBM LABS
 72
     1
 11
50.39999999999998
 21
-53.80127018922133
 31
0.0
100
AcDbText
  0
TEXT
  5
547
330
2
100
AcDbEntity
  8
GEB-TEXT
100
AcDbText
 10
32.32939972714869
 20
-48.30127018922133
 30
0.0
 40
3.5
  1
Geberit Mapress
 72
     1
 11
50.39999999999998
 21
-48.30127018922133
 31
0.0
100
AcDbText
  0
TEXT
  5
548
330
2
100
AcDbEntity
  8
GEB-ART-NR
100
AcDbText
 10
27.78449098158262
 20
-60.14405144350155
 30
0.0
 40
3.5
  1
GEB-ART-NR 85370
 72
     1
 11
50.47361103615287
 21
-60.14405144350155
 31
0.0
100
AcDbText
  0
ENDSEC
  0
SECTION
  2
OBJECTS
  0
DICTIONARY
  5
9
330
0
100
AcDbDictionary
281
     1
  3
ACAD_2007HEADERVARS_RT
350
5FF
  3
ACAD_COLOR
350
44
  3
ACAD_GROUP
350
31
  3
ACAD_LAYOUT
350
8
  3
ACAD_MATERIAL
350
13
  3
ACAD_MLEADERSTYLE
350
47
  3
ACAD_MLINESTYLE
350
32
  3
ACAD_PLOTSETTINGS
350
33
  3
ACAD_PLOTSTYLENAME
350
11
  3
ACAD_SCALELIST
350
45
  3
ACAD_TABLESTYLE
350
46
  3
ACAD_VISUALSTYLE
350
2B
  3
ACDB_RECOMPOSE_DATA
350
5FE
  3
AcDbVariableDictionary
350
5A8
  3
AcmDictionary
350
55B
  3
AcmSystemVariableManager
350
616
  3
AMG
350
54C
  0
DICTIONARY
  5
2C
330
28
100
AcDbDictionary
280
     1
281
     1
  0
DICTIONARY
  5
1C
330
E
100
AcDbDictionary
280
     1
281
     1
  3
ACAD_LAYERFILTERS
360
1D
  3
ACLYDICTIONARY
360
1E
  0
DICTIONARY
  5
3
330
2
100
AcDbDictionary
280
     1
281
     1
  3
ACAD_SORTENTS
360
54A
  0
DICTIONARY
  5
5FF
102
{ACAD_REACTORS
330
9
102
}
330
9
100
AcDbDictionary
281
     1
  3
DIMARCSYM
350
600
  3
DIMLTEX1
350
602
  3
DIMLTEX2
350
603
  3
DIMLTYPE
350
601
  0
DICTIONARY
  5
44
102
{ACAD_REACTORS
330
9
102
}
330
9
100
AcDbDictionary
281
     1
  0
DICTIONARY
  5
31
102
{ACAD_REACTORS
330
9
102
}
330
9
100
AcDbDictionary
281
     1
  0
DICTIONARY
  5
8
102
{ACAD_REACTORS
330
9
102
}
330
9
100
AcDbDictionary
281
     1
  3
Layout1
350
D
  3
Model
350
7
  0
DICTIONARY
  5
13
102
{ACAD_REACTORS
330
9
102
}
330
9
100
AcDbDictionary
281
     1
  3
ByBlock
350
3C
  3
ByLayer
350
34
  3
Global
350
12
  0
DICTIONARY
  5
47
102
{ACAD_REACTORS
330
9
102
}
330
9
100
AcDbDictionary
281
     1
  3
Standard
350
5C6
  0
DICTIONARY
  5
32
102
{ACAD_REACTORS
330
9
102
}
330
9
100
AcDbDictionary
281
     1
  3
Standard
350
48
  0
DICTIONARY
  5
33
102
{ACAD_REACTORS
330
9
102
}
330
9
100
AcDbDictionary
281
     1
  0
ACDBDICTIONARYWDFLT
  5
11
102
{ACAD_REACTORS
330
9
102
}
330
9
100
AcDbDictionary
281
     1
  3
Normal
350
10
100
AcDbDictionaryWithDefault
340
10
  0
DICTIONARY
  5
45
102
{ACAD_REACTORS
330
9
102
}
330
9
100
AcDbDictionary
281
     1
  3
A0
350
4D
  3
A1
350
4E
  3
A2
350
4F
  3
A3
350
50
  3
A4
350
51
  3
A5
350
52
  3
A6
350
53
  3
A7
350
54
  3
A8
350
55
  3
A9
350
56
  3
B0
350
57
  3
B1
350
58
  3
B2
350
59
  3
B3
350
5A
  3
B4
350
5B
  3
B5
350
5C
  3
B6
350
5D
  3
B7
350
5E
  3
B8
350
5F
  3
B9
350
60
  3
C0
350
61
  3
C1
350
62
  3
C2
350
63
  3
C3
350
64
  3
C4
350
65
  3
C5
350
66
  3
C6
350
67
  3
C7
350
68
  3
C8
350
69
  3
C9
350
6A
  3
D0
350
6B
  3
D1
350
6C
  3
D2
350
6D
  0
DICTIONARY
  5
46
102
{ACAD_REACTORS
330
9
102
}
330
9
100
AcDbDictionary
281
     1
  3
Standard
350
49
  0
DICTIONARY
  5
2B
102
{ACAD_REACTORS
330
9
102
}
330
9
100
AcDbDictionary
281
     1
  3
2dWireframe
350
2A
  3
Basic
350
5B5
  3
Brighten
350
5B9
  3
ColorChange
350
5BD
  3
Conceptual
350
5B7
  3
Dim
350
5B8
  3
EdgeColorOff
350
5C5
  3
Facepattern
350
5BC
  3
Flat
350
5B1
  3
FlatWithEdges
350
5B2
  3
Gouraud
350
5B3
  3
GouraudWithEdges
350
5B4
  3
Hidden
350
5B6
  3
JitterOff
350
5C3
  3
Linepattern
350
5BB
  3
OverhangOff
350
5C4
  3
Realistic
350
4B
  3
Shaded
350
5C2
  3
Shaded with edges
350
5C1
  3
Shades of Gray
350
5BE
  3
Sketchy
350
5BF
  3
Thicken
350
5BA
  3
Wireframe
350
4C
  3
X-Ray
350
5C0
  0
XRECORD
  5
5FE
102
{ACAD_REACTORS
330
9
102
}
330
9
100
AcDbXrecord
280
     1
 90
        1
330
49
  0
DICTIONARY
  5
5A8
102
{ACAD_REACTORS
330
9
102
}
330
9
100
AcDbDictionary
281
     1
  3
CANNOSCALE
350
5AC
  3
CMLEADERSTYLE
350
5AA
  3
CTABLESTYLE
350
5A9
  3
DIMASSOC
350
5FB
  3
HIDETEXT
350
5FA
  3
INDEXCTL
350
5F9
  3
LAYEREVAL
350
5AE
  3
LAYERNOTIFY
350
5AF
  3
LIGHTINGUNITS
350
5AD
  3
MSLTSCALE
350
5AB
  3
SORTENTS
350
5F8
  3
XCLIPFRAME
350
5FC
  0
DICTIONARY
  5
55B
102
{ACAD_REACTORS
330
9
102
}
330
9
100
AcDbDictionary
281
     1
  3
AcmStdDictionary
350
55C
  0
DICTIONARY
  5
54C
102
{ACAD_REACTORS
330
9
102
}
330
9
100
AcDbDictionary
281
     1
  3
AcMgSettings
350
556
  0
DICTIONARY
  5
1D
102
{ACAD_REACTORS
330
1C
102
}
330
1C
100
AcDbDictionary
281
     1
  0
DICTIONARY
  5
1E
102
{ACAD_REACTORS
330
1C
102
}
330
1C
100
AcDbDictionary
281
     1
1001
ACAD
1000
<All
  0
SORTENTSTABLE
  5
54A
102
{ACAD_REACTORS
330
3
102
}
330
3
100
AcDbSortentsTable
330
2
331
2CF
  5
2EE
331
2CB
  5
2F2
331
2C7
  5
2F6
331
2FE
  5
2BF
331
2C3
  5
2FA
331
2FA
  5
2C3
331
2BF
  5
2FE
331
2F6
  5
2C7
331
2BB
  5
32F
331
2F2
  5
2CB
331
415
  5
2B6
331
2B7
  5
3E7
331
2EE
  5
2CF
331
2B3
  5
472
331
2EA
  5
2D3
331
2AF
  5
4D0
331
2E6
  5
2D7
331
2AB
  5
52E
331
2E2
  5
2DB
331
543
  5
75
331
53F
  5
7A
331
53B
  5
DC
331
1F1
  5
534
331
7F
  5
53D
331
138
  5
539
331
38B
  5
2B9
331
2DE
  5
2DF
331
2DA
  5
2E3
331
444
  5
2B4
331
2D6
  5
2E7
331
2D2
  5
2EB
331
537
  5
194
331
533
  5
1F2
331
52F
  5
27D
331
220
  5
532
331
AE
  5
53C
331
2CE
  5
2EF
331
473
  5
2B2
331
2CA
  5
2F3
331
301
  5
2BC
331
77
  5
542
331
2C6
  5
2F7
331
2FD
  5
2C0
331
2C2
  5
2FB
331
2F9
  5
2C4
331
2BE
  5
2FF
331
2F5
  5
2C8
331
2BA
  5
35D
331
2F1
  5
2CC
331
24F
  5
530
331
2B6
  5
415
331
2ED
  5
2D0
331
2B2
  5
473
331
2E9
  5
2D4
331
2AE
  5
4FE
331
2E5
  5
2D8
331
2E1
  5
2DC
331
542
  5
77
331
53E
  5
7E
331
53A
  5
10A
331
7E
  5
53E
331
7A
  5
53F
331
2DD
  5
2E0
331
2D9
  5
2E4
331
2D5
  5
2E8
331
2D1
  5
2EC
331
536
  5
195
331
532
  5
220
331
52E
  5
2AB
331
166
  5
538
331
3B9
  5
2B8
331
472
  5
2B3
331
2CD
  5
2F0
331
2C9
  5
2F4
331
300
  5
2BD
331
DC
  5
53B
331
2C5
  5
2F8
331
2FC
  5
2C1
331
2C1
  5
2FC
331
4A1
  5
2B1
331
6E
  5
544
331
2F8
  5
2C5
331
2BD
  5
300
331
2B9
  5
38B
331
2F4
  5
2C9
331
2F0
  5
2CD
331
4D0
  5
2AF
331
195
  5
536
331
24E
  5
531
331
32F
  5
2BB
331
2B5
  5
416
331
2EC
  5
2D1
331
2B1
  5
4A1
331
2E8
  5
2D5
331
2AD
  5
52C
331
2E4
  5
2D9
331
2E0
  5
2DD
331
545
  5
548
331
541
  5
78
331
53D
  5
7F
331
539
  5
138
331
79
  5
540
331
2DC
  5
2E1
331
2D8
  5
2E5
331
2D4
  5
2E9
331
2D0
  5
2ED
331
535
  5
1C3
331
531
  5
24E
331
52D
  5
2AC
331
2CC
  5
2F1
331
2C8
  5
2F5
331
75
  5
543
331
3E7
  5
2B7
331
2FF
  5
2BE
331
2C4
  5
2F9
331
2FB
  5
2C2
331
2C0
  5
2FD
331
2BC
  5
301
331
2F7
  5
2C6
331
27D
  5
52F
331
2B8
  5
3B9
331
2F3
  5
2CA
331
194
  5
537
331
548
  5
545
331
10A
  5
53A
331
35D
  5
2BA
331
416
  5
2B5
331
2EF
  5
2CE
331
2B4
  5
444
331
2EB
  5
2D2
331
2B0
  5
4CF
331
4CF
  5
2B0
331
2E7
  5
2D6
331
2AC
  5
52D
331
2E3
  5
2DA
331
544
  5
6E
331
540
  5
79
331
53C
  5
AE
331
1C3
  5
535
331
538
  5
166
331
1F2
  5
533
331
78
  5
541
331
2DF
  5
2DE
331
2DB
  5
2E2
331
4FE
  5
2AE
331
2D7
  5
2E6
331
2D3
  5
2EA
331
534
  5
1F1
331
530
  5
24F
331
52C
  5
2AD
  0
XRECORD
  5
600
102
{ACAD_REACTORS
330
5FF
102
}
330
5FF
100
AcDbXrecord
280
     1
 70
     1
  0
XRECORD
  5
602
102
{ACAD_REACTORS
330
5FF
102
}
330
5FF
100
AcDbXrecord
280
     1
340
24
  0
XRECORD
  5
603
102
{ACAD_REACTORS
330
5FF
102
}
330
5FF
100
AcDbXrecord
280
     1
340
24
  0
XRECORD
  5
601
102
{ACAD_REACTORS
330
5FF
102
}
330
5FF
100
AcDbXrecord
280
     1
340
24
  0
LAYOUT
  5
D
102
{ACAD_XDICTIONARY
360
606
102
}
102
{ACAD_REACTORS
330
8
102
}
330
8
100
AcDbPlotSettings
  1

  2
\\le-server\HP LaserJet 2100
  4

  6

 40
0.0
 41
0.0
 42
0.0
 43
0.0
 44
0.0
 45
0.0
 46
0.0
 47
0.0
 48
0.0
 49
0.0
140
0.0
141
0.0
142
1.0
143
1.0
 70
   688
 72
     0
 73
     0
 74
     5
  7

 75
    16
147
1.0
148
0.0
149
0.0
100
AcDbLayout
  1
Layout1
 70
     1
 71
     1
 10
0.0
 20
0.0
 11
1189.0
 21
840.9999999999998
 12
0.0
 22
0.0
 32
0.0
 14
0.0
 24
0.0
 34
0.0
 15
1189.0
 25
840.9999999999998
 35
0.0
146
0.0
 13
0.0
 23
0.0
 33
0.0
 16
1.0
 26
0.0
 36
0.0
 17
0.0
 27
1.0
 37
0.0
 76
     0
330
A
  0
LAYOUT
  5
7
102
{ACAD_XDICTIONARY
360
604
102
}
102
{ACAD_REACTORS
330
8
102
}
330
8
100
AcDbPlotSettings
  1

  2
\\le-server\HP LaserJet 2100
  4

  6

 40
0.0
 41
0.0
 42
0.0
 43
0.0
 44
0.0
 45
0.0
 46
0.0
 47
0.0
 48
0.0
 49
0.0
140
0.0
141
0.0
142
1.0
143
1.0
 70
  1712
 72
     0
 73
     0
 74
     0
  7

 75
     0
147
1.0
148
0.0
149
0.0
100
AcDbLayout
  1
Model
 70
     1
 71
     0
 10
0.0
 20
0.0
 11
12.0
 21
9.0
 12
0.0
 22
0.0
 32
0.0
 14
0.0
 24
0.0
 34
0.0
 15
0.0
 25
0.0
 35
0.0
146
0.0
 13
0.0
 23
0.0
 33
0.0
 16
1.0
 26
0.0
 36
0.0
 17
0.0
 27
1.0
 37
0.0
 76
     0
330
2
331
29
  0
MATERIAL
  5
3C
102
{ACAD_XDICTIONARY
360
3D
102
}
102
{ACAD_REACTORS
330
13
102
}
330
13
100
AcDbMaterial
  1
ByBlock
 72
     0
 43
0.0208333333333333
 43
0.0
 43
0.0
 43
0.0
 43
0.0
 43
0.0208333333333333
 43
0.0
 43
0.0
 43
0.0
 43
0.0
 43
1.0
 43
0.0
 43
0.0
 43
0.0
 43
0.0
 43
1.0
 77
     0
 47
0.0208333333333333
 47
0.0
 47
0.0
 47
0.0
 47
0.0
 47
0.0208333333333333
 47
0.0
 47
0.0
 47
0.0
 47
0.0
 47
1.0
 47
0.0
 47
0.0
 47
0.0
 47
0.0
 47
1.0
171
     0
 49
0.0208333333333333
 49
0.0
 49
0.0
 49
0.0
 49
0.0
 49
0.0208333333333333
 49
0.0
 49
0.0
 49
0.0
 49
0.0
 49
1.0
 49
0.0
 49
0.0
 49
0.0
 49
0.0
 49
1.0
175
     0
142
0.0208333333333333
142
0.0
142
0.0
142
0.0
142
0.0
142
0.0208333333333333
142
0.0
142
0.0
142
0.0
142
0.0
142
1.0
142
0.0
142
0.0
142
0.0
142
0.0
142
1.0
179
     0
144
0.0208333333333333
144
0.0
144
0.0
144
0.0
144
0.0
144
0.0208333333333333
144
0.0
144
0.0
144
0.0
144
0.0
144
1.0
144
0.0
144
0.0
144
0.0
144
0.0
144
1.0
147
0.0208333333333333
147
0.0
147
0.0
147
0.0
147
0.0
147
0.0208333333333333
147
0.0
147
0.0
147
0.0
147
0.0
147
1.0
147
0.0
147
0.0
147
0.0
147
0.0
147
1.0
  0
MATERIAL
  5
34
102
{ACAD_XDICTIONARY
360
35
102
}
102
{ACAD_REACTORS
330
13
102
}
330
13
100
AcDbMaterial
  1
ByLayer
 72
     0
 43
0.0208333333333333
 43
0.0
 43
0.0
 43
0.0
 43
0.0
 43
0.0208333333333333
 43
0.0
 43
0.0
 43
0.0
 43
0.0
 43
1.0
 43
0.0
 43
0.0
 43
0.0
 43
0.0
 43
1.0
 77
     0
 47
0.0208333333333333
 47
0.0
 47
0.0
 47
0.0
 47
0.0
 47
0.0208333333333333
 47
0.0
 47
0.0
 47
0.0
 47
0.0
 47
1.0
 47
0.0
 47
0.0
 47
0.0
 47
0.0
 47
1.0
171
     0
 49
0.0208333333333333
 49
0.0
 49
0.0
 49
0.0
 49
0.0
 49
0.0208333333333333
 49
0.0
 49
0.0
 49
0.0
 49
0.0
 49
1.0
 49
0.0
 49
0.0
 49
0.0
 49
0.0
 49
1.0
175
     0
142
0.0208333333333333
142
0.0
142
0.0
142
0.0
142
0.0
142
0.0208333333333333
142
0.0
142
0.0
142
0.0
142
0.0
142
1.0
142
0.0
142
0.0
142
0.0
142
0.0
142
1.0
179
     0
144
0.0208333333333333
144
0.0
144
0.0
144
0.0
144
0.0
144
0.0208333333333333
144
0.0
144
0.0
144
0.0
144
0.0
144
1.0
144
0.0
144
0.0
144
0.0
144
0.0
144
1.0
147
0.0208333333333333
147
0.0
147
0.0
147
0.0
147
0.0
147
0.0208333333333333
147
0.0
147
0.0
147
0.0
147
0.0
147
1.0
147
0.0
147
0.0
147
0.0
147
0.0
147
1.0
  0
MATERIAL
  5
12
102
{ACAD_XDICTIONARY
360
14
102
}
102
{ACAD_REACTORS
330
13
102
}
330
13
100
AcDbMaterial
  1
Global
 72
     0
 43
0.0208333333333333
 43
0.0
 43
0.0
 43
0.0
 43
0.0
 43
0.0208333333333333
 43
0.0
 43
0.0
 43
0.0
 43
0.0
 43
1.0
 43
0.0
 43
0.0
 43
0.0
 43
0.0
 43
1.0
 77
     0
 47
0.0208333333333333
 47
0.0
 47
0.0
 47
0.0
 47
0.0
 47
0.0208333333333333
 47
0.0
 47
0.0
 47
0.0
 47
0.0
 47
1.0
 47
0.0
 47
0.0
 47
0.0
 47
0.0
 47
1.0
171
     0
 49
0.0208333333333333
 49
0.0
 49
0.0
 49
0.0
 49
0.0
 49
0.0208333333333333
 49
0.0
 49
0.0
 49
0.0
 49
0.0
 49
1.0
 49
0.0
 49
0.0
 49
0.0
 49
0.0
 49
1.0
175
     0
142
0.0208333333333333
142
0.0
142
0.0
142
0.0
142
0.0
142
0.0208333333333333
142
0.0
142
0.0
142
0.0
142
0.0
142
1.0
142
0.0
142
0.0
142
0.0
142
0.0
142
1.0
179
     0
144
0.0208333333333333
144
0.0
144
0.0
144
0.0
144
0.0
144
0.0208333333333333
144
0.0
144
0.0
144
0.0
144
0.0
144
1.0
144
0.0
144
0.0
144
0.0
144
0.0
144
1.0
147
0.0208333333333333
147
0.0
147
0.0
147
0.0
147
0.0
147
0.0208333333333333
147
0.0
147
0.0
147
0.0
147
0.0
147
1.0
147
0.0
147
0.0
147
0.0
147
0.0
147
1.0
  0
MLEADERSTYLE
  5
5C6
102
{ACAD_REACTORS
330
47
102
}
330
47
100
AcDbMLeaderStyle
170
     2
171
     1
172
     0
 90
        2
 40
0.0
 41
0.0
173
     1
 91
-1056964608
340
24
 92
       -2
290
     1
 42
2.0
291
     1
 43
0.36
  3
Standard
 44
4.0
300

342
21
174
     1
178
     6
175
     1
176
     0
 93
-1056964608
 45
4.0
292
     0
297
     0
 46
4.0
 94
-1056964608
 47
1.0
 49
1.0
140
1.0
293
     1
141
0.0
294
     1
177
     0
142
1.0
295
     0
296
     0
143
0.125
1001
ACAD_MLEADERVER
1070
     2
  0
MLINESTYLE
  5
48
102
{ACAD_REACTORS
330
32
102
}
330
32
100
AcDbMlineStyle
  2
STANDARD
 70
     0
  3

 62
   256
 51
90.0
 52
90.0
 71
     2
 49
0.5
 62
   256
  6
BYLAYER
 49
-0.5
 62
   256
  6
BYLAYER
  0
ACDBPLACEHOLDER
  5
10
102
{ACAD_REACTORS
330
11
102
}
330
11
  0
SCALE
  5
4D
102
{ACAD_REACTORS
330
45
102
}
330
45
100
AcDbScale
 70
     0
300
1:1
140
1.0
141
1.0
290
     1
  0
SCALE
  5
4E
102
{ACAD_REACTORS
330
45
102
}
330
45
100
AcDbScale
 70
     0
300
1:2
140
1.0
141
2.0
290
     0
  0
SCALE
  5
4F
102
{ACAD_REACTORS
330
45
102
}
330
45
100
AcDbScale
 70
     0
300
1:4
140
1.0
141
4.0
290
     0
  0
SCALE
  5
50
102
{ACAD_REACTORS
330
45
102
}
330
45
100
AcDbScale
 70
     0
300
1:5
140
1.0
141
5.0
290
     0
  0
SCALE
  5
51
102
{ACAD_REACTORS
330
45
102
}
330
45
100
AcDbScale
 70
     0
300
1:8
140
1.0
141
8.0
290
     0
  0
SCALE
  5
52
102
{ACAD_REACTORS
330
45
102
}
330
45
100
AcDbScale
 70
     0
300
1:10
140
1.0
141
10.0
290
     0
  0
SCALE
  5
53
102
{ACAD_REACTORS
330
45
102
}
330
45
100
AcDbScale
 70
     0
300
1:16
140
1.0
141
16.0
290
     0
  0
SCALE
  5
54
102
{ACAD_REACTORS
330
45
102
}
330
45
100
AcDbScale
 70
     0
300
1:20
140
1.0
141
20.0
290
     0
  0
SCALE
  5
55
102
{ACAD_REACTORS
330
45
102
}
330
45
100
AcDbScale
 70
     0
300
1:30
140
1.0
141
30.0
290
     0
  0
SCALE
  5
56
102
{ACAD_REACTORS
330
45
102
}
330
45
100
AcDbScale
 70
     0
300
1:40
140
1.0
141
40.0
290
     0
  0
SCALE
  5
57
102
{ACAD_REACTORS
330
45
102
}
330
45
100
AcDbScale
 70
     0
300
1:50
140
1.0
141
50.0
290
     0
  0
SCALE
  5
58
102
{ACAD_REACTORS
330
45
102
}
330
45
100
AcDbScale
 70
     0
300
1:100
140
1.0
141
100.0
290
     0
  0
SCALE
  5
59
102
{ACAD_REACTORS
330
45
102
}
330
45
100
AcDbScale
 70
     0
300
2:1
140
2.0
141
1.0
290
     0
  0
SCALE
  5
5A
102
{ACAD_REACTORS
330
45
102
}
330
45
100
AcDbScale
 70
     0
300
4:1
140
4.0
141
1.0
290
     0
  0
SCALE
  5
5B
102
{ACAD_REACTORS
330
45
102
}
330
45
100
AcDbScale
 70
     0
300
8:1
140
8.0
141
1.0
290
     0
  0
SCALE
  5
5C
102
{ACAD_REACTORS
330
45
102
}
330
45
100
AcDbScale
 70
     0
300
10:1
140
10.0
141
1.0
290
     0
  0
SCALE
  5
5D
102
{ACAD_REACTORS
330
45
102
}
330
45
100
AcDbScale
 70
     0
300
100:1
140
100.0
141
1.0
290
     0
  0
SCALE
  5
5E
102
{ACAD_REACTORS
330
45
102
}
330
45
100
AcDbScale
 70
     0
300
1/128" = 1'-0"
140
0.0078125
141
12.0
290
     0
  0
SCALE
  5
5F
102
{ACAD_REACTORS
330
45
102
}
330
45
100
AcDbScale
 70
     0
300
1/64" = 1'-0"
140
0.015625
141
12.0
290
     0
  0
SCALE
  5
60
102
{ACAD_REACTORS
330
45
102
}
330
45
100
AcDbScale
 70
     0
300
1/32" = 1'-0"
140
0.03125
141
12.0
290
     0
  0
SCALE
  5
61
102
{ACAD_REACTORS
330
45
102
}
330
45
100
AcDbScale
 70
     0
300
1/16" = 1'-0"
140
0.0625
141
12.0
290
     0
  0
SCALE
  5
62
102
{ACAD_REACTORS
330
45
102
}
330
45
100
AcDbScale
 70
     0
300
3/32" = 1'-0"
140
0.09375
141
12.0
290
     0
  0
SCALE
  5
63
102
{ACAD_REACTORS
330
45
102
}
330
45
100
AcDbScale
 70
     0
300
1/8" = 1'-0"
140
0.125
141
12.0
290
     0
  0
SCALE
  5
64
102
{ACAD_REACTORS
330
45
102
}
330
45
100
AcDbScale
 70
     0
300
3/16" = 1'-0"
140
0.1875
141
12.0
290
     0
  0
SCALE
  5
65
102
{ACAD_REACTORS
330
45
102
}
330
45
100
AcDbScale
 70
     0
300
1/4" = 1'-0"
140
0.25
141
12.0
290
     0
  0
SCALE
  5
66
102
{ACAD_REACTORS
330
45
102
}
330
45
100
AcDbScale
 70
     0
300
3/8" = 1'-0"
140
0.375
141
12.0
290
     0
  0
SCALE
  5
67
102
{ACAD_REACTORS
330
45
102
}
330
45
100
AcDbScale
 70
     0
300
1/2" = 1'-0"
140
0.5
141
12.0
290
     0
  0
SCALE
  5
68
102
{ACAD_REACTORS
330
45
102
}
330
45
100
AcDbScale
 70
     0
300
3/4" = 1'-0"
140
0.75
141
12.0
290
     0
  0
SCALE
  5
69
102
{ACAD_REACTORS
330
45
102
}
330
45
100
AcDbScale
 70
     0
300
1" = 1'-0"
140
1.0
141
12.0
290
     0
  0
SCALE
  5
6A
102
{ACAD_REACTORS
330
45
102
}
330
45
100
AcDbScale
 70
     0
300
1-1/2" = 1'-0"
140
1.5
141
12.0
290
     0
  0
SCALE
  5
6B
102
{ACAD_REACTORS
330
45
102
}
330
45
100
AcDbScale
 70
     0
300
3" = 1'-0"
140
3.0
141
12.0
290
     0
  0
SCALE
  5
6C
102
{ACAD_REACTORS
330
45
102
}
330
45
100
AcDbScale
 70
     0
300
6" = 1'-0"
140
6.0
141
12.0
290
     0
  0
SCALE
  5
6D
102
{ACAD_REACTORS
330
45
102
}
330
45
100
AcDbScale
 70
     0
300
1'-0" = 1'-0"
140
12.0
141
12.0
290
     0
  0
TABLESTYLE
  5
49
102
{ACAD_XDICTIONARY
360
4A
102
}
102
{ACAD_REACTORS
330
46
102
}
330
46
100
AcDbTableStyle
  3
Standard
 70
     0
 71
     0
 40
0.06
 41
0.06
280
     0
281
     0
  7
STANDARD
140
0.18
170
     2
 62
     0
 63
     7
283
     0
274
    -2
284
     1
 64
     0
275
    -2
285
     1
 65
     0
276
    -2
286
     1
 66
     0
277
    -2
287
     1
 67
     0
278
    -2
288
     1
 68
     0
279
    -2
289
     1
 69
     0
  7
STANDARD
140
0.25
170
     5
 62
     0
 63
     7
283
     0
274
    -2
284
     1
 64
     0
275
    -2
285
     1
 65
     0
276
    -2
286
     1
 66
     0
277
    -2
287
     1
 67
     0
278
    -2
288
     1
 68
     0
279
    -2
289
     1
 69
     0
  7
STANDARD
140
0.18
170
     5
 62
     0
 63
     7
283
     0
274
    -2
284
     1
 64
     0
275
    -2
285
     1
 65
     0
276
    -2
286
     1
 66
     0
277
    -2
287
     1
 67
     0
278
    -2
288
     1
 68
     0
279
    -2
289
     1
 69
     0
  0
VISUALSTYLE
  5
2A
102
{ACAD_XDICTIONARY
360
609
102
}
102
{ACAD_REACTORS
330
2B
102
}
330
2B
100
AcDbVisualStyle
  2
2dWireframe
 70
     4
 71
     0
 72
     2
 73
     0
 90
        0
 40
-0.6
 41
-30.0
 62
     5
 63
     7
 74
     1
 91
        4
 64
     7
 65
   257
 75
     1
175
     1
 42
1.0
 92
        0
 66
   257
 43
1.0
 76
     1
 77
     6
 78
     2
 67
     7
 79
     5
170
     0
171
     0
290
     0
174
     0
 93
        1
 44
0.0
173
     0
291
     0
 45
0.0
1001
ACAD
1000
AcDbSavedByObjectVersion
1070
     0
  0
VISUALSTYLE
  5
5B5
102
{ACAD_XDICTIONARY
360
620
102
}
102
{ACAD_REACTORS
330
2B
102
}
330
2B
100
AcDbVisualStyle
  2
Basic
 70
     7
 71
     1
 72
     0
 73
     1
 90
        0
 40
-0.6
 41
-30.0
 62
     5
 63
     7
 74
     0
 91
        4
 64
     7
 65
   257
 75
     1
175
     1
 42
1.0
 92
        8
 66
     7
 43
1.0
 76
     1
 77
     6
 78
     2
 67
     7
 79
     5
170
     0
171
     0
290
     0
174
     0
 93
        1
 44
0.0
173
     0
291
     1
 45
0.0
1001
ACAD
1000
AcDbSavedByObjectVersion
1070
     0
  0
VISUALSTYLE
  5
5B9
102
{ACAD_XDICTIONARY
360
628
102
}
102
{ACAD_REACTORS
330
2B
102
}
330
2B
100
AcDbVisualStyle
  2
Brighten
 70
    12
 71
     2
 72
     2
 73
     0
 90
        0
 40
-0.6
 41
-30.0
 62
     5
 63
     7
 74
     1
 91
        4
 64
     7
 65
   257
 75
     1
175
     1
 42
1.0
 92
        8
 66
     7
 43
1.0
 76
     1
 77
     6
 78
     2
 67
     7
 79
     5
170
     0
171
     0
290
     0
174
     0
 93
        1
 44
50.0
173
     0
291
     1
 45
0.0
1001
ACAD
1000
AcDbSavedByObjectVersion
1070
     0
  0
VISUALSTYLE
  5
5BD
102
{ACAD_XDICTIONARY
360
630
102
}
102
{ACAD_REACTORS
330
2B
102
}
330
2B
100
AcDbVisualStyle
  2
ColorChange
 70
    16
 71
     2
 72
     2
 73
     3
 90
        0
 40
-0.6
 41
-30.0
 62
     5
 63
     8
 74
     1
 91
        4
 64
     7
 65
   257
 75
     1
175
     1
 42
1.0
 92
        8
 66
     8
 43
1.0
 76
     1
 77
     6
 78
     2
 67
     7
 79
     5
170
     0
171
     0
290
     0
174
     0
 93
        1
 44
0.0
173
     0
291
     1
 45
0.0
1001
ACAD
1000
AcDbSavedByObjectVersion
1070
     0
  0
VISUALSTYLE
  5
5B7
102
{ACAD_XDICTIONARY
360
624
102
}
102
{ACAD_REACTORS
330
2B
102
}
330
2B
100
AcDbVisualStyle
  2
Conceptual
 70
     9
 71
     3
 72
     2
 73
     0
 90
        0
 40
-0.6
 41
-30.0
 62
     5
 63
     7
 74
     2
 91
        2
 64
     7
 65
   257
 75
     1
175
     1
 42
179.0
 92
        8
 66
     7
 43
1.0
 76
     1
 77
     6
 78
     2
 67
     7
 79
     3
170
     0
171
     0
290
     0
174
     0
 93
        1
 44
0.0
173
     0
291
     0
 45
0.0
1001
ACAD
1000
AcDbSavedByObjectVersion
1070
     0
  0
VISUALSTYLE
  5
5B8
102
{ACAD_XDICTIONARY
360
626
102
}
102
{ACAD_REACTORS
330
2B
102
}
330
2B
100
AcDbVisualStyle
  2
Dim
 70
    11
 71
     2
 72
     2
 73
     0
 90
        0
 40
-0.6
 41
-30.0
 62
     5
 63
     7
 74
     1
 91
        4
 64
     7
 65
   257
 75
     1
175
     1
 42
1.0
 92
        8
 66
     7
 43
1.0
 76
     1
 77
     6
 78
     2
 67
     7
 79
     5
170
     0
171
     0
290
     0
174
     0
 93
        1
 44
-50.0
173
     0
291
     1
 45
0.0
1001
ACAD
1000
AcDbSavedByObjectVersion
1070
     0
  0
VISUALSTYLE
  5
5C5
102
{ACAD_XDICTIONARY
360
640
102
}
102
{ACAD_REACTORS
330
2B
102
}
330
2B
100
AcDbVisualStyle
  2
EdgeColorOff
 70
    22
 71
     2
 72
     2
 73
     0
 90
        0
 40
-0.6
 41
-30.0
 62
     5
 63
     7
 74
     1
 91
        4
 64
     7
 65
   257
 75
     1
175
     1
 42
1.0
 92
        8
 66
     7
 43
1.0
 76
     1
 77
     6
 78
     2
 67
     7
 79
     5
170
     0
171
     0
290
     0
174
     0
 93
        1
 44
0.0
173
     0
291
     1
 45
0.0
1001
ACAD
1000
AcDbSavedByObjectVersion
1070
     0
  0
VISUALSTYLE
  5
5BC
102
{ACAD_XDICTIONARY
360
62E
102
}
102
{ACAD_REACTORS
330
2B
102
}
330
2B
100
AcDbVisualStyle
  2
Facepattern
 70
    15
 71
     2
 72
     2
 73
     0
 90
        0
 40
-0.6
 41
-30.0
 62
     5
 63
     7
 74
     1
 91
        4
 64
     7
 65
   257
 75
     1
175
     1
 42
1.0
 92
        8
 66
     7
 43
1.0
 76
     1
 77
     6
 78
     2
 67
     7
 79
     5
170
     0
171
     0
290
     0
174
     0
 93
        1
 44
0.0
173
     0
291
     1
 45
0.0
1001
ACAD
1000
AcDbSavedByObjectVersion
1070
     0
  0
VISUALSTYLE
  5
5B1
102
{ACAD_XDICTIONARY
360
618
102
}
102
{ACAD_REACTORS
330
2B
102
}
330
2B
100
AcDbVisualStyle
  2
Flat
 70
     0
 71
     2
 72
     1
 73
     1
 90
        2
 40
-0.6
 41
30.0
 62
     5
 63
     7
 74
     0
 91
        0
 64
     7
 65
   257
 75
     1
175
     1
 42
1.0
 92
        8
 66
     7
 43
1.0
 76
     1
 77
     6
 78
     2
 67
     7
 79
     5
170
     0
171
     0
290
     0
174
     0
 93
       13
 44
0.0
173
     0
291
     1
 45
0.0
1001
ACAD
1000
AcDbSavedByObjectVersion
1070
     0
  0
VISUALSTYLE
  5
5B2
102
{ACAD_XDICTIONARY
360
61A
102
}
102
{ACAD_REACTORS
330
2B
102
}
330
2B
100
AcDbVisualStyle
  2
FlatWithEdges
 70
     1
 71
     2
 72
     1
 73
     1
 90
        2
 40
-0.6
 41
30.0
 62
     5
 63
     7
 74
     1
 91
        0
 64
     7
 65
   257
 75
     1
175
     1
 42
1.0
 92
        0
 66
   257
 43
1.0
 76
     1
 77
     6
 78
     2
 67
     7
 79
     5
170
     0
171
     0
290
     0
174
     0
 93
       13
 44
0.0
173
     0
291
     1
 45
0.0
1001
ACAD
1000
AcDbSavedByObjectVersion
1070
     0
  0
VISUALSTYLE
  5
5B3
102
{ACAD_XDICTIONARY
360
61C
102
}
102
{ACAD_REACTORS
330
2B
102
}
330
2B
100
AcDbVisualStyle
  2
Gouraud
 70
     2
 71
     2
 72
     2
 73
     1
 90
        2
 40
-0.6
 41
30.0
 62
     5
 63
     7
 74
     0
 91
        0
 64
     7
 65
   257
 75
     1
175
     1
 42
1.0
 92
        0
 66
     7
 43
1.0
 76
     1
 77
     6
 78
     2
 67
     7
 79
     5
170
     0
171
     0
290
     0
174
     0
 93
       13
 44
0.0
173
     0
291
     1
 45
0.0
1001
ACAD
1000
AcDbSavedByObjectVersion
1070
     0
  0
VISUALSTYLE
  5
5B4
102
{ACAD_XDICTIONARY
360
61E
102
}
102
{ACAD_REACTORS
330
2B
102
}
330
2B
100
AcDbVisualStyle
  2
GouraudWithEdges
 70
     3
 71
     2
 72
     2
 73
     1
 90
        2
 40
-0.6
 41
30.0
 62
     5
 63
     7
 74
     1
 91
        0
 64
     7
 65
   257
 75
     1
175
     1
 42
1.0
 92
        0
 66
   257
 43
1.0
 76
     1
 77
     6
 78
     2
 67
     7
 79
     5
170
     0
171
     0
290
     0
174
     0
 93
       13
 44
0.0
173
     0
291
     1
 45
0.0
1001
ACAD
1000
AcDbSavedByObjectVersion
1070
     0
  0
VISUALSTYLE
  5
5B6
102
{ACAD_XDICTIONARY
360
622
102
}
102
{ACAD_REACTORS
330
2B
102
}
330
2B
100
AcDbVisualStyle
  2
Hidden
 70
     6
 71
     1
 72
     2
 73
     2
 90
        0
 40
-0.6
 41
-30.0
 62
     5
 63
     7
 74
     2
 91
        2
 64
     7
 65
   257
 75
     2
175
     1
 42
40.0
 92
        0
 66
   257
 43
1.0
 76
     1
 77
     6
 78
     2
 67
     7
 79
     3
170
     0
171
     0
290
     0
174
     0
 93
        1
 44
0.0
173
     0
291
     0
 45
0.0
1001
ACAD
1000
AcDbSavedByObjectVersion
1070
     0
  0
VISUALSTYLE
  5
5C3
102
{ACAD_XDICTIONARY
360
63C
102
}
102
{ACAD_REACTORS
330
2B
102
}
330
2B
100
AcDbVisualStyle
  2
JitterOff
 70
    20
 71
     2
 72
     2
 73
     0
 90
        0
 40
-0.6
 41
-30.0
 62
     5
 63
     7
 74
     1
 91
        4
 64
     7
 65
   257
 75
     1
175
     1
 42
1.0
 92
       10
 66
     7
 43
1.0
 76
     1
 77
     6
 78
     2
 67
     7
 79
     5
170
     0
171
     0
290
     0
174
     0
 93
        1
 44
0.0
173
     0
291
     1
 45
0.0
1001
ACAD
1000
AcDbSavedByObjectVersion
1070
     0
  0
VISUALSTYLE
  5
5BB
102
{ACAD_XDICTIONARY
360
62C
102
}
102
{ACAD_REACTORS
330
2B
102
}
330
2B
100
AcDbVisualStyle
  2
Linepattern
 70
    14
 71
     2
 72
     2
 73
     0
 90
        0
 40
-0.6
 41
-30.0
 62
     5
 63
     7
 74
     1
 91
        4
 64
     7
 65
   257
 75
     7
175
     7
 42
1.0
 92
        8
 66
     7
 43
1.0
 76
     1
 77
     6
 78
     2
 67
     7
 79
     5
170
     0
171
     0
290
     0
174
     0
 93
        1
 44
0.0
173
     0
291
     1
 45
0.0
1001
ACAD
1000
AcDbSavedByObjectVersion
1070
     0
  0
VISUALSTYLE
  5
5C4
102
{ACAD_XDICTIONARY
360
63E
102
}
102
{ACAD_REACTORS
330
2B
102
}
330
2B
100
AcDbVisualStyle
  2
OverhangOff
 70
    21
 71
     2
 72
     2
 73
     0
 90
        0
 40
-0.6
 41
-30.0
 62
     5
 63
     7
 74
     1
 91
        4
 64
     7
 65
   257
 75
     1
175
     1
 42
1.0
 92
        9
 66
     7
 43
1.0
 76
     1
 77
     6
 78
     2
 67
     7
 79
     5
170
     0
171
     0
290
     0
174
     0
 93
        1
 44
0.0
173
     0
291
     1
 45
0.0
1001
ACAD
1000
AcDbSavedByObjectVersion
1070
     0
  0
VISUALSTYLE
  5
4B
102
{ACAD_XDICTIONARY
360
60E
102
}
102
{ACAD_REACTORS
330
2B
102
}
330
2B
100
AcDbVisualStyle
  2
Realistic
 70
     8
 71
     2
 72
     2
 73
     0
 90
        0
 40
-0.6
 41
-30.0
 62
     5
 63
     7
 74
     1
 91
        0
 64
     7
 65
   257
 75
     1
175
     1
 42
1.0
 92
        8
 66
     8
 43
1.0
 76
     1
 77
     6
 78
     2
 67
     7
 79
     5
170
     0
171
     0
290
     0
174
     0
 93
       13
 44
0.0
173
     0
291
     0
 45
0.0
1001
ACAD
1000
AcDbSavedByObjectVersion
1070
     0
  0
VISUALSTYLE
  5
5C2
102
{ACAD_XDICTIONARY
360
63A
102
}
102
{ACAD_REACTORS
330
2B
102
}
330
2B
100
AcDbVisualStyle
  2
Shaded
 70
    27
 71
     2
 72
     2
 73
     1
 90
        2
 40
-0.6
 41
30.0
 62
     5
 63
     7
 74
     0
 91
        4
 64
     7
 65
   257
 75
     1
175
     1
 42
1.0
 92
        8
 66
   257
 43
1.0
 76
     1
 77
     6
 78
     2
 67
     8
 79
     3
170
     0
171
     0
290
     0
174
     0
 93
        5
 44
0.0
173
     0
291
     0
 45
0.0
1001
ACAD
1000
AcDbSavedByObjectVersion
1070
     0
  0
VISUALSTYLE
  5
5C1
102
{ACAD_XDICTIONARY
360
638
102
}
102
{ACAD_REACTORS
330
2B
102
}
330
2B
100
AcDbVisualStyle
  2
Shaded with edges
 70
    26
 71
     2
 72
     2
 73
     1
 90
        2
 40
-0.6
 41
30.0
 62
     5
 63
     7
 74
     1
 91
       10
 64
     7
 65
   257
 75
     2
175
     1
 42
1.0
 92
        8
 66
   257
 43
1.0
 76
     1
 77
     6
 78
     2
 67
     7
 79
     3
170
     0
171
     0
290
     0
174
     0
 93
        5
 44
0.0
173
     0
291
     0
 45
0.0
1001
ACAD
1000
AcDbSavedByObjectVersion
1070
     0
  0
VISUALSTYLE
  5
5BE
102
{ACAD_XDICTIONARY
360
632
102
}
102
{ACAD_REACTORS
330
2B
102
}
330
2B
100
AcDbVisualStyle
  2
Shades of Gray
 70
    23
 71
     2
 72
     2
 73
     3
 90
        0
 40
-0.6
 41
-30.0
 62
     5
 63
     7
 74
     2
 91
        2
 64
     7
 65
     7
 75
     1
175
     1
 42
40.0
 92
        8
 66
     7
 43
1.0
 76
     1
 77
     6
 78
     2
 67
     7
 79
     3
170
     0
171
     0
290
     0
174
     0
 93
        1
 44
0.0
173
     0
291
     0
 45
0.0
1001
ACAD
1000
AcDbSavedByObjectVersion
1070
     0
  0
VISUALSTYLE
  5
5BF
102
{ACAD_XDICTIONARY
360
634
102
}
102
{ACAD_REACTORS
330
2B
102
}
330
2B
100
AcDbVisualStyle
  2
Sketchy
 70
    24
 71
     1
 72
     2
 73
     2
 90
        0
 40
-0.6
 41
-30.0
 62
     5
 63
     7
 74
     2
 91
        2
 64
     7
 65
     7
 75
     1
175
     1
 42
40.0
 92
       11
 66
     7
 43
1.0
 76
     1
 77
     6
 78
     2
 67
     7
 79
     6
170
     0
171
     0
290
     0
174
     0
 93
        1
 44
0.0
173
     0
291
     0
 45
0.0
1001
ACAD
1000
AcDbSavedByObjectVersion
1070
     0
  0
VISUALSTYLE
  5
5BA
102
{ACAD_XDICTIONARY
360
62A
102
}
102
{ACAD_REACTORS
330
2B
102
}
330
2B
100
AcDbVisualStyle
  2
Thicken
 70
    13
 71
     2
 72
     2
 73
     0
 90
        0
 40
-0.6
 41
-30.0
 62
     5
 63
     7
 74
     1
 91
        4
 64
     7
 65
   257
 75
     1
175
     1
 42
1.0
 92
       12
 66
     7
 43
1.0
 76
     1
 77
     6
 78
     2
 67
     7
 79
     5
170
     0
171
     0
290
     0
174
     0
 93
        1
 44
0.0
173
     0
291
     1
 45
0.0
1001
ACAD
1000
AcDbSavedByObjectVersion
1070
     0
  0
VISUALSTYLE
  5
4C
102
{ACAD_XDICTIONARY
360
610
102
}
102
{ACAD_REACTORS
330
2B
102
}
330
2B
100
AcDbVisualStyle
  2
Wireframe
 70
     5
 71
     0
 72
     2
 73
     0
 90
        0
 40
-0.6
 41
-30.0
 62
     5
 63
     7
 74
     1
 91
        4
 64
     7
 65
   257
 75
     1
175
     1
 42
1.0
 92
        0
 66
   257
 43
1.0
 76
     1
 77
     6
 78
     2
 67
     7
 79
     3
170
     0
171
     0
290
     0
174
     0
 93
        1
 44
0.0
173
     0
291
     0
 45
0.0
1001
ACAD
1000
AcDbSavedByObjectVersion
1070
     0
  0
VISUALSTYLE
  5
5C0
102
{ACAD_XDICTIONARY
360
636
102
}
102
{ACAD_REACTORS
330
2B
102
}
330
2B
100
AcDbVisualStyle
  2
X-Ray
 70
    25
 71
     2
 72
     2
 73
     1
 90
        1
 40
0.5
 41
-30.0
 62
     5
 63
     7
 74
     1
 91
        0
 64
     7
 65
   257
 75
     1
175
     1
 42
1.0
 92
        8
 66
     7
 43
1.0
 76
     1
 77
     6
 78
     2
 67
     7
 79
     3
170
     0
171
     0
290
     0
174
     0
 93
       13
 44
0.0
173
     0
291
     0
 45
0.0
1001
ACAD
1000
AcDbSavedByObjectVersion
1070
     0
  0
DICTIONARYVAR
  5
5AC
102
{ACAD_REACTORS
330
5A8
102
}
330
5A8
100
DictionaryVariables
280
     0
  1
1:1
  0
DICTIONARYVAR
  5
5AA
102
{ACAD_REACTORS
330
5A8
102
}
330
5A8
100
DictionaryVariables
280
     0
  1
STANDARD
  0
DICTIONARYVAR
  5
5A9
102
{ACAD_REACTORS
330
5A8
102
}
330
5A8
100
DictionaryVariables
280
     0
  1
STANDARD
  0
DICTIONARYVAR
  5
5FB
102
{ACAD_REACTORS
330
5A8
102
}
330
5A8
100
DictionaryVariables
280
     0
  1
1
  0
DICTIONARYVAR
  5
5FA
102
{ACAD_REACTORS
330
5A8
102
}
330
5A8
100
DictionaryVariables
280
     0
  1
1
  0
DICTIONARYVAR
  5
5F9
102
{ACAD_REACTORS
330
5A8
102
}
330
5A8
100
DictionaryVariables
280
     0
  1
0
  0
DICTIONARYVAR
  5
5AE
102
{ACAD_REACTORS
330
5A8
102
}
330
5A8
100
DictionaryVariables
280
     0
  1
1
  0
DICTIONARYVAR
  5
5AF
102
{ACAD_REACTORS
330
5A8
102
}
330
5A8
100
DictionaryVariables
280
     0
  1
15
  0
DICTIONARYVAR
  5
5AD
102
{ACAD_REACTORS
330
5A8
102
}
330
5A8
100
DictionaryVariables
280
     0
  1
0
  0
DICTIONARYVAR
  5
5AB
102
{ACAD_REACTORS
330
5A8
102
}
330
5A8
100
DictionaryVariables
280
     0
  1
0
  0
DICTIONARYVAR
  5
5F8
102
{ACAD_REACTORS
330
5A8
102
}
330
5A8
100
DictionaryVariables
280
     0
  1
127
  0
DICTIONARYVAR
  5
5FC
102
{ACAD_REACTORS
330
5A8
102
}
330
5A8
100
DictionaryVariables
280
     0
  1
2
  0
DICTIONARY
  5
55C
102
{ACAD_REACTORS
330
55B
102
}
330
55B
100
AcDbDictionary
281
     1
  0
DICTIONARY
  5
556
102
{ACAD_REACTORS
330
54C
102
}
330
54C
100
AcDbDictionary
281
     1
  3
DWGSETTINGS
350
555
  3
TRANSSETTINGS
350
557
  0
DICTIONARY
  5
606
330
D
100
AcDbDictionary
280
     1
281
     1
  3
ACAD_XREC_ROUNDTRIP
360
607
  0
DICTIONARY
  5
604
330
7
100
AcDbDictionary
280
     1
281
     1
  3
ACAD_XREC_ROUNDTRIP
360
605
  0
DICTIONARY
  5
3D
330
3C
100
AcDbDictionary
280
     1
281
     1
  3
ACAD_XREC_ROUNDTRIP
360
60C
  3
BUMPTILE
360
3E
  3
DIFFUSETILE
360
3F
  3
OPACITYTILE
360
40
  3
REFLECTIONTILE
360
41
  3
REFRACTIONTILE
360
42
  3
SPECULARTILE
360
43
  0
DICTIONARY
  5
35
330
34
100
AcDbDictionary
280
     1
281
     1
  3
ACAD_XREC_ROUNDTRIP
360
60B
  3
BUMPTILE
360
36
  3
DIFFUSETILE
360
37
  3
OPACITYTILE
360
38
  3
REFLECTIONTILE
360
39
  3
REFRACTIONTILE
360
3A
  3
SPECULARTILE
360
3B
  0
DICTIONARY
  5
14
330
12
100
AcDbDictionary
280
     1
281
     1
  3
ACAD_XREC_ROUNDTRIP
360
608
  3
BUMPTILE
360
15
  3
DIFFUSETILE
360
16
  3
OPACITYTILE
360
17
  3
REFLECTIONTILE
360
18
  3
REFRACTIONTILE
360
19
  3
SPECULARTILE
360
1A
  0
DICTIONARY
  5
4A
330
49
100
AcDbDictionary
280
     1
281
     1
  3
ACAD_ROUNDTRIP_2008_TABLESTYLE_CELLSTYLEMAP
360
5FD
  3
ACAD_XREC_ROUNDTRIP
360
60D
  0
DICTIONARY
  5
609
330
2A
100
AcDbDictionary
280
     1
281
     1
  3
ACAD_XREC_ROUNDTRIP
360
60A
  0
DICTIONARY
  5
620
330
5B5
100
AcDbDictionary
280
     1
281
     1
  3
ACAD_XREC_ROUNDTRIP
360
621
  0
DICTIONARY
  5
628
330
5B9
100
AcDbDictionary
280
     1
281
     1
  3
ACAD_XREC_ROUNDTRIP
360
629
  0
DICTIONARY
  5
630
330
5BD
100
AcDbDictionary
280
     1
281
     1
  3
ACAD_XREC_ROUNDTRIP
360
631
  0
DICTIONARY
  5
624
330
5B7
100
AcDbDictionary
280
     1
281
     1
  3
ACAD_XREC_ROUNDTRIP
360
625
  0
DICTIONARY
  5
626
330
5B8
100
AcDbDictionary
280
     1
281
     1
  3
ACAD_XREC_ROUNDTRIP
360
627
  0
DICTIONARY
  5
640
330
5C5
100
AcDbDictionary
280
     1
281
     1
  3
ACAD_XREC_ROUNDTRIP
360
641
  0
DICTIONARY
  5
62E
330
5BC
100
AcDbDictionary
280
     1
281
     1
  3
ACAD_XREC_ROUNDTRIP
360
62F
  0
DICTIONARY
  5
618
330
5B1
100
AcDbDictionary
280
     1
281
     1
  3
ACAD_XREC_ROUNDTRIP
360
619
  0
DICTIONARY
  5
61A
330
5B2
100
AcDbDictionary
280
     1
281
     1
  3
ACAD_XREC_ROUNDTRIP
360
61B
  0
DICTIONARY
  5
61C
330
5B3
100
AcDbDictionary
280
     1
281
     1
  3
ACAD_XREC_ROUNDTRIP
360
61D
  0
DICTIONARY
  5
61E
330
5B4
100
AcDbDictionary
280
     1
281
     1
  3
ACAD_XREC_ROUNDTRIP
360
61F
  0
DICTIONARY
  5
622
330
5B6
100
AcDbDictionary
280
     1
281
     1
  3
ACAD_XREC_ROUNDTRIP
360
623
  0
DICTIONARY
  5
63C
330
5C3
100
AcDbDictionary
280
     1
281
     1
  3
ACAD_XREC_ROUNDTRIP
360
63D
  0
DICTIONARY
  5
62C
330
5BB
100
AcDbDictionary
280
     1
281
     1
  3
ACAD_XREC_ROUNDTRIP
360
62D
  0
DICTIONARY
  5
63E
330
5C4
100
AcDbDictionary
280
     1
281
     1
  3
ACAD_XREC_ROUNDTRIP
360
63F
  0
DICTIONARY
  5
60E
330
4B
100
AcDbDictionary
280
     1
281
     1
  3
ACAD_XREC_ROUNDTRIP
360
60F
  0
DICTIONARY
  5
63A
330
5C2
100
AcDbDictionary
280
     1
281
     1
  3
ACAD_XREC_ROUNDTRIP
360
63B
  0
DICTIONARY
  5
638
330
5C1
100
AcDbDictionary
280
     1
281
     1
  3
ACAD_XREC_ROUNDTRIP
360
639
  0
DICTIONARY
  5
632
330
5BE
100
AcDbDictionary
280
     1
281
     1
  3
ACAD_XREC_ROUNDTRIP
360
633
  0
DICTIONARY
  5
634
330
5BF
100
AcDbDictionary
280
     1
281
     1
  3
ACAD_XREC_ROUNDTRIP
360
635
  0
DICTIONARY
  5
62A
330
5BA
100
AcDbDictionary
280
     1
281
     1
  3
ACAD_XREC_ROUNDTRIP
360
62B
  0
DICTIONARY
  5
610
330
4C
100
AcDbDictionary
280
     1
281
     1
  3
ACAD_XREC_ROUNDTRIP
360
611
  0
DICTIONARY
  5
636
330
5C0
100
AcDbDictionary
280
     1
281
     1
  3
ACAD_XREC_ROUNDTRIP
360
637
  0
XRECORD
  5
607
102
{ACAD_REACTORS
330
606
102
}
330
606
100
AcDbXrecord
280
     1
102
SHADEPLOT
 70
     0
102
SHADEPLOTRESLEVEL
 70
     2
102
SHADEPLOTCUSTOMDPI
 70
   300
  0
XRECORD
  5
605
102
{ACAD_REACTORS
330
604
102
}
330
604
100
AcDbXrecord
280
     1
102
SHADEPLOT
 70
     0
102
SHADEPLOTRESLEVEL
 70
     2
102
SHADEPLOTCUSTOMDPI
 70
   300
  0
XRECORD
  5
60C
102
{ACAD_REACTORS
330
3D
102
}
330
3D
100
AcDbXrecord
280
     1
102
MATERIAL
148
0.0
149
0.0
149
0.0
 93
        0
 94
      127
282
     0
 72
     0
 77
     0
171
     0
175
     0
179
     0
273
     0
  0
XRECORD
  5
3E
102
{ACAD_REACTORS
330
3D
102
}
330
3D
100
AcDbXrecord
280
     1
270
     1
271
     1
  0
XRECORD
  5
3F
102
{ACAD_REACTORS
330
3D
102
}
330
3D
100
AcDbXrecord
280
     1
270
     1
271
     1
  0
XRECORD
  5
40
102
{ACAD_REACTORS
330
3D
102
}
330
3D
100
AcDbXrecord
280
     1
270
     1
271
     1
  0
XRECORD
  5
41
102
{ACAD_REACTORS
330
3D
102
}
330
3D
100
AcDbXrecord
280
     1
270
     1
271
     1
  0
XRECORD
  5
42
102
{ACAD_REACTORS
330
3D
102
}
330
3D
100
AcDbXrecord
280
     1
270
     1
271
     1
  0
XRECORD
  5
43
102
{ACAD_REACTORS
330
3D
102
}
330
3D
100
AcDbXrecord
280
     1
270
     1
271
     1
  0
XRECORD
  5
60B
102
{ACAD_REACTORS
330
35
102
}
330
35
100
AcDbXrecord
280
     1
102
MATERIAL
148
0.0
149
0.0
149
0.0
 93
        0
 94
      127
282
     0
 72
     0
 77
     0
171
     0
175
     0
179
     0
273
     0
  0
XRECORD
  5
36
102
{ACAD_REACTORS
330
35
102
}
330
35
100
AcDbXrecord
280
     1
270
     1
271
     1
  0
XRECORD
  5
37
102
{ACAD_REACTORS
330
35
102
}
330
35
100
AcDbXrecord
280
     1
270
     1
271
     1
  0
XRECORD
  5
38
102
{ACAD_REACTORS
330
35
102
}
330
35
100
AcDbXrecord
280
     1
270
     1
271
     1
  0
XRECORD
  5
39
102
{ACAD_REACTORS
330
35
102
}
330
35
100
AcDbXrecord
280
     1
270
     1
271
     1
  0
XRECORD
  5
3A
102
{ACAD_REACTORS
330
35
102
}
330
35
100
AcDbXrecord
280
     1
270
     1
271
     1
  0
XRECORD
  5
3B
102
{ACAD_REACTORS
330
35
102
}
330
35
100
AcDbXrecord
280
     1
270
     1
271
     1
  0
XRECORD
  5
608
102
{ACAD_REACTORS
330
14
102
}
330
14
100
AcDbXrecord
280
     1
102
MATERIAL
148
0.0
149
0.0
149
0.0
 93
        0
 94
      127
282
     0
 72
     0
 77
     0
171
     0
175
     0
179
     0
273
     0
  0
XRECORD
  5
15
102
{ACAD_REACTORS
330
14
102
}
330
14
100
AcDbXrecord
280
     1
270
     1
271
     1
  0
XRECORD
  5
16
102
{ACAD_REACTORS
330
14
102
}
330
14
100
AcDbXrecord
280
     1
270
     1
271
     1
  0
XRECORD
  5
17
102
{ACAD_REACTORS
330
14
102
}
330
14
100
AcDbXrecord
280
     1
270
     1
271
     1
  0
XRECORD
  5
18
102
{ACAD_REACTORS
330
14
102
}
330
14
100
AcDbXrecord
280
     1
270
     1
271
     1
  0
XRECORD
  5
19
102
{ACAD_REACTORS
330
14
102
}
330
14
100
AcDbXrecord
280
     1
270
     1
271
     1
  0
XRECORD
  5
1A
102
{ACAD_REACTORS
330
14
102
}
330
14
100
AcDbXrecord
280
     1
270
     1
271
     1
  0
CELLSTYLEMAP
  5
5FD
102
{ACAD_REACTORS
330
4A
102
}
330
4A
100
AcDbCellStyleMap
 90
        3
300
CELLSTYLE
  1
TABLEFORMAT_BEGIN
 90
        5
170
     1
 91
        0
 92
    32768
 62
   257
 93
        1
300
CONTENTFORMAT
  1
CONTENTFORMAT_BEGIN
 90
        0
 91
        0
 92
      512
 93
        0
300

 40
0.0
140
1.0
 94
        5
 62
     0
340
21
144
0.25
309
CONTENTFORMAT_END
171
     0
 94
        0
309
TABLEFORMAT_END
  1
CELLSTYLE_BEGIN
 90
        1
 91
        1
300
_TITLE
309
CELLSTYLE_END
300
CELLSTYLE
  1
TABLEFORMAT_BEGIN
 90
        5
170
     1
 91
        0
 92
        0
 62
   257
 93
        1
300
CONTENTFORMAT
  1
CONTENTFORMAT_BEGIN
 90
        0
 91
        0
 92
      512
 93
        0
300

 40
0.0
140
1.0
 94
        5
 62
     0
340
21
144
0.18
309
CONTENTFORMAT_END
171
     0
 94
        0
309
TABLEFORMAT_END
  1
CELLSTYLE_BEGIN
 90
        2
 91
        1
300
_HEADER
309
CELLSTYLE_END
300
CELLSTYLE
  1
TABLEFORMAT_BEGIN
 90
        5
170
     1
 91
        0
 92
        0
 62
   257
 93
        1
300
CONTENTFORMAT
  1
CONTENTFORMAT_BEGIN
 90
        0
 91
        0
 92
      512
 93
        0
300

 40
0.0
140
1.0
 94
        2
 62
     0
340
21
144
0.18
309
CONTENTFORMAT_END
171
     0
 94
        0
309
TABLEFORMAT_END
  1
CELLSTYLE_BEGIN
 90
        3
 91
        2
300
_DATA
309
CELLSTYLE_END
  0
XRECORD
  5
60D
102
{ACAD_REACTORS
330
4A
102
}
330
4A
100
AcDbXrecord
280
     1
102
ACAD_ROUNDTRIP_PRE2007_TABLESTYLE
 90
      512
 91
        0
  1

 92
      512
 93
        0
  2

 94
      512
 95
        0
  3

  0
XRECORD
  5
60A
102
{ACAD_REACTORS
330
609
102
}
330
609
100
AcDbXrecord
280
     1
102
RTVSPropertyOp0
 70
     1
102
RTVSPropertyOp1
 70
     1
102
RTVSPropertyOp2
 70
     1
102
RTVSPropertyOp3
 70
     1
102
RTVSPropertyOp4
 70
     1
102
RTVSPropertyOp5
 70
     1
102
RTVSPropertyOp6
 70
     1
102
RTVSPropertyOp7
 70
     1
102
RTVSPropertyOp8
 70
     1
102
RTVSPropertyOp9
 70
     1
102
RTVSPropertyOp10
 70
     1
102
RTVSPropertyOp11
 70
     1
102
RTVSPropertyOp12
 70
     1
102
RTVSPropertyOp13
 70
     1
102
RTVSPropertyOp14
 70
     1
102
RTVSPropertyOp15
 70
     1
102
RTVSPropertyOp16
 70
     1
102
RTVSPropertyOp17
 70
     1
102
RTVSPropertyOp18
 70
     1
102
RTVSPropertyOp19
 70
     1
102
RTVSPropertyOp20
 70
     1
102
RTVSPropertyOp21
 70
     1
102
RTVSPropertyOp22
 70
     1
102
RTVSPropertyOp23
 70
     1
102
RTVSPropertyOp24
 70
     1
102
RTVSPropertyOp25
 70
     1
102
RTVSPropertyOp26
 70
     1
102
RTVSPropertyOp27
 70
     1
102
RTVSPropertyOp28
 70
     1
102
RTVSPropertyOp29
 70
     1
102
RTVSPropertyOp30
 70
     1
102
RTVSPropertyOp31
 70
     1
102
RTVSPropertyOp32
 70
     1
  0
XRECORD
  5
621
102
{ACAD_REACTORS
330
620
102
}
330
620
100
AcDbXrecord
280
     1
102
RTVSPropertyOp0
 70
     1
102
RTVSPropertyOp1
 70
     1
102
RTVSPropertyOp2
 70
     1
102
RTVSPropertyOp3
 70
     1
102
RTVSPropertyOp4
 70
     1
102
RTVSPropertyOp5
 70
     1
102
RTVSPropertyOp6
 70
     1
102
RTVSPropertyOp7
 70
     1
102
RTVSPropertyOp8
 70
     1
102
RTVSPropertyOp9
 70
     1
102
RTVSPropertyOp10
 70
     1
102
RTVSPropertyOp11
 70
     1
102
RTVSPropertyOp12
 70
     1
102
RTVSPropertyOp13
 70
     1
102
RTVSPropertyOp14
 70
     1
102
RTVSPropertyOp15
 70
     1
102
RTVSPropertyOp16
 70
     1
102
RTVSPropertyOp17
 70
     1
102
RTVSPropertyOp18
 70
     1
102
RTVSPropertyOp19
 70
     1
102
RTVSPropertyOp20
 70
     1
102
RTVSPropertyOp21
 70
     1
102
RTVSPropertyOp22
 70
     1
102
RTVSPropertyOp23
 70
     1
102
RTVSPropertyOp24
 70
     1
102
RTVSPropertyOp25
 70
     1
102
RTVSPropertyOp26
 70
     1
102
RTVSPropertyOp27
 70
     1
102
RTVSPropertyOp28
 70
     1
102
RTVSPropertyOp29
 70
     1
102
RTVSPropertyOp30
 70
     1
102
RTVSPropertyOp31
 70
     1
102
RTVSPropertyOp32
 70
     1
  0
XRECORD
  5
629
102
{ACAD_REACTORS
330
628
102
}
330
628
100
AcDbXrecord
280
     1
102
RTVSPropertyOp0
 70
     1
102
RTVSPropertyOp1
 70
     1
102
RTVSPropertyOp2
 70
     1
102
RTVSPropertyOp3
 70
     1
102
RTVSPropertyOp4
 70
     1
102
RTVSPropertyOp5
 70
     1
102
RTVSPropertyOp6
 70
     1
102
RTVSPropertyOp7
 70
     1
102
RTVSPropertyOp8
 70
     1
102
RTVSPropertyOp9
 70
     1
102
RTVSPropertyOp10
 70
     1
102
RTVSPropertyOp11
 70
     1
102
RTVSPropertyOp12
 70
     1
102
RTVSPropertyOp13
 70
     1
102
RTVSPropertyOp14
 70
     1
102
RTVSPropertyOp15
 70
     1
102
RTVSPropertyOp16
 70
     1
102
RTVSPropertyOp17
 70
     1
102
RTVSPropertyOp18
 70
     1
102
RTVSPropertyOp19
 70
     1
102
RTVSPropertyOp20
 70
     1
102
RTVSPropertyOp21
 70
     1
102
RTVSPropertyOp22
 70
     1
102
RTVSPropertyOp23
 70
     1
102
RTVSPropertyOp24
 70
     1
102
RTVSPropertyOp25
 70
     1
102
RTVSPropertyOp26
 70
     1
102
RTVSPropertyOp27
 70
     1
102
RTVSPropertyOp28
 70
     1
102
RTVSPropertyOp29
 70
     1
102
RTVSPropertyOp30
 70
     1
102
RTVSPropertyOp31
 70
     1
102
RTVSPropertyOp32
 70
     1
  0
XRECORD
  5
631
102
{ACAD_REACTORS
330
630
102
}
330
630
100
AcDbXrecord
280
     1
102
RTVSPropertyOp0
 70
     1
102
RTVSPropertyOp1
 70
     1
102
RTVSPropertyOp2
 70
     1
102
RTVSPropertyOp3
 70
     1
102
RTVSPropertyOp4
 70
     1
102
RTVSPropertyOp5
 70
     1
102
RTVSPropertyOp6
 70
     1
102
RTVSPropertyOp7
 70
     1
102
RTVSPropertyOp8
 70
     1
102
RTVSPropertyOp9
 70
     1
102
RTVSPropertyOp10
 70
     1
102
RTVSPropertyOp11
 70
     1
102
RTVSPropertyOp12
 70
     1
102
RTVSPropertyOp13
 70
     1
102
RTVSPropertyOp14
 70
     1
102
RTVSPropertyOp15
 70
     1
102
RTVSPropertyOp16
 70
     1
102
RTVSPropertyOp17
 70
     1
102
RTVSPropertyOp18
 70
     1
102
RTVSPropertyOp19
 70
     1
102
RTVSPropertyOp20
 70
     1
102
RTVSPropertyOp21
 70
     1
102
RTVSPropertyOp22
 70
     1
102
RTVSPropertyOp23
 70
     1
102
RTVSPropertyOp24
 70
     1
102
RTVSPropertyOp25
 70
     1
102
RTVSPropertyOp26
 70
     1
102
RTVSPropertyOp27
 70
     1
102
RTVSPropertyOp28
 70
     1
102
RTVSPropertyOp29
 70
     1
102
RTVSPropertyOp30
 70
     1
102
RTVSPropertyOp31
 70
     1
102
RTVSPropertyOp32
 70
     1
  0
XRECORD
  5
625
102
{ACAD_REACTORS
330
624
102
}
330
624
100
AcDbXrecord
280
     1
102
RTVSPropertyOp0
 70
     1
102
RTVSPropertyOp1
 70
     1
102
RTVSPropertyOp2
 70
     1
102
RTVSPropertyOp3
 70
     1
102
RTVSPropertyOp4
 70
     1
102
RTVSPropertyOp5
 70
     1
102
RTVSPropertyOp6
 70
     1
102
RTVSPropertyOp7
 70
     1
102
RTVSPropertyOp8
 70
     1
102
RTVSPropertyOp9
 70
     1
102
RTVSPropertyOp10
 70
     1
102
RTVSPropertyOp11
 70
     1
102
RTVSPropertyOp12
 70
     1
102
RTVSPropertyOp13
 70
     1
102
RTVSPropertyOp14
 70
     1
102
RTVSPropertyOp15
 70
     1
102
RTVSPropertyOp16
 70
     1
102
RTVSPropertyOp17
 70
     1
102
RTVSPropertyOp18
 70
     1
102
RTVSPropertyOp19
 70
     1
102
RTVSPropertyOp20
 70
     1
102
RTVSPropertyOp21
 70
     1
102
RTVSPropertyOp22
 70
     1
102
RTVSPropertyOp23
 70
     1
102
RTVSPropertyOp24
 70
     1
102
RTVSPropertyOp25
 70
     1
102
RTVSPropertyOp26
 70
     1
102
RTVSPropertyOp27
 70
     1
102
RTVSPropertyOp28
 70
     1
102
RTVSPropertyOp29
 70
     1
102
RTVSPropertyOp30
 70
     1
102
RTVSPropertyOp31
 70
     1
102
RTVSPropertyOp32
 70
     1
  0
XRECORD
  5
627
102
{ACAD_REACTORS
330
626
102
}
330
626
100
AcDbXrecord
280
     1
102
RTVSPropertyOp0
 70
     1
102
RTVSPropertyOp1
 70
     1
102
RTVSPropertyOp2
 70
     1
102
RTVSPropertyOp3
 70
     1
102
RTVSPropertyOp4
 70
     1
102
RTVSPropertyOp5
 70
     1
102
RTVSPropertyOp6
 70
     1
102
RTVSPropertyOp7
 70
     1
102
RTVSPropertyOp8
 70
     1
102
RTVSPropertyOp9
 70
     1
102
RTVSPropertyOp10
 70
     1
102
RTVSPropertyOp11
 70
     1
102
RTVSPropertyOp12
 70
     1
102
RTVSPropertyOp13
 70
     1
102
RTVSPropertyOp14
 70
     1
102
RTVSPropertyOp15
 70
     1
102
RTVSPropertyOp16
 70
     1
102
RTVSPropertyOp17
 70
     1
102
RTVSPropertyOp18
 70
     1
102
RTVSPropertyOp19
 70
     1
102
RTVSPropertyOp20
 70
     1
102
RTVSPropertyOp21
 70
     1
102
RTVSPropertyOp22
 70
     1
102
RTVSPropertyOp23
 70
     1
102
RTVSPropertyOp24
 70
     1
102
RTVSPropertyOp25
 70
     1
102
RTVSPropertyOp26
 70
     1
102
RTVSPropertyOp27
 70
     1
102
RTVSPropertyOp28
 70
     1
102
RTVSPropertyOp29
 70
     1
102
RTVSPropertyOp30
 70
     1
102
RTVSPropertyOp31
 70
     1
102
RTVSPropertyOp32
 70
     1
  0
XRECORD
  5
641
102
{ACAD_REACTORS
330
640
102
}
330
640
100
AcDbXrecord
280
     1
102
RTVSPropertyOp0
 70
     0
102
RTVSPropertyOp1
 70
     0
102
RTVSPropertyOp2
 70
     0
102
RTVSPropertyOp3
 70
     0
102
RTVSPropertyOp4
 70
     0
102
RTVSPropertyOp5
 70
     0
102
RTVSPropertyOp6
 70
     0
102
RTVSPropertyOp7
 70
     0
102
RTVSPropertyOp8
 70
     0
102
RTVSPropertyOp9
 70
     0
102
RTVSPropertyOp10
 70
     0
102
RTVSPropertyOp11
 70
     0
102
RTVSPropertyOp12
 70
     0
102
RTVSPropertyOp13
 70
     0
102
RTVSPropertyOp14
 70
     2
102
RTVSPropertyOp15
 70
     0
102
RTVSPropertyOp16
 70
     0
102
RTVSPropertyOp17
 70
     0
102
RTVSPropertyOp18
 70
     0
102
RTVSPropertyOp19
 70
     0
102
RTVSPropertyOp20
 70
     0
102
RTVSPropertyOp21
 70
     0
102
RTVSPropertyOp22
 70
     0
102
RTVSPropertyOp23
 70
     0
102
RTVSPropertyOp24
 70
     0
102
RTVSPropertyOp25
 70
     0
102
RTVSPropertyOp26
 70
     0
102
RTVSPropertyOp27
 70
     0
102
RTVSPropertyOp28
 70
     0
102
RTVSPropertyOp29
 70
     0
102
RTVSPropertyOp30
 70
     0
102
RTVSPropertyOp31
 70
     0
102
RTVSPropertyOp32
 70
     0
  0
XRECORD
  5
62F
102
{ACAD_REACTORS
330
62E
102
}
330
62E
100
AcDbXrecord
280
     1
102
RTVSPropertyOp0
 70
     1
102
RTVSPropertyOp1
 70
     1
102
RTVSPropertyOp2
 70
     1
102
RTVSPropertyOp3
 70
     1
102
RTVSPropertyOp4
 70
     1
102
RTVSPropertyOp5
 70
     1
102
RTVSPropertyOp6
 70
     1
102
RTVSPropertyOp7
 70
     1
102
RTVSPropertyOp8
 70
     1
102
RTVSPropertyOp9
 70
     1
102
RTVSPropertyOp10
 70
     1
102
RTVSPropertyOp11
 70
     1
102
RTVSPropertyOp12
 70
     1
102
RTVSPropertyOp13
 70
     1
102
RTVSPropertyOp14
 70
     1
102
RTVSPropertyOp15
 70
     1
102
RTVSPropertyOp16
 70
     1
102
RTVSPropertyOp17
 70
     1
102
RTVSPropertyOp18
 70
     1
102
RTVSPropertyOp19
 70
     1
102
RTVSPropertyOp20
 70
     1
102
RTVSPropertyOp21
 70
     1
102
RTVSPropertyOp22
 70
     1
102
RTVSPropertyOp23
 70
     1
102
RTVSPropertyOp24
 70
     1
102
RTVSPropertyOp25
 70
     1
102
RTVSPropertyOp26
 70
     1
102
RTVSPropertyOp27
 70
     1
102
RTVSPropertyOp28
 70
     1
102
RTVSPropertyOp29
 70
     1
102
RTVSPropertyOp30
 70
     1
102
RTVSPropertyOp31
 70
     1
102
RTVSPropertyOp32
 70
     1
  0
XRECORD
  5
619
102
{ACAD_REACTORS
330
618
102
}
330
618
100
AcDbXrecord
280
     1
102
RTVSPropertyOp0
 70
     1
102
RTVSPropertyOp1
 70
     1
102
RTVSPropertyOp2
 70
     1
102
RTVSPropertyOp3
 70
     1
102
RTVSPropertyOp4
 70
     1
102
RTVSPropertyOp5
 70
     1
102
RTVSPropertyOp6
 70
     1
102
RTVSPropertyOp7
 70
     1
102
RTVSPropertyOp8
 70
     1
102
RTVSPropertyOp9
 70
     1
102
RTVSPropertyOp10
 70
     1
102
RTVSPropertyOp11
 70
     1
102
RTVSPropertyOp12
 70
     1
102
RTVSPropertyOp13
 70
     1
102
RTVSPropertyOp14
 70
     1
102
RTVSPropertyOp15
 70
     1
102
RTVSPropertyOp16
 70
     1
102
RTVSPropertyOp17
 70
     1
102
RTVSPropertyOp18
 70
     1
102
RTVSPropertyOp19
 70
     1
102
RTVSPropertyOp20
 70
     1
102
RTVSPropertyOp21
 70
     1
102
RTVSPropertyOp22
 70
     1
102
RTVSPropertyOp23
 70
     1
102
RTVSPropertyOp24
 70
     1
102
RTVSPropertyOp25
 70
     1
102
RTVSPropertyOp26
 70
     1
102
RTVSPropertyOp27
 70
     1
102
RTVSPropertyOp28
 70
     1
102
RTVSPropertyOp29
 70
     1
102
RTVSPropertyOp30
 70
     1
102
RTVSPropertyOp31
 70
     1
102
RTVSPropertyOp32
 70
     1
  0
XRECORD
  5
61B
102
{ACAD_REACTORS
330
61A
102
}
330
61A
100
AcDbXrecord
280
     1
102
RTVSPropertyOp0
 70
     1
102
RTVSPropertyOp1
 70
     1
102
RTVSPropertyOp2
 70
     1
102
RTVSPropertyOp3
 70
     1
102
RTVSPropertyOp4
 70
     1
102
RTVSPropertyOp5
 70
     1
102
RTVSPropertyOp6
 70
     1
102
RTVSPropertyOp7
 70
     1
102
RTVSPropertyOp8
 70
     1
102
RTVSPropertyOp9
 70
     1
102
RTVSPropertyOp10
 70
     1
102
RTVSPropertyOp11
 70
     1
102
RTVSPropertyOp12
 70
     1
102
RTVSPropertyOp13
 70
     1
102
RTVSPropertyOp14
 70
     1
102
RTVSPropertyOp15
 70
     1
102
RTVSPropertyOp16
 70
     1
102
RTVSPropertyOp17
 70
     1
102
RTVSPropertyOp18
 70
     1
102
RTVSPropertyOp19
 70
     1
102
RTVSPropertyOp20
 70
     1
102
RTVSPropertyOp21
 70
     1
102
RTVSPropertyOp22
 70
     1
102
RTVSPropertyOp23
 70
     1
102
RTVSPropertyOp24
 70
     1
102
RTVSPropertyOp25
 70
     1
102
RTVSPropertyOp26
 70
     1
102
RTVSPropertyOp27
 70
     1
102
RTVSPropertyOp28
 70
     1
102
RTVSPropertyOp29
 70
     1
102
RTVSPropertyOp30
 70
     1
102
RTVSPropertyOp31
 70
     1
102
RTVSPropertyOp32
 70
     1
  0
XRECORD
  5
61D
102
{ACAD_REACTORS
330
61C
102
}
330
61C
100
AcDbXrecord
280
     1
102
RTVSPropertyOp0
 70
     1
102
RTVSPropertyOp1
 70
     1
102
RTVSPropertyOp2
 70
     1
102
RTVSPropertyOp3
 70
     1
102
RTVSPropertyOp4
 70
     1
102
RTVSPropertyOp5
 70
     1
102
RTVSPropertyOp6
 70
     1
102
RTVSPropertyOp7
 70
     1
102
RTVSPropertyOp8
 70
     1
102
RTVSPropertyOp9
 70
     1
102
RTVSPropertyOp10
 70
     1
102
RTVSPropertyOp11
 70
     1
102
RTVSPropertyOp12
 70
     1
102
RTVSPropertyOp13
 70
     1
102
RTVSPropertyOp14
 70
     1
102
RTVSPropertyOp15
 70
     1
102
RTVSPropertyOp16
 70
     1
102
RTVSPropertyOp17
 70
     1
102
RTVSPropertyOp18
 70
     1
102
RTVSPropertyOp19
 70
     1
102
RTVSPropertyOp20
 70
     1
102
RTVSPropertyOp21
 70
     1
102
RTVSPropertyOp22
 70
     1
102
RTVSPropertyOp23
 70
     1
102
RTVSPropertyOp24
 70
     1
102
RTVSPropertyOp25
 70
     1
102
RTVSPropertyOp26
 70
     1
102
RTVSPropertyOp27
 70
     1
102
RTVSPropertyOp28
 70
     1
102
RTVSPropertyOp29
 70
     1
102
RTVSPropertyOp30
 70
     1
102
RTVSPropertyOp31
 70
     1
102
RTVSPropertyOp32
 70
     1
  0
XRECORD
  5
61F
102
{ACAD_REACTORS
330
61E
102
}
330
61E
100
AcDbXrecord
280
     1
102
RTVSPropertyOp0
 70
     1
102
RTVSPropertyOp1
 70
     1
102
RTVSPropertyOp2
 70
     1
102
RTVSPropertyOp3
 70
     1
102
RTVSPropertyOp4
 70
     1
102
RTVSPropertyOp5
 70
     1
102
RTVSPropertyOp6
 70
     1
102
RTVSPropertyOp7
 70
     1
102
RTVSPropertyOp8
 70
     1
102
RTVSPropertyOp9
 70
     1
102
RTVSPropertyOp10
 70
     1
102
RTVSPropertyOp11
 70
     1
102
RTVSPropertyOp12
 70
     1
102
RTVSPropertyOp13
 70
     1
102
RTVSPropertyOp14
 70
     1
102
RTVSPropertyOp15
 70
     1
102
RTVSPropertyOp16
 70
     1
102
RTVSPropertyOp17
 70
     1
102
RTVSPropertyOp18
 70
     1
102
RTVSPropertyOp19
 70
     1
102
RTVSPropertyOp20
 70
     1
102
RTVSPropertyOp21
 70
     1
102
RTVSPropertyOp22
 70
     1
102
RTVSPropertyOp23
 70
     1
102
RTVSPropertyOp24
 70
     1
102
RTVSPropertyOp25
 70
     1
102
RTVSPropertyOp26
 70
     1
102
RTVSPropertyOp27
 70
     1
102
RTVSPropertyOp28
 70
     1
102
RTVSPropertyOp29
 70
     1
102
RTVSPropertyOp30
 70
     1
102
RTVSPropertyOp31
 70
     1
102
RTVSPropertyOp32
 70
     1
  0
XRECORD
  5
623
102
{ACAD_REACTORS
330
622
102
}
330
622
100
AcDbXrecord
280
     1
102
RTVSPropertyOp0
 70
     1
102
RTVSPropertyOp1
 70
     1
102
RTVSPropertyOp2
 70
     1
102
RTVSPropertyOp3
 70
     1
102
RTVSPropertyOp4
 70
     1
102
RTVSPropertyOp5
 70
     1
102
RTVSPropertyOp6
 70
     1
102
RTVSPropertyOp7
 70
     1
102
RTVSPropertyOp8
 70
     1
102
RTVSPropertyOp9
 70
     1
102
RTVSPropertyOp10
 70
     1
102
RTVSPropertyOp11
 70
     1
102
RTVSPropertyOp12
 70
     1
102
RTVSPropertyOp13
 70
     1
102
RTVSPropertyOp14
 70
     1
102
RTVSPropertyOp15
 70
     1
102
RTVSPropertyOp16
 70
     1
102
RTVSPropertyOp17
 70
     1
102
RTVSPropertyOp18
 70
     1
102
RTVSPropertyOp19
 70
     1
102
RTVSPropertyOp20
 70
     1
102
RTVSPropertyOp21
 70
     1
102
RTVSPropertyOp22
 70
     1
102
RTVSPropertyOp23
 70
     1
102
RTVSPropertyOp24
 70
     1
102
RTVSPropertyOp25
 70
     1
102
RTVSPropertyOp26
 70
     1
102
RTVSPropertyOp27
 70
     1
102
RTVSPropertyOp28
 70
     1
102
RTVSPropertyOp29
 70
     1
102
RTVSPropertyOp30
 70
     1
102
RTVSPropertyOp31
 70
     1
102
RTVSPropertyOp32
 70
     1
  0
XRECORD
  5
63D
102
{ACAD_REACTORS
330
63C
102
}
330
63C
100
AcDbXrecord
280
     1
102
RTVSPropertyOp0
 70
     0
102
RTVSPropertyOp1
 70
     0
102
RTVSPropertyOp2
 70
     0
102
RTVSPropertyOp3
 70
     0
102
RTVSPropertyOp4
 70
     0
102
RTVSPropertyOp5
 70
     0
102
RTVSPropertyOp6
 70
     0
102
RTVSPropertyOp7
 70
     0
102
RTVSPropertyOp8
 70
     0
102
RTVSPropertyOp9
 70
     0
102
RTVSPropertyOp10
 70
     0
102
RTVSPropertyOp11
 70
     0
102
RTVSPropertyOp12
 70
     0
102
RTVSPropertyOp13
 70
     0
102
RTVSPropertyOp14
 70
     2
102
RTVSPropertyOp15
 70
     0
102
RTVSPropertyOp16
 70
     0
102
RTVSPropertyOp17
 70
     0
102
RTVSPropertyOp18
 70
     0
102
RTVSPropertyOp19
 70
     0
102
RTVSPropertyOp20
 70
     0
102
RTVSPropertyOp21
 70
     0
102
RTVSPropertyOp22
 70
     0
102
RTVSPropertyOp23
 70
     0
102
RTVSPropertyOp24
 70
     0
102
RTVSPropertyOp25
 70
     0
102
RTVSPropertyOp26
 70
     0
102
RTVSPropertyOp27
 70
     0
102
RTVSPropertyOp28
 70
     0
102
RTVSPropertyOp29
 70
     0
102
RTVSPropertyOp30
 70
     0
102
RTVSPropertyOp31
 70
     0
102
RTVSPropertyOp32
 70
     0
  0
XRECORD
  5
62D
102
{ACAD_REACTORS
330
62C
102
}
330
62C
100
AcDbXrecord
280
     1
102
RTVSPropertyOp0
 70
     1
102
RTVSPropertyOp1
 70
     1
102
RTVSPropertyOp2
 70
     1
102
RTVSPropertyOp3
 70
     1
102
RTVSPropertyOp4
 70
     1
102
RTVSPropertyOp5
 70
     1
102
RTVSPropertyOp6
 70
     1
102
RTVSPropertyOp7
 70
     1
102
RTVSPropertyOp8
 70
     1
102
RTVSPropertyOp9
 70
     1
102
RTVSPropertyOp10
 70
     1
102
RTVSPropertyOp11
 70
     1
102
RTVSPropertyOp12
 70
     1
102
RTVSPropertyOp13
 70
     1
102
RTVSPropertyOp14
 70
     1
102
RTVSPropertyOp15
 70
     1
102
RTVSPropertyOp16
 70
     1
102
RTVSPropertyOp17
 70
     1
102
RTVSPropertyOp18
 70
     1
102
RTVSPropertyOp19
 70
     1
102
RTVSPropertyOp20
 70
     1
102
RTVSPropertyOp21
 70
     1
102
RTVSPropertyOp22
 70
     1
102
RTVSPropertyOp23
 70
     1
102
RTVSPropertyOp24
 70
     1
102
RTVSPropertyOp25
 70
     1
102
RTVSPropertyOp26
 70
     1
102
RTVSPropertyOp27
 70
     1
102
RTVSPropertyOp28
 70
     1
102
RTVSPropertyOp29
 70
     1
102
RTVSPropertyOp30
 70
     1
102
RTVSPropertyOp31
 70
     1
102
RTVSPropertyOp32
 70
     1
  0
XRECORD
  5
63F
102
{ACAD_REACTORS
330
63E
102
}
330
63E
100
AcDbXrecord
280
     1
102
RTVSPropertyOp0
 70
     0
102
RTVSPropertyOp1
 70
     0
102
RTVSPropertyOp2
 70
     0
102
RTVSPropertyOp3
 70
     0
102
RTVSPropertyOp4
 70
     0
102
RTVSPropertyOp5
 70
     0
102
RTVSPropertyOp6
 70
     0
102
RTVSPropertyOp7
 70
     0
102
RTVSPropertyOp8
 70
     0
102
RTVSPropertyOp9
 70
     0
102
RTVSPropertyOp10
 70
     0
102
RTVSPropertyOp11
 70
     0
102
RTVSPropertyOp12
 70
     0
102
RTVSPropertyOp13
 70
     0
102
RTVSPropertyOp14
 70
     2
102
RTVSPropertyOp15
 70
     0
102
RTVSPropertyOp16
 70
     0
102
RTVSPropertyOp17
 70
     0
102
RTVSPropertyOp18
 70
     0
102
RTVSPropertyOp19
 70
     0
102
RTVSPropertyOp20
 70
     0
102
RTVSPropertyOp21
 70
     0
102
RTVSPropertyOp22
 70
     0
102
RTVSPropertyOp23
 70
     0
102
RTVSPropertyOp24
 70
     0
102
RTVSPropertyOp25
 70
     0
102
RTVSPropertyOp26
 70
     0
102
RTVSPropertyOp27
 70
     0
102
RTVSPropertyOp28
 70
     0
102
RTVSPropertyOp29
 70
     0
102
RTVSPropertyOp30
 70
     0
102
RTVSPropertyOp31
 70
     0
102
RTVSPropertyOp32
 70
     0
  0
XRECORD
  5
60F
102
{ACAD_REACTORS
330
60E
102
}
330
60E
100
AcDbXrecord
280
     1
102
RTVSPropertyOp0
 70
     1
102
RTVSPropertyOp1
 70
     1
102
RTVSPropertyOp2
 70
     1
102
RTVSPropertyOp3
 70
     1
102
RTVSPropertyOp4
 70
     1
102
RTVSPropertyOp5
 70
     1
102
RTVSPropertyOp6
 70
     1
102
RTVSPropertyOp7
 70
     1
102
RTVSPropertyOp8
 70
     1
102
RTVSPropertyOp9
 70
     1
102
RTVSPropertyOp10
 70
     1
102
RTVSPropertyOp11
 70
     1
102
RTVSPropertyOp12
 70
     1
102
RTVSPropertyOp13
 70
     1
102
RTVSPropertyOp14
 70
     1
102
RTVSPropertyOp15
 70
     1
102
RTVSPropertyOp16
 70
     1
102
RTVSPropertyOp17
 70
     1
102
RTVSPropertyOp18
 70
     1
102
RTVSPropertyOp19
 70
     1
102
RTVSPropertyOp20
 70
     1
102
RTVSPropertyOp21
 70
     1
102
RTVSPropertyOp22
 70
     1
102
RTVSPropertyOp23
 70
     1
102
RTVSPropertyOp24
 70
     1
102
RTVSPropertyOp25
 70
     1
102
RTVSPropertyOp26
 70
     1
102
RTVSPropertyOp27
 70
     1
102
RTVSPropertyOp28
 70
     1
102
RTVSPropertyOp29
 70
     1
102
RTVSPropertyOp30
 70
     1
102
RTVSPropertyOp31
 70
     1
102
RTVSPropertyOp32
 70
     1
  0
XRECORD
  5
63B
102
{ACAD_REACTORS
330
63A
102
}
330
63A
100
AcDbXrecord
280
     1
102
RTVSPropertyOp0
 70
     1
102
RTVSPropertyOp1
 70
     1
102
RTVSPropertyOp2
 70
     1
102
RTVSPropertyOp3
 70
     1
102
RTVSPropertyOp4
 70
     1
102
RTVSPropertyOp5
 70
     1
102
RTVSPropertyOp6
 70
     1
102
RTVSPropertyOp7
 70
     1
102
RTVSPropertyOp8
 70
     1
102
RTVSPropertyOp9
 70
     1
102
RTVSPropertyOp10
 70
     1
102
RTVSPropertyOp11
 70
     1
102
RTVSPropertyOp12
 70
     1
102
RTVSPropertyOp13
 70
     1
102
RTVSPropertyOp14
 70
     1
102
RTVSPropertyOp15
 70
     1
102
RTVSPropertyOp16
 70
     1
102
RTVSPropertyOp17
 70
     1
102
RTVSPropertyOp18
 70
     1
102
RTVSPropertyOp19
 70
     1
102
RTVSPropertyOp20
 70
     1
102
RTVSPropertyOp21
 70
     1
102
RTVSPropertyOp22
 70
     1
102
RTVSPropertyOp23
 70
     1
102
RTVSPropertyOp24
 70
     1
102
RTVSPropertyOp25
 70
     1
102
RTVSPropertyOp26
 70
     1
102
RTVSPropertyOp27
 70
     1
102
RTVSPropertyOp28
 70
     1
102
RTVSPropertyOp29
 70
     1
102
RTVSPropertyOp30
 70
     1
102
RTVSPropertyOp31
 70
     1
102
RTVSPropertyOp32
 70
     1
  0
XRECORD
  5
639
102
{ACAD_REACTORS
330
638
102
}
330
638
100
AcDbXrecord
280
     1
102
RTVSPropertyOp0
 70
     1
102
RTVSPropertyOp1
 70
     1
102
RTVSPropertyOp2
 70
     1
102
RTVSPropertyOp3
 70
     1
102
RTVSPropertyOp4
 70
     1
102
RTVSPropertyOp5
 70
     1
102
RTVSPropertyOp6
 70
     1
102
RTVSPropertyOp7
 70
     1
102
RTVSPropertyOp8
 70
     1
102
RTVSPropertyOp9
 70
     1
102
RTVSPropertyOp10
 70
     1
102
RTVSPropertyOp11
 70
     1
102
RTVSPropertyOp12
 70
     1
102
RTVSPropertyOp13
 70
     1
102
RTVSPropertyOp14
 70
     1
102
RTVSPropertyOp15
 70
     1
102
RTVSPropertyOp16
 70
     1
102
RTVSPropertyOp17
 70
     1
102
RTVSPropertyOp18
 70
     1
102
RTVSPropertyOp19
 70
     1
102
RTVSPropertyOp20
 70
     1
102
RTVSPropertyOp21
 70
     1
102
RTVSPropertyOp22
 70
     1
102
RTVSPropertyOp23
 70
     1
102
RTVSPropertyOp24
 70
     1
102
RTVSPropertyOp25
 70
     1
102
RTVSPropertyOp26
 70
     1
102
RTVSPropertyOp27
 70
     1
102
RTVSPropertyOp28
 70
     1
102
RTVSPropertyOp29
 70
     1
102
RTVSPropertyOp30
 70
     1
102
RTVSPropertyOp31
 70
     1
102
RTVSPropertyOp32
 70
     1
  0
XRECORD
  5
633
102
{ACAD_REACTORS
330
632
102
}
330
632
100
AcDbXrecord
280
     1
102
RTVSPropertyOp0
 70
     1
102
RTVSPropertyOp1
 70
     1
102
RTVSPropertyOp2
 70
     1
102
RTVSPropertyOp3
 70
     1
102
RTVSPropertyOp4
 70
     1
102
RTVSPropertyOp5
 70
     1
102
RTVSPropertyOp6
 70
     1
102
RTVSPropertyOp7
 70
     1
102
RTVSPropertyOp8
 70
     1
102
RTVSPropertyOp9
 70
     1
102
RTVSPropertyOp10
 70
     1
102
RTVSPropertyOp11
 70
     1
102
RTVSPropertyOp12
 70
     1
102
RTVSPropertyOp13
 70
     1
102
RTVSPropertyOp14
 70
     1
102
RTVSPropertyOp15
 70
     1
102
RTVSPropertyOp16
 70
     1
102
RTVSPropertyOp17
 70
     1
102
RTVSPropertyOp18
 70
     1
102
RTVSPropertyOp19
 70
     1
102
RTVSPropertyOp20
 70
     1
102
RTVSPropertyOp21
 70
     1
102
RTVSPropertyOp22
 70
     1
102
RTVSPropertyOp23
 70
     1
102
RTVSPropertyOp24
 70
     1
102
RTVSPropertyOp25
 70
     1
102
RTVSPropertyOp26
 70
     1
102
RTVSPropertyOp27
 70
     1
102
RTVSPropertyOp28
 70
     1
102
RTVSPropertyOp29
 70
     1
102
RTVSPropertyOp30
 70
     1
102
RTVSPropertyOp31
 70
     1
102
RTVSPropertyOp32
 70
     1
  0
XRECORD
  5
635
102
{ACAD_REACTORS
330
634
102
}
330
634
100
AcDbXrecord
280
     1
102
RTVSPropertyOp0
 70
     1
102
RTVSPropertyOp1
 70
     1
102
RTVSPropertyOp2
 70
     1
102
RTVSPropertyOp3
 70
     1
102
RTVSPropertyOp4
 70
     1
102
RTVSPropertyOp5
 70
     1
102
RTVSPropertyOp6
 70
     1
102
RTVSPropertyOp7
 70
     1
102
RTVSPropertyOp8
 70
     1
102
RTVSPropertyOp9
 70
     1
102
RTVSPropertyOp10
 70
     1
102
RTVSPropertyOp11
 70
     1
102
RTVSPropertyOp12
 70
     1
102
RTVSPropertyOp13
 70
     1
102
RTVSPropertyOp14
 70
     1
102
RTVSPropertyOp15
 70
     1
102
RTVSPropertyOp16
 70
     1
102
RTVSPropertyOp17
 70
     1
102
RTVSPropertyOp18
 70
     1
102
RTVSPropertyOp19
 70
     1
102
RTVSPropertyOp20
 70
     1
102
RTVSPropertyOp21
 70
     1
102
RTVSPropertyOp22
 70
     1
102
RTVSPropertyOp23
 70
     1
102
RTVSPropertyOp24
 70
     1
102
RTVSPropertyOp25
 70
     1
102
RTVSPropertyOp26
 70
     1
102
RTVSPropertyOp27
 70
     1
102
RTVSPropertyOp28
 70
     1
102
RTVSPropertyOp29
 70
     1
102
RTVSPropertyOp30
 70
     1
102
RTVSPropertyOp31
 70
     1
102
RTVSPropertyOp32
 70
     1
  0
XRECORD
  5
62B
102
{ACAD_REACTORS
330
62A
102
}
330
62A
100
AcDbXrecord
280
     1
102
RTVSPropertyOp0
 70
     1
102
RTVSPropertyOp1
 70
     1
102
RTVSPropertyOp2
 70
     1
102
RTVSPropertyOp3
 70
     1
102
RTVSPropertyOp4
 70
     1
102
RTVSPropertyOp5
 70
     1
102
RTVSPropertyOp6
 70
     1
102
RTVSPropertyOp7
 70
     1
102
RTVSPropertyOp8
 70
     1
102
RTVSPropertyOp9
 70
     1
102
RTVSPropertyOp10
 70
     1
102
RTVSPropertyOp11
 70
     1
102
RTVSPropertyOp12
 70
     1
102
RTVSPropertyOp13
 70
     1
102
RTVSPropertyOp14
 70
     1
102
RTVSPropertyOp15
 70
     1
102
RTVSPropertyOp16
 70
     1
102
RTVSPropertyOp17
 70
     1
102
RTVSPropertyOp18
 70
     1
102
RTVSPropertyOp19
 70
     1
102
RTVSPropertyOp20
 70
     1
102
RTVSPropertyOp21
 70
     1
102
RTVSPropertyOp22
 70
     1
102
RTVSPropertyOp23
 70
     1
102
RTVSPropertyOp24
 70
     1
102
RTVSPropertyOp25
 70
     1
102
RTVSPropertyOp26
 70
     1
102
RTVSPropertyOp27
 70
     1
102
RTVSPropertyOp28
 70
     1
102
RTVSPropertyOp29
 70
     1
102
RTVSPropertyOp30
 70
     1
102
RTVSPropertyOp31
 70
     1
102
RTVSPropertyOp32
 70
     1
  0
XRECORD
  5
611
102
{ACAD_REACTORS
330
610
102
}
330
610
100
AcDbXrecord
280
     1
102
RTVSPropertyOp0
 70
     1
102
RTVSPropertyOp1
 70
     1
102
RTVSPropertyOp2
 70
     1
102
RTVSPropertyOp3
 70
     1
102
RTVSPropertyOp4
 70
     1
102
RTVSPropertyOp5
 70
     1
102
RTVSPropertyOp6
 70
     1
102
RTVSPropertyOp7
 70
     1
102
RTVSPropertyOp8
 70
     1
102
RTVSPropertyOp9
 70
     1
102
RTVSPropertyOp10
 70
     1
102
RTVSPropertyOp11
 70
     1
102
RTVSPropertyOp12
 70
     1
102
RTVSPropertyOp13
 70
     1
102
RTVSPropertyOp14
 70
     1
102
RTVSPropertyOp15
 70
     1
102
RTVSPropertyOp16
 70
     1
102
RTVSPropertyOp17
 70
     1
102
RTVSPropertyOp18
 70
     1
102
RTVSPropertyOp19
 70
     1
102
RTVSPropertyOp20
 70
     1
102
RTVSPropertyOp21
 70
     1
102
RTVSPropertyOp22
 70
     1
102
RTVSPropertyOp23
 70
     1
102
RTVSPropertyOp24
 70
     1
102
RTVSPropertyOp25
 70
     1
102
RTVSPropertyOp26
 70
     1
102
RTVSPropertyOp27
 70
     1
102
RTVSPropertyOp28
 70
     1
102
RTVSPropertyOp29
 70
     1
102
RTVSPropertyOp30
 70
     1
102
RTVSPropertyOp31
 70
     1
102
RTVSPropertyOp32
 70
     1
  0
XRECORD
  5
637
102
{ACAD_REACTORS
330
636
102
}
330
636
100
AcDbXrecord
280
     1
102
RTVSPropertyOp0
 70
     1
102
RTVSPropertyOp1
 70
     1
102
RTVSPropertyOp2
 70
     1
102
RTVSPropertyOp3
 70
     1
102
RTVSPropertyOp4
 70
     1
102
RTVSPropertyOp5
 70
     1
102
RTVSPropertyOp6
 70
     1
102
RTVSPropertyOp7
 70
     1
102
RTVSPropertyOp8
 70
     1
102
RTVSPropertyOp9
 70
     1
102
RTVSPropertyOp10
 70
     1
102
RTVSPropertyOp11
 70
     1
102
RTVSPropertyOp12
 70
     1
102
RTVSPropertyOp13
 70
     1
102
RTVSPropertyOp14
 70
     1
102
RTVSPropertyOp15
 70
     1
102
RTVSPropertyOp16
 70
     1
102
RTVSPropertyOp17
 70
     1
102
RTVSPropertyOp18
 70
     1
102
RTVSPropertyOp19
 70
     1
102
RTVSPropertyOp20
 70
     1
102
RTVSPropertyOp21
 70
     1
102
RTVSPropertyOp22
 70
     1
102
RTVSPropertyOp23
 70
     1
102
RTVSPropertyOp24
 70
     1
102
RTVSPropertyOp25
 70
     1
102
RTVSPropertyOp26
 70
     1
102
RTVSPropertyOp27
 70
     1
102
RTVSPropertyOp28
 70
     1
102
RTVSPropertyOp29
 70
     1
102
RTVSPropertyOp30
 70
     1
102
RTVSPropertyOp31
 70
     1
102
RTVSPropertyOp32
 70
     1
  0
ENDSEC
  0
EOF
