  0
SECTION
  2
HEADER
  9
$ACADVER
  1
AC1015
  9
$ACADMAINTVER
 70
    18
  9
$DWGCODEPAGE
  3
ANSI_1252
  9
$INSBASE
 10
0.0
 20
0.0
 30
0.0
  9
$EXTMIN
 10
-67.2549869339623
 20
-30.82400320473153
 30
-0.0015258207003583
  9
$EXTMAX
 10
23.36779926294412
 20
12.93530372848636
 30
0.0000000349246037
  9
$LIMMIN
 10
0.0
 20
0.0
  9
$LIMMAX
 10
1189.0
 20
840.9999999999998
  9
$ORTHOMODE
 70
     0
  9
$REGENMODE
 70
     1
  9
$FILLMODE
 70
     1
  9
$QTEXTMODE
 70
     0
  9
$MIRRTEXT
 70
     0
  9
$LTSCALE
 40
1.0
  9
$ATTMODE
 70
     1
  9
$TEXTSIZE
 40
0.2
  9
$TRACEWID
 40
0.05
  9
$TEXTSTYLE
  7
STANDARD
  9
$CLAYER
  8
0
  9
$CELTYPE
  6
ByLayer
  9
$CECOLOR
 62
   256
  9
$CELTSCALE
 40
1.0
  9
$DISPSILH
 70
     0
  9
$DIMSCALE
 40
1.0
  9
$DIMASZ
 40
180.0
  9
$DIMEXO
 40
0.0625
  9
$DIMDLI
 40
0.38
  9
$DIMRND
 40
0.0
  9
$DIMDLE
 40
0.0
  9
$DIMEXE
 40
0.18
  9
$DIMTP
 40
0.0
  9
$DIMTM
 40
0.0
  9
$DIMTXT
 40
34.99999940395355
  9
$DIMCEN
 40
0.09
  9
$DIMTSZ
 40
0.0
  9
$DIMTOL
 70
     0
  9
$DIMLIM
 70
     0
  9
$DIMTIH
 70
     1
  9
$DIMTOH
 70
     1
  9
$DIMSE1
 70
     0
  9
$DIMSE2
 70
     0
  9
$DIMTAD
 70
     0
  9
$DIMZIN
 70
     0
  9
$DIMBLK
  1

  9
$DIMASO
 70
     1
  9
$DIMSHO
 70
     1
  9
$DIMPOST
  1

  9
$DIMAPOST
  1

  9
$DIMALT
 70
     0
  9
$DIMALTD
 70
     2
  9
$DIMALTF
 40
25.4
  9
$DIMLFAC
 40
1.0
  9
$DIMTOFL
 70
     0
  9
$DIMTVP
 40
0.0
  9
$DIMTIX
 70
     0
  9
$DIMSOXD
 70
     0
  9
$DIMSAH
 70
     0
  9
$DIMBLK1
  1

  9
$DIMBLK2
  1

  9
$DIMSTYLE
  2
STANDARD
  9
$DIMCLRD
 70
     0
  9
$DIMCLRE
 70
     0
  9
$DIMCLRT
 70
     0
  9
$DIMTFAC
 40
1.0
  9
$DIMGAP
 40
0.09
  9
$DIMJUST
 70
     0
  9
$DIMSD1
 70
     0
  9
$DIMSD2
 70
     0
  9
$DIMTOLJ
 70
     1
  9
$DIMTZIN
 70
     0
  9
$DIMALTZ
 70
     0
  9
$DIMALTTZ
 70
     0
  9
$DIMUPT
 70
     0
  9
$DIMDEC
 70
     4
  9
$DIMTDEC
 70
     4
  9
$DIMALTU
 70
     2
  9
$DIMALTTD
 70
     2
  9
$DIMTXSTY
  7
STANDARD
  9
$DIMAUNIT
 70
     0
  9
$DIMADEC
 70
     0
  9
$DIMALTRND
 40
0.0
  9
$DIMAZIN
 70
     0
  9
$DIMDSEP
 70
    46
  9
$DIMATFIT
 70
     3
  9
$DIMFRAC
 70
     0
  9
$DIMLDRBLK
  1

  9
$DIMLUNIT
 70
     2
  9
$DIMLWD
 70
    -2
  9
$DIMLWE
 70
    -2
  9
$DIMTMOVE
 70
     0
  9
$LUNITS
 70
     2
  9
$LUPREC
 70
     4
  9
$SKETCHINC
 40
0.1
  9
$FILLETRAD
 40
0.0
  9
$AUNITS
 70
     0
  9
$AUPREC
 70
     0
  9
$MENU
  1
.
  9
$ELEVATION
 40
0.0
  9
$PELEVATION
 40
0.0
  9
$THICKNESS
 40
0.0
  9
$LIMCHECK
 70
     0
  9
$CHAMFERA
 40
0.0
  9
$CHAMFERB
 40
0.0
  9
$CHAMFERC
 40
0.0
  9
$CHAMFERD
 40
0.0
  9
$SKPOLY
 70
     0
  9
$TDCREATE
 40
2454871.539305995
  9
$TDUCREATE
 40
2454871.455972662
  9
$TDUPDATE
 40
2455720.817648634
  9
$TDUUPDATE
 40
2455720.734315301
  9
$TDINDWG
 40
0.0122474884
  9
$TDUSRTIMER
 40
0.0122474884
  9
$USRTIMER
 70
     1
  9
$ANGBASE
 50
0.0
  9
$ANGDIR
 70
     0
  9
$PDMODE
 70
     0
  9
$PDSIZE
 40
0.0
  9
$PLINEWID
 40
0.0
  9
$SPLFRAME
 70
     0
  9
$SPLINETYPE
 70
     6
  9
$SPLINESEGS
 70
     8
  9
$HANDSEED
  5
36E
  9
$SURFTAB1
 70
     6
  9
$SURFTAB2
 70
     6
  9
$SURFTYPE
 70
     6
  9
$SURFU
 70
     6
  9
$SURFV
 70
     6
  9
$UCSBASE
  2

  9
$UCSNAME
  2

  9
$UCSORG
 10
0.0
 20
0.0
 30
0.0
  9
$UCSXDIR
 10
1.0
 20
0.0
 30
0.0
  9
$UCSYDIR
 10
0.0
 20
1.0
 30
0.0
  9
$UCSORTHOREF
  2

  9
$UCSORTHOVIEW
 70
     0
  9
$UCSORGTOP
 10
0.0
 20
0.0
 30
0.0
  9
$UCSORGBOTTOM
 10
0.0
 20
0.0
 30
0.0
  9
$UCSORGLEFT
 10
0.0
 20
0.0
 30
0.0
  9
$UCSORGRIGHT
 10
0.0
 20
0.0
 30
0.0
  9
$UCSORGFRONT
 10
0.0
 20
0.0
 30
0.0
  9
$UCSORGBACK
 10
0.0
 20
0.0
 30
0.0
  9
$PUCSBASE
  2

  9
$PUCSNAME
  2

  9
$PUCSORG
 10
0.0
 20
0.0
 30
0.0
  9
$PUCSXDIR
 10
1.0
 20
0.0
 30
0.0
  9
$PUCSYDIR
 10
0.0
 20
1.0
 30
0.0
  9
$PUCSORTHOREF
  2

  9
$PUCSORTHOVIEW
 70
     0
  9
$PUCSORGTOP
 10
0.0
 20
0.0
 30
0.0
  9
$PUCSORGBOTTOM
 10
0.0
 20
0.0
 30
0.0
  9
$PUCSORGLEFT
 10
0.0
 20
0.0
 30
0.0
  9
$PUCSORGRIGHT
 10
0.0
 20
0.0
 30
0.0
  9
$PUCSORGFRONT
 10
0.0
 20
0.0
 30
0.0
  9
$PUCSORGBACK
 10
0.0
 20
0.0
 30
0.0
  9
$USERI1
 70
     0
  9
$USERI2
 70
     0
  9
$USERI3
 70
     0
  9
$USERI4
 70
     0
  9
$USERI5
 70
     0
  9
$USERR1
 40
0.0
  9
$USERR2
 40
0.0
  9
$USERR3
 40
0.0
  9
$USERR4
 40
0.0
  9
$USERR5
 40
0.0
  9
$WORLDVIEW
 70
     1
  9
$SHADEDGE
 70
     3
  9
$SHADEDIF
 70
    70
  9
$TILEMODE
 70
     1
  9
$MAXACTVP
 70
    64
  9
$PINSBASE
 10
0.0
 20
0.0
 30
0.0
  9
$PLIMCHECK
 70
     0
  9
$PEXTMIN
 10
0.0
 20
0.0
 30
0.0
  9
$PEXTMAX
 10
1189.0
 20
840.9999999999998
 30
0.0
  9
$PLIMMIN
 10
0.0
 20
0.0
  9
$PLIMMAX
 10
1189.0
 20
840.9999999999998
  9
$UNITMODE
 70
     0
  9
$VISRETAIN
 70
     1
  9
$PLINEGEN
 70
     0
  9
$PSLTSCALE
 70
     1
  9
$TREEDEPTH
 70
  3020
  9
$CMLSTYLE
  2
Standard
  9
$CMLJUST
 70
     0
  9
$CMLSCALE
 40
1.0
  9
$PROXYGRAPHICS
 70
     1
  9
$MEASUREMENT
 70
     1
  9
$CELWEIGHT
370
    -1
  9
$ENDCAPS
280
     0
  9
$JOINSTYLE
280
     0
  9
$LWDISPLAY
290
     0
  9
$INSUNITS
 70
     4
  9
$HYPERLINKBASE
  1

  9
$STYLESHEET
  1

  9
$XEDIT
290
     1
  9
$CEPSNTYPE
380
     0
  9
$PSTYLEMODE
290
     1
  9
$FINGERPRINTGUID
  2
{BB138728-E3CA-4EE9-BF5C-2CEC4296593B}
  9
$VERSIONGUID
  2
{1DA0FB76-2F1B-439C-8F10-CBC6ED35FA16}
  9
$EXTNAMES
290
     1
  9
$PSVPSCALE
 40
0.0
  9
$OLESTARTUP
290
     0
  0
ENDSEC
  0
SECTION
  2
CLASSES
  0
CLASS
  1
ACDBDICTIONARYWDFLT
  2
AcDbDictionaryWithDefault
  3
ObjectDBX Classes
 90
        0
280
     0
281
     0
  0
CLASS
  1
MATERIAL
  2
AcDbMaterial
  3
ObjectDBX Classes
 90
     1153
280
     0
281
     0
  0
CLASS
  1
VISUALSTYLE
  2
AcDbVisualStyle
  3
ObjectDBX Classes
 90
     4095
280
     0
281
     0
  0
CLASS
  1
SCALE
  2
AcDbScale
  3
ObjectDBX Classes
 90
     1153
280
     0
281
     0
  0
CLASS
  1
TABLESTYLE
  2
AcDbTableStyle
  3
ObjectDBX Classes
 90
     4095
280
     0
281
     0
  0
CLASS
  1
MLEADERSTYLE
  2
AcDbMLeaderStyle
  3
ACDB_MLEADERSTYLE_CLASS
 90
     4095
280
     0
281
     0
  0
CLASS
  1
SORTENTSTABLE
  2
AcDbSortentsTable
  3
ObjectDBX Classes
 90
        0
280
     0
281
     0
  0
CLASS
  1
CELLSTYLEMAP
  2
AcDbCellStyleMap
  3
ObjectDBX Classes
 90
     1152
280
     0
281
     0
  0
CLASS
  1
DICTIONARYVAR
  2
AcDbDictionaryVar
  3
ObjectDBX Classes
 90
        0
280
     0
281
     0
  0
CLASS
  1
ACME_DOCUMENT
  2
AcMeDbDoc
  3
AcMeServices
 90
     1024
280
     0
281
     0
  0
CLASS
  1
AMGSETTINGSOBJ
  2
AmgSettingsObj
  3
"AcadM|Product Description: AutoCAD Mechanical|Company: Autodesk, Inc."
 90
     1024
280
     0
281
     0
  0
CLASS
  1
ACMESCOPE
  2
AcMeScope
  3
AcMeServices
 90
     1024
280
     0
281
     0
  0
CLASS
  1
ACMECOMMANDHISTORY
  2
AcMeCommandHistory
  3
AcMeServices
 90
     1024
280
     0
281
     0
  0
CLASS
  1
ACIMSYSVARMAN
  2
AcImSysVarManager
  3
AcMeServices
 90
     1024
280
     0
281
     0
  0
CLASS
  1
ACIMINTSYSVAR
  2
AcImIntSysVar
  3
AcMeServices
 90
     1024
280
     0
281
     0
  0
CLASS
  1
ACMEDRAWINGMAN
  2
AcMeDrawingMan
  3
AcMeServices
 90
    33792
280
     0
281
     0
  0
CLASS
  1
ACMEVIEW
  2
AcMeView
  3
AcMeServices
 90
    33792
280
     0
281
     0
  0
CLASS
  1
ACDBENTITYCACHE
  2
AcMeEntityCache
  3
AcMeServices
 90
     1024
280
     0
281
     0
  0
CLASS
  1
GSMANAGER
  2
AcMeGSManager
  3
AcMeServices
 90
    33792
280
     1
281
     0
  0
CLASS
  1
AMDTINTERNALREACTOR
  2
AmdtInternalReactor
  3
AcMeServices
 90
     1024
280
     0
281
     0
  0
CLASS
  1
ACMESTATEMGR
  2
AcMeStateMgr
  3
AcMeServices
 90
     1024
280
     0
281
     0
  0
CLASS
  1
ACGREFMASTER
  2
AcGrefMaster
  3
AcAttribServices
 90
     1024
280
     0
281
     0
  0
CLASS
  1
AM_DRAWING_MGR
  2
AcDmDwgMgr
  3
AcMechDwgViewMgmt
 90
     1024
280
     0
281
     0
  0
CLASS
  1
AM_DWG_DOCUMENT
  2
AcDmDwgDocument
  3
AcMechDwgViewMgmt
 90
     1024
280
     0
281
     0
  0
CLASS
  1
AM_DWG_SHEET
  2
AcDmSheet
  3
AcMechDwgViewMgmt
 90
     1024
280
     0
281
     0
  0
CLASS
  1
AM_VIEWDIMPARMAP
  2
AcDmViewDimParMap
  3
AcMechDwgViewMgmt
 90
     1024
280
     0
281
     0
  0
CLASS
  1
ACIMREALSYSVAR
  2
AcImRealSysVar
  3
AcMeServices
 90
     1024
280
     0
281
     0
  0
CLASS
  1
AM_DWGMGR_NAME
  2
AcDmDwgMgrName
  3
AcMechDwgViewMgmt
 90
     1024
280
     0
281
     0
  0
CLASS
  1
ACME_DATABASE
  2
AcMeDbDatabase
  3
AcMeServices
 90
     1024
280
     0
281
     0
  0
CLASS
  1
ACRFINSADJUSTERMGR
  2
AcRfInsAdjusterMgr
  3
AcMeServices
 90
     1024
280
     0
281
     0
  0
CLASS
  1
ACGREFACADMASTER
  2
AcGrefacadMaster
  3
AcGrefServices
 90
     1024
280
     0
281
     0
  0
CLASS
  1
AMDTMENUSTATEMGR
  2
AmdtMenuStateMgr
  3
McadcomServices
 90
     1024
280
     0
281
     0
  0
CLASS
  1
AMDTMCOMMENUSTATE
  2
AmdtMcomMenuState
  3
McadcomServices
 90
     1024
280
     0
281
     0
  0
CLASS
  1
AMIMASTER
  2
AmiMaster
  3
AmiServices
 90
     1024
280
     0
281
     0
  0
CLASS
  1
MAPIAMMOUDLE
  2
MApiAmModule
  3
MApiAmServices
 90
     1024
280
     0
281
     0
  0
CLASS
  1
ACIMSTRSYSVAR
  2
AcImStrSysVar
  3
AcMeServices
 90
     1024
280
     0
281
     0
  0
CLASS
  1
AMDTADMENUSTATE
  2
AmdtAdMenuState
  3
DesignerServices
 90
    33792
280
     1
281
     0
  0
CLASS
  1
ADAPPL
  2
AcAdAppl
  3
DesignerAssemblies
 90
    33792
280
     0
281
     0
  0
CLASS
  1
DEPMGR
  2
AcAdDepMgr
  3
DesignerAssemblies
 90
    33792
280
     0
281
     0
  0
CLASS
  1
PARAMMGR
  2
AcAdParamMgr
  3
DesignerAssemblies
 90
    33792
280
     0
281
     0
  0
CLASS
  1
PARAMSCOPE
  2
AcAdParamScope
  3
DesignerAssemblies
 90
    33792
280
     0
281
     0
  0
CLASS
  1
NAMEDAPPL
  2
AcAdNamedAppl
  3
DesignerAssemblies
 90
    33792
280
     0
281
     0
  0
CLASS
  1
AMDTDMMENUSTATE
  2
AmdtDmMenuState
  3
AcMechDwgViewMgmt
 90
     1024
280
     0
281
     0
  0
CLASS
  1
AMDTAMMENUSTATE
  2
AmdtAmMenuState
  3
DesignerAssemblies
 90
     1024
280
     0
281
     0
  0
CLASS
  1
ACAMPROJECT
  2
AcAmProject
  3
DesignerAssemblies
 90
     1024
280
     0
281
     0
  0
CLASS
  1
ACAMGRCOMPDEF
  2
AcAmGrCompDef
  3
DesignerAssemblies
 90
     1024
280
     0
281
     0
  0
CLASS
  1
ACCMCONTEXT
  2
AcCmContext
  3
DesignerAssemblies
 90
    33792
280
     0
281
     0
  0
CLASS
  1
ACAMCOMPDEF
  2
AcAmCompDef
  3
DesignerAssemblies
 90
     1024
280
     0
281
     0
  0
CLASS
  1
ACAMCOMPDEFMGR
  2
AcAmCompDefMgr
  3
DesignerAssemblies
 90
     1024
280
     0
281
     0
  0
CLASS
  1
AMCONTEXTMGR
  2
AcAmContextMgr
  3
DesignerAssemblies
 90
     1024
280
     0
281
     0
  0
CLASS
  1
ACAMCONTEXTMODELER
  2
AcAmContextModeler
  3
DesignerAssemblies
 90
     1024
280
     0
281
     0
  0
CLASS
  1
ACMDATADICTIONARY
  2
AcmDataDictionary
  3
"AcmSymBB|Product Description: AutoCAD Mechanical|Company: Autodesk, Inc."
 90
     1024
280
     0
281
     0
  0
CLASS
  1
CATALOGSTATE
  2
AcAmCatalogState
  3
DesignerAssemblies
 90
    33792
280
     0
281
     0
  0
CLASS
  1
ACAMGRCOMPDEFSET
  2
AcAmGrCompDefSet
  3
DesignerAssemblies
 90
     1024
280
     0
281
     0
  0
CLASS
  1
AMDTBROWSERDBTAB
  2
AmdtBrowserDbTab
  3
McadcomServices
 90
     1024
280
     0
281
     0
  0
CLASS
  1
CBROWSERAPPOBJECT
  2
CBrowserAppObject
  3
McadcomServices
 90
     1024
280
     0
281
     0
  0
CLASS
  1
DM_PLACEHOLDER
  2
AcDmSelsetPlaceholder
  3
AcMechDwgViewMgmt
 90
     1024
280
     0
281
     0
  0
CLASS
  1
EXACXREFPANELOBJECT
  2
ExAcXREFPanelObject
  3
EXAC_ESW
 90
     1025
280
     0
281
     0
  0
CLASS
  1
NPOCOLLECTION
  2
AcDbImpNonPersistentObjectsCollection
  3
ObjectDBX Classes
 90
     1153
280
     0
281
     0
  0
CLASS
  1
ACMSTANDARDANSI
  2
AcmStandardANSI
  3
"Amdt_StdImp|Product Description: AutoCAD Mechanical|Company: Autodesk, Inc."
 90
     1024
280
     0
281
     0
  0
CLASS
  1
ACMSURFSTANDARDANSI
  2
AcmSurfTextStdANSI
  3
"Amdt_StdImp|Product Description: AutoCAD Mechanical|Company: Autodesk, Inc."
 90
     1024
280
     0
281
     0
  0
CLASS
  1
ACMFCFSTANDARDANSI
  2
AcmFCFStdANSI
  3
"Amdt_StdImp|Product Description: AutoCAD Mechanical|Company: Autodesk, Inc."
 90
     1024
280
     0
281
     0
  0
CLASS
  1
ACMWELDSTANDARDANSI
  2
AcmWeldingStdANSI
  3
"Amdt_StdImp|Product Description: AutoCAD Mechanical|Company: Autodesk, Inc."
 90
     1024
280
     0
281
     0
  0
CLASS
  1
ACMIDSTANDARDANSI
  2
AcmIdStdANSI
  3
"Amdt_StdImp|Product Description: AutoCAD Mechanical|Company: Autodesk, Inc."
 90
     1024
280
     0
281
     0
  0
CLASS
  1
ACMDATUMSTANDARDANSI
  2
AcmDatumStdANSI
  3
"Amdt_StdImp|Product Description: AutoCAD Mechanical|Company: Autodesk, Inc."
 90
     1024
280
     0
281
     0
  0
CLASS
  1
ACMBOMSTANDARDANSI
  2
AcmBOMStdANSI
  3
"Amdt_StdImp|Product Description: AutoCAD Mechanical|Company: Autodesk, Inc."
 90
     1024
280
     0
281
     0
  0
CLASS
  1
ACMDETAILSTANDARDANSI
  2
AmdtDetailSymStdANSI
  3
"Amdt_StdImp|Product Description: AutoCAD Mechanical|Company: Autodesk, Inc."
 90
     1024
280
     0
281
     0
  0
CLASS
  1
ACMSECTIONSTANDARDANSI
  2
AmdtSectionSymStdANSI
  3
"Amdt_StdImp|Product Description: AutoCAD Mechanical|Company: Autodesk, Inc."
 90
     1024
280
     0
281
     0
  0
CLASS
  1
ACMCENTERLINESTANDARDANSI
  2
AmdtCenterLineStdANSI
  3
"Amdt_StdImp|Product Description: AutoCAD Mechanical|Company: Autodesk, Inc."
 90
     1024
280
     0
281
     0
  0
CLASS
  1
ACMTHREADLINESTANDARDANSI
  2
AmdtThreadLineStdANSI
  3
"Amdt_StdImp|Product Description: AutoCAD Mechanical|Company: Autodesk, Inc."
 90
     1024
280
     0
281
     0
  0
CLASS
  1
ACMNOTESTANDARDANSI
  2
AmdtNoteStdANSI
  3
"Amdt_StdImp|Product Description: AutoCAD Mechanical|Company: Autodesk, Inc."
 90
     1024
280
     0
281
     0
  0
CLASS
  1
ACMTAPERSTANDARDANSI
  2
AcmTaperStdANSI
  3
"Amdt_StdImp|Product Description: AutoCAD Mechanical|Company: Autodesk, Inc."
 90
     1024
280
     0
281
     0
  0
CLASS
  1
ACMANOOTATIONVIEWSTANDARDANSI
  2
AmdtAnViewStdANSI
  3
"Amdt_StdImp|Product Description: AutoCAD Mechanical|Company: Autodesk, Inc."
 90
     1024
280
     0
281
     0
  0
CLASS
  1
ACAMGLAYSTD
  2
AcAmgLayStd
  3
"AmgLay|Product Description: AutoCAD Mechanical|Company: Autodesk, Inc."
 90
     1024
280
     0
281
     0
  0
CLASS
  1
ACAMGDIMSTD
  2
AcAmgDimStd
  3
"AmgDim|Product Description: AutoCAD Mechanical|Company: Autodesk, Inc."
 90
     1024
280
     0
281
     0
  0
CLASS
  1
AMGOBJPROPCFG
  2
AmgObjPropCfg
  3
"AmgLay|Product Description: AutoCAD Mechanical|Company: Autodesk, Inc."
 90
     1025
280
     0
281
     0
  0
CLASS
  1
ACAMGHOLECHARTSTDANSI
  2
AcAmgHoleChartStdANSI
  3
AmgDim|Product Description: AutoCAD Mechanical|Company: Autodesk, Inc.
 90
     1024
280
     0
281
     0
  0
CLASS
  1
ACAMGTITLESTD
  2
AcAmgTitleStd
  3
"AmgTitle|Product Description: AutoCAD Mechanical|Company: Autodesk, Inc."
 90
     4095
280
     0
281
     0
  0
CLASS
  1
AMDTNOTETEMPLATEDB
  2
AmdtNoteTemplateDB
  3
AcmSymBB|Product Description: AutoCAD Mechanical|Company: Autodesk, Inc.
 90
     1024
280
     0
281
     0
  0
CLASS
  1
ACAMGFILTERDAT
  2
AcAmgFilterDat
  3
"AcadM|Product Description: AutoCAD Mechanical|Company: Autodesk, Inc."
 90
    33792
280
     0
281
     0
  0
CLASS
  1
CAMSSTRUCTBTNSTATE
  2
StructBtnState
  3
DesignerAssemblies
 90
    33792
280
     0
281
     0
  0
CLASS
  1
ACDBPLACEHOLDER
  2
AcDbPlaceHolder
  3
ObjectDBX Classes
 90
        0
280
     0
281
     0
  0
CLASS
  1
LAYOUT
  2
AcDbLayout
  3
ObjectDBX Classes
 90
        0
280
     0
281
     0
  0
CLASS
  1
SOLID_BACKGROUND
  2
AcDbSolidBackground
  3
SCENEOE
 90
    36863
280
     0
281
     0
  0
ENDSEC
  0
SECTION
  2
TABLES
  0
TABLE
  2
VPORT
  5
28
102
{ACAD_XDICTIONARY
360
2C
102
}
330
0
100
AcDbSymbolTable
 70
     1
  0
VPORT
  5
29
330
28
100
AcDbSymbolTableRecord
100
AcDbViewportTableRecord
  2
*ACTIVE
 70
     0
 10
0.0
 20
0.0
 11
1.0
 21
1.0
 12
-21.9435938355091
 22
-8.944349738122582
 13
0.0
 23
0.0
 14
1.0
 24
1.0
 15
0.0
 25
0.0
 16
0.0
 26
0.0
 36
1.0
 17
0.0
 27
0.0
 37
0.0
 40
48.99390974435068
 41
2.068965517241379
 42
50.0
 43
0.0
 44
0.0
 50
0.0
 51
0.0
 71
     0
 72
   100
 73
     1
 74
     1
 75
     0
 76
     0
 77
     0
 78
     0
281
     0
 65
     1
110
0.0
120
0.0
130
0.0
111
1.0
121
0.0
131
0.0
112
0.0
122
1.0
132
0.0
 79
     0
146
0.0
  0
ENDTAB
  0
TABLE
  2
LTYPE
  5
23
330
0
100
AcDbSymbolTable
 70
    12
  0
LTYPE
  5
24
330
23
100
AcDbSymbolTableRecord
100
AcDbLinetypeTableRecord
  2
ByBlock
 70
     0
  3

 72
    65
 73
     0
 40
0.0
  0
LTYPE
  5
25
330
23
100
AcDbSymbolTableRecord
100
AcDbLinetypeTableRecord
  2
ByLayer
 70
     0
  3

 72
    65
 73
     0
 40
0.0
  0
LTYPE
  5
1B
330
23
100
AcDbSymbolTableRecord
100
AcDbLinetypeTableRecord
  2
CONTINUOUS
 70
     0
  3
Solid line
 72
    65
 73
     0
 40
0.0
  0
LTYPE
  5
278
330
23
100
AcDbSymbolTableRecord
100
AcDbLinetypeTableRecord
  2
HIDDEN
 70
     0
  3
Verdeckt
 72
    65
 73
     2
 40
0.375
 49
0.25
 74
     0
 49
-0.125
 74
     0
  0
LTYPE
  5
27A
330
23
100
AcDbSymbolTableRecord
100
AcDbLinetypeTableRecord
  2
PHANTOM2
 70
     0
  3
Phantom (.5x) ___ _ _ ___ _ _ ___ _ _ ___ _ _
 72
    65
 73
     6
 40
1.25
 49
0.625
 74
     0
 49
-0.125
 74
     0
 49
0.125
 74
     0
 49
-0.125
 74
     0
 49
0.125
 74
     0
 49
-0.125
 74
     0
  0
LTYPE
  5
279
330
23
100
AcDbSymbolTableRecord
100
AcDbLinetypeTableRecord
  2
CENTER
 70
     0
  3
Mitte ____ _ ____ _ ____ _ ____ _ ____ _ ____
 72
    65
 73
     4
 40
2.0
 49
1.25
 74
     0
 49
-0.25
 74
     0
 49
0.25
 74
     0
 49
-0.25
 74
     0
  0
LTYPE
  5
27B
330
23
100
AcDbSymbolTableRecord
100
AcDbLinetypeTableRecord
  2
Amconstr
 70
     0
  3
_______________________
 72
    65
 73
     2
 40
9999.0
 49
9999.0
 74
     0
 49
0.0
 74
     0
  0
LTYPE
  5
27C
330
23
100
AcDbSymbolTableRecord
100
AcDbLinetypeTableRecord
  2
CENTER2
 70
     0
  3
Center (.5x) ___ _ ___ _ ___ _ ___ _ ___ _ ___
 72
    65
 73
     4
 40
1.125
 49
0.75
 74
     0
 49
-0.125
 74
     0
 49
0.125
 74
     0
 49
-0.125
 74
     0
  0
LTYPE
  5
27D
330
23
100
AcDbSymbolTableRecord
100
AcDbLinetypeTableRecord
  2
HIDDEN2
 70
     0
  3
Hidden (.5x) _ _ _ _ _ _ _ _ _ _ _ _ _ _ _ _ _
 72
    65
 73
     2
 40
0.1875
 49
0.125
 74
     0
 49
-0.0625
 74
     0
  0
LTYPE
  5
27E
330
23
100
AcDbSymbolTableRecord
100
AcDbLinetypeTableRecord
  2
Amzigzag2
 70
     0
  3
/\/-/\/-/\/-/\/-/\/-/\/
 72
    65
 73
     2
 40
0.4401
 49
0.0001
 74
     4
 75
   136
340
27F
 46
0.0016
 50
0.0
 44
0.0
 45
0.0
 49
-0.4400000000000001
 74
     0
  0
LTYPE
  5
28F
330
23
100
AcDbSymbolTableRecord
100
AcDbLinetypeTableRecord
  2
ACANSTGB
 70
     0
  3
__ . . __ . .
 72
    65
 73
     6
 40
0.35433070866
 49
0.15748031496
 74
     0
 49
-0.03937007874
 74
     0
 49
0.03937007874
 74
     0
 49
-0.03937007874
 74
     0
 49
0.03937007874
 74
     0
 49
-0.03937007874
 74
     0
  0
LTYPE
  5
290
330
23
100
AcDbSymbolTableRecord
100
AcDbLinetypeTableRecord
  2
ACANSTGL
 70
     0
  3
_ _ _ _ _
 72
    65
 73
     2
 40
0.11811023622
 49
0.07874015748
 74
     0
 49
-0.03937007874
 74
     0
  0
LTYPE
  5
70
330
23
100
AcDbSymbolTableRecord
100
AcDbLinetypeTableRecord
  2
DASHDOT
 70
     0
  3
Dash dot __ . __ . __ . __ . __ . __ . __ . __
 72
    65
 73
     4
 40
1.0
 49
0.5
 74
     0
 49
-0.25
 74
     0
 49
0.0
 74
     0
 49
-0.25
 74
     0
  0
LTYPE
  5
85
330
23
100
AcDbSymbolTableRecord
100
AcDbLinetypeTableRecord
  2
DASHED
 70
     0
  3
Dashed __ __ __ __ __ __ __ __ __ __ __ __ __ _
 72
    65
 73
     2
 40
0.75
 49
0.5
 74
     0
 49
-0.25
 74
     0
  0
ENDTAB
  0
TABLE
  2
LAYER
  5
E
102
{ACAD_XDICTIONARY
360
1C
102
}
330
0
100
AcDbSymbolTable
 70
     8
  0
LAYER
  5
F
330
E
100
AcDbSymbolTableRecord
100
AcDbLayerTableRecord
  2
0
 70
     0
 62
     7
  6
CONTINUOUS
370
    -3
390
10
  0
LAYER
  5
81
330
E
100
AcDbSymbolTableRecord
100
AcDbLayerTableRecord
  2
GEB-KONTUR-A
 70
     0
 62
     5
  6
CONTINUOUS
370
    -3
390
10
  0
LAYER
  5
6F
330
E
100
AcDbSymbolTableRecord
100
AcDbLayerTableRecord
  2
GEB-SYMMETRIE
 70
     0
 62
     3
  6
DASHDOT
370
    -3
390
10
1001
AcAecLayerStandard
1000

1000

  0
LAYER
  5
84
330
E
100
AcDbSymbolTableRecord
100
AcDbLayerTableRecord
  2
GEB-VERDECKT
 70
     0
 62
     2
  6
DASHED
370
    -3
390
10
1001
AcAecLayerStandard
1000

1000

  0
LAYER
  5
7C
330
E
100
AcDbSymbolTableRecord
100
AcDbLayerTableRecord
  2
Arbeitspunkt(DIN)
 70
     0
 62
     7
  6
CONTINUOUS
370
    25
390
10
  0
LAYER
  5
274
330
E
100
AcDbSymbolTableRecord
100
AcDbLayerTableRecord
  2
GEB-ART-NR
 70
     0
 62
     1
  6
CONTINUOUS
370
    18
390
10
  0
LAYER
  5
78
330
E
100
AcDbSymbolTableRecord
100
AcDbLayerTableRecord
  2
GEB-BEZUG
 70
     0
 62
     2
  6
CONTINUOUS
370
    25
390
10
  0
LAYER
  5
271
330
E
100
AcDbSymbolTableRecord
100
AcDbLayerTableRecord
  2
GEB-TEXT
 70
     0
 62
     5
  6
CONTINUOUS
370
    18
390
10
  0
ENDTAB
  0
TABLE
  2
STYLE
  5
20
330
0
100
AcDbSymbolTable
 70
     3
  0
STYLE
  5
21
330
20
100
AcDbSymbolTableRecord
100
AcDbTextStyleTableRecord
  2
STANDARD
 70
     0
 40
0.0
 41
1.0
 50
0.0
 71
     0
 42
0.2
  3
arial.ttf
  4

1001
ACAD
1000
Arial
1071
       34
  0
STYLE
  5
27F
330
20
100
AcDbSymbolTableRecord
100
AcDbTextStyleTableRecord
  2

 70
     1
 40
0.0
 41
1.0
 50
0.0
 71
     0
 42
0.2
  3
genltshp.shx
  4

  0
STYLE
  5
28B
330
20
100
AcDbSymbolTableRecord
100
AcDbTextStyleTableRecord
  2
ACANSGDT
 70
     0
 40
0.0
 41
1.0
 50
0.0
 71
     0
 42
0.2
  3
amgdt.shx
  4

  0
ENDTAB
  0
TABLE
  2
VIEW
  5
26
330
0
100
AcDbSymbolTable
 70
     0
  0
ENDTAB
  0
TABLE
  2
UCS
  5
27
330
0
100
AcDbSymbolTable
 70
     0
  0
ENDTAB
  0
TABLE
  2
APPID
  5
2D
330
0
100
AcDbSymbolTable
 70
    14
  0
APPID
  5
1F
330
2D
100
AcDbSymbolTableRecord
100
AcDbRegAppTableRecord
  2
ACAD
 70
     0
  0
APPID
  5
71
330
2D
100
AcDbSymbolTableRecord
100
AcDbRegAppTableRecord
  2
AcAecLayerStandard
 70
     0
  0
APPID
  5
2CE
330
2D
100
AcDbSymbolTableRecord
100
AcDbRegAppTableRecord
  2
ACATTRIBSERVICES
 70
     0
  0
APPID
  5
2F9
330
2D
100
AcDbSymbolTableRecord
100
AcDbRegAppTableRecord
  2
MCAD_NO_VIS
 70
     0
  0
APPID
  5
2FA
330
2D
100
AcDbSymbolTableRecord
100
AcDbRegAppTableRecord
  2
ACAD_TEMP_GRAPHIC
 70
     0
  0
APPID
  5
2FE
330
2D
100
AcDbSymbolTableRecord
100
AcDbRegAppTableRecord
  2
AD_DRAW
 70
     0
  0
APPID
  5
317
330
2D
100
AcDbSymbolTableRecord
100
AcDbRegAppTableRecord
  2
DESIGNERASSEMBLIES
 70
     0
  0
APPID
  5
31C
330
2D
100
AcDbSymbolTableRecord
100
AcDbRegAppTableRecord
  2
ACADM_DIM_EDIT
 70
     0
  0
APPID
  5
31D
330
2D
100
AcDbSymbolTableRecord
100
AcDbRegAppTableRecord
  2
AMDT_DM_ADJ
 70
     0
  0
APPID
  5
33D
330
2D
100
AcDbSymbolTableRecord
100
AcDbRegAppTableRecord
  2
ACAD_DSTYLE_DIMARC_LENGTH_SYMBOL
 70
     0
  0
APPID
  5
33E
330
2D
100
AcDbSymbolTableRecord
100
AcDbRegAppTableRecord
  2
ACAD_DSTYLE_DIM_LINETYPE
 70
     0
  0
APPID
  5
33F
330
2D
100
AcDbSymbolTableRecord
100
AcDbRegAppTableRecord
  2
ACAD_DSTYLE_DIM_EXT1_LINETYPE
 70
     0
  0
APPID
  5
340
330
2D
100
AcDbSymbolTableRecord
100
AcDbRegAppTableRecord
  2
ACAD_DSTYLE_DIM_EXT2_LINETYPE
 70
     0
  0
APPID
  5
36D
330
2D
100
AcDbSymbolTableRecord
100
AcDbRegAppTableRecord
  2
ACAD_MLEADERVER
 70
     0
  0
ENDTAB
  0
TABLE
  2
DIMSTYLE
  5
2E
330
0
100
AcDbSymbolTable
 70
     7
100
AcDbDimStyleTable
 71
     1
340
2F
  0
DIMSTYLE
105
2F
330
2E
100
AcDbSymbolTableRecord
100
AcDbDimStyleTableRecord
  2
STANDARD
 70
     0
279
     2
340
21
  0
DIMSTYLE
105
2A1
102
{ACAD_REACTORS
330
288
102
}
330
2E
100
AcDbSymbolTableRecord
100
AcDbDimStyleTableRecord
  2
AM_ANSI
 70
     0
  4
mm
 41
0.12
 42
0.05
 43
0.5
 44
0.1
 47
0.1
 48
0.1
 78
     7
 79
     2
140
0.12
141
0.0
146
0.71
147
0.06
176
   256
177
   256
178
     2
274
     4
284
     7
340
21
371
    -1
372
    -1
1001
ACAD_DSTYLE_DIMARC_LENGTH_SYMBOL
1070
   379
1070
     1
1001
ACAD_DSTYLE_DIM_LINETYPE
1070
   380
1005
24
1001
ACAD_DSTYLE_DIM_EXT1_LINETYPE
1070
   381
1005
24
1001
ACAD_DSTYLE_DIM_EXT2_LINETYPE
1070
   382
1005
24
  0
DIMSTYLE
105
2A2
330
2E
100
AcDbSymbolTableRecord
100
AcDbDimStyleTableRecord
  2
AM_ANSI$3
 70
     0
  4
mm
 41
0.12
 42
0.05
 43
0.5
 44
0.1
 47
0.1
 48
0.1
 78
     7
 79
     2
140
0.12
141
0.0
146
0.71
147
0.06
176
   256
177
   256
178
     2
274
     4
284
     7
288
     1
289
     0
340
21
371
    -1
372
    -1
1001
ACAD_DSTYLE_DIMARC_LENGTH_SYMBOL
1070
   379
1070
     1
1001
ACAD_DSTYLE_DIM_LINETYPE
1070
   380
1005
24
1001
ACAD_DSTYLE_DIM_EXT1_LINETYPE
1070
   381
1005
24
1001
ACAD_DSTYLE_DIM_EXT2_LINETYPE
1070
   382
1005
24
  0
DIMSTYLE
105
2A3
330
2E
100
AcDbSymbolTableRecord
100
AcDbDimStyleTableRecord
  2
AM_ANSI$4
 70
     0
  4
mm
 41
0.12
 42
0.05
 43
0.5
 44
0.1
 47
0.1
 48
0.1
 78
     7
 79
     2
140
0.12
141
0.0
146
0.71
147
0.06
176
   256
177
   256
178
     2
274
     4
284
     7
288
     1
289
     0
340
21
371
    -1
372
    -1
1001
ACAD_DSTYLE_DIMARC_LENGTH_SYMBOL
1070
   379
1070
     1
1001
ACAD_DSTYLE_DIM_LINETYPE
1070
   380
1005
24
1001
ACAD_DSTYLE_DIM_EXT1_LINETYPE
1070
   381
1005
24
1001
ACAD_DSTYLE_DIM_EXT2_LINETYPE
1070
   382
1005
24
  0
DIMSTYLE
105
2A4
330
2E
100
AcDbSymbolTableRecord
100
AcDbDimStyleTableRecord
  2
AM_ANSI$7
 70
     0
  4
mm
 41
0.12
 42
0.05
 43
0.5
 44
0.1
 47
0.1
 48
0.1
 78
     7
 79
     2
140
0.12
141
0.0
146
0.71
147
0.06
176
   256
177
   256
178
     2
274
     4
284
     7
340
21
371
    -1
372
    -1
1001
ACAD_DSTYLE_DIMARC_LENGTH_SYMBOL
1070
   379
1070
     1
1001
ACAD_DSTYLE_DIM_LINETYPE
1070
   380
1005
24
1001
ACAD_DSTYLE_DIM_EXT1_LINETYPE
1070
   381
1005
24
1001
ACAD_DSTYLE_DIM_EXT2_LINETYPE
1070
   382
1005
24
  0
DIMSTYLE
105
2A5
330
2E
100
AcDbSymbolTableRecord
100
AcDbDimStyleTableRecord
  2
AM_ANSI$SF
 70
     0
  4
mm
 41
0.12
 42
0.05
 43
0.5
 44
0.1
 47
0.1
 48
0.1
 75
     1
 76
     1
 78
     7
 79
     2
140
0.12
141
0.0
146
0.71
147
0.06
176
   256
177
   256
178
     2
274
     4
284
     7
340
21
371
    -1
372
    -1
1001
ACAD_DSTYLE_DIMARC_LENGTH_SYMBOL
1070
   379
1070
     1
1001
ACAD_DSTYLE_DIM_LINETYPE
1070
   380
1005
24
1001
ACAD_DSTYLE_DIM_EXT1_LINETYPE
1070
   381
1005
24
1001
ACAD_DSTYLE_DIM_EXT2_LINETYPE
1070
   382
1005
24
  0
DIMSTYLE
105
2A6
330
2E
100
AcDbSymbolTableRecord
100
AcDbDimStyleTableRecord
  2
AM_ANSI$SH
 70
     0
  4
mm
 41
0.12
 42
0.05
 43
0.5
 44
0.1
 47
0.1
 48
0.1
 75
     1
 76
     1
 78
     7
 79
     2
140
0.12
141
0.0
146
0.71
147
0.06
173
     1
176
   256
177
   256
178
     2
274
     4
284
     7
340
21
343
2A7
371
    -1
372
    -1
1001
ACAD_DSTYLE_DIMARC_LENGTH_SYMBOL
1070
   379
1070
     1
1001
ACAD_DSTYLE_DIM_LINETYPE
1070
   380
1005
24
1001
ACAD_DSTYLE_DIM_EXT1_LINETYPE
1070
   381
1005
24
1001
ACAD_DSTYLE_DIM_EXT2_LINETYPE
1070
   382
1005
24
  0
ENDTAB
  0
TABLE
  2
BLOCK_RECORD
  5
1
330
0
100
AcDbSymbolTable
 70
     3
  0
BLOCK_RECORD
  5
2
102
{ACAD_XDICTIONARY
360
3
102
}
330
1
100
AcDbSymbolTableRecord
100
AcDbBlockTableRecord
  2
*Model_Space
340
7
  0
BLOCK_RECORD
  5
A
330
1
100
AcDbSymbolTableRecord
100
AcDbBlockTableRecord
  2
*Paper_Space
340
D
  0
BLOCK_RECORD
  5
2A7
330
1
100
AcDbSymbolTableRecord
100
AcDbBlockTableRecord
  2
GENAXEH
340
0
  0
BLOCK_RECORD
  5
75
330
1
100
AcDbSymbolTableRecord
100
AcDbBlockTableRecord
  2
Einfügepunkt
340
0
102
{BLKREFS
331
74
102
}
  0
ENDTAB
  0
ENDSEC
  0
SECTION
  2
BLOCKS
  0
BLOCK
  5
5
330
2
100
AcDbEntity
  8
0
100
AcDbBlockBegin
  2
*Model_Space
 70
     0
 10
0.0
 20
0.0
 30
0.0
  3
*Model_Space
  1

  0
ENDBLK
  5
6
330
2
100
AcDbEntity
  8
0
100
AcDbBlockEnd
  0
BLOCK
  5
B
330
A
100
AcDbEntity
 67
     1
  8
0
100
AcDbBlockBegin
  2
*Paper_Space
 70
     0
 10
0.0
 20
0.0
 30
0.0
  3
*Paper_Space
  1

  0
ENDBLK
  5
C
330
A
100
AcDbEntity
 67
     1
  8
0
100
AcDbBlockEnd
  0
BLOCK
  5
2A8
330
2A7
100
AcDbEntity
  8
0
100
AcDbBlockBegin
  2
GENAXEH
 70
     0
 10
0.0
 20
0.0
 30
0.0
  3
GENAXEH
  1

  0
LINE
  5
2A9
330
2A7
100
AcDbEntity
  8
0
100
AcDbLine
 10
-1.0
 20
0.0
 30
0.0
 11
1.0
 21
0.0
 31
0.0
  0
ENDBLK
  5
2AA
330
2A7
100
AcDbEntity
  8
0
100
AcDbBlockEnd
  0
BLOCK
  5
76
330
75
100
AcDbEntity
  8
0
100
AcDbBlockBegin
  2
Einfügepunkt
 70
     0
 10
0.0
 20
0.0
 30
0.0
  3
Einfügepunkt
  1

  0
LINE
  5
77
330
75
100
AcDbEntity
  8
GEB-BEZUG
100
AcDbLine
 10
-0.7071067811865817
 20
-0.7071067811865106
 30
0.0
 11
0.7071067811864751
 21
0.7071067811865817
 31
0.0
  0
LINE
  5
79
330
75
100
AcDbEntity
  8
GEB-BEZUG
100
AcDbLine
 10
-0.7071067811865106
 20
0.7071067811865817
 30
0.0
 11
0.7071067811865462
 21
-0.7071067811865106
 31
0.0
  0
ENDBLK
  5
7A
330
75
100
AcDbEntity
  8
0
100
AcDbBlockEnd
  0
ENDSEC
  0
SECTION
  2
ENTITIES
  0
LINE
  5
6E
330
2
100
AcDbEntity
  8
GEB-SYMMETRIE
 48
25.0
100
AcDbLine
 10
0.0000000000001705
 20
0.0
 30
0.0
 11
2.50000000000017
 21
0.0
 31
0.0
  0
LINE
  5
72
330
2
100
AcDbEntity
  8
GEB-SYMMETRIE
 48
25.0
100
AcDbLine
 10
-29.76534602404195
 20
0.0
 30
0.0
 11
-27.26534602404195
 21
0.0
 31
0.0
  0
LINE
  5
73
330
2
100
AcDbEntity
  8
GEB-SYMMETRIE
 48
25.0
100
AcDbLine
 10
-27.26534602404195
 20
0.0
 30
0.0
 11
0.0000000000001705
 21
0.0
 31
0.0
  0
INSERT
  5
74
330
2
100
AcDbEntity
  8
0
 48
25.0
100
AcDbBlockReference
  2
Einfügepunkt
 10
0.0
 20
0.0
 30
0.0
  0
LINE
  5
7B
330
2
100
AcDbEntity
  8
Arbeitspunkt(DIN)
 48
25.0
100
AcDbLine
 10
0.0000000000001705
 20
0.0
 30
0.0
 11
0.0000000000001705
 21
-2.5
 31
0.0
  0
LINE
  5
7D
330
2
100
AcDbEntity
  8
Arbeitspunkt(DIN)
 48
25.0
100
AcDbLine
 10
0.0000000000001705
 20
0.0
 30
0.0
 11
0.0000000000001705
 21
2.5
 31
0.0
  0
LINE
  5
7E
330
2
100
AcDbEntity
  8
Arbeitspunkt(DIN)
 48
25.0
100
AcDbLine
 10
0.0000000000001705
 20
0.0
 30
0.0
 11
-2.499999999999829
 21
0.0
 31
0.0
  0
LINE
  5
7F
330
2
100
AcDbEntity
  8
Arbeitspunkt(DIN)
 48
25.0
100
AcDbLine
 10
0.0000000000001705
 20
0.0
 30
0.0
 11
2.50000000000017
 21
0.0
 31
0.0
  0
ARC
  5
80
330
2
100
AcDbEntity
  8
GEB-KONTUR-A
 48
25.0
100
AcDbCircle
 10
-27.26534602404195
 20
9.5
 30
0.0
 40
2.0
100
AcDbArc
 50
195.0000000000016
 51
270.0
  0
ARC
  5
82
330
2
100
AcDbEntity
  8
GEB-KONTUR-A
 48
25.0
100
AcDbCircle
 10
-27.26534602404195
 20
-9.5
 30
0.0
 40
2.0
100
AcDbArc
 50
90.0
 51
164.9999999999984
  0
LINE
  5
83
330
2
100
AcDbEntity
  8
GEB-VERDECKT
 48
25.0
100
AcDbLine
 10
-30.51161445249443
 20
6.0
 30
0.0
 11
-31.39999999999986
 21
9.315500000000156
 31
0.0
  0
LINE
  5
86
330
2
100
AcDbEntity
  8
GEB-VERDECKT
 48
25.0
100
AcDbLine
 10
-30.51161445249448
 20
-6.0
 30
0.0
 11
-31.39999999999986
 21
-9.315499999999929
 31
0.0
  0
LINE
  5
87
330
2
100
AcDbEntity
  8
GEB-VERDECKT
 48
25.0
100
AcDbLine
 10
-36.89999999999987
 20
9.315500000000156
 30
0.0
 11
-44.8999999999998
 21
9.315500000000156
 31
0.0
  0
LINE
  5
88
330
2
100
AcDbEntity
  8
GEB-VERDECKT
 48
25.0
100
AcDbLine
 10
-36.89999999999987
 20
-9.315499999999929
 30
0.0
 11
-44.8999999999998
 21
-9.315499999999929
 31
0.0
  0
LINE
  5
89
330
2
100
AcDbEntity
  8
GEB-VERDECKT
 48
25.0
100
AcDbLine
 10
-30.51161445249448
 20
6.0
 30
0.0
 11
-30.51161445249448
 21
-6.0
 31
0.0
  0
LINE
  5
8A
330
2
100
AcDbEntity
  8
GEB-VERDECKT
 48
25.0
100
AcDbLine
 10
-44.8999999999998
 20
9.315500000000156
 30
0.0
 11
-46.39999999999986
 21
10.81550000000015
 31
0.0
  0
LINE
  5
8B
330
2
100
AcDbEntity
  8
GEB-VERDECKT
 48
25.0
100
AcDbLine
 10
-44.8999999999998
 20
-9.315499999999929
 30
0.0
 11
-46.39999999999986
 21
-10.81549999999993
 31
0.0
  0
LINE
  5
8C
330
2
100
AcDbEntity
  8
GEB-VERDECKT
 48
25.0
100
AcDbLine
 10
-44.8999999999998
 20
-9.315499999999929
 30
0.0
 11
-44.8999999999998
 21
9.315500000000156
 31
0.0
  0
LINE
  5
8D
330
2
100
AcDbEntity
  8
GEB-VERDECKT
 48
25.0
100
AcDbLine
 10
-36.89999999999987
 20
-9.315499999999929
 30
0.0
 11
-36.07179103884732
 21
-10.75
 31
0.0
  0
LINE
  5
8E
330
2
100
AcDbEntity
  8
GEB-VERDECKT
 48
25.0
100
AcDbLine
 10
-36.89999999999981
 20
9.315500000000156
 30
0.0
 11
-36.07179103884732
 21
10.75
 31
0.0
  0
LINE
  5
8F
330
2
100
AcDbEntity
  8
GEB-VERDECKT
 48
25.0
100
AcDbLine
 10
-31.39999999999986
 20
10.75
 30
0.0
 11
-36.07179103884732
 21
10.75
 31
0.0
  0
LINE
  5
90
330
2
100
AcDbEntity
  8
GEB-VERDECKT
 48
25.0
100
AcDbLine
 10
-31.39999999999986
 20
-10.75
 30
0.0
 11
-36.07179103884732
 21
-10.75
 31
0.0
  0
LINE
  5
91
330
2
100
AcDbEntity
  8
GEB-VERDECKT
 48
25.0
100
AcDbLine
 10
-36.89999999999987
 20
-9.315499999999929
 30
0.0
 11
-36.89999999999987
 21
9.315500000000156
 31
0.0
  0
LINE
  5
92
330
2
100
AcDbEntity
  8
GEB-VERDECKT
 48
25.0
100
AcDbLine
 10
-31.39999999999986
 20
10.75
 30
0.0
 11
-31.39999999999986
 21
-10.75
 31
0.0
  0
LINE
  5
93
330
2
100
AcDbEntity
  8
GEB-VERDECKT
 48
25.0
100
AcDbLine
 10
-36.07179103884732
 20
10.75
 30
0.0
 11
-36.07179103884732
 21
-10.75
 31
0.0
  0
LINE
  5
94
330
2
100
AcDbEntity
  8
GEB-VERDECKT
 48
25.0
100
AcDbLine
 10
-30.51161445249448
 20
-6.0
 30
0.0
 11
0.0000000000001705
 21
-6.0
 31
0.0
  0
LINE
  5
95
330
2
100
AcDbEntity
  8
GEB-VERDECKT
 48
25.0
100
AcDbLine
 10
-30.51161445249448
 20
6.0
 30
0.0
 11
0.0000000000001705
 21
6.0
 31
0.0
  0
LINE
  5
96
330
2
100
AcDbEntity
  8
GEB-KONTUR-A
 48
25.0
100
AcDbLine
 10
-27.26534602404195
 20
-7.5
 30
0.0
 11
0.0000000000001705
 21
-7.5
 31
0.0
  0
LINE
  5
97
330
2
100
AcDbEntity
  8
GEB-KONTUR-A
 48
25.0
100
AcDbLine
 10
-27.26534602404195
 20
7.5
 30
0.0
 11
0.0000000000001705
 21
7.5
 31
0.0
  0
LINE
  5
98
330
2
100
AcDbEntity
  8
GEB-KONTUR-A
 48
25.0
100
AcDbLine
 10
-29.19719767662008
 20
8.982361909795031
 30
0.0
 11
-30.00577136593989
 21
12.0
 31
0.0
  0
LINE
  5
99
330
2
100
AcDbEntity
  8
GEB-KONTUR-A
 48
25.0
100
AcDbLine
 10
-29.19719767662008
 20
-8.982361909794917
 30
0.0
 11
-30.00577136593989
 21
-12.0
 31
0.0
  0
LINE
  5
9A
330
2
100
AcDbEntity
  8
GEB-KONTUR-A
 48
25.0
100
AcDbLine
 10
-46.39999999999986
 20
12.0
 30
0.0
 11
-46.15884572681181
 21
12.89999999999998
 31
0.0
  0
LINE
  5
9B
330
2
100
AcDbEntity
  8
GEB-KONTUR-A
 48
25.0
100
AcDbLine
 10
-46.39999999999986
 20
-12.0
 30
0.0
 11
-46.15884572681181
 21
-12.89999999999998
 31
0.0
  0
LINE
  5
9C
330
2
100
AcDbEntity
  8
GEB-KONTUR-A
 48
25.0
100
AcDbLine
 10
0.0000000000001705
 20
-7.5
 30
0.0
 11
0.0000000000001705
 21
7.5
 31
0.0
  0
LINE
  5
9D
330
2
100
AcDbEntity
  8
GEB-KONTUR-A
 48
25.0
100
AcDbLine
 10
-46.39999999999986
 20
-4.592201188381068
 30
0.0
 11
-46.39999999999986
 21
4.592201188381181
 31
0.0
  0
LINE
  5
9E
330
2
100
AcDbEntity
  8
GEB-KONTUR-A
 48
25.0
100
AcDbLine
 10
-46.39999999999986
 20
4.592201188381068
 30
0.0
 11
-46.39999999999986
 21
11.08655439013546
 31
0.0
  0
LINE
  5
9F
330
2
100
AcDbEntity
  8
GEB-KONTUR-A
 48
25.0
100
AcDbLine
 10
-46.39999999999986
 20
11.08655439013546
 30
0.0
 11
-46.39999999999986
 21
12.0
 31
0.0
  0
LINE
  5
A0
330
2
100
AcDbEntity
  8
GEB-KONTUR-A
 48
25.0
100
AcDbLine
 10
-46.39999999999986
 20
-12.0
 30
0.0
 11
-46.39999999999986
 21
-11.08655439013546
 31
0.0
  0
LINE
  5
A1
330
2
100
AcDbEntity
  8
GEB-KONTUR-A
 48
25.0
100
AcDbLine
 10
-46.39999999999986
 20
-11.08655439013546
 30
0.0
 11
-46.39999999999986
 21
-4.592201188381068
 31
0.0
  0
POLYLINE
  5
A2
330
2
100
AcDbEntity
  8
GEB-KONTUR-A
 48
25.0
100
AcDb2dPolyline
 66
     1
 10
0.0
 20
0.0
 30
0.0
 70
   128
  0
VERTEX
  5
A3
330
A2
100
AcDbEntity
  8
GEB-KONTUR-A
 48
25.0
100
AcDbVertex
100
AcDb2dVertex
 10
-46.39999866485578
 20
-4.592201113700866
 30
0.0
  0
VERTEX
  5
A4
330
A2
100
AcDbEntity
  8
GEB-KONTUR-A
 48
25.0
100
AcDbVertex
100
AcDb2dVertex
 10
-46.39957904815656
 20
-4.413269162178039
 30
0.0
  0
VERTEX
  5
A5
330
A2
100
AcDbEntity
  8
GEB-KONTUR-A
 48
25.0
100
AcDbVertex
100
AcDb2dVertex
 10
-46.39832973480207
 20
-4.234557449817657
 30
0.0
  0
VERTEX
  5
A6
330
A2
100
AcDbEntity
  8
GEB-KONTUR-A
 48
25.0
100
AcDbVertex
100
AcDb2dVertex
 10
-46.39624118804914
 20
-4.055995941162109
 30
0.0
  0
VERTEX
  5
A7
330
A2
100
AcDbEntity
  8
GEB-KONTUR-A
 48
25.0
100
AcDbVertex
100
AcDb2dVertex
 10
-46.39332771301252
 20
-3.877515196800231
 30
0.0
  0
VERTEX
  5
A8
330
A2
100
AcDbEntity
  8
GEB-KONTUR-A
 48
25.0
100
AcDbVertex
100
AcDb2dVertex
 10
-46.38958454132063
 20
-3.699046671390533
 30
0.0
  0
VERTEX
  5
A9
330
A2
100
AcDbEntity
  8
GEB-KONTUR-A
 48
25.0
100
AcDbVertex
100
AcDb2dVertex
 10
-46.38501167297346
 20
-3.520521223545074
 30
0.0
  0
VERTEX
  5
AA
330
A2
100
AcDbEntity
  8
GEB-KONTUR-A
 48
25.0
100
AcDbVertex
100
AcDb2dVertex
 10
-46.3796138763426
 20
-3.341870605945587
 30
0.0
  0
VERTEX
  5
AB
330
A2
100
AcDbEntity
  8
GEB-KONTUR-A
 48
25.0
100
AcDbVertex
100
AcDb2dVertex
 10
-46.37339115142805
 20
-3.163026571273803
 30
0.0
  0
VERTEX
  5
AC
330
A2
100
AcDbEntity
  8
GEB-KONTUR-A
 48
25.0
100
AcDbVertex
100
AcDb2dVertex
 10
-46.36634349822981
 20
-2.983920574188232
 30
0.0
  0
VERTEX
  5
AD
330
A2
100
AcDbEntity
  8
GEB-KONTUR-A
 48
25.0
100
AcDbVertex
100
AcDb2dVertex
 10
-46.35846614837629
 20
-2.804484963417053
 30
0.0
  0
VERTEX
  5
AE
330
A2
100
AcDbEntity
  8
GEB-KONTUR-A
 48
25.0
100
AcDbVertex
100
AcDb2dVertex
 10
-46.34975433349592
 20
-2.624650597572326
 30
0.0
  0
VERTEX
  5
AF
330
A2
100
AcDbEntity
  8
GEB-KONTUR-A
 48
25.0
100
AcDbVertex
100
AcDb2dVertex
 10
-46.34021282196028
 20
-2.444349229335784
 30
0.0
  0
VERTEX
  5
B0
330
A2
100
AcDbEntity
  8
GEB-KONTUR-A
 48
25.0
100
AcDbVertex
100
AcDb2dVertex
 10
-46.32983684539778
 20
-2.263511717319488
 30
0.0
  0
VERTEX
  5
B1
330
A2
100
AcDbEntity
  8
GEB-KONTUR-A
 48
25.0
100
AcDbVertex
100
AcDb2dVertex
 10
-46.31861686706526
 20
-2.082068920135498
 30
0.0
  0
VERTEX
  5
B2
330
A2
100
AcDbEntity
  8
GEB-KONTUR-A
 48
25.0
100
AcDbVertex
100
AcDb2dVertex
 10
-46.30655288696272
 20
-1.899950802326202
 30
0.0
  0
VERTEX
  5
B3
330
A2
100
AcDbEntity
  8
GEB-KONTUR-A
 48
25.0
100
AcDbVertex
100
AcDb2dVertex
 10
-46.29363536834699
 20
-1.717087179422378
 30
0.0
  0
VERTEX
  5
B4
330
A2
100
AcDbEntity
  8
GEB-KONTUR-A
 48
25.0
100
AcDbVertex
100
AcDb2dVertex
 10
-46.27986431121809
 20
-1.533406972885131
 30
0.0
  0
VERTEX
  5
B5
330
A2
100
AcDbEntity
  8
GEB-KONTUR-A
 48
25.0
100
AcDbVertex
100
AcDb2dVertex
 10
-46.26523017883283
 20
-1.348838359117507
 30
0.0
  0
VERTEX
  5
B6
330
A2
100
AcDbEntity
  8
GEB-KONTUR-A
 48
25.0
100
AcDbVertex
100
AcDb2dVertex
 10
-46.24972343444807
 20
-1.163308545947074
 30
0.0
  0
VERTEX
  5
B7
330
A2
100
AcDbEntity
  8
GEB-KONTUR-A
 48
25.0
100
AcDbVertex
100
AcDb2dVertex
 10
-46.23334407806379
 20
-0.976744070649147
 30
0.0
  0
VERTEX
  5
B8
330
A2
100
AcDbEntity
  8
GEB-KONTUR-A
 48
25.0
100
AcDbVertex
100
AcDb2dVertex
 10
-46.21607303619367
 20
-0.7890703529119492
 30
0.0
  0
VERTEX
  5
B9
330
A2
100
AcDbEntity
  8
GEB-KONTUR-A
 48
25.0
100
AcDbVertex
100
AcDb2dVertex
 10
-46.19790554046613
 20
-0.6002115085721016
 30
0.0
  0
VERTEX
  5
BA
330
A2
100
AcDbEntity
  8
GEB-KONTUR-A
 48
25.0
100
AcDbVertex
100
AcDb2dVertex
 10
-46.17883682250959
 20
-0.4100906103849411
 30
0.0
  0
VERTEX
  5
BB
330
A2
100
AcDbEntity
  8
GEB-KONTUR-A
 48
25.0
100
AcDbVertex
100
AcDb2dVertex
 10
-46.15884780883772
 20
-0.2186292596161365
 30
0.0
  0
SEQEND
  5
BC
330
A2
100
AcDbEntity
  8
GEB-KONTUR-A
 48
25.0
  0
POLYLINE
  5
BD
330
2
100
AcDbEntity
  8
GEB-KONTUR-A
 48
25.0
100
AcDb2dPolyline
 66
     1
 10
0.0
 20
0.0
 30
0.0
 70
   128
  0
VERTEX
  5
BE
330
BD
100
AcDbEntity
  8
GEB-KONTUR-A
 48
25.0
100
AcDbVertex
100
AcDb2dVertex
 10
-46.15884780883772
 20
0.2186292596161365
 30
0.0
  0
VERTEX
  5
BF
330
BD
100
AcDbEntity
  8
GEB-KONTUR-A
 48
25.0
100
AcDbVertex
100
AcDb2dVertex
 10
-46.17883682250959
 20
0.4100906103849411
 30
0.0
  0
VERTEX
  5
C0
330
BD
100
AcDbEntity
  8
GEB-KONTUR-A
 48
25.0
100
AcDbVertex
100
AcDb2dVertex
 10
-46.19790554046613
 20
0.6002115085721016
 30
0.0
  0
VERTEX
  5
C1
330
BD
100
AcDbEntity
  8
GEB-KONTUR-A
 48
25.0
100
AcDbVertex
100
AcDb2dVertex
 10
-46.21607303619367
 20
0.7890703529119492
 30
0.0
  0
VERTEX
  5
C2
330
BD
100
AcDbEntity
  8
GEB-KONTUR-A
 48
25.0
100
AcDbVertex
100
AcDb2dVertex
 10
-46.23334407806379
 20
0.976744070649147
 30
0.0
  0
VERTEX
  5
C3
330
BD
100
AcDbEntity
  8
GEB-KONTUR-A
 48
25.0
100
AcDbVertex
100
AcDb2dVertex
 10
-46.24972343444807
 20
1.163308545947074
 30
0.0
  0
VERTEX
  5
C4
330
BD
100
AcDbEntity
  8
GEB-KONTUR-A
 48
25.0
100
AcDbVertex
100
AcDb2dVertex
 10
-46.26523017883283
 20
1.348838359117507
 30
0.0
  0
VERTEX
  5
C5
330
BD
100
AcDbEntity
  8
GEB-KONTUR-A
 48
25.0
100
AcDbVertex
100
AcDb2dVertex
 10
-46.27986431121809
 20
1.533406972885131
 30
0.0
  0
VERTEX
  5
C6
330
BD
100
AcDbEntity
  8
GEB-KONTUR-A
 48
25.0
100
AcDbVertex
100
AcDb2dVertex
 10
-46.29363536834699
 20
1.717087179422378
 30
0.0
  0
VERTEX
  5
C7
330
BD
100
AcDbEntity
  8
GEB-KONTUR-A
 48
25.0
100
AcDbVertex
100
AcDb2dVertex
 10
-46.30655288696272
 20
1.899950802326202
 30
0.0
  0
VERTEX
  5
C8
330
BD
100
AcDbEntity
  8
GEB-KONTUR-A
 48
25.0
100
AcDbVertex
100
AcDb2dVertex
 10
-46.31861686706526
 20
2.082068920135498
 30
0.0
  0
VERTEX
  5
C9
330
BD
100
AcDbEntity
  8
GEB-KONTUR-A
 48
25.0
100
AcDbVertex
100
AcDb2dVertex
 10
-46.32983684539778
 20
2.263511717319488
 30
0.0
  0
VERTEX
  5
CA
330
BD
100
AcDbEntity
  8
GEB-KONTUR-A
 48
25.0
100
AcDbVertex
100
AcDb2dVertex
 10
-46.34021282196028
 20
2.444349229335784
 30
0.0
  0
VERTEX
  5
CB
330
BD
100
AcDbEntity
  8
GEB-KONTUR-A
 48
25.0
100
AcDbVertex
100
AcDb2dVertex
 10
-46.34975433349592
 20
2.624650597572326
 30
0.0
  0
VERTEX
  5
CC
330
BD
100
AcDbEntity
  8
GEB-KONTUR-A
 48
25.0
100
AcDbVertex
100
AcDb2dVertex
 10
-46.35846614837629
 20
2.804484963417053
 30
0.0
  0
VERTEX
  5
CD
330
BD
100
AcDbEntity
  8
GEB-KONTUR-A
 48
25.0
100
AcDbVertex
100
AcDb2dVertex
 10
-46.36634349822981
 20
2.983920574188232
 30
0.0
  0
VERTEX
  5
CE
330
BD
100
AcDbEntity
  8
GEB-KONTUR-A
 48
25.0
100
AcDbVertex
100
AcDb2dVertex
 10
-46.37339115142805
 20
3.163026571273803
 30
0.0
  0
VERTEX
  5
CF
330
BD
100
AcDbEntity
  8
GEB-KONTUR-A
 48
25.0
100
AcDbVertex
100
AcDb2dVertex
 10
-46.3796138763426
 20
3.341870605945587
 30
0.0
  0
VERTEX
  5
D0
330
BD
100
AcDbEntity
  8
GEB-KONTUR-A
 48
25.0
100
AcDbVertex
100
AcDb2dVertex
 10
-46.38501167297346
 20
3.520521223545074
 30
0.0
  0
VERTEX
  5
D1
330
BD
100
AcDbEntity
  8
GEB-KONTUR-A
 48
25.0
100
AcDbVertex
100
AcDb2dVertex
 10
-46.38958454132063
 20
3.699046671390533
 30
0.0
  0
VERTEX
  5
D2
330
BD
100
AcDbEntity
  8
GEB-KONTUR-A
 48
25.0
100
AcDbVertex
100
AcDb2dVertex
 10
-46.39332771301252
 20
3.877515196800231
 30
0.0
  0
VERTEX
  5
D3
330
BD
100
AcDbEntity
  8
GEB-KONTUR-A
 48
25.0
100
AcDbVertex
100
AcDb2dVertex
 10
-46.39624118804914
 20
4.055995941162109
 30
0.0
  0
VERTEX
  5
D4
330
BD
100
AcDbEntity
  8
GEB-KONTUR-A
 48
25.0
100
AcDbVertex
100
AcDb2dVertex
 10
-46.39832973480207
 20
4.234557449817657
 30
0.0
  0
VERTEX
  5
D5
330
BD
100
AcDbEntity
  8
GEB-KONTUR-A
 48
25.0
100
AcDbVertex
100
AcDb2dVertex
 10
-46.39957904815656
 20
4.413269162178039
 30
0.0
  0
VERTEX
  5
D6
330
BD
100
AcDbEntity
  8
GEB-KONTUR-A
 48
25.0
100
AcDbVertex
100
AcDb2dVertex
 10
-46.39999866485578
 20
4.592201113700866
 30
0.0
  0
SEQEND
  5
D7
330
BD
100
AcDbEntity
  8
GEB-KONTUR-A
 48
25.0
  0
POLYLINE
  5
D8
330
2
100
AcDbEntity
  8
GEB-KONTUR-A
 48
25.0
100
AcDb2dPolyline
 66
     1
 10
0.0
 20
0.0
 30
0.0
 70
   128
  0
VERTEX
  5
D9
330
D8
100
AcDbEntity
  8
GEB-KONTUR-A
 48
25.0
100
AcDbVertex
100
AcDb2dVertex
 10
-46.39999866485578
 20
4.592201113700866
 30
0.0
  0
VERTEX
  5
DA
330
D8
100
AcDbEntity
  8
GEB-KONTUR-A
 48
25.0
100
AcDbVertex
100
AcDb2dVertex
 10
-46.39957904815656
 20
4.771133065223693
 30
0.0
  0
VERTEX
  5
DB
330
D8
100
AcDbEntity
  8
GEB-KONTUR-A
 48
25.0
100
AcDbVertex
100
AcDb2dVertex
 10
-46.39832973480207
 20
4.949845075607299
 30
0.0
  0
VERTEX
  5
DC
330
D8
100
AcDbEntity
  8
GEB-KONTUR-A
 48
25.0
100
AcDbVertex
100
AcDb2dVertex
 10
-46.39624118804914
 20
5.128406286239624
 30
0.0
  0
VERTEX
  5
DD
330
D8
100
AcDbEntity
  8
GEB-KONTUR-A
 48
25.0
100
AcDbVertex
100
AcDb2dVertex
 10
-46.39332771301252
 20
5.306887030601501
 30
0.0
  0
VERTEX
  5
DE
330
D8
100
AcDbEntity
  8
GEB-KONTUR-A
 48
25.0
100
AcDbVertex
100
AcDb2dVertex
 10
-46.38958454132063
 20
5.485355854034423
 30
0.0
  0
VERTEX
  5
DF
330
D8
100
AcDbEntity
  8
GEB-KONTUR-A
 48
25.0
100
AcDbVertex
100
AcDb2dVertex
 10
-46.38501167297346
 20
5.663881301879882
 30
0.0
  0
VERTEX
  5
E0
330
D8
100
AcDbEntity
  8
GEB-KONTUR-A
 48
25.0
100
AcDbVertex
100
AcDb2dVertex
 10
-46.3796138763426
 20
5.84253191947937
 30
0.0
  0
VERTEX
  5
E1
330
D8
100
AcDbEntity
  8
GEB-KONTUR-A
 48
25.0
100
AcDbVertex
100
AcDb2dVertex
 10
-46.37339115142805
 20
6.021375656127929
 30
0.0
  0
VERTEX
  5
E2
330
D8
100
AcDbEntity
  8
GEB-KONTUR-A
 48
25.0
100
AcDbVertex
100
AcDb2dVertex
 10
-46.36634349822981
 20
6.2004816532135
 30
0.0
  0
VERTEX
  5
E3
330
D8
100
AcDbEntity
  8
GEB-KONTUR-A
 48
25.0
100
AcDbVertex
100
AcDb2dVertex
 10
-46.35846614837629
 20
6.37991726398468
 30
0.0
  0
VERTEX
  5
E4
330
D8
100
AcDbEntity
  8
GEB-KONTUR-A
 48
25.0
100
AcDbVertex
100
AcDb2dVertex
 10
-46.34975433349592
 20
6.559751629829406
 30
0.0
  0
VERTEX
  5
E5
330
D8
100
AcDbEntity
  8
GEB-KONTUR-A
 48
25.0
100
AcDbVertex
100
AcDb2dVertex
 10
-46.34021282196028
 20
6.740053296089172
 30
0.0
  0
VERTEX
  5
E6
330
D8
100
AcDbEntity
  8
GEB-KONTUR-A
 48
25.0
100
AcDbVertex
100
AcDb2dVertex
 10
-46.32983684539778
 20
6.920890808105468
 30
0.0
  0
VERTEX
  5
E7
330
D8
100
AcDbEntity
  8
GEB-KONTUR-A
 48
25.0
100
AcDbVertex
100
AcDb2dVertex
 10
-46.31861686706526
 20
7.102333307266235
 30
0.0
  0
VERTEX
  5
E8
330
D8
100
AcDbEntity
  8
GEB-KONTUR-A
 48
25.0
100
AcDbVertex
100
AcDb2dVertex
 10
-46.30655288696272
 20
7.284451723098754
 30
0.0
  0
VERTEX
  5
E9
330
D8
100
AcDbEntity
  8
GEB-KONTUR-A
 48
25.0
100
AcDbVertex
100
AcDb2dVertex
 10
-46.29363536834699
 20
7.467315196990966
 30
0.0
  0
VERTEX
  5
EA
330
D8
100
AcDbEntity
  8
GEB-KONTUR-A
 48
25.0
100
AcDbVertex
100
AcDb2dVertex
 10
-46.27986431121809
 20
7.650995254516601
 30
0.0
  0
VERTEX
  5
EB
330
D8
100
AcDbEntity
  8
GEB-KONTUR-A
 48
25.0
100
AcDbVertex
100
AcDb2dVertex
 10
-46.26523017883283
 20
7.835564017295837
 30
0.0
  0
VERTEX
  5
EC
330
D8
100
AcDbEntity
  8
GEB-KONTUR-A
 48
25.0
100
AcDbVertex
100
AcDb2dVertex
 10
-46.24972343444807
 20
8.021093606948852
 30
0.0
  0
VERTEX
  5
ED
330
D8
100
AcDbEntity
  8
GEB-KONTUR-A
 48
25.0
100
AcDbVertex
100
AcDb2dVertex
 10
-46.23334407806379
 20
8.207658529281616
 30
0.0
  0
VERTEX
  5
EE
330
D8
100
AcDbEntity
  8
GEB-KONTUR-A
 48
25.0
100
AcDbVertex
100
AcDb2dVertex
 10
-46.21607303619367
 20
8.395332098007202
 30
0.0
  0
VERTEX
  5
EF
330
D8
100
AcDbEntity
  8
GEB-KONTUR-A
 48
25.0
100
AcDbVertex
100
AcDb2dVertex
 10
-46.19790554046613
 20
8.584190607070922
 30
0.0
  0
VERTEX
  5
F0
330
D8
100
AcDbEntity
  8
GEB-KONTUR-A
 48
25.0
100
AcDbVertex
100
AcDb2dVertex
 10
-46.17883682250959
 20
8.774311542510986
 30
0.0
  0
VERTEX
  5
F1
330
D8
100
AcDbEntity
  8
GEB-KONTUR-A
 48
25.0
100
AcDbVertex
100
AcDb2dVertex
 10
-46.15884780883772
 20
8.965772986412048
 30
0.0
  0
SEQEND
  5
F2
330
D8
100
AcDbEntity
  8
GEB-KONTUR-A
 48
25.0
  0
POLYLINE
  5
F3
330
2
100
AcDbEntity
  8
GEB-KONTUR-A
 48
25.0
100
AcDb2dPolyline
 66
     1
 10
0.0
 20
0.0
 30
0.0
 70
   128
  0
VERTEX
  5
F4
330
F3
100
AcDbEntity
  8
GEB-KONTUR-A
 48
25.0
100
AcDbVertex
100
AcDb2dVertex
 10
-46.15884780883772
 20
-12.89814710617065
 30
0.0
  0
VERTEX
  5
F5
330
F3
100
AcDbEntity
  8
GEB-KONTUR-A
 48
25.0
100
AcDbVertex
100
AcDb2dVertex
 10
-46.17883682250959
 20
-12.8188407421112
 30
0.0
  0
VERTEX
  5
F6
330
F3
100
AcDbEntity
  8
GEB-KONTUR-A
 48
25.0
100
AcDbVertex
100
AcDb2dVertex
 10
-46.19790554046613
 20
-12.74009108543396
 30
0.0
  0
VERTEX
  5
F7
330
F3
100
AcDbEntity
  8
GEB-KONTUR-A
 48
25.0
100
AcDbVertex
100
AcDb2dVertex
 10
-46.21607303619367
 20
-12.66186237335205
 30
0.0
  0
VERTEX
  5
F8
330
F3
100
AcDbEntity
  8
GEB-KONTUR-A
 48
25.0
100
AcDbVertex
100
AcDb2dVertex
 10
-46.23334407806379
 20
-12.58412599563598
 30
0.0
  0
VERTEX
  5
F9
330
F3
100
AcDbEntity
  8
GEB-KONTUR-A
 48
25.0
100
AcDbVertex
100
AcDb2dVertex
 10
-46.24972343444807
 20
-12.50684857368469
 30
0.0
  0
VERTEX
  5
FA
330
F3
100
AcDbEntity
  8
GEB-KONTUR-A
 48
25.0
100
AcDbVertex
100
AcDb2dVertex
 10
-46.26523017883283
 20
-12.42999911308288
 30
0.0
  0
VERTEX
  5
FB
330
F3
100
AcDbEntity
  8
GEB-KONTUR-A
 48
25.0
100
AcDbVertex
100
AcDb2dVertex
 10
-46.27986431121809
 20
-12.35354900360107
 30
0.0
  0
VERTEX
  5
FC
330
F3
100
AcDbEntity
  8
GEB-KONTUR-A
 48
25.0
100
AcDbVertex
100
AcDb2dVertex
 10
-46.29363536834699
 20
-12.27746605873108
 30
0.0
  0
VERTEX
  5
FD
330
F3
100
AcDbEntity
  8
GEB-KONTUR-A
 48
25.0
100
AcDbVertex
100
AcDb2dVertex
 10
-46.30655288696272
 20
-12.20172047615051
 30
0.0
  0
VERTEX
  5
FE
330
F3
100
AcDbEntity
  8
GEB-KONTUR-A
 48
25.0
100
AcDbVertex
100
AcDb2dVertex
 10
-46.31861686706526
 20
-12.12628483772278
 30
0.0
  0
VERTEX
  5
FF
330
F3
100
AcDbEntity
  8
GEB-KONTUR-A
 48
25.0
100
AcDbVertex
100
AcDb2dVertex
 10
-46.32983684539778
 20
-12.05112934112549
 30
0.0
  0
VERTEX
  5
100
330
F3
100
AcDbEntity
  8
GEB-KONTUR-A
 48
25.0
100
AcDbVertex
100
AcDb2dVertex
 10
-46.34021282196028
 20
-11.97622418403625
 30
0.0
  0
VERTEX
  5
101
330
F3
100
AcDbEntity
  8
GEB-KONTUR-A
 48
25.0
100
AcDbVertex
100
AcDb2dVertex
 10
-46.34975433349592
 20
-11.90154075622558
 30
0.0
  0
VERTEX
  5
102
330
F3
100
AcDbEntity
  8
GEB-KONTUR-A
 48
25.0
100
AcDbVertex
100
AcDb2dVertex
 10
-46.35846614837629
 20
-11.82705044746399
 30
0.0
  0
VERTEX
  5
103
330
F3
100
AcDbEntity
  8
GEB-KONTUR-A
 48
25.0
100
AcDbVertex
100
AcDb2dVertex
 10
-46.36634349822981
 20
-11.75272583961487
 30
0.0
  0
VERTEX
  5
104
330
F3
100
AcDbEntity
  8
GEB-KONTUR-A
 48
25.0
100
AcDbVertex
100
AcDb2dVertex
 10
-46.37339115142805
 20
-11.67853832244873
 30
0.0
  0
VERTEX
  5
105
330
F3
100
AcDbEntity
  8
GEB-KONTUR-A
 48
25.0
100
AcDbVertex
100
AcDb2dVertex
 10
-46.3796138763426
 20
-11.60445809364319
 30
0.0
  0
VERTEX
  5
106
330
F3
100
AcDbEntity
  8
GEB-KONTUR-A
 48
25.0
100
AcDbVertex
100
AcDb2dVertex
 10
-46.38501167297346
 20
-11.53045892715454
 30
0.0
  0
VERTEX
  5
107
330
F3
100
AcDbEntity
  8
GEB-KONTUR-A
 48
25.0
100
AcDbVertex
100
AcDb2dVertex
 10
-46.38958454132063
 20
-11.4565110206604
 30
0.0
  0
VERTEX
  5
108
330
F3
100
AcDbEntity
  8
GEB-KONTUR-A
 48
25.0
100
AcDbVertex
100
AcDb2dVertex
 10
-46.39332771301252
 20
-11.38258695602417
 30
0.0
  0
VERTEX
  5
109
330
F3
100
AcDbEntity
  8
GEB-KONTUR-A
 48
25.0
100
AcDbVertex
100
AcDb2dVertex
 10
-46.39624118804914
 20
-11.30865812301635
 30
0.0
  0
VERTEX
  5
10A
330
F3
100
AcDbEntity
  8
GEB-KONTUR-A
 48
25.0
100
AcDbVertex
100
AcDb2dVertex
 10
-46.39832973480207
 20
-11.23469471931457
 30
0.0
  0
VERTEX
  5
10B
330
F3
100
AcDbEntity
  8
GEB-KONTUR-A
 48
25.0
100
AcDbVertex
100
AcDb2dVertex
 10
-46.39957904815656
 20
-11.16067051887512
 30
0.0
  0
VERTEX
  5
10C
330
F3
100
AcDbEntity
  8
GEB-KONTUR-A
 48
25.0
100
AcDbVertex
100
AcDb2dVertex
 10
-46.39999866485578
 20
-11.08655452728271
 30
0.0
  0
SEQEND
  5
10D
330
F3
100
AcDbEntity
  8
GEB-KONTUR-A
 48
25.0
  0
POLYLINE
  5
10E
330
2
100
AcDbEntity
  8
GEB-KONTUR-A
 48
25.0
100
AcDb2dPolyline
 66
     1
 10
0.0
 20
0.0
 30
0.0
 70
   128
  0
VERTEX
  5
10F
330
10E
100
AcDbEntity
  8
GEB-KONTUR-A
 48
25.0
100
AcDbVertex
100
AcDb2dVertex
 10
-46.39999866485578
 20
-11.08655452728271
 30
0.0
  0
VERTEX
  5
110
330
10E
100
AcDbEntity
  8
GEB-KONTUR-A
 48
25.0
100
AcDbVertex
100
AcDb2dVertex
 10
-46.39957904815656
 20
-11.0124385356903
 30
0.0
  0
VERTEX
  5
111
330
10E
100
AcDbEntity
  8
GEB-KONTUR-A
 48
25.0
100
AcDbVertex
100
AcDb2dVertex
 10
-46.39832973480207
 20
-10.93841314315796
 30
0.0
  0
VERTEX
  5
112
330
10E
100
AcDbEntity
  8
GEB-KONTUR-A
 48
25.0
100
AcDbVertex
100
AcDb2dVertex
 10
-46.39624118804914
 20
-10.86445093154907
 30
0.0
  0
VERTEX
  5
113
330
10E
100
AcDbEntity
  8
GEB-KONTUR-A
 48
25.0
100
AcDbVertex
100
AcDb2dVertex
 10
-46.39332771301252
 20
-10.79052209854126
 30
0.0
  0
VERTEX
  5
114
330
10E
100
AcDbEntity
  8
GEB-KONTUR-A
 48
25.0
100
AcDbVertex
100
AcDb2dVertex
 10
-46.38958454132063
 20
-10.71659803390503
 30
0.0
  0
VERTEX
  5
115
330
10E
100
AcDbEntity
  8
GEB-KONTUR-A
 48
25.0
100
AcDbVertex
100
AcDb2dVertex
 10
-46.38501167297346
 20
-10.64265012741089
 30
0.0
  0
VERTEX
  5
116
330
10E
100
AcDbEntity
  8
GEB-KONTUR-A
 48
25.0
100
AcDbVertex
100
AcDb2dVertex
 10
-46.3796138763426
 20
-10.56865096092224
 30
0.0
  0
VERTEX
  5
117
330
10E
100
AcDbEntity
  8
GEB-KONTUR-A
 48
25.0
100
AcDbVertex
100
AcDb2dVertex
 10
-46.37339115142805
 20
-10.4945707321167
 30
0.0
  0
VERTEX
  5
118
330
10E
100
AcDbEntity
  8
GEB-KONTUR-A
 48
25.0
100
AcDbVertex
100
AcDb2dVertex
 10
-46.36634349822981
 20
-10.42038321495056
 30
0.0
  0
VERTEX
  5
119
330
10E
100
AcDbEntity
  8
GEB-KONTUR-A
 48
25.0
100
AcDbVertex
100
AcDb2dVertex
 10
-46.35846614837629
 20
-10.34605860710144
 30
0.0
  0
VERTEX
  5
11A
330
10E
100
AcDbEntity
  8
GEB-KONTUR-A
 48
25.0
100
AcDbVertex
100
AcDb2dVertex
 10
-46.34975433349592
 20
-10.27156829833984
 30
0.0
  0
VERTEX
  5
11B
330
10E
100
AcDbEntity
  8
GEB-KONTUR-A
 48
25.0
100
AcDbVertex
100
AcDb2dVertex
 10
-46.34021282196028
 20
-10.19688487052917
 30
0.0
  0
VERTEX
  5
11C
330
10E
100
AcDbEntity
  8
GEB-KONTUR-A
 48
25.0
100
AcDbVertex
100
AcDb2dVertex
 10
-46.32983684539778
 20
-10.12197971343994
 30
0.0
  0
VERTEX
  5
11D
330
10E
100
AcDbEntity
  8
GEB-KONTUR-A
 48
25.0
100
AcDbVertex
100
AcDb2dVertex
 10
-46.31861686706526
 20
-10.04682302474975
 30
0.0
  0
VERTEX
  5
11E
330
10E
100
AcDbEntity
  8
GEB-KONTUR-A
 48
25.0
100
AcDbVertex
100
AcDb2dVertex
 10
-46.30655288696272
 20
-9.971387982368469
 30
0.0
  0
VERTEX
  5
11F
330
10E
100
AcDbEntity
  8
GEB-KONTUR-A
 48
25.0
100
AcDbVertex
100
AcDb2dVertex
 10
-46.29363536834699
 20
-9.89564299583435
 30
0.0
  0
VERTEX
  5
120
330
10E
100
AcDbEntity
  8
GEB-KONTUR-A
 48
25.0
100
AcDbVertex
100
AcDb2dVertex
 10
-46.27986431121809
 20
-9.819560647010803
 30
0.0
  0
VERTEX
  5
121
330
10E
100
AcDbEntity
  8
GEB-KONTUR-A
 48
25.0
100
AcDbVertex
100
AcDb2dVertex
 10
-46.26523017883283
 20
-9.743109345436096
 30
0.0
  0
VERTEX
  5
122
330
10E
100
AcDbEntity
  8
GEB-KONTUR-A
 48
25.0
100
AcDbVertex
100
AcDb2dVertex
 10
-46.24972343444807
 20
-9.666260480880737
 30
0.0
  0
VERTEX
  5
123
330
10E
100
AcDbEntity
  8
GEB-KONTUR-A
 48
25.0
100
AcDbVertex
100
AcDb2dVertex
 10
-46.23334407806379
 20
-9.588983058929443
 30
0.0
  0
VERTEX
  5
124
330
10E
100
AcDbEntity
  8
GEB-KONTUR-A
 48
25.0
100
AcDbVertex
100
AcDb2dVertex
 10
-46.21607303619367
 20
-9.511246085166931
 30
0.0
  0
VERTEX
  5
125
330
10E
100
AcDbEntity
  8
GEB-KONTUR-A
 48
25.0
100
AcDbVertex
100
AcDb2dVertex
 10
-46.19790554046613
 20
-9.433017969131469
 30
0.0
  0
VERTEX
  5
126
330
10E
100
AcDbEntity
  8
GEB-KONTUR-A
 48
25.0
100
AcDbVertex
100
AcDb2dVertex
 10
-46.17883682250959
 20
-9.354267716407775
 30
0.0
  0
VERTEX
  5
127
330
10E
100
AcDbEntity
  8
GEB-KONTUR-A
 48
25.0
100
AcDbVertex
100
AcDb2dVertex
 10
-46.15884780883772
 20
-9.274961352348327
 30
0.0
  0
SEQEND
  5
128
330
10E
100
AcDbEntity
  8
GEB-KONTUR-A
 48
25.0
  0
POLYLINE
  5
129
330
2
100
AcDbEntity
  8
GEB-KONTUR-A
 48
25.0
100
AcDb2dPolyline
 66
     1
 10
0.0
 20
0.0
 30
0.0
 70
   128
  0
VERTEX
  5
12A
330
129
100
AcDbEntity
  8
GEB-KONTUR-A
 48
25.0
100
AcDbVertex
100
AcDb2dVertex
 10
-46.15884780883772
 20
-8.965772986412048
 30
0.0
  0
VERTEX
  5
12B
330
129
100
AcDbEntity
  8
GEB-KONTUR-A
 48
25.0
100
AcDbVertex
100
AcDb2dVertex
 10
-46.17883682250959
 20
-8.774311542510986
 30
0.0
  0
VERTEX
  5
12C
330
129
100
AcDbEntity
  8
GEB-KONTUR-A
 48
25.0
100
AcDbVertex
100
AcDb2dVertex
 10
-46.19790554046613
 20
-8.584190607070922
 30
0.0
  0
VERTEX
  5
12D
330
129
100
AcDbEntity
  8
GEB-KONTUR-A
 48
25.0
100
AcDbVertex
100
AcDb2dVertex
 10
-46.21607303619367
 20
-8.395332098007202
 30
0.0
  0
VERTEX
  5
12E
330
129
100
AcDbEntity
  8
GEB-KONTUR-A
 48
25.0
100
AcDbVertex
100
AcDb2dVertex
 10
-46.23334407806379
 20
-8.207658529281616
 30
0.0
  0
VERTEX
  5
12F
330
129
100
AcDbEntity
  8
GEB-KONTUR-A
 48
25.0
100
AcDbVertex
100
AcDb2dVertex
 10
-46.24972343444807
 20
-8.021093606948852
 30
0.0
  0
VERTEX
  5
130
330
129
100
AcDbEntity
  8
GEB-KONTUR-A
 48
25.0
100
AcDbVertex
100
AcDb2dVertex
 10
-46.26523017883283
 20
-7.835564017295837
 30
0.0
  0
VERTEX
  5
131
330
129
100
AcDbEntity
  8
GEB-KONTUR-A
 48
25.0
100
AcDbVertex
100
AcDb2dVertex
 10
-46.27986431121809
 20
-7.650995254516601
 30
0.0
  0
VERTEX
  5
132
330
129
100
AcDbEntity
  8
GEB-KONTUR-A
 48
25.0
100
AcDbVertex
100
AcDb2dVertex
 10
-46.29363536834699
 20
-7.467315196990966
 30
0.0
  0
VERTEX
  5
133
330
129
100
AcDbEntity
  8
GEB-KONTUR-A
 48
25.0
100
AcDbVertex
100
AcDb2dVertex
 10
-46.30655288696272
 20
-7.284451723098754
 30
0.0
  0
VERTEX
  5
134
330
129
100
AcDbEntity
  8
GEB-KONTUR-A
 48
25.0
100
AcDbVertex
100
AcDb2dVertex
 10
-46.31861686706526
 20
-7.102333307266235
 30
0.0
  0
VERTEX
  5
135
330
129
100
AcDbEntity
  8
GEB-KONTUR-A
 48
25.0
100
AcDbVertex
100
AcDb2dVertex
 10
-46.32983684539778
 20
-6.920890808105468
 30
0.0
  0
VERTEX
  5
136
330
129
100
AcDbEntity
  8
GEB-KONTUR-A
 48
25.0
100
AcDbVertex
100
AcDb2dVertex
 10
-46.34021282196028
 20
-6.740053296089172
 30
0.0
  0
VERTEX
  5
137
330
129
100
AcDbEntity
  8
GEB-KONTUR-A
 48
25.0
100
AcDbVertex
100
AcDb2dVertex
 10
-46.34975433349592
 20
-6.559751629829406
 30
0.0
  0
VERTEX
  5
138
330
129
100
AcDbEntity
  8
GEB-KONTUR-A
 48
25.0
100
AcDbVertex
100
AcDb2dVertex
 10
-46.35846614837629
 20
-6.37991726398468
 30
0.0
  0
VERTEX
  5
139
330
129
100
AcDbEntity
  8
GEB-KONTUR-A
 48
25.0
100
AcDbVertex
100
AcDb2dVertex
 10
-46.36634349822981
 20
-6.2004816532135
 30
0.0
  0
VERTEX
  5
13A
330
129
100
AcDbEntity
  8
GEB-KONTUR-A
 48
25.0
100
AcDbVertex
100
AcDb2dVertex
 10
-46.37339115142805
 20
-6.021375656127929
 30
0.0
  0
VERTEX
  5
13B
330
129
100
AcDbEntity
  8
GEB-KONTUR-A
 48
25.0
100
AcDbVertex
100
AcDb2dVertex
 10
-46.3796138763426
 20
-5.84253191947937
 30
0.0
  0
VERTEX
  5
13C
330
129
100
AcDbEntity
  8
GEB-KONTUR-A
 48
25.0
100
AcDbVertex
100
AcDb2dVertex
 10
-46.38501167297346
 20
-5.663881301879882
 30
0.0
  0
VERTEX
  5
13D
330
129
100
AcDbEntity
  8
GEB-KONTUR-A
 48
25.0
100
AcDbVertex
100
AcDb2dVertex
 10
-46.38958454132063
 20
-5.485355854034423
 30
0.0
  0
VERTEX
  5
13E
330
129
100
AcDbEntity
  8
GEB-KONTUR-A
 48
25.0
100
AcDbVertex
100
AcDb2dVertex
 10
-46.39332771301252
 20
-5.306887030601501
 30
0.0
  0
VERTEX
  5
13F
330
129
100
AcDbEntity
  8
GEB-KONTUR-A
 48
25.0
100
AcDbVertex
100
AcDb2dVertex
 10
-46.39624118804914
 20
-5.128406286239624
 30
0.0
  0
VERTEX
  5
140
330
129
100
AcDbEntity
  8
GEB-KONTUR-A
 48
25.0
100
AcDbVertex
100
AcDb2dVertex
 10
-46.39832973480207
 20
-4.949845075607299
 30
0.0
  0
VERTEX
  5
141
330
129
100
AcDbEntity
  8
GEB-KONTUR-A
 48
25.0
100
AcDbVertex
100
AcDb2dVertex
 10
-46.39957904815656
 20
-4.771133065223693
 30
0.0
  0
VERTEX
  5
142
330
129
100
AcDbEntity
  8
GEB-KONTUR-A
 48
25.0
100
AcDbVertex
100
AcDb2dVertex
 10
-46.39999866485578
 20
-4.592201113700866
 30
0.0
  0
SEQEND
  5
143
330
129
100
AcDbEntity
  8
GEB-KONTUR-A
 48
25.0
  0
POLYLINE
  5
144
330
2
100
AcDbEntity
  8
GEB-KONTUR-A
 48
25.0
100
AcDb2dPolyline
 66
     1
 10
0.0
 20
0.0
 30
0.0
 70
   128
  0
VERTEX
  5
145
330
144
100
AcDbEntity
  8
GEB-KONTUR-A
 48
25.0
100
AcDbVertex
100
AcDb2dVertex
 10
-46.15884780883772
 20
9.274961352348327
 30
0.0
  0
VERTEX
  5
146
330
144
100
AcDbEntity
  8
GEB-KONTUR-A
 48
25.0
100
AcDbVertex
100
AcDb2dVertex
 10
-46.17883682250959
 20
9.354267716407775
 30
0.0
  0
VERTEX
  5
147
330
144
100
AcDbEntity
  8
GEB-KONTUR-A
 48
25.0
100
AcDbVertex
100
AcDb2dVertex
 10
-46.19790554046613
 20
9.433017969131469
 30
0.0
  0
VERTEX
  5
148
330
144
100
AcDbEntity
  8
GEB-KONTUR-A
 48
25.0
100
AcDbVertex
100
AcDb2dVertex
 10
-46.21607303619367
 20
9.511246085166931
 30
0.0
  0
VERTEX
  5
149
330
144
100
AcDbEntity
  8
GEB-KONTUR-A
 48
25.0
100
AcDbVertex
100
AcDb2dVertex
 10
-46.23334407806379
 20
9.588983058929443
 30
0.0
  0
VERTEX
  5
14A
330
144
100
AcDbEntity
  8
GEB-KONTUR-A
 48
25.0
100
AcDbVertex
100
AcDb2dVertex
 10
-46.24972343444807
 20
9.666260480880737
 30
0.0
  0
VERTEX
  5
14B
330
144
100
AcDbEntity
  8
GEB-KONTUR-A
 48
25.0
100
AcDbVertex
100
AcDb2dVertex
 10
-46.26523017883283
 20
9.743109345436096
 30
0.0
  0
VERTEX
  5
14C
330
144
100
AcDbEntity
  8
GEB-KONTUR-A
 48
25.0
100
AcDbVertex
100
AcDb2dVertex
 10
-46.27986431121809
 20
9.819560647010803
 30
0.0
  0
VERTEX
  5
14D
330
144
100
AcDbEntity
  8
GEB-KONTUR-A
 48
25.0
100
AcDbVertex
100
AcDb2dVertex
 10
-46.29363536834699
 20
9.89564299583435
 30
0.0
  0
VERTEX
  5
14E
330
144
100
AcDbEntity
  8
GEB-KONTUR-A
 48
25.0
100
AcDbVertex
100
AcDb2dVertex
 10
-46.30655288696272
 20
9.971387982368469
 30
0.0
  0
VERTEX
  5
14F
330
144
100
AcDbEntity
  8
GEB-KONTUR-A
 48
25.0
100
AcDbVertex
100
AcDb2dVertex
 10
-46.31861686706526
 20
10.04682302474975
 30
0.0
  0
VERTEX
  5
150
330
144
100
AcDbEntity
  8
GEB-KONTUR-A
 48
25.0
100
AcDbVertex
100
AcDb2dVertex
 10
-46.32983684539778
 20
10.12197971343994
 30
0.0
  0
VERTEX
  5
151
330
144
100
AcDbEntity
  8
GEB-KONTUR-A
 48
25.0
100
AcDbVertex
100
AcDb2dVertex
 10
-46.34021282196028
 20
10.19688487052917
 30
0.0
  0
VERTEX
  5
152
330
144
100
AcDbEntity
  8
GEB-KONTUR-A
 48
25.0
100
AcDbVertex
100
AcDb2dVertex
 10
-46.34975433349592
 20
10.27156829833984
 30
0.0
  0
VERTEX
  5
153
330
144
100
AcDbEntity
  8
GEB-KONTUR-A
 48
25.0
100
AcDbVertex
100
AcDb2dVertex
 10
-46.35846614837629
 20
10.34605860710144
 30
0.0
  0
VERTEX
  5
154
330
144
100
AcDbEntity
  8
GEB-KONTUR-A
 48
25.0
100
AcDbVertex
100
AcDb2dVertex
 10
-46.36634349822981
 20
10.42038321495056
 30
0.0
  0
VERTEX
  5
155
330
144
100
AcDbEntity
  8
GEB-KONTUR-A
 48
25.0
100
AcDbVertex
100
AcDb2dVertex
 10
-46.37339115142805
 20
10.4945707321167
 30
0.0
  0
VERTEX
  5
156
330
144
100
AcDbEntity
  8
GEB-KONTUR-A
 48
25.0
100
AcDbVertex
100
AcDb2dVertex
 10
-46.3796138763426
 20
10.56865096092224
 30
0.0
  0
VERTEX
  5
157
330
144
100
AcDbEntity
  8
GEB-KONTUR-A
 48
25.0
100
AcDbVertex
100
AcDb2dVertex
 10
-46.38501167297346
 20
10.64265012741089
 30
0.0
  0
VERTEX
  5
158
330
144
100
AcDbEntity
  8
GEB-KONTUR-A
 48
25.0
100
AcDbVertex
100
AcDb2dVertex
 10
-46.38958454132063
 20
10.71659803390503
 30
0.0
  0
VERTEX
  5
159
330
144
100
AcDbEntity
  8
GEB-KONTUR-A
 48
25.0
100
AcDbVertex
100
AcDb2dVertex
 10
-46.39332771301252
 20
10.79052209854126
 30
0.0
  0
VERTEX
  5
15A
330
144
100
AcDbEntity
  8
GEB-KONTUR-A
 48
25.0
100
AcDbVertex
100
AcDb2dVertex
 10
-46.39624118804914
 20
10.86445093154907
 30
0.0
  0
VERTEX
  5
15B
330
144
100
AcDbEntity
  8
GEB-KONTUR-A
 48
25.0
100
AcDbVertex
100
AcDb2dVertex
 10
-46.39832973480207
 20
10.93841314315796
 30
0.0
  0
VERTEX
  5
15C
330
144
100
AcDbEntity
  8
GEB-KONTUR-A
 48
25.0
100
AcDbVertex
100
AcDb2dVertex
 10
-46.39957904815656
 20
11.0124385356903
 30
0.0
  0
VERTEX
  5
15D
330
144
100
AcDbEntity
  8
GEB-KONTUR-A
 48
25.0
100
AcDbVertex
100
AcDb2dVertex
 10
-46.39999866485578
 20
11.08655452728271
 30
0.0
  0
SEQEND
  5
15E
330
144
100
AcDbEntity
  8
GEB-KONTUR-A
 48
25.0
  0
POLYLINE
  5
15F
330
2
100
AcDbEntity
  8
GEB-KONTUR-A
 48
25.0
100
AcDb2dPolyline
 66
     1
 10
0.0
 20
0.0
 30
0.0
 70
   128
  0
VERTEX
  5
160
330
15F
100
AcDbEntity
  8
GEB-KONTUR-A
 48
25.0
100
AcDbVertex
100
AcDb2dVertex
 10
-46.39999866485578
 20
11.08655452728271
 30
0.0
  0
VERTEX
  5
161
330
15F
100
AcDbEntity
  8
GEB-KONTUR-A
 48
25.0
100
AcDbVertex
100
AcDb2dVertex
 10
-46.39957904815656
 20
11.16067051887512
 30
0.0
  0
VERTEX
  5
162
330
15F
100
AcDbEntity
  8
GEB-KONTUR-A
 48
25.0
100
AcDbVertex
100
AcDb2dVertex
 10
-46.39832973480207
 20
11.23469471931457
 30
0.0
  0
VERTEX
  5
163
330
15F
100
AcDbEntity
  8
GEB-KONTUR-A
 48
25.0
100
AcDbVertex
100
AcDb2dVertex
 10
-46.39624118804914
 20
11.30865812301635
 30
0.0
  0
VERTEX
  5
164
330
15F
100
AcDbEntity
  8
GEB-KONTUR-A
 48
25.0
100
AcDbVertex
100
AcDb2dVertex
 10
-46.39332771301252
 20
11.38258695602417
 30
0.0
  0
VERTEX
  5
165
330
15F
100
AcDbEntity
  8
GEB-KONTUR-A
 48
25.0
100
AcDbVertex
100
AcDb2dVertex
 10
-46.38958454132063
 20
11.4565110206604
 30
0.0
  0
VERTEX
  5
166
330
15F
100
AcDbEntity
  8
GEB-KONTUR-A
 48
25.0
100
AcDbVertex
100
AcDb2dVertex
 10
-46.38501167297346
 20
11.53045892715454
 30
0.0
  0
VERTEX
  5
167
330
15F
100
AcDbEntity
  8
GEB-KONTUR-A
 48
25.0
100
AcDbVertex
100
AcDb2dVertex
 10
-46.3796138763426
 20
11.60445809364319
 30
0.0
  0
VERTEX
  5
168
330
15F
100
AcDbEntity
  8
GEB-KONTUR-A
 48
25.0
100
AcDbVertex
100
AcDb2dVertex
 10
-46.37339115142805
 20
11.67853832244873
 30
0.0
  0
VERTEX
  5
169
330
15F
100
AcDbEntity
  8
GEB-KONTUR-A
 48
25.0
100
AcDbVertex
100
AcDb2dVertex
 10
-46.36634349822981
 20
11.75272583961487
 30
0.0
  0
VERTEX
  5
16A
330
15F
100
AcDbEntity
  8
GEB-KONTUR-A
 48
25.0
100
AcDbVertex
100
AcDb2dVertex
 10
-46.35846614837629
 20
11.82705044746399
 30
0.0
  0
VERTEX
  5
16B
330
15F
100
AcDbEntity
  8
GEB-KONTUR-A
 48
25.0
100
AcDbVertex
100
AcDb2dVertex
 10
-46.34975433349592
 20
11.90154075622558
 30
0.0
  0
VERTEX
  5
16C
330
15F
100
AcDbEntity
  8
GEB-KONTUR-A
 48
25.0
100
AcDbVertex
100
AcDb2dVertex
 10
-46.34021282196028
 20
11.97622418403625
 30
0.0
  0
VERTEX
  5
16D
330
15F
100
AcDbEntity
  8
GEB-KONTUR-A
 48
25.0
100
AcDbVertex
100
AcDb2dVertex
 10
-46.32983684539778
 20
12.05112934112549
 30
0.0
  0
VERTEX
  5
16E
330
15F
100
AcDbEntity
  8
GEB-KONTUR-A
 48
25.0
100
AcDbVertex
100
AcDb2dVertex
 10
-46.31861686706526
 20
12.12628483772278
 30
0.0
  0
VERTEX
  5
16F
330
15F
100
AcDbEntity
  8
GEB-KONTUR-A
 48
25.0
100
AcDbVertex
100
AcDb2dVertex
 10
-46.30655288696272
 20
12.20172047615051
 30
0.0
  0
VERTEX
  5
170
330
15F
100
AcDbEntity
  8
GEB-KONTUR-A
 48
25.0
100
AcDbVertex
100
AcDb2dVertex
 10
-46.29363536834699
 20
12.27746605873108
 30
0.0
  0
VERTEX
  5
171
330
15F
100
AcDbEntity
  8
GEB-KONTUR-A
 48
25.0
100
AcDbVertex
100
AcDb2dVertex
 10
-46.27986431121809
 20
12.35354900360107
 30
0.0
  0
VERTEX
  5
172
330
15F
100
AcDbEntity
  8
GEB-KONTUR-A
 48
25.0
100
AcDbVertex
100
AcDb2dVertex
 10
-46.26523017883283
 20
12.42999911308288
 30
0.0
  0
VERTEX
  5
173
330
15F
100
AcDbEntity
  8
GEB-KONTUR-A
 48
25.0
100
AcDbVertex
100
AcDb2dVertex
 10
-46.24972343444807
 20
12.50684857368469
 30
0.0
  0
VERTEX
  5
174
330
15F
100
AcDbEntity
  8
GEB-KONTUR-A
 48
25.0
100
AcDbVertex
100
AcDb2dVertex
 10
-46.23334407806379
 20
12.58412599563598
 30
0.0
  0
VERTEX
  5
175
330
15F
100
AcDbEntity
  8
GEB-KONTUR-A
 48
25.0
100
AcDbVertex
100
AcDb2dVertex
 10
-46.21607303619367
 20
12.66186237335205
 30
0.0
  0
VERTEX
  5
176
330
15F
100
AcDbEntity
  8
GEB-KONTUR-A
 48
25.0
100
AcDbVertex
100
AcDb2dVertex
 10
-46.19790554046613
 20
12.74009108543396
 30
0.0
  0
VERTEX
  5
177
330
15F
100
AcDbEntity
  8
GEB-KONTUR-A
 48
25.0
100
AcDbVertex
100
AcDb2dVertex
 10
-46.17883682250959
 20
12.8188407421112
 30
0.0
  0
VERTEX
  5
178
330
15F
100
AcDbEntity
  8
GEB-KONTUR-A
 48
25.0
100
AcDbVertex
100
AcDb2dVertex
 10
-46.15884780883772
 20
12.89814710617065
 30
0.0
  0
SEQEND
  5
179
330
15F
100
AcDbEntity
  8
GEB-KONTUR-A
 48
25.0
  0
LINE
  5
17A
330
2
100
AcDbEntity
  8
GEB-KONTUR-A
 48
25.0
100
AcDbLine
 10
-46.15884572681181
 20
-12.89999999999998
 30
0.0
 11
-37.94115427318786
 21
-12.89999999999998
 31
0.0
  0
LINE
  5
17B
330
2
100
AcDbEntity
  8
GEB-KONTUR-A
 48
25.0
100
AcDbLine
 10
-46.15884572681181
 20
12.89999999999998
 30
0.0
 11
-37.94115427318786
 21
12.89999999999998
 31
0.0
  0
LINE
  5
17C
330
2
100
AcDbEntity
  8
GEB-KONTUR-A
 48
25.0
100
AcDbLine
 10
-37.94115427318786
 20
-9.274961578048532
 30
0.0
 11
-46.15884572681181
 21
-9.274961578048532
 31
0.0
  0
LINE
  5
17D
330
2
100
AcDbEntity
  8
GEB-KONTUR-A
 48
25.0
100
AcDbLine
 10
-46.15884572681181
 20
-8.965773124818724
 30
0.0
 11
-46.15884572681181
 21
-9.274961578048532
 31
0.0
  0
LINE
  5
17E
330
2
100
AcDbEntity
  8
GEB-KONTUR-A
 48
25.0
100
AcDbLine
 10
-46.15884572681181
 20
-8.965773124818724
 30
0.0
 11
-37.94115427318786
 21
-8.965773124818724
 31
0.0
  0
LINE
  5
17F
330
2
100
AcDbEntity
  8
GEB-KONTUR-A
 48
25.0
100
AcDbLine
 10
-46.15884572681181
 20
-12.89814720222227
 30
0.0
 11
-46.15884572681181
 21
-12.89999999999998
 31
0.0
  0
LINE
  5
180
330
2
100
AcDbEntity
  8
GEB-KONTUR-A
 48
25.0
100
AcDbLine
 10
-46.15884572681181
 20
-12.89814720222227
 30
0.0
 11
-37.94115427318786
 21
-12.89814720222227
 31
0.0
  0
LINE
  5
181
330
2
100
AcDbEntity
  8
GEB-KONTUR-A
 48
25.0
100
AcDbLine
 10
-37.94115427318786
 20
8.965773124818724
 30
0.0
 11
-46.15884572681181
 21
8.965773124818724
 31
0.0
  0
LINE
  5
182
330
2
100
AcDbEntity
  8
GEB-KONTUR-A
 48
25.0
100
AcDbLine
 10
-46.15884572681181
 20
9.274961578048646
 30
0.0
 11
-46.15884572681181
 21
8.965773124818838
 31
0.0
  0
LINE
  5
183
330
2
100
AcDbEntity
  8
GEB-KONTUR-A
 48
25.0
100
AcDbLine
 10
-37.94115427318786
 20
-0.2186292519432982
 30
0.0
 11
-46.15884572681181
 21
-0.2186292519432982
 31
0.0
  0
LINE
  5
184
330
2
100
AcDbEntity
  8
GEB-KONTUR-A
 48
25.0
100
AcDbLine
 10
-46.15884572681181
 20
0.2186292519434119
 30
0.0
 11
-46.15884572681181
 21
-0.2186292519432982
 31
0.0
  0
LINE
  5
185
330
2
100
AcDbEntity
  8
GEB-KONTUR-A
 48
25.0
100
AcDbLine
 10
-46.15884572681181
 20
0.2186292519434119
 30
0.0
 11
-37.94115427318786
 21
0.2186292519434119
 31
0.0
  0
LINE
  5
186
330
2
100
AcDbEntity
  8
GEB-KONTUR-A
 48
25.0
100
AcDbLine
 10
-46.15884572681181
 20
12.89999999999998
 30
0.0
 11
-46.15884572681181
 21
12.89814720222227
 31
0.0
  0
LINE
  5
187
330
2
100
AcDbEntity
  8
GEB-KONTUR-A
 48
25.0
100
AcDbLine
 10
-46.15884572681181
 20
9.274961578048646
 30
0.0
 11
-37.94115427318786
 21
9.274961578048646
 31
0.0
  0
LINE
  5
188
330
2
100
AcDbEntity
  8
GEB-KONTUR-A
 48
25.0
100
AcDbLine
 10
-37.94115427318786
 20
12.89814720222227
 30
0.0
 11
-46.15884572681181
 21
12.89814720222227
 31
0.0
  0
LINE
  5
189
330
2
100
AcDbEntity
  8
GEB-KONTUR-A
 48
25.0
100
AcDbLine
 10
-30.00577136593989
 20
12.0
 30
0.0
 11
-37.69999999999982
 21
12.0
 31
0.0
  0
LINE
  5
18A
330
2
100
AcDbEntity
  8
GEB-KONTUR-A
 48
25.0
100
AcDbLine
 10
-30.00577136593989
 20
-12.0
 30
0.0
 11
-37.69999999999982
 21
-12.0
 31
0.0
  0
LINE
  5
18B
330
2
100
AcDbEntity
  8
GEB-KONTUR-A
 48
25.0
100
AcDbLine
 10
-37.69999999999982
 20
12.0
 30
0.0
 11
-37.94115427318786
 21
12.89999999999998
 31
0.0
  0
LINE
  5
18C
330
2
100
AcDbEntity
  8
GEB-KONTUR-A
 48
25.0
100
AcDbLine
 10
-37.69999999999982
 20
-12.0
 30
0.0
 11
-37.94115427318786
 21
-12.89999999999998
 31
0.0
  0
LINE
  5
18D
330
2
100
AcDbEntity
  8
GEB-KONTUR-A
 48
25.0
100
AcDbLine
 10
-30.00577136593989
 20
-12.0
 30
0.0
 11
-30.00577136593989
 21
12.0
 31
0.0
  0
LINE
  5
18E
330
2
100
AcDbEntity
  8
GEB-KONTUR-A
 48
25.0
100
AcDbLine
 10
-37.94115427318786
 20
12.89999999999998
 30
0.0
 11
-37.94115427318786
 21
12.89814720222227
 31
0.0
  0
LINE
  5
18F
330
2
100
AcDbEntity
  8
GEB-KONTUR-A
 48
25.0
100
AcDbLine
 10
-37.69999999999982
 20
12.0
 30
0.0
 11
-37.69999999999982
 21
11.08655439013546
 31
0.0
  0
POLYLINE
  5
190
330
2
100
AcDbEntity
  8
GEB-KONTUR-A
 48
25.0
100
AcDb2dPolyline
 66
     1
 10
0.0
 20
0.0
 30
0.0
 70
   128
  0
VERTEX
  5
191
330
190
100
AcDbEntity
  8
GEB-KONTUR-A
 48
25.0
100
AcDbVertex
100
AcDb2dVertex
 10
-37.69999980926497
 20
11.08655452728271
 30
0.0
  0
VERTEX
  5
192
330
190
100
AcDbEntity
  8
GEB-KONTUR-A
 48
25.0
100
AcDbVertex
100
AcDb2dVertex
 10
-37.70042657852156
 20
11.1614191532135
 30
0.0
  0
VERTEX
  5
193
330
190
100
AcDbEntity
  8
GEB-KONTUR-A
 48
25.0
100
AcDbVertex
100
AcDb2dVertex
 10
-37.70170450210554
 20
11.23612523078918
 30
0.0
  0
VERTEX
  5
194
330
190
100
AcDbEntity
  8
GEB-KONTUR-A
 48
25.0
100
AcDbVertex
100
AcDb2dVertex
 10
-37.70382881164534
 20
11.31070375442505
 30
0.0
  0
VERTEX
  5
195
330
190
100
AcDbEntity
  8
GEB-KONTUR-A
 48
25.0
100
AcDbVertex
100
AcDb2dVertex
 10
-37.70679235458357
 20
11.38518333435058
 30
0.0
  0
VERTEX
  5
196
330
190
100
AcDbEntity
  8
GEB-KONTUR-A
 48
25.0
100
AcDbVertex
100
AcDb2dVertex
 10
-37.71059036254866
 20
11.45959258079529
 30
0.0
  0
VERTEX
  5
197
330
190
100
AcDbEntity
  8
GEB-KONTUR-A
 48
25.0
100
AcDbVertex
100
AcDb2dVertex
 10
-37.71522521972639
 20
11.53396248817444
 30
0.0
  0
VERTEX
  5
198
330
190
100
AcDbEntity
  8
GEB-KONTUR-A
 48
25.0
100
AcDbVertex
100
AcDb2dVertex
 10
-37.72068738937361
 20
11.60832047462463
 30
0.0
  0
VERTEX
  5
199
330
190
100
AcDbEntity
  8
GEB-KONTUR-A
 48
25.0
100
AcDbVertex
100
AcDb2dVertex
 10
-37.7269792556761
 20
11.68269634246826
 30
0.0
  0
VERTEX
  5
19A
330
190
100
AcDbEntity
  8
GEB-KONTUR-A
 48
25.0
100
AcDbVertex
100
AcDb2dVertex
 10
-37.73409843444807
 20
11.75711750984192
 30
0.0
  0
VERTEX
  5
19B
330
190
100
AcDbEntity
  8
GEB-KONTUR-A
 48
25.0
100
AcDbVertex
100
AcDb2dVertex
 10
-37.74204492568953
 20
11.8316113948822
 30
0.0
  0
VERTEX
  5
19C
330
190
100
AcDbEntity
  8
GEB-KONTUR-A
 48
25.0
100
AcDbVertex
100
AcDb2dVertex
 10
-37.75081634521467
 20
11.90620899200439
 30
0.0
  0
VERTEX
  5
19D
330
190
100
AcDbEntity
  8
GEB-KONTUR-A
 48
25.0
100
AcDbVertex
100
AcDb2dVertex
 10
-37.7604150772093
 20
11.9809353351593
 30
0.0
  0
VERTEX
  5
19E
330
190
100
AcDbEntity
  8
GEB-KONTUR-A
 48
25.0
100
AcDbVertex
100
AcDb2dVertex
 10
-37.77084112167341
 20
12.0558214187622
 30
0.0
  0
VERTEX
  5
19F
330
190
100
AcDbEntity
  8
GEB-KONTUR-A
 48
25.0
100
AcDbVertex
100
AcDb2dVertex
 10
-37.78209924697859
 20
12.13089346885681
 30
0.0
  0
VERTEX
  5
1A0
330
190
100
AcDbEntity
  8
GEB-KONTUR-A
 48
25.0
100
AcDbVertex
100
AcDb2dVertex
 10
-37.79418706893904
 20
12.2061800956726
 30
0.0
  0
VERTEX
  5
1A1
330
190
100
AcDbEntity
  8
GEB-KONTUR-A
 48
25.0
100
AcDbVertex
100
AcDb2dVertex
 10
-37.80711174011214
 20
12.28170871734619
 30
0.0
  0
VERTEX
  5
1A2
330
190
100
AcDbEntity
  8
GEB-KONTUR-A
 48
25.0
100
AcDbVertex
100
AcDb2dVertex
 10
-37.82087564468367
 20
12.35751032829284
 30
0.0
  0
VERTEX
  5
1A3
330
190
100
AcDbEntity
  8
GEB-KONTUR-A
 48
25.0
100
AcDbVertex
100
AcDb2dVertex
 10
-37.83548116683943
 20
12.43361115455627
 30
0.0
  0
VERTEX
  5
1A4
330
190
100
AcDbEntity
  8
GEB-KONTUR-A
 48
25.0
100
AcDbVertex
100
AcDb2dVertex
 10
-37.85093545913679
 20
12.51004099845886
 30
0.0
  0
VERTEX
  5
1A5
330
190
100
AcDbEntity
  8
GEB-KONTUR-A
 48
25.0
100
AcDbVertex
100
AcDb2dVertex
 10
-37.86724567413313
 20
12.5868284702301
 30
0.0
  0
VERTEX
  5
1A6
330
190
100
AcDbEntity
  8
GEB-KONTUR-A
 48
25.0
100
AcDbVertex
100
AcDb2dVertex
 10
-37.88441419601423
 20
12.66400337219238
 30
0.0
  0
VERTEX
  5
1A7
330
190
100
AcDbEntity
  8
GEB-KONTUR-A
 48
25.0
100
AcDbVertex
100
AcDb2dVertex
 10
-37.90245056152327
 20
12.74159431457519
 30
0.0
  0
VERTEX
  5
1A8
330
190
100
AcDbEntity
  8
GEB-KONTUR-A
 48
25.0
100
AcDbVertex
100
AcDb2dVertex
 10
-37.92135953903181
 20
12.81963229179382
 30
0.0
  0
VERTEX
  5
1A9
330
190
100
AcDbEntity
  8
GEB-KONTUR-A
 48
25.0
100
AcDbVertex
100
AcDb2dVertex
 10
-37.94115543365462
 20
12.89814710617065
 30
0.0
  0
SEQEND
  5
1AA
330
190
100
AcDbEntity
  8
GEB-KONTUR-A
 48
25.0
  0
LINE
  5
1AB
330
2
100
AcDbEntity
  8
GEB-KONTUR-A
 48
25.0
100
AcDbLine
 10
-37.69999999999982
 20
11.08655439013546
 30
0.0
 11
-37.69999999999982
 21
4.592201188381068
 31
0.0
  0
POLYLINE
  5
1AC
330
2
100
AcDbEntity
  8
GEB-KONTUR-A
 48
25.0
100
AcDb2dPolyline
 66
     1
 10
0.0
 20
0.0
 30
0.0
 70
   128
  0
VERTEX
  5
1AD
330
1AC
100
AcDbEntity
  8
GEB-KONTUR-A
 48
25.0
100
AcDbVertex
100
AcDb2dVertex
 10
-37.69999980926497
 20
4.592201113700866
 30
0.0
  0
VERTEX
  5
1AE
330
1AC
100
AcDbEntity
  8
GEB-KONTUR-A
 48
25.0
100
AcDbVertex
100
AcDb2dVertex
 10
-37.70042657852156
 20
4.772940874099731
 30
0.0
  0
VERTEX
  5
1AF
330
1AC
100
AcDbEntity
  8
GEB-KONTUR-A
 48
25.0
100
AcDbVertex
100
AcDb2dVertex
 10
-37.70170450210554
 20
4.953298270702362
 30
0.0
  0
VERTEX
  5
1B0
330
1AC
100
AcDbEntity
  8
GEB-KONTUR-A
 48
25.0
100
AcDbVertex
100
AcDb2dVertex
 10
-37.70382881164534
 20
5.13334572315216
 30
0.0
  0
VERTEX
  5
1B1
330
1AC
100
AcDbEntity
  8
GEB-KONTUR-A
 48
25.0
100
AcDbVertex
100
AcDb2dVertex
 10
-37.70679235458357
 20
5.313155055046081
 30
0.0
  0
VERTEX
  5
1B2
330
1AC
100
AcDbEntity
  8
GEB-KONTUR-A
 48
25.0
100
AcDbVertex
100
AcDb2dVertex
 10
-37.71059036254866
 20
5.492796301841735
 30
0.0
  0
VERTEX
  5
1B3
330
1AC
100
AcDbEntity
  8
GEB-KONTUR-A
 48
25.0
100
AcDbVertex
100
AcDb2dVertex
 10
-37.71522521972639
 20
5.672340393066406
 30
0.0
  0
VERTEX
  5
1B4
330
1AC
100
AcDbEntity
  8
GEB-KONTUR-A
 48
25.0
100
AcDbVertex
100
AcDb2dVertex
 10
-37.72068738937361
 20
5.851857066154479
 30
0.0
  0
VERTEX
  5
1B5
330
1AC
100
AcDbEntity
  8
GEB-KONTUR-A
 48
25.0
100
AcDbVertex
100
AcDb2dVertex
 10
-37.7269792556761
 20
6.031414866447448
 30
0.0
  0
VERTEX
  5
1B6
330
1AC
100
AcDbEntity
  8
GEB-KONTUR-A
 48
25.0
100
AcDbVertex
100
AcDb2dVertex
 10
-37.73409843444807
 20
6.211082935333251
 30
0.0
  0
VERTEX
  5
1B7
330
1AC
100
AcDbEntity
  8
GEB-KONTUR-A
 48
25.0
100
AcDbVertex
100
AcDb2dVertex
 10
-37.74204492568953
 20
6.390929222106933
 30
0.0
  0
VERTEX
  5
1B8
330
1AC
100
AcDbEntity
  8
GEB-KONTUR-A
 48
25.0
100
AcDbVertex
100
AcDb2dVertex
 10
-37.75081634521467
 20
6.571021676063537
 30
0.0
  0
VERTEX
  5
1B9
330
1AC
100
AcDbEntity
  8
GEB-KONTUR-A
 48
25.0
100
AcDbVertex
100
AcDb2dVertex
 10
-37.7604150772093
 20
6.751428842544555
 30
0.0
  0
VERTEX
  5
1BA
330
1AC
100
AcDbEntity
  8
GEB-KONTUR-A
 48
25.0
100
AcDbVertex
100
AcDb2dVertex
 10
-37.77084112167341
 20
6.932218074798583
 30
0.0
  0
VERTEX
  5
1BB
330
1AC
100
AcDbEntity
  8
GEB-KONTUR-A
 48
25.0
100
AcDbVertex
100
AcDb2dVertex
 10
-37.78209924697859
 20
7.113457322120666
 30
0.0
  0
VERTEX
  5
1BC
330
1AC
100
AcDbEntity
  8
GEB-KONTUR-A
 48
25.0
100
AcDbVertex
100
AcDb2dVertex
 10
-37.79418706893904
 20
7.295215725898742
 30
0.0
  0
VERTEX
  5
1BD
330
1AC
100
AcDbEntity
  8
GEB-KONTUR-A
 48
25.0
100
AcDbVertex
100
AcDb2dVertex
 10
-37.80711174011214
 20
7.47756004333496
 30
0.0
  0
VERTEX
  5
1BE
330
1AC
100
AcDbEntity
  8
GEB-KONTUR-A
 48
25.0
100
AcDbVertex
100
AcDb2dVertex
 10
-37.82087564468367
 20
7.660560011863708
 30
0.0
  0
VERTEX
  5
1BF
330
1AC
100
AcDbEntity
  8
GEB-KONTUR-A
 48
25.0
100
AcDbVertex
100
AcDb2dVertex
 10
-37.83548116683943
 20
7.844284772872924
 30
0.0
  0
VERTEX
  5
1C0
330
1AC
100
AcDbEntity
  8
GEB-KONTUR-A
 48
25.0
100
AcDbVertex
100
AcDb2dVertex
 10
-37.85093545913679
 20
8.028802871704101
 30
0.0
  0
VERTEX
  5
1C1
330
1AC
100
AcDbEntity
  8
GEB-KONTUR-A
 48
25.0
100
AcDbVertex
100
AcDb2dVertex
 10
-37.86724567413313
 20
8.214184641838073
 30
0.0
  0
VERTEX
  5
1C2
330
1AC
100
AcDbEntity
  8
GEB-KONTUR-A
 48
25.0
100
AcDbVertex
100
AcDb2dVertex
 10
-37.88441419601423
 20
8.400500416755676
 30
0.0
  0
VERTEX
  5
1C3
330
1AC
100
AcDbEntity
  8
GEB-KONTUR-A
 48
25.0
100
AcDbVertex
100
AcDb2dVertex
 10
-37.90245056152327
 20
8.587822318077087
 30
0.0
  0
VERTEX
  5
1C4
330
1AC
100
AcDbEntity
  8
GEB-KONTUR-A
 48
25.0
100
AcDbVertex
100
AcDb2dVertex
 10
-37.92135953903181
 20
8.776222467422485
 30
0.0
  0
VERTEX
  5
1C5
330
1AC
100
AcDbEntity
  8
GEB-KONTUR-A
 48
25.0
100
AcDbVertex
100
AcDb2dVertex
 10
-37.94115543365462
 20
8.965772986412048
 30
0.0
  0
SEQEND
  5
1C6
330
1AC
100
AcDbEntity
  8
GEB-KONTUR-A
 48
25.0
  0
LINE
  5
1C7
330
2
100
AcDbEntity
  8
GEB-KONTUR-A
 48
25.0
100
AcDbLine
 10
-37.94115427318786
 20
9.274961578048646
 30
0.0
 11
-37.94115427318786
 21
8.965773124818724
 31
0.0
  0
POLYLINE
  5
1C8
330
2
100
AcDbEntity
  8
GEB-KONTUR-A
 48
25.0
100
AcDb2dPolyline
 66
     1
 10
0.0
 20
0.0
 30
0.0
 70
   128
  0
VERTEX
  5
1C9
330
1C8
100
AcDbEntity
  8
GEB-KONTUR-A
 48
25.0
100
AcDbVertex
100
AcDb2dVertex
 10
-37.94115543365462
 20
9.274961352348327
 30
0.0
  0
VERTEX
  5
1CA
330
1C8
100
AcDbEntity
  8
GEB-KONTUR-A
 48
25.0
100
AcDbVertex
100
AcDb2dVertex
 10
-37.92135953903181
 20
9.353476166725158
 30
0.0
  0
VERTEX
  5
1CB
330
1C8
100
AcDbEntity
  8
GEB-KONTUR-A
 48
25.0
100
AcDbVertex
100
AcDb2dVertex
 10
-37.90245056152327
 20
9.431514143943786
 30
0.0
  0
VERTEX
  5
1CC
330
1C8
100
AcDbEntity
  8
GEB-KONTUR-A
 48
25.0
100
AcDbVertex
100
AcDb2dVertex
 10
-37.88441419601423
 20
9.509105086326599
 30
0.0
  0
VERTEX
  5
1CD
330
1C8
100
AcDbEntity
  8
GEB-KONTUR-A
 48
25.0
100
AcDbVertex
100
AcDb2dVertex
 10
-37.86724567413313
 20
9.586279988288879
 30
0.0
  0
VERTEX
  5
1CE
330
1C8
100
AcDbEntity
  8
GEB-KONTUR-A
 48
25.0
100
AcDbVertex
100
AcDb2dVertex
 10
-37.85093545913679
 20
9.663067460060119
 30
0.0
  0
VERTEX
  5
1CF
330
1C8
100
AcDbEntity
  8
GEB-KONTUR-A
 48
25.0
100
AcDbVertex
100
AcDb2dVertex
 10
-37.83548116683943
 20
9.739497303962707
 30
0.0
  0
VERTEX
  5
1D0
330
1C8
100
AcDbEntity
  8
GEB-KONTUR-A
 48
25.0
100
AcDbVertex
100
AcDb2dVertex
 10
-37.82087564468367
 20
9.815598726272583
 30
0.0
  0
VERTEX
  5
1D1
330
1C8
100
AcDbEntity
  8
GEB-KONTUR-A
 48
25.0
100
AcDbVertex
100
AcDb2dVertex
 10
-37.80711174011214
 20
9.89139974117279
 30
0.0
  0
VERTEX
  5
1D2
330
1C8
100
AcDbEntity
  8
GEB-KONTUR-A
 48
25.0
100
AcDbVertex
100
AcDb2dVertex
 10
-37.79418706893904
 20
9.966928958892822
 30
0.0
  0
VERTEX
  5
1D3
330
1C8
100
AcDbEntity
  8
GEB-KONTUR-A
 48
25.0
100
AcDbVertex
100
AcDb2dVertex
 10
-37.78209924697859
 20
10.04221558570862
 30
0.0
  0
VERTEX
  5
1D4
330
1C8
100
AcDbEntity
  8
GEB-KONTUR-A
 48
25.0
100
AcDbVertex
100
AcDb2dVertex
 10
-37.77084112167341
 20
10.11728763580322
 30
0.0
  0
VERTEX
  5
1D5
330
1C8
100
AcDbEntity
  8
GEB-KONTUR-A
 48
25.0
100
AcDbVertex
100
AcDb2dVertex
 10
-37.7604150772093
 20
10.19217371940613
 30
0.0
  0
VERTEX
  5
1D6
330
1C8
100
AcDbEntity
  8
GEB-KONTUR-A
 48
25.0
100
AcDbVertex
100
AcDb2dVertex
 10
-37.75081634521467
 20
10.26690006256103
 30
0.0
  0
VERTEX
  5
1D7
330
1C8
100
AcDbEntity
  8
GEB-KONTUR-A
 48
25.0
100
AcDbVertex
100
AcDb2dVertex
 10
-37.74204492568953
 20
10.34149646759033
 30
0.0
  0
VERTEX
  5
1D8
330
1C8
100
AcDbEntity
  8
GEB-KONTUR-A
 48
25.0
100
AcDbVertex
100
AcDb2dVertex
 10
-37.73409843444807
 20
10.41599154472351
 30
0.0
  0
VERTEX
  5
1D9
330
1C8
100
AcDbEntity
  8
GEB-KONTUR-A
 48
25.0
100
AcDbVertex
100
AcDb2dVertex
 10
-37.7269792556761
 20
10.49041271209717
 30
0.0
  0
VERTEX
  5
1DA
330
1C8
100
AcDbEntity
  8
GEB-KONTUR-A
 48
25.0
100
AcDbVertex
100
AcDb2dVertex
 10
-37.72068738937361
 20
10.5647873878479
 30
0.0
  0
VERTEX
  5
1DB
330
1C8
100
AcDbEntity
  8
GEB-KONTUR-A
 48
25.0
100
AcDbVertex
100
AcDb2dVertex
 10
-37.71522521972639
 20
10.63914537429809
 30
0.0
  0
VERTEX
  5
1DC
330
1C8
100
AcDbEntity
  8
GEB-KONTUR-A
 48
25.0
100
AcDbVertex
100
AcDb2dVertex
 10
-37.71059036254866
 20
10.71351528167724
 30
0.0
  0
VERTEX
  5
1DD
330
1C8
100
AcDbEntity
  8
GEB-KONTUR-A
 48
25.0
100
AcDbVertex
100
AcDb2dVertex
 10
-37.70679235458357
 20
10.78792572021484
 30
0.0
  0
VERTEX
  5
1DE
330
1C8
100
AcDbEntity
  8
GEB-KONTUR-A
 48
25.0
100
AcDbVertex
100
AcDb2dVertex
 10
-37.70382881164534
 20
10.86240530014038
 30
0.0
  0
VERTEX
  5
1DF
330
1C8
100
AcDbEntity
  8
GEB-KONTUR-A
 48
25.0
100
AcDbVertex
100
AcDb2dVertex
 10
-37.70170450210554
 20
10.93698263168335
 30
0.0
  0
VERTEX
  5
1E0
330
1C8
100
AcDbEntity
  8
GEB-KONTUR-A
 48
25.0
100
AcDbVertex
100
AcDb2dVertex
 10
-37.70042657852156
 20
11.01168990135193
 30
0.0
  0
VERTEX
  5
1E1
330
1C8
100
AcDbEntity
  8
GEB-KONTUR-A
 48
25.0
100
AcDbVertex
100
AcDb2dVertex
 10
-37.69999980926497
 20
11.08655452728271
 30
0.0
  0
SEQEND
  5
1E2
330
1C8
100
AcDbEntity
  8
GEB-KONTUR-A
 48
25.0
  0
LINE
  5
1E3
330
2
100
AcDbEntity
  8
GEB-KONTUR-A
 48
25.0
100
AcDbLine
 10
-37.69999999999982
 20
4.592201188381068
 30
0.0
 11
-37.69999999999982
 21
-4.592201188381068
 31
0.0
  0
POLYLINE
  5
1E4
330
2
100
AcDbEntity
  8
GEB-KONTUR-A
 48
25.0
100
AcDb2dPolyline
 66
     1
 10
0.0
 20
0.0
 30
0.0
 70
   128
  0
VERTEX
  5
1E5
330
1E4
100
AcDbEntity
  8
GEB-KONTUR-A
 48
25.0
100
AcDbVertex
100
AcDb2dVertex
 10
-37.69999980926497
 20
-4.592201113700866
 30
0.0
  0
VERTEX
  5
1E6
330
1E4
100
AcDbEntity
  8
GEB-KONTUR-A
 48
25.0
100
AcDbVertex
100
AcDb2dVertex
 10
-37.70042657852156
 20
-4.411461353302001
 30
0.0
  0
VERTEX
  5
1E7
330
1E4
100
AcDbEntity
  8
GEB-KONTUR-A
 48
25.0
100
AcDbVertex
100
AcDb2dVertex
 10
-37.70170450210554
 20
-4.231103956699371
 30
0.0
  0
VERTEX
  5
1E8
330
1E4
100
AcDbEntity
  8
GEB-KONTUR-A
 48
25.0
100
AcDbVertex
100
AcDb2dVertex
 10
-37.70382881164534
 20
-4.051056802272796
 30
0.0
  0
VERTEX
  5
1E9
330
1E4
100
AcDbEntity
  8
GEB-KONTUR-A
 48
25.0
100
AcDbVertex
100
AcDb2dVertex
 10
-37.70679235458357
 20
-3.871247470378875
 30
0.0
  0
VERTEX
  5
1EA
330
1E4
100
AcDbEntity
  8
GEB-KONTUR-A
 48
25.0
100
AcDbVertex
100
AcDb2dVertex
 10
-37.71059036254866
 20
-3.691605925559997
 30
0.0
  0
VERTEX
  5
1EB
330
1E4
100
AcDbEntity
  8
GEB-KONTUR-A
 48
25.0
100
AcDbVertex
100
AcDb2dVertex
 10
-37.71522521972639
 20
-3.512061834335327
 30
0.0
  0
VERTEX
  5
1EC
330
1E4
100
AcDbEntity
  8
GEB-KONTUR-A
 48
25.0
100
AcDbVertex
100
AcDb2dVertex
 10
-37.72068738937361
 20
-3.332545161247253
 30
0.0
  0
VERTEX
  5
1ED
330
1E4
100
AcDbEntity
  8
GEB-KONTUR-A
 48
25.0
100
AcDbVertex
100
AcDb2dVertex
 10
-37.7269792556761
 20
-3.152987360954284
 30
0.0
  0
VERTEX
  5
1EE
330
1E4
100
AcDbEntity
  8
GEB-KONTUR-A
 48
25.0
100
AcDbVertex
100
AcDb2dVertex
 10
-37.73409843444807
 20
-2.973319590091705
 30
0.0
  0
VERTEX
  5
1EF
330
1E4
100
AcDbEntity
  8
GEB-KONTUR-A
 48
25.0
100
AcDbVertex
100
AcDb2dVertex
 10
-37.74204492568953
 20
-2.793473303318023
 30
0.0
  0
VERTEX
  5
1F0
330
1E4
100
AcDbEntity
  8
GEB-KONTUR-A
 48
25.0
100
AcDbVertex
100
AcDb2dVertex
 10
-37.75081634521467
 20
-2.613380849361419
 30
0.0
  0
VERTEX
  5
1F1
330
1E4
100
AcDbEntity
  8
GEB-KONTUR-A
 48
25.0
100
AcDbVertex
100
AcDb2dVertex
 10
-37.7604150772093
 20
-2.432973831892013
 30
0.0
  0
VERTEX
  5
1F2
330
1E4
100
AcDbEntity
  8
GEB-KONTUR-A
 48
25.0
100
AcDbVertex
100
AcDb2dVertex
 10
-37.77084112167341
 20
-2.252184450626373
 30
0.0
  0
VERTEX
  5
1F3
330
1E4
100
AcDbEntity
  8
GEB-KONTUR-A
 48
25.0
100
AcDbVertex
100
AcDb2dVertex
 10
-37.78209924697859
 20
-2.070944905281066
 30
0.0
  0
VERTEX
  5
1F4
330
1E4
100
AcDbEntity
  8
GEB-KONTUR-A
 48
25.0
100
AcDbVertex
100
AcDb2dVertex
 10
-37.79418706893904
 20
-1.889186799526214
 30
0.0
  0
VERTEX
  5
1F5
330
1E4
100
AcDbEntity
  8
GEB-KONTUR-A
 48
25.0
100
AcDbVertex
100
AcDb2dVertex
 10
-37.80711174011214
 20
-1.706842184066772
 30
0.0
  0
VERTEX
  5
1F6
330
1E4
100
AcDbEntity
  8
GEB-KONTUR-A
 48
25.0
100
AcDbVertex
100
AcDb2dVertex
 10
-37.82087564468367
 20
-1.523842066526412
 30
0.0
  0
VERTEX
  5
1F7
330
1E4
100
AcDbEntity
  8
GEB-KONTUR-A
 48
25.0
100
AcDbVertex
100
AcDb2dVertex
 10
-37.83548116683943
 20
-1.340117752552032
 30
0.0
  0
VERTEX
  5
1F8
330
1E4
100
AcDbEntity
  8
GEB-KONTUR-A
 48
25.0
100
AcDbVertex
100
AcDb2dVertex
 10
-37.85093545913679
 20
-1.155599728226661
 30
0.0
  0
VERTEX
  5
1F9
330
1E4
100
AcDbEntity
  8
GEB-KONTUR-A
 48
25.0
100
AcDbVertex
100
AcDb2dVertex
 10
-37.86724567413313
 20
-0.9702180325984954
 30
0.0
  0
VERTEX
  5
1FA
330
1E4
100
AcDbEntity
  8
GEB-KONTUR-A
 48
25.0
100
AcDbVertex
100
AcDb2dVertex
 10
-37.88441419601423
 20
-0.7839018851518631
 30
0.0
  0
VERTEX
  5
1FB
330
1E4
100
AcDbEntity
  8
GEB-KONTUR-A
 48
25.0
100
AcDbVertex
100
AcDb2dVertex
 10
-37.90245056152327
 20
-0.596580021083355
 30
0.0
  0
VERTEX
  5
1FC
330
1E4
100
AcDbEntity
  8
GEB-KONTUR-A
 48
25.0
100
AcDbVertex
100
AcDb2dVertex
 10
-37.92135953903181
 20
-0.4081801697611809
 30
0.0
  0
VERTEX
  5
1FD
330
1E4
100
AcDbEntity
  8
GEB-KONTUR-A
 48
25.0
100
AcDbVertex
100
AcDb2dVertex
 10
-37.94115543365462
 20
-0.2186292596161365
 30
0.0
  0
SEQEND
  5
1FE
330
1E4
100
AcDbEntity
  8
GEB-KONTUR-A
 48
25.0
  0
LINE
  5
1FF
330
2
100
AcDbEntity
  8
GEB-KONTUR-A
 48
25.0
100
AcDbLine
 10
-37.94115427318786
 20
0.2186292519434119
 30
0.0
 11
-37.94115427318786
 21
-0.2186292519432982
 31
0.0
  0
POLYLINE
  5
200
330
2
100
AcDbEntity
  8
GEB-KONTUR-A
 48
25.0
100
AcDb2dPolyline
 66
     1
 10
0.0
 20
0.0
 30
0.0
 70
   128
  0
VERTEX
  5
201
330
200
100
AcDbEntity
  8
GEB-KONTUR-A
 48
25.0
100
AcDbVertex
100
AcDb2dVertex
 10
-37.94115543365462
 20
0.2186292596161365
 30
0.0
  0
VERTEX
  5
202
330
200
100
AcDbEntity
  8
GEB-KONTUR-A
 48
25.0
100
AcDbVertex
100
AcDb2dVertex
 10
-37.92135953903181
 20
0.4081801697611809
 30
0.0
  0
VERTEX
  5
203
330
200
100
AcDbEntity
  8
GEB-KONTUR-A
 48
25.0
100
AcDbVertex
100
AcDb2dVertex
 10
-37.90245056152327
 20
0.596580021083355
 30
0.0
  0
VERTEX
  5
204
330
200
100
AcDbEntity
  8
GEB-KONTUR-A
 48
25.0
100
AcDbVertex
100
AcDb2dVertex
 10
-37.88441419601423
 20
0.7839018851518631
 30
0.0
  0
VERTEX
  5
205
330
200
100
AcDbEntity
  8
GEB-KONTUR-A
 48
25.0
100
AcDbVertex
100
AcDb2dVertex
 10
-37.86724567413313
 20
0.9702180325984954
 30
0.0
  0
VERTEX
  5
206
330
200
100
AcDbEntity
  8
GEB-KONTUR-A
 48
25.0
100
AcDbVertex
100
AcDb2dVertex
 10
-37.85093545913679
 20
1.155599728226661
 30
0.0
  0
VERTEX
  5
207
330
200
100
AcDbEntity
  8
GEB-KONTUR-A
 48
25.0
100
AcDbVertex
100
AcDb2dVertex
 10
-37.83548116683943
 20
1.340117752552032
 30
0.0
  0
VERTEX
  5
208
330
200
100
AcDbEntity
  8
GEB-KONTUR-A
 48
25.0
100
AcDbVertex
100
AcDb2dVertex
 10
-37.82087564468367
 20
1.523842066526412
 30
0.0
  0
VERTEX
  5
209
330
200
100
AcDbEntity
  8
GEB-KONTUR-A
 48
25.0
100
AcDbVertex
100
AcDb2dVertex
 10
-37.80711174011214
 20
1.706842184066772
 30
0.0
  0
VERTEX
  5
20A
330
200
100
AcDbEntity
  8
GEB-KONTUR-A
 48
25.0
100
AcDbVertex
100
AcDb2dVertex
 10
-37.79418706893904
 20
1.889186799526214
 30
0.0
  0
VERTEX
  5
20B
330
200
100
AcDbEntity
  8
GEB-KONTUR-A
 48
25.0
100
AcDbVertex
100
AcDb2dVertex
 10
-37.78209924697859
 20
2.070944905281066
 30
0.0
  0
VERTEX
  5
20C
330
200
100
AcDbEntity
  8
GEB-KONTUR-A
 48
25.0
100
AcDbVertex
100
AcDb2dVertex
 10
-37.77084112167341
 20
2.252184450626373
 30
0.0
  0
VERTEX
  5
20D
330
200
100
AcDbEntity
  8
GEB-KONTUR-A
 48
25.0
100
AcDbVertex
100
AcDb2dVertex
 10
-37.7604150772093
 20
2.432973831892013
 30
0.0
  0
VERTEX
  5
20E
330
200
100
AcDbEntity
  8
GEB-KONTUR-A
 48
25.0
100
AcDbVertex
100
AcDb2dVertex
 10
-37.75081634521467
 20
2.613380849361419
 30
0.0
  0
VERTEX
  5
20F
330
200
100
AcDbEntity
  8
GEB-KONTUR-A
 48
25.0
100
AcDbVertex
100
AcDb2dVertex
 10
-37.74204492568953
 20
2.793473303318023
 30
0.0
  0
VERTEX
  5
210
330
200
100
AcDbEntity
  8
GEB-KONTUR-A
 48
25.0
100
AcDbVertex
100
AcDb2dVertex
 10
-37.73409843444807
 20
2.973319590091705
 30
0.0
  0
VERTEX
  5
211
330
200
100
AcDbEntity
  8
GEB-KONTUR-A
 48
25.0
100
AcDbVertex
100
AcDb2dVertex
 10
-37.7269792556761
 20
3.152987360954284
 30
0.0
  0
VERTEX
  5
212
330
200
100
AcDbEntity
  8
GEB-KONTUR-A
 48
25.0
100
AcDbVertex
100
AcDb2dVertex
 10
-37.72068738937361
 20
3.332545161247253
 30
0.0
  0
VERTEX
  5
213
330
200
100
AcDbEntity
  8
GEB-KONTUR-A
 48
25.0
100
AcDbVertex
100
AcDb2dVertex
 10
-37.71522521972639
 20
3.512061834335327
 30
0.0
  0
VERTEX
  5
214
330
200
100
AcDbEntity
  8
GEB-KONTUR-A
 48
25.0
100
AcDbVertex
100
AcDb2dVertex
 10
-37.71059036254866
 20
3.691605925559997
 30
0.0
  0
VERTEX
  5
215
330
200
100
AcDbEntity
  8
GEB-KONTUR-A
 48
25.0
100
AcDbVertex
100
AcDb2dVertex
 10
-37.70679235458357
 20
3.871247470378875
 30
0.0
  0
VERTEX
  5
216
330
200
100
AcDbEntity
  8
GEB-KONTUR-A
 48
25.0
100
AcDbVertex
100
AcDb2dVertex
 10
-37.70382881164534
 20
4.051056802272796
 30
0.0
  0
VERTEX
  5
217
330
200
100
AcDbEntity
  8
GEB-KONTUR-A
 48
25.0
100
AcDbVertex
100
AcDb2dVertex
 10
-37.70170450210554
 20
4.231103956699371
 30
0.0
  0
VERTEX
  5
218
330
200
100
AcDbEntity
  8
GEB-KONTUR-A
 48
25.0
100
AcDbVertex
100
AcDb2dVertex
 10
-37.70042657852156
 20
4.411461353302001
 30
0.0
  0
VERTEX
  5
219
330
200
100
AcDbEntity
  8
GEB-KONTUR-A
 48
25.0
100
AcDbVertex
100
AcDb2dVertex
 10
-37.69999980926497
 20
4.592201113700866
 30
0.0
  0
SEQEND
  5
21A
330
200
100
AcDbEntity
  8
GEB-KONTUR-A
 48
25.0
  0
LINE
  5
21B
330
2
100
AcDbEntity
  8
GEB-KONTUR-A
 48
25.0
100
AcDbLine
 10
-37.69999999999982
 20
-4.592201188381068
 30
0.0
 11
-37.69999999999982
 21
-11.08655439013546
 31
0.0
  0
POLYLINE
  5
21C
330
2
100
AcDbEntity
  8
GEB-KONTUR-A
 48
25.0
100
AcDb2dPolyline
 66
     1
 10
0.0
 20
0.0
 30
0.0
 70
   128
  0
VERTEX
  5
21D
330
21C
100
AcDbEntity
  8
GEB-KONTUR-A
 48
25.0
100
AcDbVertex
100
AcDb2dVertex
 10
-37.69999980926497
 20
-11.08655452728271
 30
0.0
  0
VERTEX
  5
21E
330
21C
100
AcDbEntity
  8
GEB-KONTUR-A
 48
25.0
100
AcDbVertex
100
AcDb2dVertex
 10
-37.70042657852156
 20
-11.01168990135193
 30
0.0
  0
VERTEX
  5
21F
330
21C
100
AcDbEntity
  8
GEB-KONTUR-A
 48
25.0
100
AcDbVertex
100
AcDb2dVertex
 10
-37.70170450210554
 20
-10.93698263168335
 30
0.0
  0
VERTEX
  5
220
330
21C
100
AcDbEntity
  8
GEB-KONTUR-A
 48
25.0
100
AcDbVertex
100
AcDb2dVertex
 10
-37.70382881164534
 20
-10.86240530014038
 30
0.0
  0
VERTEX
  5
221
330
21C
100
AcDbEntity
  8
GEB-KONTUR-A
 48
25.0
100
AcDbVertex
100
AcDb2dVertex
 10
-37.70679235458357
 20
-10.78792572021484
 30
0.0
  0
VERTEX
  5
222
330
21C
100
AcDbEntity
  8
GEB-KONTUR-A
 48
25.0
100
AcDbVertex
100
AcDb2dVertex
 10
-37.71059036254866
 20
-10.71351528167724
 30
0.0
  0
VERTEX
  5
223
330
21C
100
AcDbEntity
  8
GEB-KONTUR-A
 48
25.0
100
AcDbVertex
100
AcDb2dVertex
 10
-37.71522521972639
 20
-10.63914537429809
 30
0.0
  0
VERTEX
  5
224
330
21C
100
AcDbEntity
  8
GEB-KONTUR-A
 48
25.0
100
AcDbVertex
100
AcDb2dVertex
 10
-37.72068738937361
 20
-10.5647873878479
 30
0.0
  0
VERTEX
  5
225
330
21C
100
AcDbEntity
  8
GEB-KONTUR-A
 48
25.0
100
AcDbVertex
100
AcDb2dVertex
 10
-37.7269792556761
 20
-10.49041271209717
 30
0.0
  0
VERTEX
  5
226
330
21C
100
AcDbEntity
  8
GEB-KONTUR-A
 48
25.0
100
AcDbVertex
100
AcDb2dVertex
 10
-37.73409843444807
 20
-10.41599154472351
 30
0.0
  0
VERTEX
  5
227
330
21C
100
AcDbEntity
  8
GEB-KONTUR-A
 48
25.0
100
AcDbVertex
100
AcDb2dVertex
 10
-37.74204492568953
 20
-10.34149646759033
 30
0.0
  0
VERTEX
  5
228
330
21C
100
AcDbEntity
  8
GEB-KONTUR-A
 48
25.0
100
AcDbVertex
100
AcDb2dVertex
 10
-37.75081634521467
 20
-10.26690006256103
 30
0.0
  0
VERTEX
  5
229
330
21C
100
AcDbEntity
  8
GEB-KONTUR-A
 48
25.0
100
AcDbVertex
100
AcDb2dVertex
 10
-37.7604150772093
 20
-10.19217371940613
 30
0.0
  0
VERTEX
  5
22A
330
21C
100
AcDbEntity
  8
GEB-KONTUR-A
 48
25.0
100
AcDbVertex
100
AcDb2dVertex
 10
-37.77084112167341
 20
-10.11728763580322
 30
0.0
  0
VERTEX
  5
22B
330
21C
100
AcDbEntity
  8
GEB-KONTUR-A
 48
25.0
100
AcDbVertex
100
AcDb2dVertex
 10
-37.78209924697859
 20
-10.04221558570862
 30
0.0
  0
VERTEX
  5
22C
330
21C
100
AcDbEntity
  8
GEB-KONTUR-A
 48
25.0
100
AcDbVertex
100
AcDb2dVertex
 10
-37.79418706893904
 20
-9.966928958892822
 30
0.0
  0
VERTEX
  5
22D
330
21C
100
AcDbEntity
  8
GEB-KONTUR-A
 48
25.0
100
AcDbVertex
100
AcDb2dVertex
 10
-37.80711174011214
 20
-9.89139974117279
 30
0.0
  0
VERTEX
  5
22E
330
21C
100
AcDbEntity
  8
GEB-KONTUR-A
 48
25.0
100
AcDbVertex
100
AcDb2dVertex
 10
-37.82087564468367
 20
-9.815598726272583
 30
0.0
  0
VERTEX
  5
22F
330
21C
100
AcDbEntity
  8
GEB-KONTUR-A
 48
25.0
100
AcDbVertex
100
AcDb2dVertex
 10
-37.83548116683943
 20
-9.739497303962707
 30
0.0
  0
VERTEX
  5
230
330
21C
100
AcDbEntity
  8
GEB-KONTUR-A
 48
25.0
100
AcDbVertex
100
AcDb2dVertex
 10
-37.85093545913679
 20
-9.663067460060119
 30
0.0
  0
VERTEX
  5
231
330
21C
100
AcDbEntity
  8
GEB-KONTUR-A
 48
25.0
100
AcDbVertex
100
AcDb2dVertex
 10
-37.86724567413313
 20
-9.586279988288879
 30
0.0
  0
VERTEX
  5
232
330
21C
100
AcDbEntity
  8
GEB-KONTUR-A
 48
25.0
100
AcDbVertex
100
AcDb2dVertex
 10
-37.88441419601423
 20
-9.509105086326599
 30
0.0
  0
VERTEX
  5
233
330
21C
100
AcDbEntity
  8
GEB-KONTUR-A
 48
25.0
100
AcDbVertex
100
AcDb2dVertex
 10
-37.90245056152327
 20
-9.431514143943786
 30
0.0
  0
VERTEX
  5
234
330
21C
100
AcDbEntity
  8
GEB-KONTUR-A
 48
25.0
100
AcDbVertex
100
AcDb2dVertex
 10
-37.92135953903181
 20
-9.353476166725158
 30
0.0
  0
VERTEX
  5
235
330
21C
100
AcDbEntity
  8
GEB-KONTUR-A
 48
25.0
100
AcDbVertex
100
AcDb2dVertex
 10
-37.94115543365462
 20
-9.274961352348327
 30
0.0
  0
SEQEND
  5
236
330
21C
100
AcDbEntity
  8
GEB-KONTUR-A
 48
25.0
  0
LINE
  5
237
330
2
100
AcDbEntity
  8
GEB-KONTUR-A
 48
25.0
100
AcDbLine
 10
-37.94115427318786
 20
-8.965773124818724
 30
0.0
 11
-37.94115427318786
 21
-9.274961578048532
 31
0.0
  0
POLYLINE
  5
238
330
2
100
AcDbEntity
  8
GEB-KONTUR-A
 48
25.0
100
AcDb2dPolyline
 66
     1
 10
0.0
 20
0.0
 30
0.0
 70
   128
  0
VERTEX
  5
239
330
238
100
AcDbEntity
  8
GEB-KONTUR-A
 48
25.0
100
AcDbVertex
100
AcDb2dVertex
 10
-37.94115543365462
 20
-8.965772986412048
 30
0.0
  0
VERTEX
  5
23A
330
238
100
AcDbEntity
  8
GEB-KONTUR-A
 48
25.0
100
AcDbVertex
100
AcDb2dVertex
 10
-37.92135953903181
 20
-8.776222467422485
 30
0.0
  0
VERTEX
  5
23B
330
238
100
AcDbEntity
  8
GEB-KONTUR-A
 48
25.0
100
AcDbVertex
100
AcDb2dVertex
 10
-37.90245056152327
 20
-8.587822318077087
 30
0.0
  0
VERTEX
  5
23C
330
238
100
AcDbEntity
  8
GEB-KONTUR-A
 48
25.0
100
AcDbVertex
100
AcDb2dVertex
 10
-37.88441419601423
 20
-8.400500416755676
 30
0.0
  0
VERTEX
  5
23D
330
238
100
AcDbEntity
  8
GEB-KONTUR-A
 48
25.0
100
AcDbVertex
100
AcDb2dVertex
 10
-37.86724567413313
 20
-8.214184641838073
 30
0.0
  0
VERTEX
  5
23E
330
238
100
AcDbEntity
  8
GEB-KONTUR-A
 48
25.0
100
AcDbVertex
100
AcDb2dVertex
 10
-37.85093545913679
 20
-8.028802871704101
 30
0.0
  0
VERTEX
  5
23F
330
238
100
AcDbEntity
  8
GEB-KONTUR-A
 48
25.0
100
AcDbVertex
100
AcDb2dVertex
 10
-37.83548116683943
 20
-7.844284772872924
 30
0.0
  0
VERTEX
  5
240
330
238
100
AcDbEntity
  8
GEB-KONTUR-A
 48
25.0
100
AcDbVertex
100
AcDb2dVertex
 10
-37.82087564468367
 20
-7.660560011863708
 30
0.0
  0
VERTEX
  5
241
330
238
100
AcDbEntity
  8
GEB-KONTUR-A
 48
25.0
100
AcDbVertex
100
AcDb2dVertex
 10
-37.80711174011214
 20
-7.47756004333496
 30
0.0
  0
VERTEX
  5
242
330
238
100
AcDbEntity
  8
GEB-KONTUR-A
 48
25.0
100
AcDbVertex
100
AcDb2dVertex
 10
-37.79418706893904
 20
-7.295215725898742
 30
0.0
  0
VERTEX
  5
243
330
238
100
AcDbEntity
  8
GEB-KONTUR-A
 48
25.0
100
AcDbVertex
100
AcDb2dVertex
 10
-37.78209924697859
 20
-7.113457322120666
 30
0.0
  0
VERTEX
  5
244
330
238
100
AcDbEntity
  8
GEB-KONTUR-A
 48
25.0
100
AcDbVertex
100
AcDb2dVertex
 10
-37.77084112167341
 20
-6.932218074798583
 30
0.0
  0
VERTEX
  5
245
330
238
100
AcDbEntity
  8
GEB-KONTUR-A
 48
25.0
100
AcDbVertex
100
AcDb2dVertex
 10
-37.7604150772093
 20
-6.751428842544555
 30
0.0
  0
VERTEX
  5
246
330
238
100
AcDbEntity
  8
GEB-KONTUR-A
 48
25.0
100
AcDbVertex
100
AcDb2dVertex
 10
-37.75081634521467
 20
-6.571021676063537
 30
0.0
  0
VERTEX
  5
247
330
238
100
AcDbEntity
  8
GEB-KONTUR-A
 48
25.0
100
AcDbVertex
100
AcDb2dVertex
 10
-37.74204492568953
 20
-6.390929222106933
 30
0.0
  0
VERTEX
  5
248
330
238
100
AcDbEntity
  8
GEB-KONTUR-A
 48
25.0
100
AcDbVertex
100
AcDb2dVertex
 10
-37.73409843444807
 20
-6.211082935333251
 30
0.0
  0
VERTEX
  5
249
330
238
100
AcDbEntity
  8
GEB-KONTUR-A
 48
25.0
100
AcDbVertex
100
AcDb2dVertex
 10
-37.7269792556761
 20
-6.031414866447448
 30
0.0
  0
VERTEX
  5
24A
330
238
100
AcDbEntity
  8
GEB-KONTUR-A
 48
25.0
100
AcDbVertex
100
AcDb2dVertex
 10
-37.72068738937361
 20
-5.851857066154479
 30
0.0
  0
VERTEX
  5
24B
330
238
100
AcDbEntity
  8
GEB-KONTUR-A
 48
25.0
100
AcDbVertex
100
AcDb2dVertex
 10
-37.71522521972639
 20
-5.672340393066406
 30
0.0
  0
VERTEX
  5
24C
330
238
100
AcDbEntity
  8
GEB-KONTUR-A
 48
25.0
100
AcDbVertex
100
AcDb2dVertex
 10
-37.71059036254866
 20
-5.492796301841735
 30
0.0
  0
VERTEX
  5
24D
330
238
100
AcDbEntity
  8
GEB-KONTUR-A
 48
25.0
100
AcDbVertex
100
AcDb2dVertex
 10
-37.70679235458357
 20
-5.313155055046081
 30
0.0
  0
VERTEX
  5
24E
330
238
100
AcDbEntity
  8
GEB-KONTUR-A
 48
25.0
100
AcDbVertex
100
AcDb2dVertex
 10
-37.70382881164534
 20
-5.13334572315216
 30
0.0
  0
VERTEX
  5
24F
330
238
100
AcDbEntity
  8
GEB-KONTUR-A
 48
25.0
100
AcDbVertex
100
AcDb2dVertex
 10
-37.70170450210554
 20
-4.953298270702362
 30
0.0
  0
VERTEX
  5
250
330
238
100
AcDbEntity
  8
GEB-KONTUR-A
 48
25.0
100
AcDbVertex
100
AcDb2dVertex
 10
-37.70042657852156
 20
-4.772940874099731
 30
0.0
  0
VERTEX
  5
251
330
238
100
AcDbEntity
  8
GEB-KONTUR-A
 48
25.0
100
AcDbVertex
100
AcDb2dVertex
 10
-37.69999980926497
 20
-4.592201113700866
 30
0.0
  0
SEQEND
  5
252
330
238
100
AcDbEntity
  8
GEB-KONTUR-A
 48
25.0
  0
LINE
  5
253
330
2
100
AcDbEntity
  8
GEB-KONTUR-A
 48
25.0
100
AcDbLine
 10
-37.69999999999982
 20
-11.08655439013546
 30
0.0
 11
-37.69999999999982
 21
-12.0
 31
0.0
  0
LINE
  5
254
330
2
100
AcDbEntity
  8
GEB-KONTUR-A
 48
25.0
100
AcDbLine
 10
-37.94115427318786
 20
-12.89814720222227
 30
0.0
 11
-37.94115427318786
 21
-12.90000000000009
 31
0.0
  0
POLYLINE
  5
255
330
2
100
AcDbEntity
  8
GEB-KONTUR-A
 48
25.0
100
AcDb2dPolyline
 66
     1
 10
0.0
 20
0.0
 30
0.0
 70
   128
  0
VERTEX
  5
256
330
255
100
AcDbEntity
  8
GEB-KONTUR-A
 48
25.0
100
AcDbVertex
100
AcDb2dVertex
 10
-37.94115543365462
 20
-12.89814710617065
 30
0.0
  0
VERTEX
  5
257
330
255
100
AcDbEntity
  8
GEB-KONTUR-A
 48
25.0
100
AcDbVertex
100
AcDb2dVertex
 10
-37.92135953903181
 20
-12.81963229179382
 30
0.0
  0
VERTEX
  5
258
330
255
100
AcDbEntity
  8
GEB-KONTUR-A
 48
25.0
100
AcDbVertex
100
AcDb2dVertex
 10
-37.90245056152327
 20
-12.74159431457519
 30
0.0
  0
VERTEX
  5
259
330
255
100
AcDbEntity
  8
GEB-KONTUR-A
 48
25.0
100
AcDbVertex
100
AcDb2dVertex
 10
-37.88441419601423
 20
-12.66400337219238
 30
0.0
  0
VERTEX
  5
25A
330
255
100
AcDbEntity
  8
GEB-KONTUR-A
 48
25.0
100
AcDbVertex
100
AcDb2dVertex
 10
-37.86724567413313
 20
-12.5868284702301
 30
0.0
  0
VERTEX
  5
25B
330
255
100
AcDbEntity
  8
GEB-KONTUR-A
 48
25.0
100
AcDbVertex
100
AcDb2dVertex
 10
-37.85093545913679
 20
-12.51004099845886
 30
0.0
  0
VERTEX
  5
25C
330
255
100
AcDbEntity
  8
GEB-KONTUR-A
 48
25.0
100
AcDbVertex
100
AcDb2dVertex
 10
-37.83548116683943
 20
-12.43361115455627
 30
0.0
  0
VERTEX
  5
25D
330
255
100
AcDbEntity
  8
GEB-KONTUR-A
 48
25.0
100
AcDbVertex
100
AcDb2dVertex
 10
-37.82087564468367
 20
-12.35751032829284
 30
0.0
  0
VERTEX
  5
25E
330
255
100
AcDbEntity
  8
GEB-KONTUR-A
 48
25.0
100
AcDbVertex
100
AcDb2dVertex
 10
-37.80711174011214
 20
-12.28170871734619
 30
0.0
  0
VERTEX
  5
25F
330
255
100
AcDbEntity
  8
GEB-KONTUR-A
 48
25.0
100
AcDbVertex
100
AcDb2dVertex
 10
-37.79418706893904
 20
-12.2061800956726
 30
0.0
  0
VERTEX
  5
260
330
255
100
AcDbEntity
  8
GEB-KONTUR-A
 48
25.0
100
AcDbVertex
100
AcDb2dVertex
 10
-37.78209924697859
 20
-12.13089346885681
 30
0.0
  0
VERTEX
  5
261
330
255
100
AcDbEntity
  8
GEB-KONTUR-A
 48
25.0
100
AcDbVertex
100
AcDb2dVertex
 10
-37.77084112167341
 20
-12.0558214187622
 30
0.0
  0
VERTEX
  5
262
330
255
100
AcDbEntity
  8
GEB-KONTUR-A
 48
25.0
100
AcDbVertex
100
AcDb2dVertex
 10
-37.7604150772093
 20
-11.9809353351593
 30
0.0
  0
VERTEX
  5
263
330
255
100
AcDbEntity
  8
GEB-KONTUR-A
 48
25.0
100
AcDbVertex
100
AcDb2dVertex
 10
-37.75081634521467
 20
-11.90620899200439
 30
0.0
  0
VERTEX
  5
264
330
255
100
AcDbEntity
  8
GEB-KONTUR-A
 48
25.0
100
AcDbVertex
100
AcDb2dVertex
 10
-37.74204492568953
 20
-11.8316113948822
 30
0.0
  0
VERTEX
  5
265
330
255
100
AcDbEntity
  8
GEB-KONTUR-A
 48
25.0
100
AcDbVertex
100
AcDb2dVertex
 10
-37.73409843444807
 20
-11.75711750984192
 30
0.0
  0
VERTEX
  5
266
330
255
100
AcDbEntity
  8
GEB-KONTUR-A
 48
25.0
100
AcDbVertex
100
AcDb2dVertex
 10
-37.7269792556761
 20
-11.68269634246826
 30
0.0
  0
VERTEX
  5
267
330
255
100
AcDbEntity
  8
GEB-KONTUR-A
 48
25.0
100
AcDbVertex
100
AcDb2dVertex
 10
-37.72068738937361
 20
-11.60832047462463
 30
0.0
  0
VERTEX
  5
268
330
255
100
AcDbEntity
  8
GEB-KONTUR-A
 48
25.0
100
AcDbVertex
100
AcDb2dVertex
 10
-37.71522521972639
 20
-11.53396248817444
 30
0.0
  0
VERTEX
  5
269
330
255
100
AcDbEntity
  8
GEB-KONTUR-A
 48
25.0
100
AcDbVertex
100
AcDb2dVertex
 10
-37.71059036254866
 20
-11.45959258079529
 30
0.0
  0
VERTEX
  5
26A
330
255
100
AcDbEntity
  8
GEB-KONTUR-A
 48
25.0
100
AcDbVertex
100
AcDb2dVertex
 10
-37.70679235458357
 20
-11.38518333435058
 30
0.0
  0
VERTEX
  5
26B
330
255
100
AcDbEntity
  8
GEB-KONTUR-A
 48
25.0
100
AcDbVertex
100
AcDb2dVertex
 10
-37.70382881164534
 20
-11.31070375442505
 30
0.0
  0
VERTEX
  5
26C
330
255
100
AcDbEntity
  8
GEB-KONTUR-A
 48
25.0
100
AcDbVertex
100
AcDb2dVertex
 10
-37.70170450210554
 20
-11.23612523078918
 30
0.0
  0
VERTEX
  5
26D
330
255
100
AcDbEntity
  8
GEB-KONTUR-A
 48
25.0
100
AcDbVertex
100
AcDb2dVertex
 10
-37.70042657852156
 20
-11.1614191532135
 30
0.0
  0
VERTEX
  5
26E
330
255
100
AcDbEntity
  8
GEB-KONTUR-A
 48
25.0
100
AcDbVertex
100
AcDb2dVertex
 10
-37.69999980926497
 20
-11.08655452728271
 30
0.0
  0
SEQEND
  5
26F
330
255
100
AcDbEntity
  8
GEB-KONTUR-A
 48
25.0
  0
TEXT
  5
270
330
2
100
AcDbEntity
  8
GEB-TEXT
100
AcDbText
 10
-67.1873806275578
 20
-23.40000000000009
 30
0.0
 40
3.5
  1
ÜBERGANG IG M/ EEND RG D15-RP1/2
 72
     1
 11
-21.94999999999982
 21
-23.40000000000009
 31
0.0
100
AcDbText
  0
TEXT
  5
272
330
2
100
AcDbEntity
  8
GEB-TEXT
100
AcDbText
 10
-40.02060027285111
 20
-17.90000000000009
 30
0.0
 40
3.5
  1
Geberit Mapress
 72
     1
 11
-21.94999999999982
 21
-17.90000000000009
 31
0.0
100
AcDbText
  0
TEXT
  5
273
330
2
100
AcDbEntity
  8
GEB-ART-NR
100
AcDbText
 10
-44.54130658114639
 20
-29.74278125428032
 30
0.0
 40
3.5
  1
GEB-ART-NR 63558
 72
     1
 11
-21.85218652657614
 21
-29.74278125428032
 31
0.0
100
AcDbText
  0
ENDSEC
  0
SECTION
  2
OBJECTS
  0
DICTIONARY
  5
9
330
0
100
AcDbDictionary
281
     1
  3
ACAD_2007HEADERVARS_RT
350
32A
  3
ACAD_COLOR
350
44
  3
ACAD_GROUP
350
31
  3
ACAD_LAYOUT
350
8
  3
ACAD_MATERIAL
350
13
  3
ACAD_MLEADERSTYLE
350
47
  3
ACAD_MLINESTYLE
350
32
  3
ACAD_PLOTSETTINGS
350
33
  3
ACAD_PLOTSTYLENAME
350
11
  3
ACAD_SCALELIST
350
45
  3
ACAD_TABLESTYLE
350
46
  3
ACAD_VISUALSTYLE
350
2B
  3
ACDB_RECOMPOSE_DATA
350
329
  3
AcDbVariableDictionary
350
2D3
  3
AcmDictionary
350
286
  3
AcmSystemVariableManager
350
341
  3
AMG
350
277
  0
DICTIONARY
  5
2C
330
28
100
AcDbDictionary
280
     1
281
     1
  0
DICTIONARY
  5
1C
330
E
100
AcDbDictionary
280
     1
281
     1
  3
ACAD_LAYERFILTERS
360
1D
  3
ACLYDICTIONARY
360
1E
  0
DICTIONARY
  5
3
330
2
100
AcDbDictionary
280
     1
281
     1
  3
ACAD_SORTENTS
360
275
  0
DICTIONARY
  5
32A
102
{ACAD_REACTORS
330
9
102
}
330
9
100
AcDbDictionary
281
     1
  3
DIMARCSYM
350
32B
  3
DIMLTEX1
350
32D
  3
DIMLTEX2
350
32E
  3
DIMLTYPE
350
32C
  0
DICTIONARY
  5
44
102
{ACAD_REACTORS
330
9
102
}
330
9
100
AcDbDictionary
281
     1
  0
DICTIONARY
  5
31
102
{ACAD_REACTORS
330
9
102
}
330
9
100
AcDbDictionary
281
     1
  0
DICTIONARY
  5
8
102
{ACAD_REACTORS
330
9
102
}
330
9
100
AcDbDictionary
281
     1
  3
Layout1
350
D
  3
Model
350
7
  0
DICTIONARY
  5
13
102
{ACAD_REACTORS
330
9
102
}
330
9
100
AcDbDictionary
281
     1
  3
ByBlock
350
3C
  3
ByLayer
350
34
  3
Global
350
12
  0
DICTIONARY
  5
47
102
{ACAD_REACTORS
330
9
102
}
330
9
100
AcDbDictionary
281
     1
  3
Standard
350
2F1
  0
DICTIONARY
  5
32
102
{ACAD_REACTORS
330
9
102
}
330
9
100
AcDbDictionary
281
     1
  3
Standard
350
48
  0
DICTIONARY
  5
33
102
{ACAD_REACTORS
330
9
102
}
330
9
100
AcDbDictionary
281
     1
  0
ACDBDICTIONARYWDFLT
  5
11
102
{ACAD_REACTORS
330
9
102
}
330
9
100
AcDbDictionary
281
     1
  3
Normal
350
10
100
AcDbDictionaryWithDefault
340
10
  0
DICTIONARY
  5
45
102
{ACAD_REACTORS
330
9
102
}
330
9
100
AcDbDictionary
281
     1
  3
A0
350
4D
  3
A1
350
4E
  3
A2
350
4F
  3
A3
350
50
  3
A4
350
51
  3
A5
350
52
  3
A6
350
53
  3
A7
350
54
  3
A8
350
55
  3
A9
350
56
  3
B0
350
57
  3
B1
350
58
  3
B2
350
59
  3
B3
350
5A
  3
B4
350
5B
  3
B5
350
5C
  3
B6
350
5D
  3
B7
350
5E
  3
B8
350
5F
  3
B9
350
60
  3
C0
350
61
  3
C1
350
62
  3
C2
350
63
  3
C3
350
64
  3
C4
350
65
  3
C5
350
66
  3
C6
350
67
  3
C7
350
68
  3
C8
350
69
  3
C9
350
6A
  3
D0
350
6B
  3
D1
350
6C
  3
D2
350
6D
  0
DICTIONARY
  5
46
102
{ACAD_REACTORS
330
9
102
}
330
9
100
AcDbDictionary
281
     1
  3
Standard
350
49
  0
DICTIONARY
  5
2B
102
{ACAD_REACTORS
330
9
102
}
330
9
100
AcDbDictionary
281
     1
  3
2dWireframe
350
2A
  3
Basic
350
2E0
  3
Brighten
350
2E4
  3
ColorChange
350
2E8
  3
Conceptual
350
2E2
  3
Dim
350
2E3
  3
EdgeColorOff
350
2F0
  3
Facepattern
350
2E7
  3
Flat
350
2DC
  3
FlatWithEdges
350
2DD
  3
Gouraud
350
2DE
  3
GouraudWithEdges
350
2DF
  3
Hidden
350
2E1
  3
JitterOff
350
2EE
  3
Linepattern
350
2E6
  3
OverhangOff
350
2EF
  3
Realistic
350
4B
  3
Shaded
350
2ED
  3
Shaded with edges
350
2EC
  3
Shades of Gray
350
2E9
  3
Sketchy
350
2EA
  3
Thicken
350
2E5
  3
Wireframe
350
4C
  3
X-Ray
350
2EB
  0
XRECORD
  5
329
102
{ACAD_REACTORS
330
9
102
}
330
9
100
AcDbXrecord
280
     1
 90
        1
330
49
  0
DICTIONARY
  5
2D3
102
{ACAD_REACTORS
330
9
102
}
330
9
100
AcDbDictionary
281
     1
  3
CANNOSCALE
350
2D7
  3
CMLEADERSTYLE
350
2D5
  3
CTABLESTYLE
350
2D4
  3
DIMASSOC
350
326
  3
HIDETEXT
350
325
  3
INDEXCTL
350
324
  3
LAYEREVAL
350
2D9
  3
LAYERNOTIFY
350
2DA
  3
LIGHTINGUNITS
350
2D8
  3
MSLTSCALE
350
2D6
  3
SORTENTS
350
323
  3
XCLIPFRAME
350
327
  0
DICTIONARY
  5
286
102
{ACAD_REACTORS
330
9
102
}
330
9
100
AcDbDictionary
281
     1
  3
AcmStdDictionary
350
287
  0
DICTIONARY
  5
277
102
{ACAD_REACTORS
330
9
102
}
330
9
100
AcDbDictionary
281
     1
  3
AcMgSettings
350
281
  0
DICTIONARY
  5
1D
102
{ACAD_REACTORS
330
1C
102
}
330
1C
100
AcDbDictionary
281
     1
  0
DICTIONARY
  5
1E
102
{ACAD_REACTORS
330
1C
102
}
330
1C
100
AcDbDictionary
281
     1
1001
ACAD
1000
<All
  0
SORTENTSTABLE
  5
275
102
{ACAD_REACTORS
330
3
102
}
330
3
100
AcDbSortentsTable
330
2
331
129
  5
BD
331
1FF
  5
80
331
D8
  5
10E
331
1C8
  5
86
331
73
  5
253
331
1AC
  5
88
331
A2
  5
144
331
96
  5
184
331
186
  5
94
331
A0
  5
17A
331
190
  5
8A
331
94
  5
186
331
184
  5
96
331
273
  5
270
331
9E
  5
17C
331
1E3
  5
83
331
92
  5
188
331
86
  5
1C8
331
182
  5
98
331
18E
  5
8C
331
9C
  5
17E
331
90
  5
18A
331
18C
  5
8E
331
180
  5
9A
331
9A
  5
180
331
8E
  5
18C
331
18A
  5
90
331
82
  5
1E4
331
17E
  5
9C
331
98
  5
182
331
8C
  5
18E
331
188
  5
92
331
80
  5
1FF
331
17C
  5
9E
331
8A
  5
190
331
7E
  5
21B
331
17A
  5
A0
331
88
  5
1AC
331
254
  5
72
331
238
  5
74
331
1C7
  5
87
331
21C
  5
7D
331
144
  5
A2
331
10E
  5
D8
331
6E
  5
255
331
BD
  5
129
331
74
  5
238
331
72
  5
254
331
97
  5
183
331
187
  5
93
331
1AB
  5
89
331
200
  5
7F
331
95
  5
185
331
A1
  5
15F
331
185
  5
95
331
9F
  5
17B
331
1E4
  5
82
331
93
  5
187
331
87
  5
1C7
331
183
  5
97
331
18F
  5
8B
331
9D
  5
17D
331
270
  5
273
331
91
  5
189
331
18D
  5
8D
331
181
  5
99
331
9B
  5
17F
331
8F
  5
18B
331
18B
  5
8F
331
83
  5
1E3
331
17F
  5
9B
331
99
  5
181
331
8D
  5
18D
331
189
  5
91
331
17D
  5
9D
331
8B
  5
18F
331
15F
  5
A1
331
7F
  5
200
331
17B
  5
9F
331
89
  5
1AB
331
7D
  5
21C
331
7B
  5
237
331
255
  5
6E
331
253
  5
73
331
237
  5
7B
331
21B
  5
7E
  0
XRECORD
  5
32B
102
{ACAD_REACTORS
330
32A
102
}
330
32A
100
AcDbXrecord
280
     1
 70
     1
  0
XRECORD
  5
32D
102
{ACAD_REACTORS
330
32A
102
}
330
32A
100
AcDbXrecord
280
     1
340
24
  0
XRECORD
  5
32E
102
{ACAD_REACTORS
330
32A
102
}
330
32A
100
AcDbXrecord
280
     1
340
24
  0
XRECORD
  5
32C
102
{ACAD_REACTORS
330
32A
102
}
330
32A
100
AcDbXrecord
280
     1
340
24
  0
LAYOUT
  5
D
102
{ACAD_XDICTIONARY
360
331
102
}
102
{ACAD_REACTORS
330
8
102
}
330
8
100
AcDbPlotSettings
  1

  2
\\le-server\HP LaserJet 2100
  4

  6

 40
0.0
 41
0.0
 42
0.0
 43
0.0
 44
0.0
 45
0.0
 46
0.0
 47
0.0
 48
0.0
 49
0.0
140
0.0
141
0.0
142
1.0
143
1.0
 70
   688
 72
     0
 73
     0
 74
     5
  7

 75
    16
147
1.0
148
0.0
149
0.0
100
AcDbLayout
  1
Layout1
 70
     1
 71
     1
 10
0.0
 20
0.0
 11
1189.0
 21
840.9999999999998
 12
0.0
 22
0.0
 32
0.0
 14
0.0
 24
0.0
 34
0.0
 15
1189.0
 25
840.9999999999998
 35
0.0
146
0.0
 13
0.0
 23
0.0
 33
0.0
 16
1.0
 26
0.0
 36
0.0
 17
0.0
 27
1.0
 37
0.0
 76
     0
330
A
  0
LAYOUT
  5
7
102
{ACAD_XDICTIONARY
360
32F
102
}
102
{ACAD_REACTORS
330
8
102
}
330
8
100
AcDbPlotSettings
  1

  2
\\le-server\HP LaserJet 2100
  4

  6

 40
0.0
 41
0.0
 42
0.0
 43
0.0
 44
0.0
 45
0.0
 46
0.0
 47
0.0
 48
0.0
 49
0.0
140
0.0
141
0.0
142
1.0
143
1.0
 70
  1712
 72
     0
 73
     0
 74
     0
  7

 75
     0
147
1.0
148
0.0
149
0.0
100
AcDbLayout
  1
Model
 70
     1
 71
     0
 10
0.0
 20
0.0
 11
12.0
 21
9.0
 12
0.0
 22
0.0
 32
0.0
 14
0.0
 24
0.0
 34
0.0
 15
0.0
 25
0.0
 35
0.0
146
0.0
 13
0.0
 23
0.0
 33
0.0
 16
1.0
 26
0.0
 36
0.0
 17
0.0
 27
1.0
 37
0.0
 76
     0
330
2
331
29
  0
MATERIAL
  5
3C
102
{ACAD_XDICTIONARY
360
3D
102
}
102
{ACAD_REACTORS
330
13
102
}
330
13
100
AcDbMaterial
  1
ByBlock
 72
     0
 43
0.0208333333333333
 43
0.0
 43
0.0
 43
0.0
 43
0.0
 43
0.0208333333333333
 43
0.0
 43
0.0
 43
0.0
 43
0.0
 43
1.0
 43
0.0
 43
0.0
 43
0.0
 43
0.0
 43
1.0
 77
     0
 47
0.0208333333333333
 47
0.0
 47
0.0
 47
0.0
 47
0.0
 47
0.0208333333333333
 47
0.0
 47
0.0
 47
0.0
 47
0.0
 47
1.0
 47
0.0
 47
0.0
 47
0.0
 47
0.0
 47
1.0
171
     0
 49
0.0208333333333333
 49
0.0
 49
0.0
 49
0.0
 49
0.0
 49
0.0208333333333333
 49
0.0
 49
0.0
 49
0.0
 49
0.0
 49
1.0
 49
0.0
 49
0.0
 49
0.0
 49
0.0
 49
1.0
175
     0
142
0.0208333333333333
142
0.0
142
0.0
142
0.0
142
0.0
142
0.0208333333333333
142
0.0
142
0.0
142
0.0
142
0.0
142
1.0
142
0.0
142
0.0
142
0.0
142
0.0
142
1.0
179
     0
144
0.0208333333333333
144
0.0
144
0.0
144
0.0
144
0.0
144
0.0208333333333333
144
0.0
144
0.0
144
0.0
144
0.0
144
1.0
144
0.0
144
0.0
144
0.0
144
0.0
144
1.0
147
0.0208333333333333
147
0.0
147
0.0
147
0.0
147
0.0
147
0.0208333333333333
147
0.0
147
0.0
147
0.0
147
0.0
147
1.0
147
0.0
147
0.0
147
0.0
147
0.0
147
1.0
  0
MATERIAL
  5
34
102
{ACAD_XDICTIONARY
360
35
102
}
102
{ACAD_REACTORS
330
13
102
}
330
13
100
AcDbMaterial
  1
ByLayer
 72
     0
 43
0.0208333333333333
 43
0.0
 43
0.0
 43
0.0
 43
0.0
 43
0.0208333333333333
 43
0.0
 43
0.0
 43
0.0
 43
0.0
 43
1.0
 43
0.0
 43
0.0
 43
0.0
 43
0.0
 43
1.0
 77
     0
 47
0.0208333333333333
 47
0.0
 47
0.0
 47
0.0
 47
0.0
 47
0.0208333333333333
 47
0.0
 47
0.0
 47
0.0
 47
0.0
 47
1.0
 47
0.0
 47
0.0
 47
0.0
 47
0.0
 47
1.0
171
     0
 49
0.0208333333333333
 49
0.0
 49
0.0
 49
0.0
 49
0.0
 49
0.0208333333333333
 49
0.0
 49
0.0
 49
0.0
 49
0.0
 49
1.0
 49
0.0
 49
0.0
 49
0.0
 49
0.0
 49
1.0
175
     0
142
0.0208333333333333
142
0.0
142
0.0
142
0.0
142
0.0
142
0.0208333333333333
142
0.0
142
0.0
142
0.0
142
0.0
142
1.0
142
0.0
142
0.0
142
0.0
142
0.0
142
1.0
179
     0
144
0.0208333333333333
144
0.0
144
0.0
144
0.0
144
0.0
144
0.0208333333333333
144
0.0
144
0.0
144
0.0
144
0.0
144
1.0
144
0.0
144
0.0
144
0.0
144
0.0
144
1.0
147
0.0208333333333333
147
0.0
147
0.0
147
0.0
147
0.0
147
0.0208333333333333
147
0.0
147
0.0
147
0.0
147
0.0
147
1.0
147
0.0
147
0.0
147
0.0
147
0.0
147
1.0
  0
MATERIAL
  5
12
102
{ACAD_XDICTIONARY
360
14
102
}
102
{ACAD_REACTORS
330
13
102
}
330
13
100
AcDbMaterial
  1
Global
 72
     0
 43
0.0208333333333333
 43
0.0
 43
0.0
 43
0.0
 43
0.0
 43
0.0208333333333333
 43
0.0
 43
0.0
 43
0.0
 43
0.0
 43
1.0
 43
0.0
 43
0.0
 43
0.0
 43
0.0
 43
1.0
 77
     0
 47
0.0208333333333333
 47
0.0
 47
0.0
 47
0.0
 47
0.0
 47
0.0208333333333333
 47
0.0
 47
0.0
 47
0.0
 47
0.0
 47
1.0
 47
0.0
 47
0.0
 47
0.0
 47
0.0
 47
1.0
171
     0
 49
0.0208333333333333
 49
0.0
 49
0.0
 49
0.0
 49
0.0
 49
0.0208333333333333
 49
0.0
 49
0.0
 49
0.0
 49
0.0
 49
1.0
 49
0.0
 49
0.0
 49
0.0
 49
0.0
 49
1.0
175
     0
142
0.0208333333333333
142
0.0
142
0.0
142
0.0
142
0.0
142
0.0208333333333333
142
0.0
142
0.0
142
0.0
142
0.0
142
1.0
142
0.0
142
0.0
142
0.0
142
0.0
142
1.0
179
     0
144
0.0208333333333333
144
0.0
144
0.0
144
0.0
144
0.0
144
0.0208333333333333
144
0.0
144
0.0
144
0.0
144
0.0
144
1.0
144
0.0
144
0.0
144
0.0
144
0.0
144
1.0
147
0.0208333333333333
147
0.0
147
0.0
147
0.0
147
0.0
147
0.0208333333333333
147
0.0
147
0.0
147
0.0
147
0.0
147
1.0
147
0.0
147
0.0
147
0.0
147
0.0
147
1.0
  0
MLEADERSTYLE
  5
2F1
102
{ACAD_REACTORS
330
47
102
}
330
47
100
AcDbMLeaderStyle
170
     2
171
     1
172
     0
 90
        2
 40
0.0
 41
0.0
173
     1
 91
-1056964608
340
24
 92
       -2
290
     1
 42
2.0
291
     1
 43
0.36
  3
Standard
 44
4.0
300

342
21
174
     1
178
     6
175
     1
176
     0
 93
-1056964608
 45
4.0
292
     0
297
     0
 46
4.0
 94
-1056964608
 47
1.0
 49
1.0
140
1.0
293
     1
141
0.0
294
     1
177
     0
142
1.0
295
     0
296
     0
143
0.125
1001
ACAD_MLEADERVER
1070
     2
  0
MLINESTYLE
  5
48
102
{ACAD_REACTORS
330
32
102
}
330
32
100
AcDbMlineStyle
  2
STANDARD
 70
     0
  3

 62
   256
 51
90.0
 52
90.0
 71
     2
 49
0.5
 62
   256
  6
BYLAYER
 49
-0.5
 62
   256
  6
BYLAYER
  0
ACDBPLACEHOLDER
  5
10
102
{ACAD_REACTORS
330
11
102
}
330
11
  0
SCALE
  5
4D
102
{ACAD_REACTORS
330
45
102
}
330
45
100
AcDbScale
 70
     0
300
1:1
140
1.0
141
1.0
290
     1
  0
SCALE
  5
4E
102
{ACAD_REACTORS
330
45
102
}
330
45
100
AcDbScale
 70
     0
300
1:2
140
1.0
141
2.0
290
     0
  0
SCALE
  5
4F
102
{ACAD_REACTORS
330
45
102
}
330
45
100
AcDbScale
 70
     0
300
1:4
140
1.0
141
4.0
290
     0
  0
SCALE
  5
50
102
{ACAD_REACTORS
330
45
102
}
330
45
100
AcDbScale
 70
     0
300
1:5
140
1.0
141
5.0
290
     0
  0
SCALE
  5
51
102
{ACAD_REACTORS
330
45
102
}
330
45
100
AcDbScale
 70
     0
300
1:8
140
1.0
141
8.0
290
     0
  0
SCALE
  5
52
102
{ACAD_REACTORS
330
45
102
}
330
45
100
AcDbScale
 70
     0
300
1:10
140
1.0
141
10.0
290
     0
  0
SCALE
  5
53
102
{ACAD_REACTORS
330
45
102
}
330
45
100
AcDbScale
 70
     0
300
1:16
140
1.0
141
16.0
290
     0
  0
SCALE
  5
54
102
{ACAD_REACTORS
330
45
102
}
330
45
100
AcDbScale
 70
     0
300
1:20
140
1.0
141
20.0
290
     0
  0
SCALE
  5
55
102
{ACAD_REACTORS
330
45
102
}
330
45
100
AcDbScale
 70
     0
300
1:30
140
1.0
141
30.0
290
     0
  0
SCALE
  5
56
102
{ACAD_REACTORS
330
45
102
}
330
45
100
AcDbScale
 70
     0
300
1:40
140
1.0
141
40.0
290
     0
  0
SCALE
  5
57
102
{ACAD_REACTORS
330
45
102
}
330
45
100
AcDbScale
 70
     0
300
1:50
140
1.0
141
50.0
290
     0
  0
SCALE
  5
58
102
{ACAD_REACTORS
330
45
102
}
330
45
100
AcDbScale
 70
     0
300
1:100
140
1.0
141
100.0
290
     0
  0
SCALE
  5
59
102
{ACAD_REACTORS
330
45
102
}
330
45
100
AcDbScale
 70
     0
300
2:1
140
2.0
141
1.0
290
     0
  0
SCALE
  5
5A
102
{ACAD_REACTORS
330
45
102
}
330
45
100
AcDbScale
 70
     0
300
4:1
140
4.0
141
1.0
290
     0
  0
SCALE
  5
5B
102
{ACAD_REACTORS
330
45
102
}
330
45
100
AcDbScale
 70
     0
300
8:1
140
8.0
141
1.0
290
     0
  0
SCALE
  5
5C
102
{ACAD_REACTORS
330
45
102
}
330
45
100
AcDbScale
 70
     0
300
10:1
140
10.0
141
1.0
290
     0
  0
SCALE
  5
5D
102
{ACAD_REACTORS
330
45
102
}
330
45
100
AcDbScale
 70
     0
300
100:1
140
100.0
141
1.0
290
     0
  0
SCALE
  5
5E
102
{ACAD_REACTORS
330
45
102
}
330
45
100
AcDbScale
 70
     0
300
1/128" = 1'-0"
140
0.0078125
141
12.0
290
     0
  0
SCALE
  5
5F
102
{ACAD_REACTORS
330
45
102
}
330
45
100
AcDbScale
 70
     0
300
1/64" = 1'-0"
140
0.015625
141
12.0
290
     0
  0
SCALE
  5
60
102
{ACAD_REACTORS
330
45
102
}
330
45
100
AcDbScale
 70
     0
300
1/32" = 1'-0"
140
0.03125
141
12.0
290
     0
  0
SCALE
  5
61
102
{ACAD_REACTORS
330
45
102
}
330
45
100
AcDbScale
 70
     0
300
1/16" = 1'-0"
140
0.0625
141
12.0
290
     0
  0
SCALE
  5
62
102
{ACAD_REACTORS
330
45
102
}
330
45
100
AcDbScale
 70
     0
300
3/32" = 1'-0"
140
0.09375
141
12.0
290
     0
  0
SCALE
  5
63
102
{ACAD_REACTORS
330
45
102
}
330
45
100
AcDbScale
 70
     0
300
1/8" = 1'-0"
140
0.125
141
12.0
290
     0
  0
SCALE
  5
64
102
{ACAD_REACTORS
330
45
102
}
330
45
100
AcDbScale
 70
     0
300
3/16" = 1'-0"
140
0.1875
141
12.0
290
     0
  0
SCALE
  5
65
102
{ACAD_REACTORS
330
45
102
}
330
45
100
AcDbScale
 70
     0
300
1/4" = 1'-0"
140
0.25
141
12.0
290
     0
  0
SCALE
  5
66
102
{ACAD_REACTORS
330
45
102
}
330
45
100
AcDbScale
 70
     0
300
3/8" = 1'-0"
140
0.375
141
12.0
290
     0
  0
SCALE
  5
67
102
{ACAD_REACTORS
330
45
102
}
330
45
100
AcDbScale
 70
     0
300
1/2" = 1'-0"
140
0.5
141
12.0
290
     0
  0
SCALE
  5
68
102
{ACAD_REACTORS
330
45
102
}
330
45
100
AcDbScale
 70
     0
300
3/4" = 1'-0"
140
0.75
141
12.0
290
     0
  0
SCALE
  5
69
102
{ACAD_REACTORS
330
45
102
}
330
45
100
AcDbScale
 70
     0
300
1" = 1'-0"
140
1.0
141
12.0
290
     0
  0
SCALE
  5
6A
102
{ACAD_REACTORS
330
45
102
}
330
45
100
AcDbScale
 70
     0
300
1-1/2" = 1'-0"
140
1.5
141
12.0
290
     0
  0
SCALE
  5
6B
102
{ACAD_REACTORS
330
45
102
}
330
45
100
AcDbScale
 70
     0
300
3" = 1'-0"
140
3.0
141
12.0
290
     0
  0
SCALE
  5
6C
102
{ACAD_REACTORS
330
45
102
}
330
45
100
AcDbScale
 70
     0
300
6" = 1'-0"
140
6.0
141
12.0
290
     0
  0
SCALE
  5
6D
102
{ACAD_REACTORS
330
45
102
}
330
45
100
AcDbScale
 70
     0
300
1'-0" = 1'-0"
140
12.0
141
12.0
290
     0
  0
TABLESTYLE
  5
49
102
{ACAD_XDICTIONARY
360
4A
102
}
102
{ACAD_REACTORS
330
46
102
}
330
46
100
AcDbTableStyle
  3
Standard
 70
     0
 71
     0
 40
0.06
 41
0.06
280
     0
281
     0
  7
STANDARD
140
0.18
170
     2
 62
     0
 63
     7
283
     0
274
    -2
284
     1
 64
     0
275
    -2
285
     1
 65
     0
276
    -2
286
     1
 66
     0
277
    -2
287
     1
 67
     0
278
    -2
288
     1
 68
     0
279
    -2
289
     1
 69
     0
  7
STANDARD
140
0.25
170
     5
 62
     0
 63
     7
283
     0
274
    -2
284
     1
 64
     0
275
    -2
285
     1
 65
     0
276
    -2
286
     1
 66
     0
277
    -2
287
     1
 67
     0
278
    -2
288
     1
 68
     0
279
    -2
289
     1
 69
     0
  7
STANDARD
140
0.18
170
     5
 62
     0
 63
     7
283
     0
274
    -2
284
     1
 64
     0
275
    -2
285
     1
 65
     0
276
    -2
286
     1
 66
     0
277
    -2
287
     1
 67
     0
278
    -2
288
     1
 68
     0
279
    -2
289
     1
 69
     0
  0
VISUALSTYLE
  5
2A
102
{ACAD_XDICTIONARY
360
334
102
}
102
{ACAD_REACTORS
330
2B
102
}
330
2B
100
AcDbVisualStyle
  2
2dWireframe
 70
     4
 71
     0
 72
     2
 73
     0
 90
        0
 40
-0.6
 41
-30.0
 62
     5
 63
     7
 74
     1
 91
        4
 64
     7
 65
   257
 75
     1
175
     1
 42
1.0
 92
        0
 66
   257
 43
1.0
 76
     1
 77
     6
 78
     2
 67
     7
 79
     5
170
     0
171
     0
290
     0
174
     0
 93
        1
 44
0.0
173
     0
291
     0
 45
0.0
1001
ACAD
1000
AcDbSavedByObjectVersion
1070
     0
  0
VISUALSTYLE
  5
2E0
102
{ACAD_XDICTIONARY
360
34B
102
}
102
{ACAD_REACTORS
330
2B
102
}
330
2B
100
AcDbVisualStyle
  2
Basic
 70
     7
 71
     1
 72
     0
 73
     1
 90
        0
 40
-0.6
 41
-30.0
 62
     5
 63
     7
 74
     0
 91
        4
 64
     7
 65
   257
 75
     1
175
     1
 42
1.0
 92
        8
 66
     7
 43
1.0
 76
     1
 77
     6
 78
     2
 67
     7
 79
     5
170
     0
171
     0
290
     0
174
     0
 93
        1
 44
0.0
173
     0
291
     1
 45
0.0
1001
ACAD
1000
AcDbSavedByObjectVersion
1070
     0
  0
VISUALSTYLE
  5
2E4
102
{ACAD_XDICTIONARY
360
353
102
}
102
{ACAD_REACTORS
330
2B
102
}
330
2B
100
AcDbVisualStyle
  2
Brighten
 70
    12
 71
     2
 72
     2
 73
     0
 90
        0
 40
-0.6
 41
-30.0
 62
     5
 63
     7
 74
     1
 91
        4
 64
     7
 65
   257
 75
     1
175
     1
 42
1.0
 92
        8
 66
     7
 43
1.0
 76
     1
 77
     6
 78
     2
 67
     7
 79
     5
170
     0
171
     0
290
     0
174
     0
 93
        1
 44
50.0
173
     0
291
     1
 45
0.0
1001
ACAD
1000
AcDbSavedByObjectVersion
1070
     0
  0
VISUALSTYLE
  5
2E8
102
{ACAD_XDICTIONARY
360
35B
102
}
102
{ACAD_REACTORS
330
2B
102
}
330
2B
100
AcDbVisualStyle
  2
ColorChange
 70
    16
 71
     2
 72
     2
 73
     3
 90
        0
 40
-0.6
 41
-30.0
 62
     5
 63
     8
 74
     1
 91
        4
 64
     7
 65
   257
 75
     1
175
     1
 42
1.0
 92
        8
 66
     8
 43
1.0
 76
     1
 77
     6
 78
     2
 67
     7
 79
     5
170
     0
171
     0
290
     0
174
     0
 93
        1
 44
0.0
173
     0
291
     1
 45
0.0
1001
ACAD
1000
AcDbSavedByObjectVersion
1070
     0
  0
VISUALSTYLE
  5
2E2
102
{ACAD_XDICTIONARY
360
34F
102
}
102
{ACAD_REACTORS
330
2B
102
}
330
2B
100
AcDbVisualStyle
  2
Conceptual
 70
     9
 71
     3
 72
     2
 73
     0
 90
        0
 40
-0.6
 41
-30.0
 62
     5
 63
     7
 74
     2
 91
        2
 64
     7
 65
   257
 75
     1
175
     1
 42
179.0
 92
        8
 66
     7
 43
1.0
 76
     1
 77
     6
 78
     2
 67
     7
 79
     3
170
     0
171
     0
290
     0
174
     0
 93
        1
 44
0.0
173
     0
291
     0
 45
0.0
1001
ACAD
1000
AcDbSavedByObjectVersion
1070
     0
  0
VISUALSTYLE
  5
2E3
102
{ACAD_XDICTIONARY
360
351
102
}
102
{ACAD_REACTORS
330
2B
102
}
330
2B
100
AcDbVisualStyle
  2
Dim
 70
    11
 71
     2
 72
     2
 73
     0
 90
        0
 40
-0.6
 41
-30.0
 62
     5
 63
     7
 74
     1
 91
        4
 64
     7
 65
   257
 75
     1
175
     1
 42
1.0
 92
        8
 66
     7
 43
1.0
 76
     1
 77
     6
 78
     2
 67
     7
 79
     5
170
     0
171
     0
290
     0
174
     0
 93
        1
 44
-50.0
173
     0
291
     1
 45
0.0
1001
ACAD
1000
AcDbSavedByObjectVersion
1070
     0
  0
VISUALSTYLE
  5
2F0
102
{ACAD_XDICTIONARY
360
36B
102
}
102
{ACAD_REACTORS
330
2B
102
}
330
2B
100
AcDbVisualStyle
  2
EdgeColorOff
 70
    22
 71
     2
 72
     2
 73
     0
 90
        0
 40
-0.6
 41
-30.0
 62
     5
 63
     7
 74
     1
 91
        4
 64
     7
 65
   257
 75
     1
175
     1
 42
1.0
 92
        8
 66
     7
 43
1.0
 76
     1
 77
     6
 78
     2
 67
     7
 79
     5
170
     0
171
     0
290
     0
174
     0
 93
        1
 44
0.0
173
     0
291
     1
 45
0.0
1001
ACAD
1000
AcDbSavedByObjectVersion
1070
     0
  0
VISUALSTYLE
  5
2E7
102
{ACAD_XDICTIONARY
360
359
102
}
102
{ACAD_REACTORS
330
2B
102
}
330
2B
100
AcDbVisualStyle
  2
Facepattern
 70
    15
 71
     2
 72
     2
 73
     0
 90
        0
 40
-0.6
 41
-30.0
 62
     5
 63
     7
 74
     1
 91
        4
 64
     7
 65
   257
 75
     1
175
     1
 42
1.0
 92
        8
 66
     7
 43
1.0
 76
     1
 77
     6
 78
     2
 67
     7
 79
     5
170
     0
171
     0
290
     0
174
     0
 93
        1
 44
0.0
173
     0
291
     1
 45
0.0
1001
ACAD
1000
AcDbSavedByObjectVersion
1070
     0
  0
VISUALSTYLE
  5
2DC
102
{ACAD_XDICTIONARY
360
343
102
}
102
{ACAD_REACTORS
330
2B
102
}
330
2B
100
AcDbVisualStyle
  2
Flat
 70
     0
 71
     2
 72
     1
 73
     1
 90
        2
 40
-0.6
 41
30.0
 62
     5
 63
     7
 74
     0
 91
        0
 64
     7
 65
   257
 75
     1
175
     1
 42
1.0
 92
        8
 66
     7
 43
1.0
 76
     1
 77
     6
 78
     2
 67
     7
 79
     5
170
     0
171
     0
290
     0
174
     0
 93
       13
 44
0.0
173
     0
291
     1
 45
0.0
1001
ACAD
1000
AcDbSavedByObjectVersion
1070
     0
  0
VISUALSTYLE
  5
2DD
102
{ACAD_XDICTIONARY
360
345
102
}
102
{ACAD_REACTORS
330
2B
102
}
330
2B
100
AcDbVisualStyle
  2
FlatWithEdges
 70
     1
 71
     2
 72
     1
 73
     1
 90
        2
 40
-0.6
 41
30.0
 62
     5
 63
     7
 74
     1
 91
        0
 64
     7
 65
   257
 75
     1
175
     1
 42
1.0
 92
        0
 66
   257
 43
1.0
 76
     1
 77
     6
 78
     2
 67
     7
 79
     5
170
     0
171
     0
290
     0
174
     0
 93
       13
 44
0.0
173
     0
291
     1
 45
0.0
1001
ACAD
1000
AcDbSavedByObjectVersion
1070
     0
  0
VISUALSTYLE
  5
2DE
102
{ACAD_XDICTIONARY
360
347
102
}
102
{ACAD_REACTORS
330
2B
102
}
330
2B
100
AcDbVisualStyle
  2
Gouraud
 70
     2
 71
     2
 72
     2
 73
     1
 90
        2
 40
-0.6
 41
30.0
 62
     5
 63
     7
 74
     0
 91
        0
 64
     7
 65
   257
 75
     1
175
     1
 42
1.0
 92
        0
 66
     7
 43
1.0
 76
     1
 77
     6
 78
     2
 67
     7
 79
     5
170
     0
171
     0
290
     0
174
     0
 93
       13
 44
0.0
173
     0
291
     1
 45
0.0
1001
ACAD
1000
AcDbSavedByObjectVersion
1070
     0
  0
VISUALSTYLE
  5
2DF
102
{ACAD_XDICTIONARY
360
349
102
}
102
{ACAD_REACTORS
330
2B
102
}
330
2B
100
AcDbVisualStyle
  2
GouraudWithEdges
 70
     3
 71
     2
 72
     2
 73
     1
 90
        2
 40
-0.6
 41
30.0
 62
     5
 63
     7
 74
     1
 91
        0
 64
     7
 65
   257
 75
     1
175
     1
 42
1.0
 92
        0
 66
   257
 43
1.0
 76
     1
 77
     6
 78
     2
 67
     7
 79
     5
170
     0
171
     0
290
     0
174
     0
 93
       13
 44
0.0
173
     0
291
     1
 45
0.0
1001
ACAD
1000
AcDbSavedByObjectVersion
1070
     0
  0
VISUALSTYLE
  5
2E1
102
{ACAD_XDICTIONARY
360
34D
102
}
102
{ACAD_REACTORS
330
2B
102
}
330
2B
100
AcDbVisualStyle
  2
Hidden
 70
     6
 71
     1
 72
     2
 73
     2
 90
        0
 40
-0.6
 41
-30.0
 62
     5
 63
     7
 74
     2
 91
        2
 64
     7
 65
   257
 75
     2
175
     1
 42
40.0
 92
        0
 66
   257
 43
1.0
 76
     1
 77
     6
 78
     2
 67
     7
 79
     3
170
     0
171
     0
290
     0
174
     0
 93
        1
 44
0.0
173
     0
291
     0
 45
0.0
1001
ACAD
1000
AcDbSavedByObjectVersion
1070
     0
  0
VISUALSTYLE
  5
2EE
102
{ACAD_XDICTIONARY
360
367
102
}
102
{ACAD_REACTORS
330
2B
102
}
330
2B
100
AcDbVisualStyle
  2
JitterOff
 70
    20
 71
     2
 72
     2
 73
     0
 90
        0
 40
-0.6
 41
-30.0
 62
     5
 63
     7
 74
     1
 91
        4
 64
     7
 65
   257
 75
     1
175
     1
 42
1.0
 92
       10
 66
     7
 43
1.0
 76
     1
 77
     6
 78
     2
 67
     7
 79
     5
170
     0
171
     0
290
     0
174
     0
 93
        1
 44
0.0
173
     0
291
     1
 45
0.0
1001
ACAD
1000
AcDbSavedByObjectVersion
1070
     0
  0
VISUALSTYLE
  5
2E6
102
{ACAD_XDICTIONARY
360
357
102
}
102
{ACAD_REACTORS
330
2B
102
}
330
2B
100
AcDbVisualStyle
  2
Linepattern
 70
    14
 71
     2
 72
     2
 73
     0
 90
        0
 40
-0.6
 41
-30.0
 62
     5
 63
     7
 74
     1
 91
        4
 64
     7
 65
   257
 75
     7
175
     7
 42
1.0
 92
        8
 66
     7
 43
1.0
 76
     1
 77
     6
 78
     2
 67
     7
 79
     5
170
     0
171
     0
290
     0
174
     0
 93
        1
 44
0.0
173
     0
291
     1
 45
0.0
1001
ACAD
1000
AcDbSavedByObjectVersion
1070
     0
  0
VISUALSTYLE
  5
2EF
102
{ACAD_XDICTIONARY
360
369
102
}
102
{ACAD_REACTORS
330
2B
102
}
330
2B
100
AcDbVisualStyle
  2
OverhangOff
 70
    21
 71
     2
 72
     2
 73
     0
 90
        0
 40
-0.6
 41
-30.0
 62
     5
 63
     7
 74
     1
 91
        4
 64
     7
 65
   257
 75
     1
175
     1
 42
1.0
 92
        9
 66
     7
 43
1.0
 76
     1
 77
     6
 78
     2
 67
     7
 79
     5
170
     0
171
     0
290
     0
174
     0
 93
        1
 44
0.0
173
     0
291
     1
 45
0.0
1001
ACAD
1000
AcDbSavedByObjectVersion
1070
     0
  0
VISUALSTYLE
  5
4B
102
{ACAD_XDICTIONARY
360
339
102
}
102
{ACAD_REACTORS
330
2B
102
}
330
2B
100
AcDbVisualStyle
  2
Realistic
 70
     8
 71
     2
 72
     2
 73
     0
 90
        0
 40
-0.6
 41
-30.0
 62
     5
 63
     7
 74
     1
 91
        0
 64
     7
 65
   257
 75
     1
175
     1
 42
1.0
 92
        8
 66
     8
 43
1.0
 76
     1
 77
     6
 78
     2
 67
     7
 79
     5
170
     0
171
     0
290
     0
174
     0
 93
       13
 44
0.0
173
     0
291
     0
 45
0.0
1001
ACAD
1000
AcDbSavedByObjectVersion
1070
     0
  0
VISUALSTYLE
  5
2ED
102
{ACAD_XDICTIONARY
360
365
102
}
102
{ACAD_REACTORS
330
2B
102
}
330
2B
100
AcDbVisualStyle
  2
Shaded
 70
    27
 71
     2
 72
     2
 73
     1
 90
        2
 40
-0.6
 41
30.0
 62
     5
 63
     7
 74
     0
 91
        4
 64
     7
 65
   257
 75
     1
175
     1
 42
1.0
 92
        8
 66
   257
 43
1.0
 76
     1
 77
     6
 78
     2
 67
     8
 79
     3
170
     0
171
     0
290
     0
174
     0
 93
        5
 44
0.0
173
     0
291
     0
 45
0.0
1001
ACAD
1000
AcDbSavedByObjectVersion
1070
     0
  0
VISUALSTYLE
  5
2EC
102
{ACAD_XDICTIONARY
360
363
102
}
102
{ACAD_REACTORS
330
2B
102
}
330
2B
100
AcDbVisualStyle
  2
Shaded with edges
 70
    26
 71
     2
 72
     2
 73
     1
 90
        2
 40
-0.6
 41
30.0
 62
     5
 63
     7
 74
     1
 91
       10
 64
     7
 65
   257
 75
     2
175
     1
 42
1.0
 92
        8
 66
   257
 43
1.0
 76
     1
 77
     6
 78
     2
 67
     7
 79
     3
170
     0
171
     0
290
     0
174
     0
 93
        5
 44
0.0
173
     0
291
     0
 45
0.0
1001
ACAD
1000
AcDbSavedByObjectVersion
1070
     0
  0
VISUALSTYLE
  5
2E9
102
{ACAD_XDICTIONARY
360
35D
102
}
102
{ACAD_REACTORS
330
2B
102
}
330
2B
100
AcDbVisualStyle
  2
Shades of Gray
 70
    23
 71
     2
 72
     2
 73
     3
 90
        0
 40
-0.6
 41
-30.0
 62
     5
 63
     7
 74
     2
 91
        2
 64
     7
 65
     7
 75
     1
175
     1
 42
40.0
 92
        8
 66
     7
 43
1.0
 76
     1
 77
     6
 78
     2
 67
     7
 79
     3
170
     0
171
     0
290
     0
174
     0
 93
        1
 44
0.0
173
     0
291
     0
 45
0.0
1001
ACAD
1000
AcDbSavedByObjectVersion
1070
     0
  0
VISUALSTYLE
  5
2EA
102
{ACAD_XDICTIONARY
360
35F
102
}
102
{ACAD_REACTORS
330
2B
102
}
330
2B
100
AcDbVisualStyle
  2
Sketchy
 70
    24
 71
     1
 72
     2
 73
     2
 90
        0
 40
-0.6
 41
-30.0
 62
     5
 63
     7
 74
     2
 91
        2
 64
     7
 65
     7
 75
     1
175
     1
 42
40.0
 92
       11
 66
     7
 43
1.0
 76
     1
 77
     6
 78
     2
 67
     7
 79
     6
170
     0
171
     0
290
     0
174
     0
 93
        1
 44
0.0
173
     0
291
     0
 45
0.0
1001
ACAD
1000
AcDbSavedByObjectVersion
1070
     0
  0
VISUALSTYLE
  5
2E5
102
{ACAD_XDICTIONARY
360
355
102
}
102
{ACAD_REACTORS
330
2B
102
}
330
2B
100
AcDbVisualStyle
  2
Thicken
 70
    13
 71
     2
 72
     2
 73
     0
 90
        0
 40
-0.6
 41
-30.0
 62
     5
 63
     7
 74
     1
 91
        4
 64
     7
 65
   257
 75
     1
175
     1
 42
1.0
 92
       12
 66
     7
 43
1.0
 76
     1
 77
     6
 78
     2
 67
     7
 79
     5
170
     0
171
     0
290
     0
174
     0
 93
        1
 44
0.0
173
     0
291
     1
 45
0.0
1001
ACAD
1000
AcDbSavedByObjectVersion
1070
     0
  0
VISUALSTYLE
  5
4C
102
{ACAD_XDICTIONARY
360
33B
102
}
102
{ACAD_REACTORS
330
2B
102
}
330
2B
100
AcDbVisualStyle
  2
Wireframe
 70
     5
 71
     0
 72
     2
 73
     0
 90
        0
 40
-0.6
 41
-30.0
 62
     5
 63
     7
 74
     1
 91
        4
 64
     7
 65
   257
 75
     1
175
     1
 42
1.0
 92
        0
 66
   257
 43
1.0
 76
     1
 77
     6
 78
     2
 67
     7
 79
     3
170
     0
171
     0
290
     0
174
     0
 93
        1
 44
0.0
173
     0
291
     0
 45
0.0
1001
ACAD
1000
AcDbSavedByObjectVersion
1070
     0
  0
VISUALSTYLE
  5
2EB
102
{ACAD_XDICTIONARY
360
361
102
}
102
{ACAD_REACTORS
330
2B
102
}
330
2B
100
AcDbVisualStyle
  2
X-Ray
 70
    25
 71
     2
 72
     2
 73
     1
 90
        1
 40
0.5
 41
-30.0
 62
     5
 63
     7
 74
     1
 91
        0
 64
     7
 65
   257
 75
     1
175
     1
 42
1.0
 92
        8
 66
     7
 43
1.0
 76
     1
 77
     6
 78
     2
 67
     7
 79
     3
170
     0
171
     0
290
     0
174
     0
 93
       13
 44
0.0
173
     0
291
     0
 45
0.0
1001
ACAD
1000
AcDbSavedByObjectVersion
1070
     0
  0
DICTIONARYVAR
  5
2D7
102
{ACAD_REACTORS
330
2D3
102
}
330
2D3
100
DictionaryVariables
280
     0
  1
1:1
  0
DICTIONARYVAR
  5
2D5
102
{ACAD_REACTORS
330
2D3
102
}
330
2D3
100
DictionaryVariables
280
     0
  1
STANDARD
  0
DICTIONARYVAR
  5
2D4
102
{ACAD_REACTORS
330
2D3
102
}
330
2D3
100
DictionaryVariables
280
     0
  1
STANDARD
  0
DICTIONARYVAR
  5
326
102
{ACAD_REACTORS
330
2D3
102
}
330
2D3
100
DictionaryVariables
280
     0
  1
1
  0
DICTIONARYVAR
  5
325
102
{ACAD_REACTORS
330
2D3
102
}
330
2D3
100
DictionaryVariables
280
     0
  1
1
  0
DICTIONARYVAR
  5
324
102
{ACAD_REACTORS
330
2D3
102
}
330
2D3
100
DictionaryVariables
280
     0
  1
0
  0
DICTIONARYVAR
  5
2D9
102
{ACAD_REACTORS
330
2D3
102
}
330
2D3
100
DictionaryVariables
280
     0
  1
1
  0
DICTIONARYVAR
  5
2DA
102
{ACAD_REACTORS
330
2D3
102
}
330
2D3
100
DictionaryVariables
280
     0
  1
15
  0
DICTIONARYVAR
  5
2D8
102
{ACAD_REACTORS
330
2D3
102
}
330
2D3
100
DictionaryVariables
280
     0
  1
0
  0
DICTIONARYVAR
  5
2D6
102
{ACAD_REACTORS
330
2D3
102
}
330
2D3
100
DictionaryVariables
280
     0
  1
0
  0
DICTIONARYVAR
  5
323
102
{ACAD_REACTORS
330
2D3
102
}
330
2D3
100
DictionaryVariables
280
     0
  1
127
  0
DICTIONARYVAR
  5
327
102
{ACAD_REACTORS
330
2D3
102
}
330
2D3
100
DictionaryVariables
280
     0
  1
2
  0
DICTIONARY
  5
287
102
{ACAD_REACTORS
330
286
102
}
330
286
100
AcDbDictionary
281
     1
  0
DICTIONARY
  5
281
102
{ACAD_REACTORS
330
277
102
}
330
277
100
AcDbDictionary
281
     1
  3
DWGSETTINGS
350
280
  3
TRANSSETTINGS
350
282
  0
DICTIONARY
  5
331
330
D
100
AcDbDictionary
280
     1
281
     1
  3
ACAD_XREC_ROUNDTRIP
360
332
  0
DICTIONARY
  5
32F
330
7
100
AcDbDictionary
280
     1
281
     1
  3
ACAD_XREC_ROUNDTRIP
360
330
  0
DICTIONARY
  5
3D
330
3C
100
AcDbDictionary
280
     1
281
     1
  3
ACAD_XREC_ROUNDTRIP
360
337
  3
BUMPTILE
360
3E
  3
DIFFUSETILE
360
3F
  3
OPACITYTILE
360
40
  3
REFLECTIONTILE
360
41
  3
REFRACTIONTILE
360
42
  3
SPECULARTILE
360
43
  0
DICTIONARY
  5
35
330
34
100
AcDbDictionary
280
     1
281
     1
  3
ACAD_XREC_ROUNDTRIP
360
336
  3
BUMPTILE
360
36
  3
DIFFUSETILE
360
37
  3
OPACITYTILE
360
38
  3
REFLECTIONTILE
360
39
  3
REFRACTIONTILE
360
3A
  3
SPECULARTILE
360
3B
  0
DICTIONARY
  5
14
330
12
100
AcDbDictionary
280
     1
281
     1
  3
ACAD_XREC_ROUNDTRIP
360
333
  3
BUMPTILE
360
15
  3
DIFFUSETILE
360
16
  3
OPACITYTILE
360
17
  3
REFLECTIONTILE
360
18
  3
REFRACTIONTILE
360
19
  3
SPECULARTILE
360
1A
  0
DICTIONARY
  5
4A
330
49
100
AcDbDictionary
280
     1
281
     1
  3
ACAD_ROUNDTRIP_2008_TABLESTYLE_CELLSTYLEMAP
360
328
  3
ACAD_XREC_ROUNDTRIP
360
338
  0
DICTIONARY
  5
334
330
2A
100
AcDbDictionary
280
     1
281
     1
  3
ACAD_XREC_ROUNDTRIP
360
335
  0
DICTIONARY
  5
34B
330
2E0
100
AcDbDictionary
280
     1
281
     1
  3
ACAD_XREC_ROUNDTRIP
360
34C
  0
DICTIONARY
  5
353
330
2E4
100
AcDbDictionary
280
     1
281
     1
  3
ACAD_XREC_ROUNDTRIP
360
354
  0
DICTIONARY
  5
35B
330
2E8
100
AcDbDictionary
280
     1
281
     1
  3
ACAD_XREC_ROUNDTRIP
360
35C
  0
DICTIONARY
  5
34F
330
2E2
100
AcDbDictionary
280
     1
281
     1
  3
ACAD_XREC_ROUNDTRIP
360
350
  0
DICTIONARY
  5
351
330
2E3
100
AcDbDictionary
280
     1
281
     1
  3
ACAD_XREC_ROUNDTRIP
360
352
  0
DICTIONARY
  5
36B
330
2F0
100
AcDbDictionary
280
     1
281
     1
  3
ACAD_XREC_ROUNDTRIP
360
36C
  0
DICTIONARY
  5
359
330
2E7
100
AcDbDictionary
280
     1
281
     1
  3
ACAD_XREC_ROUNDTRIP
360
35A
  0
DICTIONARY
  5
343
330
2DC
100
AcDbDictionary
280
     1
281
     1
  3
ACAD_XREC_ROUNDTRIP
360
344
  0
DICTIONARY
  5
345
330
2DD
100
AcDbDictionary
280
     1
281
     1
  3
ACAD_XREC_ROUNDTRIP
360
346
  0
DICTIONARY
  5
347
330
2DE
100
AcDbDictionary
280
     1
281
     1
  3
ACAD_XREC_ROUNDTRIP
360
348
  0
DICTIONARY
  5
349
330
2DF
100
AcDbDictionary
280
     1
281
     1
  3
ACAD_XREC_ROUNDTRIP
360
34A
  0
DICTIONARY
  5
34D
330
2E1
100
AcDbDictionary
280
     1
281
     1
  3
ACAD_XREC_ROUNDTRIP
360
34E
  0
DICTIONARY
  5
367
330
2EE
100
AcDbDictionary
280
     1
281
     1
  3
ACAD_XREC_ROUNDTRIP
360
368
  0
DICTIONARY
  5
357
330
2E6
100
AcDbDictionary
280
     1
281
     1
  3
ACAD_XREC_ROUNDTRIP
360
358
  0
DICTIONARY
  5
369
330
2EF
100
AcDbDictionary
280
     1
281
     1
  3
ACAD_XREC_ROUNDTRIP
360
36A
  0
DICTIONARY
  5
339
330
4B
100
AcDbDictionary
280
     1
281
     1
  3
ACAD_XREC_ROUNDTRIP
360
33A
  0
DICTIONARY
  5
365
330
2ED
100
AcDbDictionary
280
     1
281
     1
  3
ACAD_XREC_ROUNDTRIP
360
366
  0
DICTIONARY
  5
363
330
2EC
100
AcDbDictionary
280
     1
281
     1
  3
ACAD_XREC_ROUNDTRIP
360
364
  0
DICTIONARY
  5
35D
330
2E9
100
AcDbDictionary
280
     1
281
     1
  3
ACAD_XREC_ROUNDTRIP
360
35E
  0
DICTIONARY
  5
35F
330
2EA
100
AcDbDictionary
280
     1
281
     1
  3
ACAD_XREC_ROUNDTRIP
360
360
  0
DICTIONARY
  5
355
330
2E5
100
AcDbDictionary
280
     1
281
     1
  3
ACAD_XREC_ROUNDTRIP
360
356
  0
DICTIONARY
  5
33B
330
4C
100
AcDbDictionary
280
     1
281
     1
  3
ACAD_XREC_ROUNDTRIP
360
33C
  0
DICTIONARY
  5
361
330
2EB
100
AcDbDictionary
280
     1
281
     1
  3
ACAD_XREC_ROUNDTRIP
360
362
  0
XRECORD
  5
332
102
{ACAD_REACTORS
330
331
102
}
330
331
100
AcDbXrecord
280
     1
102
SHADEPLOT
 70
     0
102
SHADEPLOTRESLEVEL
 70
     2
102
SHADEPLOTCUSTOMDPI
 70
   300
  0
XRECORD
  5
330
102
{ACAD_REACTORS
330
32F
102
}
330
32F
100
AcDbXrecord
280
     1
102
SHADEPLOT
 70
     0
102
SHADEPLOTRESLEVEL
 70
     2
102
SHADEPLOTCUSTOMDPI
 70
   300
  0
XRECORD
  5
337
102
{ACAD_REACTORS
330
3D
102
}
330
3D
100
AcDbXrecord
280
     1
102
MATERIAL
148
0.0
149
0.0
149
0.0
 93
        0
 94
      127
282
     0
 72
     0
 77
     0
171
     0
175
     0
179
     0
273
     0
  0
XRECORD
  5
3E
102
{ACAD_REACTORS
330
3D
102
}
330
3D
100
AcDbXrecord
280
     1
270
     1
271
     1
  0
XRECORD
  5
3F
102
{ACAD_REACTORS
330
3D
102
}
330
3D
100
AcDbXrecord
280
     1
270
     1
271
     1
  0
XRECORD
  5
40
102
{ACAD_REACTORS
330
3D
102
}
330
3D
100
AcDbXrecord
280
     1
270
     1
271
     1
  0
XRECORD
  5
41
102
{ACAD_REACTORS
330
3D
102
}
330
3D
100
AcDbXrecord
280
     1
270
     1
271
     1
  0
XRECORD
  5
42
102
{ACAD_REACTORS
330
3D
102
}
330
3D
100
AcDbXrecord
280
     1
270
     1
271
     1
  0
XRECORD
  5
43
102
{ACAD_REACTORS
330
3D
102
}
330
3D
100
AcDbXrecord
280
     1
270
     1
271
     1
  0
XRECORD
  5
336
102
{ACAD_REACTORS
330
35
102
}
330
35
100
AcDbXrecord
280
     1
102
MATERIAL
148
0.0
149
0.0
149
0.0
 93
        0
 94
      127
282
     0
 72
     0
 77
     0
171
     0
175
     0
179
     0
273
     0
  0
XRECORD
  5
36
102
{ACAD_REACTORS
330
35
102
}
330
35
100
AcDbXrecord
280
     1
270
     1
271
     1
  0
XRECORD
  5
37
102
{ACAD_REACTORS
330
35
102
}
330
35
100
AcDbXrecord
280
     1
270
     1
271
     1
  0
XRECORD
  5
38
102
{ACAD_REACTORS
330
35
102
}
330
35
100
AcDbXrecord
280
     1
270
     1
271
     1
  0
XRECORD
  5
39
102
{ACAD_REACTORS
330
35
102
}
330
35
100
AcDbXrecord
280
     1
270
     1
271
     1
  0
XRECORD
  5
3A
102
{ACAD_REACTORS
330
35
102
}
330
35
100
AcDbXrecord
280
     1
270
     1
271
     1
  0
XRECORD
  5
3B
102
{ACAD_REACTORS
330
35
102
}
330
35
100
AcDbXrecord
280
     1
270
     1
271
     1
  0
XRECORD
  5
333
102
{ACAD_REACTORS
330
14
102
}
330
14
100
AcDbXrecord
280
     1
102
MATERIAL
148
0.0
149
0.0
149
0.0
 93
        0
 94
      127
282
     0
 72
     0
 77
     0
171
     0
175
     0
179
     0
273
     0
  0
XRECORD
  5
15
102
{ACAD_REACTORS
330
14
102
}
330
14
100
AcDbXrecord
280
     1
270
     1
271
     1
  0
XRECORD
  5
16
102
{ACAD_REACTORS
330
14
102
}
330
14
100
AcDbXrecord
280
     1
270
     1
271
     1
  0
XRECORD
  5
17
102
{ACAD_REACTORS
330
14
102
}
330
14
100
AcDbXrecord
280
     1
270
     1
271
     1
  0
XRECORD
  5
18
102
{ACAD_REACTORS
330
14
102
}
330
14
100
AcDbXrecord
280
     1
270
     1
271
     1
  0
XRECORD
  5
19
102
{ACAD_REACTORS
330
14
102
}
330
14
100
AcDbXrecord
280
     1
270
     1
271
     1
  0
XRECORD
  5
1A
102
{ACAD_REACTORS
330
14
102
}
330
14
100
AcDbXrecord
280
     1
270
     1
271
     1
  0
CELLSTYLEMAP
  5
328
102
{ACAD_REACTORS
330
4A
102
}
330
4A
100
AcDbCellStyleMap
 90
        3
300
CELLSTYLE
  1
TABLEFORMAT_BEGIN
 90
        5
170
     1
 91
        0
 92
    32768
 62
   257
 93
        1
300
CONTENTFORMAT
  1
CONTENTFORMAT_BEGIN
 90
        0
 91
        0
 92
      512
 93
        0
300

 40
0.0
140
1.0
 94
        5
 62
     0
340
21
144
0.25
309
CONTENTFORMAT_END
171
     0
 94
        0
309
TABLEFORMAT_END
  1
CELLSTYLE_BEGIN
 90
        1
 91
        1
300
_TITLE
309
CELLSTYLE_END
300
CELLSTYLE
  1
TABLEFORMAT_BEGIN
 90
        5
170
     1
 91
        0
 92
        0
 62
   257
 93
        1
300
CONTENTFORMAT
  1
CONTENTFORMAT_BEGIN
 90
        0
 91
        0
 92
      512
 93
        0
300

 40
0.0
140
1.0
 94
        5
 62
     0
340
21
144
0.18
309
CONTENTFORMAT_END
171
     0
 94
        0
309
TABLEFORMAT_END
  1
CELLSTYLE_BEGIN
 90
        2
 91
        1
300
_HEADER
309
CELLSTYLE_END
300
CELLSTYLE
  1
TABLEFORMAT_BEGIN
 90
        5
170
     1
 91
        0
 92
        0
 62
   257
 93
        1
300
CONTENTFORMAT
  1
CONTENTFORMAT_BEGIN
 90
        0
 91
        0
 92
      512
 93
        0
300

 40
0.0
140
1.0
 94
        2
 62
     0
340
21
144
0.18
309
CONTENTFORMAT_END
171
     0
 94
        0
309
TABLEFORMAT_END
  1
CELLSTYLE_BEGIN
 90
        3
 91
        2
300
_DATA
309
CELLSTYLE_END
  0
XRECORD
  5
338
102
{ACAD_REACTORS
330
4A
102
}
330
4A
100
AcDbXrecord
280
     1
102
ACAD_ROUNDTRIP_PRE2007_TABLESTYLE
 90
      512
 91
        0
  1

 92
      512
 93
        0
  2

 94
      512
 95
        0
  3

  0
XRECORD
  5
335
102
{ACAD_REACTORS
330
334
102
}
330
334
100
AcDbXrecord
280
     1
102
RTVSPropertyOp0
 70
     1
102
RTVSPropertyOp1
 70
     1
102
RTVSPropertyOp2
 70
     1
102
RTVSPropertyOp3
 70
     1
102
RTVSPropertyOp4
 70
     1
102
RTVSPropertyOp5
 70
     1
102
RTVSPropertyOp6
 70
     1
102
RTVSPropertyOp7
 70
     1
102
RTVSPropertyOp8
 70
     1
102
RTVSPropertyOp9
 70
     1
102
RTVSPropertyOp10
 70
     1
102
RTVSPropertyOp11
 70
     1
102
RTVSPropertyOp12
 70
     1
102
RTVSPropertyOp13
 70
     1
102
RTVSPropertyOp14
 70
     1
102
RTVSPropertyOp15
 70
     1
102
RTVSPropertyOp16
 70
     1
102
RTVSPropertyOp17
 70
     1
102
RTVSPropertyOp18
 70
     1
102
RTVSPropertyOp19
 70
     1
102
RTVSPropertyOp20
 70
     1
102
RTVSPropertyOp21
 70
     1
102
RTVSPropertyOp22
 70
     1
102
RTVSPropertyOp23
 70
     1
102
RTVSPropertyOp24
 70
     1
102
RTVSPropertyOp25
 70
     1
102
RTVSPropertyOp26
 70
     1
102
RTVSPropertyOp27
 70
     1
102
RTVSPropertyOp28
 70
     1
102
RTVSPropertyOp29
 70
     1
102
RTVSPropertyOp30
 70
     1
102
RTVSPropertyOp31
 70
     1
102
RTVSPropertyOp32
 70
     1
  0
XRECORD
  5
34C
102
{ACAD_REACTORS
330
34B
102
}
330
34B
100
AcDbXrecord
280
     1
102
RTVSPropertyOp0
 70
     1
102
RTVSPropertyOp1
 70
     1
102
RTVSPropertyOp2
 70
     1
102
RTVSPropertyOp3
 70
     1
102
RTVSPropertyOp4
 70
     1
102
RTVSPropertyOp5
 70
     1
102
RTVSPropertyOp6
 70
     1
102
RTVSPropertyOp7
 70
     1
102
RTVSPropertyOp8
 70
     1
102
RTVSPropertyOp9
 70
     1
102
RTVSPropertyOp10
 70
     1
102
RTVSPropertyOp11
 70
     1
102
RTVSPropertyOp12
 70
     1
102
RTVSPropertyOp13
 70
     1
102
RTVSPropertyOp14
 70
     1
102
RTVSPropertyOp15
 70
     1
102
RTVSPropertyOp16
 70
     1
102
RTVSPropertyOp17
 70
     1
102
RTVSPropertyOp18
 70
     1
102
RTVSPropertyOp19
 70
     1
102
RTVSPropertyOp20
 70
     1
102
RTVSPropertyOp21
 70
     1
102
RTVSPropertyOp22
 70
     1
102
RTVSPropertyOp23
 70
     1
102
RTVSPropertyOp24
 70
     1
102
RTVSPropertyOp25
 70
     1
102
RTVSPropertyOp26
 70
     1
102
RTVSPropertyOp27
 70
     1
102
RTVSPropertyOp28
 70
     1
102
RTVSPropertyOp29
 70
     1
102
RTVSPropertyOp30
 70
     1
102
RTVSPropertyOp31
 70
     1
102
RTVSPropertyOp32
 70
     1
  0
XRECORD
  5
354
102
{ACAD_REACTORS
330
353
102
}
330
353
100
AcDbXrecord
280
     1
102
RTVSPropertyOp0
 70
     1
102
RTVSPropertyOp1
 70
     1
102
RTVSPropertyOp2
 70
     1
102
RTVSPropertyOp3
 70
     1
102
RTVSPropertyOp4
 70
     1
102
RTVSPropertyOp5
 70
     1
102
RTVSPropertyOp6
 70
     1
102
RTVSPropertyOp7
 70
     1
102
RTVSPropertyOp8
 70
     1
102
RTVSPropertyOp9
 70
     1
102
RTVSPropertyOp10
 70
     1
102
RTVSPropertyOp11
 70
     1
102
RTVSPropertyOp12
 70
     1
102
RTVSPropertyOp13
 70
     1
102
RTVSPropertyOp14
 70
     1
102
RTVSPropertyOp15
 70
     1
102
RTVSPropertyOp16
 70
     1
102
RTVSPropertyOp17
 70
     1
102
RTVSPropertyOp18
 70
     1
102
RTVSPropertyOp19
 70
     1
102
RTVSPropertyOp20
 70
     1
102
RTVSPropertyOp21
 70
     1
102
RTVSPropertyOp22
 70
     1
102
RTVSPropertyOp23
 70
     1
102
RTVSPropertyOp24
 70
     1
102
RTVSPropertyOp25
 70
     1
102
RTVSPropertyOp26
 70
     1
102
RTVSPropertyOp27
 70
     1
102
RTVSPropertyOp28
 70
     1
102
RTVSPropertyOp29
 70
     1
102
RTVSPropertyOp30
 70
     1
102
RTVSPropertyOp31
 70
     1
102
RTVSPropertyOp32
 70
     1
  0
XRECORD
  5
35C
102
{ACAD_REACTORS
330
35B
102
}
330
35B
100
AcDbXrecord
280
     1
102
RTVSPropertyOp0
 70
     1
102
RTVSPropertyOp1
 70
     1
102
RTVSPropertyOp2
 70
     1
102
RTVSPropertyOp3
 70
     1
102
RTVSPropertyOp4
 70
     1
102
RTVSPropertyOp5
 70
     1
102
RTVSPropertyOp6
 70
     1
102
RTVSPropertyOp7
 70
     1
102
RTVSPropertyOp8
 70
     1
102
RTVSPropertyOp9
 70
     1
102
RTVSPropertyOp10
 70
     1
102
RTVSPropertyOp11
 70
     1
102
RTVSPropertyOp12
 70
     1
102
RTVSPropertyOp13
 70
     1
102
RTVSPropertyOp14
 70
     1
102
RTVSPropertyOp15
 70
     1
102
RTVSPropertyOp16
 70
     1
102
RTVSPropertyOp17
 70
     1
102
RTVSPropertyOp18
 70
     1
102
RTVSPropertyOp19
 70
     1
102
RTVSPropertyOp20
 70
     1
102
RTVSPropertyOp21
 70
     1
102
RTVSPropertyOp22
 70
     1
102
RTVSPropertyOp23
 70
     1
102
RTVSPropertyOp24
 70
     1
102
RTVSPropertyOp25
 70
     1
102
RTVSPropertyOp26
 70
     1
102
RTVSPropertyOp27
 70
     1
102
RTVSPropertyOp28
 70
     1
102
RTVSPropertyOp29
 70
     1
102
RTVSPropertyOp30
 70
     1
102
RTVSPropertyOp31
 70
     1
102
RTVSPropertyOp32
 70
     1
  0
XRECORD
  5
350
102
{ACAD_REACTORS
330
34F
102
}
330
34F
100
AcDbXrecord
280
     1
102
RTVSPropertyOp0
 70
     1
102
RTVSPropertyOp1
 70
     1
102
RTVSPropertyOp2
 70
     1
102
RTVSPropertyOp3
 70
     1
102
RTVSPropertyOp4
 70
     1
102
RTVSPropertyOp5
 70
     1
102
RTVSPropertyOp6
 70
     1
102
RTVSPropertyOp7
 70
     1
102
RTVSPropertyOp8
 70
     1
102
RTVSPropertyOp9
 70
     1
102
RTVSPropertyOp10
 70
     1
102
RTVSPropertyOp11
 70
     1
102
RTVSPropertyOp12
 70
     1
102
RTVSPropertyOp13
 70
     1
102
RTVSPropertyOp14
 70
     1
102
RTVSPropertyOp15
 70
     1
102
RTVSPropertyOp16
 70
     1
102
RTVSPropertyOp17
 70
     1
102
RTVSPropertyOp18
 70
     1
102
RTVSPropertyOp19
 70
     1
102
RTVSPropertyOp20
 70
     1
102
RTVSPropertyOp21
 70
     1
102
RTVSPropertyOp22
 70
     1
102
RTVSPropertyOp23
 70
     1
102
RTVSPropertyOp24
 70
     1
102
RTVSPropertyOp25
 70
     1
102
RTVSPropertyOp26
 70
     1
102
RTVSPropertyOp27
 70
     1
102
RTVSPropertyOp28
 70
     1
102
RTVSPropertyOp29
 70
     1
102
RTVSPropertyOp30
 70
     1
102
RTVSPropertyOp31
 70
     1
102
RTVSPropertyOp32
 70
     1
  0
XRECORD
  5
352
102
{ACAD_REACTORS
330
351
102
}
330
351
100
AcDbXrecord
280
     1
102
RTVSPropertyOp0
 70
     1
102
RTVSPropertyOp1
 70
     1
102
RTVSPropertyOp2
 70
     1
102
RTVSPropertyOp3
 70
     1
102
RTVSPropertyOp4
 70
     1
102
RTVSPropertyOp5
 70
     1
102
RTVSPropertyOp6
 70
     1
102
RTVSPropertyOp7
 70
     1
102
RTVSPropertyOp8
 70
     1
102
RTVSPropertyOp9
 70
     1
102
RTVSPropertyOp10
 70
     1
102
RTVSPropertyOp11
 70
     1
102
RTVSPropertyOp12
 70
     1
102
RTVSPropertyOp13
 70
     1
102
RTVSPropertyOp14
 70
     1
102
RTVSPropertyOp15
 70
     1
102
RTVSPropertyOp16
 70
     1
102
RTVSPropertyOp17
 70
     1
102
RTVSPropertyOp18
 70
     1
102
RTVSPropertyOp19
 70
     1
102
RTVSPropertyOp20
 70
     1
102
RTVSPropertyOp21
 70
     1
102
RTVSPropertyOp22
 70
     1
102
RTVSPropertyOp23
 70
     1
102
RTVSPropertyOp24
 70
     1
102
RTVSPropertyOp25
 70
     1
102
RTVSPropertyOp26
 70
     1
102
RTVSPropertyOp27
 70
     1
102
RTVSPropertyOp28
 70
     1
102
RTVSPropertyOp29
 70
     1
102
RTVSPropertyOp30
 70
     1
102
RTVSPropertyOp31
 70
     1
102
RTVSPropertyOp32
 70
     1
  0
XRECORD
  5
36C
102
{ACAD_REACTORS
330
36B
102
}
330
36B
100
AcDbXrecord
280
     1
102
RTVSPropertyOp0
 70
     0
102
RTVSPropertyOp1
 70
     0
102
RTVSPropertyOp2
 70
     0
102
RTVSPropertyOp3
 70
     0
102
RTVSPropertyOp4
 70
     0
102
RTVSPropertyOp5
 70
     0
102
RTVSPropertyOp6
 70
     0
102
RTVSPropertyOp7
 70
     0
102
RTVSPropertyOp8
 70
     0
102
RTVSPropertyOp9
 70
     0
102
RTVSPropertyOp10
 70
     0
102
RTVSPropertyOp11
 70
     0
102
RTVSPropertyOp12
 70
     0
102
RTVSPropertyOp13
 70
     0
102
RTVSPropertyOp14
 70
     2
102
RTVSPropertyOp15
 70
     0
102
RTVSPropertyOp16
 70
     0
102
RTVSPropertyOp17
 70
     0
102
RTVSPropertyOp18
 70
     0
102
RTVSPropertyOp19
 70
     0
102
RTVSPropertyOp20
 70
     0
102
RTVSPropertyOp21
 70
     0
102
RTVSPropertyOp22
 70
     0
102
RTVSPropertyOp23
 70
     0
102
RTVSPropertyOp24
 70
     0
102
RTVSPropertyOp25
 70
     0
102
RTVSPropertyOp26
 70
     0
102
RTVSPropertyOp27
 70
     0
102
RTVSPropertyOp28
 70
     0
102
RTVSPropertyOp29
 70
     0
102
RTVSPropertyOp30
 70
     0
102
RTVSPropertyOp31
 70
     0
102
RTVSPropertyOp32
 70
     0
  0
XRECORD
  5
35A
102
{ACAD_REACTORS
330
359
102
}
330
359
100
AcDbXrecord
280
     1
102
RTVSPropertyOp0
 70
     1
102
RTVSPropertyOp1
 70
     1
102
RTVSPropertyOp2
 70
     1
102
RTVSPropertyOp3
 70
     1
102
RTVSPropertyOp4
 70
     1
102
RTVSPropertyOp5
 70
     1
102
RTVSPropertyOp6
 70
     1
102
RTVSPropertyOp7
 70
     1
102
RTVSPropertyOp8
 70
     1
102
RTVSPropertyOp9
 70
     1
102
RTVSPropertyOp10
 70
     1
102
RTVSPropertyOp11
 70
     1
102
RTVSPropertyOp12
 70
     1
102
RTVSPropertyOp13
 70
     1
102
RTVSPropertyOp14
 70
     1
102
RTVSPropertyOp15
 70
     1
102
RTVSPropertyOp16
 70
     1
102
RTVSPropertyOp17
 70
     1
102
RTVSPropertyOp18
 70
     1
102
RTVSPropertyOp19
 70
     1
102
RTVSPropertyOp20
 70
     1
102
RTVSPropertyOp21
 70
     1
102
RTVSPropertyOp22
 70
     1
102
RTVSPropertyOp23
 70
     1
102
RTVSPropertyOp24
 70
     1
102
RTVSPropertyOp25
 70
     1
102
RTVSPropertyOp26
 70
     1
102
RTVSPropertyOp27
 70
     1
102
RTVSPropertyOp28
 70
     1
102
RTVSPropertyOp29
 70
     1
102
RTVSPropertyOp30
 70
     1
102
RTVSPropertyOp31
 70
     1
102
RTVSPropertyOp32
 70
     1
  0
XRECORD
  5
344
102
{ACAD_REACTORS
330
343
102
}
330
343
100
AcDbXrecord
280
     1
102
RTVSPropertyOp0
 70
     1
102
RTVSPropertyOp1
 70
     1
102
RTVSPropertyOp2
 70
     1
102
RTVSPropertyOp3
 70
     1
102
RTVSPropertyOp4
 70
     1
102
RTVSPropertyOp5
 70
     1
102
RTVSPropertyOp6
 70
     1
102
RTVSPropertyOp7
 70
     1
102
RTVSPropertyOp8
 70
     1
102
RTVSPropertyOp9
 70
     1
102
RTVSPropertyOp10
 70
     1
102
RTVSPropertyOp11
 70
     1
102
RTVSPropertyOp12
 70
     1
102
RTVSPropertyOp13
 70
     1
102
RTVSPropertyOp14
 70
     1
102
RTVSPropertyOp15
 70
     1
102
RTVSPropertyOp16
 70
     1
102
RTVSPropertyOp17
 70
     1
102
RTVSPropertyOp18
 70
     1
102
RTVSPropertyOp19
 70
     1
102
RTVSPropertyOp20
 70
     1
102
RTVSPropertyOp21
 70
     1
102
RTVSPropertyOp22
 70
     1
102
RTVSPropertyOp23
 70
     1
102
RTVSPropertyOp24
 70
     1
102
RTVSPropertyOp25
 70
     1
102
RTVSPropertyOp26
 70
     1
102
RTVSPropertyOp27
 70
     1
102
RTVSPropertyOp28
 70
     1
102
RTVSPropertyOp29
 70
     1
102
RTVSPropertyOp30
 70
     1
102
RTVSPropertyOp31
 70
     1
102
RTVSPropertyOp32
 70
     1
  0
XRECORD
  5
346
102
{ACAD_REACTORS
330
345
102
}
330
345
100
AcDbXrecord
280
     1
102
RTVSPropertyOp0
 70
     1
102
RTVSPropertyOp1
 70
     1
102
RTVSPropertyOp2
 70
     1
102
RTVSPropertyOp3
 70
     1
102
RTVSPropertyOp4
 70
     1
102
RTVSPropertyOp5
 70
     1
102
RTVSPropertyOp6
 70
     1
102
RTVSPropertyOp7
 70
     1
102
RTVSPropertyOp8
 70
     1
102
RTVSPropertyOp9
 70
     1
102
RTVSPropertyOp10
 70
     1
102
RTVSPropertyOp11
 70
     1
102
RTVSPropertyOp12
 70
     1
102
RTVSPropertyOp13
 70
     1
102
RTVSPropertyOp14
 70
     1
102
RTVSPropertyOp15
 70
     1
102
RTVSPropertyOp16
 70
     1
102
RTVSPropertyOp17
 70
     1
102
RTVSPropertyOp18
 70
     1
102
RTVSPropertyOp19
 70
     1
102
RTVSPropertyOp20
 70
     1
102
RTVSPropertyOp21
 70
     1
102
RTVSPropertyOp22
 70
     1
102
RTVSPropertyOp23
 70
     1
102
RTVSPropertyOp24
 70
     1
102
RTVSPropertyOp25
 70
     1
102
RTVSPropertyOp26
 70
     1
102
RTVSPropertyOp27
 70
     1
102
RTVSPropertyOp28
 70
     1
102
RTVSPropertyOp29
 70
     1
102
RTVSPropertyOp30
 70
     1
102
RTVSPropertyOp31
 70
     1
102
RTVSPropertyOp32
 70
     1
  0
XRECORD
  5
348
102
{ACAD_REACTORS
330
347
102
}
330
347
100
AcDbXrecord
280
     1
102
RTVSPropertyOp0
 70
     1
102
RTVSPropertyOp1
 70
     1
102
RTVSPropertyOp2
 70
     1
102
RTVSPropertyOp3
 70
     1
102
RTVSPropertyOp4
 70
     1
102
RTVSPropertyOp5
 70
     1
102
RTVSPropertyOp6
 70
     1
102
RTVSPropertyOp7
 70
     1
102
RTVSPropertyOp8
 70
     1
102
RTVSPropertyOp9
 70
     1
102
RTVSPropertyOp10
 70
     1
102
RTVSPropertyOp11
 70
     1
102
RTVSPropertyOp12
 70
     1
102
RTVSPropertyOp13
 70
     1
102
RTVSPropertyOp14
 70
     1
102
RTVSPropertyOp15
 70
     1
102
RTVSPropertyOp16
 70
     1
102
RTVSPropertyOp17
 70
     1
102
RTVSPropertyOp18
 70
     1
102
RTVSPropertyOp19
 70
     1
102
RTVSPropertyOp20
 70
     1
102
RTVSPropertyOp21
 70
     1
102
RTVSPropertyOp22
 70
     1
102
RTVSPropertyOp23
 70
     1
102
RTVSPropertyOp24
 70
     1
102
RTVSPropertyOp25
 70
     1
102
RTVSPropertyOp26
 70
     1
102
RTVSPropertyOp27
 70
     1
102
RTVSPropertyOp28
 70
     1
102
RTVSPropertyOp29
 70
     1
102
RTVSPropertyOp30
 70
     1
102
RTVSPropertyOp31
 70
     1
102
RTVSPropertyOp32
 70
     1
  0
XRECORD
  5
34A
102
{ACAD_REACTORS
330
349
102
}
330
349
100
AcDbXrecord
280
     1
102
RTVSPropertyOp0
 70
     1
102
RTVSPropertyOp1
 70
     1
102
RTVSPropertyOp2
 70
     1
102
RTVSPropertyOp3
 70
     1
102
RTVSPropertyOp4
 70
     1
102
RTVSPropertyOp5
 70
     1
102
RTVSPropertyOp6
 70
     1
102
RTVSPropertyOp7
 70
     1
102
RTVSPropertyOp8
 70
     1
102
RTVSPropertyOp9
 70
     1
102
RTVSPropertyOp10
 70
     1
102
RTVSPropertyOp11
 70
     1
102
RTVSPropertyOp12
 70
     1
102
RTVSPropertyOp13
 70
     1
102
RTVSPropertyOp14
 70
     1
102
RTVSPropertyOp15
 70
     1
102
RTVSPropertyOp16
 70
     1
102
RTVSPropertyOp17
 70
     1
102
RTVSPropertyOp18
 70
     1
102
RTVSPropertyOp19
 70
     1
102
RTVSPropertyOp20
 70
     1
102
RTVSPropertyOp21
 70
     1
102
RTVSPropertyOp22
 70
     1
102
RTVSPropertyOp23
 70
     1
102
RTVSPropertyOp24
 70
     1
102
RTVSPropertyOp25
 70
     1
102
RTVSPropertyOp26
 70
     1
102
RTVSPropertyOp27
 70
     1
102
RTVSPropertyOp28
 70
     1
102
RTVSPropertyOp29
 70
     1
102
RTVSPropertyOp30
 70
     1
102
RTVSPropertyOp31
 70
     1
102
RTVSPropertyOp32
 70
     1
  0
XRECORD
  5
34E
102
{ACAD_REACTORS
330
34D
102
}
330
34D
100
AcDbXrecord
280
     1
102
RTVSPropertyOp0
 70
     1
102
RTVSPropertyOp1
 70
     1
102
RTVSPropertyOp2
 70
     1
102
RTVSPropertyOp3
 70
     1
102
RTVSPropertyOp4
 70
     1
102
RTVSPropertyOp5
 70
     1
102
RTVSPropertyOp6
 70
     1
102
RTVSPropertyOp7
 70
     1
102
RTVSPropertyOp8
 70
     1
102
RTVSPropertyOp9
 70
     1
102
RTVSPropertyOp10
 70
     1
102
RTVSPropertyOp11
 70
     1
102
RTVSPropertyOp12
 70
     1
102
RTVSPropertyOp13
 70
     1
102
RTVSPropertyOp14
 70
     1
102
RTVSPropertyOp15
 70
     1
102
RTVSPropertyOp16
 70
     1
102
RTVSPropertyOp17
 70
     1
102
RTVSPropertyOp18
 70
     1
102
RTVSPropertyOp19
 70
     1
102
RTVSPropertyOp20
 70
     1
102
RTVSPropertyOp21
 70
     1
102
RTVSPropertyOp22
 70
     1
102
RTVSPropertyOp23
 70
     1
102
RTVSPropertyOp24
 70
     1
102
RTVSPropertyOp25
 70
     1
102
RTVSPropertyOp26
 70
     1
102
RTVSPropertyOp27
 70
     1
102
RTVSPropertyOp28
 70
     1
102
RTVSPropertyOp29
 70
     1
102
RTVSPropertyOp30
 70
     1
102
RTVSPropertyOp31
 70
     1
102
RTVSPropertyOp32
 70
     1
  0
XRECORD
  5
368
102
{ACAD_REACTORS
330
367
102
}
330
367
100
AcDbXrecord
280
     1
102
RTVSPropertyOp0
 70
     0
102
RTVSPropertyOp1
 70
     0
102
RTVSPropertyOp2
 70
     0
102
RTVSPropertyOp3
 70
     0
102
RTVSPropertyOp4
 70
     0
102
RTVSPropertyOp5
 70
     0
102
RTVSPropertyOp6
 70
     0
102
RTVSPropertyOp7
 70
     0
102
RTVSPropertyOp8
 70
     0
102
RTVSPropertyOp9
 70
     0
102
RTVSPropertyOp10
 70
     0
102
RTVSPropertyOp11
 70
     0
102
RTVSPropertyOp12
 70
     0
102
RTVSPropertyOp13
 70
     0
102
RTVSPropertyOp14
 70
     2
102
RTVSPropertyOp15
 70
     0
102
RTVSPropertyOp16
 70
     0
102
RTVSPropertyOp17
 70
     0
102
RTVSPropertyOp18
 70
     0
102
RTVSPropertyOp19
 70
     0
102
RTVSPropertyOp20
 70
     0
102
RTVSPropertyOp21
 70
     0
102
RTVSPropertyOp22
 70
     0
102
RTVSPropertyOp23
 70
     0
102
RTVSPropertyOp24
 70
     0
102
RTVSPropertyOp25
 70
     0
102
RTVSPropertyOp26
 70
     0
102
RTVSPropertyOp27
 70
     0
102
RTVSPropertyOp28
 70
     0
102
RTVSPropertyOp29
 70
     0
102
RTVSPropertyOp30
 70
     0
102
RTVSPropertyOp31
 70
     0
102
RTVSPropertyOp32
 70
     0
  0
XRECORD
  5
358
102
{ACAD_REACTORS
330
357
102
}
330
357
100
AcDbXrecord
280
     1
102
RTVSPropertyOp0
 70
     1
102
RTVSPropertyOp1
 70
     1
102
RTVSPropertyOp2
 70
     1
102
RTVSPropertyOp3
 70
     1
102
RTVSPropertyOp4
 70
     1
102
RTVSPropertyOp5
 70
     1
102
RTVSPropertyOp6
 70
     1
102
RTVSPropertyOp7
 70
     1
102
RTVSPropertyOp8
 70
     1
102
RTVSPropertyOp9
 70
     1
102
RTVSPropertyOp10
 70
     1
102
RTVSPropertyOp11
 70
     1
102
RTVSPropertyOp12
 70
     1
102
RTVSPropertyOp13
 70
     1
102
RTVSPropertyOp14
 70
     1
102
RTVSPropertyOp15
 70
     1
102
RTVSPropertyOp16
 70
     1
102
RTVSPropertyOp17
 70
     1
102
RTVSPropertyOp18
 70
     1
102
RTVSPropertyOp19
 70
     1
102
RTVSPropertyOp20
 70
     1
102
RTVSPropertyOp21
 70
     1
102
RTVSPropertyOp22
 70
     1
102
RTVSPropertyOp23
 70
     1
102
RTVSPropertyOp24
 70
     1
102
RTVSPropertyOp25
 70
     1
102
RTVSPropertyOp26
 70
     1
102
RTVSPropertyOp27
 70
     1
102
RTVSPropertyOp28
 70
     1
102
RTVSPropertyOp29
 70
     1
102
RTVSPropertyOp30
 70
     1
102
RTVSPropertyOp31
 70
     1
102
RTVSPropertyOp32
 70
     1
  0
XRECORD
  5
36A
102
{ACAD_REACTORS
330
369
102
}
330
369
100
AcDbXrecord
280
     1
102
RTVSPropertyOp0
 70
     0
102
RTVSPropertyOp1
 70
     0
102
RTVSPropertyOp2
 70
     0
102
RTVSPropertyOp3
 70
     0
102
RTVSPropertyOp4
 70
     0
102
RTVSPropertyOp5
 70
     0
102
RTVSPropertyOp6
 70
     0
102
RTVSPropertyOp7
 70
     0
102
RTVSPropertyOp8
 70
     0
102
RTVSPropertyOp9
 70
     0
102
RTVSPropertyOp10
 70
     0
102
RTVSPropertyOp11
 70
     0
102
RTVSPropertyOp12
 70
     0
102
RTVSPropertyOp13
 70
     0
102
RTVSPropertyOp14
 70
     2
102
RTVSPropertyOp15
 70
     0
102
RTVSPropertyOp16
 70
     0
102
RTVSPropertyOp17
 70
     0
102
RTVSPropertyOp18
 70
     0
102
RTVSPropertyOp19
 70
     0
102
RTVSPropertyOp20
 70
     0
102
RTVSPropertyOp21
 70
     0
102
RTVSPropertyOp22
 70
     0
102
RTVSPropertyOp23
 70
     0
102
RTVSPropertyOp24
 70
     0
102
RTVSPropertyOp25
 70
     0
102
RTVSPropertyOp26
 70
     0
102
RTVSPropertyOp27
 70
     0
102
RTVSPropertyOp28
 70
     0
102
RTVSPropertyOp29
 70
     0
102
RTVSPropertyOp30
 70
     0
102
RTVSPropertyOp31
 70
     0
102
RTVSPropertyOp32
 70
     0
  0
XRECORD
  5
33A
102
{ACAD_REACTORS
330
339
102
}
330
339
100
AcDbXrecord
280
     1
102
RTVSPropertyOp0
 70
     1
102
RTVSPropertyOp1
 70
     1
102
RTVSPropertyOp2
 70
     1
102
RTVSPropertyOp3
 70
     1
102
RTVSPropertyOp4
 70
     1
102
RTVSPropertyOp5
 70
     1
102
RTVSPropertyOp6
 70
     1
102
RTVSPropertyOp7
 70
     1
102
RTVSPropertyOp8
 70
     1
102
RTVSPropertyOp9
 70
     1
102
RTVSPropertyOp10
 70
     1
102
RTVSPropertyOp11
 70
     1
102
RTVSPropertyOp12
 70
     1
102
RTVSPropertyOp13
 70
     1
102
RTVSPropertyOp14
 70
     1
102
RTVSPropertyOp15
 70
     1
102
RTVSPropertyOp16
 70
     1
102
RTVSPropertyOp17
 70
     1
102
RTVSPropertyOp18
 70
     1
102
RTVSPropertyOp19
 70
     1
102
RTVSPropertyOp20
 70
     1
102
RTVSPropertyOp21
 70
     1
102
RTVSPropertyOp22
 70
     1
102
RTVSPropertyOp23
 70
     1
102
RTVSPropertyOp24
 70
     1
102
RTVSPropertyOp25
 70
     1
102
RTVSPropertyOp26
 70
     1
102
RTVSPropertyOp27
 70
     1
102
RTVSPropertyOp28
 70
     1
102
RTVSPropertyOp29
 70
     1
102
RTVSPropertyOp30
 70
     1
102
RTVSPropertyOp31
 70
     1
102
RTVSPropertyOp32
 70
     1
  0
XRECORD
  5
366
102
{ACAD_REACTORS
330
365
102
}
330
365
100
AcDbXrecord
280
     1
102
RTVSPropertyOp0
 70
     1
102
RTVSPropertyOp1
 70
     1
102
RTVSPropertyOp2
 70
     1
102
RTVSPropertyOp3
 70
     1
102
RTVSPropertyOp4
 70
     1
102
RTVSPropertyOp5
 70
     1
102
RTVSPropertyOp6
 70
     1
102
RTVSPropertyOp7
 70
     1
102
RTVSPropertyOp8
 70
     1
102
RTVSPropertyOp9
 70
     1
102
RTVSPropertyOp10
 70
     1
102
RTVSPropertyOp11
 70
     1
102
RTVSPropertyOp12
 70
     1
102
RTVSPropertyOp13
 70
     1
102
RTVSPropertyOp14
 70
     1
102
RTVSPropertyOp15
 70
     1
102
RTVSPropertyOp16
 70
     1
102
RTVSPropertyOp17
 70
     1
102
RTVSPropertyOp18
 70
     1
102
RTVSPropertyOp19
 70
     1
102
RTVSPropertyOp20
 70
     1
102
RTVSPropertyOp21
 70
     1
102
RTVSPropertyOp22
 70
     1
102
RTVSPropertyOp23
 70
     1
102
RTVSPropertyOp24
 70
     1
102
RTVSPropertyOp25
 70
     1
102
RTVSPropertyOp26
 70
     1
102
RTVSPropertyOp27
 70
     1
102
RTVSPropertyOp28
 70
     1
102
RTVSPropertyOp29
 70
     1
102
RTVSPropertyOp30
 70
     1
102
RTVSPropertyOp31
 70
     1
102
RTVSPropertyOp32
 70
     1
  0
XRECORD
  5
364
102
{ACAD_REACTORS
330
363
102
}
330
363
100
AcDbXrecord
280
     1
102
RTVSPropertyOp0
 70
     1
102
RTVSPropertyOp1
 70
     1
102
RTVSPropertyOp2
 70
     1
102
RTVSPropertyOp3
 70
     1
102
RTVSPropertyOp4
 70
     1
102
RTVSPropertyOp5
 70
     1
102
RTVSPropertyOp6
 70
     1
102
RTVSPropertyOp7
 70
     1
102
RTVSPropertyOp8
 70
     1
102
RTVSPropertyOp9
 70
     1
102
RTVSPropertyOp10
 70
     1
102
RTVSPropertyOp11
 70
     1
102
RTVSPropertyOp12
 70
     1
102
RTVSPropertyOp13
 70
     1
102
RTVSPropertyOp14
 70
     1
102
RTVSPropertyOp15
 70
     1
102
RTVSPropertyOp16
 70
     1
102
RTVSPropertyOp17
 70
     1
102
RTVSPropertyOp18
 70
     1
102
RTVSPropertyOp19
 70
     1
102
RTVSPropertyOp20
 70
     1
102
RTVSPropertyOp21
 70
     1
102
RTVSPropertyOp22
 70
     1
102
RTVSPropertyOp23
 70
     1
102
RTVSPropertyOp24
 70
     1
102
RTVSPropertyOp25
 70
     1
102
RTVSPropertyOp26
 70
     1
102
RTVSPropertyOp27
 70
     1
102
RTVSPropertyOp28
 70
     1
102
RTVSPropertyOp29
 70
     1
102
RTVSPropertyOp30
 70
     1
102
RTVSPropertyOp31
 70
     1
102
RTVSPropertyOp32
 70
     1
  0
XRECORD
  5
35E
102
{ACAD_REACTORS
330
35D
102
}
330
35D
100
AcDbXrecord
280
     1
102
RTVSPropertyOp0
 70
     1
102
RTVSPropertyOp1
 70
     1
102
RTVSPropertyOp2
 70
     1
102
RTVSPropertyOp3
 70
     1
102
RTVSPropertyOp4
 70
     1
102
RTVSPropertyOp5
 70
     1
102
RTVSPropertyOp6
 70
     1
102
RTVSPropertyOp7
 70
     1
102
RTVSPropertyOp8
 70
     1
102
RTVSPropertyOp9
 70
     1
102
RTVSPropertyOp10
 70
     1
102
RTVSPropertyOp11
 70
     1
102
RTVSPropertyOp12
 70
     1
102
RTVSPropertyOp13
 70
     1
102
RTVSPropertyOp14
 70
     1
102
RTVSPropertyOp15
 70
     1
102
RTVSPropertyOp16
 70
     1
102
RTVSPropertyOp17
 70
     1
102
RTVSPropertyOp18
 70
     1
102
RTVSPropertyOp19
 70
     1
102
RTVSPropertyOp20
 70
     1
102
RTVSPropertyOp21
 70
     1
102
RTVSPropertyOp22
 70
     1
102
RTVSPropertyOp23
 70
     1
102
RTVSPropertyOp24
 70
     1
102
RTVSPropertyOp25
 70
     1
102
RTVSPropertyOp26
 70
     1
102
RTVSPropertyOp27
 70
     1
102
RTVSPropertyOp28
 70
     1
102
RTVSPropertyOp29
 70
     1
102
RTVSPropertyOp30
 70
     1
102
RTVSPropertyOp31
 70
     1
102
RTVSPropertyOp32
 70
     1
  0
XRECORD
  5
360
102
{ACAD_REACTORS
330
35F
102
}
330
35F
100
AcDbXrecord
280
     1
102
RTVSPropertyOp0
 70
     1
102
RTVSPropertyOp1
 70
     1
102
RTVSPropertyOp2
 70
     1
102
RTVSPropertyOp3
 70
     1
102
RTVSPropertyOp4
 70
     1
102
RTVSPropertyOp5
 70
     1
102
RTVSPropertyOp6
 70
     1
102
RTVSPropertyOp7
 70
     1
102
RTVSPropertyOp8
 70
     1
102
RTVSPropertyOp9
 70
     1
102
RTVSPropertyOp10
 70
     1
102
RTVSPropertyOp11
 70
     1
102
RTVSPropertyOp12
 70
     1
102
RTVSPropertyOp13
 70
     1
102
RTVSPropertyOp14
 70
     1
102
RTVSPropertyOp15
 70
     1
102
RTVSPropertyOp16
 70
     1
102
RTVSPropertyOp17
 70
     1
102
RTVSPropertyOp18
 70
     1
102
RTVSPropertyOp19
 70
     1
102
RTVSPropertyOp20
 70
     1
102
RTVSPropertyOp21
 70
     1
102
RTVSPropertyOp22
 70
     1
102
RTVSPropertyOp23
 70
     1
102
RTVSPropertyOp24
 70
     1
102
RTVSPropertyOp25
 70
     1
102
RTVSPropertyOp26
 70
     1
102
RTVSPropertyOp27
 70
     1
102
RTVSPropertyOp28
 70
     1
102
RTVSPropertyOp29
 70
     1
102
RTVSPropertyOp30
 70
     1
102
RTVSPropertyOp31
 70
     1
102
RTVSPropertyOp32
 70
     1
  0
XRECORD
  5
356
102
{ACAD_REACTORS
330
355
102
}
330
355
100
AcDbXrecord
280
     1
102
RTVSPropertyOp0
 70
     1
102
RTVSPropertyOp1
 70
     1
102
RTVSPropertyOp2
 70
     1
102
RTVSPropertyOp3
 70
     1
102
RTVSPropertyOp4
 70
     1
102
RTVSPropertyOp5
 70
     1
102
RTVSPropertyOp6
 70
     1
102
RTVSPropertyOp7
 70
     1
102
RTVSPropertyOp8
 70
     1
102
RTVSPropertyOp9
 70
     1
102
RTVSPropertyOp10
 70
     1
102
RTVSPropertyOp11
 70
     1
102
RTVSPropertyOp12
 70
     1
102
RTVSPropertyOp13
 70
     1
102
RTVSPropertyOp14
 70
     1
102
RTVSPropertyOp15
 70
     1
102
RTVSPropertyOp16
 70
     1
102
RTVSPropertyOp17
 70
     1
102
RTVSPropertyOp18
 70
     1
102
RTVSPropertyOp19
 70
     1
102
RTVSPropertyOp20
 70
     1
102
RTVSPropertyOp21
 70
     1
102
RTVSPropertyOp22
 70
     1
102
RTVSPropertyOp23
 70
     1
102
RTVSPropertyOp24
 70
     1
102
RTVSPropertyOp25
 70
     1
102
RTVSPropertyOp26
 70
     1
102
RTVSPropertyOp27
 70
     1
102
RTVSPropertyOp28
 70
     1
102
RTVSPropertyOp29
 70
     1
102
RTVSPropertyOp30
 70
     1
102
RTVSPropertyOp31
 70
     1
102
RTVSPropertyOp32
 70
     1
  0
XRECORD
  5
33C
102
{ACAD_REACTORS
330
33B
102
}
330
33B
100
AcDbXrecord
280
     1
102
RTVSPropertyOp0
 70
     1
102
RTVSPropertyOp1
 70
     1
102
RTVSPropertyOp2
 70
     1
102
RTVSPropertyOp3
 70
     1
102
RTVSPropertyOp4
 70
     1
102
RTVSPropertyOp5
 70
     1
102
RTVSPropertyOp6
 70
     1
102
RTVSPropertyOp7
 70
     1
102
RTVSPropertyOp8
 70
     1
102
RTVSPropertyOp9
 70
     1
102
RTVSPropertyOp10
 70
     1
102
RTVSPropertyOp11
 70
     1
102
RTVSPropertyOp12
 70
     1
102
RTVSPropertyOp13
 70
     1
102
RTVSPropertyOp14
 70
     1
102
RTVSPropertyOp15
 70
     1
102
RTVSPropertyOp16
 70
     1
102
RTVSPropertyOp17
 70
     1
102
RTVSPropertyOp18
 70
     1
102
RTVSPropertyOp19
 70
     1
102
RTVSPropertyOp20
 70
     1
102
RTVSPropertyOp21
 70
     1
102
RTVSPropertyOp22
 70
     1
102
RTVSPropertyOp23
 70
     1
102
RTVSPropertyOp24
 70
     1
102
RTVSPropertyOp25
 70
     1
102
RTVSPropertyOp26
 70
     1
102
RTVSPropertyOp27
 70
     1
102
RTVSPropertyOp28
 70
     1
102
RTVSPropertyOp29
 70
     1
102
RTVSPropertyOp30
 70
     1
102
RTVSPropertyOp31
 70
     1
102
RTVSPropertyOp32
 70
     1
  0
XRECORD
  5
362
102
{ACAD_REACTORS
330
361
102
}
330
361
100
AcDbXrecord
280
     1
102
RTVSPropertyOp0
 70
     1
102
RTVSPropertyOp1
 70
     1
102
RTVSPropertyOp2
 70
     1
102
RTVSPropertyOp3
 70
     1
102
RTVSPropertyOp4
 70
     1
102
RTVSPropertyOp5
 70
     1
102
RTVSPropertyOp6
 70
     1
102
RTVSPropertyOp7
 70
     1
102
RTVSPropertyOp8
 70
     1
102
RTVSPropertyOp9
 70
     1
102
RTVSPropertyOp10
 70
     1
102
RTVSPropertyOp11
 70
     1
102
RTVSPropertyOp12
 70
     1
102
RTVSPropertyOp13
 70
     1
102
RTVSPropertyOp14
 70
     1
102
RTVSPropertyOp15
 70
     1
102
RTVSPropertyOp16
 70
     1
102
RTVSPropertyOp17
 70
     1
102
RTVSPropertyOp18
 70
     1
102
RTVSPropertyOp19
 70
     1
102
RTVSPropertyOp20
 70
     1
102
RTVSPropertyOp21
 70
     1
102
RTVSPropertyOp22
 70
     1
102
RTVSPropertyOp23
 70
     1
102
RTVSPropertyOp24
 70
     1
102
RTVSPropertyOp25
 70
     1
102
RTVSPropertyOp26
 70
     1
102
RTVSPropertyOp27
 70
     1
102
RTVSPropertyOp28
 70
     1
102
RTVSPropertyOp29
 70
     1
102
RTVSPropertyOp30
 70
     1
102
RTVSPropertyOp31
 70
     1
102
RTVSPropertyOp32
 70
     1
  0
ENDSEC
  0
EOF
