  0
SECTION
  2
HEADER
  9
$ACADVER
  1
AC1015
  9
$ACADMAINTVER
 70
    18
  9
$DWGCODEPAGE
  3
ANSI_1252
  9
$INSBASE
 10
0.0
 20
0.0
 30
0.0
  9
$EXTMIN
 10
-56.55079380626649
 20
-72.91506770685692
 30
-0.0015258207003583
  9
$EXTMAX
 10
56.56894065901724
 20
11.20289711025862
 30
0.0000000349246037
  9
$LIMMIN
 10
0.0
 20
0.0
  9
$LIMMAX
 10
1189.0
 20
840.9999999999998
  9
$ORTHOMODE
 70
     0
  9
$REGENMODE
 70
     1
  9
$FILLMODE
 70
     1
  9
$QTEXTMODE
 70
     0
  9
$MIRRTEXT
 70
     0
  9
$LTSCALE
 40
1.0
  9
$ATTMODE
 70
     1
  9
$TEXTSIZE
 40
0.2
  9
$TRACEWID
 40
0.05
  9
$TEXTSTYLE
  7
STANDARD
  9
$CLAYER
  8
0
  9
$CELTYPE
  6
ByLayer
  9
$CECOLOR
 62
   256
  9
$CELTSCALE
 40
1.0
  9
$DISPSILH
 70
     0
  9
$DIMSCALE
 40
1.0
  9
$DIMASZ
 40
180.0
  9
$DIMEXO
 40
0.0625
  9
$DIMDLI
 40
0.38
  9
$DIMRND
 40
0.0
  9
$DIMDLE
 40
0.0
  9
$DIMEXE
 40
0.18
  9
$DIMTP
 40
0.0
  9
$DIMTM
 40
0.0
  9
$DIMTXT
 40
34.99999940395355
  9
$DIMCEN
 40
0.09
  9
$DIMTSZ
 40
0.0
  9
$DIMTOL
 70
     0
  9
$DIMLIM
 70
     0
  9
$DIMTIH
 70
     1
  9
$DIMTOH
 70
     1
  9
$DIMSE1
 70
     0
  9
$DIMSE2
 70
     0
  9
$DIMTAD
 70
     0
  9
$DIMZIN
 70
     0
  9
$DIMBLK
  1

  9
$DIMASO
 70
     1
  9
$DIMSHO
 70
     1
  9
$DIMPOST
  1

  9
$DIMAPOST
  1

  9
$DIMALT
 70
     0
  9
$DIMALTD
 70
     2
  9
$DIMALTF
 40
25.4
  9
$DIMLFAC
 40
1.0
  9
$DIMTOFL
 70
     0
  9
$DIMTVP
 40
0.0
  9
$DIMTIX
 70
     0
  9
$DIMSOXD
 70
     0
  9
$DIMSAH
 70
     0
  9
$DIMBLK1
  1

  9
$DIMBLK2
  1

  9
$DIMSTYLE
  2
STANDARD
  9
$DIMCLRD
 70
     0
  9
$DIMCLRE
 70
     0
  9
$DIMCLRT
 70
     0
  9
$DIMTFAC
 40
1.0
  9
$DIMGAP
 40
0.09
  9
$DIMJUST
 70
     0
  9
$DIMSD1
 70
     0
  9
$DIMSD2
 70
     0
  9
$DIMTOLJ
 70
     1
  9
$DIMTZIN
 70
     0
  9
$DIMALTZ
 70
     0
  9
$DIMALTTZ
 70
     0
  9
$DIMUPT
 70
     0
  9
$DIMDEC
 70
     4
  9
$DIMTDEC
 70
     4
  9
$DIMALTU
 70
     2
  9
$DIMALTTD
 70
     2
  9
$DIMTXSTY
  7
STANDARD
  9
$DIMAUNIT
 70
     0
  9
$DIMADEC
 70
     0
  9
$DIMALTRND
 40
0.0
  9
$DIMAZIN
 70
     0
  9
$DIMDSEP
 70
    46
  9
$DIMATFIT
 70
     3
  9
$DIMFRAC
 70
     0
  9
$DIMLDRBLK
  1

  9
$DIMLUNIT
 70
     2
  9
$DIMLWD
 70
    -2
  9
$DIMLWE
 70
    -2
  9
$DIMTMOVE
 70
     0
  9
$LUNITS
 70
     2
  9
$LUPREC
 70
     4
  9
$SKETCHINC
 40
0.1
  9
$FILLETRAD
 40
0.0
  9
$AUNITS
 70
     0
  9
$AUPREC
 70
     0
  9
$MENU
  1
.
  9
$ELEVATION
 40
0.0
  9
$PELEVATION
 40
0.0
  9
$THICKNESS
 40
0.0
  9
$LIMCHECK
 70
     0
  9
$CHAMFERA
 40
0.0
  9
$CHAMFERB
 40
0.0
  9
$CHAMFERC
 40
0.0
  9
$CHAMFERD
 40
0.0
  9
$SKPOLY
 70
     0
  9
$TDCREATE
 40
2454871.539305995
  9
$TDUCREATE
 40
2454871.455972662
  9
$TDUPDATE
 40
2455726.885862292
  9
$TDUUPDATE
 40
2455726.802528959
  9
$TDINDWG
 40
0.0124997801
  9
$TDUSRTIMER
 40
0.0124997801
  9
$USRTIMER
 70
     1
  9
$ANGBASE
 50
0.0
  9
$ANGDIR
 70
     0
  9
$PDMODE
 70
     0
  9
$PDSIZE
 40
0.0
  9
$PLINEWID
 40
0.0
  9
$SPLFRAME
 70
     0
  9
$SPLINETYPE
 70
     6
  9
$SPLINESEGS
 70
     8
  9
$HANDSEED
  5
3EC
  9
$SURFTAB1
 70
     6
  9
$SURFTAB2
 70
     6
  9
$SURFTYPE
 70
     6
  9
$SURFU
 70
     6
  9
$SURFV
 70
     6
  9
$UCSBASE
  2

  9
$UCSNAME
  2

  9
$UCSORG
 10
0.0
 20
0.0
 30
0.0
  9
$UCSXDIR
 10
1.0
 20
0.0
 30
0.0
  9
$UCSYDIR
 10
0.0
 20
1.0
 30
0.0
  9
$UCSORTHOREF
  2

  9
$UCSORTHOVIEW
 70
     0
  9
$UCSORGTOP
 10
0.0
 20
0.0
 30
0.0
  9
$UCSORGBOTTOM
 10
0.0
 20
0.0
 30
0.0
  9
$UCSORGLEFT
 10
0.0
 20
0.0
 30
0.0
  9
$UCSORGRIGHT
 10
0.0
 20
0.0
 30
0.0
  9
$UCSORGFRONT
 10
0.0
 20
0.0
 30
0.0
  9
$UCSORGBACK
 10
0.0
 20
0.0
 30
0.0
  9
$PUCSBASE
  2

  9
$PUCSNAME
  2

  9
$PUCSORG
 10
0.0
 20
0.0
 30
0.0
  9
$PUCSXDIR
 10
1.0
 20
0.0
 30
0.0
  9
$PUCSYDIR
 10
0.0
 20
1.0
 30
0.0
  9
$PUCSORTHOREF
  2

  9
$PUCSORTHOVIEW
 70
     0
  9
$PUCSORGTOP
 10
0.0
 20
0.0
 30
0.0
  9
$PUCSORGBOTTOM
 10
0.0
 20
0.0
 30
0.0
  9
$PUCSORGLEFT
 10
0.0
 20
0.0
 30
0.0
  9
$PUCSORGRIGHT
 10
0.0
 20
0.0
 30
0.0
  9
$PUCSORGFRONT
 10
0.0
 20
0.0
 30
0.0
  9
$PUCSORGBACK
 10
0.0
 20
0.0
 30
0.0
  9
$USERI1
 70
     0
  9
$USERI2
 70
     0
  9
$USERI3
 70
     0
  9
$USERI4
 70
     0
  9
$USERI5
 70
     0
  9
$USERR1
 40
0.0
  9
$USERR2
 40
0.0
  9
$USERR3
 40
0.0
  9
$USERR4
 40
0.0
  9
$USERR5
 40
0.0
  9
$WORLDVIEW
 70
     1
  9
$SHADEDGE
 70
     3
  9
$SHADEDIF
 70
    70
  9
$TILEMODE
 70
     1
  9
$MAXACTVP
 70
    64
  9
$PINSBASE
 10
0.0
 20
0.0
 30
0.0
  9
$PLIMCHECK
 70
     0
  9
$PEXTMIN
 10
0.0
 20
0.0
 30
0.0
  9
$PEXTMAX
 10
1189.0
 20
840.9999999999998
 30
0.0
  9
$PLIMMIN
 10
0.0
 20
0.0
  9
$PLIMMAX
 10
1189.0
 20
840.9999999999998
  9
$UNITMODE
 70
     0
  9
$VISRETAIN
 70
     1
  9
$PLINEGEN
 70
     0
  9
$PSLTSCALE
 70
     1
  9
$TREEDEPTH
 70
  3020
  9
$CMLSTYLE
  2
Standard
  9
$CMLJUST
 70
     0
  9
$CMLSCALE
 40
1.0
  9
$PROXYGRAPHICS
 70
     1
  9
$MEASUREMENT
 70
     1
  9
$CELWEIGHT
370
    -1
  9
$ENDCAPS
280
     0
  9
$JOINSTYLE
280
     0
  9
$LWDISPLAY
290
     0
  9
$INSUNITS
 70
     4
  9
$HYPERLINKBASE
  1

  9
$STYLESHEET
  1

  9
$XEDIT
290
     1
  9
$CEPSNTYPE
380
     0
  9
$PSTYLEMODE
290
     1
  9
$FINGERPRINTGUID
  2
{8E671FDB-A584-41EE-97AD-49B4A77EBB4E}
  9
$VERSIONGUID
  2
{00E47BF2-C261-4F54-8DDF-142D3BC102CB}
  9
$EXTNAMES
290
     1
  9
$PSVPSCALE
 40
0.0
  9
$OLESTARTUP
290
     0
  0
ENDSEC
  0
SECTION
  2
CLASSES
  0
CLASS
  1
ACDBDICTIONARYWDFLT
  2
AcDbDictionaryWithDefault
  3
ObjectDBX Classes
 90
        0
280
     0
281
     0
  0
CLASS
  1
MATERIAL
  2
AcDbMaterial
  3
ObjectDBX Classes
 90
     1153
280
     0
281
     0
  0
CLASS
  1
VISUALSTYLE
  2
AcDbVisualStyle
  3
ObjectDBX Classes
 90
     4095
280
     0
281
     0
  0
CLASS
  1
SCALE
  2
AcDbScale
  3
ObjectDBX Classes
 90
     1153
280
     0
281
     0
  0
CLASS
  1
TABLESTYLE
  2
AcDbTableStyle
  3
ObjectDBX Classes
 90
     4095
280
     0
281
     0
  0
CLASS
  1
MLEADERSTYLE
  2
AcDbMLeaderStyle
  3
ACDB_MLEADERSTYLE_CLASS
 90
     4095
280
     0
281
     0
  0
CLASS
  1
SORTENTSTABLE
  2
AcDbSortentsTable
  3
ObjectDBX Classes
 90
        0
280
     0
281
     0
  0
CLASS
  1
CELLSTYLEMAP
  2
AcDbCellStyleMap
  3
ObjectDBX Classes
 90
     1152
280
     0
281
     0
  0
CLASS
  1
DICTIONARYVAR
  2
AcDbDictionaryVar
  3
ObjectDBX Classes
 90
        0
280
     0
281
     0
  0
CLASS
  1
ACME_DOCUMENT
  2
AcMeDbDoc
  3
AcMeServices
 90
     1024
280
     0
281
     0
  0
CLASS
  1
AMGSETTINGSOBJ
  2
AmgSettingsObj
  3
"AcadM|Product Description: AutoCAD Mechanical|Company: Autodesk, Inc."
 90
     1024
280
     0
281
     0
  0
CLASS
  1
ACMESCOPE
  2
AcMeScope
  3
AcMeServices
 90
     1024
280
     0
281
     0
  0
CLASS
  1
ACMECOMMANDHISTORY
  2
AcMeCommandHistory
  3
AcMeServices
 90
     1024
280
     0
281
     0
  0
CLASS
  1
ACIMSYSVARMAN
  2
AcImSysVarManager
  3
AcMeServices
 90
     1024
280
     0
281
     0
  0
CLASS
  1
ACIMINTSYSVAR
  2
AcImIntSysVar
  3
AcMeServices
 90
     1024
280
     0
281
     0
  0
CLASS
  1
ACMEDRAWINGMAN
  2
AcMeDrawingMan
  3
AcMeServices
 90
    33792
280
     0
281
     0
  0
CLASS
  1
ACMEVIEW
  2
AcMeView
  3
AcMeServices
 90
    33792
280
     0
281
     0
  0
CLASS
  1
ACDBENTITYCACHE
  2
AcMeEntityCache
  3
AcMeServices
 90
     1024
280
     0
281
     0
  0
CLASS
  1
GSMANAGER
  2
AcMeGSManager
  3
AcMeServices
 90
    33792
280
     1
281
     0
  0
CLASS
  1
AMDTINTERNALREACTOR
  2
AmdtInternalReactor
  3
AcMeServices
 90
     1024
280
     0
281
     0
  0
CLASS
  1
ACMESTATEMGR
  2
AcMeStateMgr
  3
AcMeServices
 90
     1024
280
     0
281
     0
  0
CLASS
  1
ACGREFMASTER
  2
AcGrefMaster
  3
AcAttribServices
 90
     1024
280
     0
281
     0
  0
CLASS
  1
AM_DRAWING_MGR
  2
AcDmDwgMgr
  3
AcMechDwgViewMgmt
 90
     1024
280
     0
281
     0
  0
CLASS
  1
AM_DWG_DOCUMENT
  2
AcDmDwgDocument
  3
AcMechDwgViewMgmt
 90
     1024
280
     0
281
     0
  0
CLASS
  1
AM_DWG_SHEET
  2
AcDmSheet
  3
AcMechDwgViewMgmt
 90
     1024
280
     0
281
     0
  0
CLASS
  1
AM_VIEWDIMPARMAP
  2
AcDmViewDimParMap
  3
AcMechDwgViewMgmt
 90
     1024
280
     0
281
     0
  0
CLASS
  1
ACIMREALSYSVAR
  2
AcImRealSysVar
  3
AcMeServices
 90
     1024
280
     0
281
     0
  0
CLASS
  1
AM_DWGMGR_NAME
  2
AcDmDwgMgrName
  3
AcMechDwgViewMgmt
 90
     1024
280
     0
281
     0
  0
CLASS
  1
ACME_DATABASE
  2
AcMeDbDatabase
  3
AcMeServices
 90
     1024
280
     0
281
     0
  0
CLASS
  1
ACRFINSADJUSTERMGR
  2
AcRfInsAdjusterMgr
  3
AcMeServices
 90
     1024
280
     0
281
     0
  0
CLASS
  1
ACGREFACADMASTER
  2
AcGrefacadMaster
  3
AcGrefServices
 90
     1024
280
     0
281
     0
  0
CLASS
  1
AMDTMENUSTATEMGR
  2
AmdtMenuStateMgr
  3
McadcomServices
 90
     1024
280
     0
281
     0
  0
CLASS
  1
AMDTMCOMMENUSTATE
  2
AmdtMcomMenuState
  3
McadcomServices
 90
     1024
280
     0
281
     0
  0
CLASS
  1
AMIMASTER
  2
AmiMaster
  3
AmiServices
 90
     1024
280
     0
281
     0
  0
CLASS
  1
MAPIAMMOUDLE
  2
MApiAmModule
  3
MApiAmServices
 90
     1024
280
     0
281
     0
  0
CLASS
  1
ACIMSTRSYSVAR
  2
AcImStrSysVar
  3
AcMeServices
 90
     1024
280
     0
281
     0
  0
CLASS
  1
AMDTADMENUSTATE
  2
AmdtAdMenuState
  3
DesignerServices
 90
    33792
280
     1
281
     0
  0
CLASS
  1
ADAPPL
  2
AcAdAppl
  3
DesignerAssemblies
 90
    33792
280
     0
281
     0
  0
CLASS
  1
DEPMGR
  2
AcAdDepMgr
  3
DesignerAssemblies
 90
    33792
280
     0
281
     0
  0
CLASS
  1
PARAMMGR
  2
AcAdParamMgr
  3
DesignerAssemblies
 90
    33792
280
     0
281
     0
  0
CLASS
  1
PARAMSCOPE
  2
AcAdParamScope
  3
DesignerAssemblies
 90
    33792
280
     0
281
     0
  0
CLASS
  1
NAMEDAPPL
  2
AcAdNamedAppl
  3
DesignerAssemblies
 90
    33792
280
     0
281
     0
  0
CLASS
  1
AMDTDMMENUSTATE
  2
AmdtDmMenuState
  3
AcMechDwgViewMgmt
 90
     1024
280
     0
281
     0
  0
CLASS
  1
AMDTAMMENUSTATE
  2
AmdtAmMenuState
  3
DesignerAssemblies
 90
     1024
280
     0
281
     0
  0
CLASS
  1
ACAMPROJECT
  2
AcAmProject
  3
DesignerAssemblies
 90
     1024
280
     0
281
     0
  0
CLASS
  1
ACAMGRCOMPDEF
  2
AcAmGrCompDef
  3
DesignerAssemblies
 90
     1024
280
     0
281
     0
  0
CLASS
  1
ACCMCONTEXT
  2
AcCmContext
  3
DesignerAssemblies
 90
    33792
280
     0
281
     0
  0
CLASS
  1
ACAMCOMPDEF
  2
AcAmCompDef
  3
DesignerAssemblies
 90
     1024
280
     0
281
     0
  0
CLASS
  1
ACAMCOMPDEFMGR
  2
AcAmCompDefMgr
  3
DesignerAssemblies
 90
     1024
280
     0
281
     0
  0
CLASS
  1
AMCONTEXTMGR
  2
AcAmContextMgr
  3
DesignerAssemblies
 90
     1024
280
     0
281
     0
  0
CLASS
  1
ACAMCONTEXTMODELER
  2
AcAmContextModeler
  3
DesignerAssemblies
 90
     1024
280
     0
281
     0
  0
CLASS
  1
ACMDATADICTIONARY
  2
AcmDataDictionary
  3
"AcmSymBB|Product Description: AutoCAD Mechanical|Company: Autodesk, Inc."
 90
     1024
280
     0
281
     0
  0
CLASS
  1
CATALOGSTATE
  2
AcAmCatalogState
  3
DesignerAssemblies
 90
    33792
280
     0
281
     0
  0
CLASS
  1
ACAMGRCOMPDEFSET
  2
AcAmGrCompDefSet
  3
DesignerAssemblies
 90
     1024
280
     0
281
     0
  0
CLASS
  1
AMDTBROWSERDBTAB
  2
AmdtBrowserDbTab
  3
McadcomServices
 90
     1024
280
     0
281
     0
  0
CLASS
  1
CBROWSERAPPOBJECT
  2
CBrowserAppObject
  3
McadcomServices
 90
     1024
280
     0
281
     0
  0
CLASS
  1
DM_PLACEHOLDER
  2
AcDmSelsetPlaceholder
  3
AcMechDwgViewMgmt
 90
     1024
280
     0
281
     0
  0
CLASS
  1
EXACXREFPANELOBJECT
  2
ExAcXREFPanelObject
  3
EXAC_ESW
 90
     1025
280
     0
281
     0
  0
CLASS
  1
NPOCOLLECTION
  2
AcDbImpNonPersistentObjectsCollection
  3
ObjectDBX Classes
 90
     1153
280
     0
281
     0
  0
CLASS
  1
ACMSTANDARDANSI
  2
AcmStandardANSI
  3
"Amdt_StdImp|Product Description: AutoCAD Mechanical|Company: Autodesk, Inc."
 90
     1024
280
     0
281
     0
  0
CLASS
  1
ACMSURFSTANDARDANSI
  2
AcmSurfTextStdANSI
  3
"Amdt_StdImp|Product Description: AutoCAD Mechanical|Company: Autodesk, Inc."
 90
     1024
280
     0
281
     0
  0
CLASS
  1
ACMFCFSTANDARDANSI
  2
AcmFCFStdANSI
  3
"Amdt_StdImp|Product Description: AutoCAD Mechanical|Company: Autodesk, Inc."
 90
     1024
280
     0
281
     0
  0
CLASS
  1
ACMWELDSTANDARDANSI
  2
AcmWeldingStdANSI
  3
"Amdt_StdImp|Product Description: AutoCAD Mechanical|Company: Autodesk, Inc."
 90
     1024
280
     0
281
     0
  0
CLASS
  1
ACMIDSTANDARDANSI
  2
AcmIdStdANSI
  3
"Amdt_StdImp|Product Description: AutoCAD Mechanical|Company: Autodesk, Inc."
 90
     1024
280
     0
281
     0
  0
CLASS
  1
ACMDATUMSTANDARDANSI
  2
AcmDatumStdANSI
  3
"Amdt_StdImp|Product Description: AutoCAD Mechanical|Company: Autodesk, Inc."
 90
     1024
280
     0
281
     0
  0
CLASS
  1
ACMBOMSTANDARDANSI
  2
AcmBOMStdANSI
  3
"Amdt_StdImp|Product Description: AutoCAD Mechanical|Company: Autodesk, Inc."
 90
     1024
280
     0
281
     0
  0
CLASS
  1
ACMDETAILSTANDARDANSI
  2
AmdtDetailSymStdANSI
  3
"Amdt_StdImp|Product Description: AutoCAD Mechanical|Company: Autodesk, Inc."
 90
     1024
280
     0
281
     0
  0
CLASS
  1
ACMSECTIONSTANDARDANSI
  2
AmdtSectionSymStdANSI
  3
"Amdt_StdImp|Product Description: AutoCAD Mechanical|Company: Autodesk, Inc."
 90
     1024
280
     0
281
     0
  0
CLASS
  1
ACMCENTERLINESTANDARDANSI
  2
AmdtCenterLineStdANSI
  3
"Amdt_StdImp|Product Description: AutoCAD Mechanical|Company: Autodesk, Inc."
 90
     1024
280
     0
281
     0
  0
CLASS
  1
ACMTHREADLINESTANDARDANSI
  2
AmdtThreadLineStdANSI
  3
"Amdt_StdImp|Product Description: AutoCAD Mechanical|Company: Autodesk, Inc."
 90
     1024
280
     0
281
     0
  0
CLASS
  1
ACMNOTESTANDARDANSI
  2
AmdtNoteStdANSI
  3
"Amdt_StdImp|Product Description: AutoCAD Mechanical|Company: Autodesk, Inc."
 90
     1024
280
     0
281
     0
  0
CLASS
  1
ACMTAPERSTANDARDANSI
  2
AcmTaperStdANSI
  3
"Amdt_StdImp|Product Description: AutoCAD Mechanical|Company: Autodesk, Inc."
 90
     1024
280
     0
281
     0
  0
CLASS
  1
ACMANOOTATIONVIEWSTANDARDANSI
  2
AmdtAnViewStdANSI
  3
"Amdt_StdImp|Product Description: AutoCAD Mechanical|Company: Autodesk, Inc."
 90
     1024
280
     0
281
     0
  0
CLASS
  1
ACAMGLAYSTD
  2
AcAmgLayStd
  3
"AmgLay|Product Description: AutoCAD Mechanical|Company: Autodesk, Inc."
 90
     1024
280
     0
281
     0
  0
CLASS
  1
ACAMGDIMSTD
  2
AcAmgDimStd
  3
"AmgDim|Product Description: AutoCAD Mechanical|Company: Autodesk, Inc."
 90
     1024
280
     0
281
     0
  0
CLASS
  1
AMGOBJPROPCFG
  2
AmgObjPropCfg
  3
"AmgLay|Product Description: AutoCAD Mechanical|Company: Autodesk, Inc."
 90
     1025
280
     0
281
     0
  0
CLASS
  1
ACAMGHOLECHARTSTDANSI
  2
AcAmgHoleChartStdANSI
  3
AmgDim|Product Description: AutoCAD Mechanical|Company: Autodesk, Inc.
 90
     1024
280
     0
281
     0
  0
CLASS
  1
ACAMGTITLESTD
  2
AcAmgTitleStd
  3
"AmgTitle|Product Description: AutoCAD Mechanical|Company: Autodesk, Inc."
 90
     4095
280
     0
281
     0
  0
CLASS
  1
AMDTNOTETEMPLATEDB
  2
AmdtNoteTemplateDB
  3
AcmSymBB|Product Description: AutoCAD Mechanical|Company: Autodesk, Inc.
 90
     1024
280
     0
281
     0
  0
CLASS
  1
ACAMGFILTERDAT
  2
AcAmgFilterDat
  3
"AcadM|Product Description: AutoCAD Mechanical|Company: Autodesk, Inc."
 90
    33792
280
     0
281
     0
  0
CLASS
  1
CAMSSTRUCTBTNSTATE
  2
StructBtnState
  3
DesignerAssemblies
 90
    33792
280
     0
281
     0
  0
CLASS
  1
ACDBPLACEHOLDER
  2
AcDbPlaceHolder
  3
ObjectDBX Classes
 90
        0
280
     0
281
     0
  0
CLASS
  1
LAYOUT
  2
AcDbLayout
  3
ObjectDBX Classes
 90
        0
280
     0
281
     0
  0
CLASS
  1
SOLID_BACKGROUND
  2
AcDbSolidBackground
  3
SCENEOE
 90
    36863
280
     0
281
     0
  0
ENDSEC
  0
SECTION
  2
TABLES
  0
TABLE
  2
VPORT
  5
28
102
{ACAD_XDICTIONARY
360
2C
102
}
330
0
100
AcDbSymbolTable
 70
     1
  0
VPORT
  5
29
330
28
100
AcDbSymbolTableRecord
100
AcDbViewportTableRecord
  2
*ACTIVE
 70
     0
 10
0.0
 20
0.0
 11
1.0
 21
1.0
 12
0.0090734263753731
 22
-30.85608529829915
 13
0.0
 23
0.0
 14
1.0
 24
1.0
 15
0.0
 25
0.0
 16
0.0
 26
0.0
 36
1.0
 17
0.0
 27
0.0
 37
0.0
 40
94.17969416882264
 41
2.068965517241379
 42
50.0
 43
0.0
 44
0.0
 50
0.0
 51
0.0
 71
     0
 72
   100
 73
     1
 74
     1
 75
     0
 76
     0
 77
     0
 78
     0
281
     0
 65
     1
110
0.0
120
0.0
130
0.0
111
1.0
121
0.0
131
0.0
112
0.0
122
1.0
132
0.0
 79
     0
146
0.0
  0
ENDTAB
  0
TABLE
  2
LTYPE
  5
23
330
0
100
AcDbSymbolTable
 70
    11
  0
LTYPE
  5
24
330
23
100
AcDbSymbolTableRecord
100
AcDbLinetypeTableRecord
  2
ByBlock
 70
     0
  3

 72
    65
 73
     0
 40
0.0
  0
LTYPE
  5
25
330
23
100
AcDbSymbolTableRecord
100
AcDbLinetypeTableRecord
  2
ByLayer
 70
     0
  3

 72
    65
 73
     0
 40
0.0
  0
LTYPE
  5
1B
330
23
100
AcDbSymbolTableRecord
100
AcDbLinetypeTableRecord
  2
CONTINUOUS
 70
     0
  3
Solid line
 72
    65
 73
     0
 40
0.0
  0
LTYPE
  5
2F6
330
23
100
AcDbSymbolTableRecord
100
AcDbLinetypeTableRecord
  2
HIDDEN
 70
     0
  3
Verdeckt
 72
    65
 73
     2
 40
0.375
 49
0.25
 74
     0
 49
-0.125
 74
     0
  0
LTYPE
  5
2F8
330
23
100
AcDbSymbolTableRecord
100
AcDbLinetypeTableRecord
  2
PHANTOM2
 70
     0
  3
Phantom (.5x) ___ _ _ ___ _ _ ___ _ _ ___ _ _
 72
    65
 73
     6
 40
1.25
 49
0.625
 74
     0
 49
-0.125
 74
     0
 49
0.125
 74
     0
 49
-0.125
 74
     0
 49
0.125
 74
     0
 49
-0.125
 74
     0
  0
LTYPE
  5
2F7
330
23
100
AcDbSymbolTableRecord
100
AcDbLinetypeTableRecord
  2
CENTER
 70
     0
  3
Mitte ____ _ ____ _ ____ _ ____ _ ____ _ ____
 72
    65
 73
     4
 40
2.0
 49
1.25
 74
     0
 49
-0.25
 74
     0
 49
0.25
 74
     0
 49
-0.25
 74
     0
  0
LTYPE
  5
2F9
330
23
100
AcDbSymbolTableRecord
100
AcDbLinetypeTableRecord
  2
Amconstr
 70
     0
  3
_______________________
 72
    65
 73
     2
 40
9999.0
 49
9999.0
 74
     0
 49
0.0
 74
     0
  0
LTYPE
  5
2FA
330
23
100
AcDbSymbolTableRecord
100
AcDbLinetypeTableRecord
  2
CENTER2
 70
     0
  3
Center (.5x) ___ _ ___ _ ___ _ ___ _ ___ _ ___
 72
    65
 73
     4
 40
1.125
 49
0.75
 74
     0
 49
-0.125
 74
     0
 49
0.125
 74
     0
 49
-0.125
 74
     0
  0
LTYPE
  5
2FB
330
23
100
AcDbSymbolTableRecord
100
AcDbLinetypeTableRecord
  2
HIDDEN2
 70
     0
  3
Hidden (.5x) _ _ _ _ _ _ _ _ _ _ _ _ _ _ _ _ _
 72
    65
 73
     2
 40
0.1875
 49
0.125
 74
     0
 49
-0.0625
 74
     0
  0
LTYPE
  5
2FC
330
23
100
AcDbSymbolTableRecord
100
AcDbLinetypeTableRecord
  2
Amzigzag2
 70
     0
  3
/\/-/\/-/\/-/\/-/\/-/\/
 72
    65
 73
     2
 40
0.4401
 49
0.0001
 74
     4
 75
   136
340
2FD
 46
0.0016
 50
0.0
 44
0.0
 45
0.0
 49
-0.4400000000000001
 74
     0
  0
LTYPE
  5
30D
330
23
100
AcDbSymbolTableRecord
100
AcDbLinetypeTableRecord
  2
ACANSTGB
 70
     0
  3
__ . . __ . .
 72
    65
 73
     6
 40
0.35433070866
 49
0.15748031496
 74
     0
 49
-0.03937007874
 74
     0
 49
0.03937007874
 74
     0
 49
-0.03937007874
 74
     0
 49
0.03937007874
 74
     0
 49
-0.03937007874
 74
     0
  0
LTYPE
  5
30E
330
23
100
AcDbSymbolTableRecord
100
AcDbLinetypeTableRecord
  2
ACANSTGL
 70
     0
  3
_ _ _ _ _
 72
    65
 73
     2
 40
0.11811023622
 49
0.07874015748
 74
     0
 49
-0.03937007874
 74
     0
  0
LTYPE
  5
7C
330
23
100
AcDbSymbolTableRecord
100
AcDbLinetypeTableRecord
  2
DASHED
 70
     0
  3
Dashed __ __ __ __ __ __ __ __ __ __ __ __ __ _
 72
    65
 73
     2
 40
0.75
 49
0.5
 74
     0
 49
-0.25
 74
     0
  0
ENDTAB
  0
TABLE
  2
LAYER
  5
E
102
{ACAD_XDICTIONARY
360
1C
102
}
330
0
100
AcDbSymbolTable
 70
     7
  0
LAYER
  5
F
330
E
100
AcDbSymbolTableRecord
100
AcDbLayerTableRecord
  2
0
 70
     0
 62
     7
  6
CONTINUOUS
370
    -3
390
10
  0
LAYER
  5
85
330
E
100
AcDbSymbolTableRecord
100
AcDbLayerTableRecord
  2
GEB-KONTUR-A
 70
     0
 62
     5
  6
CONTINUOUS
370
    -3
390
10
  0
LAYER
  5
7B
330
E
100
AcDbSymbolTableRecord
100
AcDbLayerTableRecord
  2
GEB-VERDECKT
 70
     0
 62
     2
  6
DASHED
370
    -3
390
10
1001
AcAecLayerStandard
1000

1000

  0
LAYER
  5
76
330
E
100
AcDbSymbolTableRecord
100
AcDbLayerTableRecord
  2
Arbeitspunkt(DIN)
 70
     0
 62
     7
  6
CONTINUOUS
370
    25
390
10
  0
LAYER
  5
2F2
330
E
100
AcDbSymbolTableRecord
100
AcDbLayerTableRecord
  2
GEB-ART-NR
 70
     0
 62
     1
  6
CONTINUOUS
370
    18
390
10
  0
LAYER
  5
72
330
E
100
AcDbSymbolTableRecord
100
AcDbLayerTableRecord
  2
GEB-BEZUG
 70
     0
 62
     2
  6
CONTINUOUS
370
    25
390
10
  0
LAYER
  5
2EF
330
E
100
AcDbSymbolTableRecord
100
AcDbLayerTableRecord
  2
GEB-TEXT
 70
     0
 62
     5
  6
CONTINUOUS
370
    18
390
10
  0
ENDTAB
  0
TABLE
  2
STYLE
  5
20
330
0
100
AcDbSymbolTable
 70
     3
  0
STYLE
  5
21
330
20
100
AcDbSymbolTableRecord
100
AcDbTextStyleTableRecord
  2
STANDARD
 70
     0
 40
0.0
 41
1.0
 50
0.0
 71
     0
 42
0.2
  3
arial.ttf
  4

1001
ACAD
1000
Arial
1071
       34
  0
STYLE
  5
2FD
330
20
100
AcDbSymbolTableRecord
100
AcDbTextStyleTableRecord
  2

 70
     1
 40
0.0
 41
1.0
 50
0.0
 71
     0
 42
0.2
  3
genltshp.shx
  4

  0
STYLE
  5
309
330
20
100
AcDbSymbolTableRecord
100
AcDbTextStyleTableRecord
  2
ACANSGDT
 70
     0
 40
0.0
 41
1.0
 50
0.0
 71
     0
 42
0.2
  3
amgdt.shx
  4

  0
ENDTAB
  0
TABLE
  2
VIEW
  5
26
330
0
100
AcDbSymbolTable
 70
     0
  0
ENDTAB
  0
TABLE
  2
UCS
  5
27
330
0
100
AcDbSymbolTable
 70
     0
  0
ENDTAB
  0
TABLE
  2
APPID
  5
2D
330
0
100
AcDbSymbolTable
 70
    14
  0
APPID
  5
1F
330
2D
100
AcDbSymbolTableRecord
100
AcDbRegAppTableRecord
  2
ACAD
 70
     0
  0
APPID
  5
7D
330
2D
100
AcDbSymbolTableRecord
100
AcDbRegAppTableRecord
  2
AcAecLayerStandard
 70
     0
  0
APPID
  5
34C
330
2D
100
AcDbSymbolTableRecord
100
AcDbRegAppTableRecord
  2
ACATTRIBSERVICES
 70
     0
  0
APPID
  5
377
330
2D
100
AcDbSymbolTableRecord
100
AcDbRegAppTableRecord
  2
MCAD_NO_VIS
 70
     0
  0
APPID
  5
378
330
2D
100
AcDbSymbolTableRecord
100
AcDbRegAppTableRecord
  2
ACAD_TEMP_GRAPHIC
 70
     0
  0
APPID
  5
37C
330
2D
100
AcDbSymbolTableRecord
100
AcDbRegAppTableRecord
  2
AD_DRAW
 70
     0
  0
APPID
  5
395
330
2D
100
AcDbSymbolTableRecord
100
AcDbRegAppTableRecord
  2
DESIGNERASSEMBLIES
 70
     0
  0
APPID
  5
39A
330
2D
100
AcDbSymbolTableRecord
100
AcDbRegAppTableRecord
  2
ACADM_DIM_EDIT
 70
     0
  0
APPID
  5
39B
330
2D
100
AcDbSymbolTableRecord
100
AcDbRegAppTableRecord
  2
AMDT_DM_ADJ
 70
     0
  0
APPID
  5
3BB
330
2D
100
AcDbSymbolTableRecord
100
AcDbRegAppTableRecord
  2
ACAD_DSTYLE_DIMARC_LENGTH_SYMBOL
 70
     0
  0
APPID
  5
3BC
330
2D
100
AcDbSymbolTableRecord
100
AcDbRegAppTableRecord
  2
ACAD_DSTYLE_DIM_LINETYPE
 70
     0
  0
APPID
  5
3BD
330
2D
100
AcDbSymbolTableRecord
100
AcDbRegAppTableRecord
  2
ACAD_DSTYLE_DIM_EXT1_LINETYPE
 70
     0
  0
APPID
  5
3BE
330
2D
100
AcDbSymbolTableRecord
100
AcDbRegAppTableRecord
  2
ACAD_DSTYLE_DIM_EXT2_LINETYPE
 70
     0
  0
APPID
  5
3EB
330
2D
100
AcDbSymbolTableRecord
100
AcDbRegAppTableRecord
  2
ACAD_MLEADERVER
 70
     0
  0
ENDTAB
  0
TABLE
  2
DIMSTYLE
  5
2E
330
0
100
AcDbSymbolTable
 70
     7
100
AcDbDimStyleTable
 71
     1
340
2F
  0
DIMSTYLE
105
2F
330
2E
100
AcDbSymbolTableRecord
100
AcDbDimStyleTableRecord
  2
STANDARD
 70
     0
279
     2
340
21
  0
DIMSTYLE
105
31F
102
{ACAD_REACTORS
330
306
102
}
330
2E
100
AcDbSymbolTableRecord
100
AcDbDimStyleTableRecord
  2
AM_ANSI
 70
     0
  4
mm
 41
0.12
 42
0.05
 43
0.5
 44
0.1
 47
0.1
 48
0.1
 78
     7
 79
     2
140
0.12
141
0.0
146
0.71
147
0.06
176
   256
177
   256
178
     2
274
     4
284
     7
340
21
371
    -1
372
    -1
1001
ACAD_DSTYLE_DIMARC_LENGTH_SYMBOL
1070
   379
1070
     1
1001
ACAD_DSTYLE_DIM_LINETYPE
1070
   380
1005
24
1001
ACAD_DSTYLE_DIM_EXT1_LINETYPE
1070
   381
1005
24
1001
ACAD_DSTYLE_DIM_EXT2_LINETYPE
1070
   382
1005
24
  0
DIMSTYLE
105
320
330
2E
100
AcDbSymbolTableRecord
100
AcDbDimStyleTableRecord
  2
AM_ANSI$3
 70
     0
  4
mm
 41
0.12
 42
0.05
 43
0.5
 44
0.1
 47
0.1
 48
0.1
 78
     7
 79
     2
140
0.12
141
0.0
146
0.71
147
0.06
176
   256
177
   256
178
     2
274
     4
284
     7
288
     1
289
     0
340
21
371
    -1
372
    -1
1001
ACAD_DSTYLE_DIMARC_LENGTH_SYMBOL
1070
   379
1070
     1
1001
ACAD_DSTYLE_DIM_LINETYPE
1070
   380
1005
24
1001
ACAD_DSTYLE_DIM_EXT1_LINETYPE
1070
   381
1005
24
1001
ACAD_DSTYLE_DIM_EXT2_LINETYPE
1070
   382
1005
24
  0
DIMSTYLE
105
321
330
2E
100
AcDbSymbolTableRecord
100
AcDbDimStyleTableRecord
  2
AM_ANSI$4
 70
     0
  4
mm
 41
0.12
 42
0.05
 43
0.5
 44
0.1
 47
0.1
 48
0.1
 78
     7
 79
     2
140
0.12
141
0.0
146
0.71
147
0.06
176
   256
177
   256
178
     2
274
     4
284
     7
288
     1
289
     0
340
21
371
    -1
372
    -1
1001
ACAD_DSTYLE_DIMARC_LENGTH_SYMBOL
1070
   379
1070
     1
1001
ACAD_DSTYLE_DIM_LINETYPE
1070
   380
1005
24
1001
ACAD_DSTYLE_DIM_EXT1_LINETYPE
1070
   381
1005
24
1001
ACAD_DSTYLE_DIM_EXT2_LINETYPE
1070
   382
1005
24
  0
DIMSTYLE
105
322
330
2E
100
AcDbSymbolTableRecord
100
AcDbDimStyleTableRecord
  2
AM_ANSI$7
 70
     0
  4
mm
 41
0.12
 42
0.05
 43
0.5
 44
0.1
 47
0.1
 48
0.1
 78
     7
 79
     2
140
0.12
141
0.0
146
0.71
147
0.06
176
   256
177
   256
178
     2
274
     4
284
     7
340
21
371
    -1
372
    -1
1001
ACAD_DSTYLE_DIMARC_LENGTH_SYMBOL
1070
   379
1070
     1
1001
ACAD_DSTYLE_DIM_LINETYPE
1070
   380
1005
24
1001
ACAD_DSTYLE_DIM_EXT1_LINETYPE
1070
   381
1005
24
1001
ACAD_DSTYLE_DIM_EXT2_LINETYPE
1070
   382
1005
24
  0
DIMSTYLE
105
323
330
2E
100
AcDbSymbolTableRecord
100
AcDbDimStyleTableRecord
  2
AM_ANSI$SF
 70
     0
  4
mm
 41
0.12
 42
0.05
 43
0.5
 44
0.1
 47
0.1
 48
0.1
 75
     1
 76
     1
 78
     7
 79
     2
140
0.12
141
0.0
146
0.71
147
0.06
176
   256
177
   256
178
     2
274
     4
284
     7
340
21
371
    -1
372
    -1
1001
ACAD_DSTYLE_DIMARC_LENGTH_SYMBOL
1070
   379
1070
     1
1001
ACAD_DSTYLE_DIM_LINETYPE
1070
   380
1005
24
1001
ACAD_DSTYLE_DIM_EXT1_LINETYPE
1070
   381
1005
24
1001
ACAD_DSTYLE_DIM_EXT2_LINETYPE
1070
   382
1005
24
  0
DIMSTYLE
105
324
330
2E
100
AcDbSymbolTableRecord
100
AcDbDimStyleTableRecord
  2
AM_ANSI$SH
 70
     0
  4
mm
 41
0.12
 42
0.05
 43
0.5
 44
0.1
 47
0.1
 48
0.1
 75
     1
 76
     1
 78
     7
 79
     2
140
0.12
141
0.0
146
0.71
147
0.06
173
     1
176
   256
177
   256
178
     2
274
     4
284
     7
340
21
343
325
371
    -1
372
    -1
1001
ACAD_DSTYLE_DIMARC_LENGTH_SYMBOL
1070
   379
1070
     1
1001
ACAD_DSTYLE_DIM_LINETYPE
1070
   380
1005
24
1001
ACAD_DSTYLE_DIM_EXT1_LINETYPE
1070
   381
1005
24
1001
ACAD_DSTYLE_DIM_EXT2_LINETYPE
1070
   382
1005
24
  0
ENDTAB
  0
TABLE
  2
BLOCK_RECORD
  5
1
330
0
100
AcDbSymbolTable
 70
     3
  0
BLOCK_RECORD
  5
2
102
{ACAD_XDICTIONARY
360
3
102
}
330
1
100
AcDbSymbolTableRecord
100
AcDbBlockTableRecord
  2
*Model_Space
340
7
  0
BLOCK_RECORD
  5
A
330
1
100
AcDbSymbolTableRecord
100
AcDbBlockTableRecord
  2
*Paper_Space
340
D
  0
BLOCK_RECORD
  5
325
330
1
100
AcDbSymbolTableRecord
100
AcDbBlockTableRecord
  2
GENAXEH
340
0
  0
BLOCK_RECORD
  5
6F
330
1
100
AcDbSymbolTableRecord
100
AcDbBlockTableRecord
  2
Einfügepunkt
340
0
102
{BLKREFS
331
6E
102
}
  0
ENDTAB
  0
ENDSEC
  0
SECTION
  2
BLOCKS
  0
BLOCK
  5
5
330
2
100
AcDbEntity
  8
0
100
AcDbBlockBegin
  2
*Model_Space
 70
     0
 10
0.0
 20
0.0
 30
0.0
  3
*Model_Space
  1

  0
ENDBLK
  5
6
330
2
100
AcDbEntity
  8
0
100
AcDbBlockEnd
  0
BLOCK
  5
B
330
A
100
AcDbEntity
 67
     1
  8
0
100
AcDbBlockBegin
  2
*Paper_Space
 70
     0
 10
0.0
 20
0.0
 30
0.0
  3
*Paper_Space
  1

  0
ENDBLK
  5
C
330
A
100
AcDbEntity
 67
     1
  8
0
100
AcDbBlockEnd
  0
BLOCK
  5
326
330
325
100
AcDbEntity
  8
0
100
AcDbBlockBegin
  2
GENAXEH
 70
     0
 10
0.0
 20
0.0
 30
0.0
  3
GENAXEH
  1

  0
LINE
  5
327
330
325
100
AcDbEntity
  8
0
100
AcDbLine
 10
-1.0
 20
0.0
 30
0.0
 11
1.0
 21
0.0
 31
0.0
  0
ENDBLK
  5
328
330
325
100
AcDbEntity
  8
0
100
AcDbBlockEnd
  0
BLOCK
  5
70
330
6F
100
AcDbEntity
  8
0
100
AcDbBlockBegin
  2
Einfügepunkt
 70
     0
 10
0.0
 20
0.0
 30
0.0
  3
Einfügepunkt
  1

  0
LINE
  5
71
330
6F
100
AcDbEntity
  8
GEB-BEZUG
100
AcDbLine
 10
-0.7071067811865817
 20
-0.7071067811865106
 30
0.0
 11
0.7071067811864751
 21
0.7071067811865817
 31
0.0
  0
LINE
  5
73
330
6F
100
AcDbEntity
  8
GEB-BEZUG
100
AcDbLine
 10
-0.7071067811865106
 20
0.7071067811865817
 30
0.0
 11
0.7071067811865462
 21
-0.7071067811865106
 31
0.0
  0
ENDBLK
  5
74
330
6F
100
AcDbEntity
  8
0
100
AcDbBlockEnd
  0
ENDSEC
  0
SECTION
  2
ENTITIES
  0
INSERT
  5
6E
330
2
100
AcDbEntity
  8
0
 48
25.0
100
AcDbBlockReference
  2
Einfügepunkt
 10
0.0
 20
0.0
 30
0.0
  0
LINE
  5
75
330
2
100
AcDbEntity
  8
Arbeitspunkt(DIN)
 48
25.0
100
AcDbLine
 10
0.0
 20
0.0
 30
0.0
 11
0.0
 21
-2.5
 31
0.0
  0
LINE
  5
77
330
2
100
AcDbEntity
  8
Arbeitspunkt(DIN)
 48
25.0
100
AcDbLine
 10
0.0
 20
0.0
 30
0.0
 11
0.0
 21
2.5
 31
0.0
  0
LINE
  5
78
330
2
100
AcDbEntity
  8
Arbeitspunkt(DIN)
 48
25.0
100
AcDbLine
 10
0.0
 20
0.0
 30
0.0
 11
-2.5
 21
0.0
 31
0.0
  0
LINE
  5
79
330
2
100
AcDbEntity
  8
Arbeitspunkt(DIN)
 48
25.0
100
AcDbLine
 10
0.0
 20
0.0
 30
0.0
 11
2.5
 21
0.0
 31
0.0
  0
ARC
  5
7A
330
2
100
AcDbEntity
  8
GEB-VERDECKT
 48
25.0
100
AcDbCircle
 10
8.135639852470887
 20
-54.60000000000002
 30
0.0
 40
0.3999999999999999
100
AcDbArc
 50
189.9999999999986
 51
270.0
  0
ARC
  5
7E
330
2
100
AcDbEntity
  8
GEB-VERDECKT
 48
25.0
100
AcDbCircle
 10
-8.135639852470887
 20
-54.60000000000002
 30
0.0
 40
0.3999999999999999
100
AcDbArc
 50
270.0
 51
350.0000000000014
  0
LINE
  5
7F
330
2
100
AcDbEntity
  8
GEB-VERDECKT
 48
25.0
100
AcDbLine
 10
-6.69999999999996
 20
-22.0
 30
0.0
 11
-6.69999999999996
 21
-48.76158999842061
 31
0.0
  0
LINE
  5
80
330
2
100
AcDbEntity
  8
GEB-VERDECKT
 48
25.0
100
AcDbLine
 10
6.699999999999988
 20
-22.0
 30
0.0
 11
6.699999999999988
 21
-48.76158999842061
 31
0.0
  0
LINE
  5
81
330
2
100
AcDbEntity
  8
GEB-VERDECKT
 48
25.0
100
AcDbLine
 10
-6.69999999999996
 20
-48.76158999842061
 30
0.0
 11
-7.741716751266011
 21
-54.66945927106678
 31
0.0
  0
LINE
  5
82
330
2
100
AcDbEntity
  8
GEB-VERDECKT
 48
25.0
100
AcDbLine
 10
6.699999999999988
 20
-48.76158999842061
 30
0.0
 11
7.741716751266039
 21
-54.66945927106678
 31
0.0
  0
LINE
  5
83
330
2
100
AcDbEntity
  8
GEB-VERDECKT
 48
25.0
100
AcDbLine
 10
-6.69999999999996
 20
-48.76158999842061
 30
0.0
 11
6.699999999999988
 21
-48.76158999842061
 31
0.0
  0
LINE
  5
84
330
2
100
AcDbEntity
  8
GEB-KONTUR-A
 48
25.0
100
AcDbLine
 10
-9.849999999999937
 20
-29.39999999999998
 30
0.0
 11
-9.796040669377447
 21
-29.39999999999998
 31
0.0
  0
LINE
  5
86
330
2
100
AcDbEntity
  8
GEB-KONTUR-A
 48
25.0
100
AcDbLine
 10
-9.796040669377447
 20
-26.5
 30
0.0
 11
-9.796040669377447
 21
-29.39999999999998
 31
0.0
  0
LINE
  5
87
330
2
100
AcDbEntity
  8
GEB-KONTUR-A
 48
25.0
100
AcDbLine
 10
-9.634753867227942
 20
-29.39999999999998
 30
0.0
 11
-8.998422757779593
 21
-29.39999999999998
 31
0.0
  0
LINE
  5
88
330
2
100
AcDbEntity
  8
GEB-KONTUR-A
 48
25.0
100
AcDbLine
 10
-8.998422757779593
 20
-26.5
 30
0.0
 11
-8.998422757779593
 21
-29.39999999999998
 31
0.0
  0
LINE
  5
89
330
2
100
AcDbEntity
  8
GEB-KONTUR-A
 48
25.0
100
AcDbLine
 10
-9.634753867227942
 20
-29.39999999999998
 30
0.0
 11
-9.634753867227942
 21
-26.5
 31
0.0
  0
LINE
  5
8A
330
2
100
AcDbEntity
  8
GEB-KONTUR-A
 48
25.0
100
AcDbLine
 10
-9.634753867227942
 20
-26.5
 30
0.0
 11
-8.998422757779593
 21
-26.5
 31
0.0
  0
LINE
  5
8B
330
2
100
AcDbEntity
  8
GEB-KONTUR-A
 48
25.0
100
AcDbLine
 10
-8.530350227276699
 20
-29.39999999999998
 30
0.0
 11
-7.319976530952317
 21
-29.39999999999998
 31
0.0
  0
LINE
  5
8C
330
2
100
AcDbEntity
  8
GEB-KONTUR-A
 48
25.0
100
AcDbLine
 10
-7.319976530952288
 20
-26.5
 30
0.0
 11
-7.319976530952288
 21
-29.39999999999998
 31
0.0
  0
LINE
  5
8D
330
2
100
AcDbEntity
  8
GEB-KONTUR-A
 48
25.0
100
AcDbLine
 10
-8.530350227276699
 20
-29.39999999999998
 30
0.0
 11
-8.530350227276699
 21
-26.5
 31
0.0
  0
LINE
  5
8E
330
2
100
AcDbEntity
  8
GEB-KONTUR-A
 48
25.0
100
AcDbLine
 10
-8.530350227276699
 20
-26.5
 30
0.0
 11
-7.319976530952288
 21
-26.5
 31
0.0
  0
LINE
  5
8F
330
2
100
AcDbEntity
  8
GEB-KONTUR-A
 48
25.0
100
AcDbLine
 10
-6.590936472634723
 20
-29.39999999999998
 30
0.0
 11
-4.924999999999982
 21
-29.39999999999998
 31
0.0
  0
LINE
  5
90
330
2
100
AcDbEntity
  8
GEB-KONTUR-A
 48
25.0
100
AcDbLine
 10
-5.231288745402991
 20
-26.5
 30
0.0
 11
-4.924999999999982
 21
-26.5
 31
0.0
  0
LINE
  5
91
330
2
100
AcDbEntity
  8
GEB-KONTUR-A
 48
25.0
100
AcDbLine
 10
-4.924999999999982
 20
-26.5
 30
0.0
 11
-4.924999999999982
 21
-29.39999999999998
 31
0.0
  0
LINE
  5
92
330
2
100
AcDbEntity
  8
GEB-KONTUR-A
 48
25.0
100
AcDbLine
 10
-6.590936472634723
 20
-29.39999999999998
 30
0.0
 11
-6.590936472634723
 21
-26.5
 31
0.0
  0
LINE
  5
93
330
2
100
AcDbEntity
  8
GEB-KONTUR-A
 48
25.0
100
AcDbLine
 10
-6.590936472634723
 20
-26.5
 30
0.0
 11
-5.231288745402991
 21
-26.5
 31
0.0
  0
LINE
  5
94
330
2
100
AcDbEntity
  8
GEB-KONTUR-A
 48
25.0
100
AcDbLine
 10
-5.231288745402991
 20
-26.5
 30
0.0
 11
-5.231288745402991
 21
-29.39999999999998
 31
0.0
  0
LINE
  5
95
330
2
100
AcDbEntity
  8
GEB-KONTUR-A
 48
25.0
100
AcDbLine
 10
-4.006355934296607
 20
-29.39999999999998
 30
0.0
 11
-2.047930154554876
 21
-29.39999999999998
 31
0.0
  0
LINE
  5
96
330
2
100
AcDbEntity
  8
GEB-KONTUR-A
 48
25.0
100
AcDbLine
 10
-2.750251249937036
 20
-26.5
 30
0.0
 11
-2.047930154554933
 21
-26.5
 31
0.0
  0
LINE
  5
97
330
2
100
AcDbEntity
  8
GEB-KONTUR-A
 48
25.0
100
AcDbLine
 10
-2.047930154554933
 20
-26.5
 30
0.0
 11
-2.047930154554933
 21
-29.39999999999998
 31
0.0
  0
LINE
  5
98
330
2
100
AcDbEntity
  8
GEB-KONTUR-A
 48
25.0
100
AcDbLine
 10
-4.006355934296607
 20
-29.39999999999998
 30
0.0
 11
-4.006355934296607
 21
-26.5
 31
0.0
  0
LINE
  5
99
330
2
100
AcDbEntity
  8
GEB-KONTUR-A
 48
25.0
100
AcDbLine
 10
-4.006355934296607
 20
-26.5
 30
0.0
 11
-2.750251249937036
 21
-26.5
 31
0.0
  0
LINE
  5
9A
330
2
100
AcDbEntity
  8
GEB-KONTUR-A
 48
25.0
100
AcDbLine
 10
-2.750251249937036
 20
-26.5
 30
0.0
 11
-2.750251249937036
 21
-29.39999999999998
 31
0.0
  0
LINE
  5
9B
330
2
100
AcDbEntity
  8
GEB-KONTUR-A
 48
25.0
100
AcDbLine
 10
-1.029605363186362
 20
-29.39999999999998
 30
0.0
 11
1.029605363186391
 21
-29.39999999999998
 31
0.0
  0
LINE
  5
9C
330
2
100
AcDbEntity
  8
GEB-KONTUR-A
 48
25.0
100
AcDbLine
 10
0.0
 20
-26.5
 30
0.0
 11
1.029605363186391
 21
-26.5
 31
0.0
  0
LINE
  5
9D
330
2
100
AcDbEntity
  8
GEB-KONTUR-A
 48
25.0
100
AcDbLine
 10
1.029605363186391
 20
-26.5
 30
0.0
 11
1.029605363186391
 21
-29.39999999999998
 31
0.0
  0
LINE
  5
9E
330
2
100
AcDbEntity
  8
GEB-KONTUR-A
 48
25.0
100
AcDbLine
 10
-1.029605363186362
 20
-29.39999999999998
 30
0.0
 11
-1.029605363186362
 21
-26.5
 31
0.0
  0
LINE
  5
9F
330
2
100
AcDbEntity
  8
GEB-KONTUR-A
 48
25.0
100
AcDbLine
 10
-1.029605363186362
 20
-26.5
 30
0.0
 11
0.0
 21
-26.5
 31
0.0
  0
LINE
  5
A0
330
2
100
AcDbEntity
  8
GEB-KONTUR-A
 48
25.0
100
AcDbLine
 10
0.0
 20
-26.5
 30
0.0
 11
0.0
 21
-29.39999999999998
 31
0.0
  0
LINE
  5
A1
330
2
100
AcDbEntity
  8
GEB-KONTUR-A
 48
25.0
100
AcDbLine
 10
2.047930154554933
 20
-29.39999999999998
 30
0.0
 11
4.006355934296635
 21
-29.39999999999998
 31
0.0
  0
LINE
  5
A2
330
2
100
AcDbEntity
  8
GEB-KONTUR-A
 48
25.0
100
AcDbLine
 10
2.750251249937036
 20
-26.5
 30
0.0
 11
4.006355934296635
 21
-26.5
 31
0.0
  0
LINE
  5
A3
330
2
100
AcDbEntity
  8
GEB-KONTUR-A
 48
25.0
100
AcDbLine
 10
4.006355934296635
 20
-26.5
 30
0.0
 11
4.006355934296635
 21
-29.39999999999998
 31
0.0
  0
LINE
  5
A4
330
2
100
AcDbEntity
  8
GEB-KONTUR-A
 48
25.0
100
AcDbLine
 10
2.047930154554933
 20
-29.39999999999998
 30
0.0
 11
2.047930154554933
 21
-26.5
 31
0.0
  0
LINE
  5
A5
330
2
100
AcDbEntity
  8
GEB-KONTUR-A
 48
25.0
100
AcDbLine
 10
2.047930154554933
 20
-26.5
 30
0.0
 11
2.750251249937036
 21
-26.5
 31
0.0
  0
LINE
  5
A6
330
2
100
AcDbEntity
  8
GEB-KONTUR-A
 48
25.0
100
AcDbLine
 10
2.750251249937036
 20
-26.5
 30
0.0
 11
2.750251249937036
 21
-29.39999999999998
 31
0.0
  0
LINE
  5
A7
330
2
100
AcDbEntity
  8
GEB-KONTUR-A
 48
25.0
100
AcDbLine
 10
4.925000000000011
 20
-29.39999999999998
 30
0.0
 11
6.59093647263478
 21
-29.39999999999998
 31
0.0
  0
LINE
  5
A8
330
2
100
AcDbEntity
  8
GEB-KONTUR-A
 48
25.0
100
AcDbLine
 10
5.231288745403048
 20
-26.5
 30
0.0
 11
6.59093647263478
 21
-26.5
 31
0.0
  0
LINE
  5
A9
330
2
100
AcDbEntity
  8
GEB-KONTUR-A
 48
25.0
100
AcDbLine
 10
6.59093647263478
 20
-26.5
 30
0.0
 11
6.59093647263478
 21
-29.39999999999998
 31
0.0
  0
LINE
  5
AA
330
2
100
AcDbEntity
  8
GEB-KONTUR-A
 48
25.0
100
AcDbLine
 10
4.925000000000011
 20
-29.39999999999998
 30
0.0
 11
4.925000000000011
 21
-26.5
 31
0.0
  0
LINE
  5
AB
330
2
100
AcDbEntity
  8
GEB-KONTUR-A
 48
25.0
100
AcDbLine
 10
4.925000000000011
 20
-26.5
 30
0.0
 11
5.231288745403048
 21
-26.5
 31
0.0
  0
LINE
  5
AC
330
2
100
AcDbEntity
  8
GEB-KONTUR-A
 48
25.0
100
AcDbLine
 10
5.231288745403048
 20
-26.5
 30
0.0
 11
5.231288745403048
 21
-29.39999999999998
 31
0.0
  0
LINE
  5
AD
330
2
100
AcDbEntity
  8
GEB-KONTUR-A
 48
25.0
100
AcDbLine
 10
7.319976530952317
 20
-29.39999999999998
 30
0.0
 11
8.530350227276699
 21
-29.39999999999998
 31
0.0
  0
LINE
  5
AE
330
2
100
AcDbEntity
  8
GEB-KONTUR-A
 48
25.0
100
AcDbLine
 10
7.319976530952317
 20
-26.5
 30
0.0
 11
8.530350227276699
 21
-26.5
 31
0.0
  0
LINE
  5
AF
330
2
100
AcDbEntity
  8
GEB-KONTUR-A
 48
25.0
100
AcDbLine
 10
8.530350227276699
 20
-26.5
 30
0.0
 11
8.530350227276699
 21
-29.39999999999998
 31
0.0
  0
LINE
  5
B0
330
2
100
AcDbEntity
  8
GEB-KONTUR-A
 48
25.0
100
AcDbLine
 10
7.319976530952317
 20
-29.39999999999998
 30
0.0
 11
7.319976530952317
 21
-26.5
 31
0.0
  0
LINE
  5
B1
330
2
100
AcDbEntity
  8
GEB-KONTUR-A
 48
25.0
100
AcDbLine
 10
8.998422757779621
 20
-29.39999999999998
 30
0.0
 11
9.634753867227971
 21
-29.39999999999998
 31
0.0
  0
LINE
  5
B2
330
2
100
AcDbEntity
  8
GEB-KONTUR-A
 48
25.0
100
AcDbLine
 10
8.998422757779621
 20
-26.5
 30
0.0
 11
9.634753867227971
 21
-26.5
 31
0.0
  0
LINE
  5
B3
330
2
100
AcDbEntity
  8
GEB-KONTUR-A
 48
25.0
100
AcDbLine
 10
9.634753867227971
 20
-26.5
 30
0.0
 11
9.634753867227971
 21
-29.39999999999998
 31
0.0
  0
LINE
  5
B4
330
2
100
AcDbEntity
  8
GEB-KONTUR-A
 48
25.0
100
AcDbLine
 10
8.998422757779621
 20
-29.39999999999998
 30
0.0
 11
8.998422757779621
 21
-26.5
 31
0.0
  0
LINE
  5
B5
330
2
100
AcDbEntity
  8
GEB-KONTUR-A
 48
25.0
100
AcDbLine
 10
9.796040669377475
 20
-29.39999999999998
 30
0.0
 11
9.849999999999965
 21
-29.39999999999998
 31
0.0
  0
LINE
  5
B6
330
2
100
AcDbEntity
  8
GEB-KONTUR-A
 48
25.0
100
AcDbLine
 10
9.796040669377475
 20
-29.39999999999998
 30
0.0
 11
9.796040669377475
 21
-26.5
 31
0.0
  0
LINE
  5
B7
330
2
100
AcDbEntity
  8
GEB-VERDECKT
 48
25.0
100
AcDbLine
 10
-9.796040669377447
 20
-29.39999999999998
 30
0.0
 11
-9.634753867227942
 21
-29.39999999999998
 31
0.0
  0
LINE
  5
B8
330
2
100
AcDbEntity
  8
GEB-VERDECKT
 48
25.0
100
AcDbLine
 10
-8.899999999999948
 20
-26.5
 30
0.0
 11
-8.899999999999948
 21
-29.39999999999998
 31
0.0
  0
LINE
  5
B9
330
2
100
AcDbEntity
  8
GEB-VERDECKT
 48
25.0
100
AcDbLine
 10
-8.998422757779593
 20
-29.39999999999998
 30
0.0
 11
-8.530350227276699
 21
-29.39999999999998
 31
0.0
  0
LINE
  5
BA
330
2
100
AcDbEntity
  8
GEB-VERDECKT
 48
25.0
100
AcDbLine
 10
-8.46440299502683
 20
-26.5
 30
0.0
 11
-8.46440299502683
 21
-29.39999999999998
 31
0.0
  0
LINE
  5
BB
330
2
100
AcDbEntity
  8
GEB-VERDECKT
 48
25.0
100
AcDbLine
 10
-7.319976530952288
 20
-29.39999999999998
 30
0.0
 11
-7.200251249936997
 21
-29.39999999999998
 31
0.0
  0
LINE
  5
BC
330
2
100
AcDbEntity
  8
GEB-VERDECKT
 48
25.0
100
AcDbLine
 10
-7.200251249936997
 20
-26.5
 30
0.0
 11
-7.200251249936997
 21
-29.39999999999998
 31
0.0
  0
LINE
  5
BD
330
2
100
AcDbEntity
  8
GEB-VERDECKT
 48
25.0
100
AcDbLine
 10
7.200251249937025
 20
-26.5
 30
0.0
 11
7.200251249937025
 21
-29.39999999999998
 31
0.0
  0
LINE
  5
BE
330
2
100
AcDbEntity
  8
GEB-VERDECKT
 48
25.0
100
AcDbLine
 10
7.200251249937025
 20
-29.39999999999998
 30
0.0
 11
7.319976530952317
 21
-29.39999999999998
 31
0.0
  0
LINE
  5
BF
330
2
100
AcDbEntity
  8
GEB-VERDECKT
 48
25.0
100
AcDbLine
 10
8.464402995026887
 20
-26.5
 30
0.0
 11
8.464402995026887
 21
-29.39999999999998
 31
0.0
  0
LINE
  5
C0
330
2
100
AcDbEntity
  8
GEB-VERDECKT
 48
25.0
100
AcDbLine
 10
8.530350227276699
 20
-29.39999999999998
 30
0.0
 11
8.998422757779621
 21
-29.39999999999998
 31
0.0
  0
LINE
  5
C1
330
2
100
AcDbEntity
  8
GEB-VERDECKT
 48
25.0
100
AcDbLine
 10
8.899999999999977
 20
-26.5
 30
0.0
 11
8.899999999999977
 21
-29.39999999999998
 31
0.0
  0
LINE
  5
C2
330
2
100
AcDbEntity
  8
GEB-VERDECKT
 48
25.0
100
AcDbLine
 10
9.634753867227971
 20
-29.39999999999998
 30
0.0
 11
9.796040669377475
 21
-29.39999999999998
 31
0.0
  0
LINE
  5
C3
330
2
100
AcDbEntity
  8
GEB-KONTUR-A
 48
25.0
100
AcDbLine
 10
8.0
 20
-42.25
 30
0.0
 11
8.0
 21
-39.85000000000002
 31
0.0
  0
LINE
  5
C4
330
2
100
AcDbEntity
  8
GEB-KONTUR-A
 48
25.0
100
AcDbLine
 10
-7.999999999999943
 20
-42.25
 30
0.0
 11
-7.999999999999943
 21
-39.85000000000002
 31
0.0
  0
LINE
  5
C5
330
2
100
AcDbEntity
  8
GEB-KONTUR-A
 48
25.0
100
AcDbLine
 10
9.25
 20
-39.85000000000002
 30
0.0
 11
9.25
 21
-38.35000000000002
 31
0.0
  0
LINE
  5
C6
330
2
100
AcDbEntity
  8
GEB-KONTUR-A
 48
25.0
100
AcDbLine
 10
-9.249999999999943
 20
-39.85000000000002
 30
0.0
 11
-9.249999999999943
 21
-38.35000000000002
 31
0.0
  0
LINE
  5
C7
330
2
100
AcDbEntity
  8
GEB-KONTUR-A
 48
25.0
100
AcDbLine
 10
8.899999999999977
 20
-26.5
 30
0.0
 11
8.899999999999977
 21
-26.45688880404532
 31
0.0
  0
LINE
  5
C8
330
2
100
AcDbEntity
  8
GEB-KONTUR-A
 48
25.0
100
AcDbLine
 10
-8.899999999999948
 20
-26.5
 30
0.0
 11
-8.899999999999948
 21
-26.45688880404532
 31
0.0
  0
LINE
  5
C9
330
2
100
AcDbEntity
  8
GEB-KONTUR-A
 48
25.0
100
AcDbLine
 10
8.899999999999977
 20
-26.45688880404532
 30
0.0
 11
9.5
 21
-25.60000000000002
 31
0.0
  0
LINE
  5
CA
330
2
100
AcDbEntity
  8
GEB-KONTUR-A
 48
25.0
100
AcDbLine
 10
-8.899999999999948
 20
-26.45688880404532
 30
0.0
 11
-9.499999999999971
 21
-25.60000000000002
 31
0.0
  0
LINE
  5
CB
330
2
100
AcDbEntity
  8
GEB-KONTUR-A
 48
25.0
100
AcDbLine
 10
8.899999999999977
 20
-25.60000000000002
 30
0.0
 11
8.899999999999977
 21
-24.95688880404532
 31
0.0
  0
LINE
  5
CC
330
2
100
AcDbEntity
  8
GEB-KONTUR-A
 48
25.0
100
AcDbLine
 10
-8.899999999999948
 20
-25.60000000000002
 30
0.0
 11
-8.899999999999948
 21
-24.95688880404532
 31
0.0
  0
LINE
  5
CD
330
2
100
AcDbEntity
  8
GEB-KONTUR-A
 48
25.0
100
AcDbLine
 10
8.899999999999977
 20
-24.95688880404532
 30
0.0
 11
9.5
 21
-24.10000000000002
 31
0.0
  0
LINE
  5
CE
330
2
100
AcDbEntity
  8
GEB-KONTUR-A
 48
25.0
100
AcDbLine
 10
-8.899999999999948
 20
-24.95688880404532
 30
0.0
 11
-9.499999999999971
 21
-24.10000000000002
 31
0.0
  0
LINE
  5
CF
330
2
100
AcDbEntity
  8
GEB-KONTUR-A
 48
25.0
100
AcDbLine
 10
9.199999999999988
 20
-24.10000000000002
 30
0.0
 11
9.199999999999988
 21
-22.0
 31
0.0
  0
LINE
  5
D0
330
2
100
AcDbEntity
  8
GEB-KONTUR-A
 48
25.0
100
AcDbLine
 10
-9.19999999999996
 20
-24.10000000000002
 30
0.0
 11
-9.19999999999996
 21
-22.0
 31
0.0
  0
ARC
  5
D1
330
2
100
AcDbEntity
  8
GEB-KONTUR-A
 48
25.0
100
AcDbCircle
 10
-9.161706186112127
 20
-54.60000000000002
 30
0.0
 40
0.3999999999999999
100
AcDbArc
 50
189.9999999999986
 51
270.0
  0
ARC
  5
D2
330
2
100
AcDbEntity
  8
GEB-KONTUR-A
 48
25.0
100
AcDbCircle
 10
9.161706186112155
 20
-54.60000000000002
 30
0.0
 40
0.3999999999999999
100
AcDbArc
 50
270.0
 51
350.0000000000014
  0
LINE
  5
D3
330
2
100
AcDbEntity
  8
GEB-KONTUR-A
 48
25.0
100
AcDbLine
 10
9.55562928731706
 20
-54.66945927106678
 30
0.0
 11
9.850000000000022
 21
-53.0
 31
0.0
  0
LINE
  5
D4
330
2
100
AcDbEntity
  8
GEB-KONTUR-A
 48
25.0
100
AcDbLine
 10
-9.555629287317003
 20
-54.66945927106678
 30
0.0
 11
-9.849999999999965
 21
-53.0
 31
0.0
  0
LINE
  5
D5
330
2
100
AcDbEntity
  8
GEB-KONTUR-A
 48
25.0
100
AcDbLine
 10
9.850000000000022
 20
-47.16672149182136
 30
0.0
 11
9.850000000000022
 21
-43.75
 31
0.0
  0
LINE
  5
D6
330
2
100
AcDbEntity
  8
GEB-KONTUR-A
 48
25.0
100
AcDbLine
 10
-9.849999999999965
 20
-47.16672149182136
 30
0.0
 11
-9.849999999999965
 21
-43.75
 31
0.0
  0
LINE
  5
D7
330
2
100
AcDbEntity
  8
GEB-KONTUR-A
 48
25.0
100
AcDbLine
 10
9.25
 20
-43.75
 30
0.0
 11
9.25
 21
-42.25
 31
0.0
  0
LINE
  5
D8
330
2
100
AcDbEntity
  8
GEB-KONTUR-A
 48
25.0
100
AcDbLine
 10
-9.249999999999943
 20
-43.75
 30
0.0
 11
-9.249999999999943
 21
-42.25
 31
0.0
  0
LINE
  5
D9
330
2
100
AcDbEntity
  8
GEB-KONTUR-A
 48
25.0
100
AcDbLine
 10
9.850000000000022
 20
-33.80000000000007
 30
0.0
 11
9.850000000000022
 21
-29.39999999999998
 31
0.0
  0
LINE
  5
DA
330
2
100
AcDbEntity
  8
GEB-KONTUR-A
 48
25.0
100
AcDbLine
 10
9.850000000000022
 20
-38.35000000000002
 30
0.0
 11
9.850000000000022
 21
-36.70000000000005
 31
0.0
  0
LINE
  5
DB
330
2
100
AcDbEntity
  8
GEB-KONTUR-A
 48
25.0
100
AcDbLine
 10
-9.849999999999965
 20
-33.80000000000007
 30
0.0
 11
-9.849999999999965
 21
-29.39999999999998
 31
0.0
  0
LINE
  5
DC
330
2
100
AcDbEntity
  8
GEB-KONTUR-A
 48
25.0
100
AcDbLine
 10
-9.849999999999965
 20
-38.35000000000002
 30
0.0
 11
-9.849999999999965
 21
-36.70000000000005
 31
0.0
  0
LINE
  5
DD
330
2
100
AcDbEntity
  8
GEB-KONTUR-A
 48
25.0
100
AcDbLine
 10
9.850000000000022
 20
-53.0
 30
0.0
 11
9.850000000000022
 21
-52.23327850817873
 31
0.0
  0
LINE
  5
DE
330
2
100
AcDbEntity
  8
GEB-KONTUR-A
 48
25.0
100
AcDbLine
 10
-9.849999999999965
 20
-53.0
 30
0.0
 11
-9.849999999999965
 21
-52.23327850817873
 31
0.0
  0
LINE
  5
DF
330
2
100
AcDbEntity
  8
GEB-KONTUR-A
 48
25.0
100
AcDbLine
 10
9.25
 20
-39.85000000000002
 30
0.0
 11
-9.249999999999943
 21
-39.85000000000002
 31
0.0
  0
LINE
  5
E0
330
2
100
AcDbEntity
  8
GEB-KONTUR-A
 48
25.0
100
AcDbLine
 10
8.899999999999977
 20
-26.45688880404532
 30
0.0
 11
-8.899999999999948
 21
-26.45688880404532
 31
0.0
  0
LINE
  5
E1
330
2
100
AcDbEntity
  8
GEB-KONTUR-A
 48
25.0
100
AcDbLine
 10
9.5
 20
-25.60000000000002
 30
0.0
 11
-9.499999999999971
 21
-25.60000000000002
 31
0.0
  0
LINE
  5
E2
330
2
100
AcDbEntity
  8
GEB-KONTUR-A
 48
25.0
100
AcDbLine
 10
8.899999999999977
 20
-24.95688880404532
 30
0.0
 11
-8.899999999999948
 21
-24.95688880404532
 31
0.0
  0
LINE
  5
E3
330
2
100
AcDbEntity
  8
GEB-KONTUR-A
 48
25.0
100
AcDbLine
 10
9.5
 20
-24.10000000000002
 30
0.0
 11
-9.499999999999971
 21
-24.10000000000002
 31
0.0
  0
LINE
  5
E4
330
2
100
AcDbEntity
  8
GEB-KONTUR-A
 48
25.0
100
AcDbLine
 10
-9.161706186112127
 20
-55.0
 30
0.0
 11
9.161706186112155
 21
-55.0
 31
0.0
  0
LINE
  5
E5
330
2
100
AcDbEntity
  8
GEB-KONTUR-A
 48
25.0
100
AcDbLine
 10
9.849999999999965
 20
-43.75
 30
0.0
 11
-9.849999999999937
 21
-43.75
 31
0.0
  0
LINE
  5
E6
330
2
100
AcDbEntity
  8
GEB-KONTUR-A
 48
25.0
100
AcDbLine
 10
9.25
 20
-42.25
 30
0.0
 11
-9.249999999999943
 21
-42.25
 31
0.0
  0
LINE
  5
E7
330
2
100
AcDbEntity
  8
GEB-KONTUR-A
 48
25.0
100
AcDbLine
 10
9.849999999999965
 20
-38.35000000000002
 30
0.0
 11
-9.849999999999937
 21
-38.35000000000002
 31
0.0
  0
LINE
  5
E8
330
2
100
AcDbEntity
  8
GEB-KONTUR-A
 48
25.0
100
AcDbLine
 10
-9.634753867227942
 20
-26.5
 30
0.0
 11
-9.796040669377447
 21
-26.5
 31
0.0
  0
LINE
  5
E9
330
2
100
AcDbEntity
  8
GEB-KONTUR-A
 48
25.0
100
AcDbLine
 10
-8.530350227276699
 20
-26.5
 30
0.0
 11
-8.998422757779593
 21
-26.5
 31
0.0
  0
LINE
  5
EA
330
2
100
AcDbEntity
  8
GEB-KONTUR-A
 48
25.0
100
AcDbLine
 10
-6.59093647263478
 20
-26.5
 30
0.0
 11
-7.319976530952288
 21
-26.5
 31
0.0
  0
LINE
  5
EB
330
2
100
AcDbEntity
  8
GEB-KONTUR-A
 48
25.0
100
AcDbLine
 10
-4.006355934296607
 20
-26.5
 30
0.0
 11
-4.924999999999982
 21
-26.5
 31
0.0
  0
LINE
  5
EC
330
2
100
AcDbEntity
  8
GEB-KONTUR-A
 48
25.0
100
AcDbLine
 10
-1.029605363186362
 20
-26.5
 30
0.0
 11
-2.047930154554876
 21
-26.5
 31
0.0
  0
LINE
  5
ED
330
2
100
AcDbEntity
  8
GEB-KONTUR-A
 48
25.0
100
AcDbLine
 10
2.047930154554904
 20
-26.5
 30
0.0
 11
1.029605363186391
 21
-26.5
 31
0.0
  0
LINE
  5
EE
330
2
100
AcDbEntity
  8
GEB-KONTUR-A
 48
25.0
100
AcDbLine
 10
4.925000000000011
 20
-26.5
 30
0.0
 11
4.006355934296635
 21
-26.5
 31
0.0
  0
LINE
  5
EF
330
2
100
AcDbEntity
  8
GEB-KONTUR-A
 48
25.0
100
AcDbLine
 10
7.319976530952317
 20
-26.5
 30
0.0
 11
6.59093647263478
 21
-26.5
 31
0.0
  0
LINE
  5
F0
330
2
100
AcDbEntity
  8
GEB-KONTUR-A
 48
25.0
100
AcDbLine
 10
8.998422757779565
 20
-26.5
 30
0.0
 11
8.530350227276699
 21
-26.5
 31
0.0
  0
LINE
  5
F1
330
2
100
AcDbEntity
  8
GEB-KONTUR-A
 48
25.0
100
AcDbLine
 10
9.796040669377532
 20
-26.5
 30
0.0
 11
9.634753867227971
 21
-26.5
 31
0.0
  0
LINE
  5
F2
330
2
100
AcDbEntity
  8
GEB-KONTUR-A
 48
25.0
100
AcDbLine
 10
9.849999999999965
 20
-53.0
 30
0.0
 11
-9.849999999999937
 21
-53.0
 31
0.0
  0
ARC
  5
F3
330
2
100
AcDbEntity
  8
GEB-KONTUR-A
 48
25.0
100
AcDbCircle
 10
-13.19999999999996
 20
-49.70000000000005
 30
0.0
 40
4.199999999999995
100
AcDbArc
 50
322.9033358910411
 51
37.09666410895893
  0
ARC
  5
F4
330
2
100
AcDbEntity
  8
GEB-KONTUR-A
 48
25.0
100
AcDbCircle
 10
13.19999999999999
 20
-49.70000000000005
 30
0.0
 40
4.199999999999995
100
AcDbArc
 50
142.9033358910411
 51
217.0966641089589
  0
LINE
  5
F5
330
2
100
AcDbEntity
  8
GEB-KONTUR-A
 48
25.0
100
AcDbLine
 10
-9.849999999999937
 20
-52.23327850817873
 30
0.0
 11
9.849999999999965
 21
-52.23327850817873
 31
0.0
  0
LINE
  5
F6
330
2
100
AcDbEntity
  8
GEB-KONTUR-A
 48
25.0
100
AcDbLine
 10
9.849999999999965
 20
-47.16672149182136
 30
0.0
 11
-9.849999999999937
 21
-47.16672149182136
 31
0.0
  0
LINE
  5
F7
330
2
100
AcDbEntity
  8
GEB-KONTUR-A
 48
25.0
100
AcDbLine
 10
-9.849999999999937
 20
-36.70000000000005
 30
0.0
 11
-9.796040669377447
 21
-36.70000000000005
 31
0.0
  0
LINE
  5
F8
330
2
100
AcDbEntity
  8
GEB-KONTUR-A
 48
25.0
100
AcDbLine
 10
-9.796040669377447
 20
-33.80000000000007
 30
0.0
 11
-9.849999999999937
 21
-33.80000000000007
 31
0.0
  0
LINE
  5
F9
330
2
100
AcDbEntity
  8
GEB-KONTUR-A
 48
25.0
100
AcDbLine
 10
-9.796040669377447
 20
-33.80000000000007
 30
0.0
 11
-9.796040669377447
 21
-36.70000000000005
 31
0.0
  0
LINE
  5
FA
330
2
100
AcDbEntity
  8
GEB-KONTUR-A
 48
25.0
100
AcDbLine
 10
-9.634753867227942
 20
-36.70000000000005
 30
0.0
 11
-8.998422757779593
 21
-36.70000000000005
 31
0.0
  0
LINE
  5
FB
330
2
100
AcDbEntity
  8
GEB-KONTUR-A
 48
25.0
100
AcDbLine
 10
-8.998422757779593
 20
-33.80000000000007
 30
0.0
 11
-9.634753867227942
 21
-33.80000000000007
 31
0.0
  0
LINE
  5
FC
330
2
100
AcDbEntity
  8
GEB-KONTUR-A
 48
25.0
100
AcDbLine
 10
-8.998422757779593
 20
-33.80000000000007
 30
0.0
 11
-8.998422757779593
 21
-36.70000000000005
 31
0.0
  0
LINE
  5
FD
330
2
100
AcDbEntity
  8
GEB-KONTUR-A
 48
25.0
100
AcDbLine
 10
-9.634753867227942
 20
-36.70000000000005
 30
0.0
 11
-9.634753867227942
 21
-33.80000000000007
 31
0.0
  0
LINE
  5
FE
330
2
100
AcDbEntity
  8
GEB-KONTUR-A
 48
25.0
100
AcDbLine
 10
-8.530350227276699
 20
-36.70000000000005
 30
0.0
 11
-7.319976530952317
 21
-36.70000000000005
 31
0.0
  0
LINE
  5
FF
330
2
100
AcDbEntity
  8
GEB-KONTUR-A
 48
25.0
100
AcDbLine
 10
-7.319976530952288
 20
-33.80000000000007
 30
0.0
 11
-8.530350227276699
 21
-33.80000000000007
 31
0.0
  0
LINE
  5
100
330
2
100
AcDbEntity
  8
GEB-KONTUR-A
 48
25.0
100
AcDbLine
 10
-7.319976530952288
 20
-33.80000000000007
 30
0.0
 11
-7.319976530952288
 21
-36.70000000000005
 31
0.0
  0
LINE
  5
101
330
2
100
AcDbEntity
  8
GEB-KONTUR-A
 48
25.0
100
AcDbLine
 10
-8.530350227276699
 20
-36.70000000000005
 30
0.0
 11
-8.530350227276699
 21
-33.80000000000007
 31
0.0
  0
LINE
  5
102
330
2
100
AcDbEntity
  8
GEB-KONTUR-A
 48
25.0
100
AcDbLine
 10
-6.590936472634723
 20
-36.70000000000005
 30
0.0
 11
-4.924999999999982
 21
-36.70000000000005
 31
0.0
  0
LINE
  5
103
330
2
100
AcDbEntity
  8
GEB-KONTUR-A
 48
25.0
100
AcDbLine
 10
-4.924999999999982
 20
-33.80000000000007
 30
0.0
 11
-6.590936472634723
 21
-33.80000000000007
 31
0.0
  0
LINE
  5
104
330
2
100
AcDbEntity
  8
GEB-KONTUR-A
 48
25.0
100
AcDbLine
 10
-4.924999999999982
 20
-33.80000000000007
 30
0.0
 11
-4.924999999999982
 21
-36.70000000000005
 31
0.0
  0
LINE
  5
105
330
2
100
AcDbEntity
  8
GEB-KONTUR-A
 48
25.0
100
AcDbLine
 10
-6.590936472634723
 20
-36.70000000000005
 30
0.0
 11
-6.590936472634723
 21
-33.80000000000007
 31
0.0
  0
LINE
  5
106
330
2
100
AcDbEntity
  8
GEB-KONTUR-A
 48
25.0
100
AcDbLine
 10
-5.231288745402991
 20
-33.80000000000007
 30
0.0
 11
-5.231288745402991
 21
-36.70000000000005
 31
0.0
  0
LINE
  5
107
330
2
100
AcDbEntity
  8
GEB-KONTUR-A
 48
25.0
100
AcDbLine
 10
-4.006355934296607
 20
-36.70000000000005
 30
0.0
 11
-2.047930154554933
 21
-36.70000000000005
 31
0.0
  0
LINE
  5
108
330
2
100
AcDbEntity
  8
GEB-KONTUR-A
 48
25.0
100
AcDbLine
 10
-2.047930154554933
 20
-33.80000000000007
 30
0.0
 11
-4.006355934296607
 21
-33.80000000000007
 31
0.0
  0
LINE
  5
109
330
2
100
AcDbEntity
  8
GEB-KONTUR-A
 48
25.0
100
AcDbLine
 10
-2.047930154554933
 20
-33.80000000000007
 30
0.0
 11
-2.047930154554933
 21
-36.70000000000005
 31
0.0
  0
LINE
  5
10A
330
2
100
AcDbEntity
  8
GEB-KONTUR-A
 48
25.0
100
AcDbLine
 10
-4.006355934296607
 20
-36.70000000000005
 30
0.0
 11
-4.006355934296607
 21
-33.80000000000007
 31
0.0
  0
LINE
  5
10B
330
2
100
AcDbEntity
  8
GEB-KONTUR-A
 48
25.0
100
AcDbLine
 10
-2.750251249937036
 20
-33.80000000000007
 30
0.0
 11
-2.750251249937036
 21
-36.70000000000005
 31
0.0
  0
LINE
  5
10C
330
2
100
AcDbEntity
  8
GEB-KONTUR-A
 48
25.0
100
AcDbLine
 10
-1.029605363186362
 20
-36.70000000000005
 30
0.0
 11
1.029605363186391
 21
-36.70000000000005
 31
0.0
  0
LINE
  5
10D
330
2
100
AcDbEntity
  8
GEB-KONTUR-A
 48
25.0
100
AcDbLine
 10
1.029605363186391
 20
-33.80000000000007
 30
0.0
 11
-1.029605363186362
 21
-33.80000000000007
 31
0.0
  0
LINE
  5
10E
330
2
100
AcDbEntity
  8
GEB-KONTUR-A
 48
25.0
100
AcDbLine
 10
1.029605363186391
 20
-33.80000000000007
 30
0.0
 11
1.029605363186391
 21
-36.70000000000005
 31
0.0
  0
LINE
  5
10F
330
2
100
AcDbEntity
  8
GEB-KONTUR-A
 48
25.0
100
AcDbLine
 10
-1.029605363186362
 20
-36.70000000000005
 30
0.0
 11
-1.029605363186362
 21
-33.80000000000007
 31
0.0
  0
LINE
  5
110
330
2
100
AcDbEntity
  8
GEB-KONTUR-A
 48
25.0
100
AcDbLine
 10
0.0
 20
-33.80000000000007
 30
0.0
 11
0.0
 21
-36.70000000000005
 31
0.0
  0
LINE
  5
111
330
2
100
AcDbEntity
  8
GEB-KONTUR-A
 48
25.0
100
AcDbLine
 10
2.047930154554933
 20
-36.70000000000005
 30
0.0
 11
4.006355934296635
 21
-36.70000000000005
 31
0.0
  0
LINE
  5
112
330
2
100
AcDbEntity
  8
GEB-KONTUR-A
 48
25.0
100
AcDbLine
 10
4.006355934296635
 20
-33.80000000000007
 30
0.0
 11
2.047930154554933
 21
-33.80000000000007
 31
0.0
  0
LINE
  5
113
330
2
100
AcDbEntity
  8
GEB-KONTUR-A
 48
25.0
100
AcDbLine
 10
4.006355934296635
 20
-33.80000000000007
 30
0.0
 11
4.006355934296635
 21
-36.70000000000005
 31
0.0
  0
LINE
  5
114
330
2
100
AcDbEntity
  8
GEB-KONTUR-A
 48
25.0
100
AcDbLine
 10
2.047930154554933
 20
-36.70000000000005
 30
0.0
 11
2.047930154554933
 21
-33.80000000000007
 31
0.0
  0
LINE
  5
115
330
2
100
AcDbEntity
  8
GEB-KONTUR-A
 48
25.0
100
AcDbLine
 10
2.750251249937036
 20
-33.80000000000007
 30
0.0
 11
2.750251249937036
 21
-36.70000000000005
 31
0.0
  0
LINE
  5
116
330
2
100
AcDbEntity
  8
GEB-KONTUR-A
 48
25.0
100
AcDbLine
 10
4.925000000000011
 20
-36.70000000000005
 30
0.0
 11
6.59093647263478
 21
-36.70000000000005
 31
0.0
  0
LINE
  5
117
330
2
100
AcDbEntity
  8
GEB-KONTUR-A
 48
25.0
100
AcDbLine
 10
6.59093647263478
 20
-33.80000000000007
 30
0.0
 11
4.925000000000011
 21
-33.80000000000007
 31
0.0
  0
LINE
  5
118
330
2
100
AcDbEntity
  8
GEB-KONTUR-A
 48
25.0
100
AcDbLine
 10
6.59093647263478
 20
-33.80000000000007
 30
0.0
 11
6.59093647263478
 21
-36.70000000000005
 31
0.0
  0
LINE
  5
119
330
2
100
AcDbEntity
  8
GEB-KONTUR-A
 48
25.0
100
AcDbLine
 10
4.925000000000011
 20
-36.70000000000005
 30
0.0
 11
4.925000000000011
 21
-33.80000000000007
 31
0.0
  0
LINE
  5
11A
330
2
100
AcDbEntity
  8
GEB-KONTUR-A
 48
25.0
100
AcDbLine
 10
5.231288745403048
 20
-33.80000000000007
 30
0.0
 11
5.231288745403048
 21
-36.70000000000005
 31
0.0
  0
LINE
  5
11B
330
2
100
AcDbEntity
  8
GEB-KONTUR-A
 48
25.0
100
AcDbLine
 10
7.319976530952317
 20
-36.70000000000005
 30
0.0
 11
8.530350227276699
 21
-36.70000000000005
 31
0.0
  0
LINE
  5
11C
330
2
100
AcDbEntity
  8
GEB-KONTUR-A
 48
25.0
100
AcDbLine
 10
8.530350227276699
 20
-33.80000000000007
 30
0.0
 11
7.319976530952317
 21
-33.80000000000007
 31
0.0
  0
LINE
  5
11D
330
2
100
AcDbEntity
  8
GEB-KONTUR-A
 48
25.0
100
AcDbLine
 10
8.530350227276699
 20
-33.80000000000007
 30
0.0
 11
8.530350227276699
 21
-36.70000000000005
 31
0.0
  0
LINE
  5
11E
330
2
100
AcDbEntity
  8
GEB-KONTUR-A
 48
25.0
100
AcDbLine
 10
7.319976530952317
 20
-36.70000000000005
 30
0.0
 11
7.319976530952317
 21
-33.80000000000007
 31
0.0
  0
LINE
  5
11F
330
2
100
AcDbEntity
  8
GEB-KONTUR-A
 48
25.0
100
AcDbLine
 10
8.998422757779621
 20
-36.70000000000005
 30
0.0
 11
9.634753867227971
 21
-36.70000000000005
 31
0.0
  0
LINE
  5
120
330
2
100
AcDbEntity
  8
GEB-KONTUR-A
 48
25.0
100
AcDbLine
 10
9.634753867227971
 20
-33.80000000000007
 30
0.0
 11
8.998422757779621
 21
-33.80000000000007
 31
0.0
  0
LINE
  5
121
330
2
100
AcDbEntity
  8
GEB-KONTUR-A
 48
25.0
100
AcDbLine
 10
9.634753867227971
 20
-33.80000000000007
 30
0.0
 11
9.634753867227971
 21
-36.70000000000005
 31
0.0
  0
LINE
  5
122
330
2
100
AcDbEntity
  8
GEB-KONTUR-A
 48
25.0
100
AcDbLine
 10
8.998422757779621
 20
-36.70000000000005
 30
0.0
 11
8.998422757779621
 21
-33.80000000000007
 31
0.0
  0
LINE
  5
123
330
2
100
AcDbEntity
  8
GEB-KONTUR-A
 48
25.0
100
AcDbLine
 10
9.796040669377475
 20
-36.70000000000005
 30
0.0
 11
9.849999999999965
 21
-36.70000000000005
 31
0.0
  0
LINE
  5
124
330
2
100
AcDbEntity
  8
GEB-KONTUR-A
 48
25.0
100
AcDbLine
 10
9.849999999999965
 20
-33.80000000000007
 30
0.0
 11
9.796040669377475
 21
-33.80000000000007
 31
0.0
  0
LINE
  5
125
330
2
100
AcDbEntity
  8
GEB-KONTUR-A
 48
25.0
100
AcDbLine
 10
9.796040669377475
 20
-36.70000000000005
 30
0.0
 11
9.796040669377475
 21
-33.80000000000007
 31
0.0
  0
LINE
  5
126
330
2
100
AcDbEntity
  8
GEB-VERDECKT
 48
25.0
100
AcDbLine
 10
-9.634753867227942
 20
-33.80000000000007
 30
0.0
 11
-9.796040669377447
 21
-33.80000000000007
 31
0.0
  0
LINE
  5
127
330
2
100
AcDbEntity
  8
GEB-VERDECKT
 48
25.0
100
AcDbLine
 10
-9.796040669377447
 20
-36.70000000000005
 30
0.0
 11
-9.634753867227942
 21
-36.70000000000005
 31
0.0
  0
LINE
  5
128
330
2
100
AcDbEntity
  8
GEB-VERDECKT
 48
25.0
100
AcDbLine
 10
-8.899999999999948
 20
-33.80000000000007
 30
0.0
 11
-8.899999999999948
 21
-36.70000000000005
 31
0.0
  0
LINE
  5
129
330
2
100
AcDbEntity
  8
GEB-VERDECKT
 48
25.0
100
AcDbLine
 10
-8.530350227276699
 20
-33.80000000000007
 30
0.0
 11
-8.998422757779593
 21
-33.80000000000007
 31
0.0
  0
LINE
  5
12A
330
2
100
AcDbEntity
  8
GEB-VERDECKT
 48
25.0
100
AcDbLine
 10
-8.998422757779593
 20
-36.70000000000005
 30
0.0
 11
-8.530350227276699
 21
-36.70000000000005
 31
0.0
  0
LINE
  5
12B
330
2
100
AcDbEntity
  8
GEB-VERDECKT
 48
25.0
100
AcDbLine
 10
-8.46440299502683
 20
-33.80000000000007
 30
0.0
 11
-8.46440299502683
 21
-36.70000000000005
 31
0.0
  0
LINE
  5
12C
330
2
100
AcDbEntity
  8
GEB-VERDECKT
 48
25.0
100
AcDbLine
 10
-7.200251249936997
 20
-33.80000000000007
 30
0.0
 11
-7.319976530952288
 21
-33.80000000000007
 31
0.0
  0
LINE
  5
12D
330
2
100
AcDbEntity
  8
GEB-VERDECKT
 48
25.0
100
AcDbLine
 10
-7.319976530952288
 20
-36.70000000000005
 30
0.0
 11
-7.200251249936997
 21
-36.70000000000005
 31
0.0
  0
LINE
  5
12E
330
2
100
AcDbEntity
  8
GEB-VERDECKT
 48
25.0
100
AcDbLine
 10
-7.200251249936997
 20
-33.80000000000007
 30
0.0
 11
-7.200251249936997
 21
-36.70000000000005
 31
0.0
  0
LINE
  5
12F
330
2
100
AcDbEntity
  8
GEB-VERDECKT
 48
25.0
100
AcDbLine
 10
7.319976530952317
 20
-33.80000000000007
 30
0.0
 11
7.200251249937025
 21
-33.80000000000007
 31
0.0
  0
LINE
  5
130
330
2
100
AcDbEntity
  8
GEB-VERDECKT
 48
25.0
100
AcDbLine
 10
7.200251249937025
 20
-33.80000000000007
 30
0.0
 11
7.200251249937025
 21
-36.70000000000005
 31
0.0
  0
LINE
  5
131
330
2
100
AcDbEntity
  8
GEB-VERDECKT
 48
25.0
100
AcDbLine
 10
7.200251249937025
 20
-36.70000000000005
 30
0.0
 11
7.319976530952317
 21
-36.70000000000005
 31
0.0
  0
LINE
  5
132
330
2
100
AcDbEntity
  8
GEB-VERDECKT
 48
25.0
100
AcDbLine
 10
8.998422757779621
 20
-33.80000000000007
 30
0.0
 11
8.530350227276699
 21
-33.80000000000007
 31
0.0
  0
LINE
  5
133
330
2
100
AcDbEntity
  8
GEB-VERDECKT
 48
25.0
100
AcDbLine
 10
8.464402995026887
 20
-33.80000000000007
 30
0.0
 11
8.464402995026887
 21
-36.70000000000005
 31
0.0
  0
LINE
  5
134
330
2
100
AcDbEntity
  8
GEB-VERDECKT
 48
25.0
100
AcDbLine
 10
8.530350227276699
 20
-36.70000000000005
 30
0.0
 11
8.998422757779621
 21
-36.70000000000005
 31
0.0
  0
LINE
  5
135
330
2
100
AcDbEntity
  8
GEB-VERDECKT
 48
25.0
100
AcDbLine
 10
9.796040669377475
 20
-33.80000000000007
 30
0.0
 11
9.634753867227971
 21
-33.80000000000007
 31
0.0
  0
LINE
  5
136
330
2
100
AcDbEntity
  8
GEB-VERDECKT
 48
25.0
100
AcDbLine
 10
8.899999999999977
 20
-33.80000000000007
 30
0.0
 11
8.899999999999977
 21
-36.70000000000005
 31
0.0
  0
LINE
  5
137
330
2
100
AcDbEntity
  8
GEB-VERDECKT
 48
25.0
100
AcDbLine
 10
9.634753867227971
 20
-36.70000000000005
 30
0.0
 11
9.796040669377475
 21
-36.70000000000005
 31
0.0
  0
ARC
  5
138
330
2
100
AcDbEntity
  8
GEB-VERDECKT
 48
25.0
100
AcDbCircle
 10
-55.99999999999997
 20
-6.21954981558872
 30
0.0
 40
0.4999999999999994
100
AcDbArc
 50
99.99999999999861
 51
180.0
  0
ARC
  5
139
330
2
100
AcDbEntity
  8
GEB-VERDECKT
 48
25.0
100
AcDbCircle
 10
-55.99999999999997
 20
6.219549815588607
 30
0.0
 40
0.4999999999999994
100
AcDbArc
 50
180.0
 51
260.0000000000014
  0
LINE
  5
13A
330
2
100
AcDbEntity
  8
GEB-VERDECKT
 48
25.0
100
AcDbLine
 10
-28.0
 20
4.699999999999931
 30
0.0
 11
-50.2615899984205
 21
4.699999999999931
 31
0.0
  0
LINE
  5
13B
330
2
100
AcDbEntity
  8
GEB-VERDECKT
 48
25.0
100
AcDbLine
 10
-28.0
 20
-4.700000000000045
 30
0.0
 11
-50.2615899984205
 21
-4.700000000000045
 31
0.0
  0
LINE
  5
13C
330
2
100
AcDbEntity
  8
GEB-VERDECKT
 48
25.0
100
AcDbLine
 10
-50.2615899984205
 20
4.699999999999931
 30
0.0
 11
-56.08682408883345
 21
5.727145939082561
 31
0.0
  0
LINE
  5
13D
330
2
100
AcDbEntity
  8
GEB-VERDECKT
 48
25.0
100
AcDbLine
 10
-50.2615899984205
 20
-4.700000000000045
 30
0.0
 11
-56.08682408883345
 21
-5.727145939082561
 31
0.0
  0
LINE
  5
13E
330
2
100
AcDbEntity
  8
GEB-VERDECKT
 48
25.0
100
AcDbLine
 10
-50.2615899984205
 20
4.699999999999931
 30
0.0
 11
-50.2615899984205
 21
-4.700000000000045
 31
0.0
  0
LINE
  5
13F
330
2
100
AcDbEntity
  8
GEB-VERDECKT
 48
25.0
100
AcDbLine
 10
-34.90000000000001
 20
7.309735930956776
 30
0.0
 11
-34.90000000000001
 21
7.189384865393435
 31
0.0
  0
LINE
  5
140
330
2
100
AcDbEntity
  8
GEB-VERDECKT
 48
25.0
100
AcDbLine
 10
-32.5
 20
6.65000000000009
 30
0.0
 11
-34.90000000000001
 21
6.65000000000009
 31
0.0
  0
LINE
  5
141
330
2
100
AcDbEntity
  8
GEB-KONTUR-A
 48
25.0
100
AcDbLine
 10
-34.90000000000001
 20
7.349999999999909
 30
0.0
 11
-34.90000000000001
 21
7.309735930956776
 31
0.0
  0
LINE
  5
142
330
2
100
AcDbEntity
  8
GEB-KONTUR-A
 48
25.0
100
AcDbLine
 10
-32.5
 20
7.309735930956776
 30
0.0
 11
-34.90000000000001
 21
7.309735930956776
 31
0.0
  0
LINE
  5
143
330
2
100
AcDbEntity
  8
GEB-KONTUR-A
 48
25.0
100
AcDbLine
 10
-34.90000000000001
 20
7.189384865393435
 30
0.0
 11
-34.90000000000001
 21
6.714559113672976
 31
0.0
  0
LINE
  5
144
330
2
100
AcDbEntity
  8
GEB-KONTUR-A
 48
25.0
100
AcDbLine
 10
-32.5
 20
6.714559113673203
 30
0.0
 11
-34.90000000000001
 21
6.714559113673203
 31
0.0
  0
LINE
  5
145
330
2
100
AcDbEntity
  8
GEB-KONTUR-A
 48
25.0
100
AcDbLine
 10
-34.90000000000001
 20
7.189384865393435
 30
0.0
 11
-32.5
 21
7.189384865393435
 31
0.0
  0
LINE
  5
146
330
2
100
AcDbEntity
  8
GEB-KONTUR-A
 48
25.0
100
AcDbLine
 10
-32.5
 20
7.189384865393435
 30
0.0
 11
-32.5
 21
6.714559113673203
 31
0.0
  0
LINE
  5
147
330
2
100
AcDbEntity
  8
GEB-KONTUR-A
 48
25.0
100
AcDbLine
 10
-34.90000000000001
 20
6.365286717815706
 30
0.0
 11
-34.90000000000001
 21
5.462114467258857
 31
0.0
  0
LINE
  5
148
330
2
100
AcDbEntity
  8
GEB-KONTUR-A
 48
25.0
100
AcDbLine
 10
-32.5
 20
5.462114467258743
 30
0.0
 11
-34.90000000000001
 21
5.462114467258743
 31
0.0
  0
LINE
  5
149
330
2
100
AcDbEntity
  8
GEB-KONTUR-A
 48
25.0
100
AcDbLine
 10
-34.90000000000001
 20
6.365286717815592
 30
0.0
 11
-32.5
 21
6.365286717815592
 31
0.0
  0
LINE
  5
14A
330
2
100
AcDbEntity
  8
GEB-KONTUR-A
 48
25.0
100
AcDbLine
 10
-32.5
 20
6.365286717815592
 30
0.0
 11
-32.5
 21
5.462114467258743
 31
0.0
  0
LINE
  5
14B
330
2
100
AcDbEntity
  8
GEB-KONTUR-A
 48
25.0
100
AcDbLine
 10
-34.90000000000001
 20
4.918109956737566
 30
0.0
 11
-34.90000000000001
 21
3.675000000000068
 31
0.0
  0
LINE
  5
14C
330
2
100
AcDbEntity
  8
GEB-KONTUR-A
 48
25.0
100
AcDbLine
 10
-32.5
 20
3.908771927744965
 30
0.0
 11
-32.5
 21
3.674999999999954
 31
0.0
  0
LINE
  5
14D
330
2
100
AcDbEntity
  8
GEB-KONTUR-A
 48
25.0
100
AcDbLine
 10
-32.5
 20
3.674999999999954
 30
0.0
 11
-34.90000000000001
 21
3.674999999999954
 31
0.0
  0
LINE
  5
14E
330
2
100
AcDbEntity
  8
GEB-KONTUR-A
 48
25.0
100
AcDbLine
 10
-34.90000000000001
 20
4.918109956737566
 30
0.0
 11
-32.5
 21
4.918109956737566
 31
0.0
  0
LINE
  5
14F
330
2
100
AcDbEntity
  8
GEB-KONTUR-A
 48
25.0
100
AcDbLine
 10
-32.5
 20
4.918109956737566
 30
0.0
 11
-32.5
 21
3.908771927744965
 31
0.0
  0
LINE
  5
150
330
2
100
AcDbEntity
  8
GEB-KONTUR-A
 48
25.0
100
AcDbLine
 10
-32.5
 20
3.908771927744965
 30
0.0
 11
-34.90000000000001
 21
3.908771927744965
 31
0.0
  0
LINE
  5
151
330
2
100
AcDbEntity
  8
GEB-KONTUR-A
 48
25.0
100
AcDbLine
 10
-34.90000000000001
 20
2.989514326607149
 30
0.0
 11
-34.90000000000001
 21
1.528150927510523
 31
0.0
  0
LINE
  5
152
330
2
100
AcDbEntity
  8
GEB-KONTUR-A
 48
25.0
100
AcDbLine
 10
-32.5
 20
2.054963012593361
 30
0.0
 11
-32.5
 21
1.528150927510523
 31
0.0
  0
LINE
  5
153
330
2
100
AcDbEntity
  8
GEB-KONTUR-A
 48
25.0
100
AcDbLine
 10
-32.5
 20
1.528150927510523
 30
0.0
 11
-34.90000000000001
 21
1.528150927510523
 31
0.0
  0
LINE
  5
154
330
2
100
AcDbEntity
  8
GEB-KONTUR-A
 48
25.0
100
AcDbLine
 10
-34.90000000000001
 20
2.989514326607149
 30
0.0
 11
-32.5
 21
2.989514326607149
 31
0.0
  0
LINE
  5
155
330
2
100
AcDbEntity
  8
GEB-KONTUR-A
 48
25.0
100
AcDbLine
 10
-32.5
 20
2.989514326607149
 30
0.0
 11
-32.5
 21
2.054963012593361
 31
0.0
  0
LINE
  5
156
330
2
100
AcDbEntity
  8
GEB-KONTUR-A
 48
25.0
100
AcDbLine
 10
-32.5
 20
2.054963012593361
 30
0.0
 11
-34.90000000000001
 21
2.054963012593361
 31
0.0
  0
LINE
  5
157
330
2
100
AcDbEntity
  8
GEB-KONTUR-A
 48
25.0
100
AcDbLine
 10
-34.90000000000001
 20
0.7682842050172667
 30
0.0
 11
-34.90000000000001
 21
-0.7682842050172667
 31
0.0
  0
LINE
  5
158
330
2
100
AcDbEntity
  8
GEB-KONTUR-A
 48
25.0
100
AcDbLine
 10
-32.5
 20
0.0
 30
0.0
 11
-32.5
 21
-0.7682842050172667
 31
0.0
  0
LINE
  5
159
330
2
100
AcDbEntity
  8
GEB-KONTUR-A
 48
25.0
100
AcDbLine
 10
-32.5
 20
-0.7682842050172667
 30
0.0
 11
-34.90000000000001
 21
-0.7682842050172667
 31
0.0
  0
LINE
  5
15A
330
2
100
AcDbEntity
  8
GEB-KONTUR-A
 48
25.0
100
AcDbLine
 10
-34.90000000000001
 20
0.7682842050172667
 30
0.0
 11
-32.5
 21
0.7682842050172667
 31
0.0
  0
LINE
  5
15B
330
2
100
AcDbEntity
  8
GEB-KONTUR-A
 48
25.0
100
AcDbLine
 10
-32.5
 20
0.7682842050172667
 30
0.0
 11
-32.5
 21
0.0
 31
0.0
  0
LINE
  5
15C
330
2
100
AcDbEntity
  8
GEB-KONTUR-A
 48
25.0
100
AcDbLine
 10
-32.5
 20
0.0
 30
0.0
 11
-34.90000000000001
 21
0.0
 31
0.0
  0
LINE
  5
15D
330
2
100
AcDbEntity
  8
GEB-KONTUR-A
 48
25.0
100
AcDbLine
 10
-34.90000000000001
 20
-1.528150927510409
 30
0.0
 11
-34.90000000000001
 21
-2.989514326607149
 31
0.0
  0
LINE
  5
15E
330
2
100
AcDbEntity
  8
GEB-KONTUR-A
 48
25.0
100
AcDbLine
 10
-32.5
 20
-2.054963012593475
 30
0.0
 11
-32.5
 21
-2.989514326607149
 31
0.0
  0
LINE
  5
15F
330
2
100
AcDbEntity
  8
GEB-KONTUR-A
 48
25.0
100
AcDbLine
 10
-32.5
 20
-2.989514326607149
 30
0.0
 11
-34.90000000000001
 21
-2.989514326607149
 31
0.0
  0
LINE
  5
160
330
2
100
AcDbEntity
  8
GEB-KONTUR-A
 48
25.0
100
AcDbLine
 10
-34.90000000000001
 20
-1.528150927510523
 30
0.0
 11
-32.5
 21
-1.528150927510523
 31
0.0
  0
LINE
  5
161
330
2
100
AcDbEntity
  8
GEB-KONTUR-A
 48
25.0
100
AcDbLine
 10
-32.5
 20
-1.528150927510523
 30
0.0
 11
-32.5
 21
-2.054963012593475
 31
0.0
  0
LINE
  5
162
330
2
100
AcDbEntity
  8
GEB-KONTUR-A
 48
25.0
100
AcDbLine
 10
-32.5
 20
-2.054963012593475
 30
0.0
 11
-34.90000000000001
 21
-2.054963012593475
 31
0.0
  0
LINE
  5
163
330
2
100
AcDbEntity
  8
GEB-KONTUR-A
 48
25.0
100
AcDbLine
 10
-34.90000000000001
 20
-3.675000000000068
 30
0.0
 11
-34.90000000000001
 21
-4.91810995673768
 31
0.0
  0
LINE
  5
164
330
2
100
AcDbEntity
  8
GEB-KONTUR-A
 48
25.0
100
AcDbLine
 10
-32.5
 20
-3.908771927744965
 30
0.0
 11
-32.5
 21
-4.91810995673768
 31
0.0
  0
LINE
  5
165
330
2
100
AcDbEntity
  8
GEB-KONTUR-A
 48
25.0
100
AcDbLine
 10
-32.5
 20
-4.91810995673768
 30
0.0
 11
-34.90000000000001
 21
-4.91810995673768
 31
0.0
  0
LINE
  5
166
330
2
100
AcDbEntity
  8
GEB-KONTUR-A
 48
25.0
100
AcDbLine
 10
-34.90000000000001
 20
-3.674999999999954
 30
0.0
 11
-32.5
 21
-3.674999999999954
 31
0.0
  0
LINE
  5
167
330
2
100
AcDbEntity
  8
GEB-KONTUR-A
 48
25.0
100
AcDbLine
 10
-32.5
 20
-3.674999999999954
 30
0.0
 11
-32.5
 21
-3.908771927744965
 31
0.0
  0
LINE
  5
168
330
2
100
AcDbEntity
  8
GEB-KONTUR-A
 48
25.0
100
AcDbLine
 10
-32.5
 20
-3.908771927744965
 30
0.0
 11
-34.90000000000001
 21
-3.908771927744965
 31
0.0
  0
LINE
  5
169
330
2
100
AcDbEntity
  8
GEB-KONTUR-A
 48
25.0
100
AcDbLine
 10
-34.90000000000001
 20
-5.462114467258857
 30
0.0
 11
-34.90000000000001
 21
-6.365286717815706
 31
0.0
  0
LINE
  5
16A
330
2
100
AcDbEntity
  8
GEB-KONTUR-A
 48
25.0
100
AcDbLine
 10
-32.5
 20
-5.462114467258857
 30
0.0
 11
-32.5
 21
-6.365286717815706
 31
0.0
  0
LINE
  5
16B
330
2
100
AcDbEntity
  8
GEB-KONTUR-A
 48
25.0
100
AcDbLine
 10
-32.5
 20
-6.365286717815706
 30
0.0
 11
-34.90000000000001
 21
-6.365286717815706
 31
0.0
  0
LINE
  5
16C
330
2
100
AcDbEntity
  8
GEB-KONTUR-A
 48
25.0
100
AcDbLine
 10
-34.90000000000001
 20
-5.462114467258857
 30
0.0
 11
-32.5
 21
-5.462114467258857
 31
0.0
  0
LINE
  5
16D
330
2
100
AcDbEntity
  8
GEB-KONTUR-A
 48
25.0
100
AcDbLine
 10
-34.90000000000001
 20
-6.714559113673089
 30
0.0
 11
-34.90000000000001
 21
-7.189384865393435
 31
0.0
  0
LINE
  5
16E
330
2
100
AcDbEntity
  8
GEB-KONTUR-A
 48
25.0
100
AcDbLine
 10
-32.5
 20
-6.714559113673089
 30
0.0
 11
-32.5
 21
-7.189384865393435
 31
0.0
  0
LINE
  5
16F
330
2
100
AcDbEntity
  8
GEB-KONTUR-A
 48
25.0
100
AcDbLine
 10
-32.5
 20
-7.189384865393435
 30
0.0
 11
-34.90000000000001
 21
-7.189384865393435
 31
0.0
  0
LINE
  5
170
330
2
100
AcDbEntity
  8
GEB-KONTUR-A
 48
25.0
100
AcDbLine
 10
-34.90000000000001
 20
-6.714559113673089
 30
0.0
 11
-32.5
 21
-6.714559113673089
 31
0.0
  0
LINE
  5
171
330
2
100
AcDbEntity
  8
GEB-KONTUR-A
 48
25.0
100
AcDbLine
 10
-34.90000000000001
 20
-7.309735930956776
 30
0.0
 11
-34.90000000000001
 21
-7.350000000000022
 31
0.0
  0
LINE
  5
172
330
2
100
AcDbEntity
  8
GEB-KONTUR-A
 48
25.0
100
AcDbLine
 10
-34.90000000000001
 20
-7.30973593095689
 30
0.0
 11
-32.5
 21
-7.30973593095689
 31
0.0
  0
LINE
  5
173
330
2
100
AcDbEntity
  8
GEB-VERDECKT
 48
25.0
100
AcDbLine
 10
-34.90000000000001
 20
6.714559113673203
 30
0.0
 11
-34.90000000000001
 21
6.365286717815592
 31
0.0
  0
LINE
  5
174
330
2
100
AcDbEntity
  8
GEB-VERDECKT
 48
25.0
100
AcDbLine
 10
-32.5
 20
6.324525833362713
 30
0.0
 11
-34.90000000000001
 21
6.324525833362713
 31
0.0
  0
LINE
  5
175
330
2
100
AcDbEntity
  8
GEB-VERDECKT
 48
25.0
100
AcDbLine
 10
-34.90000000000001
 20
5.462114467258743
 30
0.0
 11
-34.90000000000001
 21
5.379963012593407
 31
0.0
  0
LINE
  5
176
330
2
100
AcDbEntity
  8
GEB-VERDECKT
 48
25.0
100
AcDbLine
 10
-32.5
 20
5.379963012593407
 30
0.0
 11
-34.90000000000001
 21
5.379963012593407
 31
0.0
  0
LINE
  5
177
330
2
100
AcDbEntity
  8
GEB-VERDECKT
 48
25.0
100
AcDbLine
 10
-32.5
 20
-5.379963012593407
 30
0.0
 11
-34.90000000000001
 21
-5.379963012593407
 31
0.0
  0
LINE
  5
178
330
2
100
AcDbEntity
  8
GEB-VERDECKT
 48
25.0
100
AcDbLine
 10
-34.90000000000001
 20
-5.379963012593407
 30
0.0
 11
-34.90000000000001
 21
-5.462114467258857
 31
0.0
  0
LINE
  5
179
330
2
100
AcDbEntity
  8
GEB-VERDECKT
 48
25.0
100
AcDbLine
 10
-32.5
 20
-6.324525833362713
 30
0.0
 11
-34.90000000000001
 21
-6.324525833362713
 31
0.0
  0
LINE
  5
17A
330
2
100
AcDbEntity
  8
GEB-VERDECKT
 48
25.0
100
AcDbLine
 10
-34.90000000000001
 20
-6.365286717815706
 30
0.0
 11
-34.90000000000001
 21
-6.714559113673089
 31
0.0
  0
LINE
  5
17B
330
2
100
AcDbEntity
  8
GEB-VERDECKT
 48
25.0
100
AcDbLine
 10
-32.5
 20
-6.649999999999977
 30
0.0
 11
-34.90000000000001
 21
-6.649999999999977
 31
0.0
  0
LINE
  5
17C
330
2
100
AcDbEntity
  8
GEB-VERDECKT
 48
25.0
100
AcDbLine
 10
-34.90000000000001
 20
-7.189384865393435
 30
0.0
 11
-34.90000000000001
 21
-7.30973593095689
 31
0.0
  0
LINE
  5
17D
330
2
100
AcDbEntity
  8
GEB-KONTUR-A
 48
25.0
100
AcDbLine
 10
-45.49999999999999
 20
-5.899999999999977
 30
0.0
 11
-43.5
 21
-5.899999999999977
 31
0.0
  0
LINE
  5
17E
330
2
100
AcDbEntity
  8
GEB-KONTUR-A
 48
25.0
100
AcDbLine
 10
-45.49999999999999
 20
5.899999999999977
 30
0.0
 11
-43.5
 21
5.899999999999977
 31
0.0
  0
LINE
  5
17F
330
2
100
AcDbEntity
  8
GEB-KONTUR-A
 48
25.0
100
AcDbLine
 10
-43.5
 20
-6.899999999999977
 30
0.0
 11
-42.19999999999998
 21
-6.899999999999977
 31
0.0
  0
LINE
  5
180
330
2
100
AcDbEntity
  8
GEB-KONTUR-A
 48
25.0
100
AcDbLine
 10
-43.5
 20
6.899999999999977
 30
0.0
 11
-42.19999999999998
 21
6.899999999999977
 31
0.0
  0
LINE
  5
181
330
2
100
AcDbEntity
  8
GEB-KONTUR-A
 48
25.0
100
AcDbLine
 10
-32.5
 20
-6.649999999999977
 30
0.0
 11
-32.31407400337108
 21
-6.649999999999977
 31
0.0
  0
LINE
  5
182
330
2
100
AcDbEntity
  8
GEB-KONTUR-A
 48
25.0
100
AcDbLine
 10
-32.5
 20
6.65000000000009
 30
0.0
 11
-32.31407400337108
 21
6.65000000000009
 31
0.0
  0
LINE
  5
183
330
2
100
AcDbEntity
  8
GEB-KONTUR-A
 48
25.0
100
AcDbLine
 10
-32.31407400337108
 20
-6.649999999999977
 30
0.0
 11
-31.6
 21
-7.149999999999977
 31
0.0
  0
LINE
  5
184
330
2
100
AcDbEntity
  8
GEB-KONTUR-A
 48
25.0
100
AcDbLine
 10
-32.31407400337108
 20
6.65000000000009
 30
0.0
 11
-31.6
 21
7.149999999999977
 31
0.0
  0
LINE
  5
185
330
2
100
AcDbEntity
  8
GEB-KONTUR-A
 48
25.0
100
AcDbLine
 10
-31.6
 20
-6.649999999999977
 30
0.0
 11
-30.81407400337105
 21
-6.649999999999977
 31
0.0
  0
LINE
  5
186
330
2
100
AcDbEntity
  8
GEB-KONTUR-A
 48
25.0
100
AcDbLine
 10
-31.6
 20
6.65000000000009
 30
0.0
 11
-30.81407400337105
 21
6.65000000000009
 31
0.0
  0
LINE
  5
187
330
2
100
AcDbEntity
  8
GEB-KONTUR-A
 48
25.0
100
AcDbLine
 10
-30.81407400337105
 20
-6.649999999999977
 30
0.0
 11
-30.1
 21
-7.149999999999977
 31
0.0
  0
LINE
  5
188
330
2
100
AcDbEntity
  8
GEB-KONTUR-A
 48
25.0
100
AcDbLine
 10
-30.81407400337105
 20
6.65000000000009
 30
0.0
 11
-30.1
 21
7.149999999999977
 31
0.0
  0
LINE
  5
189
330
2
100
AcDbEntity
  8
GEB-KONTUR-A
 48
25.0
100
AcDbLine
 10
-30.1
 20
-6.899999999999977
 30
0.0
 11
-28.0
 21
-6.899999999999977
 31
0.0
  0
LINE
  5
18A
330
2
100
AcDbEntity
  8
GEB-KONTUR-A
 48
25.0
100
AcDbLine
 10
-30.1
 20
6.899999999999977
 30
0.0
 11
-28.0
 21
6.899999999999977
 31
0.0
  0
ARC
  5
18B
330
2
100
AcDbEntity
  8
GEB-KONTUR-A
 48
25.0
100
AcDbCircle
 10
-56.09999999999996
 20
6.661706186112155
 30
0.0
 40
0.3999999999999996
100
AcDbArc
 50
100.0000000000002
 51
180.0
  0
ARC
  5
18C
330
2
100
AcDbEntity
  8
GEB-KONTUR-A
 48
25.0
100
AcDbCircle
 10
-56.09999999999996
 20
-6.661706186112269
 30
0.0
 40
0.3999999999999996
100
AcDbArc
 50
180.0
 51
259.9999999999998
  0
LINE
  5
18D
330
2
100
AcDbEntity
  8
GEB-KONTUR-A
 48
25.0
100
AcDbLine
 10
-56.16945927106676
 20
-7.05562928731706
 30
0.0
 11
-54.49999999999997
 21
-7.350000000000022
 31
0.0
  0
LINE
  5
18E
330
2
100
AcDbEntity
  8
GEB-KONTUR-A
 48
25.0
100
AcDbLine
 10
-56.16945927106676
 20
7.05562928731706
 30
0.0
 11
-54.49999999999997
 21
7.349999999999909
 31
0.0
  0
LINE
  5
18F
330
2
100
AcDbEntity
  8
GEB-KONTUR-A
 48
25.0
100
AcDbLine
 10
-48.96672885658722
 20
-7.350000000000022
 30
0.0
 11
-46.79999999999998
 21
-7.350000000000022
 31
0.0
  0
LINE
  5
190
330
2
100
AcDbEntity
  8
GEB-KONTUR-A
 48
25.0
100
AcDbLine
 10
-48.96672885658722
 20
7.349999999999909
 30
0.0
 11
-46.79999999999998
 21
7.349999999999909
 31
0.0
  0
LINE
  5
191
330
2
100
AcDbEntity
  8
GEB-KONTUR-A
 48
25.0
100
AcDbLine
 10
-46.79999999999998
 20
-6.899999999999977
 30
0.0
 11
-45.49999999999999
 21
-6.899999999999977
 31
0.0
  0
LINE
  5
192
330
2
100
AcDbEntity
  8
GEB-KONTUR-A
 48
25.0
100
AcDbLine
 10
-46.79999999999998
 20
6.899999999999977
 30
0.0
 11
-45.49999999999999
 21
6.899999999999977
 31
0.0
  0
LINE
  5
193
330
2
100
AcDbEntity
  8
GEB-KONTUR-A
 48
25.0
100
AcDbLine
 10
-38.89999999999998
 20
-7.350000000000022
 30
0.0
 11
-34.90000000000001
 21
-7.350000000000022
 31
0.0
  0
LINE
  5
194
330
2
100
AcDbEntity
  8
GEB-KONTUR-A
 48
25.0
100
AcDbLine
 10
-42.19999999999998
 20
-7.350000000000022
 30
0.0
 11
-41.29999999999998
 21
-7.350000000000022
 31
0.0
  0
LINE
  5
195
330
2
100
AcDbEntity
  8
GEB-KONTUR-A
 48
25.0
100
AcDbLine
 10
-38.89999999999998
 20
7.349999999999909
 30
0.0
 11
-34.90000000000001
 21
7.349999999999909
 31
0.0
  0
LINE
  5
196
330
2
100
AcDbEntity
  8
GEB-KONTUR-A
 48
25.0
100
AcDbLine
 10
-42.19999999999998
 20
7.349999999999909
 30
0.0
 11
-41.29999999999998
 21
7.349999999999909
 31
0.0
  0
LINE
  5
197
330
2
100
AcDbEntity
  8
GEB-KONTUR-A
 48
25.0
100
AcDbLine
 10
-54.49999999999997
 20
-7.350000000000022
 30
0.0
 11
-53.4332711434127
 21
-7.350000000000022
 31
0.0
  0
LINE
  5
198
330
2
100
AcDbEntity
  8
GEB-KONTUR-A
 48
25.0
100
AcDbLine
 10
-54.49999999999997
 20
7.349999999999909
 30
0.0
 11
-53.4332711434127
 21
7.349999999999909
 31
0.0
  0
LINE
  5
199
330
2
100
AcDbEntity
  8
GEB-KONTUR-A
 48
25.0
100
AcDbLine
 10
-43.5
 20
-6.899999999999977
 30
0.0
 11
-43.5
 21
6.899999999999977
 31
0.0
  0
LINE
  5
19A
330
2
100
AcDbEntity
  8
GEB-KONTUR-A
 48
25.0
100
AcDbLine
 10
-32.31407400337108
 20
-6.649999999999977
 30
0.0
 11
-32.31407400337108
 21
6.649999999999863
 31
0.0
  0
LINE
  5
19B
330
2
100
AcDbEntity
  8
GEB-KONTUR-A
 48
25.0
100
AcDbLine
 10
-31.6
 20
-7.149999999999977
 30
0.0
 11
-31.6
 21
7.149999999999977
 31
0.0
  0
LINE
  5
19C
330
2
100
AcDbEntity
  8
GEB-KONTUR-A
 48
25.0
100
AcDbLine
 10
-30.81407400337105
 20
-6.649999999999977
 30
0.0
 11
-30.81407400337105
 21
6.649999999999863
 31
0.0
  0
LINE
  5
19D
330
2
100
AcDbEntity
  8
GEB-KONTUR-A
 48
25.0
100
AcDbLine
 10
-30.1
 20
-7.149999999999977
 30
0.0
 11
-30.1
 21
7.149999999999977
 31
0.0
  0
LINE
  5
19E
330
2
100
AcDbEntity
  8
GEB-KONTUR-A
 48
25.0
100
AcDbLine
 10
-56.49999999999997
 20
6.661706186112155
 30
0.0
 11
-56.49999999999997
 21
-6.661706186112269
 31
0.0
  0
LINE
  5
19F
330
2
100
AcDbEntity
  8
GEB-KONTUR-A
 48
25.0
100
AcDbLine
 10
-46.79999999999998
 20
-7.350000000000022
 30
0.0
 11
-46.79999999999998
 21
7.349999999999909
 31
0.0
  0
LINE
  5
1A0
330
2
100
AcDbEntity
  8
GEB-KONTUR-A
 48
25.0
100
AcDbLine
 10
-45.49999999999999
 20
-6.899999999999977
 30
0.0
 11
-45.49999999999999
 21
6.899999999999977
 31
0.0
  0
LINE
  5
1A1
330
2
100
AcDbEntity
  8
GEB-KONTUR-A
 48
25.0
100
AcDbLine
 10
-42.19999999999998
 20
-7.350000000000022
 30
0.0
 11
-42.19999999999998
 21
7.349999999999909
 31
0.0
  0
LINE
  5
1A2
330
2
100
AcDbEntity
  8
GEB-KONTUR-A
 48
25.0
100
AcDbLine
 10
-32.5
 20
7.189384865393435
 30
0.0
 11
-32.5
 21
7.309735930956776
 31
0.0
  0
LINE
  5
1A3
330
2
100
AcDbEntity
  8
GEB-KONTUR-A
 48
25.0
100
AcDbLine
 10
-32.5
 20
6.365286717815592
 30
0.0
 11
-32.5
 21
6.714559113672976
 31
0.0
  0
LINE
  5
1A4
330
2
100
AcDbEntity
  8
GEB-KONTUR-A
 48
25.0
100
AcDbLine
 10
-32.5
 20
4.918109956737566
 30
0.0
 11
-32.5
 21
5.462114467258743
 31
0.0
  0
LINE
  5
1A5
330
2
100
AcDbEntity
  8
GEB-KONTUR-A
 48
25.0
100
AcDbLine
 10
-32.5
 20
2.989514326607149
 30
0.0
 11
-32.5
 21
3.674999999999954
 31
0.0
  0
LINE
  5
1A6
330
2
100
AcDbEntity
  8
GEB-KONTUR-A
 48
25.0
100
AcDbLine
 10
-32.5
 20
0.7682842050172667
 30
0.0
 11
-32.5
 21
1.528150927510523
 31
0.0
  0
LINE
  5
1A7
330
2
100
AcDbEntity
  8
GEB-KONTUR-A
 48
25.0
100
AcDbLine
 10
-32.5
 20
-1.52815092751075
 30
0.0
 11
-32.5
 21
-0.7682842050172667
 31
0.0
  0
LINE
  5
1A8
330
2
100
AcDbEntity
  8
GEB-KONTUR-A
 48
25.0
100
AcDbLine
 10
-32.5
 20
-3.674999999999954
 30
0.0
 11
-32.5
 21
-2.989514326607149
 31
0.0
  0
LINE
  5
1A9
330
2
100
AcDbEntity
  8
GEB-KONTUR-A
 48
25.0
100
AcDbLine
 10
-32.5
 20
-5.462114467258857
 30
0.0
 11
-32.5
 21
-4.91810995673768
 31
0.0
  0
LINE
  5
1AA
330
2
100
AcDbEntity
  8
GEB-KONTUR-A
 48
25.0
100
AcDbLine
 10
-32.5
 20
-6.714559113673089
 30
0.0
 11
-32.5
 21
-6.365286717815706
 31
0.0
  0
LINE
  5
1AB
330
2
100
AcDbEntity
  8
GEB-KONTUR-A
 48
25.0
100
AcDbLine
 10
-32.5
 20
-7.309735930956776
 30
0.0
 11
-32.5
 21
-7.189384865393435
 31
0.0
  0
LINE
  5
1AC
330
2
100
AcDbEntity
  8
GEB-KONTUR-A
 48
25.0
100
AcDbLine
 10
-54.49999999999997
 20
-7.350000000000022
 30
0.0
 11
-54.49999999999997
 21
7.349999999999909
 31
0.0
  0
ARC
  5
1AD
330
2
100
AcDbEntity
  8
GEB-KONTUR-A
 48
25.0
100
AcDbCircle
 10
-51.19999999999996
 20
10.29999999999995
 30
0.0
 40
3.699999999999996
100
AcDbArc
 50
232.8727828181813
 51
307.1272171818187
  0
ARC
  5
1AE
330
2
100
AcDbEntity
  8
GEB-KONTUR-A
 48
25.0
100
AcDbCircle
 10
-51.19999999999996
 20
-10.30000000000007
 30
0.0
 40
3.699999999999996
100
AcDbArc
 50
52.87278281818002
 51
127.1272171818187
  0
LINE
  5
1AF
330
2
100
AcDbEntity
  8
GEB-KONTUR-A
 48
25.0
100
AcDbLine
 10
-53.4332711434127
 20
7.349999999999909
 30
0.0
 11
-53.4332711434127
 21
-7.350000000000022
 31
0.0
  0
LINE
  5
1B0
330
2
100
AcDbEntity
  8
GEB-KONTUR-A
 48
25.0
100
AcDbLine
 10
-48.96672885658725
 20
-7.350000000000022
 30
0.0
 11
-48.96672885658725
 21
7.349999999999909
 31
0.0
  0
LINE
  5
1B1
330
2
100
AcDbEntity
  8
GEB-KONTUR-A
 48
25.0
100
AcDbLine
 10
-41.29999999999998
 20
7.349999999999909
 30
0.0
 11
-41.29999999999998
 21
7.309735930956776
 31
0.0
  0
LINE
  5
1B2
330
2
100
AcDbEntity
  8
GEB-KONTUR-A
 48
25.0
100
AcDbLine
 10
-38.89999999999998
 20
7.309735930956776
 30
0.0
 11
-38.89999999999998
 21
7.349999999999909
 31
0.0
  0
LINE
  5
1B3
330
2
100
AcDbEntity
  8
GEB-KONTUR-A
 48
25.0
100
AcDbLine
 10
-38.89999999999998
 20
7.309735930956776
 30
0.0
 11
-41.29999999999998
 21
7.309735930956776
 31
0.0
  0
LINE
  5
1B4
330
2
100
AcDbEntity
  8
GEB-KONTUR-A
 48
25.0
100
AcDbLine
 10
-41.29999999999998
 20
7.189384865393435
 30
0.0
 11
-41.29999999999998
 21
6.714559113672976
 31
0.0
  0
LINE
  5
1B5
330
2
100
AcDbEntity
  8
GEB-KONTUR-A
 48
25.0
100
AcDbLine
 10
-38.89999999999998
 20
6.714559113673203
 30
0.0
 11
-38.89999999999998
 21
7.189384865393435
 31
0.0
  0
LINE
  5
1B6
330
2
100
AcDbEntity
  8
GEB-KONTUR-A
 48
25.0
100
AcDbLine
 10
-38.89999999999998
 20
6.714559113673203
 30
0.0
 11
-41.29999999999998
 21
6.714559113673203
 31
0.0
  0
LINE
  5
1B7
330
2
100
AcDbEntity
  8
GEB-KONTUR-A
 48
25.0
100
AcDbLine
 10
-41.29999999999998
 20
7.189384865393435
 30
0.0
 11
-38.89999999999998
 21
7.189384865393435
 31
0.0
  0
LINE
  5
1B8
330
2
100
AcDbEntity
  8
GEB-KONTUR-A
 48
25.0
100
AcDbLine
 10
-41.29999999999998
 20
6.365286717815706
 30
0.0
 11
-41.29999999999998
 21
5.462114467258857
 31
0.0
  0
LINE
  5
1B9
330
2
100
AcDbEntity
  8
GEB-KONTUR-A
 48
25.0
100
AcDbLine
 10
-38.89999999999998
 20
5.462114467258857
 30
0.0
 11
-38.89999999999998
 21
6.365286717815592
 31
0.0
  0
LINE
  5
1BA
330
2
100
AcDbEntity
  8
GEB-KONTUR-A
 48
25.0
100
AcDbLine
 10
-38.89999999999998
 20
5.462114467258743
 30
0.0
 11
-41.29999999999998
 21
5.462114467258743
 31
0.0
  0
LINE
  5
1BB
330
2
100
AcDbEntity
  8
GEB-KONTUR-A
 48
25.0
100
AcDbLine
 10
-41.29999999999998
 20
6.365286717815592
 30
0.0
 11
-38.89999999999998
 21
6.365286717815592
 31
0.0
  0
LINE
  5
1BC
330
2
100
AcDbEntity
  8
GEB-KONTUR-A
 48
25.0
100
AcDbLine
 10
-41.29999999999998
 20
4.918109956737566
 30
0.0
 11
-41.29999999999998
 21
3.675000000000068
 31
0.0
  0
LINE
  5
1BD
330
2
100
AcDbEntity
  8
GEB-KONTUR-A
 48
25.0
100
AcDbLine
 10
-38.89999999999998
 20
3.674999999999954
 30
0.0
 11
-38.89999999999998
 21
4.918109956737566
 31
0.0
  0
LINE
  5
1BE
330
2
100
AcDbEntity
  8
GEB-KONTUR-A
 48
25.0
100
AcDbLine
 10
-38.89999999999998
 20
3.674999999999954
 30
0.0
 11
-41.29999999999998
 21
3.674999999999954
 31
0.0
  0
LINE
  5
1BF
330
2
100
AcDbEntity
  8
GEB-KONTUR-A
 48
25.0
100
AcDbLine
 10
-41.29999999999998
 20
4.918109956737566
 30
0.0
 11
-38.89999999999998
 21
4.918109956737566
 31
0.0
  0
LINE
  5
1C0
330
2
100
AcDbEntity
  8
GEB-KONTUR-A
 48
25.0
100
AcDbLine
 10
-38.89999999999998
 20
3.908771927744965
 30
0.0
 11
-41.29999999999998
 21
3.908771927744965
 31
0.0
  0
LINE
  5
1C1
330
2
100
AcDbEntity
  8
GEB-KONTUR-A
 48
25.0
100
AcDbLine
 10
-41.29999999999998
 20
2.989514326607149
 30
0.0
 11
-41.29999999999998
 21
1.528150927510523
 31
0.0
  0
LINE
  5
1C2
330
2
100
AcDbEntity
  8
GEB-KONTUR-A
 48
25.0
100
AcDbLine
 10
-38.89999999999998
 20
1.528150927510637
 30
0.0
 11
-38.89999999999998
 21
2.989514326607149
 31
0.0
  0
LINE
  5
1C3
330
2
100
AcDbEntity
  8
GEB-KONTUR-A
 48
25.0
100
AcDbLine
 10
-38.89999999999998
 20
1.528150927510523
 30
0.0
 11
-41.29999999999998
 21
1.528150927510523
 31
0.0
  0
LINE
  5
1C4
330
2
100
AcDbEntity
  8
GEB-KONTUR-A
 48
25.0
100
AcDbLine
 10
-41.29999999999998
 20
2.989514326607149
 30
0.0
 11
-38.89999999999998
 21
2.989514326607149
 31
0.0
  0
LINE
  5
1C5
330
2
100
AcDbEntity
  8
GEB-KONTUR-A
 48
25.0
100
AcDbLine
 10
-38.89999999999998
 20
2.054963012593361
 30
0.0
 11
-41.29999999999998
 21
2.054963012593361
 31
0.0
  0
LINE
  5
1C6
330
2
100
AcDbEntity
  8
GEB-KONTUR-A
 48
25.0
100
AcDbLine
 10
-41.29999999999998
 20
0.7682842050172667
 30
0.0
 11
-41.29999999999998
 21
-0.7682842050172667
 31
0.0
  0
LINE
  5
1C7
330
2
100
AcDbEntity
  8
GEB-KONTUR-A
 48
25.0
100
AcDbLine
 10
-38.89999999999998
 20
-0.768284205017153
 30
0.0
 11
-38.89999999999998
 21
0.7682842050172667
 31
0.0
  0
LINE
  5
1C8
330
2
100
AcDbEntity
  8
GEB-KONTUR-A
 48
25.0
100
AcDbLine
 10
-38.89999999999998
 20
-0.7682842050172667
 30
0.0
 11
-41.29999999999998
 21
-0.7682842050172667
 31
0.0
  0
LINE
  5
1C9
330
2
100
AcDbEntity
  8
GEB-KONTUR-A
 48
25.0
100
AcDbLine
 10
-41.29999999999998
 20
0.7682842050172667
 30
0.0
 11
-38.89999999999998
 21
0.7682842050172667
 31
0.0
  0
LINE
  5
1CA
330
2
100
AcDbEntity
  8
GEB-KONTUR-A
 48
25.0
100
AcDbLine
 10
-38.89999999999998
 20
0.0
 30
0.0
 11
-41.29999999999998
 21
0.0
 31
0.0
  0
LINE
  5
1CB
330
2
100
AcDbEntity
  8
GEB-KONTUR-A
 48
25.0
100
AcDbLine
 10
-41.29999999999998
 20
-1.528150927510409
 30
0.0
 11
-41.29999999999998
 21
-2.989514326607149
 31
0.0
  0
LINE
  5
1CC
330
2
100
AcDbEntity
  8
GEB-KONTUR-A
 48
25.0
100
AcDbLine
 10
-38.89999999999998
 20
-2.989514326607149
 30
0.0
 11
-38.89999999999998
 21
-1.528150927510523
 31
0.0
  0
LINE
  5
1CD
330
2
100
AcDbEntity
  8
GEB-KONTUR-A
 48
25.0
100
AcDbLine
 10
-38.89999999999998
 20
-2.989514326607149
 30
0.0
 11
-41.29999999999998
 21
-2.989514326607149
 31
0.0
  0
LINE
  5
1CE
330
2
100
AcDbEntity
  8
GEB-KONTUR-A
 48
25.0
100
AcDbLine
 10
-41.29999999999998
 20
-1.528150927510523
 30
0.0
 11
-38.89999999999998
 21
-1.528150927510523
 31
0.0
  0
LINE
  5
1CF
330
2
100
AcDbEntity
  8
GEB-KONTUR-A
 48
25.0
100
AcDbLine
 10
-38.89999999999998
 20
-2.054963012593475
 30
0.0
 11
-41.29999999999998
 21
-2.054963012593475
 31
0.0
  0
LINE
  5
1D0
330
2
100
AcDbEntity
  8
GEB-KONTUR-A
 48
25.0
100
AcDbLine
 10
-41.29999999999998
 20
-3.675000000000068
 30
0.0
 11
-41.29999999999998
 21
-4.91810995673768
 31
0.0
  0
LINE
  5
1D1
330
2
100
AcDbEntity
  8
GEB-KONTUR-A
 48
25.0
100
AcDbLine
 10
-38.89999999999998
 20
-4.91810995673768
 30
0.0
 11
-38.89999999999998
 21
-3.674999999999954
 31
0.0
  0
LINE
  5
1D2
330
2
100
AcDbEntity
  8
GEB-KONTUR-A
 48
25.0
100
AcDbLine
 10
-38.89999999999998
 20
-4.91810995673768
 30
0.0
 11
-41.29999999999998
 21
-4.91810995673768
 31
0.0
  0
LINE
  5
1D3
330
2
100
AcDbEntity
  8
GEB-KONTUR-A
 48
25.0
100
AcDbLine
 10
-41.29999999999998
 20
-3.674999999999954
 30
0.0
 11
-38.89999999999998
 21
-3.674999999999954
 31
0.0
  0
LINE
  5
1D4
330
2
100
AcDbEntity
  8
GEB-KONTUR-A
 48
25.0
100
AcDbLine
 10
-38.89999999999998
 20
-3.908771927744965
 30
0.0
 11
-41.29999999999998
 21
-3.908771927744965
 31
0.0
  0
LINE
  5
1D5
330
2
100
AcDbEntity
  8
GEB-KONTUR-A
 48
25.0
100
AcDbLine
 10
-41.29999999999998
 20
-5.462114467258857
 30
0.0
 11
-41.29999999999998
 21
-6.365286717815706
 31
0.0
  0
LINE
  5
1D6
330
2
100
AcDbEntity
  8
GEB-KONTUR-A
 48
25.0
100
AcDbLine
 10
-38.89999999999998
 20
-6.365286717815706
 30
0.0
 11
-38.89999999999998
 21
-5.462114467258857
 31
0.0
  0
LINE
  5
1D7
330
2
100
AcDbEntity
  8
GEB-KONTUR-A
 48
25.0
100
AcDbLine
 10
-38.89999999999998
 20
-6.365286717815706
 30
0.0
 11
-41.29999999999998
 21
-6.365286717815706
 31
0.0
  0
LINE
  5
1D8
330
2
100
AcDbEntity
  8
GEB-KONTUR-A
 48
25.0
100
AcDbLine
 10
-41.29999999999998
 20
-5.462114467258857
 30
0.0
 11
-38.89999999999998
 21
-5.462114467258857
 31
0.0
  0
LINE
  5
1D9
330
2
100
AcDbEntity
  8
GEB-KONTUR-A
 48
25.0
100
AcDbLine
 10
-41.29999999999998
 20
-6.714559113673089
 30
0.0
 11
-41.29999999999998
 21
-7.189384865393435
 31
0.0
  0
LINE
  5
1DA
330
2
100
AcDbEntity
  8
GEB-KONTUR-A
 48
25.0
100
AcDbLine
 10
-38.89999999999998
 20
-7.189384865393549
 30
0.0
 11
-38.89999999999998
 21
-6.714559113673203
 31
0.0
  0
LINE
  5
1DB
330
2
100
AcDbEntity
  8
GEB-KONTUR-A
 48
25.0
100
AcDbLine
 10
-38.89999999999998
 20
-7.189384865393435
 30
0.0
 11
-41.29999999999998
 21
-7.189384865393435
 31
0.0
  0
LINE
  5
1DC
330
2
100
AcDbEntity
  8
GEB-KONTUR-A
 48
25.0
100
AcDbLine
 10
-41.29999999999998
 20
-6.714559113673089
 30
0.0
 11
-38.89999999999998
 21
-6.714559113673089
 31
0.0
  0
LINE
  5
1DD
330
2
100
AcDbEntity
  8
GEB-KONTUR-A
 48
25.0
100
AcDbLine
 10
-41.29999999999998
 20
-7.309735930956776
 30
0.0
 11
-41.29999999999998
 21
-7.350000000000022
 31
0.0
  0
LINE
  5
1DE
330
2
100
AcDbEntity
  8
GEB-KONTUR-A
 48
25.0
100
AcDbLine
 10
-38.89999999999998
 20
-7.350000000000022
 30
0.0
 11
-38.89999999999998
 21
-7.309735930956776
 31
0.0
  0
LINE
  5
1DF
330
2
100
AcDbEntity
  8
GEB-KONTUR-A
 48
25.0
100
AcDbLine
 10
-41.29999999999998
 20
-7.30973593095689
 30
0.0
 11
-38.89999999999998
 21
-7.30973593095689
 31
0.0
  0
LINE
  5
1E0
330
2
100
AcDbEntity
  8
GEB-VERDECKT
 48
25.0
100
AcDbLine
 10
-38.89999999999998
 20
7.189384865393435
 30
0.0
 11
-38.89999999999998
 21
7.309735930956776
 31
0.0
  0
LINE
  5
1E1
330
2
100
AcDbEntity
  8
GEB-VERDECKT
 48
25.0
100
AcDbLine
 10
-41.29999999999998
 20
7.309735930956776
 30
0.0
 11
-41.29999999999998
 21
7.189384865393435
 31
0.0
  0
LINE
  5
1E2
330
2
100
AcDbEntity
  8
GEB-VERDECKT
 48
25.0
100
AcDbLine
 10
-38.89999999999998
 20
6.65000000000009
 30
0.0
 11
-41.29999999999998
 21
6.65000000000009
 31
0.0
  0
LINE
  5
1E3
330
2
100
AcDbEntity
  8
GEB-VERDECKT
 48
25.0
100
AcDbLine
 10
-38.89999999999998
 20
6.365286717815592
 30
0.0
 11
-38.89999999999998
 21
6.714559113673203
 31
0.0
  0
LINE
  5
1E4
330
2
100
AcDbEntity
  8
GEB-VERDECKT
 48
25.0
100
AcDbLine
 10
-41.29999999999998
 20
6.714559113673203
 30
0.0
 11
-41.29999999999998
 21
6.365286717815592
 31
0.0
  0
LINE
  5
1E5
330
2
100
AcDbEntity
  8
GEB-VERDECKT
 48
25.0
100
AcDbLine
 10
-38.89999999999998
 20
6.324525833362713
 30
0.0
 11
-41.29999999999998
 21
6.324525833362713
 31
0.0
  0
LINE
  5
1E6
330
2
100
AcDbEntity
  8
GEB-VERDECKT
 48
25.0
100
AcDbLine
 10
-38.89999999999998
 20
5.379963012593407
 30
0.0
 11
-38.89999999999998
 21
5.462114467258743
 31
0.0
  0
LINE
  5
1E7
330
2
100
AcDbEntity
  8
GEB-VERDECKT
 48
25.0
100
AcDbLine
 10
-41.29999999999998
 20
5.462114467258743
 30
0.0
 11
-41.29999999999998
 21
5.379963012593407
 31
0.0
  0
LINE
  5
1E8
330
2
100
AcDbEntity
  8
GEB-VERDECKT
 48
25.0
100
AcDbLine
 10
-38.89999999999998
 20
5.379963012593407
 30
0.0
 11
-41.29999999999998
 21
5.379963012593407
 31
0.0
  0
LINE
  5
1E9
330
2
100
AcDbEntity
  8
GEB-VERDECKT
 48
25.0
100
AcDbLine
 10
-38.89999999999998
 20
-5.462114467258857
 30
0.0
 11
-38.89999999999998
 21
-5.379963012593407
 31
0.0
  0
LINE
  5
1EA
330
2
100
AcDbEntity
  8
GEB-VERDECKT
 48
25.0
100
AcDbLine
 10
-38.89999999999998
 20
-5.379963012593407
 30
0.0
 11
-41.29999999999998
 21
-5.379963012593407
 31
0.0
  0
LINE
  5
1EB
330
2
100
AcDbEntity
  8
GEB-VERDECKT
 48
25.0
100
AcDbLine
 10
-41.29999999999998
 20
-5.379963012593407
 30
0.0
 11
-41.29999999999998
 21
-5.462114467258857
 31
0.0
  0
LINE
  5
1EC
330
2
100
AcDbEntity
  8
GEB-VERDECKT
 48
25.0
100
AcDbLine
 10
-38.89999999999998
 20
-6.714559113673089
 30
0.0
 11
-38.89999999999998
 21
-6.365286717815706
 31
0.0
  0
LINE
  5
1ED
330
2
100
AcDbEntity
  8
GEB-VERDECKT
 48
25.0
100
AcDbLine
 10
-38.89999999999998
 20
-6.324525833362713
 30
0.0
 11
-41.29999999999998
 21
-6.324525833362713
 31
0.0
  0
LINE
  5
1EE
330
2
100
AcDbEntity
  8
GEB-VERDECKT
 48
25.0
100
AcDbLine
 10
-41.29999999999998
 20
-6.365286717815706
 30
0.0
 11
-41.29999999999998
 21
-6.714559113673089
 31
0.0
  0
LINE
  5
1EF
330
2
100
AcDbEntity
  8
GEB-VERDECKT
 48
25.0
100
AcDbLine
 10
-38.89999999999998
 20
-7.30973593095689
 30
0.0
 11
-38.89999999999998
 21
-7.189384865393435
 31
0.0
  0
LINE
  5
1F0
330
2
100
AcDbEntity
  8
GEB-VERDECKT
 48
25.0
100
AcDbLine
 10
-38.89999999999998
 20
-6.649999999999977
 30
0.0
 11
-41.29999999999998
 21
-6.649999999999977
 31
0.0
  0
LINE
  5
1F1
330
2
100
AcDbEntity
  8
GEB-VERDECKT
 48
25.0
100
AcDbLine
 10
-41.29999999999998
 20
-7.189384865393435
 30
0.0
 11
-41.29999999999998
 21
-7.30973593095689
 31
0.0
  0
ARC
  5
1F2
330
2
100
AcDbEntity
  8
GEB-VERDECKT
 48
25.0
100
AcDbCircle
 10
56.0
 20
6.219549815588607
 30
0.0
 40
0.4999999999999995
100
AcDbArc
 50
279.9999999999986
 51
0.0
  0
ARC
  5
1F3
330
2
100
AcDbEntity
  8
GEB-VERDECKT
 48
25.0
100
AcDbCircle
 10
56.0
 20
-6.21954981558872
 30
0.0
 40
0.4999999999999995
100
AcDbArc
 50
0.0
 51
80.0000000000014
  0
LINE
  5
1F4
330
2
100
AcDbEntity
  8
GEB-VERDECKT
 48
25.0
100
AcDbLine
 10
28.0
 20
-4.700000000000045
 30
0.0
 11
50.26158999842056
 21
-4.700000000000045
 31
0.0
  0
LINE
  5
1F5
330
2
100
AcDbEntity
  8
GEB-VERDECKT
 48
25.0
100
AcDbLine
 10
28.0
 20
4.699999999999931
 30
0.0
 11
50.26158999842056
 21
4.699999999999931
 31
0.0
  0
LINE
  5
1F6
330
2
100
AcDbEntity
  8
GEB-VERDECKT
 48
25.0
100
AcDbLine
 10
50.26158999842056
 20
-4.700000000000045
 30
0.0
 11
56.08682408883351
 21
-5.727145939082561
 31
0.0
  0
LINE
  5
1F7
330
2
100
AcDbEntity
  8
GEB-VERDECKT
 48
25.0
100
AcDbLine
 10
50.26158999842056
 20
4.699999999999931
 30
0.0
 11
56.08682408883351
 21
5.727145939082561
 31
0.0
  0
LINE
  5
1F8
330
2
100
AcDbEntity
  8
GEB-VERDECKT
 48
25.0
100
AcDbLine
 10
50.26158999842056
 20
-4.700000000000045
 30
0.0
 11
50.26158999842056
 21
4.699999999999931
 31
0.0
  0
LINE
  5
1F9
330
2
100
AcDbEntity
  8
GEB-VERDECKT
 48
25.0
100
AcDbLine
 10
34.90000000000004
 20
-7.30973593095689
 30
0.0
 11
34.90000000000004
 21
-7.189384865393435
 31
0.0
  0
LINE
  5
1FA
330
2
100
AcDbEntity
  8
GEB-VERDECKT
 48
25.0
100
AcDbLine
 10
32.5
 20
-6.649999999999977
 30
0.0
 11
34.90000000000004
 21
-6.649999999999977
 31
0.0
  0
LINE
  5
1FB
330
2
100
AcDbEntity
  8
GEB-KONTUR-A
 48
25.0
100
AcDbLine
 10
34.90000000000004
 20
-7.350000000000022
 30
0.0
 11
34.90000000000004
 21
-7.309735930956776
 31
0.0
  0
LINE
  5
1FC
330
2
100
AcDbEntity
  8
GEB-KONTUR-A
 48
25.0
100
AcDbLine
 10
32.5
 20
-7.30973593095689
 30
0.0
 11
34.90000000000004
 21
-7.30973593095689
 31
0.0
  0
LINE
  5
1FD
330
2
100
AcDbEntity
  8
GEB-KONTUR-A
 48
25.0
100
AcDbLine
 10
34.90000000000004
 20
-7.189384865393435
 30
0.0
 11
34.90000000000004
 21
-6.714559113673089
 31
0.0
  0
LINE
  5
1FE
330
2
100
AcDbEntity
  8
GEB-KONTUR-A
 48
25.0
100
AcDbLine
 10
32.5
 20
-6.714559113673089
 30
0.0
 11
34.90000000000004
 21
-6.714559113673089
 31
0.0
  0
LINE
  5
1FF
330
2
100
AcDbEntity
  8
GEB-KONTUR-A
 48
25.0
100
AcDbLine
 10
34.90000000000004
 20
-7.189384865393435
 30
0.0
 11
32.5
 21
-7.189384865393435
 31
0.0
  0
LINE
  5
200
330
2
100
AcDbEntity
  8
GEB-KONTUR-A
 48
25.0
100
AcDbLine
 10
32.5
 20
-7.189384865393435
 30
0.0
 11
32.5
 21
-6.714559113673089
 31
0.0
  0
LINE
  5
201
330
2
100
AcDbEntity
  8
GEB-KONTUR-A
 48
25.0
100
AcDbLine
 10
34.90000000000004
 20
-6.365286717815706
 30
0.0
 11
34.90000000000004
 21
-5.462114467258857
 31
0.0
  0
LINE
  5
202
330
2
100
AcDbEntity
  8
GEB-KONTUR-A
 48
25.0
100
AcDbLine
 10
32.5
 20
-5.462114467258857
 30
0.0
 11
34.90000000000004
 21
-5.462114467258857
 31
0.0
  0
LINE
  5
203
330
2
100
AcDbEntity
  8
GEB-KONTUR-A
 48
25.0
100
AcDbLine
 10
34.90000000000004
 20
-6.365286717815706
 30
0.0
 11
32.5
 21
-6.365286717815706
 31
0.0
  0
LINE
  5
204
330
2
100
AcDbEntity
  8
GEB-KONTUR-A
 48
25.0
100
AcDbLine
 10
32.5
 20
-6.365286717815706
 30
0.0
 11
32.5
 21
-5.462114467258857
 31
0.0
  0
LINE
  5
205
330
2
100
AcDbEntity
  8
GEB-KONTUR-A
 48
25.0
100
AcDbLine
 10
34.90000000000004
 20
-4.91810995673768
 30
0.0
 11
34.90000000000004
 21
-3.675000000000068
 31
0.0
  0
LINE
  5
206
330
2
100
AcDbEntity
  8
GEB-KONTUR-A
 48
25.0
100
AcDbLine
 10
32.5
 20
-3.908771927744965
 30
0.0
 11
32.5
 21
-3.674999999999954
 31
0.0
  0
LINE
  5
207
330
2
100
AcDbEntity
  8
GEB-KONTUR-A
 48
25.0
100
AcDbLine
 10
32.5
 20
-3.674999999999954
 30
0.0
 11
34.90000000000004
 21
-3.674999999999954
 31
0.0
  0
LINE
  5
208
330
2
100
AcDbEntity
  8
GEB-KONTUR-A
 48
25.0
100
AcDbLine
 10
34.90000000000004
 20
-4.91810995673768
 30
0.0
 11
32.5
 21
-4.91810995673768
 31
0.0
  0
LINE
  5
209
330
2
100
AcDbEntity
  8
GEB-KONTUR-A
 48
25.0
100
AcDbLine
 10
32.5
 20
-4.91810995673768
 30
0.0
 11
32.5
 21
-3.908771927744965
 31
0.0
  0
LINE
  5
20A
330
2
100
AcDbEntity
  8
GEB-KONTUR-A
 48
25.0
100
AcDbLine
 10
32.5
 20
-3.908771927744965
 30
0.0
 11
34.90000000000004
 21
-3.908771927744965
 31
0.0
  0
LINE
  5
20B
330
2
100
AcDbEntity
  8
GEB-KONTUR-A
 48
25.0
100
AcDbLine
 10
34.90000000000004
 20
-2.989514326607149
 30
0.0
 11
34.90000000000004
 21
-1.528150927510523
 31
0.0
  0
LINE
  5
20C
330
2
100
AcDbEntity
  8
GEB-KONTUR-A
 48
25.0
100
AcDbLine
 10
32.5
 20
-2.054963012593475
 30
0.0
 11
32.5
 21
-1.528150927510523
 31
0.0
  0
LINE
  5
20D
330
2
100
AcDbEntity
  8
GEB-KONTUR-A
 48
25.0
100
AcDbLine
 10
32.5
 20
-1.528150927510523
 30
0.0
 11
34.90000000000004
 21
-1.528150927510523
 31
0.0
  0
LINE
  5
20E
330
2
100
AcDbEntity
  8
GEB-KONTUR-A
 48
25.0
100
AcDbLine
 10
34.90000000000004
 20
-2.989514326607149
 30
0.0
 11
32.5
 21
-2.989514326607149
 31
0.0
  0
LINE
  5
20F
330
2
100
AcDbEntity
  8
GEB-KONTUR-A
 48
25.0
100
AcDbLine
 10
32.5
 20
-2.989514326607149
 30
0.0
 11
32.5
 21
-2.054963012593475
 31
0.0
  0
LINE
  5
210
330
2
100
AcDbEntity
  8
GEB-KONTUR-A
 48
25.0
100
AcDbLine
 10
32.5
 20
-2.054963012593475
 30
0.0
 11
34.90000000000004
 21
-2.054963012593475
 31
0.0
  0
LINE
  5
211
330
2
100
AcDbEntity
  8
GEB-KONTUR-A
 48
25.0
100
AcDbLine
 10
34.90000000000004
 20
-0.7682842050172667
 30
0.0
 11
34.90000000000004
 21
0.7682842050172667
 31
0.0
  0
LINE
  5
212
330
2
100
AcDbEntity
  8
GEB-KONTUR-A
 48
25.0
100
AcDbLine
 10
32.5
 20
0.0
 30
0.0
 11
32.5
 21
0.7682842050172667
 31
0.0
  0
LINE
  5
213
330
2
100
AcDbEntity
  8
GEB-KONTUR-A
 48
25.0
100
AcDbLine
 10
32.5
 20
0.7682842050172667
 30
0.0
 11
34.90000000000004
 21
0.7682842050172667
 31
0.0
  0
LINE
  5
214
330
2
100
AcDbEntity
  8
GEB-KONTUR-A
 48
25.0
100
AcDbLine
 10
34.90000000000004
 20
-0.7682842050172667
 30
0.0
 11
32.5
 21
-0.7682842050172667
 31
0.0
  0
LINE
  5
215
330
2
100
AcDbEntity
  8
GEB-KONTUR-A
 48
25.0
100
AcDbLine
 10
32.5
 20
-0.7682842050172667
 30
0.0
 11
32.5
 21
0.0
 31
0.0
  0
LINE
  5
216
330
2
100
AcDbEntity
  8
GEB-KONTUR-A
 48
25.0
100
AcDbLine
 10
32.5
 20
0.0
 30
0.0
 11
34.90000000000004
 21
0.0
 31
0.0
  0
LINE
  5
217
330
2
100
AcDbEntity
  8
GEB-KONTUR-A
 48
25.0
100
AcDbLine
 10
34.90000000000004
 20
1.528150927510409
 30
0.0
 11
34.90000000000004
 21
2.989514326607149
 31
0.0
  0
LINE
  5
218
330
2
100
AcDbEntity
  8
GEB-KONTUR-A
 48
25.0
100
AcDbLine
 10
32.5
 20
2.054963012593361
 30
0.0
 11
32.5
 21
2.989514326607149
 31
0.0
  0
LINE
  5
219
330
2
100
AcDbEntity
  8
GEB-KONTUR-A
 48
25.0
100
AcDbLine
 10
32.5
 20
2.989514326607149
 30
0.0
 11
34.90000000000004
 21
2.989514326607149
 31
0.0
  0
LINE
  5
21A
330
2
100
AcDbEntity
  8
GEB-KONTUR-A
 48
25.0
100
AcDbLine
 10
34.90000000000004
 20
1.528150927510523
 30
0.0
 11
32.5
 21
1.528150927510523
 31
0.0
  0
LINE
  5
21B
330
2
100
AcDbEntity
  8
GEB-KONTUR-A
 48
25.0
100
AcDbLine
 10
32.5
 20
1.528150927510523
 30
0.0
 11
32.5
 21
2.054963012593361
 31
0.0
  0
LINE
  5
21C
330
2
100
AcDbEntity
  8
GEB-KONTUR-A
 48
25.0
100
AcDbLine
 10
32.5
 20
2.054963012593361
 30
0.0
 11
34.90000000000004
 21
2.054963012593361
 31
0.0
  0
LINE
  5
21D
330
2
100
AcDbEntity
  8
GEB-KONTUR-A
 48
25.0
100
AcDbLine
 10
34.90000000000004
 20
3.675000000000068
 30
0.0
 11
34.90000000000004
 21
4.91810995673768
 31
0.0
  0
LINE
  5
21E
330
2
100
AcDbEntity
  8
GEB-KONTUR-A
 48
25.0
100
AcDbLine
 10
32.5
 20
3.908771927744965
 30
0.0
 11
32.5
 21
4.918109956737566
 31
0.0
  0
LINE
  5
21F
330
2
100
AcDbEntity
  8
GEB-KONTUR-A
 48
25.0
100
AcDbLine
 10
32.5
 20
4.918109956737566
 30
0.0
 11
34.90000000000004
 21
4.918109956737566
 31
0.0
  0
LINE
  5
220
330
2
100
AcDbEntity
  8
GEB-KONTUR-A
 48
25.0
100
AcDbLine
 10
34.90000000000004
 20
3.674999999999954
 30
0.0
 11
32.5
 21
3.674999999999954
 31
0.0
  0
LINE
  5
221
330
2
100
AcDbEntity
  8
GEB-KONTUR-A
 48
25.0
100
AcDbLine
 10
32.5
 20
3.674999999999954
 30
0.0
 11
32.5
 21
3.908771927744965
 31
0.0
  0
LINE
  5
222
330
2
100
AcDbEntity
  8
GEB-KONTUR-A
 48
25.0
100
AcDbLine
 10
32.5
 20
3.908771927744965
 30
0.0
 11
34.90000000000004
 21
3.908771927744965
 31
0.0
  0
LINE
  5
223
330
2
100
AcDbEntity
  8
GEB-KONTUR-A
 48
25.0
100
AcDbLine
 10
34.90000000000004
 20
5.462114467258857
 30
0.0
 11
34.90000000000004
 21
6.365286717815592
 31
0.0
  0
LINE
  5
224
330
2
100
AcDbEntity
  8
GEB-KONTUR-A
 48
25.0
100
AcDbLine
 10
32.5
 20
5.462114467258743
 30
0.0
 11
32.5
 21
6.365286717815592
 31
0.0
  0
LINE
  5
225
330
2
100
AcDbEntity
  8
GEB-KONTUR-A
 48
25.0
100
AcDbLine
 10
32.5
 20
6.365286717815592
 30
0.0
 11
34.90000000000004
 21
6.365286717815592
 31
0.0
  0
LINE
  5
226
330
2
100
AcDbEntity
  8
GEB-KONTUR-A
 48
25.0
100
AcDbLine
 10
34.90000000000004
 20
5.462114467258743
 30
0.0
 11
32.5
 21
5.462114467258743
 31
0.0
  0
LINE
  5
227
330
2
100
AcDbEntity
  8
GEB-KONTUR-A
 48
25.0
100
AcDbLine
 10
34.90000000000004
 20
6.714559113672976
 30
0.0
 11
34.90000000000004
 21
7.189384865393435
 31
0.0
  0
LINE
  5
228
330
2
100
AcDbEntity
  8
GEB-KONTUR-A
 48
25.0
100
AcDbLine
 10
32.5
 20
6.714559113673203
 30
0.0
 11
32.5
 21
7.189384865393435
 31
0.0
  0
LINE
  5
229
330
2
100
AcDbEntity
  8
GEB-KONTUR-A
 48
25.0
100
AcDbLine
 10
32.5
 20
7.189384865393435
 30
0.0
 11
34.90000000000004
 21
7.189384865393435
 31
0.0
  0
LINE
  5
22A
330
2
100
AcDbEntity
  8
GEB-KONTUR-A
 48
25.0
100
AcDbLine
 10
34.90000000000004
 20
6.714559113673203
 30
0.0
 11
32.5
 21
6.714559113673203
 31
0.0
  0
LINE
  5
22B
330
2
100
AcDbEntity
  8
GEB-KONTUR-A
 48
25.0
100
AcDbLine
 10
34.90000000000004
 20
7.309735930956776
 30
0.0
 11
34.90000000000004
 21
7.349999999999909
 31
0.0
  0
LINE
  5
22C
330
2
100
AcDbEntity
  8
GEB-KONTUR-A
 48
25.0
100
AcDbLine
 10
34.90000000000004
 20
7.309735930956776
 30
0.0
 11
32.5
 21
7.309735930956776
 31
0.0
  0
LINE
  5
22D
330
2
100
AcDbEntity
  8
GEB-VERDECKT
 48
25.0
100
AcDbLine
 10
34.90000000000004
 20
-6.714559113673089
 30
0.0
 11
34.90000000000004
 21
-6.365286717815706
 31
0.0
  0
LINE
  5
22E
330
2
100
AcDbEntity
  8
GEB-VERDECKT
 48
25.0
100
AcDbLine
 10
32.5
 20
-6.324525833362713
 30
0.0
 11
34.90000000000004
 21
-6.324525833362713
 31
0.0
  0
LINE
  5
22F
330
2
100
AcDbEntity
  8
GEB-VERDECKT
 48
25.0
100
AcDbLine
 10
34.90000000000004
 20
-5.462114467258857
 30
0.0
 11
34.90000000000004
 21
-5.379963012593407
 31
0.0
  0
LINE
  5
230
330
2
100
AcDbEntity
  8
GEB-VERDECKT
 48
25.0
100
AcDbLine
 10
32.5
 20
-5.379963012593407
 30
0.0
 11
34.90000000000004
 21
-5.379963012593407
 31
0.0
  0
LINE
  5
231
330
2
100
AcDbEntity
  8
GEB-VERDECKT
 48
25.0
100
AcDbLine
 10
32.5
 20
5.379963012593407
 30
0.0
 11
34.90000000000004
 21
5.379963012593407
 31
0.0
  0
LINE
  5
232
330
2
100
AcDbEntity
  8
GEB-VERDECKT
 48
25.0
100
AcDbLine
 10
34.90000000000004
 20
5.379963012593407
 30
0.0
 11
34.90000000000004
 21
5.462114467258743
 31
0.0
  0
LINE
  5
233
330
2
100
AcDbEntity
  8
GEB-VERDECKT
 48
25.0
100
AcDbLine
 10
32.5
 20
6.324525833362713
 30
0.0
 11
34.90000000000004
 21
6.324525833362713
 31
0.0
  0
LINE
  5
234
330
2
100
AcDbEntity
  8
GEB-VERDECKT
 48
25.0
100
AcDbLine
 10
34.90000000000004
 20
6.365286717815592
 30
0.0
 11
34.90000000000004
 21
6.714559113673203
 31
0.0
  0
LINE
  5
235
330
2
100
AcDbEntity
  8
GEB-VERDECKT
 48
25.0
100
AcDbLine
 10
32.5
 20
6.65000000000009
 30
0.0
 11
34.90000000000004
 21
6.65000000000009
 31
0.0
  0
LINE
  5
236
330
2
100
AcDbEntity
  8
GEB-VERDECKT
 48
25.0
100
AcDbLine
 10
34.90000000000004
 20
7.189384865393435
 30
0.0
 11
34.90000000000004
 21
7.309735930956776
 31
0.0
  0
LINE
  5
237
330
2
100
AcDbEntity
  8
GEB-KONTUR-A
 48
25.0
100
AcDbLine
 10
45.49999999999999
 20
5.899999999999977
 30
0.0
 11
43.5
 21
5.899999999999977
 31
0.0
  0
LINE
  5
238
330
2
100
AcDbEntity
  8
GEB-KONTUR-A
 48
25.0
100
AcDbLine
 10
45.49999999999999
 20
-5.899999999999977
 30
0.0
 11
43.5
 21
-5.899999999999977
 31
0.0
  0
LINE
  5
239
330
2
100
AcDbEntity
  8
GEB-KONTUR-A
 48
25.0
100
AcDbLine
 10
43.5
 20
6.899999999999977
 30
0.0
 11
42.19999999999998
 21
6.899999999999977
 31
0.0
  0
LINE
  5
23A
330
2
100
AcDbEntity
  8
GEB-KONTUR-A
 48
25.0
100
AcDbLine
 10
43.5
 20
-6.899999999999977
 30
0.0
 11
42.19999999999998
 21
-6.899999999999977
 31
0.0
  0
LINE
  5
23B
330
2
100
AcDbEntity
  8
GEB-KONTUR-A
 48
25.0
100
AcDbLine
 10
32.5
 20
6.649999999999863
 30
0.0
 11
32.31407400337105
 21
6.649999999999863
 31
0.0
  0
LINE
  5
23C
330
2
100
AcDbEntity
  8
GEB-KONTUR-A
 48
25.0
100
AcDbLine
 10
32.5
 20
-6.649999999999977
 30
0.0
 11
32.31407400337105
 21
-6.649999999999977
 31
0.0
  0
LINE
  5
23D
330
2
100
AcDbEntity
  8
GEB-KONTUR-A
 48
25.0
100
AcDbLine
 10
32.31407400337105
 20
6.65000000000009
 30
0.0
 11
31.60000000000002
 21
7.149999999999977
 31
0.0
  0
LINE
  5
23E
330
2
100
AcDbEntity
  8
GEB-KONTUR-A
 48
25.0
100
AcDbLine
 10
32.31407400337105
 20
-6.649999999999977
 30
0.0
 11
31.60000000000002
 21
-7.149999999999977
 31
0.0
  0
LINE
  5
23F
330
2
100
AcDbEntity
  8
GEB-KONTUR-A
 48
25.0
100
AcDbLine
 10
31.60000000000002
 20
6.649999999999863
 30
0.0
 11
30.81407400337105
 21
6.649999999999863
 31
0.0
  0
LINE
  5
240
330
2
100
AcDbEntity
  8
GEB-KONTUR-A
 48
25.0
100
AcDbLine
 10
31.60000000000002
 20
-6.649999999999977
 30
0.0
 11
30.81407400337105
 21
-6.649999999999977
 31
0.0
  0
LINE
  5
241
330
2
100
AcDbEntity
  8
GEB-KONTUR-A
 48
25.0
100
AcDbLine
 10
30.81407400337105
 20
6.649999999999863
 30
0.0
 11
30.10000000000002
 21
7.149999999999977
 31
0.0
  0
LINE
  5
242
330
2
100
AcDbEntity
  8
GEB-KONTUR-A
 48
25.0
100
AcDbLine
 10
30.81407400337105
 20
-6.649999999999977
 30
0.0
 11
30.10000000000002
 21
-7.149999999999977
 31
0.0
  0
LINE
  5
243
330
2
100
AcDbEntity
  8
GEB-KONTUR-A
 48
25.0
100
AcDbLine
 10
30.10000000000002
 20
6.899999999999977
 30
0.0
 11
28.0
 21
6.899999999999977
 31
0.0
  0
LINE
  5
244
330
2
100
AcDbEntity
  8
GEB-KONTUR-A
 48
25.0
100
AcDbLine
 10
30.10000000000002
 20
-6.899999999999977
 30
0.0
 11
28.0
 21
-6.899999999999977
 31
0.0
  0
ARC
  5
245
330
2
100
AcDbEntity
  8
GEB-KONTUR-A
 48
25.0
100
AcDbCircle
 10
56.10000000000002
 20
-6.661706186112155
 30
0.0
 40
0.3999999999999997
100
AcDbArc
 50
280.0000000000002
 51
0.0
  0
ARC
  5
246
330
2
100
AcDbEntity
  8
GEB-KONTUR-A
 48
25.0
100
AcDbCircle
 10
56.10000000000002
 20
6.661706186112155
 30
0.0
 40
0.3999999999999997
100
AcDbArc
 50
0.0
 51
79.9999999999998
  0
LINE
  5
247
330
2
100
AcDbEntity
  8
GEB-KONTUR-A
 48
25.0
100
AcDbLine
 10
56.16945927106678
 20
7.05562928731706
 30
0.0
 11
54.5
 21
7.349999999999909
 31
0.0
  0
LINE
  5
248
330
2
100
AcDbEntity
  8
GEB-KONTUR-A
 48
25.0
100
AcDbLine
 10
56.16945927106678
 20
-7.05562928731706
 30
0.0
 11
54.5
 21
-7.350000000000022
 31
0.0
  0
LINE
  5
249
330
2
100
AcDbEntity
  8
GEB-KONTUR-A
 48
25.0
100
AcDbLine
 10
48.96672885658728
 20
7.349999999999909
 30
0.0
 11
46.80000000000001
 21
7.349999999999909
 31
0.0
  0
LINE
  5
24A
330
2
100
AcDbEntity
  8
GEB-KONTUR-A
 48
25.0
100
AcDbLine
 10
48.96672885658728
 20
-7.350000000000022
 30
0.0
 11
46.80000000000001
 21
-7.350000000000022
 31
0.0
  0
LINE
  5
24B
330
2
100
AcDbEntity
  8
GEB-KONTUR-A
 48
25.0
100
AcDbLine
 10
46.80000000000001
 20
6.899999999999977
 30
0.0
 11
45.49999999999999
 21
6.899999999999977
 31
0.0
  0
LINE
  5
24C
330
2
100
AcDbEntity
  8
GEB-KONTUR-A
 48
25.0
100
AcDbLine
 10
46.80000000000001
 20
-6.899999999999977
 30
0.0
 11
45.49999999999999
 21
-6.899999999999977
 31
0.0
  0
LINE
  5
24D
330
2
100
AcDbEntity
  8
GEB-KONTUR-A
 48
25.0
100
AcDbLine
 10
38.90000000000004
 20
7.349999999999909
 30
0.0
 11
34.90000000000004
 21
7.349999999999909
 31
0.0
  0
LINE
  5
24E
330
2
100
AcDbEntity
  8
GEB-KONTUR-A
 48
25.0
100
AcDbLine
 10
42.19999999999998
 20
7.349999999999909
 30
0.0
 11
41.30000000000006
 21
7.349999999999909
 31
0.0
  0
LINE
  5
24F
330
2
100
AcDbEntity
  8
GEB-KONTUR-A
 48
25.0
100
AcDbLine
 10
38.90000000000004
 20
-7.350000000000022
 30
0.0
 11
34.90000000000004
 21
-7.350000000000022
 31
0.0
  0
LINE
  5
250
330
2
100
AcDbEntity
  8
GEB-KONTUR-A
 48
25.0
100
AcDbLine
 10
42.19999999999998
 20
-7.350000000000022
 30
0.0
 11
41.30000000000006
 21
-7.350000000000022
 31
0.0
  0
LINE
  5
251
330
2
100
AcDbEntity
  8
GEB-KONTUR-A
 48
25.0
100
AcDbLine
 10
54.5
 20
7.349999999999909
 30
0.0
 11
53.43327114341275
 21
7.349999999999909
 31
0.0
  0
LINE
  5
252
330
2
100
AcDbEntity
  8
GEB-KONTUR-A
 48
25.0
100
AcDbLine
 10
54.5
 20
-7.350000000000022
 30
0.0
 11
53.43327114341275
 21
-7.350000000000022
 31
0.0
  0
LINE
  5
253
330
2
100
AcDbEntity
  8
GEB-KONTUR-A
 48
25.0
100
AcDbLine
 10
43.5
 20
6.899999999999977
 30
0.0
 11
43.5
 21
-6.899999999999977
 31
0.0
  0
LINE
  5
254
330
2
100
AcDbEntity
  8
GEB-KONTUR-A
 48
25.0
100
AcDbLine
 10
32.3140740033711
 20
6.649999999999863
 30
0.0
 11
32.3140740033711
 21
-6.649999999999977
 31
0.0
  0
LINE
  5
255
330
2
100
AcDbEntity
  8
GEB-KONTUR-A
 48
25.0
100
AcDbLine
 10
31.60000000000002
 20
7.149999999999977
 30
0.0
 11
31.60000000000002
 21
-7.149999999999977
 31
0.0
  0
LINE
  5
256
330
2
100
AcDbEntity
  8
GEB-KONTUR-A
 48
25.0
100
AcDbLine
 10
30.81407400337105
 20
6.649999999999863
 30
0.0
 11
30.81407400337105
 21
-6.649999999999977
 31
0.0
  0
LINE
  5
257
330
2
100
AcDbEntity
  8
GEB-KONTUR-A
 48
25.0
100
AcDbLine
 10
30.10000000000002
 20
7.149999999999977
 30
0.0
 11
30.10000000000002
 21
-7.149999999999977
 31
0.0
  0
LINE
  5
258
330
2
100
AcDbEntity
  8
GEB-KONTUR-A
 48
25.0
100
AcDbLine
 10
56.5
 20
-6.661706186112155
 30
0.0
 11
56.5
 21
6.661706186112155
 31
0.0
  0
LINE
  5
259
330
2
100
AcDbEntity
  8
GEB-KONTUR-A
 48
25.0
100
AcDbLine
 10
46.80000000000001
 20
7.349999999999909
 30
0.0
 11
46.80000000000001
 21
-7.350000000000022
 31
0.0
  0
LINE
  5
25A
330
2
100
AcDbEntity
  8
GEB-KONTUR-A
 48
25.0
100
AcDbLine
 10
45.49999999999999
 20
6.899999999999977
 30
0.0
 11
45.49999999999999
 21
-6.899999999999977
 31
0.0
  0
LINE
  5
25B
330
2
100
AcDbEntity
  8
GEB-KONTUR-A
 48
25.0
100
AcDbLine
 10
42.19999999999998
 20
7.349999999999909
 30
0.0
 11
42.19999999999998
 21
-7.350000000000022
 31
0.0
  0
LINE
  5
25C
330
2
100
AcDbEntity
  8
GEB-KONTUR-A
 48
25.0
100
AcDbLine
 10
32.5
 20
-7.189384865393435
 30
0.0
 11
32.5
 21
-7.309735930956776
 31
0.0
  0
LINE
  5
25D
330
2
100
AcDbEntity
  8
GEB-KONTUR-A
 48
25.0
100
AcDbLine
 10
32.5
 20
-6.365286717815706
 30
0.0
 11
32.5
 21
-6.714559113673089
 31
0.0
  0
LINE
  5
25E
330
2
100
AcDbEntity
  8
GEB-KONTUR-A
 48
25.0
100
AcDbLine
 10
32.5
 20
-4.918109956737566
 30
0.0
 11
32.5
 21
-5.462114467258857
 31
0.0
  0
LINE
  5
25F
330
2
100
AcDbEntity
  8
GEB-KONTUR-A
 48
25.0
100
AcDbLine
 10
32.5
 20
-2.989514326607149
 30
0.0
 11
32.5
 21
-3.674999999999954
 31
0.0
  0
LINE
  5
260
330
2
100
AcDbEntity
  8
GEB-KONTUR-A
 48
25.0
100
AcDbLine
 10
32.5
 20
-0.7682842050172667
 30
0.0
 11
32.5
 21
-1.528150927510523
 31
0.0
  0
LINE
  5
261
330
2
100
AcDbEntity
  8
GEB-KONTUR-A
 48
25.0
100
AcDbLine
 10
32.5
 20
1.528150927510523
 30
0.0
 11
32.5
 21
0.7682842050172667
 31
0.0
  0
LINE
  5
262
330
2
100
AcDbEntity
  8
GEB-KONTUR-A
 48
25.0
100
AcDbLine
 10
32.5
 20
3.674999999999954
 30
0.0
 11
32.5
 21
2.989514326607149
 31
0.0
  0
LINE
  5
263
330
2
100
AcDbEntity
  8
GEB-KONTUR-A
 48
25.0
100
AcDbLine
 10
32.5
 20
5.462114467258743
 30
0.0
 11
32.5
 21
4.918109956737566
 31
0.0
  0
LINE
  5
264
330
2
100
AcDbEntity
  8
GEB-KONTUR-A
 48
25.0
100
AcDbLine
 10
32.5
 20
6.714559113673203
 30
0.0
 11
32.5
 21
6.365286717815592
 31
0.0
  0
LINE
  5
265
330
2
100
AcDbEntity
  8
GEB-KONTUR-A
 48
25.0
100
AcDbLine
 10
32.5
 20
7.309735930956776
 30
0.0
 11
32.5
 21
7.189384865393435
 31
0.0
  0
LINE
  5
266
330
2
100
AcDbEntity
  8
GEB-KONTUR-A
 48
25.0
100
AcDbLine
 10
54.5
 20
7.349999999999909
 30
0.0
 11
54.5
 21
-7.350000000000022
 31
0.0
  0
ARC
  5
267
330
2
100
AcDbEntity
  8
GEB-KONTUR-A
 48
25.0
100
AcDbCircle
 10
51.19999999999999
 20
-10.30000000000007
 30
0.0
 40
3.699999999999996
100
AcDbArc
 50
52.87278281818131
 51
127.1272171818187
  0
ARC
  5
268
330
2
100
AcDbEntity
  8
GEB-KONTUR-A
 48
25.0
100
AcDbCircle
 10
51.19999999999999
 20
10.29999999999995
 30
0.0
 40
3.699999999999996
100
AcDbArc
 50
232.8727828181813
 51
307.1272171818187
  0
LINE
  5
269
330
2
100
AcDbEntity
  8
GEB-KONTUR-A
 48
25.0
100
AcDbLine
 10
53.43327114341275
 20
-7.350000000000022
 30
0.0
 11
53.43327114341275
 21
7.349999999999909
 31
0.0
  0
LINE
  5
26A
330
2
100
AcDbEntity
  8
GEB-KONTUR-A
 48
25.0
100
AcDbLine
 10
48.96672885658728
 20
7.349999999999909
 30
0.0
 11
48.96672885658728
 21
-7.350000000000022
 31
0.0
  0
LINE
  5
26B
330
2
100
AcDbEntity
  8
GEB-KONTUR-A
 48
25.0
100
AcDbLine
 10
41.30000000000001
 20
-7.350000000000022
 30
0.0
 11
41.30000000000001
 21
-7.309735930956776
 31
0.0
  0
LINE
  5
26C
330
2
100
AcDbEntity
  8
GEB-KONTUR-A
 48
25.0
100
AcDbLine
 10
38.90000000000004
 20
-7.30973593095689
 30
0.0
 11
38.90000000000004
 21
-7.350000000000136
 31
0.0
  0
LINE
  5
26D
330
2
100
AcDbEntity
  8
GEB-KONTUR-A
 48
25.0
100
AcDbLine
 10
38.90000000000004
 20
-7.30973593095689
 30
0.0
 11
41.30000000000006
 21
-7.30973593095689
 31
0.0
  0
LINE
  5
26E
330
2
100
AcDbEntity
  8
GEB-KONTUR-A
 48
25.0
100
AcDbLine
 10
41.30000000000001
 20
-7.189384865393435
 30
0.0
 11
41.30000000000001
 21
-6.714559113673089
 31
0.0
  0
LINE
  5
26F
330
2
100
AcDbEntity
  8
GEB-KONTUR-A
 48
25.0
100
AcDbLine
 10
38.90000000000004
 20
-6.714559113673203
 30
0.0
 11
38.90000000000004
 21
-7.189384865393549
 31
0.0
  0
LINE
  5
270
330
2
100
AcDbEntity
  8
GEB-KONTUR-A
 48
25.0
100
AcDbLine
 10
38.90000000000004
 20
-6.714559113673089
 30
0.0
 11
41.30000000000006
 21
-6.714559113673089
 31
0.0
  0
LINE
  5
271
330
2
100
AcDbEntity
  8
GEB-KONTUR-A
 48
25.0
100
AcDbLine
 10
41.30000000000006
 20
-7.189384865393435
 30
0.0
 11
38.90000000000004
 21
-7.189384865393435
 31
0.0
  0
LINE
  5
272
330
2
100
AcDbEntity
  8
GEB-KONTUR-A
 48
25.0
100
AcDbLine
 10
41.30000000000001
 20
-6.365286717815706
 30
0.0
 11
41.30000000000001
 21
-5.462114467258857
 31
0.0
  0
LINE
  5
273
330
2
100
AcDbEntity
  8
GEB-KONTUR-A
 48
25.0
100
AcDbLine
 10
38.90000000000004
 20
-5.462114467258857
 30
0.0
 11
38.90000000000004
 21
-6.365286717815706
 31
0.0
  0
LINE
  5
274
330
2
100
AcDbEntity
  8
GEB-KONTUR-A
 48
25.0
100
AcDbLine
 10
38.90000000000004
 20
-5.462114467258857
 30
0.0
 11
41.30000000000006
 21
-5.462114467258857
 31
0.0
  0
LINE
  5
275
330
2
100
AcDbEntity
  8
GEB-KONTUR-A
 48
25.0
100
AcDbLine
 10
41.30000000000006
 20
-6.365286717815706
 30
0.0
 11
38.90000000000004
 21
-6.365286717815706
 31
0.0
  0
LINE
  5
276
330
2
100
AcDbEntity
  8
GEB-KONTUR-A
 48
25.0
100
AcDbLine
 10
41.30000000000001
 20
-4.91810995673768
 30
0.0
 11
41.30000000000001
 21
-3.675000000000068
 31
0.0
  0
LINE
  5
277
330
2
100
AcDbEntity
  8
GEB-KONTUR-A
 48
25.0
100
AcDbLine
 10
38.90000000000004
 20
-3.675000000000068
 30
0.0
 11
38.90000000000004
 21
-4.91810995673768
 31
0.0
  0
LINE
  5
278
330
2
100
AcDbEntity
  8
GEB-KONTUR-A
 48
25.0
100
AcDbLine
 10
38.90000000000004
 20
-3.674999999999954
 30
0.0
 11
41.30000000000006
 21
-3.674999999999954
 31
0.0
  0
LINE
  5
279
330
2
100
AcDbEntity
  8
GEB-KONTUR-A
 48
25.0
100
AcDbLine
 10
41.30000000000006
 20
-4.91810995673768
 30
0.0
 11
38.90000000000004
 21
-4.91810995673768
 31
0.0
  0
LINE
  5
27A
330
2
100
AcDbEntity
  8
GEB-KONTUR-A
 48
25.0
100
AcDbLine
 10
38.90000000000004
 20
-3.908771927744965
 30
0.0
 11
41.30000000000006
 21
-3.908771927744965
 31
0.0
  0
LINE
  5
27B
330
2
100
AcDbEntity
  8
GEB-KONTUR-A
 48
25.0
100
AcDbLine
 10
41.30000000000001
 20
-2.989514326607149
 30
0.0
 11
41.30000000000001
 21
-1.528150927510523
 31
0.0
  0
LINE
  5
27C
330
2
100
AcDbEntity
  8
GEB-KONTUR-A
 48
25.0
100
AcDbLine
 10
38.90000000000004
 20
-1.52815092751075
 30
0.0
 11
38.90000000000004
 21
-2.989514326607149
 31
0.0
  0
LINE
  5
27D
330
2
100
AcDbEntity
  8
GEB-KONTUR-A
 48
25.0
100
AcDbLine
 10
38.90000000000004
 20
-1.528150927510523
 30
0.0
 11
41.30000000000006
 21
-1.528150927510523
 31
0.0
  0
LINE
  5
27E
330
2
100
AcDbEntity
  8
GEB-KONTUR-A
 48
25.0
100
AcDbLine
 10
41.30000000000006
 20
-2.989514326607149
 30
0.0
 11
38.90000000000004
 21
-2.989514326607149
 31
0.0
  0
LINE
  5
27F
330
2
100
AcDbEntity
  8
GEB-KONTUR-A
 48
25.0
100
AcDbLine
 10
38.90000000000004
 20
-2.054963012593475
 30
0.0
 11
41.30000000000006
 21
-2.054963012593475
 31
0.0
  0
LINE
  5
280
330
2
100
AcDbEntity
  8
GEB-KONTUR-A
 48
25.0
100
AcDbLine
 10
41.30000000000001
 20
-0.7682842050172667
 30
0.0
 11
41.30000000000001
 21
0.7682842050172667
 31
0.0
  0
LINE
  5
281
330
2
100
AcDbEntity
  8
GEB-KONTUR-A
 48
25.0
100
AcDbLine
 10
38.90000000000004
 20
0.768284205017153
 30
0.0
 11
38.90000000000004
 21
-0.7682842050172667
 31
0.0
  0
LINE
  5
282
330
2
100
AcDbEntity
  8
GEB-KONTUR-A
 48
25.0
100
AcDbLine
 10
38.90000000000004
 20
0.7682842050172667
 30
0.0
 11
41.30000000000006
 21
0.7682842050172667
 31
0.0
  0
LINE
  5
283
330
2
100
AcDbEntity
  8
GEB-KONTUR-A
 48
25.0
100
AcDbLine
 10
41.30000000000006
 20
-0.7682842050172667
 30
0.0
 11
38.90000000000004
 21
-0.7682842050172667
 31
0.0
  0
LINE
  5
284
330
2
100
AcDbEntity
  8
GEB-KONTUR-A
 48
25.0
100
AcDbLine
 10
38.90000000000004
 20
0.0
 30
0.0
 11
41.30000000000006
 21
0.0
 31
0.0
  0
LINE
  5
285
330
2
100
AcDbEntity
  8
GEB-KONTUR-A
 48
25.0
100
AcDbLine
 10
41.30000000000001
 20
1.528150927510409
 30
0.0
 11
41.30000000000001
 21
2.989514326607149
 31
0.0
  0
LINE
  5
286
330
2
100
AcDbEntity
  8
GEB-KONTUR-A
 48
25.0
100
AcDbLine
 10
38.90000000000004
 20
2.989514326607149
 30
0.0
 11
38.90000000000004
 21
1.528150927510523
 31
0.0
  0
LINE
  5
287
330
2
100
AcDbEntity
  8
GEB-KONTUR-A
 48
25.0
100
AcDbLine
 10
38.90000000000004
 20
2.989514326607149
 30
0.0
 11
41.30000000000006
 21
2.989514326607149
 31
0.0
  0
LINE
  5
288
330
2
100
AcDbEntity
  8
GEB-KONTUR-A
 48
25.0
100
AcDbLine
 10
41.30000000000006
 20
1.528150927510523
 30
0.0
 11
38.90000000000004
 21
1.528150927510523
 31
0.0
  0
LINE
  5
289
330
2
100
AcDbEntity
  8
GEB-KONTUR-A
 48
25.0
100
AcDbLine
 10
38.90000000000004
 20
2.054963012593361
 30
0.0
 11
41.30000000000006
 21
2.054963012593361
 31
0.0
  0
LINE
  5
28A
330
2
100
AcDbEntity
  8
GEB-KONTUR-A
 48
25.0
100
AcDbLine
 10
41.30000000000001
 20
3.675000000000068
 30
0.0
 11
41.30000000000001
 21
4.91810995673768
 31
0.0
  0
LINE
  5
28B
330
2
100
AcDbEntity
  8
GEB-KONTUR-A
 48
25.0
100
AcDbLine
 10
38.90000000000004
 20
4.918109956737566
 30
0.0
 11
38.90000000000004
 21
3.674999999999954
 31
0.0
  0
LINE
  5
28C
330
2
100
AcDbEntity
  8
GEB-KONTUR-A
 48
25.0
100
AcDbLine
 10
38.90000000000004
 20
4.918109956737566
 30
0.0
 11
41.30000000000006
 21
4.918109956737566
 31
0.0
  0
LINE
  5
28D
330
2
100
AcDbEntity
  8
GEB-KONTUR-A
 48
25.0
100
AcDbLine
 10
41.30000000000006
 20
3.674999999999954
 30
0.0
 11
38.90000000000004
 21
3.674999999999954
 31
0.0
  0
LINE
  5
28E
330
2
100
AcDbEntity
  8
GEB-KONTUR-A
 48
25.0
100
AcDbLine
 10
38.90000000000004
 20
3.908771927744965
 30
0.0
 11
41.30000000000006
 21
3.908771927744965
 31
0.0
  0
LINE
  5
28F
330
2
100
AcDbEntity
  8
GEB-KONTUR-A
 48
25.0
100
AcDbLine
 10
41.30000000000001
 20
5.462114467258857
 30
0.0
 11
41.30000000000001
 21
6.365286717815592
 31
0.0
  0
LINE
  5
290
330
2
100
AcDbEntity
  8
GEB-KONTUR-A
 48
25.0
100
AcDbLine
 10
38.90000000000004
 20
6.365286717815592
 30
0.0
 11
38.90000000000004
 21
5.462114467258857
 31
0.0
  0
LINE
  5
291
330
2
100
AcDbEntity
  8
GEB-KONTUR-A
 48
25.0
100
AcDbLine
 10
38.90000000000004
 20
6.365286717815592
 30
0.0
 11
41.30000000000006
 21
6.365286717815592
 31
0.0
  0
LINE
  5
292
330
2
100
AcDbEntity
  8
GEB-KONTUR-A
 48
25.0
100
AcDbLine
 10
41.30000000000006
 20
5.462114467258743
 30
0.0
 11
38.90000000000004
 21
5.462114467258743
 31
0.0
  0
LINE
  5
293
330
2
100
AcDbEntity
  8
GEB-KONTUR-A
 48
25.0
100
AcDbLine
 10
41.30000000000001
 20
6.714559113672976
 30
0.0
 11
41.30000000000001
 21
7.189384865393435
 31
0.0
  0
LINE
  5
294
330
2
100
AcDbEntity
  8
GEB-KONTUR-A
 48
25.0
100
AcDbLine
 10
38.90000000000004
 20
7.189384865393549
 30
0.0
 11
38.90000000000004
 21
6.714559113673203
 31
0.0
  0
LINE
  5
295
330
2
100
AcDbEntity
  8
GEB-KONTUR-A
 48
25.0
100
AcDbLine
 10
38.90000000000004
 20
7.189384865393435
 30
0.0
 11
41.30000000000006
 21
7.189384865393435
 31
0.0
  0
LINE
  5
296
330
2
100
AcDbEntity
  8
GEB-KONTUR-A
 48
25.0
100
AcDbLine
 10
41.30000000000006
 20
6.714559113673203
 30
0.0
 11
38.90000000000004
 21
6.714559113673203
 31
0.0
  0
LINE
  5
297
330
2
100
AcDbEntity
  8
GEB-KONTUR-A
 48
25.0
100
AcDbLine
 10
41.30000000000001
 20
7.309735930956776
 30
0.0
 11
41.30000000000001
 21
7.349999999999909
 31
0.0
  0
LINE
  5
298
330
2
100
AcDbEntity
  8
GEB-KONTUR-A
 48
25.0
100
AcDbLine
 10
38.90000000000004
 20
7.349999999999909
 30
0.0
 11
38.90000000000004
 21
7.309735930956776
 31
0.0
  0
LINE
  5
299
330
2
100
AcDbEntity
  8
GEB-KONTUR-A
 48
25.0
100
AcDbLine
 10
41.30000000000006
 20
7.309735930956776
 30
0.0
 11
38.90000000000004
 21
7.309735930956776
 31
0.0
  0
LINE
  5
29A
330
2
100
AcDbEntity
  8
GEB-VERDECKT
 48
25.0
100
AcDbLine
 10
38.90000000000004
 20
-7.189384865393435
 30
0.0
 11
38.90000000000004
 21
-7.30973593095689
 31
0.0
  0
LINE
  5
29B
330
2
100
AcDbEntity
  8
GEB-VERDECKT
 48
25.0
100
AcDbLine
 10
41.30000000000006
 20
-7.30973593095689
 30
0.0
 11
41.30000000000006
 21
-7.189384865393435
 31
0.0
  0
LINE
  5
29C
330
2
100
AcDbEntity
  8
GEB-VERDECKT
 48
25.0
100
AcDbLine
 10
38.90000000000004
 20
-6.649999999999977
 30
0.0
 11
41.30000000000006
 21
-6.649999999999977
 31
0.0
  0
LINE
  5
29D
330
2
100
AcDbEntity
  8
GEB-VERDECKT
 48
25.0
100
AcDbLine
 10
38.90000000000004
 20
-6.365286717815706
 30
0.0
 11
38.90000000000004
 21
-6.714559113673089
 31
0.0
  0
LINE
  5
29E
330
2
100
AcDbEntity
  8
GEB-VERDECKT
 48
25.0
100
AcDbLine
 10
41.30000000000006
 20
-6.714559113673089
 30
0.0
 11
41.30000000000006
 21
-6.365286717815706
 31
0.0
  0
LINE
  5
29F
330
2
100
AcDbEntity
  8
GEB-VERDECKT
 48
25.0
100
AcDbLine
 10
38.90000000000004
 20
-6.324525833362713
 30
0.0
 11
41.30000000000006
 21
-6.324525833362713
 31
0.0
  0
LINE
  5
2A0
330
2
100
AcDbEntity
  8
GEB-VERDECKT
 48
25.0
100
AcDbLine
 10
38.90000000000004
 20
-5.379963012593407
 30
0.0
 11
38.90000000000004
 21
-5.462114467258857
 31
0.0
  0
LINE
  5
2A1
330
2
100
AcDbEntity
  8
GEB-VERDECKT
 48
25.0
100
AcDbLine
 10
41.30000000000006
 20
-5.462114467258857
 30
0.0
 11
41.30000000000006
 21
-5.379963012593407
 31
0.0
  0
LINE
  5
2A2
330
2
100
AcDbEntity
  8
GEB-VERDECKT
 48
25.0
100
AcDbLine
 10
38.90000000000004
 20
-5.379963012593407
 30
0.0
 11
41.30000000000006
 21
-5.379963012593407
 31
0.0
  0
LINE
  5
2A3
330
2
100
AcDbEntity
  8
GEB-VERDECKT
 48
25.0
100
AcDbLine
 10
38.90000000000004
 20
5.462114467258743
 30
0.0
 11
38.90000000000004
 21
5.379963012593407
 31
0.0
  0
LINE
  5
2A4
330
2
100
AcDbEntity
  8
GEB-VERDECKT
 48
25.0
100
AcDbLine
 10
38.90000000000004
 20
5.379963012593407
 30
0.0
 11
41.30000000000006
 21
5.379963012593407
 31
0.0
  0
LINE
  5
2A5
330
2
100
AcDbEntity
  8
GEB-VERDECKT
 48
25.0
100
AcDbLine
 10
41.30000000000006
 20
5.379963012593407
 30
0.0
 11
41.30000000000006
 21
5.462114467258743
 31
0.0
  0
LINE
  5
2A6
330
2
100
AcDbEntity
  8
GEB-VERDECKT
 48
25.0
100
AcDbLine
 10
38.90000000000004
 20
6.714559113673203
 30
0.0
 11
38.90000000000004
 21
6.365286717815592
 31
0.0
  0
LINE
  5
2A7
330
2
100
AcDbEntity
  8
GEB-VERDECKT
 48
25.0
100
AcDbLine
 10
38.90000000000004
 20
6.324525833362713
 30
0.0
 11
41.30000000000006
 21
6.324525833362713
 31
0.0
  0
LINE
  5
2A8
330
2
100
AcDbEntity
  8
GEB-VERDECKT
 48
25.0
100
AcDbLine
 10
41.30000000000006
 20
6.365286717815592
 30
0.0
 11
41.30000000000006
 21
6.714559113673203
 31
0.0
  0
LINE
  5
2A9
330
2
100
AcDbEntity
  8
GEB-VERDECKT
 48
25.0
100
AcDbLine
 10
38.90000000000004
 20
7.309735930956776
 30
0.0
 11
38.90000000000004
 21
7.189384865393435
 31
0.0
  0
LINE
  5
2AA
330
2
100
AcDbEntity
  8
GEB-VERDECKT
 48
25.0
100
AcDbLine
 10
38.90000000000004
 20
6.65000000000009
 30
0.0
 11
41.30000000000006
 21
6.65000000000009
 31
0.0
  0
LINE
  5
2AB
330
2
100
AcDbEntity
  8
GEB-VERDECKT
 48
25.0
100
AcDbLine
 10
41.30000000000006
 20
7.189384865393435
 30
0.0
 11
41.30000000000006
 21
7.309735930956776
 31
0.0
  0
ARC
  5
2AC
330
2
100
AcDbEntity
  8
GEB-KONTUR-A
 48
25.0
100
AcDbCircle
 10
-14.04878036686949
 20
3.050000000000068
 30
0.0
 40
5.0
100
AcDbArc
 50
90.0
 51
120.0000000000005
  0
LINE
  5
2AD
330
2
100
AcDbEntity
  8
GEB-KONTUR-A
 48
25.0
100
AcDbLine
 10
-17.43589838486221
 20
6.867949192431069
 30
0.0
 11
-16.54878036686949
 21
7.380127018922166
 31
0.0
  0
ARC
  5
2AE
330
2
100
AcDbEntity
  8
GEB-KONTUR-A
 48
25.0
100
AcDbCircle
 10
14.71865334794734
 20
5.550000000000068
 30
0.0
 40
2.5
100
AcDbArc
 50
59.99999999999946
 51
90.0
  0
LINE
  5
2AF
330
2
100
AcDbEntity
  8
GEB-KONTUR-A
 48
25.0
100
AcDbLine
 10
17.4358983848623
 20
6.867949192431069
 30
0.0
 11
15.96865334794734
 21
7.71506350946106
 31
0.0
  0
LINE
  5
2B0
330
2
100
AcDbEntity
  8
GEB-VERDECKT
 48
25.0
100
AcDbLine
 10
6.700000000000045
 20
-4.700000000000045
 30
0.0
 11
28.0
 21
-4.700000000000045
 31
0.0
  0
LINE
  5
2B1
330
2
100
AcDbEntity
  8
GEB-VERDECKT
 48
25.0
100
AcDbLine
 10
-28.0
 20
-4.700000000000045
 30
0.0
 11
-6.699999999999988
 21
-4.700000000000045
 31
0.0
  0
LINE
  5
2B2
330
2
100
AcDbEntity
  8
GEB-VERDECKT
 48
25.0
100
AcDbLine
 10
-28.0
 20
4.699999999999931
 30
0.0
 11
28.0
 21
4.699999999999931
 31
0.0
  0
ARC
  5
2B3
330
2
100
AcDbEntity
  8
GEB-KONTUR-A
 48
25.0
100
AcDbCircle
 10
-18.43589838486224
 20
8.599999999999909
 30
0.0
 40
2.0
100
AcDbArc
 50
270.0
 51
300.0000000000005
  0
LINE
  5
2B4
330
2
100
AcDbEntity
  8
GEB-KONTUR-A
 48
25.0
100
AcDbLine
 10
-14.04878036686949
 20
8.050000000000068
 30
0.0
 11
14.71865334794734
 21
8.050000000000068
 31
0.0
  0
LINE
  5
2B5
330
2
100
AcDbEntity
  8
GEB-KONTUR-A
 48
25.0
100
AcDbLine
 10
-25.39999999999998
 20
-6.600000000000022
 30
0.0
 11
-11.69999999999999
 21
-6.600000000000022
 31
0.0
  0
LINE
  5
2B6
330
2
100
AcDbEntity
  8
GEB-KONTUR-A
 48
25.0
100
AcDbLine
 10
-25.39999999999998
 20
6.599999999999909
 30
0.0
 11
-18.43589838486224
 21
6.599999999999909
 31
0.0
  0
LINE
  5
2B7
330
2
100
AcDbEntity
  8
GEB-KONTUR-A
 48
25.0
100
AcDbLine
 10
11.70000000000004
 20
-6.600000000000022
 30
0.0
 11
25.39999999999998
 21
-6.600000000000022
 31
0.0
  0
LINE
  5
2B8
330
2
100
AcDbEntity
  8
GEB-KONTUR-A
 48
25.0
100
AcDbLine
 10
18.43589838486224
 20
6.599999999999909
 30
0.0
 11
25.39999999999998
 21
6.599999999999909
 31
0.0
  0
ARC
  5
2B9
330
2
100
AcDbEntity
  8
GEB-KONTUR-A
 48
25.0
100
AcDbCircle
 10
18.43589838486224
 20
8.599999999999909
 30
0.0
 40
2.0
100
AcDbArc
 50
239.9999999999995
 51
270.0
  0
LINE
  5
2BA
330
2
100
AcDbEntity
  8
GEB-KONTUR-A
 48
25.0
100
AcDbLine
 10
-9.699999999999988
 20
-8.600000000000022
 30
0.0
 11
-9.699999999999988
 21
-19.10000000000002
 31
0.0
  0
LINE
  5
2BB
330
2
100
AcDbEntity
  8
GEB-KONTUR-A
 48
25.0
100
AcDbLine
 10
9.699999999999988
 20
-8.600000000000022
 30
0.0
 11
9.699999999999988
 21
-19.10000000000002
 31
0.0
  0
LINE
  5
2BC
330
2
100
AcDbEntity
  8
GEB-VERDECKT
 48
25.0
100
AcDbLine
 10
-6.699999999999988
 20
-4.700000000000045
 30
0.0
 11
-6.699999999999988
 21
-22.0
 31
0.0
  0
LINE
  5
2BD
330
2
100
AcDbEntity
  8
GEB-VERDECKT
 48
25.0
100
AcDbLine
 10
6.700000000000045
 20
-4.700000000000045
 30
0.0
 11
6.700000000000045
 21
-22.0
 31
0.0
  0
SPLINE
  5
2BE
330
2
100
AcDbEntity
  8
GEB-VERDECKT
 48
25.0
100
AcDbSpline
210
0.0
220
0.0
230
1.0
 70
     8
 71
     3
 72
    14
 73
    10
 74
     0
 42
0.0000000001
 43
0.0000000001
 40
-0.7420847612374202
 40
-0.7420847612374202
 40
-0.7420847612208959
 40
-0.7420847612208959
 40
-0.5579126908345331
 40
-0.5579126908345331
 40
-0.3737406204481708
 40
-0.3737406204481708
 40
-0.1868703102240854
 40
-0.1868703102240854
 40
0.0
 40
0.0
 40
0.0
 40
0.0
 10
6.700000000000045
 20
-4.700000000000045
 30
0.0
 10
6.700000000000045
 20
-4.700000000000045
 30
0.0
 10
6.608801160205018
 20
-4.572622006181063
 30
0.0
 10
6.281333258024858
 20
-4.085066214125617
 30
0.0
 10
6.047578653434925
 20
-3.725901847635896
 30
0.0
 10
5.584343822101743
 20
-2.915005010784852
 30
0.0
 10
5.318384801249578
 20
-2.4022359908015
 30
0.0
 10
4.90881965478195
 20
-1.257779171095762
 30
0.0
 10
4.774934554525316
 20
-0.6229010340803143
 30
0.0
 10
4.774934554525316
 20
0.0
 30
0.0
  0
SPLINE
  5
2BF
330
2
100
AcDbEntity
  8
GEB-VERDECKT
 48
25.0
100
AcDbSpline
210
0.0
220
0.0
230
1.0
 70
     8
 71
     3
 72
    14
 73
    10
 74
     0
 42
0.0000000001
 43
0.0000000001
 40
0.0
 40
0.0
 40
0.0
 40
0.0
 40
0.1868703102240854
 40
0.1868703102240854
 40
0.3737406204481707
 40
0.3737406204481707
 40
0.5579126908345331
 40
0.5579126908345331
 40
0.7420847612043714
 40
0.7420847612043714
 40
0.7420847612208956
 40
0.7420847612208956
 10
-4.774934554525316
 20
0.0
 30
0.0
 10
-4.774934554525316
 20
-0.6229010340803143
 30
0.0
 10
-4.908819654781893
 20
-1.257779171095762
 30
0.0
 10
-5.31838480124955
 20
-2.4022359908015
 30
0.0
 10
-5.584343822101715
 20
-2.915005010784852
 30
0.0
 10
-6.047578653434925
 20
-3.725901847635896
 30
0.0
 10
-6.28133325802483
 20
-4.085066214125617
 30
0.0
 10
-6.608801160190324
 20
-4.572622006159235
 30
0.0
 10
-6.699999999983617
 20
-4.69999999997708
 30
0.0
 10
-6.699999999999988
 20
-4.700000000000045
 30
0.0
  0
SPLINE
  5
2C0
330
2
100
AcDbEntity
  8
GEB-VERDECKT
 48
25.0
100
AcDbSpline
210
0.0
220
0.0
230
1.0
 70
     8
 71
     3
 72
    15
 73
    11
 74
     0
 42
0.0000000001
 43
0.0000000001
 40
-0.4749628139122745
 40
-0.4749628139122745
 40
-0.4749628139122745
 40
-0.4749628139122745
 40
-0.3393025431303656
 40
-0.3393025431303656
 40
0.0
 40
0.0
 40
0.0
 40
0.3393025431303656
 40
0.3393025431303656
 40
0.4749628139122751
 40
0.4749628139122751
 40
0.4749628139122751
 40
0.4749628139122751
 10
4.774934554525941
 20
0.0
 30
0.0
 10
4.329707895986871
 20
0.1906547027007264
 30
0.0
 10
3.87711544686644
 20
0.3766168039904869
 30
0.0
 10
2.284035962577149
 20
0.9766921927559906
 30
0.0
 10
1.131008477101232
 20
1.314403415535934
 30
0.0
 10
0.0
 20
1.314403415535934
 30
0.0
 10
-1.131008477101204
 20
1.314403415535934
 30
0.0
 10
-2.284035962577121
 20
0.9766921927559906
 30
0.0
 10
-3.877115446866412
 20
0.3766168039904869
 30
0.0
 10
-4.329707895986814
 20
0.1906547027007264
 30
0.0
 10
-4.774934554525913
 20
0.0
 30
0.0
  0
LINE
  5
2C1
330
2
100
AcDbEntity
  8
GEB-KONTUR-A
 48
25.0
100
AcDbLine
 10
-6.506810950507713
 20
0.0
 30
0.0
 11
6.506810950518683
 21
0.0
 31
0.0
  0
ARC
  5
2C2
330
2
100
AcDbEntity
  8
GEB-KONTUR-A
 48
25.0
100
AcDbCircle
 10
11.70000000000004
 20
-8.600000000000022
 30
0.0
 40
2.0
100
AcDbArc
 50
90.0
 51
180.0
  0
ARC
  5
2C3
330
2
100
AcDbEntity
  8
GEB-KONTUR-A
 48
25.0
100
AcDbCircle
 10
-11.69999999999999
 20
-8.600000000000022
 30
0.0
 40
2.0
100
AcDbArc
 50
0.0
 51
90.0
  0
SPLINE
  5
2C4
330
2
100
AcDbEntity
  8
GEB-KONTUR-A
 48
25.0
100
AcDbSpline
210
0.0
220
0.0
230
1.0
 70
     8
 71
     3
 72
    12
 73
     8
 74
     0
 42
0.0000000001
 43
0.0000000001
 40
0.1917107824888327
 40
0.1917107824888327
 40
0.1917107824888327
 40
0.1917107824888327
 40
0.2031950620741617
 40
0.2031950620741617
 40
0.3382539689730775
 40
0.3382539689730775
 40
0.3395535840050794
 40
0.3395535840050794
 40
0.3395535840050794
 40
0.3395535840050794
 10
7.37028594195533
 20
1.360340547783494
 30
0.0
 10
7.380851165937485
 20
1.323483528246924
 30
0.0
 10
7.391742311766904
 20
1.28670975993532
 30
0.0
 10
7.534884089805984
 20
0.8185856504458115
 30
0.0
 10
7.708738634954329
 20
0.408902720022752
 30
0.0
 10
7.928640602994335
 20
0.0076427673703847
 30
0.0
 10
7.930740061776361
 20
0.0038203988174246
 30
0.0
 10
7.932843122109488
 20
0.0
 30
0.0
  0
SPLINE
  5
2C5
330
2
100
AcDbEntity
  8
GEB-KONTUR-A
 48
25.0
100
AcDbSpline
210
0.0
220
0.0
230
1.0
 70
     8
 71
     3
 72
    10
 73
     6
 74
     0
 42
0.0000000001
 43
0.0000000001
 40
-0.0013082694508566
 40
-0.0013082694508566
 40
-0.0013082694508566
 40
-0.0013082694508566
 40
0.0
 40
0.0
 40
0.1479965217311828
 40
0.1479965217311828
 40
0.1479965217311828
 40
0.1479965217311828
 10
-7.932843122109488
 20
0.0
 30
0.0
 10
-7.930740110269027
 20
0.0038203107260415
 30
0.0
 10
-7.928640699863024
 20
0.0076425910067428
 30
0.0
 10
-7.689458904498849
 20
0.4440828231231535
 30
0.0
 10
-7.505054657084428
 20
0.8901968788184149
 30
0.0
 10
-7.370285941955273
 20
1.360340547783494
 30
0.0
  0
SPLINE
  5
2C6
330
2
100
AcDbEntity
  8
GEB-VERDECKT
 48
25.0
100
AcDbSpline
210
0.0
220
0.0
230
1.0
 70
     8
 71
     3
 72
    10
 73
     6
 74
     0
 42
0.0000000001
 43
0.0000000001
 40
-0.0498319626015024
 40
-0.0498319626015024
 40
-0.0498319626015024
 40
-0.0498319626015024
 40
0.0
 40
0.0
 40
0.002056419617767
 40
0.002056419617767
 40
0.002056419617767
 40
0.002056419617767
 10
6.872618767348853
 20
1.732781643802013
 30
0.0
 10
7.015248204349688
 20
1.64260888634601
 30
0.0
 10
7.156506777214474
 20
1.551969940764138
 30
0.0
 10
7.301385545500124
 20
1.457493780670915
 30
0.0
 10
7.307126187697747
 20
1.45374777065183
 30
0.0
 10
7.312865662128842
 20
1.449999999999931
 30
0.0
  0
SPLINE
  5
2C7
330
2
100
AcDbEntity
  8
GEB-VERDECKT
 48
25.0
100
AcDbSpline
210
0.0
220
0.0
230
1.0
 70
     8
 71
     3
 72
    10
 73
     6
 74
     0
 42
0.0000000001
 43
0.0000000001
 40
-0.3940233183542452
 40
-0.3940233183542452
 40
-0.3940233183542452
 40
-0.3940233183542452
 40
-0.3920261305915224
 40
-0.3920261305915224
 40
-0.3443882348170008
 40
-0.3443882348170008
 40
-0.3443882348170008
 40
-0.3443882348170008
 10
-7.312865662128814
 20
1.449999999999931
 30
0.0
 10
-7.307075897523588
 20
1.453780609205296
 30
0.0
 10
-7.301284942789635
 20
1.457559427968135
 30
0.0
 10
-7.157336650604747
 20
1.551427717759679
 30
0.0
 10
-7.016085705001614
 20
1.642079404180663
 30
0.0
 10
-6.872618767348853
 20
1.732781643802013
 30
0.0
  0
SPLINE
  5
2C8
330
2
100
AcDbEntity
  8
GEB-KONTUR-A
 48
25.0
100
AcDbSpline
210
0.0
220
0.0
230
1.0
 70
     8
 71
     3
 72
    36
 73
    32
 74
     0
 42
0.0000000001
 43
0.0000000001
 40
-0.4630169534540891
 40
-0.4630169534540891
 40
-0.4630169534540891
 40
-0.4630169534540891
 40
-0.380883089999541
 40
-0.380883089999541
 40
-0.2934073802175607
 40
-0.2934073802175607
 40
-0.2421567931140037
 40
-0.2421567931140037
 40
-0.206438283605894
 40
-0.206438283605894
 40
-0.1886199182555177
 40
-0.1886199182555177
 40
-0.1757641179328272
 40
-0.1757641179328272
 40
-0.1612802340971762
 40
-0.1612802340971762
 40
-0.1567305437355962
 40
-0.1567305437355962
 40
-0.1552384465618837
 40
-0.1552384465618837
 40
-0.1542768249563993
 40
-0.1542768249563993
 40
-0.1533719491262359
 40
-0.1533719491262359
 40
-0.1521824750413926
 40
-0.1521824750413926
 40
-0.1501647582270491
 40
-0.1501647582270491
 40
-0.1373846281116238
 40
-0.1373846281116238
 40
0.0
 40
0.0
 40
0.0
 40
0.0
 10
6.576804856296007
 20
0.0079390182038424
 30
0.0
 10
6.668730011722686
 20
0.0294894071846557
 30
0.0
 10
6.768223771993973
 20
0.0525430855634568
 30
0.0
 10
6.986142841411663
 20
0.1035186397484722
 30
0.0
 10
7.104069217350001
 20
0.1308885522308856
 30
0.0
 10
7.294893485996851
 20
0.1812726713062602
 30
0.0
 10
7.358235890146374
 20
0.1995506138039218
 30
0.0
 10
7.449231399687391
 20
0.2317711994735419
 30
0.0
 10
7.490652106009349
 20
0.2483499997940726
 30
0.0
 10
7.542502231177536
 20
0.279370094409046
 30
0.0
 10
7.559354003697023
 20
0.2914961435815257
 30
0.0
 10
7.583976366150238
 20
0.3164420283254685
 30
0.0
 10
7.592814918601391
 20
0.3279562857102292
 30
0.0
 10
7.607878977798634
 20
0.35555270153111
 30
0.0
 10
7.613105840388868
 20
0.3710698492418487
 30
0.0
 10
7.617254400138619
 20
0.3926151734157202
 30
0.0
 10
7.618033178928271
 20
0.3978068852632077
 30
0.0
 10
7.618823371259338
 20
0.4047310378059592
 30
0.0
 10
7.618998772525969
 20
0.4064435829513969
 30
0.0
 10
7.619256396878142
 20
0.4092626973534835
 30
0.0
 10
7.619349585307645
 20
0.4103683377185235
 30
0.0
 10
7.619515884582369
 20
0.4125155353945047
 30
0.0
 10
7.619589862063492
 20
0.4135571062732879
 30
0.0
 10
7.619746208467745
 20
0.4159688178649504
 30
0.0
 10
7.619823911058063
 20
0.4173394569568245
 30
0.0
 10
7.620004813525326
 20
0.4210364186338893
 30
0.0
 10
7.620088142159318
 20
0.423364646771006
 30
0.0
 10
7.620492456827435
 20
0.4404409102153295
 30
0.0
 10
7.619713173640207
 20
0.4554580952568586
 30
0.0
 10
7.603049002771399
 20
0.6277229895340497
 30
0.0
 10
7.496476685022685
 20
0.9201213257015297
 30
0.0
 10
7.37028594195533
 20
1.360340547783494
 30
0.0
  0
SPLINE
  5
2C9
330
2
100
AcDbEntity
  8
GEB-KONTUR-A
 48
25.0
100
AcDbSpline
210
0.0
220
0.0
230
1.0
 70
     8
 71
     3
 72
     8
 73
     4
 74
     0
 42
0.0000000001
 43
0.0000000001
 40
0.1958273867705216
 40
0.1958273867705216
 40
0.1958273867705216
 40
0.1958273867705216
 40
0.2090379122372676
 40
0.2090379122372676
 40
0.2090379122372676
 40
0.2090379122372676
 10
-6.576804856296007
 20
0.0079390182038424
 30
0.0
 10
-6.553938859650344
 20
0.0025784493817582
 30
0.0
 10
-6.530605729548426
 20
0.0
 30
0.0
 10
-6.506810950507542
 20
0.0
 30
0.0
  0
SPLINE
  5
2CA
330
2
100
AcDbEntity
  8
GEB-KONTUR-A
 48
25.0
100
AcDbSpline
210
0.0
220
0.0
230
1.0
 70
     8
 71
     3
 72
     8
 73
     4
 74
     0
 42
0.0000000001
 43
0.0000000001
 40
0.0
 40
0.0
 40
0.0
 40
0.0
 40
0.0096461437864368
 40
0.0096461437864368
 40
0.0096461437864368
 40
0.0096461437864368
 10
6.506810950507599
 20
0.0
 30
0.0
 10
6.530657296503363
 20
0.0
 30
0.0
 10
6.553987062735927
 20
0.0025897498275071
 30
0.0
 10
6.576804856295836
 20
0.0079390182037287
 30
0.0
  0
SPLINE
  5
2CB
330
2
100
AcDbEntity
  8
GEB-KONTUR-A
 48
25.0
100
AcDbSpline
210
0.0
220
0.0
230
1.0
 70
     8
 71
     3
 72
    44
 73
    40
 74
     0
 42
0.0000000001
 43
0.0000000001
 40
-0.2926077286229691
 40
-0.2926077286229691
 40
-0.2926077286229691
 40
-0.2926077286229691
 40
-0.2893314531773314
 40
-0.2893314531773314
 40
-0.2357425403515695
 40
-0.2357425403515695
 40
-0.2069721657835901
 40
-0.2069721657835901
 40
-0.1920889774158024
 40
-0.1920889774158024
 40
-0.1902710243637678
 40
-0.1902710243637678
 40
-0.1894384386577615
 40
-0.1894384386577615
 40
-0.1888106264653884
 40
-0.1888106264653884
 40
-0.1882202923218632
 40
-0.1882202923218632
 40
-0.1872396692920737
 40
-0.1872396692920737
 40
-0.1847245917083391
 40
-0.1847245917083391
 40
-0.1845096245680938
 40
-0.1845096245680938
 40
-0.1840280848109894
 40
-0.1840280848109894
 40
-0.172093207218858
 40
-0.172093207218858
 40
-0.1633012322564717
 40
-0.1633012322564717
 40
-0.1519929007905335
 40
-0.1519929007905335
 40
-0.1327288895997832
 40
-0.1327288895997832
 40
-0.1012487006298498
 40
-0.1012487006298498
 40
-0.0953646001194667
 40
-0.0953646001194667
 40
0.0
 40
0.0
 40
0.0
 40
0.0
 10
-7.370285941955273
 20
1.360340547783494
 30
0.0
 10
-7.374636118207718
 20
1.345164860889099
 30
0.0
 10
-7.37900482650653
 20
1.329998495779932
 30
0.0
 10
-7.45518119480198
 20
1.066785461020003
 30
0.0
 10
-7.520604459965653
 20
0.8617582696191448
 30
0.0
 10
-7.585655912588777
 20
0.635720114780952
 30
0.0
 10
-7.603831159537776
 20
0.5661021521042358
 30
0.0
 10
-7.617957225827865
 20
0.4795825088871198
 30
0.0
 10
-7.620596722800513
 20
0.4524972004805932
 30
0.0
 10
-7.620134259676262
 20
0.4247206438614058
 30
0.0
 10
-7.62003749841881
 20
0.4216965826202568
 30
0.0
 10
-7.619821507209422
 20
0.4172939634199793
 30
0.0
 10
-7.61974286203403
 20
0.4159115041268251
 30
0.0
 10
-7.619585103433536
 20
0.4134882517214465
 30
0.0
 10
-7.619510855318281
 20
0.4124469418571835
 30
0.0
 10
-7.619353895964621
 20
0.410427675367032
 30
0.0
 10
-7.61927194922552
 20
0.4094495792170392
 30
0.0
 10
-7.619037739092277
 20
0.4068484046163121
 30
0.0
 10
-7.618874788596116
 20
0.4052262398874973
 30
0.0
 10
-7.618231149190251
 20
0.3994514801360083
 30
0.0
 10
-7.617652138735991
 20
0.3953101730303388
 30
0.0
 10
-7.61688183798887
 20
0.3908405042661798
 30
0.0
 10
-7.616820229732098
 20
0.3904887317978591
 30
0.0
 10
-7.616617494939561
 20
0.3893495516814482
 30
0.0
 10
-7.616472502207216
 20
0.3885628860841734
 30
0.0
 10
-7.612606698859877
 20
0.3683041147520498
 30
0.0
 10
-7.606013562303246
 20
0.3502421267619411
 30
0.0
 10
-7.587823016432281
 20
0.3211272941705374
 30
0.0
 10
-7.578465871682482
 20
0.3102203413075131
 30
0.0
 10
-7.554237745360723
 20
0.2877082979969145
 30
0.0
 10
-7.538656091204074
 20
0.2769073373627862
 30
0.0
 10
-7.495727450295873
 20
0.2516991000425151
 30
0.0
 10
-7.464955547121917
 20
0.2384304363658884
 30
0.0
 10
-7.388856006946213
 20
0.2094320290705127
 30
0.0
 10
-7.333158163680479
 20
0.1923841299878859
 30
0.0
 10
-7.259495696251207
 20
0.1720522100680455
 30
0.0
 10
-7.247907671573358
 20
0.1689141392375859
 30
0.0
 10
-7.049066709327746
 20
0.1158741753210961
 30
0.0
 10
-6.807067923583474
 20
0.0619205278890149
 30
0.0
 10
-6.576804856296007
 20
0.0079390182038424
 30
0.0
  0
SPLINE
  5
2CC
330
2
100
AcDbEntity
  8
GEB-VERDECKT
 48
25.0
100
AcDbSpline
210
0.0
220
0.0
230
1.0
 70
     8
 71
     3
 72
    16
 73
    12
 74
     0
 42
0.0000000001
 43
0.0000000001
 40
0.0
 40
0.0
 40
0.0
 40
0.0
 40
0.010755038464058
 40
0.010755038464058
 40
0.0227926695040051
 40
0.0227926695040051
 40
0.0305080486185434
 40
0.0305080486185434
 40
0.0464296710326793
 40
0.0464296710326793
 40
0.0949192433986334
 40
0.0949192433986334
 40
0.0949192433986334
 40
0.0949192433986334
 10
7.680411236124882
 20
0.5077780097350342
 30
0.0
 10
7.66583697093273
 20
0.5405319787622603
 30
0.0
 10
7.65013952392934
 20
0.5720710675395822
 30
0.0
 10
7.613291857104968
 20
0.6393566375577393
 30
0.0
 10
7.590351869315611
 20
0.6774527300381124
 30
0.0
 10
7.533485822730028
 20
0.7687032015267051
 30
0.0
 10
7.508667727978945
 20
0.8079954484519475
 30
0.0
 10
7.437965254842879
 20
0.919081060510507
 30
0.0
 10
7.387758635833449
 20
0.996691756150426
 30
0.0
 10
7.186420048314744
 20
1.30195289377275
 30
0.0
 10
7.033830666748883
 20
1.519684151928458
 30
0.0
 10
6.87261876734874
 20
1.732781643802354
 30
0.0
  0
SPLINE
  5
2CD
330
2
100
AcDbEntity
  8
GEB-VERDECKT
 48
25.0
100
AcDbSpline
210
0.0
220
0.0
230
1.0
 70
     8
 71
     3
 72
    10
 73
     6
 74
     0
 42
0.0000000001
 43
0.0000000001
 40
-0.0840790579237064
 40
-0.0840790579237064
 40
-0.0840790579237064
 40
-0.0840790579237064
 40
-0.0826642550051457
 40
-0.0826642550051457
 40
-0.0341320736541834
 40
-0.0341320736541834
 40
-0.0341320736541834
 40
-0.0341320736541834
 10
7.010777825529089
 20
1.253821995752559
 30
0.0
 10
7.009491336012558
 20
1.258352307649602
 30
0.0
 10
7.008204412811096
 20
1.262882406471931
 30
0.0
 10
6.962756525714212
 20
1.422801286704498
 30
0.0
 10
6.918062552582398
 20
1.577996737389185
 30
0.0
 10
6.872618767348853
 20
1.732781643802013
 30
0.0
  0
SPLINE
  5
2CE
330
2
100
AcDbEntity
  8
GEB-VERDECKT
 48
25.0
100
AcDbSpline
210
0.0
220
0.0
230
1.0
 70
     8
 71
     3
 72
    16
 73
    12
 74
     0
 42
0.0000000001
 43
0.0000000001
 40
0.2350827706477669
 40
0.2350827706477669
 40
0.2350827706477669
 40
0.2350827706477669
 40
0.3349523508709642
 40
0.3349523508709642
 40
0.3786857540347178
 40
0.3786857540347178
 40
0.3982911917537801
 40
0.3982911917537801
 40
0.4114010432627719
 40
0.4114010432627719
 40
0.4276355942655677
 40
0.4276355942655677
 40
0.4276355942655677
 40
0.4276355942655677
 10
-6.872618767357664
 20
1.732781643790417
 30
0.0
 10
-7.044379170452288
 20
1.505740642233035
 30
0.0
 10
-7.191284135649624
 20
1.293448345303545
 30
0.0
 10
-7.371990527152945
 20
1.02096830191158
 30
0.0
 10
-7.427253107640012
 20
0.9357922542700407
 30
0.0
 10
-7.503353401663332
 20
0.8163896413038855
 30
0.0
 10
-7.52837022418987
 20
0.7768299827212104
 30
0.0
 10
-7.566198507097197
 20
0.7162524740440404
 30
0.0
 10
-7.589587831919317
 20
0.6785664052806624
 30
0.0
 10
-7.628820846816211
 20
0.6120062483411175
 30
0.0
 10
-7.654749203161316
 20
0.5654504496000073
 30
0.0
 10
-7.680411236124939
 20
0.5077780097356026
 30
0.0
  0
SPLINE
  5
2CF
330
2
100
AcDbEntity
  8
GEB-VERDECKT
 48
25.0
100
AcDbSpline
210
0.0
220
0.0
230
1.0
 70
     8
 71
     3
 72
    10
 73
     6
 74
     0
 42
0.0000000001
 43
0.0000000001
 40
-0.048517354252686
 40
-0.048517354252686
 40
-0.048517354252686
 40
-0.048517354252686
 40
0.0
 40
0.0
 40
0.0014225943964484
 40
0.0014225943964484
 40
0.0014225943964484
 40
0.0014225943964484
 10
-6.872618767348853
 20
1.732781643802013
 30
0.0
 10
-6.918065662677008
 20
1.577986144175952
 30
0.0
 10
-6.962751453285648
 20
1.422818476583188
 30
0.0
 10
-7.008190391878201
 20
1.262931761510117
 30
0.0
 10
-7.009484328498643
 20
1.258376984342362
 30
0.0
 10
-7.010777825559102
 20
1.253821995711291
 30
0.0
  0
LINE
  5
2D0
330
2
100
AcDbEntity
  8
GEB-KONTUR-A
 48
25.0
100
AcDbLine
 10
-28.0
 20
-10.0
 30
0.0
 11
-27.32161343370217
 21
-11.17500000000007
 31
0.0
  0
LINE
  5
2D1
330
2
100
AcDbEntity
  8
GEB-KONTUR-A
 48
25.0
100
AcDbLine
 10
-28.0
 20
10.0
 30
0.0
 11
-27.32161343370217
 21
11.17500000000007
 31
0.0
  0
LINE
  5
2D2
330
2
100
AcDbEntity
  8
GEB-KONTUR-A
 48
25.0
100
AcDbLine
 10
-26.09999999999997
 20
11.17500000000007
 30
0.0
 11
-27.32161343370217
 21
11.17500000000007
 31
0.0
  0
LINE
  5
2D3
330
2
100
AcDbEntity
  8
GEB-KONTUR-A
 48
25.0
100
AcDbLine
 10
-26.09999999999997
 20
-11.17500000000007
 30
0.0
 11
-27.32161343370217
 21
-11.17500000000007
 31
0.0
  0
LINE
  5
2D4
330
2
100
AcDbEntity
  8
GEB-KONTUR-A
 48
25.0
100
AcDbLine
 10
-25.39999999999998
 20
9.962564434701675
 30
0.0
 11
-26.09999999999997
 21
11.17500000000007
 31
0.0
  0
LINE
  5
2D5
330
2
100
AcDbEntity
  8
GEB-KONTUR-A
 48
25.0
100
AcDbLine
 10
-25.39999999999998
 20
-9.962564434701789
 30
0.0
 11
-26.09999999999997
 21
-11.17500000000007
 31
0.0
  0
LINE
  5
2D6
330
2
100
AcDbEntity
  8
GEB-KONTUR-A
 48
25.0
100
AcDbLine
 10
-28.0
 20
10.0
 30
0.0
 11
-28.0
 21
-10.0
 31
0.0
  0
LINE
  5
2D7
330
2
100
AcDbEntity
  8
GEB-KONTUR-A
 48
25.0
100
AcDbLine
 10
-27.32161343370217
 20
11.17500000000007
 30
0.0
 11
-27.32161343370217
 21
-11.17500000000007
 31
0.0
  0
LINE
  5
2D8
330
2
100
AcDbEntity
  8
GEB-KONTUR-A
 48
25.0
100
AcDbLine
 10
-26.09999999999997
 20
11.17500000000007
 30
0.0
 11
-26.09999999999997
 21
-11.17500000000007
 31
0.0
  0
LINE
  5
2D9
330
2
100
AcDbEntity
  8
GEB-KONTUR-A
 48
25.0
100
AcDbLine
 10
-25.39999999999998
 20
9.962564434701675
 30
0.0
 11
-25.39999999999998
 21
-9.962564434701789
 31
0.0
  0
LINE
  5
2DA
330
2
100
AcDbEntity
  8
GEB-KONTUR-A
 48
25.0
100
AcDbLine
 10
28.0
 20
10.0
 30
0.0
 11
27.32161343370222
 21
11.17499999999995
 31
0.0
  0
LINE
  5
2DB
330
2
100
AcDbEntity
  8
GEB-KONTUR-A
 48
25.0
100
AcDbLine
 10
28.0
 20
-10.0
 30
0.0
 11
27.32161343370222
 21
-11.17500000000007
 31
0.0
  0
LINE
  5
2DC
330
2
100
AcDbEntity
  8
GEB-KONTUR-A
 48
25.0
100
AcDbLine
 10
26.10000000000002
 20
-11.17500000000007
 30
0.0
 11
27.32161343370222
 21
-11.17500000000007
 31
0.0
  0
LINE
  5
2DD
330
2
100
AcDbEntity
  8
GEB-KONTUR-A
 48
25.0
100
AcDbLine
 10
26.10000000000002
 20
11.17499999999995
 30
0.0
 11
27.32161343370222
 21
11.17499999999995
 31
0.0
  0
LINE
  5
2DE
330
2
100
AcDbEntity
  8
GEB-KONTUR-A
 48
25.0
100
AcDbLine
 10
25.39999999999998
 20
-9.962564434701789
 30
0.0
 11
26.10000000000002
 21
-11.17500000000007
 31
0.0
  0
LINE
  5
2DF
330
2
100
AcDbEntity
  8
GEB-KONTUR-A
 48
25.0
100
AcDbLine
 10
25.39999999999998
 20
9.962564434701675
 30
0.0
 11
26.10000000000002
 21
11.17499999999995
 31
0.0
  0
LINE
  5
2E0
330
2
100
AcDbEntity
  8
GEB-KONTUR-A
 48
25.0
100
AcDbLine
 10
28.0
 20
-10.0
 30
0.0
 11
28.0
 21
10.0
 31
0.0
  0
LINE
  5
2E1
330
2
100
AcDbEntity
  8
GEB-KONTUR-A
 48
25.0
100
AcDbLine
 10
27.32161343370222
 20
-11.17500000000007
 30
0.0
 11
27.32161343370222
 21
11.17499999999995
 31
0.0
  0
LINE
  5
2E2
330
2
100
AcDbEntity
  8
GEB-KONTUR-A
 48
25.0
100
AcDbLine
 10
25.39999999999998
 20
-9.962564434701789
 30
0.0
 11
25.39999999999998
 21
9.962564434701675
 31
0.0
  0
LINE
  5
2E3
330
2
100
AcDbEntity
  8
GEB-KONTUR-A
 48
25.0
100
AcDbLine
 10
26.10000000000002
 20
-11.17500000000007
 30
0.0
 11
26.10000000000002
 21
11.17499999999995
 31
0.0
  0
LINE
  5
2E4
330
2
100
AcDbEntity
  8
GEB-KONTUR-A
 48
25.0
100
AcDbLine
 10
13.0
 20
-22.0
 30
0.0
 11
14.14999999999998
 21
-21.33604719043194
 31
0.0
  0
LINE
  5
2E5
330
2
100
AcDbEntity
  8
GEB-KONTUR-A
 48
25.0
100
AcDbLine
 10
-13.0
 20
-22.0
 30
0.0
 11
-14.14999999999998
 21
-21.33604719043194
 31
0.0
  0
LINE
  5
2E6
330
2
100
AcDbEntity
  8
GEB-KONTUR-A
 48
25.0
100
AcDbLine
 10
-14.14999999999998
 20
-19.90000000000009
 30
0.0
 11
-14.14999999999998
 21
-21.33604719043194
 31
0.0
  0
LINE
  5
2E7
330
2
100
AcDbEntity
  8
GEB-KONTUR-A
 48
25.0
100
AcDbLine
 10
14.14999999999998
 20
-19.90000000000009
 30
0.0
 11
14.14999999999998
 21
-21.33604719043194
 31
0.0
  0
LINE
  5
2E8
330
2
100
AcDbEntity
  8
GEB-KONTUR-A
 48
25.0
100
AcDbLine
 10
-12.76435935394488
 20
-19.10000000000002
 30
0.0
 11
-14.14999999999998
 21
-19.90000000000009
 31
0.0
  0
LINE
  5
2E9
330
2
100
AcDbEntity
  8
GEB-KONTUR-A
 48
25.0
100
AcDbLine
 10
12.76435935394488
 20
-19.10000000000002
 30
0.0
 11
14.14999999999998
 21
-19.90000000000009
 31
0.0
  0
LINE
  5
2EA
330
2
100
AcDbEntity
  8
GEB-KONTUR-A
 48
25.0
100
AcDbLine
 10
-13.0
 20
-22.0
 30
0.0
 11
13.0
 21
-22.0
 31
0.0
  0
LINE
  5
2EB
330
2
100
AcDbEntity
  8
GEB-KONTUR-A
 48
25.0
100
AcDbLine
 10
-14.14999999999998
 20
-21.33604719043194
 30
0.0
 11
14.14999999999998
 21
-21.33604719043194
 31
0.0
  0
LINE
  5
2EC
330
2
100
AcDbEntity
  8
GEB-KONTUR-A
 48
25.0
100
AcDbLine
 10
-14.14999999999998
 20
-19.90000000000009
 30
0.0
 11
14.14999999999998
 21
-19.90000000000009
 31
0.0
  0
LINE
  5
2ED
330
2
100
AcDbEntity
  8
GEB-KONTUR-A
 48
25.0
100
AcDbLine
 10
-12.76435935394488
 20
-19.10000000000002
 30
0.0
 11
12.76435935394488
 21
-19.10000000000002
 31
0.0
  0
TEXT
  5
2EE
330
2
100
AcDbEntity
  8
GEB-TEXT
100
AcDbText
 10
-33.4230900409277
 20
-65.5
 30
0.0
 40
3.5
  1
T-Stück MEP PVDF d20-26-20
 72
     1
 11
0.0
 21
-65.5
 31
0.0
100
AcDbText
  0
TEXT
  5
2F0
330
2
100
AcDbEntity
  8
GEB-TEXT
100
AcDbText
 10
-15.35487721691678
 20
-60.0
 30
0.0
 40
3.5
  1
Geberit Mepla
 72
     1
 11
0.0
 21
-60.0
 31
0.0
100
AcDbText
  0
TEXT
  5
2F1
330
2
100
AcDbEntity
  8
GEB-ART-NR
100
AcDbText
 10
-23.86534800556557
 20
-71.84278125428022
 30
0.0
 40
3.5
  1
GEB-ART-NR 623318
 72
     1
 11
0.1834241636022398
 21
-71.84278125428022
 31
0.0
100
AcDbText
  0
ENDSEC
  0
SECTION
  2
OBJECTS
  0
DICTIONARY
  5
9
330
0
100
AcDbDictionary
281
     1
  3
ACAD_2007HEADERVARS_RT
350
3A8
  3
ACAD_COLOR
350
44
  3
ACAD_GROUP
350
31
  3
ACAD_LAYOUT
350
8
  3
ACAD_MATERIAL
350
13
  3
ACAD_MLEADERSTYLE
350
47
  3
ACAD_MLINESTYLE
350
32
  3
ACAD_PLOTSETTINGS
350
33
  3
ACAD_PLOTSTYLENAME
350
11
  3
ACAD_SCALELIST
350
45
  3
ACAD_TABLESTYLE
350
46
  3
ACAD_VISUALSTYLE
350
2B
  3
ACDB_RECOMPOSE_DATA
350
3A7
  3
AcDbVariableDictionary
350
351
  3
AcmDictionary
350
304
  3
AcmSystemVariableManager
350
3BF
  3
AMG
350
2F5
  0
DICTIONARY
  5
2C
330
28
100
AcDbDictionary
280
     1
281
     1
  0
DICTIONARY
  5
1C
330
E
100
AcDbDictionary
280
     1
281
     1
  3
ACAD_LAYERFILTERS
360
1D
  3
ACLYDICTIONARY
360
1E
  0
DICTIONARY
  5
3
330
2
100
AcDbDictionary
280
     1
281
     1
  3
ACAD_SORTENTS
360
2F3
  0
DICTIONARY
  5
3A8
102
{ACAD_REACTORS
330
9
102
}
330
9
100
AcDbDictionary
281
     1
  3
DIMARCSYM
350
3A9
  3
DIMLTEX1
350
3AB
  3
DIMLTEX2
350
3AC
  3
DIMLTYPE
350
3AA
  0
DICTIONARY
  5
44
102
{ACAD_REACTORS
330
9
102
}
330
9
100
AcDbDictionary
281
     1
  0
DICTIONARY
  5
31
102
{ACAD_REACTORS
330
9
102
}
330
9
100
AcDbDictionary
281
     1
  0
DICTIONARY
  5
8
102
{ACAD_REACTORS
330
9
102
}
330
9
100
AcDbDictionary
281
     1
  3
Layout1
350
D
  3
Model
350
7
  0
DICTIONARY
  5
13
102
{ACAD_REACTORS
330
9
102
}
330
9
100
AcDbDictionary
281
     1
  3
ByBlock
350
3C
  3
ByLayer
350
34
  3
Global
350
12
  0
DICTIONARY
  5
47
102
{ACAD_REACTORS
330
9
102
}
330
9
100
AcDbDictionary
281
     1
  3
Standard
350
36F
  0
DICTIONARY
  5
32
102
{ACAD_REACTORS
330
9
102
}
330
9
100
AcDbDictionary
281
     1
  3
Standard
350
48
  0
DICTIONARY
  5
33
102
{ACAD_REACTORS
330
9
102
}
330
9
100
AcDbDictionary
281
     1
  0
ACDBDICTIONARYWDFLT
  5
11
102
{ACAD_REACTORS
330
9
102
}
330
9
100
AcDbDictionary
281
     1
  3
Normal
350
10
100
AcDbDictionaryWithDefault
340
10
  0
DICTIONARY
  5
45
102
{ACAD_REACTORS
330
9
102
}
330
9
100
AcDbDictionary
281
     1
  3
A0
350
4D
  3
A1
350
4E
  3
A2
350
4F
  3
A3
350
50
  3
A4
350
51
  3
A5
350
52
  3
A6
350
53
  3
A7
350
54
  3
A8
350
55
  3
A9
350
56
  3
B0
350
57
  3
B1
350
58
  3
B2
350
59
  3
B3
350
5A
  3
B4
350
5B
  3
B5
350
5C
  3
B6
350
5D
  3
B7
350
5E
  3
B8
350
5F
  3
B9
350
60
  3
C0
350
61
  3
C1
350
62
  3
C2
350
63
  3
C3
350
64
  3
C4
350
65
  3
C5
350
66
  3
C6
350
67
  3
C7
350
68
  3
C8
350
69
  3
C9
350
6A
  3
D0
350
6B
  3
D1
350
6C
  3
D2
350
6D
  0
DICTIONARY
  5
46
102
{ACAD_REACTORS
330
9
102
}
330
9
100
AcDbDictionary
281
     1
  3
Standard
350
49
  0
DICTIONARY
  5
2B
102
{ACAD_REACTORS
330
9
102
}
330
9
100
AcDbDictionary
281
     1
  3
2dWireframe
350
2A
  3
Basic
350
35E
  3
Brighten
350
362
  3
ColorChange
350
366
  3
Conceptual
350
360
  3
Dim
350
361
  3
EdgeColorOff
350
36E
  3
Facepattern
350
365
  3
Flat
350
35A
  3
FlatWithEdges
350
35B
  3
Gouraud
350
35C
  3
GouraudWithEdges
350
35D
  3
Hidden
350
35F
  3
JitterOff
350
36C
  3
Linepattern
350
364
  3
OverhangOff
350
36D
  3
Realistic
350
4B
  3
Shaded
350
36B
  3
Shaded with edges
350
36A
  3
Shades of Gray
350
367
  3
Sketchy
350
368
  3
Thicken
350
363
  3
Wireframe
350
4C
  3
X-Ray
350
369
  0
XRECORD
  5
3A7
102
{ACAD_REACTORS
330
9
102
}
330
9
100
AcDbXrecord
280
     1
 90
        1
330
49
  0
DICTIONARY
  5
351
102
{ACAD_REACTORS
330
9
102
}
330
9
100
AcDbDictionary
281
     1
  3
CANNOSCALE
350
355
  3
CMLEADERSTYLE
350
353
  3
CTABLESTYLE
350
352
  3
DIMASSOC
350
3A4
  3
HIDETEXT
350
3A3
  3
INDEXCTL
350
3A2
  3
LAYEREVAL
350
357
  3
LAYERNOTIFY
350
358
  3
LIGHTINGUNITS
350
356
  3
MSLTSCALE
350
354
  3
SORTENTS
350
3A1
  3
XCLIPFRAME
350
3A5
  0
DICTIONARY
  5
304
102
{ACAD_REACTORS
330
9
102
}
330
9
100
AcDbDictionary
281
     1
  3
AcmStdDictionary
350
305
  0
DICTIONARY
  5
2F5
102
{ACAD_REACTORS
330
9
102
}
330
9
100
AcDbDictionary
281
     1
  3
AcMgSettings
350
2FF
  0
DICTIONARY
  5
1D
102
{ACAD_REACTORS
330
1C
102
}
330
1C
100
AcDbDictionary
281
     1
  0
DICTIONARY
  5
1E
102
{ACAD_REACTORS
330
1C
102
}
330
1C
100
AcDbDictionary
281
     1
1001
ACAD
1000
<All
  0
SORTENTSTABLE
  5
2F3
102
{ACAD_REACTORS
330
3
102
}
330
3
100
AcDbSortentsTable
330
2
331
296
  5
D0
331
292
  5
D4
331
28E
  5
D8
331
2CD
  5
99
331
2C9
  5
9D
331
28A
  5
DC
331
1A7
  5
1BF
331
21D
  5
149
331
1A3
  5
1C3
331
1DE
  5
188
331
219
  5
14D
331
19F
  5
1C7
331
77
  5
2EB
331
12E
  5
238
331
B4
  5
2B2
331
19B
  5
1CB
331
254
  5
112
331
215
  5
151
331
1DA
  5
18C
331
EF
  5
277
331
B0
  5
2B6
331
12A
  5
23C
331
250
  5
116
331
211
  5
155
331
AC
  5
2BA
331
165
  5
201
331
126
  5
240
331
EB
  5
27B
331
161
  5
205
331
122
  5
244
331
A8
  5
2BE
331
2C5
  5
A1
331
286
  5
E0
331
2C1
  5
A5
331
282
  5
E4
331
27E
  5
E8
331
2BD
  5
A9
331
2B9
  5
AD
331
27A
  5
EC
331
1D6
  5
190
331
197
  5
1CF
331
1D2
  5
194
331
24C
  5
11A
331
20D
  5
159
331
193
  5
1D3
331
E7
  5
27F
331
1CE
  5
198
331
18F
  5
1D7
331
209
  5
15D
331
248
  5
11E
331
E3
  5
283
331
A4
  5
2C2
331
11E
  5
248
331
15D
  5
209
331
18B
  5
1DB
331
244
  5
122
331
205
  5
161
331
1CA
  5
19C
331
DF
  5
287
331
A0
  5
2C6
331
11A
  5
24C
331
159
  5
20D
331
240
  5
126
331
201
  5
165
331
9C
  5
2CA
331
155
  5
211
331
116
  5
250
331
DB
  5
28B
331
151
  5
215
331
112
  5
254
331
98
  5
2CE
331
2B5
  5
B1
331
276
  5
F0
331
2B1
  5
B5
331
272
  5
F4
331
2EC
  5
75
331
26E
  5
F8
331
2E8
  5
7A
331
2AD
  5
B9
331
2A9
  5
BD
331
2E4
  5
81
331
26A
  5
FC
331
2E0
  5
86
331
187
  5
1DF
331
1C6
  5
1A0
331
1C2
  5
1A4
331
23C
  5
12A
331
1FD
  5
169
331
183
  5
1E3
331
D7
  5
28F
331
1BE
  5
1A8
331
17F
  5
1E7
331
1F9
  5
16D
331
238
  5
12E
331
D3
  5
293
331
14D
  5
219
331
10E
  5
258
331
94
  5
2D2
331
1BA
  5
1AC
331
17B
  5
1EB
331
234
  5
132
331
1F5
  5
171
331
CF
  5
297
331
90
  5
2D6
331
10A
  5
25C
331
149
  5
21D
331
230
  5
136
331
1F1
  5
175
331
8C
  5
2DA
331
145
  5
221
331
106
  5
260
331
CB
  5
29B
331
88
  5
2DE
331
141
  5
225
331
102
  5
264
331
2A5
  5
C1
331
266
  5
100
331
2A1
  5
C5
331
2DC
  5
8A
331
262
  5
104
331
25E
  5
108
331
2D8
  5
8E
331
29D
  5
C9
331
299
  5
CD
331
2D4
  5
92
331
25A
  5
10C
331
2D0
  5
96
331
177
  5
1EF
331
1B6
  5
1B0
331
1B2
  5
1B4
331
22C
  5
13A
331
1ED
  5
179
331
173
  5
1F3
331
C7
  5
29F
331
1AE
  5
1B8
331
16F
  5
1F7
331
1E9
  5
17D
331
228
  5
13E
331
C3
  5
2A3
331
13D
  5
229
331
FE
  5
268
331
84
  5
2E1
331
1AA
  5
1BC
331
16B
  5
1FB
331
224
  5
142
331
1E5
  5
181
331
BF
  5
2A7
331
80
  5
2E5
331
FA
  5
26C
331
139
  5
22D
331
220
  5
146
331
1E1
  5
185
331
BB
  5
2AB
331
135
  5
231
331
F6
  5
270
331
78
  5
2EA
331
131
  5
235
331
F2
  5
274
331
295
  5
D1
331
291
  5
D5
331
2CC
  5
9A
331
28D
  5
D9
331
2C8
  5
9E
331
289
  5
DD
331
1A6
  5
1C0
331
21C
  5
14A
331
1A2
  5
1C4
331
B7
  5
2AF
331
1DD
  5
189
331
19E
  5
1C8
331
257
  5
10F
331
218
  5
14E
331
12D
  5
239
331
B3
  5
2B3
331
19A
  5
1CC
331
253
  5
113
331
214
  5
152
331
1D9
  5
18D
331
EE
  5
278
331
AF
  5
2B7
331
129
  5
23D
331
210
  5
156
331
AB
  5
2BB
331
164
  5
202
331
125
  5
241
331
EA
  5
27C
331
160
  5
206
331
121
  5
245
331
2C4
  5
A2
331
285
  5
E1
331
281
  5
E5
331
2C0
  5
A6
331
27D
  5
E9
331
2BC
  5
AA
331
2B8
  5
AE
331
279
  5
ED
331
1D5
  5
191
331
24F
  5
117
331
196
  5
1D0
331
6E
  5
2ED
331
1D1
  5
195
331
192
  5
1D4
331
20C
  5
15A
331
24B
  5
11B
331
E6
  5
280
331
A7
  5
2BF
331
1CD
  5
199
331
18E
  5
1D8
331
208
  5
15E
331
247
  5
11F
331
E2
  5
284
331
A3
  5
2C3
331
11D
  5
249
331
15C
  5
20A
331
18A
  5
1DC
331
243
  5
123
331
204
  5
162
331
1C9
  5
19D
331
DE
  5
288
331
9F
  5
2C7
331
158
  5
20E
331
119
  5
24D
331
200
  5
166
331
9B
  5
2CB
331
154
  5
212
331
115
  5
251
331
DA
  5
28C
331
150
  5
216
331
111
  5
255
331
2B4
  5
B2
331
275
  5
F1
331
2B0
  5
B6
331
271
  5
F5
331
2EB
  5
77
331
26D
  5
F9
331
2E7
  5
7E
331
2AC
  5
BA
331
2A8
  5
BE
331
2E3
  5
82
331
269
  5
FD
331
1C5
  5
1A1
331
23F
  5
127
331
186
  5
1E0
331
1C1
  5
1A5
331
23B
  5
12B
331
1FC
  5
16A
331
182
  5
1E4
331
D6
  5
290
331
97
  5
2CF
331
1BD
  5
1A9
331
17E
  5
1E8
331
1F8
  5
16E
331
237
  5
12F
331
D2
  5
294
331
93
  5
2D3
331
10D
  5
259
331
14C
  5
21A
331
17A
  5
1EC
331
233
  5
133
331
1F4
  5
172
331
1B9
  5
1AD
331
CE
  5
298
331
8F
  5
2D7
331
109
  5
25D
331
148
  5
21E
331
1F0
  5
176
331
8B
  5
2DB
331
144
  5
222
331
105
  5
261
331
CA
  5
29C
331
140
  5
226
331
101
  5
265
331
2A4
  5
C2
331
2DF
  5
87
331
265
  5
101
331
2A0
  5
C6
331
261
  5
105
331
2DB
  5
8B
331
25D
  5
109
331
2D7
  5
8F
331
29C
  5
CA
331
298
  5
CE
331
2D3
  5
93
331
259
  5
10D
331
176
  5
1F0
331
22F
  5
137
331
1B5
  5
1B1
331
1B1
  5
1B5
331
22B
  5
13B
331
1EC
  5
17A
331
172
  5
1F4
331
C6
  5
2A0
331
87
  5
2DF
331
1AD
  5
1B9
331
16E
  5
1F8
331
1E8
  5
17E
331
227
  5
13F
331
C2
  5
2A4
331
13C
  5
22A
331
FD
  5
269
331
83
  5
2E2
331
1A9
  5
1BD
331
16A
  5
1FC
331
223
  5
143
331
1E4
  5
182
331
BE
  5
2A8
331
7F
  5
2E6
331
F9
  5
26D
331
138
  5
22E
331
1E0
  5
186
331
134
  5
232
331
F5
  5
271
331
BA
  5
2AC
331
130
  5
236
331
F1
  5
275
331
294
  5
D2
331
290
  5
D6
331
2CF
  5
97
331
2CB
  5
9B
331
28C
  5
DA
331
288
  5
DE
331
21F
  5
147
331
1A5
  5
1C1
331
B6
  5
2B0
331
21B
  5
14B
331
1A1
  5
1C5
331
1DC
  5
18A
331
19D
  5
1C9
331
256
  5
110
331
12C
  5
23A
331
B2
  5
2B4
331
217
  5
14F
331
75
  5
2EC
331
199
  5
1CD
331
252
  5
114
331
AE
  5
2B8
331
167
  5
1FF
331
128
  5
23E
331
ED
  5
279
331
213
  5
153
331
1D8
  5
18E
331
AA
  5
2BC
331
163
  5
203
331
124
  5
242
331
E9
  5
27D
331
120
  5
246
331
2C7
  5
9F
331
2C3
  5
A3
331
284
  5
E2
331
280
  5
E6
331
2BF
  5
A7
331
2BB
  5
AB
331
27C
  5
EA
331
278
  5
EE
331
1D4
  5
192
331
24E
  5
118
331
20F
  5
157
331
195
  5
1D1
331
1D0
  5
196
331
191
  5
1D5
331
E5
  5
281
331
15F
  5
207
331
A6
  5
2C0
331
20B
  5
15B
331
24A
  5
11C
331
1CC
  5
19A
331
18D
  5
1D9
331
246
  5
120
331
E1
  5
285
331
A2
  5
2C4
331
11C
  5
24A
331
15B
  5
20B
331
207
  5
15F
331
189
  5
1DD
331
242
  5
124
331
DD
  5
289
331
9E
  5
2C8
331
157
  5
20F
331
118
  5
24E
331
203
  5
163
331
1C8
  5
19E
331
9A
  5
2CC
331
153
  5
213
331
114
  5
252
331
D9
  5
28D
331
110
  5
256
331
2B7
  5
AF
331
2B3
  5
B3
331
2EE
  5
2F1
331
274
  5
F2
331
270
  5
F6
331
2EA
  5
78
331
2AF
  5
B7
331
26C
  5
FA
331
2E6
  5
7F
331
2AB
  5
BB
331
2E2
  5
83
331
268
  5
FE
331
1C4
  5
1A2
331
23E
  5
128
331
1FF
  5
167
331
185
  5
1E1
331
1C0
  5
1A6
331
181
  5
1E5
331
D5
  5
291
331
14F
  5
217
331
96
  5
2D0
331
1FB
  5
16B
331
23A
  5
12C
331
1BC
  5
1AA
331
17D
  5
1E9
331
D1
  5
295
331
92
  5
2D4
331
10C
  5
25A
331
14B
  5
21B
331
1F7
  5
16F
331
236
  5
130
331
179
  5
1ED
331
232
  5
134
331
CD
  5
299
331
8E
  5
2D8
331
147
  5
21F
331
108
  5
25E
331
1F3
  5
173
331
1B8
  5
1AE
331
8A
  5
2DC
331
143
  5
223
331
104
  5
262
331
C9
  5
29D
331
100
  5
266
331
2A7
  5
BF
331
2A3
  5
C3
331
2DE
  5
88
331
264
  5
102
331
29F
  5
C7
331
260
  5
106
331
2DA
  5
8C
331
25C
  5
10A
331
2D6
  5
90
331
29B
  5
CB
331
2D2
  5
94
331
258
  5
10E
331
1B4
  5
1B2
331
22E
  5
138
331
1EF
  5
177
331
175
  5
1F1
331
1B0
  5
1B6
331
22A
  5
13C
331
C5
  5
2A1
331
13F
  5
227
331
86
  5
2E0
331
1EB
  5
17B
331
171
  5
1F5
331
1AC
  5
1BA
331
16D
  5
1F9
331
C1
  5
2A5
331
82
  5
2E3
331
FC
  5
26A
331
13B
  5
22B
331
1E7
  5
17F
331
226
  5
140
331
169
  5
1FD
331
222
  5
144
331
BD
  5
2A9
331
7E
  5
2E7
331
F8
  5
26E
331
137
  5
22F
331
1E3
  5
183
331
1A8
  5
1BE
331
7A
  5
2E8
331
133
  5
233
331
F4
  5
272
331
B9
  5
2AD
331
F0
  5
276
331
297
  5
CF
331
293
  5
D3
331
28F
  5
D7
331
2CE
  5
98
331
2CA
  5
9C
331
28B
  5
DB
331
21E
  5
148
331
1A4
  5
1C2
331
1DF
  5
187
331
21A
  5
14C
331
1A0
  5
1C6
331
12F
  5
237
331
B5
  5
2B1
331
19C
  5
1CA
331
255
  5
111
331
216
  5
150
331
1DB
  5
18B
331
12B
  5
23B
331
B1
  5
2B5
331
198
  5
1CE
331
251
  5
115
331
212
  5
154
331
AD
  5
2B9
331
166
  5
200
331
127
  5
23F
331
EC
  5
27A
331
E8
  5
27E
331
162
  5
204
331
123
  5
243
331
A9
  5
2BD
331
2C6
  5
A0
331
287
  5
DF
331
2C2
  5
A4
331
283
  5
E3
331
27F
  5
E7
331
2BE
  5
A8
331
2BA
  5
AC
331
27B
  5
EB
331
2F1
  5
2EE
331
1D7
  5
18F
331
1D3
  5
193
331
24D
  5
119
331
20E
  5
158
331
194
  5
1D2
331
1CF
  5
197
331
190
  5
1D6
331
20A
  5
15C
331
249
  5
11D
331
E4
  5
282
331
15E
  5
208
331
11F
  5
247
331
A5
  5
2C1
331
1CB
  5
19B
331
18C
  5
1DA
331
245
  5
121
331
206
  5
160
331
E0
  5
286
331
A1
  5
2C5
331
11B
  5
24B
331
15A
  5
20C
331
188
  5
1DE
331
241
  5
125
331
202
  5
164
331
9D
  5
2C9
331
156
  5
210
331
117
  5
24F
331
DC
  5
28A
331
99
  5
2CD
331
152
  5
214
331
113
  5
253
331
D8
  5
28E
331
2B6
  5
B0
331
277
  5
EF
331
2B2
  5
B4
331
2ED
  5
6E
331
273
  5
F3
331
26F
  5
F7
331
2E9
  5
79
331
2AE
  5
B8
331
2AA
  5
BC
331
2E5
  5
80
331
26B
  5
FB
331
2E1
  5
84
331
1C7
  5
19F
331
1C3
  5
1A3
331
23D
  5
129
331
1FE
  5
168
331
184
  5
1E2
331
1BF
  5
1A7
331
180
  5
1E6
331
1FA
  5
16C
331
239
  5
12D
331
D4
  5
292
331
14E
  5
218
331
10F
  5
257
331
95
  5
2D1
331
1BB
  5
1AB
331
17C
  5
1EA
331
235
  5
131
331
1F6
  5
170
331
D0
  5
296
331
91
  5
2D5
331
10B
  5
25B
331
14A
  5
21C
331
178
  5
1EE
331
231
  5
135
331
1F2
  5
174
331
CC
  5
29A
331
8D
  5
2D9
331
146
  5
220
331
107
  5
25F
331
89
  5
2DD
331
142
  5
224
331
103
  5
263
331
C8
  5
29E
331
2A6
  5
C0
331
267
  5
FF
331
2A2
  5
C4
331
2DD
  5
89
331
263
  5
103
331
25F
  5
107
331
2D9
  5
8D
331
29E
  5
C8
331
25B
  5
10B
331
2D5
  5
91
331
29A
  5
CC
331
2D1
  5
95
331
1B7
  5
1AF
331
22D
  5
139
331
1EE
  5
178
331
174
  5
1F2
331
1AF
  5
1B7
331
170
  5
1F6
331
1EA
  5
17C
331
229
  5
13D
331
13E
  5
228
331
FF
  5
267
331
C4
  5
2A2
331
1AB
  5
1BB
331
16C
  5
1FA
331
1E6
  5
180
331
225
  5
141
331
C0
  5
2A6
331
81
  5
2E4
331
FB
  5
26B
331
13A
  5
22C
331
168
  5
1FE
331
221
  5
145
331
1E2
  5
184
331
BC
  5
2AA
331
136
  5
230
331
F7
  5
26F
331
79
  5
2E9
331
132
  5
234
331
F3
  5
273
331
B8
  5
2AE
  0
XRECORD
  5
3A9
102
{ACAD_REACTORS
330
3A8
102
}
330
3A8
100
AcDbXrecord
280
     1
 70
     1
  0
XRECORD
  5
3AB
102
{ACAD_REACTORS
330
3A8
102
}
330
3A8
100
AcDbXrecord
280
     1
340
24
  0
XRECORD
  5
3AC
102
{ACAD_REACTORS
330
3A8
102
}
330
3A8
100
AcDbXrecord
280
     1
340
24
  0
XRECORD
  5
3AA
102
{ACAD_REACTORS
330
3A8
102
}
330
3A8
100
AcDbXrecord
280
     1
340
24
  0
LAYOUT
  5
D
102
{ACAD_XDICTIONARY
360
3AF
102
}
102
{ACAD_REACTORS
330
8
102
}
330
8
100
AcDbPlotSettings
  1

  2
\\le-server\HP LaserJet 2100
  4

  6

 40
0.0
 41
0.0
 42
0.0
 43
0.0
 44
0.0
 45
0.0
 46
0.0
 47
0.0
 48
0.0
 49
0.0
140
0.0
141
0.0
142
1.0
143
1.0
 70
   688
 72
     0
 73
     0
 74
     5
  7

 75
    16
147
1.0
148
0.0
149
0.0
100
AcDbLayout
  1
Layout1
 70
     1
 71
     1
 10
0.0
 20
0.0
 11
1189.0
 21
840.9999999999998
 12
0.0
 22
0.0
 32
0.0
 14
0.0
 24
0.0
 34
0.0
 15
1189.0
 25
840.9999999999998
 35
0.0
146
0.0
 13
0.0
 23
0.0
 33
0.0
 16
1.0
 26
0.0
 36
0.0
 17
0.0
 27
1.0
 37
0.0
 76
     0
330
A
  0
LAYOUT
  5
7
102
{ACAD_XDICTIONARY
360
3AD
102
}
102
{ACAD_REACTORS
330
8
102
}
330
8
100
AcDbPlotSettings
  1

  2
\\le-server\HP LaserJet 2100
  4

  6

 40
0.0
 41
0.0
 42
0.0
 43
0.0
 44
0.0
 45
0.0
 46
0.0
 47
0.0
 48
0.0
 49
0.0
140
0.0
141
0.0
142
1.0
143
1.0
 70
  1712
 72
     0
 73
     0
 74
     0
  7

 75
     0
147
1.0
148
0.0
149
0.0
100
AcDbLayout
  1
Model
 70
     1
 71
     0
 10
0.0
 20
0.0
 11
12.0
 21
9.0
 12
0.0
 22
0.0
 32
0.0
 14
0.0
 24
0.0
 34
0.0
 15
0.0
 25
0.0
 35
0.0
146
0.0
 13
0.0
 23
0.0
 33
0.0
 16
1.0
 26
0.0
 36
0.0
 17
0.0
 27
1.0
 37
0.0
 76
     0
330
2
331
29
  0
MATERIAL
  5
3C
102
{ACAD_XDICTIONARY
360
3D
102
}
102
{ACAD_REACTORS
330
13
102
}
330
13
100
AcDbMaterial
  1
ByBlock
 72
     0
 43
0.0208333333333333
 43
0.0
 43
0.0
 43
0.0
 43
0.0
 43
0.0208333333333333
 43
0.0
 43
0.0
 43
0.0
 43
0.0
 43
1.0
 43
0.0
 43
0.0
 43
0.0
 43
0.0
 43
1.0
 77
     0
 47
0.0208333333333333
 47
0.0
 47
0.0
 47
0.0
 47
0.0
 47
0.0208333333333333
 47
0.0
 47
0.0
 47
0.0
 47
0.0
 47
1.0
 47
0.0
 47
0.0
 47
0.0
 47
0.0
 47
1.0
171
     0
 49
0.0208333333333333
 49
0.0
 49
0.0
 49
0.0
 49
0.0
 49
0.0208333333333333
 49
0.0
 49
0.0
 49
0.0
 49
0.0
 49
1.0
 49
0.0
 49
0.0
 49
0.0
 49
0.0
 49
1.0
175
     0
142
0.0208333333333333
142
0.0
142
0.0
142
0.0
142
0.0
142
0.0208333333333333
142
0.0
142
0.0
142
0.0
142
0.0
142
1.0
142
0.0
142
0.0
142
0.0
142
0.0
142
1.0
179
     0
144
0.0208333333333333
144
0.0
144
0.0
144
0.0
144
0.0
144
0.0208333333333333
144
0.0
144
0.0
144
0.0
144
0.0
144
1.0
144
0.0
144
0.0
144
0.0
144
0.0
144
1.0
147
0.0208333333333333
147
0.0
147
0.0
147
0.0
147
0.0
147
0.0208333333333333
147
0.0
147
0.0
147
0.0
147
0.0
147
1.0
147
0.0
147
0.0
147
0.0
147
0.0
147
1.0
  0
MATERIAL
  5
34
102
{ACAD_XDICTIONARY
360
35
102
}
102
{ACAD_REACTORS
330
13
102
}
330
13
100
AcDbMaterial
  1
ByLayer
 72
     0
 43
0.0208333333333333
 43
0.0
 43
0.0
 43
0.0
 43
0.0
 43
0.0208333333333333
 43
0.0
 43
0.0
 43
0.0
 43
0.0
 43
1.0
 43
0.0
 43
0.0
 43
0.0
 43
0.0
 43
1.0
 77
     0
 47
0.0208333333333333
 47
0.0
 47
0.0
 47
0.0
 47
0.0
 47
0.0208333333333333
 47
0.0
 47
0.0
 47
0.0
 47
0.0
 47
1.0
 47
0.0
 47
0.0
 47
0.0
 47
0.0
 47
1.0
171
     0
 49
0.0208333333333333
 49
0.0
 49
0.0
 49
0.0
 49
0.0
 49
0.0208333333333333
 49
0.0
 49
0.0
 49
0.0
 49
0.0
 49
1.0
 49
0.0
 49
0.0
 49
0.0
 49
0.0
 49
1.0
175
     0
142
0.0208333333333333
142
0.0
142
0.0
142
0.0
142
0.0
142
0.0208333333333333
142
0.0
142
0.0
142
0.0
142
0.0
142
1.0
142
0.0
142
0.0
142
0.0
142
0.0
142
1.0
179
     0
144
0.0208333333333333
144
0.0
144
0.0
144
0.0
144
0.0
144
0.0208333333333333
144
0.0
144
0.0
144
0.0
144
0.0
144
1.0
144
0.0
144
0.0
144
0.0
144
0.0
144
1.0
147
0.0208333333333333
147
0.0
147
0.0
147
0.0
147
0.0
147
0.0208333333333333
147
0.0
147
0.0
147
0.0
147
0.0
147
1.0
147
0.0
147
0.0
147
0.0
147
0.0
147
1.0
  0
MATERIAL
  5
12
102
{ACAD_XDICTIONARY
360
14
102
}
102
{ACAD_REACTORS
330
13
102
}
330
13
100
AcDbMaterial
  1
Global
 72
     0
 43
0.0208333333333333
 43
0.0
 43
0.0
 43
0.0
 43
0.0
 43
0.0208333333333333
 43
0.0
 43
0.0
 43
0.0
 43
0.0
 43
1.0
 43
0.0
 43
0.0
 43
0.0
 43
0.0
 43
1.0
 77
     0
 47
0.0208333333333333
 47
0.0
 47
0.0
 47
0.0
 47
0.0
 47
0.0208333333333333
 47
0.0
 47
0.0
 47
0.0
 47
0.0
 47
1.0
 47
0.0
 47
0.0
 47
0.0
 47
0.0
 47
1.0
171
     0
 49
0.0208333333333333
 49
0.0
 49
0.0
 49
0.0
 49
0.0
 49
0.0208333333333333
 49
0.0
 49
0.0
 49
0.0
 49
0.0
 49
1.0
 49
0.0
 49
0.0
 49
0.0
 49
0.0
 49
1.0
175
     0
142
0.0208333333333333
142
0.0
142
0.0
142
0.0
142
0.0
142
0.0208333333333333
142
0.0
142
0.0
142
0.0
142
0.0
142
1.0
142
0.0
142
0.0
142
0.0
142
0.0
142
1.0
179
     0
144
0.0208333333333333
144
0.0
144
0.0
144
0.0
144
0.0
144
0.0208333333333333
144
0.0
144
0.0
144
0.0
144
0.0
144
1.0
144
0.0
144
0.0
144
0.0
144
0.0
144
1.0
147
0.0208333333333333
147
0.0
147
0.0
147
0.0
147
0.0
147
0.0208333333333333
147
0.0
147
0.0
147
0.0
147
0.0
147
1.0
147
0.0
147
0.0
147
0.0
147
0.0
147
1.0
  0
MLEADERSTYLE
  5
36F
102
{ACAD_REACTORS
330
47
102
}
330
47
100
AcDbMLeaderStyle
170
     2
171
     1
172
     0
 90
        2
 40
0.0
 41
0.0
173
     1
 91
-1056964608
340
24
 92
       -2
290
     1
 42
2.0
291
     1
 43
0.36
  3
Standard
 44
4.0
300

342
21
174
     1
178
     6
175
     1
176
     0
 93
-1056964608
 45
4.0
292
     0
297
     0
 46
4.0
 94
-1056964608
 47
1.0
 49
1.0
140
1.0
293
     1
141
0.0
294
     1
177
     0
142
1.0
295
     0
296
     0
143
0.125
1001
ACAD_MLEADERVER
1070
     2
  0
MLINESTYLE
  5
48
102
{ACAD_REACTORS
330
32
102
}
330
32
100
AcDbMlineStyle
  2
STANDARD
 70
     0
  3

 62
   256
 51
90.0
 52
90.0
 71
     2
 49
0.5
 62
   256
  6
BYLAYER
 49
-0.5
 62
   256
  6
BYLAYER
  0
ACDBPLACEHOLDER
  5
10
102
{ACAD_REACTORS
330
11
102
}
330
11
  0
SCALE
  5
4D
102
{ACAD_REACTORS
330
45
102
}
330
45
100
AcDbScale
 70
     0
300
1:1
140
1.0
141
1.0
290
     1
  0
SCALE
  5
4E
102
{ACAD_REACTORS
330
45
102
}
330
45
100
AcDbScale
 70
     0
300
1:2
140
1.0
141
2.0
290
     0
  0
SCALE
  5
4F
102
{ACAD_REACTORS
330
45
102
}
330
45
100
AcDbScale
 70
     0
300
1:4
140
1.0
141
4.0
290
     0
  0
SCALE
  5
50
102
{ACAD_REACTORS
330
45
102
}
330
45
100
AcDbScale
 70
     0
300
1:5
140
1.0
141
5.0
290
     0
  0
SCALE
  5
51
102
{ACAD_REACTORS
330
45
102
}
330
45
100
AcDbScale
 70
     0
300
1:8
140
1.0
141
8.0
290
     0
  0
SCALE
  5
52
102
{ACAD_REACTORS
330
45
102
}
330
45
100
AcDbScale
 70
     0
300
1:10
140
1.0
141
10.0
290
     0
  0
SCALE
  5
53
102
{ACAD_REACTORS
330
45
102
}
330
45
100
AcDbScale
 70
     0
300
1:16
140
1.0
141
16.0
290
     0
  0
SCALE
  5
54
102
{ACAD_REACTORS
330
45
102
}
330
45
100
AcDbScale
 70
     0
300
1:20
140
1.0
141
20.0
290
     0
  0
SCALE
  5
55
102
{ACAD_REACTORS
330
45
102
}
330
45
100
AcDbScale
 70
     0
300
1:30
140
1.0
141
30.0
290
     0
  0
SCALE
  5
56
102
{ACAD_REACTORS
330
45
102
}
330
45
100
AcDbScale
 70
     0
300
1:40
140
1.0
141
40.0
290
     0
  0
SCALE
  5
57
102
{ACAD_REACTORS
330
45
102
}
330
45
100
AcDbScale
 70
     0
300
1:50
140
1.0
141
50.0
290
     0
  0
SCALE
  5
58
102
{ACAD_REACTORS
330
45
102
}
330
45
100
AcDbScale
 70
     0
300
1:100
140
1.0
141
100.0
290
     0
  0
SCALE
  5
59
102
{ACAD_REACTORS
330
45
102
}
330
45
100
AcDbScale
 70
     0
300
2:1
140
2.0
141
1.0
290
     0
  0
SCALE
  5
5A
102
{ACAD_REACTORS
330
45
102
}
330
45
100
AcDbScale
 70
     0
300
4:1
140
4.0
141
1.0
290
     0
  0
SCALE
  5
5B
102
{ACAD_REACTORS
330
45
102
}
330
45
100
AcDbScale
 70
     0
300
8:1
140
8.0
141
1.0
290
     0
  0
SCALE
  5
5C
102
{ACAD_REACTORS
330
45
102
}
330
45
100
AcDbScale
 70
     0
300
10:1
140
10.0
141
1.0
290
     0
  0
SCALE
  5
5D
102
{ACAD_REACTORS
330
45
102
}
330
45
100
AcDbScale
 70
     0
300
100:1
140
100.0
141
1.0
290
     0
  0
SCALE
  5
5E
102
{ACAD_REACTORS
330
45
102
}
330
45
100
AcDbScale
 70
     0
300
1/128" = 1'-0"
140
0.0078125
141
12.0
290
     0
  0
SCALE
  5
5F
102
{ACAD_REACTORS
330
45
102
}
330
45
100
AcDbScale
 70
     0
300
1/64" = 1'-0"
140
0.015625
141
12.0
290
     0
  0
SCALE
  5
60
102
{ACAD_REACTORS
330
45
102
}
330
45
100
AcDbScale
 70
     0
300
1/32" = 1'-0"
140
0.03125
141
12.0
290
     0
  0
SCALE
  5
61
102
{ACAD_REACTORS
330
45
102
}
330
45
100
AcDbScale
 70
     0
300
1/16" = 1'-0"
140
0.0625
141
12.0
290
     0
  0
SCALE
  5
62
102
{ACAD_REACTORS
330
45
102
}
330
45
100
AcDbScale
 70
     0
300
3/32" = 1'-0"
140
0.09375
141
12.0
290
     0
  0
SCALE
  5
63
102
{ACAD_REACTORS
330
45
102
}
330
45
100
AcDbScale
 70
     0
300
1/8" = 1'-0"
140
0.125
141
12.0
290
     0
  0
SCALE
  5
64
102
{ACAD_REACTORS
330
45
102
}
330
45
100
AcDbScale
 70
     0
300
3/16" = 1'-0"
140
0.1875
141
12.0
290
     0
  0
SCALE
  5
65
102
{ACAD_REACTORS
330
45
102
}
330
45
100
AcDbScale
 70
     0
300
1/4" = 1'-0"
140
0.25
141
12.0
290
     0
  0
SCALE
  5
66
102
{ACAD_REACTORS
330
45
102
}
330
45
100
AcDbScale
 70
     0
300
3/8" = 1'-0"
140
0.375
141
12.0
290
     0
  0
SCALE
  5
67
102
{ACAD_REACTORS
330
45
102
}
330
45
100
AcDbScale
 70
     0
300
1/2" = 1'-0"
140
0.5
141
12.0
290
     0
  0
SCALE
  5
68
102
{ACAD_REACTORS
330
45
102
}
330
45
100
AcDbScale
 70
     0
300
3/4" = 1'-0"
140
0.75
141
12.0
290
     0
  0
SCALE
  5
69
102
{ACAD_REACTORS
330
45
102
}
330
45
100
AcDbScale
 70
     0
300
1" = 1'-0"
140
1.0
141
12.0
290
     0
  0
SCALE
  5
6A
102
{ACAD_REACTORS
330
45
102
}
330
45
100
AcDbScale
 70
     0
300
1-1/2" = 1'-0"
140
1.5
141
12.0
290
     0
  0
SCALE
  5
6B
102
{ACAD_REACTORS
330
45
102
}
330
45
100
AcDbScale
 70
     0
300
3" = 1'-0"
140
3.0
141
12.0
290
     0
  0
SCALE
  5
6C
102
{ACAD_REACTORS
330
45
102
}
330
45
100
AcDbScale
 70
     0
300
6" = 1'-0"
140
6.0
141
12.0
290
     0
  0
SCALE
  5
6D
102
{ACAD_REACTORS
330
45
102
}
330
45
100
AcDbScale
 70
     0
300
1'-0" = 1'-0"
140
12.0
141
12.0
290
     0
  0
TABLESTYLE
  5
49
102
{ACAD_XDICTIONARY
360
4A
102
}
102
{ACAD_REACTORS
330
46
102
}
330
46
100
AcDbTableStyle
  3
Standard
 70
     0
 71
     0
 40
0.06
 41
0.06
280
     0
281
     0
  7
STANDARD
140
0.18
170
     2
 62
     0
 63
     7
283
     0
274
    -2
284
     1
 64
     0
275
    -2
285
     1
 65
     0
276
    -2
286
     1
 66
     0
277
    -2
287
     1
 67
     0
278
    -2
288
     1
 68
     0
279
    -2
289
     1
 69
     0
  7
STANDARD
140
0.25
170
     5
 62
     0
 63
     7
283
     0
274
    -2
284
     1
 64
     0
275
    -2
285
     1
 65
     0
276
    -2
286
     1
 66
     0
277
    -2
287
     1
 67
     0
278
    -2
288
     1
 68
     0
279
    -2
289
     1
 69
     0
  7
STANDARD
140
0.18
170
     5
 62
     0
 63
     7
283
     0
274
    -2
284
     1
 64
     0
275
    -2
285
     1
 65
     0
276
    -2
286
     1
 66
     0
277
    -2
287
     1
 67
     0
278
    -2
288
     1
 68
     0
279
    -2
289
     1
 69
     0
  0
VISUALSTYLE
  5
2A
102
{ACAD_XDICTIONARY
360
3B2
102
}
102
{ACAD_REACTORS
330
2B
102
}
330
2B
100
AcDbVisualStyle
  2
2dWireframe
 70
     4
 71
     0
 72
     2
 73
     0
 90
        0
 40
-0.6
 41
-30.0
 62
     5
 63
     7
 74
     1
 91
        4
 64
     7
 65
   257
 75
     1
175
     1
 42
1.0
 92
        0
 66
   257
 43
1.0
 76
     1
 77
     6
 78
     2
 67
     7
 79
     5
170
     0
171
     0
290
     0
174
     0
 93
        1
 44
0.0
173
     0
291
     0
 45
0.0
1001
ACAD
1000
AcDbSavedByObjectVersion
1070
     0
  0
VISUALSTYLE
  5
35E
102
{ACAD_XDICTIONARY
360
3C9
102
}
102
{ACAD_REACTORS
330
2B
102
}
330
2B
100
AcDbVisualStyle
  2
Basic
 70
     7
 71
     1
 72
     0
 73
     1
 90
        0
 40
-0.6
 41
-30.0
 62
     5
 63
     7
 74
     0
 91
        4
 64
     7
 65
   257
 75
     1
175
     1
 42
1.0
 92
        8
 66
     7
 43
1.0
 76
     1
 77
     6
 78
     2
 67
     7
 79
     5
170
     0
171
     0
290
     0
174
     0
 93
        1
 44
0.0
173
     0
291
     1
 45
0.0
1001
ACAD
1000
AcDbSavedByObjectVersion
1070
     0
  0
VISUALSTYLE
  5
362
102
{ACAD_XDICTIONARY
360
3D1
102
}
102
{ACAD_REACTORS
330
2B
102
}
330
2B
100
AcDbVisualStyle
  2
Brighten
 70
    12
 71
     2
 72
     2
 73
     0
 90
        0
 40
-0.6
 41
-30.0
 62
     5
 63
     7
 74
     1
 91
        4
 64
     7
 65
   257
 75
     1
175
     1
 42
1.0
 92
        8
 66
     7
 43
1.0
 76
     1
 77
     6
 78
     2
 67
     7
 79
     5
170
     0
171
     0
290
     0
174
     0
 93
        1
 44
50.0
173
     0
291
     1
 45
0.0
1001
ACAD
1000
AcDbSavedByObjectVersion
1070
     0
  0
VISUALSTYLE
  5
366
102
{ACAD_XDICTIONARY
360
3D9
102
}
102
{ACAD_REACTORS
330
2B
102
}
330
2B
100
AcDbVisualStyle
  2
ColorChange
 70
    16
 71
     2
 72
     2
 73
     3
 90
        0
 40
-0.6
 41
-30.0
 62
     5
 63
     8
 74
     1
 91
        4
 64
     7
 65
   257
 75
     1
175
     1
 42
1.0
 92
        8
 66
     8
 43
1.0
 76
     1
 77
     6
 78
     2
 67
     7
 79
     5
170
     0
171
     0
290
     0
174
     0
 93
        1
 44
0.0
173
     0
291
     1
 45
0.0
1001
ACAD
1000
AcDbSavedByObjectVersion
1070
     0
  0
VISUALSTYLE
  5
360
102
{ACAD_XDICTIONARY
360
3CD
102
}
102
{ACAD_REACTORS
330
2B
102
}
330
2B
100
AcDbVisualStyle
  2
Conceptual
 70
     9
 71
     3
 72
     2
 73
     0
 90
        0
 40
-0.6
 41
-30.0
 62
     5
 63
     7
 74
     2
 91
        2
 64
     7
 65
   257
 75
     1
175
     1
 42
179.0
 92
        8
 66
     7
 43
1.0
 76
     1
 77
     6
 78
     2
 67
     7
 79
     3
170
     0
171
     0
290
     0
174
     0
 93
        1
 44
0.0
173
     0
291
     0
 45
0.0
1001
ACAD
1000
AcDbSavedByObjectVersion
1070
     0
  0
VISUALSTYLE
  5
361
102
{ACAD_XDICTIONARY
360
3CF
102
}
102
{ACAD_REACTORS
330
2B
102
}
330
2B
100
AcDbVisualStyle
  2
Dim
 70
    11
 71
     2
 72
     2
 73
     0
 90
        0
 40
-0.6
 41
-30.0
 62
     5
 63
     7
 74
     1
 91
        4
 64
     7
 65
   257
 75
     1
175
     1
 42
1.0
 92
        8
 66
     7
 43
1.0
 76
     1
 77
     6
 78
     2
 67
     7
 79
     5
170
     0
171
     0
290
     0
174
     0
 93
        1
 44
-50.0
173
     0
291
     1
 45
0.0
1001
ACAD
1000
AcDbSavedByObjectVersion
1070
     0
  0
VISUALSTYLE
  5
36E
102
{ACAD_XDICTIONARY
360
3E9
102
}
102
{ACAD_REACTORS
330
2B
102
}
330
2B
100
AcDbVisualStyle
  2
EdgeColorOff
 70
    22
 71
     2
 72
     2
 73
     0
 90
        0
 40
-0.6
 41
-30.0
 62
     5
 63
     7
 74
     1
 91
        4
 64
     7
 65
   257
 75
     1
175
     1
 42
1.0
 92
        8
 66
     7
 43
1.0
 76
     1
 77
     6
 78
     2
 67
     7
 79
     5
170
     0
171
     0
290
     0
174
     0
 93
        1
 44
0.0
173
     0
291
     1
 45
0.0
1001
ACAD
1000
AcDbSavedByObjectVersion
1070
     0
  0
VISUALSTYLE
  5
365
102
{ACAD_XDICTIONARY
360
3D7
102
}
102
{ACAD_REACTORS
330
2B
102
}
330
2B
100
AcDbVisualStyle
  2
Facepattern
 70
    15
 71
     2
 72
     2
 73
     0
 90
        0
 40
-0.6
 41
-30.0
 62
     5
 63
     7
 74
     1
 91
        4
 64
     7
 65
   257
 75
     1
175
     1
 42
1.0
 92
        8
 66
     7
 43
1.0
 76
     1
 77
     6
 78
     2
 67
     7
 79
     5
170
     0
171
     0
290
     0
174
     0
 93
        1
 44
0.0
173
     0
291
     1
 45
0.0
1001
ACAD
1000
AcDbSavedByObjectVersion
1070
     0
  0
VISUALSTYLE
  5
35A
102
{ACAD_XDICTIONARY
360
3C1
102
}
102
{ACAD_REACTORS
330
2B
102
}
330
2B
100
AcDbVisualStyle
  2
Flat
 70
     0
 71
     2
 72
     1
 73
     1
 90
        2
 40
-0.6
 41
30.0
 62
     5
 63
     7
 74
     0
 91
        0
 64
     7
 65
   257
 75
     1
175
     1
 42
1.0
 92
        8
 66
     7
 43
1.0
 76
     1
 77
     6
 78
     2
 67
     7
 79
     5
170
     0
171
     0
290
     0
174
     0
 93
       13
 44
0.0
173
     0
291
     1
 45
0.0
1001
ACAD
1000
AcDbSavedByObjectVersion
1070
     0
  0
VISUALSTYLE
  5
35B
102
{ACAD_XDICTIONARY
360
3C3
102
}
102
{ACAD_REACTORS
330
2B
102
}
330
2B
100
AcDbVisualStyle
  2
FlatWithEdges
 70
     1
 71
     2
 72
     1
 73
     1
 90
        2
 40
-0.6
 41
30.0
 62
     5
 63
     7
 74
     1
 91
        0
 64
     7
 65
   257
 75
     1
175
     1
 42
1.0
 92
        0
 66
   257
 43
1.0
 76
     1
 77
     6
 78
     2
 67
     7
 79
     5
170
     0
171
     0
290
     0
174
     0
 93
       13
 44
0.0
173
     0
291
     1
 45
0.0
1001
ACAD
1000
AcDbSavedByObjectVersion
1070
     0
  0
VISUALSTYLE
  5
35C
102
{ACAD_XDICTIONARY
360
3C5
102
}
102
{ACAD_REACTORS
330
2B
102
}
330
2B
100
AcDbVisualStyle
  2
Gouraud
 70
     2
 71
     2
 72
     2
 73
     1
 90
        2
 40
-0.6
 41
30.0
 62
     5
 63
     7
 74
     0
 91
        0
 64
     7
 65
   257
 75
     1
175
     1
 42
1.0
 92
        0
 66
     7
 43
1.0
 76
     1
 77
     6
 78
     2
 67
     7
 79
     5
170
     0
171
     0
290
     0
174
     0
 93
       13
 44
0.0
173
     0
291
     1
 45
0.0
1001
ACAD
1000
AcDbSavedByObjectVersion
1070
     0
  0
VISUALSTYLE
  5
35D
102
{ACAD_XDICTIONARY
360
3C7
102
}
102
{ACAD_REACTORS
330
2B
102
}
330
2B
100
AcDbVisualStyle
  2
GouraudWithEdges
 70
     3
 71
     2
 72
     2
 73
     1
 90
        2
 40
-0.6
 41
30.0
 62
     5
 63
     7
 74
     1
 91
        0
 64
     7
 65
   257
 75
     1
175
     1
 42
1.0
 92
        0
 66
   257
 43
1.0
 76
     1
 77
     6
 78
     2
 67
     7
 79
     5
170
     0
171
     0
290
     0
174
     0
 93
       13
 44
0.0
173
     0
291
     1
 45
0.0
1001
ACAD
1000
AcDbSavedByObjectVersion
1070
     0
  0
VISUALSTYLE
  5
35F
102
{ACAD_XDICTIONARY
360
3CB
102
}
102
{ACAD_REACTORS
330
2B
102
}
330
2B
100
AcDbVisualStyle
  2
Hidden
 70
     6
 71
     1
 72
     2
 73
     2
 90
        0
 40
-0.6
 41
-30.0
 62
     5
 63
     7
 74
     2
 91
        2
 64
     7
 65
   257
 75
     2
175
     1
 42
40.0
 92
        0
 66
   257
 43
1.0
 76
     1
 77
     6
 78
     2
 67
     7
 79
     3
170
     0
171
     0
290
     0
174
     0
 93
        1
 44
0.0
173
     0
291
     0
 45
0.0
1001
ACAD
1000
AcDbSavedByObjectVersion
1070
     0
  0
VISUALSTYLE
  5
36C
102
{ACAD_XDICTIONARY
360
3E5
102
}
102
{ACAD_REACTORS
330
2B
102
}
330
2B
100
AcDbVisualStyle
  2
JitterOff
 70
    20
 71
     2
 72
     2
 73
     0
 90
        0
 40
-0.6
 41
-30.0
 62
     5
 63
     7
 74
     1
 91
        4
 64
     7
 65
   257
 75
     1
175
     1
 42
1.0
 92
       10
 66
     7
 43
1.0
 76
     1
 77
     6
 78
     2
 67
     7
 79
     5
170
     0
171
     0
290
     0
174
     0
 93
        1
 44
0.0
173
     0
291
     1
 45
0.0
1001
ACAD
1000
AcDbSavedByObjectVersion
1070
     0
  0
VISUALSTYLE
  5
364
102
{ACAD_XDICTIONARY
360
3D5
102
}
102
{ACAD_REACTORS
330
2B
102
}
330
2B
100
AcDbVisualStyle
  2
Linepattern
 70
    14
 71
     2
 72
     2
 73
     0
 90
        0
 40
-0.6
 41
-30.0
 62
     5
 63
     7
 74
     1
 91
        4
 64
     7
 65
   257
 75
     7
175
     7
 42
1.0
 92
        8
 66
     7
 43
1.0
 76
     1
 77
     6
 78
     2
 67
     7
 79
     5
170
     0
171
     0
290
     0
174
     0
 93
        1
 44
0.0
173
     0
291
     1
 45
0.0
1001
ACAD
1000
AcDbSavedByObjectVersion
1070
     0
  0
VISUALSTYLE
  5
36D
102
{ACAD_XDICTIONARY
360
3E7
102
}
102
{ACAD_REACTORS
330
2B
102
}
330
2B
100
AcDbVisualStyle
  2
OverhangOff
 70
    21
 71
     2
 72
     2
 73
     0
 90
        0
 40
-0.6
 41
-30.0
 62
     5
 63
     7
 74
     1
 91
        4
 64
     7
 65
   257
 75
     1
175
     1
 42
1.0
 92
        9
 66
     7
 43
1.0
 76
     1
 77
     6
 78
     2
 67
     7
 79
     5
170
     0
171
     0
290
     0
174
     0
 93
        1
 44
0.0
173
     0
291
     1
 45
0.0
1001
ACAD
1000
AcDbSavedByObjectVersion
1070
     0
  0
VISUALSTYLE
  5
4B
102
{ACAD_XDICTIONARY
360
3B7
102
}
102
{ACAD_REACTORS
330
2B
102
}
330
2B
100
AcDbVisualStyle
  2
Realistic
 70
     8
 71
     2
 72
     2
 73
     0
 90
        0
 40
-0.6
 41
-30.0
 62
     5
 63
     7
 74
     1
 91
        0
 64
     7
 65
   257
 75
     1
175
     1
 42
1.0
 92
        8
 66
     8
 43
1.0
 76
     1
 77
     6
 78
     2
 67
     7
 79
     5
170
     0
171
     0
290
     0
174
     0
 93
       13
 44
0.0
173
     0
291
     0
 45
0.0
1001
ACAD
1000
AcDbSavedByObjectVersion
1070
     0
  0
VISUALSTYLE
  5
36B
102
{ACAD_XDICTIONARY
360
3E3
102
}
102
{ACAD_REACTORS
330
2B
102
}
330
2B
100
AcDbVisualStyle
  2
Shaded
 70
    27
 71
     2
 72
     2
 73
     1
 90
        2
 40
-0.6
 41
30.0
 62
     5
 63
     7
 74
     0
 91
        4
 64
     7
 65
   257
 75
     1
175
     1
 42
1.0
 92
        8
 66
   257
 43
1.0
 76
     1
 77
     6
 78
     2
 67
     8
 79
     3
170
     0
171
     0
290
     0
174
     0
 93
        5
 44
0.0
173
     0
291
     0
 45
0.0
1001
ACAD
1000
AcDbSavedByObjectVersion
1070
     0
  0
VISUALSTYLE
  5
36A
102
{ACAD_XDICTIONARY
360
3E1
102
}
102
{ACAD_REACTORS
330
2B
102
}
330
2B
100
AcDbVisualStyle
  2
Shaded with edges
 70
    26
 71
     2
 72
     2
 73
     1
 90
        2
 40
-0.6
 41
30.0
 62
     5
 63
     7
 74
     1
 91
       10
 64
     7
 65
   257
 75
     2
175
     1
 42
1.0
 92
        8
 66
   257
 43
1.0
 76
     1
 77
     6
 78
     2
 67
     7
 79
     3
170
     0
171
     0
290
     0
174
     0
 93
        5
 44
0.0
173
     0
291
     0
 45
0.0
1001
ACAD
1000
AcDbSavedByObjectVersion
1070
     0
  0
VISUALSTYLE
  5
367
102
{ACAD_XDICTIONARY
360
3DB
102
}
102
{ACAD_REACTORS
330
2B
102
}
330
2B
100
AcDbVisualStyle
  2
Shades of Gray
 70
    23
 71
     2
 72
     2
 73
     3
 90
        0
 40
-0.6
 41
-30.0
 62
     5
 63
     7
 74
     2
 91
        2
 64
     7
 65
     7
 75
     1
175
     1
 42
40.0
 92
        8
 66
     7
 43
1.0
 76
     1
 77
     6
 78
     2
 67
     7
 79
     3
170
     0
171
     0
290
     0
174
     0
 93
        1
 44
0.0
173
     0
291
     0
 45
0.0
1001
ACAD
1000
AcDbSavedByObjectVersion
1070
     0
  0
VISUALSTYLE
  5
368
102
{ACAD_XDICTIONARY
360
3DD
102
}
102
{ACAD_REACTORS
330
2B
102
}
330
2B
100
AcDbVisualStyle
  2
Sketchy
 70
    24
 71
     1
 72
     2
 73
     2
 90
        0
 40
-0.6
 41
-30.0
 62
     5
 63
     7
 74
     2
 91
        2
 64
     7
 65
     7
 75
     1
175
     1
 42
40.0
 92
       11
 66
     7
 43
1.0
 76
     1
 77
     6
 78
     2
 67
     7
 79
     6
170
     0
171
     0
290
     0
174
     0
 93
        1
 44
0.0
173
     0
291
     0
 45
0.0
1001
ACAD
1000
AcDbSavedByObjectVersion
1070
     0
  0
VISUALSTYLE
  5
363
102
{ACAD_XDICTIONARY
360
3D3
102
}
102
{ACAD_REACTORS
330
2B
102
}
330
2B
100
AcDbVisualStyle
  2
Thicken
 70
    13
 71
     2
 72
     2
 73
     0
 90
        0
 40
-0.6
 41
-30.0
 62
     5
 63
     7
 74
     1
 91
        4
 64
     7
 65
   257
 75
     1
175
     1
 42
1.0
 92
       12
 66
     7
 43
1.0
 76
     1
 77
     6
 78
     2
 67
     7
 79
     5
170
     0
171
     0
290
     0
174
     0
 93
        1
 44
0.0
173
     0
291
     1
 45
0.0
1001
ACAD
1000
AcDbSavedByObjectVersion
1070
     0
  0
VISUALSTYLE
  5
4C
102
{ACAD_XDICTIONARY
360
3B9
102
}
102
{ACAD_REACTORS
330
2B
102
}
330
2B
100
AcDbVisualStyle
  2
Wireframe
 70
     5
 71
     0
 72
     2
 73
     0
 90
        0
 40
-0.6
 41
-30.0
 62
     5
 63
     7
 74
     1
 91
        4
 64
     7
 65
   257
 75
     1
175
     1
 42
1.0
 92
        0
 66
   257
 43
1.0
 76
     1
 77
     6
 78
     2
 67
     7
 79
     3
170
     0
171
     0
290
     0
174
     0
 93
        1
 44
0.0
173
     0
291
     0
 45
0.0
1001
ACAD
1000
AcDbSavedByObjectVersion
1070
     0
  0
VISUALSTYLE
  5
369
102
{ACAD_XDICTIONARY
360
3DF
102
}
102
{ACAD_REACTORS
330
2B
102
}
330
2B
100
AcDbVisualStyle
  2
X-Ray
 70
    25
 71
     2
 72
     2
 73
     1
 90
        1
 40
0.5
 41
-30.0
 62
     5
 63
     7
 74
     1
 91
        0
 64
     7
 65
   257
 75
     1
175
     1
 42
1.0
 92
        8
 66
     7
 43
1.0
 76
     1
 77
     6
 78
     2
 67
     7
 79
     3
170
     0
171
     0
290
     0
174
     0
 93
       13
 44
0.0
173
     0
291
     0
 45
0.0
1001
ACAD
1000
AcDbSavedByObjectVersion
1070
     0
  0
DICTIONARYVAR
  5
355
102
{ACAD_REACTORS
330
351
102
}
330
351
100
DictionaryVariables
280
     0
  1
1:1
  0
DICTIONARYVAR
  5
353
102
{ACAD_REACTORS
330
351
102
}
330
351
100
DictionaryVariables
280
     0
  1
STANDARD
  0
DICTIONARYVAR
  5
352
102
{ACAD_REACTORS
330
351
102
}
330
351
100
DictionaryVariables
280
     0
  1
STANDARD
  0
DICTIONARYVAR
  5
3A4
102
{ACAD_REACTORS
330
351
102
}
330
351
100
DictionaryVariables
280
     0
  1
1
  0
DICTIONARYVAR
  5
3A3
102
{ACAD_REACTORS
330
351
102
}
330
351
100
DictionaryVariables
280
     0
  1
1
  0
DICTIONARYVAR
  5
3A2
102
{ACAD_REACTORS
330
351
102
}
330
351
100
DictionaryVariables
280
     0
  1
0
  0
DICTIONARYVAR
  5
357
102
{ACAD_REACTORS
330
351
102
}
330
351
100
DictionaryVariables
280
     0
  1
1
  0
DICTIONARYVAR
  5
358
102
{ACAD_REACTORS
330
351
102
}
330
351
100
DictionaryVariables
280
     0
  1
15
  0
DICTIONARYVAR
  5
356
102
{ACAD_REACTORS
330
351
102
}
330
351
100
DictionaryVariables
280
     0
  1
0
  0
DICTIONARYVAR
  5
354
102
{ACAD_REACTORS
330
351
102
}
330
351
100
DictionaryVariables
280
     0
  1
0
  0
DICTIONARYVAR
  5
3A1
102
{ACAD_REACTORS
330
351
102
}
330
351
100
DictionaryVariables
280
     0
  1
127
  0
DICTIONARYVAR
  5
3A5
102
{ACAD_REACTORS
330
351
102
}
330
351
100
DictionaryVariables
280
     0
  1
2
  0
DICTIONARY
  5
305
102
{ACAD_REACTORS
330
304
102
}
330
304
100
AcDbDictionary
281
     1
  0
DICTIONARY
  5
2FF
102
{ACAD_REACTORS
330
2F5
102
}
330
2F5
100
AcDbDictionary
281
     1
  3
DWGSETTINGS
350
2FE
  3
TRANSSETTINGS
350
300
  0
DICTIONARY
  5
3AF
330
D
100
AcDbDictionary
280
     1
281
     1
  3
ACAD_XREC_ROUNDTRIP
360
3B0
  0
DICTIONARY
  5
3AD
330
7
100
AcDbDictionary
280
     1
281
     1
  3
ACAD_XREC_ROUNDTRIP
360
3AE
  0
DICTIONARY
  5
3D
330
3C
100
AcDbDictionary
280
     1
281
     1
  3
ACAD_XREC_ROUNDTRIP
360
3B5
  3
BUMPTILE
360
3E
  3
DIFFUSETILE
360
3F
  3
OPACITYTILE
360
40
  3
REFLECTIONTILE
360
41
  3
REFRACTIONTILE
360
42
  3
SPECULARTILE
360
43
  0
DICTIONARY
  5
35
330
34
100
AcDbDictionary
280
     1
281
     1
  3
ACAD_XREC_ROUNDTRIP
360
3B4
  3
BUMPTILE
360
36
  3
DIFFUSETILE
360
37
  3
OPACITYTILE
360
38
  3
REFLECTIONTILE
360
39
  3
REFRACTIONTILE
360
3A
  3
SPECULARTILE
360
3B
  0
DICTIONARY
  5
14
330
12
100
AcDbDictionary
280
     1
281
     1
  3
ACAD_XREC_ROUNDTRIP
360
3B1
  3
BUMPTILE
360
15
  3
DIFFUSETILE
360
16
  3
OPACITYTILE
360
17
  3
REFLECTIONTILE
360
18
  3
REFRACTIONTILE
360
19
  3
SPECULARTILE
360
1A
  0
DICTIONARY
  5
4A
330
49
100
AcDbDictionary
280
     1
281
     1
  3
ACAD_ROUNDTRIP_2008_TABLESTYLE_CELLSTYLEMAP
360
3A6
  3
ACAD_XREC_ROUNDTRIP
360
3B6
  0
DICTIONARY
  5
3B2
330
2A
100
AcDbDictionary
280
     1
281
     1
  3
ACAD_XREC_ROUNDTRIP
360
3B3
  0
DICTIONARY
  5
3C9
330
35E
100
AcDbDictionary
280
     1
281
     1
  3
ACAD_XREC_ROUNDTRIP
360
3CA
  0
DICTIONARY
  5
3D1
330
362
100
AcDbDictionary
280
     1
281
     1
  3
ACAD_XREC_ROUNDTRIP
360
3D2
  0
DICTIONARY
  5
3D9
330
366
100
AcDbDictionary
280
     1
281
     1
  3
ACAD_XREC_ROUNDTRIP
360
3DA
  0
DICTIONARY
  5
3CD
330
360
100
AcDbDictionary
280
     1
281
     1
  3
ACAD_XREC_ROUNDTRIP
360
3CE
  0
DICTIONARY
  5
3CF
330
361
100
AcDbDictionary
280
     1
281
     1
  3
ACAD_XREC_ROUNDTRIP
360
3D0
  0
DICTIONARY
  5
3E9
330
36E
100
AcDbDictionary
280
     1
281
     1
  3
ACAD_XREC_ROUNDTRIP
360
3EA
  0
DICTIONARY
  5
3D7
330
365
100
AcDbDictionary
280
     1
281
     1
  3
ACAD_XREC_ROUNDTRIP
360
3D8
  0
DICTIONARY
  5
3C1
330
35A
100
AcDbDictionary
280
     1
281
     1
  3
ACAD_XREC_ROUNDTRIP
360
3C2
  0
DICTIONARY
  5
3C3
330
35B
100
AcDbDictionary
280
     1
281
     1
  3
ACAD_XREC_ROUNDTRIP
360
3C4
  0
DICTIONARY
  5
3C5
330
35C
100
AcDbDictionary
280
     1
281
     1
  3
ACAD_XREC_ROUNDTRIP
360
3C6
  0
DICTIONARY
  5
3C7
330
35D
100
AcDbDictionary
280
     1
281
     1
  3
ACAD_XREC_ROUNDTRIP
360
3C8
  0
DICTIONARY
  5
3CB
330
35F
100
AcDbDictionary
280
     1
281
     1
  3
ACAD_XREC_ROUNDTRIP
360
3CC
  0
DICTIONARY
  5
3E5
330
36C
100
AcDbDictionary
280
     1
281
     1
  3
ACAD_XREC_ROUNDTRIP
360
3E6
  0
DICTIONARY
  5
3D5
330
364
100
AcDbDictionary
280
     1
281
     1
  3
ACAD_XREC_ROUNDTRIP
360
3D6
  0
DICTIONARY
  5
3E7
330
36D
100
AcDbDictionary
280
     1
281
     1
  3
ACAD_XREC_ROUNDTRIP
360
3E8
  0
DICTIONARY
  5
3B7
330
4B
100
AcDbDictionary
280
     1
281
     1
  3
ACAD_XREC_ROUNDTRIP
360
3B8
  0
DICTIONARY
  5
3E3
330
36B
100
AcDbDictionary
280
     1
281
     1
  3
ACAD_XREC_ROUNDTRIP
360
3E4
  0
DICTIONARY
  5
3E1
330
36A
100
AcDbDictionary
280
     1
281
     1
  3
ACAD_XREC_ROUNDTRIP
360
3E2
  0
DICTIONARY
  5
3DB
330
367
100
AcDbDictionary
280
     1
281
     1
  3
ACAD_XREC_ROUNDTRIP
360
3DC
  0
DICTIONARY
  5
3DD
330
368
100
AcDbDictionary
280
     1
281
     1
  3
ACAD_XREC_ROUNDTRIP
360
3DE
  0
DICTIONARY
  5
3D3
330
363
100
AcDbDictionary
280
     1
281
     1
  3
ACAD_XREC_ROUNDTRIP
360
3D4
  0
DICTIONARY
  5
3B9
330
4C
100
AcDbDictionary
280
     1
281
     1
  3
ACAD_XREC_ROUNDTRIP
360
3BA
  0
DICTIONARY
  5
3DF
330
369
100
AcDbDictionary
280
     1
281
     1
  3
ACAD_XREC_ROUNDTRIP
360
3E0
  0
XRECORD
  5
3B0
102
{ACAD_REACTORS
330
3AF
102
}
330
3AF
100
AcDbXrecord
280
     1
102
SHADEPLOT
 70
     0
102
SHADEPLOTRESLEVEL
 70
     2
102
SHADEPLOTCUSTOMDPI
 70
   300
  0
XRECORD
  5
3AE
102
{ACAD_REACTORS
330
3AD
102
}
330
3AD
100
AcDbXrecord
280
     1
102
SHADEPLOT
 70
     0
102
SHADEPLOTRESLEVEL
 70
     2
102
SHADEPLOTCUSTOMDPI
 70
   300
  0
XRECORD
  5
3B5
102
{ACAD_REACTORS
330
3D
102
}
330
3D
100
AcDbXrecord
280
     1
102
MATERIAL
148
0.0
149
0.0
149
0.0
 93
        0
 94
      127
282
     0
 72
     0
 77
     0
171
     0
175
     0
179
     0
273
     0
  0
XRECORD
  5
3E
102
{ACAD_REACTORS
330
3D
102
}
330
3D
100
AcDbXrecord
280
     1
270
     1
271
     1
  0
XRECORD
  5
3F
102
{ACAD_REACTORS
330
3D
102
}
330
3D
100
AcDbXrecord
280
     1
270
     1
271
     1
  0
XRECORD
  5
40
102
{ACAD_REACTORS
330
3D
102
}
330
3D
100
AcDbXrecord
280
     1
270
     1
271
     1
  0
XRECORD
  5
41
102
{ACAD_REACTORS
330
3D
102
}
330
3D
100
AcDbXrecord
280
     1
270
     1
271
     1
  0
XRECORD
  5
42
102
{ACAD_REACTORS
330
3D
102
}
330
3D
100
AcDbXrecord
280
     1
270
     1
271
     1
  0
XRECORD
  5
43
102
{ACAD_REACTORS
330
3D
102
}
330
3D
100
AcDbXrecord
280
     1
270
     1
271
     1
  0
XRECORD
  5
3B4
102
{ACAD_REACTORS
330
35
102
}
330
35
100
AcDbXrecord
280
     1
102
MATERIAL
148
0.0
149
0.0
149
0.0
 93
        0
 94
      127
282
     0
 72
     0
 77
     0
171
     0
175
     0
179
     0
273
     0
  0
XRECORD
  5
36
102
{ACAD_REACTORS
330
35
102
}
330
35
100
AcDbXrecord
280
     1
270
     1
271
     1
  0
XRECORD
  5
37
102
{ACAD_REACTORS
330
35
102
}
330
35
100
AcDbXrecord
280
     1
270
     1
271
     1
  0
XRECORD
  5
38
102
{ACAD_REACTORS
330
35
102
}
330
35
100
AcDbXrecord
280
     1
270
     1
271
     1
  0
XRECORD
  5
39
102
{ACAD_REACTORS
330
35
102
}
330
35
100
AcDbXrecord
280
     1
270
     1
271
     1
  0
XRECORD
  5
3A
102
{ACAD_REACTORS
330
35
102
}
330
35
100
AcDbXrecord
280
     1
270
     1
271
     1
  0
XRECORD
  5
3B
102
{ACAD_REACTORS
330
35
102
}
330
35
100
AcDbXrecord
280
     1
270
     1
271
     1
  0
XRECORD
  5
3B1
102
{ACAD_REACTORS
330
14
102
}
330
14
100
AcDbXrecord
280
     1
102
MATERIAL
148
0.0
149
0.0
149
0.0
 93
        0
 94
      127
282
     0
 72
     0
 77
     0
171
     0
175
     0
179
     0
273
     0
  0
XRECORD
  5
15
102
{ACAD_REACTORS
330
14
102
}
330
14
100
AcDbXrecord
280
     1
270
     1
271
     1
  0
XRECORD
  5
16
102
{ACAD_REACTORS
330
14
102
}
330
14
100
AcDbXrecord
280
     1
270
     1
271
     1
  0
XRECORD
  5
17
102
{ACAD_REACTORS
330
14
102
}
330
14
100
AcDbXrecord
280
     1
270
     1
271
     1
  0
XRECORD
  5
18
102
{ACAD_REACTORS
330
14
102
}
330
14
100
AcDbXrecord
280
     1
270
     1
271
     1
  0
XRECORD
  5
19
102
{ACAD_REACTORS
330
14
102
}
330
14
100
AcDbXrecord
280
     1
270
     1
271
     1
  0
XRECORD
  5
1A
102
{ACAD_REACTORS
330
14
102
}
330
14
100
AcDbXrecord
280
     1
270
     1
271
     1
  0
CELLSTYLEMAP
  5
3A6
102
{ACAD_REACTORS
330
4A
102
}
330
4A
100
AcDbCellStyleMap
 90
        3
300
CELLSTYLE
  1
TABLEFORMAT_BEGIN
 90
        5
170
     1
 91
        0
 92
    32768
 62
   257
 93
        1
300
CONTENTFORMAT
  1
CONTENTFORMAT_BEGIN
 90
        0
 91
        0
 92
      512
 93
        0
300

 40
0.0
140
1.0
 94
        5
 62
     0
340
21
144
0.25
309
CONTENTFORMAT_END
171
     0
 94
        0
309
TABLEFORMAT_END
  1
CELLSTYLE_BEGIN
 90
        1
 91
        1
300
_TITLE
309
CELLSTYLE_END
300
CELLSTYLE
  1
TABLEFORMAT_BEGIN
 90
        5
170
     1
 91
        0
 92
        0
 62
   257
 93
        1
300
CONTENTFORMAT
  1
CONTENTFORMAT_BEGIN
 90
        0
 91
        0
 92
      512
 93
        0
300

 40
0.0
140
1.0
 94
        5
 62
     0
340
21
144
0.18
309
CONTENTFORMAT_END
171
     0
 94
        0
309
TABLEFORMAT_END
  1
CELLSTYLE_BEGIN
 90
        2
 91
        1
300
_HEADER
309
CELLSTYLE_END
300
CELLSTYLE
  1
TABLEFORMAT_BEGIN
 90
        5
170
     1
 91
        0
 92
        0
 62
   257
 93
        1
300
CONTENTFORMAT
  1
CONTENTFORMAT_BEGIN
 90
        0
 91
        0
 92
      512
 93
        0
300

 40
0.0
140
1.0
 94
        2
 62
     0
340
21
144
0.18
309
CONTENTFORMAT_END
171
     0
 94
        0
309
TABLEFORMAT_END
  1
CELLSTYLE_BEGIN
 90
        3
 91
        2
300
_DATA
309
CELLSTYLE_END
  0
XRECORD
  5
3B6
102
{ACAD_REACTORS
330
4A
102
}
330
4A
100
AcDbXrecord
280
     1
102
ACAD_ROUNDTRIP_PRE2007_TABLESTYLE
 90
      512
 91
        0
  1

 92
      512
 93
        0
  2

 94
      512
 95
        0
  3

  0
XRECORD
  5
3B3
102
{ACAD_REACTORS
330
3B2
102
}
330
3B2
100
AcDbXrecord
280
     1
102
RTVSPropertyOp0
 70
     1
102
RTVSPropertyOp1
 70
     1
102
RTVSPropertyOp2
 70
     1
102
RTVSPropertyOp3
 70
     1
102
RTVSPropertyOp4
 70
     1
102
RTVSPropertyOp5
 70
     1
102
RTVSPropertyOp6
 70
     1
102
RTVSPropertyOp7
 70
     1
102
RTVSPropertyOp8
 70
     1
102
RTVSPropertyOp9
 70
     1
102
RTVSPropertyOp10
 70
     1
102
RTVSPropertyOp11
 70
     1
102
RTVSPropertyOp12
 70
     1
102
RTVSPropertyOp13
 70
     1
102
RTVSPropertyOp14
 70
     1
102
RTVSPropertyOp15
 70
     1
102
RTVSPropertyOp16
 70
     1
102
RTVSPropertyOp17
 70
     1
102
RTVSPropertyOp18
 70
     1
102
RTVSPropertyOp19
 70
     1
102
RTVSPropertyOp20
 70
     1
102
RTVSPropertyOp21
 70
     1
102
RTVSPropertyOp22
 70
     1
102
RTVSPropertyOp23
 70
     1
102
RTVSPropertyOp24
 70
     1
102
RTVSPropertyOp25
 70
     1
102
RTVSPropertyOp26
 70
     1
102
RTVSPropertyOp27
 70
     1
102
RTVSPropertyOp28
 70
     1
102
RTVSPropertyOp29
 70
     1
102
RTVSPropertyOp30
 70
     1
102
RTVSPropertyOp31
 70
     1
102
RTVSPropertyOp32
 70
     1
  0
XRECORD
  5
3CA
102
{ACAD_REACTORS
330
3C9
102
}
330
3C9
100
AcDbXrecord
280
     1
102
RTVSPropertyOp0
 70
     1
102
RTVSPropertyOp1
 70
     1
102
RTVSPropertyOp2
 70
     1
102
RTVSPropertyOp3
 70
     1
102
RTVSPropertyOp4
 70
     1
102
RTVSPropertyOp5
 70
     1
102
RTVSPropertyOp6
 70
     1
102
RTVSPropertyOp7
 70
     1
102
RTVSPropertyOp8
 70
     1
102
RTVSPropertyOp9
 70
     1
102
RTVSPropertyOp10
 70
     1
102
RTVSPropertyOp11
 70
     1
102
RTVSPropertyOp12
 70
     1
102
RTVSPropertyOp13
 70
     1
102
RTVSPropertyOp14
 70
     1
102
RTVSPropertyOp15
 70
     1
102
RTVSPropertyOp16
 70
     1
102
RTVSPropertyOp17
 70
     1
102
RTVSPropertyOp18
 70
     1
102
RTVSPropertyOp19
 70
     1
102
RTVSPropertyOp20
 70
     1
102
RTVSPropertyOp21
 70
     1
102
RTVSPropertyOp22
 70
     1
102
RTVSPropertyOp23
 70
     1
102
RTVSPropertyOp24
 70
     1
102
RTVSPropertyOp25
 70
     1
102
RTVSPropertyOp26
 70
     1
102
RTVSPropertyOp27
 70
     1
102
RTVSPropertyOp28
 70
     1
102
RTVSPropertyOp29
 70
     1
102
RTVSPropertyOp30
 70
     1
102
RTVSPropertyOp31
 70
     1
102
RTVSPropertyOp32
 70
     1
  0
XRECORD
  5
3D2
102
{ACAD_REACTORS
330
3D1
102
}
330
3D1
100
AcDbXrecord
280
     1
102
RTVSPropertyOp0
 70
     1
102
RTVSPropertyOp1
 70
     1
102
RTVSPropertyOp2
 70
     1
102
RTVSPropertyOp3
 70
     1
102
RTVSPropertyOp4
 70
     1
102
RTVSPropertyOp5
 70
     1
102
RTVSPropertyOp6
 70
     1
102
RTVSPropertyOp7
 70
     1
102
RTVSPropertyOp8
 70
     1
102
RTVSPropertyOp9
 70
     1
102
RTVSPropertyOp10
 70
     1
102
RTVSPropertyOp11
 70
     1
102
RTVSPropertyOp12
 70
     1
102
RTVSPropertyOp13
 70
     1
102
RTVSPropertyOp14
 70
     1
102
RTVSPropertyOp15
 70
     1
102
RTVSPropertyOp16
 70
     1
102
RTVSPropertyOp17
 70
     1
102
RTVSPropertyOp18
 70
     1
102
RTVSPropertyOp19
 70
     1
102
RTVSPropertyOp20
 70
     1
102
RTVSPropertyOp21
 70
     1
102
RTVSPropertyOp22
 70
     1
102
RTVSPropertyOp23
 70
     1
102
RTVSPropertyOp24
 70
     1
102
RTVSPropertyOp25
 70
     1
102
RTVSPropertyOp26
 70
     1
102
RTVSPropertyOp27
 70
     1
102
RTVSPropertyOp28
 70
     1
102
RTVSPropertyOp29
 70
     1
102
RTVSPropertyOp30
 70
     1
102
RTVSPropertyOp31
 70
     1
102
RTVSPropertyOp32
 70
     1
  0
XRECORD
  5
3DA
102
{ACAD_REACTORS
330
3D9
102
}
330
3D9
100
AcDbXrecord
280
     1
102
RTVSPropertyOp0
 70
     1
102
RTVSPropertyOp1
 70
     1
102
RTVSPropertyOp2
 70
     1
102
RTVSPropertyOp3
 70
     1
102
RTVSPropertyOp4
 70
     1
102
RTVSPropertyOp5
 70
     1
102
RTVSPropertyOp6
 70
     1
102
RTVSPropertyOp7
 70
     1
102
RTVSPropertyOp8
 70
     1
102
RTVSPropertyOp9
 70
     1
102
RTVSPropertyOp10
 70
     1
102
RTVSPropertyOp11
 70
     1
102
RTVSPropertyOp12
 70
     1
102
RTVSPropertyOp13
 70
     1
102
RTVSPropertyOp14
 70
     1
102
RTVSPropertyOp15
 70
     1
102
RTVSPropertyOp16
 70
     1
102
RTVSPropertyOp17
 70
     1
102
RTVSPropertyOp18
 70
     1
102
RTVSPropertyOp19
 70
     1
102
RTVSPropertyOp20
 70
     1
102
RTVSPropertyOp21
 70
     1
102
RTVSPropertyOp22
 70
     1
102
RTVSPropertyOp23
 70
     1
102
RTVSPropertyOp24
 70
     1
102
RTVSPropertyOp25
 70
     1
102
RTVSPropertyOp26
 70
     1
102
RTVSPropertyOp27
 70
     1
102
RTVSPropertyOp28
 70
     1
102
RTVSPropertyOp29
 70
     1
102
RTVSPropertyOp30
 70
     1
102
RTVSPropertyOp31
 70
     1
102
RTVSPropertyOp32
 70
     1
  0
XRECORD
  5
3CE
102
{ACAD_REACTORS
330
3CD
102
}
330
3CD
100
AcDbXrecord
280
     1
102
RTVSPropertyOp0
 70
     1
102
RTVSPropertyOp1
 70
     1
102
RTVSPropertyOp2
 70
     1
102
RTVSPropertyOp3
 70
     1
102
RTVSPropertyOp4
 70
     1
102
RTVSPropertyOp5
 70
     1
102
RTVSPropertyOp6
 70
     1
102
RTVSPropertyOp7
 70
     1
102
RTVSPropertyOp8
 70
     1
102
RTVSPropertyOp9
 70
     1
102
RTVSPropertyOp10
 70
     1
102
RTVSPropertyOp11
 70
     1
102
RTVSPropertyOp12
 70
     1
102
RTVSPropertyOp13
 70
     1
102
RTVSPropertyOp14
 70
     1
102
RTVSPropertyOp15
 70
     1
102
RTVSPropertyOp16
 70
     1
102
RTVSPropertyOp17
 70
     1
102
RTVSPropertyOp18
 70
     1
102
RTVSPropertyOp19
 70
     1
102
RTVSPropertyOp20
 70
     1
102
RTVSPropertyOp21
 70
     1
102
RTVSPropertyOp22
 70
     1
102
RTVSPropertyOp23
 70
     1
102
RTVSPropertyOp24
 70
     1
102
RTVSPropertyOp25
 70
     1
102
RTVSPropertyOp26
 70
     1
102
RTVSPropertyOp27
 70
     1
102
RTVSPropertyOp28
 70
     1
102
RTVSPropertyOp29
 70
     1
102
RTVSPropertyOp30
 70
     1
102
RTVSPropertyOp31
 70
     1
102
RTVSPropertyOp32
 70
     1
  0
XRECORD
  5
3D0
102
{ACAD_REACTORS
330
3CF
102
}
330
3CF
100
AcDbXrecord
280
     1
102
RTVSPropertyOp0
 70
     1
102
RTVSPropertyOp1
 70
     1
102
RTVSPropertyOp2
 70
     1
102
RTVSPropertyOp3
 70
     1
102
RTVSPropertyOp4
 70
     1
102
RTVSPropertyOp5
 70
     1
102
RTVSPropertyOp6
 70
     1
102
RTVSPropertyOp7
 70
     1
102
RTVSPropertyOp8
 70
     1
102
RTVSPropertyOp9
 70
     1
102
RTVSPropertyOp10
 70
     1
102
RTVSPropertyOp11
 70
     1
102
RTVSPropertyOp12
 70
     1
102
RTVSPropertyOp13
 70
     1
102
RTVSPropertyOp14
 70
     1
102
RTVSPropertyOp15
 70
     1
102
RTVSPropertyOp16
 70
     1
102
RTVSPropertyOp17
 70
     1
102
RTVSPropertyOp18
 70
     1
102
RTVSPropertyOp19
 70
     1
102
RTVSPropertyOp20
 70
     1
102
RTVSPropertyOp21
 70
     1
102
RTVSPropertyOp22
 70
     1
102
RTVSPropertyOp23
 70
     1
102
RTVSPropertyOp24
 70
     1
102
RTVSPropertyOp25
 70
     1
102
RTVSPropertyOp26
 70
     1
102
RTVSPropertyOp27
 70
     1
102
RTVSPropertyOp28
 70
     1
102
RTVSPropertyOp29
 70
     1
102
RTVSPropertyOp30
 70
     1
102
RTVSPropertyOp31
 70
     1
102
RTVSPropertyOp32
 70
     1
  0
XRECORD
  5
3EA
102
{ACAD_REACTORS
330
3E9
102
}
330
3E9
100
AcDbXrecord
280
     1
102
RTVSPropertyOp0
 70
     0
102
RTVSPropertyOp1
 70
     0
102
RTVSPropertyOp2
 70
     0
102
RTVSPropertyOp3
 70
     0
102
RTVSPropertyOp4
 70
     0
102
RTVSPropertyOp5
 70
     0
102
RTVSPropertyOp6
 70
     0
102
RTVSPropertyOp7
 70
     0
102
RTVSPropertyOp8
 70
     0
102
RTVSPropertyOp9
 70
     0
102
RTVSPropertyOp10
 70
     0
102
RTVSPropertyOp11
 70
     0
102
RTVSPropertyOp12
 70
     0
102
RTVSPropertyOp13
 70
     0
102
RTVSPropertyOp14
 70
     2
102
RTVSPropertyOp15
 70
     0
102
RTVSPropertyOp16
 70
     0
102
RTVSPropertyOp17
 70
     0
102
RTVSPropertyOp18
 70
     0
102
RTVSPropertyOp19
 70
     0
102
RTVSPropertyOp20
 70
     0
102
RTVSPropertyOp21
 70
     0
102
RTVSPropertyOp22
 70
     0
102
RTVSPropertyOp23
 70
     0
102
RTVSPropertyOp24
 70
     0
102
RTVSPropertyOp25
 70
     0
102
RTVSPropertyOp26
 70
     0
102
RTVSPropertyOp27
 70
     0
102
RTVSPropertyOp28
 70
     0
102
RTVSPropertyOp29
 70
     0
102
RTVSPropertyOp30
 70
     0
102
RTVSPropertyOp31
 70
     0
102
RTVSPropertyOp32
 70
     0
  0
XRECORD
  5
3D8
102
{ACAD_REACTORS
330
3D7
102
}
330
3D7
100
AcDbXrecord
280
     1
102
RTVSPropertyOp0
 70
     1
102
RTVSPropertyOp1
 70
     1
102
RTVSPropertyOp2
 70
     1
102
RTVSPropertyOp3
 70
     1
102
RTVSPropertyOp4
 70
     1
102
RTVSPropertyOp5
 70
     1
102
RTVSPropertyOp6
 70
     1
102
RTVSPropertyOp7
 70
     1
102
RTVSPropertyOp8
 70
     1
102
RTVSPropertyOp9
 70
     1
102
RTVSPropertyOp10
 70
     1
102
RTVSPropertyOp11
 70
     1
102
RTVSPropertyOp12
 70
     1
102
RTVSPropertyOp13
 70
     1
102
RTVSPropertyOp14
 70
     1
102
RTVSPropertyOp15
 70
     1
102
RTVSPropertyOp16
 70
     1
102
RTVSPropertyOp17
 70
     1
102
RTVSPropertyOp18
 70
     1
102
RTVSPropertyOp19
 70
     1
102
RTVSPropertyOp20
 70
     1
102
RTVSPropertyOp21
 70
     1
102
RTVSPropertyOp22
 70
     1
102
RTVSPropertyOp23
 70
     1
102
RTVSPropertyOp24
 70
     1
102
RTVSPropertyOp25
 70
     1
102
RTVSPropertyOp26
 70
     1
102
RTVSPropertyOp27
 70
     1
102
RTVSPropertyOp28
 70
     1
102
RTVSPropertyOp29
 70
     1
102
RTVSPropertyOp30
 70
     1
102
RTVSPropertyOp31
 70
     1
102
RTVSPropertyOp32
 70
     1
  0
XRECORD
  5
3C2
102
{ACAD_REACTORS
330
3C1
102
}
330
3C1
100
AcDbXrecord
280
     1
102
RTVSPropertyOp0
 70
     1
102
RTVSPropertyOp1
 70
     1
102
RTVSPropertyOp2
 70
     1
102
RTVSPropertyOp3
 70
     1
102
RTVSPropertyOp4
 70
     1
102
RTVSPropertyOp5
 70
     1
102
RTVSPropertyOp6
 70
     1
102
RTVSPropertyOp7
 70
     1
102
RTVSPropertyOp8
 70
     1
102
RTVSPropertyOp9
 70
     1
102
RTVSPropertyOp10
 70
     1
102
RTVSPropertyOp11
 70
     1
102
RTVSPropertyOp12
 70
     1
102
RTVSPropertyOp13
 70
     1
102
RTVSPropertyOp14
 70
     1
102
RTVSPropertyOp15
 70
     1
102
RTVSPropertyOp16
 70
     1
102
RTVSPropertyOp17
 70
     1
102
RTVSPropertyOp18
 70
     1
102
RTVSPropertyOp19
 70
     1
102
RTVSPropertyOp20
 70
     1
102
RTVSPropertyOp21
 70
     1
102
RTVSPropertyOp22
 70
     1
102
RTVSPropertyOp23
 70
     1
102
RTVSPropertyOp24
 70
     1
102
RTVSPropertyOp25
 70
     1
102
RTVSPropertyOp26
 70
     1
102
RTVSPropertyOp27
 70
     1
102
RTVSPropertyOp28
 70
     1
102
RTVSPropertyOp29
 70
     1
102
RTVSPropertyOp30
 70
     1
102
RTVSPropertyOp31
 70
     1
102
RTVSPropertyOp32
 70
     1
  0
XRECORD
  5
3C4
102
{ACAD_REACTORS
330
3C3
102
}
330
3C3
100
AcDbXrecord
280
     1
102
RTVSPropertyOp0
 70
     1
102
RTVSPropertyOp1
 70
     1
102
RTVSPropertyOp2
 70
     1
102
RTVSPropertyOp3
 70
     1
102
RTVSPropertyOp4
 70
     1
102
RTVSPropertyOp5
 70
     1
102
RTVSPropertyOp6
 70
     1
102
RTVSPropertyOp7
 70
     1
102
RTVSPropertyOp8
 70
     1
102
RTVSPropertyOp9
 70
     1
102
RTVSPropertyOp10
 70
     1
102
RTVSPropertyOp11
 70
     1
102
RTVSPropertyOp12
 70
     1
102
RTVSPropertyOp13
 70
     1
102
RTVSPropertyOp14
 70
     1
102
RTVSPropertyOp15
 70
     1
102
RTVSPropertyOp16
 70
     1
102
RTVSPropertyOp17
 70
     1
102
RTVSPropertyOp18
 70
     1
102
RTVSPropertyOp19
 70
     1
102
RTVSPropertyOp20
 70
     1
102
RTVSPropertyOp21
 70
     1
102
RTVSPropertyOp22
 70
     1
102
RTVSPropertyOp23
 70
     1
102
RTVSPropertyOp24
 70
     1
102
RTVSPropertyOp25
 70
     1
102
RTVSPropertyOp26
 70
     1
102
RTVSPropertyOp27
 70
     1
102
RTVSPropertyOp28
 70
     1
102
RTVSPropertyOp29
 70
     1
102
RTVSPropertyOp30
 70
     1
102
RTVSPropertyOp31
 70
     1
102
RTVSPropertyOp32
 70
     1
  0
XRECORD
  5
3C6
102
{ACAD_REACTORS
330
3C5
102
}
330
3C5
100
AcDbXrecord
280
     1
102
RTVSPropertyOp0
 70
     1
102
RTVSPropertyOp1
 70
     1
102
RTVSPropertyOp2
 70
     1
102
RTVSPropertyOp3
 70
     1
102
RTVSPropertyOp4
 70
     1
102
RTVSPropertyOp5
 70
     1
102
RTVSPropertyOp6
 70
     1
102
RTVSPropertyOp7
 70
     1
102
RTVSPropertyOp8
 70
     1
102
RTVSPropertyOp9
 70
     1
102
RTVSPropertyOp10
 70
     1
102
RTVSPropertyOp11
 70
     1
102
RTVSPropertyOp12
 70
     1
102
RTVSPropertyOp13
 70
     1
102
RTVSPropertyOp14
 70
     1
102
RTVSPropertyOp15
 70
     1
102
RTVSPropertyOp16
 70
     1
102
RTVSPropertyOp17
 70
     1
102
RTVSPropertyOp18
 70
     1
102
RTVSPropertyOp19
 70
     1
102
RTVSPropertyOp20
 70
     1
102
RTVSPropertyOp21
 70
     1
102
RTVSPropertyOp22
 70
     1
102
RTVSPropertyOp23
 70
     1
102
RTVSPropertyOp24
 70
     1
102
RTVSPropertyOp25
 70
     1
102
RTVSPropertyOp26
 70
     1
102
RTVSPropertyOp27
 70
     1
102
RTVSPropertyOp28
 70
     1
102
RTVSPropertyOp29
 70
     1
102
RTVSPropertyOp30
 70
     1
102
RTVSPropertyOp31
 70
     1
102
RTVSPropertyOp32
 70
     1
  0
XRECORD
  5
3C8
102
{ACAD_REACTORS
330
3C7
102
}
330
3C7
100
AcDbXrecord
280
     1
102
RTVSPropertyOp0
 70
     1
102
RTVSPropertyOp1
 70
     1
102
RTVSPropertyOp2
 70
     1
102
RTVSPropertyOp3
 70
     1
102
RTVSPropertyOp4
 70
     1
102
RTVSPropertyOp5
 70
     1
102
RTVSPropertyOp6
 70
     1
102
RTVSPropertyOp7
 70
     1
102
RTVSPropertyOp8
 70
     1
102
RTVSPropertyOp9
 70
     1
102
RTVSPropertyOp10
 70
     1
102
RTVSPropertyOp11
 70
     1
102
RTVSPropertyOp12
 70
     1
102
RTVSPropertyOp13
 70
     1
102
RTVSPropertyOp14
 70
     1
102
RTVSPropertyOp15
 70
     1
102
RTVSPropertyOp16
 70
     1
102
RTVSPropertyOp17
 70
     1
102
RTVSPropertyOp18
 70
     1
102
RTVSPropertyOp19
 70
     1
102
RTVSPropertyOp20
 70
     1
102
RTVSPropertyOp21
 70
     1
102
RTVSPropertyOp22
 70
     1
102
RTVSPropertyOp23
 70
     1
102
RTVSPropertyOp24
 70
     1
102
RTVSPropertyOp25
 70
     1
102
RTVSPropertyOp26
 70
     1
102
RTVSPropertyOp27
 70
     1
102
RTVSPropertyOp28
 70
     1
102
RTVSPropertyOp29
 70
     1
102
RTVSPropertyOp30
 70
     1
102
RTVSPropertyOp31
 70
     1
102
RTVSPropertyOp32
 70
     1
  0
XRECORD
  5
3CC
102
{ACAD_REACTORS
330
3CB
102
}
330
3CB
100
AcDbXrecord
280
     1
102
RTVSPropertyOp0
 70
     1
102
RTVSPropertyOp1
 70
     1
102
RTVSPropertyOp2
 70
     1
102
RTVSPropertyOp3
 70
     1
102
RTVSPropertyOp4
 70
     1
102
RTVSPropertyOp5
 70
     1
102
RTVSPropertyOp6
 70
     1
102
RTVSPropertyOp7
 70
     1
102
RTVSPropertyOp8
 70
     1
102
RTVSPropertyOp9
 70
     1
102
RTVSPropertyOp10
 70
     1
102
RTVSPropertyOp11
 70
     1
102
RTVSPropertyOp12
 70
     1
102
RTVSPropertyOp13
 70
     1
102
RTVSPropertyOp14
 70
     1
102
RTVSPropertyOp15
 70
     1
102
RTVSPropertyOp16
 70
     1
102
RTVSPropertyOp17
 70
     1
102
RTVSPropertyOp18
 70
     1
102
RTVSPropertyOp19
 70
     1
102
RTVSPropertyOp20
 70
     1
102
RTVSPropertyOp21
 70
     1
102
RTVSPropertyOp22
 70
     1
102
RTVSPropertyOp23
 70
     1
102
RTVSPropertyOp24
 70
     1
102
RTVSPropertyOp25
 70
     1
102
RTVSPropertyOp26
 70
     1
102
RTVSPropertyOp27
 70
     1
102
RTVSPropertyOp28
 70
     1
102
RTVSPropertyOp29
 70
     1
102
RTVSPropertyOp30
 70
     1
102
RTVSPropertyOp31
 70
     1
102
RTVSPropertyOp32
 70
     1
  0
XRECORD
  5
3E6
102
{ACAD_REACTORS
330
3E5
102
}
330
3E5
100
AcDbXrecord
280
     1
102
RTVSPropertyOp0
 70
     0
102
RTVSPropertyOp1
 70
     0
102
RTVSPropertyOp2
 70
     0
102
RTVSPropertyOp3
 70
     0
102
RTVSPropertyOp4
 70
     0
102
RTVSPropertyOp5
 70
     0
102
RTVSPropertyOp6
 70
     0
102
RTVSPropertyOp7
 70
     0
102
RTVSPropertyOp8
 70
     0
102
RTVSPropertyOp9
 70
     0
102
RTVSPropertyOp10
 70
     0
102
RTVSPropertyOp11
 70
     0
102
RTVSPropertyOp12
 70
     0
102
RTVSPropertyOp13
 70
     0
102
RTVSPropertyOp14
 70
     2
102
RTVSPropertyOp15
 70
     0
102
RTVSPropertyOp16
 70
     0
102
RTVSPropertyOp17
 70
     0
102
RTVSPropertyOp18
 70
     0
102
RTVSPropertyOp19
 70
     0
102
RTVSPropertyOp20
 70
     0
102
RTVSPropertyOp21
 70
     0
102
RTVSPropertyOp22
 70
     0
102
RTVSPropertyOp23
 70
     0
102
RTVSPropertyOp24
 70
     0
102
RTVSPropertyOp25
 70
     0
102
RTVSPropertyOp26
 70
     0
102
RTVSPropertyOp27
 70
     0
102
RTVSPropertyOp28
 70
     0
102
RTVSPropertyOp29
 70
     0
102
RTVSPropertyOp30
 70
     0
102
RTVSPropertyOp31
 70
     0
102
RTVSPropertyOp32
 70
     0
  0
XRECORD
  5
3D6
102
{ACAD_REACTORS
330
3D5
102
}
330
3D5
100
AcDbXrecord
280
     1
102
RTVSPropertyOp0
 70
     1
102
RTVSPropertyOp1
 70
     1
102
RTVSPropertyOp2
 70
     1
102
RTVSPropertyOp3
 70
     1
102
RTVSPropertyOp4
 70
     1
102
RTVSPropertyOp5
 70
     1
102
RTVSPropertyOp6
 70
     1
102
RTVSPropertyOp7
 70
     1
102
RTVSPropertyOp8
 70
     1
102
RTVSPropertyOp9
 70
     1
102
RTVSPropertyOp10
 70
     1
102
RTVSPropertyOp11
 70
     1
102
RTVSPropertyOp12
 70
     1
102
RTVSPropertyOp13
 70
     1
102
RTVSPropertyOp14
 70
     1
102
RTVSPropertyOp15
 70
     1
102
RTVSPropertyOp16
 70
     1
102
RTVSPropertyOp17
 70
     1
102
RTVSPropertyOp18
 70
     1
102
RTVSPropertyOp19
 70
     1
102
RTVSPropertyOp20
 70
     1
102
RTVSPropertyOp21
 70
     1
102
RTVSPropertyOp22
 70
     1
102
RTVSPropertyOp23
 70
     1
102
RTVSPropertyOp24
 70
     1
102
RTVSPropertyOp25
 70
     1
102
RTVSPropertyOp26
 70
     1
102
RTVSPropertyOp27
 70
     1
102
RTVSPropertyOp28
 70
     1
102
RTVSPropertyOp29
 70
     1
102
RTVSPropertyOp30
 70
     1
102
RTVSPropertyOp31
 70
     1
102
RTVSPropertyOp32
 70
     1
  0
XRECORD
  5
3E8
102
{ACAD_REACTORS
330
3E7
102
}
330
3E7
100
AcDbXrecord
280
     1
102
RTVSPropertyOp0
 70
     0
102
RTVSPropertyOp1
 70
     0
102
RTVSPropertyOp2
 70
     0
102
RTVSPropertyOp3
 70
     0
102
RTVSPropertyOp4
 70
     0
102
RTVSPropertyOp5
 70
     0
102
RTVSPropertyOp6
 70
     0
102
RTVSPropertyOp7
 70
     0
102
RTVSPropertyOp8
 70
     0
102
RTVSPropertyOp9
 70
     0
102
RTVSPropertyOp10
 70
     0
102
RTVSPropertyOp11
 70
     0
102
RTVSPropertyOp12
 70
     0
102
RTVSPropertyOp13
 70
     0
102
RTVSPropertyOp14
 70
     2
102
RTVSPropertyOp15
 70
     0
102
RTVSPropertyOp16
 70
     0
102
RTVSPropertyOp17
 70
     0
102
RTVSPropertyOp18
 70
     0
102
RTVSPropertyOp19
 70
     0
102
RTVSPropertyOp20
 70
     0
102
RTVSPropertyOp21
 70
     0
102
RTVSPropertyOp22
 70
     0
102
RTVSPropertyOp23
 70
     0
102
RTVSPropertyOp24
 70
     0
102
RTVSPropertyOp25
 70
     0
102
RTVSPropertyOp26
 70
     0
102
RTVSPropertyOp27
 70
     0
102
RTVSPropertyOp28
 70
     0
102
RTVSPropertyOp29
 70
     0
102
RTVSPropertyOp30
 70
     0
102
RTVSPropertyOp31
 70
     0
102
RTVSPropertyOp32
 70
     0
  0
XRECORD
  5
3B8
102
{ACAD_REACTORS
330
3B7
102
}
330
3B7
100
AcDbXrecord
280
     1
102
RTVSPropertyOp0
 70
     1
102
RTVSPropertyOp1
 70
     1
102
RTVSPropertyOp2
 70
     1
102
RTVSPropertyOp3
 70
     1
102
RTVSPropertyOp4
 70
     1
102
RTVSPropertyOp5
 70
     1
102
RTVSPropertyOp6
 70
     1
102
RTVSPropertyOp7
 70
     1
102
RTVSPropertyOp8
 70
     1
102
RTVSPropertyOp9
 70
     1
102
RTVSPropertyOp10
 70
     1
102
RTVSPropertyOp11
 70
     1
102
RTVSPropertyOp12
 70
     1
102
RTVSPropertyOp13
 70
     1
102
RTVSPropertyOp14
 70
     1
102
RTVSPropertyOp15
 70
     1
102
RTVSPropertyOp16
 70
     1
102
RTVSPropertyOp17
 70
     1
102
RTVSPropertyOp18
 70
     1
102
RTVSPropertyOp19
 70
     1
102
RTVSPropertyOp20
 70
     1
102
RTVSPropertyOp21
 70
     1
102
RTVSPropertyOp22
 70
     1
102
RTVSPropertyOp23
 70
     1
102
RTVSPropertyOp24
 70
     1
102
RTVSPropertyOp25
 70
     1
102
RTVSPropertyOp26
 70
     1
102
RTVSPropertyOp27
 70
     1
102
RTVSPropertyOp28
 70
     1
102
RTVSPropertyOp29
 70
     1
102
RTVSPropertyOp30
 70
     1
102
RTVSPropertyOp31
 70
     1
102
RTVSPropertyOp32
 70
     1
  0
XRECORD
  5
3E4
102
{ACAD_REACTORS
330
3E3
102
}
330
3E3
100
AcDbXrecord
280
     1
102
RTVSPropertyOp0
 70
     1
102
RTVSPropertyOp1
 70
     1
102
RTVSPropertyOp2
 70
     1
102
RTVSPropertyOp3
 70
     1
102
RTVSPropertyOp4
 70
     1
102
RTVSPropertyOp5
 70
     1
102
RTVSPropertyOp6
 70
     1
102
RTVSPropertyOp7
 70
     1
102
RTVSPropertyOp8
 70
     1
102
RTVSPropertyOp9
 70
     1
102
RTVSPropertyOp10
 70
     1
102
RTVSPropertyOp11
 70
     1
102
RTVSPropertyOp12
 70
     1
102
RTVSPropertyOp13
 70
     1
102
RTVSPropertyOp14
 70
     1
102
RTVSPropertyOp15
 70
     1
102
RTVSPropertyOp16
 70
     1
102
RTVSPropertyOp17
 70
     1
102
RTVSPropertyOp18
 70
     1
102
RTVSPropertyOp19
 70
     1
102
RTVSPropertyOp20
 70
     1
102
RTVSPropertyOp21
 70
     1
102
RTVSPropertyOp22
 70
     1
102
RTVSPropertyOp23
 70
     1
102
RTVSPropertyOp24
 70
     1
102
RTVSPropertyOp25
 70
     1
102
RTVSPropertyOp26
 70
     1
102
RTVSPropertyOp27
 70
     1
102
RTVSPropertyOp28
 70
     1
102
RTVSPropertyOp29
 70
     1
102
RTVSPropertyOp30
 70
     1
102
RTVSPropertyOp31
 70
     1
102
RTVSPropertyOp32
 70
     1
  0
XRECORD
  5
3E2
102
{ACAD_REACTORS
330
3E1
102
}
330
3E1
100
AcDbXrecord
280
     1
102
RTVSPropertyOp0
 70
     1
102
RTVSPropertyOp1
 70
     1
102
RTVSPropertyOp2
 70
     1
102
RTVSPropertyOp3
 70
     1
102
RTVSPropertyOp4
 70
     1
102
RTVSPropertyOp5
 70
     1
102
RTVSPropertyOp6
 70
     1
102
RTVSPropertyOp7
 70
     1
102
RTVSPropertyOp8
 70
     1
102
RTVSPropertyOp9
 70
     1
102
RTVSPropertyOp10
 70
     1
102
RTVSPropertyOp11
 70
     1
102
RTVSPropertyOp12
 70
     1
102
RTVSPropertyOp13
 70
     1
102
RTVSPropertyOp14
 70
     1
102
RTVSPropertyOp15
 70
     1
102
RTVSPropertyOp16
 70
     1
102
RTVSPropertyOp17
 70
     1
102
RTVSPropertyOp18
 70
     1
102
RTVSPropertyOp19
 70
     1
102
RTVSPropertyOp20
 70
     1
102
RTVSPropertyOp21
 70
     1
102
RTVSPropertyOp22
 70
     1
102
RTVSPropertyOp23
 70
     1
102
RTVSPropertyOp24
 70
     1
102
RTVSPropertyOp25
 70
     1
102
RTVSPropertyOp26
 70
     1
102
RTVSPropertyOp27
 70
     1
102
RTVSPropertyOp28
 70
     1
102
RTVSPropertyOp29
 70
     1
102
RTVSPropertyOp30
 70
     1
102
RTVSPropertyOp31
 70
     1
102
RTVSPropertyOp32
 70
     1
  0
XRECORD
  5
3DC
102
{ACAD_REACTORS
330
3DB
102
}
330
3DB
100
AcDbXrecord
280
     1
102
RTVSPropertyOp0
 70
     1
102
RTVSPropertyOp1
 70
     1
102
RTVSPropertyOp2
 70
     1
102
RTVSPropertyOp3
 70
     1
102
RTVSPropertyOp4
 70
     1
102
RTVSPropertyOp5
 70
     1
102
RTVSPropertyOp6
 70
     1
102
RTVSPropertyOp7
 70
     1
102
RTVSPropertyOp8
 70
     1
102
RTVSPropertyOp9
 70
     1
102
RTVSPropertyOp10
 70
     1
102
RTVSPropertyOp11
 70
     1
102
RTVSPropertyOp12
 70
     1
102
RTVSPropertyOp13
 70
     1
102
RTVSPropertyOp14
 70
     1
102
RTVSPropertyOp15
 70
     1
102
RTVSPropertyOp16
 70
     1
102
RTVSPropertyOp17
 70
     1
102
RTVSPropertyOp18
 70
     1
102
RTVSPropertyOp19
 70
     1
102
RTVSPropertyOp20
 70
     1
102
RTVSPropertyOp21
 70
     1
102
RTVSPropertyOp22
 70
     1
102
RTVSPropertyOp23
 70
     1
102
RTVSPropertyOp24
 70
     1
102
RTVSPropertyOp25
 70
     1
102
RTVSPropertyOp26
 70
     1
102
RTVSPropertyOp27
 70
     1
102
RTVSPropertyOp28
 70
     1
102
RTVSPropertyOp29
 70
     1
102
RTVSPropertyOp30
 70
     1
102
RTVSPropertyOp31
 70
     1
102
RTVSPropertyOp32
 70
     1
  0
XRECORD
  5
3DE
102
{ACAD_REACTORS
330
3DD
102
}
330
3DD
100
AcDbXrecord
280
     1
102
RTVSPropertyOp0
 70
     1
102
RTVSPropertyOp1
 70
     1
102
RTVSPropertyOp2
 70
     1
102
RTVSPropertyOp3
 70
     1
102
RTVSPropertyOp4
 70
     1
102
RTVSPropertyOp5
 70
     1
102
RTVSPropertyOp6
 70
     1
102
RTVSPropertyOp7
 70
     1
102
RTVSPropertyOp8
 70
     1
102
RTVSPropertyOp9
 70
     1
102
RTVSPropertyOp10
 70
     1
102
RTVSPropertyOp11
 70
     1
102
RTVSPropertyOp12
 70
     1
102
RTVSPropertyOp13
 70
     1
102
RTVSPropertyOp14
 70
     1
102
RTVSPropertyOp15
 70
     1
102
RTVSPropertyOp16
 70
     1
102
RTVSPropertyOp17
 70
     1
102
RTVSPropertyOp18
 70
     1
102
RTVSPropertyOp19
 70
     1
102
RTVSPropertyOp20
 70
     1
102
RTVSPropertyOp21
 70
     1
102
RTVSPropertyOp22
 70
     1
102
RTVSPropertyOp23
 70
     1
102
RTVSPropertyOp24
 70
     1
102
RTVSPropertyOp25
 70
     1
102
RTVSPropertyOp26
 70
     1
102
RTVSPropertyOp27
 70
     1
102
RTVSPropertyOp28
 70
     1
102
RTVSPropertyOp29
 70
     1
102
RTVSPropertyOp30
 70
     1
102
RTVSPropertyOp31
 70
     1
102
RTVSPropertyOp32
 70
     1
  0
XRECORD
  5
3D4
102
{ACAD_REACTORS
330
3D3
102
}
330
3D3
100
AcDbXrecord
280
     1
102
RTVSPropertyOp0
 70
     1
102
RTVSPropertyOp1
 70
     1
102
RTVSPropertyOp2
 70
     1
102
RTVSPropertyOp3
 70
     1
102
RTVSPropertyOp4
 70
     1
102
RTVSPropertyOp5
 70
     1
102
RTVSPropertyOp6
 70
     1
102
RTVSPropertyOp7
 70
     1
102
RTVSPropertyOp8
 70
     1
102
RTVSPropertyOp9
 70
     1
102
RTVSPropertyOp10
 70
     1
102
RTVSPropertyOp11
 70
     1
102
RTVSPropertyOp12
 70
     1
102
RTVSPropertyOp13
 70
     1
102
RTVSPropertyOp14
 70
     1
102
RTVSPropertyOp15
 70
     1
102
RTVSPropertyOp16
 70
     1
102
RTVSPropertyOp17
 70
     1
102
RTVSPropertyOp18
 70
     1
102
RTVSPropertyOp19
 70
     1
102
RTVSPropertyOp20
 70
     1
102
RTVSPropertyOp21
 70
     1
102
RTVSPropertyOp22
 70
     1
102
RTVSPropertyOp23
 70
     1
102
RTVSPropertyOp24
 70
     1
102
RTVSPropertyOp25
 70
     1
102
RTVSPropertyOp26
 70
     1
102
RTVSPropertyOp27
 70
     1
102
RTVSPropertyOp28
 70
     1
102
RTVSPropertyOp29
 70
     1
102
RTVSPropertyOp30
 70
     1
102
RTVSPropertyOp31
 70
     1
102
RTVSPropertyOp32
 70
     1
  0
XRECORD
  5
3BA
102
{ACAD_REACTORS
330
3B9
102
}
330
3B9
100
AcDbXrecord
280
     1
102
RTVSPropertyOp0
 70
     1
102
RTVSPropertyOp1
 70
     1
102
RTVSPropertyOp2
 70
     1
102
RTVSPropertyOp3
 70
     1
102
RTVSPropertyOp4
 70
     1
102
RTVSPropertyOp5
 70
     1
102
RTVSPropertyOp6
 70
     1
102
RTVSPropertyOp7
 70
     1
102
RTVSPropertyOp8
 70
     1
102
RTVSPropertyOp9
 70
     1
102
RTVSPropertyOp10
 70
     1
102
RTVSPropertyOp11
 70
     1
102
RTVSPropertyOp12
 70
     1
102
RTVSPropertyOp13
 70
     1
102
RTVSPropertyOp14
 70
     1
102
RTVSPropertyOp15
 70
     1
102
RTVSPropertyOp16
 70
     1
102
RTVSPropertyOp17
 70
     1
102
RTVSPropertyOp18
 70
     1
102
RTVSPropertyOp19
 70
     1
102
RTVSPropertyOp20
 70
     1
102
RTVSPropertyOp21
 70
     1
102
RTVSPropertyOp22
 70
     1
102
RTVSPropertyOp23
 70
     1
102
RTVSPropertyOp24
 70
     1
102
RTVSPropertyOp25
 70
     1
102
RTVSPropertyOp26
 70
     1
102
RTVSPropertyOp27
 70
     1
102
RTVSPropertyOp28
 70
     1
102
RTVSPropertyOp29
 70
     1
102
RTVSPropertyOp30
 70
     1
102
RTVSPropertyOp31
 70
     1
102
RTVSPropertyOp32
 70
     1
  0
XRECORD
  5
3E0
102
{ACAD_REACTORS
330
3DF
102
}
330
3DF
100
AcDbXrecord
280
     1
102
RTVSPropertyOp0
 70
     1
102
RTVSPropertyOp1
 70
     1
102
RTVSPropertyOp2
 70
     1
102
RTVSPropertyOp3
 70
     1
102
RTVSPropertyOp4
 70
     1
102
RTVSPropertyOp5
 70
     1
102
RTVSPropertyOp6
 70
     1
102
RTVSPropertyOp7
 70
     1
102
RTVSPropertyOp8
 70
     1
102
RTVSPropertyOp9
 70
     1
102
RTVSPropertyOp10
 70
     1
102
RTVSPropertyOp11
 70
     1
102
RTVSPropertyOp12
 70
     1
102
RTVSPropertyOp13
 70
     1
102
RTVSPropertyOp14
 70
     1
102
RTVSPropertyOp15
 70
     1
102
RTVSPropertyOp16
 70
     1
102
RTVSPropertyOp17
 70
     1
102
RTVSPropertyOp18
 70
     1
102
RTVSPropertyOp19
 70
     1
102
RTVSPropertyOp20
 70
     1
102
RTVSPropertyOp21
 70
     1
102
RTVSPropertyOp22
 70
     1
102
RTVSPropertyOp23
 70
     1
102
RTVSPropertyOp24
 70
     1
102
RTVSPropertyOp25
 70
     1
102
RTVSPropertyOp26
 70
     1
102
RTVSPropertyOp27
 70
     1
102
RTVSPropertyOp28
 70
     1
102
RTVSPropertyOp29
 70
     1
102
RTVSPropertyOp30
 70
     1
102
RTVSPropertyOp31
 70
     1
102
RTVSPropertyOp32
 70
     1
  0
ENDSEC
  0
EOF
