  0
SECTION
  2
HEADER
  9
$ACADVER
  1
AC1015
  9
$ACADMAINTVER
 70
    18
  9
$DWGCODEPAGE
  3
ANSI_1252
  9
$INSBASE
 10
0.0
 20
0.0
 30
0.0
  9
$EXTMIN
 10
-48.02372470454293
 20
-65.92127802586356
 30
-0.0015258207003583
  9
$EXTMAX
 10
48.04187155729369
 20
10.88208106984598
 30
0.0000000349246037
  9
$LIMMIN
 10
0.0
 20
0.0
  9
$LIMMAX
 10
1189.0
 20
840.9999999999998
  9
$ORTHOMODE
 70
     0
  9
$REGENMODE
 70
     1
  9
$FILLMODE
 70
     1
  9
$QTEXTMODE
 70
     0
  9
$MIRRTEXT
 70
     0
  9
$LTSCALE
 40
1.0
  9
$ATTMODE
 70
     1
  9
$TEXTSIZE
 40
0.2
  9
$TRACEWID
 40
0.05
  9
$TEXTSTYLE
  7
STANDARD
  9
$CLAYER
  8
0
  9
$CELTYPE
  6
ByLayer
  9
$CECOLOR
 62
   256
  9
$CELTSCALE
 40
1.0
  9
$DISPSILH
 70
     0
  9
$DIMSCALE
 40
1.0
  9
$DIMASZ
 40
180.0
  9
$DIMEXO
 40
0.0625
  9
$DIMDLI
 40
0.38
  9
$DIMRND
 40
0.0
  9
$DIMDLE
 40
0.0
  9
$DIMEXE
 40
0.18
  9
$DIMTP
 40
0.0
  9
$DIMTM
 40
0.0
  9
$DIMTXT
 40
34.99999940395355
  9
$DIMCEN
 40
0.09
  9
$DIMTSZ
 40
0.0
  9
$DIMTOL
 70
     0
  9
$DIMLIM
 70
     0
  9
$DIMTIH
 70
     1
  9
$DIMTOH
 70
     1
  9
$DIMSE1
 70
     0
  9
$DIMSE2
 70
     0
  9
$DIMTAD
 70
     0
  9
$DIMZIN
 70
     0
  9
$DIMBLK
  1

  9
$DIMASO
 70
     1
  9
$DIMSHO
 70
     1
  9
$DIMPOST
  1

  9
$DIMAPOST
  1

  9
$DIMALT
 70
     0
  9
$DIMALTD
 70
     2
  9
$DIMALTF
 40
25.4
  9
$DIMLFAC
 40
1.0
  9
$DIMTOFL
 70
     0
  9
$DIMTVP
 40
0.0
  9
$DIMTIX
 70
     0
  9
$DIMSOXD
 70
     0
  9
$DIMSAH
 70
     0
  9
$DIMBLK1
  1

  9
$DIMBLK2
  1

  9
$DIMSTYLE
  2
STANDARD
  9
$DIMCLRD
 70
     0
  9
$DIMCLRE
 70
     0
  9
$DIMCLRT
 70
     0
  9
$DIMTFAC
 40
1.0
  9
$DIMGAP
 40
0.09
  9
$DIMJUST
 70
     0
  9
$DIMSD1
 70
     0
  9
$DIMSD2
 70
     0
  9
$DIMTOLJ
 70
     1
  9
$DIMTZIN
 70
     0
  9
$DIMALTZ
 70
     0
  9
$DIMALTTZ
 70
     0
  9
$DIMUPT
 70
     0
  9
$DIMDEC
 70
     4
  9
$DIMTDEC
 70
     4
  9
$DIMALTU
 70
     2
  9
$DIMALTTD
 70
     2
  9
$DIMTXSTY
  7
STANDARD
  9
$DIMAUNIT
 70
     0
  9
$DIMADEC
 70
     0
  9
$DIMALTRND
 40
0.0
  9
$DIMAZIN
 70
     0
  9
$DIMDSEP
 70
    46
  9
$DIMATFIT
 70
     3
  9
$DIMFRAC
 70
     0
  9
$DIMLDRBLK
  1

  9
$DIMLUNIT
 70
     2
  9
$DIMLWD
 70
    -2
  9
$DIMLWE
 70
    -2
  9
$DIMTMOVE
 70
     0
  9
$LUNITS
 70
     2
  9
$LUPREC
 70
     4
  9
$SKETCHINC
 40
0.1
  9
$FILLETRAD
 40
0.0
  9
$AUNITS
 70
     0
  9
$AUPREC
 70
     0
  9
$MENU
  1
.
  9
$ELEVATION
 40
0.0
  9
$PELEVATION
 40
0.0
  9
$THICKNESS
 40
0.0
  9
$LIMCHECK
 70
     0
  9
$CHAMFERA
 40
0.0
  9
$CHAMFERB
 40
0.0
  9
$CHAMFERC
 40
0.0
  9
$CHAMFERD
 40
0.0
  9
$SKPOLY
 70
     0
  9
$TDCREATE
 40
2454871.539305995
  9
$TDUCREATE
 40
2454871.455972662
  9
$TDUPDATE
 40
2455726.863881528
  9
$TDUUPDATE
 40
2455726.780548194
  9
$TDINDWG
 40
0.0125218287
  9
$TDUSRTIMER
 40
0.0125218287
  9
$USRTIMER
 70
     1
  9
$ANGBASE
 50
0.0
  9
$ANGDIR
 70
     0
  9
$PDMODE
 70
     0
  9
$PDSIZE
 40
0.0
  9
$PLINEWID
 40
0.0
  9
$SPLFRAME
 70
     0
  9
$SPLINETYPE
 70
     6
  9
$SPLINESEGS
 70
     8
  9
$HANDSEED
  5
3FF
  9
$SURFTAB1
 70
     6
  9
$SURFTAB2
 70
     6
  9
$SURFTYPE
 70
     6
  9
$SURFU
 70
     6
  9
$SURFV
 70
     6
  9
$UCSBASE
  2

  9
$UCSNAME
  2

  9
$UCSORG
 10
0.0
 20
0.0
 30
0.0
  9
$UCSXDIR
 10
1.0
 20
0.0
 30
0.0
  9
$UCSYDIR
 10
0.0
 20
1.0
 30
0.0
  9
$UCSORTHOREF
  2

  9
$UCSORTHOVIEW
 70
     0
  9
$UCSORGTOP
 10
0.0
 20
0.0
 30
0.0
  9
$UCSORGBOTTOM
 10
0.0
 20
0.0
 30
0.0
  9
$UCSORGLEFT
 10
0.0
 20
0.0
 30
0.0
  9
$UCSORGRIGHT
 10
0.0
 20
0.0
 30
0.0
  9
$UCSORGFRONT
 10
0.0
 20
0.0
 30
0.0
  9
$UCSORGBACK
 10
0.0
 20
0.0
 30
0.0
  9
$PUCSBASE
  2

  9
$PUCSNAME
  2

  9
$PUCSORG
 10
0.0
 20
0.0
 30
0.0
  9
$PUCSXDIR
 10
1.0
 20
0.0
 30
0.0
  9
$PUCSYDIR
 10
0.0
 20
1.0
 30
0.0
  9
$PUCSORTHOREF
  2

  9
$PUCSORTHOVIEW
 70
     0
  9
$PUCSORGTOP
 10
0.0
 20
0.0
 30
0.0
  9
$PUCSORGBOTTOM
 10
0.0
 20
0.0
 30
0.0
  9
$PUCSORGLEFT
 10
0.0
 20
0.0
 30
0.0
  9
$PUCSORGRIGHT
 10
0.0
 20
0.0
 30
0.0
  9
$PUCSORGFRONT
 10
0.0
 20
0.0
 30
0.0
  9
$PUCSORGBACK
 10
0.0
 20
0.0
 30
0.0
  9
$USERI1
 70
     0
  9
$USERI2
 70
     0
  9
$USERI3
 70
     0
  9
$USERI4
 70
     0
  9
$USERI5
 70
     0
  9
$USERR1
 40
0.0
  9
$USERR2
 40
0.0
  9
$USERR3
 40
0.0
  9
$USERR4
 40
0.0
  9
$USERR5
 40
0.0
  9
$WORLDVIEW
 70
     1
  9
$SHADEDGE
 70
     3
  9
$SHADEDIF
 70
    70
  9
$TILEMODE
 70
     1
  9
$MAXACTVP
 70
    64
  9
$PINSBASE
 10
0.0
 20
0.0
 30
0.0
  9
$PLIMCHECK
 70
     0
  9
$PEXTMIN
 10
0.0
 20
0.0
 30
0.0
  9
$PEXTMAX
 10
1189.0
 20
840.9999999999998
 30
0.0
  9
$PLIMMIN
 10
0.0
 20
0.0
  9
$PLIMMAX
 10
1189.0
 20
840.9999999999998
  9
$UNITMODE
 70
     0
  9
$VISRETAIN
 70
     1
  9
$PLINEGEN
 70
     0
  9
$PSLTSCALE
 70
     1
  9
$TREEDEPTH
 70
  3020
  9
$CMLSTYLE
  2
Standard
  9
$CMLJUST
 70
     0
  9
$CMLSCALE
 40
1.0
  9
$PROXYGRAPHICS
 70
     1
  9
$MEASUREMENT
 70
     1
  9
$CELWEIGHT
370
    -1
  9
$ENDCAPS
280
     0
  9
$JOINSTYLE
280
     0
  9
$LWDISPLAY
290
     0
  9
$INSUNITS
 70
     4
  9
$HYPERLINKBASE
  1

  9
$STYLESHEET
  1

  9
$XEDIT
290
     1
  9
$CEPSNTYPE
380
     0
  9
$PSTYLEMODE
290
     1
  9
$FINGERPRINTGUID
  2
{CCE40AF3-FF79-473F-A7C9-9ECD0CD15F0E}
  9
$VERSIONGUID
  2
{1FA72024-557A-44B0-9CB0-194FB2278F20}
  9
$EXTNAMES
290
     1
  9
$PSVPSCALE
 40
0.0
  9
$OLESTARTUP
290
     0
  0
ENDSEC
  0
SECTION
  2
CLASSES
  0
CLASS
  1
ACDBDICTIONARYWDFLT
  2
AcDbDictionaryWithDefault
  3
ObjectDBX Classes
 90
        0
280
     0
281
     0
  0
CLASS
  1
MATERIAL
  2
AcDbMaterial
  3
ObjectDBX Classes
 90
     1153
280
     0
281
     0
  0
CLASS
  1
VISUALSTYLE
  2
AcDbVisualStyle
  3
ObjectDBX Classes
 90
     4095
280
     0
281
     0
  0
CLASS
  1
SCALE
  2
AcDbScale
  3
ObjectDBX Classes
 90
     1153
280
     0
281
     0
  0
CLASS
  1
TABLESTYLE
  2
AcDbTableStyle
  3
ObjectDBX Classes
 90
     4095
280
     0
281
     0
  0
CLASS
  1
MLEADERSTYLE
  2
AcDbMLeaderStyle
  3
ACDB_MLEADERSTYLE_CLASS
 90
     4095
280
     0
281
     0
  0
CLASS
  1
SORTENTSTABLE
  2
AcDbSortentsTable
  3
ObjectDBX Classes
 90
        0
280
     0
281
     0
  0
CLASS
  1
CELLSTYLEMAP
  2
AcDbCellStyleMap
  3
ObjectDBX Classes
 90
     1152
280
     0
281
     0
  0
CLASS
  1
DICTIONARYVAR
  2
AcDbDictionaryVar
  3
ObjectDBX Classes
 90
        0
280
     0
281
     0
  0
CLASS
  1
ACME_DOCUMENT
  2
AcMeDbDoc
  3
AcMeServices
 90
     1024
280
     0
281
     0
  0
CLASS
  1
AMGSETTINGSOBJ
  2
AmgSettingsObj
  3
"AcadM|Product Description: AutoCAD Mechanical|Company: Autodesk, Inc."
 90
     1024
280
     0
281
     0
  0
CLASS
  1
ACMESCOPE
  2
AcMeScope
  3
AcMeServices
 90
     1024
280
     0
281
     0
  0
CLASS
  1
ACMECOMMANDHISTORY
  2
AcMeCommandHistory
  3
AcMeServices
 90
     1024
280
     0
281
     0
  0
CLASS
  1
ACIMSYSVARMAN
  2
AcImSysVarManager
  3
AcMeServices
 90
     1024
280
     0
281
     0
  0
CLASS
  1
ACIMINTSYSVAR
  2
AcImIntSysVar
  3
AcMeServices
 90
     1024
280
     0
281
     0
  0
CLASS
  1
ACMEDRAWINGMAN
  2
AcMeDrawingMan
  3
AcMeServices
 90
    33792
280
     0
281
     0
  0
CLASS
  1
ACMEVIEW
  2
AcMeView
  3
AcMeServices
 90
    33792
280
     0
281
     0
  0
CLASS
  1
ACDBENTITYCACHE
  2
AcMeEntityCache
  3
AcMeServices
 90
     1024
280
     0
281
     0
  0
CLASS
  1
GSMANAGER
  2
AcMeGSManager
  3
AcMeServices
 90
    33792
280
     1
281
     0
  0
CLASS
  1
AMDTINTERNALREACTOR
  2
AmdtInternalReactor
  3
AcMeServices
 90
     1024
280
     0
281
     0
  0
CLASS
  1
ACMESTATEMGR
  2
AcMeStateMgr
  3
AcMeServices
 90
     1024
280
     0
281
     0
  0
CLASS
  1
ACGREFMASTER
  2
AcGrefMaster
  3
AcAttribServices
 90
     1024
280
     0
281
     0
  0
CLASS
  1
AM_DRAWING_MGR
  2
AcDmDwgMgr
  3
AcMechDwgViewMgmt
 90
     1024
280
     0
281
     0
  0
CLASS
  1
AM_DWG_DOCUMENT
  2
AcDmDwgDocument
  3
AcMechDwgViewMgmt
 90
     1024
280
     0
281
     0
  0
CLASS
  1
AM_DWG_SHEET
  2
AcDmSheet
  3
AcMechDwgViewMgmt
 90
     1024
280
     0
281
     0
  0
CLASS
  1
AM_VIEWDIMPARMAP
  2
AcDmViewDimParMap
  3
AcMechDwgViewMgmt
 90
     1024
280
     0
281
     0
  0
CLASS
  1
ACIMREALSYSVAR
  2
AcImRealSysVar
  3
AcMeServices
 90
     1024
280
     0
281
     0
  0
CLASS
  1
AM_DWGMGR_NAME
  2
AcDmDwgMgrName
  3
AcMechDwgViewMgmt
 90
     1024
280
     0
281
     0
  0
CLASS
  1
ACME_DATABASE
  2
AcMeDbDatabase
  3
AcMeServices
 90
     1024
280
     0
281
     0
  0
CLASS
  1
ACRFINSADJUSTERMGR
  2
AcRfInsAdjusterMgr
  3
AcMeServices
 90
     1024
280
     0
281
     0
  0
CLASS
  1
ACGREFACADMASTER
  2
AcGrefacadMaster
  3
AcGrefServices
 90
     1024
280
     0
281
     0
  0
CLASS
  1
AMDTMENUSTATEMGR
  2
AmdtMenuStateMgr
  3
McadcomServices
 90
     1024
280
     0
281
     0
  0
CLASS
  1
AMDTMCOMMENUSTATE
  2
AmdtMcomMenuState
  3
McadcomServices
 90
     1024
280
     0
281
     0
  0
CLASS
  1
AMIMASTER
  2
AmiMaster
  3
AmiServices
 90
     1024
280
     0
281
     0
  0
CLASS
  1
MAPIAMMOUDLE
  2
MApiAmModule
  3
MApiAmServices
 90
     1024
280
     0
281
     0
  0
CLASS
  1
ACIMSTRSYSVAR
  2
AcImStrSysVar
  3
AcMeServices
 90
     1024
280
     0
281
     0
  0
CLASS
  1
AMDTADMENUSTATE
  2
AmdtAdMenuState
  3
DesignerServices
 90
    33792
280
     1
281
     0
  0
CLASS
  1
ADAPPL
  2
AcAdAppl
  3
DesignerAssemblies
 90
    33792
280
     0
281
     0
  0
CLASS
  1
DEPMGR
  2
AcAdDepMgr
  3
DesignerAssemblies
 90
    33792
280
     0
281
     0
  0
CLASS
  1
PARAMMGR
  2
AcAdParamMgr
  3
DesignerAssemblies
 90
    33792
280
     0
281
     0
  0
CLASS
  1
PARAMSCOPE
  2
AcAdParamScope
  3
DesignerAssemblies
 90
    33792
280
     0
281
     0
  0
CLASS
  1
NAMEDAPPL
  2
AcAdNamedAppl
  3
DesignerAssemblies
 90
    33792
280
     0
281
     0
  0
CLASS
  1
AMDTDMMENUSTATE
  2
AmdtDmMenuState
  3
AcMechDwgViewMgmt
 90
     1024
280
     0
281
     0
  0
CLASS
  1
AMDTAMMENUSTATE
  2
AmdtAmMenuState
  3
DesignerAssemblies
 90
     1024
280
     0
281
     0
  0
CLASS
  1
ACAMPROJECT
  2
AcAmProject
  3
DesignerAssemblies
 90
     1024
280
     0
281
     0
  0
CLASS
  1
ACAMGRCOMPDEF
  2
AcAmGrCompDef
  3
DesignerAssemblies
 90
     1024
280
     0
281
     0
  0
CLASS
  1
ACCMCONTEXT
  2
AcCmContext
  3
DesignerAssemblies
 90
    33792
280
     0
281
     0
  0
CLASS
  1
ACAMCOMPDEF
  2
AcAmCompDef
  3
DesignerAssemblies
 90
     1024
280
     0
281
     0
  0
CLASS
  1
ACAMCOMPDEFMGR
  2
AcAmCompDefMgr
  3
DesignerAssemblies
 90
     1024
280
     0
281
     0
  0
CLASS
  1
AMCONTEXTMGR
  2
AcAmContextMgr
  3
DesignerAssemblies
 90
     1024
280
     0
281
     0
  0
CLASS
  1
ACAMCONTEXTMODELER
  2
AcAmContextModeler
  3
DesignerAssemblies
 90
     1024
280
     0
281
     0
  0
CLASS
  1
ACMDATADICTIONARY
  2
AcmDataDictionary
  3
"AcmSymBB|Product Description: AutoCAD Mechanical|Company: Autodesk, Inc."
 90
     1024
280
     0
281
     0
  0
CLASS
  1
CATALOGSTATE
  2
AcAmCatalogState
  3
DesignerAssemblies
 90
    33792
280
     0
281
     0
  0
CLASS
  1
ACAMGRCOMPDEFSET
  2
AcAmGrCompDefSet
  3
DesignerAssemblies
 90
     1024
280
     0
281
     0
  0
CLASS
  1
AMDTBROWSERDBTAB
  2
AmdtBrowserDbTab
  3
McadcomServices
 90
     1024
280
     0
281
     0
  0
CLASS
  1
CBROWSERAPPOBJECT
  2
CBrowserAppObject
  3
McadcomServices
 90
     1024
280
     0
281
     0
  0
CLASS
  1
DM_PLACEHOLDER
  2
AcDmSelsetPlaceholder
  3
AcMechDwgViewMgmt
 90
     1024
280
     0
281
     0
  0
CLASS
  1
EXACXREFPANELOBJECT
  2
ExAcXREFPanelObject
  3
EXAC_ESW
 90
     1025
280
     0
281
     0
  0
CLASS
  1
NPOCOLLECTION
  2
AcDbImpNonPersistentObjectsCollection
  3
ObjectDBX Classes
 90
     1153
280
     0
281
     0
  0
CLASS
  1
ACMSTANDARDANSI
  2
AcmStandardANSI
  3
"Amdt_StdImp|Product Description: AutoCAD Mechanical|Company: Autodesk, Inc."
 90
     1024
280
     0
281
     0
  0
CLASS
  1
ACMSURFSTANDARDANSI
  2
AcmSurfTextStdANSI
  3
"Amdt_StdImp|Product Description: AutoCAD Mechanical|Company: Autodesk, Inc."
 90
     1024
280
     0
281
     0
  0
CLASS
  1
ACMFCFSTANDARDANSI
  2
AcmFCFStdANSI
  3
"Amdt_StdImp|Product Description: AutoCAD Mechanical|Company: Autodesk, Inc."
 90
     1024
280
     0
281
     0
  0
CLASS
  1
ACMWELDSTANDARDANSI
  2
AcmWeldingStdANSI
  3
"Amdt_StdImp|Product Description: AutoCAD Mechanical|Company: Autodesk, Inc."
 90
     1024
280
     0
281
     0
  0
CLASS
  1
ACMIDSTANDARDANSI
  2
AcmIdStdANSI
  3
"Amdt_StdImp|Product Description: AutoCAD Mechanical|Company: Autodesk, Inc."
 90
     1024
280
     0
281
     0
  0
CLASS
  1
ACMDATUMSTANDARDANSI
  2
AcmDatumStdANSI
  3
"Amdt_StdImp|Product Description: AutoCAD Mechanical|Company: Autodesk, Inc."
 90
     1024
280
     0
281
     0
  0
CLASS
  1
ACMBOMSTANDARDANSI
  2
AcmBOMStdANSI
  3
"Amdt_StdImp|Product Description: AutoCAD Mechanical|Company: Autodesk, Inc."
 90
     1024
280
     0
281
     0
  0
CLASS
  1
ACMDETAILSTANDARDANSI
  2
AmdtDetailSymStdANSI
  3
"Amdt_StdImp|Product Description: AutoCAD Mechanical|Company: Autodesk, Inc."
 90
     1024
280
     0
281
     0
  0
CLASS
  1
ACMSECTIONSTANDARDANSI
  2
AmdtSectionSymStdANSI
  3
"Amdt_StdImp|Product Description: AutoCAD Mechanical|Company: Autodesk, Inc."
 90
     1024
280
     0
281
     0
  0
CLASS
  1
ACMCENTERLINESTANDARDANSI
  2
AmdtCenterLineStdANSI
  3
"Amdt_StdImp|Product Description: AutoCAD Mechanical|Company: Autodesk, Inc."
 90
     1024
280
     0
281
     0
  0
CLASS
  1
ACMTHREADLINESTANDARDANSI
  2
AmdtThreadLineStdANSI
  3
"Amdt_StdImp|Product Description: AutoCAD Mechanical|Company: Autodesk, Inc."
 90
     1024
280
     0
281
     0
  0
CLASS
  1
ACMNOTESTANDARDANSI
  2
AmdtNoteStdANSI
  3
"Amdt_StdImp|Product Description: AutoCAD Mechanical|Company: Autodesk, Inc."
 90
     1024
280
     0
281
     0
  0
CLASS
  1
ACMTAPERSTANDARDANSI
  2
AcmTaperStdANSI
  3
"Amdt_StdImp|Product Description: AutoCAD Mechanical|Company: Autodesk, Inc."
 90
     1024
280
     0
281
     0
  0
CLASS
  1
ACMANOOTATIONVIEWSTANDARDANSI
  2
AmdtAnViewStdANSI
  3
"Amdt_StdImp|Product Description: AutoCAD Mechanical|Company: Autodesk, Inc."
 90
     1024
280
     0
281
     0
  0
CLASS
  1
ACAMGLAYSTD
  2
AcAmgLayStd
  3
"AmgLay|Product Description: AutoCAD Mechanical|Company: Autodesk, Inc."
 90
     1024
280
     0
281
     0
  0
CLASS
  1
ACAMGDIMSTD
  2
AcAmgDimStd
  3
"AmgDim|Product Description: AutoCAD Mechanical|Company: Autodesk, Inc."
 90
     1024
280
     0
281
     0
  0
CLASS
  1
AMGOBJPROPCFG
  2
AmgObjPropCfg
  3
"AmgLay|Product Description: AutoCAD Mechanical|Company: Autodesk, Inc."
 90
     1025
280
     0
281
     0
  0
CLASS
  1
ACAMGHOLECHARTSTDANSI
  2
AcAmgHoleChartStdANSI
  3
AmgDim|Product Description: AutoCAD Mechanical|Company: Autodesk, Inc.
 90
     1024
280
     0
281
     0
  0
CLASS
  1
ACAMGTITLESTD
  2
AcAmgTitleStd
  3
"AmgTitle|Product Description: AutoCAD Mechanical|Company: Autodesk, Inc."
 90
     4095
280
     0
281
     0
  0
CLASS
  1
AMDTNOTETEMPLATEDB
  2
AmdtNoteTemplateDB
  3
AcmSymBB|Product Description: AutoCAD Mechanical|Company: Autodesk, Inc.
 90
     1024
280
     0
281
     0
  0
CLASS
  1
ACAMGFILTERDAT
  2
AcAmgFilterDat
  3
"AcadM|Product Description: AutoCAD Mechanical|Company: Autodesk, Inc."
 90
    33792
280
     0
281
     0
  0
CLASS
  1
CAMSSTRUCTBTNSTATE
  2
StructBtnState
  3
DesignerAssemblies
 90
    33792
280
     0
281
     0
  0
CLASS
  1
ACDBPLACEHOLDER
  2
AcDbPlaceHolder
  3
ObjectDBX Classes
 90
        0
280
     0
281
     0
  0
CLASS
  1
LAYOUT
  2
AcDbLayout
  3
ObjectDBX Classes
 90
        0
280
     0
281
     0
  0
CLASS
  1
SOLID_BACKGROUND
  2
AcDbSolidBackground
  3
SCENEOE
 90
    36863
280
     0
281
     0
  0
ENDSEC
  0
SECTION
  2
TABLES
  0
TABLE
  2
VPORT
  5
28
102
{ACAD_XDICTIONARY
360
2C
102
}
330
0
100
AcDbSymbolTable
 70
     1
  0
VPORT
  5
29
330
28
100
AcDbSymbolTableRecord
100
AcDbViewportTableRecord
  2
*ACTIVE
 70
     0
 10
0.0
 20
0.0
 11
1.0
 21
1.0
 12
0.0090734263753767
 22
-27.51959847800879
 13
0.0
 23
0.0
 14
1.0
 24
1.0
 15
0.0
 25
0.0
 16
0.0
 26
0.0
 36
1.0
 17
0.0
 27
0.0
 37
0.0
 40
85.9901554501283
 41
2.068965517241379
 42
50.0
 43
0.0
 44
0.0
 50
0.0
 51
0.0
 71
     0
 72
   100
 73
     1
 74
     1
 75
     0
 76
     0
 77
     0
 78
     0
281
     0
 65
     1
110
0.0
120
0.0
130
0.0
111
1.0
121
0.0
131
0.0
112
0.0
122
1.0
132
0.0
 79
     0
146
0.0
  0
ENDTAB
  0
TABLE
  2
LTYPE
  5
23
330
0
100
AcDbSymbolTable
 70
    11
  0
LTYPE
  5
24
330
23
100
AcDbSymbolTableRecord
100
AcDbLinetypeTableRecord
  2
ByBlock
 70
     0
  3

 72
    65
 73
     0
 40
0.0
  0
LTYPE
  5
25
330
23
100
AcDbSymbolTableRecord
100
AcDbLinetypeTableRecord
  2
ByLayer
 70
     0
  3

 72
    65
 73
     0
 40
0.0
  0
LTYPE
  5
1B
330
23
100
AcDbSymbolTableRecord
100
AcDbLinetypeTableRecord
  2
CONTINUOUS
 70
     0
  3
Solid line
 72
    65
 73
     0
 40
0.0
  0
LTYPE
  5
309
330
23
100
AcDbSymbolTableRecord
100
AcDbLinetypeTableRecord
  2
HIDDEN
 70
     0
  3
Verdeckt
 72
    65
 73
     2
 40
0.375
 49
0.25
 74
     0
 49
-0.125
 74
     0
  0
LTYPE
  5
30B
330
23
100
AcDbSymbolTableRecord
100
AcDbLinetypeTableRecord
  2
PHANTOM2
 70
     0
  3
Phantom (.5x) ___ _ _ ___ _ _ ___ _ _ ___ _ _
 72
    65
 73
     6
 40
1.25
 49
0.625
 74
     0
 49
-0.125
 74
     0
 49
0.125
 74
     0
 49
-0.125
 74
     0
 49
0.125
 74
     0
 49
-0.125
 74
     0
  0
LTYPE
  5
30A
330
23
100
AcDbSymbolTableRecord
100
AcDbLinetypeTableRecord
  2
CENTER
 70
     0
  3
Mitte ____ _ ____ _ ____ _ ____ _ ____ _ ____
 72
    65
 73
     4
 40
2.0
 49
1.25
 74
     0
 49
-0.25
 74
     0
 49
0.25
 74
     0
 49
-0.25
 74
     0
  0
LTYPE
  5
30C
330
23
100
AcDbSymbolTableRecord
100
AcDbLinetypeTableRecord
  2
Amconstr
 70
     0
  3
_______________________
 72
    65
 73
     2
 40
9999.0
 49
9999.0
 74
     0
 49
0.0
 74
     0
  0
LTYPE
  5
30D
330
23
100
AcDbSymbolTableRecord
100
AcDbLinetypeTableRecord
  2
CENTER2
 70
     0
  3
Center (.5x) ___ _ ___ _ ___ _ ___ _ ___ _ ___
 72
    65
 73
     4
 40
1.125
 49
0.75
 74
     0
 49
-0.125
 74
     0
 49
0.125
 74
     0
 49
-0.125
 74
     0
  0
LTYPE
  5
30E
330
23
100
AcDbSymbolTableRecord
100
AcDbLinetypeTableRecord
  2
HIDDEN2
 70
     0
  3
Hidden (.5x) _ _ _ _ _ _ _ _ _ _ _ _ _ _ _ _ _
 72
    65
 73
     2
 40
0.1875
 49
0.125
 74
     0
 49
-0.0625
 74
     0
  0
LTYPE
  5
30F
330
23
100
AcDbSymbolTableRecord
100
AcDbLinetypeTableRecord
  2
Amzigzag2
 70
     0
  3
/\/-/\/-/\/-/\/-/\/-/\/
 72
    65
 73
     2
 40
0.4401
 49
0.0001
 74
     4
 75
   136
340
310
 46
0.0016
 50
0.0
 44
0.0
 45
0.0
 49
-0.4400000000000001
 74
     0
  0
LTYPE
  5
320
330
23
100
AcDbSymbolTableRecord
100
AcDbLinetypeTableRecord
  2
ACANSTGB
 70
     0
  3
__ . . __ . .
 72
    65
 73
     6
 40
0.35433070866
 49
0.15748031496
 74
     0
 49
-0.03937007874
 74
     0
 49
0.03937007874
 74
     0
 49
-0.03937007874
 74
     0
 49
0.03937007874
 74
     0
 49
-0.03937007874
 74
     0
  0
LTYPE
  5
321
330
23
100
AcDbSymbolTableRecord
100
AcDbLinetypeTableRecord
  2
ACANSTGL
 70
     0
  3
_ _ _ _ _
 72
    65
 73
     2
 40
0.11811023622
 49
0.07874015748
 74
     0
 49
-0.03937007874
 74
     0
  0
LTYPE
  5
7C
330
23
100
AcDbSymbolTableRecord
100
AcDbLinetypeTableRecord
  2
DASHED
 70
     0
  3
Dashed __ __ __ __ __ __ __ __ __ __ __ __ __ _
 72
    65
 73
     2
 40
0.75
 49
0.5
 74
     0
 49
-0.25
 74
     0
  0
ENDTAB
  0
TABLE
  2
LAYER
  5
E
102
{ACAD_XDICTIONARY
360
1C
102
}
330
0
100
AcDbSymbolTable
 70
     7
  0
LAYER
  5
F
330
E
100
AcDbSymbolTableRecord
100
AcDbLayerTableRecord
  2
0
 70
     0
 62
     7
  6
CONTINUOUS
370
    -3
390
10
  0
LAYER
  5
85
330
E
100
AcDbSymbolTableRecord
100
AcDbLayerTableRecord
  2
GEB-KONTUR-A
 70
     0
 62
     5
  6
CONTINUOUS
370
    -3
390
10
  0
LAYER
  5
7B
330
E
100
AcDbSymbolTableRecord
100
AcDbLayerTableRecord
  2
GEB-VERDECKT
 70
     0
 62
     2
  6
DASHED
370
    -3
390
10
1001
AcAecLayerStandard
1000

1000

  0
LAYER
  5
76
330
E
100
AcDbSymbolTableRecord
100
AcDbLayerTableRecord
  2
Arbeitspunkt(DIN)
 70
     0
 62
     7
  6
CONTINUOUS
370
    25
390
10
  0
LAYER
  5
305
330
E
100
AcDbSymbolTableRecord
100
AcDbLayerTableRecord
  2
GEB-ART-NR
 70
     0
 62
     1
  6
CONTINUOUS
370
    18
390
10
  0
LAYER
  5
72
330
E
100
AcDbSymbolTableRecord
100
AcDbLayerTableRecord
  2
GEB-BEZUG
 70
     0
 62
     2
  6
CONTINUOUS
370
    25
390
10
  0
LAYER
  5
302
330
E
100
AcDbSymbolTableRecord
100
AcDbLayerTableRecord
  2
GEB-TEXT
 70
     0
 62
     5
  6
CONTINUOUS
370
    18
390
10
  0
ENDTAB
  0
TABLE
  2
STYLE
  5
20
330
0
100
AcDbSymbolTable
 70
     3
  0
STYLE
  5
21
330
20
100
AcDbSymbolTableRecord
100
AcDbTextStyleTableRecord
  2
STANDARD
 70
     0
 40
0.0
 41
1.0
 50
0.0
 71
     0
 42
0.2
  3
arial.ttf
  4

1001
ACAD
1000
Arial
1071
       34
  0
STYLE
  5
310
330
20
100
AcDbSymbolTableRecord
100
AcDbTextStyleTableRecord
  2

 70
     1
 40
0.0
 41
1.0
 50
0.0
 71
     0
 42
0.2
  3
genltshp.shx
  4

  0
STYLE
  5
31C
330
20
100
AcDbSymbolTableRecord
100
AcDbTextStyleTableRecord
  2
ACANSGDT
 70
     0
 40
0.0
 41
1.0
 50
0.0
 71
     0
 42
0.2
  3
amgdt.shx
  4

  0
ENDTAB
  0
TABLE
  2
VIEW
  5
26
330
0
100
AcDbSymbolTable
 70
     0
  0
ENDTAB
  0
TABLE
  2
UCS
  5
27
330
0
100
AcDbSymbolTable
 70
     0
  0
ENDTAB
  0
TABLE
  2
APPID
  5
2D
330
0
100
AcDbSymbolTable
 70
    14
  0
APPID
  5
1F
330
2D
100
AcDbSymbolTableRecord
100
AcDbRegAppTableRecord
  2
ACAD
 70
     0
  0
APPID
  5
7D
330
2D
100
AcDbSymbolTableRecord
100
AcDbRegAppTableRecord
  2
AcAecLayerStandard
 70
     0
  0
APPID
  5
35F
330
2D
100
AcDbSymbolTableRecord
100
AcDbRegAppTableRecord
  2
ACATTRIBSERVICES
 70
     0
  0
APPID
  5
38A
330
2D
100
AcDbSymbolTableRecord
100
AcDbRegAppTableRecord
  2
MCAD_NO_VIS
 70
     0
  0
APPID
  5
38B
330
2D
100
AcDbSymbolTableRecord
100
AcDbRegAppTableRecord
  2
ACAD_TEMP_GRAPHIC
 70
     0
  0
APPID
  5
38F
330
2D
100
AcDbSymbolTableRecord
100
AcDbRegAppTableRecord
  2
AD_DRAW
 70
     0
  0
APPID
  5
3A8
330
2D
100
AcDbSymbolTableRecord
100
AcDbRegAppTableRecord
  2
DESIGNERASSEMBLIES
 70
     0
  0
APPID
  5
3AD
330
2D
100
AcDbSymbolTableRecord
100
AcDbRegAppTableRecord
  2
ACADM_DIM_EDIT
 70
     0
  0
APPID
  5
3AE
330
2D
100
AcDbSymbolTableRecord
100
AcDbRegAppTableRecord
  2
AMDT_DM_ADJ
 70
     0
  0
APPID
  5
3CE
330
2D
100
AcDbSymbolTableRecord
100
AcDbRegAppTableRecord
  2
ACAD_DSTYLE_DIMARC_LENGTH_SYMBOL
 70
     0
  0
APPID
  5
3CF
330
2D
100
AcDbSymbolTableRecord
100
AcDbRegAppTableRecord
  2
ACAD_DSTYLE_DIM_LINETYPE
 70
     0
  0
APPID
  5
3D0
330
2D
100
AcDbSymbolTableRecord
100
AcDbRegAppTableRecord
  2
ACAD_DSTYLE_DIM_EXT1_LINETYPE
 70
     0
  0
APPID
  5
3D1
330
2D
100
AcDbSymbolTableRecord
100
AcDbRegAppTableRecord
  2
ACAD_DSTYLE_DIM_EXT2_LINETYPE
 70
     0
  0
APPID
  5
3FE
330
2D
100
AcDbSymbolTableRecord
100
AcDbRegAppTableRecord
  2
ACAD_MLEADERVER
 70
     0
  0
ENDTAB
  0
TABLE
  2
DIMSTYLE
  5
2E
330
0
100
AcDbSymbolTable
 70
     7
100
AcDbDimStyleTable
 71
     1
340
2F
  0
DIMSTYLE
105
2F
330
2E
100
AcDbSymbolTableRecord
100
AcDbDimStyleTableRecord
  2
STANDARD
 70
     0
279
     2
340
21
  0
DIMSTYLE
105
332
102
{ACAD_REACTORS
330
319
102
}
330
2E
100
AcDbSymbolTableRecord
100
AcDbDimStyleTableRecord
  2
AM_ANSI
 70
     0
  4
mm
 41
0.12
 42
0.05
 43
0.5
 44
0.1
 47
0.1
 48
0.1
 78
     7
 79
     2
140
0.12
141
0.0
146
0.71
147
0.06
176
   256
177
   256
178
     2
274
     4
284
     7
340
21
371
    -1
372
    -1
1001
ACAD_DSTYLE_DIMARC_LENGTH_SYMBOL
1070
   379
1070
     1
1001
ACAD_DSTYLE_DIM_LINETYPE
1070
   380
1005
24
1001
ACAD_DSTYLE_DIM_EXT1_LINETYPE
1070
   381
1005
24
1001
ACAD_DSTYLE_DIM_EXT2_LINETYPE
1070
   382
1005
24
  0
DIMSTYLE
105
333
330
2E
100
AcDbSymbolTableRecord
100
AcDbDimStyleTableRecord
  2
AM_ANSI$3
 70
     0
  4
mm
 41
0.12
 42
0.05
 43
0.5
 44
0.1
 47
0.1
 48
0.1
 78
     7
 79
     2
140
0.12
141
0.0
146
0.71
147
0.06
176
   256
177
   256
178
     2
274
     4
284
     7
288
     1
289
     0
340
21
371
    -1
372
    -1
1001
ACAD_DSTYLE_DIMARC_LENGTH_SYMBOL
1070
   379
1070
     1
1001
ACAD_DSTYLE_DIM_LINETYPE
1070
   380
1005
24
1001
ACAD_DSTYLE_DIM_EXT1_LINETYPE
1070
   381
1005
24
1001
ACAD_DSTYLE_DIM_EXT2_LINETYPE
1070
   382
1005
24
  0
DIMSTYLE
105
334
330
2E
100
AcDbSymbolTableRecord
100
AcDbDimStyleTableRecord
  2
AM_ANSI$4
 70
     0
  4
mm
 41
0.12
 42
0.05
 43
0.5
 44
0.1
 47
0.1
 48
0.1
 78
     7
 79
     2
140
0.12
141
0.0
146
0.71
147
0.06
176
   256
177
   256
178
     2
274
     4
284
     7
288
     1
289
     0
340
21
371
    -1
372
    -1
1001
ACAD_DSTYLE_DIMARC_LENGTH_SYMBOL
1070
   379
1070
     1
1001
ACAD_DSTYLE_DIM_LINETYPE
1070
   380
1005
24
1001
ACAD_DSTYLE_DIM_EXT1_LINETYPE
1070
   381
1005
24
1001
ACAD_DSTYLE_DIM_EXT2_LINETYPE
1070
   382
1005
24
  0
DIMSTYLE
105
335
330
2E
100
AcDbSymbolTableRecord
100
AcDbDimStyleTableRecord
  2
AM_ANSI$7
 70
     0
  4
mm
 41
0.12
 42
0.05
 43
0.5
 44
0.1
 47
0.1
 48
0.1
 78
     7
 79
     2
140
0.12
141
0.0
146
0.71
147
0.06
176
   256
177
   256
178
     2
274
     4
284
     7
340
21
371
    -1
372
    -1
1001
ACAD_DSTYLE_DIMARC_LENGTH_SYMBOL
1070
   379
1070
     1
1001
ACAD_DSTYLE_DIM_LINETYPE
1070
   380
1005
24
1001
ACAD_DSTYLE_DIM_EXT1_LINETYPE
1070
   381
1005
24
1001
ACAD_DSTYLE_DIM_EXT2_LINETYPE
1070
   382
1005
24
  0
DIMSTYLE
105
336
330
2E
100
AcDbSymbolTableRecord
100
AcDbDimStyleTableRecord
  2
AM_ANSI$SF
 70
     0
  4
mm
 41
0.12
 42
0.05
 43
0.5
 44
0.1
 47
0.1
 48
0.1
 75
     1
 76
     1
 78
     7
 79
     2
140
0.12
141
0.0
146
0.71
147
0.06
176
   256
177
   256
178
     2
274
     4
284
     7
340
21
371
    -1
372
    -1
1001
ACAD_DSTYLE_DIMARC_LENGTH_SYMBOL
1070
   379
1070
     1
1001
ACAD_DSTYLE_DIM_LINETYPE
1070
   380
1005
24
1001
ACAD_DSTYLE_DIM_EXT1_LINETYPE
1070
   381
1005
24
1001
ACAD_DSTYLE_DIM_EXT2_LINETYPE
1070
   382
1005
24
  0
DIMSTYLE
105
337
330
2E
100
AcDbSymbolTableRecord
100
AcDbDimStyleTableRecord
  2
AM_ANSI$SH
 70
     0
  4
mm
 41
0.12
 42
0.05
 43
0.5
 44
0.1
 47
0.1
 48
0.1
 75
     1
 76
     1
 78
     7
 79
     2
140
0.12
141
0.0
146
0.71
147
0.06
173
     1
176
   256
177
   256
178
     2
274
     4
284
     7
340
21
343
338
371
    -1
372
    -1
1001
ACAD_DSTYLE_DIMARC_LENGTH_SYMBOL
1070
   379
1070
     1
1001
ACAD_DSTYLE_DIM_LINETYPE
1070
   380
1005
24
1001
ACAD_DSTYLE_DIM_EXT1_LINETYPE
1070
   381
1005
24
1001
ACAD_DSTYLE_DIM_EXT2_LINETYPE
1070
   382
1005
24
  0
ENDTAB
  0
TABLE
  2
BLOCK_RECORD
  5
1
330
0
100
AcDbSymbolTable
 70
     3
  0
BLOCK_RECORD
  5
2
102
{ACAD_XDICTIONARY
360
3
102
}
330
1
100
AcDbSymbolTableRecord
100
AcDbBlockTableRecord
  2
*Model_Space
340
7
  0
BLOCK_RECORD
  5
A
330
1
100
AcDbSymbolTableRecord
100
AcDbBlockTableRecord
  2
*Paper_Space
340
D
  0
BLOCK_RECORD
  5
338
330
1
100
AcDbSymbolTableRecord
100
AcDbBlockTableRecord
  2
GENAXEH
340
0
  0
BLOCK_RECORD
  5
6F
330
1
100
AcDbSymbolTableRecord
100
AcDbBlockTableRecord
  2
Einfügepunkt
340
0
102
{BLKREFS
331
6E
102
}
  0
ENDTAB
  0
ENDSEC
  0
SECTION
  2
BLOCKS
  0
BLOCK
  5
5
330
2
100
AcDbEntity
  8
0
100
AcDbBlockBegin
  2
*Model_Space
 70
     0
 10
0.0
 20
0.0
 30
0.0
  3
*Model_Space
  1

  0
ENDBLK
  5
6
330
2
100
AcDbEntity
  8
0
100
AcDbBlockEnd
  0
BLOCK
  5
B
330
A
100
AcDbEntity
 67
     1
  8
0
100
AcDbBlockBegin
  2
*Paper_Space
 70
     0
 10
0.0
 20
0.0
 30
0.0
  3
*Paper_Space
  1

  0
ENDBLK
  5
C
330
A
100
AcDbEntity
 67
     1
  8
0
100
AcDbBlockEnd
  0
BLOCK
  5
339
330
338
100
AcDbEntity
  8
0
100
AcDbBlockBegin
  2
GENAXEH
 70
     0
 10
0.0
 20
0.0
 30
0.0
  3
GENAXEH
  1

  0
LINE
  5
33A
330
338
100
AcDbEntity
  8
0
100
AcDbLine
 10
-1.0
 20
0.0
 30
0.0
 11
1.0
 21
0.0
 31
0.0
  0
ENDBLK
  5
33B
330
338
100
AcDbEntity
  8
0
100
AcDbBlockEnd
  0
BLOCK
  5
70
330
6F
100
AcDbEntity
  8
0
100
AcDbBlockBegin
  2
Einfügepunkt
 70
     0
 10
0.0
 20
0.0
 30
0.0
  3
Einfügepunkt
  1

  0
LINE
  5
71
330
6F
100
AcDbEntity
  8
GEB-BEZUG
100
AcDbLine
 10
-0.7071067811865817
 20
-0.7071067811865106
 30
0.0
 11
0.7071067811864751
 21
0.7071067811865817
 31
0.0
  0
LINE
  5
73
330
6F
100
AcDbEntity
  8
GEB-BEZUG
100
AcDbLine
 10
-0.7071067811865106
 20
0.7071067811865817
 30
0.0
 11
0.7071067811865462
 21
-0.7071067811865106
 31
0.0
  0
ENDBLK
  5
74
330
6F
100
AcDbEntity
  8
0
100
AcDbBlockEnd
  0
ENDSEC
  0
SECTION
  2
ENTITIES
  0
INSERT
  5
6E
330
2
100
AcDbEntity
  8
0
 48
25.0
100
AcDbBlockReference
  2
Einfügepunkt
 10
0.0
 20
0.0
 30
0.0
  0
LINE
  5
75
330
2
100
AcDbEntity
  8
Arbeitspunkt(DIN)
 48
25.0
100
AcDbLine
 10
0.0
 20
0.0
 30
0.0
 11
0.0
 21
-2.5
 31
0.0
  0
LINE
  5
77
330
2
100
AcDbEntity
  8
Arbeitspunkt(DIN)
 48
25.0
100
AcDbLine
 10
0.0
 20
0.0
 30
0.0
 11
0.0
 21
2.5
 31
0.0
  0
LINE
  5
78
330
2
100
AcDbEntity
  8
Arbeitspunkt(DIN)
 48
25.0
100
AcDbLine
 10
0.0
 20
0.0
 30
0.0
 11
-2.5
 21
0.0
 31
0.0
  0
LINE
  5
79
330
2
100
AcDbEntity
  8
Arbeitspunkt(DIN)
 48
25.0
100
AcDbLine
 10
0.0
 20
0.0
 30
0.0
 11
2.5
 21
0.0
 31
0.0
  0
ARC
  5
7A
330
2
100
AcDbEntity
  8
GEB-VERDECKT
 48
25.0
100
AcDbCircle
 10
4.635639852470944
 20
-47.60000000000002
 30
0.0
 40
0.3999999999999999
100
AcDbArc
 50
189.9999999999986
 51
270.0
  0
ARC
  5
7E
330
2
100
AcDbEntity
  8
GEB-VERDECKT
 48
25.0
100
AcDbCircle
 10
-4.635639852470887
 20
-47.60000000000002
 30
0.0
 40
0.3999999999999999
100
AcDbArc
 50
270.0
 51
350.0000000000014
  0
LINE
  5
7F
330
2
100
AcDbEntity
  8
GEB-VERDECKT
 48
25.0
100
AcDbLine
 10
-3.249999999999971
 20
-22.0
 30
0.0
 11
-3.249999999999971
 21
-42.04515408940141
 31
0.0
  0
LINE
  5
80
330
2
100
AcDbEntity
  8
GEB-VERDECKT
 48
25.0
100
AcDbLine
 10
3.25
 20
-22.0
 30
0.0
 11
3.25
 21
-42.04515408940141
 31
0.0
  0
LINE
  5
81
330
2
100
AcDbEntity
  8
GEB-VERDECKT
 48
25.0
100
AcDbLine
 10
-3.249999999999971
 20
-42.04515408940141
 30
0.0
 11
-4.241716751265983
 21
-47.66945927106678
 31
0.0
  0
LINE
  5
82
330
2
100
AcDbEntity
  8
GEB-VERDECKT
 48
25.0
100
AcDbLine
 10
3.25
 20
-42.04515408940141
 30
0.0
 11
4.241716751266039
 21
-47.66945927106678
 31
0.0
  0
LINE
  5
83
330
2
100
AcDbEntity
  8
GEB-VERDECKT
 48
25.0
100
AcDbLine
 10
-3.249999999999971
 20
-42.04515408940141
 30
0.0
 11
3.25
 21
-42.04515408940141
 31
0.0
  0
LINE
  5
84
330
2
100
AcDbEntity
  8
GEB-KONTUR-A
 48
25.0
100
AcDbLine
 10
-5.599999999999965
 20
-28.30000000000007
 30
0.0
 11
-5.569322614062286
 21
-28.30000000000007
 31
0.0
  0
LINE
  5
86
330
2
100
AcDbEntity
  8
GEB-KONTUR-A
 48
25.0
100
AcDbLine
 10
-5.569322614062286
 20
-26.50000000000011
 30
0.0
 11
-5.569322614062286
 21
-28.30000000000007
 31
0.0
  0
LINE
  5
87
330
2
100
AcDbEntity
  8
GEB-KONTUR-A
 48
25.0
100
AcDbLine
 10
-5.4776265641093
 20
-28.30000000000007
 30
0.0
 11
-5.115854562798546
 21
-28.30000000000007
 31
0.0
  0
LINE
  5
88
330
2
100
AcDbEntity
  8
GEB-KONTUR-A
 48
25.0
100
AcDbLine
 10
-5.115854562798546
 20
-26.50000000000011
 30
0.0
 11
-5.115854562798546
 21
-28.30000000000007
 31
0.0
  0
LINE
  5
89
330
2
100
AcDbEntity
  8
GEB-KONTUR-A
 48
25.0
100
AcDbLine
 10
-5.4776265641093
 20
-28.30000000000007
 30
0.0
 11
-5.4776265641093
 21
-26.50000000000011
 31
0.0
  0
LINE
  5
8A
330
2
100
AcDbEntity
  8
GEB-KONTUR-A
 48
25.0
100
AcDbLine
 10
-5.4776265641093
 20
-26.50000000000011
 30
0.0
 11
-5.115854562798546
 21
-26.50000000000011
 31
0.0
  0
LINE
  5
8B
330
2
100
AcDbEntity
  8
GEB-KONTUR-A
 48
25.0
100
AcDbLine
 10
-4.84974226119283
 20
-28.30000000000007
 30
0.0
 11
-4.161611022673355
 21
-28.30000000000007
 31
0.0
  0
LINE
  5
8C
330
2
100
AcDbEntity
  8
GEB-KONTUR-A
 48
25.0
100
AcDbLine
 10
-4.161611022673355
 20
-26.50000000000011
 30
0.0
 11
-4.161611022673355
 21
-28.30000000000007
 31
0.0
  0
LINE
  5
8D
330
2
100
AcDbEntity
  8
GEB-KONTUR-A
 48
25.0
100
AcDbLine
 10
-4.84974226119283
 20
-28.30000000000007
 30
0.0
 11
-4.84974226119283
 21
-26.50000000000011
 31
0.0
  0
LINE
  5
8E
330
2
100
AcDbEntity
  8
GEB-KONTUR-A
 48
25.0
100
AcDbLine
 10
-4.84974226119283
 20
-26.50000000000011
 30
0.0
 11
-4.161611022673355
 21
-26.50000000000011
 31
0.0
  0
LINE
  5
8F
330
2
100
AcDbEntity
  8
GEB-KONTUR-A
 48
25.0
100
AcDbLine
 10
-3.747131395609585
 20
-28.30000000000007
 30
0.0
 11
-2.800000000000011
 21
-28.30000000000007
 31
0.0
  0
LINE
  5
90
330
2
100
AcDbEntity
  8
GEB-KONTUR-A
 48
25.0
100
AcDbLine
 10
-2.909536998847727
 20
-26.50000000000011
 30
0.0
 11
-2.799999999999954
 21
-26.50000000000011
 31
0.0
  0
LINE
  5
91
330
2
100
AcDbEntity
  8
GEB-KONTUR-A
 48
25.0
100
AcDbLine
 10
-2.799999999999954
 20
-26.50000000000011
 30
0.0
 11
-2.799999999999954
 21
-28.30000000000007
 31
0.0
  0
LINE
  5
92
330
2
100
AcDbEntity
  8
GEB-KONTUR-A
 48
25.0
100
AcDbLine
 10
-3.747131395609585
 20
-28.30000000000007
 30
0.0
 11
-3.747131395609585
 21
-26.50000000000011
 31
0.0
  0
LINE
  5
93
330
2
100
AcDbEntity
  8
GEB-KONTUR-A
 48
25.0
100
AcDbLine
 10
-3.747131395609585
 20
-26.50000000000011
 30
0.0
 11
-2.909536998847727
 21
-26.50000000000011
 31
0.0
  0
LINE
  5
94
330
2
100
AcDbEntity
  8
GEB-KONTUR-A
 48
25.0
100
AcDbLine
 10
-2.909536998847727
 20
-26.50000000000011
 30
0.0
 11
-2.909536998847727
 21
-28.30000000000007
 31
0.0
  0
LINE
  5
95
330
2
100
AcDbEntity
  8
GEB-KONTUR-A
 48
25.0
100
AcDbLine
 10
-2.277725201224484
 20
-28.30000000000007
 30
0.0
 11
-1.164305468579442
 21
-28.30000000000007
 31
0.0
  0
LINE
  5
96
330
2
100
AcDbEntity
  8
GEB-KONTUR-A
 48
25.0
100
AcDbLine
 10
-1.529634122155982
 20
-26.50000000000011
 30
0.0
 11
-1.164305468579442
 21
-26.50000000000011
 31
0.0
  0
LINE
  5
97
330
2
100
AcDbEntity
  8
GEB-KONTUR-A
 48
25.0
100
AcDbLine
 10
-1.164305468579442
 20
-26.50000000000011
 30
0.0
 11
-1.164305468579442
 21
-28.30000000000007
 31
0.0
  0
LINE
  5
98
330
2
100
AcDbEntity
  8
GEB-KONTUR-A
 48
25.0
100
AcDbLine
 10
-2.277725201224455
 20
-28.30000000000007
 30
0.0
 11
-2.277725201224455
 21
-26.50000000000011
 31
0.0
  0
LINE
  5
99
330
2
100
AcDbEntity
  8
GEB-KONTUR-A
 48
25.0
100
AcDbLine
 10
-2.277725201224455
 20
-26.50000000000011
 30
0.0
 11
-1.529634122155982
 21
-26.50000000000011
 31
0.0
  0
LINE
  5
9A
330
2
100
AcDbEntity
  8
GEB-KONTUR-A
 48
25.0
100
AcDbLine
 10
-1.529634122155982
 20
-26.50000000000011
 30
0.0
 11
-1.529634122155982
 21
-28.30000000000007
 31
0.0
  0
LINE
  5
9B
330
2
100
AcDbEntity
  8
GEB-KONTUR-A
 48
25.0
100
AcDbLine
 10
-0.5853593942988198
 20
-28.30000000000007
 30
0.0
 11
0.5853593942989051
 21
-28.30000000000007
 31
0.0
  0
LINE
  5
9C
330
2
100
AcDbEntity
  8
GEB-KONTUR-A
 48
25.0
100
AcDbLine
 10
0.0
 20
-26.50000000000011
 30
0.0
 11
0.5853593942989051
 21
-26.50000000000011
 31
0.0
  0
LINE
  5
9D
330
2
100
AcDbEntity
  8
GEB-KONTUR-A
 48
25.0
100
AcDbLine
 10
0.5853593942989051
 20
-26.50000000000011
 30
0.0
 11
0.5853593942989051
 21
-28.30000000000007
 31
0.0
  0
LINE
  5
9E
330
2
100
AcDbEntity
  8
GEB-KONTUR-A
 48
25.0
100
AcDbLine
 10
-0.5853593942988198
 20
-28.30000000000007
 30
0.0
 11
-0.5853593942988198
 21
-26.50000000000011
 31
0.0
  0
LINE
  5
9F
330
2
100
AcDbEntity
  8
GEB-KONTUR-A
 48
25.0
100
AcDbLine
 10
-0.5853593942988198
 20
-26.50000000000011
 30
0.0
 11
0.0
 21
-26.50000000000011
 31
0.0
  0
LINE
  5
A0
330
2
100
AcDbEntity
  8
GEB-KONTUR-A
 48
25.0
100
AcDbLine
 10
0.0
 20
-26.50000000000011
 30
0.0
 11
0.0
 21
-28.30000000000007
 31
0.0
  0
LINE
  5
A1
330
2
100
AcDbEntity
  8
GEB-KONTUR-A
 48
25.0
100
AcDbLine
 10
1.16430546857947
 20
-28.30000000000007
 30
0.0
 11
2.277725201224512
 21
-28.30000000000007
 31
0.0
  0
LINE
  5
A2
330
2
100
AcDbEntity
  8
GEB-KONTUR-A
 48
25.0
100
AcDbLine
 10
1.529634122155982
 20
-26.50000000000011
 30
0.0
 11
2.277725201224484
 21
-26.50000000000011
 31
0.0
  0
LINE
  5
A3
330
2
100
AcDbEntity
  8
GEB-KONTUR-A
 48
25.0
100
AcDbLine
 10
2.277725201224484
 20
-26.50000000000011
 30
0.0
 11
2.277725201224484
 21
-28.30000000000007
 31
0.0
  0
LINE
  5
A4
330
2
100
AcDbEntity
  8
GEB-KONTUR-A
 48
25.0
100
AcDbLine
 10
1.16430546857947
 20
-28.30000000000007
 30
0.0
 11
1.16430546857947
 21
-26.50000000000011
 31
0.0
  0
LINE
  5
A5
330
2
100
AcDbEntity
  8
GEB-KONTUR-A
 48
25.0
100
AcDbLine
 10
1.16430546857947
 20
-26.50000000000011
 30
0.0
 11
1.529634122155982
 21
-26.50000000000011
 31
0.0
  0
LINE
  5
A6
330
2
100
AcDbEntity
  8
GEB-KONTUR-A
 48
25.0
100
AcDbLine
 10
1.529634122155982
 20
-26.50000000000011
 30
0.0
 11
1.529634122155982
 21
-28.30000000000007
 31
0.0
  0
LINE
  5
A7
330
2
100
AcDbEntity
  8
GEB-KONTUR-A
 48
25.0
100
AcDbLine
 10
2.800000000000011
 20
-28.30000000000007
 30
0.0
 11
3.747131395609613
 21
-28.30000000000007
 31
0.0
  0
LINE
  5
A8
330
2
100
AcDbEntity
  8
GEB-KONTUR-A
 48
25.0
100
AcDbLine
 10
2.909536998847755
 20
-26.50000000000011
 30
0.0
 11
3.747131395609613
 21
-26.50000000000011
 31
0.0
  0
LINE
  5
A9
330
2
100
AcDbEntity
  8
GEB-KONTUR-A
 48
25.0
100
AcDbLine
 10
3.747131395609613
 20
-26.50000000000011
 30
0.0
 11
3.747131395609613
 21
-28.30000000000007
 31
0.0
  0
LINE
  5
AA
330
2
100
AcDbEntity
  8
GEB-KONTUR-A
 48
25.0
100
AcDbLine
 10
2.800000000000011
 20
-28.30000000000007
 30
0.0
 11
2.800000000000011
 21
-26.50000000000011
 31
0.0
  0
LINE
  5
AB
330
2
100
AcDbEntity
  8
GEB-KONTUR-A
 48
25.0
100
AcDbLine
 10
2.800000000000011
 20
-26.50000000000011
 30
0.0
 11
2.909536998847755
 21
-26.50000000000011
 31
0.0
  0
LINE
  5
AC
330
2
100
AcDbEntity
  8
GEB-KONTUR-A
 48
25.0
100
AcDbLine
 10
2.909536998847755
 20
-26.50000000000011
 30
0.0
 11
2.909536998847755
 21
-28.30000000000007
 31
0.0
  0
LINE
  5
AD
330
2
100
AcDbEntity
  8
GEB-KONTUR-A
 48
25.0
100
AcDbLine
 10
4.16161102267344
 20
-28.30000000000007
 30
0.0
 11
4.849742261192886
 21
-28.30000000000007
 31
0.0
  0
LINE
  5
AE
330
2
100
AcDbEntity
  8
GEB-KONTUR-A
 48
25.0
100
AcDbLine
 10
4.161611022673412
 20
-26.50000000000011
 30
0.0
 11
4.849742261192886
 21
-26.50000000000011
 31
0.0
  0
LINE
  5
AF
330
2
100
AcDbEntity
  8
GEB-KONTUR-A
 48
25.0
100
AcDbLine
 10
4.849742261192886
 20
-26.50000000000011
 30
0.0
 11
4.849742261192886
 21
-28.30000000000007
 31
0.0
  0
LINE
  5
B0
330
2
100
AcDbEntity
  8
GEB-KONTUR-A
 48
25.0
100
AcDbLine
 10
4.161611022673412
 20
-28.30000000000007
 30
0.0
 11
4.161611022673412
 21
-26.50000000000011
 31
0.0
  0
LINE
  5
B1
330
2
100
AcDbEntity
  8
GEB-KONTUR-A
 48
25.0
100
AcDbLine
 10
5.115854562798574
 20
-28.30000000000007
 30
0.0
 11
5.4776265641093
 21
-28.30000000000007
 31
0.0
  0
LINE
  5
B2
330
2
100
AcDbEntity
  8
GEB-KONTUR-A
 48
25.0
100
AcDbLine
 10
5.115854562798574
 20
-26.50000000000011
 30
0.0
 11
5.4776265641093
 21
-26.50000000000011
 31
0.0
  0
LINE
  5
B3
330
2
100
AcDbEntity
  8
GEB-KONTUR-A
 48
25.0
100
AcDbLine
 10
5.4776265641093
 20
-26.50000000000011
 30
0.0
 11
5.4776265641093
 21
-28.30000000000007
 31
0.0
  0
LINE
  5
B4
330
2
100
AcDbEntity
  8
GEB-KONTUR-A
 48
25.0
100
AcDbLine
 10
5.115854562798574
 20
-28.30000000000007
 30
0.0
 11
5.115854562798574
 21
-26.50000000000011
 31
0.0
  0
LINE
  5
B5
330
2
100
AcDbEntity
  8
GEB-KONTUR-A
 48
25.0
100
AcDbLine
 10
5.569322614062343
 20
-28.30000000000007
 30
0.0
 11
5.600000000000022
 21
-28.30000000000007
 31
0.0
  0
LINE
  5
B6
330
2
100
AcDbEntity
  8
GEB-KONTUR-A
 48
25.0
100
AcDbLine
 10
5.569322614062343
 20
-28.30000000000007
 30
0.0
 11
5.569322614062343
 21
-26.50000000000011
 31
0.0
  0
LINE
  5
B7
330
2
100
AcDbEntity
  8
GEB-VERDECKT
 48
25.0
100
AcDbLine
 10
-5.569322614062286
 20
-28.30000000000007
 30
0.0
 11
-5.4776265641093
 21
-28.30000000000007
 31
0.0
  0
LINE
  5
B8
330
2
100
AcDbEntity
  8
GEB-VERDECKT
 48
25.0
100
AcDbLine
 10
-4.94999999999996
 20
-26.50000000000011
 30
0.0
 11
-4.94999999999996
 21
-28.30000000000007
 31
0.0
  0
LINE
  5
B9
330
2
100
AcDbEntity
  8
GEB-VERDECKT
 48
25.0
100
AcDbLine
 10
-5.115854562798546
 20
-28.30000000000007
 30
0.0
 11
-4.84974226119283
 21
-28.30000000000007
 31
0.0
  0
LINE
  5
BA
330
2
100
AcDbEntity
  8
GEB-VERDECKT
 48
25.0
100
AcDbLine
 10
-4.707729755660977
 20
-26.50000000000011
 30
0.0
 11
-4.707729755660977
 21
-28.30000000000007
 31
0.0
  0
LINE
  5
BB
330
2
100
AcDbEntity
  8
GEB-VERDECKT
 48
25.0
100
AcDbLine
 10
-4.161611022673355
 20
-28.30000000000007
 30
0.0
 11
-4.004634122155948
 21
-28.30000000000007
 31
0.0
  0
LINE
  5
BC
330
2
100
AcDbEntity
  8
GEB-VERDECKT
 48
25.0
100
AcDbLine
 10
-4.004634122155948
 20
-26.50000000000011
 30
0.0
 11
-4.004634122155948
 21
-28.30000000000007
 31
0.0
  0
LINE
  5
BD
330
2
100
AcDbEntity
  8
GEB-VERDECKT
 48
25.0
100
AcDbLine
 10
4.004634122155977
 20
-26.50000000000011
 30
0.0
 11
4.004634122155977
 21
-28.30000000000007
 31
0.0
  0
LINE
  5
BE
330
2
100
AcDbEntity
  8
GEB-VERDECKT
 48
25.0
100
AcDbLine
 10
4.004634122155977
 20
-28.30000000000007
 30
0.0
 11
4.161611022673412
 21
-28.30000000000007
 31
0.0
  0
LINE
  5
BF
330
2
100
AcDbEntity
  8
GEB-VERDECKT
 48
25.0
100
AcDbLine
 10
4.707729755661034
 20
-26.50000000000011
 30
0.0
 11
4.707729755661034
 21
-28.30000000000007
 31
0.0
  0
LINE
  5
C0
330
2
100
AcDbEntity
  8
GEB-VERDECKT
 48
25.0
100
AcDbLine
 10
4.849742261192886
 20
-28.30000000000007
 30
0.0
 11
5.115854562798574
 21
-28.30000000000007
 31
0.0
  0
LINE
  5
C1
330
2
100
AcDbEntity
  8
GEB-VERDECKT
 48
25.0
100
AcDbLine
 10
4.949999999999988
 20
-26.50000000000011
 30
0.0
 11
4.949999999999988
 21
-28.30000000000007
 31
0.0
  0
LINE
  5
C2
330
2
100
AcDbEntity
  8
GEB-VERDECKT
 48
25.0
100
AcDbLine
 10
5.4776265641093
 20
-28.30000000000007
 30
0.0
 11
5.569322614062343
 21
-28.30000000000007
 31
0.0
  0
ARC
  5
C3
330
2
100
AcDbEntity
  8
GEB-KONTUR-A
 48
25.0
100
AcDbCircle
 10
-8.299999999999954
 20
-42.70000000000004
 30
0.0
 40
3.399999999999996
100
AcDbArc
 50
322.571994456958
 51
37.428005543041
  0
ARC
  5
C4
330
2
100
AcDbEntity
  8
GEB-KONTUR-A
 48
25.0
100
AcDbCircle
 10
8.300000000000011
 20
-42.70000000000004
 30
0.0
 40
3.399999999999996
100
AcDbArc
 50
142.571994456958
 51
217.428005543041
  0
LINE
  5
C5
330
2
100
AcDbEntity
  8
GEB-KONTUR-A
 48
25.0
100
AcDbLine
 10
-5.599999999999965
 20
-44.76639783197732
 30
0.0
 11
5.600000000000022
 21
-44.76639783197732
 31
0.0
  0
LINE
  5
C6
330
2
100
AcDbEntity
  8
GEB-KONTUR-A
 48
25.0
100
AcDbLine
 10
5.600000000000022
 20
-40.63360216802289
 30
0.0
 11
-5.599999999999965
 21
-40.63360216802289
 31
0.0
  0
LINE
  5
C7
330
2
100
AcDbEntity
  8
GEB-KONTUR-A
 48
25.0
100
AcDbLine
 10
4.199999999999988
 20
-37.20000000000005
 30
0.0
 11
4.199999999999988
 21
-35.20000000000005
 31
0.0
  0
LINE
  5
C8
330
2
100
AcDbEntity
  8
GEB-KONTUR-A
 48
25.0
100
AcDbLine
 10
-4.19999999999996
 20
-37.20000000000005
 30
0.0
 11
-4.19999999999996
 21
-35.20000000000005
 31
0.0
  0
LINE
  5
C9
330
2
100
AcDbEntity
  8
GEB-KONTUR-A
 48
25.0
100
AcDbLine
 10
5.199999999999988
 20
-35.20000000000005
 30
0.0
 11
5.199999999999988
 21
-34.10000000000002
 31
0.0
  0
LINE
  5
CA
330
2
100
AcDbEntity
  8
GEB-KONTUR-A
 48
25.0
100
AcDbLine
 10
-5.199999999999988
 20
-35.20000000000005
 30
0.0
 11
-5.199999999999988
 21
-34.10000000000002
 31
0.0
  0
LINE
  5
CB
330
2
100
AcDbEntity
  8
GEB-KONTUR-A
 48
25.0
100
AcDbLine
 10
4.949999999999988
 20
-26.50000000000011
 30
0.0
 11
4.949999999999988
 21
-25.47125920269696
 31
0.0
  0
LINE
  5
CC
330
2
100
AcDbEntity
  8
GEB-KONTUR-A
 48
25.0
100
AcDbLine
 10
-4.94999999999996
 20
-26.50000000000011
 30
0.0
 11
-4.94999999999996
 21
-25.47125920269696
 31
0.0
  0
LINE
  5
CD
330
2
100
AcDbEntity
  8
GEB-KONTUR-A
 48
25.0
100
AcDbLine
 10
4.949999999999988
 20
-25.47125920269696
 30
0.0
 11
5.350000000000022
 21
-24.90000000000009
 31
0.0
  0
LINE
  5
CE
330
2
100
AcDbEntity
  8
GEB-KONTUR-A
 48
25.0
100
AcDbLine
 10
-4.94999999999996
 20
-25.47125920269696
 30
0.0
 11
-5.349999999999994
 21
-24.89999999999998
 31
0.0
  0
LINE
  5
CF
330
2
100
AcDbEntity
  8
GEB-KONTUR-A
 48
25.0
100
AcDbLine
 10
4.949999999999988
 20
-24.89999999999998
 30
0.0
 11
4.949999999999988
 21
-23.97125920269684
 31
0.0
  0
LINE
  5
D0
330
2
100
AcDbEntity
  8
GEB-KONTUR-A
 48
25.0
100
AcDbLine
 10
-4.94999999999996
 20
-24.89999999999998
 30
0.0
 11
-4.94999999999996
 21
-23.97125920269684
 31
0.0
  0
LINE
  5
D1
330
2
100
AcDbEntity
  8
GEB-KONTUR-A
 48
25.0
100
AcDbLine
 10
4.949999999999988
 20
-23.97125920269684
 30
0.0
 11
5.350000000000022
 21
-23.39999999999998
 31
0.0
  0
LINE
  5
D2
330
2
100
AcDbEntity
  8
GEB-KONTUR-A
 48
25.0
100
AcDbLine
 10
-4.94999999999996
 20
-23.97125920269684
 30
0.0
 11
-5.349999999999994
 21
-23.39999999999998
 31
0.0
  0
LINE
  5
D3
330
2
100
AcDbEntity
  8
GEB-KONTUR-A
 48
25.0
100
AcDbLine
 10
5.100000000000022
 20
-23.39999999999998
 30
0.0
 11
5.100000000000022
 21
-22.0
 31
0.0
  0
LINE
  5
D4
330
2
100
AcDbEntity
  8
GEB-KONTUR-A
 48
25.0
100
AcDbLine
 10
-5.099999999999965
 20
-23.39999999999998
 30
0.0
 11
-5.099999999999965
 21
-22.0
 31
0.0
  0
ARC
  5
D5
330
2
100
AcDbEntity
  8
GEB-KONTUR-A
 48
25.0
100
AcDbCircle
 10
-4.911706186112127
 20
-47.60000000000002
 30
0.0
 40
0.3999999999999999
100
AcDbArc
 50
189.9999999999986
 51
270.0
  0
ARC
  5
D6
330
2
100
AcDbEntity
  8
GEB-KONTUR-A
 48
25.0
100
AcDbCircle
 10
4.911706186112155
 20
-47.60000000000002
 30
0.0
 40
0.3999999999999999
100
AcDbArc
 50
270.0
 51
350.0000000000014
  0
LINE
  5
D7
330
2
100
AcDbEntity
  8
GEB-KONTUR-A
 48
25.0
100
AcDbLine
 10
5.305629287317003
 20
-47.66945927106678
 30
0.0
 11
5.600000000000022
 21
-46.0
 31
0.0
  0
LINE
  5
D8
330
2
100
AcDbEntity
  8
GEB-KONTUR-A
 48
25.0
100
AcDbLine
 10
-5.305629287317003
 20
-47.66945927106678
 30
0.0
 11
-5.599999999999965
 21
-46.0
 31
0.0
  0
LINE
  5
D9
330
2
100
AcDbEntity
  8
GEB-KONTUR-A
 48
25.0
100
AcDbLine
 10
5.600000000000022
 20
-40.63360216802289
 30
0.0
 11
5.600000000000022
 21
-38.30000000000007
 31
0.0
  0
LINE
  5
DA
330
2
100
AcDbEntity
  8
GEB-KONTUR-A
 48
25.0
100
AcDbLine
 10
-5.599999999999965
 20
-40.63360216802289
 30
0.0
 11
-5.599999999999965
 21
-38.30000000000007
 31
0.0
  0
LINE
  5
DB
330
2
100
AcDbEntity
  8
GEB-KONTUR-A
 48
25.0
100
AcDbLine
 10
5.199999999999988
 20
-38.30000000000007
 30
0.0
 11
5.199999999999988
 21
-37.20000000000005
 31
0.0
  0
LINE
  5
DC
330
2
100
AcDbEntity
  8
GEB-KONTUR-A
 48
25.0
100
AcDbLine
 10
-5.199999999999988
 20
-38.30000000000007
 30
0.0
 11
-5.199999999999988
 21
-37.20000000000005
 31
0.0
  0
LINE
  5
DD
330
2
100
AcDbEntity
  8
GEB-KONTUR-A
 48
25.0
100
AcDbLine
 10
5.600000000000022
 20
-32.30000000000007
 30
0.0
 11
5.600000000000022
 21
-28.30000000000007
 31
0.0
  0
LINE
  5
DE
330
2
100
AcDbEntity
  8
GEB-KONTUR-A
 48
25.0
100
AcDbLine
 10
-5.599999999999965
 20
-32.30000000000007
 30
0.0
 11
-5.599999999999965
 21
-28.30000000000007
 31
0.0
  0
LINE
  5
DF
330
2
100
AcDbEntity
  8
GEB-KONTUR-A
 48
25.0
100
AcDbLine
 10
5.600000000000022
 20
-46.0
 30
0.0
 11
5.600000000000022
 21
-44.76639783197732
 31
0.0
  0
LINE
  5
E0
330
2
100
AcDbEntity
  8
GEB-KONTUR-A
 48
25.0
100
AcDbLine
 10
-5.599999999999965
 20
-46.0
 30
0.0
 11
-5.599999999999965
 21
-44.76639783197732
 31
0.0
  0
LINE
  5
E1
330
2
100
AcDbEntity
  8
GEB-KONTUR-A
 48
25.0
100
AcDbLine
 10
5.199999999999988
 20
-35.20000000000005
 30
0.0
 11
-5.199999999999988
 21
-35.20000000000005
 31
0.0
  0
LINE
  5
E2
330
2
100
AcDbEntity
  8
GEB-KONTUR-A
 48
25.0
100
AcDbLine
 10
4.949999999999988
 20
-25.47125920269696
 30
0.0
 11
-4.94999999999996
 21
-25.47125920269696
 31
0.0
  0
LINE
  5
E3
330
2
100
AcDbEntity
  8
GEB-KONTUR-A
 48
25.0
100
AcDbLine
 10
5.350000000000022
 20
-24.89999999999998
 30
0.0
 11
-5.349999999999994
 21
-24.89999999999998
 31
0.0
  0
LINE
  5
E4
330
2
100
AcDbEntity
  8
GEB-KONTUR-A
 48
25.0
100
AcDbLine
 10
4.949999999999988
 20
-23.97125920269684
 30
0.0
 11
-4.94999999999996
 21
-23.97125920269684
 31
0.0
  0
LINE
  5
E5
330
2
100
AcDbEntity
  8
GEB-KONTUR-A
 48
25.0
100
AcDbLine
 10
5.350000000000022
 20
-23.39999999999998
 30
0.0
 11
-5.349999999999994
 21
-23.39999999999998
 31
0.0
  0
LINE
  5
E6
330
2
100
AcDbEntity
  8
GEB-KONTUR-A
 48
25.0
100
AcDbLine
 10
-4.911706186112127
 20
-48.0
 30
0.0
 11
4.911706186112155
 21
-48.0
 31
0.0
  0
LINE
  5
E7
330
2
100
AcDbEntity
  8
GEB-KONTUR-A
 48
25.0
100
AcDbLine
 10
5.600000000000022
 20
-38.30000000000007
 30
0.0
 11
-5.599999999999965
 21
-38.30000000000007
 31
0.0
  0
LINE
  5
E8
330
2
100
AcDbEntity
  8
GEB-KONTUR-A
 48
25.0
100
AcDbLine
 10
5.199999999999988
 20
-37.20000000000005
 30
0.0
 11
-5.199999999999988
 21
-37.20000000000005
 31
0.0
  0
LINE
  5
E9
330
2
100
AcDbEntity
  8
GEB-KONTUR-A
 48
25.0
100
AcDbLine
 10
-5.4776265641093
 20
-26.50000000000011
 30
0.0
 11
-5.569322614062343
 21
-26.50000000000011
 31
0.0
  0
LINE
  5
EA
330
2
100
AcDbEntity
  8
GEB-KONTUR-A
 48
25.0
100
AcDbLine
 10
-4.849742261192801
 20
-26.50000000000011
 30
0.0
 11
-5.115854562798517
 21
-26.50000000000011
 31
0.0
  0
LINE
  5
EB
330
2
100
AcDbEntity
  8
GEB-KONTUR-A
 48
25.0
100
AcDbLine
 10
-3.747131395609585
 20
-26.50000000000011
 30
0.0
 11
-4.161611022673412
 21
-26.50000000000011
 31
0.0
  0
LINE
  5
EC
330
2
100
AcDbEntity
  8
GEB-KONTUR-A
 48
25.0
100
AcDbLine
 10
-2.277725201224455
 20
-26.50000000000011
 30
0.0
 11
-2.800000000000011
 21
-26.50000000000011
 31
0.0
  0
LINE
  5
ED
330
2
100
AcDbEntity
  8
GEB-KONTUR-A
 48
25.0
100
AcDbLine
 10
-0.5853593942988482
 20
-26.50000000000011
 30
0.0
 11
-1.164305468579442
 21
-26.50000000000011
 31
0.0
  0
LINE
  5
EE
330
2
100
AcDbEntity
  8
GEB-KONTUR-A
 48
25.0
100
AcDbLine
 10
1.16430546857947
 20
-26.50000000000011
 30
0.0
 11
0.5853593942989051
 21
-26.50000000000011
 31
0.0
  0
LINE
  5
EF
330
2
100
AcDbEntity
  8
GEB-KONTUR-A
 48
25.0
100
AcDbLine
 10
2.799999999999982
 20
-26.50000000000011
 30
0.0
 11
2.277725201224484
 21
-26.50000000000011
 31
0.0
  0
LINE
  5
F0
330
2
100
AcDbEntity
  8
GEB-KONTUR-A
 48
25.0
100
AcDbLine
 10
4.161611022673412
 20
-26.50000000000011
 30
0.0
 11
3.747131395609613
 21
-26.50000000000011
 31
0.0
  0
LINE
  5
F1
330
2
100
AcDbEntity
  8
GEB-KONTUR-A
 48
25.0
100
AcDbLine
 10
5.115854562798574
 20
-26.50000000000011
 30
0.0
 11
4.849742261192886
 21
-26.50000000000011
 31
0.0
  0
LINE
  5
F2
330
2
100
AcDbEntity
  8
GEB-KONTUR-A
 48
25.0
100
AcDbLine
 10
5.569322614062343
 20
-26.50000000000011
 30
0.0
 11
5.4776265641093
 21
-26.50000000000011
 31
0.0
  0
LINE
  5
F3
330
2
100
AcDbEntity
  8
GEB-KONTUR-A
 48
25.0
100
AcDbLine
 10
5.600000000000022
 20
-46.0
 30
0.0
 11
-5.599999999999965
 21
-46.0
 31
0.0
  0
LINE
  5
F4
330
2
100
AcDbEntity
  8
GEB-KONTUR-A
 48
25.0
100
AcDbLine
 10
5.569322614062343
 20
-34.10000000000002
 30
0.0
 11
5.4776265641093
 21
-34.10000000000002
 31
0.0
  0
LINE
  5
F5
330
2
100
AcDbEntity
  8
GEB-KONTUR-A
 48
25.0
100
AcDbLine
 10
5.115854562798574
 20
-34.10000000000002
 30
0.0
 11
4.849742261192886
 21
-34.10000000000002
 31
0.0
  0
LINE
  5
F6
330
2
100
AcDbEntity
  8
GEB-KONTUR-A
 48
25.0
100
AcDbLine
 10
4.161611022673412
 20
-34.10000000000002
 30
0.0
 11
3.747131395609613
 21
-34.10000000000002
 31
0.0
  0
LINE
  5
F7
330
2
100
AcDbEntity
  8
GEB-KONTUR-A
 48
25.0
100
AcDbLine
 10
2.800000000000011
 20
-34.10000000000002
 30
0.0
 11
2.277725201224512
 21
-34.10000000000002
 31
0.0
  0
LINE
  5
F8
330
2
100
AcDbEntity
  8
GEB-KONTUR-A
 48
25.0
100
AcDbLine
 10
1.16430546857947
 20
-34.10000000000002
 30
0.0
 11
0.5853593942988482
 21
-34.10000000000002
 31
0.0
  0
LINE
  5
F9
330
2
100
AcDbEntity
  8
GEB-KONTUR-A
 48
25.0
100
AcDbLine
 10
-0.5853593942988482
 20
-34.10000000000002
 30
0.0
 11
-1.164305468579442
 21
-34.10000000000002
 31
0.0
  0
LINE
  5
FA
330
2
100
AcDbEntity
  8
GEB-KONTUR-A
 48
25.0
100
AcDbLine
 10
-2.277725201224455
 20
-34.10000000000002
 30
0.0
 11
-2.800000000000011
 21
-34.10000000000002
 31
0.0
  0
LINE
  5
FB
330
2
100
AcDbEntity
  8
GEB-KONTUR-A
 48
25.0
100
AcDbLine
 10
-3.747131395609585
 20
-34.10000000000002
 30
0.0
 11
-4.161611022673412
 21
-34.10000000000002
 31
0.0
  0
LINE
  5
FC
330
2
100
AcDbEntity
  8
GEB-KONTUR-A
 48
25.0
100
AcDbLine
 10
-4.849742261192801
 20
-34.10000000000002
 30
0.0
 11
-5.115854562798517
 21
-34.10000000000002
 31
0.0
  0
LINE
  5
FD
330
2
100
AcDbEntity
  8
GEB-KONTUR-A
 48
25.0
100
AcDbLine
 10
-5.4776265641093
 20
-34.10000000000002
 30
0.0
 11
-5.569322614062343
 21
-34.10000000000002
 31
0.0
  0
LINE
  5
FE
330
2
100
AcDbEntity
  8
GEB-KONTUR-A
 48
25.0
100
AcDbLine
 10
-5.569322614062286
 20
-32.30000000000007
 30
0.0
 11
-5.599999999999965
 21
-32.30000000000007
 31
0.0
  0
LINE
  5
FF
330
2
100
AcDbEntity
  8
GEB-KONTUR-A
 48
25.0
100
AcDbLine
 10
-5.569322614062286
 20
-32.30000000000007
 30
0.0
 11
-5.569322614062286
 21
-34.10000000000002
 31
0.0
  0
LINE
  5
100
330
2
100
AcDbEntity
  8
GEB-KONTUR-A
 48
25.0
100
AcDbLine
 10
-5.115854562798546
 20
-32.30000000000007
 30
0.0
 11
-5.4776265641093
 21
-32.30000000000007
 31
0.0
  0
LINE
  5
101
330
2
100
AcDbEntity
  8
GEB-KONTUR-A
 48
25.0
100
AcDbLine
 10
-5.115854562798546
 20
-32.30000000000007
 30
0.0
 11
-5.115854562798546
 21
-34.10000000000002
 31
0.0
  0
LINE
  5
102
330
2
100
AcDbEntity
  8
GEB-KONTUR-A
 48
25.0
100
AcDbLine
 10
-5.115854562798546
 20
-34.10000000000002
 30
0.0
 11
-5.4776265641093
 21
-34.10000000000002
 31
0.0
  0
LINE
  5
103
330
2
100
AcDbEntity
  8
GEB-KONTUR-A
 48
25.0
100
AcDbLine
 10
-5.4776265641093
 20
-34.10000000000002
 30
0.0
 11
-5.4776265641093
 21
-32.30000000000007
 31
0.0
  0
LINE
  5
104
330
2
100
AcDbEntity
  8
GEB-KONTUR-A
 48
25.0
100
AcDbLine
 10
-4.161611022673412
 20
-32.30000000000007
 30
0.0
 11
-4.84974226119283
 21
-32.30000000000007
 31
0.0
  0
LINE
  5
105
330
2
100
AcDbEntity
  8
GEB-KONTUR-A
 48
25.0
100
AcDbLine
 10
-4.161611022673355
 20
-32.30000000000007
 30
0.0
 11
-4.161611022673355
 21
-34.10000000000002
 31
0.0
  0
LINE
  5
106
330
2
100
AcDbEntity
  8
GEB-KONTUR-A
 48
25.0
100
AcDbLine
 10
-4.338745831476444
 20
-34.10000000000002
 30
0.0
 11
-4.84974226119283
 21
-34.10000000000002
 31
0.0
  0
LINE
  5
107
330
2
100
AcDbEntity
  8
GEB-KONTUR-A
 48
25.0
100
AcDbLine
 10
-4.84974226119283
 20
-34.10000000000002
 30
0.0
 11
-4.84974226119283
 21
-32.30000000000007
 31
0.0
  0
LINE
  5
108
330
2
100
AcDbEntity
  8
GEB-KONTUR-A
 48
25.0
100
AcDbLine
 10
-4.161611022673412
 20
-34.10000000000002
 30
0.0
 11
-4.338745831476444
 21
-34.10000000000002
 31
0.0
  0
LINE
  5
109
330
2
100
AcDbEntity
  8
GEB-KONTUR-A
 48
25.0
100
AcDbLine
 10
-2.799999999999954
 20
-32.30000000000007
 30
0.0
 11
-3.747131395609585
 21
-32.30000000000007
 31
0.0
  0
LINE
  5
10A
330
2
100
AcDbEntity
  8
GEB-KONTUR-A
 48
25.0
100
AcDbLine
 10
-2.799999999999954
 20
-32.30000000000007
 30
0.0
 11
-2.799999999999954
 21
-34.10000000000002
 31
0.0
  0
LINE
  5
10B
330
2
100
AcDbEntity
  8
GEB-KONTUR-A
 48
25.0
100
AcDbLine
 10
-2.799999999999954
 20
-34.10000000000002
 30
0.0
 11
-2.866231778807389
 21
-34.10000000000002
 31
0.0
  0
LINE
  5
10C
330
2
100
AcDbEntity
  8
GEB-KONTUR-A
 48
25.0
100
AcDbLine
 10
-3.240678166105055
 20
-34.10000000000002
 30
0.0
 11
-3.747131395609585
 21
-34.10000000000002
 31
0.0
  0
LINE
  5
10D
330
2
100
AcDbEntity
  8
GEB-KONTUR-A
 48
25.0
100
AcDbLine
 10
-3.747131395609585
 20
-34.10000000000002
 30
0.0
 11
-3.747131395609585
 21
-32.30000000000007
 31
0.0
  0
LINE
  5
10E
330
2
100
AcDbEntity
  8
GEB-KONTUR-A
 48
25.0
100
AcDbLine
 10
-2.909536998847727
 20
-32.30000000000007
 30
0.0
 11
-2.909536998847727
 21
-34.10000000000002
 31
0.0
  0
LINE
  5
10F
330
2
100
AcDbEntity
  8
GEB-KONTUR-A
 48
25.0
100
AcDbLine
 10
-2.866231778807446
 20
-34.10000000000002
 30
0.0
 11
-3.240678166105112
 21
-34.10000000000002
 31
0.0
  0
LINE
  5
110
330
2
100
AcDbEntity
  8
GEB-KONTUR-A
 48
25.0
100
AcDbLine
 10
-1.164305468579414
 20
-32.30000000000007
 30
0.0
 11
-2.277725201224455
 21
-32.30000000000007
 31
0.0
  0
LINE
  5
111
330
2
100
AcDbEntity
  8
GEB-KONTUR-A
 48
25.0
100
AcDbLine
 10
-1.164305468579442
 20
-32.30000000000007
 30
0.0
 11
-1.164305468579442
 21
-34.10000000000002
 31
0.0
  0
LINE
  5
112
330
2
100
AcDbEntity
  8
GEB-KONTUR-A
 48
25.0
100
AcDbLine
 10
-1.164305468579442
 20
-34.10000000000002
 30
0.0
 11
-1.385202214247328
 21
-34.10000000000002
 31
0.0
  0
LINE
  5
113
330
2
100
AcDbEntity
  8
GEB-KONTUR-A
 48
25.0
100
AcDbLine
 10
-1.82539034270286
 20
-34.10000000000002
 30
0.0
 11
-2.277725201224455
 21
-34.10000000000002
 31
0.0
  0
LINE
  5
114
330
2
100
AcDbEntity
  8
GEB-KONTUR-A
 48
25.0
100
AcDbLine
 10
-2.277725201224455
 20
-34.10000000000002
 30
0.0
 11
-2.277725201224455
 21
-32.30000000000007
 31
0.0
  0
LINE
  5
115
330
2
100
AcDbEntity
  8
GEB-KONTUR-A
 48
25.0
100
AcDbLine
 10
-1.529634122155982
 20
-32.30000000000007
 30
0.0
 11
-1.529634122155982
 21
-34.10000000000002
 31
0.0
  0
LINE
  5
116
330
2
100
AcDbEntity
  8
GEB-KONTUR-A
 48
25.0
100
AcDbLine
 10
-1.385202214247357
 20
-34.10000000000002
 30
0.0
 11
-1.82539034270286
 21
-34.10000000000002
 31
0.0
  0
LINE
  5
117
330
2
100
AcDbEntity
  8
GEB-KONTUR-A
 48
25.0
100
AcDbLine
 10
0.5853593942988482
 20
-32.30000000000007
 30
0.0
 11
-0.5853593942988198
 21
-32.30000000000007
 31
0.0
  0
LINE
  5
118
330
2
100
AcDbEntity
  8
GEB-KONTUR-A
 48
25.0
100
AcDbLine
 10
0.5853593942989051
 20
-32.30000000000007
 30
0.0
 11
0.5853593942989051
 21
-34.10000000000002
 31
0.0
  0
LINE
  5
119
330
2
100
AcDbEntity
  8
GEB-KONTUR-A
 48
25.0
100
AcDbLine
 10
0.5853593942989051
 20
-34.10000000000002
 30
0.0
 11
0.2314205943145851
 21
-34.10000000000002
 31
0.0
  0
LINE
  5
11A
330
2
100
AcDbEntity
  8
GEB-KONTUR-A
 48
25.0
100
AcDbLine
 10
-0.2314205943145566
 20
-34.10000000000002
 30
0.0
 11
-0.5853593942988198
 21
-34.10000000000002
 31
0.0
  0
LINE
  5
11B
330
2
100
AcDbEntity
  8
GEB-KONTUR-A
 48
25.0
100
AcDbLine
 10
-0.5853593942988198
 20
-34.10000000000002
 30
0.0
 11
-0.5853593942988198
 21
-32.30000000000007
 31
0.0
  0
LINE
  5
11C
330
2
100
AcDbEntity
  8
GEB-KONTUR-A
 48
25.0
100
AcDbLine
 10
0.0
 20
-32.30000000000007
 30
0.0
 11
0.0
 21
-34.10000000000002
 31
0.0
  0
LINE
  5
11D
330
2
100
AcDbEntity
  8
GEB-KONTUR-A
 48
25.0
100
AcDbLine
 10
0.2314205943145851
 20
-34.10000000000002
 30
0.0
 11
-0.2314205943145566
 21
-34.10000000000002
 31
0.0
  0
LINE
  5
11E
330
2
100
AcDbEntity
  8
GEB-KONTUR-A
 48
25.0
100
AcDbLine
 10
2.277725201224512
 20
-32.30000000000007
 30
0.0
 11
1.16430546857947
 21
-32.30000000000007
 31
0.0
  0
LINE
  5
11F
330
2
100
AcDbEntity
  8
GEB-KONTUR-A
 48
25.0
100
AcDbLine
 10
2.277725201224484
 20
-32.30000000000007
 30
0.0
 11
2.277725201224484
 21
-34.10000000000002
 31
0.0
  0
LINE
  5
120
330
2
100
AcDbEntity
  8
GEB-KONTUR-A
 48
25.0
100
AcDbLine
 10
2.277725201224484
 20
-34.10000000000002
 30
0.0
 11
1.825390342702888
 21
-34.10000000000002
 31
0.0
  0
LINE
  5
121
330
2
100
AcDbEntity
  8
GEB-KONTUR-A
 48
25.0
100
AcDbLine
 10
1.385202214247357
 20
-34.10000000000002
 30
0.0
 11
1.16430546857947
 21
-34.10000000000002
 31
0.0
  0
LINE
  5
122
330
2
100
AcDbEntity
  8
GEB-KONTUR-A
 48
25.0
100
AcDbLine
 10
1.16430546857947
 20
-34.10000000000002
 30
0.0
 11
1.16430546857947
 21
-32.30000000000007
 31
0.0
  0
LINE
  5
123
330
2
100
AcDbEntity
  8
GEB-KONTUR-A
 48
25.0
100
AcDbLine
 10
1.529634122155982
 20
-32.30000000000007
 30
0.0
 11
1.529634122155982
 21
-34.10000000000002
 31
0.0
  0
LINE
  5
124
330
2
100
AcDbEntity
  8
GEB-KONTUR-A
 48
25.0
100
AcDbLine
 10
1.825390342702888
 20
-34.10000000000002
 30
0.0
 11
1.385202214247385
 21
-34.10000000000002
 31
0.0
  0
LINE
  5
125
330
2
100
AcDbEntity
  8
GEB-KONTUR-A
 48
25.0
100
AcDbLine
 10
3.747131395609613
 20
-32.30000000000007
 30
0.0
 11
2.800000000000011
 21
-32.30000000000007
 31
0.0
  0
LINE
  5
126
330
2
100
AcDbEntity
  8
GEB-KONTUR-A
 48
25.0
100
AcDbLine
 10
3.747131395609613
 20
-32.30000000000007
 30
0.0
 11
3.747131395609613
 21
-34.10000000000002
 31
0.0
  0
LINE
  5
127
330
2
100
AcDbEntity
  8
GEB-KONTUR-A
 48
25.0
100
AcDbLine
 10
3.747131395609613
 20
-34.10000000000002
 30
0.0
 11
3.240678166105112
 21
-34.10000000000002
 31
0.0
  0
LINE
  5
128
330
2
100
AcDbEntity
  8
GEB-KONTUR-A
 48
25.0
100
AcDbLine
 10
2.866231778807446
 20
-34.10000000000002
 30
0.0
 11
2.800000000000011
 21
-34.10000000000002
 31
0.0
  0
LINE
  5
129
330
2
100
AcDbEntity
  8
GEB-KONTUR-A
 48
25.0
100
AcDbLine
 10
2.800000000000011
 20
-34.10000000000002
 30
0.0
 11
2.800000000000011
 21
-32.30000000000007
 31
0.0
  0
LINE
  5
12A
330
2
100
AcDbEntity
  8
GEB-KONTUR-A
 48
25.0
100
AcDbLine
 10
2.909536998847755
 20
-32.30000000000007
 30
0.0
 11
2.909536998847755
 21
-34.10000000000002
 31
0.0
  0
LINE
  5
12B
330
2
100
AcDbEntity
  8
GEB-KONTUR-A
 48
25.0
100
AcDbLine
 10
3.240678166105055
 20
-34.10000000000002
 30
0.0
 11
2.866231778807446
 21
-34.10000000000002
 31
0.0
  0
LINE
  5
12C
330
2
100
AcDbEntity
  8
GEB-KONTUR-A
 48
25.0
100
AcDbLine
 10
4.849742261192886
 20
-32.30000000000007
 30
0.0
 11
4.161611022673412
 21
-32.30000000000007
 31
0.0
  0
LINE
  5
12D
330
2
100
AcDbEntity
  8
GEB-KONTUR-A
 48
25.0
100
AcDbLine
 10
4.849742261192886
 20
-32.30000000000007
 30
0.0
 11
4.849742261192886
 21
-34.10000000000002
 31
0.0
  0
LINE
  5
12E
330
2
100
AcDbEntity
  8
GEB-KONTUR-A
 48
25.0
100
AcDbLine
 10
4.849742261192886
 20
-34.10000000000002
 30
0.0
 11
4.338745831476472
 21
-34.10000000000002
 31
0.0
  0
LINE
  5
12F
330
2
100
AcDbEntity
  8
GEB-KONTUR-A
 48
25.0
100
AcDbLine
 10
4.161611022673412
 20
-34.10000000000002
 30
0.0
 11
4.161611022673412
 21
-32.30000000000007
 31
0.0
  0
LINE
  5
130
330
2
100
AcDbEntity
  8
GEB-KONTUR-A
 48
25.0
100
AcDbLine
 10
4.338745831476472
 20
-34.10000000000002
 30
0.0
 11
4.161611022673412
 21
-34.10000000000002
 31
0.0
  0
LINE
  5
131
330
2
100
AcDbEntity
  8
GEB-KONTUR-A
 48
25.0
100
AcDbLine
 10
5.4776265641093
 20
-32.30000000000007
 30
0.0
 11
5.115854562798574
 21
-32.30000000000007
 31
0.0
  0
LINE
  5
132
330
2
100
AcDbEntity
  8
GEB-KONTUR-A
 48
25.0
100
AcDbLine
 10
5.4776265641093
 20
-32.30000000000007
 30
0.0
 11
5.4776265641093
 21
-34.10000000000002
 31
0.0
  0
LINE
  5
133
330
2
100
AcDbEntity
  8
GEB-KONTUR-A
 48
25.0
100
AcDbLine
 10
5.4776265641093
 20
-34.10000000000002
 30
0.0
 11
5.115854562798574
 21
-34.10000000000002
 31
0.0
  0
LINE
  5
134
330
2
100
AcDbEntity
  8
GEB-KONTUR-A
 48
25.0
100
AcDbLine
 10
5.115854562798574
 20
-34.10000000000002
 30
0.0
 11
5.115854562798574
 21
-32.30000000000007
 31
0.0
  0
LINE
  5
135
330
2
100
AcDbEntity
  8
GEB-KONTUR-A
 48
25.0
100
AcDbLine
 10
5.600000000000022
 20
-32.30000000000007
 30
0.0
 11
5.569322614062343
 21
-32.30000000000007
 31
0.0
  0
LINE
  5
136
330
2
100
AcDbEntity
  8
GEB-KONTUR-A
 48
25.0
100
AcDbLine
 10
5.569322614062343
 20
-34.10000000000002
 30
0.0
 11
5.569322614062343
 21
-32.30000000000007
 31
0.0
  0
LINE
  5
137
330
2
100
AcDbEntity
  8
GEB-VERDECKT
 48
25.0
100
AcDbLine
 10
-5.4776265641093
 20
-32.30000000000007
 30
0.0
 11
-5.569322614062286
 21
-32.30000000000007
 31
0.0
  0
LINE
  5
138
330
2
100
AcDbEntity
  8
GEB-VERDECKT
 48
25.0
100
AcDbLine
 10
-4.94999999999996
 20
-32.30000000000007
 30
0.0
 11
-4.94999999999996
 21
-34.10000000000002
 31
0.0
  0
LINE
  5
139
330
2
100
AcDbEntity
  8
GEB-VERDECKT
 48
25.0
100
AcDbLine
 10
-4.84974226119283
 20
-32.30000000000007
 30
0.0
 11
-5.115854562798546
 21
-32.30000000000007
 31
0.0
  0
LINE
  5
13A
330
2
100
AcDbEntity
  8
GEB-VERDECKT
 48
25.0
100
AcDbLine
 10
-4.707729755660977
 20
-32.30000000000007
 30
0.0
 11
-4.707729755660977
 21
-34.10000000000002
 31
0.0
  0
LINE
  5
13B
330
2
100
AcDbEntity
  8
GEB-VERDECKT
 48
25.0
100
AcDbLine
 10
-4.004634122155948
 20
-32.30000000000007
 30
0.0
 11
-4.161611022673355
 21
-32.30000000000007
 31
0.0
  0
LINE
  5
13C
330
2
100
AcDbEntity
  8
GEB-VERDECKT
 48
25.0
100
AcDbLine
 10
-4.004634122155948
 20
-32.30000000000007
 30
0.0
 11
-4.004634122155948
 21
-34.10000000000002
 31
0.0
  0
LINE
  5
13D
330
2
100
AcDbEntity
  8
GEB-VERDECKT
 48
25.0
100
AcDbLine
 10
4.161611022673412
 20
-32.30000000000007
 30
0.0
 11
4.004634122155977
 21
-32.30000000000007
 31
0.0
  0
LINE
  5
13E
330
2
100
AcDbEntity
  8
GEB-VERDECKT
 48
25.0
100
AcDbLine
 10
4.004634122155977
 20
-32.30000000000007
 30
0.0
 11
4.004634122155977
 21
-34.10000000000002
 31
0.0
  0
LINE
  5
13F
330
2
100
AcDbEntity
  8
GEB-VERDECKT
 48
25.0
100
AcDbLine
 10
5.115854562798574
 20
-32.30000000000007
 30
0.0
 11
4.849742261192886
 21
-32.30000000000007
 31
0.0
  0
LINE
  5
140
330
2
100
AcDbEntity
  8
GEB-VERDECKT
 48
25.0
100
AcDbLine
 10
4.707729755661034
 20
-32.30000000000007
 30
0.0
 11
4.707729755661034
 21
-34.10000000000002
 31
0.0
  0
LINE
  5
141
330
2
100
AcDbEntity
  8
GEB-VERDECKT
 48
25.0
100
AcDbLine
 10
5.569322614062343
 20
-32.30000000000007
 30
0.0
 11
5.4776265641093
 21
-32.30000000000007
 31
0.0
  0
LINE
  5
142
330
2
100
AcDbEntity
  8
GEB-VERDECKT
 48
25.0
100
AcDbLine
 10
4.949999999999988
 20
-32.30000000000007
 30
0.0
 11
4.949999999999988
 21
-34.10000000000002
 31
0.0
  0
ARC
  5
143
330
2
100
AcDbEntity
  8
GEB-VERDECKT
 48
25.0
100
AcDbCircle
 10
-47.59999999999999
 20
-4.635639852470944
 30
0.0
 40
0.3999999999999996
100
AcDbArc
 50
100.0000000000002
 51
180.0
  0
ARC
  5
144
330
2
100
AcDbEntity
  8
GEB-VERDECKT
 48
25.0
100
AcDbCircle
 10
-47.59999999999999
 20
4.635639852470944
 30
0.0
 40
0.3999999999999996
100
AcDbArc
 50
180.0
 51
259.9999999999998
  0
LINE
  5
145
330
2
100
AcDbEntity
  8
GEB-VERDECKT
 48
25.0
100
AcDbLine
 10
-22.0
 20
3.25
 30
0.0
 11
-42.04515408940141
 21
3.25
 31
0.0
  0
LINE
  5
146
330
2
100
AcDbEntity
  8
GEB-VERDECKT
 48
25.0
100
AcDbLine
 10
-22.0
 20
-3.25
 30
0.0
 11
-42.04515408940141
 21
-3.25
 31
0.0
  0
LINE
  5
147
330
2
100
AcDbEntity
  8
GEB-VERDECKT
 48
25.0
100
AcDbLine
 10
-42.04515408940141
 20
3.25
 30
0.0
 11
-47.66945927106678
 21
4.241716751266039
 31
0.0
  0
LINE
  5
148
330
2
100
AcDbEntity
  8
GEB-VERDECKT
 48
25.0
100
AcDbLine
 10
-42.04515408940141
 20
-3.25
 30
0.0
 11
-47.66945927106678
 21
-4.241716751266039
 31
0.0
  0
LINE
  5
149
330
2
100
AcDbEntity
  8
GEB-VERDECKT
 48
25.0
100
AcDbLine
 10
-42.04515408940141
 20
3.25
 30
0.0
 11
-42.04515408940141
 21
-3.25
 31
0.0
  0
LINE
  5
14A
330
2
100
AcDbEntity
  8
GEB-VERDECKT
 48
25.0
100
AcDbLine
 10
-28.30000000000001
 20
5.569322614062343
 30
0.0
 11
-28.30000000000001
 21
5.4776265641093
 31
0.0
  0
LINE
  5
14B
330
2
100
AcDbEntity
  8
GEB-VERDECKT
 48
25.0
100
AcDbLine
 10
-26.5
 20
4.950000000000045
 30
0.0
 11
-28.30000000000001
 21
4.950000000000045
 31
0.0
  0
LINE
  5
14C
330
2
100
AcDbEntity
  8
GEB-KONTUR-A
 48
25.0
100
AcDbLine
 10
-28.30000000000004
 20
5.600000000000022
 30
0.0
 11
-28.30000000000004
 21
5.569322614062343
 31
0.0
  0
LINE
  5
14D
330
2
100
AcDbEntity
  8
GEB-KONTUR-A
 48
25.0
100
AcDbLine
 10
-26.5
 20
5.569322614062343
 30
0.0
 11
-28.30000000000001
 21
5.569322614062343
 31
0.0
  0
LINE
  5
14E
330
2
100
AcDbEntity
  8
GEB-KONTUR-A
 48
25.0
100
AcDbLine
 10
-28.30000000000004
 20
5.4776265641093
 30
0.0
 11
-28.30000000000004
 21
5.115854562798631
 31
0.0
  0
LINE
  5
14F
330
2
100
AcDbEntity
  8
GEB-KONTUR-A
 48
25.0
100
AcDbLine
 10
-26.5
 20
5.115854562798631
 30
0.0
 11
-28.30000000000001
 21
5.115854562798631
 31
0.0
  0
LINE
  5
150
330
2
100
AcDbEntity
  8
GEB-KONTUR-A
 48
25.0
100
AcDbLine
 10
-28.30000000000001
 20
5.4776265641093
 30
0.0
 11
-26.5
 21
5.4776265641093
 31
0.0
  0
LINE
  5
151
330
2
100
AcDbEntity
  8
GEB-KONTUR-A
 48
25.0
100
AcDbLine
 10
-26.5
 20
5.4776265641093
 30
0.0
 11
-26.5
 21
5.115854562798631
 31
0.0
  0
LINE
  5
152
330
2
100
AcDbEntity
  8
GEB-KONTUR-A
 48
25.0
100
AcDbLine
 10
-28.30000000000004
 20
4.849742261192773
 30
0.0
 11
-28.30000000000004
 21
4.161611022673355
 31
0.0
  0
LINE
  5
153
330
2
100
AcDbEntity
  8
GEB-KONTUR-A
 48
25.0
100
AcDbLine
 10
-26.5
 20
4.161611022673355
 30
0.0
 11
-28.30000000000001
 21
4.161611022673355
 31
0.0
  0
LINE
  5
154
330
2
100
AcDbEntity
  8
GEB-KONTUR-A
 48
25.0
100
AcDbLine
 10
-28.30000000000001
 20
4.849742261192886
 30
0.0
 11
-26.5
 21
4.849742261192886
 31
0.0
  0
LINE
  5
155
330
2
100
AcDbEntity
  8
GEB-KONTUR-A
 48
25.0
100
AcDbLine
 10
-26.5
 20
4.849742261192886
 30
0.0
 11
-26.5
 21
4.161611022673355
 31
0.0
  0
LINE
  5
156
330
2
100
AcDbEntity
  8
GEB-KONTUR-A
 48
25.0
100
AcDbLine
 10
-28.30000000000004
 20
3.747131395609471
 30
0.0
 11
-28.30000000000004
 21
2.800000000000068
 31
0.0
  0
LINE
  5
157
330
2
100
AcDbEntity
  8
GEB-KONTUR-A
 48
25.0
100
AcDbLine
 10
-26.5
 20
2.90953699884767
 30
0.0
 11
-26.5
 21
2.800000000000068
 31
0.0
  0
LINE
  5
158
330
2
100
AcDbEntity
  8
GEB-KONTUR-A
 48
25.0
100
AcDbLine
 10
-26.5
 20
2.800000000000068
 30
0.0
 11
-28.30000000000001
 21
2.800000000000068
 31
0.0
  0
LINE
  5
159
330
2
100
AcDbEntity
  8
GEB-KONTUR-A
 48
25.0
100
AcDbLine
 10
-28.30000000000001
 20
3.747131395609699
 30
0.0
 11
-26.5
 21
3.747131395609699
 31
0.0
  0
LINE
  5
15A
330
2
100
AcDbEntity
  8
GEB-KONTUR-A
 48
25.0
100
AcDbLine
 10
-26.5
 20
3.747131395609699
 30
0.0
 11
-26.5
 21
2.90953699884767
 31
0.0
  0
LINE
  5
15B
330
2
100
AcDbEntity
  8
GEB-KONTUR-A
 48
25.0
100
AcDbLine
 10
-26.5
 20
2.90953699884767
 30
0.0
 11
-28.30000000000001
 21
2.90953699884767
 31
0.0
  0
LINE
  5
15C
330
2
100
AcDbEntity
  8
GEB-KONTUR-A
 48
25.0
100
AcDbLine
 10
-28.30000000000004
 20
2.27772520122437
 30
0.0
 11
-28.30000000000004
 21
1.164305468579414
 31
0.0
  0
LINE
  5
15D
330
2
100
AcDbEntity
  8
GEB-KONTUR-A
 48
25.0
100
AcDbLine
 10
-26.5
 20
1.529634122155925
 30
0.0
 11
-26.5
 21
1.164305468579414
 31
0.0
  0
LINE
  5
15E
330
2
100
AcDbEntity
  8
GEB-KONTUR-A
 48
25.0
100
AcDbLine
 10
-26.5
 20
1.164305468579414
 30
0.0
 11
-28.30000000000001
 21
1.164305468579414
 31
0.0
  0
LINE
  5
15F
330
2
100
AcDbEntity
  8
GEB-KONTUR-A
 48
25.0
100
AcDbLine
 10
-28.30000000000001
 20
2.27772520122437
 30
0.0
 11
-26.5
 21
2.27772520122437
 31
0.0
  0
LINE
  5
160
330
2
100
AcDbEntity
  8
GEB-KONTUR-A
 48
25.0
100
AcDbLine
 10
-26.5
 20
2.27772520122437
 30
0.0
 11
-26.5
 21
1.529634122155925
 31
0.0
  0
LINE
  5
161
330
2
100
AcDbEntity
  8
GEB-KONTUR-A
 48
25.0
100
AcDbLine
 10
-26.5
 20
1.529634122155925
 30
0.0
 11
-28.30000000000001
 21
1.529634122155925
 31
0.0
  0
LINE
  5
162
330
2
100
AcDbEntity
  8
GEB-KONTUR-A
 48
25.0
100
AcDbLine
 10
-28.30000000000004
 20
0.5853593942987346
 30
0.0
 11
-28.30000000000004
 21
-0.5853593942988482
 31
0.0
  0
LINE
  5
163
330
2
100
AcDbEntity
  8
GEB-KONTUR-A
 48
25.0
100
AcDbLine
 10
-26.5
 20
0.0
 30
0.0
 11
-26.5
 21
-0.5853593942988482
 31
0.0
  0
LINE
  5
164
330
2
100
AcDbEntity
  8
GEB-KONTUR-A
 48
25.0
100
AcDbLine
 10
-26.5
 20
-0.5853593942988482
 30
0.0
 11
-28.30000000000001
 21
-0.5853593942988482
 31
0.0
  0
LINE
  5
165
330
2
100
AcDbEntity
  8
GEB-KONTUR-A
 48
25.0
100
AcDbLine
 10
-28.30000000000001
 20
0.5853593942988482
 30
0.0
 11
-26.5
 21
0.5853593942988482
 31
0.0
  0
LINE
  5
166
330
2
100
AcDbEntity
  8
GEB-KONTUR-A
 48
25.0
100
AcDbLine
 10
-26.5
 20
0.5853593942988482
 30
0.0
 11
-26.5
 21
0.0
 31
0.0
  0
LINE
  5
167
330
2
100
AcDbEntity
  8
GEB-KONTUR-A
 48
25.0
100
AcDbLine
 10
-26.5
 20
0.0
 30
0.0
 11
-28.30000000000001
 21
0.0
 31
0.0
  0
LINE
  5
168
330
2
100
AcDbEntity
  8
GEB-KONTUR-A
 48
25.0
100
AcDbLine
 10
-28.30000000000004
 20
-1.164305468579414
 30
0.0
 11
-28.30000000000004
 21
-2.27772520122437
 31
0.0
  0
LINE
  5
169
330
2
100
AcDbEntity
  8
GEB-KONTUR-A
 48
25.0
100
AcDbLine
 10
-26.5
 20
-1.529634122155925
 30
0.0
 11
-26.5
 21
-2.277725201224484
 31
0.0
  0
LINE
  5
16A
330
2
100
AcDbEntity
  8
GEB-KONTUR-A
 48
25.0
100
AcDbLine
 10
-26.5
 20
-2.277725201224484
 30
0.0
 11
-28.30000000000001
 21
-2.277725201224484
 31
0.0
  0
LINE
  5
16B
330
2
100
AcDbEntity
  8
GEB-KONTUR-A
 48
25.0
100
AcDbLine
 10
-28.30000000000001
 20
-1.164305468579414
 30
0.0
 11
-26.5
 21
-1.164305468579414
 31
0.0
  0
LINE
  5
16C
330
2
100
AcDbEntity
  8
GEB-KONTUR-A
 48
25.0
100
AcDbLine
 10
-26.5
 20
-1.164305468579414
 30
0.0
 11
-26.5
 21
-1.529634122155925
 31
0.0
  0
LINE
  5
16D
330
2
100
AcDbEntity
  8
GEB-KONTUR-A
 48
25.0
100
AcDbLine
 10
-26.5
 20
-1.529634122155925
 30
0.0
 11
-28.30000000000001
 21
-1.529634122155925
 31
0.0
  0
LINE
  5
16E
330
2
100
AcDbEntity
  8
GEB-KONTUR-A
 48
25.0
100
AcDbLine
 10
-28.30000000000004
 20
-2.800000000000068
 30
0.0
 11
-28.30000000000004
 21
-3.747131395609585
 31
0.0
  0
LINE
  5
16F
330
2
100
AcDbEntity
  8
GEB-KONTUR-A
 48
25.0
100
AcDbLine
 10
-26.5
 20
-2.909536998847784
 30
0.0
 11
-26.5
 21
-3.747131395609585
 31
0.0
  0
LINE
  5
170
330
2
100
AcDbEntity
  8
GEB-KONTUR-A
 48
25.0
100
AcDbLine
 10
-26.5
 20
-3.747131395609585
 30
0.0
 11
-28.30000000000001
 21
-3.747131395609585
 31
0.0
  0
LINE
  5
171
330
2
100
AcDbEntity
  8
GEB-KONTUR-A
 48
25.0
100
AcDbLine
 10
-28.30000000000001
 20
-2.800000000000068
 30
0.0
 11
-26.5
 21
-2.800000000000068
 31
0.0
  0
LINE
  5
172
330
2
100
AcDbEntity
  8
GEB-KONTUR-A
 48
25.0
100
AcDbLine
 10
-26.5
 20
-2.800000000000068
 30
0.0
 11
-26.5
 21
-2.909536998847784
 31
0.0
  0
LINE
  5
173
330
2
100
AcDbEntity
  8
GEB-KONTUR-A
 48
25.0
100
AcDbLine
 10
-26.5
 20
-2.909536998847784
 30
0.0
 11
-28.30000000000001
 21
-2.909536998847784
 31
0.0
  0
LINE
  5
174
330
2
100
AcDbEntity
  8
GEB-KONTUR-A
 48
25.0
100
AcDbLine
 10
-28.30000000000004
 20
-4.161611022673469
 30
0.0
 11
-28.30000000000004
 21
-4.849742261192886
 31
0.0
  0
LINE
  5
175
330
2
100
AcDbEntity
  8
GEB-KONTUR-A
 48
25.0
100
AcDbLine
 10
-26.5
 20
-4.161611022673355
 30
0.0
 11
-26.5
 21
-4.849742261192886
 31
0.0
  0
LINE
  5
176
330
2
100
AcDbEntity
  8
GEB-KONTUR-A
 48
25.0
100
AcDbLine
 10
-26.5
 20
-4.849742261192886
 30
0.0
 11
-28.30000000000001
 21
-4.849742261192886
 31
0.0
  0
LINE
  5
177
330
2
100
AcDbEntity
  8
GEB-KONTUR-A
 48
25.0
100
AcDbLine
 10
-28.30000000000001
 20
-4.161611022673355
 30
0.0
 11
-26.5
 21
-4.161611022673355
 31
0.0
  0
LINE
  5
178
330
2
100
AcDbEntity
  8
GEB-KONTUR-A
 48
25.0
100
AcDbLine
 10
-28.30000000000004
 20
-5.115854562798631
 30
0.0
 11
-28.30000000000004
 21
-5.477626564109414
 31
0.0
  0
LINE
  5
179
330
2
100
AcDbEntity
  8
GEB-KONTUR-A
 48
25.0
100
AcDbLine
 10
-26.5
 20
-5.115854562798517
 30
0.0
 11
-26.5
 21
-5.4776265641093
 31
0.0
  0
LINE
  5
17A
330
2
100
AcDbEntity
  8
GEB-KONTUR-A
 48
25.0
100
AcDbLine
 10
-26.5
 20
-5.4776265641093
 30
0.0
 11
-28.30000000000001
 21
-5.4776265641093
 31
0.0
  0
LINE
  5
17B
330
2
100
AcDbEntity
  8
GEB-KONTUR-A
 48
25.0
100
AcDbLine
 10
-28.30000000000001
 20
-5.115854562798517
 30
0.0
 11
-26.5
 21
-5.115854562798517
 31
0.0
  0
LINE
  5
17C
330
2
100
AcDbEntity
  8
GEB-KONTUR-A
 48
25.0
100
AcDbLine
 10
-28.30000000000004
 20
-5.56932261406223
 30
0.0
 11
-28.30000000000004
 21
-5.599999999999909
 31
0.0
  0
LINE
  5
17D
330
2
100
AcDbEntity
  8
GEB-KONTUR-A
 48
25.0
100
AcDbLine
 10
-28.30000000000001
 20
-5.569322614062343
 30
0.0
 11
-26.5
 21
-5.569322614062343
 31
0.0
  0
LINE
  5
17E
330
2
100
AcDbEntity
  8
GEB-VERDECKT
 48
25.0
100
AcDbLine
 10
-28.30000000000001
 20
5.115854562798631
 30
0.0
 11
-28.30000000000001
 21
4.849742261192886
 31
0.0
  0
LINE
  5
17F
330
2
100
AcDbEntity
  8
GEB-VERDECKT
 48
25.0
100
AcDbLine
 10
-26.5
 20
4.707729755661034
 30
0.0
 11
-28.30000000000001
 21
4.707729755661034
 31
0.0
  0
LINE
  5
180
330
2
100
AcDbEntity
  8
GEB-VERDECKT
 48
25.0
100
AcDbLine
 10
-28.30000000000001
 20
4.161611022673355
 30
0.0
 11
-28.30000000000001
 21
4.004634122156062
 31
0.0
  0
LINE
  5
181
330
2
100
AcDbEntity
  8
GEB-VERDECKT
 48
25.0
100
AcDbLine
 10
-26.5
 20
4.004634122156062
 30
0.0
 11
-28.30000000000001
 21
4.004634122156062
 31
0.0
  0
LINE
  5
182
330
2
100
AcDbEntity
  8
GEB-VERDECKT
 48
25.0
100
AcDbLine
 10
-26.5
 20
-4.004634122156062
 30
0.0
 11
-28.30000000000001
 21
-4.004634122156062
 31
0.0
  0
LINE
  5
183
330
2
100
AcDbEntity
  8
GEB-VERDECKT
 48
25.0
100
AcDbLine
 10
-28.30000000000001
 20
-4.004634122156062
 30
0.0
 11
-28.30000000000001
 21
-4.161611022673355
 31
0.0
  0
LINE
  5
184
330
2
100
AcDbEntity
  8
GEB-VERDECKT
 48
25.0
100
AcDbLine
 10
-26.5
 20
-4.707729755661034
 30
0.0
 11
-28.30000000000001
 21
-4.707729755661034
 31
0.0
  0
LINE
  5
185
330
2
100
AcDbEntity
  8
GEB-VERDECKT
 48
25.0
100
AcDbLine
 10
-28.30000000000001
 20
-4.849742261192886
 30
0.0
 11
-28.30000000000001
 21
-5.115854562798517
 31
0.0
  0
LINE
  5
186
330
2
100
AcDbEntity
  8
GEB-VERDECKT
 48
25.0
100
AcDbLine
 10
-26.5
 20
-4.949999999999931
 30
0.0
 11
-28.30000000000001
 21
-4.949999999999931
 31
0.0
  0
LINE
  5
187
330
2
100
AcDbEntity
  8
GEB-VERDECKT
 48
25.0
100
AcDbLine
 10
-28.30000000000001
 20
-5.4776265641093
 30
0.0
 11
-28.30000000000001
 21
-5.569322614062343
 31
0.0
  0
ARC
  5
188
330
2
100
AcDbEntity
  8
GEB-KONTUR-A
 48
25.0
100
AcDbCircle
 10
-42.69999999999998
 20
8.299999999999954
 30
0.0
 40
3.399999999999996
100
AcDbArc
 50
232.5719944569557
 51
307.4280055430443
  0
ARC
  5
189
330
2
100
AcDbEntity
  8
GEB-KONTUR-A
 48
25.0
100
AcDbCircle
 10
-42.69999999999998
 20
-8.299999999999954
 30
0.0
 40
3.399999999999996
100
AcDbArc
 50
52.57199445695702
 51
127.4280055430442
  0
LINE
  5
18A
330
2
100
AcDbEntity
  8
GEB-KONTUR-A
 48
25.0
100
AcDbLine
 10
-44.76639783197717
 20
5.600000000000022
 30
0.0
 11
-44.76639783197717
 21
-5.600000000000022
 31
0.0
  0
LINE
  5
18B
330
2
100
AcDbEntity
  8
GEB-KONTUR-A
 48
25.0
100
AcDbLine
 10
-40.63360216802283
 20
-5.600000000000022
 30
0.0
 11
-40.63360216802283
 21
5.600000000000022
 31
0.0
  0
LINE
  5
18C
330
2
100
AcDbEntity
  8
GEB-KONTUR-A
 48
25.0
100
AcDbLine
 10
-37.20000000000002
 20
-4.200000000000045
 30
0.0
 11
-35.20000000000002
 21
-4.200000000000045
 31
0.0
  0
LINE
  5
18D
330
2
100
AcDbEntity
  8
GEB-KONTUR-A
 48
25.0
100
AcDbLine
 10
-37.20000000000002
 20
4.200000000000045
 30
0.0
 11
-35.20000000000002
 21
4.200000000000045
 31
0.0
  0
LINE
  5
18E
330
2
100
AcDbEntity
  8
GEB-KONTUR-A
 48
25.0
100
AcDbLine
 10
-35.20000000000002
 20
-5.199999999999931
 30
0.0
 11
-34.10000000000002
 21
-5.199999999999931
 31
0.0
  0
LINE
  5
18F
330
2
100
AcDbEntity
  8
GEB-KONTUR-A
 48
25.0
100
AcDbLine
 10
-35.20000000000002
 20
5.199999999999931
 30
0.0
 11
-34.10000000000002
 21
5.199999999999931
 31
0.0
  0
LINE
  5
190
330
2
100
AcDbEntity
  8
GEB-KONTUR-A
 48
25.0
100
AcDbLine
 10
-26.5
 20
-4.949999999999931
 30
0.0
 11
-25.47125920269684
 21
-4.949999999999931
 31
0.0
  0
LINE
  5
191
330
2
100
AcDbEntity
  8
GEB-KONTUR-A
 48
25.0
100
AcDbLine
 10
-26.5
 20
4.950000000000045
 30
0.0
 11
-25.47125920269684
 21
4.950000000000045
 31
0.0
  0
LINE
  5
192
330
2
100
AcDbEntity
  8
GEB-KONTUR-A
 48
25.0
100
AcDbLine
 10
-25.47125920269684
 20
-4.949999999999931
 30
0.0
 11
-24.90000000000001
 21
-5.350000000000022
 31
0.0
  0
LINE
  5
193
330
2
100
AcDbEntity
  8
GEB-KONTUR-A
 48
25.0
100
AcDbLine
 10
-25.47125920269684
 20
4.950000000000045
 30
0.0
 11
-24.90000000000001
 21
5.350000000000022
 31
0.0
  0
LINE
  5
194
330
2
100
AcDbEntity
  8
GEB-KONTUR-A
 48
25.0
100
AcDbLine
 10
-24.90000000000001
 20
-4.949999999999931
 30
0.0
 11
-23.97125920269684
 21
-4.949999999999931
 31
0.0
  0
LINE
  5
195
330
2
100
AcDbEntity
  8
GEB-KONTUR-A
 48
25.0
100
AcDbLine
 10
-24.90000000000001
 20
4.950000000000045
 30
0.0
 11
-23.97125920269684
 21
4.950000000000045
 31
0.0
  0
LINE
  5
196
330
2
100
AcDbEntity
  8
GEB-KONTUR-A
 48
25.0
100
AcDbLine
 10
-23.97125920269684
 20
-4.949999999999931
 30
0.0
 11
-23.40000000000003
 21
-5.350000000000022
 31
0.0
  0
LINE
  5
197
330
2
100
AcDbEntity
  8
GEB-KONTUR-A
 48
25.0
100
AcDbLine
 10
-23.97125920269684
 20
4.950000000000045
 30
0.0
 11
-23.40000000000003
 21
5.350000000000022
 31
0.0
  0
LINE
  5
198
330
2
100
AcDbEntity
  8
GEB-KONTUR-A
 48
25.0
100
AcDbLine
 10
-23.40000000000003
 20
-5.100000000000022
 30
0.0
 11
-22.0
 21
-5.100000000000022
 31
0.0
  0
LINE
  5
199
330
2
100
AcDbEntity
  8
GEB-KONTUR-A
 48
25.0
100
AcDbLine
 10
-23.40000000000003
 20
5.100000000000022
 30
0.0
 11
-22.0
 21
5.100000000000022
 31
0.0
  0
ARC
  5
19A
330
2
100
AcDbEntity
  8
GEB-KONTUR-A
 48
25.0
100
AcDbCircle
 10
-47.59999999999999
 20
4.911706186112155
 30
0.0
 40
0.3999999999999996
100
AcDbArc
 50
100.0000000000002
 51
180.0
  0
ARC
  5
19B
330
2
100
AcDbEntity
  8
GEB-KONTUR-A
 48
25.0
100
AcDbCircle
 10
-47.59999999999999
 20
-4.911706186112155
 30
0.0
 40
0.3999999999999996
100
AcDbArc
 50
180.0
 51
259.9999999999998
  0
LINE
  5
19C
330
2
100
AcDbEntity
  8
GEB-KONTUR-A
 48
25.0
100
AcDbLine
 10
-47.66945927106678
 20
-5.30562928731706
 30
0.0
 11
-46.0
 21
-5.600000000000022
 31
0.0
  0
LINE
  5
19D
330
2
100
AcDbEntity
  8
GEB-KONTUR-A
 48
25.0
100
AcDbLine
 10
-47.66945927106678
 20
5.305629287316946
 30
0.0
 11
-46.0
 21
5.600000000000022
 31
0.0
  0
LINE
  5
19E
330
2
100
AcDbEntity
  8
GEB-KONTUR-A
 48
25.0
100
AcDbLine
 10
-40.63360216802277
 20
-5.600000000000022
 30
0.0
 11
-38.30000000000001
 21
-5.600000000000022
 31
0.0
  0
LINE
  5
19F
330
2
100
AcDbEntity
  8
GEB-KONTUR-A
 48
25.0
100
AcDbLine
 10
-40.63360216802277
 20
5.600000000000022
 30
0.0
 11
-38.30000000000001
 21
5.600000000000022
 31
0.0
  0
LINE
  5
1A0
330
2
100
AcDbEntity
  8
GEB-KONTUR-A
 48
25.0
100
AcDbLine
 10
-38.30000000000001
 20
-5.199999999999931
 30
0.0
 11
-37.20000000000002
 21
-5.199999999999931
 31
0.0
  0
LINE
  5
1A1
330
2
100
AcDbEntity
  8
GEB-KONTUR-A
 48
25.0
100
AcDbLine
 10
-38.30000000000001
 20
5.199999999999931
 30
0.0
 11
-37.20000000000002
 21
5.199999999999931
 31
0.0
  0
LINE
  5
1A2
330
2
100
AcDbEntity
  8
GEB-KONTUR-A
 48
25.0
100
AcDbLine
 10
-32.30000000000001
 20
-5.600000000000022
 30
0.0
 11
-28.30000000000001
 21
-5.600000000000022
 31
0.0
  0
LINE
  5
1A3
330
2
100
AcDbEntity
  8
GEB-KONTUR-A
 48
25.0
100
AcDbLine
 10
-32.30000000000001
 20
5.600000000000022
 30
0.0
 11
-28.30000000000001
 21
5.600000000000022
 31
0.0
  0
LINE
  5
1A4
330
2
100
AcDbEntity
  8
GEB-KONTUR-A
 48
25.0
100
AcDbLine
 10
-46.0
 20
-5.600000000000022
 30
0.0
 11
-44.76639783197717
 21
-5.600000000000022
 31
0.0
  0
LINE
  5
1A5
330
2
100
AcDbEntity
  8
GEB-KONTUR-A
 48
25.0
100
AcDbLine
 10
-46.0
 20
5.600000000000022
 30
0.0
 11
-44.76639783197717
 21
5.600000000000022
 31
0.0
  0
LINE
  5
1A6
330
2
100
AcDbEntity
  8
GEB-KONTUR-A
 48
25.0
100
AcDbLine
 10
-35.20000000000002
 20
-5.199999999999931
 30
0.0
 11
-35.20000000000002
 21
5.199999999999931
 31
0.0
  0
LINE
  5
1A7
330
2
100
AcDbEntity
  8
GEB-KONTUR-A
 48
25.0
100
AcDbLine
 10
-25.47125920269687
 20
-4.949999999999931
 30
0.0
 11
-25.47125920269687
 21
4.950000000000045
 31
0.0
  0
LINE
  5
1A8
330
2
100
AcDbEntity
  8
GEB-KONTUR-A
 48
25.0
100
AcDbLine
 10
-24.90000000000001
 20
-5.350000000000022
 30
0.0
 11
-24.90000000000001
 21
5.350000000000022
 31
0.0
  0
LINE
  5
1A9
330
2
100
AcDbEntity
  8
GEB-KONTUR-A
 48
25.0
100
AcDbLine
 10
-23.97125920269684
 20
-4.949999999999931
 30
0.0
 11
-23.97125920269684
 21
4.950000000000045
 31
0.0
  0
LINE
  5
1AA
330
2
100
AcDbEntity
  8
GEB-KONTUR-A
 48
25.0
100
AcDbLine
 10
-23.40000000000003
 20
-5.350000000000022
 30
0.0
 11
-23.40000000000003
 21
5.350000000000022
 31
0.0
  0
LINE
  5
1AB
330
2
100
AcDbEntity
  8
GEB-KONTUR-A
 48
25.0
100
AcDbLine
 10
-48.0
 20
4.911706186112155
 30
0.0
 11
-48.0
 21
-4.911706186112155
 31
0.0
  0
LINE
  5
1AC
330
2
100
AcDbEntity
  8
GEB-KONTUR-A
 48
25.0
100
AcDbLine
 10
-38.30000000000001
 20
-5.600000000000022
 30
0.0
 11
-38.30000000000001
 21
5.600000000000022
 31
0.0
  0
LINE
  5
1AD
330
2
100
AcDbEntity
  8
GEB-KONTUR-A
 48
25.0
100
AcDbLine
 10
-37.20000000000002
 20
-5.199999999999931
 30
0.0
 11
-37.20000000000002
 21
5.199999999999931
 31
0.0
  0
LINE
  5
1AE
330
2
100
AcDbEntity
  8
GEB-KONTUR-A
 48
25.0
100
AcDbLine
 10
-26.5
 20
5.4776265641093
 30
0.0
 11
-26.5
 21
5.569322614062343
 31
0.0
  0
LINE
  5
1AF
330
2
100
AcDbEntity
  8
GEB-KONTUR-A
 48
25.0
100
AcDbLine
 10
-26.5
 20
4.849742261192886
 30
0.0
 11
-26.5
 21
5.115854562798631
 31
0.0
  0
LINE
  5
1B0
330
2
100
AcDbEntity
  8
GEB-KONTUR-A
 48
25.0
100
AcDbLine
 10
-26.5
 20
3.747131395609471
 30
0.0
 11
-26.5
 21
4.161611022673355
 31
0.0
  0
LINE
  5
1B1
330
2
100
AcDbEntity
  8
GEB-KONTUR-A
 48
25.0
100
AcDbLine
 10
-26.5
 20
2.27772520122437
 30
0.0
 11
-26.5
 21
2.800000000000068
 31
0.0
  0
LINE
  5
1B2
330
2
100
AcDbEntity
  8
GEB-KONTUR-A
 48
25.0
100
AcDbLine
 10
-26.5
 20
0.5853593942989619
 30
0.0
 11
-26.5
 21
1.164305468579414
 31
0.0
  0
LINE
  5
1B3
330
2
100
AcDbEntity
  8
GEB-KONTUR-A
 48
25.0
100
AcDbLine
 10
-26.5
 20
-1.164305468579414
 30
0.0
 11
-26.5
 21
-0.5853593942988482
 31
0.0
  0
LINE
  5
1B4
330
2
100
AcDbEntity
  8
GEB-KONTUR-A
 48
25.0
100
AcDbLine
 10
-26.5
 20
-2.799999999999954
 30
0.0
 11
-26.5
 21
-2.27772520122437
 31
0.0
  0
LINE
  5
1B5
330
2
100
AcDbEntity
  8
GEB-KONTUR-A
 48
25.0
100
AcDbLine
 10
-26.5
 20
-4.161611022673355
 30
0.0
 11
-26.5
 21
-3.747131395609585
 31
0.0
  0
LINE
  5
1B6
330
2
100
AcDbEntity
  8
GEB-KONTUR-A
 48
25.0
100
AcDbLine
 10
-26.5
 20
-5.115854562798517
 30
0.0
 11
-26.5
 21
-4.849742261192886
 31
0.0
  0
LINE
  5
1B7
330
2
100
AcDbEntity
  8
GEB-KONTUR-A
 48
25.0
100
AcDbLine
 10
-26.5
 20
-5.569322614062343
 30
0.0
 11
-26.5
 21
-5.4776265641093
 31
0.0
  0
LINE
  5
1B8
330
2
100
AcDbEntity
  8
GEB-KONTUR-A
 48
25.0
100
AcDbLine
 10
-46.0
 20
-5.600000000000022
 30
0.0
 11
-46.0
 21
5.600000000000022
 31
0.0
  0
LINE
  5
1B9
330
2
100
AcDbEntity
  8
GEB-KONTUR-A
 48
25.0
100
AcDbLine
 10
-34.10000000000002
 20
-5.569322614062343
 30
0.0
 11
-34.10000000000002
 21
-5.477626564109414
 31
0.0
  0
LINE
  5
1BA
330
2
100
AcDbEntity
  8
GEB-KONTUR-A
 48
25.0
100
AcDbLine
 10
-34.10000000000002
 20
-5.115854562798631
 30
0.0
 11
-34.10000000000002
 21
-4.849742261192886
 31
0.0
  0
LINE
  5
1BB
330
2
100
AcDbEntity
  8
GEB-KONTUR-A
 48
25.0
100
AcDbLine
 10
-34.10000000000002
 20
-4.161611022673355
 30
0.0
 11
-34.10000000000002
 21
-3.747131395609585
 31
0.0
  0
LINE
  5
1BC
330
2
100
AcDbEntity
  8
GEB-KONTUR-A
 48
25.0
100
AcDbLine
 10
-34.10000000000002
 20
-2.799999999999954
 30
0.0
 11
-34.10000000000002
 21
-2.27772520122437
 31
0.0
  0
LINE
  5
1BD
330
2
100
AcDbEntity
  8
GEB-KONTUR-A
 48
25.0
100
AcDbLine
 10
-34.10000000000002
 20
-1.164305468579414
 30
0.0
 11
-34.10000000000002
 21
-0.5853593942988482
 31
0.0
  0
LINE
  5
1BE
330
2
100
AcDbEntity
  8
GEB-KONTUR-A
 48
25.0
100
AcDbLine
 10
-34.10000000000002
 20
0.5853593942989619
 30
0.0
 11
-34.10000000000002
 21
1.164305468579414
 31
0.0
  0
LINE
  5
1BF
330
2
100
AcDbEntity
  8
GEB-KONTUR-A
 48
25.0
100
AcDbLine
 10
-34.10000000000002
 20
2.27772520122437
 30
0.0
 11
-34.10000000000002
 21
2.800000000000068
 31
0.0
  0
LINE
  5
1C0
330
2
100
AcDbEntity
  8
GEB-KONTUR-A
 48
25.0
100
AcDbLine
 10
-34.10000000000002
 20
3.747131395609471
 30
0.0
 11
-34.10000000000002
 21
4.161611022673355
 31
0.0
  0
LINE
  5
1C1
330
2
100
AcDbEntity
  8
GEB-KONTUR-A
 48
25.0
100
AcDbLine
 10
-34.10000000000002
 20
4.849742261192886
 30
0.0
 11
-34.10000000000002
 21
5.115854562798631
 31
0.0
  0
LINE
  5
1C2
330
2
100
AcDbEntity
  8
GEB-KONTUR-A
 48
25.0
100
AcDbLine
 10
-34.10000000000002
 20
5.4776265641093
 30
0.0
 11
-34.10000000000002
 21
5.569322614062343
 31
0.0
  0
LINE
  5
1C3
330
2
100
AcDbEntity
  8
GEB-KONTUR-A
 48
25.0
100
AcDbLine
 10
-32.30000000000001
 20
5.569322614062343
 30
0.0
 11
-32.30000000000001
 21
5.600000000000022
 31
0.0
  0
LINE
  5
1C4
330
2
100
AcDbEntity
  8
GEB-KONTUR-A
 48
25.0
100
AcDbLine
 10
-32.30000000000001
 20
5.569322614062343
 30
0.0
 11
-34.10000000000002
 21
5.569322614062343
 31
0.0
  0
LINE
  5
1C5
330
2
100
AcDbEntity
  8
GEB-KONTUR-A
 48
25.0
100
AcDbLine
 10
-32.30000000000001
 20
5.115854562798517
 30
0.0
 11
-32.30000000000001
 21
5.4776265641093
 31
0.0
  0
LINE
  5
1C6
330
2
100
AcDbEntity
  8
GEB-KONTUR-A
 48
25.0
100
AcDbLine
 10
-32.30000000000001
 20
5.115854562798631
 30
0.0
 11
-34.10000000000002
 21
5.115854562798631
 31
0.0
  0
LINE
  5
1C7
330
2
100
AcDbEntity
  8
GEB-KONTUR-A
 48
25.0
100
AcDbLine
 10
-34.10000000000002
 20
5.115854562798631
 30
0.0
 11
-34.10000000000002
 21
5.4776265641093
 31
0.0
  0
LINE
  5
1C8
330
2
100
AcDbEntity
  8
GEB-KONTUR-A
 48
25.0
100
AcDbLine
 10
-34.10000000000002
 20
5.4776265641093
 30
0.0
 11
-32.30000000000001
 21
5.4776265641093
 31
0.0
  0
LINE
  5
1C9
330
2
100
AcDbEntity
  8
GEB-KONTUR-A
 48
25.0
100
AcDbLine
 10
-32.30000000000001
 20
4.161611022673355
 30
0.0
 11
-32.30000000000001
 21
4.849742261192773
 31
0.0
  0
LINE
  5
1CA
330
2
100
AcDbEntity
  8
GEB-KONTUR-A
 48
25.0
100
AcDbLine
 10
-32.30000000000001
 20
4.161611022673355
 30
0.0
 11
-34.10000000000002
 21
4.161611022673355
 31
0.0
  0
LINE
  5
1CB
330
2
100
AcDbEntity
  8
GEB-KONTUR-A
 48
25.0
100
AcDbLine
 10
-34.10000000000002
 20
4.338745831476444
 30
0.0
 11
-34.10000000000002
 21
4.849742261192886
 31
0.0
  0
LINE
  5
1CC
330
2
100
AcDbEntity
  8
GEB-KONTUR-A
 48
25.0
100
AcDbLine
 10
-34.10000000000002
 20
4.849742261192886
 30
0.0
 11
-32.30000000000001
 21
4.849742261192886
 31
0.0
  0
LINE
  5
1CD
330
2
100
AcDbEntity
  8
GEB-KONTUR-A
 48
25.0
100
AcDbLine
 10
-34.10000000000002
 20
4.161611022673355
 30
0.0
 11
-34.10000000000002
 21
4.338745831476444
 31
0.0
  0
LINE
  5
1CE
330
2
100
AcDbEntity
  8
GEB-KONTUR-A
 48
25.0
100
AcDbLine
 10
-32.30000000000001
 20
2.800000000000068
 30
0.0
 11
-32.30000000000001
 21
3.747131395609471
 31
0.0
  0
LINE
  5
1CF
330
2
100
AcDbEntity
  8
GEB-KONTUR-A
 48
25.0
100
AcDbLine
 10
-32.30000000000001
 20
2.800000000000068
 30
0.0
 11
-34.10000000000002
 21
2.800000000000068
 31
0.0
  0
LINE
  5
1D0
330
2
100
AcDbEntity
  8
GEB-KONTUR-A
 48
25.0
100
AcDbLine
 10
-34.10000000000002
 20
2.800000000000068
 30
0.0
 11
-34.10000000000002
 21
2.866231778807446
 31
0.0
  0
LINE
  5
1D1
330
2
100
AcDbEntity
  8
GEB-KONTUR-A
 48
25.0
100
AcDbLine
 10
-34.10000000000002
 20
3.240678166105112
 30
0.0
 11
-34.10000000000002
 21
3.747131395609699
 31
0.0
  0
LINE
  5
1D2
330
2
100
AcDbEntity
  8
GEB-KONTUR-A
 48
25.0
100
AcDbLine
 10
-34.10000000000002
 20
3.747131395609699
 30
0.0
 11
-32.30000000000001
 21
3.747131395609699
 31
0.0
  0
LINE
  5
1D3
330
2
100
AcDbEntity
  8
GEB-KONTUR-A
 48
25.0
100
AcDbLine
 10
-32.30000000000001
 20
2.90953699884767
 30
0.0
 11
-34.10000000000002
 21
2.90953699884767
 31
0.0
  0
LINE
  5
1D4
330
2
100
AcDbEntity
  8
GEB-KONTUR-A
 48
25.0
100
AcDbLine
 10
-34.10000000000002
 20
2.866231778807559
 30
0.0
 11
-34.10000000000002
 21
3.240678166105226
 31
0.0
  0
LINE
  5
1D5
330
2
100
AcDbEntity
  8
GEB-KONTUR-A
 48
25.0
100
AcDbLine
 10
-32.30000000000001
 20
1.164305468579527
 30
0.0
 11
-32.30000000000001
 21
2.277725201224598
 31
0.0
  0
LINE
  5
1D6
330
2
100
AcDbEntity
  8
GEB-KONTUR-A
 48
25.0
100
AcDbLine
 10
-32.30000000000001
 20
1.164305468579414
 30
0.0
 11
-34.10000000000002
 21
1.164305468579414
 31
0.0
  0
LINE
  5
1D7
330
2
100
AcDbEntity
  8
GEB-KONTUR-A
 48
25.0
100
AcDbLine
 10
-34.10000000000002
 20
1.164305468579414
 30
0.0
 11
-34.10000000000002
 21
1.385202214247442
 31
0.0
  0
LINE
  5
1D8
330
2
100
AcDbEntity
  8
GEB-KONTUR-A
 48
25.0
100
AcDbLine
 10
-34.10000000000002
 20
1.825390342702917
 30
0.0
 11
-34.10000000000002
 21
2.27772520122437
 31
0.0
  0
LINE
  5
1D9
330
2
100
AcDbEntity
  8
GEB-KONTUR-A
 48
25.0
100
AcDbLine
 10
-34.10000000000002
 20
2.27772520122437
 30
0.0
 11
-32.30000000000001
 21
2.27772520122437
 31
0.0
  0
LINE
  5
1DA
330
2
100
AcDbEntity
  8
GEB-KONTUR-A
 48
25.0
100
AcDbLine
 10
-32.30000000000001
 20
1.529634122155925
 30
0.0
 11
-34.10000000000002
 21
1.529634122155925
 31
0.0
  0
LINE
  5
1DB
330
2
100
AcDbEntity
  8
GEB-KONTUR-A
 48
25.0
100
AcDbLine
 10
-34.10000000000002
 20
1.385202214247215
 30
0.0
 11
-34.10000000000002
 21
1.825390342702917
 31
0.0
  0
LINE
  5
1DC
330
2
100
AcDbEntity
  8
GEB-KONTUR-A
 48
25.0
100
AcDbLine
 10
-32.30000000000001
 20
-0.5853593942987346
 30
0.0
 11
-32.30000000000001
 21
0.5853593942988482
 31
0.0
  0
LINE
  5
1DD
330
2
100
AcDbEntity
  8
GEB-KONTUR-A
 48
25.0
100
AcDbLine
 10
-32.30000000000001
 20
-0.5853593942988482
 30
0.0
 11
-34.10000000000002
 21
-0.5853593942988482
 31
0.0
  0
LINE
  5
1DE
330
2
100
AcDbEntity
  8
GEB-KONTUR-A
 48
25.0
100
AcDbLine
 10
-34.10000000000002
 20
-0.5853593942988482
 30
0.0
 11
-34.10000000000002
 21
-0.2314205943144998
 31
0.0
  0
LINE
  5
1DF
330
2
100
AcDbEntity
  8
GEB-KONTUR-A
 48
25.0
100
AcDbLine
 10
-34.10000000000002
 20
0.2314205943144998
 30
0.0
 11
-34.10000000000002
 21
0.5853593942988482
 31
0.0
  0
LINE
  5
1E0
330
2
100
AcDbEntity
  8
GEB-KONTUR-A
 48
25.0
100
AcDbLine
 10
-34.10000000000002
 20
0.5853593942988482
 30
0.0
 11
-32.30000000000001
 21
0.5853593942988482
 31
0.0
  0
LINE
  5
1E1
330
2
100
AcDbEntity
  8
GEB-KONTUR-A
 48
25.0
100
AcDbLine
 10
-32.30000000000001
 20
0.0
 30
0.0
 11
-34.10000000000002
 21
0.0
 31
0.0
  0
LINE
  5
1E2
330
2
100
AcDbEntity
  8
GEB-KONTUR-A
 48
25.0
100
AcDbLine
 10
-34.10000000000002
 20
-0.2314205943146135
 30
0.0
 11
-34.10000000000002
 21
0.2314205943144998
 31
0.0
  0
LINE
  5
1E3
330
2
100
AcDbEntity
  8
GEB-KONTUR-A
 48
25.0
100
AcDbLine
 10
-32.30000000000001
 20
-2.27772520122437
 30
0.0
 11
-32.30000000000001
 21
-1.164305468579414
 31
0.0
  0
LINE
  5
1E4
330
2
100
AcDbEntity
  8
GEB-KONTUR-A
 48
25.0
100
AcDbLine
 10
-32.30000000000001
 20
-2.277725201224484
 30
0.0
 11
-34.10000000000002
 21
-2.277725201224484
 31
0.0
  0
LINE
  5
1E5
330
2
100
AcDbEntity
  8
GEB-KONTUR-A
 48
25.0
100
AcDbLine
 10
-34.10000000000002
 20
-2.277725201224484
 30
0.0
 11
-34.10000000000002
 21
-1.825390342702917
 31
0.0
  0
LINE
  5
1E6
330
2
100
AcDbEntity
  8
GEB-KONTUR-A
 48
25.0
100
AcDbLine
 10
-34.10000000000002
 20
-1.385202214247328
 30
0.0
 11
-34.10000000000002
 21
-1.164305468579414
 31
0.0
  0
LINE
  5
1E7
330
2
100
AcDbEntity
  8
GEB-KONTUR-A
 48
25.0
100
AcDbLine
 10
-34.10000000000002
 20
-1.164305468579414
 30
0.0
 11
-32.30000000000001
 21
-1.164305468579414
 31
0.0
  0
LINE
  5
1E8
330
2
100
AcDbEntity
  8
GEB-KONTUR-A
 48
25.0
100
AcDbLine
 10
-32.30000000000001
 20
-1.529634122155925
 30
0.0
 11
-34.10000000000002
 21
-1.529634122155925
 31
0.0
  0
LINE
  5
1E9
330
2
100
AcDbEntity
  8
GEB-KONTUR-A
 48
25.0
100
AcDbLine
 10
-34.10000000000002
 20
-1.825390342702803
 30
0.0
 11
-34.10000000000002
 21
-1.385202214247328
 31
0.0
  0
LINE
  5
1EA
330
2
100
AcDbEntity
  8
GEB-KONTUR-A
 48
25.0
100
AcDbLine
 10
-32.30000000000001
 20
-3.747131395609585
 30
0.0
 11
-32.30000000000001
 21
-2.799999999999954
 31
0.0
  0
LINE
  5
1EB
330
2
100
AcDbEntity
  8
GEB-KONTUR-A
 48
25.0
100
AcDbLine
 10
-32.30000000000001
 20
-3.747131395609585
 30
0.0
 11
-34.10000000000002
 21
-3.747131395609585
 31
0.0
  0
LINE
  5
1EC
330
2
100
AcDbEntity
  8
GEB-KONTUR-A
 48
25.0
100
AcDbLine
 10
-34.10000000000002
 20
-3.747131395609585
 30
0.0
 11
-34.10000000000002
 21
-3.240678166105112
 31
0.0
  0
LINE
  5
1ED
330
2
100
AcDbEntity
  8
GEB-KONTUR-A
 48
25.0
100
AcDbLine
 10
-34.10000000000002
 20
-2.866231778807446
 30
0.0
 11
-34.10000000000002
 21
-2.800000000000068
 31
0.0
  0
LINE
  5
1EE
330
2
100
AcDbEntity
  8
GEB-KONTUR-A
 48
25.0
100
AcDbLine
 10
-34.10000000000002
 20
-2.800000000000068
 30
0.0
 11
-32.30000000000001
 21
-2.800000000000068
 31
0.0
  0
LINE
  5
1EF
330
2
100
AcDbEntity
  8
GEB-KONTUR-A
 48
25.0
100
AcDbLine
 10
-32.30000000000001
 20
-2.909536998847784
 30
0.0
 11
-34.10000000000002
 21
-2.909536998847784
 31
0.0
  0
LINE
  5
1F0
330
2
100
AcDbEntity
  8
GEB-KONTUR-A
 48
25.0
100
AcDbLine
 10
-34.10000000000002
 20
-3.240678166105112
 30
0.0
 11
-34.10000000000002
 21
-2.866231778807446
 31
0.0
  0
LINE
  5
1F1
330
2
100
AcDbEntity
  8
GEB-KONTUR-A
 48
25.0
100
AcDbLine
 10
-32.30000000000001
 20
-4.849742261192886
 30
0.0
 11
-32.30000000000001
 21
-4.161611022673355
 31
0.0
  0
LINE
  5
1F2
330
2
100
AcDbEntity
  8
GEB-KONTUR-A
 48
25.0
100
AcDbLine
 10
-32.30000000000001
 20
-4.849742261192886
 30
0.0
 11
-34.10000000000002
 21
-4.849742261192886
 31
0.0
  0
LINE
  5
1F3
330
2
100
AcDbEntity
  8
GEB-KONTUR-A
 48
25.0
100
AcDbLine
 10
-34.10000000000002
 20
-4.849742261192886
 30
0.0
 11
-34.10000000000002
 21
-4.338745831476444
 31
0.0
  0
LINE
  5
1F4
330
2
100
AcDbEntity
  8
GEB-KONTUR-A
 48
25.0
100
AcDbLine
 10
-34.10000000000002
 20
-4.161611022673355
 30
0.0
 11
-32.30000000000001
 21
-4.161611022673355
 31
0.0
  0
LINE
  5
1F5
330
2
100
AcDbEntity
  8
GEB-KONTUR-A
 48
25.0
100
AcDbLine
 10
-34.10000000000002
 20
-4.338745831476444
 30
0.0
 11
-34.10000000000002
 21
-4.161611022673469
 31
0.0
  0
LINE
  5
1F6
330
2
100
AcDbEntity
  8
GEB-KONTUR-A
 48
25.0
100
AcDbLine
 10
-32.30000000000001
 20
-5.4776265641093
 30
0.0
 11
-32.30000000000001
 21
-5.115854562798517
 31
0.0
  0
LINE
  5
1F7
330
2
100
AcDbEntity
  8
GEB-KONTUR-A
 48
25.0
100
AcDbLine
 10
-32.30000000000001
 20
-5.4776265641093
 30
0.0
 11
-34.10000000000002
 21
-5.4776265641093
 31
0.0
  0
LINE
  5
1F8
330
2
100
AcDbEntity
  8
GEB-KONTUR-A
 48
25.0
100
AcDbLine
 10
-34.10000000000002
 20
-5.4776265641093
 30
0.0
 11
-34.10000000000002
 21
-5.115854562798517
 31
0.0
  0
LINE
  5
1F9
330
2
100
AcDbEntity
  8
GEB-KONTUR-A
 48
25.0
100
AcDbLine
 10
-34.10000000000002
 20
-5.115854562798517
 30
0.0
 11
-32.30000000000001
 21
-5.115854562798517
 31
0.0
  0
LINE
  5
1FA
330
2
100
AcDbEntity
  8
GEB-KONTUR-A
 48
25.0
100
AcDbLine
 10
-32.30000000000001
 20
-5.599999999999909
 30
0.0
 11
-32.30000000000001
 21
-5.569322614062343
 31
0.0
  0
LINE
  5
1FB
330
2
100
AcDbEntity
  8
GEB-KONTUR-A
 48
25.0
100
AcDbLine
 10
-34.10000000000002
 20
-5.569322614062343
 30
0.0
 11
-32.30000000000001
 21
-5.569322614062343
 31
0.0
  0
LINE
  5
1FC
330
2
100
AcDbEntity
  8
GEB-VERDECKT
 48
25.0
100
AcDbLine
 10
-32.30000000000001
 20
5.4776265641093
 30
0.0
 11
-32.30000000000001
 21
5.569322614062343
 31
0.0
  0
LINE
  5
1FD
330
2
100
AcDbEntity
  8
GEB-VERDECKT
 48
25.0
100
AcDbLine
 10
-32.30000000000001
 20
4.950000000000045
 30
0.0
 11
-34.10000000000002
 21
4.950000000000045
 31
0.0
  0
LINE
  5
1FE
330
2
100
AcDbEntity
  8
GEB-VERDECKT
 48
25.0
100
AcDbLine
 10
-32.30000000000001
 20
4.849742261192886
 30
0.0
 11
-32.30000000000001
 21
5.115854562798631
 31
0.0
  0
LINE
  5
1FF
330
2
100
AcDbEntity
  8
GEB-VERDECKT
 48
25.0
100
AcDbLine
 10
-32.30000000000001
 20
4.707729755661034
 30
0.0
 11
-34.10000000000002
 21
4.707729755661034
 31
0.0
  0
LINE
  5
200
330
2
100
AcDbEntity
  8
GEB-VERDECKT
 48
25.0
100
AcDbLine
 10
-32.30000000000001
 20
4.004634122156062
 30
0.0
 11
-32.30000000000001
 21
4.161611022673355
 31
0.0
  0
LINE
  5
201
330
2
100
AcDbEntity
  8
GEB-VERDECKT
 48
25.0
100
AcDbLine
 10
-32.30000000000001
 20
4.004634122156062
 30
0.0
 11
-34.10000000000002
 21
4.004634122156062
 31
0.0
  0
LINE
  5
202
330
2
100
AcDbEntity
  8
GEB-VERDECKT
 48
25.0
100
AcDbLine
 10
-32.30000000000001
 20
-4.161611022673355
 30
0.0
 11
-32.30000000000001
 21
-4.004634122156062
 31
0.0
  0
LINE
  5
203
330
2
100
AcDbEntity
  8
GEB-VERDECKT
 48
25.0
100
AcDbLine
 10
-32.30000000000001
 20
-4.004634122156062
 30
0.0
 11
-34.10000000000002
 21
-4.004634122156062
 31
0.0
  0
LINE
  5
204
330
2
100
AcDbEntity
  8
GEB-VERDECKT
 48
25.0
100
AcDbLine
 10
-32.30000000000001
 20
-5.115854562798517
 30
0.0
 11
-32.30000000000001
 21
-4.849742261192886
 31
0.0
  0
LINE
  5
205
330
2
100
AcDbEntity
  8
GEB-VERDECKT
 48
25.0
100
AcDbLine
 10
-32.30000000000001
 20
-4.707729755661034
 30
0.0
 11
-34.10000000000002
 21
-4.707729755661034
 31
0.0
  0
LINE
  5
206
330
2
100
AcDbEntity
  8
GEB-VERDECKT
 48
25.0
100
AcDbLine
 10
-32.30000000000001
 20
-5.569322614062343
 30
0.0
 11
-32.30000000000001
 21
-5.4776265641093
 31
0.0
  0
LINE
  5
207
330
2
100
AcDbEntity
  8
GEB-VERDECKT
 48
25.0
100
AcDbLine
 10
-32.30000000000001
 20
-4.949999999999931
 30
0.0
 11
-34.10000000000002
 21
-4.949999999999931
 31
0.0
  0
ARC
  5
208
330
2
100
AcDbEntity
  8
GEB-VERDECKT
 48
25.0
100
AcDbCircle
 10
47.60000000000002
 20
4.635639852470944
 30
0.0
 40
0.3999999999999997
100
AcDbArc
 50
280.0000000000002
 51
0.0
  0
ARC
  5
209
330
2
100
AcDbEntity
  8
GEB-VERDECKT
 48
25.0
100
AcDbCircle
 10
47.60000000000002
 20
-4.635639852470944
 30
0.0
 40
0.3999999999999997
100
AcDbArc
 50
0.0
 51
79.9999999999998
  0
LINE
  5
20A
330
2
100
AcDbEntity
  8
GEB-VERDECKT
 48
25.0
100
AcDbLine
 10
22.00000000000006
 20
-3.25
 30
0.0
 11
42.04515408940141
 21
-3.25
 31
0.0
  0
LINE
  5
20B
330
2
100
AcDbEntity
  8
GEB-VERDECKT
 48
25.0
100
AcDbLine
 10
22.00000000000006
 20
3.25
 30
0.0
 11
42.04515408940141
 21
3.25
 31
0.0
  0
LINE
  5
20C
330
2
100
AcDbEntity
  8
GEB-VERDECKT
 48
25.0
100
AcDbLine
 10
42.04515408940141
 20
-3.25
 30
0.0
 11
47.66945927106678
 21
-4.241716751266039
 31
0.0
  0
LINE
  5
20D
330
2
100
AcDbEntity
  8
GEB-VERDECKT
 48
25.0
100
AcDbLine
 10
42.04515408940141
 20
3.25
 30
0.0
 11
47.66945927106678
 21
4.241716751266039
 31
0.0
  0
LINE
  5
20E
330
2
100
AcDbEntity
  8
GEB-VERDECKT
 48
25.0
100
AcDbLine
 10
42.04515408940141
 20
-3.25
 30
0.0
 11
42.04515408940141
 21
3.25
 31
0.0
  0
LINE
  5
20F
330
2
100
AcDbEntity
  8
GEB-VERDECKT
 48
25.0
100
AcDbLine
 10
28.30000000000001
 20
-5.569322614062343
 30
0.0
 11
28.30000000000001
 21
-5.4776265641093
 31
0.0
  0
LINE
  5
210
330
2
100
AcDbEntity
  8
GEB-VERDECKT
 48
25.0
100
AcDbLine
 10
26.50000000000006
 20
-4.949999999999931
 30
0.0
 11
28.30000000000001
 21
-4.949999999999931
 31
0.0
  0
LINE
  5
211
330
2
100
AcDbEntity
  8
GEB-KONTUR-A
 48
25.0
100
AcDbLine
 10
28.30000000000001
 20
-5.599999999999909
 30
0.0
 11
28.30000000000001
 21
-5.569322614062343
 31
0.0
  0
LINE
  5
212
330
2
100
AcDbEntity
  8
GEB-KONTUR-A
 48
25.0
100
AcDbLine
 10
26.50000000000006
 20
-5.569322614062343
 30
0.0
 11
28.30000000000001
 21
-5.569322614062343
 31
0.0
  0
LINE
  5
213
330
2
100
AcDbEntity
  8
GEB-KONTUR-A
 48
25.0
100
AcDbLine
 10
28.30000000000001
 20
-5.477626564109414
 30
0.0
 11
28.30000000000001
 21
-5.115854562798631
 31
0.0
  0
LINE
  5
214
330
2
100
AcDbEntity
  8
GEB-KONTUR-A
 48
25.0
100
AcDbLine
 10
26.50000000000006
 20
-5.115854562798517
 30
0.0
 11
28.30000000000001
 21
-5.115854562798517
 31
0.0
  0
LINE
  5
215
330
2
100
AcDbEntity
  8
GEB-KONTUR-A
 48
25.0
100
AcDbLine
 10
28.30000000000001
 20
-5.4776265641093
 30
0.0
 11
26.50000000000006
 21
-5.4776265641093
 31
0.0
  0
LINE
  5
216
330
2
100
AcDbEntity
  8
GEB-KONTUR-A
 48
25.0
100
AcDbLine
 10
26.50000000000006
 20
-5.4776265641093
 30
0.0
 11
26.50000000000006
 21
-5.115854562798517
 31
0.0
  0
LINE
  5
217
330
2
100
AcDbEntity
  8
GEB-KONTUR-A
 48
25.0
100
AcDbLine
 10
28.30000000000001
 20
-4.849742261192773
 30
0.0
 11
28.30000000000001
 21
-4.161611022673355
 31
0.0
  0
LINE
  5
218
330
2
100
AcDbEntity
  8
GEB-KONTUR-A
 48
25.0
100
AcDbLine
 10
26.50000000000006
 20
-4.161611022673355
 30
0.0
 11
28.30000000000001
 21
-4.161611022673355
 31
0.0
  0
LINE
  5
219
330
2
100
AcDbEntity
  8
GEB-KONTUR-A
 48
25.0
100
AcDbLine
 10
28.30000000000001
 20
-4.849742261192886
 30
0.0
 11
26.50000000000006
 21
-4.849742261192886
 31
0.0
  0
LINE
  5
21A
330
2
100
AcDbEntity
  8
GEB-KONTUR-A
 48
25.0
100
AcDbLine
 10
26.50000000000006
 20
-4.849742261192886
 30
0.0
 11
26.50000000000006
 21
-4.161611022673355
 31
0.0
  0
LINE
  5
21B
330
2
100
AcDbEntity
  8
GEB-KONTUR-A
 48
25.0
100
AcDbLine
 10
28.30000000000001
 20
-3.747131395609585
 30
0.0
 11
28.30000000000001
 21
-2.799999999999954
 31
0.0
  0
LINE
  5
21C
330
2
100
AcDbEntity
  8
GEB-KONTUR-A
 48
25.0
100
AcDbLine
 10
26.50000000000006
 20
-2.909536998847784
 30
0.0
 11
26.50000000000006
 21
-2.800000000000068
 31
0.0
  0
LINE
  5
21D
330
2
100
AcDbEntity
  8
GEB-KONTUR-A
 48
25.0
100
AcDbLine
 10
26.50000000000006
 20
-2.800000000000068
 30
0.0
 11
28.30000000000001
 21
-2.800000000000068
 31
0.0
  0
LINE
  5
21E
330
2
100
AcDbEntity
  8
GEB-KONTUR-A
 48
25.0
100
AcDbLine
 10
28.30000000000001
 20
-3.747131395609585
 30
0.0
 11
26.50000000000006
 21
-3.747131395609585
 31
0.0
  0
LINE
  5
21F
330
2
100
AcDbEntity
  8
GEB-KONTUR-A
 48
25.0
100
AcDbLine
 10
26.50000000000006
 20
-3.747131395609585
 30
0.0
 11
26.50000000000006
 21
-2.909536998847784
 31
0.0
  0
LINE
  5
220
330
2
100
AcDbEntity
  8
GEB-KONTUR-A
 48
25.0
100
AcDbLine
 10
26.50000000000006
 20
-2.909536998847784
 30
0.0
 11
28.30000000000001
 21
-2.909536998847784
 31
0.0
  0
LINE
  5
221
330
2
100
AcDbEntity
  8
GEB-KONTUR-A
 48
25.0
100
AcDbLine
 10
28.30000000000001
 20
-2.27772520122437
 30
0.0
 11
28.30000000000001
 21
-1.164305468579414
 31
0.0
  0
LINE
  5
222
330
2
100
AcDbEntity
  8
GEB-KONTUR-A
 48
25.0
100
AcDbLine
 10
26.50000000000006
 20
-1.529634122155925
 30
0.0
 11
26.50000000000006
 21
-1.164305468579414
 31
0.0
  0
LINE
  5
223
330
2
100
AcDbEntity
  8
GEB-KONTUR-A
 48
25.0
100
AcDbLine
 10
26.50000000000006
 20
-1.164305468579414
 30
0.0
 11
28.30000000000001
 21
-1.164305468579414
 31
0.0
  0
LINE
  5
224
330
2
100
AcDbEntity
  8
GEB-KONTUR-A
 48
25.0
100
AcDbLine
 10
28.30000000000001
 20
-2.277725201224484
 30
0.0
 11
26.50000000000006
 21
-2.277725201224484
 31
0.0
  0
LINE
  5
225
330
2
100
AcDbEntity
  8
GEB-KONTUR-A
 48
25.0
100
AcDbLine
 10
26.50000000000006
 20
-2.277725201224484
 30
0.0
 11
26.50000000000006
 21
-1.529634122155925
 31
0.0
  0
LINE
  5
226
330
2
100
AcDbEntity
  8
GEB-KONTUR-A
 48
25.0
100
AcDbLine
 10
26.50000000000006
 20
-1.529634122155925
 30
0.0
 11
28.30000000000001
 21
-1.529634122155925
 31
0.0
  0
LINE
  5
227
330
2
100
AcDbEntity
  8
GEB-KONTUR-A
 48
25.0
100
AcDbLine
 10
28.30000000000001
 20
-0.5853593942987346
 30
0.0
 11
28.30000000000001
 21
0.5853593942988482
 31
0.0
  0
LINE
  5
228
330
2
100
AcDbEntity
  8
GEB-KONTUR-A
 48
25.0
100
AcDbLine
 10
26.50000000000006
 20
0.0
 30
0.0
 11
26.50000000000006
 21
0.5853593942988482
 31
0.0
  0
LINE
  5
229
330
2
100
AcDbEntity
  8
GEB-KONTUR-A
 48
25.0
100
AcDbLine
 10
26.50000000000006
 20
0.5853593942988482
 30
0.0
 11
28.30000000000001
 21
0.5853593942988482
 31
0.0
  0
LINE
  5
22A
330
2
100
AcDbEntity
  8
GEB-KONTUR-A
 48
25.0
100
AcDbLine
 10
28.30000000000001
 20
-0.5853593942988482
 30
0.0
 11
26.50000000000006
 21
-0.5853593942988482
 31
0.0
  0
LINE
  5
22B
330
2
100
AcDbEntity
  8
GEB-KONTUR-A
 48
25.0
100
AcDbLine
 10
26.50000000000006
 20
-0.5853593942988482
 30
0.0
 11
26.50000000000006
 21
0.0
 31
0.0
  0
LINE
  5
22C
330
2
100
AcDbEntity
  8
GEB-KONTUR-A
 48
25.0
100
AcDbLine
 10
26.50000000000006
 20
0.0
 30
0.0
 11
28.30000000000001
 21
0.0
 31
0.0
  0
LINE
  5
22D
330
2
100
AcDbEntity
  8
GEB-KONTUR-A
 48
25.0
100
AcDbLine
 10
28.30000000000001
 20
1.164305468579414
 30
0.0
 11
28.30000000000001
 21
2.27772520122437
 31
0.0
  0
LINE
  5
22E
330
2
100
AcDbEntity
  8
GEB-KONTUR-A
 48
25.0
100
AcDbLine
 10
26.50000000000006
 20
1.529634122155925
 30
0.0
 11
26.50000000000006
 21
2.27772520122437
 31
0.0
  0
LINE
  5
22F
330
2
100
AcDbEntity
  8
GEB-KONTUR-A
 48
25.0
100
AcDbLine
 10
26.50000000000006
 20
2.27772520122437
 30
0.0
 11
28.30000000000001
 21
2.27772520122437
 31
0.0
  0
LINE
  5
230
330
2
100
AcDbEntity
  8
GEB-KONTUR-A
 48
25.0
100
AcDbLine
 10
28.30000000000001
 20
1.164305468579414
 30
0.0
 11
26.50000000000006
 21
1.164305468579414
 31
0.0
  0
LINE
  5
231
330
2
100
AcDbEntity
  8
GEB-KONTUR-A
 48
25.0
100
AcDbLine
 10
26.50000000000006
 20
1.164305468579414
 30
0.0
 11
26.50000000000006
 21
1.529634122155925
 31
0.0
  0
LINE
  5
232
330
2
100
AcDbEntity
  8
GEB-KONTUR-A
 48
25.0
100
AcDbLine
 10
26.50000000000006
 20
1.529634122155925
 30
0.0
 11
28.30000000000001
 21
1.529634122155925
 31
0.0
  0
LINE
  5
233
330
2
100
AcDbEntity
  8
GEB-KONTUR-A
 48
25.0
100
AcDbLine
 10
28.30000000000001
 20
2.800000000000068
 30
0.0
 11
28.30000000000001
 21
3.747131395609471
 31
0.0
  0
LINE
  5
234
330
2
100
AcDbEntity
  8
GEB-KONTUR-A
 48
25.0
100
AcDbLine
 10
26.50000000000006
 20
2.90953699884767
 30
0.0
 11
26.50000000000006
 21
3.747131395609699
 31
0.0
  0
LINE
  5
235
330
2
100
AcDbEntity
  8
GEB-KONTUR-A
 48
25.0
100
AcDbLine
 10
26.50000000000006
 20
3.747131395609699
 30
0.0
 11
28.30000000000001
 21
3.747131395609699
 31
0.0
  0
LINE
  5
236
330
2
100
AcDbEntity
  8
GEB-KONTUR-A
 48
25.0
100
AcDbLine
 10
28.30000000000001
 20
2.800000000000068
 30
0.0
 11
26.50000000000006
 21
2.800000000000068
 31
0.0
  0
LINE
  5
237
330
2
100
AcDbEntity
  8
GEB-KONTUR-A
 48
25.0
100
AcDbLine
 10
26.50000000000006
 20
2.800000000000068
 30
0.0
 11
26.50000000000006
 21
2.90953699884767
 31
0.0
  0
LINE
  5
238
330
2
100
AcDbEntity
  8
GEB-KONTUR-A
 48
25.0
100
AcDbLine
 10
26.50000000000006
 20
2.90953699884767
 30
0.0
 11
28.30000000000001
 21
2.90953699884767
 31
0.0
  0
LINE
  5
239
330
2
100
AcDbEntity
  8
GEB-KONTUR-A
 48
25.0
100
AcDbLine
 10
28.30000000000001
 20
4.161611022673582
 30
0.0
 11
28.30000000000001
 21
4.849742261192886
 31
0.0
  0
LINE
  5
23A
330
2
100
AcDbEntity
  8
GEB-KONTUR-A
 48
25.0
100
AcDbLine
 10
26.50000000000006
 20
4.161611022673355
 30
0.0
 11
26.50000000000006
 21
4.849742261192886
 31
0.0
  0
LINE
  5
23B
330
2
100
AcDbEntity
  8
GEB-KONTUR-A
 48
25.0
100
AcDbLine
 10
26.50000000000006
 20
4.849742261192886
 30
0.0
 11
28.30000000000001
 21
4.849742261192886
 31
0.0
  0
LINE
  5
23C
330
2
100
AcDbEntity
  8
GEB-KONTUR-A
 48
25.0
100
AcDbLine
 10
28.30000000000001
 20
4.161611022673355
 30
0.0
 11
26.50000000000006
 21
4.161611022673355
 31
0.0
  0
LINE
  5
23D
330
2
100
AcDbEntity
  8
GEB-KONTUR-A
 48
25.0
100
AcDbLine
 10
28.30000000000001
 20
5.115854562798631
 30
0.0
 11
28.30000000000001
 21
5.477626564109414
 31
0.0
  0
LINE
  5
23E
330
2
100
AcDbEntity
  8
GEB-KONTUR-A
 48
25.0
100
AcDbLine
 10
26.50000000000006
 20
5.115854562798631
 30
0.0
 11
26.50000000000006
 21
5.4776265641093
 31
0.0
  0
LINE
  5
23F
330
2
100
AcDbEntity
  8
GEB-KONTUR-A
 48
25.0
100
AcDbLine
 10
26.50000000000006
 20
5.4776265641093
 30
0.0
 11
28.30000000000001
 21
5.4776265641093
 31
0.0
  0
LINE
  5
240
330
2
100
AcDbEntity
  8
GEB-KONTUR-A
 48
25.0
100
AcDbLine
 10
28.30000000000001
 20
5.115854562798631
 30
0.0
 11
26.50000000000006
 21
5.115854562798631
 31
0.0
  0
LINE
  5
241
330
2
100
AcDbEntity
  8
GEB-KONTUR-A
 48
25.0
100
AcDbLine
 10
28.30000000000001
 20
5.569322614062343
 30
0.0
 11
28.30000000000001
 21
5.599999999999909
 31
0.0
  0
LINE
  5
242
330
2
100
AcDbEntity
  8
GEB-KONTUR-A
 48
25.0
100
AcDbLine
 10
28.30000000000001
 20
5.569322614062343
 30
0.0
 11
26.50000000000006
 21
5.569322614062343
 31
0.0
  0
LINE
  5
243
330
2
100
AcDbEntity
  8
GEB-VERDECKT
 48
25.0
100
AcDbLine
 10
28.30000000000001
 20
-5.115854562798517
 30
0.0
 11
28.30000000000001
 21
-4.849742261192886
 31
0.0
  0
LINE
  5
244
330
2
100
AcDbEntity
  8
GEB-VERDECKT
 48
25.0
100
AcDbLine
 10
26.50000000000006
 20
-4.707729755661034
 30
0.0
 11
28.30000000000001
 21
-4.707729755661034
 31
0.0
  0
LINE
  5
245
330
2
100
AcDbEntity
  8
GEB-VERDECKT
 48
25.0
100
AcDbLine
 10
28.30000000000001
 20
-4.161611022673355
 30
0.0
 11
28.30000000000001
 21
-4.004634122156062
 31
0.0
  0
LINE
  5
246
330
2
100
AcDbEntity
  8
GEB-VERDECKT
 48
25.0
100
AcDbLine
 10
26.50000000000006
 20
-4.004634122156062
 30
0.0
 11
28.30000000000001
 21
-4.004634122156062
 31
0.0
  0
LINE
  5
247
330
2
100
AcDbEntity
  8
GEB-VERDECKT
 48
25.0
100
AcDbLine
 10
26.50000000000006
 20
4.004634122156062
 30
0.0
 11
28.30000000000001
 21
4.004634122156062
 31
0.0
  0
LINE
  5
248
330
2
100
AcDbEntity
  8
GEB-VERDECKT
 48
25.0
100
AcDbLine
 10
28.30000000000001
 20
4.004634122156062
 30
0.0
 11
28.30000000000001
 21
4.161611022673355
 31
0.0
  0
LINE
  5
249
330
2
100
AcDbEntity
  8
GEB-VERDECKT
 48
25.0
100
AcDbLine
 10
26.50000000000006
 20
4.707729755661034
 30
0.0
 11
28.30000000000001
 21
4.707729755661034
 31
0.0
  0
LINE
  5
24A
330
2
100
AcDbEntity
  8
GEB-VERDECKT
 48
25.0
100
AcDbLine
 10
28.30000000000001
 20
4.849742261192886
 30
0.0
 11
28.30000000000001
 21
5.115854562798631
 31
0.0
  0
LINE
  5
24B
330
2
100
AcDbEntity
  8
GEB-VERDECKT
 48
25.0
100
AcDbLine
 10
26.50000000000006
 20
4.950000000000045
 30
0.0
 11
28.30000000000001
 21
4.950000000000045
 31
0.0
  0
LINE
  5
24C
330
2
100
AcDbEntity
  8
GEB-VERDECKT
 48
25.0
100
AcDbLine
 10
28.30000000000001
 20
5.4776265641093
 30
0.0
 11
28.30000000000001
 21
5.569322614062343
 31
0.0
  0
ARC
  5
24D
330
2
100
AcDbEntity
  8
GEB-KONTUR-A
 48
25.0
100
AcDbCircle
 10
42.69999999999998
 20
-8.299999999999954
 30
0.0
 40
3.399999999999996
100
AcDbArc
 50
52.57199445695573
 51
127.4280055430442
  0
ARC
  5
24E
330
2
100
AcDbEntity
  8
GEB-KONTUR-A
 48
25.0
100
AcDbCircle
 10
42.69999999999998
 20
8.299999999999954
 30
0.0
 40
3.399999999999996
100
AcDbArc
 50
232.5719944569557
 51
307.4280055430443
  0
LINE
  5
24F
330
2
100
AcDbEntity
  8
GEB-KONTUR-A
 48
25.0
100
AcDbLine
 10
44.7663978319772
 20
-5.600000000000022
 30
0.0
 11
44.7663978319772
 21
5.600000000000022
 31
0.0
  0
LINE
  5
250
330
2
100
AcDbEntity
  8
GEB-KONTUR-A
 48
25.0
100
AcDbLine
 10
40.63360216802283
 20
5.600000000000022
 30
0.0
 11
40.63360216802283
 21
-5.600000000000022
 31
0.0
  0
LINE
  5
251
330
2
100
AcDbEntity
  8
GEB-KONTUR-A
 48
25.0
100
AcDbLine
 10
37.20000000000005
 20
4.200000000000045
 30
0.0
 11
35.20000000000005
 21
4.200000000000045
 31
0.0
  0
LINE
  5
252
330
2
100
AcDbEntity
  8
GEB-KONTUR-A
 48
25.0
100
AcDbLine
 10
37.20000000000005
 20
-4.200000000000045
 30
0.0
 11
35.20000000000005
 21
-4.200000000000045
 31
0.0
  0
LINE
  5
253
330
2
100
AcDbEntity
  8
GEB-KONTUR-A
 48
25.0
100
AcDbLine
 10
35.20000000000005
 20
5.199999999999931
 30
0.0
 11
34.10000000000002
 21
5.199999999999931
 31
0.0
  0
LINE
  5
254
330
2
100
AcDbEntity
  8
GEB-KONTUR-A
 48
25.0
100
AcDbLine
 10
35.20000000000005
 20
-5.199999999999931
 30
0.0
 11
34.10000000000002
 21
-5.199999999999931
 31
0.0
  0
LINE
  5
255
330
2
100
AcDbEntity
  8
GEB-KONTUR-A
 48
25.0
100
AcDbLine
 10
26.50000000000006
 20
4.950000000000045
 30
0.0
 11
25.47125920269684
 21
4.950000000000045
 31
0.0
  0
LINE
  5
256
330
2
100
AcDbEntity
  8
GEB-KONTUR-A
 48
25.0
100
AcDbLine
 10
26.50000000000006
 20
-4.949999999999931
 30
0.0
 11
25.47125920269684
 21
-4.949999999999931
 31
0.0
  0
LINE
  5
257
330
2
100
AcDbEntity
  8
GEB-KONTUR-A
 48
25.0
100
AcDbLine
 10
25.47125920269684
 20
4.950000000000045
 30
0.0
 11
24.90000000000004
 21
5.350000000000022
 31
0.0
  0
LINE
  5
258
330
2
100
AcDbEntity
  8
GEB-KONTUR-A
 48
25.0
100
AcDbLine
 10
25.47125920269684
 20
-4.949999999999931
 30
0.0
 11
24.90000000000004
 21
-5.350000000000022
 31
0.0
  0
LINE
  5
259
330
2
100
AcDbEntity
  8
GEB-KONTUR-A
 48
25.0
100
AcDbLine
 10
24.90000000000004
 20
4.950000000000045
 30
0.0
 11
23.9712592026969
 21
4.950000000000045
 31
0.0
  0
LINE
  5
25A
330
2
100
AcDbEntity
  8
GEB-KONTUR-A
 48
25.0
100
AcDbLine
 10
24.90000000000004
 20
-4.949999999999931
 30
0.0
 11
23.9712592026969
 21
-4.949999999999931
 31
0.0
  0
LINE
  5
25B
330
2
100
AcDbEntity
  8
GEB-KONTUR-A
 48
25.0
100
AcDbLine
 10
23.9712592026969
 20
4.950000000000045
 30
0.0
 11
23.40000000000003
 21
5.350000000000022
 31
0.0
  0
LINE
  5
25C
330
2
100
AcDbEntity
  8
GEB-KONTUR-A
 48
25.0
100
AcDbLine
 10
23.9712592026969
 20
-4.949999999999931
 30
0.0
 11
23.40000000000003
 21
-5.350000000000022
 31
0.0
  0
LINE
  5
25D
330
2
100
AcDbEntity
  8
GEB-KONTUR-A
 48
25.0
100
AcDbLine
 10
23.40000000000003
 20
5.100000000000022
 30
0.0
 11
22.00000000000006
 21
5.100000000000022
 31
0.0
  0
LINE
  5
25E
330
2
100
AcDbEntity
  8
GEB-KONTUR-A
 48
25.0
100
AcDbLine
 10
23.40000000000003
 20
-5.100000000000022
 30
0.0
 11
22.00000000000006
 21
-5.100000000000022
 31
0.0
  0
ARC
  5
25F
330
2
100
AcDbEntity
  8
GEB-KONTUR-A
 48
25.0
100
AcDbCircle
 10
47.60000000000002
 20
-4.911706186112155
 30
0.0
 40
0.3999999999999997
100
AcDbArc
 50
280.0000000000002
 51
0.0
  0
ARC
  5
260
330
2
100
AcDbEntity
  8
GEB-KONTUR-A
 48
25.0
100
AcDbCircle
 10
47.60000000000002
 20
4.911706186112155
 30
0.0
 40
0.3999999999999997
100
AcDbArc
 50
0.0
 51
79.9999999999998
  0
LINE
  5
261
330
2
100
AcDbEntity
  8
GEB-KONTUR-A
 48
25.0
100
AcDbLine
 10
47.66945927106678
 20
5.305629287316946
 30
0.0
 11
46.0
 21
5.600000000000022
 31
0.0
  0
LINE
  5
262
330
2
100
AcDbEntity
  8
GEB-KONTUR-A
 48
25.0
100
AcDbLine
 10
47.66945927106678
 20
-5.30562928731706
 30
0.0
 11
46.0
 21
-5.600000000000022
 31
0.0
  0
LINE
  5
263
330
2
100
AcDbEntity
  8
GEB-KONTUR-A
 48
25.0
100
AcDbLine
 10
40.63360216802283
 20
5.600000000000022
 30
0.0
 11
38.30000000000001
 21
5.600000000000022
 31
0.0
  0
LINE
  5
264
330
2
100
AcDbEntity
  8
GEB-KONTUR-A
 48
25.0
100
AcDbLine
 10
40.63360216802283
 20
-5.600000000000022
 30
0.0
 11
38.30000000000001
 21
-5.600000000000022
 31
0.0
  0
LINE
  5
265
330
2
100
AcDbEntity
  8
GEB-KONTUR-A
 48
25.0
100
AcDbLine
 10
38.30000000000001
 20
5.199999999999931
 30
0.0
 11
37.20000000000005
 21
5.199999999999931
 31
0.0
  0
LINE
  5
266
330
2
100
AcDbEntity
  8
GEB-KONTUR-A
 48
25.0
100
AcDbLine
 10
38.30000000000001
 20
-5.199999999999931
 30
0.0
 11
37.20000000000005
 21
-5.199999999999931
 31
0.0
  0
LINE
  5
267
330
2
100
AcDbEntity
  8
GEB-KONTUR-A
 48
25.0
100
AcDbLine
 10
32.30000000000007
 20
5.600000000000022
 30
0.0
 11
28.30000000000001
 21
5.600000000000022
 31
0.0
  0
LINE
  5
268
330
2
100
AcDbEntity
  8
GEB-KONTUR-A
 48
25.0
100
AcDbLine
 10
32.30000000000007
 20
-5.600000000000022
 30
0.0
 11
28.30000000000001
 21
-5.600000000000022
 31
0.0
  0
LINE
  5
269
330
2
100
AcDbEntity
  8
GEB-KONTUR-A
 48
25.0
100
AcDbLine
 10
46.0
 20
5.600000000000022
 30
0.0
 11
44.7663978319772
 21
5.600000000000022
 31
0.0
  0
LINE
  5
26A
330
2
100
AcDbEntity
  8
GEB-KONTUR-A
 48
25.0
100
AcDbLine
 10
46.0
 20
-5.600000000000022
 30
0.0
 11
44.7663978319772
 21
-5.600000000000022
 31
0.0
  0
LINE
  5
26B
330
2
100
AcDbEntity
  8
GEB-KONTUR-A
 48
25.0
100
AcDbLine
 10
35.20000000000005
 20
5.199999999999931
 30
0.0
 11
35.20000000000005
 21
-5.199999999999931
 31
0.0
  0
LINE
  5
26C
330
2
100
AcDbEntity
  8
GEB-KONTUR-A
 48
25.0
100
AcDbLine
 10
25.4712592026969
 20
4.950000000000045
 30
0.0
 11
25.4712592026969
 21
-4.949999999999931
 31
0.0
  0
LINE
  5
26D
330
2
100
AcDbEntity
  8
GEB-KONTUR-A
 48
25.0
100
AcDbLine
 10
24.90000000000004
 20
5.350000000000022
 30
0.0
 11
24.90000000000004
 21
-5.350000000000022
 31
0.0
  0
LINE
  5
26E
330
2
100
AcDbEntity
  8
GEB-KONTUR-A
 48
25.0
100
AcDbLine
 10
23.9712592026969
 20
4.950000000000045
 30
0.0
 11
23.9712592026969
 21
-4.949999999999931
 31
0.0
  0
LINE
  5
26F
330
2
100
AcDbEntity
  8
GEB-KONTUR-A
 48
25.0
100
AcDbLine
 10
23.40000000000003
 20
5.350000000000022
 30
0.0
 11
23.40000000000003
 21
-5.350000000000022
 31
0.0
  0
LINE
  5
270
330
2
100
AcDbEntity
  8
GEB-KONTUR-A
 48
25.0
100
AcDbLine
 10
48.0
 20
-4.911706186112155
 30
0.0
 11
48.0
 21
4.911706186112155
 31
0.0
  0
LINE
  5
271
330
2
100
AcDbEntity
  8
GEB-KONTUR-A
 48
25.0
100
AcDbLine
 10
38.30000000000001
 20
5.600000000000022
 30
0.0
 11
38.30000000000001
 21
-5.600000000000022
 31
0.0
  0
LINE
  5
272
330
2
100
AcDbEntity
  8
GEB-KONTUR-A
 48
25.0
100
AcDbLine
 10
37.20000000000005
 20
5.199999999999931
 30
0.0
 11
37.20000000000005
 21
-5.199999999999931
 31
0.0
  0
LINE
  5
273
330
2
100
AcDbEntity
  8
GEB-KONTUR-A
 48
25.0
100
AcDbLine
 10
26.50000000000006
 20
-5.477626564109414
 30
0.0
 11
26.50000000000006
 21
-5.569322614062343
 31
0.0
  0
LINE
  5
274
330
2
100
AcDbEntity
  8
GEB-KONTUR-A
 48
25.0
100
AcDbLine
 10
26.50000000000006
 20
-4.849742261192886
 30
0.0
 11
26.50000000000006
 21
-5.115854562798517
 31
0.0
  0
LINE
  5
275
330
2
100
AcDbEntity
  8
GEB-KONTUR-A
 48
25.0
100
AcDbLine
 10
26.50000000000006
 20
-3.747131395609699
 30
0.0
 11
26.50000000000006
 21
-4.161611022673469
 31
0.0
  0
LINE
  5
276
330
2
100
AcDbEntity
  8
GEB-KONTUR-A
 48
25.0
100
AcDbLine
 10
26.50000000000006
 20
-2.27772520122437
 30
0.0
 11
26.50000000000006
 21
-2.799999999999954
 31
0.0
  0
LINE
  5
277
330
2
100
AcDbEntity
  8
GEB-KONTUR-A
 48
25.0
100
AcDbLine
 10
26.50000000000006
 20
-0.5853593942989619
 30
0.0
 11
26.50000000000006
 21
-1.164305468579414
 31
0.0
  0
LINE
  5
278
330
2
100
AcDbEntity
  8
GEB-KONTUR-A
 48
25.0
100
AcDbLine
 10
26.50000000000006
 20
1.164305468579414
 30
0.0
 11
26.50000000000006
 21
0.5853593942988482
 31
0.0
  0
LINE
  5
279
330
2
100
AcDbEntity
  8
GEB-KONTUR-A
 48
25.0
100
AcDbLine
 10
26.50000000000006
 20
2.800000000000068
 30
0.0
 11
26.50000000000006
 21
2.27772520122437
 31
0.0
  0
LINE
  5
27A
330
2
100
AcDbEntity
  8
GEB-KONTUR-A
 48
25.0
100
AcDbLine
 10
26.50000000000006
 20
4.161611022673355
 30
0.0
 11
26.50000000000006
 21
3.747131395609471
 31
0.0
  0
LINE
  5
27B
330
2
100
AcDbEntity
  8
GEB-KONTUR-A
 48
25.0
100
AcDbLine
 10
26.50000000000006
 20
5.115854562798517
 30
0.0
 11
26.50000000000006
 21
4.849742261192773
 31
0.0
  0
LINE
  5
27C
330
2
100
AcDbEntity
  8
GEB-KONTUR-A
 48
25.0
100
AcDbLine
 10
26.50000000000006
 20
5.569322614062457
 30
0.0
 11
26.50000000000006
 21
5.477626564109414
 31
0.0
  0
LINE
  5
27D
330
2
100
AcDbEntity
  8
GEB-KONTUR-A
 48
25.0
100
AcDbLine
 10
46.0
 20
5.600000000000022
 30
0.0
 11
46.0
 21
-5.600000000000022
 31
0.0
  0
LINE
  5
27E
330
2
100
AcDbEntity
  8
GEB-KONTUR-A
 48
25.0
100
AcDbLine
 10
34.10000000000002
 20
5.569322614062457
 30
0.0
 11
34.10000000000002
 21
5.477626564109414
 31
0.0
  0
LINE
  5
27F
330
2
100
AcDbEntity
  8
GEB-KONTUR-A
 48
25.0
100
AcDbLine
 10
34.10000000000002
 20
5.115854562798517
 30
0.0
 11
34.10000000000002
 21
4.849742261192886
 31
0.0
  0
LINE
  5
280
330
2
100
AcDbEntity
  8
GEB-KONTUR-A
 48
25.0
100
AcDbLine
 10
34.10000000000002
 20
4.161611022673355
 30
0.0
 11
34.10000000000002
 21
3.747131395609471
 31
0.0
  0
LINE
  5
281
330
2
100
AcDbEntity
  8
GEB-KONTUR-A
 48
25.0
100
AcDbLine
 10
34.10000000000002
 20
2.800000000000068
 30
0.0
 11
34.10000000000002
 21
2.27772520122437
 31
0.0
  0
LINE
  5
282
330
2
100
AcDbEntity
  8
GEB-KONTUR-A
 48
25.0
100
AcDbLine
 10
34.10000000000002
 20
1.164305468579414
 30
0.0
 11
34.10000000000002
 21
0.5853593942988482
 31
0.0
  0
LINE
  5
283
330
2
100
AcDbEntity
  8
GEB-KONTUR-A
 48
25.0
100
AcDbLine
 10
34.10000000000002
 20
-0.5853593942989619
 30
0.0
 11
34.10000000000002
 21
-1.164305468579414
 31
0.0
  0
LINE
  5
284
330
2
100
AcDbEntity
  8
GEB-KONTUR-A
 48
25.0
100
AcDbLine
 10
34.10000000000002
 20
-2.27772520122437
 30
0.0
 11
34.10000000000002
 21
-2.799999999999954
 31
0.0
  0
LINE
  5
285
330
2
100
AcDbEntity
  8
GEB-KONTUR-A
 48
25.0
100
AcDbLine
 10
34.10000000000002
 20
-3.747131395609699
 30
0.0
 11
34.10000000000002
 21
-4.161611022673469
 31
0.0
  0
LINE
  5
286
330
2
100
AcDbEntity
  8
GEB-KONTUR-A
 48
25.0
100
AcDbLine
 10
34.10000000000002
 20
-4.849742261192886
 30
0.0
 11
34.10000000000002
 21
-5.115854562798631
 31
0.0
  0
LINE
  5
287
330
2
100
AcDbEntity
  8
GEB-KONTUR-A
 48
25.0
100
AcDbLine
 10
34.10000000000002
 20
-5.4776265641093
 30
0.0
 11
34.10000000000002
 21
-5.569322614062343
 31
0.0
  0
LINE
  5
288
330
2
100
AcDbEntity
  8
GEB-KONTUR-A
 48
25.0
100
AcDbLine
 10
32.30000000000007
 20
-5.569322614062343
 30
0.0
 11
32.30000000000007
 21
-5.599999999999909
 31
0.0
  0
LINE
  5
289
330
2
100
AcDbEntity
  8
GEB-KONTUR-A
 48
25.0
100
AcDbLine
 10
32.30000000000007
 20
-5.569322614062343
 30
0.0
 11
34.10000000000002
 21
-5.569322614062343
 31
0.0
  0
LINE
  5
28A
330
2
100
AcDbEntity
  8
GEB-KONTUR-A
 48
25.0
100
AcDbLine
 10
32.30000000000007
 20
-5.115854562798517
 30
0.0
 11
32.30000000000007
 21
-5.4776265641093
 31
0.0
  0
LINE
  5
28B
330
2
100
AcDbEntity
  8
GEB-KONTUR-A
 48
25.0
100
AcDbLine
 10
32.30000000000007
 20
-5.115854562798517
 30
0.0
 11
34.10000000000002
 21
-5.115854562798517
 31
0.0
  0
LINE
  5
28C
330
2
100
AcDbEntity
  8
GEB-KONTUR-A
 48
25.0
100
AcDbLine
 10
34.10000000000002
 20
-5.115854562798517
 30
0.0
 11
34.10000000000002
 21
-5.4776265641093
 31
0.0
  0
LINE
  5
28D
330
2
100
AcDbEntity
  8
GEB-KONTUR-A
 48
25.0
100
AcDbLine
 10
34.10000000000002
 20
-5.4776265641093
 30
0.0
 11
32.30000000000007
 21
-5.4776265641093
 31
0.0
  0
LINE
  5
28E
330
2
100
AcDbEntity
  8
GEB-KONTUR-A
 48
25.0
100
AcDbLine
 10
32.30000000000007
 20
-4.161611022673355
 30
0.0
 11
32.30000000000007
 21
-4.849742261192773
 31
0.0
  0
LINE
  5
28F
330
2
100
AcDbEntity
  8
GEB-KONTUR-A
 48
25.0
100
AcDbLine
 10
32.30000000000007
 20
-4.161611022673355
 30
0.0
 11
34.10000000000002
 21
-4.161611022673355
 31
0.0
  0
LINE
  5
290
330
2
100
AcDbEntity
  8
GEB-KONTUR-A
 48
25.0
100
AcDbLine
 10
34.10000000000002
 20
-4.338745831476444
 30
0.0
 11
34.10000000000002
 21
-4.849742261192886
 31
0.0
  0
LINE
  5
291
330
2
100
AcDbEntity
  8
GEB-KONTUR-A
 48
25.0
100
AcDbLine
 10
34.10000000000002
 20
-4.849742261192886
 30
0.0
 11
32.30000000000007
 21
-4.849742261192886
 31
0.0
  0
LINE
  5
292
330
2
100
AcDbEntity
  8
GEB-KONTUR-A
 48
25.0
100
AcDbLine
 10
34.10000000000002
 20
-4.161611022673469
 30
0.0
 11
34.10000000000002
 21
-4.338745831476444
 31
0.0
  0
LINE
  5
293
330
2
100
AcDbEntity
  8
GEB-KONTUR-A
 48
25.0
100
AcDbLine
 10
32.30000000000007
 20
-2.799999999999954
 30
0.0
 11
32.30000000000007
 21
-3.747131395609585
 31
0.0
  0
LINE
  5
294
330
2
100
AcDbEntity
  8
GEB-KONTUR-A
 48
25.0
100
AcDbLine
 10
32.30000000000007
 20
-2.800000000000068
 30
0.0
 11
34.10000000000002
 21
-2.800000000000068
 31
0.0
  0
LINE
  5
295
330
2
100
AcDbEntity
  8
GEB-KONTUR-A
 48
25.0
100
AcDbLine
 10
34.10000000000002
 20
-2.800000000000068
 30
0.0
 11
34.10000000000002
 21
-2.866231778807446
 31
0.0
  0
LINE
  5
296
330
2
100
AcDbEntity
  8
GEB-KONTUR-A
 48
25.0
100
AcDbLine
 10
34.10000000000002
 20
-3.240678166105112
 30
0.0
 11
34.10000000000002
 21
-3.747131395609585
 31
0.0
  0
LINE
  5
297
330
2
100
AcDbEntity
  8
GEB-KONTUR-A
 48
25.0
100
AcDbLine
 10
34.10000000000002
 20
-3.747131395609585
 30
0.0
 11
32.30000000000007
 21
-3.747131395609585
 31
0.0
  0
LINE
  5
298
330
2
100
AcDbEntity
  8
GEB-KONTUR-A
 48
25.0
100
AcDbLine
 10
32.30000000000007
 20
-2.909536998847784
 30
0.0
 11
34.10000000000002
 21
-2.909536998847784
 31
0.0
  0
LINE
  5
299
330
2
100
AcDbEntity
  8
GEB-KONTUR-A
 48
25.0
100
AcDbLine
 10
34.10000000000002
 20
-2.866231778807446
 30
0.0
 11
34.10000000000002
 21
-3.240678166105112
 31
0.0
  0
LINE
  5
29A
330
2
100
AcDbEntity
  8
GEB-KONTUR-A
 48
25.0
100
AcDbLine
 10
32.30000000000007
 20
-1.164305468579414
 30
0.0
 11
32.30000000000007
 21
-2.277725201224484
 31
0.0
  0
LINE
  5
29B
330
2
100
AcDbEntity
  8
GEB-KONTUR-A
 48
25.0
100
AcDbLine
 10
32.30000000000007
 20
-1.164305468579414
 30
0.0
 11
34.10000000000002
 21
-1.164305468579414
 31
0.0
  0
LINE
  5
29C
330
2
100
AcDbEntity
  8
GEB-KONTUR-A
 48
25.0
100
AcDbLine
 10
34.10000000000002
 20
-1.164305468579414
 30
0.0
 11
34.10000000000002
 21
-1.385202214247328
 31
0.0
  0
LINE
  5
29D
330
2
100
AcDbEntity
  8
GEB-KONTUR-A
 48
25.0
100
AcDbLine
 10
34.10000000000002
 20
-1.825390342702917
 30
0.0
 11
34.10000000000002
 21
-2.277725201224484
 31
0.0
  0
LINE
  5
29E
330
2
100
AcDbEntity
  8
GEB-KONTUR-A
 48
25.0
100
AcDbLine
 10
34.10000000000002
 20
-2.277725201224484
 30
0.0
 11
32.30000000000007
 21
-2.277725201224484
 31
0.0
  0
LINE
  5
29F
330
2
100
AcDbEntity
  8
GEB-KONTUR-A
 48
25.0
100
AcDbLine
 10
32.30000000000007
 20
-1.529634122155925
 30
0.0
 11
34.10000000000002
 21
-1.529634122155925
 31
0.0
  0
LINE
  5
2A0
330
2
100
AcDbEntity
  8
GEB-KONTUR-A
 48
25.0
100
AcDbLine
 10
34.10000000000002
 20
-1.385202214247215
 30
0.0
 11
34.10000000000002
 21
-1.825390342702803
 31
0.0
  0
LINE
  5
2A1
330
2
100
AcDbEntity
  8
GEB-KONTUR-A
 48
25.0
100
AcDbLine
 10
32.30000000000007
 20
0.5853593942987346
 30
0.0
 11
32.30000000000007
 21
-0.5853593942988482
 31
0.0
  0
LINE
  5
2A2
330
2
100
AcDbEntity
  8
GEB-KONTUR-A
 48
25.0
100
AcDbLine
 10
32.30000000000007
 20
0.5853593942988482
 30
0.0
 11
34.10000000000002
 21
0.5853593942988482
 31
0.0
  0
LINE
  5
2A3
330
2
100
AcDbEntity
  8
GEB-KONTUR-A
 48
25.0
100
AcDbLine
 10
34.10000000000002
 20
0.5853593942988482
 30
0.0
 11
34.10000000000002
 21
0.2314205943144998
 31
0.0
  0
LINE
  5
2A4
330
2
100
AcDbEntity
  8
GEB-KONTUR-A
 48
25.0
100
AcDbLine
 10
34.10000000000002
 20
-0.2314205943144998
 30
0.0
 11
34.10000000000002
 21
-0.5853593942988482
 31
0.0
  0
LINE
  5
2A5
330
2
100
AcDbEntity
  8
GEB-KONTUR-A
 48
25.0
100
AcDbLine
 10
34.10000000000002
 20
-0.5853593942988482
 30
0.0
 11
32.30000000000007
 21
-0.5853593942988482
 31
0.0
  0
LINE
  5
2A6
330
2
100
AcDbEntity
  8
GEB-KONTUR-A
 48
25.0
100
AcDbLine
 10
32.30000000000007
 20
0.0
 30
0.0
 11
34.10000000000002
 21
0.0
 31
0.0
  0
LINE
  5
2A7
330
2
100
AcDbEntity
  8
GEB-KONTUR-A
 48
25.0
100
AcDbLine
 10
34.10000000000002
 20
0.2314205943146135
 30
0.0
 11
34.10000000000002
 21
-0.2314205943144998
 31
0.0
  0
LINE
  5
2A8
330
2
100
AcDbEntity
  8
GEB-KONTUR-A
 48
25.0
100
AcDbLine
 10
32.30000000000007
 20
2.27772520122437
 30
0.0
 11
32.30000000000007
 21
1.164305468579414
 31
0.0
  0
LINE
  5
2A9
330
2
100
AcDbEntity
  8
GEB-KONTUR-A
 48
25.0
100
AcDbLine
 10
32.30000000000007
 20
2.27772520122437
 30
0.0
 11
34.10000000000002
 21
2.27772520122437
 31
0.0
  0
LINE
  5
2AA
330
2
100
AcDbEntity
  8
GEB-KONTUR-A
 48
25.0
100
AcDbLine
 10
34.10000000000002
 20
2.27772520122437
 30
0.0
 11
34.10000000000002
 21
1.825390342702917
 31
0.0
  0
LINE
  5
2AB
330
2
100
AcDbEntity
  8
GEB-KONTUR-A
 48
25.0
100
AcDbLine
 10
34.10000000000002
 20
1.385202214247442
 30
0.0
 11
34.10000000000002
 21
1.164305468579414
 31
0.0
  0
LINE
  5
2AC
330
2
100
AcDbEntity
  8
GEB-KONTUR-A
 48
25.0
100
AcDbLine
 10
34.10000000000002
 20
1.164305468579414
 30
0.0
 11
32.30000000000007
 21
1.164305468579414
 31
0.0
  0
LINE
  5
2AD
330
2
100
AcDbEntity
  8
GEB-KONTUR-A
 48
25.0
100
AcDbLine
 10
32.30000000000007
 20
1.529634122155925
 30
0.0
 11
34.10000000000002
 21
1.529634122155925
 31
0.0
  0
LINE
  5
2AE
330
2
100
AcDbEntity
  8
GEB-KONTUR-A
 48
25.0
100
AcDbLine
 10
34.10000000000002
 20
1.825390342702803
 30
0.0
 11
34.10000000000002
 21
1.385202214247215
 31
0.0
  0
LINE
  5
2AF
330
2
100
AcDbEntity
  8
GEB-KONTUR-A
 48
25.0
100
AcDbLine
 10
32.30000000000007
 20
3.747131395609471
 30
0.0
 11
32.30000000000007
 21
2.800000000000068
 31
0.0
  0
LINE
  5
2B0
330
2
100
AcDbEntity
  8
GEB-KONTUR-A
 48
25.0
100
AcDbLine
 10
32.30000000000007
 20
3.747131395609699
 30
0.0
 11
34.10000000000002
 21
3.747131395609699
 31
0.0
  0
LINE
  5
2B1
330
2
100
AcDbEntity
  8
GEB-KONTUR-A
 48
25.0
100
AcDbLine
 10
34.10000000000002
 20
3.747131395609699
 30
0.0
 11
34.10000000000002
 21
3.240678166105112
 31
0.0
  0
LINE
  5
2B2
330
2
100
AcDbEntity
  8
GEB-KONTUR-A
 48
25.0
100
AcDbLine
 10
34.10000000000002
 20
2.866231778807446
 30
0.0
 11
34.10000000000002
 21
2.800000000000068
 31
0.0
  0
LINE
  5
2B3
330
2
100
AcDbEntity
  8
GEB-KONTUR-A
 48
25.0
100
AcDbLine
 10
34.10000000000002
 20
2.800000000000068
 30
0.0
 11
32.30000000000007
 21
2.800000000000068
 31
0.0
  0
LINE
  5
2B4
330
2
100
AcDbEntity
  8
GEB-KONTUR-A
 48
25.0
100
AcDbLine
 10
32.30000000000007
 20
2.90953699884767
 30
0.0
 11
34.10000000000002
 21
2.90953699884767
 31
0.0
  0
LINE
  5
2B5
330
2
100
AcDbEntity
  8
GEB-KONTUR-A
 48
25.0
100
AcDbLine
 10
34.10000000000002
 20
3.240678166105112
 30
0.0
 11
34.10000000000002
 21
2.866231778807446
 31
0.0
  0
LINE
  5
2B6
330
2
100
AcDbEntity
  8
GEB-KONTUR-A
 48
25.0
100
AcDbLine
 10
32.30000000000007
 20
4.849742261192773
 30
0.0
 11
32.30000000000007
 21
4.161611022673355
 31
0.0
  0
LINE
  5
2B7
330
2
100
AcDbEntity
  8
GEB-KONTUR-A
 48
25.0
100
AcDbLine
 10
32.30000000000007
 20
4.849742261192886
 30
0.0
 11
34.10000000000002
 21
4.849742261192886
 31
0.0
  0
LINE
  5
2B8
330
2
100
AcDbEntity
  8
GEB-KONTUR-A
 48
25.0
100
AcDbLine
 10
34.10000000000002
 20
4.849742261192886
 30
0.0
 11
34.10000000000002
 21
4.338745831476444
 31
0.0
  0
LINE
  5
2B9
330
2
100
AcDbEntity
  8
GEB-KONTUR-A
 48
25.0
100
AcDbLine
 10
34.10000000000002
 20
4.161611022673355
 30
0.0
 11
32.30000000000007
 21
4.161611022673355
 31
0.0
  0
LINE
  5
2BA
330
2
100
AcDbEntity
  8
GEB-KONTUR-A
 48
25.0
100
AcDbLine
 10
34.10000000000002
 20
4.338745831476444
 30
0.0
 11
34.10000000000002
 21
4.161611022673355
 31
0.0
  0
LINE
  5
2BB
330
2
100
AcDbEntity
  8
GEB-KONTUR-A
 48
25.0
100
AcDbLine
 10
32.30000000000007
 20
5.4776265641093
 30
0.0
 11
32.30000000000007
 21
5.115854562798631
 31
0.0
  0
LINE
  5
2BC
330
2
100
AcDbEntity
  8
GEB-KONTUR-A
 48
25.0
100
AcDbLine
 10
32.30000000000007
 20
5.4776265641093
 30
0.0
 11
34.10000000000002
 21
5.4776265641093
 31
0.0
  0
LINE
  5
2BD
330
2
100
AcDbEntity
  8
GEB-KONTUR-A
 48
25.0
100
AcDbLine
 10
34.10000000000002
 20
5.4776265641093
 30
0.0
 11
34.10000000000002
 21
5.115854562798631
 31
0.0
  0
LINE
  5
2BE
330
2
100
AcDbEntity
  8
GEB-KONTUR-A
 48
25.0
100
AcDbLine
 10
34.10000000000002
 20
5.115854562798631
 30
0.0
 11
32.30000000000007
 21
5.115854562798631
 31
0.0
  0
LINE
  5
2BF
330
2
100
AcDbEntity
  8
GEB-KONTUR-A
 48
25.0
100
AcDbLine
 10
32.30000000000007
 20
5.600000000000022
 30
0.0
 11
32.30000000000007
 21
5.569322614062343
 31
0.0
  0
LINE
  5
2C0
330
2
100
AcDbEntity
  8
GEB-KONTUR-A
 48
25.0
100
AcDbLine
 10
34.10000000000002
 20
5.569322614062343
 30
0.0
 11
32.30000000000007
 21
5.569322614062343
 31
0.0
  0
LINE
  5
2C1
330
2
100
AcDbEntity
  8
GEB-VERDECKT
 48
25.0
100
AcDbLine
 10
32.30000000000007
 20
-5.4776265641093
 30
0.0
 11
32.30000000000007
 21
-5.569322614062343
 31
0.0
  0
LINE
  5
2C2
330
2
100
AcDbEntity
  8
GEB-VERDECKT
 48
25.0
100
AcDbLine
 10
32.30000000000007
 20
-4.949999999999931
 30
0.0
 11
34.10000000000002
 21
-4.949999999999931
 31
0.0
  0
LINE
  5
2C3
330
2
100
AcDbEntity
  8
GEB-VERDECKT
 48
25.0
100
AcDbLine
 10
32.30000000000007
 20
-4.849742261192886
 30
0.0
 11
32.30000000000007
 21
-5.115854562798517
 31
0.0
  0
LINE
  5
2C4
330
2
100
AcDbEntity
  8
GEB-VERDECKT
 48
25.0
100
AcDbLine
 10
32.30000000000007
 20
-4.707729755661034
 30
0.0
 11
34.10000000000002
 21
-4.707729755661034
 31
0.0
  0
LINE
  5
2C5
330
2
100
AcDbEntity
  8
GEB-VERDECKT
 48
25.0
100
AcDbLine
 10
32.30000000000007
 20
-4.004634122156062
 30
0.0
 11
32.30000000000007
 21
-4.161611022673355
 31
0.0
  0
LINE
  5
2C6
330
2
100
AcDbEntity
  8
GEB-VERDECKT
 48
25.0
100
AcDbLine
 10
32.30000000000007
 20
-4.004634122156062
 30
0.0
 11
34.10000000000002
 21
-4.004634122156062
 31
0.0
  0
LINE
  5
2C7
330
2
100
AcDbEntity
  8
GEB-VERDECKT
 48
25.0
100
AcDbLine
 10
32.30000000000007
 20
4.161611022673355
 30
0.0
 11
32.30000000000007
 21
4.004634122156062
 31
0.0
  0
LINE
  5
2C8
330
2
100
AcDbEntity
  8
GEB-VERDECKT
 48
25.0
100
AcDbLine
 10
32.30000000000007
 20
4.004634122156062
 30
0.0
 11
34.10000000000002
 21
4.004634122156062
 31
0.0
  0
LINE
  5
2C9
330
2
100
AcDbEntity
  8
GEB-VERDECKT
 48
25.0
100
AcDbLine
 10
32.30000000000007
 20
5.115854562798631
 30
0.0
 11
32.30000000000007
 21
4.849742261192886
 31
0.0
  0
LINE
  5
2CA
330
2
100
AcDbEntity
  8
GEB-VERDECKT
 48
25.0
100
AcDbLine
 10
32.30000000000007
 20
4.707729755661034
 30
0.0
 11
34.10000000000002
 21
4.707729755661034
 31
0.0
  0
LINE
  5
2CB
330
2
100
AcDbEntity
  8
GEB-VERDECKT
 48
25.0
100
AcDbLine
 10
32.30000000000007
 20
5.569322614062343
 30
0.0
 11
32.30000000000007
 21
5.4776265641093
 31
0.0
  0
LINE
  5
2CC
330
2
100
AcDbEntity
  8
GEB-VERDECKT
 48
25.0
100
AcDbLine
 10
32.30000000000007
 20
4.950000000000045
 30
0.0
 11
34.10000000000002
 21
4.950000000000045
 31
0.0
  0
ARC
  5
2CD
330
2
100
AcDbEntity
  8
GEB-KONTUR-A
 48
25.0
100
AcDbCircle
 10
-6.504805770653945
 20
0.849999999999909
 30
0.0
 40
5.0
100
AcDbArc
 50
90.0
 51
120.0000000000005
  0
LINE
  5
2CE
330
2
100
AcDbEntity
  8
GEB-KONTUR-A
 48
25.0
100
AcDbLine
 10
-9.025898384862244
 20
5.167949192431137
 30
0.0
 11
-9.004805770653945
 21
5.180127018922235
 31
0.0
  0
ARC
  5
2CF
330
2
100
AcDbEntity
  8
GEB-KONTUR-A
 48
25.0
100
AcDbCircle
 10
7.174678751731789
 20
3.349999999999909
 30
0.0
 40
2.5
100
AcDbArc
 50
59.99999999999946
 51
90.0
  0
LINE
  5
2D0
330
2
100
AcDbEntity
  8
GEB-KONTUR-A
 48
25.0
100
AcDbLine
 10
9.025898384862273
 20
5.167949192431137
 30
0.0
 11
8.424678751731789
 21
5.515063509461128
 31
0.0
  0
LINE
  5
2D1
330
2
100
AcDbEntity
  8
GEB-KONTUR-A
 48
25.0
100
AcDbLine
 10
-4.899999999999977
 20
-6.899999999999977
 30
0.0
 11
-4.899999999999977
 21
-19.39999999999997
 31
0.0
  0
LINE
  5
2D2
330
2
100
AcDbEntity
  8
GEB-KONTUR-A
 48
25.0
100
AcDbLine
 10
4.899999999999977
 20
-6.899999999999977
 30
0.0
 11
4.899999999999977
 21
-19.39999999999997
 31
0.0
  0
LINE
  5
2D3
330
2
100
AcDbEntity
  8
GEB-VERDECKT
 48
25.0
100
AcDbLine
 10
3.25
 20
-3.25
 30
0.0
 11
22.0
 21
-3.25
 31
0.0
  0
LINE
  5
2D4
330
2
100
AcDbEntity
  8
GEB-VERDECKT
 48
25.0
100
AcDbLine
 10
-21.99999999999997
 20
-3.25
 30
0.0
 11
-3.249999999999971
 21
-3.25
 31
0.0
  0
LINE
  5
2D5
330
2
100
AcDbEntity
  8
GEB-VERDECKT
 48
25.0
100
AcDbLine
 10
-21.99999999999997
 20
3.25
 30
0.0
 11
22.0
 21
3.25
 31
0.0
  0
ARC
  5
2D6
330
2
100
AcDbEntity
  8
GEB-KONTUR-A
 48
25.0
100
AcDbCircle
 10
6.900000000000034
 20
-6.899999999999977
 30
0.0
 40
2.0
100
AcDbArc
 50
90.0
 51
180.0
  0
ARC
  5
2D7
330
2
100
AcDbEntity
  8
GEB-KONTUR-A
 48
25.0
100
AcDbCircle
 10
-6.900000000000005
 20
-6.899999999999977
 30
0.0
 40
2.0
100
AcDbArc
 50
0.0
 51
90.0
  0
ARC
  5
2D8
330
2
100
AcDbEntity
  8
GEB-KONTUR-A
 48
25.0
100
AcDbCircle
 10
-10.02589838486221
 20
6.899999999999977
 30
0.0
 40
2.0
100
AcDbArc
 50
270.0
 51
300.0000000000005
  0
LINE
  5
2D9
330
2
100
AcDbEntity
  8
GEB-KONTUR-A
 48
25.0
100
AcDbLine
 10
-6.504805770653945
 20
5.849999999999909
 30
0.0
 11
7.174678751731789
 21
5.849999999999909
 31
0.0
  0
LINE
  5
2DA
330
2
100
AcDbEntity
  8
GEB-KONTUR-A
 48
25.0
100
AcDbLine
 10
-19.4
 20
-4.899999999999977
 30
0.0
 11
-6.900000000000005
 21
-4.899999999999977
 31
0.0
  0
LINE
  5
2DB
330
2
100
AcDbEntity
  8
GEB-KONTUR-A
 48
25.0
100
AcDbLine
 10
-19.4
 20
4.899999999999977
 30
0.0
 11
-10.02589838486221
 21
4.899999999999977
 31
0.0
  0
LINE
  5
2DC
330
2
100
AcDbEntity
  8
GEB-KONTUR-A
 48
25.0
100
AcDbLine
 10
6.900000000000034
 20
-4.899999999999977
 30
0.0
 11
19.40000000000003
 21
-4.899999999999977
 31
0.0
  0
LINE
  5
2DD
330
2
100
AcDbEntity
  8
GEB-KONTUR-A
 48
25.0
100
AcDbLine
 10
10.02589838486227
 20
4.899999999999977
 30
0.0
 11
19.40000000000003
 21
4.899999999999977
 31
0.0
  0
ARC
  5
2DE
330
2
100
AcDbEntity
  8
GEB-KONTUR-A
 48
25.0
100
AcDbCircle
 10
10.02589838486227
 20
6.899999999999977
 30
0.0
 40
2.0
100
AcDbArc
 50
239.9999999999995
 51
270.0
  0
LINE
  5
2DF
330
2
100
AcDbEntity
  8
GEB-VERDECKT
 48
25.0
100
AcDbLine
 10
-3.249999999999971
 20
-3.25
 30
0.0
 11
-3.249999999999971
 21
-22.0
 31
0.0
  0
LINE
  5
2E0
330
2
100
AcDbEntity
  8
GEB-VERDECKT
 48
25.0
100
AcDbLine
 10
3.25
 20
-3.25
 30
0.0
 11
3.25
 21
-22.0
 31
0.0
  0
LINE
  5
2E1
330
2
100
AcDbEntity
  8
GEB-VERDECKT
 48
25.0
100
AcDbLine
 10
-3.249999999999971
 20
-3.25
 30
0.0
 11
0.0
 21
0.0
 31
0.0
  0
LINE
  5
2E2
330
2
100
AcDbEntity
  8
GEB-VERDECKT
 48
25.0
100
AcDbLine
 10
0.0
 20
0.0
 30
0.0
 11
3.25
 21
-3.25
 31
0.0
  0
LINE
  5
2E3
330
2
100
AcDbEntity
  8
GEB-KONTUR-A
 48
25.0
100
AcDbLine
 10
-21.99999999999997
 20
-10.0
 30
0.0
 11
-21.50925227118881
 21
-10.85000000000002
 31
0.0
  0
LINE
  5
2E4
330
2
100
AcDbEntity
  8
GEB-KONTUR-A
 48
25.0
100
AcDbLine
 10
-21.99999999999997
 20
10.0
 30
0.0
 11
-21.50925227118881
 21
10.84999999999991
 31
0.0
  0
LINE
  5
2E5
330
2
100
AcDbEntity
  8
GEB-KONTUR-A
 48
25.0
100
AcDbLine
 10
-20.09999999999999
 20
10.84999999999991
 30
0.0
 11
-21.50925227118881
 21
10.84999999999991
 31
0.0
  0
LINE
  5
2E6
330
2
100
AcDbEntity
  8
GEB-KONTUR-A
 48
25.0
100
AcDbLine
 10
-20.09999999999999
 20
-10.85000000000002
 30
0.0
 11
-21.50925227118881
 21
-10.85000000000002
 31
0.0
  0
LINE
  5
2E7
330
2
100
AcDbEntity
  8
GEB-KONTUR-A
 48
25.0
100
AcDbLine
 10
-19.4
 20
9.637564434701744
 30
0.0
 11
-20.09999999999999
 21
10.84999999999991
 31
0.0
  0
LINE
  5
2E8
330
2
100
AcDbEntity
  8
GEB-KONTUR-A
 48
25.0
100
AcDbLine
 10
-19.4
 20
-9.637564434701857
 30
0.0
 11
-20.09999999999999
 21
-10.85000000000002
 31
0.0
  0
LINE
  5
2E9
330
2
100
AcDbEntity
  8
GEB-KONTUR-A
 48
25.0
100
AcDbLine
 10
-21.99999999999997
 20
10.0
 30
0.0
 11
-21.99999999999997
 21
-10.0
 31
0.0
  0
LINE
  5
2EA
330
2
100
AcDbEntity
  8
GEB-KONTUR-A
 48
25.0
100
AcDbLine
 10
-21.50925227118881
 20
10.84999999999991
 30
0.0
 11
-21.50925227118881
 21
-10.85000000000002
 31
0.0
  0
LINE
  5
2EB
330
2
100
AcDbEntity
  8
GEB-KONTUR-A
 48
25.0
100
AcDbLine
 10
-20.09999999999999
 20
10.84999999999991
 30
0.0
 11
-20.09999999999999
 21
-10.85000000000002
 31
0.0
  0
LINE
  5
2EC
330
2
100
AcDbEntity
  8
GEB-KONTUR-A
 48
25.0
100
AcDbLine
 10
-19.4
 20
9.637564434701744
 30
0.0
 11
-19.4
 21
-9.637564434701857
 31
0.0
  0
LINE
  5
2ED
330
2
100
AcDbEntity
  8
GEB-KONTUR-A
 48
25.0
100
AcDbLine
 10
22.0
 20
10.0
 30
0.0
 11
21.50925227118887
 21
10.84999999999991
 31
0.0
  0
LINE
  5
2EE
330
2
100
AcDbEntity
  8
GEB-KONTUR-A
 48
25.0
100
AcDbLine
 10
22.0
 20
-10.0
 30
0.0
 11
21.50925227118887
 21
-10.85000000000002
 31
0.0
  0
LINE
  5
2EF
330
2
100
AcDbEntity
  8
GEB-KONTUR-A
 48
25.0
100
AcDbLine
 10
20.10000000000002
 20
-10.85000000000002
 30
0.0
 11
21.50925227118887
 21
-10.85000000000002
 31
0.0
  0
LINE
  5
2F0
330
2
100
AcDbEntity
  8
GEB-KONTUR-A
 48
25.0
100
AcDbLine
 10
20.10000000000002
 20
10.84999999999991
 30
0.0
 11
21.50925227118887
 21
10.84999999999991
 31
0.0
  0
LINE
  5
2F1
330
2
100
AcDbEntity
  8
GEB-KONTUR-A
 48
25.0
100
AcDbLine
 10
19.40000000000003
 20
-9.637564434701744
 30
0.0
 11
20.10000000000002
 21
-10.85000000000002
 31
0.0
  0
LINE
  5
2F2
330
2
100
AcDbEntity
  8
GEB-KONTUR-A
 48
25.0
100
AcDbLine
 10
19.40000000000003
 20
9.637564434701744
 30
0.0
 11
20.10000000000002
 21
10.84999999999991
 31
0.0
  0
LINE
  5
2F3
330
2
100
AcDbEntity
  8
GEB-KONTUR-A
 48
25.0
100
AcDbLine
 10
22.0
 20
-10.0
 30
0.0
 11
22.0
 21
10.0
 31
0.0
  0
LINE
  5
2F4
330
2
100
AcDbEntity
  8
GEB-KONTUR-A
 48
25.0
100
AcDbLine
 10
21.50925227118887
 20
-10.85000000000002
 30
0.0
 11
21.50925227118887
 21
10.84999999999991
 31
0.0
  0
LINE
  5
2F5
330
2
100
AcDbEntity
  8
GEB-KONTUR-A
 48
25.0
100
AcDbLine
 10
19.40000000000003
 20
-9.637564434701857
 30
0.0
 11
19.40000000000003
 21
9.637564434701744
 31
0.0
  0
LINE
  5
2F6
330
2
100
AcDbEntity
  8
GEB-KONTUR-A
 48
25.0
100
AcDbLine
 10
20.10000000000002
 20
-10.85000000000002
 30
0.0
 11
20.10000000000002
 21
10.84999999999991
 31
0.0
  0
LINE
  5
2F7
330
2
100
AcDbEntity
  8
GEB-KONTUR-A
 48
25.0
100
AcDbLine
 10
10.0
 20
-22.0
 30
0.0
 11
10.85000000000002
 21
-21.50925227118887
 31
0.0
  0
LINE
  5
2F8
330
2
100
AcDbEntity
  8
GEB-KONTUR-A
 48
25.0
100
AcDbLine
 10
-10.0
 20
-22.0
 30
0.0
 11
-10.84999999999999
 21
-21.50925227118887
 31
0.0
  0
LINE
  5
2F9
330
2
100
AcDbEntity
  8
GEB-KONTUR-A
 48
25.0
100
AcDbLine
 10
-10.84999999999999
 20
-20.10000000000002
 30
0.0
 11
-10.84999999999999
 21
-21.50925227118887
 31
0.0
  0
LINE
  5
2FA
330
2
100
AcDbEntity
  8
GEB-KONTUR-A
 48
25.0
100
AcDbLine
 10
10.85000000000002
 20
-20.10000000000002
 30
0.0
 11
10.85000000000002
 21
-21.50925227118887
 31
0.0
  0
LINE
  5
2FB
330
2
100
AcDbEntity
  8
GEB-KONTUR-A
 48
25.0
100
AcDbLine
 10
-9.637564434701772
 20
-19.39999999999997
 30
0.0
 11
-10.84999999999999
 21
-20.10000000000002
 31
0.0
  0
LINE
  5
2FC
330
2
100
AcDbEntity
  8
GEB-KONTUR-A
 48
25.0
100
AcDbLine
 10
9.637564434701801
 20
-19.39999999999997
 30
0.0
 11
10.85000000000002
 21
-20.10000000000002
 31
0.0
  0
LINE
  5
2FD
330
2
100
AcDbEntity
  8
GEB-KONTUR-A
 48
25.0
100
AcDbLine
 10
-10.0
 20
-22.0
 30
0.0
 11
10.0
 21
-22.0
 31
0.0
  0
LINE
  5
2FE
330
2
100
AcDbEntity
  8
GEB-KONTUR-A
 48
25.0
100
AcDbLine
 10
-10.84999999999999
 20
-21.50925227118887
 30
0.0
 11
10.85000000000002
 21
-21.50925227118887
 31
0.0
  0
LINE
  5
2FF
330
2
100
AcDbEntity
  8
GEB-KONTUR-A
 48
25.0
100
AcDbLine
 10
-10.84999999999999
 20
-20.10000000000002
 30
0.0
 11
10.85000000000002
 21
-20.10000000000002
 31
0.0
  0
LINE
  5
300
330
2
100
AcDbEntity
  8
GEB-KONTUR-A
 48
25.0
100
AcDbLine
 10
-9.637564434701772
 20
-19.39999999999997
 30
0.0
 11
9.637564434701801
 21
-19.39999999999997
 31
0.0
  0
TEXT
  5
301
330
2
100
AcDbEntity
  8
GEB-TEXT
100
AcDbText
 10
-33.4230900409277
 20
-58.5
 30
0.0
 40
3.5
  1
T-Stück MEP PVDF d16-16-16
 72
     1
 11
0.0
 21
-58.5
 31
0.0
100
AcDbText
  0
TEXT
  5
303
330
2
100
AcDbEntity
  8
GEB-TEXT
100
AcDbText
 10
-15.35487721691678
 20
-53.0
 30
0.0
 40
3.5
  1
Geberit Mepla
 72
     1
 11
0.0
 21
-53.0
 31
0.0
100
AcDbText
  0
TEXT
  5
304
330
2
100
AcDbEntity
  8
GEB-ART-NR
100
AcDbText
 10
-23.86534800556557
 20
-64.84278125428023
 30
0.0
 40
3.5
  1
GEB-ART-NR 621310
 72
     1
 11
0.1834241636022398
 21
-64.84278125428023
 31
0.0
100
AcDbText
  0
ENDSEC
  0
SECTION
  2
OBJECTS
  0
DICTIONARY
  5
9
330
0
100
AcDbDictionary
281
     1
  3
ACAD_2007HEADERVARS_RT
350
3BB
  3
ACAD_COLOR
350
44
  3
ACAD_GROUP
350
31
  3
ACAD_LAYOUT
350
8
  3
ACAD_MATERIAL
350
13
  3
ACAD_MLEADERSTYLE
350
47
  3
ACAD_MLINESTYLE
350
32
  3
ACAD_PLOTSETTINGS
350
33
  3
ACAD_PLOTSTYLENAME
350
11
  3
ACAD_SCALELIST
350
45
  3
ACAD_TABLESTYLE
350
46
  3
ACAD_VISUALSTYLE
350
2B
  3
ACDB_RECOMPOSE_DATA
350
3BA
  3
AcDbVariableDictionary
350
364
  3
AcmDictionary
350
317
  3
AcmSystemVariableManager
350
3D2
  3
AMG
350
308
  0
DICTIONARY
  5
2C
330
28
100
AcDbDictionary
280
     1
281
     1
  0
DICTIONARY
  5
1C
330
E
100
AcDbDictionary
280
     1
281
     1
  3
ACAD_LAYERFILTERS
360
1D
  3
ACLYDICTIONARY
360
1E
  0
DICTIONARY
  5
3
330
2
100
AcDbDictionary
280
     1
281
     1
  3
ACAD_SORTENTS
360
306
  0
DICTIONARY
  5
3BB
102
{ACAD_REACTORS
330
9
102
}
330
9
100
AcDbDictionary
281
     1
  3
DIMARCSYM
350
3BC
  3
DIMLTEX1
350
3BE
  3
DIMLTEX2
350
3BF
  3
DIMLTYPE
350
3BD
  0
DICTIONARY
  5
44
102
{ACAD_REACTORS
330
9
102
}
330
9
100
AcDbDictionary
281
     1
  0
DICTIONARY
  5
31
102
{ACAD_REACTORS
330
9
102
}
330
9
100
AcDbDictionary
281
     1
  0
DICTIONARY
  5
8
102
{ACAD_REACTORS
330
9
102
}
330
9
100
AcDbDictionary
281
     1
  3
Layout1
350
D
  3
Model
350
7
  0
DICTIONARY
  5
13
102
{ACAD_REACTORS
330
9
102
}
330
9
100
AcDbDictionary
281
     1
  3
ByBlock
350
3C
  3
ByLayer
350
34
  3
Global
350
12
  0
DICTIONARY
  5
47
102
{ACAD_REACTORS
330
9
102
}
330
9
100
AcDbDictionary
281
     1
  3
Standard
350
382
  0
DICTIONARY
  5
32
102
{ACAD_REACTORS
330
9
102
}
330
9
100
AcDbDictionary
281
     1
  3
Standard
350
48
  0
DICTIONARY
  5
33
102
{ACAD_REACTORS
330
9
102
}
330
9
100
AcDbDictionary
281
     1
  0
ACDBDICTIONARYWDFLT
  5
11
102
{ACAD_REACTORS
330
9
102
}
330
9
100
AcDbDictionary
281
     1
  3
Normal
350
10
100
AcDbDictionaryWithDefault
340
10
  0
DICTIONARY
  5
45
102
{ACAD_REACTORS
330
9
102
}
330
9
100
AcDbDictionary
281
     1
  3
A0
350
4D
  3
A1
350
4E
  3
A2
350
4F
  3
A3
350
50
  3
A4
350
51
  3
A5
350
52
  3
A6
350
53
  3
A7
350
54
  3
A8
350
55
  3
A9
350
56
  3
B0
350
57
  3
B1
350
58
  3
B2
350
59
  3
B3
350
5A
  3
B4
350
5B
  3
B5
350
5C
  3
B6
350
5D
  3
B7
350
5E
  3
B8
350
5F
  3
B9
350
60
  3
C0
350
61
  3
C1
350
62
  3
C2
350
63
  3
C3
350
64
  3
C4
350
65
  3
C5
350
66
  3
C6
350
67
  3
C7
350
68
  3
C8
350
69
  3
C9
350
6A
  3
D0
350
6B
  3
D1
350
6C
  3
D2
350
6D
  0
DICTIONARY
  5
46
102
{ACAD_REACTORS
330
9
102
}
330
9
100
AcDbDictionary
281
     1
  3
Standard
350
49
  0
DICTIONARY
  5
2B
102
{ACAD_REACTORS
330
9
102
}
330
9
100
AcDbDictionary
281
     1
  3
2dWireframe
350
2A
  3
Basic
350
371
  3
Brighten
350
375
  3
ColorChange
350
379
  3
Conceptual
350
373
  3
Dim
350
374
  3
EdgeColorOff
350
381
  3
Facepattern
350
378
  3
Flat
350
36D
  3
FlatWithEdges
350
36E
  3
Gouraud
350
36F
  3
GouraudWithEdges
350
370
  3
Hidden
350
372
  3
JitterOff
350
37F
  3
Linepattern
350
377
  3
OverhangOff
350
380
  3
Realistic
350
4B
  3
Shaded
350
37E
  3
Shaded with edges
350
37D
  3
Shades of Gray
350
37A
  3
Sketchy
350
37B
  3
Thicken
350
376
  3
Wireframe
350
4C
  3
X-Ray
350
37C
  0
XRECORD
  5
3BA
102
{ACAD_REACTORS
330
9
102
}
330
9
100
AcDbXrecord
280
     1
 90
        1
330
49
  0
DICTIONARY
  5
364
102
{ACAD_REACTORS
330
9
102
}
330
9
100
AcDbDictionary
281
     1
  3
CANNOSCALE
350
368
  3
CMLEADERSTYLE
350
366
  3
CTABLESTYLE
350
365
  3
DIMASSOC
350
3B7
  3
HIDETEXT
350
3B6
  3
INDEXCTL
350
3B5
  3
LAYEREVAL
350
36A
  3
LAYERNOTIFY
350
36B
  3
LIGHTINGUNITS
350
369
  3
MSLTSCALE
350
367
  3
SORTENTS
350
3B4
  3
XCLIPFRAME
350
3B8
  0
DICTIONARY
  5
317
102
{ACAD_REACTORS
330
9
102
}
330
9
100
AcDbDictionary
281
     1
  3
AcmStdDictionary
350
318
  0
DICTIONARY
  5
308
102
{ACAD_REACTORS
330
9
102
}
330
9
100
AcDbDictionary
281
     1
  3
AcMgSettings
350
312
  0
DICTIONARY
  5
1D
102
{ACAD_REACTORS
330
1C
102
}
330
1C
100
AcDbDictionary
281
     1
  0
DICTIONARY
  5
1E
102
{ACAD_REACTORS
330
1C
102
}
330
1C
100
AcDbDictionary
281
     1
1001
ACAD
1000
<All
  0
SORTENTSTABLE
  5
306
102
{ACAD_REACTORS
330
3
102
}
330
3
100
AcDbSortentsTable
330
2
331
1A7
  5
1D2
331
1A3
  5
1D6
331
21D
  5
15C
331
19F
  5
1DA
331
219
  5
160
331
1DE
  5
19B
331
1DA
  5
19F
331
254
  5
125
331
215
  5
164
331
19B
  5
1DE
331
211
  5
168
331
250
  5
129
331
B6
  5
2C3
331
12C
  5
24D
331
B2
  5
2C7
331
ED
  5
28C
331
AE
  5
2CB
331
128
  5
251
331
167
  5
212
331
E9
  5
290
331
AA
  5
2CF
331
163
  5
216
331
297
  5
E2
331
124
  5
255
331
293
  5
E6
331
120
  5
259
331
2CE
  5
AB
331
28F
  5
EA
331
28B
  5
EE
331
2CA
  5
AF
331
301
  5
304
331
1D6
  5
1A3
331
197
  5
1E2
331
1D2
  5
1A7
331
193
  5
1E6
331
24C
  5
12D
331
20D
  5
16C
331
18F
  5
1EA
331
248
  5
131
331
209
  5
170
331
1CE
  5
1AB
331
1CA
  5
1AF
331
244
  5
135
331
205
  5
174
331
18B
  5
1EE
331
201
  5
178
331
240
  5
139
331
A6
  5
2D3
331
15F
  5
21A
331
E5
  5
294
331
E1
  5
298
331
15B
  5
21E
331
11C
  5
25D
331
A2
  5
2D7
331
DD
  5
29C
331
9E
  5
2DB
331
118
  5
261
331
157
  5
222
331
D9
  5
2A0
331
9A
  5
2DF
331
287
  5
F2
331
2C6
  5
B3
331
114
  5
265
331
153
  5
226
331
2C2
  5
B7
331
2FD
  5
78
331
283
  5
F6
331
110
  5
269
331
2BE
  5
BB
331
2F9
  5
7F
331
27F
  5
FA
331
2BA
  5
BF
331
27B
  5
FE
331
2F5
  5
83
331
2F1
  5
88
331
1C6
  5
1B3
331
187
  5
1F2
331
1C2
  5
1B7
331
183
  5
1F6
331
1FD
  5
17C
331
23C
  5
13D
331
17F
  5
1FA
331
238
  5
141
331
1F9
  5
180
331
1BE
  5
1BB
331
1BA
  5
1BF
331
234
  5
145
331
1F5
  5
184
331
17B
  5
1FE
331
230
  5
149
331
1F1
  5
188
331
96
  5
2E3
331
14F
  5
22A
331
D5
  5
2A4
331
D1
  5
2A8
331
14B
  5
22E
331
10C
  5
26D
331
92
  5
2E7
331
CD
  5
2AC
331
147
  5
232
331
108
  5
271
331
8E
  5
2EB
331
C9
  5
2B0
331
8A
  5
2EF
331
277
  5
102
331
2B6
  5
C3
331
104
  5
275
331
143
  5
236
331
2B2
  5
C7
331
2ED
  5
8C
331
273
  5
106
331
100
  5
279
331
2AE
  5
CB
331
2E9
  5
90
331
26F
  5
10A
331
2AA
  5
CF
331
26B
  5
10E
331
2E5
  5
94
331
2E1
  5
98
331
1B6
  5
1C3
331
177
  5
202
331
1B2
  5
1C7
331
173
  5
206
331
1ED
  5
18C
331
22C
  5
14D
331
16F
  5
20A
331
228
  5
151
331
1E9
  5
190
331
1AE
  5
1CB
331
16B
  5
20E
331
224
  5
155
331
1E5
  5
194
331
1AA
  5
1CF
331
220
  5
159
331
1E1
  5
198
331
86
  5
2F3
331
13F
  5
23A
331
C5
  5
2B4
331
82
  5
2F6
331
13B
  5
23E
331
FC
  5
27D
331
C1
  5
2B8
331
BD
  5
2BC
331
137
  5
242
331
F8
  5
281
331
7E
  5
2FA
331
B9
  5
2C0
331
7A
  5
2FB
331
267
  5
112
331
2A6
  5
D3
331
F4
  5
285
331
133
  5
246
331
2A2
  5
D7
331
2DD
  5
9C
331
263
  5
116
331
F0
  5
289
331
29E
  5
DB
331
2D9
  5
A0
331
25F
  5
11A
331
29A
  5
DF
331
2D5
  5
A4
331
25B
  5
11E
331
2D1
  5
A8
331
1A6
  5
1D3
331
1A2
  5
1D7
331
21C
  5
15D
331
19E
  5
1DB
331
257
  5
122
331
218
  5
161
331
1DD
  5
19C
331
1D9
  5
1A0
331
253
  5
126
331
214
  5
165
331
19A
  5
1DF
331
210
  5
169
331
B5
  5
2C4
331
12F
  5
24A
331
12B
  5
24E
331
B1
  5
2C8
331
EC
  5
28D
331
AD
  5
2CC
331
127
  5
252
331
166
  5
213
331
E8
  5
291
331
A9
  5
2D0
331
162
  5
217
331
123
  5
256
331
296
  5
E3
331
292
  5
E7
331
2CD
  5
AC
331
28E
  5
EB
331
28A
  5
EF
331
304
  5
301
331
2C9
  5
B0
331
77
  5
2FE
331
300
  5
6E
331
1D5
  5
1A4
331
196
  5
1E3
331
24F
  5
12A
331
1D1
  5
1A8
331
192
  5
1E7
331
24B
  5
12E
331
20C
  5
16D
331
18E
  5
1EB
331
247
  5
132
331
208
  5
171
331
1CD
  5
1AC
331
1C9
  5
1B0
331
243
  5
136
331
204
  5
175
331
18A
  5
1EF
331
200
  5
179
331
A5
  5
2D4
331
15E
  5
21B
331
11F
  5
25A
331
E4
  5
295
331
E0
  5
299
331
15A
  5
21F
331
11B
  5
25E
331
A1
  5
2D8
331
DC
  5
29D
331
9D
  5
2DC
331
117
  5
262
331
156
  5
223
331
D8
  5
2A1
331
99
  5
2E0
331
152
  5
227
331
113
  5
266
331
2C5
  5
B4
331
286
  5
F3
331
2C1
  5
B8
331
2FC
  5
79
331
282
  5
F7
331
2BD
  5
BC
331
2F8
  5
80
331
27E
  5
FB
331
27A
  5
FF
331
2F4
  5
84
331
2B9
  5
C0
331
2F0
  5
89
331
1C5
  5
1B4
331
186
  5
1F3
331
23F
  5
13A
331
1C1
  5
1B8
331
182
  5
1F7
331
23B
  5
13E
331
1FC
  5
17D
331
17E
  5
1FB
331
237
  5
142
331
1F8
  5
181
331
1BD
  5
1BC
331
1B9
  5
1C0
331
233
  5
146
331
1F4
  5
185
331
17A
  5
1FF
331
1F0
  5
189
331
95
  5
2E4
331
14E
  5
22B
331
10F
  5
26A
331
D4
  5
2A5
331
D0
  5
2A9
331
14A
  5
22F
331
10B
  5
26E
331
91
  5
2E8
331
CC
  5
2AD
331
8D
  5
2EC
331
107
  5
272
331
146
  5
233
331
C8
  5
2B1
331
89
  5
2F0
331
103
  5
276
331
142
  5
237
331
276
  5
103
331
2B5
  5
C4
331
2B1
  5
C8
331
2EC
  5
8D
331
272
  5
107
331
2AD
  5
CC
331
2E8
  5
91
331
26E
  5
10B
331
2A9
  5
D0
331
26A
  5
10F
331
2E4
  5
95
331
2E0
  5
99
331
1B5
  5
1C4
331
176
  5
203
331
22F
  5
14A
331
1B1
  5
1C8
331
172
  5
207
331
1EC
  5
18D
331
22B
  5
14E
331
16E
  5
20B
331
227
  5
152
331
1E8
  5
191
331
1AD
  5
1CC
331
1A9
  5
1D0
331
223
  5
156
331
1E4
  5
195
331
16A
  5
20F
331
1E0
  5
199
331
13E
  5
23B
331
FF
  5
27A
331
C4
  5
2B5
331
C0
  5
2B9
331
13A
  5
23F
331
FB
  5
27E
331
81
  5
2F7
331
136
  5
243
331
F7
  5
282
331
BC
  5
2BD
331
B8
  5
2C1
331
79
  5
2FC
331
F3
  5
286
331
132
  5
247
331
266
  5
113
331
2A5
  5
D4
331
2A1
  5
D8
331
2DC
  5
9D
331
262
  5
117
331
29D
  5
DC
331
2D8
  5
A1
331
25E
  5
11B
331
299
  5
E0
331
25A
  5
11F
331
2D4
  5
A5
331
2D0
  5
A9
331
21F
  5
15A
331
1A5
  5
1D4
331
1A1
  5
1D8
331
21B
  5
15E
331
1DC
  5
19D
331
256
  5
123
331
217
  5
162
331
19D
  5
1DC
331
1D8
  5
1A1
331
252
  5
127
331
213
  5
166
331
199
  5
1E0
331
12E
  5
24B
331
B4
  5
2C5
331
EF
  5
28A
331
12A
  5
24F
331
B0
  5
2C9
331
EB
  5
28E
331
AC
  5
2CD
331
126
  5
253
331
165
  5
214
331
A8
  5
2D1
331
161
  5
218
331
122
  5
257
331
295
  5
E4
331
291
  5
E8
331
2CC
  5
AD
331
28D
  5
EC
331
289
  5
F0
331
2C8
  5
B1
331
1D4
  5
1A5
331
195
  5
1E4
331
20F
  5
16A
331
24E
  5
12B
331
191
  5
1E8
331
24A
  5
12F
331
20B
  5
16E
331
1D0
  5
1A9
331
18D
  5
1EC
331
246
  5
133
331
207
  5
172
331
1CC
  5
1AD
331
1C8
  5
1B1
331
242
  5
137
331
203
  5
176
331
189
  5
1F0
331
E7
  5
292
331
A4
  5
2D5
331
15D
  5
21C
331
11E
  5
25B
331
E3
  5
296
331
DF
  5
29A
331
159
  5
220
331
11A
  5
25F
331
A0
  5
2D9
331
DB
  5
29E
331
9C
  5
2DD
331
116
  5
263
331
155
  5
224
331
98
  5
2E1
331
151
  5
228
331
112
  5
267
331
2C4
  5
B5
331
2FF
  5
75
331
285
  5
F4
331
2C0
  5
B9
331
2FB
  5
7A
331
281
  5
F8
331
2BC
  5
BD
331
6E
  5
300
331
2F7
  5
81
331
27D
  5
FC
331
279
  5
100
331
2F3
  5
86
331
2B8
  5
C1
331
1C4
  5
1B5
331
185
  5
1F4
331
1FF
  5
17A
331
23E
  5
13B
331
1C0
  5
1B9
331
181
  5
1F8
331
23A
  5
13F
331
1FB
  5
17E
331
17D
  5
1FC
331
236
  5
143
331
1F7
  5
182
331
1BC
  5
1BD
331
1B8
  5
1C1
331
232
  5
147
331
1F3
  5
186
331
179
  5
200
331
D7
  5
2A2
331
94
  5
2E5
331
14D
  5
22C
331
10E
  5
26B
331
D3
  5
2A6
331
CF
  5
2AA
331
149
  5
230
331
10A
  5
26F
331
90
  5
2E9
331
CB
  5
2AE
331
8C
  5
2ED
331
106
  5
273
331
145
  5
234
331
88
  5
2F1
331
141
  5
238
331
102
  5
277
331
2B4
  5
C5
331
2EF
  5
8A
331
275
  5
104
331
2B0
  5
C9
331
2EB
  5
8E
331
271
  5
108
331
2AC
  5
CD
331
2E7
  5
92
331
26D
  5
10C
331
269
  5
110
331
2E3
  5
96
331
2A8
  5
D1
331
1B4
  5
1C5
331
175
  5
204
331
1EF
  5
18A
331
22E
  5
14B
331
1B0
  5
1C9
331
171
  5
208
331
22A
  5
14F
331
1EB
  5
18E
331
16D
  5
20C
331
226
  5
153
331
1E7
  5
192
331
1AC
  5
1CD
331
1A8
  5
1D1
331
222
  5
157
331
1E3
  5
196
331
169
  5
210
331
C7
  5
2B2
331
84
  5
2F4
331
13D
  5
23C
331
FE
  5
27B
331
C3
  5
2B6
331
BF
  5
2BA
331
139
  5
240
331
FA
  5
27F
331
80
  5
2F8
331
BB
  5
2BE
331
F6
  5
283
331
135
  5
244
331
78
  5
2FD
331
F2
  5
287
331
131
  5
248
331
265
  5
114
331
2DF
  5
9A
331
2A4
  5
D5
331
2A0
  5
D9
331
2DB
  5
9E
331
261
  5
118
331
29C
  5
DD
331
2D7
  5
A2
331
25D
  5
11C
331
298
  5
E1
331
259
  5
120
331
2D3
  5
A6
331
1A4
  5
1D5
331
21E
  5
15B
331
1A0
  5
1D9
331
21A
  5
15F
331
1DF
  5
19A
331
1DB
  5
19E
331
255
  5
124
331
216
  5
163
331
19C
  5
1DD
331
198
  5
1E1
331
212
  5
167
331
251
  5
128
331
B7
  5
2C2
331
12D
  5
24C
331
B3
  5
2C6
331
EE
  5
28B
331
129
  5
250
331
AF
  5
2CA
331
EA
  5
28F
331
AB
  5
2CE
331
125
  5
254
331
164
  5
215
331
160
  5
219
331
294
  5
E5
331
121
  5
258
331
2CF
  5
AA
331
290
  5
E9
331
2CB
  5
AE
331
28C
  5
ED
331
288
  5
F1
331
75
  5
2FF
331
1D7
  5
1A2
331
1D3
  5
1A6
331
194
  5
1E5
331
20E
  5
16B
331
24D
  5
12C
331
190
  5
1E9
331
249
  5
130
331
20A
  5
16F
331
1CF
  5
1AA
331
1CB
  5
1AE
331
245
  5
134
331
206
  5
173
331
18C
  5
1ED
331
241
  5
138
331
202
  5
177
331
188
  5
1F1
331
A7
  5
2D2
331
E6
  5
293
331
E2
  5
297
331
15C
  5
21D
331
11D
  5
25C
331
A3
  5
2D6
331
DE
  5
29B
331
158
  5
221
331
119
  5
260
331
9F
  5
2DA
331
DA
  5
29F
331
9B
  5
2DE
331
2C7
  5
B2
331
115
  5
264
331
154
  5
225
331
150
  5
229
331
2C3
  5
B6
331
2FE
  5
77
331
284
  5
F5
331
111
  5
268
331
2BF
  5
BA
331
2FA
  5
7E
331
280
  5
F9
331
2BB
  5
BE
331
27C
  5
FD
331
2F6
  5
82
331
278
  5
101
331
2F2
  5
87
331
1C7
  5
1B2
331
1C3
  5
1B6
331
184
  5
1F5
331
1FE
  5
17B
331
23D
  5
13C
331
180
  5
1F9
331
239
  5
140
331
1FA
  5
17F
331
1BF
  5
1BA
331
17C
  5
1FD
331
235
  5
144
331
1F6
  5
183
331
1BB
  5
1BE
331
231
  5
148
331
1F2
  5
187
331
178
  5
201
331
97
  5
2E2
331
D6
  5
2A3
331
93
  5
2E6
331
14C
  5
22D
331
10D
  5
26C
331
D2
  5
2A7
331
CE
  5
2AB
331
148
  5
231
331
109
  5
270
331
8F
  5
2EA
331
CA
  5
2AF
331
8B
  5
2EE
331
2B7
  5
C2
331
105
  5
274
331
144
  5
235
331
140
  5
239
331
2B3
  5
C6
331
2EE
  5
8B
331
274
  5
105
331
101
  5
278
331
2AF
  5
CA
331
2EA
  5
8F
331
270
  5
109
331
2AB
  5
CE
331
2E6
  5
93
331
26C
  5
10D
331
268
  5
111
331
2E2
  5
97
331
1B7
  5
1C2
331
1B3
  5
1C6
331
174
  5
205
331
1EE
  5
18B
331
22D
  5
14C
331
1AF
  5
1CA
331
170
  5
209
331
229
  5
150
331
1EA
  5
18F
331
16C
  5
20D
331
225
  5
154
331
1E6
  5
193
331
1AB
  5
1CE
331
221
  5
158
331
1E2
  5
197
331
168
  5
211
331
C6
  5
2B3
331
87
  5
2F2
331
83
  5
2F5
331
13C
  5
23D
331
FD
  5
27C
331
C2
  5
2B7
331
BE
  5
2BB
331
138
  5
241
331
F9
  5
280
331
7F
  5
2F9
331
BA
  5
2BF
331
2A7
  5
D2
331
F5
  5
284
331
134
  5
245
331
130
  5
249
331
2A3
  5
D6
331
2DE
  5
9B
331
264
  5
115
331
F1
  5
288
331
29F
  5
DA
331
2DA
  5
9F
331
260
  5
119
331
29B
  5
DE
331
2D6
  5
A3
331
25C
  5
11D
331
258
  5
121
331
2D2
  5
A7
  0
XRECORD
  5
3BC
102
{ACAD_REACTORS
330
3BB
102
}
330
3BB
100
AcDbXrecord
280
     1
 70
     1
  0
XRECORD
  5
3BE
102
{ACAD_REACTORS
330
3BB
102
}
330
3BB
100
AcDbXrecord
280
     1
340
24
  0
XRECORD
  5
3BF
102
{ACAD_REACTORS
330
3BB
102
}
330
3BB
100
AcDbXrecord
280
     1
340
24
  0
XRECORD
  5
3BD
102
{ACAD_REACTORS
330
3BB
102
}
330
3BB
100
AcDbXrecord
280
     1
340
24
  0
LAYOUT
  5
D
102
{ACAD_XDICTIONARY
360
3C2
102
}
102
{ACAD_REACTORS
330
8
102
}
330
8
100
AcDbPlotSettings
  1

  2
\\le-server\HP LaserJet 2100
  4

  6

 40
0.0
 41
0.0
 42
0.0
 43
0.0
 44
0.0
 45
0.0
 46
0.0
 47
0.0
 48
0.0
 49
0.0
140
0.0
141
0.0
142
1.0
143
1.0
 70
   688
 72
     0
 73
     0
 74
     5
  7

 75
    16
147
1.0
148
0.0
149
0.0
100
AcDbLayout
  1
Layout1
 70
     1
 71
     1
 10
0.0
 20
0.0
 11
1189.0
 21
840.9999999999998
 12
0.0
 22
0.0
 32
0.0
 14
0.0
 24
0.0
 34
0.0
 15
1189.0
 25
840.9999999999998
 35
0.0
146
0.0
 13
0.0
 23
0.0
 33
0.0
 16
1.0
 26
0.0
 36
0.0
 17
0.0
 27
1.0
 37
0.0
 76
     0
330
A
  0
LAYOUT
  5
7
102
{ACAD_XDICTIONARY
360
3C0
102
}
102
{ACAD_REACTORS
330
8
102
}
330
8
100
AcDbPlotSettings
  1

  2
\\le-server\HP LaserJet 2100
  4

  6

 40
0.0
 41
0.0
 42
0.0
 43
0.0
 44
0.0
 45
0.0
 46
0.0
 47
0.0
 48
0.0
 49
0.0
140
0.0
141
0.0
142
1.0
143
1.0
 70
  1712
 72
     0
 73
     0
 74
     0
  7

 75
     0
147
1.0
148
0.0
149
0.0
100
AcDbLayout
  1
Model
 70
     1
 71
     0
 10
0.0
 20
0.0
 11
12.0
 21
9.0
 12
0.0
 22
0.0
 32
0.0
 14
0.0
 24
0.0
 34
0.0
 15
0.0
 25
0.0
 35
0.0
146
0.0
 13
0.0
 23
0.0
 33
0.0
 16
1.0
 26
0.0
 36
0.0
 17
0.0
 27
1.0
 37
0.0
 76
     0
330
2
331
29
  0
MATERIAL
  5
3C
102
{ACAD_XDICTIONARY
360
3D
102
}
102
{ACAD_REACTORS
330
13
102
}
330
13
100
AcDbMaterial
  1
ByBlock
 72
     0
 43
0.0208333333333333
 43
0.0
 43
0.0
 43
0.0
 43
0.0
 43
0.0208333333333333
 43
0.0
 43
0.0
 43
0.0
 43
0.0
 43
1.0
 43
0.0
 43
0.0
 43
0.0
 43
0.0
 43
1.0
 77
     0
 47
0.0208333333333333
 47
0.0
 47
0.0
 47
0.0
 47
0.0
 47
0.0208333333333333
 47
0.0
 47
0.0
 47
0.0
 47
0.0
 47
1.0
 47
0.0
 47
0.0
 47
0.0
 47
0.0
 47
1.0
171
     0
 49
0.0208333333333333
 49
0.0
 49
0.0
 49
0.0
 49
0.0
 49
0.0208333333333333
 49
0.0
 49
0.0
 49
0.0
 49
0.0
 49
1.0
 49
0.0
 49
0.0
 49
0.0
 49
0.0
 49
1.0
175
     0
142
0.0208333333333333
142
0.0
142
0.0
142
0.0
142
0.0
142
0.0208333333333333
142
0.0
142
0.0
142
0.0
142
0.0
142
1.0
142
0.0
142
0.0
142
0.0
142
0.0
142
1.0
179
     0
144
0.0208333333333333
144
0.0
144
0.0
144
0.0
144
0.0
144
0.0208333333333333
144
0.0
144
0.0
144
0.0
144
0.0
144
1.0
144
0.0
144
0.0
144
0.0
144
0.0
144
1.0
147
0.0208333333333333
147
0.0
147
0.0
147
0.0
147
0.0
147
0.0208333333333333
147
0.0
147
0.0
147
0.0
147
0.0
147
1.0
147
0.0
147
0.0
147
0.0
147
0.0
147
1.0
  0
MATERIAL
  5
34
102
{ACAD_XDICTIONARY
360
35
102
}
102
{ACAD_REACTORS
330
13
102
}
330
13
100
AcDbMaterial
  1
ByLayer
 72
     0
 43
0.0208333333333333
 43
0.0
 43
0.0
 43
0.0
 43
0.0
 43
0.0208333333333333
 43
0.0
 43
0.0
 43
0.0
 43
0.0
 43
1.0
 43
0.0
 43
0.0
 43
0.0
 43
0.0
 43
1.0
 77
     0
 47
0.0208333333333333
 47
0.0
 47
0.0
 47
0.0
 47
0.0
 47
0.0208333333333333
 47
0.0
 47
0.0
 47
0.0
 47
0.0
 47
1.0
 47
0.0
 47
0.0
 47
0.0
 47
0.0
 47
1.0
171
     0
 49
0.0208333333333333
 49
0.0
 49
0.0
 49
0.0
 49
0.0
 49
0.0208333333333333
 49
0.0
 49
0.0
 49
0.0
 49
0.0
 49
1.0
 49
0.0
 49
0.0
 49
0.0
 49
0.0
 49
1.0
175
     0
142
0.0208333333333333
142
0.0
142
0.0
142
0.0
142
0.0
142
0.0208333333333333
142
0.0
142
0.0
142
0.0
142
0.0
142
1.0
142
0.0
142
0.0
142
0.0
142
0.0
142
1.0
179
     0
144
0.0208333333333333
144
0.0
144
0.0
144
0.0
144
0.0
144
0.0208333333333333
144
0.0
144
0.0
144
0.0
144
0.0
144
1.0
144
0.0
144
0.0
144
0.0
144
0.0
144
1.0
147
0.0208333333333333
147
0.0
147
0.0
147
0.0
147
0.0
147
0.0208333333333333
147
0.0
147
0.0
147
0.0
147
0.0
147
1.0
147
0.0
147
0.0
147
0.0
147
0.0
147
1.0
  0
MATERIAL
  5
12
102
{ACAD_XDICTIONARY
360
14
102
}
102
{ACAD_REACTORS
330
13
102
}
330
13
100
AcDbMaterial
  1
Global
 72
     0
 43
0.0208333333333333
 43
0.0
 43
0.0
 43
0.0
 43
0.0
 43
0.0208333333333333
 43
0.0
 43
0.0
 43
0.0
 43
0.0
 43
1.0
 43
0.0
 43
0.0
 43
0.0
 43
0.0
 43
1.0
 77
     0
 47
0.0208333333333333
 47
0.0
 47
0.0
 47
0.0
 47
0.0
 47
0.0208333333333333
 47
0.0
 47
0.0
 47
0.0
 47
0.0
 47
1.0
 47
0.0
 47
0.0
 47
0.0
 47
0.0
 47
1.0
171
     0
 49
0.0208333333333333
 49
0.0
 49
0.0
 49
0.0
 49
0.0
 49
0.0208333333333333
 49
0.0
 49
0.0
 49
0.0
 49
0.0
 49
1.0
 49
0.0
 49
0.0
 49
0.0
 49
0.0
 49
1.0
175
     0
142
0.0208333333333333
142
0.0
142
0.0
142
0.0
142
0.0
142
0.0208333333333333
142
0.0
142
0.0
142
0.0
142
0.0
142
1.0
142
0.0
142
0.0
142
0.0
142
0.0
142
1.0
179
     0
144
0.0208333333333333
144
0.0
144
0.0
144
0.0
144
0.0
144
0.0208333333333333
144
0.0
144
0.0
144
0.0
144
0.0
144
1.0
144
0.0
144
0.0
144
0.0
144
0.0
144
1.0
147
0.0208333333333333
147
0.0
147
0.0
147
0.0
147
0.0
147
0.0208333333333333
147
0.0
147
0.0
147
0.0
147
0.0
147
1.0
147
0.0
147
0.0
147
0.0
147
0.0
147
1.0
  0
MLEADERSTYLE
  5
382
102
{ACAD_REACTORS
330
47
102
}
330
47
100
AcDbMLeaderStyle
170
     2
171
     1
172
     0
 90
        2
 40
0.0
 41
0.0
173
     1
 91
-1056964608
340
24
 92
       -2
290
     1
 42
2.0
291
     1
 43
0.36
  3
Standard
 44
4.0
300

342
21
174
     1
178
     6
175
     1
176
     0
 93
-1056964608
 45
4.0
292
     0
297
     0
 46
4.0
 94
-1056964608
 47
1.0
 49
1.0
140
1.0
293
     1
141
0.0
294
     1
177
     0
142
1.0
295
     0
296
     0
143
0.125
1001
ACAD_MLEADERVER
1070
     2
  0
MLINESTYLE
  5
48
102
{ACAD_REACTORS
330
32
102
}
330
32
100
AcDbMlineStyle
  2
STANDARD
 70
     0
  3

 62
   256
 51
90.0
 52
90.0
 71
     2
 49
0.5
 62
   256
  6
BYLAYER
 49
-0.5
 62
   256
  6
BYLAYER
  0
ACDBPLACEHOLDER
  5
10
102
{ACAD_REACTORS
330
11
102
}
330
11
  0
SCALE
  5
4D
102
{ACAD_REACTORS
330
45
102
}
330
45
100
AcDbScale
 70
     0
300
1:1
140
1.0
141
1.0
290
     1
  0
SCALE
  5
4E
102
{ACAD_REACTORS
330
45
102
}
330
45
100
AcDbScale
 70
     0
300
1:2
140
1.0
141
2.0
290
     0
  0
SCALE
  5
4F
102
{ACAD_REACTORS
330
45
102
}
330
45
100
AcDbScale
 70
     0
300
1:4
140
1.0
141
4.0
290
     0
  0
SCALE
  5
50
102
{ACAD_REACTORS
330
45
102
}
330
45
100
AcDbScale
 70
     0
300
1:5
140
1.0
141
5.0
290
     0
  0
SCALE
  5
51
102
{ACAD_REACTORS
330
45
102
}
330
45
100
AcDbScale
 70
     0
300
1:8
140
1.0
141
8.0
290
     0
  0
SCALE
  5
52
102
{ACAD_REACTORS
330
45
102
}
330
45
100
AcDbScale
 70
     0
300
1:10
140
1.0
141
10.0
290
     0
  0
SCALE
  5
53
102
{ACAD_REACTORS
330
45
102
}
330
45
100
AcDbScale
 70
     0
300
1:16
140
1.0
141
16.0
290
     0
  0
SCALE
  5
54
102
{ACAD_REACTORS
330
45
102
}
330
45
100
AcDbScale
 70
     0
300
1:20
140
1.0
141
20.0
290
     0
  0
SCALE
  5
55
102
{ACAD_REACTORS
330
45
102
}
330
45
100
AcDbScale
 70
     0
300
1:30
140
1.0
141
30.0
290
     0
  0
SCALE
  5
56
102
{ACAD_REACTORS
330
45
102
}
330
45
100
AcDbScale
 70
     0
300
1:40
140
1.0
141
40.0
290
     0
  0
SCALE
  5
57
102
{ACAD_REACTORS
330
45
102
}
330
45
100
AcDbScale
 70
     0
300
1:50
140
1.0
141
50.0
290
     0
  0
SCALE
  5
58
102
{ACAD_REACTORS
330
45
102
}
330
45
100
AcDbScale
 70
     0
300
1:100
140
1.0
141
100.0
290
     0
  0
SCALE
  5
59
102
{ACAD_REACTORS
330
45
102
}
330
45
100
AcDbScale
 70
     0
300
2:1
140
2.0
141
1.0
290
     0
  0
SCALE
  5
5A
102
{ACAD_REACTORS
330
45
102
}
330
45
100
AcDbScale
 70
     0
300
4:1
140
4.0
141
1.0
290
     0
  0
SCALE
  5
5B
102
{ACAD_REACTORS
330
45
102
}
330
45
100
AcDbScale
 70
     0
300
8:1
140
8.0
141
1.0
290
     0
  0
SCALE
  5
5C
102
{ACAD_REACTORS
330
45
102
}
330
45
100
AcDbScale
 70
     0
300
10:1
140
10.0
141
1.0
290
     0
  0
SCALE
  5
5D
102
{ACAD_REACTORS
330
45
102
}
330
45
100
AcDbScale
 70
     0
300
100:1
140
100.0
141
1.0
290
     0
  0
SCALE
  5
5E
102
{ACAD_REACTORS
330
45
102
}
330
45
100
AcDbScale
 70
     0
300
1/128" = 1'-0"
140
0.0078125
141
12.0
290
     0
  0
SCALE
  5
5F
102
{ACAD_REACTORS
330
45
102
}
330
45
100
AcDbScale
 70
     0
300
1/64" = 1'-0"
140
0.015625
141
12.0
290
     0
  0
SCALE
  5
60
102
{ACAD_REACTORS
330
45
102
}
330
45
100
AcDbScale
 70
     0
300
1/32" = 1'-0"
140
0.03125
141
12.0
290
     0
  0
SCALE
  5
61
102
{ACAD_REACTORS
330
45
102
}
330
45
100
AcDbScale
 70
     0
300
1/16" = 1'-0"
140
0.0625
141
12.0
290
     0
  0
SCALE
  5
62
102
{ACAD_REACTORS
330
45
102
}
330
45
100
AcDbScale
 70
     0
300
3/32" = 1'-0"
140
0.09375
141
12.0
290
     0
  0
SCALE
  5
63
102
{ACAD_REACTORS
330
45
102
}
330
45
100
AcDbScale
 70
     0
300
1/8" = 1'-0"
140
0.125
141
12.0
290
     0
  0
SCALE
  5
64
102
{ACAD_REACTORS
330
45
102
}
330
45
100
AcDbScale
 70
     0
300
3/16" = 1'-0"
140
0.1875
141
12.0
290
     0
  0
SCALE
  5
65
102
{ACAD_REACTORS
330
45
102
}
330
45
100
AcDbScale
 70
     0
300
1/4" = 1'-0"
140
0.25
141
12.0
290
     0
  0
SCALE
  5
66
102
{ACAD_REACTORS
330
45
102
}
330
45
100
AcDbScale
 70
     0
300
3/8" = 1'-0"
140
0.375
141
12.0
290
     0
  0
SCALE
  5
67
102
{ACAD_REACTORS
330
45
102
}
330
45
100
AcDbScale
 70
     0
300
1/2" = 1'-0"
140
0.5
141
12.0
290
     0
  0
SCALE
  5
68
102
{ACAD_REACTORS
330
45
102
}
330
45
100
AcDbScale
 70
     0
300
3/4" = 1'-0"
140
0.75
141
12.0
290
     0
  0
SCALE
  5
69
102
{ACAD_REACTORS
330
45
102
}
330
45
100
AcDbScale
 70
     0
300
1" = 1'-0"
140
1.0
141
12.0
290
     0
  0
SCALE
  5
6A
102
{ACAD_REACTORS
330
45
102
}
330
45
100
AcDbScale
 70
     0
300
1-1/2" = 1'-0"
140
1.5
141
12.0
290
     0
  0
SCALE
  5
6B
102
{ACAD_REACTORS
330
45
102
}
330
45
100
AcDbScale
 70
     0
300
3" = 1'-0"
140
3.0
141
12.0
290
     0
  0
SCALE
  5
6C
102
{ACAD_REACTORS
330
45
102
}
330
45
100
AcDbScale
 70
     0
300
6" = 1'-0"
140
6.0
141
12.0
290
     0
  0
SCALE
  5
6D
102
{ACAD_REACTORS
330
45
102
}
330
45
100
AcDbScale
 70
     0
300
1'-0" = 1'-0"
140
12.0
141
12.0
290
     0
  0
TABLESTYLE
  5
49
102
{ACAD_XDICTIONARY
360
4A
102
}
102
{ACAD_REACTORS
330
46
102
}
330
46
100
AcDbTableStyle
  3
Standard
 70
     0
 71
     0
 40
0.06
 41
0.06
280
     0
281
     0
  7
STANDARD
140
0.18
170
     2
 62
     0
 63
     7
283
     0
274
    -2
284
     1
 64
     0
275
    -2
285
     1
 65
     0
276
    -2
286
     1
 66
     0
277
    -2
287
     1
 67
     0
278
    -2
288
     1
 68
     0
279
    -2
289
     1
 69
     0
  7
STANDARD
140
0.25
170
     5
 62
     0
 63
     7
283
     0
274
    -2
284
     1
 64
     0
275
    -2
285
     1
 65
     0
276
    -2
286
     1
 66
     0
277
    -2
287
     1
 67
     0
278
    -2
288
     1
 68
     0
279
    -2
289
     1
 69
     0
  7
STANDARD
140
0.18
170
     5
 62
     0
 63
     7
283
     0
274
    -2
284
     1
 64
     0
275
    -2
285
     1
 65
     0
276
    -2
286
     1
 66
     0
277
    -2
287
     1
 67
     0
278
    -2
288
     1
 68
     0
279
    -2
289
     1
 69
     0
  0
VISUALSTYLE
  5
2A
102
{ACAD_XDICTIONARY
360
3C5
102
}
102
{ACAD_REACTORS
330
2B
102
}
330
2B
100
AcDbVisualStyle
  2
2dWireframe
 70
     4
 71
     0
 72
     2
 73
     0
 90
        0
 40
-0.6
 41
-30.0
 62
     5
 63
     7
 74
     1
 91
        4
 64
     7
 65
   257
 75
     1
175
     1
 42
1.0
 92
        0
 66
   257
 43
1.0
 76
     1
 77
     6
 78
     2
 67
     7
 79
     5
170
     0
171
     0
290
     0
174
     0
 93
        1
 44
0.0
173
     0
291
     0
 45
0.0
1001
ACAD
1000
AcDbSavedByObjectVersion
1070
     0
  0
VISUALSTYLE
  5
371
102
{ACAD_XDICTIONARY
360
3DC
102
}
102
{ACAD_REACTORS
330
2B
102
}
330
2B
100
AcDbVisualStyle
  2
Basic
 70
     7
 71
     1
 72
     0
 73
     1
 90
        0
 40
-0.6
 41
-30.0
 62
     5
 63
     7
 74
     0
 91
        4
 64
     7
 65
   257
 75
     1
175
     1
 42
1.0
 92
        8
 66
     7
 43
1.0
 76
     1
 77
     6
 78
     2
 67
     7
 79
     5
170
     0
171
     0
290
     0
174
     0
 93
        1
 44
0.0
173
     0
291
     1
 45
0.0
1001
ACAD
1000
AcDbSavedByObjectVersion
1070
     0
  0
VISUALSTYLE
  5
375
102
{ACAD_XDICTIONARY
360
3E4
102
}
102
{ACAD_REACTORS
330
2B
102
}
330
2B
100
AcDbVisualStyle
  2
Brighten
 70
    12
 71
     2
 72
     2
 73
     0
 90
        0
 40
-0.6
 41
-30.0
 62
     5
 63
     7
 74
     1
 91
        4
 64
     7
 65
   257
 75
     1
175
     1
 42
1.0
 92
        8
 66
     7
 43
1.0
 76
     1
 77
     6
 78
     2
 67
     7
 79
     5
170
     0
171
     0
290
     0
174
     0
 93
        1
 44
50.0
173
     0
291
     1
 45
0.0
1001
ACAD
1000
AcDbSavedByObjectVersion
1070
     0
  0
VISUALSTYLE
  5
379
102
{ACAD_XDICTIONARY
360
3EC
102
}
102
{ACAD_REACTORS
330
2B
102
}
330
2B
100
AcDbVisualStyle
  2
ColorChange
 70
    16
 71
     2
 72
     2
 73
     3
 90
        0
 40
-0.6
 41
-30.0
 62
     5
 63
     8
 74
     1
 91
        4
 64
     7
 65
   257
 75
     1
175
     1
 42
1.0
 92
        8
 66
     8
 43
1.0
 76
     1
 77
     6
 78
     2
 67
     7
 79
     5
170
     0
171
     0
290
     0
174
     0
 93
        1
 44
0.0
173
     0
291
     1
 45
0.0
1001
ACAD
1000
AcDbSavedByObjectVersion
1070
     0
  0
VISUALSTYLE
  5
373
102
{ACAD_XDICTIONARY
360
3E0
102
}
102
{ACAD_REACTORS
330
2B
102
}
330
2B
100
AcDbVisualStyle
  2
Conceptual
 70
     9
 71
     3
 72
     2
 73
     0
 90
        0
 40
-0.6
 41
-30.0
 62
     5
 63
     7
 74
     2
 91
        2
 64
     7
 65
   257
 75
     1
175
     1
 42
179.0
 92
        8
 66
     7
 43
1.0
 76
     1
 77
     6
 78
     2
 67
     7
 79
     3
170
     0
171
     0
290
     0
174
     0
 93
        1
 44
0.0
173
     0
291
     0
 45
0.0
1001
ACAD
1000
AcDbSavedByObjectVersion
1070
     0
  0
VISUALSTYLE
  5
374
102
{ACAD_XDICTIONARY
360
3E2
102
}
102
{ACAD_REACTORS
330
2B
102
}
330
2B
100
AcDbVisualStyle
  2
Dim
 70
    11
 71
     2
 72
     2
 73
     0
 90
        0
 40
-0.6
 41
-30.0
 62
     5
 63
     7
 74
     1
 91
        4
 64
     7
 65
   257
 75
     1
175
     1
 42
1.0
 92
        8
 66
     7
 43
1.0
 76
     1
 77
     6
 78
     2
 67
     7
 79
     5
170
     0
171
     0
290
     0
174
     0
 93
        1
 44
-50.0
173
     0
291
     1
 45
0.0
1001
ACAD
1000
AcDbSavedByObjectVersion
1070
     0
  0
VISUALSTYLE
  5
381
102
{ACAD_XDICTIONARY
360
3FC
102
}
102
{ACAD_REACTORS
330
2B
102
}
330
2B
100
AcDbVisualStyle
  2
EdgeColorOff
 70
    22
 71
     2
 72
     2
 73
     0
 90
        0
 40
-0.6
 41
-30.0
 62
     5
 63
     7
 74
     1
 91
        4
 64
     7
 65
   257
 75
     1
175
     1
 42
1.0
 92
        8
 66
     7
 43
1.0
 76
     1
 77
     6
 78
     2
 67
     7
 79
     5
170
     0
171
     0
290
     0
174
     0
 93
        1
 44
0.0
173
     0
291
     1
 45
0.0
1001
ACAD
1000
AcDbSavedByObjectVersion
1070
     0
  0
VISUALSTYLE
  5
378
102
{ACAD_XDICTIONARY
360
3EA
102
}
102
{ACAD_REACTORS
330
2B
102
}
330
2B
100
AcDbVisualStyle
  2
Facepattern
 70
    15
 71
     2
 72
     2
 73
     0
 90
        0
 40
-0.6
 41
-30.0
 62
     5
 63
     7
 74
     1
 91
        4
 64
     7
 65
   257
 75
     1
175
     1
 42
1.0
 92
        8
 66
     7
 43
1.0
 76
     1
 77
     6
 78
     2
 67
     7
 79
     5
170
     0
171
     0
290
     0
174
     0
 93
        1
 44
0.0
173
     0
291
     1
 45
0.0
1001
ACAD
1000
AcDbSavedByObjectVersion
1070
     0
  0
VISUALSTYLE
  5
36D
102
{ACAD_XDICTIONARY
360
3D4
102
}
102
{ACAD_REACTORS
330
2B
102
}
330
2B
100
AcDbVisualStyle
  2
Flat
 70
     0
 71
     2
 72
     1
 73
     1
 90
        2
 40
-0.6
 41
30.0
 62
     5
 63
     7
 74
     0
 91
        0
 64
     7
 65
   257
 75
     1
175
     1
 42
1.0
 92
        8
 66
     7
 43
1.0
 76
     1
 77
     6
 78
     2
 67
     7
 79
     5
170
     0
171
     0
290
     0
174
     0
 93
       13
 44
0.0
173
     0
291
     1
 45
0.0
1001
ACAD
1000
AcDbSavedByObjectVersion
1070
     0
  0
VISUALSTYLE
  5
36E
102
{ACAD_XDICTIONARY
360
3D6
102
}
102
{ACAD_REACTORS
330
2B
102
}
330
2B
100
AcDbVisualStyle
  2
FlatWithEdges
 70
     1
 71
     2
 72
     1
 73
     1
 90
        2
 40
-0.6
 41
30.0
 62
     5
 63
     7
 74
     1
 91
        0
 64
     7
 65
   257
 75
     1
175
     1
 42
1.0
 92
        0
 66
   257
 43
1.0
 76
     1
 77
     6
 78
     2
 67
     7
 79
     5
170
     0
171
     0
290
     0
174
     0
 93
       13
 44
0.0
173
     0
291
     1
 45
0.0
1001
ACAD
1000
AcDbSavedByObjectVersion
1070
     0
  0
VISUALSTYLE
  5
36F
102
{ACAD_XDICTIONARY
360
3D8
102
}
102
{ACAD_REACTORS
330
2B
102
}
330
2B
100
AcDbVisualStyle
  2
Gouraud
 70
     2
 71
     2
 72
     2
 73
     1
 90
        2
 40
-0.6
 41
30.0
 62
     5
 63
     7
 74
     0
 91
        0
 64
     7
 65
   257
 75
     1
175
     1
 42
1.0
 92
        0
 66
     7
 43
1.0
 76
     1
 77
     6
 78
     2
 67
     7
 79
     5
170
     0
171
     0
290
     0
174
     0
 93
       13
 44
0.0
173
     0
291
     1
 45
0.0
1001
ACAD
1000
AcDbSavedByObjectVersion
1070
     0
  0
VISUALSTYLE
  5
370
102
{ACAD_XDICTIONARY
360
3DA
102
}
102
{ACAD_REACTORS
330
2B
102
}
330
2B
100
AcDbVisualStyle
  2
GouraudWithEdges
 70
     3
 71
     2
 72
     2
 73
     1
 90
        2
 40
-0.6
 41
30.0
 62
     5
 63
     7
 74
     1
 91
        0
 64
     7
 65
   257
 75
     1
175
     1
 42
1.0
 92
        0
 66
   257
 43
1.0
 76
     1
 77
     6
 78
     2
 67
     7
 79
     5
170
     0
171
     0
290
     0
174
     0
 93
       13
 44
0.0
173
     0
291
     1
 45
0.0
1001
ACAD
1000
AcDbSavedByObjectVersion
1070
     0
  0
VISUALSTYLE
  5
372
102
{ACAD_XDICTIONARY
360
3DE
102
}
102
{ACAD_REACTORS
330
2B
102
}
330
2B
100
AcDbVisualStyle
  2
Hidden
 70
     6
 71
     1
 72
     2
 73
     2
 90
        0
 40
-0.6
 41
-30.0
 62
     5
 63
     7
 74
     2
 91
        2
 64
     7
 65
   257
 75
     2
175
     1
 42
40.0
 92
        0
 66
   257
 43
1.0
 76
     1
 77
     6
 78
     2
 67
     7
 79
     3
170
     0
171
     0
290
     0
174
     0
 93
        1
 44
0.0
173
     0
291
     0
 45
0.0
1001
ACAD
1000
AcDbSavedByObjectVersion
1070
     0
  0
VISUALSTYLE
  5
37F
102
{ACAD_XDICTIONARY
360
3F8
102
}
102
{ACAD_REACTORS
330
2B
102
}
330
2B
100
AcDbVisualStyle
  2
JitterOff
 70
    20
 71
     2
 72
     2
 73
     0
 90
        0
 40
-0.6
 41
-30.0
 62
     5
 63
     7
 74
     1
 91
        4
 64
     7
 65
   257
 75
     1
175
     1
 42
1.0
 92
       10
 66
     7
 43
1.0
 76
     1
 77
     6
 78
     2
 67
     7
 79
     5
170
     0
171
     0
290
     0
174
     0
 93
        1
 44
0.0
173
     0
291
     1
 45
0.0
1001
ACAD
1000
AcDbSavedByObjectVersion
1070
     0
  0
VISUALSTYLE
  5
377
102
{ACAD_XDICTIONARY
360
3E8
102
}
102
{ACAD_REACTORS
330
2B
102
}
330
2B
100
AcDbVisualStyle
  2
Linepattern
 70
    14
 71
     2
 72
     2
 73
     0
 90
        0
 40
-0.6
 41
-30.0
 62
     5
 63
     7
 74
     1
 91
        4
 64
     7
 65
   257
 75
     7
175
     7
 42
1.0
 92
        8
 66
     7
 43
1.0
 76
     1
 77
     6
 78
     2
 67
     7
 79
     5
170
     0
171
     0
290
     0
174
     0
 93
        1
 44
0.0
173
     0
291
     1
 45
0.0
1001
ACAD
1000
AcDbSavedByObjectVersion
1070
     0
  0
VISUALSTYLE
  5
380
102
{ACAD_XDICTIONARY
360
3FA
102
}
102
{ACAD_REACTORS
330
2B
102
}
330
2B
100
AcDbVisualStyle
  2
OverhangOff
 70
    21
 71
     2
 72
     2
 73
     0
 90
        0
 40
-0.6
 41
-30.0
 62
     5
 63
     7
 74
     1
 91
        4
 64
     7
 65
   257
 75
     1
175
     1
 42
1.0
 92
        9
 66
     7
 43
1.0
 76
     1
 77
     6
 78
     2
 67
     7
 79
     5
170
     0
171
     0
290
     0
174
     0
 93
        1
 44
0.0
173
     0
291
     1
 45
0.0
1001
ACAD
1000
AcDbSavedByObjectVersion
1070
     0
  0
VISUALSTYLE
  5
4B
102
{ACAD_XDICTIONARY
360
3CA
102
}
102
{ACAD_REACTORS
330
2B
102
}
330
2B
100
AcDbVisualStyle
  2
Realistic
 70
     8
 71
     2
 72
     2
 73
     0
 90
        0
 40
-0.6
 41
-30.0
 62
     5
 63
     7
 74
     1
 91
        0
 64
     7
 65
   257
 75
     1
175
     1
 42
1.0
 92
        8
 66
     8
 43
1.0
 76
     1
 77
     6
 78
     2
 67
     7
 79
     5
170
     0
171
     0
290
     0
174
     0
 93
       13
 44
0.0
173
     0
291
     0
 45
0.0
1001
ACAD
1000
AcDbSavedByObjectVersion
1070
     0
  0
VISUALSTYLE
  5
37E
102
{ACAD_XDICTIONARY
360
3F6
102
}
102
{ACAD_REACTORS
330
2B
102
}
330
2B
100
AcDbVisualStyle
  2
Shaded
 70
    27
 71
     2
 72
     2
 73
     1
 90
        2
 40
-0.6
 41
30.0
 62
     5
 63
     7
 74
     0
 91
        4
 64
     7
 65
   257
 75
     1
175
     1
 42
1.0
 92
        8
 66
   257
 43
1.0
 76
     1
 77
     6
 78
     2
 67
     8
 79
     3
170
     0
171
     0
290
     0
174
     0
 93
        5
 44
0.0
173
     0
291
     0
 45
0.0
1001
ACAD
1000
AcDbSavedByObjectVersion
1070
     0
  0
VISUALSTYLE
  5
37D
102
{ACAD_XDICTIONARY
360
3F4
102
}
102
{ACAD_REACTORS
330
2B
102
}
330
2B
100
AcDbVisualStyle
  2
Shaded with edges
 70
    26
 71
     2
 72
     2
 73
     1
 90
        2
 40
-0.6
 41
30.0
 62
     5
 63
     7
 74
     1
 91
       10
 64
     7
 65
   257
 75
     2
175
     1
 42
1.0
 92
        8
 66
   257
 43
1.0
 76
     1
 77
     6
 78
     2
 67
     7
 79
     3
170
     0
171
     0
290
     0
174
     0
 93
        5
 44
0.0
173
     0
291
     0
 45
0.0
1001
ACAD
1000
AcDbSavedByObjectVersion
1070
     0
  0
VISUALSTYLE
  5
37A
102
{ACAD_XDICTIONARY
360
3EE
102
}
102
{ACAD_REACTORS
330
2B
102
}
330
2B
100
AcDbVisualStyle
  2
Shades of Gray
 70
    23
 71
     2
 72
     2
 73
     3
 90
        0
 40
-0.6
 41
-30.0
 62
     5
 63
     7
 74
     2
 91
        2
 64
     7
 65
     7
 75
     1
175
     1
 42
40.0
 92
        8
 66
     7
 43
1.0
 76
     1
 77
     6
 78
     2
 67
     7
 79
     3
170
     0
171
     0
290
     0
174
     0
 93
        1
 44
0.0
173
     0
291
     0
 45
0.0
1001
ACAD
1000
AcDbSavedByObjectVersion
1070
     0
  0
VISUALSTYLE
  5
37B
102
{ACAD_XDICTIONARY
360
3F0
102
}
102
{ACAD_REACTORS
330
2B
102
}
330
2B
100
AcDbVisualStyle
  2
Sketchy
 70
    24
 71
     1
 72
     2
 73
     2
 90
        0
 40
-0.6
 41
-30.0
 62
     5
 63
     7
 74
     2
 91
        2
 64
     7
 65
     7
 75
     1
175
     1
 42
40.0
 92
       11
 66
     7
 43
1.0
 76
     1
 77
     6
 78
     2
 67
     7
 79
     6
170
     0
171
     0
290
     0
174
     0
 93
        1
 44
0.0
173
     0
291
     0
 45
0.0
1001
ACAD
1000
AcDbSavedByObjectVersion
1070
     0
  0
VISUALSTYLE
  5
376
102
{ACAD_XDICTIONARY
360
3E6
102
}
102
{ACAD_REACTORS
330
2B
102
}
330
2B
100
AcDbVisualStyle
  2
Thicken
 70
    13
 71
     2
 72
     2
 73
     0
 90
        0
 40
-0.6
 41
-30.0
 62
     5
 63
     7
 74
     1
 91
        4
 64
     7
 65
   257
 75
     1
175
     1
 42
1.0
 92
       12
 66
     7
 43
1.0
 76
     1
 77
     6
 78
     2
 67
     7
 79
     5
170
     0
171
     0
290
     0
174
     0
 93
        1
 44
0.0
173
     0
291
     1
 45
0.0
1001
ACAD
1000
AcDbSavedByObjectVersion
1070
     0
  0
VISUALSTYLE
  5
4C
102
{ACAD_XDICTIONARY
360
3CC
102
}
102
{ACAD_REACTORS
330
2B
102
}
330
2B
100
AcDbVisualStyle
  2
Wireframe
 70
     5
 71
     0
 72
     2
 73
     0
 90
        0
 40
-0.6
 41
-30.0
 62
     5
 63
     7
 74
     1
 91
        4
 64
     7
 65
   257
 75
     1
175
     1
 42
1.0
 92
        0
 66
   257
 43
1.0
 76
     1
 77
     6
 78
     2
 67
     7
 79
     3
170
     0
171
     0
290
     0
174
     0
 93
        1
 44
0.0
173
     0
291
     0
 45
0.0
1001
ACAD
1000
AcDbSavedByObjectVersion
1070
     0
  0
VISUALSTYLE
  5
37C
102
{ACAD_XDICTIONARY
360
3F2
102
}
102
{ACAD_REACTORS
330
2B
102
}
330
2B
100
AcDbVisualStyle
  2
X-Ray
 70
    25
 71
     2
 72
     2
 73
     1
 90
        1
 40
0.5
 41
-30.0
 62
     5
 63
     7
 74
     1
 91
        0
 64
     7
 65
   257
 75
     1
175
     1
 42
1.0
 92
        8
 66
     7
 43
1.0
 76
     1
 77
     6
 78
     2
 67
     7
 79
     3
170
     0
171
     0
290
     0
174
     0
 93
       13
 44
0.0
173
     0
291
     0
 45
0.0
1001
ACAD
1000
AcDbSavedByObjectVersion
1070
     0
  0
DICTIONARYVAR
  5
368
102
{ACAD_REACTORS
330
364
102
}
330
364
100
DictionaryVariables
280
     0
  1
1:1
  0
DICTIONARYVAR
  5
366
102
{ACAD_REACTORS
330
364
102
}
330
364
100
DictionaryVariables
280
     0
  1
STANDARD
  0
DICTIONARYVAR
  5
365
102
{ACAD_REACTORS
330
364
102
}
330
364
100
DictionaryVariables
280
     0
  1
STANDARD
  0
DICTIONARYVAR
  5
3B7
102
{ACAD_REACTORS
330
364
102
}
330
364
100
DictionaryVariables
280
     0
  1
1
  0
DICTIONARYVAR
  5
3B6
102
{ACAD_REACTORS
330
364
102
}
330
364
100
DictionaryVariables
280
     0
  1
1
  0
DICTIONARYVAR
  5
3B5
102
{ACAD_REACTORS
330
364
102
}
330
364
100
DictionaryVariables
280
     0
  1
0
  0
DICTIONARYVAR
  5
36A
102
{ACAD_REACTORS
330
364
102
}
330
364
100
DictionaryVariables
280
     0
  1
1
  0
DICTIONARYVAR
  5
36B
102
{ACAD_REACTORS
330
364
102
}
330
364
100
DictionaryVariables
280
     0
  1
15
  0
DICTIONARYVAR
  5
369
102
{ACAD_REACTORS
330
364
102
}
330
364
100
DictionaryVariables
280
     0
  1
0
  0
DICTIONARYVAR
  5
367
102
{ACAD_REACTORS
330
364
102
}
330
364
100
DictionaryVariables
280
     0
  1
0
  0
DICTIONARYVAR
  5
3B4
102
{ACAD_REACTORS
330
364
102
}
330
364
100
DictionaryVariables
280
     0
  1
127
  0
DICTIONARYVAR
  5
3B8
102
{ACAD_REACTORS
330
364
102
}
330
364
100
DictionaryVariables
280
     0
  1
2
  0
DICTIONARY
  5
318
102
{ACAD_REACTORS
330
317
102
}
330
317
100
AcDbDictionary
281
     1
  0
DICTIONARY
  5
312
102
{ACAD_REACTORS
330
308
102
}
330
308
100
AcDbDictionary
281
     1
  3
DWGSETTINGS
350
311
  3
TRANSSETTINGS
350
313
  0
DICTIONARY
  5
3C2
330
D
100
AcDbDictionary
280
     1
281
     1
  3
ACAD_XREC_ROUNDTRIP
360
3C3
  0
DICTIONARY
  5
3C0
330
7
100
AcDbDictionary
280
     1
281
     1
  3
ACAD_XREC_ROUNDTRIP
360
3C1
  0
DICTIONARY
  5
3D
330
3C
100
AcDbDictionary
280
     1
281
     1
  3
ACAD_XREC_ROUNDTRIP
360
3C8
  3
BUMPTILE
360
3E
  3
DIFFUSETILE
360
3F
  3
OPACITYTILE
360
40
  3
REFLECTIONTILE
360
41
  3
REFRACTIONTILE
360
42
  3
SPECULARTILE
360
43
  0
DICTIONARY
  5
35
330
34
100
AcDbDictionary
280
     1
281
     1
  3
ACAD_XREC_ROUNDTRIP
360
3C7
  3
BUMPTILE
360
36
  3
DIFFUSETILE
360
37
  3
OPACITYTILE
360
38
  3
REFLECTIONTILE
360
39
  3
REFRACTIONTILE
360
3A
  3
SPECULARTILE
360
3B
  0
DICTIONARY
  5
14
330
12
100
AcDbDictionary
280
     1
281
     1
  3
ACAD_XREC_ROUNDTRIP
360
3C4
  3
BUMPTILE
360
15
  3
DIFFUSETILE
360
16
  3
OPACITYTILE
360
17
  3
REFLECTIONTILE
360
18
  3
REFRACTIONTILE
360
19
  3
SPECULARTILE
360
1A
  0
DICTIONARY
  5
4A
330
49
100
AcDbDictionary
280
     1
281
     1
  3
ACAD_ROUNDTRIP_2008_TABLESTYLE_CELLSTYLEMAP
360
3B9
  3
ACAD_XREC_ROUNDTRIP
360
3C9
  0
DICTIONARY
  5
3C5
330
2A
100
AcDbDictionary
280
     1
281
     1
  3
ACAD_XREC_ROUNDTRIP
360
3C6
  0
DICTIONARY
  5
3DC
330
371
100
AcDbDictionary
280
     1
281
     1
  3
ACAD_XREC_ROUNDTRIP
360
3DD
  0
DICTIONARY
  5
3E4
330
375
100
AcDbDictionary
280
     1
281
     1
  3
ACAD_XREC_ROUNDTRIP
360
3E5
  0
DICTIONARY
  5
3EC
330
379
100
AcDbDictionary
280
     1
281
     1
  3
ACAD_XREC_ROUNDTRIP
360
3ED
  0
DICTIONARY
  5
3E0
330
373
100
AcDbDictionary
280
     1
281
     1
  3
ACAD_XREC_ROUNDTRIP
360
3E1
  0
DICTIONARY
  5
3E2
330
374
100
AcDbDictionary
280
     1
281
     1
  3
ACAD_XREC_ROUNDTRIP
360
3E3
  0
DICTIONARY
  5
3FC
330
381
100
AcDbDictionary
280
     1
281
     1
  3
ACAD_XREC_ROUNDTRIP
360
3FD
  0
DICTIONARY
  5
3EA
330
378
100
AcDbDictionary
280
     1
281
     1
  3
ACAD_XREC_ROUNDTRIP
360
3EB
  0
DICTIONARY
  5
3D4
330
36D
100
AcDbDictionary
280
     1
281
     1
  3
ACAD_XREC_ROUNDTRIP
360
3D5
  0
DICTIONARY
  5
3D6
330
36E
100
AcDbDictionary
280
     1
281
     1
  3
ACAD_XREC_ROUNDTRIP
360
3D7
  0
DICTIONARY
  5
3D8
330
36F
100
AcDbDictionary
280
     1
281
     1
  3
ACAD_XREC_ROUNDTRIP
360
3D9
  0
DICTIONARY
  5
3DA
330
370
100
AcDbDictionary
280
     1
281
     1
  3
ACAD_XREC_ROUNDTRIP
360
3DB
  0
DICTIONARY
  5
3DE
330
372
100
AcDbDictionary
280
     1
281
     1
  3
ACAD_XREC_ROUNDTRIP
360
3DF
  0
DICTIONARY
  5
3F8
330
37F
100
AcDbDictionary
280
     1
281
     1
  3
ACAD_XREC_ROUNDTRIP
360
3F9
  0
DICTIONARY
  5
3E8
330
377
100
AcDbDictionary
280
     1
281
     1
  3
ACAD_XREC_ROUNDTRIP
360
3E9
  0
DICTIONARY
  5
3FA
330
380
100
AcDbDictionary
280
     1
281
     1
  3
ACAD_XREC_ROUNDTRIP
360
3FB
  0
DICTIONARY
  5
3CA
330
4B
100
AcDbDictionary
280
     1
281
     1
  3
ACAD_XREC_ROUNDTRIP
360
3CB
  0
DICTIONARY
  5
3F6
330
37E
100
AcDbDictionary
280
     1
281
     1
  3
ACAD_XREC_ROUNDTRIP
360
3F7
  0
DICTIONARY
  5
3F4
330
37D
100
AcDbDictionary
280
     1
281
     1
  3
ACAD_XREC_ROUNDTRIP
360
3F5
  0
DICTIONARY
  5
3EE
330
37A
100
AcDbDictionary
280
     1
281
     1
  3
ACAD_XREC_ROUNDTRIP
360
3EF
  0
DICTIONARY
  5
3F0
330
37B
100
AcDbDictionary
280
     1
281
     1
  3
ACAD_XREC_ROUNDTRIP
360
3F1
  0
DICTIONARY
  5
3E6
330
376
100
AcDbDictionary
280
     1
281
     1
  3
ACAD_XREC_ROUNDTRIP
360
3E7
  0
DICTIONARY
  5
3CC
330
4C
100
AcDbDictionary
280
     1
281
     1
  3
ACAD_XREC_ROUNDTRIP
360
3CD
  0
DICTIONARY
  5
3F2
330
37C
100
AcDbDictionary
280
     1
281
     1
  3
ACAD_XREC_ROUNDTRIP
360
3F3
  0
XRECORD
  5
3C3
102
{ACAD_REACTORS
330
3C2
102
}
330
3C2
100
AcDbXrecord
280
     1
102
SHADEPLOT
 70
     0
102
SHADEPLOTRESLEVEL
 70
     2
102
SHADEPLOTCUSTOMDPI
 70
   300
  0
XRECORD
  5
3C1
102
{ACAD_REACTORS
330
3C0
102
}
330
3C0
100
AcDbXrecord
280
     1
102
SHADEPLOT
 70
     0
102
SHADEPLOTRESLEVEL
 70
     2
102
SHADEPLOTCUSTOMDPI
 70
   300
  0
XRECORD
  5
3C8
102
{ACAD_REACTORS
330
3D
102
}
330
3D
100
AcDbXrecord
280
     1
102
MATERIAL
148
0.0
149
0.0
149
0.0
 93
        0
 94
      127
282
     0
 72
     0
 77
     0
171
     0
175
     0
179
     0
273
     0
  0
XRECORD
  5
3E
102
{ACAD_REACTORS
330
3D
102
}
330
3D
100
AcDbXrecord
280
     1
270
     1
271
     1
  0
XRECORD
  5
3F
102
{ACAD_REACTORS
330
3D
102
}
330
3D
100
AcDbXrecord
280
     1
270
     1
271
     1
  0
XRECORD
  5
40
102
{ACAD_REACTORS
330
3D
102
}
330
3D
100
AcDbXrecord
280
     1
270
     1
271
     1
  0
XRECORD
  5
41
102
{ACAD_REACTORS
330
3D
102
}
330
3D
100
AcDbXrecord
280
     1
270
     1
271
     1
  0
XRECORD
  5
42
102
{ACAD_REACTORS
330
3D
102
}
330
3D
100
AcDbXrecord
280
     1
270
     1
271
     1
  0
XRECORD
  5
43
102
{ACAD_REACTORS
330
3D
102
}
330
3D
100
AcDbXrecord
280
     1
270
     1
271
     1
  0
XRECORD
  5
3C7
102
{ACAD_REACTORS
330
35
102
}
330
35
100
AcDbXrecord
280
     1
102
MATERIAL
148
0.0
149
0.0
149
0.0
 93
        0
 94
      127
282
     0
 72
     0
 77
     0
171
     0
175
     0
179
     0
273
     0
  0
XRECORD
  5
36
102
{ACAD_REACTORS
330
35
102
}
330
35
100
AcDbXrecord
280
     1
270
     1
271
     1
  0
XRECORD
  5
37
102
{ACAD_REACTORS
330
35
102
}
330
35
100
AcDbXrecord
280
     1
270
     1
271
     1
  0
XRECORD
  5
38
102
{ACAD_REACTORS
330
35
102
}
330
35
100
AcDbXrecord
280
     1
270
     1
271
     1
  0
XRECORD
  5
39
102
{ACAD_REACTORS
330
35
102
}
330
35
100
AcDbXrecord
280
     1
270
     1
271
     1
  0
XRECORD
  5
3A
102
{ACAD_REACTORS
330
35
102
}
330
35
100
AcDbXrecord
280
     1
270
     1
271
     1
  0
XRECORD
  5
3B
102
{ACAD_REACTORS
330
35
102
}
330
35
100
AcDbXrecord
280
     1
270
     1
271
     1
  0
XRECORD
  5
3C4
102
{ACAD_REACTORS
330
14
102
}
330
14
100
AcDbXrecord
280
     1
102
MATERIAL
148
0.0
149
0.0
149
0.0
 93
        0
 94
      127
282
     0
 72
     0
 77
     0
171
     0
175
     0
179
     0
273
     0
  0
XRECORD
  5
15
102
{ACAD_REACTORS
330
14
102
}
330
14
100
AcDbXrecord
280
     1
270
     1
271
     1
  0
XRECORD
  5
16
102
{ACAD_REACTORS
330
14
102
}
330
14
100
AcDbXrecord
280
     1
270
     1
271
     1
  0
XRECORD
  5
17
102
{ACAD_REACTORS
330
14
102
}
330
14
100
AcDbXrecord
280
     1
270
     1
271
     1
  0
XRECORD
  5
18
102
{ACAD_REACTORS
330
14
102
}
330
14
100
AcDbXrecord
280
     1
270
     1
271
     1
  0
XRECORD
  5
19
102
{ACAD_REACTORS
330
14
102
}
330
14
100
AcDbXrecord
280
     1
270
     1
271
     1
  0
XRECORD
  5
1A
102
{ACAD_REACTORS
330
14
102
}
330
14
100
AcDbXrecord
280
     1
270
     1
271
     1
  0
CELLSTYLEMAP
  5
3B9
102
{ACAD_REACTORS
330
4A
102
}
330
4A
100
AcDbCellStyleMap
 90
        3
300
CELLSTYLE
  1
TABLEFORMAT_BEGIN
 90
        5
170
     1
 91
        0
 92
    32768
 62
   257
 93
        1
300
CONTENTFORMAT
  1
CONTENTFORMAT_BEGIN
 90
        0
 91
        0
 92
      512
 93
        0
300

 40
0.0
140
1.0
 94
        5
 62
     0
340
21
144
0.25
309
CONTENTFORMAT_END
171
     0
 94
        0
309
TABLEFORMAT_END
  1
CELLSTYLE_BEGIN
 90
        1
 91
        1
300
_TITLE
309
CELLSTYLE_END
300
CELLSTYLE
  1
TABLEFORMAT_BEGIN
 90
        5
170
     1
 91
        0
 92
        0
 62
   257
 93
        1
300
CONTENTFORMAT
  1
CONTENTFORMAT_BEGIN
 90
        0
 91
        0
 92
      512
 93
        0
300

 40
0.0
140
1.0
 94
        5
 62
     0
340
21
144
0.18
309
CONTENTFORMAT_END
171
     0
 94
        0
309
TABLEFORMAT_END
  1
CELLSTYLE_BEGIN
 90
        2
 91
        1
300
_HEADER
309
CELLSTYLE_END
300
CELLSTYLE
  1
TABLEFORMAT_BEGIN
 90
        5
170
     1
 91
        0
 92
        0
 62
   257
 93
        1
300
CONTENTFORMAT
  1
CONTENTFORMAT_BEGIN
 90
        0
 91
        0
 92
      512
 93
        0
300

 40
0.0
140
1.0
 94
        2
 62
     0
340
21
144
0.18
309
CONTENTFORMAT_END
171
     0
 94
        0
309
TABLEFORMAT_END
  1
CELLSTYLE_BEGIN
 90
        3
 91
        2
300
_DATA
309
CELLSTYLE_END
  0
XRECORD
  5
3C9
102
{ACAD_REACTORS
330
4A
102
}
330
4A
100
AcDbXrecord
280
     1
102
ACAD_ROUNDTRIP_PRE2007_TABLESTYLE
 90
      512
 91
        0
  1

 92
      512
 93
        0
  2

 94
      512
 95
        0
  3

  0
XRECORD
  5
3C6
102
{ACAD_REACTORS
330
3C5
102
}
330
3C5
100
AcDbXrecord
280
     1
102
RTVSPropertyOp0
 70
     1
102
RTVSPropertyOp1
 70
     1
102
RTVSPropertyOp2
 70
     1
102
RTVSPropertyOp3
 70
     1
102
RTVSPropertyOp4
 70
     1
102
RTVSPropertyOp5
 70
     1
102
RTVSPropertyOp6
 70
     1
102
RTVSPropertyOp7
 70
     1
102
RTVSPropertyOp8
 70
     1
102
RTVSPropertyOp9
 70
     1
102
RTVSPropertyOp10
 70
     1
102
RTVSPropertyOp11
 70
     1
102
RTVSPropertyOp12
 70
     1
102
RTVSPropertyOp13
 70
     1
102
RTVSPropertyOp14
 70
     1
102
RTVSPropertyOp15
 70
     1
102
RTVSPropertyOp16
 70
     1
102
RTVSPropertyOp17
 70
     1
102
RTVSPropertyOp18
 70
     1
102
RTVSPropertyOp19
 70
     1
102
RTVSPropertyOp20
 70
     1
102
RTVSPropertyOp21
 70
     1
102
RTVSPropertyOp22
 70
     1
102
RTVSPropertyOp23
 70
     1
102
RTVSPropertyOp24
 70
     1
102
RTVSPropertyOp25
 70
     1
102
RTVSPropertyOp26
 70
     1
102
RTVSPropertyOp27
 70
     1
102
RTVSPropertyOp28
 70
     1
102
RTVSPropertyOp29
 70
     1
102
RTVSPropertyOp30
 70
     1
102
RTVSPropertyOp31
 70
     1
102
RTVSPropertyOp32
 70
     1
  0
XRECORD
  5
3DD
102
{ACAD_REACTORS
330
3DC
102
}
330
3DC
100
AcDbXrecord
280
     1
102
RTVSPropertyOp0
 70
     1
102
RTVSPropertyOp1
 70
     1
102
RTVSPropertyOp2
 70
     1
102
RTVSPropertyOp3
 70
     1
102
RTVSPropertyOp4
 70
     1
102
RTVSPropertyOp5
 70
     1
102
RTVSPropertyOp6
 70
     1
102
RTVSPropertyOp7
 70
     1
102
RTVSPropertyOp8
 70
     1
102
RTVSPropertyOp9
 70
     1
102
RTVSPropertyOp10
 70
     1
102
RTVSPropertyOp11
 70
     1
102
RTVSPropertyOp12
 70
     1
102
RTVSPropertyOp13
 70
     1
102
RTVSPropertyOp14
 70
     1
102
RTVSPropertyOp15
 70
     1
102
RTVSPropertyOp16
 70
     1
102
RTVSPropertyOp17
 70
     1
102
RTVSPropertyOp18
 70
     1
102
RTVSPropertyOp19
 70
     1
102
RTVSPropertyOp20
 70
     1
102
RTVSPropertyOp21
 70
     1
102
RTVSPropertyOp22
 70
     1
102
RTVSPropertyOp23
 70
     1
102
RTVSPropertyOp24
 70
     1
102
RTVSPropertyOp25
 70
     1
102
RTVSPropertyOp26
 70
     1
102
RTVSPropertyOp27
 70
     1
102
RTVSPropertyOp28
 70
     1
102
RTVSPropertyOp29
 70
     1
102
RTVSPropertyOp30
 70
     1
102
RTVSPropertyOp31
 70
     1
102
RTVSPropertyOp32
 70
     1
  0
XRECORD
  5
3E5
102
{ACAD_REACTORS
330
3E4
102
}
330
3E4
100
AcDbXrecord
280
     1
102
RTVSPropertyOp0
 70
     1
102
RTVSPropertyOp1
 70
     1
102
RTVSPropertyOp2
 70
     1
102
RTVSPropertyOp3
 70
     1
102
RTVSPropertyOp4
 70
     1
102
RTVSPropertyOp5
 70
     1
102
RTVSPropertyOp6
 70
     1
102
RTVSPropertyOp7
 70
     1
102
RTVSPropertyOp8
 70
     1
102
RTVSPropertyOp9
 70
     1
102
RTVSPropertyOp10
 70
     1
102
RTVSPropertyOp11
 70
     1
102
RTVSPropertyOp12
 70
     1
102
RTVSPropertyOp13
 70
     1
102
RTVSPropertyOp14
 70
     1
102
RTVSPropertyOp15
 70
     1
102
RTVSPropertyOp16
 70
     1
102
RTVSPropertyOp17
 70
     1
102
RTVSPropertyOp18
 70
     1
102
RTVSPropertyOp19
 70
     1
102
RTVSPropertyOp20
 70
     1
102
RTVSPropertyOp21
 70
     1
102
RTVSPropertyOp22
 70
     1
102
RTVSPropertyOp23
 70
     1
102
RTVSPropertyOp24
 70
     1
102
RTVSPropertyOp25
 70
     1
102
RTVSPropertyOp26
 70
     1
102
RTVSPropertyOp27
 70
     1
102
RTVSPropertyOp28
 70
     1
102
RTVSPropertyOp29
 70
     1
102
RTVSPropertyOp30
 70
     1
102
RTVSPropertyOp31
 70
     1
102
RTVSPropertyOp32
 70
     1
  0
XRECORD
  5
3ED
102
{ACAD_REACTORS
330
3EC
102
}
330
3EC
100
AcDbXrecord
280
     1
102
RTVSPropertyOp0
 70
     1
102
RTVSPropertyOp1
 70
     1
102
RTVSPropertyOp2
 70
     1
102
RTVSPropertyOp3
 70
     1
102
RTVSPropertyOp4
 70
     1
102
RTVSPropertyOp5
 70
     1
102
RTVSPropertyOp6
 70
     1
102
RTVSPropertyOp7
 70
     1
102
RTVSPropertyOp8
 70
     1
102
RTVSPropertyOp9
 70
     1
102
RTVSPropertyOp10
 70
     1
102
RTVSPropertyOp11
 70
     1
102
RTVSPropertyOp12
 70
     1
102
RTVSPropertyOp13
 70
     1
102
RTVSPropertyOp14
 70
     1
102
RTVSPropertyOp15
 70
     1
102
RTVSPropertyOp16
 70
     1
102
RTVSPropertyOp17
 70
     1
102
RTVSPropertyOp18
 70
     1
102
RTVSPropertyOp19
 70
     1
102
RTVSPropertyOp20
 70
     1
102
RTVSPropertyOp21
 70
     1
102
RTVSPropertyOp22
 70
     1
102
RTVSPropertyOp23
 70
     1
102
RTVSPropertyOp24
 70
     1
102
RTVSPropertyOp25
 70
     1
102
RTVSPropertyOp26
 70
     1
102
RTVSPropertyOp27
 70
     1
102
RTVSPropertyOp28
 70
     1
102
RTVSPropertyOp29
 70
     1
102
RTVSPropertyOp30
 70
     1
102
RTVSPropertyOp31
 70
     1
102
RTVSPropertyOp32
 70
     1
  0
XRECORD
  5
3E1
102
{ACAD_REACTORS
330
3E0
102
}
330
3E0
100
AcDbXrecord
280
     1
102
RTVSPropertyOp0
 70
     1
102
RTVSPropertyOp1
 70
     1
102
RTVSPropertyOp2
 70
     1
102
RTVSPropertyOp3
 70
     1
102
RTVSPropertyOp4
 70
     1
102
RTVSPropertyOp5
 70
     1
102
RTVSPropertyOp6
 70
     1
102
RTVSPropertyOp7
 70
     1
102
RTVSPropertyOp8
 70
     1
102
RTVSPropertyOp9
 70
     1
102
RTVSPropertyOp10
 70
     1
102
RTVSPropertyOp11
 70
     1
102
RTVSPropertyOp12
 70
     1
102
RTVSPropertyOp13
 70
     1
102
RTVSPropertyOp14
 70
     1
102
RTVSPropertyOp15
 70
     1
102
RTVSPropertyOp16
 70
     1
102
RTVSPropertyOp17
 70
     1
102
RTVSPropertyOp18
 70
     1
102
RTVSPropertyOp19
 70
     1
102
RTVSPropertyOp20
 70
     1
102
RTVSPropertyOp21
 70
     1
102
RTVSPropertyOp22
 70
     1
102
RTVSPropertyOp23
 70
     1
102
RTVSPropertyOp24
 70
     1
102
RTVSPropertyOp25
 70
     1
102
RTVSPropertyOp26
 70
     1
102
RTVSPropertyOp27
 70
     1
102
RTVSPropertyOp28
 70
     1
102
RTVSPropertyOp29
 70
     1
102
RTVSPropertyOp30
 70
     1
102
RTVSPropertyOp31
 70
     1
102
RTVSPropertyOp32
 70
     1
  0
XRECORD
  5
3E3
102
{ACAD_REACTORS
330
3E2
102
}
330
3E2
100
AcDbXrecord
280
     1
102
RTVSPropertyOp0
 70
     1
102
RTVSPropertyOp1
 70
     1
102
RTVSPropertyOp2
 70
     1
102
RTVSPropertyOp3
 70
     1
102
RTVSPropertyOp4
 70
     1
102
RTVSPropertyOp5
 70
     1
102
RTVSPropertyOp6
 70
     1
102
RTVSPropertyOp7
 70
     1
102
RTVSPropertyOp8
 70
     1
102
RTVSPropertyOp9
 70
     1
102
RTVSPropertyOp10
 70
     1
102
RTVSPropertyOp11
 70
     1
102
RTVSPropertyOp12
 70
     1
102
RTVSPropertyOp13
 70
     1
102
RTVSPropertyOp14
 70
     1
102
RTVSPropertyOp15
 70
     1
102
RTVSPropertyOp16
 70
     1
102
RTVSPropertyOp17
 70
     1
102
RTVSPropertyOp18
 70
     1
102
RTVSPropertyOp19
 70
     1
102
RTVSPropertyOp20
 70
     1
102
RTVSPropertyOp21
 70
     1
102
RTVSPropertyOp22
 70
     1
102
RTVSPropertyOp23
 70
     1
102
RTVSPropertyOp24
 70
     1
102
RTVSPropertyOp25
 70
     1
102
RTVSPropertyOp26
 70
     1
102
RTVSPropertyOp27
 70
     1
102
RTVSPropertyOp28
 70
     1
102
RTVSPropertyOp29
 70
     1
102
RTVSPropertyOp30
 70
     1
102
RTVSPropertyOp31
 70
     1
102
RTVSPropertyOp32
 70
     1
  0
XRECORD
  5
3FD
102
{ACAD_REACTORS
330
3FC
102
}
330
3FC
100
AcDbXrecord
280
     1
102
RTVSPropertyOp0
 70
     0
102
RTVSPropertyOp1
 70
     0
102
RTVSPropertyOp2
 70
     0
102
RTVSPropertyOp3
 70
     0
102
RTVSPropertyOp4
 70
     0
102
RTVSPropertyOp5
 70
     0
102
RTVSPropertyOp6
 70
     0
102
RTVSPropertyOp7
 70
     0
102
RTVSPropertyOp8
 70
     0
102
RTVSPropertyOp9
 70
     0
102
RTVSPropertyOp10
 70
     0
102
RTVSPropertyOp11
 70
     0
102
RTVSPropertyOp12
 70
     0
102
RTVSPropertyOp13
 70
     0
102
RTVSPropertyOp14
 70
     2
102
RTVSPropertyOp15
 70
     0
102
RTVSPropertyOp16
 70
     0
102
RTVSPropertyOp17
 70
     0
102
RTVSPropertyOp18
 70
     0
102
RTVSPropertyOp19
 70
     0
102
RTVSPropertyOp20
 70
     0
102
RTVSPropertyOp21
 70
     0
102
RTVSPropertyOp22
 70
     0
102
RTVSPropertyOp23
 70
     0
102
RTVSPropertyOp24
 70
     0
102
RTVSPropertyOp25
 70
     0
102
RTVSPropertyOp26
 70
     0
102
RTVSPropertyOp27
 70
     0
102
RTVSPropertyOp28
 70
     0
102
RTVSPropertyOp29
 70
     0
102
RTVSPropertyOp30
 70
     0
102
RTVSPropertyOp31
 70
     0
102
RTVSPropertyOp32
 70
     0
  0
XRECORD
  5
3EB
102
{ACAD_REACTORS
330
3EA
102
}
330
3EA
100
AcDbXrecord
280
     1
102
RTVSPropertyOp0
 70
     1
102
RTVSPropertyOp1
 70
     1
102
RTVSPropertyOp2
 70
     1
102
RTVSPropertyOp3
 70
     1
102
RTVSPropertyOp4
 70
     1
102
RTVSPropertyOp5
 70
     1
102
RTVSPropertyOp6
 70
     1
102
RTVSPropertyOp7
 70
     1
102
RTVSPropertyOp8
 70
     1
102
RTVSPropertyOp9
 70
     1
102
RTVSPropertyOp10
 70
     1
102
RTVSPropertyOp11
 70
     1
102
RTVSPropertyOp12
 70
     1
102
RTVSPropertyOp13
 70
     1
102
RTVSPropertyOp14
 70
     1
102
RTVSPropertyOp15
 70
     1
102
RTVSPropertyOp16
 70
     1
102
RTVSPropertyOp17
 70
     1
102
RTVSPropertyOp18
 70
     1
102
RTVSPropertyOp19
 70
     1
102
RTVSPropertyOp20
 70
     1
102
RTVSPropertyOp21
 70
     1
102
RTVSPropertyOp22
 70
     1
102
RTVSPropertyOp23
 70
     1
102
RTVSPropertyOp24
 70
     1
102
RTVSPropertyOp25
 70
     1
102
RTVSPropertyOp26
 70
     1
102
RTVSPropertyOp27
 70
     1
102
RTVSPropertyOp28
 70
     1
102
RTVSPropertyOp29
 70
     1
102
RTVSPropertyOp30
 70
     1
102
RTVSPropertyOp31
 70
     1
102
RTVSPropertyOp32
 70
     1
  0
XRECORD
  5
3D5
102
{ACAD_REACTORS
330
3D4
102
}
330
3D4
100
AcDbXrecord
280
     1
102
RTVSPropertyOp0
 70
     1
102
RTVSPropertyOp1
 70
     1
102
RTVSPropertyOp2
 70
     1
102
RTVSPropertyOp3
 70
     1
102
RTVSPropertyOp4
 70
     1
102
RTVSPropertyOp5
 70
     1
102
RTVSPropertyOp6
 70
     1
102
RTVSPropertyOp7
 70
     1
102
RTVSPropertyOp8
 70
     1
102
RTVSPropertyOp9
 70
     1
102
RTVSPropertyOp10
 70
     1
102
RTVSPropertyOp11
 70
     1
102
RTVSPropertyOp12
 70
     1
102
RTVSPropertyOp13
 70
     1
102
RTVSPropertyOp14
 70
     1
102
RTVSPropertyOp15
 70
     1
102
RTVSPropertyOp16
 70
     1
102
RTVSPropertyOp17
 70
     1
102
RTVSPropertyOp18
 70
     1
102
RTVSPropertyOp19
 70
     1
102
RTVSPropertyOp20
 70
     1
102
RTVSPropertyOp21
 70
     1
102
RTVSPropertyOp22
 70
     1
102
RTVSPropertyOp23
 70
     1
102
RTVSPropertyOp24
 70
     1
102
RTVSPropertyOp25
 70
     1
102
RTVSPropertyOp26
 70
     1
102
RTVSPropertyOp27
 70
     1
102
RTVSPropertyOp28
 70
     1
102
RTVSPropertyOp29
 70
     1
102
RTVSPropertyOp30
 70
     1
102
RTVSPropertyOp31
 70
     1
102
RTVSPropertyOp32
 70
     1
  0
XRECORD
  5
3D7
102
{ACAD_REACTORS
330
3D6
102
}
330
3D6
100
AcDbXrecord
280
     1
102
RTVSPropertyOp0
 70
     1
102
RTVSPropertyOp1
 70
     1
102
RTVSPropertyOp2
 70
     1
102
RTVSPropertyOp3
 70
     1
102
RTVSPropertyOp4
 70
     1
102
RTVSPropertyOp5
 70
     1
102
RTVSPropertyOp6
 70
     1
102
RTVSPropertyOp7
 70
     1
102
RTVSPropertyOp8
 70
     1
102
RTVSPropertyOp9
 70
     1
102
RTVSPropertyOp10
 70
     1
102
RTVSPropertyOp11
 70
     1
102
RTVSPropertyOp12
 70
     1
102
RTVSPropertyOp13
 70
     1
102
RTVSPropertyOp14
 70
     1
102
RTVSPropertyOp15
 70
     1
102
RTVSPropertyOp16
 70
     1
102
RTVSPropertyOp17
 70
     1
102
RTVSPropertyOp18
 70
     1
102
RTVSPropertyOp19
 70
     1
102
RTVSPropertyOp20
 70
     1
102
RTVSPropertyOp21
 70
     1
102
RTVSPropertyOp22
 70
     1
102
RTVSPropertyOp23
 70
     1
102
RTVSPropertyOp24
 70
     1
102
RTVSPropertyOp25
 70
     1
102
RTVSPropertyOp26
 70
     1
102
RTVSPropertyOp27
 70
     1
102
RTVSPropertyOp28
 70
     1
102
RTVSPropertyOp29
 70
     1
102
RTVSPropertyOp30
 70
     1
102
RTVSPropertyOp31
 70
     1
102
RTVSPropertyOp32
 70
     1
  0
XRECORD
  5
3D9
102
{ACAD_REACTORS
330
3D8
102
}
330
3D8
100
AcDbXrecord
280
     1
102
RTVSPropertyOp0
 70
     1
102
RTVSPropertyOp1
 70
     1
102
RTVSPropertyOp2
 70
     1
102
RTVSPropertyOp3
 70
     1
102
RTVSPropertyOp4
 70
     1
102
RTVSPropertyOp5
 70
     1
102
RTVSPropertyOp6
 70
     1
102
RTVSPropertyOp7
 70
     1
102
RTVSPropertyOp8
 70
     1
102
RTVSPropertyOp9
 70
     1
102
RTVSPropertyOp10
 70
     1
102
RTVSPropertyOp11
 70
     1
102
RTVSPropertyOp12
 70
     1
102
RTVSPropertyOp13
 70
     1
102
RTVSPropertyOp14
 70
     1
102
RTVSPropertyOp15
 70
     1
102
RTVSPropertyOp16
 70
     1
102
RTVSPropertyOp17
 70
     1
102
RTVSPropertyOp18
 70
     1
102
RTVSPropertyOp19
 70
     1
102
RTVSPropertyOp20
 70
     1
102
RTVSPropertyOp21
 70
     1
102
RTVSPropertyOp22
 70
     1
102
RTVSPropertyOp23
 70
     1
102
RTVSPropertyOp24
 70
     1
102
RTVSPropertyOp25
 70
     1
102
RTVSPropertyOp26
 70
     1
102
RTVSPropertyOp27
 70
     1
102
RTVSPropertyOp28
 70
     1
102
RTVSPropertyOp29
 70
     1
102
RTVSPropertyOp30
 70
     1
102
RTVSPropertyOp31
 70
     1
102
RTVSPropertyOp32
 70
     1
  0
XRECORD
  5
3DB
102
{ACAD_REACTORS
330
3DA
102
}
330
3DA
100
AcDbXrecord
280
     1
102
RTVSPropertyOp0
 70
     1
102
RTVSPropertyOp1
 70
     1
102
RTVSPropertyOp2
 70
     1
102
RTVSPropertyOp3
 70
     1
102
RTVSPropertyOp4
 70
     1
102
RTVSPropertyOp5
 70
     1
102
RTVSPropertyOp6
 70
     1
102
RTVSPropertyOp7
 70
     1
102
RTVSPropertyOp8
 70
     1
102
RTVSPropertyOp9
 70
     1
102
RTVSPropertyOp10
 70
     1
102
RTVSPropertyOp11
 70
     1
102
RTVSPropertyOp12
 70
     1
102
RTVSPropertyOp13
 70
     1
102
RTVSPropertyOp14
 70
     1
102
RTVSPropertyOp15
 70
     1
102
RTVSPropertyOp16
 70
     1
102
RTVSPropertyOp17
 70
     1
102
RTVSPropertyOp18
 70
     1
102
RTVSPropertyOp19
 70
     1
102
RTVSPropertyOp20
 70
     1
102
RTVSPropertyOp21
 70
     1
102
RTVSPropertyOp22
 70
     1
102
RTVSPropertyOp23
 70
     1
102
RTVSPropertyOp24
 70
     1
102
RTVSPropertyOp25
 70
     1
102
RTVSPropertyOp26
 70
     1
102
RTVSPropertyOp27
 70
     1
102
RTVSPropertyOp28
 70
     1
102
RTVSPropertyOp29
 70
     1
102
RTVSPropertyOp30
 70
     1
102
RTVSPropertyOp31
 70
     1
102
RTVSPropertyOp32
 70
     1
  0
XRECORD
  5
3DF
102
{ACAD_REACTORS
330
3DE
102
}
330
3DE
100
AcDbXrecord
280
     1
102
RTVSPropertyOp0
 70
     1
102
RTVSPropertyOp1
 70
     1
102
RTVSPropertyOp2
 70
     1
102
RTVSPropertyOp3
 70
     1
102
RTVSPropertyOp4
 70
     1
102
RTVSPropertyOp5
 70
     1
102
RTVSPropertyOp6
 70
     1
102
RTVSPropertyOp7
 70
     1
102
RTVSPropertyOp8
 70
     1
102
RTVSPropertyOp9
 70
     1
102
RTVSPropertyOp10
 70
     1
102
RTVSPropertyOp11
 70
     1
102
RTVSPropertyOp12
 70
     1
102
RTVSPropertyOp13
 70
     1
102
RTVSPropertyOp14
 70
     1
102
RTVSPropertyOp15
 70
     1
102
RTVSPropertyOp16
 70
     1
102
RTVSPropertyOp17
 70
     1
102
RTVSPropertyOp18
 70
     1
102
RTVSPropertyOp19
 70
     1
102
RTVSPropertyOp20
 70
     1
102
RTVSPropertyOp21
 70
     1
102
RTVSPropertyOp22
 70
     1
102
RTVSPropertyOp23
 70
     1
102
RTVSPropertyOp24
 70
     1
102
RTVSPropertyOp25
 70
     1
102
RTVSPropertyOp26
 70
     1
102
RTVSPropertyOp27
 70
     1
102
RTVSPropertyOp28
 70
     1
102
RTVSPropertyOp29
 70
     1
102
RTVSPropertyOp30
 70
     1
102
RTVSPropertyOp31
 70
     1
102
RTVSPropertyOp32
 70
     1
  0
XRECORD
  5
3F9
102
{ACAD_REACTORS
330
3F8
102
}
330
3F8
100
AcDbXrecord
280
     1
102
RTVSPropertyOp0
 70
     0
102
RTVSPropertyOp1
 70
     0
102
RTVSPropertyOp2
 70
     0
102
RTVSPropertyOp3
 70
     0
102
RTVSPropertyOp4
 70
     0
102
RTVSPropertyOp5
 70
     0
102
RTVSPropertyOp6
 70
     0
102
RTVSPropertyOp7
 70
     0
102
RTVSPropertyOp8
 70
     0
102
RTVSPropertyOp9
 70
     0
102
RTVSPropertyOp10
 70
     0
102
RTVSPropertyOp11
 70
     0
102
RTVSPropertyOp12
 70
     0
102
RTVSPropertyOp13
 70
     0
102
RTVSPropertyOp14
 70
     2
102
RTVSPropertyOp15
 70
     0
102
RTVSPropertyOp16
 70
     0
102
RTVSPropertyOp17
 70
     0
102
RTVSPropertyOp18
 70
     0
102
RTVSPropertyOp19
 70
     0
102
RTVSPropertyOp20
 70
     0
102
RTVSPropertyOp21
 70
     0
102
RTVSPropertyOp22
 70
     0
102
RTVSPropertyOp23
 70
     0
102
RTVSPropertyOp24
 70
     0
102
RTVSPropertyOp25
 70
     0
102
RTVSPropertyOp26
 70
     0
102
RTVSPropertyOp27
 70
     0
102
RTVSPropertyOp28
 70
     0
102
RTVSPropertyOp29
 70
     0
102
RTVSPropertyOp30
 70
     0
102
RTVSPropertyOp31
 70
     0
102
RTVSPropertyOp32
 70
     0
  0
XRECORD
  5
3E9
102
{ACAD_REACTORS
330
3E8
102
}
330
3E8
100
AcDbXrecord
280
     1
102
RTVSPropertyOp0
 70
     1
102
RTVSPropertyOp1
 70
     1
102
RTVSPropertyOp2
 70
     1
102
RTVSPropertyOp3
 70
     1
102
RTVSPropertyOp4
 70
     1
102
RTVSPropertyOp5
 70
     1
102
RTVSPropertyOp6
 70
     1
102
RTVSPropertyOp7
 70
     1
102
RTVSPropertyOp8
 70
     1
102
RTVSPropertyOp9
 70
     1
102
RTVSPropertyOp10
 70
     1
102
RTVSPropertyOp11
 70
     1
102
RTVSPropertyOp12
 70
     1
102
RTVSPropertyOp13
 70
     1
102
RTVSPropertyOp14
 70
     1
102
RTVSPropertyOp15
 70
     1
102
RTVSPropertyOp16
 70
     1
102
RTVSPropertyOp17
 70
     1
102
RTVSPropertyOp18
 70
     1
102
RTVSPropertyOp19
 70
     1
102
RTVSPropertyOp20
 70
     1
102
RTVSPropertyOp21
 70
     1
102
RTVSPropertyOp22
 70
     1
102
RTVSPropertyOp23
 70
     1
102
RTVSPropertyOp24
 70
     1
102
RTVSPropertyOp25
 70
     1
102
RTVSPropertyOp26
 70
     1
102
RTVSPropertyOp27
 70
     1
102
RTVSPropertyOp28
 70
     1
102
RTVSPropertyOp29
 70
     1
102
RTVSPropertyOp30
 70
     1
102
RTVSPropertyOp31
 70
     1
102
RTVSPropertyOp32
 70
     1
  0
XRECORD
  5
3FB
102
{ACAD_REACTORS
330
3FA
102
}
330
3FA
100
AcDbXrecord
280
     1
102
RTVSPropertyOp0
 70
     0
102
RTVSPropertyOp1
 70
     0
102
RTVSPropertyOp2
 70
     0
102
RTVSPropertyOp3
 70
     0
102
RTVSPropertyOp4
 70
     0
102
RTVSPropertyOp5
 70
     0
102
RTVSPropertyOp6
 70
     0
102
RTVSPropertyOp7
 70
     0
102
RTVSPropertyOp8
 70
     0
102
RTVSPropertyOp9
 70
     0
102
RTVSPropertyOp10
 70
     0
102
RTVSPropertyOp11
 70
     0
102
RTVSPropertyOp12
 70
     0
102
RTVSPropertyOp13
 70
     0
102
RTVSPropertyOp14
 70
     2
102
RTVSPropertyOp15
 70
     0
102
RTVSPropertyOp16
 70
     0
102
RTVSPropertyOp17
 70
     0
102
RTVSPropertyOp18
 70
     0
102
RTVSPropertyOp19
 70
     0
102
RTVSPropertyOp20
 70
     0
102
RTVSPropertyOp21
 70
     0
102
RTVSPropertyOp22
 70
     0
102
RTVSPropertyOp23
 70
     0
102
RTVSPropertyOp24
 70
     0
102
RTVSPropertyOp25
 70
     0
102
RTVSPropertyOp26
 70
     0
102
RTVSPropertyOp27
 70
     0
102
RTVSPropertyOp28
 70
     0
102
RTVSPropertyOp29
 70
     0
102
RTVSPropertyOp30
 70
     0
102
RTVSPropertyOp31
 70
     0
102
RTVSPropertyOp32
 70
     0
  0
XRECORD
  5
3CB
102
{ACAD_REACTORS
330
3CA
102
}
330
3CA
100
AcDbXrecord
280
     1
102
RTVSPropertyOp0
 70
     1
102
RTVSPropertyOp1
 70
     1
102
RTVSPropertyOp2
 70
     1
102
RTVSPropertyOp3
 70
     1
102
RTVSPropertyOp4
 70
     1
102
RTVSPropertyOp5
 70
     1
102
RTVSPropertyOp6
 70
     1
102
RTVSPropertyOp7
 70
     1
102
RTVSPropertyOp8
 70
     1
102
RTVSPropertyOp9
 70
     1
102
RTVSPropertyOp10
 70
     1
102
RTVSPropertyOp11
 70
     1
102
RTVSPropertyOp12
 70
     1
102
RTVSPropertyOp13
 70
     1
102
RTVSPropertyOp14
 70
     1
102
RTVSPropertyOp15
 70
     1
102
RTVSPropertyOp16
 70
     1
102
RTVSPropertyOp17
 70
     1
102
RTVSPropertyOp18
 70
     1
102
RTVSPropertyOp19
 70
     1
102
RTVSPropertyOp20
 70
     1
102
RTVSPropertyOp21
 70
     1
102
RTVSPropertyOp22
 70
     1
102
RTVSPropertyOp23
 70
     1
102
RTVSPropertyOp24
 70
     1
102
RTVSPropertyOp25
 70
     1
102
RTVSPropertyOp26
 70
     1
102
RTVSPropertyOp27
 70
     1
102
RTVSPropertyOp28
 70
     1
102
RTVSPropertyOp29
 70
     1
102
RTVSPropertyOp30
 70
     1
102
RTVSPropertyOp31
 70
     1
102
RTVSPropertyOp32
 70
     1
  0
XRECORD
  5
3F7
102
{ACAD_REACTORS
330
3F6
102
}
330
3F6
100
AcDbXrecord
280
     1
102
RTVSPropertyOp0
 70
     1
102
RTVSPropertyOp1
 70
     1
102
RTVSPropertyOp2
 70
     1
102
RTVSPropertyOp3
 70
     1
102
RTVSPropertyOp4
 70
     1
102
RTVSPropertyOp5
 70
     1
102
RTVSPropertyOp6
 70
     1
102
RTVSPropertyOp7
 70
     1
102
RTVSPropertyOp8
 70
     1
102
RTVSPropertyOp9
 70
     1
102
RTVSPropertyOp10
 70
     1
102
RTVSPropertyOp11
 70
     1
102
RTVSPropertyOp12
 70
     1
102
RTVSPropertyOp13
 70
     1
102
RTVSPropertyOp14
 70
     1
102
RTVSPropertyOp15
 70
     1
102
RTVSPropertyOp16
 70
     1
102
RTVSPropertyOp17
 70
     1
102
RTVSPropertyOp18
 70
     1
102
RTVSPropertyOp19
 70
     1
102
RTVSPropertyOp20
 70
     1
102
RTVSPropertyOp21
 70
     1
102
RTVSPropertyOp22
 70
     1
102
RTVSPropertyOp23
 70
     1
102
RTVSPropertyOp24
 70
     1
102
RTVSPropertyOp25
 70
     1
102
RTVSPropertyOp26
 70
     1
102
RTVSPropertyOp27
 70
     1
102
RTVSPropertyOp28
 70
     1
102
RTVSPropertyOp29
 70
     1
102
RTVSPropertyOp30
 70
     1
102
RTVSPropertyOp31
 70
     1
102
RTVSPropertyOp32
 70
     1
  0
XRECORD
  5
3F5
102
{ACAD_REACTORS
330
3F4
102
}
330
3F4
100
AcDbXrecord
280
     1
102
RTVSPropertyOp0
 70
     1
102
RTVSPropertyOp1
 70
     1
102
RTVSPropertyOp2
 70
     1
102
RTVSPropertyOp3
 70
     1
102
RTVSPropertyOp4
 70
     1
102
RTVSPropertyOp5
 70
     1
102
RTVSPropertyOp6
 70
     1
102
RTVSPropertyOp7
 70
     1
102
RTVSPropertyOp8
 70
     1
102
RTVSPropertyOp9
 70
     1
102
RTVSPropertyOp10
 70
     1
102
RTVSPropertyOp11
 70
     1
102
RTVSPropertyOp12
 70
     1
102
RTVSPropertyOp13
 70
     1
102
RTVSPropertyOp14
 70
     1
102
RTVSPropertyOp15
 70
     1
102
RTVSPropertyOp16
 70
     1
102
RTVSPropertyOp17
 70
     1
102
RTVSPropertyOp18
 70
     1
102
RTVSPropertyOp19
 70
     1
102
RTVSPropertyOp20
 70
     1
102
RTVSPropertyOp21
 70
     1
102
RTVSPropertyOp22
 70
     1
102
RTVSPropertyOp23
 70
     1
102
RTVSPropertyOp24
 70
     1
102
RTVSPropertyOp25
 70
     1
102
RTVSPropertyOp26
 70
     1
102
RTVSPropertyOp27
 70
     1
102
RTVSPropertyOp28
 70
     1
102
RTVSPropertyOp29
 70
     1
102
RTVSPropertyOp30
 70
     1
102
RTVSPropertyOp31
 70
     1
102
RTVSPropertyOp32
 70
     1
  0
XRECORD
  5
3EF
102
{ACAD_REACTORS
330
3EE
102
}
330
3EE
100
AcDbXrecord
280
     1
102
RTVSPropertyOp0
 70
     1
102
RTVSPropertyOp1
 70
     1
102
RTVSPropertyOp2
 70
     1
102
RTVSPropertyOp3
 70
     1
102
RTVSPropertyOp4
 70
     1
102
RTVSPropertyOp5
 70
     1
102
RTVSPropertyOp6
 70
     1
102
RTVSPropertyOp7
 70
     1
102
RTVSPropertyOp8
 70
     1
102
RTVSPropertyOp9
 70
     1
102
RTVSPropertyOp10
 70
     1
102
RTVSPropertyOp11
 70
     1
102
RTVSPropertyOp12
 70
     1
102
RTVSPropertyOp13
 70
     1
102
RTVSPropertyOp14
 70
     1
102
RTVSPropertyOp15
 70
     1
102
RTVSPropertyOp16
 70
     1
102
RTVSPropertyOp17
 70
     1
102
RTVSPropertyOp18
 70
     1
102
RTVSPropertyOp19
 70
     1
102
RTVSPropertyOp20
 70
     1
102
RTVSPropertyOp21
 70
     1
102
RTVSPropertyOp22
 70
     1
102
RTVSPropertyOp23
 70
     1
102
RTVSPropertyOp24
 70
     1
102
RTVSPropertyOp25
 70
     1
102
RTVSPropertyOp26
 70
     1
102
RTVSPropertyOp27
 70
     1
102
RTVSPropertyOp28
 70
     1
102
RTVSPropertyOp29
 70
     1
102
RTVSPropertyOp30
 70
     1
102
RTVSPropertyOp31
 70
     1
102
RTVSPropertyOp32
 70
     1
  0
XRECORD
  5
3F1
102
{ACAD_REACTORS
330
3F0
102
}
330
3F0
100
AcDbXrecord
280
     1
102
RTVSPropertyOp0
 70
     1
102
RTVSPropertyOp1
 70
     1
102
RTVSPropertyOp2
 70
     1
102
RTVSPropertyOp3
 70
     1
102
RTVSPropertyOp4
 70
     1
102
RTVSPropertyOp5
 70
     1
102
RTVSPropertyOp6
 70
     1
102
RTVSPropertyOp7
 70
     1
102
RTVSPropertyOp8
 70
     1
102
RTVSPropertyOp9
 70
     1
102
RTVSPropertyOp10
 70
     1
102
RTVSPropertyOp11
 70
     1
102
RTVSPropertyOp12
 70
     1
102
RTVSPropertyOp13
 70
     1
102
RTVSPropertyOp14
 70
     1
102
RTVSPropertyOp15
 70
     1
102
RTVSPropertyOp16
 70
     1
102
RTVSPropertyOp17
 70
     1
102
RTVSPropertyOp18
 70
     1
102
RTVSPropertyOp19
 70
     1
102
RTVSPropertyOp20
 70
     1
102
RTVSPropertyOp21
 70
     1
102
RTVSPropertyOp22
 70
     1
102
RTVSPropertyOp23
 70
     1
102
RTVSPropertyOp24
 70
     1
102
RTVSPropertyOp25
 70
     1
102
RTVSPropertyOp26
 70
     1
102
RTVSPropertyOp27
 70
     1
102
RTVSPropertyOp28
 70
     1
102
RTVSPropertyOp29
 70
     1
102
RTVSPropertyOp30
 70
     1
102
RTVSPropertyOp31
 70
     1
102
RTVSPropertyOp32
 70
     1
  0
XRECORD
  5
3E7
102
{ACAD_REACTORS
330
3E6
102
}
330
3E6
100
AcDbXrecord
280
     1
102
RTVSPropertyOp0
 70
     1
102
RTVSPropertyOp1
 70
     1
102
RTVSPropertyOp2
 70
     1
102
RTVSPropertyOp3
 70
     1
102
RTVSPropertyOp4
 70
     1
102
RTVSPropertyOp5
 70
     1
102
RTVSPropertyOp6
 70
     1
102
RTVSPropertyOp7
 70
     1
102
RTVSPropertyOp8
 70
     1
102
RTVSPropertyOp9
 70
     1
102
RTVSPropertyOp10
 70
     1
102
RTVSPropertyOp11
 70
     1
102
RTVSPropertyOp12
 70
     1
102
RTVSPropertyOp13
 70
     1
102
RTVSPropertyOp14
 70
     1
102
RTVSPropertyOp15
 70
     1
102
RTVSPropertyOp16
 70
     1
102
RTVSPropertyOp17
 70
     1
102
RTVSPropertyOp18
 70
     1
102
RTVSPropertyOp19
 70
     1
102
RTVSPropertyOp20
 70
     1
102
RTVSPropertyOp21
 70
     1
102
RTVSPropertyOp22
 70
     1
102
RTVSPropertyOp23
 70
     1
102
RTVSPropertyOp24
 70
     1
102
RTVSPropertyOp25
 70
     1
102
RTVSPropertyOp26
 70
     1
102
RTVSPropertyOp27
 70
     1
102
RTVSPropertyOp28
 70
     1
102
RTVSPropertyOp29
 70
     1
102
RTVSPropertyOp30
 70
     1
102
RTVSPropertyOp31
 70
     1
102
RTVSPropertyOp32
 70
     1
  0
XRECORD
  5
3CD
102
{ACAD_REACTORS
330
3CC
102
}
330
3CC
100
AcDbXrecord
280
     1
102
RTVSPropertyOp0
 70
     1
102
RTVSPropertyOp1
 70
     1
102
RTVSPropertyOp2
 70
     1
102
RTVSPropertyOp3
 70
     1
102
RTVSPropertyOp4
 70
     1
102
RTVSPropertyOp5
 70
     1
102
RTVSPropertyOp6
 70
     1
102
RTVSPropertyOp7
 70
     1
102
RTVSPropertyOp8
 70
     1
102
RTVSPropertyOp9
 70
     1
102
RTVSPropertyOp10
 70
     1
102
RTVSPropertyOp11
 70
     1
102
RTVSPropertyOp12
 70
     1
102
RTVSPropertyOp13
 70
     1
102
RTVSPropertyOp14
 70
     1
102
RTVSPropertyOp15
 70
     1
102
RTVSPropertyOp16
 70
     1
102
RTVSPropertyOp17
 70
     1
102
RTVSPropertyOp18
 70
     1
102
RTVSPropertyOp19
 70
     1
102
RTVSPropertyOp20
 70
     1
102
RTVSPropertyOp21
 70
     1
102
RTVSPropertyOp22
 70
     1
102
RTVSPropertyOp23
 70
     1
102
RTVSPropertyOp24
 70
     1
102
RTVSPropertyOp25
 70
     1
102
RTVSPropertyOp26
 70
     1
102
RTVSPropertyOp27
 70
     1
102
RTVSPropertyOp28
 70
     1
102
RTVSPropertyOp29
 70
     1
102
RTVSPropertyOp30
 70
     1
102
RTVSPropertyOp31
 70
     1
102
RTVSPropertyOp32
 70
     1
  0
XRECORD
  5
3F3
102
{ACAD_REACTORS
330
3F2
102
}
330
3F2
100
AcDbXrecord
280
     1
102
RTVSPropertyOp0
 70
     1
102
RTVSPropertyOp1
 70
     1
102
RTVSPropertyOp2
 70
     1
102
RTVSPropertyOp3
 70
     1
102
RTVSPropertyOp4
 70
     1
102
RTVSPropertyOp5
 70
     1
102
RTVSPropertyOp6
 70
     1
102
RTVSPropertyOp7
 70
     1
102
RTVSPropertyOp8
 70
     1
102
RTVSPropertyOp9
 70
     1
102
RTVSPropertyOp10
 70
     1
102
RTVSPropertyOp11
 70
     1
102
RTVSPropertyOp12
 70
     1
102
RTVSPropertyOp13
 70
     1
102
RTVSPropertyOp14
 70
     1
102
RTVSPropertyOp15
 70
     1
102
RTVSPropertyOp16
 70
     1
102
RTVSPropertyOp17
 70
     1
102
RTVSPropertyOp18
 70
     1
102
RTVSPropertyOp19
 70
     1
102
RTVSPropertyOp20
 70
     1
102
RTVSPropertyOp21
 70
     1
102
RTVSPropertyOp22
 70
     1
102
RTVSPropertyOp23
 70
     1
102
RTVSPropertyOp24
 70
     1
102
RTVSPropertyOp25
 70
     1
102
RTVSPropertyOp26
 70
     1
102
RTVSPropertyOp27
 70
     1
102
RTVSPropertyOp28
 70
     1
102
RTVSPropertyOp29
 70
     1
102
RTVSPropertyOp30
 70
     1
102
RTVSPropertyOp31
 70
     1
102
RTVSPropertyOp32
 70
     1
  0
ENDSEC
  0
EOF
