  0
SECTION
  2
HEADER
  9
$ACADVER
  1
AC1027
  9
$ACADMAINTVER
 70
   105
  9
$DWGCODEPAGE
  3
ANSI_1252
  9
$REQUIREDVERSIONS
160
                 0
  9
$COMMENTS
  1
File was created by Cadenas
  9
$CUSTOMPROPERTYTAG
  1
NN
  9
$CUSTOMPROPERTY
  1
Geberit Mepla ball valve with actuator lever
  9
$CUSTOMPROPERTYTAG
  1
NT
  9
$CUSTOMPROPERTY
  1

  9
$CUSTOMPROPERTYTAG
  1
NB
  9
$CUSTOMPROPERTY
  1
615061
  9
$CUSTOMPROPERTYTAG
  1
NBSYN
  9
$CUSTOMPROPERTY
  1
$ARTNRTX.
  9
$CUSTOMPROPERTYTAG
  1
LINA
  9
$CUSTOMPROPERTY
  1
615061
  9
$CUSTOMPROPERTYTAG
  1
CATALOG
  9
$CUSTOMPROPERTY
  1
GEBERIT
  9
$CUSTOMPROPERTYTAG
  1
ARTNRT
  9
$CUSTOMPROPERTY
  1
615.061.00.2
  9
$CUSTOMPROPERTYTAG
  1
D
  9
$CUSTOMPROPERTY
  1
40
  9
$CUSTOMPROPERTYTAG
  1
DN
  9
$CUSTOMPROPERTY
  1
32
  9
$CUSTOMPROPERTYTAG
  1
DNV
  9
$CUSTOMPROPERTY
  1
25
  9
$CUSTOMPROPERTYTAG
  1
L
  9
$CUSTOMPROPERTY
  1
139
  9
$CUSTOMPROPERTYTAG
  1
L1
  9
$CUSTOMPROPERTY
  1
71
  9
$CUSTOMPROPERTYTAG
  1
L2
  9
$CUSTOMPROPERTY
  1
124
  9
$CUSTOMPROPERTYTAG
  1
Z
  9
$CUSTOMPROPERTY
  1
35
  9
$CUSTOMPROPERTYTAG
  1
ARTNRTX
  9
$CUSTOMPROPERTY
  1
615061
  9
$CUSTOMPROPERTYTAG
  1
COMPANY
  9
$CUSTOMPROPERTY
  1
geberit
  9
$INSBASE
 10
0.0
 20
0.0
 30
0.0
  9
$EXTMIN
 10
1.000000000000000E+20
 20
1.000000000000000E+20
 30
1.000000000000000E+20
  9
$EXTMAX
 10
-1.000000000000000E+20
 20
-1.000000000000000E+20
 30
-1.000000000000000E+20
  9
$LIMMIN
 10
0.0
 20
0.0
  9
$LIMMAX
 10
420.0
 20
297.0
  9
$ORTHOMODE
 70
     0
  9
$REGENMODE
 70
     1
  9
$FILLMODE
 70
     1
  9
$QTEXTMODE
 70
     0
  9
$MIRRTEXT
 70
     1
  9
$LTSCALE
 40
1.0
  9
$ATTMODE
 70
     1
  9
$TEXTSIZE
 40
2.5
  9
$TRACEWID
 40
1.0
  9
$TEXTSTYLE
  7
Standard
  9
$CLAYER
  8
0
  9
$CELTYPE
  6
ByLayer
  9
$CECOLOR
 62
   256
  9
$CELTSCALE
 40
1.0
  9
$DISPSILH
 70
     0
  9
$DIMSCALE
 40
1.0
  9
$DIMASZ
 40
2.5
  9
$DIMEXO
 40
0.625
  9
$DIMDLI
 40
3.75
  9
$DIMRND
 40
0.0
  9
$DIMDLE
 40
0.0
  9
$DIMEXE
 40
1.25
  9
$DIMTP
 40
0.0
  9
$DIMTM
 40
0.0
  9
$DIMTXT
 40
2.5
  9
$DIMCEN
 40
2.5
  9
$DIMTSZ
 40
0.0
  9
$DIMTOL
 70
     0
  9
$DIMLIM
 70
     0
  9
$DIMTIH
 70
     0
  9
$DIMTOH
 70
     0
  9
$DIMSE1
 70
     0
  9
$DIMSE2
 70
     0
  9
$DIMTAD
 70
     1
  9
$DIMZIN
 70
     8
  9
$DIMBLK
  1

  9
$DIMASO
 70
     1
  9
$DIMSHO
 70
     1
  9
$DIMPOST
  1

  9
$DIMAPOST
  1

  9
$DIMALT
 70
     0
  9
$DIMALTD
 70
     3
  9
$DIMALTF
 40
0.03937007874016
  9
$DIMLFAC
 40
1.0
  9
$DIMTOFL
 70
     1
  9
$DIMTVP
 40
0.0
  9
$DIMTIX
 70
     0
  9
$DIMSOXD
 70
     0
  9
$DIMSAH
 70
     0
  9
$DIMBLK1
  1

  9
$DIMBLK2
  1

  9
$DIMSTYLE
  2
ISO-25
  9
$DIMCLRD
 70
     0
  9
$DIMCLRE
 70
     0
  9
$DIMCLRT
 70
     0
  9
$DIMTFAC
 40
1.0
  9
$DIMGAP
 40
0.625
  9
$DIMJUST
 70
     0
  9
$DIMSD1
 70
     0
  9
$DIMSD2
 70
     0
  9
$DIMTOLJ
 70
     0
  9
$DIMTZIN
 70
     8
  9
$DIMALTZ
 70
     0
  9
$DIMALTTZ
 70
     0
  9
$DIMUPT
 70
     0
  9
$DIMDEC
 70
     2
  9
$DIMTDEC
 70
     2
  9
$DIMALTU
 70
     2
  9
$DIMALTTD
 70
     3
  9
$DIMTXSTY
  7
Standard
  9
$DIMAUNIT
 70
     0
  9
$DIMADEC
 70
     0
  9
$DIMALTRND
 40
0.0
  9
$DIMAZIN
 70
     0
  9
$DIMDSEP
 70
    44
  9
$DIMATFIT
 70
     3
  9
$DIMFRAC
 70
     0
  9
$DIMLDRBLK
  1

  9
$DIMLUNIT
 70
     2
  9
$DIMLWD
 70
    -2
  9
$DIMLWE
 70
    -2
  9
$DIMTMOVE
 70
     0
  9
$DIMFXL
 40
1.0
  9
$DIMFXLON
 70
     0
  9
$DIMJOGANG
 40
0.7853981633974483
  9
$DIMTFILL
 70
     0
  9
$DIMTFILLCLR
 70
     0
  9
$DIMARCSYM
 70
     0
  9
$DIMLTYPE
  6

  9
$DIMLTEX1
  6

  9
$DIMLTEX2
  6

  9
$DIMTXTDIRECTION
 70
     0
  9
$LUNITS
 70
     2
  9
$LUPREC
 70
     4
  9
$SKETCHINC
 40
1.0
  9
$FILLETRAD
 40
10.0
  9
$AUNITS
 70
     0
  9
$AUPREC
 70
     0
  9
$MENU
  1
.
  9
$ELEVATION
 40
0.0
  9
$PELEVATION
 40
0.0
  9
$THICKNESS
 40
0.0
  9
$LIMCHECK
 70
     0
  9
$CHAMFERA
 40
0.0
  9
$CHAMFERB
 40
0.0
  9
$CHAMFERC
 40
0.0
  9
$CHAMFERD
 40
0.0
  9
$SKPOLY
 70
     0
  9
$TDCREATE
 40
2458934.710163067
  9
$TDUCREATE
 40
2458934.668496401
  9
$TDUPDATE
 40
2458934.710163136
  9
$TDUUPDATE
 40
2458934.66849647
  9
$TDINDWG
 40
0.0000000116
  9
$TDUSRTIMER
 40
0.0000000116
  9
$USRTIMER
 70
     1
  9
$ANGBASE
 50
0.0
  9
$ANGDIR
 70
     0
  9
$PDMODE
 70
     0
  9
$PDSIZE
 40
0.0
  9
$PLINEWID
 40
0.0
  9
$SPLFRAME
 70
     0
  9
$SPLINETYPE
 70
     6
  9
$SPLINESEGS
 70
     8
  9
$HANDSEED
  5
168
  9
$SURFTAB1
 70
     6
  9
$SURFTAB2
 70
     6
  9
$SURFTYPE
 70
     6
  9
$SURFU
 70
     6
  9
$SURFV
 70
     6
  9
$UCSBASE
  2

  9
$UCSNAME
  2

  9
$UCSORG
 10
0.0
 20
0.0
 30
0.0
  9
$UCSXDIR
 10
1.0
 20
0.0
 30
0.0
  9
$UCSYDIR
 10
0.0
 20
1.0
 30
0.0
  9
$UCSORTHOREF
  2

  9
$UCSORTHOVIEW
 70
     0
  9
$UCSORGTOP
 10
0.0
 20
0.0
 30
0.0
  9
$UCSORGBOTTOM
 10
0.0
 20
0.0
 30
0.0
  9
$UCSORGLEFT
 10
0.0
 20
0.0
 30
0.0
  9
$UCSORGRIGHT
 10
0.0
 20
0.0
 30
0.0
  9
$UCSORGFRONT
 10
0.0
 20
0.0
 30
0.0
  9
$UCSORGBACK
 10
0.0
 20
0.0
 30
0.0
  9
$PUCSBASE
  2

  9
$PUCSNAME
  2

  9
$PUCSORG
 10
0.0
 20
0.0
 30
0.0
  9
$PUCSXDIR
 10
1.0
 20
0.0
 30
0.0
  9
$PUCSYDIR
 10
0.0
 20
1.0
 30
0.0
  9
$PUCSORTHOREF
  2

  9
$PUCSORTHOVIEW
 70
     0
  9
$PUCSORGTOP
 10
0.0
 20
0.0
 30
0.0
  9
$PUCSORGBOTTOM
 10
0.0
 20
0.0
 30
0.0
  9
$PUCSORGLEFT
 10
0.0
 20
0.0
 30
0.0
  9
$PUCSORGRIGHT
 10
0.0
 20
0.0
 30
0.0
  9
$PUCSORGFRONT
 10
0.0
 20
0.0
 30
0.0
  9
$PUCSORGBACK
 10
0.0
 20
0.0
 30
0.0
  9
$USERI1
 70
     0
  9
$USERI2
 70
     0
  9
$USERI3
 70
     0
  9
$USERI4
 70
     0
  9
$USERI5
 70
     0
  9
$USERR1
 40
0.0
  9
$USERR2
 40
0.0
  9
$USERR3
 40
0.0
  9
$USERR4
 40
0.0
  9
$USERR5
 40
0.0
  9
$WORLDVIEW
 70
     1
  9
$SHADEDGE
 70
     3
  9
$SHADEDIF
 70
    70
  9
$TILEMODE
 70
     1
  9
$MAXACTVP
 70
    64
  9
$PINSBASE
 10
0.0
 20
0.0
 30
0.0
  9
$PLIMCHECK
 70
     0
  9
$PEXTMIN
 10
1.000000000000000E+20
 20
1.000000000000000E+20
 30
1.000000000000000E+20
  9
$PEXTMAX
 10
-1.000000000000000E+20
 20
-1.000000000000000E+20
 30
-1.000000000000000E+20
  9
$PLIMMIN
 10
0.0
 20
0.0
  9
$PLIMMAX
 10
420.0
 20
297.0
  9
$UNITMODE
 70
     0
  9
$VISRETAIN
 70
     1
  9
$PLINEGEN
 70
     0
  9
$PSLTSCALE
 70
     1
  9
$TREEDEPTH
 70
  3020
  9
$CMLSTYLE
  2
Standard
  9
$CMLJUST
 70
     0
  9
$CMLSCALE
 40
20.0
  9
$PROXYGRAPHICS
 70
     1
  9
$MEASUREMENT
 70
     1
  9
$CELWEIGHT
370
    -1
  9
$ENDCAPS
280
     0
  9
$JOINSTYLE
280
     0
  9
$LWDISPLAY
290
     0
  9
$INSUNITS
 70
     4
  9
$HYPERLINKBASE
  1

  9
$STYLESHEET
  1

  9
$XEDIT
290
     1
  9
$CEPSNTYPE
380
     0
  9
$PSTYLEMODE
290
     1
  9
$FINGERPRINTGUID
  2
{9A700E58-0C5B-4F08-8507-DC8F20C46BE7}
  9
$VERSIONGUID
  2
{FAEB1C32-E019-11D5-929B-00C0DF256EC4}
  9
$EXTNAMES
290
     1
  9
$PSVPSCALE
 40
0.0
  9
$OLESTARTUP
290
     0
  9
$SORTENTS
280
   127
  9
$INDEXCTL
280
     0
  9
$HIDETEXT
280
     1
  9
$XCLIPFRAME
280
     2
  9
$HALOGAP
280
     0
  9
$OBSCOLOR
 70
   257
  9
$OBSLTYPE
280
     0
  9
$INTERSECTIONDISPLAY
280
     0
  9
$INTERSECTIONCOLOR
 70
   257
  9
$DIMASSOC
280
     2
  9
$PROJECTNAME
  1

  9
$CAMERADISPLAY
290
     0
  9
$LENSLENGTH
 40
50.0
  9
$CAMERAHEIGHT
 40
0.0
  9
$STEPSPERSEC
 40
2.0
  9
$STEPSIZE
 40
6.0
  9
$3DDWFPREC
 40
2.0
  9
$PSOLWIDTH
 40
5.0
  9
$PSOLHEIGHT
 40
80.0
  9
$LOFTANG1
 40
1.570796326794897
  9
$LOFTANG2
 40
1.570796326794897
  9
$LOFTMAG1
 40
0.0
  9
$LOFTMAG2
 40
0.0
  9
$LOFTPARAM
 70
     7
  9
$LOFTNORMALS
280
     1
  9
$LATITUDE
 40
37.795
  9
$LONGITUDE
 40
-122.394
  9
$NORTHDIRECTION
 40
0.0
  9
$TIMEZONE
 70
 -8000
  9
$LIGHTGLYPHDISPLAY
280
     1
  9
$TILEMODELIGHTSYNCH
280
     1
  9
$CMATERIAL
347
44
  9
$SOLIDHIST
280
     0
  9
$SHOWHIST
280
     1
  9
$DWFFRAME
280
     2
  9
$DGNFRAME
280
     2
  9
$REALWORLDSCALE
290
     1
  9
$INTERFERECOLOR
 62
   256
  9
$CSHADOW
280
     0
  9
$SHADOWPLANELOCATION
 40
0.0
  0
ENDSEC
  0
SECTION
  2
CLASSES
  0
CLASS
  1
ACDBDICTIONARYWDFLT
  2
AcDbDictionaryWithDefault
  3
ObjectDBX Classes
 90
        0
 91
        4
280
     0
281
     0
  0
CLASS
  1
VISUALSTYLE
  2
AcDbVisualStyle
  3
ObjectDBX Classes
 90
     4095
 91
        4
280
     0
281
     0
  0
CLASS
  1
MATERIAL
  2
AcDbMaterial
  3
ObjectDBX Classes
 90
     1153
 91
        4
280
     0
281
     0
  0
CLASS
  1
SCALE
  2
AcDbScale
  3
ObjectDBX Classes
 90
     1153
 91
        4
280
     0
281
     0
  0
CLASS
  1
TABLESTYLE
  2
AcDbTableStyle
  3
ObjectDBX Classes
 90
     4095
 91
        4
280
     0
281
     0
  0
CLASS
  1
MLEADERSTYLE
  2
AcDbMLeaderStyle
  3
ACDB_MLEADERSTYLE_CLASS
 90
     4095
 91
        4
280
     0
281
     0
  0
CLASS
  1
SUN
  2
AcDbSun
  3
SCENEOE
 90
     1153
 91
        4
280
     0
281
     0
  0
CLASS
  1
DICTIONARYVAR
  2
AcDbDictionaryVar
  3
ObjectDBX Classes
 90
        0
 91
        4
280
     0
281
     0
  0
CLASS
  1
CELLSTYLEMAP
  2
AcDbCellStyleMap
  3
ObjectDBX Classes
 90
     1152
 91
        4
280
     0
281
     0
  0
ENDSEC
  0
SECTION
  2
TABLES
  0
TABLE
  2
VPORT
  5
8
330
0
100
AcDbSymbolTable
 70
     1
  0
VPORT
  5
29
330
8
100
AcDbSymbolTableRecord
100
AcDbViewportTableRecord
  2
*Active
 70
     0
 10
0.0
 20
0.0
 11
1.0
 21
1.0
 12
28.02500000000003
 22
25.04418305151395
 13
0.0
 23
0.0
 14
10.0
 24
10.0
 15
10.0
 25
10.0
 16
0.0
 26
0.0
 36
1.0
 17
0.0
 27
0.0
 37
0.0
 40
98.4895334250885
 41
2.163976136226767
 42
50.0
 43
0.0
 44
0.0
 50
0.0
 51
0.0
 71
     0
 72
   100
 73
     1
 74
     3
 75
     0
 76
     0
 77
     0
 78
     0
281
     0
 65
     1
110
0.0
120
0.0
130
0.0
111
1.0
121
0.0
131
0.0
112
0.0
122
1.0
132
0.0
 79
     0
146
0.0
348
2F
 60
     3
 61
     5
292
     1
282
     1
141
0.0
142
0.0
 63
   250
361
6D
  0
ENDTAB
  0
TABLE
  2
LTYPE
  5
5
330
0
100
AcDbSymbolTable
 70
     3
  0
LTYPE
  5
14
330
5
100
AcDbSymbolTableRecord
100
AcDbLinetypeTableRecord
  2
ByBlock
 70
     0
  3

 72
    65
 73
     0
 40
0.0
  0
LTYPE
  5
15
330
5
100
AcDbSymbolTableRecord
100
AcDbLinetypeTableRecord
  2
ByLayer
 70
     0
  3

 72
    65
 73
     0
 40
0.0
  0
LTYPE
  5
16
330
5
100
AcDbSymbolTableRecord
100
AcDbLinetypeTableRecord
  2
Continuous
 70
     0
  3
Solid line
 72
    65
 73
     0
 40
0.0
  0
LTYPE
  5
7F
330
5
100
AcDbSymbolTableRecord
100
AcDbLinetypeTableRecord
  2
Dashed
 70
     0
  3

 72
    65
 73
     2
 40
2.0
 49
1.0
 74
     0
 49
-1.0
 74
     0
  0
LTYPE
  5
15A
330
5
100
AcDbSymbolTableRecord
100
AcDbLinetypeTableRecord
  2
Center
 70
     0
  3

 72
    65
 73
     4
 40
1.5
 49
0.45
 74
     0
 49
-0.5
 74
     0
 49
0.05
 74
     0
 49
-0.5
 74
     0
  0
ENDTAB
  0
TABLE
  2
LAYER
  5
2
330
0
100
AcDbSymbolTable
 70
     5
  0
LAYER
  5
10
330
2
100
AcDbSymbolTableRecord
100
AcDbLayerTableRecord
  2
0
 70
     0
 62
     7
  6
Continuous
370
    -3
390
F
347
46
348
0
  0
LAYER
  5
6E
330
2
100
AcDbSymbolTableRecord
100
AcDbLayerTableRecord
  2
AM_6
 70
     0
 62
    -2
  6
Continuous
370
    35
390
F
347
46
348
0
  0
LAYER
  5
80
330
2
100
AcDbSymbolTableRecord
100
AcDbLayerTableRecord
  2
VER
 70
     0
 62
    -6
  6
Dashed
370
    25
390
F
347
46
348
0
  0
LAYER
  5
85
330
2
100
AcDbSymbolTableRecord
100
AcDbLayerTableRecord
  2
050
 70
     0
 62
     7
  6
Continuous
370
    50
390
F
347
46
348
0
  0
LAYER
  5
15B
330
2
100
AcDbSymbolTableRecord
100
AcDbLayerTableRecord
  2
MITTE
 70
     0
 62
     7
  6
Center
370
    25
390
F
347
46
348
0
  0
ENDTAB
  0
TABLE
  2
STYLE
  5
3
330
0
100
AcDbSymbolTable
 70
     1
  0
STYLE
  5
11
330
3
100
AcDbSymbolTableRecord
100
AcDbTextStyleTableRecord
  2
Standard
 70
     0
 40
0.0
 41
1.0
 50
0.0
 71
     0
 42
2.5
  3
txt
  4

  0
ENDTAB
  0
TABLE
  2
VIEW
  5
6
330
0
100
AcDbSymbolTable
 70
     0
  0
ENDTAB
  0
TABLE
  2
UCS
  5
7
330
0
100
AcDbSymbolTable
 70
     0
  0
ENDTAB
  0
TABLE
  2
APPID
  5
9
330
0
100
AcDbSymbolTable
 70
     1
  0
APPID
  5
12
330
9
100
AcDbSymbolTableRecord
100
AcDbRegAppTableRecord
  2
ACAD
 70
     0
  0
ENDTAB
  0
TABLE
  2
DIMSTYLE
  5
A
330
0
100
AcDbSymbolTable
 70
     1
100
AcDbDimStyleTable
  0
DIMSTYLE
105
27
330
A
100
AcDbSymbolTableRecord
100
AcDbDimStyleTableRecord
  2
ISO-25
 70
     0
 41
2.5
 42
0.625
 43
3.75
 44
1.25
 73
     0
 74
     0
 77
     1
 78
     8
140
2.5
141
2.5
143
0.03937007874016
147
0.625
171
     3
172
     1
178
     0
271
     2
272
     2
274
     3
278
    44
283
     0
284
     8
340
11
  0
ENDTAB
  0
TABLE
  2
BLOCK_RECORD
  5
1
330
0
100
AcDbSymbolTable
 70
     1
  0
BLOCK_RECORD
  5
1F
330
1
100
AcDbSymbolTableRecord
100
AcDbBlockTableRecord
  2
*Model_Space
340
22
 70
     0
280
     1
281
     0
  0
BLOCK_RECORD
  5
1B
330
1
100
AcDbSymbolTableRecord
100
AcDbBlockTableRecord
  2
*Paper_Space
340
1E
 70
     0
280
     1
281
     0
  0
BLOCK_RECORD
  5
23
330
1
100
AcDbSymbolTableRecord
100
AcDbBlockTableRecord
  2
*Paper_Space0
340
26
 70
     0
280
     1
281
     0
  0
ENDTAB
  0
ENDSEC
  0
SECTION
  2
BLOCKS
  0
BLOCK
  5
20
330
1F
100
AcDbEntity
  8
0
100
AcDbBlockBegin
  2
*Model_Space
 70
     0
 10
0.0
 20
0.0
 30
0.0
  3
*Model_Space
  1

  0
ENDBLK
  5
21
330
1F
100
AcDbEntity
  8
0
100
AcDbBlockEnd
  0
BLOCK
  5
1C
330
1B
100
AcDbEntity
 67
     1
  8
0
100
AcDbBlockBegin
  2
*Paper_Space
 70
     0
 10
0.0
 20
0.0
 30
0.0
  3
*Paper_Space
  1

  0
ENDBLK
  5
1D
330
1B
100
AcDbEntity
 67
     1
  8
0
100
AcDbBlockEnd
  0
BLOCK
  5
24
330
23
100
AcDbEntity
  8
0
100
AcDbBlockBegin
  2
*Paper_Space0
 70
     0
 10
0.0
 20
0.0
 30
0.0
  3
*Paper_Space0
  1

  0
ENDBLK
  5
25
330
23
100
AcDbEntity
  8
0
100
AcDbBlockEnd
  0
ENDSEC
  0
SECTION
  2
ENTITIES
  0
ATTDEF
  5
6F
330
1F
100
AcDbEntity
  8
AM_6
100
AcDbText
 10
129.0
 20
72.72000000000001
 30
0.0
 40
0.5
  1
Geberit Mepla ball valve with actuator lever
100
AcDbAttributeDefinition
  3

  2
NN
 70
     8
280
     0
  0
ATTDEF
  5
70
330
1F
100
AcDbEntity
  8
AM_6
100
AcDbText
 10
129.0
 20
72.22000000000001
 30
0.0
 40
0.5
  1

100
AcDbAttributeDefinition
  3

  2
NT
 70
     8
280
     0
  0
ATTDEF
  5
71
330
1F
100
AcDbEntity
  8
AM_6
100
AcDbText
 10
129.0
 20
71.72000000000001
 30
0.0
 40
0.5
  1
615061
100
AcDbAttributeDefinition
  3

  2
NB
 70
     8
280
     0
  0
ATTDEF
  5
72
330
1F
100
AcDbEntity
  8
AM_6
100
AcDbText
 10
129.0
 20
71.22000000000001
 30
0.0
 40
0.5
  1
$ARTNRTX.
100
AcDbAttributeDefinition
  3

  2
NBSYN
 70
     8
280
     0
  0
ATTDEF
  5
73
330
1F
100
AcDbEntity
  8
AM_6
100
AcDbText
 10
129.0
 20
70.72000000000001
 30
0.0
 40
0.5
  1
615061
100
AcDbAttributeDefinition
  3

  2
LINA
 70
     8
280
     0
  0
ATTDEF
  5
74
330
1F
100
AcDbEntity
  8
AM_6
100
AcDbText
 10
129.0
 20
70.22000000000001
 30
0.0
 40
0.5
  1
GEBERIT
100
AcDbAttributeDefinition
  3

  2
CATALOG
 70
     8
280
     0
  0
ATTDEF
  5
75
330
1F
100
AcDbEntity
  8
AM_6
100
AcDbText
 10
129.0
 20
69.72000000000001
 30
0.0
 40
0.5
  1
615.061.00.2
100
AcDbAttributeDefinition
  3

  2
ARTNRT
 70
     8
280
     0
  0
ATTDEF
  5
76
330
1F
100
AcDbEntity
  8
AM_6
100
AcDbText
 10
129.0
 20
69.22000000000001
 30
0.0
 40
0.5
  1
40
100
AcDbAttributeDefinition
  3

  2
D
 70
     8
280
     0
  0
ATTDEF
  5
77
330
1F
100
AcDbEntity
  8
AM_6
100
AcDbText
 10
129.0
 20
68.72000000000001
 30
0.0
 40
0.5
  1
32
100
AcDbAttributeDefinition
  3

  2
DN
 70
     8
280
     0
  0
ATTDEF
  5
78
330
1F
100
AcDbEntity
  8
AM_6
100
AcDbText
 10
129.0
 20
68.22000000000001
 30
0.0
 40
0.5
  1
25
100
AcDbAttributeDefinition
  3

  2
DNV
 70
     8
280
     0
  0
ATTDEF
  5
79
330
1F
100
AcDbEntity
  8
AM_6
100
AcDbText
 10
129.0
 20
67.72000000000001
 30
0.0
 40
0.5
  1
139
100
AcDbAttributeDefinition
  3

  2
L
 70
     8
280
     0
  0
ATTDEF
  5
7A
330
1F
100
AcDbEntity
  8
AM_6
100
AcDbText
 10
129.0
 20
67.22000000000001
 30
0.0
 40
0.5
  1
71
100
AcDbAttributeDefinition
  3

  2
L1
 70
     8
280
     0
  0
ATTDEF
  5
7B
330
1F
100
AcDbEntity
  8
AM_6
100
AcDbText
 10
129.0
 20
66.72000000000001
 30
0.0
 40
0.5
  1
124
100
AcDbAttributeDefinition
  3

  2
L2
 70
     8
280
     0
  0
ATTDEF
  5
7C
330
1F
100
AcDbEntity
  8
AM_6
100
AcDbText
 10
129.0
 20
66.22000000000001
 30
0.0
 40
0.5
  1
35
100
AcDbAttributeDefinition
  3

  2
Z
 70
     8
280
     0
  0
ATTDEF
  5
7D
330
1F
100
AcDbEntity
  8
AM_6
100
AcDbText
 10
129.0
 20
65.72000000000001
 30
0.0
 40
0.5
  1
615061
100
AcDbAttributeDefinition
  3

  2
ARTNRTX
 70
     8
280
     0
  0
ATTDEF
  5
7E
330
1F
100
AcDbEntity
  8
AM_6
100
AcDbText
 10
129.0
 20
65.22000000000001
 30
0.0
 40
0.5
  1
geberit
100
AcDbAttributeDefinition
  3

  2
COMPANY
 70
     8
280
     0
  0
LINE
  5
81
330
1F
100
AcDbEntity
  8
VER
100
AcDbLine
 10
14.01998573465751
 20
68.2
 30
0.0
 11
14.01998573465751
 21
58.09949401737711
 31
0.0
  0
LINE
  5
82
330
1F
100
AcDbEntity
  8
VER
100
AcDbLine
 10
12.01998573465751
 20
68.2
 30
0.0
 11
12.01998573465751
 21
55.21776495435163
 31
0.0
  0
LWPOLYLINE
  5
83
330
1F
100
AcDbEntity
  8
VER
100
AcDbPolyline
 90
        9
 70
     0
 43
0.0
 10
12.01998656492331
 20
55.21869995075359
 10
12.05214622679069
 20
55.75628383839498
 10
12.18074762705599
 20
56.34954347863457
 10
12.36166399207311
 20
56.78402566651572
 10
12.62539722921226
 20
57.18619229296915
 10
12.87906878787171
 20
57.45495576463252
 10
13.18289977940044
 20
57.69423250415286
 10
13.7954188444308
 20
58.0164474613608
 10
14.01998573465997
 20
58.09949401736981
  0
LINE
  5
84
330
1F
100
AcDbEntity
  8
VER
100
AcDbLine
 10
120.0
 20
58.7
 30
0.0
 11
120.0
 21
71.00000000000001
 31
0.0
  0
LINE
  5
86
330
1F
100
AcDbEntity
  8
050
100
AcDbLine
 10
124.0
 20
58.7
 30
0.0
 11
124.0
 21
71.00000000000001
 31
0.0
  0
LINE
  5
87
330
1F
100
AcDbEntity
  8
VER
100
AcDbLine
 10
16.74812987156936
 20
58.66685231175367
 30
0.0
 11
17.57156794369813
 21
58.7
 31
0.0
  0
LWPOLYLINE
  5
88
330
1F
100
AcDbEntity
  8
VER
100
AcDbPolyline
 90
        4
 70
     0
 43
0.0
 10
14.01998573465751
 20
58.09949401737711
 10
14.77549690461401
 20
58.32675726874527
 10
16.15003390835625
 20
58.60215663815326
 10
16.74812987156936
 20
58.66685231175367
  0
LWPOLYLINE
  5
89
330
1F
100
AcDbEntity
  8
VER
100
AcDbPolyline
 90
        5
 70
     0
 43
0.0
 10
12.52452058962737
 20
52.7
 10
12.51960346593344
 20
52.71359895506612
 10
12.16502423662648
 20
53.93759176088919
 10
12.02070172083196
 20
55.13789935350788
 10
12.01998656492331
 20
55.21869995075359
  0
LWPOLYLINE
  5
8A
330
1F
100
AcDbEntity
  8
VER
100
AcDbPolyline
 90
       11
 70
     0
 43
0.0
 10
15.39480431836002
 20
58.7
 10
14.34320497842825
 20
58.65925957112405
 10
13.29160563849637
 20
58.54218221960057
 10
11.61799691448518
 20
58.21417476216254
 10
9.978491304904777
 20
57.74162218412187
 10
8.339378710599146
 20
57.13715247865292
 10
6.738894525838526
 20
56.43563113667804
 10
5.022629023036545
 20
55.58087558732934
 10
3.339697799471472
 20
54.66154898966501
 10
0.0222102885504084
 20
52.71329297119682
 10
0.0
 20
52.7
  0
LINE
  5
8B
330
1F
100
AcDbEntity
  8
VER
100
AcDbLine
 10
16.36581803638304
 20
68.2
 30
0.0
 11
16.36581803638304
 21
56.17609231654958
 31
0.0
  0
LINE
  5
8C
330
1F
100
AcDbEntity
  8
VER
100
AcDbLine
 10
15.39480431836002
 20
58.7
 30
0.0
 11
22.19415423869168
 21
58.7
 31
0.0
  0
LINE
  5
8D
330
1F
100
AcDbEntity
  8
VER
100
AcDbLine
 10
18.44830615530867
 20
68.2
 30
0.0
 11
18.44830615530867
 21
57.54324739898082
 31
0.0
  0
LINE
  5
8E
330
1F
100
AcDbEntity
  8
VER
100
AcDbLine
 10
16.44830615530867
 20
68.2
 30
0.0
 11
16.44830615530867
 21
53.34994026743941
 31
0.0
  0
LWPOLYLINE
  5
8F
330
1F
100
AcDbEntity
  8
VER
100
AcDbPolyline
 90
        6
 70
     0
 43
0.0
 10
16.74433206110529
 20
55.23550639046028
 10
16.9531643167394
 20
55.75628383845665
 10
17.28528365281267
 20
56.34954347866293
 10
17.61256938277394
 20
56.78402566654329
 10
18.00191564396734
 20
57.18619229299512
 10
18.44830615531336
 20
57.54324739897415
  0
LWPOLYLINE
  5
90
330
1F
100
AcDbEntity
  8
VER
100
AcDbPolyline
 90
        3
 70
     0
 43
0.0
 10
16.47768721786069
 20
53.97088979069546
 10
16.71243508861452
 20
55.13789935360447
 10
16.74433206110529
 20
55.23550639046028
  0
LWPOLYLINE
  5
91
330
1F
100
AcDbEntity
  8
VER
100
AcDbPolyline
 90
        3
 70
     0
 43
0.0
 10
16.44830781765224
 20
53.35146146037354
 10
16.47397069413491
 20
53.93759176096796
 10
16.47768721786069
 20
53.97088979069546
  0
LWPOLYLINE
  5
92
330
1F
100
AcDbEntity
  8
VER
100
AcDbPolyline
 90
        3
 70
     0
 43
0.0
 10
21.22486475550959
 20
58.63786567091241
 10
21.51595419379122
 20
58.67201002705052
 10
22.11198769898355
 20
58.7
  0
LWPOLYLINE
  5
93
330
1F
100
AcDbEntity
  8
VER
100
AcDbPolyline
 90
        3
 70
     0
 43
0.0
 10
18.44830615530867
 20
57.54324739898082
 10
19.44696305612788
 20
58.11671321147885
 10
20.38720584713443
 20
58.46217983525283
  0
LWPOLYLINE
  5
94
330
1F
100
AcDbEntity
  8
VER
100
AcDbPolyline
 90
        3
 70
     0
 43
0.0
 10
16.48048682527329
 20
52.70000006977127
 10
16.47917452632252
 20
52.7135989550648
 10
16.44830781765224
 20
53.35146146037354
  0
LWPOLYLINE
  5
95
330
1F
100
AcDbEntity
  8
VER
100
AcDbPolyline
 90
        6
 70
     0
 43
0.0
 10
16.36581803638304
 20
56.17609231654958
 10
15.84846048012995
 20
55.44505757993942
 10
15.39384678162707
 20
54.66535487240536
 10
14.95252955472594
 20
53.70444592935777
 10
14.62376415102565
 20
52.71359895506236
 10
14.62013077916873
 20
52.7
  0
LWPOLYLINE
  5
96
330
1F
100
AcDbEntity
  8
VER
100
AcDbPolyline
 90
        3
 70
     0
 43
0.0
 10
17.24611640694051
 20
57.09882879776006
 10
16.86373540075487
 20
56.74319699227041
 10
16.36581803638304
 20
56.17609231654958
  0
LWPOLYLINE
  5
97
330
1F
100
AcDbEntity
  8
VER
100
AcDbPolyline
 90
        6
 70
     0
 43
0.0
 10
21.59722204358699
 20
58.7
 10
20.28116284727171
 20
58.5693264558015
 10
19.21650649237433
 20
58.2635940221676
 10
18.18911967915566
 20
57.77162111077065
 10
17.49871981109531
 20
57.30450466884059
 10
17.24611640694051
 20
57.09882879776006
  0
LINE
  5
98
330
1F
100
AcDbEntity
  8
050
100
AcDbLine
 10
123.4641016151377
 20
58.7
 30
0.0
 11
123.4641016151377
 21
71.00000000000001
 31
0.0
  0
LINE
  5
99
330
1F
100
AcDbEntity
  8
VER
100
AcDbLine
 10
61.2
 20
68.2
 30
0.0
 11
61.2
 21
58.7
 31
0.0
  0
LINE
  5
9A
330
1F
100
AcDbEntity
  8
VER
100
AcDbLine
 10
63.2
 20
68.2
 30
0.0
 11
63.2
 21
58.7
 31
0.0
  0
LINE
  5
9B
330
1F
100
AcDbEntity
  8
050
100
AcDbLine
 10
-23.5
 20
-20.5
 30
0.0
 11
-25.5
 21
-18.5
 31
0.0
  0
LINE
  5
9C
330
1F
100
AcDbEntity
  8
050
100
AcDbLine
 10
-25.5
 20
-18.5
 30
0.0
 11
-25.5
 21
-18.39157415774952
 31
0.0
  0
LINE
  5
9D
330
1F
100
AcDbEntity
  8
050
100
AcDbLine
 10
23.5
 20
-20.5
 30
0.0
 11
-23.5
 21
-20.5
 31
0.0
  0
LINE
  5
9E
330
1F
100
AcDbEntity
  8
050
100
AcDbLine
 10
25.5
 20
-18.39157415774952
 30
0.0
 11
25.5
 21
-18.5
 31
0.0
  0
LINE
  5
9F
330
1F
100
AcDbEntity
  8
050
100
AcDbLine
 10
25.5
 20
-18.5
 30
0.0
 11
23.5
 21
-20.5
 31
0.0
  0
LINE
  5
A0
330
1F
100
AcDbEntity
  8
VER
100
AcDbLine
 10
20.68149619472211
 20
68.2
 30
0.0
 11
20.68149619472211
 21
58.4095724513551
 31
0.0
  0
LINE
  5
A1
330
1F
100
AcDbEntity
  8
VER
100
AcDbLine
 10
16.74895290366609
 20
68.2
 30
0.0
 11
16.74895290366609
 21
52.74703705046107
 31
0.0
  0
LINE
  5
A2
330
1F
100
AcDbEntity
  8
050
100
AcDbLine
 10
16.74932613949451
 20
52.82009911668191
 30
0.0
 11
16.74911195627377
 21
52.70000000000001
 31
0.0
  0
LINE
  5
A3
330
1F
100
AcDbEntity
  8
050
100
AcDbLine
 10
116.5358983848622
 20
58.7
 30
0.0
 11
116.5358983848622
 21
71.00000000000001
 31
0.0
  0
LINE
  5
A4
330
1F
100
AcDbEntity
  8
050
100
AcDbLine
 10
111.3397459621556
 20
58.7
 30
0.0
 11
111.3397459621556
 21
71.00000000000001
 31
0.0
  0
LINE
  5
A5
330
1F
100
AcDbEntity
  8
050
100
AcDbLine
 10
-16.75
 20
62.02370205355738
 30
0.0
 11
14.55129039346345
 21
70.41085753653799
 31
0.0
  0
LINE
  5
A6
330
1F
100
AcDbEntity
  8
050
100
AcDbLine
 10
124.0
 20
71.00000000000001
 30
0.0
 11
19.02627168328605
 21
71.00000000000001
 31
0.0
  0
LWPOLYLINE
  5
A7
330
1F
100
AcDbEntity
  8
050
100
AcDbPolyline
 90
        5
 70
     0
 43
0.0
 10
19.02627168328605
 20
71.00000000000001
 10
17.8454354699169
 20
70.95954145499967
 10
16.71117054223673
 20
70.84430496713281
 10
15.60014939603219
 20
70.6570921174149
 10
14.55129039346346
 20
70.41085753653799
  0
LINE
  5
A8
330
1F
100
AcDbEntity
  8
050
100
AcDbLine
 10
124.0
 20
58.7
 30
0.0
 11
22.19415423869168
 21
58.7
 31
0.0
  0
LINE
  5
A9
330
1F
100
AcDbEntity
  8
050
100
AcDbLine
 10
27.61340254296815
 20
58.7
 30
0.0
 11
27.61340254296815
 21
71.00000000000001
 31
0.0
  0
LINE
  5
AA
330
1F
100
AcDbEntity
  8
050
100
AcDbLine
 10
13.85640646055102
 20
34.2
 30
0.0
 11
13.85640646055102
 21
36.6
 31
0.0
  0
LINE
  5
AB
330
1F
100
AcDbEntity
  8
VER
100
AcDbLine
 10
13.85640646055102
 20
32.2
 30
0.0
 11
13.85640646055102
 21
34.2
 31
0.0
  0
LINE
  5
AC
330
1F
100
AcDbEntity
  8
050
100
AcDbLine
 10
6.928203230275507
 20
34.2
 30
0.0
 11
6.928203230275507
 21
36.6
 31
0.0
  0
LINE
  5
AD
330
1F
100
AcDbEntity
  8
VER
100
AcDbLine
 10
6.928203230275507
 20
32.2
 30
0.0
 11
6.928203230275507
 21
34.2
 31
0.0
  0
LINE
  5
AE
330
1F
100
AcDbEntity
  8
050
100
AcDbLine
 10
-6.928203230275511
 20
34.2
 30
0.0
 11
-6.928203230275511
 21
36.6
 31
0.0
  0
LINE
  5
AF
330
1F
100
AcDbEntity
  8
VER
100
AcDbLine
 10
-6.928203230275511
 20
32.2
 30
0.0
 11
-6.928203230275511
 21
34.2
 31
0.0
  0
LINE
  5
B0
330
1F
100
AcDbEntity
  8
050
100
AcDbLine
 10
-13.85640646055102
 20
34.2
 30
0.0
 11
-13.85640646055102
 21
36.6
 31
0.0
  0
LINE
  5
B1
330
1F
100
AcDbEntity
  8
VER
100
AcDbLine
 10
-13.85640646055102
 20
32.2
 30
0.0
 11
-13.85640646055102
 21
34.2
 31
0.0
  0
LWPOLYLINE
  5
B2
330
1F
100
AcDbEntity
  8
VER
100
AcDbPolyline
 90
       11
 70
     0
 43
0.0
 10
20.68149619472418
 20
58.40957245134757
 10
20.21754184644187
 20
58.2474575430417
 10
19.74463855812101
 20
58.03412912415285
 10
19.30769766301358
 20
57.78568255556721
 10
18.89282666009697
 20
57.49400172558721
 10
18.37017440966754
 20
57.02626868874284
 10
17.91880150433109
 20
56.4962413127909
 10
17.41395059691201
 20
55.6733552518423
 10
17.05496053230063
 20
54.78213762788932
 10
16.82286917278905
 20
53.7640484974224
 10
16.74932613949451
 20
52.82009911668191
  0
LWPOLYLINE
  5
B3
330
1F
100
AcDbEntity
  8
VER
100
AcDbPolyline
 90
        3
 70
     0
 43
0.0
 10
20.68149619472211
 20
58.4095724513551
 10
21.61962089108416
 20
58.62374027597426
 10
22.61016593071049
 20
58.7
  0
LWPOLYLINE
  5
B4
330
1F
100
AcDbEntity
  8
050
100
AcDbPolyline
 90
       10
 70
     0
 43
0.0
 10
22.19415423869168
 20
58.7
 10
20.96935645486247
 20
58.59829902079193
 10
19.76705790176217
 20
58.30748725494197
 10
18.36281968103394
 20
57.73404893390535
 10
17.05389801256812
 20
56.97187498326622
 10
15.79259234775041
 20
56.02678022786456
 10
14.6468803196639
 20
54.98693840516183
 10
13.57672785409629
 20
53.8638331202818
 10
12.59548955921074
 20
52.71203055968229
 10
12.58570047876779
 20
52.70000000000001
  0
LINE
  5
B5
330
1F
100
AcDbEntity
  8
VER
100
AcDbLine
 10
-60.43000000000001
 20
-12.4
 30
0.0
 11
60.43000000000001
 21
-12.4
 31
0.0
  0
LINE
  5
B6
330
1F
100
AcDbEntity
  8
VER
100
AcDbLine
 10
60.43000000000001
 20
12.4
 30
0.0
 11
-60.43000000000001
 21
12.4
 31
0.0
  0
LINE
  5
B7
330
1F
100
AcDbEntity
  8
VER
100
AcDbLine
 10
-13.0
 20
63.0285115251741
 30
0.0
 11
-13.0
 21
58.0
 31
0.0
  0
LINE
  5
B8
330
1F
100
AcDbEntity
  8
VER
100
AcDbLine
 10
13.0
 20
58.0
 30
0.0
 11
13.0
 21
69.99519052838329
 31
0.0
  0
LINE
  5
B9
330
1F
100
AcDbEntity
  8
VER
100
AcDbLine
 10
-13.1
 20
63.00171660593099
 30
0.0
 11
-13.1
 21
58.0
 31
0.0
  0
LINE
  5
BA
330
1F
100
AcDbEntity
  8
VER
100
AcDbLine
 10
13.1
 20
58.0
 30
0.0
 11
13.1
 21
70.02198544762642
 31
0.0
  0
LINE
  5
BB
330
1F
100
AcDbEntity
  8
VER
100
AcDbLine
 10
13.1
 20
58.0
 30
0.0
 11
-13.1
 21
58.0
 31
0.0
  0
LINE
  5
BC
330
1F
100
AcDbEntity
  8
VER
100
AcDbLine
 10
60.43000000000001
 20
-12.4
 30
0.0
 11
69.08682408883347
 21
-13.9264316541083
 31
0.0
  0
LINE
  5
BD
330
1F
100
AcDbEntity
  8
VER
100
AcDbLine
 10
69.08682408883347
 20
13.9264316541083
 30
0.0
 11
60.43000000000001
 21
12.4
 31
0.0
  0
LINE
  5
BE
330
1F
100
AcDbEntity
  8
VER
100
AcDbLine
 10
60.43000000000001
 20
12.4
 30
0.0
 11
60.43000000000001
 21
-12.4
 31
0.0
  0
LINE
  5
BF
330
1F
100
AcDbEntity
  8
VER
100
AcDbLine
 10
-60.43000000000001
 20
12.4
 30
0.0
 11
-69.08682408883348
 21
13.92643165410831
 31
0.0
  0
LINE
  5
C0
330
1F
100
AcDbEntity
  8
VER
100
AcDbLine
 10
-69.08682408883348
 20
-13.92643165410831
 30
0.0
 11
-60.43000000000001
 21
-12.4
 31
0.0
  0
LINE
  5
C1
330
1F
100
AcDbEntity
  8
VER
100
AcDbLine
 10
-60.43000000000001
 20
12.4
 30
0.0
 11
-60.43000000000001
 21
-12.4
 31
0.0
  0
LINE
  5
C2
330
1F
100
AcDbEntity
  8
050
100
AcDbLine
 10
-55.29999999999999
 20
-14.3
 30
0.0
 11
-48.1
 21
-14.3
 31
0.0
  0
LINE
  5
C3
330
1F
100
AcDbEntity
  8
050
100
AcDbLine
 10
-48.1
 20
14.3
 30
0.0
 11
-55.29999999999999
 21
14.3
 31
0.0
  0
LINE
  5
C4
330
1F
100
AcDbEntity
  8
050
100
AcDbLine
 10
48.09999999999999
 20
-14.3
 30
0.0
 11
55.3
 21
-14.3
 31
0.0
  0
LINE
  5
C5
330
1F
100
AcDbEntity
  8
050
100
AcDbLine
 10
55.3
 20
14.3
 30
0.0
 11
48.09999999999999
 21
14.3
 31
0.0
  0
ARC
  5
C6
330
1F
100
AcDbEntity
  8
VER
100
AcDbCircle
 10
-68.99999999999997
 20
-14.41883553061442
 30
0.0
 40
0.5000000000000117
100
AcDbArc
 50
100.0000000000049
 51
179.999999999999
  0
ARC
  5
C7
330
1F
100
AcDbEntity
  8
VER
100
AcDbCircle
 10
-68.99999999999997
 20
14.41883553061442
 30
0.0
 40
0.5000000000000142
100
AcDbArc
 50
180.000000000001
 51
259.9999999999951
  0
LINE
  5
C8
330
1F
100
AcDbEntity
  8
VER
100
AcDbLine
 10
-69.08682408883348
 20
13.92643165410831
 30
0.0
 11
-69.08682408883348
 21
-13.92643165410831
 31
0.0
  0
ARC
  5
C9
330
1F
100
AcDbEntity
  8
VER
100
AcDbCircle
 10
68.99999999999996
 20
-14.41883553061444
 30
0.0
 40
0.5000000000000426
100
AcDbArc
 50
0.0000000000026462
 51
79.99999999999565
  0
ARC
  5
CA
330
1F
100
AcDbEntity
  8
VER
100
AcDbCircle
 10
68.99999999999996
 20
14.41883553061444
 30
0.0
 40
0.5000000000000396
100
AcDbArc
 50
280.0000000000043
 51
359.9999999999974
  0
LINE
  5
CB
330
1F
100
AcDbEntity
  8
VER
100
AcDbLine
 10
69.08682408883347
 20
13.9264316541083
 30
0.0
 11
69.08682408883347
 21
-13.9264316541083
 31
0.0
  0
LINE
  5
CC
330
1F
100
AcDbEntity
  8
050
100
AcDbLine
 10
-41.6
 20
-15.15
 30
0.0
 11
-41.09999999999999
 21
-15.15
 31
0.0
  0
LINE
  5
CD
330
1F
100
AcDbEntity
  8
050
100
AcDbLine
 10
-41.09999999999999
 20
15.15
 30
0.0
 11
-41.6
 21
15.15
 31
0.0
  0
LINE
  5
CE
330
1F
100
AcDbEntity
  8
050
100
AcDbLine
 10
41.1
 20
-15.15
 30
0.0
 11
41.6
 21
-15.15
 31
0.0
  0
LINE
  5
CF
330
1F
100
AcDbEntity
  8
050
100
AcDbLine
 10
41.6
 20
15.15
 30
0.0
 11
41.1
 21
15.15
 31
0.0
  0
LINE
  5
D0
330
1F
100
AcDbEntity
  8
050
100
AcDbLine
 10
-40.09999999999999
 20
-15.15
 30
0.0
 11
-39.59999999999999
 21
-15.15
 31
0.0
  0
LINE
  5
D1
330
1F
100
AcDbEntity
  8
050
100
AcDbLine
 10
-39.59999999999999
 20
15.15
 30
0.0
 11
-40.09999999999999
 21
15.15
 31
0.0
  0
LINE
  5
D2
330
1F
100
AcDbEntity
  8
050
100
AcDbLine
 10
39.6
 20
-15.15
 30
0.0
 11
40.1
 21
-15.15
 31
0.0
  0
LINE
  5
D3
330
1F
100
AcDbEntity
  8
050
100
AcDbLine
 10
40.1
 20
15.15
 30
0.0
 11
39.6
 21
15.15
 31
0.0
  0
LINE
  5
D4
330
1F
100
AcDbEntity
  8
050
100
AcDbLine
 10
-38.59999999999999
 20
-15.5
 30
0.0
 11
-35.0
 21
-15.5
 31
0.0
  0
LINE
  5
D5
330
1F
100
AcDbEntity
  8
050
100
AcDbLine
 10
-35.0
 20
15.5
 30
0.0
 11
-38.59999999999999
 21
15.5
 31
0.0
  0
LINE
  5
D6
330
1F
100
AcDbEntity
  8
050
100
AcDbLine
 10
35.0
 20
-15.5
 30
0.0
 11
38.6
 21
-15.5
 31
0.0
  0
LINE
  5
D7
330
1F
100
AcDbEntity
  8
050
100
AcDbLine
 10
38.6
 20
15.5
 30
0.0
 11
35.0
 21
15.5
 31
0.0
  0
LINE
  5
D8
330
1F
100
AcDbEntity
  8
050
100
AcDbLine
 10
69.5
 20
15.28436014499899
 30
0.0
 11
69.5
 21
-15.28436014752909
 31
0.0
  0
ARC
  5
D9
330
1F
100
AcDbEntity
  8
050
100
AcDbCircle
 10
69.10000000000001
 20
-15.2843601475291
 30
0.0
 40
0.3999999999999864
100
AcDbArc
 50
279.9999999999989
 51
0.0000000000017811
  0
ARC
  5
DA
330
1F
100
AcDbEntity
  8
050
100
AcDbCircle
 10
69.10000000000001
 20
15.2843601475291
 30
0.0
 40
0.3999999999999915
100
AcDbArc
 50
359.9999999999983
 51
80.00000000000111
  0
LINE
  5
DB
330
1F
100
AcDbEntity
  8
050
100
AcDbLine
 10
-69.5
 20
15.28436014499899
 30
0.0
 11
-69.5
 21
-15.28436014752909
 31
0.0
  0
ARC
  5
DC
330
1F
100
AcDbEntity
  8
050
100
AcDbCircle
 10
-69.10000000000001
 20
-15.2843601475291
 30
0.0
 40
0.3999999999999915
100
AcDbArc
 50
179.9999999999982
 51
260.0000000000011
  0
ARC
  5
DD
330
1F
100
AcDbEntity
  8
050
100
AcDbCircle
 10
-69.10000000000001
 20
15.2843601475291
 30
0.0
 40
0.3999999999999864
100
AcDbArc
 50
99.99999999999889
 51
180.0000000000018
  0
LINE
  5
DE
330
1F
100
AcDbEntity
  8
050
100
AcDbLine
 10
-41.09999999999999
 20
-15.15
 30
0.0
 11
-40.09999999999999
 21
-15.85020753820971
 31
0.0
  0
LINE
  5
DF
330
1F
100
AcDbEntity
  8
050
100
AcDbLine
 10
-40.09999999999999
 20
15.85020753820971
 30
0.0
 11
-41.09999999999999
 21
15.15
 31
0.0
  0
LINE
  5
E0
330
1F
100
AcDbEntity
  8
050
100
AcDbLine
 10
-40.09999999999999
 20
15.85020753820971
 30
0.0
 11
-40.09999999999999
 21
-15.85020753820971
 31
0.0
  0
LINE
  5
E1
330
1F
100
AcDbEntity
  8
050
100
AcDbLine
 10
-41.09999999999999
 20
15.15
 30
0.0
 11
-41.09999999999999
 21
-15.15
 31
0.0
  0
LINE
  5
E2
330
1F
100
AcDbEntity
  8
050
100
AcDbLine
 10
-39.59999999999999
 20
-15.15
 30
0.0
 11
-38.59999999999999
 21
-15.85020753820971
 31
0.0
  0
LINE
  5
E3
330
1F
100
AcDbEntity
  8
050
100
AcDbLine
 10
-38.59999999999999
 20
15.85020753820971
 30
0.0
 11
-39.59999999999999
 21
15.15
 31
0.0
  0
LINE
  5
E4
330
1F
100
AcDbEntity
  8
050
100
AcDbLine
 10
-38.59999999999999
 20
15.85020753820971
 30
0.0
 11
-38.59999999999999
 21
-15.85020753820971
 31
0.0
  0
LINE
  5
E5
330
1F
100
AcDbEntity
  8
050
100
AcDbLine
 10
-39.59999999999999
 20
15.15
 30
0.0
 11
-39.59999999999999
 21
-15.15
 31
0.0
  0
LINE
  5
E6
330
1F
100
AcDbEntity
  8
050
100
AcDbLine
 10
39.6
 20
15.15
 30
0.0
 11
38.6
 21
15.85020753820971
 31
0.0
  0
LINE
  5
E7
330
1F
100
AcDbEntity
  8
050
100
AcDbLine
 10
38.6
 20
-15.85020753820971
 30
0.0
 11
39.6
 21
-15.15
 31
0.0
  0
LINE
  5
E8
330
1F
100
AcDbEntity
  8
050
100
AcDbLine
 10
39.6
 20
15.15
 30
0.0
 11
39.6
 21
-15.15
 31
0.0
  0
LINE
  5
E9
330
1F
100
AcDbEntity
  8
050
100
AcDbLine
 10
38.6
 20
15.85020753820971
 30
0.0
 11
38.6
 21
-15.85020753820971
 31
0.0
  0
LINE
  5
EA
330
1F
100
AcDbEntity
  8
050
100
AcDbLine
 10
41.1
 20
15.15
 30
0.0
 11
40.1
 21
15.85020753820971
 31
0.0
  0
LINE
  5
EB
330
1F
100
AcDbEntity
  8
050
100
AcDbLine
 10
40.1
 20
-15.85020753820971
 30
0.0
 11
41.1
 21
-15.15
 31
0.0
  0
LINE
  5
EC
330
1F
100
AcDbEntity
  8
050
100
AcDbLine
 10
41.1
 20
15.15
 30
0.0
 11
41.1
 21
-15.15
 31
0.0
  0
LINE
  5
ED
330
1F
100
AcDbEntity
  8
050
100
AcDbLine
 10
40.1
 20
15.85020753820971
 30
0.0
 11
40.1
 21
-15.85020753820971
 31
0.0
  0
LINE
  5
EE
330
1F
100
AcDbEntity
  8
050
100
AcDbLine
 10
26.25
 20
-16.0
 30
0.0
 11
30.9
 21
-16.0
 31
0.0
  0
LINE
  5
EF
330
1F
100
AcDbEntity
  8
050
100
AcDbLine
 10
30.9
 20
16.0
 30
0.0
 11
26.25
 21
16.0
 31
0.0
  0
LINE
  5
F0
330
1F
100
AcDbEntity
  8
050
100
AcDbLine
 10
-30.9
 20
-16.0
 30
0.0
 11
-26.25
 21
-16.0
 31
0.0
  0
LINE
  5
F1
330
1F
100
AcDbEntity
  8
050
100
AcDbLine
 10
-26.25
 20
16.0
 30
0.0
 11
-30.9
 21
16.0
 31
0.0
  0
LINE
  5
F2
330
1F
100
AcDbEntity
  8
050
100
AcDbLine
 10
69.16945927106677
 20
15.67828324873397
 30
0.0
 11
65.50174631716952
 21
16.325
 31
0.0
  0
LINE
  5
F3
330
1F
100
AcDbEntity
  8
050
100
AcDbLine
 10
65.50174631716952
 20
-16.325
 30
0.0
 11
69.16945927106677
 21
-15.67828324873397
 31
0.0
  0
LINE
  5
F4
330
1F
100
AcDbEntity
  8
050
100
AcDbLine
 10
69.16945927106677
 20
15.67828324873397
 30
0.0
 11
69.16945927106677
 21
-15.67828324873397
 31
0.0
  0
ARC
  5
F5
330
1F
100
AcDbEntity
  8
050
100
AcDbCircle
 10
62.67087315858477
 20
-19.42760489911374
 30
0.0
 40
4.200000000000027
100
AcDbArc
 50
47.62210646676301
 51
132.3778935332371
  0
ARC
  5
F6
330
1F
100
AcDbEntity
  8
050
100
AcDbCircle
 10
62.67087315858477
 20
19.42760489911374
 30
0.0
 40
4.200000000000026
100
AcDbArc
 50
227.6221064667629
 51
312.3778935332371
  0
LINE
  5
F7
330
1F
100
AcDbEntity
  8
050
100
AcDbLine
 10
65.50174631716952
 20
16.325
 30
0.0
 11
65.50174631716952
 21
-16.325
 31
0.0
  0
LINE
  5
F8
330
1F
100
AcDbEntity
  8
050
100
AcDbLine
 10
-48.1
 20
-16.325
 30
0.0
 11
-41.6
 21
-16.325
 31
0.0
  0
LINE
  5
F9
330
1F
100
AcDbEntity
  8
050
100
AcDbLine
 10
-41.6
 20
16.325
 30
0.0
 11
-48.1
 21
16.325
 31
0.0
  0
LINE
  5
FA
330
1F
100
AcDbEntity
  8
050
100
AcDbLine
 10
-41.6
 20
16.325
 30
0.0
 11
-41.6
 21
-16.325
 31
0.0
  0
LINE
  5
FB
330
1F
100
AcDbEntity
  8
050
100
AcDbLine
 10
-48.1
 20
16.325
 30
0.0
 11
-48.1
 21
-16.325
 31
0.0
  0
LINE
  5
FC
330
1F
100
AcDbEntity
  8
050
100
AcDbLine
 10
55.3
 20
-16.325
 30
0.0
 11
59.84000000000001
 21
-16.325
 31
0.0
  0
LINE
  5
FD
330
1F
100
AcDbEntity
  8
050
100
AcDbLine
 10
59.84000000000001
 20
16.325
 30
0.0
 11
55.3
 21
16.325
 31
0.0
  0
LINE
  5
FE
330
1F
100
AcDbEntity
  8
050
100
AcDbLine
 10
59.84000000000001
 20
16.325
 30
0.0
 11
59.84000000000001
 21
-16.325
 31
0.0
  0
LINE
  5
FF
330
1F
100
AcDbEntity
  8
050
100
AcDbLine
 10
55.3
 20
16.325
 30
0.0
 11
55.3
 21
-16.325
 31
0.0
  0
LINE
  5
100
330
1F
100
AcDbEntity
  8
050
100
AcDbLine
 10
-69.16945927106677
 20
-15.67828324873397
 30
0.0
 11
-65.50174631716953
 21
-16.325
 31
0.0
  0
LINE
  5
101
330
1F
100
AcDbEntity
  8
050
100
AcDbLine
 10
-65.50174631716953
 20
16.325
 30
0.0
 11
-69.16945927106677
 21
15.67828324873397
 31
0.0
  0
LINE
  5
102
330
1F
100
AcDbEntity
  8
050
100
AcDbLine
 10
-69.16945927106677
 20
15.67828324873397
 30
0.0
 11
-69.16945927106677
 21
-15.67828324873397
 31
0.0
  0
LINE
  5
103
330
1F
100
AcDbEntity
  8
050
100
AcDbLine
 10
41.6
 20
-16.325
 30
0.0
 11
48.1
 21
-16.325
 31
0.0
  0
LINE
  5
104
330
1F
100
AcDbEntity
  8
050
100
AcDbLine
 10
48.1
 20
16.325
 30
0.0
 11
41.6
 21
16.325
 31
0.0
  0
LINE
  5
105
330
1F
100
AcDbEntity
  8
050
100
AcDbLine
 10
48.1
 20
16.325
 30
0.0
 11
48.1
 21
-16.325
 31
0.0
  0
LINE
  5
106
330
1F
100
AcDbEntity
  8
050
100
AcDbLine
 10
41.6
 20
16.325
 30
0.0
 11
41.6
 21
-16.325
 31
0.0
  0
LINE
  5
107
330
1F
100
AcDbEntity
  8
050
100
AcDbLine
 10
-59.84
 20
-16.325
 30
0.0
 11
-55.29999999999999
 21
-16.325
 31
0.0
  0
LINE
  5
108
330
1F
100
AcDbEntity
  8
050
100
AcDbLine
 10
-55.29999999999999
 20
16.325
 30
0.0
 11
-59.84
 21
16.325
 31
0.0
  0
LINE
  5
109
330
1F
100
AcDbEntity
  8
050
100
AcDbLine
 10
-55.29999999999999
 20
16.325
 30
0.0
 11
-55.29999999999999
 21
-16.325
 31
0.0
  0
ARC
  5
10A
330
1F
100
AcDbEntity
  8
050
100
AcDbCircle
 10
-62.67087315858477
 20
-19.42760489911374
 30
0.0
 40
4.200000000000019
100
AcDbArc
 50
47.62210646676278
 51
132.3778935332373
  0
ARC
  5
10B
330
1F
100
AcDbEntity
  8
050
100
AcDbCircle
 10
-62.67087315858477
 20
19.42760489911374
 30
0.0
 40
4.200000000000026
100
AcDbArc
 50
227.6221064667627
 51
312.3778935332371
  0
LINE
  5
10C
330
1F
100
AcDbEntity
  8
050
100
AcDbLine
 10
-59.84
 20
16.325
 30
0.0
 11
-59.84
 21
-16.325
 31
0.0
  0
LINE
  5
10D
330
1F
100
AcDbEntity
  8
050
100
AcDbLine
 10
-65.50174631716953
 20
16.325
 30
0.0
 11
-65.50174631716953
 21
-16.325
 31
0.0
  0
LINE
  5
10E
330
1F
100
AcDbEntity
  8
VER
100
AcDbLine
 10
16.48048680242918
 20
68.2
 30
0.0
 11
16.48048680242918
 21
52.70000000000001
 31
0.0
  0
LINE
  5
10F
330
1F
100
AcDbEntity
  8
VER
100
AcDbLine
 10
16.74911195627378
 20
68.2
 30
0.0
 11
16.74911195627378
 21
52.70000000000001
 31
0.0
  0
LINE
  5
110
330
1F
100
AcDbEntity
  8
050
100
AcDbLine
 10
16.74911195627378
 20
52.70000000000001
 30
0.0
 11
12.58570047876779
 21
52.70000000000001
 31
0.0
  0
LINE
  5
111
330
1F
100
AcDbEntity
  8
050
100
AcDbLine
 10
12.58570047876779
 20
52.70000000000001
 30
0.0
 11
12.58570047876779
 21
69.88417930624452
 31
0.0
  0
LINE
  5
112
330
1F
100
AcDbEntity
  8
VER
100
AcDbLine
 10
0.0000000000000013
 20
52.70000000000001
 30
0.0
 11
0.0000000000000013
 21
66.5118510267787
 31
0.0
  0
LINE
  5
113
330
1F
100
AcDbEntity
  8
VER
100
AcDbLine
 10
0.0000000000000013
 20
52.70000000000001
 30
0.0
 11
12.52452058962738
 21
52.7
 31
0.0
  0
LINE
  5
114
330
1F
100
AcDbEntity
  8
VER
100
AcDbLine
 10
12.52452058962738
 20
68.2
 30
0.0
 11
12.52452058962738
 21
52.7
 31
0.0
  0
LINE
  5
115
330
1F
100
AcDbEntity
  8
VER
100
AcDbLine
 10
14.62013077916884
 20
68.2
 30
0.0
 11
14.62013077916884
 21
52.7
 31
0.0
  0
LINE
  5
116
330
1F
100
AcDbEntity
  8
050
100
AcDbLine
 10
-16.75
 20
62.02370205355738
 30
0.0
 11
-16.75
 21
36.6
 31
0.0
  0
LINE
  5
117
330
1F
100
AcDbEntity
  8
VER
100
AcDbLine
 10
16.75
 20
52.72669377849533
 30
0.0
 11
16.75
 21
68.2
 31
0.0
  0
LINE
  5
118
330
1F
100
AcDbEntity
  8
050
100
AcDbLine
 10
16.75
 20
36.6
 30
0.0
 11
16.75
 21
52.72669377849533
 31
0.0
  0
LINE
  5
119
330
1F
100
AcDbEntity
  8
050
100
AcDbLine
 10
16.75
 20
36.6
 30
0.0
 11
-16.75
 21
36.6
 31
0.0
  0
LINE
  5
11A
330
1F
100
AcDbEntity
  8
VER
100
AcDbLine
 10
63.2
 20
68.2
 30
0.0
 11
12.01998573465751
 21
68.2
 31
0.0
  0
LINE
  5
11B
330
1F
100
AcDbEntity
  8
050
100
AcDbLine
 10
26.25
 20
18.0
 30
0.0
 11
25.75
 21
18.5
 31
0.0
  0
LINE
  5
11C
330
1F
100
AcDbEntity
  8
050
100
AcDbLine
 10
25.75
 20
-18.5
 30
0.0
 11
26.25
 21
-18.0
 31
0.0
  0
LINE
  5
11D
330
1F
100
AcDbEntity
  8
050
100
AcDbLine
 10
26.25
 20
18.0
 30
0.0
 11
26.25
 21
-18.0
 31
0.0
  0
LINE
  5
11E
330
1F
100
AcDbEntity
  8
050
100
AcDbLine
 10
-26.25
 20
-18.0
 30
0.0
 11
-25.75000000000001
 21
-18.5
 31
0.0
  0
LINE
  5
11F
330
1F
100
AcDbEntity
  8
050
100
AcDbLine
 10
-25.75000000000001
 20
18.5
 30
0.0
 11
-26.25
 21
18.0
 31
0.0
  0
LINE
  5
120
330
1F
100
AcDbEntity
  8
050
100
AcDbLine
 10
-26.25
 20
18.0
 30
0.0
 11
-26.25
 21
-18.0
 31
0.0
  0
LINE
  5
121
330
1F
100
AcDbEntity
  8
VER
100
AcDbLine
 10
23.68504533535771
 20
17.755
 30
0.0
 11
24.99353289444649
 21
18.49999999994198
 31
0.0
  0
LINE
  5
122
330
1F
100
AcDbEntity
  8
050
100
AcDbLine
 10
16.63597452256707
 20
-18.39157415774952
 30
0.0
 11
25.5
 21
-18.39157415774952
 31
0.0
  0
LINE
  5
123
330
1F
100
AcDbEntity
  8
050
100
AcDbLine
 10
25.5
 20
-18.5
 30
0.0
 11
25.75
 21
-18.5
 31
0.0
  0
LINE
  5
124
330
1F
100
AcDbEntity
  8
050
100
AcDbLine
 10
25.75
 20
18.5
 30
0.0
 11
24.98786219447125
 21
18.5
 31
0.0
  0
LINE
  5
125
330
1F
100
AcDbEntity
  8
050
100
AcDbLine
 10
25.75
 20
18.5
 30
0.0
 11
25.75
 21
-18.5
 31
0.0
  0
LINE
  5
126
330
1F
100
AcDbEntity
  8
050
100
AcDbLine
 10
-25.5
 20
-18.39157415774952
 30
0.0
 11
-16.63597452256707
 21
-18.39157415774952
 31
0.0
  0
LINE
  5
127
330
1F
100
AcDbEntity
  8
050
100
AcDbLine
 10
-25.75000000000001
 20
-18.5
 30
0.0
 11
-25.5
 21
-18.5
 31
0.0
  0
LINE
  5
128
330
1F
100
AcDbEntity
  8
050
100
AcDbLine
 10
-24.98786219447125
 20
18.5
 30
0.0
 11
-25.75000000000001
 21
18.5
 31
0.0
  0
LINE
  5
129
330
1F
100
AcDbEntity
  8
VER
100
AcDbLine
 10
-24.99353289444649
 20
18.49999999994198
 30
0.0
 11
-23.68504533535771
 21
17.755
 31
0.0
  0
LINE
  5
12A
330
1F
100
AcDbEntity
  8
050
100
AcDbLine
 10
-25.75000000000001
 20
18.5
 30
0.0
 11
-25.75000000000001
 21
-18.5
 31
0.0
  0
LINE
  5
12B
330
1F
100
AcDbEntity
  8
VER
100
AcDbLine
 10
-17.5
 20
32.2
 30
0.0
 11
17.5
 21
32.2
 31
0.0
  0
LINE
  5
12C
330
1F
100
AcDbEntity
  8
VER
100
AcDbLine
 10
17.5
 20
32.2
 30
0.0
 11
19.5
 21
34.2
 31
0.0
  0
LINE
  5
12D
330
1F
100
AcDbEntity
  8
VER
100
AcDbLine
 10
-19.5
 20
34.2
 30
0.0
 11
-17.5
 21
32.2
 31
0.0
  0
LINE
  5
12E
330
1F
100
AcDbEntity
  8
050
100
AcDbLine
 10
30.9
 20
-18.44
 30
0.0
 11
31.80066641993581
 21
-20.0
 31
0.0
  0
LINE
  5
12F
330
1F
100
AcDbEntity
  8
050
100
AcDbLine
 10
31.80066641993581
 20
20.0
 30
0.0
 11
30.9
 21
18.44
 31
0.0
  0
LINE
  5
130
330
1F
100
AcDbEntity
  8
050
100
AcDbLine
 10
30.9
 20
18.44
 30
0.0
 11
30.9
 21
-18.44
 31
0.0
  0
LINE
  5
131
330
1F
100
AcDbEntity
  8
050
100
AcDbLine
 10
-35.0
 20
-18.75
 30
0.0
 11
-34.27831216351296
 21
-20.0
 31
0.0
  0
LINE
  5
132
330
1F
100
AcDbEntity
  8
050
100
AcDbLine
 10
-34.27831216351296
 20
20.0
 30
0.0
 11
-35.0
 21
18.75
 31
0.0
  0
LINE
  5
133
330
1F
100
AcDbEntity
  8
050
100
AcDbLine
 10
-35.0
 20
18.75
 30
0.0
 11
-35.0
 21
-18.75
 31
0.0
  0
LINE
  5
134
330
1F
100
AcDbEntity
  8
050
100
AcDbLine
 10
31.80066641993581
 20
-20.0
 30
0.0
 11
34.27831216351296
 21
-20.0
 31
0.0
  0
LINE
  5
135
330
1F
100
AcDbEntity
  8
050
100
AcDbLine
 10
34.27831216351296
 20
20.0
 30
0.0
 11
31.80066641993581
 21
20.0
 31
0.0
  0
LINE
  5
136
330
1F
100
AcDbEntity
  8
050
100
AcDbLine
 10
31.80066641993581
 20
20.0
 30
0.0
 11
31.80066641993581
 21
-20.0
 31
0.0
  0
LINE
  5
137
330
1F
100
AcDbEntity
  8
050
100
AcDbLine
 10
35.0
 20
18.75
 30
0.0
 11
34.27831216351296
 21
20.0
 31
0.0
  0
LINE
  5
138
330
1F
100
AcDbEntity
  8
050
100
AcDbLine
 10
34.27831216351296
 20
-20.0
 30
0.0
 11
35.0
 21
-18.75
 31
0.0
  0
LINE
  5
139
330
1F
100
AcDbEntity
  8
050
100
AcDbLine
 10
35.0
 20
18.75
 30
0.0
 11
35.0
 21
-18.75
 31
0.0
  0
LINE
  5
13A
330
1F
100
AcDbEntity
  8
050
100
AcDbLine
 10
34.27831216351296
 20
20.0
 30
0.0
 11
34.27831216351296
 21
-20.0
 31
0.0
  0
LINE
  5
13B
330
1F
100
AcDbEntity
  8
050
100
AcDbLine
 10
-34.27831216351296
 20
-20.0
 30
0.0
 11
-31.80066641993581
 21
-20.0
 31
0.0
  0
LINE
  5
13C
330
1F
100
AcDbEntity
  8
050
100
AcDbLine
 10
-31.80066641993581
 20
20.0
 30
0.0
 11
-34.27831216351296
 21
20.0
 31
0.0
  0
LINE
  5
13D
330
1F
100
AcDbEntity
  8
050
100
AcDbLine
 10
-34.27831216351296
 20
20.0
 30
0.0
 11
-34.27831216351296
 21
-20.0
 31
0.0
  0
LINE
  5
13E
330
1F
100
AcDbEntity
  8
050
100
AcDbLine
 10
-30.9
 20
18.44
 30
0.0
 11
-31.80066641993581
 21
20.0
 31
0.0
  0
LINE
  5
13F
330
1F
100
AcDbEntity
  8
050
100
AcDbLine
 10
-31.80066641993581
 20
-20.0
 30
0.0
 11
-30.9
 21
-18.44
 31
0.0
  0
LINE
  5
140
330
1F
100
AcDbEntity
  8
050
100
AcDbLine
 10
-30.9
 20
18.44
 30
0.0
 11
-30.9
 21
-18.44
 31
0.0
  0
LINE
  5
141
330
1F
100
AcDbEntity
  8
050
100
AcDbLine
 10
-31.80066641993581
 20
20.0
 30
0.0
 11
-31.80066641993581
 21
-20.0
 31
0.0
  0
LINE
  5
142
330
1F
100
AcDbEntity
  8
050
100
AcDbLine
 10
15.56359203567922
 20
-1.126448526528786
 30
0.0
 11
16.63597452256707
 21
-18.39157415774952
 31
0.0
  0
LINE
  5
143
330
1F
100
AcDbEntity
  8
050
100
AcDbLine
 10
-16.63597452256707
 20
-18.39157415774952
 30
0.0
 11
-15.56359203567922
 21
-1.126448526528787
 31
0.0
  0
ARC
  5
144
330
1F
100
AcDbEntity
  8
050
100
AcDbCircle
 10
-0.0000000000043521
 20
-1.000000000004739
 30
0.0
 40
24.06704177915707
100
AcDbArc
 50
226.2720738995147
 51
234.1190620242125
  0
ARC
  5
145
330
1F
100
AcDbEntity
  8
050
100
AcDbCircle
 10
0.0000000000004636
 20
-1.000000000000497
 30
0.0
 40
24.06704177916283
100
AcDbArc
 50
305.8809379757892
 51
313.7279261004851
  0
LINE
  5
146
330
1F
100
AcDbEntity
  8
VER
100
AcDbLine
 10
-23.68504533535771
 20
17.755
 30
0.0
 11
23.68504533535771
 21
17.755
 31
0.0
  0
LWPOLYLINE
  5
147
330
1F
100
AcDbEntity
  8
050
100
AcDbPolyline
 90
       16
 70
     0
 43
0.0
 10
-23.68504533535771
 20
17.755
 10
-23.17317640869358
 20
17.07169141328833
 10
-22.52996712049618
 20
16.1946833378204
 10
-21.78568681897093
 20
15.15044545040843
 10
-20.96966045737286
 20
13.96322789914232
 10
-20.10231254278665
 20
12.63661100099658
 10
-19.21491889676692
 20
11.18653315909623
 10
-18.44353465131203
 20
9.82265782629917
 10
-17.697592796559
 20
8.362272469147511
 10
-17.00995618062288
 20
6.812800880573716
 10
-16.41348765161872
 20
5.18166685351024
 10
-16.02614920380339
 20
3.819494391960494
 10
-15.73832141827652
 20
2.408526747409049
 10
-15.570058937996
 20
0.9695523105158353
 10
-15.53168364443958
 20
-0.0784662345833921
 10
-15.56359203567922
 20
-1.126448526528787
  0
LINE
  5
148
330
1F
100
AcDbEntity
  8
050
100
AcDbLine
 10
-15.56359203567922
 20
-1.126448526528787
 30
0.0
 11
15.56359203567922
 21
-1.126448526528786
 31
0.0
  0
LWPOLYLINE
  5
149
330
1F
100
AcDbEntity
  8
050
100
AcDbPolyline
 90
       16
 70
     0
 43
0.0
 10
15.56359203567922
 20
-1.126448526528786
 10
15.54716069510049
 20
0.4915120049169301
 10
15.6945249315005
 20
2.106863373900644
 10
15.99109183134825
 20
3.679991745319547
 10
16.41294934349982
 20
5.179484972574989
 10
16.9332885059548
 20
6.619349672516435
 10
17.52379145943728
 20
7.988697323822602
 10
18.25970489228454
 20
9.477538833930431
 10
19.0334593847092
 20
10.87954098147724
 10
19.81968196329268
 20
12.1877976027803
 10
20.59299965461647
 20
13.3954025341569
 10
21.34262077066766
 20
14.51237991844224
 10
22.04678008082472
 20
15.52170257783018
 10
22.68411393193344
 20
16.40706052263965
 10
23.23325867083958
 20
17.1521437631896
 10
23.68504533535771
 20
17.755
  0
LINE
  5
14A
330
1F
100
AcDbEntity
  8
050
100
AcDbLine
 10
-24.8
 20
34.2
 30
0.0
 11
24.8
 21
34.2
 31
0.0
  0
LINE
  5
14B
330
1F
100
AcDbEntity
  8
050
100
AcDbLine
 10
24.8
 20
31.8
 30
0.0
 11
24.8
 21
34.2
 31
0.0
  0
LINE
  5
14C
330
1F
100
AcDbEntity
  8
050
100
AcDbLine
 10
-24.8
 20
34.2
 30
0.0
 11
-24.8
 21
31.8
 31
0.0
  0
LINE
  5
14D
330
1F
100
AcDbEntity
  8
050
100
AcDbLine
 10
-24.8
 20
31.8
 30
0.0
 11
24.8
 21
31.8
 31
0.0
  0
LINE
  5
14E
330
1F
100
AcDbEntity
  8
050
100
AcDbLine
 10
24.5
 20
31.50000000000001
 30
0.0
 11
24.8
 21
31.8
 31
0.0
  0
LINE
  5
14F
330
1F
100
AcDbEntity
  8
050
100
AcDbLine
 10
-24.8
 20
31.8
 30
0.0
 11
-24.5
 21
31.50000000000001
 31
0.0
  0
LINE
  5
150
330
1F
100
AcDbEntity
  8
050
100
AcDbLine
 10
-25.00000000000001
 20
18.50646710545254
 30
0.0
 11
25.00000000000001
 21
18.50646710545254
 31
0.0
  0
LINE
  5
151
330
1F
100
AcDbEntity
  8
050
100
AcDbLine
 10
25.0
 20
18.50646710545254
 30
0.0
 11
25.0
 21
26.99991
 31
0.0
  0
LINE
  5
152
330
1F
100
AcDbEntity
  8
050
100
AcDbLine
 10
-25.0
 20
26.99991
 30
0.0
 11
-25.0
 21
18.50646710545254
 31
0.0
  0
LINE
  5
153
330
1F
100
AcDbEntity
  8
050
100
AcDbLine
 10
-25.5
 20
31.50000000000001
 30
0.0
 11
25.5
 21
31.50000000000001
 31
0.0
  0
LINE
  5
154
330
1F
100
AcDbEntity
  8
050
100
AcDbLine
 10
25.5
 20
27.49991
 30
0.0
 11
25.5
 21
31.50000000000001
 31
0.0
  0
LINE
  5
155
330
1F
100
AcDbEntity
  8
050
100
AcDbLine
 10
-25.5
 20
31.50000000000001
 30
0.0
 11
-25.5
 21
27.49991
 31
0.0
  0
LINE
  5
156
330
1F
100
AcDbEntity
  8
050
100
AcDbLine
 10
-25.5
 20
27.49991
 30
0.0
 11
25.5
 21
27.49991
 31
0.0
  0
LINE
  5
157
330
1F
100
AcDbEntity
  8
050
100
AcDbLine
 10
-25.0
 20
26.99991
 30
0.0
 11
25.0
 21
26.99991
 31
0.0
  0
LINE
  5
158
330
1F
100
AcDbEntity
  8
050
100
AcDbLine
 10
25.0
 20
26.99991
 30
0.0
 11
25.5
 21
27.49991
 31
0.0
  0
LINE
  5
159
330
1F
100
AcDbEntity
  8
050
100
AcDbLine
 10
-25.5
 20
27.49991
 30
0.0
 11
-25.0
 21
26.99991
 31
0.0
  0
LINE
  5
15C
330
1F
100
AcDbEntity
  8
MITTE
100
AcDbLine
 10
0.0
 20
72.72000000000001
 30
0.0
 11
0.0
 21
-23.235
 31
0.0
  0
LINE
  5
15D
330
1F
100
AcDbEntity
  8
MITTE
100
AcDbLine
 10
-76.45
 20
0.0
 30
0.0
 11
76.45
 21
0.0
 31
0.0
  0
ENDSEC
  0
SECTION
  2
OBJECTS
  0
DICTIONARY
  5
C
330
0
100
AcDbDictionary
281
     1
  3
ACAD_DETAILVIEWSTYLE
350
165
  3
ACAD_GROUP
350
D
  3
ACAD_LAYOUT
350
1A
  3
ACAD_MATERIAL
350
43
  3
ACAD_MLEADERSTYLE
350
6B
  3
ACAD_MLINESTYLE
350
17
  3
ACAD_PLOTSETTINGS
350
19
  3
ACAD_PLOTSTYLENAME
350
E
  3
ACAD_SCALELIST
350
47
  3
ACAD_SECTIONVIEWSTYLE
350
166
  3
ACAD_TABLESTYLE
350
69
  3
ACAD_VISUALSTYLE
350
2A
  3
ACDB_RECOMPOSE_DATA
350
162
  3
AcDbVariableDictionary
350
15E
  0
SUN
  5
6D
330
29
100
AcDbSun
 90
        1
290
     0
 63
     7
421
 16777215
 40
1.0
291
     1
 91
  2455826
 92
 54000000
292
     0
 70
     2
 71
   256
280
     1
  0
DICTIONARY
  5
165
102
{ACAD_REACTORS
330
C
102
}
330
C
100
AcDbDictionary
281
     1
  0
DICTIONARY
  5
D
102
{ACAD_REACTORS
330
C
102
}
330
C
100
AcDbDictionary
281
     1
  0
DICTIONARY
  5
1A
102
{ACAD_REACTORS
330
C
102
}
330
C
100
AcDbDictionary
281
     1
  3
Layout1
350
1E
  3
Layout2
350
26
  3
Model
350
22
  0
DICTIONARY
  5
43
102
{ACAD_REACTORS
330
C
102
}
330
C
100
AcDbDictionary
281
     1
  3
ByBlock
350
45
  3
ByLayer
350
44
  3
Global
350
46
  0
DICTIONARY
  5
6B
102
{ACAD_REACTORS
330
C
102
}
330
C
100
AcDbDictionary
281
     1
  3
Standard
350
6C
  0
DICTIONARY
  5
17
102
{ACAD_REACTORS
330
C
102
}
330
C
100
AcDbDictionary
281
     1
  3
Standard
350
18
  0
DICTIONARY
  5
19
102
{ACAD_REACTORS
330
C
102
}
330
C
100
AcDbDictionary
281
     1
  0
ACDBDICTIONARYWDFLT
  5
E
102
{ACAD_REACTORS
330
C
102
}
330
C
100
AcDbDictionary
281
     1
  3
Normal
350
F
100
AcDbDictionaryWithDefault
340
F
  0
DICTIONARY
  5
47
102
{ACAD_REACTORS
330
C
102
}
330
C
100
AcDbDictionary
281
     1
  3
A0
350
48
  3
A1
350
49
  3
A2
350
4A
  3
A3
350
4B
  3
A4
350
4C
  3
A5
350
4D
  3
A6
350
4E
  3
A7
350
4F
  3
A8
350
50
  3
A9
350
51
  3
B0
350
52
  3
B1
350
53
  3
B2
350
54
  3
B3
350
55
  3
B4
350
56
  3
B5
350
57
  3
B6
350
58
  3
B7
350
59
  3
B8
350
5A
  3
B9
350
5B
  3
C0
350
5C
  3
C1
350
5D
  3
C2
350
5E
  3
C3
350
5F
  3
C4
350
60
  3
C5
350
61
  3
C6
350
62
  3
C7
350
63
  3
C8
350
64
  3
C9
350
65
  3
D0
350
66
  3
D1
350
67
  3
D2
350
68
  0
DICTIONARY
  5
166
102
{ACAD_REACTORS
330
C
102
}
330
C
100
AcDbDictionary
281
     1
  0
DICTIONARY
  5
69
102
{ACAD_REACTORS
330
C
102
}
330
C
100
AcDbDictionary
281
     1
  3
Standard
350
6A
  0
DICTIONARY
  5
2A
102
{ACAD_REACTORS
330
C
102
}
330
C
100
AcDbDictionary
281
     1
  3
2dWireframe
350
2F
  3
Basic
350
32
  3
Brighten
350
36
  3
ColorChange
350
3A
  3
Conceptual
350
34
  3
Dim
350
35
  3
EdgeColorOff
350
3D
  3
Facepattern
350
39
  3
Flat
350
2B
  3
FlatWithEdges
350
2C
  3
Gouraud
350
2D
  3
GouraudWithEdges
350
2E
  3
Hidden
350
31
  3
JitterOff
350
3B
  3
Linepattern
350
38
  3
OverhangOff
350
3C
  3
Realistic
350
33
  3
Shaded
350
42
  3
Shaded with edges
350
41
  3
Shades of Gray
350
3E
  3
Sketchy
350
3F
  3
Thicken
350
37
  3
Wireframe
350
30
  3
X-Ray
350
40
  0
XRECORD
  5
162
102
{ACAD_REACTORS
330
C
102
}
330
C
100
AcDbXrecord
280
     1
 90
        1
330
6A
  0
DICTIONARY
  5
15E
102
{ACAD_REACTORS
330
C
102
}
330
C
100
AcDbDictionary
281
     1
  3
CANNOSCALE
350
15F
  3
CMLEADERSTYLE
350
164
  3
CTABLESTYLE
350
163
  3
SECTIONTHICKNESSINC
350
167
  0
LAYOUT
  5
1E
102
{ACAD_REACTORS
330
1A
102
}
330
1A
100
AcDbPlotSettings
  1

  2
none_device
  4

  6

 40
0.0
 41
0.0
 42
0.0
 43
0.0
 44
0.0
 45
0.0
 46
0.0
 47
0.0
 48
0.0
 49
0.0
140
0.0
141
0.0
142
1.0
143
1.0
 70
   688
 72
     1
 73
     0
 74
     5
  7

 75
    16
 76
     0
 77
     2
 78
   300
147
1.0
148
0.0
149
0.0
100
AcDbLayout
  1
Layout1
 70
     1
 71
     1
 10
0.0
 20
0.0
 11
420.0
 21
297.0
 12
0.0
 22
0.0
 32
0.0
 14
1.000000000000000E+20
 24
1.000000000000000E+20
 34
1.000000000000000E+20
 15
-1.000000000000000E+20
 25
-1.000000000000000E+20
 35
-1.000000000000000E+20
146
0.0
 13
0.0
 23
0.0
 33
0.0
 16
1.0
 26
0.0
 36
0.0
 17
0.0
 27
1.0
 37
0.0
 76
     0
330
1B
  0
LAYOUT
  5
26
102
{ACAD_REACTORS
330
1A
102
}
330
1A
100
AcDbPlotSettings
  1

  2
none_device
  4

  6

 40
0.0
 41
0.0
 42
0.0
 43
0.0
 44
0.0
 45
0.0
 46
0.0
 47
0.0
 48
0.0
 49
0.0
140
0.0
141
0.0
142
1.0
143
1.0
 70
   688
 72
     1
 73
     0
 74
     5
  7

 75
    16
 76
     0
 77
     2
 78
   300
147
1.0
148
0.0
149
0.0
100
AcDbLayout
  1
Layout2
 70
     1
 71
     2
 10
0.0
 20
0.0
 11
0.0
 21
0.0
 12
0.0
 22
0.0
 32
0.0
 14
0.0
 24
0.0
 34
0.0
 15
0.0
 25
0.0
 35
0.0
146
0.0
 13
0.0
 23
0.0
 33
0.0
 16
1.0
 26
0.0
 36
0.0
 17
0.0
 27
1.0
 37
0.0
 76
     0
330
23
  0
LAYOUT
  5
22
102
{ACAD_REACTORS
330
1A
102
}
330
1A
100
AcDbPlotSettings
  1

  2
none_device
  4
Letter_(8.50_x_11.00_Inches)
  6

 40
6.35
 41
6.35
 42
6.35000508
 43
6.35000508
 44
215.9
 45
279.4
 46
0.0
 47
0.0
 48
0.0
 49
0.0
140
0.0
141
0.0
142
1.0
143
1.0
 70
  1712
 72
     1
 73
     0
 74
     0
  7

 75
     0
 76
     0
 77
     2
 78
   300
147
1.0
148
0.0
149
0.0
100
AcDbLayout
  1
Model
 70
     1
 71
     0
 10
0.0
 20
0.0
 11
420.0
 21
297.0
 12
0.0
 22
0.0
 32
0.0
 14
1.000000000000000E+20
 24
1.000000000000000E+20
 34
1.000000000000000E+20
 15
-1.000000000000000E+20
 25
-1.000000000000000E+20
 35
-1.000000000000000E+20
146
0.0
 13
0.0
 23
0.0
 33
0.0
 16
1.0
 26
0.0
 36
0.0
 17
0.0
 27
1.0
 37
0.0
 76
     0
330
1F
331
29
  0
MATERIAL
  5
45
102
{ACAD_REACTORS
330
43
102
}
330
43
100
AcDbMaterial
  1
ByBlock
 72
     1
 94
      127
  0
MATERIAL
  5
44
102
{ACAD_REACTORS
330
43
102
}
330
43
100
AcDbMaterial
  1
ByLayer
 72
     1
 94
      127
  0
MATERIAL
  5
46
102
{ACAD_REACTORS
330
43
102
}
330
43
100
AcDbMaterial
  1
Global
 72
     1
 94
      127
  0
MLEADERSTYLE
  5
6C
102
{ACAD_REACTORS
330
6B
102
}
330
6B
100
AcDbMLeaderStyle
179
     2
170
     2
171
     1
172
     0
 90
        2
 40
0.0
 41
0.0
173
     1
 91
-1056964608
340
14
 92
       -2
290
     1
 42
2.0
291
     1
 43
8.0
  3
Standard
341
0
 44
4.0
300

342
11
174
     1
178
     6
175
     1
176
     0
 93
-1056964608
 45
4.0
292
     0
297
     0
 46
4.0
343
0
 94
-1056964608
 47
1.0
 49
1.0
140
1.0
293
     1
141
0.0
294
     1
177
     0
142
1.0
295
     0
296
     0
143
3.75
271
     0
272
     9
273
     9
298
     0
  0
MLINESTYLE
  5
18
102
{ACAD_REACTORS
330
17
102
}
330
17
100
AcDbMlineStyle
  2
Standard
 70
     0
  3

 62
   256
 51
90.0
 52
90.0
 71
     2
 49
0.5
 62
   256
  6
BYLAYER
 49
-0.5
 62
   256
  6
BYLAYER
  0
ACDBPLACEHOLDER
  5
F
102
{ACAD_REACTORS
330
E
102
}
330
E
  0
SCALE
  5
48
102
{ACAD_REACTORS
330
47
102
}
330
47
100
AcDbScale
 70
     0
300
1:1
140
1.0
141
1.0
290
     1
  0
SCALE
  5
49
102
{ACAD_REACTORS
330
47
102
}
330
47
100
AcDbScale
 70
     0
300
1:2
140
1.0
141
2.0
290
     0
  0
SCALE
  5
4A
102
{ACAD_REACTORS
330
47
102
}
330
47
100
AcDbScale
 70
     0
300
1:4
140
1.0
141
4.0
290
     0
  0
SCALE
  5
4B
102
{ACAD_REACTORS
330
47
102
}
330
47
100
AcDbScale
 70
     0
300
1:5
140
1.0
141
5.0
290
     0
  0
SCALE
  5
4C
102
{ACAD_REACTORS
330
47
102
}
330
47
100
AcDbScale
 70
     0
300
1:8
140
1.0
141
8.0
290
     0
  0
SCALE
  5
4D
102
{ACAD_REACTORS
330
47
102
}
330
47
100
AcDbScale
 70
     0
300
1:10
140
1.0
141
10.0
290
     0
  0
SCALE
  5
4E
102
{ACAD_REACTORS
330
47
102
}
330
47
100
AcDbScale
 70
     0
300
1:16
140
1.0
141
16.0
290
     0
  0
SCALE
  5
4F
102
{ACAD_REACTORS
330
47
102
}
330
47
100
AcDbScale
 70
     0
300
1:20
140
1.0
141
20.0
290
     0
  0
SCALE
  5
50
102
{ACAD_REACTORS
330
47
102
}
330
47
100
AcDbScale
 70
     0
300
1:30
140
1.0
141
30.0
290
     0
  0
SCALE
  5
51
102
{ACAD_REACTORS
330
47
102
}
330
47
100
AcDbScale
 70
     0
300
1:40
140
1.0
141
40.0
290
     0
  0
SCALE
  5
52
102
{ACAD_REACTORS
330
47
102
}
330
47
100
AcDbScale
 70
     0
300
1:50
140
1.0
141
50.0
290
     0
  0
SCALE
  5
53
102
{ACAD_REACTORS
330
47
102
}
330
47
100
AcDbScale
 70
     0
300
1:100
140
1.0
141
100.0
290
     0
  0
SCALE
  5
54
102
{ACAD_REACTORS
330
47
102
}
330
47
100
AcDbScale
 70
     0
300
2:1
140
2.0
141
1.0
290
     0
  0
SCALE
  5
55
102
{ACAD_REACTORS
330
47
102
}
330
47
100
AcDbScale
 70
     0
300
4:1
140
4.0
141
1.0
290
     0
  0
SCALE
  5
56
102
{ACAD_REACTORS
330
47
102
}
330
47
100
AcDbScale
 70
     0
300
8:1
140
8.0
141
1.0
290
     0
  0
SCALE
  5
57
102
{ACAD_REACTORS
330
47
102
}
330
47
100
AcDbScale
 70
     0
300
10:1
140
10.0
141
1.0
290
     0
  0
SCALE
  5
58
102
{ACAD_REACTORS
330
47
102
}
330
47
100
AcDbScale
 70
     0
300
100:1
140
100.0
141
1.0
290
     0
  0
SCALE
  5
59
102
{ACAD_REACTORS
330
47
102
}
330
47
100
AcDbScale
 70
     0
300
1/128" = 1'-0"
140
0.0078125
141
12.0
290
     0
  0
SCALE
  5
5A
102
{ACAD_REACTORS
330
47
102
}
330
47
100
AcDbScale
 70
     0
300
1/64" = 1'-0"
140
0.015625
141
12.0
290
     0
  0
SCALE
  5
5B
102
{ACAD_REACTORS
330
47
102
}
330
47
100
AcDbScale
 70
     0
300
1/32" = 1'-0"
140
0.03125
141
12.0
290
     0
  0
SCALE
  5
5C
102
{ACAD_REACTORS
330
47
102
}
330
47
100
AcDbScale
 70
     0
300
1/16" = 1'-0"
140
0.0625
141
12.0
290
     0
  0
SCALE
  5
5D
102
{ACAD_REACTORS
330
47
102
}
330
47
100
AcDbScale
 70
     0
300
3/32" = 1'-0"
140
0.09375
141
12.0
290
     0
  0
SCALE
  5
5E
102
{ACAD_REACTORS
330
47
102
}
330
47
100
AcDbScale
 70
     0
300
1/8" = 1'-0"
140
0.125
141
12.0
290
     0
  0
SCALE
  5
5F
102
{ACAD_REACTORS
330
47
102
}
330
47
100
AcDbScale
 70
     0
300
3/16" = 1'-0"
140
0.1875
141
12.0
290
     0
  0
SCALE
  5
60
102
{ACAD_REACTORS
330
47
102
}
330
47
100
AcDbScale
 70
     0
300
1/4" = 1'-0"
140
0.25
141
12.0
290
     0
  0
SCALE
  5
61
102
{ACAD_REACTORS
330
47
102
}
330
47
100
AcDbScale
 70
     0
300
3/8" = 1'-0"
140
0.375
141
12.0
290
     0
  0
SCALE
  5
62
102
{ACAD_REACTORS
330
47
102
}
330
47
100
AcDbScale
 70
     0
300
1/2" = 1'-0"
140
0.5
141
12.0
290
     0
  0
SCALE
  5
63
102
{ACAD_REACTORS
330
47
102
}
330
47
100
AcDbScale
 70
     0
300
3/4" = 1'-0"
140
0.75
141
12.0
290
     0
  0
SCALE
  5
64
102
{ACAD_REACTORS
330
47
102
}
330
47
100
AcDbScale
 70
     0
300
1" = 1'-0"
140
1.0
141
12.0
290
     0
  0
SCALE
  5
65
102
{ACAD_REACTORS
330
47
102
}
330
47
100
AcDbScale
 70
     0
300
1-1/2" = 1'-0"
140
1.5
141
12.0
290
     0
  0
SCALE
  5
66
102
{ACAD_REACTORS
330
47
102
}
330
47
100
AcDbScale
 70
     0
300
3" = 1'-0"
140
3.0
141
12.0
290
     0
  0
SCALE
  5
67
102
{ACAD_REACTORS
330
47
102
}
330
47
100
AcDbScale
 70
     0
300
6" = 1'-0"
140
6.0
141
12.0
290
     0
  0
SCALE
  5
68
102
{ACAD_REACTORS
330
47
102
}
330
47
100
AcDbScale
 70
     0
300
1'-0" = 1'-0"
140
12.0
141
12.0
290
     0
  0
TABLESTYLE
  5
6A
102
{ACAD_REACTORS
330
69
102
}
102
{ACAD_XDICTIONARY
360
160
102
}
330
69
100
AcDbTableStyle
  3
Standard
 70
     0
 71
     0
 40
0.06
 41
0.06
280
     0
281
     0
  7
Standard
140
4.5
170
     2
 62
     0
 63
   257
283
     0
 90
        4
 91
        0
  1

274
    -2
284
     1
 64
     0
275
    -2
285
     1
 65
     0
276
    -2
286
     1
 66
     0
277
    -2
287
     1
 67
     0
278
    -2
288
     1
 68
     0
279
    -2
289
     1
 69
     0
  7
Standard
140
6.0
170
     5
 62
     0
 63
   257
283
     0
 90
        4
 91
        0
  1

274
    -2
284
     1
 64
     0
275
    -2
285
     1
 65
     0
276
    -2
286
     1
 66
     0
277
    -2
287
     1
 67
     0
278
    -2
288
     1
 68
     0
279
    -2
289
     1
 69
     0
  7
Standard
140
4.5
170
     5
 62
     0
 63
   257
283
     0
 90
        4
 91
        0
  1

274
    -2
284
     1
 64
     0
275
    -2
285
     1
 65
     0
276
    -2
286
     1
 66
     0
277
    -2
287
     1
 67
     0
278
    -2
288
     1
 68
     0
279
    -2
289
     1
 69
     0
  0
VISUALSTYLE
  5
2F
102
{ACAD_REACTORS
330
2A
102
}
330
2A
100
AcDbVisualStyle
  2
2dWireframe
 70
     4
177
     3
291
     0
 70
    58
 90
        0
176
     1
 90
        2
176
     1
 90
        0
176
     1
 90
        0
176
     1
 40
0.6
176
     1
 40
30.0
176
     1
 62
     7
420
 16777215
176
     1
 90
        1
176
     1
 90
        4
176
     1
 62
     7
176
     1
 62
   257
176
     1
 90
        1
176
     1
 90
        1
176
     1
 40
1.0
176
     1
 90
        0
176
     1
 62
   257
176
     1
 40
1.0
176
     1
 90
        1
176
     1
 90
        6
176
     1
 90
        2
176
     1
 62
     7
176
     1
 90
        5
176
     1
 90
        0
176
     1
 90
        0
176
     1
290
     0
176
     1
 90
        1
176
     1
 40
0.0
176
     1
 90
        0
176
     1
290
     1
176
     1
290
     1
176
     1
290
     0
176
     1
290
     0
176
     1
290
     0
176
     1
290
     0
176
     1
290
     0
176
     1
290
     0
176
     1
290
     0
176
     1
 90
       50
176
     1
 40
0.0
176
     1
 40
1.0
176
     1
 90
        0
176
     1
 62
    18
420
        0
176
     1
 90
       50
176
     1
 90
        3
176
     1
 62
     5
420
      255
176
     1
290
     0
176
     1
 90
       50
176
     1
 90
       50
176
     1
 90
       50
176
     1
290
     0
176
     1
 90
       50
176
     1
 62
   256
176
     0
 40
1.0
176
     0
 90
        2
176
     1
  1
strokes_ogs.tif
176
     1
290
     0
176
     1
 40
1.0
176
     1
 40
1.0
176
     1
  0
VISUALSTYLE
  5
32
102
{ACAD_REACTORS
330
2A
102
}
330
2A
100
AcDbVisualStyle
  2
Basic
 70
     7
177
     3
291
     1
 70
    58
 90
        1
176
     1
 90
        0
176
     1
 90
        1
176
     1
 90
        0
176
     1
 40
0.6
176
     1
 40
30.0
176
     1
 62
     7
420
 16777215
176
     1
 90
        0
176
     1
 90
        4
176
     1
 62
     7
176
     1
 62
   257
176
     1
 90
        1
176
     1
 90
        1
176
     1
 40
1.0
176
     1
 90
        8
176
     1
 62
     7
176
     1
 40
1.0
176
     1
 90
        1
176
     1
 90
        6
176
     1
 90
        2
176
     1
 62
     7
176
     1
 90
        5
176
     1
 90
        0
176
     1
 90
        0
176
     1
290
     0
176
     1
 90
        1
176
     1
 40
0.0
176
     1
 90
        0
176
     1
290
     0
176
     1
290
     1
176
     1
290
     1
176
     1
290
     0
176
     1
290
     0
176
     1
290
     0
176
     1
290
     0
176
     1
290
     0
176
     1
290
     0
176
     1
 90
       50
176
     1
 40
0.0
176
     1
 40
1.0
176
     1
 90
        0
176
     1
 62
    18
420
        0
176
     1
 90
       50
176
     1
 90
        3
176
     1
 62
     5
420
      255
176
     1
290
     0
176
     1
 90
       50
176
     1
 90
       50
176
     1
 90
       50
176
     1
290
     0
176
     1
 90
       50
176
     1
 62
   256
176
     0
 40
1.0
176
     0
 90
        2
176
     1
  1
strokes_ogs.tif
176
     1
290
     0
176
     1
 40
1.0
176
     1
 40
1.0
176
     1
  0
VISUALSTYLE
  5
36
102
{ACAD_REACTORS
330
2A
102
}
330
2A
100
AcDbVisualStyle
  2
Brighten
 70
    12
177
     3
291
     1
 70
    58
 90
        2
176
     1
 90
        2
176
     1
 90
        0
176
     1
 90
        0
176
     1
 40
0.6
176
     1
 40
30.0
176
     1
 62
     7
420
 16777215
176
     1
 90
        1
176
     1
 90
        4
176
     1
 62
     7
176
     1
 62
   257
176
     1
 90
        1
176
     1
 90
        1
176
     1
 40
1.0
176
     1
 90
        8
176
     1
 62
     7
176
     1
 40
1.0
176
     1
 90
        1
176
     1
 90
        6
176
     1
 90
        2
176
     1
 62
     7
176
     1
 90
        5
176
     1
 90
        0
176
     1
 90
        0
176
     1
290
     0
176
     1
 90
        1
176
     1
 40
50.0
176
     1
 90
        0
176
     1
290
     0
176
     1
290
     1
176
     1
290
     1
176
     1
290
     0
176
     1
290
     0
176
     1
290
     0
176
     1
290
     0
176
     1
290
     0
176
     1
290
     0
176
     1
 90
       50
176
     1
 40
0.0
176
     1
 40
1.0
176
     1
 90
        0
176
     1
 62
    18
420
        0
176
     1
 90
       50
176
     1
 90
        3
176
     1
 62
     5
420
      255
176
     1
290
     0
176
     1
 90
       50
176
     1
 90
       50
176
     1
 90
       50
176
     1
290
     0
176
     1
 90
       50
176
     1
 62
   256
176
     0
 40
1.0
176
     0
 90
        2
176
     1
  1
strokes_ogs.tif
176
     1
290
     0
176
     1
 40
1.0
176
     1
 40
1.0
176
     1
  0
VISUALSTYLE
  5
3A
102
{ACAD_REACTORS
330
2A
102
}
330
2A
100
AcDbVisualStyle
  2
ColorChange
 70
    16
177
     3
291
     1
 70
    58
 90
        2
176
     1
 90
        2
176
     1
 90
        3
176
     1
 90
        0
176
     1
 40
0.6
176
     1
 40
30.0
176
     1
 62
     8
420
  8421504
176
     1
 90
        1
176
     1
 90
        4
176
     1
 62
     7
176
     1
 62
   257
176
     1
 90
        1
176
     1
 90
        1
176
     1
 40
1.0
176
     1
 90
        8
176
     1
 62
     8
420
  8421504
176
     1
 40
1.0
176
     1
 90
        1
176
     1
 90
        6
176
     1
 90
        2
176
     1
 62
     7
176
     1
 90
        5
176
     1
 90
        0
176
     1
 90
        0
176
     1
290
     0
176
     1
 90
        1
176
     1
 40
0.0
176
     1
 90
        0
176
     1
290
     0
176
     1
290
     1
176
     1
290
     1
176
     1
290
     0
176
     1
290
     0
176
     1
290
     0
176
     1
290
     0
176
     1
290
     0
176
     1
290
     0
176
     1
 90
       50
176
     1
 40
0.0
176
     1
 40
1.0
176
     1
 90
        0
176
     1
 62
    18
420
        0
176
     1
 90
       50
176
     1
 90
        3
176
     1
 62
     5
420
      255
176
     1
290
     0
176
     1
 90
       50
176
     1
 90
       50
176
     1
 90
       50
176
     1
290
     0
176
     1
 90
       50
176
     1
 62
   256
176
     0
 40
1.0
176
     0
 90
        2
176
     1
  1
strokes_ogs.tif
176
     1
290
     0
176
     1
 40
1.0
176
     1
 40
1.0
176
     1
  0
VISUALSTYLE
  5
34
102
{ACAD_REACTORS
330
2A
102
}
330
2A
100
AcDbVisualStyle
  2
Conceptual
 70
     9
177
     3
291
     0
 70
    58
 90
        3
176
     1
 90
        2
176
     1
 90
        0
176
     1
 90
        0
176
     1
 40
0.6
176
     1
 40
30.0
176
     1
 62
     7
420
 16777215
176
     1
 90
        2
176
     1
 90
        2
176
     1
 62
     7
176
     1
 62
   257
176
     1
 90
        1
176
     1
 90
        1
176
     1
 40
179.0
176
     1
 90
        8
176
     1
 62
     7
176
     1
 40
1.0
176
     1
 90
        1
176
     1
 90
        6
176
     1
 90
        2
176
     1
 62
     7
176
     1
 90
        3
176
     1
 90
        0
176
     1
 90
        0
176
     1
290
     0
176
     1
 90
        1
176
     1
 40
0.0
176
     1
 90
        0
176
     1
290
     0
176
     1
290
     1
176
     1
290
     1
176
     1
290
     0
176
     1
290
     0
176
     1
290
     0
176
     1
290
     0
176
     1
290
     0
176
     1
290
     0
176
     1
 90
       50
176
     1
 40
0.0
176
     1
 40
1.0
176
     1
 90
        0
176
     1
 62
    18
420
        0
176
     1
 90
       50
176
     1
 90
        3
176
     1
 62
     5
420
      255
176
     1
290
     0
176
     1
 90
       50
176
     1
 90
       50
176
     1
 90
       50
176
     1
290
     0
176
     1
 90
       50
176
     1
 62
   256
176
     0
 40
1.0
176
     0
 90
        2
176
     1
  1
strokes_ogs.tif
176
     1
290
     0
176
     1
 40
1.0
176
     1
 40
1.0
176
     1
  0
VISUALSTYLE
  5
35
102
{ACAD_REACTORS
330
2A
102
}
330
2A
100
AcDbVisualStyle
  2
Dim
 70
    11
177
     3
291
     1
 70
    58
 90
        2
176
     1
 90
        2
176
     1
 90
        0
176
     1
 90
        0
176
     1
 40
0.6
176
     1
 40
30.0
176
     1
 62
     7
420
 16777215
176
     1
 90
        1
176
     1
 90
        4
176
     1
 62
     7
176
     1
 62
   257
176
     1
 90
        1
176
     1
 90
        1
176
     1
 40
1.0
176
     1
 90
        8
176
     1
 62
     7
176
     1
 40
1.0
176
     1
 90
        1
176
     1
 90
        6
176
     1
 90
        2
176
     1
 62
     7
176
     1
 90
        5
176
     1
 90
        0
176
     1
 90
        0
176
     1
290
     0
176
     1
 90
        1
176
     1
 40
-50.0
176
     1
 90
        0
176
     1
290
     0
176
     1
290
     1
176
     1
290
     1
176
     1
290
     0
176
     1
290
     0
176
     1
290
     0
176
     1
290
     0
176
     1
290
     0
176
     1
290
     0
176
     1
 90
       50
176
     1
 40
0.0
176
     1
 40
1.0
176
     1
 90
        0
176
     1
 62
    18
420
        0
176
     1
 90
       50
176
     1
 90
        3
176
     1
 62
     5
420
      255
176
     1
290
     0
176
     1
 90
       50
176
     1
 90
       50
176
     1
 90
       50
176
     1
290
     0
176
     1
 90
       50
176
     1
 62
   256
176
     0
 40
1.0
176
     0
 90
        2
176
     1
  1
strokes_ogs.tif
176
     1
290
     0
176
     1
 40
1.0
176
     1
 40
1.0
176
     1
  0
VISUALSTYLE
  5
3D
102
{ACAD_REACTORS
330
2A
102
}
330
2A
100
AcDbVisualStyle
  2
EdgeColorOff
 70
    22
177
     3
291
     1
 70
    58
 90
        2
176
     0
 90
        2
176
     0
 90
        0
176
     0
 90
        0
176
     0
 40
0.6
176
     0
 40
30.0
176
     0
 62
     7
420
 16777215
176
     0
 90
        1
176
     0
 90
        4
176
     0
 62
     7
176
     0
 62
   257
176
     0
 90
        1
176
     0
 90
        1
176
     0
 40
1.0
176
     0
 90
        8
176
     2
 62
     7
176
     0
 40
1.0
176
     0
 90
        1
176
     0
 90
        6
176
     0
 90
        2
176
     0
 62
     7
176
     0
 90
        5
176
     0
 90
        0
176
     0
 90
        0
176
     0
290
     0
176
     0
 90
        1
176
     0
 40
0.0
176
     0
 90
        0
176
     0
290
     0
176
     0
290
     1
176
     0
290
     1
176
     0
290
     0
176
     0
290
     0
176
     0
290
     0
176
     0
290
     0
176
     0
290
     0
176
     0
290
     0
176
     0
 90
       50
176
     0
 40
0.0
176
     0
 40
1.0
176
     0
 90
        0
176
     0
 62
    18
420
        0
176
     0
 90
       50
176
     0
 90
        3
176
     0
 62
     5
420
      255
176
     0
290
     0
176
     0
 90
       50
176
     0
 90
       50
176
     0
 90
       50
176
     0
290
     0
176
     0
 90
       50
176
     0
 62
   256
176
     0
 40
1.0
176
     0
 90
        2
176
     0
  1
strokes_ogs.tif
176
     0
290
     0
176
     0
 40
1.0
176
     0
 40
1.0
176
     0
  0
VISUALSTYLE
  5
39
102
{ACAD_REACTORS
330
2A
102
}
330
2A
100
AcDbVisualStyle
  2
Facepattern
 70
    15
177
     3
291
     1
 70
    58
 90
        2
176
     1
 90
        2
176
     1
 90
        0
176
     1
 90
        0
176
     1
 40
0.6
176
     1
 40
30.0
176
     1
 62
     7
420
 16777215
176
     1
 90
        1
176
     1
 90
        4
176
     1
 62
     7
176
     1
 62
   257
176
     1
 90
        1
176
     1
 90
        1
176
     1
 40
1.0
176
     1
 90
        8
176
     1
 62
     7
176
     1
 40
1.0
176
     1
 90
        1
176
     1
 90
        6
176
     1
 90
        2
176
     1
 62
     7
176
     1
 90
        5
176
     1
 90
        0
176
     1
 90
        0
176
     1
290
     0
176
     1
 90
        1
176
     1
 40
0.0
176
     1
 90
        0
176
     1
290
     0
176
     1
290
     1
176
     1
290
     1
176
     1
290
     0
176
     1
290
     0
176
     1
290
     0
176
     1
290
     0
176
     1
290
     0
176
     1
290
     0
176
     1
 90
       50
176
     1
 40
0.0
176
     1
 40
1.0
176
     1
 90
        0
176
     1
 62
    18
420
        0
176
     1
 90
       50
176
     1
 90
        3
176
     1
 62
     5
420
      255
176
     1
290
     0
176
     1
 90
       50
176
     1
 90
       50
176
     1
 90
       50
176
     1
290
     0
176
     1
 90
       50
176
     1
 62
   256
176
     0
 40
1.0
176
     0
 90
        2
176
     1
  1
strokes_ogs.tif
176
     1
290
     0
176
     1
 40
1.0
176
     1
 40
1.0
176
     1
  0
VISUALSTYLE
  5
2B
102
{ACAD_REACTORS
330
2A
102
}
330
2A
100
AcDbVisualStyle
  2
Flat
 70
     0
177
     3
291
     1
 70
    58
 90
        2
176
     1
 90
        1
176
     1
 90
        1
176
     1
 90
        2
176
     1
 40
0.6
176
     1
 40
30.0
176
     1
 62
     7
420
 16777215
176
     1
 90
        0
176
     1
 90
        0
176
     1
 62
     7
176
     1
 62
   257
176
     1
 90
        1
176
     1
 90
        1
176
     1
 40
1.0
176
     1
 90
        8
176
     1
 62
     7
176
     1
 40
1.0
176
     1
 90
        1
176
     1
 90
        6
176
     1
 90
        2
176
     1
 62
     7
176
     1
 90
        5
176
     1
 90
        0
176
     1
 90
        0
176
     1
290
     0
176
     1
 90
       13
176
     1
 40
0.0
176
     1
 90
        0
176
     1
290
     0
176
     1
290
     1
176
     1
290
     1
176
     1
290
     0
176
     1
290
     0
176
     1
290
     0
176
     1
290
     0
176
     1
290
     0
176
     1
290
     0
176
     1
 90
       50
176
     1
 40
0.0
176
     1
 40
1.0
176
     1
 90
        0
176
     1
 62
    18
420
        0
176
     1
 90
       50
176
     1
 90
        3
176
     1
 62
     5
420
      255
176
     1
290
     0
176
     1
 90
       50
176
     1
 90
       50
176
     1
 90
       50
176
     1
290
     0
176
     1
 90
       50
176
     1
 62
   256
176
     0
 40
1.0
176
     0
 90
        2
176
     1
  1
strokes_ogs.tif
176
     1
290
     0
176
     1
 40
1.0
176
     1
 40
1.0
176
     1
  0
VISUALSTYLE
  5
2C
102
{ACAD_REACTORS
330
2A
102
}
330
2A
100
AcDbVisualStyle
  2
FlatWithEdges
 70
     1
177
     3
291
     1
 70
    58
 90
        2
176
     1
 90
        1
176
     1
 90
        1
176
     1
 90
        2
176
     1
 40
0.6
176
     1
 40
30.0
176
     1
 62
     7
420
 16777215
176
     1
 90
        1
176
     1
 90
        0
176
     1
 62
     7
176
     1
 62
   257
176
     1
 90
        1
176
     1
 90
        1
176
     1
 40
1.0
176
     1
 90
        0
176
     1
 62
   257
176
     1
 40
1.0
176
     1
 90
        1
176
     1
 90
        6
176
     1
 90
        2
176
     1
 62
     7
176
     1
 90
        5
176
     1
 90
        0
176
     1
 90
        0
176
     1
290
     0
176
     1
 90
       13
176
     1
 40
0.0
176
     1
 90
        0
176
     1
290
     0
176
     1
290
     1
176
     1
290
     1
176
     1
290
     0
176
     1
290
     0
176
     1
290
     0
176
     1
290
     0
176
     1
290
     0
176
     1
290
     0
176
     1
 90
       50
176
     1
 40
0.0
176
     1
 40
1.0
176
     1
 90
        0
176
     1
 62
    18
420
        0
176
     1
 90
       50
176
     1
 90
        3
176
     1
 62
     5
420
      255
176
     1
290
     0
176
     1
 90
       50
176
     1
 90
       50
176
     1
 90
       50
176
     1
290
     0
176
     1
 90
       50
176
     1
 62
   256
176
     0
 40
1.0
176
     0
 90
        2
176
     1
  1
strokes_ogs.tif
176
     1
290
     0
176
     1
 40
1.0
176
     1
 40
1.0
176
     1
  0
VISUALSTYLE
  5
2D
102
{ACAD_REACTORS
330
2A
102
}
330
2A
100
AcDbVisualStyle
  2
Gouraud
 70
     2
177
     3
291
     1
 70
    58
 90
        2
176
     1
 90
        2
176
     1
 90
        1
176
     1
 90
        2
176
     1
 40
0.6
176
     1
 40
30.0
176
     1
 62
     7
420
 16777215
176
     1
 90
        0
176
     1
 90
        0
176
     1
 62
     7
176
     1
 62
   257
176
     1
 90
        1
176
     1
 90
        1
176
     1
 40
1.0
176
     1
 90
        0
176
     1
 62
     7
176
     1
 40
1.0
176
     1
 90
        1
176
     1
 90
        6
176
     1
 90
        2
176
     1
 62
     7
176
     1
 90
        5
176
     1
 90
        0
176
     1
 90
        0
176
     1
290
     0
176
     1
 90
       13
176
     1
 40
0.0
176
     1
 90
        0
176
     1
290
     0
176
     1
290
     1
176
     1
290
     1
176
     1
290
     0
176
     1
290
     0
176
     1
290
     0
176
     1
290
     0
176
     1
290
     0
176
     1
290
     0
176
     1
 90
       50
176
     1
 40
0.0
176
     1
 40
1.0
176
     1
 90
        0
176
     1
 62
    18
420
        0
176
     1
 90
       50
176
     1
 90
        3
176
     1
 62
     5
420
      255
176
     1
290
     0
176
     1
 90
       50
176
     1
 90
       50
176
     1
 90
       50
176
     1
290
     0
176
     1
 90
       50
176
     1
 62
   256
176
     0
 40
1.0
176
     0
 90
        2
176
     1
  1
strokes_ogs.tif
176
     1
290
     0
176
     1
 40
1.0
176
     1
 40
1.0
176
     1
  0
VISUALSTYLE
  5
2E
102
{ACAD_REACTORS
330
2A
102
}
330
2A
100
AcDbVisualStyle
  2
GouraudWithEdges
 70
     3
177
     3
291
     1
 70
    58
 90
        2
176
     1
 90
        2
176
     1
 90
        1
176
     1
 90
        2
176
     1
 40
0.6
176
     1
 40
30.0
176
     1
 62
     7
420
 16777215
176
     1
 90
        1
176
     1
 90
        0
176
     1
 62
     7
176
     1
 62
   257
176
     1
 90
        1
176
     1
 90
        1
176
     1
 40
1.0
176
     1
 90
        0
176
     1
 62
   257
176
     1
 40
1.0
176
     1
 90
        1
176
     1
 90
        6
176
     1
 90
        2
176
     1
 62
     7
176
     1
 90
        5
176
     1
 90
        0
176
     1
 90
        0
176
     1
290
     0
176
     1
 90
       13
176
     1
 40
0.0
176
     1
 90
        0
176
     1
290
     0
176
     1
290
     1
176
     1
290
     1
176
     1
290
     0
176
     1
290
     0
176
     1
290
     0
176
     1
290
     0
176
     1
290
     0
176
     1
290
     0
176
     1
 90
       50
176
     1
 40
0.0
176
     1
 40
1.0
176
     1
 90
        0
176
     1
 62
    18
420
        0
176
     1
 90
       50
176
     1
 90
        3
176
     1
 62
     5
420
      255
176
     1
290
     0
176
     1
 90
       50
176
     1
 90
       50
176
     1
 90
       50
176
     1
290
     0
176
     1
 90
       50
176
     1
 62
   256
176
     0
 40
1.0
176
     0
 90
        2
176
     1
  1
strokes_ogs.tif
176
     1
290
     0
176
     1
 40
1.0
176
     1
 40
1.0
176
     1
  0
VISUALSTYLE
  5
31
102
{ACAD_REACTORS
330
2A
102
}
330
2A
100
AcDbVisualStyle
  2
Hidden
 70
     6
177
     3
291
     0
 70
    58
 90
        1
176
     1
 90
        2
176
     1
 90
        2
176
     1
 90
        0
176
     1
 40
0.6
176
     1
 40
30.0
176
     1
 62
     7
420
 16777215
176
     1
 90
        2
176
     1
 90
        2
176
     1
 62
     7
176
     1
 62
   257
176
     1
 90
        2
176
     1
 90
        1
176
     1
 40
40.0
176
     1
 90
        0
176
     1
 62
   257
176
     1
 40
1.0
176
     1
 90
        1
176
     1
 90
        6
176
     1
 90
        2
176
     1
 62
     7
176
     1
 90
        3
176
     1
 90
        0
176
     1
 90
        0
176
     1
290
     0
176
     1
 90
        1
176
     1
 40
0.0
176
     1
 90
        0
176
     1
290
     0
176
     1
290
     1
176
     1
290
     1
176
     1
290
     0
176
     1
290
     0
176
     1
290
     0
176
     1
290
     0
176
     1
290
     0
176
     1
290
     0
176
     1
 90
       50
176
     1
 40
0.0
176
     1
 40
1.0
176
     1
 90
        0
176
     1
 62
    18
420
        0
176
     1
 90
       50
176
     1
 90
        3
176
     1
 62
     5
420
      255
176
     1
290
     0
176
     1
 90
       50
176
     1
 90
       50
176
     1
 90
       50
176
     1
290
     0
176
     1
 90
       50
176
     1
 62
   256
176
     0
 40
1.0
176
     0
 90
        2
176
     1
  1
strokes_ogs.tif
176
     1
290
     0
176
     1
 40
1.0
176
     1
 40
1.0
176
     1
  0
VISUALSTYLE
  5
3B
102
{ACAD_REACTORS
330
2A
102
}
330
2A
100
AcDbVisualStyle
  2
JitterOff
 70
    20
177
     3
291
     1
 70
    58
 90
        2
176
     0
 90
        2
176
     0
 90
        0
176
     0
 90
        0
176
     0
 40
0.6
176
     0
 40
30.0
176
     0
 62
     7
420
 16777215
176
     0
 90
        1
176
     0
 90
        4
176
     0
 62
     7
176
     0
 62
   257
176
     0
 90
        1
176
     0
 90
        1
176
     0
 40
1.0
176
     0
 90
       10
176
     2
 62
     7
176
     0
 40
1.0
176
     0
 90
        1
176
     0
 90
        6
176
     0
 90
        2
176
     0
 62
     7
176
     0
 90
        5
176
     0
 90
        0
176
     0
 90
        0
176
     0
290
     0
176
     0
 90
        1
176
     0
 40
0.0
176
     0
 90
        0
176
     0
290
     0
176
     0
290
     1
176
     0
290
     1
176
     0
290
     0
176
     0
290
     0
176
     0
290
     0
176
     0
290
     0
176
     0
290
     0
176
     0
290
     0
176
     0
 90
       50
176
     0
 40
0.0
176
     0
 40
1.0
176
     0
 90
        0
176
     0
 62
    18
420
        0
176
     0
 90
       50
176
     0
 90
        3
176
     0
 62
     5
420
      255
176
     0
290
     0
176
     0
 90
       50
176
     0
 90
       50
176
     0
 90
       50
176
     0
290
     0
176
     0
 90
       50
176
     0
 62
   256
176
     0
 40
1.0
176
     0
 90
        2
176
     0
  1
strokes_ogs.tif
176
     0
290
     0
176
     0
 40
1.0
176
     0
 40
1.0
176
     0
  0
VISUALSTYLE
  5
38
102
{ACAD_REACTORS
330
2A
102
}
330
2A
100
AcDbVisualStyle
  2
Linepattern
 70
    14
177
     3
291
     1
 70
    58
 90
        2
176
     1
 90
        2
176
     1
 90
        0
176
     1
 90
        0
176
     1
 40
0.6
176
     1
 40
30.0
176
     1
 62
     7
420
 16777215
176
     1
 90
        1
176
     1
 90
        4
176
     1
 62
     7
176
     1
 62
   257
176
     1
 90
        7
176
     1
 90
        7
176
     1
 40
1.0
176
     1
 90
        8
176
     1
 62
     7
176
     1
 40
1.0
176
     1
 90
        1
176
     1
 90
        6
176
     1
 90
        2
176
     1
 62
     7
176
     1
 90
        5
176
     1
 90
        0
176
     1
 90
        0
176
     1
290
     0
176
     1
 90
        1
176
     1
 40
0.0
176
     1
 90
        0
176
     1
290
     0
176
     1
290
     1
176
     1
290
     1
176
     1
290
     0
176
     1
290
     0
176
     1
290
     0
176
     1
290
     0
176
     1
290
     0
176
     1
290
     0
176
     1
 90
       50
176
     1
 40
0.0
176
     1
 40
1.0
176
     1
 90
        0
176
     1
 62
    18
420
        0
176
     1
 90
       50
176
     1
 90
        3
176
     1
 62
     5
420
      255
176
     1
290
     0
176
     1
 90
       50
176
     1
 90
       50
176
     1
 90
       50
176
     1
290
     0
176
     1
 90
       50
176
     1
 62
   256
176
     0
 40
1.0
176
     0
 90
        2
176
     1
  1
strokes_ogs.tif
176
     1
290
     0
176
     1
 40
1.0
176
     1
 40
1.0
176
     1
  0
VISUALSTYLE
  5
3C
102
{ACAD_REACTORS
330
2A
102
}
330
2A
100
AcDbVisualStyle
  2
OverhangOff
 70
    21
177
     3
291
     1
 70
    58
 90
        2
176
     0
 90
        2
176
     0
 90
        0
176
     0
 90
        0
176
     0
 40
0.6
176
     0
 40
30.0
176
     0
 62
     7
420
 16777215
176
     0
 90
        1
176
     0
 90
        4
176
     0
 62
     7
176
     0
 62
   257
176
     0
 90
        1
176
     0
 90
        1
176
     0
 40
1.0
176
     0
 90
        9
176
     2
 62
     7
176
     0
 40
1.0
176
     0
 90
        1
176
     0
 90
        6
176
     0
 90
        2
176
     0
 62
     7
176
     0
 90
        5
176
     0
 90
        0
176
     0
 90
        0
176
     0
290
     0
176
     0
 90
        1
176
     0
 40
0.0
176
     0
 90
        0
176
     0
290
     0
176
     0
290
     1
176
     0
290
     1
176
     0
290
     0
176
     0
290
     0
176
     0
290
     0
176
     0
290
     0
176
     0
290
     0
176
     0
290
     0
176
     0
 90
       50
176
     0
 40
0.0
176
     0
 40
1.0
176
     0
 90
        0
176
     0
 62
    18
420
        0
176
     0
 90
       50
176
     0
 90
        3
176
     0
 62
     5
420
      255
176
     0
290
     0
176
     0
 90
       50
176
     0
 90
       50
176
     0
 90
       50
176
     0
290
     0
176
     0
 90
       50
176
     0
 62
   256
176
     0
 40
1.0
176
     0
 90
        2
176
     0
  1
strokes_ogs.tif
176
     0
290
     0
176
     0
 40
1.0
176
     0
 40
1.0
176
     0
  0
VISUALSTYLE
  5
33
102
{ACAD_REACTORS
330
2A
102
}
330
2A
100
AcDbVisualStyle
  2
Realistic
 70
     8
177
     3
291
     0
 70
    58
 90
        2
176
     1
 90
        3
176
     1
 90
        0
176
     1
 90
        2
176
     1
 40
0.6
176
     1
 40
30.0
176
     1
 62
     7
420
 16777215
176
     1
 90
        0
176
     1
 90
        0
176
     1
 62
     7
176
     1
 62
   257
176
     1
 90
        1
176
     1
 90
        1
176
     1
 40
1.0
176
     1
 90
        8
176
     1
 62
   257
176
     1
 40
1.0
176
     1
 90
        1
176
     1
 90
        6
176
     1
 90
        2
176
     1
 62
     7
176
     1
 90
        3
176
     1
 90
        0
176
     1
 90
        0
176
     1
290
     0
176
     1
 90
       13
176
     1
 40
0.0
176
     1
 90
        0
176
     1
290
     0
176
     1
290
     1
176
     1
290
     1
176
     1
290
     0
176
     1
290
     0
176
     1
290
     0
176
     1
290
     0
176
     1
290
     0
176
     1
290
     0
176
     1
 90
       50
176
     1
 40
0.0
176
     1
 40
1.0
176
     1
 90
        0
176
     1
 62
    18
420
        0
176
     1
 90
       50
176
     1
 90
        3
176
     1
 62
     5
420
      255
176
     1
290
     0
176
     1
 90
       50
176
     1
 90
       50
176
     1
 90
       50
176
     1
290
     0
176
     1
 90
       50
176
     1
 62
   256
176
     0
 40
1.0
176
     0
 90
        2
176
     1
  1
strokes_ogs.tif
176
     1
290
     0
176
     1
 40
1.0
176
     1
 40
1.0
176
     1
  0
VISUALSTYLE
  5
42
102
{ACAD_REACTORS
330
2A
102
}
330
2A
100
AcDbVisualStyle
  2
Shaded
 70
    27
177
     3
291
     0
 70
    58
 90
        2
176
     1
 90
        2
176
     1
 90
        1
176
     1
 90
        2
176
     1
 40
0.6
176
     1
 40
30.0
176
     1
 62
     7
420
 16777215
176
     1
 90
        0
176
     1
 90
        4
176
     1
 62
     7
176
     1
 62
   257
176
     1
 90
        1
176
     1
 90
        1
176
     1
 40
1.0
176
     1
 90
        8
176
     1
 62
   257
176
     1
 40
1.0
176
     1
 90
        1
176
     1
 90
        6
176
     1
 90
        2
176
     1
 62
     8
420
  7895160
176
     1
 90
        3
176
     1
 90
        0
176
     1
 90
        0
176
     1
290
     0
176
     1
 90
        5
176
     1
 40
0.0
176
     1
 90
        0
176
     1
290
     0
176
     1
290
     1
176
     1
290
     1
176
     1
290
     0
176
     1
290
     0
176
     1
290
     0
176
     1
290
     0
176
     1
290
     0
176
     1
290
     0
176
     1
 90
       50
176
     1
 40
0.0
176
     1
 40
1.0
176
     1
 90
        0
176
     1
 62
    18
420
        0
176
     1
 90
       50
176
     1
 90
        3
176
     1
 62
     5
420
      255
176
     1
290
     0
176
     1
 90
       50
176
     1
 90
       50
176
     1
 90
       50
176
     1
290
     0
176
     1
 90
       50
176
     1
 62
   256
176
     0
 40
1.0
176
     0
 90
        2
176
     1
  1
strokes_ogs.tif
176
     1
290
     0
176
     1
 40
1.0
176
     1
 40
1.0
176
     1
  0
VISUALSTYLE
  5
41
102
{ACAD_REACTORS
330
2A
102
}
330
2A
100
AcDbVisualStyle
  2
Shaded with edges
 70
    26
177
     3
291
     0
 70
    58
 90
        2
176
     1
 90
        2
176
     1
 90
        1
176
     1
 90
        2
176
     1
 40
0.6
176
     1
 40
30.0
176
     1
 62
     7
420
 16777215
176
     1
 90
        1
176
     1
 90
       10
176
     1
 62
     7
176
     1
 62
   257
176
     1
 90
        2
176
     1
 90
        1
176
     1
 40
1.0
176
     1
 90
        8
176
     1
 62
   257
176
     1
 40
1.0
176
     1
 90
        1
176
     1
 90
        6
176
     1
 90
        2
176
     1
 62
     7
176
     1
 90
        3
176
     1
 90
        0
176
     1
 90
        0
176
     1
290
     0
176
     1
 90
        5
176
     1
 40
0.0
176
     1
 90
        0
176
     1
290
     0
176
     1
290
     1
176
     1
290
     1
176
     1
290
     0
176
     1
290
     0
176
     1
290
     0
176
     1
290
     0
176
     1
290
     0
176
     1
290
     0
176
     1
 90
       50
176
     1
 40
0.0
176
     1
 40
1.0
176
     1
 90
        0
176
     1
 62
    18
420
        0
176
     1
 90
       50
176
     1
 90
        3
176
     1
 62
     5
420
      255
176
     1
290
     0
176
     1
 90
       50
176
     1
 90
       50
176
     1
 90
       50
176
     1
290
     0
176
     1
 90
       50
176
     1
 62
   256
176
     0
 40
1.0
176
     0
 90
        2
176
     1
  1
strokes_ogs.tif
176
     1
290
     0
176
     1
 40
1.0
176
     1
 40
1.0
176
     1
  0
VISUALSTYLE
  5
3E
102
{ACAD_REACTORS
330
2A
102
}
330
2A
100
AcDbVisualStyle
  2
Shades of Gray
 70
    23
177
     3
291
     0
 70
    58
 90
        2
176
     1
 90
        2
176
     1
 90
        3
176
     1
 90
        0
176
     1
 40
0.6
176
     1
 40
30.0
176
     1
 62
     7
420
 16777215
176
     1
 90
        2
176
     1
 90
        2
176
     1
 62
     7
176
     1
 62
     7
176
     1
 90
        1
176
     1
 90
        1
176
     1
 40
40.0
176
     1
 90
        8
176
     1
 62
     7
176
     1
 40
1.0
176
     1
 90
        1
176
     1
 90
        6
176
     1
 90
        2
176
     1
 62
     7
176
     1
 90
        3
176
     1
 90
        0
176
     1
 90
        0
176
     1
290
     0
176
     1
 90
        1
176
     1
 40
0.0
176
     1
 90
        0
176
     1
290
     0
176
     1
290
     1
176
     1
290
     1
176
     1
290
     0
176
     1
290
     0
176
     1
290
     0
176
     1
290
     0
176
     1
290
     0
176
     1
290
     0
176
     1
 90
       50
176
     1
 40
0.0
176
     1
 40
1.0
176
     1
 90
        0
176
     1
 62
    18
420
        0
176
     1
 90
       50
176
     1
 90
        3
176
     1
 62
     5
420
      255
176
     1
290
     0
176
     1
 90
       50
176
     1
 90
       50
176
     1
 90
       50
176
     1
290
     0
176
     1
 90
       50
176
     1
 62
   256
176
     0
 40
1.0
176
     0
 90
        2
176
     1
  1
strokes_ogs.tif
176
     1
290
     0
176
     1
 40
1.0
176
     1
 40
1.0
176
     1
  0
VISUALSTYLE
  5
3F
102
{ACAD_REACTORS
330
2A
102
}
330
2A
100
AcDbVisualStyle
  2
Sketchy
 70
    24
177
     3
291
     0
 70
    58
 90
        1
176
     1
 90
        2
176
     1
 90
        2
176
     1
 90
        0
176
     1
 40
0.6
176
     1
 40
30.0
176
     1
 62
     7
420
 16777215
176
     1
 90
        2
176
     1
 90
        2
176
     1
 62
     7
176
     1
 62
     7
176
     1
 90
        1
176
     1
 90
        1
176
     1
 40
40.0
176
     1
 90
       11
176
     1
 62
     7
176
     1
 40
1.0
176
     1
 90
        1
176
     1
 90
        6
176
     1
 90
        2
176
     1
 62
     7
176
     1
 90
        6
176
     1
 90
        0
176
     1
 90
        0
176
     1
290
     0
176
     1
 90
        1
176
     1
 40
0.0
176
     1
 90
        0
176
     1
290
     0
176
     1
290
     1
176
     1
290
     1
176
     1
290
     0
176
     1
290
     0
176
     1
290
     0
176
     1
290
     0
176
     1
290
     0
176
     1
290
     0
176
     1
 90
       50
176
     1
 40
0.0
176
     1
 40
1.0
176
     1
 90
        0
176
     1
 62
    18
420
        0
176
     1
 90
       50
176
     1
 90
        3
176
     1
 62
     5
420
      255
176
     1
290
     0
176
     1
 90
       50
176
     1
 90
       50
176
     1
 90
       50
176
     1
290
     0
176
     1
 90
       50
176
     1
 62
   256
176
     0
 40
1.0
176
     0
 90
        2
176
     1
  1
strokes_ogs.tif
176
     1
290
     0
176
     1
 40
1.0
176
     1
 40
1.0
176
     1
  0
VISUALSTYLE
  5
37
102
{ACAD_REACTORS
330
2A
102
}
330
2A
100
AcDbVisualStyle
  2
Thicken
 70
    13
177
     3
291
     1
 70
    58
 90
        2
176
     1
 90
        2
176
     1
 90
        0
176
     1
 90
        0
176
     1
 40
0.6
176
     1
 40
30.0
176
     1
 62
     7
420
 16777215
176
     1
 90
        1
176
     1
 90
        4
176
     1
 62
     7
176
     1
 62
   257
176
     1
 90
        1
176
     1
 90
        1
176
     1
 40
1.0
176
     1
 90
       12
176
     1
 62
     7
176
     1
 40
1.0
176
     1
 90
        1
176
     1
 90
        6
176
     1
 90
        2
176
     1
 62
     7
176
     1
 90
        5
176
     1
 90
        0
176
     1
 90
        0
176
     1
290
     0
176
     1
 90
        1
176
     1
 40
0.0
176
     1
 90
        0
176
     1
290
     0
176
     1
290
     1
176
     1
290
     1
176
     1
290
     0
176
     1
290
     0
176
     1
290
     0
176
     1
290
     0
176
     1
290
     0
176
     1
290
     0
176
     1
 90
       50
176
     1
 40
0.0
176
     1
 40
1.0
176
     1
 90
        0
176
     1
 62
    18
420
        0
176
     1
 90
       50
176
     1
 90
        3
176
     1
 62
     5
420
      255
176
     1
290
     0
176
     1
 90
       50
176
     1
 90
       50
176
     1
 90
       50
176
     1
290
     0
176
     1
 90
       50
176
     1
 62
   256
176
     0
 40
1.0
176
     0
 90
        2
176
     1
  1
strokes_ogs.tif
176
     1
290
     0
176
     1
 40
1.0
176
     1
 40
1.0
176
     1
  0
VISUALSTYLE
  5
30
102
{ACAD_REACTORS
330
2A
102
}
330
2A
100
AcDbVisualStyle
  2
Wireframe
 70
     5
177
     3
291
     0
 70
    58
 90
        0
176
     1
 90
        2
176
     1
 90
        0
176
     1
 90
        0
176
     1
 40
0.6
176
     1
 40
30.0
176
     1
 62
     7
420
 16777215
176
     1
 90
        1
176
     1
 90
        4
176
     1
 62
     7
176
     1
 62
   257
176
     1
 90
        1
176
     1
 90
        1
176
     1
 40
1.0
176
     1
 90
        0
176
     1
 62
   257
176
     1
 40
1.0
176
     1
 90
        1
176
     1
 90
        6
176
     1
 90
        2
176
     1
 62
     7
176
     1
 90
        3
176
     1
 90
        0
176
     1
 90
        0
176
     1
290
     0
176
     1
 90
        1
176
     1
 40
0.0
176
     1
 90
        0
176
     1
290
     0
176
     1
290
     1
176
     1
290
     1
176
     1
290
     0
176
     1
290
     0
176
     1
290
     0
176
     1
290
     0
176
     1
290
     0
176
     1
290
     0
176
     1
 90
       50
176
     1
 40
0.0
176
     1
 40
1.0
176
     1
 90
        0
176
     1
 62
    18
420
        0
176
     1
 90
       50
176
     1
 90
        3
176
     1
 62
     5
420
      255
176
     1
290
     0
176
     1
 90
       50
176
     1
 90
       50
176
     1
 90
       50
176
     1
290
     0
176
     1
 90
       50
176
     1
 62
   256
176
     0
 40
1.0
176
     0
 90
        2
176
     1
  1
strokes_ogs.tif
176
     1
290
     0
176
     1
 40
1.0
176
     1
 40
1.0
176
     1
  0
VISUALSTYLE
  5
40
102
{ACAD_REACTORS
330
2A
102
}
330
2A
100
AcDbVisualStyle
  2
X-Ray
 70
    25
177
     3
291
     0
 70
    58
 90
        2
176
     1
 90
        2
176
     1
 90
        1
176
     1
 90
        1
176
     1
 40
0.5
176
     1
 40
30.0
176
     1
 62
     7
420
 16777215
176
     1
 90
        1
176
     1
 90
        0
176
     1
 62
     7
176
     1
 62
   257
176
     1
 90
        1
176
     1
 90
        1
176
     1
 40
1.0
176
     1
 90
        8
176
     1
 62
     7
176
     1
 40
1.0
176
     1
 90
        1
176
     1
 90
        6
176
     1
 90
        2
176
     1
 62
     7
176
     1
 90
        3
176
     1
 90
        0
176
     1
 90
        0
176
     1
290
     0
176
     1
 90
       13
176
     1
 40
0.0
176
     1
 90
        0
176
     1
290
     0
176
     1
290
     1
176
     1
290
     1
176
     1
290
     0
176
     1
290
     0
176
     1
290
     0
176
     1
290
     0
176
     1
290
     0
176
     1
290
     0
176
     1
 90
       50
176
     1
 40
0.0
176
     1
 40
1.0
176
     1
 90
        0
176
     1
 62
    18
420
        0
176
     1
 90
       50
176
     1
 90
        3
176
     1
 62
     5
420
      255
176
     1
290
     0
176
     1
 90
       50
176
     1
 90
       50
176
     1
 90
       50
176
     1
290
     0
176
     1
 90
       50
176
     1
 62
   256
176
     0
 40
1.0
176
     0
 90
        2
176
     1
  1
strokes_ogs.tif
176
     1
290
     0
176
     1
 40
1.0
176
     1
 40
1.0
176
     1
  0
DICTIONARYVAR
  5
15F
102
{ACAD_REACTORS
330
15E
102
}
330
15E
100
DictionaryVariables
280
     0
  1
1:1
  0
DICTIONARYVAR
  5
164
102
{ACAD_REACTORS
330
15E
102
}
330
15E
100
DictionaryVariables
280
     0
  1
Standard
  0
DICTIONARYVAR
  5
163
102
{ACAD_REACTORS
330
15E
102
}
330
15E
100
DictionaryVariables
280
     0
  1
Standard
  0
DICTIONARYVAR
  5
167
102
{ACAD_REACTORS
330
15E
102
}
330
15E
100
DictionaryVariables
280
     0
  1
6.000000
  0
DICTIONARY
  5
160
330
6A
100
AcDbDictionary
280
     1
281
     1
  3
ACAD_ROUNDTRIP_2008_TABLESTYLE_CELLSTYLEMAP
360
161
  0
CELLSTYLEMAP
  5
161
102
{ACAD_REACTORS
330
160
102
}
330
160
100
AcDbCellStyleMap
 90
        3
300
CELLSTYLE
  1
TABLEFORMAT_BEGIN
 90
        5
170
     1
 91
        0
 92
    32768
 62
   257
 93
        1
300
CONTENTFORMAT
  1
CONTENTFORMAT_BEGIN
 90
        0
 91
        0
 92
        4
 93
        0
300

 40
0.0
140
1.0
 94
        5
 62
     0
340
11
144
6.0
309
CONTENTFORMAT_END
171
     1
301
MARGIN
  1
CELLMARGIN_BEGIN
 40
1.5
 40
1.5
 40
1.5
 40
1.5
 40
1.5
 40
1.5
309
CELLMARGIN_END
 94
        6
 95
        1
302
GRIDFORMAT
  1
GRIDFORMAT_BEGIN
 90
        0
 91
        1
 62
     0
 92
       -2
340
14
 93
        0
 40
0.045
309
GRIDFORMAT_END
 95
        2
302
GRIDFORMAT
  1
GRIDFORMAT_BEGIN
 90
        0
 91
        1
 62
     0
 92
       -2
340
14
 93
        0
 40
0.045
309
GRIDFORMAT_END
 95
        4
302
GRIDFORMAT
  1
GRIDFORMAT_BEGIN
 90
        0
 91
        1
 62
     0
 92
       -2
340
14
 93
        0
 40
0.045
309
GRIDFORMAT_END
 95
        8
302
GRIDFORMAT
  1
GRIDFORMAT_BEGIN
 90
        0
 91
        1
 62
     0
 92
       -2
340
14
 93
        0
 40
0.045
309
GRIDFORMAT_END
 95
       16
302
GRIDFORMAT
  1
GRIDFORMAT_BEGIN
 90
        0
 91
        1
 62
     0
 92
       -2
340
14
 93
        0
 40
0.045
309
GRIDFORMAT_END
 95
       32
302
GRIDFORMAT
  1
GRIDFORMAT_BEGIN
 90
        0
 91
        1
 62
     0
 92
       -2
340
14
 93
        0
 40
0.045
309
GRIDFORMAT_END
309
TABLEFORMAT_END
  1
CELLSTYLE_BEGIN
 90
        1
 91
        1
300
_TITLE
309
CELLSTYLE_END
300
CELLSTYLE
  1
TABLEFORMAT_BEGIN
 90
        5
170
     1
 91
        0
 92
        0
 62
   257
 93
        1
300
CONTENTFORMAT
  1
CONTENTFORMAT_BEGIN
 90
        0
 91
        0
 92
        4
 93
        0
300

 40
0.0
140
1.0
 94
        5
 62
     0
340
11
144
4.5
309
CONTENTFORMAT_END
171
     1
301
MARGIN
  1
CELLMARGIN_BEGIN
 40
1.5
 40
1.5
 40
1.5
 40
1.5
 40
1.5
 40
1.5
309
CELLMARGIN_END
 94
        6
 95
        1
302
GRIDFORMAT
  1
GRIDFORMAT_BEGIN
 90
        0
 91
        1
 62
     0
 92
       -2
340
14
 93
        0
 40
0.045
309
GRIDFORMAT_END
 95
        2
302
GRIDFORMAT
  1
GRIDFORMAT_BEGIN
 90
        0
 91
        1
 62
     0
 92
       -2
340
14
 93
        0
 40
0.045
309
GRIDFORMAT_END
 95
        4
302
GRIDFORMAT
  1
GRIDFORMAT_BEGIN
 90
        0
 91
        1
 62
     0
 92
       -2
340
14
 93
        0
 40
0.045
309
GRIDFORMAT_END
 95
        8
302
GRIDFORMAT
  1
GRIDFORMAT_BEGIN
 90
        0
 91
        1
 62
     0
 92
       -2
340
14
 93
        0
 40
0.045
309
GRIDFORMAT_END
 95
       16
302
GRIDFORMAT
  1
GRIDFORMAT_BEGIN
 90
        0
 91
        1
 62
     0
 92
       -2
340
14
 93
        0
 40
0.045
309
GRIDFORMAT_END
 95
       32
302
GRIDFORMAT
  1
GRIDFORMAT_BEGIN
 90
        0
 91
        1
 62
     0
 92
       -2
340
14
 93
        0
 40
0.045
309
GRIDFORMAT_END
309
TABLEFORMAT_END
  1
CELLSTYLE_BEGIN
 90
        2
 91
        1
300
_HEADER
309
CELLSTYLE_END
300
CELLSTYLE
  1
TABLEFORMAT_BEGIN
 90
        5
170
     1
 91
        0
 92
        0
 62
   257
 93
        1
300
CONTENTFORMAT
  1
CONTENTFORMAT_BEGIN
 90
        0
 91
        0
 92
        4
 93
        0
300

 40
0.0
140
1.0
 94
        2
 62
     0
340
11
144
4.5
309
CONTENTFORMAT_END
171
     1
301
MARGIN
  1
CELLMARGIN_BEGIN
 40
1.5
 40
1.5
 40
1.5
 40
1.5
 40
1.5
 40
1.5
309
CELLMARGIN_END
 94
        6
 95
        1
302
GRIDFORMAT
  1
GRIDFORMAT_BEGIN
 90
        0
 91
        1
 62
     0
 92
       -2
340
14
 93
        0
 40
0.045
309
GRIDFORMAT_END
 95
        2
302
GRIDFORMAT
  1
GRIDFORMAT_BEGIN
 90
        0
 91
        1
 62
     0
 92
       -2
340
14
 93
        0
 40
0.045
309
GRIDFORMAT_END
 95
        4
302
GRIDFORMAT
  1
GRIDFORMAT_BEGIN
 90
        0
 91
        1
 62
     0
 92
       -2
340
14
 93
        0
 40
0.045
309
GRIDFORMAT_END
 95
        8
302
GRIDFORMAT
  1
GRIDFORMAT_BEGIN
 90
        0
 91
        1
 62
     0
 92
       -2
340
14
 93
        0
 40
0.045
309
GRIDFORMAT_END
 95
       16
302
GRIDFORMAT
  1
GRIDFORMAT_BEGIN
 90
        0
 91
        1
 62
     0
 92
       -2
340
14
 93
        0
 40
0.045
309
GRIDFORMAT_END
 95
       32
302
GRIDFORMAT
  1
GRIDFORMAT_BEGIN
 90
        0
 91
        1
 62
     0
 92
       -2
340
14
 93
        0
 40
0.045
309
GRIDFORMAT_END
309
TABLEFORMAT_END
  1
CELLSTYLE_BEGIN
 90
        3
 91
        2
300
_DATA
309
CELLSTYLE_END
  0
ENDSEC
  0
EOF
