  0
SECTION
  2
HEADER
  9
$ACADVER
  1
AC1027
  9
$ACADMAINTVER
 70
   105
  9
$DWGCODEPAGE
  3
ANSI_1252
  9
$REQUIREDVERSIONS
160
                 0
  9
$COMMENTS
  1
File was created by Cadenas
  9
$CUSTOMPROPERTYTAG
  1
NN
  9
$CUSTOMPROPERTY
  1
Geberit Mepla angle-seat stop valve
  9
$CUSTOMPROPERTYTAG
  1
NT
  9
$CUSTOMPROPERTY
  1

  9
$CUSTOMPROPERTYTAG
  1
NB
  9
$CUSTOMPROPERTY
  1
605032
  9
$CUSTOMPROPERTYTAG
  1
NBSYN
  9
$CUSTOMPROPERTY
  1
$ARTNRTX.
  9
$CUSTOMPROPERTYTAG
  1
LINA
  9
$CUSTOMPROPERTY
  1
605032
  9
$CUSTOMPROPERTYTAG
  1
CATALOG
  9
$CUSTOMPROPERTY
  1
GEBERIT
  9
$CUSTOMPROPERTYTAG
  1
ARTNRT
  9
$CUSTOMPROPERTY
  1
605.032.00.1
  9
$CUSTOMPROPERTYTAG
  1
DD
  9
$CUSTOMPROPERTY
  1
70
  9
$CUSTOMPROPERTYTAG
  1
D
  9
$CUSTOMPROPERTY
  1
40
  9
$CUSTOMPROPERTYTAG
  1
DN
  9
$CUSTOMPROPERTY
  1
32
  9
$CUSTOMPROPERTYTAG
  1
DNV
  9
$CUSTOMPROPERTY
  1
32
  9
$CUSTOMPROPERTYTAG
  1
L
  9
$CUSTOMPROPERTY
  1
186
  9
$CUSTOMPROPERTYTAG
  1
L1
  9
$CUSTOMPROPERTY
  1
68
  9
$CUSTOMPROPERTYTAG
  1
L2
  9
$CUSTOMPROPERTY
  1
150
  9
$CUSTOMPROPERTYTAG
  1
Z
  9
$CUSTOMPROPERTY
  1
32
  9
$CUSTOMPROPERTYTAG
  1
Z1
  9
$CUSTOMPROPERTY
  1
84
  9
$CUSTOMPROPERTYTAG
  1
ARTNRTX
  9
$CUSTOMPROPERTY
  1
605032
  9
$CUSTOMPROPERTYTAG
  1
COMPANY
  9
$CUSTOMPROPERTY
  1
geberit
  9
$INSBASE
 10
0.0
 20
0.0
 30
0.0
  9
$EXTMIN
 10
1.000000000000000E+20
 20
1.000000000000000E+20
 30
1.000000000000000E+20
  9
$EXTMAX
 10
-1.000000000000000E+20
 20
-1.000000000000000E+20
 30
-1.000000000000000E+20
  9
$LIMMIN
 10
0.0
 20
0.0
  9
$LIMMAX
 10
420.0
 20
297.0
  9
$ORTHOMODE
 70
     0
  9
$REGENMODE
 70
     1
  9
$FILLMODE
 70
     1
  9
$QTEXTMODE
 70
     0
  9
$MIRRTEXT
 70
     1
  9
$LTSCALE
 40
1.0
  9
$ATTMODE
 70
     1
  9
$TEXTSIZE
 40
2.5
  9
$TRACEWID
 40
1.0
  9
$TEXTSTYLE
  7
Standard
  9
$CLAYER
  8
0
  9
$CELTYPE
  6
ByLayer
  9
$CECOLOR
 62
   256
  9
$CELTSCALE
 40
1.0
  9
$DISPSILH
 70
     0
  9
$DIMSCALE
 40
1.0
  9
$DIMASZ
 40
2.5
  9
$DIMEXO
 40
0.625
  9
$DIMDLI
 40
3.75
  9
$DIMRND
 40
0.0
  9
$DIMDLE
 40
0.0
  9
$DIMEXE
 40
1.25
  9
$DIMTP
 40
0.0
  9
$DIMTM
 40
0.0
  9
$DIMTXT
 40
2.5
  9
$DIMCEN
 40
2.5
  9
$DIMTSZ
 40
0.0
  9
$DIMTOL
 70
     0
  9
$DIMLIM
 70
     0
  9
$DIMTIH
 70
     0
  9
$DIMTOH
 70
     0
  9
$DIMSE1
 70
     0
  9
$DIMSE2
 70
     0
  9
$DIMTAD
 70
     1
  9
$DIMZIN
 70
     8
  9
$DIMBLK
  1

  9
$DIMASO
 70
     1
  9
$DIMSHO
 70
     1
  9
$DIMPOST
  1

  9
$DIMAPOST
  1

  9
$DIMALT
 70
     0
  9
$DIMALTD
 70
     3
  9
$DIMALTF
 40
0.03937007874016
  9
$DIMLFAC
 40
1.0
  9
$DIMTOFL
 70
     1
  9
$DIMTVP
 40
0.0
  9
$DIMTIX
 70
     0
  9
$DIMSOXD
 70
     0
  9
$DIMSAH
 70
     0
  9
$DIMBLK1
  1

  9
$DIMBLK2
  1

  9
$DIMSTYLE
  2
ISO-25
  9
$DIMCLRD
 70
     0
  9
$DIMCLRE
 70
     0
  9
$DIMCLRT
 70
     0
  9
$DIMTFAC
 40
1.0
  9
$DIMGAP
 40
0.625
  9
$DIMJUST
 70
     0
  9
$DIMSD1
 70
     0
  9
$DIMSD2
 70
     0
  9
$DIMTOLJ
 70
     0
  9
$DIMTZIN
 70
     8
  9
$DIMALTZ
 70
     0
  9
$DIMALTTZ
 70
     0
  9
$DIMUPT
 70
     0
  9
$DIMDEC
 70
     2
  9
$DIMTDEC
 70
     2
  9
$DIMALTU
 70
     2
  9
$DIMALTTD
 70
     3
  9
$DIMTXSTY
  7
Standard
  9
$DIMAUNIT
 70
     0
  9
$DIMADEC
 70
     0
  9
$DIMALTRND
 40
0.0
  9
$DIMAZIN
 70
     0
  9
$DIMDSEP
 70
    44
  9
$DIMATFIT
 70
     3
  9
$DIMFRAC
 70
     0
  9
$DIMLDRBLK
  1

  9
$DIMLUNIT
 70
     2
  9
$DIMLWD
 70
    -2
  9
$DIMLWE
 70
    -2
  9
$DIMTMOVE
 70
     0
  9
$DIMFXL
 40
1.0
  9
$DIMFXLON
 70
     0
  9
$DIMJOGANG
 40
0.7853981633974483
  9
$DIMTFILL
 70
     0
  9
$DIMTFILLCLR
 70
     0
  9
$DIMARCSYM
 70
     0
  9
$DIMLTYPE
  6

  9
$DIMLTEX1
  6

  9
$DIMLTEX2
  6

  9
$DIMTXTDIRECTION
 70
     0
  9
$LUNITS
 70
     2
  9
$LUPREC
 70
     4
  9
$SKETCHINC
 40
1.0
  9
$FILLETRAD
 40
10.0
  9
$AUNITS
 70
     0
  9
$AUPREC
 70
     0
  9
$MENU
  1
.
  9
$ELEVATION
 40
0.0
  9
$PELEVATION
 40
0.0
  9
$THICKNESS
 40
0.0
  9
$LIMCHECK
 70
     0
  9
$CHAMFERA
 40
0.0
  9
$CHAMFERB
 40
0.0
  9
$CHAMFERC
 40
0.0
  9
$CHAMFERD
 40
0.0
  9
$SKPOLY
 70
     0
  9
$TDCREATE
 40
2458934.709995301
  9
$TDUCREATE
 40
2458934.668328634
  9
$TDUPDATE
 40
2458934.709995382
  9
$TDUUPDATE
 40
2458934.668328715
  9
$TDINDWG
 40
0.0000000116
  9
$TDUSRTIMER
 40
0.0000000116
  9
$USRTIMER
 70
     1
  9
$ANGBASE
 50
0.0
  9
$ANGDIR
 70
     0
  9
$PDMODE
 70
     0
  9
$PDSIZE
 40
0.0
  9
$PLINEWID
 40
0.0
  9
$SPLFRAME
 70
     0
  9
$SPLINETYPE
 70
     6
  9
$SPLINESEGS
 70
     8
  9
$HANDSEED
  5
17E
  9
$SURFTAB1
 70
     6
  9
$SURFTAB2
 70
     6
  9
$SURFTYPE
 70
     6
  9
$SURFU
 70
     6
  9
$SURFV
 70
     6
  9
$UCSBASE
  2

  9
$UCSNAME
  2

  9
$UCSORG
 10
0.0
 20
0.0
 30
0.0
  9
$UCSXDIR
 10
1.0
 20
0.0
 30
0.0
  9
$UCSYDIR
 10
0.0
 20
1.0
 30
0.0
  9
$UCSORTHOREF
  2

  9
$UCSORTHOVIEW
 70
     0
  9
$UCSORGTOP
 10
0.0
 20
0.0
 30
0.0
  9
$UCSORGBOTTOM
 10
0.0
 20
0.0
 30
0.0
  9
$UCSORGLEFT
 10
0.0
 20
0.0
 30
0.0
  9
$UCSORGRIGHT
 10
0.0
 20
0.0
 30
0.0
  9
$UCSORGFRONT
 10
0.0
 20
0.0
 30
0.0
  9
$UCSORGBACK
 10
0.0
 20
0.0
 30
0.0
  9
$PUCSBASE
  2

  9
$PUCSNAME
  2

  9
$PUCSORG
 10
0.0
 20
0.0
 30
0.0
  9
$PUCSXDIR
 10
1.0
 20
0.0
 30
0.0
  9
$PUCSYDIR
 10
0.0
 20
1.0
 30
0.0
  9
$PUCSORTHOREF
  2

  9
$PUCSORTHOVIEW
 70
     0
  9
$PUCSORGTOP
 10
0.0
 20
0.0
 30
0.0
  9
$PUCSORGBOTTOM
 10
0.0
 20
0.0
 30
0.0
  9
$PUCSORGLEFT
 10
0.0
 20
0.0
 30
0.0
  9
$PUCSORGRIGHT
 10
0.0
 20
0.0
 30
0.0
  9
$PUCSORGFRONT
 10
0.0
 20
0.0
 30
0.0
  9
$PUCSORGBACK
 10
0.0
 20
0.0
 30
0.0
  9
$USERI1
 70
     0
  9
$USERI2
 70
     0
  9
$USERI3
 70
     0
  9
$USERI4
 70
     0
  9
$USERI5
 70
     0
  9
$USERR1
 40
0.0
  9
$USERR2
 40
0.0
  9
$USERR3
 40
0.0
  9
$USERR4
 40
0.0
  9
$USERR5
 40
0.0
  9
$WORLDVIEW
 70
     1
  9
$SHADEDGE
 70
     3
  9
$SHADEDIF
 70
    70
  9
$TILEMODE
 70
     1
  9
$MAXACTVP
 70
    64
  9
$PINSBASE
 10
0.0
 20
0.0
 30
0.0
  9
$PLIMCHECK
 70
     0
  9
$PEXTMIN
 10
1.000000000000000E+20
 20
1.000000000000000E+20
 30
1.000000000000000E+20
  9
$PEXTMAX
 10
-1.000000000000000E+20
 20
-1.000000000000000E+20
 30
-1.000000000000000E+20
  9
$PLIMMIN
 10
0.0
 20
0.0
  9
$PLIMMAX
 10
420.0
 20
297.0
  9
$UNITMODE
 70
     0
  9
$VISRETAIN
 70
     1
  9
$PLINEGEN
 70
     0
  9
$PSLTSCALE
 70
     1
  9
$TREEDEPTH
 70
  3020
  9
$CMLSTYLE
  2
Standard
  9
$CMLJUST
 70
     0
  9
$CMLSCALE
 40
20.0
  9
$PROXYGRAPHICS
 70
     1
  9
$MEASUREMENT
 70
     1
  9
$CELWEIGHT
370
    -1
  9
$ENDCAPS
280
     0
  9
$JOINSTYLE
280
     0
  9
$LWDISPLAY
290
     0
  9
$INSUNITS
 70
     4
  9
$HYPERLINKBASE
  1

  9
$STYLESHEET
  1

  9
$XEDIT
290
     1
  9
$CEPSNTYPE
380
     0
  9
$PSTYLEMODE
290
     1
  9
$FINGERPRINTGUID
  2
{12E9E04E-3155-4882-9626-6D70E22401E6}
  9
$VERSIONGUID
  2
{FAEB1C32-E019-11D5-929B-00C0DF256EC4}
  9
$EXTNAMES
290
     1
  9
$PSVPSCALE
 40
0.0
  9
$OLESTARTUP
290
     0
  9
$SORTENTS
280
   127
  9
$INDEXCTL
280
     0
  9
$HIDETEXT
280
     1
  9
$XCLIPFRAME
280
     2
  9
$HALOGAP
280
     0
  9
$OBSCOLOR
 70
   257
  9
$OBSLTYPE
280
     0
  9
$INTERSECTIONDISPLAY
280
     0
  9
$INTERSECTIONCOLOR
 70
   257
  9
$DIMASSOC
280
     2
  9
$PROJECTNAME
  1

  9
$CAMERADISPLAY
290
     0
  9
$LENSLENGTH
 40
50.0
  9
$CAMERAHEIGHT
 40
0.0
  9
$STEPSPERSEC
 40
2.0
  9
$STEPSIZE
 40
6.0
  9
$3DDWFPREC
 40
2.0
  9
$PSOLWIDTH
 40
5.0
  9
$PSOLHEIGHT
 40
80.0
  9
$LOFTANG1
 40
1.570796326794897
  9
$LOFTANG2
 40
1.570796326794897
  9
$LOFTMAG1
 40
0.0
  9
$LOFTMAG2
 40
0.0
  9
$LOFTPARAM
 70
     7
  9
$LOFTNORMALS
280
     1
  9
$LATITUDE
 40
37.795
  9
$LONGITUDE
 40
-122.394
  9
$NORTHDIRECTION
 40
0.0
  9
$TIMEZONE
 70
 -8000
  9
$LIGHTGLYPHDISPLAY
280
     1
  9
$TILEMODELIGHTSYNCH
280
     1
  9
$CMATERIAL
347
44
  9
$SOLIDHIST
280
     0
  9
$SHOWHIST
280
     1
  9
$DWFFRAME
280
     2
  9
$DGNFRAME
280
     2
  9
$REALWORLDSCALE
290
     1
  9
$INTERFERECOLOR
 62
   256
  9
$CSHADOW
280
     0
  9
$SHADOWPLANELOCATION
 40
0.0
  0
ENDSEC
  0
SECTION
  2
CLASSES
  0
CLASS
  1
ACDBDICTIONARYWDFLT
  2
AcDbDictionaryWithDefault
  3
ObjectDBX Classes
 90
        0
 91
        4
280
     0
281
     0
  0
CLASS
  1
VISUALSTYLE
  2
AcDbVisualStyle
  3
ObjectDBX Classes
 90
     4095
 91
        4
280
     0
281
     0
  0
CLASS
  1
MATERIAL
  2
AcDbMaterial
  3
ObjectDBX Classes
 90
     1153
 91
        4
280
     0
281
     0
  0
CLASS
  1
SCALE
  2
AcDbScale
  3
ObjectDBX Classes
 90
     1153
 91
        4
280
     0
281
     0
  0
CLASS
  1
TABLESTYLE
  2
AcDbTableStyle
  3
ObjectDBX Classes
 90
     4095
 91
        4
280
     0
281
     0
  0
CLASS
  1
MLEADERSTYLE
  2
AcDbMLeaderStyle
  3
ACDB_MLEADERSTYLE_CLASS
 90
     4095
 91
        4
280
     0
281
     0
  0
CLASS
  1
SUN
  2
AcDbSun
  3
SCENEOE
 90
     1153
 91
        4
280
     0
281
     0
  0
CLASS
  1
DICTIONARYVAR
  2
AcDbDictionaryVar
  3
ObjectDBX Classes
 90
        0
 91
        4
280
     0
281
     0
  0
CLASS
  1
CELLSTYLEMAP
  2
AcDbCellStyleMap
  3
ObjectDBX Classes
 90
     1152
 91
        4
280
     0
281
     0
  0
ENDSEC
  0
SECTION
  2
TABLES
  0
TABLE
  2
VPORT
  5
8
330
0
100
AcDbSymbolTable
 70
     1
  0
VPORT
  5
29
330
8
100
AcDbSymbolTableRecord
100
AcDbViewportTableRecord
  2
*Active
 70
     0
 10
0.0
 20
0.0
 11
1.0
 21
1.0
 12
-7.035551852807657
 22
65.48697848033812
 13
0.0
 23
0.0
 14
10.0
 24
10.0
 15
10.0
 25
10.0
 16
0.0
 26
0.0
 36
1.0
 17
0.0
 27
0.0
 37
0.0
 40
174.3934360998898
 41
1.3784035176762
 42
50.0
 43
0.0
 44
0.0
 50
0.0
 51
0.0
 71
     0
 72
   100
 73
     1
 74
     3
 75
     0
 76
     0
 77
     0
 78
     0
281
     0
 65
     1
110
0.0
120
0.0
130
0.0
111
1.0
121
0.0
131
0.0
112
0.0
122
1.0
132
0.0
 79
     0
146
0.0
348
2F
 60
     3
 61
     5
292
     1
282
     1
141
0.0
142
0.0
 63
   250
361
6D
  0
ENDTAB
  0
TABLE
  2
LTYPE
  5
5
330
0
100
AcDbSymbolTable
 70
     3
  0
LTYPE
  5
14
330
5
100
AcDbSymbolTableRecord
100
AcDbLinetypeTableRecord
  2
ByBlock
 70
     0
  3

 72
    65
 73
     0
 40
0.0
  0
LTYPE
  5
15
330
5
100
AcDbSymbolTableRecord
100
AcDbLinetypeTableRecord
  2
ByLayer
 70
     0
  3

 72
    65
 73
     0
 40
0.0
  0
LTYPE
  5
16
330
5
100
AcDbSymbolTableRecord
100
AcDbLinetypeTableRecord
  2
Continuous
 70
     0
  3
Solid line
 72
    65
 73
     0
 40
0.0
  0
LTYPE
  5
81
330
5
100
AcDbSymbolTableRecord
100
AcDbLinetypeTableRecord
  2
Dashed
 70
     0
  3

 72
    65
 73
     2
 40
2.0
 49
1.0
 74
     0
 49
-1.0
 74
     0
  0
LTYPE
  5
16F
330
5
100
AcDbSymbolTableRecord
100
AcDbLinetypeTableRecord
  2
Center
 70
     0
  3

 72
    65
 73
     4
 40
1.5
 49
0.45
 74
     0
 49
-0.5
 74
     0
 49
0.05
 74
     0
 49
-0.5
 74
     0
  0
ENDTAB
  0
TABLE
  2
LAYER
  5
2
330
0
100
AcDbSymbolTable
 70
     5
  0
LAYER
  5
10
330
2
100
AcDbSymbolTableRecord
100
AcDbLayerTableRecord
  2
0
 70
     0
 62
     7
  6
Continuous
370
    -3
390
F
347
46
348
0
  0
LAYER
  5
6E
330
2
100
AcDbSymbolTableRecord
100
AcDbLayerTableRecord
  2
AM_6
 70
     0
 62
    -2
  6
Continuous
370
    35
390
F
347
46
348
0
  0
LAYER
  5
82
330
2
100
AcDbSymbolTableRecord
100
AcDbLayerTableRecord
  2
VER
 70
     0
 62
    -6
  6
Dashed
370
    25
390
F
347
46
348
0
  0
LAYER
  5
87
330
2
100
AcDbSymbolTableRecord
100
AcDbLayerTableRecord
  2
050
 70
     0
 62
     7
  6
Continuous
370
    50
390
F
347
46
348
0
  0
LAYER
  5
170
330
2
100
AcDbSymbolTableRecord
100
AcDbLayerTableRecord
  2
MITTE
 70
     0
 62
     7
  6
Center
370
    25
390
F
347
46
348
0
  0
ENDTAB
  0
TABLE
  2
STYLE
  5
3
330
0
100
AcDbSymbolTable
 70
     1
  0
STYLE
  5
11
330
3
100
AcDbSymbolTableRecord
100
AcDbTextStyleTableRecord
  2
Standard
 70
     0
 40
0.0
 41
1.0
 50
0.0
 71
     0
 42
2.5
  3
txt
  4

  0
ENDTAB
  0
TABLE
  2
VIEW
  5
6
330
0
100
AcDbSymbolTable
 70
     0
  0
ENDTAB
  0
TABLE
  2
UCS
  5
7
330
0
100
AcDbSymbolTable
 70
     0
  0
ENDTAB
  0
TABLE
  2
APPID
  5
9
330
0
100
AcDbSymbolTable
 70
     1
  0
APPID
  5
12
330
9
100
AcDbSymbolTableRecord
100
AcDbRegAppTableRecord
  2
ACAD
 70
     0
  0
ENDTAB
  0
TABLE
  2
DIMSTYLE
  5
A
330
0
100
AcDbSymbolTable
 70
     1
100
AcDbDimStyleTable
  0
DIMSTYLE
105
27
330
A
100
AcDbSymbolTableRecord
100
AcDbDimStyleTableRecord
  2
ISO-25
 70
     0
 41
2.5
 42
0.625
 43
3.75
 44
1.25
 73
     0
 74
     0
 77
     1
 78
     8
140
2.5
141
2.5
143
0.03937007874016
147
0.625
171
     3
172
     1
178
     0
271
     2
272
     2
274
     3
278
    44
283
     0
284
     8
340
11
  0
ENDTAB
  0
TABLE
  2
BLOCK_RECORD
  5
1
330
0
100
AcDbSymbolTable
 70
     1
  0
BLOCK_RECORD
  5
1F
330
1
100
AcDbSymbolTableRecord
100
AcDbBlockTableRecord
  2
*Model_Space
340
22
 70
     0
280
     1
281
     0
  0
BLOCK_RECORD
  5
1B
330
1
100
AcDbSymbolTableRecord
100
AcDbBlockTableRecord
  2
*Paper_Space
340
1E
 70
     0
280
     1
281
     0
  0
BLOCK_RECORD
  5
23
330
1
100
AcDbSymbolTableRecord
100
AcDbBlockTableRecord
  2
*Paper_Space0
340
26
 70
     0
280
     1
281
     0
  0
ENDTAB
  0
ENDSEC
  0
SECTION
  2
BLOCKS
  0
BLOCK
  5
20
330
1F
100
AcDbEntity
  8
0
100
AcDbBlockBegin
  2
*Model_Space
 70
     0
 10
0.0
 20
0.0
 30
0.0
  3
*Model_Space
  1

  0
ENDBLK
  5
21
330
1F
100
AcDbEntity
  8
0
100
AcDbBlockEnd
  0
BLOCK
  5
1C
330
1B
100
AcDbEntity
 67
     1
  8
0
100
AcDbBlockBegin
  2
*Paper_Space
 70
     0
 10
0.0
 20
0.0
 30
0.0
  3
*Paper_Space
  1

  0
ENDBLK
  5
1D
330
1B
100
AcDbEntity
 67
     1
  8
0
100
AcDbBlockEnd
  0
BLOCK
  5
24
330
23
100
AcDbEntity
  8
0
100
AcDbBlockBegin
  2
*Paper_Space0
 70
     0
 10
0.0
 20
0.0
 30
0.0
  3
*Paper_Space0
  1

  0
ENDBLK
  5
25
330
23
100
AcDbEntity
  8
0
100
AcDbBlockEnd
  0
ENDSEC
  0
SECTION
  2
ENTITIES
  0
ATTDEF
  5
6F
330
1F
100
AcDbEntity
  8
AM_6
100
AcDbText
 10
107.3
 20
150.3705908576483
 30
0.0
 40
0.5
  1
Geberit Mepla angle-seat stop valve
100
AcDbAttributeDefinition
  3

  2
NN
 70
     8
280
     0
  0
ATTDEF
  5
70
330
1F
100
AcDbEntity
  8
AM_6
100
AcDbText
 10
107.3
 20
149.8705908576483
 30
0.0
 40
0.5
  1

100
AcDbAttributeDefinition
  3

  2
NT
 70
     8
280
     0
  0
ATTDEF
  5
71
330
1F
100
AcDbEntity
  8
AM_6
100
AcDbText
 10
107.3
 20
149.3705908576483
 30
0.0
 40
0.5
  1
605032
100
AcDbAttributeDefinition
  3

  2
NB
 70
     8
280
     0
  0
ATTDEF
  5
72
330
1F
100
AcDbEntity
  8
AM_6
100
AcDbText
 10
107.3
 20
148.8705908576483
 30
0.0
 40
0.5
  1
$ARTNRTX.
100
AcDbAttributeDefinition
  3

  2
NBSYN
 70
     8
280
     0
  0
ATTDEF
  5
73
330
1F
100
AcDbEntity
  8
AM_6
100
AcDbText
 10
107.3
 20
148.3705908576483
 30
0.0
 40
0.5
  1
605032
100
AcDbAttributeDefinition
  3

  2
LINA
 70
     8
280
     0
  0
ATTDEF
  5
74
330
1F
100
AcDbEntity
  8
AM_6
100
AcDbText
 10
107.3
 20
147.8705908576483
 30
0.0
 40
0.5
  1
GEBERIT
100
AcDbAttributeDefinition
  3

  2
CATALOG
 70
     8
280
     0
  0
ATTDEF
  5
75
330
1F
100
AcDbEntity
  8
AM_6
100
AcDbText
 10
107.3
 20
147.3705908576483
 30
0.0
 40
0.5
  1
605.032.00.1
100
AcDbAttributeDefinition
  3

  2
ARTNRT
 70
     8
280
     0
  0
ATTDEF
  5
76
330
1F
100
AcDbEntity
  8
AM_6
100
AcDbText
 10
107.3
 20
146.8705908576483
 30
0.0
 40
0.5
  1
70
100
AcDbAttributeDefinition
  3

  2
DD
 70
     8
280
     0
  0
ATTDEF
  5
77
330
1F
100
AcDbEntity
  8
AM_6
100
AcDbText
 10
107.3
 20
146.3705908576483
 30
0.0
 40
0.5
  1
40
100
AcDbAttributeDefinition
  3

  2
D
 70
     8
280
     0
  0
ATTDEF
  5
78
330
1F
100
AcDbEntity
  8
AM_6
100
AcDbText
 10
107.3
 20
145.8705908576483
 30
0.0
 40
0.5
  1
32
100
AcDbAttributeDefinition
  3

  2
DN
 70
     8
280
     0
  0
ATTDEF
  5
79
330
1F
100
AcDbEntity
  8
AM_6
100
AcDbText
 10
107.3
 20
145.3705908576483
 30
0.0
 40
0.5
  1
32
100
AcDbAttributeDefinition
  3

  2
DNV
 70
     8
280
     0
  0
ATTDEF
  5
7A
330
1F
100
AcDbEntity
  8
AM_6
100
AcDbText
 10
107.3
 20
144.8705908576483
 30
0.0
 40
0.5
  1
186
100
AcDbAttributeDefinition
  3

  2
L
 70
     8
280
     0
  0
ATTDEF
  5
7B
330
1F
100
AcDbEntity
  8
AM_6
100
AcDbText
 10
107.3
 20
144.3705908576483
 30
0.0
 40
0.5
  1
68
100
AcDbAttributeDefinition
  3

  2
L1
 70
     8
280
     0
  0
ATTDEF
  5
7C
330
1F
100
AcDbEntity
  8
AM_6
100
AcDbText
 10
107.3
 20
143.8705908576483
 30
0.0
 40
0.5
  1
150
100
AcDbAttributeDefinition
  3

  2
L2
 70
     8
280
     0
  0
ATTDEF
  5
7D
330
1F
100
AcDbEntity
  8
AM_6
100
AcDbText
 10
107.3
 20
143.3705908576483
 30
0.0
 40
0.5
  1
32
100
AcDbAttributeDefinition
  3

  2
Z
 70
     8
280
     0
  0
ATTDEF
  5
7E
330
1F
100
AcDbEntity
  8
AM_6
100
AcDbText
 10
107.3
 20
142.8705908576483
 30
0.0
 40
0.5
  1
84
100
AcDbAttributeDefinition
  3

  2
Z1
 70
     8
280
     0
  0
ATTDEF
  5
7F
330
1F
100
AcDbEntity
  8
AM_6
100
AcDbText
 10
107.3
 20
142.3705908576483
 30
0.0
 40
0.5
  1
605032
100
AcDbAttributeDefinition
  3

  2
ARTNRTX
 70
     8
280
     0
  0
ATTDEF
  5
80
330
1F
100
AcDbEntity
  8
AM_6
100
AcDbText
 10
107.3
 20
141.8705908576483
 30
0.0
 40
0.5
  1
geberit
100
AcDbAttributeDefinition
  3

  2
COMPANY
 70
     8
280
     0
  0
LINE
  5
83
330
1F
100
AcDbEntity
  8
VER
100
AcDbLine
 10
-91.66759364261094
 20
117.167593642611
 30
0.0
 11
-98.95079348883235
 21
124.4507934888324
 31
0.0
  0
LINE
  5
84
330
1F
100
AcDbEntity
  8
VER
100
AcDbLine
 10
-110.4643110750007
 20
109.5262430882157
 30
0.0
 11
-111.3224033788201
 21
110.6649700364715
 31
0.0
  0
LINE
  5
85
330
1F
100
AcDbEntity
  8
VER
100
AcDbLine
 10
-107.5278010270429
 20
114.4595723882485
 30
0.0
 11
-108.187791041691
 21
115.2137959359737
 31
0.0
  0
LINE
  5
86
330
1F
100
AcDbEntity
  8
VER
100
AcDbLine
 10
-112.2761573070825
 20
108.160919021867
 30
0.0
 11
-112.942365826978
 21
109.0450075883137
 31
0.0
  0
LINE
  5
88
330
1F
100
AcDbEntity
  8
050
100
AcDbLine
 10
-67.03537646816905
 20
141.7998108170528
 30
0.0
 11
-75.12344499461331
 21
149.8878793434971
 31
0.0
  0
LINE
  5
89
330
1F
100
AcDbEntity
  8
050
100
AcDbLine
 10
-124.3878793434972
 20
100.6234449946134
 30
0.0
 11
-116.2998108170529
 21
92.53537646816906
 31
0.0
  0
LINE
  5
8A
330
1F
100
AcDbEntity
  8
050
100
AcDbLine
 10
11.75
 20
65.22500000000001
 30
0.0
 11
11.75
 21
56.892
 31
0.0
  0
LINE
  5
8B
330
1F
100
AcDbEntity
  8
050
100
AcDbLine
 10
39.25
 20
56.892
 30
0.0
 11
39.25
 21
65.22500000000001
 31
0.0
  0
LINE
  5
8C
330
1F
100
AcDbEntity
  8
VER
100
AcDbLine
 10
-82.82680254782422
 20
139.1605708674667
 30
0.0
 11
-83.53102274787257
 21
139.870564229792
 31
0.0
  0
LINE
  5
8D
330
1F
100
AcDbEntity
  8
VER
100
AcDbLine
 10
-78.1983240191993
 20
143.6982208963618
 30
0.0
 11
-78.25012082564794
 21
143.7372525896436
 31
0.0
  0
LINE
  5
8E
330
1F
100
AcDbEntity
  8
VER
100
AcDbLine
 10
-84.47970574672944
 20
142.0091063667118
 30
0.0
 11
-93.28282566352664
 21
130.3269716670226
 31
0.0
  0
LINE
  5
8F
330
1F
100
AcDbEntity
  8
VER
100
AcDbLine
 10
-78.1983240191993
 20
143.6982208963618
 30
0.0
 11
-90.48852498350394
 21
127.3885733500072
 31
0.0
  0
LINE
  5
90
330
1F
100
AcDbEntity
  8
050
100
AcDbLine
 10
-70.31455984103488
 20
104.2998412152734
 30
0.0
 11
-85.33898795099137
 21
119.3242693252299
 31
0.0
  0
LINE
  5
91
330
1F
100
AcDbEntity
  8
050
100
AcDbLine
 10
-93.82426932522993
 20
110.8389879509913
 30
0.0
 11
-78.79984121527345
 21
95.81455984103486
 31
0.0
  0
ARC
  5
92
330
1F
100
AcDbEntity
  8
VER
100
AcDbCircle
 10
-97.53657992645928
 20
127.2792206135786
 30
0.0
 40
2.999999999999974
100
AcDbArc
 50
44.99999999999944
 51
135.0000000000004
  0
ARC
  5
93
330
1F
100
AcDbEntity
  8
VER
100
AcDbCircle
 10
-101.7792206135786
 20
123.0365799264593
 30
0.0
 40
2.999999999999984
100
AcDbArc
 50
134.9999999999992
 51
225.0
  0
LINE
  5
94
330
1F
100
AcDbEntity
  8
VER
100
AcDbLine
 10
-106.2036295540485
 20
117.7454395371524
 30
0.0
 11
-103.419049928321
 21
114.8352281593281
 31
0.0
  0
LINE
  5
95
330
1F
100
AcDbEntity
  8
VER
100
AcDbLine
 10
-106.7289680818844
 20
118.0868324581534
 30
0.0
 11
-92.58683245815341
 21
132.2289680818844
 31
0.0
  0
LINE
  5
96
330
1F
100
AcDbEntity
  8
VER
100
AcDbLine
 10
-103.390077073274
 20
114.8570607715918
 30
0.0
 11
-106.1532284995985
 21
117.7834194558625
 31
0.0
  0
LINE
  5
97
330
1F
100
AcDbEntity
  8
VER
100
AcDbLine
 10
-99.43652649799779
 20
122.8448174525023
 30
0.0
 11
-96.93846892751195
 21
119.718696219507
 31
0.0
  0
LINE
  5
98
330
1F
100
AcDbEntity
  8
VER
100
AcDbLine
 10
-93.28282566352661
 20
130.3269716670226
 30
0.0
 11
-90.48852498350388
 21
127.3885733500072
 31
0.0
  0
LINE
  5
99
330
1F
100
AcDbEntity
  8
050
100
AcDbLine
 10
-96.65269644997609
 20
108.0105608262451
 30
0.0
 11
-82.51056082624514
 21
122.152696449976
 31
0.0
  0
LINE
  5
9A
330
1F
100
AcDbEntity
  8
VER
100
AcDbLine
 10
-84.59652583074546
 20
124.2386614544764
 30
0.0
 11
-89.31016897086887
 21
128.9523045945998
 31
0.0
  0
LINE
  5
9B
330
1F
100
AcDbEntity
  8
050
100
AcDbLine
 10
-82.51056082624511
 20
122.1526964499761
 30
0.0
 11
-84.59652583074546
 21
124.2386614544764
 31
0.0
  0
LINE
  5
9C
330
1F
100
AcDbEntity
  8
VER
100
AcDbLine
 10
-92.16639266829712
 20
131.8085282920281
 30
0.0
 11
-92.58683245815341
 21
132.2289680818844
 31
0.0
  0
LINE
  5
9D
330
1F
100
AcDbEntity
  8
050
100
AcDbLine
 10
-98.73866145447643
 20
110.0965258307455
 30
0.0
 11
-96.6526964499761
 21
108.0105608262451
 31
0.0
  0
LINE
  5
9E
330
1F
100
AcDbEntity
  8
VER
100
AcDbLine
 10
-106.7289680818844
 20
118.0868324581535
 30
0.0
 11
-98.73866145447643
 21
110.0965258307455
 31
0.0
  0
LINE
  5
9F
330
1F
100
AcDbEntity
  8
050
100
AcDbLine
 10
39.18942735665289
 20
65.22500000000001
 30
0.0
 11
39.18942735665289
 21
56.892
 31
0.0
  0
LINE
  5
A0
330
1F
100
AcDbEntity
  8
050
100
AcDbLine
 10
11.81057264334711
 20
65.22500000000001
 30
0.0
 11
11.81057264334711
 21
56.892
 31
0.0
  0
LINE
  5
A1
330
1F
100
AcDbEntity
  8
050
100
AcDbLine
 10
-39.37916849420931
 20
83.26394480505952
 30
0.0
 11
-65.36467377177937
 21
109.249727284529
 31
0.0
  0
LINE
  5
A2
330
1F
100
AcDbEntity
  8
050
100
AcDbLine
 10
-58.41176209284689
 20
93.10428884922167
 30
0.0
 11
-69.96093714996677
 21
104.6534639063416
 31
0.0
  0
LINE
  5
A3
330
1F
100
AcDbEntity
  8
050
100
AcDbLine
 10
-83.74972728452897
 20
90.86467377177935
 30
0.0
 11
-65.36467377177937
 21
109.249727284529
 31
0.0
  0
LINE
  5
A4
330
1F
100
AcDbEntity
  8
050
100
AcDbLine
 10
-57.76394480505954
 20
64.8791684942093
 30
0.0
 11
-83.74972728452897
 21
90.86467377177935
 31
0.0
  0
LINE
  5
A5
330
1F
100
AcDbEntity
  8
050
100
AcDbLine
 10
-67.60428884922167
 20
83.91176209284687
 30
0.0
 11
-79.15346390634157
 21
95.46093714996675
 31
0.0
  0
LINE
  5
A6
330
1F
100
AcDbEntity
  8
050
100
AcDbLine
 10
13.1855
 20
55.892
 30
0.0
 11
13.1855
 21
40.57448760152028
 31
0.0
  0
LINE
  5
A7
330
1F
100
AcDbEntity
  8
050
100
AcDbLine
 10
37.8145
 20
20.0
 30
0.0
 11
37.8145
 21
55.892
 31
0.0
  0
LINE
  5
A8
330
1F
100
AcDbEntity
  8
050
100
AcDbLine
 10
37.8145
 20
55.892
 30
0.0
 11
13.1855
 21
55.892
 31
0.0
  0
LINE
  5
A9
330
1F
100
AcDbEntity
  8
050
100
AcDbLine
 10
14.1855
 20
56.892
 30
0.0
 11
13.1855
 21
55.892
 31
0.0
  0
LINE
  5
AA
330
1F
100
AcDbEntity
  8
050
100
AcDbLine
 10
37.8145
 20
55.892
 30
0.0
 11
36.8145
 21
56.892
 31
0.0
  0
LINE
  5
AB
330
1F
100
AcDbEntity
  8
VER
100
AcDbLine
 10
83.92999999999998
 20
12.4
 30
0.0
 11
-83.92999999999998
 21
12.4
 31
0.0
  0
LINE
  5
AC
330
1F
100
AcDbEntity
  8
VER
100
AcDbLine
 10
-83.92999999999996
 20
-12.4
 30
0.0
 11
83.92999999999998
 21
-12.4
 31
0.0
  0
LINE
  5
AD
330
1F
100
AcDbEntity
  8
050
100
AcDbLine
 10
17.53879226204192
 20
65.22500000000001
 30
0.0
 11
17.53879226204192
 21
56.892
 31
0.0
  0
LINE
  5
AE
330
1F
100
AcDbEntity
  8
050
100
AcDbLine
 10
19.7717803813052
 20
65.22500000000001
 30
0.0
 11
19.7717803813052
 21
56.892
 31
0.0
  0
LINE
  5
AF
330
1F
100
AcDbEntity
  8
050
100
AcDbLine
 10
11.75
 20
65.22500000000001
 30
0.0
 11
39.25
 21
65.22500000000001
 31
0.0
  0
LINE
  5
B0
330
1F
100
AcDbEntity
  8
050
100
AcDbLine
 10
11.75
 20
56.892
 30
0.0
 11
39.25
 21
56.892
 31
0.0
  0
LINE
  5
B1
330
1F
100
AcDbEntity
  8
050
100
AcDbLine
 10
33.46120773795809
 20
65.22500000000001
 30
0.0
 11
33.46120773795809
 21
56.892
 31
0.0
  0
LINE
  5
B2
330
1F
100
AcDbEntity
  8
050
100
AcDbLine
 10
31.2282196186948
 20
65.22500000000001
 30
0.0
 11
31.2282196186948
 21
56.892
 31
0.0
  0
LINE
  5
B3
330
1F
100
AcDbEntity
  8
050
100
AcDbLine
 10
-72.20041362332456
 20
79.315637318744
 30
0.0
 11
-53.81563731874401
 21
97.70041362332456
 31
0.0
  0
LINE
  5
B4
330
1F
100
AcDbEntity
  8
VER
100
AcDbLine
 10
-110.8215397692934
 20
111.1658336459982
 30
0.0
 11
-111.4771664139544
 21
111.9244205637102
 31
0.0
  0
LINE
  5
B5
330
1F
100
AcDbEntity
  8
VER
100
AcDbLine
 10
-111.1461015625593
 20
112.2554854151054
 30
0.0
 11
-110.4941582551315
 21
111.4932151601602
 31
0.0
  0
LINE
  5
B6
330
1F
100
AcDbEntity
  8
VER
100
AcDbLine
 10
-114.5071426749364
 20
108.8944443027283
 30
0.0
 11
-113.8000358937499
 21
108.1873375215418
 31
0.0
  0
LINE
  5
B7
330
1F
100
AcDbEntity
  8
VER
100
AcDbLine
 10
83.92999999999998
 20
-12.4
 30
0.0
 11
83.92999999999998
 21
12.4
 31
0.0
  0
LINE
  5
B8
330
1F
100
AcDbEntity
  8
VER
100
AcDbLine
 10
83.92999999999998
 20
-12.4
 30
0.0
 11
92.58682408883348
 21
-13.92643165410832
 31
0.0
  0
LINE
  5
B9
330
1F
100
AcDbEntity
  8
VER
100
AcDbLine
 10
92.58682408883348
 20
13.92643165410832
 30
0.0
 11
83.92999999999998
 21
12.4
 31
0.0
  0
LINE
  5
BA
330
1F
100
AcDbEntity
  8
VER
100
AcDbLine
 10
-83.92999999999996
 20
-12.4
 30
0.0
 11
-83.92999999999996
 21
12.4
 31
0.0
  0
LINE
  5
BB
330
1F
100
AcDbEntity
  8
VER
100
AcDbLine
 10
-83.92999999999996
 20
12.4
 30
0.0
 11
-92.58682408883347
 21
13.92643165410832
 31
0.0
  0
LINE
  5
BC
330
1F
100
AcDbEntity
  8
VER
100
AcDbLine
 10
-92.58682408883347
 20
-13.92643165410832
 30
0.0
 11
-83.92999999999996
 21
-12.4
 31
0.0
  0
LINE
  5
BD
330
1F
100
AcDbEntity
  8
050
100
AcDbLine
 10
78.80000000000001
 20
14.3
 30
0.0
 11
71.6
 21
14.3
 31
0.0
  0
LINE
  5
BE
330
1F
100
AcDbEntity
  8
050
100
AcDbLine
 10
71.6
 20
-14.3
 30
0.0
 11
78.80000000000001
 21
-14.3
 31
0.0
  0
LINE
  5
BF
330
1F
100
AcDbEntity
  8
050
100
AcDbLine
 10
-71.6
 20
14.3
 30
0.0
 11
-78.8
 21
14.3
 31
0.0
  0
LINE
  5
C0
330
1F
100
AcDbEntity
  8
050
100
AcDbLine
 10
-78.8
 20
-14.3
 30
0.0
 11
-71.6
 21
-14.3
 31
0.0
  0
LINE
  5
C1
330
1F
100
AcDbEntity
  8
VER
100
AcDbLine
 10
-92.58682408883347
 20
-13.92643165410832
 30
0.0
 11
-92.58682408883347
 21
13.92643165410832
 31
0.0
  0
ARC
  5
C2
330
1F
100
AcDbEntity
  8
VER
100
AcDbCircle
 10
-92.49999999999999
 20
14.41883553061444
 30
0.0
 40
0.5000000000000142
100
AcDbArc
 50
180.0000000000014
 51
259.9999999999984
  0
ARC
  5
C3
330
1F
100
AcDbEntity
  8
VER
100
AcDbCircle
 10
-92.49999999999999
 20
-14.41883553061444
 30
0.0
 40
0.500000000000012
100
AcDbArc
 50
100.0000000000016
 51
179.9999999999986
  0
LINE
  5
C4
330
1F
100
AcDbEntity
  8
VER
100
AcDbLine
 10
92.58682408883348
 20
-13.92643165410832
 30
0.0
 11
92.58682408883348
 21
13.92643165410832
 31
0.0
  0
ARC
  5
C5
330
1F
100
AcDbEntity
  8
VER
100
AcDbCircle
 10
92.50000000000003
 20
14.4188355306144
 30
0.0
 40
0.4999999999999703
100
AcDbArc
 50
279.9999999999991
 51
0.0000000000030533
  0
ARC
  5
C6
330
1F
100
AcDbEntity
  8
VER
100
AcDbCircle
 10
92.50000000000003
 20
-14.4188355306144
 30
0.0
 40
0.4999999999999716
100
AcDbArc
 50
359.9999999999969
 51
80.00000000000085
  0
LINE
  5
C7
330
1F
100
AcDbEntity
  8
050
100
AcDbLine
 10
65.1
 20
15.15
 30
0.0
 11
64.6
 21
15.15
 31
0.0
  0
LINE
  5
C8
330
1F
100
AcDbEntity
  8
050
100
AcDbLine
 10
64.6
 20
-15.15
 30
0.0
 11
65.1
 21
-15.15
 31
0.0
  0
LINE
  5
C9
330
1F
100
AcDbEntity
  8
050
100
AcDbLine
 10
-63.1
 20
15.15
 30
0.0
 11
-63.6
 21
15.15
 31
0.0
  0
LINE
  5
CA
330
1F
100
AcDbEntity
  8
050
100
AcDbLine
 10
-63.6
 20
-15.15
 30
0.0
 11
-63.1
 21
-15.15
 31
0.0
  0
LINE
  5
CB
330
1F
100
AcDbEntity
  8
050
100
AcDbLine
 10
-64.6
 20
15.15
 30
0.0
 11
-65.1
 21
15.15
 31
0.0
  0
LINE
  5
CC
330
1F
100
AcDbEntity
  8
050
100
AcDbLine
 10
-65.1
 20
-15.15
 30
0.0
 11
-64.6
 21
-15.15
 31
0.0
  0
LINE
  5
CD
330
1F
100
AcDbEntity
  8
050
100
AcDbLine
 10
63.60000000000002
 20
15.15
 30
0.0
 11
63.10000000000002
 21
15.15
 31
0.0
  0
LINE
  5
CE
330
1F
100
AcDbEntity
  8
050
100
AcDbLine
 10
63.10000000000002
 20
-15.15
 30
0.0
 11
63.60000000000002
 21
-15.15
 31
0.0
  0
LINE
  5
CF
330
1F
100
AcDbEntity
  8
050
100
AcDbLine
 10
-58.5
 20
15.5
 30
0.0
 11
-62.1
 21
15.5
 31
0.0
  0
LINE
  5
D0
330
1F
100
AcDbEntity
  8
050
100
AcDbLine
 10
-62.1
 20
-15.5
 30
0.0
 11
-58.5
 21
-15.5
 31
0.0
  0
LINE
  5
D1
330
1F
100
AcDbEntity
  8
050
100
AcDbLine
 10
62.10000000000002
 20
15.5
 30
0.0
 11
58.5
 21
15.5
 31
0.0
  0
LINE
  5
D2
330
1F
100
AcDbEntity
  8
050
100
AcDbLine
 10
58.5
 20
-15.5
 30
0.0
 11
62.10000000000002
 21
-15.5
 31
0.0
  0
LINE
  5
D3
330
1F
100
AcDbEntity
  8
050
100
AcDbLine
 10
-93.0
 20
-15.28436014752909
 30
0.0
 11
-93.0
 21
15.28436014335711
 31
0.0
  0
ARC
  5
D4
330
1F
100
AcDbEntity
  8
050
100
AcDbCircle
 10
-92.60000000000004
 20
15.28436014752911
 30
0.0
 40
0.399999999999971
100
AcDbArc
 50
99.99999999999515
 51
180.0000000000031
  0
ARC
  5
D5
330
1F
100
AcDbEntity
  8
050
100
AcDbCircle
 10
-92.60000000000004
 20
-15.28436014752911
 30
0.0
 40
0.3999999999999631
100
AcDbArc
 50
179.9999999999969
 51
260.0000000000049
  0
LINE
  5
D6
330
1F
100
AcDbEntity
  8
050
100
AcDbLine
 10
93.0
 20
-15.28436014752909
 30
0.0
 11
93.0
 21
15.28436014335711
 31
0.0
  0
ARC
  5
D7
330
1F
100
AcDbEntity
  8
050
100
AcDbCircle
 10
92.60000000000004
 20
15.28436014752912
 30
0.0
 40
0.3999999999999631
100
AcDbArc
 50
359.9999999999952
 51
80.00000000000674
  0
ARC
  5
D8
330
1F
100
AcDbEntity
  8
050
100
AcDbCircle
 10
92.60000000000004
 20
-15.28436014752912
 30
0.0
 40
0.3999999999999633
100
AcDbArc
 50
279.9999999999933
 51
0.0000000000048344
  0
LINE
  5
D9
330
1F
100
AcDbEntity
  8
050
100
AcDbLine
 10
63.60000000000002
 20
-15.85020753820971
 30
0.0
 11
63.60000000000002
 21
15.85020753820971
 31
0.0
  0
LINE
  5
DA
330
1F
100
AcDbEntity
  8
050
100
AcDbLine
 10
64.6
 20
-15.15
 30
0.0
 11
64.6
 21
15.15
 31
0.0
  0
LINE
  5
DB
330
1F
100
AcDbEntity
  8
050
100
AcDbLine
 10
64.6
 20
15.15
 30
0.0
 11
63.60000000000002
 21
15.85020753820971
 31
0.0
  0
LINE
  5
DC
330
1F
100
AcDbEntity
  8
050
100
AcDbLine
 10
63.60000000000002
 20
-15.85020753820971
 30
0.0
 11
64.6
 21
-15.15
 31
0.0
  0
LINE
  5
DD
330
1F
100
AcDbEntity
  8
050
100
AcDbLine
 10
-63.1
 20
-15.15
 30
0.0
 11
-63.1
 21
15.15
 31
0.0
  0
LINE
  5
DE
330
1F
100
AcDbEntity
  8
050
100
AcDbLine
 10
-62.1
 20
-15.85020753820971
 30
0.0
 11
-62.1
 21
15.85020753820971
 31
0.0
  0
LINE
  5
DF
330
1F
100
AcDbEntity
  8
050
100
AcDbLine
 10
-63.1
 20
-15.15
 30
0.0
 11
-62.1
 21
-15.85020753820971
 31
0.0
  0
LINE
  5
E0
330
1F
100
AcDbEntity
  8
050
100
AcDbLine
 10
-62.1
 20
15.85020753820971
 30
0.0
 11
-63.1
 21
15.15
 31
0.0
  0
LINE
  5
E1
330
1F
100
AcDbEntity
  8
050
100
AcDbLine
 10
-64.6
 20
-15.15
 30
0.0
 11
-64.6
 21
15.15
 31
0.0
  0
LINE
  5
E2
330
1F
100
AcDbEntity
  8
050
100
AcDbLine
 10
-63.6
 20
-15.85020753820971
 30
0.0
 11
-63.6
 21
15.85020753820971
 31
0.0
  0
LINE
  5
E3
330
1F
100
AcDbEntity
  8
050
100
AcDbLine
 10
-64.6
 20
-15.15
 30
0.0
 11
-63.6
 21
-15.85020753820971
 31
0.0
  0
LINE
  5
E4
330
1F
100
AcDbEntity
  8
050
100
AcDbLine
 10
-63.6
 20
15.85020753820971
 30
0.0
 11
-64.6
 21
15.15
 31
0.0
  0
LINE
  5
E5
330
1F
100
AcDbEntity
  8
050
100
AcDbLine
 10
62.10000000000002
 20
-15.85020753820971
 30
0.0
 11
62.10000000000002
 21
15.85020753820971
 31
0.0
  0
LINE
  5
E6
330
1F
100
AcDbEntity
  8
050
100
AcDbLine
 10
63.10000000000002
 20
-15.15
 30
0.0
 11
63.10000000000002
 21
15.15
 31
0.0
  0
LINE
  5
E7
330
1F
100
AcDbEntity
  8
050
100
AcDbLine
 10
63.10000000000002
 20
15.15
 30
0.0
 11
62.10000000000002
 21
15.85020753820971
 31
0.0
  0
LINE
  5
E8
330
1F
100
AcDbEntity
  8
050
100
AcDbLine
 10
62.10000000000002
 20
-15.85020753820971
 30
0.0
 11
63.10000000000002
 21
-15.15
 31
0.0
  0
LINE
  5
E9
330
1F
100
AcDbEntity
  8
050
100
AcDbLine
 10
54.40000000000001
 20
16.0
 30
0.0
 11
49.72499999999999
 21
16.0
 31
0.0
  0
LINE
  5
EA
330
1F
100
AcDbEntity
  8
050
100
AcDbLine
 10
49.72499999999999
 20
-16.0
 30
0.0
 11
54.40000000000001
 21
-16.0
 31
0.0
  0
LINE
  5
EB
330
1F
100
AcDbEntity
  8
050
100
AcDbLine
 10
-49.72500000000001
 20
16.0
 30
0.0
 11
-54.4
 21
16.0
 31
0.0
  0
LINE
  5
EC
330
1F
100
AcDbEntity
  8
050
100
AcDbLine
 10
-54.4
 20
-16.0
 30
0.0
 11
-49.72500000000001
 21
-16.0
 31
0.0
  0
LINE
  5
ED
330
1F
100
AcDbEntity
  8
050
100
AcDbLine
 10
65.1
 20
-16.325
 30
0.0
 11
65.1
 21
16.325
 31
0.0
  0
LINE
  5
EE
330
1F
100
AcDbEntity
  8
050
100
AcDbLine
 10
71.6
 20
-16.325
 30
0.0
 11
71.6
 21
16.325
 31
0.0
  0
LINE
  5
EF
330
1F
100
AcDbEntity
  8
050
100
AcDbLine
 10
71.6
 20
16.325
 30
0.0
 11
65.1
 21
16.325
 31
0.0
  0
LINE
  5
F0
330
1F
100
AcDbEntity
  8
050
100
AcDbLine
 10
65.1
 20
-16.325
 30
0.0
 11
71.6
 21
-16.325
 31
0.0
  0
LINE
  5
F1
330
1F
100
AcDbEntity
  8
050
100
AcDbLine
 10
-78.8
 20
-16.325
 30
0.0
 11
-78.8
 21
16.325
 31
0.0
  0
LINE
  5
F2
330
1F
100
AcDbEntity
  8
050
100
AcDbLine
 10
-78.8
 20
16.325
 30
0.0
 11
-83.34000000000002
 21
16.325
 31
0.0
  0
LINE
  5
F3
330
1F
100
AcDbEntity
  8
050
100
AcDbLine
 10
-83.34000000000002
 20
-16.325
 30
0.0
 11
-78.8
 21
-16.325
 31
0.0
  0
LINE
  5
F4
330
1F
100
AcDbEntity
  8
050
100
AcDbLine
 10
78.80000000000001
 20
-16.325
 30
0.0
 11
78.80000000000001
 21
16.325
 31
0.0
  0
LINE
  5
F5
330
1F
100
AcDbEntity
  8
050
100
AcDbLine
 10
83.34
 20
16.325
 30
0.0
 11
78.80000000000001
 21
16.325
 31
0.0
  0
LINE
  5
F6
330
1F
100
AcDbEntity
  8
050
100
AcDbLine
 10
78.80000000000001
 20
-16.325
 30
0.0
 11
83.34
 21
-16.325
 31
0.0
  0
LINE
  5
F7
330
1F
100
AcDbEntity
  8
050
100
AcDbLine
 10
-71.6
 20
-16.325
 30
0.0
 11
-71.6
 21
16.325
 31
0.0
  0
LINE
  5
F8
330
1F
100
AcDbEntity
  8
050
100
AcDbLine
 10
-65.1
 20
-16.325
 30
0.0
 11
-65.1
 21
16.325
 31
0.0
  0
LINE
  5
F9
330
1F
100
AcDbEntity
  8
050
100
AcDbLine
 10
-65.1
 20
16.325
 30
0.0
 11
-71.6
 21
16.325
 31
0.0
  0
LINE
  5
FA
330
1F
100
AcDbEntity
  8
050
100
AcDbLine
 10
-71.6
 20
-16.325
 30
0.0
 11
-65.1
 21
-16.325
 31
0.0
  0
LINE
  5
FB
330
1F
100
AcDbEntity
  8
050
100
AcDbLine
 10
83.34
 20
-16.325
 30
0.0
 11
83.34
 21
16.325
 31
0.0
  0
ARC
  5
FC
330
1F
100
AcDbEntity
  8
050
100
AcDbCircle
 10
86.17087315858475
 20
19.42760489911372
 30
0.0
 40
4.200000000000006
100
AcDbArc
 50
227.6221064667627
 51
312.3778935332372
  0
ARC
  5
FD
330
1F
100
AcDbEntity
  8
050
100
AcDbCircle
 10
86.17087315858475
 20
-19.42760489911372
 30
0.0
 40
4.200000000000004
100
AcDbArc
 50
47.62210646676273
 51
132.3778935332373
  0
LINE
  5
FE
330
1F
100
AcDbEntity
  8
050
100
AcDbLine
 10
89.0017463171695
 20
-16.325
 30
0.0
 11
89.0017463171695
 21
16.325
 31
0.0
  0
LINE
  5
FF
330
1F
100
AcDbEntity
  8
050
100
AcDbLine
 10
92.66945927106676
 20
-15.67828324873398
 30
0.0
 11
92.66945927106676
 21
15.67828324873398
 31
0.0
  0
LINE
  5
100
330
1F
100
AcDbEntity
  8
050
100
AcDbLine
 10
92.66945927106676
 20
15.67828324873398
 30
0.0
 11
89.0017463171695
 21
16.325
 31
0.0
  0
LINE
  5
101
330
1F
100
AcDbEntity
  8
050
100
AcDbLine
 10
89.0017463171695
 20
-16.325
 30
0.0
 11
92.66945927106676
 21
-15.67828324873398
 31
0.0
  0
LINE
  5
102
330
1F
100
AcDbEntity
  8
050
100
AcDbLine
 10
-92.66945927106677
 20
-15.67828324873397
 30
0.0
 11
-92.66945927106677
 21
15.67828324873397
 31
0.0
  0
LINE
  5
103
330
1F
100
AcDbEntity
  8
050
100
AcDbLine
 10
-92.66945927106677
 20
-15.67828324873397
 30
0.0
 11
-89.0017463171695
 21
-16.32500000000001
 31
0.0
  0
LINE
  5
104
330
1F
100
AcDbEntity
  8
050
100
AcDbLine
 10
-89.0017463171695
 20
16.32500000000001
 30
0.0
 11
-92.66945927106677
 21
15.67828324873397
 31
0.0
  0
LINE
  5
105
330
1F
100
AcDbEntity
  8
050
100
AcDbLine
 10
-89.0017463171695
 20
-16.32500000000001
 30
0.0
 11
-89.0017463171695
 21
16.32500000000001
 31
0.0
  0
LINE
  5
106
330
1F
100
AcDbEntity
  8
050
100
AcDbLine
 10
-83.34000000000002
 20
-16.325
 30
0.0
 11
-83.34000000000002
 21
16.325
 31
0.0
  0
ARC
  5
107
330
1F
100
AcDbEntity
  8
050
100
AcDbCircle
 10
-86.17087315858475
 20
19.42760489911369
 30
0.0
 40
4.199999999999974
100
AcDbArc
 50
227.6221064667623
 51
312.3778935332374
  0
ARC
  5
108
330
1F
100
AcDbEntity
  8
050
100
AcDbCircle
 10
-86.17087315858475
 20
-19.42760489911369
 30
0.0
 40
4.199999999999975
100
AcDbArc
 50
47.62210646676262
 51
132.3778935332377
  0
LINE
  5
109
330
1F
100
AcDbEntity
  8
050
100
AcDbLine
 10
-31.60099390115728
 20
81.84973124268643
 30
0.0
 11
-33.01520746353038
 21
83.26394480505954
 31
0.0
  0
LINE
  5
10A
330
1F
100
AcDbEntity
  8
050
100
AcDbLine
 10
-57.76394480505954
 20
58.51520746353037
 30
0.0
 11
-56.34973124268645
 21
57.10099390115727
 31
0.0
  0
LINE
  5
10B
330
1F
100
AcDbEntity
  8
050
100
AcDbLine
 10
-57.76394480505954
 20
64.8791684942093
 30
0.0
 11
-39.37916849420931
 21
83.26394480505952
 31
0.0
  0
LINE
  5
10C
330
1F
100
AcDbEntity
  8
050
100
AcDbLine
 10
-57.76394480505952
 20
58.51520746353037
 30
0.0
 11
-33.01520746353037
 21
83.26394480505952
 31
0.0
  0
LINE
  5
10D
330
1F
100
AcDbEntity
  8
050
100
AcDbLine
 10
-57.76394480505953
 20
64.8791684942093
 30
0.0
 11
-57.76394480505953
 21
58.51520746353037
 31
0.0
  0
LINE
  5
10E
330
1F
100
AcDbEntity
  8
050
100
AcDbLine
 10
-33.01520746353037
 20
83.26394480505952
 30
0.0
 11
-39.37916849420931
 21
83.26394480505952
 31
0.0
  0
LINE
  5
10F
330
1F
100
AcDbEntity
  8
050
100
AcDbLine
 10
-56.34973124268645
 20
57.10099390115727
 30
0.0
 11
-31.60099390115731
 21
81.84973124268642
 31
0.0
  0
LINE
  5
110
330
1F
100
AcDbEntity
  8
050
100
AcDbLine
 10
-56.34973124268645
 20
57.10099390115727
 30
0.0
 11
-57.67645679763665
 21
52.14958672238307
 31
0.0
  0
LINE
  5
111
330
1F
100
AcDbEntity
  8
050
100
AcDbLine
 10
-26.64958672238305
 20
83.17645679763665
 30
0.0
 11
-31.60099390115731
 21
81.84973124268642
 31
0.0
  0
LINE
  5
112
330
1F
100
AcDbEntity
  8
050
100
AcDbLine
 10
-26.64958672238306
 20
83.17645679763665
 30
0.0
 11
-10.07715122344482
 21
66.60402129869841
 31
0.0
  0
LWPOLYLINE
  5
113
330
1F
100
AcDbEntity
  8
050
100
AcDbPolyline
 90
        9
 70
     0
 43
0.0
 10
-34.40630424119645
 20
75.41973927882326
 10
-33.91943893259148
 20
76.95002477405447
 10
-33.2869007950367
 20
78.36349729426995
 10
-32.46224258576216
 20
79.65551385152328
 10
-31.4455069552998
 20
80.76739707713662
 10
-30.42746130421335
 20
81.55977855565696
 10
-29.2846413644511
 20
82.2147055915854
 10
-28.01167663372297
 20
82.75166618441803
 10
-26.64958672238306
 20
83.17645679763665
  0
LINE
  5
114
330
1F
100
AcDbEntity
  8
050
100
AcDbLine
 10
-57.67645679763665
 20
52.14958672238307
 30
0.0
 11
-41.10402129869842
 21
35.57715122344484
 31
0.0
  0
LWPOLYLINE
  5
115
330
1F
100
AcDbEntity
  8
050
100
AcDbPolyline
 90
        9
 70
     0
 43
0.0
 10
-57.67645679763665
 20
52.14958672238307
 10
-57.18959148903168
 20
53.67987221761428
 10
-56.5570533514769
 20
55.09334473782977
 10
-55.73239514220236
 20
56.38536129508309
 10
-54.71565951174
 20
57.49724452069643
 10
-53.69761386065355
 20
58.28962599921677
 10
-52.55479392089131
 20
58.94455303514522
 10
-51.28182919016317
 20
59.48151362797783
 10
-49.91973927882324
 20
59.90630424119646
  0
LINE
  5
116
330
1F
100
AcDbEntity
  8
050
100
AcDbLine
 10
-49.91973927882324
 20
59.90630424119646
 30
0.0
 11
-33.34730377988502
 21
43.33386874225823
 31
0.0
  0
LINE
  5
117
330
1F
100
AcDbEntity
  8
050
100
AcDbLine
 10
-34.40630424119645
 20
75.41973927882326
 30
0.0
 11
-17.83386874225822
 21
58.84730377988502
 31
0.0
  0
LWPOLYLINE
  5
118
330
1F
100
AcDbEntity
  8
050
100
AcDbPolyline
 90
        9
 70
     0
 43
0.0
 10
-49.91973927882324
 20
59.90630424119646
 10
-48.43360934681551
 20
62.43039448867379
 10
-46.78940606032874
 20
64.8535016050456
 10
-44.9211098226879
 20
67.19153672333812
 10
-42.85716222369862
 20
69.35805912336711
 10
-40.92397453017105
 20
71.07091191897064
 10
-38.87029338847091
 20
72.63793841316418
 10
-36.67773923712363
 20
74.09163728259801
 10
-34.40630424119645
 20
75.41973927882326
  0
LINE
  5
119
330
1F
100
AcDbEntity
  8
050
100
AcDbLine
 10
58.5
 20
-18.74999999999999
 30
0.0
 11
58.5
 21
18.74999999999999
 31
0.0
  0
LINE
  5
11A
330
1F
100
AcDbEntity
  8
050
100
AcDbLine
 10
58.5
 20
18.74999999999999
 30
0.0
 11
57.77831216351295
 21
20.0
 31
0.0
  0
LINE
  5
11B
330
1F
100
AcDbEntity
  8
050
100
AcDbLine
 10
57.77831216351295
 20
-20.0
 30
0.0
 11
58.5
 21
-18.74999999999999
 31
0.0
  0
LINE
  5
11C
330
1F
100
AcDbEntity
  8
050
100
AcDbLine
 10
-58.5
 20
-18.74999999999999
 30
0.0
 11
-58.5
 21
18.74999999999999
 31
0.0
  0
LINE
  5
11D
330
1F
100
AcDbEntity
  8
050
100
AcDbLine
 10
-58.5
 20
-18.74999999999999
 30
0.0
 11
-57.77831216351296
 21
-20.0
 31
0.0
  0
LINE
  5
11E
330
1F
100
AcDbEntity
  8
050
100
AcDbLine
 10
-57.77831216351296
 20
20.0
 30
0.0
 11
-58.5
 21
18.74999999999999
 31
0.0
  0
LINE
  5
11F
330
1F
100
AcDbEntity
  8
050
100
AcDbLine
 10
57.77831216351295
 20
-20.0
 30
0.0
 11
57.77831216351295
 21
20.0
 31
0.0
  0
LINE
  5
120
330
1F
100
AcDbEntity
  8
050
100
AcDbLine
 10
57.77831216351295
 20
20.0
 30
0.0
 11
55.30066641993581
 21
20.0
 31
0.0
  0
LINE
  5
121
330
1F
100
AcDbEntity
  8
050
100
AcDbLine
 10
55.30066641993581
 20
-20.0
 30
0.0
 11
57.77831216351295
 21
-20.0
 31
0.0
  0
LINE
  5
122
330
1F
100
AcDbEntity
  8
050
100
AcDbLine
 10
-57.77831216351296
 20
-20.0
 30
0.0
 11
-57.77831216351296
 21
20.0
 31
0.0
  0
LINE
  5
123
330
1F
100
AcDbEntity
  8
050
100
AcDbLine
 10
-55.30066641993582
 20
20.0
 30
0.0
 11
-57.77831216351296
 21
20.0
 31
0.0
  0
LINE
  5
124
330
1F
100
AcDbEntity
  8
050
100
AcDbLine
 10
-57.77831216351296
 20
-20.0
 30
0.0
 11
-55.30066641993582
 21
-20.0
 31
0.0
  0
LINE
  5
125
330
1F
100
AcDbEntity
  8
050
100
AcDbLine
 10
-55.30066641993582
 20
-20.0
 30
0.0
 11
-55.30066641993582
 21
20.0
 31
0.0
  0
LINE
  5
126
330
1F
100
AcDbEntity
  8
050
100
AcDbLine
 10
-54.4
 20
-18.44
 30
0.0
 11
-54.4
 21
18.44
 31
0.0
  0
LINE
  5
127
330
1F
100
AcDbEntity
  8
050
100
AcDbLine
 10
-54.4
 20
18.44
 30
0.0
 11
-55.30066641993582
 21
20.0
 31
0.0
  0
LINE
  5
128
330
1F
100
AcDbEntity
  8
050
100
AcDbLine
 10
-55.30066641993582
 20
-20.0
 30
0.0
 11
-54.4
 21
-18.44
 31
0.0
  0
LINE
  5
129
330
1F
100
AcDbEntity
  8
050
100
AcDbLine
 10
54.40000000000001
 20
-18.44
 30
0.0
 11
54.40000000000001
 21
18.44
 31
0.0
  0
LINE
  5
12A
330
1F
100
AcDbEntity
  8
050
100
AcDbLine
 10
55.30066641993581
 20
-20.0
 30
0.0
 11
55.30066641993581
 21
20.0
 31
0.0
  0
LINE
  5
12B
330
1F
100
AcDbEntity
  8
050
100
AcDbLine
 10
54.40000000000001
 20
-18.44
 30
0.0
 11
55.30066641993581
 21
-20.0
 31
0.0
  0
LINE
  5
12C
330
1F
100
AcDbEntity
  8
050
100
AcDbLine
 10
55.30066641993581
 20
20.0
 30
0.0
 11
54.40000000000001
 21
18.44
 31
0.0
  0
LINE
  5
12D
330
1F
100
AcDbEntity
  8
050
100
AcDbLine
 10
-49.72500000000001
 20
-20.0
 30
0.0
 11
-49.72500000000001
 21
20.0
 31
0.0
  0
LINE
  5
12E
330
1F
100
AcDbEntity
  8
050
100
AcDbLine
 10
49.72500000000001
 20
-20.0
 30
0.0
 11
49.72500000000001
 21
20.0
 31
0.0
  0
LINE
  5
12F
330
1F
100
AcDbEntity
  8
050
100
AcDbLine
 10
49.72500000000001
 20
20.0
 30
0.0
 11
37.8145
 21
20.0
 31
0.0
  0
LINE
  5
130
330
1F
100
AcDbEntity
  8
050
100
AcDbLine
 10
-26.31984174833228
 20
20.0
 30
0.0
 11
-49.72500000000001
 21
20.0
 31
0.0
  0
LINE
  5
131
330
1F
100
AcDbEntity
  8
050
100
AcDbLine
 10
-49.72500000000001
 20
-20.0
 30
0.0
 11
49.72500000000001
 21
-20.0
 31
0.0
  0
LWPOLYLINE
  5
132
330
1F
100
AcDbEntity
  8
050
100
AcDbPolyline
 90
        8
 70
     0
 43
0.0
 10
37.8145
 20
20.0
 10
37.67534992752925
 20
19.91462366221834
 10
37.24801484001217
 20
19.65626979951044
 10
36.57988496097283
 20
19.26439566917146
 10
35.66214575300991
 20
18.75159449368019
 10
34.46908303333338
 20
18.13277530354437
 10
33.03579451618929
 20
17.468293813084
 10
32.67186231155175
 20
17.31440726002064
  0
LINE
  5
133
330
1F
100
AcDbEntity
  8
050
100
AcDbLine
 10
-21.04799999999998
 20
19.28081290134282
 30
0.0
 11
25.5
 21
0.000000000000002
 31
0.0
  0
LINE
  5
134
330
1F
100
AcDbEntity
  8
050
100
AcDbLine
 10
25.49999999999999
 20
0.0000000000000129
 30
0.0
 11
32.67186231155173
 21
17.31440726002067
 31
0.0
  0
LWPOLYLINE
  5
135
330
1F
100
AcDbEntity
  8
050
100
AcDbPolyline
 90
       22
 70
     0
 43
0.0
 10
32.67186231155175
 20
17.31440726002067
 10
32.38694556154982
 20
17.43518875753291
 10
30.90521993752355
 20
18.15616764143717
 10
29.36049050848616
 20
19.08537956506354
 10
27.46849731987441
 20
20.49160381295013
 10
25.6410321059319
 20
22.1467663409719
 10
24.2872749716681
 20
23.56550270582929
 10
23.01494412438237
 20
25.04735152366471
 10
21.78752348365101
 20
26.60927892963588
 10
20.62952991573198
 20
28.19747454655379
 10
19.46355129650896
 20
29.90225352241449
 10
18.36217979356228
 20
31.6041876135307
 10
17.30280730792526
 20
33.31873776007401
 10
16.30916832584469
 20
34.99100518569033
 10
15.56363849225789
 20
36.28344369012198
 10
14.86877528494678
 20
37.51527309664777
 10
14.25044811384199
 20
38.6322291617409
 10
13.72229558848957
 20
39.60098282922796
 10
13.46855791156992
 20
40.07101014777246
 10
13.2847924118053
 20
40.41323539769548
 10
13.19435735186287
 20
40.58220293165294
 10
13.18550000007738
 20
40.59877124731714
  0
LINE
  5
136
330
1F
100
AcDbEntity
  8
050
100
AcDbLine
 10
13.20413415534767
 20
40.58013709211425
 30
0.0
 11
6.727729173059554
 21
47.05654207440236
 31
0.0
  0
LINE
  5
137
330
1F
100
AcDbEntity
  8
VER
100
AcDbLine
 10
-108.6210697125631
 20
114.7805172651017
 30
0.0
 11
-107.9574122824425
 21
114.0299611328491
 31
0.0
  0
LINE
  5
138
330
1F
100
AcDbEntity
  8
VER
100
AcDbLine
 10
-97.19422722554407
 20
119.5259685181775
 30
0.0
 11
-99.71257028490578
 21
122.636803538872
 31
0.0
  0
LINE
  5
139
330
1F
100
AcDbEntity
  8
VER
100
AcDbLine
 10
-111.0473154645804
 20
109.0869177692202
 30
0.0
 11
-111.8436646213623
 21
110.1437087939293
 31
0.0
  0
LINE
  5
13A
330
1F
100
AcDbEntity
  8
VER
100
AcDbLine
 10
-112.7969950325783
 20
107.7684396443734
 30
0.0
 11
-113.4080441731573
 21
108.5793292421343
 31
0.0
  0
LINE
  5
13B
330
1F
100
AcDbEntity
  8
VER
100
AcDbLine
 10
-96.93846892751193
 20
119.718696219507
 30
0.0
 11
-112.7969950325783
 21
107.7684396443734
 31
0.0
  0
LINE
  5
13C
330
1F
100
AcDbEntity
  8
050
100
AcDbLine
 10
-35.52879529395325
 20
29.18105942270175
 30
0.0
 11
-26.32760621735426
 21
19.97987034610276
 31
0.0
  0
LINE
  5
13D
330
1F
100
AcDbEntity
  8
050
100
AcDbLine
 10
8.509461484954322
 20
48.83827438629718
 30
0.0
 11
-3.681059422701749
 21
61.02879529395325
 31
0.0
  0
LINE
  5
13E
330
1F
100
AcDbEntity
  8
050
100
AcDbLine
 10
8.509461484954336
 20
48.83827438629717
 30
0.0
 11
-22.18496035504801
 21
18.14385254629483
 31
0.0
  0
LINE
  5
13F
330
1F
100
AcDbEntity
  8
050
100
AcDbLine
 10
-26.34773587114919
 20
19.99999999995465
 30
0.0
 11
-22.18496035504801
 21
18.14385254629482
 31
0.0
  0
LINE
  5
140
330
1F
100
AcDbEntity
  8
050
100
AcDbLine
 10
-7.414406450671443
 20
66.43833894672565
 30
0.0
 11
-40.93833894672566
 21
32.91440645067145
 31
0.0
  0
LINE
  5
141
330
1F
100
AcDbEntity
  8
050
100
AcDbLine
 10
-8.828620013044516
 20
67.85255250909874
 30
0.0
 11
-42.35255250909874
 21
34.32862001304451
 31
0.0
  0
LINE
  5
142
330
1F
100
AcDbEntity
  8
050
100
AcDbLine
 10
-42.35255250909874
 20
34.32862001304453
 30
0.0
 11
-40.93833894672566
 21
32.91440645067145
 31
0.0
  0
LINE
  5
143
330
1F
100
AcDbEntity
  8
050
100
AcDbLine
 10
-7.414406450671443
 20
66.43833894672565
 30
0.0
 11
-8.828620013044526
 21
67.85255250909874
 31
0.0
  0
LINE
  5
144
330
1F
100
AcDbEntity
  8
050
100
AcDbLine
 10
-40.2312321655391
 20
33.62151323185796
 30
0.0
 11
-40.23123216553909
 21
32.20729966948486
 31
0.0
  0
LINE
  5
145
330
1F
100
AcDbEntity
  8
050
100
AcDbLine
 10
-6.70729966948485
 20
65.7312321655391
 30
0.0
 11
-8.121513231857953
 21
65.73123216553911
 31
0.0
  0
LINE
  5
146
330
1F
100
AcDbEntity
  8
050
100
AcDbLine
 10
-2.842961110300367
 20
61.86689360635462
 30
0.0
 11
-36.36689360635462
 21
28.34296111030037
 31
0.0
  0
LINE
  5
147
330
1F
100
AcDbEntity
  8
050
100
AcDbLine
 10
-6.707299669484859
 20
65.73123216553908
 30
0.0
 11
-40.23123216553909
 21
32.20729966948487
 31
0.0
  0
LINE
  5
148
330
1F
100
AcDbEntity
  8
050
100
AcDbLine
 10
-40.23123216553909
 20
32.20729966948485
 30
0.0
 11
-36.36689360635462
 21
28.34296111030038
 31
0.0
  0
LINE
  5
149
330
1F
100
AcDbEntity
  8
050
100
AcDbLine
 10
-2.842961110300392
 20
61.86689360635464
 30
0.0
 11
-6.707299669484863
 21
65.73123216553911
 31
0.0
  0
LINE
  5
14A
330
1F
100
AcDbEntity
  8
050
100
AcDbLine
 10
-67.14302706566576
 20
141.6921602195561
 30
0.0
 11
-75.51559126964297
 21
150.0647244235334
 31
0.0
  0
LINE
  5
14B
330
1F
100
AcDbEntity
  8
050
100
AcDbLine
 10
-116.1921602195561
 20
92.64302706566576
 30
0.0
 11
-124.5647244235248
 21
101.0155912696345
 31
0.0
  0
LINE
  5
14C
330
1F
100
AcDbEntity
  8
050
100
AcDbLine
 10
-109.3917644071949
 20
99.44342287802698
 30
0.0
 11
-117.7643286111722
 21
107.8159870820043
 31
0.0
  0
LINE
  5
14D
330
1F
100
AcDbEntity
  8
050
100
AcDbLine
 10
-73.94342287802696
 20
134.891764407195
 30
0.0
 11
-82.31598708200417
 21
143.2643286111721
 31
0.0
  0
LWPOLYLINE
  5
14E
330
1F
100
AcDbEntity
  8
VER
100
AcDbPolyline
 90
        3
 70
     0
 43
0.0
 10
-83.53102274787265
 20
139.8705642297921
 10
-84.18909083275989
 20
140.7580708186154
 10
-84.58818335774556
 20
141.8651517147511
  0
LINE
  5
14F
330
1F
100
AcDbEntity
  8
VER
100
AcDbLine
 10
-108.6210697125631
 20
114.7805172651017
 30
0.0
 11
-83.53102274787265
 21
139.8705642297921
 31
0.0
  0
LWPOLYLINE
  5
150
330
1F
100
AcDbEntity
  8
VER
100
AcDbPolyline
 90
        3
 70
     0
 43
0.0
 10
-109.3064680515609
 20
115.407283020537
 10
-108.824587826331
 20
114.9958011913711
 10
-108.6210697125631
 20
114.7805172651017
  0
LINE
  5
151
330
1F
100
AcDbEntity
  8
VER
100
AcDbLine
 10
-112.5816063476497
 20
112.9392892928725
 30
0.0
 11
-99.43652649799778
 21
122.8448174525023
 31
0.0
  0
LWPOLYLINE
  5
152
330
1F
100
AcDbEntity
  8
VER
100
AcDbPolyline
 90
        4
 70
     0
 43
0.0
 10
-111.4771664139544
 20
111.9244205637103
 10
-111.6248551307254
 20
112.0898097877921
 10
-112.5370960486567
 20
112.9071328675998
 10
-112.5816063476497
 20
112.9392892928725
  0
LINE
  5
153
330
1F
100
AcDbEntity
  8
VER
100
AcDbLine
 10
-111.1461015625593
 20
112.2554854151055
 30
0.0
 11
-114.5071426749364
 21
108.8944443027283
 31
0.0
  0
LWPOLYLINE
  5
154
330
1F
100
AcDbEntity
  8
VER
100
AcDbPolyline
 90
        3
 70
     0
 43
0.0
 10
-112.1824553247799
 20
113.2400711627587
 10
-111.6105430616199
 20
112.7488441673286
 10
-111.1461015625593
 20
112.2554854151055
  0
LWPOLYLINE
  5
155
330
1F
100
AcDbEntity
  8
VER
100
AcDbPolyline
 90
        3
 70
     0
 43
0.0
 10
-108.187791041691
 20
115.2137959359737
 10
-108.4625556003878
 20
115.5013582301116
 10
-108.797100602423
 20
115.7911189248253
  0
ARC
  5
156
330
1F
100
AcDbEntity
  8
VER
100
AcDbCircle
 10
-80.5660171779821
 20
142.8355697996826
 30
0.0
 40
3.999999999999972
100
AcDbArc
 50
134.9999999999991
 51
192.0815117083498
  0
ARC
  5
157
330
1F
100
AcDbEntity
  8
VER
100
AcDbCircle
 10
-117.3355697996826
 20
106.0660171779821
 30
0.0
 40
4.000000000000032
100
AcDbArc
 50
45.00000000000058
 51
135.0000000000003
  0
LINE
  5
158
330
1F
100
AcDbEntity
  8
VER
100
AcDbLine
 10
-118.3962299714624
 20
103.5911434438292
 30
0.0
 11
-78.09114344382914
 21
143.8962299714624
 31
0.0
  0
LINE
  5
159
330
1F
100
AcDbEntity
  8
VER
100
AcDbLine
 10
-71.51505037879427
 20
137.3201369064275
 30
0.0
 11
-78.09114344382914
 21
143.8962299714624
 31
0.0
  0
LINE
  5
15A
330
1F
100
AcDbEntity
  8
VER
100
AcDbLine
 10
-118.3962299714624
 20
103.5911434438292
 30
0.0
 11
-111.8201369064276
 21
97.01505037879431
 31
0.0
  0
LINE
  5
15B
330
1F
100
AcDbEntity
  8
050
100
AcDbLine
 10
-74.70878974275713
 20
134.1263975424648
 30
0.0
 11
-83.08135394673441
 21
142.498961746442
 31
0.0
  0
LINE
  5
15C
330
1F
100
AcDbEntity
  8
050
100
AcDbLine
 10
-67.03537646816903
 20
141.7998108170528
 30
0.0
 11
-116.2998108170528
 21
92.53537646816905
 31
0.0
  0
LINE
  5
15D
330
1F
100
AcDbEntity
  8
050
100
AcDbLine
 10
-108.6263975424648
 20
100.2087897427571
 30
0.0
 11
-116.9989617464553
 21
108.5813539467477
 31
0.0
  0
LINE
  5
15E
330
1F
100
AcDbEntity
  8
050
100
AcDbLine
 10
-92.20878974275713
 20
116.6263975424648
 30
0.0
 11
-100.5813539467344
 21
124.9989617464421
 31
0.0
  0
LINE
  5
15F
330
1F
100
AcDbEntity
  8
050
100
AcDbLine
 10
-91.12639754246476
 20
117.7087897427571
 30
0.0
 11
-99.49896174645522
 21
126.0813539467476
 31
0.0
  0
LWPOLYLINE
  5
160
330
1F
100
AcDbEntity
  8
050
100
AcDbPolyline
 90
        4
 70
     0
 43
0.0
 10
-124.5647244235313
 20
101.0155912696377
 10
-124.4637642504279
 20
100.7787045268372
 10
-124.4012226774572
 20
100.6505948005759
 10
-124.386478606769
 20
100.6220443053666
  0
LWPOLYLINE
  5
161
330
1F
100
AcDbEntity
  8
050
100
AcDbPolyline
 90
       13
 70
     0
 43
0.0
 10
-117.7643286111722
 20
107.8159870820043
 10
-118.3907900406439
 20
107.9926996505955
 10
-118.9541485158498
 20
108.0435486621432
 10
-119.5959345516663
 20
107.9821903101939
 10
-120.158499531969
 20
107.8227464213627
 10
-121.1504026434249
 20
107.3162403947714
 10
-122.559629921348
 20
106.170631378804
 10
-123.773742580096
 20
104.8173129912096
 10
-124.4393532731793
 20
103.7287686939021
 10
-124.6719419858395
 20
103.0952070937596
 10
-124.7889925729466
 20
102.3579468754261
 10
-124.7263812373618
 20
101.5636053665257
 10
-124.5647244235248
 20
101.0155912696345
  0
LWPOLYLINE
  5
162
330
1F
100
AcDbEntity
  8
050
100
AcDbPolyline
 90
        7
 70
     0
 43
0.0
 10
-116.9989617464553
 20
108.5813539467477
 10
-117.02550148251
 20
108.2171876174544
 10
-117.0899031278016
 20
107.9619751046291
 10
-117.178267729465
 20
107.8304352170765
 10
-117.3037955962201
 20
107.7591931537309
 10
-117.5288858946209
 20
107.7506844519359
 10
-117.7643286111722
 20
107.8159870820043
  0
LWPOLYLINE
  5
163
330
1F
100
AcDbEntity
  8
050
100
AcDbPolyline
 90
       13
 70
     0
 43
0.0
 10
-100.5813539467344
 20
124.9989617464421
 10
-101.525667635589
 20
124.8576965230768
 10
-102.4512624372755
 20
124.5462403850074
 10
-103.5900492169292
 20
123.9878448784836
 10
-104.6629724457526
 20
123.3180457121943
 10
-106.7140744784152
 20
121.7523989300798
 10
-109.5214189898301
 20
119.1993648370759
 10
-112.1869055164548
 20
116.481297594443
 10
-114.6493209188821
 20
113.592364006562
 10
-115.7563856066874
 20
111.9920354551761
 10
-116.6268039220285
 20
110.2482483107908
 10
-116.8778057241829
 20
109.4437912822095
 10
-116.9989617464553
 20
108.5813539467477
  0
LWPOLYLINE
  5
164
330
1F
100
AcDbEntity
  8
050
100
AcDbPolyline
 90
        7
 70
     0
 43
0.0
 10
-99.49896174645522
 20
126.0813539467476
 10
-99.53849629696406
 20
125.7041925658091
 10
-99.63627780189269
 20
125.4156003651413
 10
-99.7633014007082
 20
125.2454015498998
 10
-99.9382700451296
 20
125.1247187616418
 10
-100.2495494962215
 20
125.0300210324039
 10
-100.5813539467344
 20
124.9989617464421
  0
LWPOLYLINE
  5
165
330
1F
100
AcDbEntity
  8
050
100
AcDbPolyline
 90
       13
 70
     0
 43
0.0
 10
-83.08135394673441
 20
142.498961746442
 10
-84.02566763558895
 20
142.3576965230768
 10
-84.95126243727553
 20
142.0462403850074
 10
-86.09004921692916
 20
141.4878448784836
 10
-87.16297244575256
 20
140.8180457121943
 10
-89.21407447841521
 20
139.2523989300797
 10
-92.02141898983004
 20
136.6993648370758
 10
-94.68690551645474
 20
133.981297594443
 10
-97.14932091888203
 20
131.0923640065621
 10
-98.25638560668726
 20
129.4920354551761
 10
-99.12680392202839
 20
127.7482483107909
 10
-99.37780572418286
 20
126.9437912822095
 10
-99.49896174645522
 20
126.0813539467476
  0
LWPOLYLINE
  5
166
330
1F
100
AcDbEntity
  8
050
100
AcDbPolyline
 90
        7
 70
     0
 43
0.0
 10
-82.31598708200417
 20
143.2643286111721
 10
-82.24644776498882
 20
142.9960210052961
 10
-82.26449679201895
 20
142.7873206840889
 10
-82.34316087641146
 20
142.6655458693979
 10
-82.48099431612931
 20
142.5820472564384
 10
-82.75965943744639
 20
142.5200801648303
 10
-83.08135394673441
 20
142.498961746442
  0
LWPOLYLINE
  5
167
330
1F
100
AcDbEntity
  8
050
100
AcDbPolyline
 90
       13
 70
     0
 43
0.0
 10
-75.51559126964297
 20
150.0647244235334
 10
-76.0636053665252
 20
150.2263812373616
 10
-76.85794687542767
 20
150.2889925729465
 10
-77.58881644088173
 20
150.1736721574928
 10
-78.2287686939025
 20
149.939353273179
 10
-79.31731299120946
 20
149.273742580096
 10
-80.66548672434794
 20
148.0649723056779
 10
-81.81624039477143
 20
146.6504026434248
 10
-82.31506958467567
 20
145.6792541045321
 10
-82.47994338958725
 20
145.1076391788371
 10
-82.54354866214312
 20
144.4541485158497
 10
-82.495797158683
 20
143.9083376104373
 10
-82.31598708200417
 20
143.2643286111721
  0
LWPOLYLINE
  5
168
330
1F
100
AcDbEntity
  8
VER
100
AcDbPolyline
 90
        5
 70
     0
 43
0.0
 10
-98.95079348883235
 20
124.4507934888324
 10
-99.18651518264089
 20
124.7471511476564
 10
-99.39721580238304
 20
125.2174120617936
 10
-99.50010864184873
 20
126.0344182759945
 10
-99.49170505810605
 20
126.2231169001924
  0
LWPOLYLINE
  5
169
330
1F
100
AcDbEntity
  8
VER
100
AcDbPolyline
 90
        5
 70
     0
 43
0.0
 10
-101.2227099140101
 20
124.9252501979905
 10
-100.2109504210342
 20
124.9893738776157
 10
-99.5792069226932
 20
124.8504838063889
 10
-99.0914024784613
 20
124.5762792666876
 10
-98.95079348883235
 20
124.4507934888324
  0
LINE
  5
16A
330
1F
100
AcDbEntity
  8
050
100
AcDbLine
 10
-123.6995308303615
 20
105.3589103967956
 30
0.0
 11
-79.85891039821995
 21
149.199530828937
 31
0.0
  0
ARC
  5
16B
330
1F
100
AcDbEntity
  8
050
100
AcDbCircle
 10
-77.03048327204932
 20
146.371103705615
 30
0.0
 40
4.000000000000207
100
AcDbArc
 50
61.52916850113984
 51
134.9999999999967
  0
ARC
  5
16C
330
1F
100
AcDbEntity
  8
050
100
AcDbCircle
 10
-120.8711037056152
 20
102.5304832720494
 30
0.0
 40
4.000000000000175
100
AcDbArc
 50
200.3623283727933
 51
208.4612304729134
  0
ARC
  5
16D
330
1F
100
AcDbEntity
  8
050
100
AcDbCircle
 10
-120.8711037056153
 20
102.5304832720494
 30
0.0
 40
4.000000000000002
100
AcDbArc
 50
135.0000000000004
 51
189.121162043532
  0
LWPOLYLINE
  5
16E
330
1F
100
AcDbEntity
  8
050
100
AcDbPolyline
 90
        5
 70
     0
 43
0.0
 10
-75.12204421410533
 20
149.8864785591581
 10
-75.12216511523238
 20
149.8865416304559
 10
-75.15802891920278
 20
149.9050126516903
 10
-75.30420997590693
 20
149.9755296210037
 10
-75.51559126964298
 20
150.0647244235333
  0
LINE
  5
171
330
1F
100
AcDbEntity
  8
MITTE
100
AcDbLine
 10
102.3
 20
0.0
 30
0.0
 11
-102.3
 21
0.0
 31
0.0
  0
LINE
  5
172
330
1F
100
AcDbEntity
  8
MITTE
100
AcDbLine
 10
25.5
 20
-2.844599999999986
 30
0.0
 11
25.5
 21
59.7366
 31
0.0
  0
LINE
  5
173
330
1F
100
AcDbEntity
  8
MITTE
100
AcDbLine
 10
35.89819967171299
 20
-10.39819967171299
 30
0.0
 11
-105.4860136337009
 21
130.9860136337009
 31
0.0
  0
ENDSEC
  0
SECTION
  2
OBJECTS
  0
DICTIONARY
  5
C
330
0
100
AcDbDictionary
281
     1
  3
ACAD_DETAILVIEWSTYLE
350
17B
  3
ACAD_GROUP
350
D
  3
ACAD_LAYOUT
350
1A
  3
ACAD_MATERIAL
350
43
  3
ACAD_MLEADERSTYLE
350
6B
  3
ACAD_MLINESTYLE
350
17
  3
ACAD_PLOTSETTINGS
350
19
  3
ACAD_PLOTSTYLENAME
350
E
  3
ACAD_SCALELIST
350
47
  3
ACAD_SECTIONVIEWSTYLE
350
17C
  3
ACAD_TABLESTYLE
350
69
  3
ACAD_VISUALSTYLE
350
2A
  3
ACDB_RECOMPOSE_DATA
350
178
  3
AcDbVariableDictionary
350
174
  0
SUN
  5
6D
330
29
100
AcDbSun
 90
        1
290
     0
 63
     7
421
 16777215
 40
1.0
291
     1
 91
  2455826
 92
 54000000
292
     0
 70
     2
 71
   256
280
     1
  0
DICTIONARY
  5
17B
102
{ACAD_REACTORS
330
C
102
}
330
C
100
AcDbDictionary
281
     1
  0
DICTIONARY
  5
D
102
{ACAD_REACTORS
330
C
102
}
330
C
100
AcDbDictionary
281
     1
  0
DICTIONARY
  5
1A
102
{ACAD_REACTORS
330
C
102
}
330
C
100
AcDbDictionary
281
     1
  3
Layout1
350
1E
  3
Layout2
350
26
  3
Model
350
22
  0
DICTIONARY
  5
43
102
{ACAD_REACTORS
330
C
102
}
330
C
100
AcDbDictionary
281
     1
  3
ByBlock
350
45
  3
ByLayer
350
44
  3
Global
350
46
  0
DICTIONARY
  5
6B
102
{ACAD_REACTORS
330
C
102
}
330
C
100
AcDbDictionary
281
     1
  3
Standard
350
6C
  0
DICTIONARY
  5
17
102
{ACAD_REACTORS
330
C
102
}
330
C
100
AcDbDictionary
281
     1
  3
Standard
350
18
  0
DICTIONARY
  5
19
102
{ACAD_REACTORS
330
C
102
}
330
C
100
AcDbDictionary
281
     1
  0
ACDBDICTIONARYWDFLT
  5
E
102
{ACAD_REACTORS
330
C
102
}
330
C
100
AcDbDictionary
281
     1
  3
Normal
350
F
100
AcDbDictionaryWithDefault
340
F
  0
DICTIONARY
  5
47
102
{ACAD_REACTORS
330
C
102
}
330
C
100
AcDbDictionary
281
     1
  3
A0
350
48
  3
A1
350
49
  3
A2
350
4A
  3
A3
350
4B
  3
A4
350
4C
  3
A5
350
4D
  3
A6
350
4E
  3
A7
350
4F
  3
A8
350
50
  3
A9
350
51
  3
B0
350
52
  3
B1
350
53
  3
B2
350
54
  3
B3
350
55
  3
B4
350
56
  3
B5
350
57
  3
B6
350
58
  3
B7
350
59
  3
B8
350
5A
  3
B9
350
5B
  3
C0
350
5C
  3
C1
350
5D
  3
C2
350
5E
  3
C3
350
5F
  3
C4
350
60
  3
C5
350
61
  3
C6
350
62
  3
C7
350
63
  3
C8
350
64
  3
C9
350
65
  3
D0
350
66
  3
D1
350
67
  3
D2
350
68
  0
DICTIONARY
  5
17C
102
{ACAD_REACTORS
330
C
102
}
330
C
100
AcDbDictionary
281
     1
  0
DICTIONARY
  5
69
102
{ACAD_REACTORS
330
C
102
}
330
C
100
AcDbDictionary
281
     1
  3
Standard
350
6A
  0
DICTIONARY
  5
2A
102
{ACAD_REACTORS
330
C
102
}
330
C
100
AcDbDictionary
281
     1
  3
2dWireframe
350
2F
  3
Basic
350
32
  3
Brighten
350
36
  3
ColorChange
350
3A
  3
Conceptual
350
34
  3
Dim
350
35
  3
EdgeColorOff
350
3D
  3
Facepattern
350
39
  3
Flat
350
2B
  3
FlatWithEdges
350
2C
  3
Gouraud
350
2D
  3
GouraudWithEdges
350
2E
  3
Hidden
350
31
  3
JitterOff
350
3B
  3
Linepattern
350
38
  3
OverhangOff
350
3C
  3
Realistic
350
33
  3
Shaded
350
42
  3
Shaded with edges
350
41
  3
Shades of Gray
350
3E
  3
Sketchy
350
3F
  3
Thicken
350
37
  3
Wireframe
350
30
  3
X-Ray
350
40
  0
XRECORD
  5
178
102
{ACAD_REACTORS
330
C
102
}
330
C
100
AcDbXrecord
280
     1
 90
        1
330
6A
  0
DICTIONARY
  5
174
102
{ACAD_REACTORS
330
C
102
}
330
C
100
AcDbDictionary
281
     1
  3
CANNOSCALE
350
175
  3
CMLEADERSTYLE
350
17A
  3
CTABLESTYLE
350
179
  3
SECTIONTHICKNESSINC
350
17D
  0
LAYOUT
  5
1E
102
{ACAD_REACTORS
330
1A
102
}
330
1A
100
AcDbPlotSettings
  1

  2
none_device
  4

  6

 40
0.0
 41
0.0
 42
0.0
 43
0.0
 44
0.0
 45
0.0
 46
0.0
 47
0.0
 48
0.0
 49
0.0
140
0.0
141
0.0
142
1.0
143
1.0
 70
   688
 72
     1
 73
     0
 74
     5
  7

 75
    16
 76
     0
 77
     2
 78
   300
147
1.0
148
0.0
149
0.0
100
AcDbLayout
  1
Layout1
 70
     1
 71
     1
 10
0.0
 20
0.0
 11
420.0
 21
297.0
 12
0.0
 22
0.0
 32
0.0
 14
1.000000000000000E+20
 24
1.000000000000000E+20
 34
1.000000000000000E+20
 15
-1.000000000000000E+20
 25
-1.000000000000000E+20
 35
-1.000000000000000E+20
146
0.0
 13
0.0
 23
0.0
 33
0.0
 16
1.0
 26
0.0
 36
0.0
 17
0.0
 27
1.0
 37
0.0
 76
     0
330
1B
  0
LAYOUT
  5
26
102
{ACAD_REACTORS
330
1A
102
}
330
1A
100
AcDbPlotSettings
  1

  2
none_device
  4

  6

 40
0.0
 41
0.0
 42
0.0
 43
0.0
 44
0.0
 45
0.0
 46
0.0
 47
0.0
 48
0.0
 49
0.0
140
0.0
141
0.0
142
1.0
143
1.0
 70
   688
 72
     1
 73
     0
 74
     5
  7

 75
    16
 76
     0
 77
     2
 78
   300
147
1.0
148
0.0
149
0.0
100
AcDbLayout
  1
Layout2
 70
     1
 71
     2
 10
0.0
 20
0.0
 11
0.0
 21
0.0
 12
0.0
 22
0.0
 32
0.0
 14
0.0
 24
0.0
 34
0.0
 15
0.0
 25
0.0
 35
0.0
146
0.0
 13
0.0
 23
0.0
 33
0.0
 16
1.0
 26
0.0
 36
0.0
 17
0.0
 27
1.0
 37
0.0
 76
     0
330
23
  0
LAYOUT
  5
22
102
{ACAD_REACTORS
330
1A
102
}
330
1A
100
AcDbPlotSettings
  1

  2
none_device
  4
Letter_(8.50_x_11.00_Inches)
  6

 40
6.35
 41
6.35
 42
6.35000508
 43
6.35000508
 44
215.9
 45
279.4
 46
0.0
 47
0.0
 48
0.0
 49
0.0
140
0.0
141
0.0
142
1.0
143
1.0
 70
  1712
 72
     1
 73
     0
 74
     0
  7

 75
     0
 76
     0
 77
     2
 78
   300
147
1.0
148
0.0
149
0.0
100
AcDbLayout
  1
Model
 70
     1
 71
     0
 10
0.0
 20
0.0
 11
420.0
 21
297.0
 12
0.0
 22
0.0
 32
0.0
 14
1.000000000000000E+20
 24
1.000000000000000E+20
 34
1.000000000000000E+20
 15
-1.000000000000000E+20
 25
-1.000000000000000E+20
 35
-1.000000000000000E+20
146
0.0
 13
0.0
 23
0.0
 33
0.0
 16
1.0
 26
0.0
 36
0.0
 17
0.0
 27
1.0
 37
0.0
 76
     0
330
1F
331
29
  0
MATERIAL
  5
45
102
{ACAD_REACTORS
330
43
102
}
330
43
100
AcDbMaterial
  1
ByBlock
 72
     1
 94
      127
  0
MATERIAL
  5
44
102
{ACAD_REACTORS
330
43
102
}
330
43
100
AcDbMaterial
  1
ByLayer
 72
     1
 94
      127
  0
MATERIAL
  5
46
102
{ACAD_REACTORS
330
43
102
}
330
43
100
AcDbMaterial
  1
Global
 72
     1
 94
      127
  0
MLEADERSTYLE
  5
6C
102
{ACAD_REACTORS
330
6B
102
}
330
6B
100
AcDbMLeaderStyle
179
     2
170
     2
171
     1
172
     0
 90
        2
 40
0.0
 41
0.0
173
     1
 91
-1056964608
340
14
 92
       -2
290
     1
 42
2.0
291
     1
 43
8.0
  3
Standard
341
0
 44
4.0
300

342
11
174
     1
178
     6
175
     1
176
     0
 93
-1056964608
 45
4.0
292
     0
297
     0
 46
4.0
343
0
 94
-1056964608
 47
1.0
 49
1.0
140
1.0
293
     1
141
0.0
294
     1
177
     0
142
1.0
295
     0
296
     0
143
3.75
271
     0
272
     9
273
     9
298
     0
  0
MLINESTYLE
  5
18
102
{ACAD_REACTORS
330
17
102
}
330
17
100
AcDbMlineStyle
  2
Standard
 70
     0
  3

 62
   256
 51
90.0
 52
90.0
 71
     2
 49
0.5
 62
   256
  6
BYLAYER
 49
-0.5
 62
   256
  6
BYLAYER
  0
ACDBPLACEHOLDER
  5
F
102
{ACAD_REACTORS
330
E
102
}
330
E
  0
SCALE
  5
48
102
{ACAD_REACTORS
330
47
102
}
330
47
100
AcDbScale
 70
     0
300
1:1
140
1.0
141
1.0
290
     1
  0
SCALE
  5
49
102
{ACAD_REACTORS
330
47
102
}
330
47
100
AcDbScale
 70
     0
300
1:2
140
1.0
141
2.0
290
     0
  0
SCALE
  5
4A
102
{ACAD_REACTORS
330
47
102
}
330
47
100
AcDbScale
 70
     0
300
1:4
140
1.0
141
4.0
290
     0
  0
SCALE
  5
4B
102
{ACAD_REACTORS
330
47
102
}
330
47
100
AcDbScale
 70
     0
300
1:5
140
1.0
141
5.0
290
     0
  0
SCALE
  5
4C
102
{ACAD_REACTORS
330
47
102
}
330
47
100
AcDbScale
 70
     0
300
1:8
140
1.0
141
8.0
290
     0
  0
SCALE
  5
4D
102
{ACAD_REACTORS
330
47
102
}
330
47
100
AcDbScale
 70
     0
300
1:10
140
1.0
141
10.0
290
     0
  0
SCALE
  5
4E
102
{ACAD_REACTORS
330
47
102
}
330
47
100
AcDbScale
 70
     0
300
1:16
140
1.0
141
16.0
290
     0
  0
SCALE
  5
4F
102
{ACAD_REACTORS
330
47
102
}
330
47
100
AcDbScale
 70
     0
300
1:20
140
1.0
141
20.0
290
     0
  0
SCALE
  5
50
102
{ACAD_REACTORS
330
47
102
}
330
47
100
AcDbScale
 70
     0
300
1:30
140
1.0
141
30.0
290
     0
  0
SCALE
  5
51
102
{ACAD_REACTORS
330
47
102
}
330
47
100
AcDbScale
 70
     0
300
1:40
140
1.0
141
40.0
290
     0
  0
SCALE
  5
52
102
{ACAD_REACTORS
330
47
102
}
330
47
100
AcDbScale
 70
     0
300
1:50
140
1.0
141
50.0
290
     0
  0
SCALE
  5
53
102
{ACAD_REACTORS
330
47
102
}
330
47
100
AcDbScale
 70
     0
300
1:100
140
1.0
141
100.0
290
     0
  0
SCALE
  5
54
102
{ACAD_REACTORS
330
47
102
}
330
47
100
AcDbScale
 70
     0
300
2:1
140
2.0
141
1.0
290
     0
  0
SCALE
  5
55
102
{ACAD_REACTORS
330
47
102
}
330
47
100
AcDbScale
 70
     0
300
4:1
140
4.0
141
1.0
290
     0
  0
SCALE
  5
56
102
{ACAD_REACTORS
330
47
102
}
330
47
100
AcDbScale
 70
     0
300
8:1
140
8.0
141
1.0
290
     0
  0
SCALE
  5
57
102
{ACAD_REACTORS
330
47
102
}
330
47
100
AcDbScale
 70
     0
300
10:1
140
10.0
141
1.0
290
     0
  0
SCALE
  5
58
102
{ACAD_REACTORS
330
47
102
}
330
47
100
AcDbScale
 70
     0
300
100:1
140
100.0
141
1.0
290
     0
  0
SCALE
  5
59
102
{ACAD_REACTORS
330
47
102
}
330
47
100
AcDbScale
 70
     0
300
1/128" = 1'-0"
140
0.0078125
141
12.0
290
     0
  0
SCALE
  5
5A
102
{ACAD_REACTORS
330
47
102
}
330
47
100
AcDbScale
 70
     0
300
1/64" = 1'-0"
140
0.015625
141
12.0
290
     0
  0
SCALE
  5
5B
102
{ACAD_REACTORS
330
47
102
}
330
47
100
AcDbScale
 70
     0
300
1/32" = 1'-0"
140
0.03125
141
12.0
290
     0
  0
SCALE
  5
5C
102
{ACAD_REACTORS
330
47
102
}
330
47
100
AcDbScale
 70
     0
300
1/16" = 1'-0"
140
0.0625
141
12.0
290
     0
  0
SCALE
  5
5D
102
{ACAD_REACTORS
330
47
102
}
330
47
100
AcDbScale
 70
     0
300
3/32" = 1'-0"
140
0.09375
141
12.0
290
     0
  0
SCALE
  5
5E
102
{ACAD_REACTORS
330
47
102
}
330
47
100
AcDbScale
 70
     0
300
1/8" = 1'-0"
140
0.125
141
12.0
290
     0
  0
SCALE
  5
5F
102
{ACAD_REACTORS
330
47
102
}
330
47
100
AcDbScale
 70
     0
300
3/16" = 1'-0"
140
0.1875
141
12.0
290
     0
  0
SCALE
  5
60
102
{ACAD_REACTORS
330
47
102
}
330
47
100
AcDbScale
 70
     0
300
1/4" = 1'-0"
140
0.25
141
12.0
290
     0
  0
SCALE
  5
61
102
{ACAD_REACTORS
330
47
102
}
330
47
100
AcDbScale
 70
     0
300
3/8" = 1'-0"
140
0.375
141
12.0
290
     0
  0
SCALE
  5
62
102
{ACAD_REACTORS
330
47
102
}
330
47
100
AcDbScale
 70
     0
300
1/2" = 1'-0"
140
0.5
141
12.0
290
     0
  0
SCALE
  5
63
102
{ACAD_REACTORS
330
47
102
}
330
47
100
AcDbScale
 70
     0
300
3/4" = 1'-0"
140
0.75
141
12.0
290
     0
  0
SCALE
  5
64
102
{ACAD_REACTORS
330
47
102
}
330
47
100
AcDbScale
 70
     0
300
1" = 1'-0"
140
1.0
141
12.0
290
     0
  0
SCALE
  5
65
102
{ACAD_REACTORS
330
47
102
}
330
47
100
AcDbScale
 70
     0
300
1-1/2" = 1'-0"
140
1.5
141
12.0
290
     0
  0
SCALE
  5
66
102
{ACAD_REACTORS
330
47
102
}
330
47
100
AcDbScale
 70
     0
300
3" = 1'-0"
140
3.0
141
12.0
290
     0
  0
SCALE
  5
67
102
{ACAD_REACTORS
330
47
102
}
330
47
100
AcDbScale
 70
     0
300
6" = 1'-0"
140
6.0
141
12.0
290
     0
  0
SCALE
  5
68
102
{ACAD_REACTORS
330
47
102
}
330
47
100
AcDbScale
 70
     0
300
1'-0" = 1'-0"
140
12.0
141
12.0
290
     0
  0
TABLESTYLE
  5
6A
102
{ACAD_REACTORS
330
69
102
}
102
{ACAD_XDICTIONARY
360
176
102
}
330
69
100
AcDbTableStyle
  3
Standard
 70
     0
 71
     0
 40
0.06
 41
0.06
280
     0
281
     0
  7
Standard
140
4.5
170
     2
 62
     0
 63
   257
283
     0
 90
        4
 91
        0
  1

274
    -2
284
     1
 64
     0
275
    -2
285
     1
 65
     0
276
    -2
286
     1
 66
     0
277
    -2
287
     1
 67
     0
278
    -2
288
     1
 68
     0
279
    -2
289
     1
 69
     0
  7
Standard
140
6.0
170
     5
 62
     0
 63
   257
283
     0
 90
        4
 91
        0
  1

274
    -2
284
     1
 64
     0
275
    -2
285
     1
 65
     0
276
    -2
286
     1
 66
     0
277
    -2
287
     1
 67
     0
278
    -2
288
     1
 68
     0
279
    -2
289
     1
 69
     0
  7
Standard
140
4.5
170
     5
 62
     0
 63
   257
283
     0
 90
        4
 91
        0
  1

274
    -2
284
     1
 64
     0
275
    -2
285
     1
 65
     0
276
    -2
286
     1
 66
     0
277
    -2
287
     1
 67
     0
278
    -2
288
     1
 68
     0
279
    -2
289
     1
 69
     0
  0
VISUALSTYLE
  5
2F
102
{ACAD_REACTORS
330
2A
102
}
330
2A
100
AcDbVisualStyle
  2
2dWireframe
 70
     4
177
     3
291
     0
 70
    58
 90
        0
176
     1
 90
        2
176
     1
 90
        0
176
     1
 90
        0
176
     1
 40
0.6
176
     1
 40
30.0
176
     1
 62
     7
420
 16777215
176
     1
 90
        1
176
     1
 90
        4
176
     1
 62
     7
176
     1
 62
   257
176
     1
 90
        1
176
     1
 90
        1
176
     1
 40
1.0
176
     1
 90
        0
176
     1
 62
   257
176
     1
 40
1.0
176
     1
 90
        1
176
     1
 90
        6
176
     1
 90
        2
176
     1
 62
     7
176
     1
 90
        5
176
     1
 90
        0
176
     1
 90
        0
176
     1
290
     0
176
     1
 90
        1
176
     1
 40
0.0
176
     1
 90
        0
176
     1
290
     1
176
     1
290
     1
176
     1
290
     0
176
     1
290
     0
176
     1
290
     0
176
     1
290
     0
176
     1
290
     0
176
     1
290
     0
176
     1
290
     0
176
     1
 90
       50
176
     1
 40
0.0
176
     1
 40
1.0
176
     1
 90
        0
176
     1
 62
    18
420
        0
176
     1
 90
       50
176
     1
 90
        3
176
     1
 62
     5
420
      255
176
     1
290
     0
176
     1
 90
       50
176
     1
 90
       50
176
     1
 90
       50
176
     1
290
     0
176
     1
 90
       50
176
     1
 62
   256
176
     0
 40
1.0
176
     0
 90
        2
176
     1
  1
strokes_ogs.tif
176
     1
290
     0
176
     1
 40
1.0
176
     1
 40
1.0
176
     1
  0
VISUALSTYLE
  5
32
102
{ACAD_REACTORS
330
2A
102
}
330
2A
100
AcDbVisualStyle
  2
Basic
 70
     7
177
     3
291
     1
 70
    58
 90
        1
176
     1
 90
        0
176
     1
 90
        1
176
     1
 90
        0
176
     1
 40
0.6
176
     1
 40
30.0
176
     1
 62
     7
420
 16777215
176
     1
 90
        0
176
     1
 90
        4
176
     1
 62
     7
176
     1
 62
   257
176
     1
 90
        1
176
     1
 90
        1
176
     1
 40
1.0
176
     1
 90
        8
176
     1
 62
     7
176
     1
 40
1.0
176
     1
 90
        1
176
     1
 90
        6
176
     1
 90
        2
176
     1
 62
     7
176
     1
 90
        5
176
     1
 90
        0
176
     1
 90
        0
176
     1
290
     0
176
     1
 90
        1
176
     1
 40
0.0
176
     1
 90
        0
176
     1
290
     0
176
     1
290
     1
176
     1
290
     1
176
     1
290
     0
176
     1
290
     0
176
     1
290
     0
176
     1
290
     0
176
     1
290
     0
176
     1
290
     0
176
     1
 90
       50
176
     1
 40
0.0
176
     1
 40
1.0
176
     1
 90
        0
176
     1
 62
    18
420
        0
176
     1
 90
       50
176
     1
 90
        3
176
     1
 62
     5
420
      255
176
     1
290
     0
176
     1
 90
       50
176
     1
 90
       50
176
     1
 90
       50
176
     1
290
     0
176
     1
 90
       50
176
     1
 62
   256
176
     0
 40
1.0
176
     0
 90
        2
176
     1
  1
strokes_ogs.tif
176
     1
290
     0
176
     1
 40
1.0
176
     1
 40
1.0
176
     1
  0
VISUALSTYLE
  5
36
102
{ACAD_REACTORS
330
2A
102
}
330
2A
100
AcDbVisualStyle
  2
Brighten
 70
    12
177
     3
291
     1
 70
    58
 90
        2
176
     1
 90
        2
176
     1
 90
        0
176
     1
 90
        0
176
     1
 40
0.6
176
     1
 40
30.0
176
     1
 62
     7
420
 16777215
176
     1
 90
        1
176
     1
 90
        4
176
     1
 62
     7
176
     1
 62
   257
176
     1
 90
        1
176
     1
 90
        1
176
     1
 40
1.0
176
     1
 90
        8
176
     1
 62
     7
176
     1
 40
1.0
176
     1
 90
        1
176
     1
 90
        6
176
     1
 90
        2
176
     1
 62
     7
176
     1
 90
        5
176
     1
 90
        0
176
     1
 90
        0
176
     1
290
     0
176
     1
 90
        1
176
     1
 40
50.0
176
     1
 90
        0
176
     1
290
     0
176
     1
290
     1
176
     1
290
     1
176
     1
290
     0
176
     1
290
     0
176
     1
290
     0
176
     1
290
     0
176
     1
290
     0
176
     1
290
     0
176
     1
 90
       50
176
     1
 40
0.0
176
     1
 40
1.0
176
     1
 90
        0
176
     1
 62
    18
420
        0
176
     1
 90
       50
176
     1
 90
        3
176
     1
 62
     5
420
      255
176
     1
290
     0
176
     1
 90
       50
176
     1
 90
       50
176
     1
 90
       50
176
     1
290
     0
176
     1
 90
       50
176
     1
 62
   256
176
     0
 40
1.0
176
     0
 90
        2
176
     1
  1
strokes_ogs.tif
176
     1
290
     0
176
     1
 40
1.0
176
     1
 40
1.0
176
     1
  0
VISUALSTYLE
  5
3A
102
{ACAD_REACTORS
330
2A
102
}
330
2A
100
AcDbVisualStyle
  2
ColorChange
 70
    16
177
     3
291
     1
 70
    58
 90
        2
176
     1
 90
        2
176
     1
 90
        3
176
     1
 90
        0
176
     1
 40
0.6
176
     1
 40
30.0
176
     1
 62
     8
420
  8421504
176
     1
 90
        1
176
     1
 90
        4
176
     1
 62
     7
176
     1
 62
   257
176
     1
 90
        1
176
     1
 90
        1
176
     1
 40
1.0
176
     1
 90
        8
176
     1
 62
     8
420
  8421504
176
     1
 40
1.0
176
     1
 90
        1
176
     1
 90
        6
176
     1
 90
        2
176
     1
 62
     7
176
     1
 90
        5
176
     1
 90
        0
176
     1
 90
        0
176
     1
290
     0
176
     1
 90
        1
176
     1
 40
0.0
176
     1
 90
        0
176
     1
290
     0
176
     1
290
     1
176
     1
290
     1
176
     1
290
     0
176
     1
290
     0
176
     1
290
     0
176
     1
290
     0
176
     1
290
     0
176
     1
290
     0
176
     1
 90
       50
176
     1
 40
0.0
176
     1
 40
1.0
176
     1
 90
        0
176
     1
 62
    18
420
        0
176
     1
 90
       50
176
     1
 90
        3
176
     1
 62
     5
420
      255
176
     1
290
     0
176
     1
 90
       50
176
     1
 90
       50
176
     1
 90
       50
176
     1
290
     0
176
     1
 90
       50
176
     1
 62
   256
176
     0
 40
1.0
176
     0
 90
        2
176
     1
  1
strokes_ogs.tif
176
     1
290
     0
176
     1
 40
1.0
176
     1
 40
1.0
176
     1
  0
VISUALSTYLE
  5
34
102
{ACAD_REACTORS
330
2A
102
}
330
2A
100
AcDbVisualStyle
  2
Conceptual
 70
     9
177
     3
291
     0
 70
    58
 90
        3
176
     1
 90
        2
176
     1
 90
        0
176
     1
 90
        0
176
     1
 40
0.6
176
     1
 40
30.0
176
     1
 62
     7
420
 16777215
176
     1
 90
        2
176
     1
 90
        2
176
     1
 62
     7
176
     1
 62
   257
176
     1
 90
        1
176
     1
 90
        1
176
     1
 40
179.0
176
     1
 90
        8
176
     1
 62
     7
176
     1
 40
1.0
176
     1
 90
        1
176
     1
 90
        6
176
     1
 90
        2
176
     1
 62
     7
176
     1
 90
        3
176
     1
 90
        0
176
     1
 90
        0
176
     1
290
     0
176
     1
 90
        1
176
     1
 40
0.0
176
     1
 90
        0
176
     1
290
     0
176
     1
290
     1
176
     1
290
     1
176
     1
290
     0
176
     1
290
     0
176
     1
290
     0
176
     1
290
     0
176
     1
290
     0
176
     1
290
     0
176
     1
 90
       50
176
     1
 40
0.0
176
     1
 40
1.0
176
     1
 90
        0
176
     1
 62
    18
420
        0
176
     1
 90
       50
176
     1
 90
        3
176
     1
 62
     5
420
      255
176
     1
290
     0
176
     1
 90
       50
176
     1
 90
       50
176
     1
 90
       50
176
     1
290
     0
176
     1
 90
       50
176
     1
 62
   256
176
     0
 40
1.0
176
     0
 90
        2
176
     1
  1
strokes_ogs.tif
176
     1
290
     0
176
     1
 40
1.0
176
     1
 40
1.0
176
     1
  0
VISUALSTYLE
  5
35
102
{ACAD_REACTORS
330
2A
102
}
330
2A
100
AcDbVisualStyle
  2
Dim
 70
    11
177
     3
291
     1
 70
    58
 90
        2
176
     1
 90
        2
176
     1
 90
        0
176
     1
 90
        0
176
     1
 40
0.6
176
     1
 40
30.0
176
     1
 62
     7
420
 16777215
176
     1
 90
        1
176
     1
 90
        4
176
     1
 62
     7
176
     1
 62
   257
176
     1
 90
        1
176
     1
 90
        1
176
     1
 40
1.0
176
     1
 90
        8
176
     1
 62
     7
176
     1
 40
1.0
176
     1
 90
        1
176
     1
 90
        6
176
     1
 90
        2
176
     1
 62
     7
176
     1
 90
        5
176
     1
 90
        0
176
     1
 90
        0
176
     1
290
     0
176
     1
 90
        1
176
     1
 40
-50.0
176
     1
 90
        0
176
     1
290
     0
176
     1
290
     1
176
     1
290
     1
176
     1
290
     0
176
     1
290
     0
176
     1
290
     0
176
     1
290
     0
176
     1
290
     0
176
     1
290
     0
176
     1
 90
       50
176
     1
 40
0.0
176
     1
 40
1.0
176
     1
 90
        0
176
     1
 62
    18
420
        0
176
     1
 90
       50
176
     1
 90
        3
176
     1
 62
     5
420
      255
176
     1
290
     0
176
     1
 90
       50
176
     1
 90
       50
176
     1
 90
       50
176
     1
290
     0
176
     1
 90
       50
176
     1
 62
   256
176
     0
 40
1.0
176
     0
 90
        2
176
     1
  1
strokes_ogs.tif
176
     1
290
     0
176
     1
 40
1.0
176
     1
 40
1.0
176
     1
  0
VISUALSTYLE
  5
3D
102
{ACAD_REACTORS
330
2A
102
}
330
2A
100
AcDbVisualStyle
  2
EdgeColorOff
 70
    22
177
     3
291
     1
 70
    58
 90
        2
176
     0
 90
        2
176
     0
 90
        0
176
     0
 90
        0
176
     0
 40
0.6
176
     0
 40
30.0
176
     0
 62
     7
420
 16777215
176
     0
 90
        1
176
     0
 90
        4
176
     0
 62
     7
176
     0
 62
   257
176
     0
 90
        1
176
     0
 90
        1
176
     0
 40
1.0
176
     0
 90
        8
176
     2
 62
     7
176
     0
 40
1.0
176
     0
 90
        1
176
     0
 90
        6
176
     0
 90
        2
176
     0
 62
     7
176
     0
 90
        5
176
     0
 90
        0
176
     0
 90
        0
176
     0
290
     0
176
     0
 90
        1
176
     0
 40
0.0
176
     0
 90
        0
176
     0
290
     0
176
     0
290
     1
176
     0
290
     1
176
     0
290
     0
176
     0
290
     0
176
     0
290
     0
176
     0
290
     0
176
     0
290
     0
176
     0
290
     0
176
     0
 90
       50
176
     0
 40
0.0
176
     0
 40
1.0
176
     0
 90
        0
176
     0
 62
    18
420
        0
176
     0
 90
       50
176
     0
 90
        3
176
     0
 62
     5
420
      255
176
     0
290
     0
176
     0
 90
       50
176
     0
 90
       50
176
     0
 90
       50
176
     0
290
     0
176
     0
 90
       50
176
     0
 62
   256
176
     0
 40
1.0
176
     0
 90
        2
176
     0
  1
strokes_ogs.tif
176
     0
290
     0
176
     0
 40
1.0
176
     0
 40
1.0
176
     0
  0
VISUALSTYLE
  5
39
102
{ACAD_REACTORS
330
2A
102
}
330
2A
100
AcDbVisualStyle
  2
Facepattern
 70
    15
177
     3
291
     1
 70
    58
 90
        2
176
     1
 90
        2
176
     1
 90
        0
176
     1
 90
        0
176
     1
 40
0.6
176
     1
 40
30.0
176
     1
 62
     7
420
 16777215
176
     1
 90
        1
176
     1
 90
        4
176
     1
 62
     7
176
     1
 62
   257
176
     1
 90
        1
176
     1
 90
        1
176
     1
 40
1.0
176
     1
 90
        8
176
     1
 62
     7
176
     1
 40
1.0
176
     1
 90
        1
176
     1
 90
        6
176
     1
 90
        2
176
     1
 62
     7
176
     1
 90
        5
176
     1
 90
        0
176
     1
 90
        0
176
     1
290
     0
176
     1
 90
        1
176
     1
 40
0.0
176
     1
 90
        0
176
     1
290
     0
176
     1
290
     1
176
     1
290
     1
176
     1
290
     0
176
     1
290
     0
176
     1
290
     0
176
     1
290
     0
176
     1
290
     0
176
     1
290
     0
176
     1
 90
       50
176
     1
 40
0.0
176
     1
 40
1.0
176
     1
 90
        0
176
     1
 62
    18
420
        0
176
     1
 90
       50
176
     1
 90
        3
176
     1
 62
     5
420
      255
176
     1
290
     0
176
     1
 90
       50
176
     1
 90
       50
176
     1
 90
       50
176
     1
290
     0
176
     1
 90
       50
176
     1
 62
   256
176
     0
 40
1.0
176
     0
 90
        2
176
     1
  1
strokes_ogs.tif
176
     1
290
     0
176
     1
 40
1.0
176
     1
 40
1.0
176
     1
  0
VISUALSTYLE
  5
2B
102
{ACAD_REACTORS
330
2A
102
}
330
2A
100
AcDbVisualStyle
  2
Flat
 70
     0
177
     3
291
     1
 70
    58
 90
        2
176
     1
 90
        1
176
     1
 90
        1
176
     1
 90
        2
176
     1
 40
0.6
176
     1
 40
30.0
176
     1
 62
     7
420
 16777215
176
     1
 90
        0
176
     1
 90
        0
176
     1
 62
     7
176
     1
 62
   257
176
     1
 90
        1
176
     1
 90
        1
176
     1
 40
1.0
176
     1
 90
        8
176
     1
 62
     7
176
     1
 40
1.0
176
     1
 90
        1
176
     1
 90
        6
176
     1
 90
        2
176
     1
 62
     7
176
     1
 90
        5
176
     1
 90
        0
176
     1
 90
        0
176
     1
290
     0
176
     1
 90
       13
176
     1
 40
0.0
176
     1
 90
        0
176
     1
290
     0
176
     1
290
     1
176
     1
290
     1
176
     1
290
     0
176
     1
290
     0
176
     1
290
     0
176
     1
290
     0
176
     1
290
     0
176
     1
290
     0
176
     1
 90
       50
176
     1
 40
0.0
176
     1
 40
1.0
176
     1
 90
        0
176
     1
 62
    18
420
        0
176
     1
 90
       50
176
     1
 90
        3
176
     1
 62
     5
420
      255
176
     1
290
     0
176
     1
 90
       50
176
     1
 90
       50
176
     1
 90
       50
176
     1
290
     0
176
     1
 90
       50
176
     1
 62
   256
176
     0
 40
1.0
176
     0
 90
        2
176
     1
  1
strokes_ogs.tif
176
     1
290
     0
176
     1
 40
1.0
176
     1
 40
1.0
176
     1
  0
VISUALSTYLE
  5
2C
102
{ACAD_REACTORS
330
2A
102
}
330
2A
100
AcDbVisualStyle
  2
FlatWithEdges
 70
     1
177
     3
291
     1
 70
    58
 90
        2
176
     1
 90
        1
176
     1
 90
        1
176
     1
 90
        2
176
     1
 40
0.6
176
     1
 40
30.0
176
     1
 62
     7
420
 16777215
176
     1
 90
        1
176
     1
 90
        0
176
     1
 62
     7
176
     1
 62
   257
176
     1
 90
        1
176
     1
 90
        1
176
     1
 40
1.0
176
     1
 90
        0
176
     1
 62
   257
176
     1
 40
1.0
176
     1
 90
        1
176
     1
 90
        6
176
     1
 90
        2
176
     1
 62
     7
176
     1
 90
        5
176
     1
 90
        0
176
     1
 90
        0
176
     1
290
     0
176
     1
 90
       13
176
     1
 40
0.0
176
     1
 90
        0
176
     1
290
     0
176
     1
290
     1
176
     1
290
     1
176
     1
290
     0
176
     1
290
     0
176
     1
290
     0
176
     1
290
     0
176
     1
290
     0
176
     1
290
     0
176
     1
 90
       50
176
     1
 40
0.0
176
     1
 40
1.0
176
     1
 90
        0
176
     1
 62
    18
420
        0
176
     1
 90
       50
176
     1
 90
        3
176
     1
 62
     5
420
      255
176
     1
290
     0
176
     1
 90
       50
176
     1
 90
       50
176
     1
 90
       50
176
     1
290
     0
176
     1
 90
       50
176
     1
 62
   256
176
     0
 40
1.0
176
     0
 90
        2
176
     1
  1
strokes_ogs.tif
176
     1
290
     0
176
     1
 40
1.0
176
     1
 40
1.0
176
     1
  0
VISUALSTYLE
  5
2D
102
{ACAD_REACTORS
330
2A
102
}
330
2A
100
AcDbVisualStyle
  2
Gouraud
 70
     2
177
     3
291
     1
 70
    58
 90
        2
176
     1
 90
        2
176
     1
 90
        1
176
     1
 90
        2
176
     1
 40
0.6
176
     1
 40
30.0
176
     1
 62
     7
420
 16777215
176
     1
 90
        0
176
     1
 90
        0
176
     1
 62
     7
176
     1
 62
   257
176
     1
 90
        1
176
     1
 90
        1
176
     1
 40
1.0
176
     1
 90
        0
176
     1
 62
     7
176
     1
 40
1.0
176
     1
 90
        1
176
     1
 90
        6
176
     1
 90
        2
176
     1
 62
     7
176
     1
 90
        5
176
     1
 90
        0
176
     1
 90
        0
176
     1
290
     0
176
     1
 90
       13
176
     1
 40
0.0
176
     1
 90
        0
176
     1
290
     0
176
     1
290
     1
176
     1
290
     1
176
     1
290
     0
176
     1
290
     0
176
     1
290
     0
176
     1
290
     0
176
     1
290
     0
176
     1
290
     0
176
     1
 90
       50
176
     1
 40
0.0
176
     1
 40
1.0
176
     1
 90
        0
176
     1
 62
    18
420
        0
176
     1
 90
       50
176
     1
 90
        3
176
     1
 62
     5
420
      255
176
     1
290
     0
176
     1
 90
       50
176
     1
 90
       50
176
     1
 90
       50
176
     1
290
     0
176
     1
 90
       50
176
     1
 62
   256
176
     0
 40
1.0
176
     0
 90
        2
176
     1
  1
strokes_ogs.tif
176
     1
290
     0
176
     1
 40
1.0
176
     1
 40
1.0
176
     1
  0
VISUALSTYLE
  5
2E
102
{ACAD_REACTORS
330
2A
102
}
330
2A
100
AcDbVisualStyle
  2
GouraudWithEdges
 70
     3
177
     3
291
     1
 70
    58
 90
        2
176
     1
 90
        2
176
     1
 90
        1
176
     1
 90
        2
176
     1
 40
0.6
176
     1
 40
30.0
176
     1
 62
     7
420
 16777215
176
     1
 90
        1
176
     1
 90
        0
176
     1
 62
     7
176
     1
 62
   257
176
     1
 90
        1
176
     1
 90
        1
176
     1
 40
1.0
176
     1
 90
        0
176
     1
 62
   257
176
     1
 40
1.0
176
     1
 90
        1
176
     1
 90
        6
176
     1
 90
        2
176
     1
 62
     7
176
     1
 90
        5
176
     1
 90
        0
176
     1
 90
        0
176
     1
290
     0
176
     1
 90
       13
176
     1
 40
0.0
176
     1
 90
        0
176
     1
290
     0
176
     1
290
     1
176
     1
290
     1
176
     1
290
     0
176
     1
290
     0
176
     1
290
     0
176
     1
290
     0
176
     1
290
     0
176
     1
290
     0
176
     1
 90
       50
176
     1
 40
0.0
176
     1
 40
1.0
176
     1
 90
        0
176
     1
 62
    18
420
        0
176
     1
 90
       50
176
     1
 90
        3
176
     1
 62
     5
420
      255
176
     1
290
     0
176
     1
 90
       50
176
     1
 90
       50
176
     1
 90
       50
176
     1
290
     0
176
     1
 90
       50
176
     1
 62
   256
176
     0
 40
1.0
176
     0
 90
        2
176
     1
  1
strokes_ogs.tif
176
     1
290
     0
176
     1
 40
1.0
176
     1
 40
1.0
176
     1
  0
VISUALSTYLE
  5
31
102
{ACAD_REACTORS
330
2A
102
}
330
2A
100
AcDbVisualStyle
  2
Hidden
 70
     6
177
     3
291
     0
 70
    58
 90
        1
176
     1
 90
        2
176
     1
 90
        2
176
     1
 90
        0
176
     1
 40
0.6
176
     1
 40
30.0
176
     1
 62
     7
420
 16777215
176
     1
 90
        2
176
     1
 90
        2
176
     1
 62
     7
176
     1
 62
   257
176
     1
 90
        2
176
     1
 90
        1
176
     1
 40
40.0
176
     1
 90
        0
176
     1
 62
   257
176
     1
 40
1.0
176
     1
 90
        1
176
     1
 90
        6
176
     1
 90
        2
176
     1
 62
     7
176
     1
 90
        3
176
     1
 90
        0
176
     1
 90
        0
176
     1
290
     0
176
     1
 90
        1
176
     1
 40
0.0
176
     1
 90
        0
176
     1
290
     0
176
     1
290
     1
176
     1
290
     1
176
     1
290
     0
176
     1
290
     0
176
     1
290
     0
176
     1
290
     0
176
     1
290
     0
176
     1
290
     0
176
     1
 90
       50
176
     1
 40
0.0
176
     1
 40
1.0
176
     1
 90
        0
176
     1
 62
    18
420
        0
176
     1
 90
       50
176
     1
 90
        3
176
     1
 62
     5
420
      255
176
     1
290
     0
176
     1
 90
       50
176
     1
 90
       50
176
     1
 90
       50
176
     1
290
     0
176
     1
 90
       50
176
     1
 62
   256
176
     0
 40
1.0
176
     0
 90
        2
176
     1
  1
strokes_ogs.tif
176
     1
290
     0
176
     1
 40
1.0
176
     1
 40
1.0
176
     1
  0
VISUALSTYLE
  5
3B
102
{ACAD_REACTORS
330
2A
102
}
330
2A
100
AcDbVisualStyle
  2
JitterOff
 70
    20
177
     3
291
     1
 70
    58
 90
        2
176
     0
 90
        2
176
     0
 90
        0
176
     0
 90
        0
176
     0
 40
0.6
176
     0
 40
30.0
176
     0
 62
     7
420
 16777215
176
     0
 90
        1
176
     0
 90
        4
176
     0
 62
     7
176
     0
 62
   257
176
     0
 90
        1
176
     0
 90
        1
176
     0
 40
1.0
176
     0
 90
       10
176
     2
 62
     7
176
     0
 40
1.0
176
     0
 90
        1
176
     0
 90
        6
176
     0
 90
        2
176
     0
 62
     7
176
     0
 90
        5
176
     0
 90
        0
176
     0
 90
        0
176
     0
290
     0
176
     0
 90
        1
176
     0
 40
0.0
176
     0
 90
        0
176
     0
290
     0
176
     0
290
     1
176
     0
290
     1
176
     0
290
     0
176
     0
290
     0
176
     0
290
     0
176
     0
290
     0
176
     0
290
     0
176
     0
290
     0
176
     0
 90
       50
176
     0
 40
0.0
176
     0
 40
1.0
176
     0
 90
        0
176
     0
 62
    18
420
        0
176
     0
 90
       50
176
     0
 90
        3
176
     0
 62
     5
420
      255
176
     0
290
     0
176
     0
 90
       50
176
     0
 90
       50
176
     0
 90
       50
176
     0
290
     0
176
     0
 90
       50
176
     0
 62
   256
176
     0
 40
1.0
176
     0
 90
        2
176
     0
  1
strokes_ogs.tif
176
     0
290
     0
176
     0
 40
1.0
176
     0
 40
1.0
176
     0
  0
VISUALSTYLE
  5
38
102
{ACAD_REACTORS
330
2A
102
}
330
2A
100
AcDbVisualStyle
  2
Linepattern
 70
    14
177
     3
291
     1
 70
    58
 90
        2
176
     1
 90
        2
176
     1
 90
        0
176
     1
 90
        0
176
     1
 40
0.6
176
     1
 40
30.0
176
     1
 62
     7
420
 16777215
176
     1
 90
        1
176
     1
 90
        4
176
     1
 62
     7
176
     1
 62
   257
176
     1
 90
        7
176
     1
 90
        7
176
     1
 40
1.0
176
     1
 90
        8
176
     1
 62
     7
176
     1
 40
1.0
176
     1
 90
        1
176
     1
 90
        6
176
     1
 90
        2
176
     1
 62
     7
176
     1
 90
        5
176
     1
 90
        0
176
     1
 90
        0
176
     1
290
     0
176
     1
 90
        1
176
     1
 40
0.0
176
     1
 90
        0
176
     1
290
     0
176
     1
290
     1
176
     1
290
     1
176
     1
290
     0
176
     1
290
     0
176
     1
290
     0
176
     1
290
     0
176
     1
290
     0
176
     1
290
     0
176
     1
 90
       50
176
     1
 40
0.0
176
     1
 40
1.0
176
     1
 90
        0
176
     1
 62
    18
420
        0
176
     1
 90
       50
176
     1
 90
        3
176
     1
 62
     5
420
      255
176
     1
290
     0
176
     1
 90
       50
176
     1
 90
       50
176
     1
 90
       50
176
     1
290
     0
176
     1
 90
       50
176
     1
 62
   256
176
     0
 40
1.0
176
     0
 90
        2
176
     1
  1
strokes_ogs.tif
176
     1
290
     0
176
     1
 40
1.0
176
     1
 40
1.0
176
     1
  0
VISUALSTYLE
  5
3C
102
{ACAD_REACTORS
330
2A
102
}
330
2A
100
AcDbVisualStyle
  2
OverhangOff
 70
    21
177
     3
291
     1
 70
    58
 90
        2
176
     0
 90
        2
176
     0
 90
        0
176
     0
 90
        0
176
     0
 40
0.6
176
     0
 40
30.0
176
     0
 62
     7
420
 16777215
176
     0
 90
        1
176
     0
 90
        4
176
     0
 62
     7
176
     0
 62
   257
176
     0
 90
        1
176
     0
 90
        1
176
     0
 40
1.0
176
     0
 90
        9
176
     2
 62
     7
176
     0
 40
1.0
176
     0
 90
        1
176
     0
 90
        6
176
     0
 90
        2
176
     0
 62
     7
176
     0
 90
        5
176
     0
 90
        0
176
     0
 90
        0
176
     0
290
     0
176
     0
 90
        1
176
     0
 40
0.0
176
     0
 90
        0
176
     0
290
     0
176
     0
290
     1
176
     0
290
     1
176
     0
290
     0
176
     0
290
     0
176
     0
290
     0
176
     0
290
     0
176
     0
290
     0
176
     0
290
     0
176
     0
 90
       50
176
     0
 40
0.0
176
     0
 40
1.0
176
     0
 90
        0
176
     0
 62
    18
420
        0
176
     0
 90
       50
176
     0
 90
        3
176
     0
 62
     5
420
      255
176
     0
290
     0
176
     0
 90
       50
176
     0
 90
       50
176
     0
 90
       50
176
     0
290
     0
176
     0
 90
       50
176
     0
 62
   256
176
     0
 40
1.0
176
     0
 90
        2
176
     0
  1
strokes_ogs.tif
176
     0
290
     0
176
     0
 40
1.0
176
     0
 40
1.0
176
     0
  0
VISUALSTYLE
  5
33
102
{ACAD_REACTORS
330
2A
102
}
330
2A
100
AcDbVisualStyle
  2
Realistic
 70
     8
177
     3
291
     0
 70
    58
 90
        2
176
     1
 90
        3
176
     1
 90
        0
176
     1
 90
        2
176
     1
 40
0.6
176
     1
 40
30.0
176
     1
 62
     7
420
 16777215
176
     1
 90
        0
176
     1
 90
        0
176
     1
 62
     7
176
     1
 62
   257
176
     1
 90
        1
176
     1
 90
        1
176
     1
 40
1.0
176
     1
 90
        8
176
     1
 62
   257
176
     1
 40
1.0
176
     1
 90
        1
176
     1
 90
        6
176
     1
 90
        2
176
     1
 62
     7
176
     1
 90
        3
176
     1
 90
        0
176
     1
 90
        0
176
     1
290
     0
176
     1
 90
       13
176
     1
 40
0.0
176
     1
 90
        0
176
     1
290
     0
176
     1
290
     1
176
     1
290
     1
176
     1
290
     0
176
     1
290
     0
176
     1
290
     0
176
     1
290
     0
176
     1
290
     0
176
     1
290
     0
176
     1
 90
       50
176
     1
 40
0.0
176
     1
 40
1.0
176
     1
 90
        0
176
     1
 62
    18
420
        0
176
     1
 90
       50
176
     1
 90
        3
176
     1
 62
     5
420
      255
176
     1
290
     0
176
     1
 90
       50
176
     1
 90
       50
176
     1
 90
       50
176
     1
290
     0
176
     1
 90
       50
176
     1
 62
   256
176
     0
 40
1.0
176
     0
 90
        2
176
     1
  1
strokes_ogs.tif
176
     1
290
     0
176
     1
 40
1.0
176
     1
 40
1.0
176
     1
  0
VISUALSTYLE
  5
42
102
{ACAD_REACTORS
330
2A
102
}
330
2A
100
AcDbVisualStyle
  2
Shaded
 70
    27
177
     3
291
     0
 70
    58
 90
        2
176
     1
 90
        2
176
     1
 90
        1
176
     1
 90
        2
176
     1
 40
0.6
176
     1
 40
30.0
176
     1
 62
     7
420
 16777215
176
     1
 90
        0
176
     1
 90
        4
176
     1
 62
     7
176
     1
 62
   257
176
     1
 90
        1
176
     1
 90
        1
176
     1
 40
1.0
176
     1
 90
        8
176
     1
 62
   257
176
     1
 40
1.0
176
     1
 90
        1
176
     1
 90
        6
176
     1
 90
        2
176
     1
 62
     8
420
  7895160
176
     1
 90
        3
176
     1
 90
        0
176
     1
 90
        0
176
     1
290
     0
176
     1
 90
        5
176
     1
 40
0.0
176
     1
 90
        0
176
     1
290
     0
176
     1
290
     1
176
     1
290
     1
176
     1
290
     0
176
     1
290
     0
176
     1
290
     0
176
     1
290
     0
176
     1
290
     0
176
     1
290
     0
176
     1
 90
       50
176
     1
 40
0.0
176
     1
 40
1.0
176
     1
 90
        0
176
     1
 62
    18
420
        0
176
     1
 90
       50
176
     1
 90
        3
176
     1
 62
     5
420
      255
176
     1
290
     0
176
     1
 90
       50
176
     1
 90
       50
176
     1
 90
       50
176
     1
290
     0
176
     1
 90
       50
176
     1
 62
   256
176
     0
 40
1.0
176
     0
 90
        2
176
     1
  1
strokes_ogs.tif
176
     1
290
     0
176
     1
 40
1.0
176
     1
 40
1.0
176
     1
  0
VISUALSTYLE
  5
41
102
{ACAD_REACTORS
330
2A
102
}
330
2A
100
AcDbVisualStyle
  2
Shaded with edges
 70
    26
177
     3
291
     0
 70
    58
 90
        2
176
     1
 90
        2
176
     1
 90
        1
176
     1
 90
        2
176
     1
 40
0.6
176
     1
 40
30.0
176
     1
 62
     7
420
 16777215
176
     1
 90
        1
176
     1
 90
       10
176
     1
 62
     7
176
     1
 62
   257
176
     1
 90
        2
176
     1
 90
        1
176
     1
 40
1.0
176
     1
 90
        8
176
     1
 62
   257
176
     1
 40
1.0
176
     1
 90
        1
176
     1
 90
        6
176
     1
 90
        2
176
     1
 62
     7
176
     1
 90
        3
176
     1
 90
        0
176
     1
 90
        0
176
     1
290
     0
176
     1
 90
        5
176
     1
 40
0.0
176
     1
 90
        0
176
     1
290
     0
176
     1
290
     1
176
     1
290
     1
176
     1
290
     0
176
     1
290
     0
176
     1
290
     0
176
     1
290
     0
176
     1
290
     0
176
     1
290
     0
176
     1
 90
       50
176
     1
 40
0.0
176
     1
 40
1.0
176
     1
 90
        0
176
     1
 62
    18
420
        0
176
     1
 90
       50
176
     1
 90
        3
176
     1
 62
     5
420
      255
176
     1
290
     0
176
     1
 90
       50
176
     1
 90
       50
176
     1
 90
       50
176
     1
290
     0
176
     1
 90
       50
176
     1
 62
   256
176
     0
 40
1.0
176
     0
 90
        2
176
     1
  1
strokes_ogs.tif
176
     1
290
     0
176
     1
 40
1.0
176
     1
 40
1.0
176
     1
  0
VISUALSTYLE
  5
3E
102
{ACAD_REACTORS
330
2A
102
}
330
2A
100
AcDbVisualStyle
  2
Shades of Gray
 70
    23
177
     3
291
     0
 70
    58
 90
        2
176
     1
 90
        2
176
     1
 90
        3
176
     1
 90
        0
176
     1
 40
0.6
176
     1
 40
30.0
176
     1
 62
     7
420
 16777215
176
     1
 90
        2
176
     1
 90
        2
176
     1
 62
     7
176
     1
 62
     7
176
     1
 90
        1
176
     1
 90
        1
176
     1
 40
40.0
176
     1
 90
        8
176
     1
 62
     7
176
     1
 40
1.0
176
     1
 90
        1
176
     1
 90
        6
176
     1
 90
        2
176
     1
 62
     7
176
     1
 90
        3
176
     1
 90
        0
176
     1
 90
        0
176
     1
290
     0
176
     1
 90
        1
176
     1
 40
0.0
176
     1
 90
        0
176
     1
290
     0
176
     1
290
     1
176
     1
290
     1
176
     1
290
     0
176
     1
290
     0
176
     1
290
     0
176
     1
290
     0
176
     1
290
     0
176
     1
290
     0
176
     1
 90
       50
176
     1
 40
0.0
176
     1
 40
1.0
176
     1
 90
        0
176
     1
 62
    18
420
        0
176
     1
 90
       50
176
     1
 90
        3
176
     1
 62
     5
420
      255
176
     1
290
     0
176
     1
 90
       50
176
     1
 90
       50
176
     1
 90
       50
176
     1
290
     0
176
     1
 90
       50
176
     1
 62
   256
176
     0
 40
1.0
176
     0
 90
        2
176
     1
  1
strokes_ogs.tif
176
     1
290
     0
176
     1
 40
1.0
176
     1
 40
1.0
176
     1
  0
VISUALSTYLE
  5
3F
102
{ACAD_REACTORS
330
2A
102
}
330
2A
100
AcDbVisualStyle
  2
Sketchy
 70
    24
177
     3
291
     0
 70
    58
 90
        1
176
     1
 90
        2
176
     1
 90
        2
176
     1
 90
        0
176
     1
 40
0.6
176
     1
 40
30.0
176
     1
 62
     7
420
 16777215
176
     1
 90
        2
176
     1
 90
        2
176
     1
 62
     7
176
     1
 62
     7
176
     1
 90
        1
176
     1
 90
        1
176
     1
 40
40.0
176
     1
 90
       11
176
     1
 62
     7
176
     1
 40
1.0
176
     1
 90
        1
176
     1
 90
        6
176
     1
 90
        2
176
     1
 62
     7
176
     1
 90
        6
176
     1
 90
        0
176
     1
 90
        0
176
     1
290
     0
176
     1
 90
        1
176
     1
 40
0.0
176
     1
 90
        0
176
     1
290
     0
176
     1
290
     1
176
     1
290
     1
176
     1
290
     0
176
     1
290
     0
176
     1
290
     0
176
     1
290
     0
176
     1
290
     0
176
     1
290
     0
176
     1
 90
       50
176
     1
 40
0.0
176
     1
 40
1.0
176
     1
 90
        0
176
     1
 62
    18
420
        0
176
     1
 90
       50
176
     1
 90
        3
176
     1
 62
     5
420
      255
176
     1
290
     0
176
     1
 90
       50
176
     1
 90
       50
176
     1
 90
       50
176
     1
290
     0
176
     1
 90
       50
176
     1
 62
   256
176
     0
 40
1.0
176
     0
 90
        2
176
     1
  1
strokes_ogs.tif
176
     1
290
     0
176
     1
 40
1.0
176
     1
 40
1.0
176
     1
  0
VISUALSTYLE
  5
37
102
{ACAD_REACTORS
330
2A
102
}
330
2A
100
AcDbVisualStyle
  2
Thicken
 70
    13
177
     3
291
     1
 70
    58
 90
        2
176
     1
 90
        2
176
     1
 90
        0
176
     1
 90
        0
176
     1
 40
0.6
176
     1
 40
30.0
176
     1
 62
     7
420
 16777215
176
     1
 90
        1
176
     1
 90
        4
176
     1
 62
     7
176
     1
 62
   257
176
     1
 90
        1
176
     1
 90
        1
176
     1
 40
1.0
176
     1
 90
       12
176
     1
 62
     7
176
     1
 40
1.0
176
     1
 90
        1
176
     1
 90
        6
176
     1
 90
        2
176
     1
 62
     7
176
     1
 90
        5
176
     1
 90
        0
176
     1
 90
        0
176
     1
290
     0
176
     1
 90
        1
176
     1
 40
0.0
176
     1
 90
        0
176
     1
290
     0
176
     1
290
     1
176
     1
290
     1
176
     1
290
     0
176
     1
290
     0
176
     1
290
     0
176
     1
290
     0
176
     1
290
     0
176
     1
290
     0
176
     1
 90
       50
176
     1
 40
0.0
176
     1
 40
1.0
176
     1
 90
        0
176
     1
 62
    18
420
        0
176
     1
 90
       50
176
     1
 90
        3
176
     1
 62
     5
420
      255
176
     1
290
     0
176
     1
 90
       50
176
     1
 90
       50
176
     1
 90
       50
176
     1
290
     0
176
     1
 90
       50
176
     1
 62
   256
176
     0
 40
1.0
176
     0
 90
        2
176
     1
  1
strokes_ogs.tif
176
     1
290
     0
176
     1
 40
1.0
176
     1
 40
1.0
176
     1
  0
VISUALSTYLE
  5
30
102
{ACAD_REACTORS
330
2A
102
}
330
2A
100
AcDbVisualStyle
  2
Wireframe
 70
     5
177
     3
291
     0
 70
    58
 90
        0
176
     1
 90
        2
176
     1
 90
        0
176
     1
 90
        0
176
     1
 40
0.6
176
     1
 40
30.0
176
     1
 62
     7
420
 16777215
176
     1
 90
        1
176
     1
 90
        4
176
     1
 62
     7
176
     1
 62
   257
176
     1
 90
        1
176
     1
 90
        1
176
     1
 40
1.0
176
     1
 90
        0
176
     1
 62
   257
176
     1
 40
1.0
176
     1
 90
        1
176
     1
 90
        6
176
     1
 90
        2
176
     1
 62
     7
176
     1
 90
        3
176
     1
 90
        0
176
     1
 90
        0
176
     1
290
     0
176
     1
 90
        1
176
     1
 40
0.0
176
     1
 90
        0
176
     1
290
     0
176
     1
290
     1
176
     1
290
     1
176
     1
290
     0
176
     1
290
     0
176
     1
290
     0
176
     1
290
     0
176
     1
290
     0
176
     1
290
     0
176
     1
 90
       50
176
     1
 40
0.0
176
     1
 40
1.0
176
     1
 90
        0
176
     1
 62
    18
420
        0
176
     1
 90
       50
176
     1
 90
        3
176
     1
 62
     5
420
      255
176
     1
290
     0
176
     1
 90
       50
176
     1
 90
       50
176
     1
 90
       50
176
     1
290
     0
176
     1
 90
       50
176
     1
 62
   256
176
     0
 40
1.0
176
     0
 90
        2
176
     1
  1
strokes_ogs.tif
176
     1
290
     0
176
     1
 40
1.0
176
     1
 40
1.0
176
     1
  0
VISUALSTYLE
  5
40
102
{ACAD_REACTORS
330
2A
102
}
330
2A
100
AcDbVisualStyle
  2
X-Ray
 70
    25
177
     3
291
     0
 70
    58
 90
        2
176
     1
 90
        2
176
     1
 90
        1
176
     1
 90
        1
176
     1
 40
0.5
176
     1
 40
30.0
176
     1
 62
     7
420
 16777215
176
     1
 90
        1
176
     1
 90
        0
176
     1
 62
     7
176
     1
 62
   257
176
     1
 90
        1
176
     1
 90
        1
176
     1
 40
1.0
176
     1
 90
        8
176
     1
 62
     7
176
     1
 40
1.0
176
     1
 90
        1
176
     1
 90
        6
176
     1
 90
        2
176
     1
 62
     7
176
     1
 90
        3
176
     1
 90
        0
176
     1
 90
        0
176
     1
290
     0
176
     1
 90
       13
176
     1
 40
0.0
176
     1
 90
        0
176
     1
290
     0
176
     1
290
     1
176
     1
290
     1
176
     1
290
     0
176
     1
290
     0
176
     1
290
     0
176
     1
290
     0
176
     1
290
     0
176
     1
290
     0
176
     1
 90
       50
176
     1
 40
0.0
176
     1
 40
1.0
176
     1
 90
        0
176
     1
 62
    18
420
        0
176
     1
 90
       50
176
     1
 90
        3
176
     1
 62
     5
420
      255
176
     1
290
     0
176
     1
 90
       50
176
     1
 90
       50
176
     1
 90
       50
176
     1
290
     0
176
     1
 90
       50
176
     1
 62
   256
176
     0
 40
1.0
176
     0
 90
        2
176
     1
  1
strokes_ogs.tif
176
     1
290
     0
176
     1
 40
1.0
176
     1
 40
1.0
176
     1
  0
DICTIONARYVAR
  5
175
102
{ACAD_REACTORS
330
174
102
}
330
174
100
DictionaryVariables
280
     0
  1
1:1
  0
DICTIONARYVAR
  5
17A
102
{ACAD_REACTORS
330
174
102
}
330
174
100
DictionaryVariables
280
     0
  1
Standard
  0
DICTIONARYVAR
  5
179
102
{ACAD_REACTORS
330
174
102
}
330
174
100
DictionaryVariables
280
     0
  1
Standard
  0
DICTIONARYVAR
  5
17D
102
{ACAD_REACTORS
330
174
102
}
330
174
100
DictionaryVariables
280
     0
  1
6.000000
  0
DICTIONARY
  5
176
330
6A
100
AcDbDictionary
280
     1
281
     1
  3
ACAD_ROUNDTRIP_2008_TABLESTYLE_CELLSTYLEMAP
360
177
  0
CELLSTYLEMAP
  5
177
102
{ACAD_REACTORS
330
176
102
}
330
176
100
AcDbCellStyleMap
 90
        3
300
CELLSTYLE
  1
TABLEFORMAT_BEGIN
 90
        5
170
     1
 91
        0
 92
    32768
 62
   257
 93
        1
300
CONTENTFORMAT
  1
CONTENTFORMAT_BEGIN
 90
        0
 91
        0
 92
        4
 93
        0
300

 40
0.0
140
1.0
 94
        5
 62
     0
340
11
144
6.0
309
CONTENTFORMAT_END
171
     1
301
MARGIN
  1
CELLMARGIN_BEGIN
 40
1.5
 40
1.5
 40
1.5
 40
1.5
 40
1.5
 40
1.5
309
CELLMARGIN_END
 94
        6
 95
        1
302
GRIDFORMAT
  1
GRIDFORMAT_BEGIN
 90
        0
 91
        1
 62
     0
 92
       -2
340
14
 93
        0
 40
0.045
309
GRIDFORMAT_END
 95
        2
302
GRIDFORMAT
  1
GRIDFORMAT_BEGIN
 90
        0
 91
        1
 62
     0
 92
       -2
340
14
 93
        0
 40
0.045
309
GRIDFORMAT_END
 95
        4
302
GRIDFORMAT
  1
GRIDFORMAT_BEGIN
 90
        0
 91
        1
 62
     0
 92
       -2
340
14
 93
        0
 40
0.045
309
GRIDFORMAT_END
 95
        8
302
GRIDFORMAT
  1
GRIDFORMAT_BEGIN
 90
        0
 91
        1
 62
     0
 92
       -2
340
14
 93
        0
 40
0.045
309
GRIDFORMAT_END
 95
       16
302
GRIDFORMAT
  1
GRIDFORMAT_BEGIN
 90
        0
 91
        1
 62
     0
 92
       -2
340
14
 93
        0
 40
0.045
309
GRIDFORMAT_END
 95
       32
302
GRIDFORMAT
  1
GRIDFORMAT_BEGIN
 90
        0
 91
        1
 62
     0
 92
       -2
340
14
 93
        0
 40
0.045
309
GRIDFORMAT_END
309
TABLEFORMAT_END
  1
CELLSTYLE_BEGIN
 90
        1
 91
        1
300
_TITLE
309
CELLSTYLE_END
300
CELLSTYLE
  1
TABLEFORMAT_BEGIN
 90
        5
170
     1
 91
        0
 92
        0
 62
   257
 93
        1
300
CONTENTFORMAT
  1
CONTENTFORMAT_BEGIN
 90
        0
 91
        0
 92
        4
 93
        0
300

 40
0.0
140
1.0
 94
        5
 62
     0
340
11
144
4.5
309
CONTENTFORMAT_END
171
     1
301
MARGIN
  1
CELLMARGIN_BEGIN
 40
1.5
 40
1.5
 40
1.5
 40
1.5
 40
1.5
 40
1.5
309
CELLMARGIN_END
 94
        6
 95
        1
302
GRIDFORMAT
  1
GRIDFORMAT_BEGIN
 90
        0
 91
        1
 62
     0
 92
       -2
340
14
 93
        0
 40
0.045
309
GRIDFORMAT_END
 95
        2
302
GRIDFORMAT
  1
GRIDFORMAT_BEGIN
 90
        0
 91
        1
 62
     0
 92
       -2
340
14
 93
        0
 40
0.045
309
GRIDFORMAT_END
 95
        4
302
GRIDFORMAT
  1
GRIDFORMAT_BEGIN
 90
        0
 91
        1
 62
     0
 92
       -2
340
14
 93
        0
 40
0.045
309
GRIDFORMAT_END
 95
        8
302
GRIDFORMAT
  1
GRIDFORMAT_BEGIN
 90
        0
 91
        1
 62
     0
 92
       -2
340
14
 93
        0
 40
0.045
309
GRIDFORMAT_END
 95
       16
302
GRIDFORMAT
  1
GRIDFORMAT_BEGIN
 90
        0
 91
        1
 62
     0
 92
       -2
340
14
 93
        0
 40
0.045
309
GRIDFORMAT_END
 95
       32
302
GRIDFORMAT
  1
GRIDFORMAT_BEGIN
 90
        0
 91
        1
 62
     0
 92
       -2
340
14
 93
        0
 40
0.045
309
GRIDFORMAT_END
309
TABLEFORMAT_END
  1
CELLSTYLE_BEGIN
 90
        2
 91
        1
300
_HEADER
309
CELLSTYLE_END
300
CELLSTYLE
  1
TABLEFORMAT_BEGIN
 90
        5
170
     1
 91
        0
 92
        0
 62
   257
 93
        1
300
CONTENTFORMAT
  1
CONTENTFORMAT_BEGIN
 90
        0
 91
        0
 92
        4
 93
        0
300

 40
0.0
140
1.0
 94
        2
 62
     0
340
11
144
4.5
309
CONTENTFORMAT_END
171
     1
301
MARGIN
  1
CELLMARGIN_BEGIN
 40
1.5
 40
1.5
 40
1.5
 40
1.5
 40
1.5
 40
1.5
309
CELLMARGIN_END
 94
        6
 95
        1
302
GRIDFORMAT
  1
GRIDFORMAT_BEGIN
 90
        0
 91
        1
 62
     0
 92
       -2
340
14
 93
        0
 40
0.045
309
GRIDFORMAT_END
 95
        2
302
GRIDFORMAT
  1
GRIDFORMAT_BEGIN
 90
        0
 91
        1
 62
     0
 92
       -2
340
14
 93
        0
 40
0.045
309
GRIDFORMAT_END
 95
        4
302
GRIDFORMAT
  1
GRIDFORMAT_BEGIN
 90
        0
 91
        1
 62
     0
 92
       -2
340
14
 93
        0
 40
0.045
309
GRIDFORMAT_END
 95
        8
302
GRIDFORMAT
  1
GRIDFORMAT_BEGIN
 90
        0
 91
        1
 62
     0
 92
       -2
340
14
 93
        0
 40
0.045
309
GRIDFORMAT_END
 95
       16
302
GRIDFORMAT
  1
GRIDFORMAT_BEGIN
 90
        0
 91
        1
 62
     0
 92
       -2
340
14
 93
        0
 40
0.045
309
GRIDFORMAT_END
 95
       32
302
GRIDFORMAT
  1
GRIDFORMAT_BEGIN
 90
        0
 91
        1
 62
     0
 92
       -2
340
14
 93
        0
 40
0.045
309
GRIDFORMAT_END
309
TABLEFORMAT_END
  1
CELLSTYLE_BEGIN
 90
        3
 91
        2
300
_DATA
309
CELLSTYLE_END
  0
ENDSEC
  0
EOF
