  0
SECTION
  2
HEADER
  9
$ACADVER
  1
AC1027
  9
$ACADMAINTVER
 70
   105
  9
$DWGCODEPAGE
  3
ANSI_1252
  9
$REQUIREDVERSIONS
160
                 0
  9
$COMMENTS
  1
File was created by Cadenas
  9
$CUSTOMPROPERTYTAG
  1
NN
  9
$CUSTOMPROPERTY
  1
Geberit Mepla angle-seat stop valve
  9
$CUSTOMPROPERTYTAG
  1
NT
  9
$CUSTOMPROPERTY
  1

  9
$CUSTOMPROPERTYTAG
  1
NB
  9
$CUSTOMPROPERTY
  1
604032
  9
$CUSTOMPROPERTYTAG
  1
NBSYN
  9
$CUSTOMPROPERTY
  1
$ARTNRTX.
  9
$CUSTOMPROPERTYTAG
  1
LINA
  9
$CUSTOMPROPERTY
  1
604032
  9
$CUSTOMPROPERTYTAG
  1
CATALOG
  9
$CUSTOMPROPERTY
  1
GEBERIT
  9
$CUSTOMPROPERTYTAG
  1
ARTNRT
  9
$CUSTOMPROPERTY
  1
604.032.00.1
  9
$CUSTOMPROPERTYTAG
  1
DD
  9
$CUSTOMPROPERTY
  1
70
  9
$CUSTOMPROPERTYTAG
  1
D
  9
$CUSTOMPROPERTY
  1
32
  9
$CUSTOMPROPERTYTAG
  1
DN
  9
$CUSTOMPROPERTY
  1
25
  9
$CUSTOMPROPERTYTAG
  1
DNV
  9
$CUSTOMPROPERTY
  1
25
  9
$CUSTOMPROPERTYTAG
  1
L
  9
$CUSTOMPROPERTY
  1
154
  9
$CUSTOMPROPERTYTAG
  1
L1
  9
$CUSTOMPROPERTY
  1
56
  9
$CUSTOMPROPERTYTAG
  1
L2
  9
$CUSTOMPROPERTY
  1
132
  9
$CUSTOMPROPERTYTAG
  1
Z
  9
$CUSTOMPROPERTY
  1
26
  9
$CUSTOMPROPERTYTAG
  1
Z1
  9
$CUSTOMPROPERTY
  1
69
  9
$CUSTOMPROPERTYTAG
  1
ARTNRTX
  9
$CUSTOMPROPERTY
  1
604032
  9
$CUSTOMPROPERTYTAG
  1
COMPANY
  9
$CUSTOMPROPERTY
  1
geberit
  9
$INSBASE
 10
0.0
 20
0.0
 30
0.0
  9
$EXTMIN
 10
1.000000000000000E+20
 20
1.000000000000000E+20
 30
1.000000000000000E+20
  9
$EXTMAX
 10
-1.000000000000000E+20
 20
-1.000000000000000E+20
 30
-1.000000000000000E+20
  9
$LIMMIN
 10
0.0
 20
0.0
  9
$LIMMAX
 10
420.0
 20
297.0
  9
$ORTHOMODE
 70
     0
  9
$REGENMODE
 70
     1
  9
$FILLMODE
 70
     1
  9
$QTEXTMODE
 70
     0
  9
$MIRRTEXT
 70
     1
  9
$LTSCALE
 40
1.0
  9
$ATTMODE
 70
     1
  9
$TEXTSIZE
 40
2.5
  9
$TRACEWID
 40
1.0
  9
$TEXTSTYLE
  7
Standard
  9
$CLAYER
  8
0
  9
$CELTYPE
  6
ByLayer
  9
$CECOLOR
 62
   256
  9
$CELTSCALE
 40
1.0
  9
$DISPSILH
 70
     0
  9
$DIMSCALE
 40
1.0
  9
$DIMASZ
 40
2.5
  9
$DIMEXO
 40
0.625
  9
$DIMDLI
 40
3.75
  9
$DIMRND
 40
0.0
  9
$DIMDLE
 40
0.0
  9
$DIMEXE
 40
1.25
  9
$DIMTP
 40
0.0
  9
$DIMTM
 40
0.0
  9
$DIMTXT
 40
2.5
  9
$DIMCEN
 40
2.5
  9
$DIMTSZ
 40
0.0
  9
$DIMTOL
 70
     0
  9
$DIMLIM
 70
     0
  9
$DIMTIH
 70
     0
  9
$DIMTOH
 70
     0
  9
$DIMSE1
 70
     0
  9
$DIMSE2
 70
     0
  9
$DIMTAD
 70
     1
  9
$DIMZIN
 70
     8
  9
$DIMBLK
  1

  9
$DIMASO
 70
     1
  9
$DIMSHO
 70
     1
  9
$DIMPOST
  1

  9
$DIMAPOST
  1

  9
$DIMALT
 70
     0
  9
$DIMALTD
 70
     3
  9
$DIMALTF
 40
0.03937007874016
  9
$DIMLFAC
 40
1.0
  9
$DIMTOFL
 70
     1
  9
$DIMTVP
 40
0.0
  9
$DIMTIX
 70
     0
  9
$DIMSOXD
 70
     0
  9
$DIMSAH
 70
     0
  9
$DIMBLK1
  1

  9
$DIMBLK2
  1

  9
$DIMSTYLE
  2
ISO-25
  9
$DIMCLRD
 70
     0
  9
$DIMCLRE
 70
     0
  9
$DIMCLRT
 70
     0
  9
$DIMTFAC
 40
1.0
  9
$DIMGAP
 40
0.625
  9
$DIMJUST
 70
     0
  9
$DIMSD1
 70
     0
  9
$DIMSD2
 70
     0
  9
$DIMTOLJ
 70
     0
  9
$DIMTZIN
 70
     8
  9
$DIMALTZ
 70
     0
  9
$DIMALTTZ
 70
     0
  9
$DIMUPT
 70
     0
  9
$DIMDEC
 70
     2
  9
$DIMTDEC
 70
     2
  9
$DIMALTU
 70
     2
  9
$DIMALTTD
 70
     3
  9
$DIMTXSTY
  7
Standard
  9
$DIMAUNIT
 70
     0
  9
$DIMADEC
 70
     0
  9
$DIMALTRND
 40
0.0
  9
$DIMAZIN
 70
     0
  9
$DIMDSEP
 70
    44
  9
$DIMATFIT
 70
     3
  9
$DIMFRAC
 70
     0
  9
$DIMLDRBLK
  1

  9
$DIMLUNIT
 70
     2
  9
$DIMLWD
 70
    -2
  9
$DIMLWE
 70
    -2
  9
$DIMTMOVE
 70
     0
  9
$DIMFXL
 40
1.0
  9
$DIMFXLON
 70
     0
  9
$DIMJOGANG
 40
0.7853981633974483
  9
$DIMTFILL
 70
     0
  9
$DIMTFILLCLR
 70
     0
  9
$DIMARCSYM
 70
     0
  9
$DIMLTYPE
  6

  9
$DIMLTEX1
  6

  9
$DIMLTEX2
  6

  9
$DIMTXTDIRECTION
 70
     0
  9
$LUNITS
 70
     2
  9
$LUPREC
 70
     4
  9
$SKETCHINC
 40
1.0
  9
$FILLETRAD
 40
10.0
  9
$AUNITS
 70
     0
  9
$AUPREC
 70
     0
  9
$MENU
  1
.
  9
$ELEVATION
 40
0.0
  9
$PELEVATION
 40
0.0
  9
$THICKNESS
 40
0.0
  9
$LIMCHECK
 70
     0
  9
$CHAMFERA
 40
0.0
  9
$CHAMFERB
 40
0.0
  9
$CHAMFERC
 40
0.0
  9
$CHAMFERD
 40
0.0
  9
$SKPOLY
 70
     0
  9
$TDCREATE
 40
2458934.709961574
  9
$TDUCREATE
 40
2458934.668294908
  9
$TDUPDATE
 40
2458934.709961643
  9
$TDUUPDATE
 40
2458934.668294977
  9
$TDINDWG
 40
0.0000000116
  9
$TDUSRTIMER
 40
0.0000000116
  9
$USRTIMER
 70
     1
  9
$ANGBASE
 50
0.0
  9
$ANGDIR
 70
     0
  9
$PDMODE
 70
     0
  9
$PDSIZE
 40
0.0
  9
$PLINEWID
 40
0.0
  9
$SPLFRAME
 70
     0
  9
$SPLINETYPE
 70
     6
  9
$SPLINESEGS
 70
     8
  9
$HANDSEED
  5
183
  9
$SURFTAB1
 70
     6
  9
$SURFTAB2
 70
     6
  9
$SURFTYPE
 70
     6
  9
$SURFU
 70
     6
  9
$SURFV
 70
     6
  9
$UCSBASE
  2

  9
$UCSNAME
  2

  9
$UCSORG
 10
0.0
 20
0.0
 30
0.0
  9
$UCSXDIR
 10
1.0
 20
0.0
 30
0.0
  9
$UCSYDIR
 10
0.0
 20
1.0
 30
0.0
  9
$UCSORTHOREF
  2

  9
$UCSORTHOVIEW
 70
     0
  9
$UCSORGTOP
 10
0.0
 20
0.0
 30
0.0
  9
$UCSORGBOTTOM
 10
0.0
 20
0.0
 30
0.0
  9
$UCSORGLEFT
 10
0.0
 20
0.0
 30
0.0
  9
$UCSORGRIGHT
 10
0.0
 20
0.0
 30
0.0
  9
$UCSORGFRONT
 10
0.0
 20
0.0
 30
0.0
  9
$UCSORGBACK
 10
0.0
 20
0.0
 30
0.0
  9
$PUCSBASE
  2

  9
$PUCSNAME
  2

  9
$PUCSORG
 10
0.0
 20
0.0
 30
0.0
  9
$PUCSXDIR
 10
1.0
 20
0.0
 30
0.0
  9
$PUCSYDIR
 10
0.0
 20
1.0
 30
0.0
  9
$PUCSORTHOREF
  2

  9
$PUCSORTHOVIEW
 70
     0
  9
$PUCSORGTOP
 10
0.0
 20
0.0
 30
0.0
  9
$PUCSORGBOTTOM
 10
0.0
 20
0.0
 30
0.0
  9
$PUCSORGLEFT
 10
0.0
 20
0.0
 30
0.0
  9
$PUCSORGRIGHT
 10
0.0
 20
0.0
 30
0.0
  9
$PUCSORGFRONT
 10
0.0
 20
0.0
 30
0.0
  9
$PUCSORGBACK
 10
0.0
 20
0.0
 30
0.0
  9
$USERI1
 70
     0
  9
$USERI2
 70
     0
  9
$USERI3
 70
     0
  9
$USERI4
 70
     0
  9
$USERI5
 70
     0
  9
$USERR1
 40
0.0
  9
$USERR2
 40
0.0
  9
$USERR3
 40
0.0
  9
$USERR4
 40
0.0
  9
$USERR5
 40
0.0
  9
$WORLDVIEW
 70
     1
  9
$SHADEDGE
 70
     3
  9
$SHADEDIF
 70
    70
  9
$TILEMODE
 70
     1
  9
$MAXACTVP
 70
    64
  9
$PINSBASE
 10
0.0
 20
0.0
 30
0.0
  9
$PLIMCHECK
 70
     0
  9
$PEXTMIN
 10
1.000000000000000E+20
 20
1.000000000000000E+20
 30
1.000000000000000E+20
  9
$PEXTMAX
 10
-1.000000000000000E+20
 20
-1.000000000000000E+20
 30
-1.000000000000000E+20
  9
$PLIMMIN
 10
0.0
 20
0.0
  9
$PLIMMAX
 10
420.0
 20
297.0
  9
$UNITMODE
 70
     0
  9
$VISRETAIN
 70
     1
  9
$PLINEGEN
 70
     0
  9
$PSLTSCALE
 70
     1
  9
$TREEDEPTH
 70
  3020
  9
$CMLSTYLE
  2
Standard
  9
$CMLJUST
 70
     0
  9
$CMLSCALE
 40
20.0
  9
$PROXYGRAPHICS
 70
     1
  9
$MEASUREMENT
 70
     1
  9
$CELWEIGHT
370
    -1
  9
$ENDCAPS
280
     0
  9
$JOINSTYLE
280
     0
  9
$LWDISPLAY
290
     0
  9
$INSUNITS
 70
     4
  9
$HYPERLINKBASE
  1

  9
$STYLESHEET
  1

  9
$XEDIT
290
     1
  9
$CEPSNTYPE
380
     0
  9
$PSTYLEMODE
290
     1
  9
$FINGERPRINTGUID
  2
{EE7DCC5A-6844-4603-A1C5-044999479BF8}
  9
$VERSIONGUID
  2
{FAEB1C32-E019-11D5-929B-00C0DF256EC4}
  9
$EXTNAMES
290
     1
  9
$PSVPSCALE
 40
0.0
  9
$OLESTARTUP
290
     0
  9
$SORTENTS
280
   127
  9
$INDEXCTL
280
     0
  9
$HIDETEXT
280
     1
  9
$XCLIPFRAME
280
     2
  9
$HALOGAP
280
     0
  9
$OBSCOLOR
 70
   257
  9
$OBSLTYPE
280
     0
  9
$INTERSECTIONDISPLAY
280
     0
  9
$INTERSECTIONCOLOR
 70
   257
  9
$DIMASSOC
280
     2
  9
$PROJECTNAME
  1

  9
$CAMERADISPLAY
290
     0
  9
$LENSLENGTH
 40
50.0
  9
$CAMERAHEIGHT
 40
0.0
  9
$STEPSPERSEC
 40
2.0
  9
$STEPSIZE
 40
6.0
  9
$3DDWFPREC
 40
2.0
  9
$PSOLWIDTH
 40
5.0
  9
$PSOLHEIGHT
 40
80.0
  9
$LOFTANG1
 40
1.570796326794897
  9
$LOFTANG2
 40
1.570796326794897
  9
$LOFTMAG1
 40
0.0
  9
$LOFTMAG2
 40
0.0
  9
$LOFTPARAM
 70
     7
  9
$LOFTNORMALS
280
     1
  9
$LATITUDE
 40
37.795
  9
$LONGITUDE
 40
-122.394
  9
$NORTHDIRECTION
 40
0.0
  9
$TIMEZONE
 70
 -8000
  9
$LIGHTGLYPHDISPLAY
280
     1
  9
$TILEMODELIGHTSYNCH
280
     1
  9
$CMATERIAL
347
44
  9
$SOLIDHIST
280
     0
  9
$SHOWHIST
280
     1
  9
$DWFFRAME
280
     2
  9
$DGNFRAME
280
     2
  9
$REALWORLDSCALE
290
     1
  9
$INTERFERECOLOR
 62
   256
  9
$CSHADOW
280
     0
  9
$SHADOWPLANELOCATION
 40
0.0
  0
ENDSEC
  0
SECTION
  2
CLASSES
  0
CLASS
  1
ACDBDICTIONARYWDFLT
  2
AcDbDictionaryWithDefault
  3
ObjectDBX Classes
 90
        0
 91
        4
280
     0
281
     0
  0
CLASS
  1
VISUALSTYLE
  2
AcDbVisualStyle
  3
ObjectDBX Classes
 90
     4095
 91
        4
280
     0
281
     0
  0
CLASS
  1
MATERIAL
  2
AcDbMaterial
  3
ObjectDBX Classes
 90
     1153
 91
        4
280
     0
281
     0
  0
CLASS
  1
SCALE
  2
AcDbScale
  3
ObjectDBX Classes
 90
     1153
 91
        4
280
     0
281
     0
  0
CLASS
  1
TABLESTYLE
  2
AcDbTableStyle
  3
ObjectDBX Classes
 90
     4095
 91
        4
280
     0
281
     0
  0
CLASS
  1
MLEADERSTYLE
  2
AcDbMLeaderStyle
  3
ACDB_MLEADERSTYLE_CLASS
 90
     4095
 91
        4
280
     0
281
     0
  0
CLASS
  1
SUN
  2
AcDbSun
  3
SCENEOE
 90
     1153
 91
        4
280
     0
281
     0
  0
CLASS
  1
DICTIONARYVAR
  2
AcDbDictionaryVar
  3
ObjectDBX Classes
 90
        0
 91
        4
280
     0
281
     0
  0
CLASS
  1
CELLSTYLEMAP
  2
AcDbCellStyleMap
  3
ObjectDBX Classes
 90
     1152
 91
        4
280
     0
281
     0
  0
ENDSEC
  0
SECTION
  2
TABLES
  0
TABLE
  2
VPORT
  5
8
330
0
100
AcDbSymbolTable
 70
     1
  0
VPORT
  5
29
330
8
100
AcDbSymbolTableRecord
100
AcDbViewportTableRecord
  2
*Active
 70
     0
 10
0.0
 20
0.0
 11
1.0
 21
1.0
 12
-8.996717087975753
 22
58.64814665079474
 13
0.0
 23
0.0
 14
10.0
 24
10.0
 15
10.0
 25
10.0
 16
0.0
 26
0.0
 36
1.0
 17
0.0
 27
0.0
 37
0.0
 40
152.2822191676213
 41
1.369045604923772
 42
50.0
 43
0.0
 44
0.0
 50
0.0
 51
0.0
 71
     0
 72
   100
 73
     1
 74
     3
 75
     0
 76
     0
 77
     0
 78
     0
281
     0
 65
     1
110
0.0
120
0.0
130
0.0
111
1.0
121
0.0
131
0.0
112
0.0
122
1.0
132
0.0
 79
     0
146
0.0
348
2F
 60
     3
 61
     5
292
     1
282
     1
141
0.0
142
0.0
 63
   250
361
6D
  0
ENDTAB
  0
TABLE
  2
LTYPE
  5
5
330
0
100
AcDbSymbolTable
 70
     3
  0
LTYPE
  5
14
330
5
100
AcDbSymbolTableRecord
100
AcDbLinetypeTableRecord
  2
ByBlock
 70
     0
  3

 72
    65
 73
     0
 40
0.0
  0
LTYPE
  5
15
330
5
100
AcDbSymbolTableRecord
100
AcDbLinetypeTableRecord
  2
ByLayer
 70
     0
  3

 72
    65
 73
     0
 40
0.0
  0
LTYPE
  5
16
330
5
100
AcDbSymbolTableRecord
100
AcDbLinetypeTableRecord
  2
Continuous
 70
     0
  3
Solid line
 72
    65
 73
     0
 40
0.0
  0
LTYPE
  5
81
330
5
100
AcDbSymbolTableRecord
100
AcDbLinetypeTableRecord
  2
Dashed
 70
     0
  3

 72
    65
 73
     2
 40
2.0
 49
1.0
 74
     0
 49
-1.0
 74
     0
  0
LTYPE
  5
174
330
5
100
AcDbSymbolTableRecord
100
AcDbLinetypeTableRecord
  2
Center
 70
     0
  3

 72
    65
 73
     4
 40
1.5
 49
0.45
 74
     0
 49
-0.5
 74
     0
 49
0.05
 74
     0
 49
-0.5
 74
     0
  0
ENDTAB
  0
TABLE
  2
LAYER
  5
2
330
0
100
AcDbSymbolTable
 70
     5
  0
LAYER
  5
10
330
2
100
AcDbSymbolTableRecord
100
AcDbLayerTableRecord
  2
0
 70
     0
 62
     7
  6
Continuous
370
    -3
390
F
347
46
348
0
  0
LAYER
  5
6E
330
2
100
AcDbSymbolTableRecord
100
AcDbLayerTableRecord
  2
AM_6
 70
     0
 62
    -2
  6
Continuous
370
    35
390
F
347
46
348
0
  0
LAYER
  5
82
330
2
100
AcDbSymbolTableRecord
100
AcDbLayerTableRecord
  2
VER
 70
     0
 62
    -6
  6
Dashed
370
    25
390
F
347
46
348
0
  0
LAYER
  5
87
330
2
100
AcDbSymbolTableRecord
100
AcDbLayerTableRecord
  2
050
 70
     0
 62
     7
  6
Continuous
370
    50
390
F
347
46
348
0
  0
LAYER
  5
175
330
2
100
AcDbSymbolTableRecord
100
AcDbLayerTableRecord
  2
MITTE
 70
     0
 62
     7
  6
Center
370
    25
390
F
347
46
348
0
  0
ENDTAB
  0
TABLE
  2
STYLE
  5
3
330
0
100
AcDbSymbolTable
 70
     1
  0
STYLE
  5
11
330
3
100
AcDbSymbolTableRecord
100
AcDbTextStyleTableRecord
  2
Standard
 70
     0
 40
0.0
 41
1.0
 50
0.0
 71
     0
 42
2.5
  3
txt
  4

  0
ENDTAB
  0
TABLE
  2
VIEW
  5
6
330
0
100
AcDbSymbolTable
 70
     0
  0
ENDTAB
  0
TABLE
  2
UCS
  5
7
330
0
100
AcDbSymbolTable
 70
     0
  0
ENDTAB
  0
TABLE
  2
APPID
  5
9
330
0
100
AcDbSymbolTable
 70
     1
  0
APPID
  5
12
330
9
100
AcDbSymbolTableRecord
100
AcDbRegAppTableRecord
  2
ACAD
 70
     0
  0
ENDTAB
  0
TABLE
  2
DIMSTYLE
  5
A
330
0
100
AcDbSymbolTable
 70
     1
100
AcDbDimStyleTable
  0
DIMSTYLE
105
27
330
A
100
AcDbSymbolTableRecord
100
AcDbDimStyleTableRecord
  2
ISO-25
 70
     0
 41
2.5
 42
0.625
 43
3.75
 44
1.25
 73
     0
 74
     0
 77
     1
 78
     8
140
2.5
141
2.5
143
0.03937007874016
147
0.625
171
     3
172
     1
178
     0
271
     2
272
     2
274
     3
278
    44
283
     0
284
     8
340
11
  0
ENDTAB
  0
TABLE
  2
BLOCK_RECORD
  5
1
330
0
100
AcDbSymbolTable
 70
     1
  0
BLOCK_RECORD
  5
1F
330
1
100
AcDbSymbolTableRecord
100
AcDbBlockTableRecord
  2
*Model_Space
340
22
 70
     0
280
     1
281
     0
  0
BLOCK_RECORD
  5
1B
330
1
100
AcDbSymbolTableRecord
100
AcDbBlockTableRecord
  2
*Paper_Space
340
1E
 70
     0
280
     1
281
     0
  0
BLOCK_RECORD
  5
23
330
1
100
AcDbSymbolTableRecord
100
AcDbBlockTableRecord
  2
*Paper_Space0
340
26
 70
     0
280
     1
281
     0
  0
ENDTAB
  0
ENDSEC
  0
SECTION
  2
BLOCKS
  0
BLOCK
  5
20
330
1F
100
AcDbEntity
  8
0
100
AcDbBlockBegin
  2
*Model_Space
 70
     0
 10
0.0
 20
0.0
 30
0.0
  3
*Model_Space
  1

  0
ENDBLK
  5
21
330
1F
100
AcDbEntity
  8
0
100
AcDbBlockEnd
  0
BLOCK
  5
1C
330
1B
100
AcDbEntity
 67
     1
  8
0
100
AcDbBlockBegin
  2
*Paper_Space
 70
     0
 10
0.0
 20
0.0
 30
0.0
  3
*Paper_Space
  1

  0
ENDBLK
  5
1D
330
1B
100
AcDbEntity
 67
     1
  8
0
100
AcDbBlockEnd
  0
BLOCK
  5
24
330
23
100
AcDbEntity
  8
0
100
AcDbBlockBegin
  2
*Paper_Space0
 70
     0
 10
0.0
 20
0.0
 30
0.0
  3
*Paper_Space0
  1

  0
ENDBLK
  5
25
330
23
100
AcDbEntity
  8
0
100
AcDbBlockEnd
  0
ENDSEC
  0
SECTION
  2
ENTITIES
  0
ATTDEF
  5
6F
330
1F
100
AcDbEntity
  8
AM_6
100
AcDbText
 10
89.7
 20
132.6929271985616
 30
0.0
 40
0.5
  1
Geberit Mepla angle-seat stop valve
100
AcDbAttributeDefinition
  3

  2
NN
 70
     8
280
     0
  0
ATTDEF
  5
70
330
1F
100
AcDbEntity
  8
AM_6
100
AcDbText
 10
89.7
 20
132.1929271985616
 30
0.0
 40
0.5
  1

100
AcDbAttributeDefinition
  3

  2
NT
 70
     8
280
     0
  0
ATTDEF
  5
71
330
1F
100
AcDbEntity
  8
AM_6
100
AcDbText
 10
89.7
 20
131.6929271985616
 30
0.0
 40
0.5
  1
604032
100
AcDbAttributeDefinition
  3

  2
NB
 70
     8
280
     0
  0
ATTDEF
  5
72
330
1F
100
AcDbEntity
  8
AM_6
100
AcDbText
 10
89.7
 20
131.1929271985616
 30
0.0
 40
0.5
  1
$ARTNRTX.
100
AcDbAttributeDefinition
  3

  2
NBSYN
 70
     8
280
     0
  0
ATTDEF
  5
73
330
1F
100
AcDbEntity
  8
AM_6
100
AcDbText
 10
89.7
 20
130.6929271985616
 30
0.0
 40
0.5
  1
604032
100
AcDbAttributeDefinition
  3

  2
LINA
 70
     8
280
     0
  0
ATTDEF
  5
74
330
1F
100
AcDbEntity
  8
AM_6
100
AcDbText
 10
89.7
 20
130.1929271985616
 30
0.0
 40
0.5
  1
GEBERIT
100
AcDbAttributeDefinition
  3

  2
CATALOG
 70
     8
280
     0
  0
ATTDEF
  5
75
330
1F
100
AcDbEntity
  8
AM_6
100
AcDbText
 10
89.7
 20
129.6929271985616
 30
0.0
 40
0.5
  1
604.032.00.1
100
AcDbAttributeDefinition
  3

  2
ARTNRT
 70
     8
280
     0
  0
ATTDEF
  5
76
330
1F
100
AcDbEntity
  8
AM_6
100
AcDbText
 10
89.7
 20
129.1929271985616
 30
0.0
 40
0.5
  1
70
100
AcDbAttributeDefinition
  3

  2
DD
 70
     8
280
     0
  0
ATTDEF
  5
77
330
1F
100
AcDbEntity
  8
AM_6
100
AcDbText
 10
89.7
 20
128.6929271985616
 30
0.0
 40
0.5
  1
32
100
AcDbAttributeDefinition
  3

  2
D
 70
     8
280
     0
  0
ATTDEF
  5
78
330
1F
100
AcDbEntity
  8
AM_6
100
AcDbText
 10
89.7
 20
128.1929271985616
 30
0.0
 40
0.5
  1
25
100
AcDbAttributeDefinition
  3

  2
DN
 70
     8
280
     0
  0
ATTDEF
  5
79
330
1F
100
AcDbEntity
  8
AM_6
100
AcDbText
 10
89.7
 20
127.6929271985616
 30
0.0
 40
0.5
  1
25
100
AcDbAttributeDefinition
  3

  2
DNV
 70
     8
280
     0
  0
ATTDEF
  5
7A
330
1F
100
AcDbEntity
  8
AM_6
100
AcDbText
 10
89.7
 20
127.1929271985616
 30
0.0
 40
0.5
  1
154
100
AcDbAttributeDefinition
  3

  2
L
 70
     8
280
     0
  0
ATTDEF
  5
7B
330
1F
100
AcDbEntity
  8
AM_6
100
AcDbText
 10
89.7
 20
126.6929271985616
 30
0.0
 40
0.5
  1
56
100
AcDbAttributeDefinition
  3

  2
L1
 70
     8
280
     0
  0
ATTDEF
  5
7C
330
1F
100
AcDbEntity
  8
AM_6
100
AcDbText
 10
89.7
 20
126.1929271985616
 30
0.0
 40
0.5
  1
132
100
AcDbAttributeDefinition
  3

  2
L2
 70
     8
280
     0
  0
ATTDEF
  5
7D
330
1F
100
AcDbEntity
  8
AM_6
100
AcDbText
 10
89.7
 20
125.6929271985616
 30
0.0
 40
0.5
  1
26
100
AcDbAttributeDefinition
  3

  2
Z
 70
     8
280
     0
  0
ATTDEF
  5
7E
330
1F
100
AcDbEntity
  8
AM_6
100
AcDbText
 10
89.7
 20
125.1929271985616
 30
0.0
 40
0.5
  1
69
100
AcDbAttributeDefinition
  3

  2
Z1
 70
     8
280
     0
  0
ATTDEF
  5
7F
330
1F
100
AcDbEntity
  8
AM_6
100
AcDbText
 10
89.7
 20
124.6929271985616
 30
0.0
 40
0.5
  1
604032
100
AcDbAttributeDefinition
  3

  2
ARTNRTX
 70
     8
280
     0
  0
ATTDEF
  5
80
330
1F
100
AcDbEntity
  8
AM_6
100
AcDbText
 10
89.7
 20
124.1929271985616
 30
0.0
 40
0.5
  1
geberit
100
AcDbAttributeDefinition
  3

  2
COMPANY
 70
     8
280
     0
  0
LINE
  5
83
330
1F
100
AcDbEntity
  8
VER
100
AcDbLine
 10
-77.98992411294725
 20
99.48992411294724
 30
0.0
 11
-85.27312395916871
 21
106.7731239591687
 31
0.0
  0
LINE
  5
84
330
1F
100
AcDbEntity
  8
VER
100
AcDbLine
 10
-96.78664154533705
 20
91.84857355855206
 30
0.0
 11
-97.64473384915641
 21
92.98730050680786
 31
0.0
  0
LINE
  5
85
330
1F
100
AcDbEntity
  8
VER
100
AcDbLine
 10
-93.85013149737934
 20
96.78190285858504
 30
0.0
 11
-94.51012151202725
 21
97.53612640631002
 31
0.0
  0
LINE
  5
86
330
1F
100
AcDbEntity
  8
VER
100
AcDbLine
 10
-98.59848777741881
 20
90.48324949220336
 30
0.0
 11
-99.26469629731426
 21
91.36733805865
 31
0.0
  0
LINE
  5
88
330
1F
100
AcDbEntity
  8
050
100
AcDbLine
 10
-53.35770693850535
 20
124.1221412873891
 30
0.0
 11
-61.44577546494968
 21
132.2102098138335
 31
0.0
  0
LINE
  5
89
330
1F
100
AcDbEntity
  8
050
100
AcDbLine
 10
-110.7102098138335
 20
82.94577546494968
 30
0.0
 11
-102.6221412873892
 21
74.85770693850534
 31
0.0
  0
LINE
  5
8A
330
1F
100
AcDbEntity
  8
050
100
AcDbLine
 10
9.95
 20
54.26000000000001
 30
0.0
 11
9.95
 21
47.26000000000001
 31
0.0
  0
LINE
  5
8B
330
1F
100
AcDbEntity
  8
050
100
AcDbLine
 10
33.05
 20
47.26000000000001
 30
0.0
 11
33.05
 21
54.26000000000001
 31
0.0
  0
LINE
  5
8C
330
1F
100
AcDbEntity
  8
VER
100
AcDbLine
 10
-69.14913301816073
 20
121.4829013378032
 30
0.0
 11
-69.85335321820907
 21
122.1928947001285
 31
0.0
  0
LINE
  5
8D
330
1F
100
AcDbEntity
  8
VER
100
AcDbLine
 10
-64.52065448953562
 20
126.0205513666982
 30
0.0
 11
-64.57245129598434
 21
126.05958305998
 31
0.0
  0
LINE
  5
8E
330
1F
100
AcDbEntity
  8
VER
100
AcDbLine
 10
-70.80203621611611
 20
124.3314368383083
 30
0.0
 11
-79.60515613386296
 21
112.6493021373589
 31
0.0
  0
LINE
  5
8F
330
1F
100
AcDbEntity
  8
VER
100
AcDbLine
 10
-64.52065448953562
 20
126.0205513666982
 30
0.0
 11
-76.81085545384025
 21
109.7109038203435
 31
0.0
  0
ARC
  5
90
330
1F
100
AcDbEntity
  8
VER
100
AcDbCircle
 10
-83.85891039679562
 20
109.6015510839148
 30
0.0
 40
3.000000000000024
100
AcDbArc
 50
45.00000000000039
 51
134.9999999999998
  0
ARC
  5
91
330
1F
100
AcDbEntity
  8
VER
100
AcDbCircle
 10
-88.10155108391488
 20
105.3589103967956
 30
0.0
 40
2.999999999999984
100
AcDbArc
 50
135.0
 51
225.0000000000002
  0
LINE
  5
92
330
1F
100
AcDbEntity
  8
050
100
AcDbLine
 10
-53.3304590025429
 20
83.31574037678146
 30
0.0
 11
-71.66131842132764
 21
101.6465997955662
 31
0.0
  0
LINE
  5
93
330
1F
100
AcDbEntity
  8
050
100
AcDbLine
 10
-80.1465997955662
 20
93.16131842132765
 30
0.0
 11
-61.81574037678146
 21
74.8304590025429
 31
0.0
  0
LINE
  5
94
330
1F
100
AcDbEntity
  8
050
100
AcDbLine
 10
-50.14900881728931
 20
56.79976641237182
 30
0.0
 11
-64.99791134832844
 21
71.64828803099589
 31
0.0
  0
LINE
  5
95
330
1F
100
AcDbEntity
  8
050
100
AcDbLine
 10
-64.99791134832844
 20
71.64828803099589
 30
0.0
 11
-50.14828803099589
 21
86.49791134832844
 31
0.0
  0
LINE
  5
96
330
1F
100
AcDbEntity
  8
050
100
AcDbLine
 10
-35.29976641237182
 20
71.6490088172893
 30
0.0
 11
-50.14828803099589
 21
86.49791134832844
 31
0.0
  0
LINE
  5
97
330
1F
100
AcDbEntity
  8
050
100
AcDbLine
 10
-54.68607793018125
 20
68.76126627151498
 30
0.0
 11
-61.28550551899531
 21
75.36069386032902
 31
0.0
  0
LINE
  5
98
330
1F
100
AcDbEntity
  8
050
100
AcDbLine
 10
-47.26126627151498
 20
76.18607793018126
 30
0.0
 11
-53.86069386032903
 21
82.7855055189953
 31
0.0
  0
LINE
  5
99
330
1F
100
AcDbEntity
  8
VER
100
AcDbLine
 10
68.48999999999998
 20
9.4
 30
0.0
 11
-68.48999999999998
 21
9.4
 31
0.0
  0
LINE
  5
9A
330
1F
100
AcDbEntity
  8
VER
100
AcDbLine
 10
-68.48999999999998
 20
-9.4
 30
0.0
 11
68.48999999999998
 21
-9.4
 31
0.0
  0
LINE
  5
9B
330
1F
100
AcDbEntity
  8
050
100
AcDbLine
 10
32.99911897958842
 20
54.26000000000001
 30
0.0
 11
32.99911897958842
 21
47.26000000000001
 31
0.0
  0
LINE
  5
9C
330
1F
100
AcDbEntity
  8
050
100
AcDbLine
 10
10.00088102041158
 20
54.26000000000001
 30
0.0
 11
10.00088102041158
 21
47.26000000000001
 31
0.0
  0
LINE
  5
9D
330
1F
100
AcDbEntity
  8
VER
100
AcDbLine
 10
-92.52596002438476
 20
100.0677700074887
 30
0.0
 11
-89.7413803986573
 21
97.15755862966444
 31
0.0
  0
LINE
  5
9E
330
1F
100
AcDbEntity
  8
VER
100
AcDbLine
 10
-93.0512985522207
 20
100.4091629284897
 30
0.0
 11
-78.90916292848978
 21
114.5512985522207
 31
0.0
  0
LINE
  5
9F
330
1F
100
AcDbEntity
  8
VER
100
AcDbLine
 10
-89.71240754361033
 20
97.17939124192807
 30
0.0
 11
-92.47555896993485
 21
100.1057499261988
 31
0.0
  0
LINE
  5
A0
330
1F
100
AcDbEntity
  8
VER
100
AcDbLine
 10
-85.75885696833409
 20
105.1671479228387
 30
0.0
 11
-83.26079939784825
 21
102.0410266898433
 31
0.0
  0
LINE
  5
A1
330
1F
100
AcDbEntity
  8
VER
100
AcDbLine
 10
-79.60515613386303
 20
112.649302137359
 30
0.0
 11
-76.81085545384025
 21
109.7109038203435
 31
0.0
  0
LINE
  5
A2
330
1F
100
AcDbEntity
  8
050
100
AcDbLine
 10
-82.9750269203124
 20
90.33289129658145
 30
0.0
 11
-68.83289129658147
 21
104.4750269203124
 31
0.0
  0
LINE
  5
A3
330
1F
100
AcDbEntity
  8
VER
100
AcDbLine
 10
-70.91885630108177
 20
106.5609919248127
 30
0.0
 11
-75.63249944120518
 21
111.2746350649361
 31
0.0
  0
LINE
  5
A4
330
1F
100
AcDbEntity
  8
050
100
AcDbLine
 10
-68.83289129658147
 20
104.4750269203124
 30
0.0
 11
-70.91885630108177
 21
106.5609919248127
 31
0.0
  0
LINE
  5
A5
330
1F
100
AcDbEntity
  8
VER
100
AcDbLine
 10
-78.48872313863346
 20
114.1308587623644
 30
0.0
 11
-78.90916292848978
 21
114.5512985522207
 31
0.0
  0
LINE
  5
A6
330
1F
100
AcDbEntity
  8
050
100
AcDbLine
 10
-85.06099192481271
 20
92.41885630108176
 30
0.0
 11
-82.97502692031239
 21
90.33289129658145
 31
0.0
  0
LINE
  5
A7
330
1F
100
AcDbEntity
  8
VER
100
AcDbLine
 10
-93.0512985522207
 20
100.4091629284897
 30
0.0
 11
-85.06099192481271
 21
92.41885630108176
 31
0.0
  0
LINE
  5
A8
330
1F
100
AcDbEntity
  8
050
100
AcDbLine
 10
11.2715
 20
46.26000000000001
 30
0.0
 11
11.2715
 21
32.84260469364461
 31
0.0
  0
LINE
  5
A9
330
1F
100
AcDbEntity
  8
050
100
AcDbLine
 10
31.7285
 20
16.0
 30
0.0
 11
31.7285
 21
46.26000000000001
 31
0.0
  0
LINE
  5
AA
330
1F
100
AcDbEntity
  8
050
100
AcDbLine
 10
31.7285
 20
46.26000000000001
 30
0.0
 11
11.2715
 21
46.26000000000001
 31
0.0
  0
LINE
  5
AB
330
1F
100
AcDbEntity
  8
050
100
AcDbLine
 10
12.2715
 20
47.26000000000001
 30
0.0
 11
11.2715
 21
46.26000000000001
 31
0.0
  0
LINE
  5
AC
330
1F
100
AcDbEntity
  8
050
100
AcDbLine
 10
31.7285
 20
46.26000000000001
 30
0.0
 11
30.7285
 21
47.26000000000001
 31
0.0
  0
LINE
  5
AD
330
1F
100
AcDbEntity
  8
050
100
AcDbLine
 10
-58.39829329597794
 20
65.0490509057183
 30
0.0
 11
-43.5490509057183
 21
79.89829329597795
 31
0.0
  0
LINE
  5
AE
330
1F
100
AcDbEntity
  8
050
100
AcDbLine
 10
28.1874144998848
 20
54.26000000000001
 30
0.0
 11
28.1874144998848
 21
47.26000000000001
 31
0.0
  0
LINE
  5
AF
330
1F
100
AcDbEntity
  8
050
100
AcDbLine
 10
26.31170447970363
 20
54.26000000000001
 30
0.0
 11
26.31170447970363
 21
47.26000000000001
 31
0.0
  0
LINE
  5
B0
330
1F
100
AcDbEntity
  8
050
100
AcDbLine
 10
9.95
 20
47.26000000000001
 30
0.0
 11
33.05
 21
47.26000000000001
 31
0.0
  0
LINE
  5
B1
330
1F
100
AcDbEntity
  8
050
100
AcDbLine
 10
16.68829552029637
 20
54.26000000000001
 30
0.0
 11
16.68829552029637
 21
47.26000000000001
 31
0.0
  0
LINE
  5
B2
330
1F
100
AcDbEntity
  8
050
100
AcDbLine
 10
9.95
 20
54.26000000000001
 30
0.0
 11
33.05
 21
54.26000000000001
 31
0.0
  0
LINE
  5
B3
330
1F
100
AcDbEntity
  8
050
100
AcDbLine
 10
14.81258550011521
 20
54.26000000000001
 30
0.0
 11
14.81258550011521
 21
47.26000000000001
 31
0.0
  0
LINE
  5
B4
330
1F
100
AcDbEntity
  8
VER
100
AcDbLine
 10
68.48999999999998
 20
-9.4
 30
0.0
 11
68.48999999999998
 21
9.4
 31
0.0
  0
LINE
  5
B5
330
1F
100
AcDbEntity
  8
VER
100
AcDbLine
 10
68.48999999999998
 20
-9.4
 30
0.0
 11
76.58682408883345
 21
-10.82768854491156
 31
0.0
  0
LINE
  5
B6
330
1F
100
AcDbEntity
  8
VER
100
AcDbLine
 10
76.58682408883345
 20
10.82768854491156
 30
0.0
 11
68.48999999999998
 21
9.4
 31
0.0
  0
LINE
  5
B7
330
1F
100
AcDbEntity
  8
VER
100
AcDbLine
 10
-68.48999999999998
 20
-9.4
 30
0.0
 11
-68.48999999999998
 21
9.4
 31
0.0
  0
LINE
  5
B8
330
1F
100
AcDbEntity
  8
VER
100
AcDbLine
 10
-68.48999999999998
 20
9.4
 30
0.0
 11
-76.58682408883347
 21
10.82768854491158
 31
0.0
  0
LINE
  5
B9
330
1F
100
AcDbEntity
  8
VER
100
AcDbLine
 10
-76.58682408883347
 20
-10.82768854491158
 30
0.0
 11
-68.48999999999998
 21
-9.4
 31
0.0
  0
LINE
  5
BA
330
1F
100
AcDbEntity
  8
050
100
AcDbLine
 10
-58.10000000000001
 20
11.0
 30
0.0
 11
-64.5
 21
11.0
 31
0.0
  0
LINE
  5
BB
330
1F
100
AcDbEntity
  8
050
100
AcDbLine
 10
-64.5
 20
-11.0
 30
0.0
 11
-58.10000000000001
 21
-11.0
 31
0.0
  0
LINE
  5
BC
330
1F
100
AcDbEntity
  8
050
100
AcDbLine
 10
64.50000000000001
 20
11.0
 30
0.0
 11
58.1
 21
11.0
 31
0.0
  0
LINE
  5
BD
330
1F
100
AcDbEntity
  8
050
100
AcDbLine
 10
58.1
 20
-11.0
 30
0.0
 11
64.50000000000001
 21
-11.0
 31
0.0
  0
LINE
  5
BE
330
1F
100
AcDbEntity
  8
VER
100
AcDbLine
 10
-76.58682408883347
 20
-10.82768854491158
 30
0.0
 11
-76.58682408883347
 21
10.82768854491158
 31
0.0
  0
ARC
  5
BF
330
1F
100
AcDbEntity
  8
VER
100
AcDbCircle
 10
-76.49999999999994
 20
11.32009242141772
 30
0.0
 40
0.5000000000000426
100
AcDbArc
 50
180.0000000000036
 51
259.9999999999941
  0
ARC
  5
C0
330
1F
100
AcDbEntity
  8
VER
100
AcDbCircle
 10
-76.49999999999994
 20
-11.32009242141772
 30
0.0
 40
0.5000000000000439
100
AcDbArc
 50
100.0000000000059
 51
179.9999999999964
  0
LINE
  5
C1
330
1F
100
AcDbEntity
  8
VER
100
AcDbLine
 10
76.58682408883345
 20
-10.82768854491156
 30
0.0
 11
76.58682408883345
 21
10.82768854491156
 31
0.0
  0
ARC
  5
C2
330
1F
100
AcDbEntity
  8
VER
100
AcDbCircle
 10
76.5
 20
11.32009242141768
 30
0.0
 40
0.5000000000000088
100
AcDbArc
 50
279.9999999999984
 51
0.0000000000008142
  0
ARC
  5
C3
330
1F
100
AcDbEntity
  8
VER
100
AcDbCircle
 10
76.5
 20
-11.32009242141768
 30
0.0
 40
0.5
100
AcDbArc
 50
359.9999999999993
 51
80.00000000000165
  0
LINE
  5
C4
330
1F
100
AcDbEntity
  8
050
100
AcDbLine
 10
-51.56
 20
11.95
 30
0.0
 11
-52.2
 21
11.95
 31
0.0
  0
LINE
  5
C5
330
1F
100
AcDbEntity
  8
050
100
AcDbLine
 10
-52.2
 20
-11.95
 30
0.0
 11
-51.56
 21
-11.95
 31
0.0
  0
LINE
  5
C6
330
1F
100
AcDbEntity
  8
050
100
AcDbLine
 10
53.40000000000002
 20
11.95
 30
0.0
 11
53.06000000000001
 21
11.95
 31
0.0
  0
LINE
  5
C7
330
1F
100
AcDbEntity
  8
050
100
AcDbLine
 10
53.06000000000001
 20
-11.95
 30
0.0
 11
53.40000000000002
 21
-11.95
 31
0.0
  0
LINE
  5
C8
330
1F
100
AcDbEntity
  8
050
100
AcDbLine
 10
-53.06
 20
11.95
 30
0.0
 11
-53.40000000000001
 21
11.95
 31
0.0
  0
LINE
  5
C9
330
1F
100
AcDbEntity
  8
050
100
AcDbLine
 10
-53.40000000000001
 20
-11.95
 30
0.0
 11
-53.06
 21
-11.95
 31
0.0
  0
LINE
  5
CA
330
1F
100
AcDbEntity
  8
050
100
AcDbLine
 10
52.20000000000001
 20
11.95
 30
0.0
 11
51.56000000000001
 21
11.95
 31
0.0
  0
LINE
  5
CB
330
1F
100
AcDbEntity
  8
050
100
AcDbLine
 10
51.56000000000001
 20
-11.95
 30
0.0
 11
52.20000000000001
 21
-11.95
 31
0.0
  0
LINE
  5
CC
330
1F
100
AcDbEntity
  8
050
100
AcDbLine
 10
50.70000000000001
 20
12.15
 30
0.0
 11
47.5
 21
12.15
 31
0.0
  0
LINE
  5
CD
330
1F
100
AcDbEntity
  8
050
100
AcDbLine
 10
47.5
 20
-12.15
 30
0.0
 11
50.70000000000001
 21
-12.15
 31
0.0
  0
LINE
  5
CE
330
1F
100
AcDbEntity
  8
050
100
AcDbLine
 10
-47.5
 20
12.15
 30
0.0
 11
-50.7
 21
12.15
 31
0.0
  0
LINE
  5
CF
330
1F
100
AcDbEntity
  8
050
100
AcDbLine
 10
-50.7
 20
-12.15
 30
0.0
 11
-47.5
 21
-12.15
 31
0.0
  0
LINE
  5
D0
330
1F
100
AcDbEntity
  8
050
100
AcDbLine
 10
77.0
 20
-11.98537920540369
 30
0.0
 11
77.0
 21
11.9853791850719
 31
0.0
  0
ARC
  5
D1
330
1F
100
AcDbEntity
  8
050
100
AcDbCircle
 10
76.60000000000007
 20
11.98537920540375
 30
0.0
 40
0.3999999999999346
100
AcDbArc
 50
359.9999999999924
 51
80.00000000000603
  0
ARC
  5
D2
330
1F
100
AcDbEntity
  8
050
100
AcDbCircle
 10
76.60000000000007
 20
-11.98537920540375
 30
0.0
 40
0.3999999999999352
100
AcDbArc
 50
279.999999999994
 51
0.0000000000076333
  0
LINE
  5
D3
330
1F
100
AcDbEntity
  8
050
100
AcDbLine
 10
-77.0
 20
-11.98537920540369
 30
0.0
 11
-77.0
 21
11.9853791850719
 31
0.0
  0
ARC
  5
D4
330
1F
100
AcDbEntity
  8
050
100
AcDbCircle
 10
-76.60000000000004
 20
11.98537920540372
 30
0.0
 40
0.3999999999999674
100
AcDbArc
 50
99.99999999999523
 51
180.0000000000036
  0
ARC
  5
D5
330
1F
100
AcDbEntity
  8
050
100
AcDbCircle
 10
-76.60000000000004
 20
-11.98537920540372
 30
0.0
 40
0.3999999999999631
100
AcDbArc
 50
179.9999999999964
 51
260.0000000000048
  0
LINE
  5
D6
330
1F
100
AcDbEntity
  8
050
100
AcDbLine
 10
-52.2
 20
-12.55217848286035
 30
0.0
 11
-52.2
 21
12.55217848286035
 31
0.0
  0
LINE
  5
D7
330
1F
100
AcDbEntity
  8
050
100
AcDbLine
 10
-53.06
 20
-11.95
 30
0.0
 11
-53.06
 21
11.95
 31
0.0
  0
LINE
  5
D8
330
1F
100
AcDbEntity
  8
050
100
AcDbLine
 10
-53.06
 20
-11.95
 30
0.0
 11
-52.2
 21
-12.55217848286035
 31
0.0
  0
LINE
  5
D9
330
1F
100
AcDbEntity
  8
050
100
AcDbLine
 10
-52.2
 20
12.55217848286035
 30
0.0
 11
-53.06
 21
11.95
 31
0.0
  0
LINE
  5
DA
330
1F
100
AcDbEntity
  8
050
100
AcDbLine
 10
52.20000000000001
 20
-12.55217848286035
 30
0.0
 11
52.20000000000001
 21
12.55217848286035
 31
0.0
  0
LINE
  5
DB
330
1F
100
AcDbEntity
  8
050
100
AcDbLine
 10
53.06000000000001
 20
-11.95
 30
0.0
 11
53.06000000000001
 21
11.95
 31
0.0
  0
LINE
  5
DC
330
1F
100
AcDbEntity
  8
050
100
AcDbLine
 10
53.06000000000001
 20
11.95
 30
0.0
 11
52.20000000000001
 21
12.55217848286035
 31
0.0
  0
LINE
  5
DD
330
1F
100
AcDbEntity
  8
050
100
AcDbLine
 10
52.20000000000001
 20
-12.55217848286035
 30
0.0
 11
53.06000000000001
 21
-11.95
 31
0.0
  0
LINE
  5
DE
330
1F
100
AcDbEntity
  8
050
100
AcDbLine
 10
-50.7
 20
-12.55217848286035
 30
0.0
 11
-50.7
 21
12.55217848286035
 31
0.0
  0
LINE
  5
DF
330
1F
100
AcDbEntity
  8
050
100
AcDbLine
 10
-51.56
 20
-11.95
 30
0.0
 11
-51.56
 21
11.95
 31
0.0
  0
LINE
  5
E0
330
1F
100
AcDbEntity
  8
050
100
AcDbLine
 10
-51.56
 20
-11.95
 30
0.0
 11
-50.7
 21
-12.55217848286035
 31
0.0
  0
LINE
  5
E1
330
1F
100
AcDbEntity
  8
050
100
AcDbLine
 10
-50.7
 20
12.55217848286035
 30
0.0
 11
-51.56
 21
11.95
 31
0.0
  0
LINE
  5
E2
330
1F
100
AcDbEntity
  8
050
100
AcDbLine
 10
51.56000000000001
 20
-11.95
 30
0.0
 11
51.56000000000001
 21
11.95
 31
0.0
  0
LINE
  5
E3
330
1F
100
AcDbEntity
  8
050
100
AcDbLine
 10
50.70000000000001
 20
-12.55217848286035
 30
0.0
 11
50.70000000000001
 21
12.55217848286035
 31
0.0
  0
LINE
  5
E4
330
1F
100
AcDbEntity
  8
050
100
AcDbLine
 10
51.56000000000001
 20
11.95
 30
0.0
 11
50.70000000000001
 21
12.55217848286035
 31
0.0
  0
LINE
  5
E5
330
1F
100
AcDbEntity
  8
050
100
AcDbLine
 10
50.70000000000001
 20
-12.55217848286035
 30
0.0
 11
51.56000000000001
 21
-11.95
 31
0.0
  0
LINE
  5
E6
330
1F
100
AcDbEntity
  8
050
100
AcDbLine
 10
-40.375
 20
12.8
 30
0.0
 11
-44.29999999999999
 21
12.8
 31
0.0
  0
LINE
  5
E7
330
1F
100
AcDbEntity
  8
050
100
AcDbLine
 10
-44.29999999999999
 20
-12.8
 30
0.0
 11
-40.375
 21
-12.8
 31
0.0
  0
LINE
  5
E8
330
1F
100
AcDbEntity
  8
050
100
AcDbLine
 10
44.29999999999999
 20
12.8
 30
0.0
 11
40.37500000000001
 21
12.8
 31
0.0
  0
LINE
  5
E9
330
1F
100
AcDbEntity
  8
050
100
AcDbLine
 10
40.37500000000001
 20
-12.8
 30
0.0
 11
44.29999999999999
 21
-12.8
 31
0.0
  0
LINE
  5
EA
330
1F
100
AcDbEntity
  8
050
100
AcDbLine
 10
76.66945927106678
 20
-12.37930230660857
 30
0.0
 11
76.66945927106678
 21
12.37930230660857
 31
0.0
  0
LINE
  5
EB
330
1F
100
AcDbEntity
  8
050
100
AcDbLine
 10
76.66945927106678
 20
12.37930230660857
 30
0.0
 11
73.99999999999997
 21
12.85
 31
0.0
  0
LINE
  5
EC
330
1F
100
AcDbEntity
  8
050
100
AcDbLine
 10
73.99999999999997
 20
-12.85
 30
0.0
 11
76.66945927106678
 21
-12.37930230660857
 31
0.0
  0
LINE
  5
ED
330
1F
100
AcDbEntity
  8
050
100
AcDbLine
 10
-76.66945927106677
 20
-12.37930230660857
 30
0.0
 11
-76.66945927106677
 21
12.37930230660857
 31
0.0
  0
LINE
  5
EE
330
1F
100
AcDbEntity
  8
050
100
AcDbLine
 10
-76.66945927106677
 20
-12.37930230660857
 30
0.0
 11
-73.99999999999997
 21
-12.85
 31
0.0
  0
LINE
  5
EF
330
1F
100
AcDbEntity
  8
050
100
AcDbLine
 10
-73.99999999999997
 20
12.85
 30
0.0
 11
-76.66945927106677
 21
12.37930230660857
 31
0.0
  0
LINE
  5
F0
330
1F
100
AcDbEntity
  8
050
100
AcDbLine
 10
-73.99999999999997
 20
-12.85
 30
0.0
 11
-73.99999999999997
 21
12.85
 31
0.0
  0
LINE
  5
F1
330
1F
100
AcDbEntity
  8
050
100
AcDbLine
 10
-73.69
 20
12.85
 30
0.0
 11
-73.99999999999997
 21
12.85
 31
0.0
  0
LINE
  5
F2
330
1F
100
AcDbEntity
  8
050
100
AcDbLine
 10
-73.99999999999997
 20
-12.85
 30
0.0
 11
-73.69
 21
-12.85
 31
0.0
  0
LINE
  5
F3
330
1F
100
AcDbEntity
  8
050
100
AcDbLine
 10
64.50000000000001
 20
-12.85
 30
0.0
 11
64.50000000000001
 21
12.85
 31
0.0
  0
LINE
  5
F4
330
1F
100
AcDbEntity
  8
050
100
AcDbLine
 10
67.51999999999998
 20
12.85
 30
0.0
 11
64.50000000000001
 21
12.85
 31
0.0
  0
LINE
  5
F5
330
1F
100
AcDbEntity
  8
050
100
AcDbLine
 10
64.50000000000001
 20
-12.85
 30
0.0
 11
67.51999999999998
 21
-12.85
 31
0.0
  0
LINE
  5
F6
330
1F
100
AcDbEntity
  8
050
100
AcDbLine
 10
58.1
 20
-12.85
 30
0.0
 11
58.1
 21
12.85
 31
0.0
  0
LINE
  5
F7
330
1F
100
AcDbEntity
  8
050
100
AcDbLine
 10
53.40000000000002
 20
-12.85
 30
0.0
 11
53.40000000000002
 21
12.85
 31
0.0
  0
LINE
  5
F8
330
1F
100
AcDbEntity
  8
050
100
AcDbLine
 10
58.1
 20
12.85
 30
0.0
 11
53.40000000000002
 21
12.85
 31
0.0
  0
LINE
  5
F9
330
1F
100
AcDbEntity
  8
050
100
AcDbLine
 10
53.40000000000002
 20
-12.85
 30
0.0
 11
58.1
 21
-12.85
 31
0.0
  0
LINE
  5
FA
330
1F
100
AcDbEntity
  8
050
100
AcDbLine
 10
73.99999999999997
 20
-12.85
 30
0.0
 11
73.99999999999997
 21
12.85
 31
0.0
  0
LINE
  5
FB
330
1F
100
AcDbEntity
  8
050
100
AcDbLine
 10
73.99999999999997
 20
12.85
 30
0.0
 11
73.69
 21
12.85
 31
0.0
  0
LINE
  5
FC
330
1F
100
AcDbEntity
  8
050
100
AcDbLine
 10
73.69
 20
-12.85
 30
0.0
 11
73.99999999999997
 21
-12.85
 31
0.0
  0
LINE
  5
FD
330
1F
100
AcDbEntity
  8
050
100
AcDbLine
 10
-53.40000000000001
 20
-12.85
 30
0.0
 11
-53.40000000000001
 21
12.85
 31
0.0
  0
LINE
  5
FE
330
1F
100
AcDbEntity
  8
050
100
AcDbLine
 10
-58.10000000000001
 20
-12.85
 30
0.0
 11
-58.10000000000001
 21
12.85
 31
0.0
  0
LINE
  5
FF
330
1F
100
AcDbEntity
  8
050
100
AcDbLine
 10
-53.40000000000001
 20
12.85
 30
0.0
 11
-58.10000000000001
 21
12.85
 31
0.0
  0
LINE
  5
100
330
1F
100
AcDbEntity
  8
050
100
AcDbLine
 10
-58.10000000000001
 20
-12.85
 30
0.0
 11
-53.40000000000001
 21
-12.85
 31
0.0
  0
LINE
  5
101
330
1F
100
AcDbEntity
  8
050
100
AcDbLine
 10
67.51999999999998
 20
-12.85
 30
0.0
 11
67.51999999999998
 21
12.85
 31
0.0
  0
LINE
  5
102
330
1F
100
AcDbEntity
  8
050
100
AcDbLine
 10
73.69
 20
-12.84999999999999
 30
0.0
 11
73.69
 21
12.84999999999999
 31
0.0
  0
ARC
  5
103
330
1F
100
AcDbEntity
  8
050
100
AcDbCircle
 10
70.605
 20
15.70004824520569
 30
0.0
 40
4.200000000000005
100
AcDbArc
 50
222.7330060642226
 51
317.2669939357771
  0
ARC
  5
104
330
1F
100
AcDbEntity
  8
050
100
AcDbCircle
 10
70.605
 20
-15.70004824520569
 30
0.0
 40
4.200000000000004
100
AcDbArc
 50
42.73300606422292
 51
137.2669939357774
  0
LINE
  5
105
330
1F
100
AcDbEntity
  8
050
100
AcDbLine
 10
-73.69
 20
-12.85
 30
0.0
 11
-73.69
 21
12.85
 31
0.0
  0
ARC
  5
106
330
1F
100
AcDbEntity
  8
050
100
AcDbCircle
 10
-70.605
 20
15.70004824520571
 30
0.0
 40
4.200000000000014
100
AcDbArc
 50
222.733006064223
 51
317.2669939357772
  0
ARC
  5
107
330
1F
100
AcDbEntity
  8
050
100
AcDbCircle
 10
-70.605
 20
-15.7000482452057
 30
0.0
 40
4.200000000000005
100
AcDbArc
 50
42.73300606422265
 51
137.2669939357771
  0
LINE
  5
108
330
1F
100
AcDbEntity
  8
050
100
AcDbLine
 10
-64.50000000000001
 20
-12.85
 30
0.0
 11
-64.50000000000001
 21
12.85
 31
0.0
  0
LINE
  5
109
330
1F
100
AcDbEntity
  8
050
100
AcDbLine
 10
-67.52
 20
-12.85000000000001
 30
0.0
 11
-67.52
 21
12.85000000000001
 31
0.0
  0
LINE
  5
10A
330
1F
100
AcDbEntity
  8
050
100
AcDbLine
 10
-64.50000000000001
 20
12.85
 30
0.0
 11
-67.52
 21
12.85
 31
0.0
  0
LINE
  5
10B
330
1F
100
AcDbEntity
  8
050
100
AcDbLine
 10
-67.52
 20
-12.85
 30
0.0
 11
-64.50000000000001
 21
-12.85
 31
0.0
  0
LINE
  5
10C
330
1F
100
AcDbEntity
  8
VER
100
AcDbLine
 10
-97.14387023962965
 20
93.48816411633457
 30
0.0
 11
-97.7994968842907
 21
94.24675103404654
 31
0.0
  0
LINE
  5
10D
330
1F
100
AcDbEntity
  8
VER
100
AcDbLine
 10
-97.46843203289556
 20
94.57781588544178
 30
0.0
 11
-96.81648872546776
 21
93.81554563049649
 31
0.0
  0
LINE
  5
10E
330
1F
100
AcDbEntity
  8
VER
100
AcDbLine
 10
-100.8294731452727
 20
91.21677477306464
 30
0.0
 11
-100.1223663640862
 21
90.50966799187808
 31
0.0
  0
LINE
  5
10F
330
1F
100
AcDbEntity
  8
050
100
AcDbLine
 10
-50.14900881728931
 20
56.79976641237182
 30
0.0
 11
-35.29976641237181
 21
71.64900881728931
 31
0.0
  0
LINE
  5
110
330
1F
100
AcDbEntity
  8
050
100
AcDbLine
 10
-50.14900881728931
 20
56.79976641237182
 30
0.0
 11
-50.14900881728931
 21
51.85001894406597
 31
0.0
  0
LINE
  5
111
330
1F
100
AcDbEntity
  8
050
100
AcDbLine
 10
-30.35001894406597
 20
71.64900881728931
 30
0.0
 11
-35.29976641237181
 21
71.64900881728931
 31
0.0
  0
LINE
  5
112
330
1F
100
AcDbEntity
  8
050
100
AcDbLine
 10
-50.14900881728931
 20
51.85001894406598
 30
0.0
 11
-30.35001894406598
 21
71.6490088172893
 31
0.0
  0
LINE
  5
113
330
1F
100
AcDbEntity
  8
050
100
AcDbLine
 10
-28.93580538169286
 20
70.23479525491622
 30
0.0
 11
-30.35001894406597
 21
71.64900881728931
 31
0.0
  0
LINE
  5
114
330
1F
100
AcDbEntity
  8
050
100
AcDbLine
 10
-50.14900881728931
 20
51.85001894406597
 30
0.0
 11
-48.73479525491621
 21
50.43580538169287
 31
0.0
  0
LINE
  5
115
330
1F
100
AcDbEntity
  8
050
100
AcDbLine
 10
-50.07224934698574
 20
45.4443587572985
 30
0.0
 11
-37.05000320823066
 21
32.42211261854342
 31
0.0
  0
LINE
  5
116
330
1F
100
AcDbEntity
  8
050
100
AcDbLine
 10
-43.54027669956394
 20
51.97633140472031
 30
0.0
 11
-30.51803056080886
 21
38.95408526596523
 31
0.0
  0
LINE
  5
117
330
1F
100
AcDbEntity
  8
050
100
AcDbLine
 10
47.5
 20
-14.75
 30
0.0
 11
47.5
 21
14.75
 31
0.0
  0
LINE
  5
118
330
1F
100
AcDbEntity
  8
050
100
AcDbLine
 10
47.5
 20
14.75
 30
0.0
 11
46.77831216351296
 21
16.0
 31
0.0
  0
LINE
  5
119
330
1F
100
AcDbEntity
  8
050
100
AcDbLine
 10
46.77831216351296
 20
-16.0
 30
0.0
 11
47.5
 21
-14.75
 31
0.0
  0
LINE
  5
11A
330
1F
100
AcDbEntity
  8
050
100
AcDbLine
 10
-45.20066641993582
 20
16.0
 30
0.0
 11
-46.77831216351296
 21
16.0
 31
0.0
  0
LINE
  5
11B
330
1F
100
AcDbEntity
  8
050
100
AcDbLine
 10
-46.77831216351296
 20
-16.0
 30
0.0
 11
-45.20066641993582
 21
-16.0
 31
0.0
  0
LINE
  5
11C
330
1F
100
AcDbEntity
  8
050
100
AcDbLine
 10
-44.3
 20
-14.43999999999999
 30
0.0
 11
-44.3
 21
14.43999999999999
 31
0.0
  0
LINE
  5
11D
330
1F
100
AcDbEntity
  8
050
100
AcDbLine
 10
-45.20066641993582
 20
-16.0
 30
0.0
 11
-45.20066641993582
 21
16.0
 31
0.0
  0
LINE
  5
11E
330
1F
100
AcDbEntity
  8
050
100
AcDbLine
 10
-44.3
 20
14.43999999999999
 30
0.0
 11
-45.20066641993582
 21
16.0
 31
0.0
  0
LINE
  5
11F
330
1F
100
AcDbEntity
  8
050
100
AcDbLine
 10
-45.20066641993582
 20
-16.0
 30
0.0
 11
-44.3
 21
-14.43999999999999
 31
0.0
  0
LINE
  5
120
330
1F
100
AcDbEntity
  8
050
100
AcDbLine
 10
-46.77831216351296
 20
-16.0
 30
0.0
 11
-46.77831216351296
 21
16.0
 31
0.0
  0
LINE
  5
121
330
1F
100
AcDbEntity
  8
050
100
AcDbLine
 10
-47.5
 20
-14.75
 30
0.0
 11
-47.5
 21
14.75
 31
0.0
  0
LINE
  5
122
330
1F
100
AcDbEntity
  8
050
100
AcDbLine
 10
-47.5
 20
-14.75
 30
0.0
 11
-46.77831216351296
 21
-16.0
 31
0.0
  0
LINE
  5
123
330
1F
100
AcDbEntity
  8
050
100
AcDbLine
 10
-46.77831216351296
 20
16.0
 30
0.0
 11
-47.5
 21
14.75
 31
0.0
  0
LINE
  5
124
330
1F
100
AcDbEntity
  8
050
100
AcDbLine
 10
40.375
 20
-16.0
 30
0.0
 11
40.375
 21
16.0
 31
0.0
  0
LINE
  5
125
330
1F
100
AcDbEntity
  8
050
100
AcDbLine
 10
-40.375
 20
-16.0
 30
0.0
 11
-40.375
 21
16.0
 31
0.0
  0
LINE
  5
126
330
1F
100
AcDbEntity
  8
050
100
AcDbLine
 10
40.375
 20
16.0
 30
0.0
 11
31.7285
 21
16.0
 31
0.0
  0
LINE
  5
127
330
1F
100
AcDbEntity
  8
050
100
AcDbLine
 10
-17.12741699796953
 20
16.0
 30
0.0
 11
-40.375
 21
16.0
 31
0.0
  0
LINE
  5
128
330
1F
100
AcDbEntity
  8
050
100
AcDbLine
 10
-40.375
 20
-16.0
 30
0.0
 11
40.375
 21
-16.0
 31
0.0
  0
LWPOLYLINE
  5
129
330
1F
100
AcDbEntity
  8
050
100
AcDbPolyline
 90
        8
 70
     0
 43
0.0
 10
31.7285
 20
16.0
 10
31.6145628033194
 20
15.92740306679945
 10
31.26477782948337
 20
15.70759923760375
 10
30.71857283329309
 20
15.37399989699263
 10
29.96936160303263
 20
14.93679596543126
 10
28.99322335307704
 20
14.40576912105352
 10
27.82173354071539
 20
13.83264626562127
 10
27.09922908658352
 20
13.51773479966385
  0
LINE
  5
12A
330
1F
100
AcDbEntity
  8
050
100
AcDbLine
 10
46.77831216351296
 20
-16.0
 30
0.0
 11
46.77831216351296
 21
16.0
 31
0.0
  0
LINE
  5
12B
330
1F
100
AcDbEntity
  8
050
100
AcDbLine
 10
46.77831216351296
 20
16.0
 30
0.0
 11
45.20066641993582
 21
16.0
 31
0.0
  0
LINE
  5
12C
330
1F
100
AcDbEntity
  8
050
100
AcDbLine
 10
45.20066641993582
 20
-16.0
 30
0.0
 11
46.77831216351296
 21
-16.0
 31
0.0
  0
LINE
  5
12D
330
1F
100
AcDbEntity
  8
050
100
AcDbLine
 10
45.20066641993582
 20
-16.0
 30
0.0
 11
45.20066641993582
 21
16.0
 31
0.0
  0
LINE
  5
12E
330
1F
100
AcDbEntity
  8
050
100
AcDbLine
 10
44.29999999999999
 20
-14.43999999999999
 30
0.0
 11
44.29999999999999
 21
14.43999999999999
 31
0.0
  0
LINE
  5
12F
330
1F
100
AcDbEntity
  8
050
100
AcDbLine
 10
44.29999999999999
 20
-14.43999999999999
 30
0.0
 11
45.20066641993582
 21
-16.0
 31
0.0
  0
LINE
  5
130
330
1F
100
AcDbEntity
  8
050
100
AcDbLine
 10
45.20066641993582
 20
16.0
 30
0.0
 11
44.29999999999999
 21
14.43999999999999
 31
0.0
  0
LINE
  5
131
330
1F
100
AcDbEntity
  8
050
100
AcDbLine
 10
-30.47633140472031
 20
65.04027669956393
 30
0.0
 11
-17.45408526596524
 21
52.01803056080885
 31
0.0
  0
LINE
  5
132
330
1F
100
AcDbEntity
  8
050
100
AcDbLine
 10
-23.9443587572985
 20
71.57224934698574
 30
0.0
 11
-10.92211261854343
 21
58.55000320823066
 31
0.0
  0
LINE
  5
133
330
1F
100
AcDbEntity
  8
050
100
AcDbLine
 10
-48.73479525491621
 20
50.43580538169287
 30
0.0
 11
-28.93580538169286
 21
70.23479525491622
 31
0.0
  0
LWPOLYLINE
  5
134
330
1F
100
AcDbEntity
  8
050
100
AcDbPolyline
 90
        9
 70
     0
 43
0.0
 10
-50.07224934698574
 20
45.4443587572985
 10
-49.66225879698685
 20
46.73301680311621
 10
-49.12959712634687
 20
47.92330663978603
 10
-48.43515122621141
 20
49.01131841084885
 10
-47.57895688432116
 20
49.94763997119966
 10
-46.72165385035543
 20
50.61491208369628
 10
-45.75927693096862
 20
51.16643229075098
 10
-44.68730348653413
 20
51.61861165340575
 10
-43.54027669956394
 20
51.97633140472031
  0
LWPOLYLINE
  5
135
330
1F
100
AcDbEntity
  8
050
100
AcDbPolyline
 90
        9
 70
     0
 43
0.0
 10
-43.54027669956394
 20
51.97633140472031
 10
-42.44015340027561
 20
53.8596517179034
 10
-41.23777457805007
 20
55.67889945645884
 10
-39.89635792468528
 20
57.44258609159965
 10
-38.4276363898075
 20
59.10126177818291
 10
-36.64856090075901
 20
60.79847272218069
 10
-34.73143733393771
 20
62.33868879913268
 10
-32.64864652444157
 20
63.75928449276805
 10
-30.47633140472031
 20
65.04027669956393
  0
LWPOLYLINE
  5
136
330
1F
100
AcDbEntity
  8
050
100
AcDbPolyline
 90
        9
 70
     0
 43
0.0
 10
-30.47633140472031
 20
65.04027669956393
 10
-30.06634085472141
 20
66.32893474538163
 10
-29.53367918408144
 20
67.51922458205145
 10
-28.83923328394597
 20
68.60723635311427
 10
-27.98303894205572
 20
69.54355791346511
 10
-27.12573590809
 20
70.21083002596173
 10
-26.16335898870318
 20
70.76235023301642
 10
-25.09138554426869
 20
71.21452959567118
 10
-23.9443587572985
 20
71.57224934698574
  0
LINE
  5
137
330
1F
100
AcDbEntity
  8
050
100
AcDbLine
 10
-48.73479525491621
 20
50.43580538169287
 30
0.0
 11
-50.07224934698574
 21
45.44435875729849
 31
0.0
  0
LINE
  5
138
330
1F
100
AcDbEntity
  8
050
100
AcDbLine
 10
-23.9443587572985
 20
71.57224934698574
 30
0.0
 11
-28.93580538169286
 21
70.23479525491622
 31
0.0
  0
LINE
  5
139
330
1F
100
AcDbEntity
  8
050
100
AcDbLine
 10
21.49999999999999
 20
0.0000000000000264
 30
0.0
 11
27.0992290865835
 21
13.51773479966385
 31
0.0
  0
LWPOLYLINE
  5
13A
330
1F
100
AcDbEntity
  8
050
100
AcDbPolyline
 90
       20
 70
     0
 43
0.0
 10
27.09922908658352
 20
13.51773479966385
 10
25.89490733725081
 20
14.08172646076668
 10
24.64364660231501
 20
14.81521203125337
 10
23.11407768233268
 20
15.9348843675781
 10
21.64076343264376
 20
17.26024815254726
 10
20.53935333294252
 20
18.41344144641042
 10
19.50628513691971
 20
19.62055160171649
 10
18.51136870426017
 20
20.89432259836976
 10
17.57333779073445
 20
22.19118869399404
 10
16.39262037829365
 20
23.94654763804818
 10
15.29209597124766
 20
25.69717595872448
 10
14.23660046998359
 20
27.46904497900921
 10
13.26809039597146
 20
29.16714896157578
 10
12.48572873392064
 20
30.58438365375432
 10
12.12872301574257
 20
31.24359201000501
 10
11.81447404269568
 20
31.82992483465549
 10
11.58456223509407
 20
32.26241491259741
 10
11.40642427705999
 20
32.59948866264207
 10
11.30010031735562
 20
32.80148110014739
 10
11.27150000032019
 20
32.85591699735987
  0
LINE
  5
13B
330
1F
100
AcDbEntity
  8
050
100
AcDbLine
 10
-19.96262032843562
 20
18.83520333046609
 30
0.0
 11
-17.12741699796952
 21
16.0
 31
0.0
  0
LINE
  5
13C
330
1F
100
AcDbEntity
  8
050
100
AcDbLine
 10
11.28165780119603
 20
32.8457591967735
 30
0.0
 11
2.664796669533911
 21
41.46262032843562
 31
0.0
  0
LINE
  5
13D
330
1F
100
AcDbEntity
  8
050
100
AcDbLine
 10
-17.12741699796952
 20
16.0
 30
0.0
 11
21.5
 21
-0.0000000000000001
 31
0.0
  0
LINE
  5
13E
330
1F
100
AcDbEntity
  8
050
100
AcDbLine
 10
4.577874066034136
 20
43.3756977249358
 30
0.0
 11
-21.8756977249358
 21
16.92212593396587
 31
0.0
  0
LINE
  5
13F
330
1F
100
AcDbEntity
  8
050
100
AcDbLine
 10
-32.00146683152718
 20
27.04789504055724
 30
0.0
 11
-21.8756977249358
 21
16.92212593396587
 31
0.0
  0
LINE
  5
140
330
1F
100
AcDbEntity
  8
050
100
AcDbLine
 10
4.577874066034129
 20
43.37569772493582
 30
0.0
 11
-5.547895040557235
 21
53.50146683152717
 31
0.0
  0
LINE
  5
141
330
1F
100
AcDbEntity
  8
050
100
AcDbLine
 10
-35.78767009139052
 20
30.85601861063739
 30
0.0
 11
-35.78767009139053
 21
29.4418050482643
 31
0.0
  0
LINE
  5
142
330
1F
100
AcDbEntity
  8
050
100
AcDbLine
 10
-7.941805048264299
 20
57.28767009139053
 30
0.0
 11
-9.356018610637385
 21
57.28767009139052
 31
0.0
  0
LINE
  5
143
330
1F
100
AcDbEntity
  8
050
100
AcDbLine
 10
-4.851748414479072
 20
54.19761345760532
 30
0.0
 11
-32.69761345760531
 21
26.35174841447907
 31
0.0
  0
LINE
  5
144
330
1F
100
AcDbEntity
  8
050
100
AcDbLine
 10
-7.941805048264297
 20
57.28767009139053
 30
0.0
 11
-35.78767009139053
 21
29.4418050482643
 31
0.0
  0
LINE
  5
145
330
1F
100
AcDbEntity
  8
050
100
AcDbLine
 10
-35.78767009139054
 20
29.4418050482643
 30
0.0
 11
-32.69761345760532
 21
26.35174841447909
 31
0.0
  0
LINE
  5
146
330
1F
100
AcDbEntity
  8
050
100
AcDbLine
 10
-4.851748414479093
 20
54.19761345760533
 30
0.0
 11
-7.941805048264305
 21
57.28767009139054
 31
0.0
  0
LINE
  5
147
330
1F
100
AcDbEntity
  8
050
100
AcDbLine
 10
-10.06312539182393
 20
59.40899043495017
 30
0.0
 11
-37.90899043495017
 21
31.56312539182392
 31
0.0
  0
LINE
  5
148
330
1F
100
AcDbEntity
  8
050
100
AcDbLine
 10
-8.648911829450837
 20
57.99477687257706
 30
0.0
 11
-36.49477687257706
 21
30.14891182945084
 31
0.0
  0
LINE
  5
149
330
1F
100
AcDbEntity
  8
050
100
AcDbLine
 10
-37.90899043495016
 20
31.56312539182393
 30
0.0
 11
-36.49477687257707
 21
30.14891182945084
 31
0.0
  0
LINE
  5
14A
330
1F
100
AcDbEntity
  8
050
100
AcDbLine
 10
-8.648911829450844
 20
57.99477687257708
 30
0.0
 11
-10.06312539182393
 21
59.40899043495017
 31
0.0
  0
LINE
  5
14B
330
1F
100
AcDbEntity
  8
VER
100
AcDbLine
 10
-83.26079939784823
 20
102.0410266898433
 30
0.0
 11
-99.1193255029146
 21
90.09077011470967
 31
0.0
  0
LINE
  5
14C
330
1F
100
AcDbEntity
  8
VER
100
AcDbLine
 10
-99.1193255029146
 20
90.09077011470967
 30
0.0
 11
-99.73037464349362
 21
90.90165971247065
 31
0.0
  0
LINE
  5
14D
330
1F
100
AcDbEntity
  8
VER
100
AcDbLine
 10
-94.94340018289937
 20
97.10284773543798
 30
0.0
 11
-94.27974275277884
 21
96.35229160318542
 31
0.0
  0
LINE
  5
14E
330
1F
100
AcDbEntity
  8
VER
100
AcDbLine
 10
-97.36964593491676
 20
91.40924823955655
 30
0.0
 11
-98.1659950916986
 21
92.46603926426566
 31
0.0
  0
LINE
  5
14F
330
1F
100
AcDbEntity
  8
VER
100
AcDbLine
 10
-83.51655769588034
 20
101.8482989885138
 30
0.0
 11
-86.0349007552421
 21
104.9591340092084
 31
0.0
  0
LINE
  5
150
330
1F
100
AcDbEntity
  8
050
100
AcDbLine
 10
-53.46535753600206
 20
124.0144906898924
 30
0.0
 11
-61.83792173997937
 21
132.3870548938697
 31
0.0
  0
LINE
  5
151
330
1F
100
AcDbEntity
  8
050
100
AcDbLine
 10
-102.5144906898924
 20
74.96535753600206
 30
0.0
 11
-110.8870548938612
 21
83.3379217399708
 31
0.0
  0
LINE
  5
152
330
1F
100
AcDbEntity
  8
050
100
AcDbLine
 10
-60.26575334836325
 20
117.2140948775312
 30
0.0
 11
-68.63831755234054
 21
125.5866590815085
 31
0.0
  0
LINE
  5
153
330
1F
100
AcDbEntity
  8
050
100
AcDbLine
 10
-95.71409487753122
 20
81.76575334836326
 30
0.0
 11
-104.0866590815085
 21
90.13831755234057
 31
0.0
  0
LWPOLYLINE
  5
154
330
1F
100
AcDbEntity
  8
VER
100
AcDbPolyline
 90
        3
 70
     0
 43
0.0
 10
-69.85335321820901
 20
122.1928947001284
 10
-70.5114213030963
 20
123.0804012889518
 10
-70.91051382808196
 20
124.1874821850873
  0
LINE
  5
155
330
1F
100
AcDbEntity
  8
VER
100
AcDbLine
 10
-94.94340018289937
 20
97.10284773543798
 30
0.0
 11
-69.85335321820901
 21
122.1928947001284
 31
0.0
  0
LWPOLYLINE
  5
156
330
1F
100
AcDbEntity
  8
VER
100
AcDbPolyline
 90
        3
 70
     0
 43
0.0
 10
-95.62879852189718
 20
97.72961349087333
 10
-95.1469182966674
 20
97.31813166170743
 10
-94.94340018289937
 20
97.10284773543798
  0
LINE
  5
157
330
1F
100
AcDbEntity
  8
VER
100
AcDbLine
 10
-98.903936817986
 20
95.26161976320886
 30
0.0
 11
-85.7588569683341
 21
105.1671479228387
 31
0.0
  0
LWPOLYLINE
  5
158
330
1F
100
AcDbEntity
  8
VER
100
AcDbPolyline
 90
        4
 70
     0
 43
0.0
 10
-97.79949688429076
 20
94.24675103404658
 10
-97.94718560106173
 20
94.41214025812847
 10
-98.85942651899305
 20
95.22946333793617
 10
-98.903936817986
 20
95.26161976320886
  0
LINE
  5
159
330
1F
100
AcDbEntity
  8
VER
100
AcDbLine
 10
-97.46843203289558
 20
94.57781588544178
 30
0.0
 11
-100.8294731452727
 21
91.21677477306463
 31
0.0
  0
LWPOLYLINE
  5
15A
330
1F
100
AcDbEntity
  8
VER
100
AcDbPolyline
 90
        3
 70
     0
 43
0.0
 10
-98.50478579511618
 20
95.56240163309505
 10
-97.9328735319562
 20
95.0711746376649
 10
-97.46843203289558
 20
94.57781588544178
  0
LWPOLYLINE
  5
15B
330
1F
100
AcDbEntity
  8
VER
100
AcDbPolyline
 90
        3
 70
     0
 43
0.0
 10
-94.5101215120273
 20
97.53612640631006
 10
-94.784886070724
 20
97.82368870044787
 10
-95.11943107275937
 20
98.11344939516167
  0
ARC
  5
15C
330
1F
100
AcDbEntity
  8
VER
100
AcDbCircle
 10
-66.88834764831842
 20
125.1579002700189
 30
0.0
 40
4.000000000000072
100
AcDbArc
 50
135.0000000000009
 51
192.1747516164227
  0
ARC
  5
15D
330
1F
100
AcDbEntity
  8
VER
100
AcDbCircle
 10
-103.6579002700189
 20
88.3883476483184
 30
0.0
 40
4.000000000000022
100
AcDbArc
 50
45.00000000000043
 51
134.9999999999997
  0
LINE
  5
15E
330
1F
100
AcDbEntity
  8
VER
100
AcDbLine
 10
-104.7185604417987
 20
85.91347391416552
 30
0.0
 11
-64.41347391416558
 21
126.2185604417987
 31
0.0
  0
LINE
  5
15F
330
1F
100
AcDbEntity
  8
VER
100
AcDbLine
 10
-57.83738084913066
 20
119.6424673767638
 30
0.0
 11
-64.41347391416558
 21
126.2185604417987
 31
0.0
  0
LINE
  5
160
330
1F
100
AcDbEntity
  8
VER
100
AcDbLine
 10
-104.7185604417987
 20
85.91347391416551
 30
0.0
 11
-98.14246737676383
 21
79.33738084913064
 31
0.0
  0
LINE
  5
161
330
1F
100
AcDbEntity
  8
050
100
AcDbLine
 10
-61.03112021309344
 20
116.448728012801
 30
0.0
 11
-69.40368441707082
 21
124.8212922167784
 31
0.0
  0
LINE
  5
162
330
1F
100
AcDbEntity
  8
050
100
AcDbLine
 10
-53.35770693850533
 20
124.1221412873891
 30
0.0
 11
-102.6221412873892
 21
74.85770693850534
 31
0.0
  0
LINE
  5
163
330
1F
100
AcDbEntity
  8
050
100
AcDbLine
 10
-94.94872801280104
 20
82.53112021309344
 30
0.0
 11
-103.3212922167916
 21
90.90368441708397
 31
0.0
  0
LINE
  5
164
330
1F
100
AcDbEntity
  8
050
100
AcDbLine
 10
-78.53112021309344
 20
98.94872801280106
 30
0.0
 11
-86.90368441707079
 21
107.3212922167784
 31
0.0
  0
LINE
  5
165
330
1F
100
AcDbEntity
  8
050
100
AcDbLine
 10
-77.44872801280106
 20
100.0311202130934
 30
0.0
 11
-85.82129221679155
 21
108.4036844170839
 31
0.0
  0
LWPOLYLINE
  5
166
330
1F
100
AcDbEntity
  8
050
100
AcDbPolyline
 90
        4
 70
     0
 43
0.0
 10
-110.8870548938677
 20
83.33792173997405
 10
-110.7860947207642
 20
83.10103499717344
 10
-110.7235531477935
 20
82.97292527091219
 10
-110.7088090811179
 20
82.94437478339427
  0
LWPOLYLINE
  5
167
330
1F
100
AcDbEntity
  8
050
100
AcDbPolyline
 90
       14
 70
     0
 43
0.0
 10
-104.0866590815085
 20
90.13831755234057
 10
-104.7131205109802
 20
90.31503012093175
 10
-105.2764789861861
 20
90.3658791324795
 10
-105.9182650220026
 20
90.3045207805302
 10
-106.4808300023053
 20
90.14507689169905
 10
-107.4727331137612
 20
89.63857086510782
 10
-108.2077664830203
 20
89.09723892726196
 10
-108.8819603916843
 20
88.49296184914026
 10
-110.0960730504324
 20
87.13964346154576
 10
-110.7616837435152
 20
86.0510991642392
 10
-110.9942724561754
 20
85.41753756409749
 10
-111.1113230432828
 20
84.68027734576522
 10
-111.048711707698
 20
83.88593583686125
 10
-110.8870548938612
 20
83.3379217399708
  0
LWPOLYLINE
  5
168
330
1F
100
AcDbEntity
  8
050
100
AcDbPolyline
 90
        7
 70
     0
 43
0.0
 10
-103.3212922167916
 20
90.90368441708397
 10
-103.3478319528463
 20
90.53951808779074
 10
-103.4122335981379
 20
90.28430557496539
 10
-103.5005981998013
 20
90.15276568741278
 10
-103.6261260665564
 20
90.08152362406724
 10
-103.8512163649571
 20
90.07301492227214
 10
-104.0866590815085
 20
90.13831755234057
  0
LWPOLYLINE
  5
169
330
1F
100
AcDbEntity
  8
050
100
AcDbPolyline
 90
       14
 70
     0
 43
0.0
 10
-86.90368441707079
 20
107.3212922167784
 10
-87.84799810592529
 20
107.1800269934132
 10
-88.77359290761184
 20
106.8685708553438
 10
-89.91237968726541
 20
106.3101753488201
 10
-90.98530291608876
 20
105.6403761825308
 10
-93.0364049487513
 20
104.0747294004163
 10
-95.84374946016617
 20
101.5216953074125
 10
-98.50923598679087
 20
98.80362806477956
 10
-99.77614896792461
 20
97.38993135890759
 10
-100.9716513892182
 20
95.91469447689867
 10
-102.0787160770235
 20
94.31436592551273
 10
-102.9491343923646
 20
92.5705787811275
 10
-103.2001361945192
 20
91.76612175254601
 10
-103.3212922167916
 20
90.90368441708397
  0
LWPOLYLINE
  5
16A
330
1F
100
AcDbEntity
  8
050
100
AcDbPolyline
 90
        7
 70
     0
 43
0.0
 10
-85.82129221679155
 20
108.4036844170839
 10
-85.86082676730041
 20
108.0265230361455
 10
-85.95860827222901
 20
107.7379308354777
 10
-86.08563187104447
 20
107.5677320202362
 10
-86.26060051546582
 20
107.4470492319781
 10
-86.5718799665577
 20
107.3523515027402
 10
-86.90368441707079
 20
107.3212922167784
  0
LWPOLYLINE
  5
16B
330
1F
100
AcDbEntity
  8
050
100
AcDbPolyline
 90
       14
 70
     0
 43
0.0
 10
-69.40368441707082
 20
124.8212922167784
 10
-70.34799810592529
 20
124.6800269934132
 10
-71.27359290761184
 20
124.3685708553438
 10
-72.41237968726539
 20
123.8101753488201
 10
-73.48530291608873
 20
123.1403761825308
 10
-75.53640494875125
 20
121.5747294004164
 10
-78.34374946016612
 20
119.0216953074125
 10
-81.00923598679083
 20
116.3036280647796
 10
-82.27614896792457
 20
114.8899313589077
 10
-83.47165138921818
 20
113.4146944768987
 10
-84.57871607702343
 20
111.8143659255128
 10
-85.4491343923646
 20
110.0705787811276
 10
-85.70013619451919
 20
109.2661217525461
 10
-85.82129221679155
 20
108.4036844170839
  0
LWPOLYLINE
  5
16C
330
1F
100
AcDbEntity
  8
050
100
AcDbPolyline
 90
        7
 70
     0
 43
0.0
 10
-68.63831755234054
 20
125.5866590815085
 10
-68.56877823532521
 20
125.3183514756325
 10
-68.58682726235533
 20
125.1096511544254
 10
-68.66549134674781
 20
124.9878763397343
 10
-68.80332478646568
 20
124.9043777267748
 10
-69.08198990778277
 20
124.8424106351667
 10
-69.40368441707082
 20
124.8212922167784
  0
LWPOLYLINE
  5
16D
330
1F
100
AcDbEntity
  8
050
100
AcDbPolyline
 90
       14
 70
     0
 43
0.0
 10
-61.83792173997937
 20
132.3870548938697
 10
-62.38593583686087
 20
132.5487117076979
 10
-63.18027734576671
 20
132.6113230432828
 10
-63.9111469112197
 20
132.4960026278288
 10
-64.55109916423966
 20
132.261683743515
 10
-65.63964346154572
 20
131.5960730504325
 10
-66.98781719468431
 20
130.3873027760143
 10
-67.59488632595829
 20
129.7106525854078
 10
-68.1385708651079
 20
128.9727331137611
 10
-68.63740005501211
 20
128.0015845748684
 10
-68.80227385992367
 20
127.4299696491734
 10
-68.8658791324795
 20
126.7764789861861
 10
-68.81812762901939
 20
126.2306680807737
 10
-68.63831755234054
 20
125.5866590815085
  0
LWPOLYLINE
  5
16E
330
1F
100
AcDbEntity
  8
VER
100
AcDbPolyline
 90
        5
 70
     0
 43
0.0
 10
-85.27312395916871
 20
106.7731239591687
 10
-85.50884565297679
 20
107.069481617992
 10
-85.71954627271914
 20
107.5397425321291
 10
-85.82243911218511
 20
108.3567487463295
 10
-85.81403552844239
 20
108.5454473705291
  0
LWPOLYLINE
  5
16F
330
1F
100
AcDbEntity
  8
VER
100
AcDbPolyline
 90
        5
 70
     0
 43
0.0
 10
-86.99742342668513
 20
107.3171171604068
 10
-86.53328089137356
 20
107.3117043479523
 10
-85.9015373930309
 20
107.1728142767257
 10
-85.41373294879872
 20
106.8986097370247
 10
-85.27312395916871
 20
106.7731239591687
  0
LINE
  5
170
330
1F
100
AcDbEntity
  8
050
100
AcDbLine
 10
-110.0218613006978
 20
87.68124086713189
 30
0.0
 11
-66.18124086935687
 21
131.5218612984729
 31
0.0
  0
ARC
  5
171
330
1F
100
AcDbEntity
  8
050
100
AcDbCircle
 10
-63.35281374238576
 20
128.6934341759517
 30
0.0
 40
3.999999999999988
100
AcDbArc
 50
61.52039091904566
 51
134.9999999999999
  0
ARC
  5
172
330
1F
100
AcDbEntity
  8
050
100
AcDbCircle
 10
-107.193434175951
 20
84.85281374238559
 30
0.0
 40
4.000000000000525
100
AcDbArc
 50
135.0000000000053
 51
208.484579671837
  0
LWPOLYLINE
  5
173
330
1F
100
AcDbEntity
  8
050
100
AcDbPolyline
 90
        5
 70
     0
 43
0.0
 10
-61.44437471099966
 20
132.2088090433497
 10
-61.44449558556875
 20
132.2088721007923
 10
-61.48035938953912
 20
132.2273431220267
 10
-61.62654044624325
 20
132.2978600913401
 10
-61.83792173997936
 20
132.3870548938697
  0
LINE
  5
176
330
1F
100
AcDbEntity
  8
MITTE
100
AcDbLine
 10
21.5
 20
-2.363
 30
0.0
 11
21.5
 21
49.623
 31
0.0
  0
LINE
  5
177
330
1F
100
AcDbEntity
  8
MITTE
100
AcDbLine
 10
30.06207317067541
 20
-8.562073170675417
 30
0.0
 11
-91.80475628926395
 21
113.3047562892639
 31
0.0
  0
LINE
  5
178
330
1F
100
AcDbEntity
  8
MITTE
100
AcDbLine
 10
84.7
 20
0.0
 30
0.0
 11
-84.7
 21
0.0
 31
0.0
  0
ENDSEC
  0
SECTION
  2
OBJECTS
  0
DICTIONARY
  5
C
330
0
100
AcDbDictionary
281
     1
  3
ACAD_DETAILVIEWSTYLE
350
180
  3
ACAD_GROUP
350
D
  3
ACAD_LAYOUT
350
1A
  3
ACAD_MATERIAL
350
43
  3
ACAD_MLEADERSTYLE
350
6B
  3
ACAD_MLINESTYLE
350
17
  3
ACAD_PLOTSETTINGS
350
19
  3
ACAD_PLOTSTYLENAME
350
E
  3
ACAD_SCALELIST
350
47
  3
ACAD_SECTIONVIEWSTYLE
350
181
  3
ACAD_TABLESTYLE
350
69
  3
ACAD_VISUALSTYLE
350
2A
  3
ACDB_RECOMPOSE_DATA
350
17D
  3
AcDbVariableDictionary
350
179
  0
SUN
  5
6D
330
29
100
AcDbSun
 90
        1
290
     0
 63
     7
421
 16777215
 40
1.0
291
     1
 91
  2455826
 92
 54000000
292
     0
 70
     2
 71
   256
280
     1
  0
DICTIONARY
  5
180
102
{ACAD_REACTORS
330
C
102
}
330
C
100
AcDbDictionary
281
     1
  0
DICTIONARY
  5
D
102
{ACAD_REACTORS
330
C
102
}
330
C
100
AcDbDictionary
281
     1
  0
DICTIONARY
  5
1A
102
{ACAD_REACTORS
330
C
102
}
330
C
100
AcDbDictionary
281
     1
  3
Layout1
350
1E
  3
Layout2
350
26
  3
Model
350
22
  0
DICTIONARY
  5
43
102
{ACAD_REACTORS
330
C
102
}
330
C
100
AcDbDictionary
281
     1
  3
ByBlock
350
45
  3
ByLayer
350
44
  3
Global
350
46
  0
DICTIONARY
  5
6B
102
{ACAD_REACTORS
330
C
102
}
330
C
100
AcDbDictionary
281
     1
  3
Standard
350
6C
  0
DICTIONARY
  5
17
102
{ACAD_REACTORS
330
C
102
}
330
C
100
AcDbDictionary
281
     1
  3
Standard
350
18
  0
DICTIONARY
  5
19
102
{ACAD_REACTORS
330
C
102
}
330
C
100
AcDbDictionary
281
     1
  0
ACDBDICTIONARYWDFLT
  5
E
102
{ACAD_REACTORS
330
C
102
}
330
C
100
AcDbDictionary
281
     1
  3
Normal
350
F
100
AcDbDictionaryWithDefault
340
F
  0
DICTIONARY
  5
47
102
{ACAD_REACTORS
330
C
102
}
330
C
100
AcDbDictionary
281
     1
  3
A0
350
48
  3
A1
350
49
  3
A2
350
4A
  3
A3
350
4B
  3
A4
350
4C
  3
A5
350
4D
  3
A6
350
4E
  3
A7
350
4F
  3
A8
350
50
  3
A9
350
51
  3
B0
350
52
  3
B1
350
53
  3
B2
350
54
  3
B3
350
55
  3
B4
350
56
  3
B5
350
57
  3
B6
350
58
  3
B7
350
59
  3
B8
350
5A
  3
B9
350
5B
  3
C0
350
5C
  3
C1
350
5D
  3
C2
350
5E
  3
C3
350
5F
  3
C4
350
60
  3
C5
350
61
  3
C6
350
62
  3
C7
350
63
  3
C8
350
64
  3
C9
350
65
  3
D0
350
66
  3
D1
350
67
  3
D2
350
68
  0
DICTIONARY
  5
181
102
{ACAD_REACTORS
330
C
102
}
330
C
100
AcDbDictionary
281
     1
  0
DICTIONARY
  5
69
102
{ACAD_REACTORS
330
C
102
}
330
C
100
AcDbDictionary
281
     1
  3
Standard
350
6A
  0
DICTIONARY
  5
2A
102
{ACAD_REACTORS
330
C
102
}
330
C
100
AcDbDictionary
281
     1
  3
2dWireframe
350
2F
  3
Basic
350
32
  3
Brighten
350
36
  3
ColorChange
350
3A
  3
Conceptual
350
34
  3
Dim
350
35
  3
EdgeColorOff
350
3D
  3
Facepattern
350
39
  3
Flat
350
2B
  3
FlatWithEdges
350
2C
  3
Gouraud
350
2D
  3
GouraudWithEdges
350
2E
  3
Hidden
350
31
  3
JitterOff
350
3B
  3
Linepattern
350
38
  3
OverhangOff
350
3C
  3
Realistic
350
33
  3
Shaded
350
42
  3
Shaded with edges
350
41
  3
Shades of Gray
350
3E
  3
Sketchy
350
3F
  3
Thicken
350
37
  3
Wireframe
350
30
  3
X-Ray
350
40
  0
XRECORD
  5
17D
102
{ACAD_REACTORS
330
C
102
}
330
C
100
AcDbXrecord
280
     1
 90
        1
330
6A
  0
DICTIONARY
  5
179
102
{ACAD_REACTORS
330
C
102
}
330
C
100
AcDbDictionary
281
     1
  3
CANNOSCALE
350
17A
  3
CMLEADERSTYLE
350
17F
  3
CTABLESTYLE
350
17E
  3
SECTIONTHICKNESSINC
350
182
  0
LAYOUT
  5
1E
102
{ACAD_REACTORS
330
1A
102
}
330
1A
100
AcDbPlotSettings
  1

  2
none_device
  4

  6

 40
0.0
 41
0.0
 42
0.0
 43
0.0
 44
0.0
 45
0.0
 46
0.0
 47
0.0
 48
0.0
 49
0.0
140
0.0
141
0.0
142
1.0
143
1.0
 70
   688
 72
     1
 73
     0
 74
     5
  7

 75
    16
 76
     0
 77
     2
 78
   300
147
1.0
148
0.0
149
0.0
100
AcDbLayout
  1
Layout1
 70
     1
 71
     1
 10
0.0
 20
0.0
 11
420.0
 21
297.0
 12
0.0
 22
0.0
 32
0.0
 14
1.000000000000000E+20
 24
1.000000000000000E+20
 34
1.000000000000000E+20
 15
-1.000000000000000E+20
 25
-1.000000000000000E+20
 35
-1.000000000000000E+20
146
0.0
 13
0.0
 23
0.0
 33
0.0
 16
1.0
 26
0.0
 36
0.0
 17
0.0
 27
1.0
 37
0.0
 76
     0
330
1B
  0
LAYOUT
  5
26
102
{ACAD_REACTORS
330
1A
102
}
330
1A
100
AcDbPlotSettings
  1

  2
none_device
  4

  6

 40
0.0
 41
0.0
 42
0.0
 43
0.0
 44
0.0
 45
0.0
 46
0.0
 47
0.0
 48
0.0
 49
0.0
140
0.0
141
0.0
142
1.0
143
1.0
 70
   688
 72
     1
 73
     0
 74
     5
  7

 75
    16
 76
     0
 77
     2
 78
   300
147
1.0
148
0.0
149
0.0
100
AcDbLayout
  1
Layout2
 70
     1
 71
     2
 10
0.0
 20
0.0
 11
0.0
 21
0.0
 12
0.0
 22
0.0
 32
0.0
 14
0.0
 24
0.0
 34
0.0
 15
0.0
 25
0.0
 35
0.0
146
0.0
 13
0.0
 23
0.0
 33
0.0
 16
1.0
 26
0.0
 36
0.0
 17
0.0
 27
1.0
 37
0.0
 76
     0
330
23
  0
LAYOUT
  5
22
102
{ACAD_REACTORS
330
1A
102
}
330
1A
100
AcDbPlotSettings
  1

  2
none_device
  4
Letter_(8.50_x_11.00_Inches)
  6

 40
6.35
 41
6.35
 42
6.35000508
 43
6.35000508
 44
215.9
 45
279.4
 46
0.0
 47
0.0
 48
0.0
 49
0.0
140
0.0
141
0.0
142
1.0
143
1.0
 70
  1712
 72
     1
 73
     0
 74
     0
  7

 75
     0
 76
     0
 77
     2
 78
   300
147
1.0
148
0.0
149
0.0
100
AcDbLayout
  1
Model
 70
     1
 71
     0
 10
0.0
 20
0.0
 11
420.0
 21
297.0
 12
0.0
 22
0.0
 32
0.0
 14
1.000000000000000E+20
 24
1.000000000000000E+20
 34
1.000000000000000E+20
 15
-1.000000000000000E+20
 25
-1.000000000000000E+20
 35
-1.000000000000000E+20
146
0.0
 13
0.0
 23
0.0
 33
0.0
 16
1.0
 26
0.0
 36
0.0
 17
0.0
 27
1.0
 37
0.0
 76
     0
330
1F
331
29
  0
MATERIAL
  5
45
102
{ACAD_REACTORS
330
43
102
}
330
43
100
AcDbMaterial
  1
ByBlock
 72
     1
 94
      127
  0
MATERIAL
  5
44
102
{ACAD_REACTORS
330
43
102
}
330
43
100
AcDbMaterial
  1
ByLayer
 72
     1
 94
      127
  0
MATERIAL
  5
46
102
{ACAD_REACTORS
330
43
102
}
330
43
100
AcDbMaterial
  1
Global
 72
     1
 94
      127
  0
MLEADERSTYLE
  5
6C
102
{ACAD_REACTORS
330
6B
102
}
330
6B
100
AcDbMLeaderStyle
179
     2
170
     2
171
     1
172
     0
 90
        2
 40
0.0
 41
0.0
173
     1
 91
-1056964608
340
14
 92
       -2
290
     1
 42
2.0
291
     1
 43
8.0
  3
Standard
341
0
 44
4.0
300

342
11
174
     1
178
     6
175
     1
176
     0
 93
-1056964608
 45
4.0
292
     0
297
     0
 46
4.0
343
0
 94
-1056964608
 47
1.0
 49
1.0
140
1.0
293
     1
141
0.0
294
     1
177
     0
142
1.0
295
     0
296
     0
143
3.75
271
     0
272
     9
273
     9
298
     0
  0
MLINESTYLE
  5
18
102
{ACAD_REACTORS
330
17
102
}
330
17
100
AcDbMlineStyle
  2
Standard
 70
     0
  3

 62
   256
 51
90.0
 52
90.0
 71
     2
 49
0.5
 62
   256
  6
BYLAYER
 49
-0.5
 62
   256
  6
BYLAYER
  0
ACDBPLACEHOLDER
  5
F
102
{ACAD_REACTORS
330
E
102
}
330
E
  0
SCALE
  5
48
102
{ACAD_REACTORS
330
47
102
}
330
47
100
AcDbScale
 70
     0
300
1:1
140
1.0
141
1.0
290
     1
  0
SCALE
  5
49
102
{ACAD_REACTORS
330
47
102
}
330
47
100
AcDbScale
 70
     0
300
1:2
140
1.0
141
2.0
290
     0
  0
SCALE
  5
4A
102
{ACAD_REACTORS
330
47
102
}
330
47
100
AcDbScale
 70
     0
300
1:4
140
1.0
141
4.0
290
     0
  0
SCALE
  5
4B
102
{ACAD_REACTORS
330
47
102
}
330
47
100
AcDbScale
 70
     0
300
1:5
140
1.0
141
5.0
290
     0
  0
SCALE
  5
4C
102
{ACAD_REACTORS
330
47
102
}
330
47
100
AcDbScale
 70
     0
300
1:8
140
1.0
141
8.0
290
     0
  0
SCALE
  5
4D
102
{ACAD_REACTORS
330
47
102
}
330
47
100
AcDbScale
 70
     0
300
1:10
140
1.0
141
10.0
290
     0
  0
SCALE
  5
4E
102
{ACAD_REACTORS
330
47
102
}
330
47
100
AcDbScale
 70
     0
300
1:16
140
1.0
141
16.0
290
     0
  0
SCALE
  5
4F
102
{ACAD_REACTORS
330
47
102
}
330
47
100
AcDbScale
 70
     0
300
1:20
140
1.0
141
20.0
290
     0
  0
SCALE
  5
50
102
{ACAD_REACTORS
330
47
102
}
330
47
100
AcDbScale
 70
     0
300
1:30
140
1.0
141
30.0
290
     0
  0
SCALE
  5
51
102
{ACAD_REACTORS
330
47
102
}
330
47
100
AcDbScale
 70
     0
300
1:40
140
1.0
141
40.0
290
     0
  0
SCALE
  5
52
102
{ACAD_REACTORS
330
47
102
}
330
47
100
AcDbScale
 70
     0
300
1:50
140
1.0
141
50.0
290
     0
  0
SCALE
  5
53
102
{ACAD_REACTORS
330
47
102
}
330
47
100
AcDbScale
 70
     0
300
1:100
140
1.0
141
100.0
290
     0
  0
SCALE
  5
54
102
{ACAD_REACTORS
330
47
102
}
330
47
100
AcDbScale
 70
     0
300
2:1
140
2.0
141
1.0
290
     0
  0
SCALE
  5
55
102
{ACAD_REACTORS
330
47
102
}
330
47
100
AcDbScale
 70
     0
300
4:1
140
4.0
141
1.0
290
     0
  0
SCALE
  5
56
102
{ACAD_REACTORS
330
47
102
}
330
47
100
AcDbScale
 70
     0
300
8:1
140
8.0
141
1.0
290
     0
  0
SCALE
  5
57
102
{ACAD_REACTORS
330
47
102
}
330
47
100
AcDbScale
 70
     0
300
10:1
140
10.0
141
1.0
290
     0
  0
SCALE
  5
58
102
{ACAD_REACTORS
330
47
102
}
330
47
100
AcDbScale
 70
     0
300
100:1
140
100.0
141
1.0
290
     0
  0
SCALE
  5
59
102
{ACAD_REACTORS
330
47
102
}
330
47
100
AcDbScale
 70
     0
300
1/128" = 1'-0"
140
0.0078125
141
12.0
290
     0
  0
SCALE
  5
5A
102
{ACAD_REACTORS
330
47
102
}
330
47
100
AcDbScale
 70
     0
300
1/64" = 1'-0"
140
0.015625
141
12.0
290
     0
  0
SCALE
  5
5B
102
{ACAD_REACTORS
330
47
102
}
330
47
100
AcDbScale
 70
     0
300
1/32" = 1'-0"
140
0.03125
141
12.0
290
     0
  0
SCALE
  5
5C
102
{ACAD_REACTORS
330
47
102
}
330
47
100
AcDbScale
 70
     0
300
1/16" = 1'-0"
140
0.0625
141
12.0
290
     0
  0
SCALE
  5
5D
102
{ACAD_REACTORS
330
47
102
}
330
47
100
AcDbScale
 70
     0
300
3/32" = 1'-0"
140
0.09375
141
12.0
290
     0
  0
SCALE
  5
5E
102
{ACAD_REACTORS
330
47
102
}
330
47
100
AcDbScale
 70
     0
300
1/8" = 1'-0"
140
0.125
141
12.0
290
     0
  0
SCALE
  5
5F
102
{ACAD_REACTORS
330
47
102
}
330
47
100
AcDbScale
 70
     0
300
3/16" = 1'-0"
140
0.1875
141
12.0
290
     0
  0
SCALE
  5
60
102
{ACAD_REACTORS
330
47
102
}
330
47
100
AcDbScale
 70
     0
300
1/4" = 1'-0"
140
0.25
141
12.0
290
     0
  0
SCALE
  5
61
102
{ACAD_REACTORS
330
47
102
}
330
47
100
AcDbScale
 70
     0
300
3/8" = 1'-0"
140
0.375
141
12.0
290
     0
  0
SCALE
  5
62
102
{ACAD_REACTORS
330
47
102
}
330
47
100
AcDbScale
 70
     0
300
1/2" = 1'-0"
140
0.5
141
12.0
290
     0
  0
SCALE
  5
63
102
{ACAD_REACTORS
330
47
102
}
330
47
100
AcDbScale
 70
     0
300
3/4" = 1'-0"
140
0.75
141
12.0
290
     0
  0
SCALE
  5
64
102
{ACAD_REACTORS
330
47
102
}
330
47
100
AcDbScale
 70
     0
300
1" = 1'-0"
140
1.0
141
12.0
290
     0
  0
SCALE
  5
65
102
{ACAD_REACTORS
330
47
102
}
330
47
100
AcDbScale
 70
     0
300
1-1/2" = 1'-0"
140
1.5
141
12.0
290
     0
  0
SCALE
  5
66
102
{ACAD_REACTORS
330
47
102
}
330
47
100
AcDbScale
 70
     0
300
3" = 1'-0"
140
3.0
141
12.0
290
     0
  0
SCALE
  5
67
102
{ACAD_REACTORS
330
47
102
}
330
47
100
AcDbScale
 70
     0
300
6" = 1'-0"
140
6.0
141
12.0
290
     0
  0
SCALE
  5
68
102
{ACAD_REACTORS
330
47
102
}
330
47
100
AcDbScale
 70
     0
300
1'-0" = 1'-0"
140
12.0
141
12.0
290
     0
  0
TABLESTYLE
  5
6A
102
{ACAD_REACTORS
330
69
102
}
102
{ACAD_XDICTIONARY
360
17B
102
}
330
69
100
AcDbTableStyle
  3
Standard
 70
     0
 71
     0
 40
0.06
 41
0.06
280
     0
281
     0
  7
Standard
140
4.5
170
     2
 62
     0
 63
   257
283
     0
 90
        4
 91
        0
  1

274
    -2
284
     1
 64
     0
275
    -2
285
     1
 65
     0
276
    -2
286
     1
 66
     0
277
    -2
287
     1
 67
     0
278
    -2
288
     1
 68
     0
279
    -2
289
     1
 69
     0
  7
Standard
140
6.0
170
     5
 62
     0
 63
   257
283
     0
 90
        4
 91
        0
  1

274
    -2
284
     1
 64
     0
275
    -2
285
     1
 65
     0
276
    -2
286
     1
 66
     0
277
    -2
287
     1
 67
     0
278
    -2
288
     1
 68
     0
279
    -2
289
     1
 69
     0
  7
Standard
140
4.5
170
     5
 62
     0
 63
   257
283
     0
 90
        4
 91
        0
  1

274
    -2
284
     1
 64
     0
275
    -2
285
     1
 65
     0
276
    -2
286
     1
 66
     0
277
    -2
287
     1
 67
     0
278
    -2
288
     1
 68
     0
279
    -2
289
     1
 69
     0
  0
VISUALSTYLE
  5
2F
102
{ACAD_REACTORS
330
2A
102
}
330
2A
100
AcDbVisualStyle
  2
2dWireframe
 70
     4
177
     3
291
     0
 70
    58
 90
        0
176
     1
 90
        2
176
     1
 90
        0
176
     1
 90
        0
176
     1
 40
0.6
176
     1
 40
30.0
176
     1
 62
     7
420
 16777215
176
     1
 90
        1
176
     1
 90
        4
176
     1
 62
     7
176
     1
 62
   257
176
     1
 90
        1
176
     1
 90
        1
176
     1
 40
1.0
176
     1
 90
        0
176
     1
 62
   257
176
     1
 40
1.0
176
     1
 90
        1
176
     1
 90
        6
176
     1
 90
        2
176
     1
 62
     7
176
     1
 90
        5
176
     1
 90
        0
176
     1
 90
        0
176
     1
290
     0
176
     1
 90
        1
176
     1
 40
0.0
176
     1
 90
        0
176
     1
290
     1
176
     1
290
     1
176
     1
290
     0
176
     1
290
     0
176
     1
290
     0
176
     1
290
     0
176
     1
290
     0
176
     1
290
     0
176
     1
290
     0
176
     1
 90
       50
176
     1
 40
0.0
176
     1
 40
1.0
176
     1
 90
        0
176
     1
 62
    18
420
        0
176
     1
 90
       50
176
     1
 90
        3
176
     1
 62
     5
420
      255
176
     1
290
     0
176
     1
 90
       50
176
     1
 90
       50
176
     1
 90
       50
176
     1
290
     0
176
     1
 90
       50
176
     1
 62
   256
176
     0
 40
1.0
176
     0
 90
        2
176
     1
  1
strokes_ogs.tif
176
     1
290
     0
176
     1
 40
1.0
176
     1
 40
1.0
176
     1
  0
VISUALSTYLE
  5
32
102
{ACAD_REACTORS
330
2A
102
}
330
2A
100
AcDbVisualStyle
  2
Basic
 70
     7
177
     3
291
     1
 70
    58
 90
        1
176
     1
 90
        0
176
     1
 90
        1
176
     1
 90
        0
176
     1
 40
0.6
176
     1
 40
30.0
176
     1
 62
     7
420
 16777215
176
     1
 90
        0
176
     1
 90
        4
176
     1
 62
     7
176
     1
 62
   257
176
     1
 90
        1
176
     1
 90
        1
176
     1
 40
1.0
176
     1
 90
        8
176
     1
 62
     7
176
     1
 40
1.0
176
     1
 90
        1
176
     1
 90
        6
176
     1
 90
        2
176
     1
 62
     7
176
     1
 90
        5
176
     1
 90
        0
176
     1
 90
        0
176
     1
290
     0
176
     1
 90
        1
176
     1
 40
0.0
176
     1
 90
        0
176
     1
290
     0
176
     1
290
     1
176
     1
290
     1
176
     1
290
     0
176
     1
290
     0
176
     1
290
     0
176
     1
290
     0
176
     1
290
     0
176
     1
290
     0
176
     1
 90
       50
176
     1
 40
0.0
176
     1
 40
1.0
176
     1
 90
        0
176
     1
 62
    18
420
        0
176
     1
 90
       50
176
     1
 90
        3
176
     1
 62
     5
420
      255
176
     1
290
     0
176
     1
 90
       50
176
     1
 90
       50
176
     1
 90
       50
176
     1
290
     0
176
     1
 90
       50
176
     1
 62
   256
176
     0
 40
1.0
176
     0
 90
        2
176
     1
  1
strokes_ogs.tif
176
     1
290
     0
176
     1
 40
1.0
176
     1
 40
1.0
176
     1
  0
VISUALSTYLE
  5
36
102
{ACAD_REACTORS
330
2A
102
}
330
2A
100
AcDbVisualStyle
  2
Brighten
 70
    12
177
     3
291
     1
 70
    58
 90
        2
176
     1
 90
        2
176
     1
 90
        0
176
     1
 90
        0
176
     1
 40
0.6
176
     1
 40
30.0
176
     1
 62
     7
420
 16777215
176
     1
 90
        1
176
     1
 90
        4
176
     1
 62
     7
176
     1
 62
   257
176
     1
 90
        1
176
     1
 90
        1
176
     1
 40
1.0
176
     1
 90
        8
176
     1
 62
     7
176
     1
 40
1.0
176
     1
 90
        1
176
     1
 90
        6
176
     1
 90
        2
176
     1
 62
     7
176
     1
 90
        5
176
     1
 90
        0
176
     1
 90
        0
176
     1
290
     0
176
     1
 90
        1
176
     1
 40
50.0
176
     1
 90
        0
176
     1
290
     0
176
     1
290
     1
176
     1
290
     1
176
     1
290
     0
176
     1
290
     0
176
     1
290
     0
176
     1
290
     0
176
     1
290
     0
176
     1
290
     0
176
     1
 90
       50
176
     1
 40
0.0
176
     1
 40
1.0
176
     1
 90
        0
176
     1
 62
    18
420
        0
176
     1
 90
       50
176
     1
 90
        3
176
     1
 62
     5
420
      255
176
     1
290
     0
176
     1
 90
       50
176
     1
 90
       50
176
     1
 90
       50
176
     1
290
     0
176
     1
 90
       50
176
     1
 62
   256
176
     0
 40
1.0
176
     0
 90
        2
176
     1
  1
strokes_ogs.tif
176
     1
290
     0
176
     1
 40
1.0
176
     1
 40
1.0
176
     1
  0
VISUALSTYLE
  5
3A
102
{ACAD_REACTORS
330
2A
102
}
330
2A
100
AcDbVisualStyle
  2
ColorChange
 70
    16
177
     3
291
     1
 70
    58
 90
        2
176
     1
 90
        2
176
     1
 90
        3
176
     1
 90
        0
176
     1
 40
0.6
176
     1
 40
30.0
176
     1
 62
     8
420
  8421504
176
     1
 90
        1
176
     1
 90
        4
176
     1
 62
     7
176
     1
 62
   257
176
     1
 90
        1
176
     1
 90
        1
176
     1
 40
1.0
176
     1
 90
        8
176
     1
 62
     8
420
  8421504
176
     1
 40
1.0
176
     1
 90
        1
176
     1
 90
        6
176
     1
 90
        2
176
     1
 62
     7
176
     1
 90
        5
176
     1
 90
        0
176
     1
 90
        0
176
     1
290
     0
176
     1
 90
        1
176
     1
 40
0.0
176
     1
 90
        0
176
     1
290
     0
176
     1
290
     1
176
     1
290
     1
176
     1
290
     0
176
     1
290
     0
176
     1
290
     0
176
     1
290
     0
176
     1
290
     0
176
     1
290
     0
176
     1
 90
       50
176
     1
 40
0.0
176
     1
 40
1.0
176
     1
 90
        0
176
     1
 62
    18
420
        0
176
     1
 90
       50
176
     1
 90
        3
176
     1
 62
     5
420
      255
176
     1
290
     0
176
     1
 90
       50
176
     1
 90
       50
176
     1
 90
       50
176
     1
290
     0
176
     1
 90
       50
176
     1
 62
   256
176
     0
 40
1.0
176
     0
 90
        2
176
     1
  1
strokes_ogs.tif
176
     1
290
     0
176
     1
 40
1.0
176
     1
 40
1.0
176
     1
  0
VISUALSTYLE
  5
34
102
{ACAD_REACTORS
330
2A
102
}
330
2A
100
AcDbVisualStyle
  2
Conceptual
 70
     9
177
     3
291
     0
 70
    58
 90
        3
176
     1
 90
        2
176
     1
 90
        0
176
     1
 90
        0
176
     1
 40
0.6
176
     1
 40
30.0
176
     1
 62
     7
420
 16777215
176
     1
 90
        2
176
     1
 90
        2
176
     1
 62
     7
176
     1
 62
   257
176
     1
 90
        1
176
     1
 90
        1
176
     1
 40
179.0
176
     1
 90
        8
176
     1
 62
     7
176
     1
 40
1.0
176
     1
 90
        1
176
     1
 90
        6
176
     1
 90
        2
176
     1
 62
     7
176
     1
 90
        3
176
     1
 90
        0
176
     1
 90
        0
176
     1
290
     0
176
     1
 90
        1
176
     1
 40
0.0
176
     1
 90
        0
176
     1
290
     0
176
     1
290
     1
176
     1
290
     1
176
     1
290
     0
176
     1
290
     0
176
     1
290
     0
176
     1
290
     0
176
     1
290
     0
176
     1
290
     0
176
     1
 90
       50
176
     1
 40
0.0
176
     1
 40
1.0
176
     1
 90
        0
176
     1
 62
    18
420
        0
176
     1
 90
       50
176
     1
 90
        3
176
     1
 62
     5
420
      255
176
     1
290
     0
176
     1
 90
       50
176
     1
 90
       50
176
     1
 90
       50
176
     1
290
     0
176
     1
 90
       50
176
     1
 62
   256
176
     0
 40
1.0
176
     0
 90
        2
176
     1
  1
strokes_ogs.tif
176
     1
290
     0
176
     1
 40
1.0
176
     1
 40
1.0
176
     1
  0
VISUALSTYLE
  5
35
102
{ACAD_REACTORS
330
2A
102
}
330
2A
100
AcDbVisualStyle
  2
Dim
 70
    11
177
     3
291
     1
 70
    58
 90
        2
176
     1
 90
        2
176
     1
 90
        0
176
     1
 90
        0
176
     1
 40
0.6
176
     1
 40
30.0
176
     1
 62
     7
420
 16777215
176
     1
 90
        1
176
     1
 90
        4
176
     1
 62
     7
176
     1
 62
   257
176
     1
 90
        1
176
     1
 90
        1
176
     1
 40
1.0
176
     1
 90
        8
176
     1
 62
     7
176
     1
 40
1.0
176
     1
 90
        1
176
     1
 90
        6
176
     1
 90
        2
176
     1
 62
     7
176
     1
 90
        5
176
     1
 90
        0
176
     1
 90
        0
176
     1
290
     0
176
     1
 90
        1
176
     1
 40
-50.0
176
     1
 90
        0
176
     1
290
     0
176
     1
290
     1
176
     1
290
     1
176
     1
290
     0
176
     1
290
     0
176
     1
290
     0
176
     1
290
     0
176
     1
290
     0
176
     1
290
     0
176
     1
 90
       50
176
     1
 40
0.0
176
     1
 40
1.0
176
     1
 90
        0
176
     1
 62
    18
420
        0
176
     1
 90
       50
176
     1
 90
        3
176
     1
 62
     5
420
      255
176
     1
290
     0
176
     1
 90
       50
176
     1
 90
       50
176
     1
 90
       50
176
     1
290
     0
176
     1
 90
       50
176
     1
 62
   256
176
     0
 40
1.0
176
     0
 90
        2
176
     1
  1
strokes_ogs.tif
176
     1
290
     0
176
     1
 40
1.0
176
     1
 40
1.0
176
     1
  0
VISUALSTYLE
  5
3D
102
{ACAD_REACTORS
330
2A
102
}
330
2A
100
AcDbVisualStyle
  2
EdgeColorOff
 70
    22
177
     3
291
     1
 70
    58
 90
        2
176
     0
 90
        2
176
     0
 90
        0
176
     0
 90
        0
176
     0
 40
0.6
176
     0
 40
30.0
176
     0
 62
     7
420
 16777215
176
     0
 90
        1
176
     0
 90
        4
176
     0
 62
     7
176
     0
 62
   257
176
     0
 90
        1
176
     0
 90
        1
176
     0
 40
1.0
176
     0
 90
        8
176
     2
 62
     7
176
     0
 40
1.0
176
     0
 90
        1
176
     0
 90
        6
176
     0
 90
        2
176
     0
 62
     7
176
     0
 90
        5
176
     0
 90
        0
176
     0
 90
        0
176
     0
290
     0
176
     0
 90
        1
176
     0
 40
0.0
176
     0
 90
        0
176
     0
290
     0
176
     0
290
     1
176
     0
290
     1
176
     0
290
     0
176
     0
290
     0
176
     0
290
     0
176
     0
290
     0
176
     0
290
     0
176
     0
290
     0
176
     0
 90
       50
176
     0
 40
0.0
176
     0
 40
1.0
176
     0
 90
        0
176
     0
 62
    18
420
        0
176
     0
 90
       50
176
     0
 90
        3
176
     0
 62
     5
420
      255
176
     0
290
     0
176
     0
 90
       50
176
     0
 90
       50
176
     0
 90
       50
176
     0
290
     0
176
     0
 90
       50
176
     0
 62
   256
176
     0
 40
1.0
176
     0
 90
        2
176
     0
  1
strokes_ogs.tif
176
     0
290
     0
176
     0
 40
1.0
176
     0
 40
1.0
176
     0
  0
VISUALSTYLE
  5
39
102
{ACAD_REACTORS
330
2A
102
}
330
2A
100
AcDbVisualStyle
  2
Facepattern
 70
    15
177
     3
291
     1
 70
    58
 90
        2
176
     1
 90
        2
176
     1
 90
        0
176
     1
 90
        0
176
     1
 40
0.6
176
     1
 40
30.0
176
     1
 62
     7
420
 16777215
176
     1
 90
        1
176
     1
 90
        4
176
     1
 62
     7
176
     1
 62
   257
176
     1
 90
        1
176
     1
 90
        1
176
     1
 40
1.0
176
     1
 90
        8
176
     1
 62
     7
176
     1
 40
1.0
176
     1
 90
        1
176
     1
 90
        6
176
     1
 90
        2
176
     1
 62
     7
176
     1
 90
        5
176
     1
 90
        0
176
     1
 90
        0
176
     1
290
     0
176
     1
 90
        1
176
     1
 40
0.0
176
     1
 90
        0
176
     1
290
     0
176
     1
290
     1
176
     1
290
     1
176
     1
290
     0
176
     1
290
     0
176
     1
290
     0
176
     1
290
     0
176
     1
290
     0
176
     1
290
     0
176
     1
 90
       50
176
     1
 40
0.0
176
     1
 40
1.0
176
     1
 90
        0
176
     1
 62
    18
420
        0
176
     1
 90
       50
176
     1
 90
        3
176
     1
 62
     5
420
      255
176
     1
290
     0
176
     1
 90
       50
176
     1
 90
       50
176
     1
 90
       50
176
     1
290
     0
176
     1
 90
       50
176
     1
 62
   256
176
     0
 40
1.0
176
     0
 90
        2
176
     1
  1
strokes_ogs.tif
176
     1
290
     0
176
     1
 40
1.0
176
     1
 40
1.0
176
     1
  0
VISUALSTYLE
  5
2B
102
{ACAD_REACTORS
330
2A
102
}
330
2A
100
AcDbVisualStyle
  2
Flat
 70
     0
177
     3
291
     1
 70
    58
 90
        2
176
     1
 90
        1
176
     1
 90
        1
176
     1
 90
        2
176
     1
 40
0.6
176
     1
 40
30.0
176
     1
 62
     7
420
 16777215
176
     1
 90
        0
176
     1
 90
        0
176
     1
 62
     7
176
     1
 62
   257
176
     1
 90
        1
176
     1
 90
        1
176
     1
 40
1.0
176
     1
 90
        8
176
     1
 62
     7
176
     1
 40
1.0
176
     1
 90
        1
176
     1
 90
        6
176
     1
 90
        2
176
     1
 62
     7
176
     1
 90
        5
176
     1
 90
        0
176
     1
 90
        0
176
     1
290
     0
176
     1
 90
       13
176
     1
 40
0.0
176
     1
 90
        0
176
     1
290
     0
176
     1
290
     1
176
     1
290
     1
176
     1
290
     0
176
     1
290
     0
176
     1
290
     0
176
     1
290
     0
176
     1
290
     0
176
     1
290
     0
176
     1
 90
       50
176
     1
 40
0.0
176
     1
 40
1.0
176
     1
 90
        0
176
     1
 62
    18
420
        0
176
     1
 90
       50
176
     1
 90
        3
176
     1
 62
     5
420
      255
176
     1
290
     0
176
     1
 90
       50
176
     1
 90
       50
176
     1
 90
       50
176
     1
290
     0
176
     1
 90
       50
176
     1
 62
   256
176
     0
 40
1.0
176
     0
 90
        2
176
     1
  1
strokes_ogs.tif
176
     1
290
     0
176
     1
 40
1.0
176
     1
 40
1.0
176
     1
  0
VISUALSTYLE
  5
2C
102
{ACAD_REACTORS
330
2A
102
}
330
2A
100
AcDbVisualStyle
  2
FlatWithEdges
 70
     1
177
     3
291
     1
 70
    58
 90
        2
176
     1
 90
        1
176
     1
 90
        1
176
     1
 90
        2
176
     1
 40
0.6
176
     1
 40
30.0
176
     1
 62
     7
420
 16777215
176
     1
 90
        1
176
     1
 90
        0
176
     1
 62
     7
176
     1
 62
   257
176
     1
 90
        1
176
     1
 90
        1
176
     1
 40
1.0
176
     1
 90
        0
176
     1
 62
   257
176
     1
 40
1.0
176
     1
 90
        1
176
     1
 90
        6
176
     1
 90
        2
176
     1
 62
     7
176
     1
 90
        5
176
     1
 90
        0
176
     1
 90
        0
176
     1
290
     0
176
     1
 90
       13
176
     1
 40
0.0
176
     1
 90
        0
176
     1
290
     0
176
     1
290
     1
176
     1
290
     1
176
     1
290
     0
176
     1
290
     0
176
     1
290
     0
176
     1
290
     0
176
     1
290
     0
176
     1
290
     0
176
     1
 90
       50
176
     1
 40
0.0
176
     1
 40
1.0
176
     1
 90
        0
176
     1
 62
    18
420
        0
176
     1
 90
       50
176
     1
 90
        3
176
     1
 62
     5
420
      255
176
     1
290
     0
176
     1
 90
       50
176
     1
 90
       50
176
     1
 90
       50
176
     1
290
     0
176
     1
 90
       50
176
     1
 62
   256
176
     0
 40
1.0
176
     0
 90
        2
176
     1
  1
strokes_ogs.tif
176
     1
290
     0
176
     1
 40
1.0
176
     1
 40
1.0
176
     1
  0
VISUALSTYLE
  5
2D
102
{ACAD_REACTORS
330
2A
102
}
330
2A
100
AcDbVisualStyle
  2
Gouraud
 70
     2
177
     3
291
     1
 70
    58
 90
        2
176
     1
 90
        2
176
     1
 90
        1
176
     1
 90
        2
176
     1
 40
0.6
176
     1
 40
30.0
176
     1
 62
     7
420
 16777215
176
     1
 90
        0
176
     1
 90
        0
176
     1
 62
     7
176
     1
 62
   257
176
     1
 90
        1
176
     1
 90
        1
176
     1
 40
1.0
176
     1
 90
        0
176
     1
 62
     7
176
     1
 40
1.0
176
     1
 90
        1
176
     1
 90
        6
176
     1
 90
        2
176
     1
 62
     7
176
     1
 90
        5
176
     1
 90
        0
176
     1
 90
        0
176
     1
290
     0
176
     1
 90
       13
176
     1
 40
0.0
176
     1
 90
        0
176
     1
290
     0
176
     1
290
     1
176
     1
290
     1
176
     1
290
     0
176
     1
290
     0
176
     1
290
     0
176
     1
290
     0
176
     1
290
     0
176
     1
290
     0
176
     1
 90
       50
176
     1
 40
0.0
176
     1
 40
1.0
176
     1
 90
        0
176
     1
 62
    18
420
        0
176
     1
 90
       50
176
     1
 90
        3
176
     1
 62
     5
420
      255
176
     1
290
     0
176
     1
 90
       50
176
     1
 90
       50
176
     1
 90
       50
176
     1
290
     0
176
     1
 90
       50
176
     1
 62
   256
176
     0
 40
1.0
176
     0
 90
        2
176
     1
  1
strokes_ogs.tif
176
     1
290
     0
176
     1
 40
1.0
176
     1
 40
1.0
176
     1
  0
VISUALSTYLE
  5
2E
102
{ACAD_REACTORS
330
2A
102
}
330
2A
100
AcDbVisualStyle
  2
GouraudWithEdges
 70
     3
177
     3
291
     1
 70
    58
 90
        2
176
     1
 90
        2
176
     1
 90
        1
176
     1
 90
        2
176
     1
 40
0.6
176
     1
 40
30.0
176
     1
 62
     7
420
 16777215
176
     1
 90
        1
176
     1
 90
        0
176
     1
 62
     7
176
     1
 62
   257
176
     1
 90
        1
176
     1
 90
        1
176
     1
 40
1.0
176
     1
 90
        0
176
     1
 62
   257
176
     1
 40
1.0
176
     1
 90
        1
176
     1
 90
        6
176
     1
 90
        2
176
     1
 62
     7
176
     1
 90
        5
176
     1
 90
        0
176
     1
 90
        0
176
     1
290
     0
176
     1
 90
       13
176
     1
 40
0.0
176
     1
 90
        0
176
     1
290
     0
176
     1
290
     1
176
     1
290
     1
176
     1
290
     0
176
     1
290
     0
176
     1
290
     0
176
     1
290
     0
176
     1
290
     0
176
     1
290
     0
176
     1
 90
       50
176
     1
 40
0.0
176
     1
 40
1.0
176
     1
 90
        0
176
     1
 62
    18
420
        0
176
     1
 90
       50
176
     1
 90
        3
176
     1
 62
     5
420
      255
176
     1
290
     0
176
     1
 90
       50
176
     1
 90
       50
176
     1
 90
       50
176
     1
290
     0
176
     1
 90
       50
176
     1
 62
   256
176
     0
 40
1.0
176
     0
 90
        2
176
     1
  1
strokes_ogs.tif
176
     1
290
     0
176
     1
 40
1.0
176
     1
 40
1.0
176
     1
  0
VISUALSTYLE
  5
31
102
{ACAD_REACTORS
330
2A
102
}
330
2A
100
AcDbVisualStyle
  2
Hidden
 70
     6
177
     3
291
     0
 70
    58
 90
        1
176
     1
 90
        2
176
     1
 90
        2
176
     1
 90
        0
176
     1
 40
0.6
176
     1
 40
30.0
176
     1
 62
     7
420
 16777215
176
     1
 90
        2
176
     1
 90
        2
176
     1
 62
     7
176
     1
 62
   257
176
     1
 90
        2
176
     1
 90
        1
176
     1
 40
40.0
176
     1
 90
        0
176
     1
 62
   257
176
     1
 40
1.0
176
     1
 90
        1
176
     1
 90
        6
176
     1
 90
        2
176
     1
 62
     7
176
     1
 90
        3
176
     1
 90
        0
176
     1
 90
        0
176
     1
290
     0
176
     1
 90
        1
176
     1
 40
0.0
176
     1
 90
        0
176
     1
290
     0
176
     1
290
     1
176
     1
290
     1
176
     1
290
     0
176
     1
290
     0
176
     1
290
     0
176
     1
290
     0
176
     1
290
     0
176
     1
290
     0
176
     1
 90
       50
176
     1
 40
0.0
176
     1
 40
1.0
176
     1
 90
        0
176
     1
 62
    18
420
        0
176
     1
 90
       50
176
     1
 90
        3
176
     1
 62
     5
420
      255
176
     1
290
     0
176
     1
 90
       50
176
     1
 90
       50
176
     1
 90
       50
176
     1
290
     0
176
     1
 90
       50
176
     1
 62
   256
176
     0
 40
1.0
176
     0
 90
        2
176
     1
  1
strokes_ogs.tif
176
     1
290
     0
176
     1
 40
1.0
176
     1
 40
1.0
176
     1
  0
VISUALSTYLE
  5
3B
102
{ACAD_REACTORS
330
2A
102
}
330
2A
100
AcDbVisualStyle
  2
JitterOff
 70
    20
177
     3
291
     1
 70
    58
 90
        2
176
     0
 90
        2
176
     0
 90
        0
176
     0
 90
        0
176
     0
 40
0.6
176
     0
 40
30.0
176
     0
 62
     7
420
 16777215
176
     0
 90
        1
176
     0
 90
        4
176
     0
 62
     7
176
     0
 62
   257
176
     0
 90
        1
176
     0
 90
        1
176
     0
 40
1.0
176
     0
 90
       10
176
     2
 62
     7
176
     0
 40
1.0
176
     0
 90
        1
176
     0
 90
        6
176
     0
 90
        2
176
     0
 62
     7
176
     0
 90
        5
176
     0
 90
        0
176
     0
 90
        0
176
     0
290
     0
176
     0
 90
        1
176
     0
 40
0.0
176
     0
 90
        0
176
     0
290
     0
176
     0
290
     1
176
     0
290
     1
176
     0
290
     0
176
     0
290
     0
176
     0
290
     0
176
     0
290
     0
176
     0
290
     0
176
     0
290
     0
176
     0
 90
       50
176
     0
 40
0.0
176
     0
 40
1.0
176
     0
 90
        0
176
     0
 62
    18
420
        0
176
     0
 90
       50
176
     0
 90
        3
176
     0
 62
     5
420
      255
176
     0
290
     0
176
     0
 90
       50
176
     0
 90
       50
176
     0
 90
       50
176
     0
290
     0
176
     0
 90
       50
176
     0
 62
   256
176
     0
 40
1.0
176
     0
 90
        2
176
     0
  1
strokes_ogs.tif
176
     0
290
     0
176
     0
 40
1.0
176
     0
 40
1.0
176
     0
  0
VISUALSTYLE
  5
38
102
{ACAD_REACTORS
330
2A
102
}
330
2A
100
AcDbVisualStyle
  2
Linepattern
 70
    14
177
     3
291
     1
 70
    58
 90
        2
176
     1
 90
        2
176
     1
 90
        0
176
     1
 90
        0
176
     1
 40
0.6
176
     1
 40
30.0
176
     1
 62
     7
420
 16777215
176
     1
 90
        1
176
     1
 90
        4
176
     1
 62
     7
176
     1
 62
   257
176
     1
 90
        7
176
     1
 90
        7
176
     1
 40
1.0
176
     1
 90
        8
176
     1
 62
     7
176
     1
 40
1.0
176
     1
 90
        1
176
     1
 90
        6
176
     1
 90
        2
176
     1
 62
     7
176
     1
 90
        5
176
     1
 90
        0
176
     1
 90
        0
176
     1
290
     0
176
     1
 90
        1
176
     1
 40
0.0
176
     1
 90
        0
176
     1
290
     0
176
     1
290
     1
176
     1
290
     1
176
     1
290
     0
176
     1
290
     0
176
     1
290
     0
176
     1
290
     0
176
     1
290
     0
176
     1
290
     0
176
     1
 90
       50
176
     1
 40
0.0
176
     1
 40
1.0
176
     1
 90
        0
176
     1
 62
    18
420
        0
176
     1
 90
       50
176
     1
 90
        3
176
     1
 62
     5
420
      255
176
     1
290
     0
176
     1
 90
       50
176
     1
 90
       50
176
     1
 90
       50
176
     1
290
     0
176
     1
 90
       50
176
     1
 62
   256
176
     0
 40
1.0
176
     0
 90
        2
176
     1
  1
strokes_ogs.tif
176
     1
290
     0
176
     1
 40
1.0
176
     1
 40
1.0
176
     1
  0
VISUALSTYLE
  5
3C
102
{ACAD_REACTORS
330
2A
102
}
330
2A
100
AcDbVisualStyle
  2
OverhangOff
 70
    21
177
     3
291
     1
 70
    58
 90
        2
176
     0
 90
        2
176
     0
 90
        0
176
     0
 90
        0
176
     0
 40
0.6
176
     0
 40
30.0
176
     0
 62
     7
420
 16777215
176
     0
 90
        1
176
     0
 90
        4
176
     0
 62
     7
176
     0
 62
   257
176
     0
 90
        1
176
     0
 90
        1
176
     0
 40
1.0
176
     0
 90
        9
176
     2
 62
     7
176
     0
 40
1.0
176
     0
 90
        1
176
     0
 90
        6
176
     0
 90
        2
176
     0
 62
     7
176
     0
 90
        5
176
     0
 90
        0
176
     0
 90
        0
176
     0
290
     0
176
     0
 90
        1
176
     0
 40
0.0
176
     0
 90
        0
176
     0
290
     0
176
     0
290
     1
176
     0
290
     1
176
     0
290
     0
176
     0
290
     0
176
     0
290
     0
176
     0
290
     0
176
     0
290
     0
176
     0
290
     0
176
     0
 90
       50
176
     0
 40
0.0
176
     0
 40
1.0
176
     0
 90
        0
176
     0
 62
    18
420
        0
176
     0
 90
       50
176
     0
 90
        3
176
     0
 62
     5
420
      255
176
     0
290
     0
176
     0
 90
       50
176
     0
 90
       50
176
     0
 90
       50
176
     0
290
     0
176
     0
 90
       50
176
     0
 62
   256
176
     0
 40
1.0
176
     0
 90
        2
176
     0
  1
strokes_ogs.tif
176
     0
290
     0
176
     0
 40
1.0
176
     0
 40
1.0
176
     0
  0
VISUALSTYLE
  5
33
102
{ACAD_REACTORS
330
2A
102
}
330
2A
100
AcDbVisualStyle
  2
Realistic
 70
     8
177
     3
291
     0
 70
    58
 90
        2
176
     1
 90
        3
176
     1
 90
        0
176
     1
 90
        2
176
     1
 40
0.6
176
     1
 40
30.0
176
     1
 62
     7
420
 16777215
176
     1
 90
        0
176
     1
 90
        0
176
     1
 62
     7
176
     1
 62
   257
176
     1
 90
        1
176
     1
 90
        1
176
     1
 40
1.0
176
     1
 90
        8
176
     1
 62
   257
176
     1
 40
1.0
176
     1
 90
        1
176
     1
 90
        6
176
     1
 90
        2
176
     1
 62
     7
176
     1
 90
        3
176
     1
 90
        0
176
     1
 90
        0
176
     1
290
     0
176
     1
 90
       13
176
     1
 40
0.0
176
     1
 90
        0
176
     1
290
     0
176
     1
290
     1
176
     1
290
     1
176
     1
290
     0
176
     1
290
     0
176
     1
290
     0
176
     1
290
     0
176
     1
290
     0
176
     1
290
     0
176
     1
 90
       50
176
     1
 40
0.0
176
     1
 40
1.0
176
     1
 90
        0
176
     1
 62
    18
420
        0
176
     1
 90
       50
176
     1
 90
        3
176
     1
 62
     5
420
      255
176
     1
290
     0
176
     1
 90
       50
176
     1
 90
       50
176
     1
 90
       50
176
     1
290
     0
176
     1
 90
       50
176
     1
 62
   256
176
     0
 40
1.0
176
     0
 90
        2
176
     1
  1
strokes_ogs.tif
176
     1
290
     0
176
     1
 40
1.0
176
     1
 40
1.0
176
     1
  0
VISUALSTYLE
  5
42
102
{ACAD_REACTORS
330
2A
102
}
330
2A
100
AcDbVisualStyle
  2
Shaded
 70
    27
177
     3
291
     0
 70
    58
 90
        2
176
     1
 90
        2
176
     1
 90
        1
176
     1
 90
        2
176
     1
 40
0.6
176
     1
 40
30.0
176
     1
 62
     7
420
 16777215
176
     1
 90
        0
176
     1
 90
        4
176
     1
 62
     7
176
     1
 62
   257
176
     1
 90
        1
176
     1
 90
        1
176
     1
 40
1.0
176
     1
 90
        8
176
     1
 62
   257
176
     1
 40
1.0
176
     1
 90
        1
176
     1
 90
        6
176
     1
 90
        2
176
     1
 62
     8
420
  7895160
176
     1
 90
        3
176
     1
 90
        0
176
     1
 90
        0
176
     1
290
     0
176
     1
 90
        5
176
     1
 40
0.0
176
     1
 90
        0
176
     1
290
     0
176
     1
290
     1
176
     1
290
     1
176
     1
290
     0
176
     1
290
     0
176
     1
290
     0
176
     1
290
     0
176
     1
290
     0
176
     1
290
     0
176
     1
 90
       50
176
     1
 40
0.0
176
     1
 40
1.0
176
     1
 90
        0
176
     1
 62
    18
420
        0
176
     1
 90
       50
176
     1
 90
        3
176
     1
 62
     5
420
      255
176
     1
290
     0
176
     1
 90
       50
176
     1
 90
       50
176
     1
 90
       50
176
     1
290
     0
176
     1
 90
       50
176
     1
 62
   256
176
     0
 40
1.0
176
     0
 90
        2
176
     1
  1
strokes_ogs.tif
176
     1
290
     0
176
     1
 40
1.0
176
     1
 40
1.0
176
     1
  0
VISUALSTYLE
  5
41
102
{ACAD_REACTORS
330
2A
102
}
330
2A
100
AcDbVisualStyle
  2
Shaded with edges
 70
    26
177
     3
291
     0
 70
    58
 90
        2
176
     1
 90
        2
176
     1
 90
        1
176
     1
 90
        2
176
     1
 40
0.6
176
     1
 40
30.0
176
     1
 62
     7
420
 16777215
176
     1
 90
        1
176
     1
 90
       10
176
     1
 62
     7
176
     1
 62
   257
176
     1
 90
        2
176
     1
 90
        1
176
     1
 40
1.0
176
     1
 90
        8
176
     1
 62
   257
176
     1
 40
1.0
176
     1
 90
        1
176
     1
 90
        6
176
     1
 90
        2
176
     1
 62
     7
176
     1
 90
        3
176
     1
 90
        0
176
     1
 90
        0
176
     1
290
     0
176
     1
 90
        5
176
     1
 40
0.0
176
     1
 90
        0
176
     1
290
     0
176
     1
290
     1
176
     1
290
     1
176
     1
290
     0
176
     1
290
     0
176
     1
290
     0
176
     1
290
     0
176
     1
290
     0
176
     1
290
     0
176
     1
 90
       50
176
     1
 40
0.0
176
     1
 40
1.0
176
     1
 90
        0
176
     1
 62
    18
420
        0
176
     1
 90
       50
176
     1
 90
        3
176
     1
 62
     5
420
      255
176
     1
290
     0
176
     1
 90
       50
176
     1
 90
       50
176
     1
 90
       50
176
     1
290
     0
176
     1
 90
       50
176
     1
 62
   256
176
     0
 40
1.0
176
     0
 90
        2
176
     1
  1
strokes_ogs.tif
176
     1
290
     0
176
     1
 40
1.0
176
     1
 40
1.0
176
     1
  0
VISUALSTYLE
  5
3E
102
{ACAD_REACTORS
330
2A
102
}
330
2A
100
AcDbVisualStyle
  2
Shades of Gray
 70
    23
177
     3
291
     0
 70
    58
 90
        2
176
     1
 90
        2
176
     1
 90
        3
176
     1
 90
        0
176
     1
 40
0.6
176
     1
 40
30.0
176
     1
 62
     7
420
 16777215
176
     1
 90
        2
176
     1
 90
        2
176
     1
 62
     7
176
     1
 62
     7
176
     1
 90
        1
176
     1
 90
        1
176
     1
 40
40.0
176
     1
 90
        8
176
     1
 62
     7
176
     1
 40
1.0
176
     1
 90
        1
176
     1
 90
        6
176
     1
 90
        2
176
     1
 62
     7
176
     1
 90
        3
176
     1
 90
        0
176
     1
 90
        0
176
     1
290
     0
176
     1
 90
        1
176
     1
 40
0.0
176
     1
 90
        0
176
     1
290
     0
176
     1
290
     1
176
     1
290
     1
176
     1
290
     0
176
     1
290
     0
176
     1
290
     0
176
     1
290
     0
176
     1
290
     0
176
     1
290
     0
176
     1
 90
       50
176
     1
 40
0.0
176
     1
 40
1.0
176
     1
 90
        0
176
     1
 62
    18
420
        0
176
     1
 90
       50
176
     1
 90
        3
176
     1
 62
     5
420
      255
176
     1
290
     0
176
     1
 90
       50
176
     1
 90
       50
176
     1
 90
       50
176
     1
290
     0
176
     1
 90
       50
176
     1
 62
   256
176
     0
 40
1.0
176
     0
 90
        2
176
     1
  1
strokes_ogs.tif
176
     1
290
     0
176
     1
 40
1.0
176
     1
 40
1.0
176
     1
  0
VISUALSTYLE
  5
3F
102
{ACAD_REACTORS
330
2A
102
}
330
2A
100
AcDbVisualStyle
  2
Sketchy
 70
    24
177
     3
291
     0
 70
    58
 90
        1
176
     1
 90
        2
176
     1
 90
        2
176
     1
 90
        0
176
     1
 40
0.6
176
     1
 40
30.0
176
     1
 62
     7
420
 16777215
176
     1
 90
        2
176
     1
 90
        2
176
     1
 62
     7
176
     1
 62
     7
176
     1
 90
        1
176
     1
 90
        1
176
     1
 40
40.0
176
     1
 90
       11
176
     1
 62
     7
176
     1
 40
1.0
176
     1
 90
        1
176
     1
 90
        6
176
     1
 90
        2
176
     1
 62
     7
176
     1
 90
        6
176
     1
 90
        0
176
     1
 90
        0
176
     1
290
     0
176
     1
 90
        1
176
     1
 40
0.0
176
     1
 90
        0
176
     1
290
     0
176
     1
290
     1
176
     1
290
     1
176
     1
290
     0
176
     1
290
     0
176
     1
290
     0
176
     1
290
     0
176
     1
290
     0
176
     1
290
     0
176
     1
 90
       50
176
     1
 40
0.0
176
     1
 40
1.0
176
     1
 90
        0
176
     1
 62
    18
420
        0
176
     1
 90
       50
176
     1
 90
        3
176
     1
 62
     5
420
      255
176
     1
290
     0
176
     1
 90
       50
176
     1
 90
       50
176
     1
 90
       50
176
     1
290
     0
176
     1
 90
       50
176
     1
 62
   256
176
     0
 40
1.0
176
     0
 90
        2
176
     1
  1
strokes_ogs.tif
176
     1
290
     0
176
     1
 40
1.0
176
     1
 40
1.0
176
     1
  0
VISUALSTYLE
  5
37
102
{ACAD_REACTORS
330
2A
102
}
330
2A
100
AcDbVisualStyle
  2
Thicken
 70
    13
177
     3
291
     1
 70
    58
 90
        2
176
     1
 90
        2
176
     1
 90
        0
176
     1
 90
        0
176
     1
 40
0.6
176
     1
 40
30.0
176
     1
 62
     7
420
 16777215
176
     1
 90
        1
176
     1
 90
        4
176
     1
 62
     7
176
     1
 62
   257
176
     1
 90
        1
176
     1
 90
        1
176
     1
 40
1.0
176
     1
 90
       12
176
     1
 62
     7
176
     1
 40
1.0
176
     1
 90
        1
176
     1
 90
        6
176
     1
 90
        2
176
     1
 62
     7
176
     1
 90
        5
176
     1
 90
        0
176
     1
 90
        0
176
     1
290
     0
176
     1
 90
        1
176
     1
 40
0.0
176
     1
 90
        0
176
     1
290
     0
176
     1
290
     1
176
     1
290
     1
176
     1
290
     0
176
     1
290
     0
176
     1
290
     0
176
     1
290
     0
176
     1
290
     0
176
     1
290
     0
176
     1
 90
       50
176
     1
 40
0.0
176
     1
 40
1.0
176
     1
 90
        0
176
     1
 62
    18
420
        0
176
     1
 90
       50
176
     1
 90
        3
176
     1
 62
     5
420
      255
176
     1
290
     0
176
     1
 90
       50
176
     1
 90
       50
176
     1
 90
       50
176
     1
290
     0
176
     1
 90
       50
176
     1
 62
   256
176
     0
 40
1.0
176
     0
 90
        2
176
     1
  1
strokes_ogs.tif
176
     1
290
     0
176
     1
 40
1.0
176
     1
 40
1.0
176
     1
  0
VISUALSTYLE
  5
30
102
{ACAD_REACTORS
330
2A
102
}
330
2A
100
AcDbVisualStyle
  2
Wireframe
 70
     5
177
     3
291
     0
 70
    58
 90
        0
176
     1
 90
        2
176
     1
 90
        0
176
     1
 90
        0
176
     1
 40
0.6
176
     1
 40
30.0
176
     1
 62
     7
420
 16777215
176
     1
 90
        1
176
     1
 90
        4
176
     1
 62
     7
176
     1
 62
   257
176
     1
 90
        1
176
     1
 90
        1
176
     1
 40
1.0
176
     1
 90
        0
176
     1
 62
   257
176
     1
 40
1.0
176
     1
 90
        1
176
     1
 90
        6
176
     1
 90
        2
176
     1
 62
     7
176
     1
 90
        3
176
     1
 90
        0
176
     1
 90
        0
176
     1
290
     0
176
     1
 90
        1
176
     1
 40
0.0
176
     1
 90
        0
176
     1
290
     0
176
     1
290
     1
176
     1
290
     1
176
     1
290
     0
176
     1
290
     0
176
     1
290
     0
176
     1
290
     0
176
     1
290
     0
176
     1
290
     0
176
     1
 90
       50
176
     1
 40
0.0
176
     1
 40
1.0
176
     1
 90
        0
176
     1
 62
    18
420
        0
176
     1
 90
       50
176
     1
 90
        3
176
     1
 62
     5
420
      255
176
     1
290
     0
176
     1
 90
       50
176
     1
 90
       50
176
     1
 90
       50
176
     1
290
     0
176
     1
 90
       50
176
     1
 62
   256
176
     0
 40
1.0
176
     0
 90
        2
176
     1
  1
strokes_ogs.tif
176
     1
290
     0
176
     1
 40
1.0
176
     1
 40
1.0
176
     1
  0
VISUALSTYLE
  5
40
102
{ACAD_REACTORS
330
2A
102
}
330
2A
100
AcDbVisualStyle
  2
X-Ray
 70
    25
177
     3
291
     0
 70
    58
 90
        2
176
     1
 90
        2
176
     1
 90
        1
176
     1
 90
        1
176
     1
 40
0.5
176
     1
 40
30.0
176
     1
 62
     7
420
 16777215
176
     1
 90
        1
176
     1
 90
        0
176
     1
 62
     7
176
     1
 62
   257
176
     1
 90
        1
176
     1
 90
        1
176
     1
 40
1.0
176
     1
 90
        8
176
     1
 62
     7
176
     1
 40
1.0
176
     1
 90
        1
176
     1
 90
        6
176
     1
 90
        2
176
     1
 62
     7
176
     1
 90
        3
176
     1
 90
        0
176
     1
 90
        0
176
     1
290
     0
176
     1
 90
       13
176
     1
 40
0.0
176
     1
 90
        0
176
     1
290
     0
176
     1
290
     1
176
     1
290
     1
176
     1
290
     0
176
     1
290
     0
176
     1
290
     0
176
     1
290
     0
176
     1
290
     0
176
     1
290
     0
176
     1
 90
       50
176
     1
 40
0.0
176
     1
 40
1.0
176
     1
 90
        0
176
     1
 62
    18
420
        0
176
     1
 90
       50
176
     1
 90
        3
176
     1
 62
     5
420
      255
176
     1
290
     0
176
     1
 90
       50
176
     1
 90
       50
176
     1
 90
       50
176
     1
290
     0
176
     1
 90
       50
176
     1
 62
   256
176
     0
 40
1.0
176
     0
 90
        2
176
     1
  1
strokes_ogs.tif
176
     1
290
     0
176
     1
 40
1.0
176
     1
 40
1.0
176
     1
  0
DICTIONARYVAR
  5
17A
102
{ACAD_REACTORS
330
179
102
}
330
179
100
DictionaryVariables
280
     0
  1
1:1
  0
DICTIONARYVAR
  5
17F
102
{ACAD_REACTORS
330
179
102
}
330
179
100
DictionaryVariables
280
     0
  1
Standard
  0
DICTIONARYVAR
  5
17E
102
{ACAD_REACTORS
330
179
102
}
330
179
100
DictionaryVariables
280
     0
  1
Standard
  0
DICTIONARYVAR
  5
182
102
{ACAD_REACTORS
330
179
102
}
330
179
100
DictionaryVariables
280
     0
  1
6.000000
  0
DICTIONARY
  5
17B
330
6A
100
AcDbDictionary
280
     1
281
     1
  3
ACAD_ROUNDTRIP_2008_TABLESTYLE_CELLSTYLEMAP
360
17C
  0
CELLSTYLEMAP
  5
17C
102
{ACAD_REACTORS
330
17B
102
}
330
17B
100
AcDbCellStyleMap
 90
        3
300
CELLSTYLE
  1
TABLEFORMAT_BEGIN
 90
        5
170
     1
 91
        0
 92
    32768
 62
   257
 93
        1
300
CONTENTFORMAT
  1
CONTENTFORMAT_BEGIN
 90
        0
 91
        0
 92
        4
 93
        0
300

 40
0.0
140
1.0
 94
        5
 62
     0
340
11
144
6.0
309
CONTENTFORMAT_END
171
     1
301
MARGIN
  1
CELLMARGIN_BEGIN
 40
1.5
 40
1.5
 40
1.5
 40
1.5
 40
1.5
 40
1.5
309
CELLMARGIN_END
 94
        6
 95
        1
302
GRIDFORMAT
  1
GRIDFORMAT_BEGIN
 90
        0
 91
        1
 62
     0
 92
       -2
340
14
 93
        0
 40
0.045
309
GRIDFORMAT_END
 95
        2
302
GRIDFORMAT
  1
GRIDFORMAT_BEGIN
 90
        0
 91
        1
 62
     0
 92
       -2
340
14
 93
        0
 40
0.045
309
GRIDFORMAT_END
 95
        4
302
GRIDFORMAT
  1
GRIDFORMAT_BEGIN
 90
        0
 91
        1
 62
     0
 92
       -2
340
14
 93
        0
 40
0.045
309
GRIDFORMAT_END
 95
        8
302
GRIDFORMAT
  1
GRIDFORMAT_BEGIN
 90
        0
 91
        1
 62
     0
 92
       -2
340
14
 93
        0
 40
0.045
309
GRIDFORMAT_END
 95
       16
302
GRIDFORMAT
  1
GRIDFORMAT_BEGIN
 90
        0
 91
        1
 62
     0
 92
       -2
340
14
 93
        0
 40
0.045
309
GRIDFORMAT_END
 95
       32
302
GRIDFORMAT
  1
GRIDFORMAT_BEGIN
 90
        0
 91
        1
 62
     0
 92
       -2
340
14
 93
        0
 40
0.045
309
GRIDFORMAT_END
309
TABLEFORMAT_END
  1
CELLSTYLE_BEGIN
 90
        1
 91
        1
300
_TITLE
309
CELLSTYLE_END
300
CELLSTYLE
  1
TABLEFORMAT_BEGIN
 90
        5
170
     1
 91
        0
 92
        0
 62
   257
 93
        1
300
CONTENTFORMAT
  1
CONTENTFORMAT_BEGIN
 90
        0
 91
        0
 92
        4
 93
        0
300

 40
0.0
140
1.0
 94
        5
 62
     0
340
11
144
4.5
309
CONTENTFORMAT_END
171
     1
301
MARGIN
  1
CELLMARGIN_BEGIN
 40
1.5
 40
1.5
 40
1.5
 40
1.5
 40
1.5
 40
1.5
309
CELLMARGIN_END
 94
        6
 95
        1
302
GRIDFORMAT
  1
GRIDFORMAT_BEGIN
 90
        0
 91
        1
 62
     0
 92
       -2
340
14
 93
        0
 40
0.045
309
GRIDFORMAT_END
 95
        2
302
GRIDFORMAT
  1
GRIDFORMAT_BEGIN
 90
        0
 91
        1
 62
     0
 92
       -2
340
14
 93
        0
 40
0.045
309
GRIDFORMAT_END
 95
        4
302
GRIDFORMAT
  1
GRIDFORMAT_BEGIN
 90
        0
 91
        1
 62
     0
 92
       -2
340
14
 93
        0
 40
0.045
309
GRIDFORMAT_END
 95
        8
302
GRIDFORMAT
  1
GRIDFORMAT_BEGIN
 90
        0
 91
        1
 62
     0
 92
       -2
340
14
 93
        0
 40
0.045
309
GRIDFORMAT_END
 95
       16
302
GRIDFORMAT
  1
GRIDFORMAT_BEGIN
 90
        0
 91
        1
 62
     0
 92
       -2
340
14
 93
        0
 40
0.045
309
GRIDFORMAT_END
 95
       32
302
GRIDFORMAT
  1
GRIDFORMAT_BEGIN
 90
        0
 91
        1
 62
     0
 92
       -2
340
14
 93
        0
 40
0.045
309
GRIDFORMAT_END
309
TABLEFORMAT_END
  1
CELLSTYLE_BEGIN
 90
        2
 91
        1
300
_HEADER
309
CELLSTYLE_END
300
CELLSTYLE
  1
TABLEFORMAT_BEGIN
 90
        5
170
     1
 91
        0
 92
        0
 62
   257
 93
        1
300
CONTENTFORMAT
  1
CONTENTFORMAT_BEGIN
 90
        0
 91
        0
 92
        4
 93
        0
300

 40
0.0
140
1.0
 94
        2
 62
     0
340
11
144
4.5
309
CONTENTFORMAT_END
171
     1
301
MARGIN
  1
CELLMARGIN_BEGIN
 40
1.5
 40
1.5
 40
1.5
 40
1.5
 40
1.5
 40
1.5
309
CELLMARGIN_END
 94
        6
 95
        1
302
GRIDFORMAT
  1
GRIDFORMAT_BEGIN
 90
        0
 91
        1
 62
     0
 92
       -2
340
14
 93
        0
 40
0.045
309
GRIDFORMAT_END
 95
        2
302
GRIDFORMAT
  1
GRIDFORMAT_BEGIN
 90
        0
 91
        1
 62
     0
 92
       -2
340
14
 93
        0
 40
0.045
309
GRIDFORMAT_END
 95
        4
302
GRIDFORMAT
  1
GRIDFORMAT_BEGIN
 90
        0
 91
        1
 62
     0
 92
       -2
340
14
 93
        0
 40
0.045
309
GRIDFORMAT_END
 95
        8
302
GRIDFORMAT
  1
GRIDFORMAT_BEGIN
 90
        0
 91
        1
 62
     0
 92
       -2
340
14
 93
        0
 40
0.045
309
GRIDFORMAT_END
 95
       16
302
GRIDFORMAT
  1
GRIDFORMAT_BEGIN
 90
        0
 91
        1
 62
     0
 92
       -2
340
14
 93
        0
 40
0.045
309
GRIDFORMAT_END
 95
       32
302
GRIDFORMAT
  1
GRIDFORMAT_BEGIN
 90
        0
 91
        1
 62
     0
 92
       -2
340
14
 93
        0
 40
0.045
309
GRIDFORMAT_END
309
TABLEFORMAT_END
  1
CELLSTYLE_BEGIN
 90
        3
 91
        2
300
_DATA
309
CELLSTYLE_END
  0
ENDSEC
  0
EOF
