  0
SECTION
  2
HEADER
  9
$ACADVER
  1
AC1015
  9
$ACADMAINTVER
 70
    18
  9
$DWGCODEPAGE
  3
ANSI_1252
  9
$INSBASE
 10
0.0
 20
0.0
 30
0.0
  9
$EXTMIN
 10
-148.6249974046659
 20
-17.92719838014727
 30
-0.0015258207003583
  9
$EXTMAX
 10
72.98808435488945
 20
289.3504041479321
 30
0.0000000349246037
  9
$LIMMIN
 10
0.0
 20
0.0
  9
$LIMMAX
 10
1189.0
 20
840.9999999999998
  9
$ORTHOMODE
 70
     0
  9
$REGENMODE
 70
     1
  9
$FILLMODE
 70
     1
  9
$QTEXTMODE
 70
     0
  9
$MIRRTEXT
 70
     0
  9
$LTSCALE
 40
1.0
  9
$ATTMODE
 70
     1
  9
$TEXTSIZE
 40
0.2
  9
$TRACEWID
 40
0.05
  9
$TEXTSTYLE
  7
STANDARD
  9
$CLAYER
  8
0
  9
$CELTYPE
  6
ByLayer
  9
$CECOLOR
 62
   256
  9
$CELTSCALE
 40
1.0
  9
$DISPSILH
 70
     0
  9
$DIMSCALE
 40
1.0
  9
$DIMASZ
 40
180.0
  9
$DIMEXO
 40
0.0625
  9
$DIMDLI
 40
0.38
  9
$DIMRND
 40
0.0
  9
$DIMDLE
 40
0.0
  9
$DIMEXE
 40
0.18
  9
$DIMTP
 40
0.0
  9
$DIMTM
 40
0.0
  9
$DIMTXT
 40
34.99999940395355
  9
$DIMCEN
 40
0.09
  9
$DIMTSZ
 40
0.0
  9
$DIMTOL
 70
     0
  9
$DIMLIM
 70
     0
  9
$DIMTIH
 70
     1
  9
$DIMTOH
 70
     1
  9
$DIMSE1
 70
     0
  9
$DIMSE2
 70
     0
  9
$DIMTAD
 70
     0
  9
$DIMZIN
 70
     0
  9
$DIMBLK
  1

  9
$DIMASO
 70
     1
  9
$DIMSHO
 70
     1
  9
$DIMPOST
  1

  9
$DIMAPOST
  1

  9
$DIMALT
 70
     0
  9
$DIMALTD
 70
     2
  9
$DIMALTF
 40
25.4
  9
$DIMLFAC
 40
1.0
  9
$DIMTOFL
 70
     0
  9
$DIMTVP
 40
0.0
  9
$DIMTIX
 70
     0
  9
$DIMSOXD
 70
     0
  9
$DIMSAH
 70
     0
  9
$DIMBLK1
  1

  9
$DIMBLK2
  1

  9
$DIMSTYLE
  2
STANDARD
  9
$DIMCLRD
 70
     0
  9
$DIMCLRE
 70
     0
  9
$DIMCLRT
 70
     0
  9
$DIMTFAC
 40
1.0
  9
$DIMGAP
 40
0.09
  9
$DIMJUST
 70
     0
  9
$DIMSD1
 70
     0
  9
$DIMSD2
 70
     0
  9
$DIMTOLJ
 70
     1
  9
$DIMTZIN
 70
     0
  9
$DIMALTZ
 70
     0
  9
$DIMALTTZ
 70
     0
  9
$DIMUPT
 70
     0
  9
$DIMDEC
 70
     4
  9
$DIMTDEC
 70
     4
  9
$DIMALTU
 70
     2
  9
$DIMALTTD
 70
     2
  9
$DIMTXSTY
  7
STANDARD
  9
$DIMAUNIT
 70
     0
  9
$DIMADEC
 70
     0
  9
$DIMALTRND
 40
0.0
  9
$DIMAZIN
 70
     0
  9
$DIMDSEP
 70
    46
  9
$DIMATFIT
 70
     3
  9
$DIMFRAC
 70
     0
  9
$DIMLDRBLK
  1

  9
$DIMLUNIT
 70
     2
  9
$DIMLWD
 70
    -2
  9
$DIMLWE
 70
    -2
  9
$DIMTMOVE
 70
     0
  9
$LUNITS
 70
     2
  9
$LUPREC
 70
     4
  9
$SKETCHINC
 40
0.1
  9
$FILLETRAD
 40
0.0
  9
$AUNITS
 70
     0
  9
$AUPREC
 70
     0
  9
$MENU
  1
.
  9
$ELEVATION
 40
0.0
  9
$PELEVATION
 40
0.0
  9
$THICKNESS
 40
0.0
  9
$LIMCHECK
 70
     0
  9
$CHAMFERA
 40
0.0
  9
$CHAMFERB
 40
0.0
  9
$CHAMFERC
 40
0.0
  9
$CHAMFERD
 40
0.0
  9
$SKPOLY
 70
     0
  9
$TDCREATE
 40
2454871.497639329
  9
$TDUCREATE
 40
2454871.455972662
  9
$TDUPDATE
 40
2455943.982422952
  9
$TDUUPDATE
 40
2455943.940756285
  9
$TDINDWG
 40
0.0123352083
  9
$TDUSRTIMER
 40
0.0123352083
  9
$USRTIMER
 70
     1
  9
$ANGBASE
 50
0.0
  9
$ANGDIR
 70
     0
  9
$PDMODE
 70
     0
  9
$PDSIZE
 40
0.0
  9
$PLINEWID
 40
0.0
  9
$SPLFRAME
 70
     0
  9
$SPLINETYPE
 70
     6
  9
$SPLINESEGS
 70
     8
  9
$HANDSEED
  5
1D3
  9
$SURFTAB1
 70
     6
  9
$SURFTAB2
 70
     6
  9
$SURFTYPE
 70
     6
  9
$SURFU
 70
     6
  9
$SURFV
 70
     6
  9
$UCSBASE
  2

  9
$UCSNAME
  2

  9
$UCSORG
 10
0.0
 20
0.0
 30
0.0
  9
$UCSXDIR
 10
1.0
 20
0.0
 30
0.0
  9
$UCSYDIR
 10
0.0
 20
1.0
 30
0.0
  9
$UCSORTHOREF
  2

  9
$UCSORTHOVIEW
 70
     0
  9
$UCSORGTOP
 10
0.0
 20
0.0
 30
0.0
  9
$UCSORGBOTTOM
 10
0.0
 20
0.0
 30
0.0
  9
$UCSORGLEFT
 10
0.0
 20
0.0
 30
0.0
  9
$UCSORGRIGHT
 10
0.0
 20
0.0
 30
0.0
  9
$UCSORGFRONT
 10
0.0
 20
0.0
 30
0.0
  9
$UCSORGBACK
 10
0.0
 20
0.0
 30
0.0
  9
$PUCSBASE
  2

  9
$PUCSNAME
  2

  9
$PUCSORG
 10
0.0
 20
0.0
 30
0.0
  9
$PUCSXDIR
 10
1.0
 20
0.0
 30
0.0
  9
$PUCSYDIR
 10
0.0
 20
1.0
 30
0.0
  9
$PUCSORTHOREF
  2

  9
$PUCSORTHOVIEW
 70
     0
  9
$PUCSORGTOP
 10
0.0
 20
0.0
 30
0.0
  9
$PUCSORGBOTTOM
 10
0.0
 20
0.0
 30
0.0
  9
$PUCSORGLEFT
 10
0.0
 20
0.0
 30
0.0
  9
$PUCSORGRIGHT
 10
0.0
 20
0.0
 30
0.0
  9
$PUCSORGFRONT
 10
0.0
 20
0.0
 30
0.0
  9
$PUCSORGBACK
 10
0.0
 20
0.0
 30
0.0
  9
$USERI1
 70
     0
  9
$USERI2
 70
     0
  9
$USERI3
 70
     0
  9
$USERI4
 70
     0
  9
$USERI5
 70
     0
  9
$USERR1
 40
0.0
  9
$USERR2
 40
0.0
  9
$USERR3
 40
0.0
  9
$USERR4
 40
0.0
  9
$USERR5
 40
0.0
  9
$WORLDVIEW
 70
     1
  9
$SHADEDGE
 70
     3
  9
$SHADEDIF
 70
    70
  9
$TILEMODE
 70
     1
  9
$MAXACTVP
 70
    64
  9
$PINSBASE
 10
0.0
 20
0.0
 30
0.0
  9
$PLIMCHECK
 70
     0
  9
$PEXTMIN
 10
0.0
 20
0.0
 30
0.0
  9
$PEXTMAX
 10
1189.0
 20
840.9999999999998
 30
0.0
  9
$PLIMMIN
 10
0.0
 20
0.0
  9
$PLIMMAX
 10
1189.0
 20
840.9999999999998
  9
$UNITMODE
 70
     0
  9
$VISRETAIN
 70
     1
  9
$PLINEGEN
 70
     0
  9
$PSLTSCALE
 70
     1
  9
$TREEDEPTH
 70
  3020
  9
$CMLSTYLE
  2
Standard
  9
$CMLJUST
 70
     0
  9
$CMLSCALE
 40
1.0
  9
$PROXYGRAPHICS
 70
     1
  9
$MEASUREMENT
 70
     1
  9
$CELWEIGHT
370
    -1
  9
$ENDCAPS
280
     0
  9
$JOINSTYLE
280
     0
  9
$LWDISPLAY
290
     0
  9
$INSUNITS
 70
     4
  9
$HYPERLINKBASE
  1

  9
$STYLESHEET
  1

  9
$XEDIT
290
     1
  9
$CEPSNTYPE
380
     0
  9
$PSTYLEMODE
290
     1
  9
$FINGERPRINTGUID
  2
{DFEDA044-AF9A-454B-A772-1CE28C27376D}
  9
$VERSIONGUID
  2
{EE75FD3F-4F2B-431C-A9C7-8DD9A43EA522}
  9
$EXTNAMES
290
     1
  9
$PSVPSCALE
 40
0.0
  9
$OLESTARTUP
290
     0
  0
ENDSEC
  0
SECTION
  2
CLASSES
  0
CLASS
  1
ACDBDICTIONARYWDFLT
  2
AcDbDictionaryWithDefault
  3
ObjectDBX Classes
 90
        0
280
     0
281
     0
  0
CLASS
  1
MATERIAL
  2
AcDbMaterial
  3
ObjectDBX Classes
 90
     1153
280
     0
281
     0
  0
CLASS
  1
VISUALSTYLE
  2
AcDbVisualStyle
  3
ObjectDBX Classes
 90
     4095
280
     0
281
     0
  0
CLASS
  1
SCALE
  2
AcDbScale
  3
ObjectDBX Classes
 90
     1153
280
     0
281
     0
  0
CLASS
  1
TABLESTYLE
  2
AcDbTableStyle
  3
ObjectDBX Classes
 90
     4095
280
     0
281
     0
  0
CLASS
  1
MLEADERSTYLE
  2
AcDbMLeaderStyle
  3
ACDB_MLEADERSTYLE_CLASS
 90
     4095
280
     0
281
     0
  0
CLASS
  1
SORTENTSTABLE
  2
AcDbSortentsTable
  3
ObjectDBX Classes
 90
        0
280
     0
281
     0
  0
CLASS
  1
CELLSTYLEMAP
  2
AcDbCellStyleMap
  3
ObjectDBX Classes
 90
     1152
280
     0
281
     0
  0
CLASS
  1
DICTIONARYVAR
  2
AcDbDictionaryVar
  3
ObjectDBX Classes
 90
        0
280
     0
281
     0
  0
CLASS
  1
ACME_DOCUMENT
  2
AcMeDbDoc
  3
AcMeServices
 90
    33792
280
     1
281
     0
  0
CLASS
  1
AMGSETTINGSOBJ
  2
AmgSettingsObj
  3
"AcadM|Product Description: AutoCAD Mechanical|Company: Autodesk, Inc."
 90
    33792
280
     1
281
     0
  0
CLASS
  1
ACMESCOPE
  2
AcMeScope
  3
AcMeServices
 90
    33792
280
     1
281
     0
  0
CLASS
  1
ACMECOMMANDHISTORY
  2
AcMeCommandHistory
  3
AcMeServices
 90
    33792
280
     1
281
     0
  0
CLASS
  1
ACIMSYSVARMAN
  2
AcImSysVarManager
  3
AcMeServices
 90
    33792
280
     1
281
     0
  0
CLASS
  1
ACIMINTSYSVAR
  2
AcImIntSysVar
  3
AcMeServices
 90
    33792
280
     1
281
     0
  0
CLASS
  1
ACMEDRAWINGMAN
  2
AcMeDrawingMan
  3
AcMeServices
 90
    33792
280
     1
281
     0
  0
CLASS
  1
ACMEVIEW
  2
AcMeView
  3
AcMeServices
 90
    33792
280
     1
281
     0
  0
CLASS
  1
ACDBENTITYCACHE
  2
AcMeEntityCache
  3
AcMeServices
 90
    33792
280
     1
281
     0
  0
CLASS
  1
GSMANAGER
  2
AcMeGSManager
  3
AcMeServices
 90
    33792
280
     1
281
     0
  0
CLASS
  1
AMDTINTERNALREACTOR
  2
AmdtInternalReactor
  3
AcMeServices
 90
    33792
280
     1
281
     0
  0
CLASS
  1
ACMESTATEMGR
  2
AcMeStateMgr
  3
AcMeServices
 90
    33792
280
     1
281
     0
  0
CLASS
  1
ACGREFMASTER
  2
AcGrefMaster
  3
AcAttribServices
 90
    33792
280
     1
281
     0
  0
CLASS
  1
AM_DRAWING_MGR
  2
AcDmDwgMgr
  3
AcMechDwgViewMgmt
 90
    33792
280
     1
281
     0
  0
CLASS
  1
AM_DWG_DOCUMENT
  2
AcDmDwgDocument
  3
AcMechDwgViewMgmt
 90
    33792
280
     1
281
     0
  0
CLASS
  1
AM_DWG_SHEET
  2
AcDmSheet
  3
AcMechDwgViewMgmt
 90
    33792
280
     1
281
     0
  0
CLASS
  1
AM_VIEWDIMPARMAP
  2
AcDmViewDimParMap
  3
AcMechDwgViewMgmt
 90
    33792
280
     1
281
     0
  0
CLASS
  1
ACIMREALSYSVAR
  2
AcImRealSysVar
  3
AcMeServices
 90
    33792
280
     1
281
     0
  0
CLASS
  1
AM_DWGMGR_NAME
  2
AcDmDwgMgrName
  3
AcMechDwgViewMgmt
 90
    33792
280
     1
281
     0
  0
CLASS
  1
ACME_DATABASE
  2
AcMeDbDatabase
  3
AcMeServices
 90
    33792
280
     1
281
     0
  0
CLASS
  1
ACRFINSADJUSTERMGR
  2
AcRfInsAdjusterMgr
  3
AcMeServices
 90
    33792
280
     1
281
     0
  0
CLASS
  1
ACGREFACADMASTER
  2
AcGrefacadMaster
  3
AcGrefServices
 90
    33792
280
     1
281
     0
  0
CLASS
  1
AMDTMENUSTATEMGR
  2
AmdtMenuStateMgr
  3
McadcomServices
 90
    33792
280
     1
281
     0
  0
CLASS
  1
AMDTMCOMMENUSTATE
  2
AmdtMcomMenuState
  3
McadcomServices
 90
    33792
280
     1
281
     0
  0
CLASS
  1
AMIMASTER
  2
AmiMaster
  3
AmiServices
 90
    33792
280
     1
281
     0
  0
CLASS
  1
MAPIAMMOUDLE
  2
MApiAmModule
  3
MApiAmServices
 90
    33792
280
     1
281
     0
  0
CLASS
  1
ACIMSTRSYSVAR
  2
AcImStrSysVar
  3
AcMeServices
 90
    33792
280
     1
281
     0
  0
CLASS
  1
AMDTADMENUSTATE
  2
AmdtAdMenuState
  3
DesignerServices
 90
    33792
280
     1
281
     0
  0
CLASS
  1
ADAPPL
  2
AcAdAppl
  3
DesignerServices
 90
    33792
280
     1
281
     0
  0
CLASS
  1
DEPMGR
  2
AcAdDepMgr
  3
DesignerServices
 90
    33792
280
     1
281
     0
  0
CLASS
  1
PARAMMGR
  2
AcAdParamMgr
  3
DesignerServices
 90
    33792
280
     1
281
     0
  0
CLASS
  1
PARAMSCOPE
  2
AcAdParamScope
  3
DesignerServices
 90
    33792
280
     1
281
     0
  0
CLASS
  1
NAMEDAPPL
  2
AcAdNamedAppl
  3
DesignerServices
 90
    33792
280
     1
281
     0
  0
CLASS
  1
AMDTDMMENUSTATE
  2
AmdtDmMenuState
  3
AcMechDwgViewMgmt
 90
    33792
280
     1
281
     0
  0
CLASS
  1
AMDTAMMENUSTATE
  2
AmdtAmMenuState
  3
DesignerAssemblies
 90
    33792
280
     1
281
     0
  0
CLASS
  1
ACAMPROJECT
  2
AcAmProject
  3
DesignerAssemblies
 90
    33792
280
     1
281
     0
  0
CLASS
  1
ACAMGRCOMPDEF
  2
AcAmGrCompDef
  3
DesignerAssemblies
 90
    33792
280
     1
281
     0
  0
CLASS
  1
ACCMCONTEXT
  2
AcCmContext
  3
DesignerAssemblies
 90
    33792
280
     1
281
     0
  0
CLASS
  1
ACAMCOMPDEF
  2
AcAmCompDef
  3
DesignerAssemblies
 90
    33792
280
     1
281
     0
  0
CLASS
  1
ACAMCOMPDEFMGR
  2
AcAmCompDefMgr
  3
DesignerAssemblies
 90
    33792
280
     1
281
     0
  0
CLASS
  1
AMCONTEXTMGR
  2
AcAmContextMgr
  3
DesignerAssemblies
 90
    33792
280
     1
281
     0
  0
CLASS
  1
ACAMCONTEXTMODELER
  2
AcAmContextModeler
  3
DesignerAssemblies
 90
    33792
280
     1
281
     0
  0
CLASS
  1
ACMDATADICTIONARY
  2
AcmDataDictionary
  3
"AcmSymBB|Product Description: AutoCAD Mechanical|Company: Autodesk, Inc."
 90
    33792
280
     1
281
     0
  0
CLASS
  1
CATALOGSTATE
  2
AcAmCatalogState
  3
DesignerAssemblies
 90
    33792
280
     1
281
     0
  0
CLASS
  1
ACAMGRCOMPDEFSET
  2
AcAmGrCompDefSet
  3
DesignerAssemblies
 90
    33792
280
     1
281
     0
  0
CLASS
  1
AMDTBROWSERDBTAB
  2
AmdtBrowserDbTab
  3
McadcomServices
 90
    33792
280
     1
281
     0
  0
CLASS
  1
CBROWSERAPPOBJECT
  2
CBrowserAppObject
  3
McadcomServices
 90
    33792
280
     1
281
     0
  0
CLASS
  1
DM_PLACEHOLDER
  2
AcDmSelsetPlaceholder
  3
AcMechDwgViewMgmt
 90
    33792
280
     1
281
     0
  0
CLASS
  1
EXACXREFPANELOBJECT
  2
ExAcXREFPanelObject
  3
EXAC_ESW
 90
     1025
280
     0
281
     0
  0
CLASS
  1
NPOCOLLECTION
  2
AcDbImpNonPersistentObjectsCollection
  3
ObjectDBX Classes
 90
     1153
280
     0
281
     0
  0
CLASS
  1
ACMSTANDARDANSI
  2
AcmStandardANSI
  3
"Amdt_StdImp|Product Description: AutoCAD Mechanical|Company: Autodesk, Inc."
 90
    33792
280
     1
281
     0
  0
CLASS
  1
ACMSURFSTANDARDANSI
  2
AcmSurfTextStdANSI
  3
"Amdt_StdImp|Product Description: AutoCAD Mechanical|Company: Autodesk, Inc."
 90
    33792
280
     1
281
     0
  0
CLASS
  1
ACMFCFSTANDARDANSI
  2
AcmFCFStdANSI
  3
"Amdt_StdImp|Product Description: AutoCAD Mechanical|Company: Autodesk, Inc."
 90
    33792
280
     1
281
     0
  0
CLASS
  1
ACMWELDSTANDARDANSI
  2
AcmWeldingStdANSI
  3
"Amdt_StdImp|Product Description: AutoCAD Mechanical|Company: Autodesk, Inc."
 90
    33792
280
     1
281
     0
  0
CLASS
  1
ACMIDSTANDARDANSI
  2
AcmIdStdANSI
  3
"Amdt_StdImp|Product Description: AutoCAD Mechanical|Company: Autodesk, Inc."
 90
    33792
280
     1
281
     0
  0
CLASS
  1
ACMDATUMSTANDARDANSI
  2
AcmDatumStdANSI
  3
"Amdt_StdImp|Product Description: AutoCAD Mechanical|Company: Autodesk, Inc."
 90
    33792
280
     1
281
     0
  0
CLASS
  1
ACMBOMSTANDARDANSI
  2
AcmBOMStdANSI
  3
"Amdt_StdImp|Product Description: AutoCAD Mechanical|Company: Autodesk, Inc."
 90
    33792
280
     1
281
     0
  0
CLASS
  1
ACMDETAILSTANDARDANSI
  2
AmdtDetailSymStdANSI
  3
"Amdt_StdImp|Product Description: AutoCAD Mechanical|Company: Autodesk, Inc."
 90
    33792
280
     1
281
     0
  0
CLASS
  1
ACMSECTIONSTANDARDANSI
  2
AmdtSectionSymStdANSI
  3
"Amdt_StdImp|Product Description: AutoCAD Mechanical|Company: Autodesk, Inc."
 90
    33792
280
     1
281
     0
  0
CLASS
  1
ACMCENTERLINESTANDARDANSI
  2
AmdtCenterLineStdANSI
  3
"Amdt_StdImp|Product Description: AutoCAD Mechanical|Company: Autodesk, Inc."
 90
    33792
280
     1
281
     0
  0
CLASS
  1
ACMTHREADLINESTANDARDANSI
  2
AmdtThreadLineStdANSI
  3
"Amdt_StdImp|Product Description: AutoCAD Mechanical|Company: Autodesk, Inc."
 90
    33792
280
     1
281
     0
  0
CLASS
  1
ACMNOTESTANDARDANSI
  2
AmdtNoteStdANSI
  3
"Amdt_StdImp|Product Description: AutoCAD Mechanical|Company: Autodesk, Inc."
 90
    33792
280
     1
281
     0
  0
CLASS
  1
ACMTAPERSTANDARDANSI
  2
AcmTaperStdANSI
  3
"Amdt_StdImp|Product Description: AutoCAD Mechanical|Company: Autodesk, Inc."
 90
    33792
280
     1
281
     0
  0
CLASS
  1
ACMANOOTATIONVIEWSTANDARDANSI
  2
AmdtAnViewStdANSI
  3
"Amdt_StdImp|Product Description: AutoCAD Mechanical|Company: Autodesk, Inc."
 90
    33792
280
     1
281
     0
  0
CLASS
  1
ACAMGLAYSTD
  2
AcAmgLayStd
  3
"AmgLay|Product Description: AutoCAD Mechanical|Company: Autodesk, Inc."
 90
    33792
280
     1
281
     0
  0
CLASS
  1
ACAMGDIMSTD
  2
AcAmgDimStd
  3
"AmgDim|Product Description: AutoCAD Mechanical|Company: Autodesk, Inc."
 90
    33792
280
     1
281
     0
  0
CLASS
  1
AMGOBJPROPCFG
  2
AmgObjPropCfg
  3
"AmgLay|Product Description: AutoCAD Mechanical|Company: Autodesk, Inc."
 90
    33793
280
     1
281
     0
  0
CLASS
  1
ACAMGHOLECHARTSTDANSI
  2
AcAmgHoleChartStdANSI
  3
AmgDim|Product Description: AutoCAD Mechanical|Company: Autodesk, Inc.
 90
    33792
280
     1
281
     0
  0
CLASS
  1
ACAMGTITLESTD
  2
AcAmgTitleStd
  3
"AmgTitle|Product Description: AutoCAD Mechanical|Company: Autodesk, Inc."
 90
    36863
280
     1
281
     0
  0
CLASS
  1
AMDTNOTETEMPLATEDB
  2
AmdtNoteTemplateDB
  3
AcmSymBB|Product Description: AutoCAD Mechanical|Company: Autodesk, Inc.
 90
    33792
280
     1
281
     0
  0
CLASS
  1
ACAMGFILTERDAT
  2
AcAmgFilterDat
  3
"AcadM|Product Description: AutoCAD Mechanical|Company: Autodesk, Inc."
 90
    33792
280
     1
281
     0
  0
CLASS
  1
CAMSSTRUCTBTNSTATE
  2
StructBtnState
  3
DesignerAssemblies
 90
    33792
280
     1
281
     0
  0
CLASS
  1
ACDBPLACEHOLDER
  2
AcDbPlaceHolder
  3
ObjectDBX Classes
 90
        0
280
     0
281
     0
  0
CLASS
  1
LAYOUT
  2
AcDbLayout
  3
ObjectDBX Classes
 90
        0
280
     0
281
     0
  0
CLASS
  1
SOLID_BACKGROUND
  2
AcDbSolidBackground
  3
SCENEOE
 90
    36863
280
     0
281
     0
  0
ENDSEC
  0
SECTION
  2
TABLES
  0
TABLE
  2
VPORT
  5
28
102
{ACAD_XDICTIONARY
360
2C
102
}
330
0
100
AcDbSymbolTable
 70
     1
  0
VPORT
  5
29
330
28
100
AcDbSymbolTableRecord
100
AcDbViewportTableRecord
  2
*ACTIVE
 70
     0
 10
0.0
 20
0.0
 11
1.0
 21
1.0
 12
-37.81845652488825
 22
135.7116028838924
 13
0.0
 23
0.0
 14
1.0
 24
1.0
 15
0.0
 25
0.0
 16
0.0
 26
0.0
 36
1.0
 17
0.0
 27
0.0
 37
0.0
 40
344.0324631479346
 41
1.141762452107279
 42
50.0
 43
0.0
 44
0.0
 50
0.0
 51
0.0
 71
     0
 72
   100
 73
     1
 74
     1
 75
     0
 76
     0
 77
     0
 78
     0
281
     0
 65
     1
110
0.0
120
0.0
130
0.0
111
1.0
121
0.0
131
0.0
112
0.0
122
1.0
132
0.0
 79
     0
146
0.0
  0
ENDTAB
  0
TABLE
  2
LTYPE
  5
23
330
0
100
AcDbSymbolTable
 70
     3
  0
LTYPE
  5
24
330
23
100
AcDbSymbolTableRecord
100
AcDbLinetypeTableRecord
  2
ByBlock
 70
     0
  3

 72
    65
 73
     0
 40
0.0
  0
LTYPE
  5
25
330
23
100
AcDbSymbolTableRecord
100
AcDbLinetypeTableRecord
  2
ByLayer
 70
     0
  3

 72
    65
 73
     0
 40
0.0
  0
LTYPE
  5
13
330
23
100
AcDbSymbolTableRecord
100
AcDbLinetypeTableRecord
  2
CONTINUOUS
 70
     0
  3
Solid line
 72
    65
 73
     0
 40
0.0
  0
LTYPE
  5
77
330
23
100
AcDbSymbolTableRecord
100
AcDbLinetypeTableRecord
  2
DASHDOT
 70
     0
  3
Dash dot __ . __ . __ . __ . __ . __ . __ . __
 72
    65
 73
     4
 40
1.0
 49
0.5
 74
     0
 49
-0.25
 74
     0
 49
0.0
 74
     0
 49
-0.25
 74
     0
  0
LTYPE
  5
83
330
23
100
AcDbSymbolTableRecord
100
AcDbLinetypeTableRecord
  2
DASHED
 70
     0
  3
Dashed __ __ __ __ __ __ __ __ __ __ __ __ __ _
 72
    65
 73
     2
 40
0.75
 49
0.5
 74
     0
 49
-0.25
 74
     0
  0
ENDTAB
  0
TABLE
  2
LAYER
  5
1B
102
{ACAD_XDICTIONARY
360
1C
102
}
330
0
100
AcDbSymbolTable
 70
     7
  0
LAYER
  5
6
330
1B
100
AcDbSymbolTableRecord
100
AcDbLayerTableRecord
  2
0
 70
     0
 62
     7
  6
CONTINUOUS
370
    -3
390
7
  0
LAYER
  5
93
330
1B
100
AcDbSymbolTableRecord
100
AcDbLayerTableRecord
  2
GEB-KONTUR-A
 70
     0
 62
     5
  6
CONTINUOUS
370
    -3
390
7
  0
LAYER
  5
76
330
1B
100
AcDbSymbolTableRecord
100
AcDbLayerTableRecord
  2
GEB-SYMMETRIE
 70
     0
 62
     3
  6
DASHDOT
370
    -3
390
7
1001
AcAecLayerStandard
1000

1000

  0
LAYER
  5
82
330
1B
100
AcDbSymbolTableRecord
100
AcDbLayerTableRecord
  2
GEB-VERDECKT
 70
     0
 62
     2
  6
DASHED
370
    -3
390
7
1001
AcAecLayerStandard
1000

1000

  0
LAYER
  5
167
330
1B
100
AcDbSymbolTableRecord
100
AcDbLayerTableRecord
  2
GEB-ART-NR
 70
     0
 62
     1
  6
CONTINUOUS
370
    18
390
7
  0
LAYER
  5
72
330
1B
100
AcDbSymbolTableRecord
100
AcDbLayerTableRecord
  2
GEB-BEZUG
 70
     0
 62
     2
  6
CONTINUOUS
370
    25
390
7
  0
LAYER
  5
164
330
1B
100
AcDbSymbolTableRecord
100
AcDbLayerTableRecord
  2
GEB-TEXT
 70
     0
 62
     5
  6
CONTINUOUS
370
    18
390
7
  0
ENDTAB
  0
TABLE
  2
STYLE
  5
20
330
0
100
AcDbSymbolTable
 70
     1
  0
STYLE
  5
21
330
20
100
AcDbSymbolTableRecord
100
AcDbTextStyleTableRecord
  2
STANDARD
 70
     0
 40
0.0
 41
1.0
 50
0.0
 71
     0
 42
0.2
  3
ARIAL.TTF
  4

1001
ACAD
1000
Arial
1071
       34
  0
ENDTAB
  0
TABLE
  2
VIEW
  5
26
330
0
100
AcDbSymbolTable
 70
     0
  0
ENDTAB
  0
TABLE
  2
UCS
  5
27
330
0
100
AcDbSymbolTable
 70
     0
  0
ENDTAB
  0
TABLE
  2
APPID
  5
2D
330
0
100
AcDbSymbolTable
 70
     3
  0
APPID
  5
1F
330
2D
100
AcDbSymbolTableRecord
100
AcDbRegAppTableRecord
  2
ACAD
 70
     0
  0
APPID
  5
78
330
2D
100
AcDbSymbolTableRecord
100
AcDbRegAppTableRecord
  2
AcAecLayerStandard
 70
     0
  0
APPID
  5
1D2
330
2D
100
AcDbSymbolTableRecord
100
AcDbRegAppTableRecord
  2
ACAD_MLEADERVER
 70
     0
  0
ENDTAB
  0
TABLE
  2
DIMSTYLE
  5
2E
330
0
100
AcDbSymbolTable
 70
     1
100
AcDbDimStyleTable
 71
     1
340
2F
  0
DIMSTYLE
105
2F
330
2E
100
AcDbSymbolTableRecord
100
AcDbDimStyleTableRecord
  2
STANDARD
 70
     0
279
     2
340
21
  0
ENDTAB
  0
TABLE
  2
BLOCK_RECORD
  5
1
330
0
100
AcDbSymbolTable
 70
     1
  0
BLOCK_RECORD
  5
2
102
{ACAD_XDICTIONARY
360
3
102
}
330
1
100
AcDbSymbolTableRecord
100
AcDbBlockTableRecord
  2
*Model_Space
340
15
  0
BLOCK_RECORD
  5
17
330
1
100
AcDbSymbolTableRecord
100
AcDbBlockTableRecord
  2
*Paper_Space
340
1A
  0
BLOCK_RECORD
  5
6F
330
1
100
AcDbSymbolTableRecord
100
AcDbBlockTableRecord
  2
Einfügepunkt
340
0
102
{BLKREFS
331
6E
102
}
  0
ENDTAB
  0
ENDSEC
  0
SECTION
  2
BLOCKS
  0
BLOCK
  5
5
330
2
100
AcDbEntity
  8
0
100
AcDbBlockBegin
  2
*Model_Space
 70
     0
 10
0.0
 20
0.0
 30
0.0
  3
*Model_Space
  1

  0
ENDBLK
  5
14
330
2
100
AcDbEntity
  8
0
100
AcDbBlockEnd
  0
BLOCK
  5
18
330
17
100
AcDbEntity
 67
     1
  8
0
100
AcDbBlockBegin
  2
*Paper_Space
 70
     0
 10
0.0
 20
0.0
 30
0.0
  3
*Paper_Space
  1

  0
ENDBLK
  5
19
330
17
100
AcDbEntity
 67
     1
  8
0
100
AcDbBlockEnd
  0
BLOCK
  5
70
330
6F
100
AcDbEntity
  8
0
100
AcDbBlockBegin
  2
Einfügepunkt
 70
     0
 10
0.0
 20
0.0
 30
0.0
  3
Einfügepunkt
  1

  0
LINE
  5
71
330
6F
100
AcDbEntity
  8
GEB-BEZUG
100
AcDbLine
 10
-0.7071067811865817
 20
-0.7071067811865106
 30
0.0
 11
0.7071067811864751
 21
0.7071067811865817
 31
0.0
  0
LINE
  5
73
330
6F
100
AcDbEntity
  8
GEB-BEZUG
100
AcDbLine
 10
-0.7071067811865106
 20
0.7071067811865817
 30
0.0
 11
0.7071067811865462
 21
-0.7071067811865106
 31
0.0
  0
ENDBLK
  5
74
330
6F
100
AcDbEntity
  8
0
100
AcDbBlockEnd
  0
ENDSEC
  0
SECTION
  2
ENTITIES
  0
INSERT
  5
6E
330
2
100
AcDbEntity
  8
0
 48
25.0
100
AcDbBlockReference
  2
Einfügepunkt
 10
0.0
 20
0.0
 30
0.0
  0
LINE
  5
75
330
2
100
AcDbEntity
  8
GEB-SYMMETRIE
 48
25.0
100
AcDbLine
 10
-0.00000000000108
 20
206.2593612044257
 30
0.0
 11
-0.0000000000011937
 21
219.3999999999994
 31
0.0
  0
LINE
  5
79
330
2
100
AcDbEntity
  8
GEB-SYMMETRIE
 48
25.0
100
AcDbLine
 10
-0.0000000000012221
 20
214.3999999999994
 30
0.0
 11
-0.0000000000017906
 21
268.4999999999993
 31
0.0
  0
LINE
  5
7A
330
2
100
AcDbEntity
  8
GEB-SYMMETRIE
 48
25.0
100
AcDbLine
 10
-0.0000000000017053
 20
263.4999999999993
 30
0.0
 11
-0.0000000000019043
 21
279.8999999999994
 31
0.0
  0
LINE
  5
7B
330
2
100
AcDbEntity
  8
GEB-SYMMETRIE
 48
25.0
100
AcDbLine
 10
-0.0000000000018474
 20
274.8999999999992
 30
0.0
 11
-0.0000000000020179
 21
289.2999999999997
 31
0.0
  0
LINE
  5
7C
330
2
100
AcDbEntity
  8
GEB-SYMMETRIE
 48
25.0
100
AcDbLine
 10
-60.05341277942221
 20
194.3810995469928
 30
0.0
 11
-74.41763993558595
 21
195.0082552487831
 31
0.0
  0
LINE
  5
7D
330
2
100
AcDbEntity
  8
GEB-SYMMETRIE
 48
25.0
100
AcDbLine
 10
-70.31153149508566
 20
143.2298677624171
 30
0.0
 11
-84.04530411190007
 21
143.8294972245581
 31
0.0
  0
LINE
  5
7E
330
2
100
AcDbEntity
  8
GEB-SYMMETRIE
 48
25.0
100
AcDbLine
 10
-79.05006300399077
 20
143.6114002877316
 30
0.0
 11
-131.5000946370383
 21
145.9014181244117
 31
0.0
  0
LINE
  5
7F
330
2
100
AcDbEntity
  8
GEB-SYMMETRIE
 48
25.0
100
AcDbLine
 10
-126.504853529129
 20
145.6833211875852
 30
0.0
 11
-141.7902913193314
 21
146.3506978142745
 31
0.0
  0
LINE
  5
80
330
2
100
AcDbEntity
  8
GEB-SYMMETRIE
 48
25.0
100
AcDbLine
 10
-136.7950502114222
 20
146.1326008774479
 30
0.0
 11
-148.4839144039299
 21
146.6429477096226
 31
0.0
  0
LINE
  5
81
330
2
100
AcDbEntity
  8
GEB-VERDECKT
 48
25.0
100
AcDbLine
 10
58.49999999999901
 20
203.3499999999997
 30
0.0
 11
58.49999999999896
 21
208.7593612044259
 31
0.0
  0
LINE
  5
84
330
2
100
AcDbEntity
  8
GEB-VERDECKT
 48
25.0
100
AcDbLine
 10
-58.50000000000122
 20
203.349999999999
 30
0.0
 11
-58.50000000000125
 21
208.7593612044252
 31
0.0
  0
LINE
  5
85
330
2
100
AcDbEntity
  8
GEB-VERDECKT
 48
25.0
100
AcDbLine
 10
58.49999999999894
 20
208.7593612044259
 30
0.0
 11
63.19999999999891
 21
216.8999999999996
 31
0.0
  0
LINE
  5
86
330
2
100
AcDbEntity
  8
GEB-VERDECKT
 48
25.0
100
AcDbLine
 10
-58.50000000000125
 20
208.7593612044252
 30
0.0
 11
-63.20000000000135
 21
216.8999999999989
 31
0.0
  0
LINE
  5
87
330
2
100
AcDbEntity
  8
GEB-VERDECKT
 48
25.0
100
AcDbLine
 10
63.19999999999888
 20
216.8999999999996
 30
0.0
 11
63.19999999999835
 21
265.9999999999993
 31
0.0
  0
LINE
  5
88
330
2
100
AcDbEntity
  8
GEB-VERDECKT
 48
25.0
100
AcDbLine
 10
-63.20000000000135
 20
216.8999999999989
 30
0.0
 11
-63.20000000000189
 21
265.9999999999984
 31
0.0
  0
LINE
  5
89
330
2
100
AcDbEntity
  8
GEB-VERDECKT
 48
25.0
100
AcDbLine
 10
68.84999999999838
 20
265.9999999999993
 30
0.0
 11
68.84999999999824
 21
277.3999999999992
 31
0.0
  0
LINE
  5
8A
330
2
100
AcDbEntity
  8
GEB-VERDECKT
 48
25.0
100
AcDbLine
 10
-68.85000000000189
 20
265.9999999999984
 30
0.0
 11
-68.85000000000201
 21
277.3999999999985
 31
0.0
  0
LINE
  5
8B
330
2
100
AcDbEntity
  8
GEB-VERDECKT
 48
25.0
100
AcDbLine
 10
63.19999999999824
 20
277.3999999999992
 30
0.0
 11
63.19999999999814
 21
286.7999999999995
 31
0.0
  0
LINE
  5
8C
330
2
100
AcDbEntity
  8
GEB-VERDECKT
 48
25.0
100
AcDbLine
 10
-63.20000000000201
 20
277.3999999999985
 30
0.0
 11
-63.20000000000209
 21
286.7999999999988
 31
0.0
  0
LINE
  5
8D
330
2
100
AcDbEntity
  8
GEB-VERDECKT
 48
25.0
100
AcDbLine
 10
58.49999999999896
 20
208.7593612044259
 30
0.0
 11
-58.50000000000125
 21
208.7593612044254
 31
0.0
  0
LINE
  5
8E
330
2
100
AcDbEntity
  8
GEB-VERDECKT
 48
25.0
100
AcDbLine
 10
63.19999999999886
 20
216.8999999999996
 30
0.0
 11
-63.20000000000135
 21
216.8999999999989
 31
0.0
  0
LINE
  5
8F
330
2
100
AcDbEntity
  8
GEB-VERDECKT
 48
25.0
100
AcDbLine
 10
68.84999999999836
 20
265.9999999999993
 30
0.0
 11
-68.85000000000189
 21
265.9999999999986
 31
0.0
  0
LINE
  5
90
330
2
100
AcDbEntity
  8
GEB-VERDECKT
 48
25.0
100
AcDbLine
 10
68.84999999999826
 20
277.3999999999994
 30
0.0
 11
-68.85000000000204
 21
277.3999999999985
 31
0.0
  0
LINE
  5
91
330
2
100
AcDbEntity
  8
GEB-VERDECKT
 48
25.0
100
AcDbLine
 10
-15.00000000000116
 20
206.3499999999992
 30
0.0
 11
14.99999999999889
 21
206.3499999999995
 31
0.0
  0
LINE
  5
92
330
2
100
AcDbEntity
  8
GEB-KONTUR-A
 48
25.0
100
AcDbLine
 10
67.29999999999818
 20
281.4999999999993
 30
0.0
 11
67.29999999999812
 21
286.8999999999992
 31
0.0
  0
LINE
  5
94
330
2
100
AcDbEntity
  8
GEB-KONTUR-A
 48
25.0
100
AcDbLine
 10
-67.30000000000202
 20
281.4999999999984
 30
0.0
 11
-67.30000000000209
 21
286.8999999999985
 31
0.0
  0
LINE
  5
95
330
2
100
AcDbEntity
  8
GEB-KONTUR-A
 48
25.0
100
AcDbLine
 10
72.94999999999841
 20
261.8999999999994
 30
0.0
 11
72.9499999999982
 21
281.4999999999993
 31
0.0
  0
LINE
  5
96
330
2
100
AcDbEntity
  8
GEB-KONTUR-A
 48
25.0
100
AcDbLine
 10
-72.95000000000186
 20
261.8999999999985
 30
0.0
 11
-72.95000000000206
 21
281.4999999999984
 31
0.0
  0
LINE
  5
97
330
2
100
AcDbEntity
  8
GEB-KONTUR-A
 48
25.0
100
AcDbLine
 10
-65.25000000000122
 20
206.349999999999
 30
0.0
 11
-65.2500000000013
 21
212.3499999999988
 31
0.0
  0
ARC
  5
98
330
2
100
AcDbEntity
  8
GEB-KONTUR-A
 48
25.0
100
AcDbCircle
 10
-67.30000000000169
 20
248.6928571428559
 30
0.0
 40
5.757142857142852
100
AcDbArc
 50
90.0
 51
121.2844929144162
  0
ARC
  5
99
330
2
100
AcDbEntity
  8
GEB-KONTUR-A
 48
25.0
100
AcDbCircle
 10
-67.30000000000178
 20
257.6071428571415
 30
0.0
 40
5.757142857142873
100
AcDbArc
 50
238.7155070855838
 51
270.0
  0
ARC
  5
9A
330
2
100
AcDbEntity
  8
GEB-KONTUR-A
 48
25.0
100
AcDbCircle
 10
-70.00833333333511
 20
253.1499999999987
 30
0.0
 40
0.541666666666668
100
AcDbArc
 50
121.2844929144176
 51
238.7155070855851
  0
ARC
  5
9B
330
2
100
AcDbEntity
  8
GEB-KONTUR-A
 48
25.0
100
AcDbCircle
 10
67.29999999999853
 20
248.6928571428566
 30
0.0
 40
5.757142857142869
100
AcDbArc
 50
58.71550708558374
 51
90.0
  0
ARC
  5
9C
330
2
100
AcDbEntity
  8
GEB-KONTUR-A
 48
25.0
100
AcDbCircle
 10
67.29999999999844
 20
257.6071428571422
 30
0.0
 40
5.757142857142856
100
AcDbArc
 50
270.0000000000017
 51
301.2844929144162
  0
ARC
  5
9D
330
2
100
AcDbEntity
  8
GEB-KONTUR-A
 48
25.0
100
AcDbCircle
 10
70.00833333333183
 20
253.1499999999994
 30
0.0
 40
0.5416666666666681
100
AcDbArc
 50
301.2844929144176
 51
58.71550708558236
  0
ARC
  5
9E
330
2
100
AcDbEntity
  8
GEB-KONTUR-A
 48
25.0
100
AcDbCircle
 10
-67.3000000000016
 20
240.1928571428559
 30
0.0
 40
5.757142857142852
100
AcDbArc
 50
90.0
 51
121.2844929144162
  0
ARC
  5
9F
330
2
100
AcDbEntity
  8
GEB-KONTUR-A
 48
25.0
100
AcDbCircle
 10
-67.30000000000169
 20
249.1071428571415
 30
0.0
 40
5.757142857142873
100
AcDbArc
 50
238.7155070855838
 51
270.0
  0
ARC
  5
A0
330
2
100
AcDbEntity
  8
GEB-KONTUR-A
 48
25.0
100
AcDbCircle
 10
-70.008333333335
 20
244.6499999999987
 30
0.0
 40
0.5416666666666681
100
AcDbArc
 50
121.2844929144148
 51
238.7155070855762
  0
ARC
  5
A1
330
2
100
AcDbEntity
  8
GEB-KONTUR-A
 48
25.0
100
AcDbCircle
 10
-67.30000000000152
 20
231.6928571428559
 30
0.0
 40
5.757142857142852
100
AcDbArc
 50
90.0
 51
121.2844929144162
  0
ARC
  5
A2
330
2
100
AcDbEntity
  8
GEB-KONTUR-A
 48
25.0
100
AcDbCircle
 10
-67.3000000000016
 20
240.6071428571415
 30
0.0
 40
5.757142857142873
100
AcDbArc
 50
238.7155070855838
 51
270.0
  0
ARC
  5
A3
330
2
100
AcDbEntity
  8
GEB-KONTUR-A
 48
25.0
100
AcDbCircle
 10
-70.00833333333488
 20
236.1499999999987
 30
0.0
 40
0.5416666666666681
100
AcDbArc
 50
121.2844929144148
 51
238.7155070855823
  0
ARC
  5
A4
330
2
100
AcDbEntity
  8
GEB-KONTUR-A
 48
25.0
100
AcDbCircle
 10
-67.30000000000143
 20
223.1928571428559
 30
0.0
 40
5.757142857142852
100
AcDbArc
 50
90.0
 51
121.2844929144176
  0
ARC
  5
A5
330
2
100
AcDbEntity
  8
GEB-KONTUR-A
 48
25.0
100
AcDbCircle
 10
-67.30000000000152
 20
232.1071428571415
 30
0.0
 40
5.757142857142873
100
AcDbArc
 50
238.7155070855838
 51
270.0
  0
ARC
  5
A6
330
2
100
AcDbEntity
  8
GEB-KONTUR-A
 48
25.0
100
AcDbCircle
 10
-70.00833333333483
 20
227.649999999999
 30
0.0
 40
0.5416666666666681
100
AcDbArc
 50
121.2844929144176
 51
238.7155070855823
  0
ARC
  5
A7
330
2
100
AcDbEntity
  8
GEB-KONTUR-A
 48
25.0
100
AcDbCircle
 10
67.29999999999861
 20
240.1928571428566
 30
0.0
 40
5.757142857142869
100
AcDbArc
 50
58.71550708558374
 51
90.0
  0
ARC
  5
A8
330
2
100
AcDbEntity
  8
GEB-KONTUR-A
 48
25.0
100
AcDbCircle
 10
67.29999999999853
 20
249.1071428571424
 30
0.0
 40
5.757142857142856
100
AcDbArc
 50
270.0000000000017
 51
301.2844929144176
  0
ARC
  5
A9
330
2
100
AcDbEntity
  8
GEB-KONTUR-A
 48
25.0
100
AcDbCircle
 10
70.00833333333194
 20
244.6499999999994
 30
0.0
 40
0.5416666666666681
100
AcDbArc
 50
301.2844929144162
 51
58.71550708558236
  0
ARC
  5
AA
330
2
100
AcDbEntity
  8
GEB-KONTUR-A
 48
25.0
100
AcDbCircle
 10
67.2999999999987
 20
231.6928571428566
 30
0.0
 40
5.757142857142869
100
AcDbArc
 50
58.71550708558374
 51
90.0
  0
ARC
  5
AB
330
2
100
AcDbEntity
  8
GEB-KONTUR-A
 48
25.0
100
AcDbCircle
 10
67.29999999999861
 20
240.6071428571424
 30
0.0
 40
5.757142857142856
100
AcDbArc
 50
270.0000000000017
 51
301.2844929144162
  0
ARC
  5
AC
330
2
100
AcDbEntity
  8
GEB-KONTUR-A
 48
25.0
100
AcDbCircle
 10
70.00833333333203
 20
236.1499999999994
 30
0.0
 40
0.541666666666668
100
AcDbArc
 50
301.2844929144176
 51
58.71550708558236
  0
ARC
  5
AD
330
2
100
AcDbEntity
  8
GEB-KONTUR-A
 48
25.0
100
AcDbCircle
 10
67.29999999999879
 20
223.1928571428566
 30
0.0
 40
5.757142857142869
100
AcDbArc
 50
58.71550708558374
 51
90.0
  0
ARC
  5
AE
330
2
100
AcDbEntity
  8
GEB-KONTUR-A
 48
25.0
100
AcDbCircle
 10
67.2999999999987
 20
232.1071428571424
 30
0.0
 40
5.757142857142856
100
AcDbArc
 50
270.0000000000017
 51
301.2844929144162
  0
ARC
  5
AF
330
2
100
AcDbEntity
  8
GEB-KONTUR-A
 48
25.0
100
AcDbCircle
 10
70.00833333333211
 20
227.6499999999996
 30
0.0
 40
0.5416666666666681
100
AcDbArc
 50
301.2844929144176
 51
58.71550708558236
  0
LINE
  5
B0
330
2
100
AcDbEntity
  8
GEB-KONTUR-A
 48
25.0
100
AcDbLine
 10
65.24999999999898
 20
206.3499999999997
 30
0.0
 11
65.24999999999891
 21
212.3499999999997
 31
0.0
  0
LINE
  5
B1
330
2
100
AcDbEntity
  8
GEB-KONTUR-A
 48
25.0
100
AcDbLine
 10
67.29999999999847
 20
254.4499999999993
 30
0.0
 11
67.29999999999839
 21
261.8999999999994
 31
0.0
  0
LINE
  5
B2
330
2
100
AcDbEntity
  8
GEB-KONTUR-A
 48
25.0
100
AcDbLine
 10
67.29999999999856
 20
245.9499999999994
 30
0.0
 11
67.29999999999851
 21
251.8499999999995
 31
0.0
  0
LINE
  5
B3
330
2
100
AcDbEntity
  8
GEB-KONTUR-A
 48
25.0
100
AcDbLine
 10
67.29999999999866
 20
237.4499999999996
 30
0.0
 11
67.2999999999986
 21
243.3499999999995
 31
0.0
  0
LINE
  5
B4
330
2
100
AcDbEntity
  8
GEB-KONTUR-A
 48
25.0
100
AcDbLine
 10
67.29999999999875
 20
228.9499999999996
 30
0.0
 11
67.29999999999868
 21
234.8499999999995
 31
0.0
  0
LINE
  5
B5
330
2
100
AcDbEntity
  8
GEB-KONTUR-A
 48
25.0
100
AcDbLine
 10
67.29999999999892
 20
212.3499999999997
 30
0.0
 11
67.29999999999876
 21
226.3499999999995
 31
0.0
  0
LINE
  5
B6
330
2
100
AcDbEntity
  8
GEB-KONTUR-A
 48
25.0
100
AcDbLine
 10
-67.30000000000174
 20
254.4499999999987
 30
0.0
 11
-67.3000000000018
 21
261.8999999999987
 31
0.0
  0
LINE
  5
B7
330
2
100
AcDbEntity
  8
GEB-KONTUR-A
 48
25.0
100
AcDbLine
 10
-67.30000000000169
 20
245.9499999999987
 30
0.0
 11
-67.30000000000171
 21
251.8499999999988
 31
0.0
  0
LINE
  5
B8
330
2
100
AcDbEntity
  8
GEB-KONTUR-A
 48
25.0
100
AcDbLine
 10
-67.30000000000157
 20
237.4499999999987
 30
0.0
 11
-67.3000000000016
 21
243.3499999999988
 31
0.0
  0
LINE
  5
B9
330
2
100
AcDbEntity
  8
GEB-KONTUR-A
 48
25.0
100
AcDbLine
 10
-67.30000000000146
 20
228.9499999999989
 30
0.0
 11
-67.30000000000152
 21
234.8499999999988
 31
0.0
  0
LINE
  5
BA
330
2
100
AcDbEntity
  8
GEB-KONTUR-A
 48
25.0
100
AcDbLine
 10
-67.30000000000131
 20
212.3499999999988
 30
0.0
 11
-67.30000000000146
 21
226.3499999999988
 31
0.0
  0
LINE
  5
BB
330
2
100
AcDbEntity
  8
GEB-KONTUR-A
 48
25.0
100
AcDbLine
 10
67.29999999999811
 20
286.8999999999992
 30
0.0
 11
-67.30000000000209
 21
286.8999999999985
 31
0.0
  0
LINE
  5
BC
330
2
100
AcDbEntity
  8
GEB-KONTUR-A
 48
25.0
100
AcDbLine
 10
72.9499999999982
 20
281.4999999999993
 30
0.0
 11
-72.95000000000206
 21
281.4999999999984
 31
0.0
  0
LINE
  5
BD
330
2
100
AcDbEntity
  8
GEB-KONTUR-A
 48
25.0
100
AcDbLine
 10
-15.00000000000116
 20
206.3499999999992
 30
0.0
 11
-65.25000000000122
 21
206.349999999999
 31
0.0
  0
LINE
  5
BE
330
2
100
AcDbEntity
  8
GEB-KONTUR-A
 48
25.0
100
AcDbLine
 10
65.249999999999
 20
206.3499999999997
 30
0.0
 11
14.99999999999886
 21
206.3499999999995
 31
0.0
  0
SPLINE
  5
BF
330
2
100
AcDbEntity
  8
GEB-KONTUR-A
 48
25.0
100
AcDbSpline
210
0.0
220
0.0
230
1.0
 70
     8
 71
     3
 72
    16
 73
    12
 74
     0
 42
0.0000000001
 43
0.0000000001
 40
0.0021551240713043
 40
0.0021551240713043
 40
0.0021551240713043
 40
0.0021551240713043
 40
2.540499600665151
 40
2.540499600665151
 40
5.111814293382431
 40
5.111814293382431
 40
6.160085419930124
 40
6.160085419930124
 40
6.72740657375922
 40
6.72740657375922
 40
6.967499064267198
 40
6.967499064267198
 40
6.967499064267198
 40
6.967499064267198
 10
34.48200854362949
 20
253.6129080118687
 30
0.0
 10
41.74024965880446
 20
254.005375838733
 30
0.0
 10
48.12517033344306
 20
254.1939572675742
 30
0.0
 10
58.53027687015511
 20
254.4131728254522
 30
0.0
 10
62.42136547948598
 20
254.4361873012519
 30
0.0
 10
65.70873228783921
 20
254.4487694532793
 30
0.0
 10
66.39720223356454
 20
254.4495166698814
 30
0.0
 10
67.0423844639566
 20
254.4499885795292
 30
0.0
 10
67.1896193396521
 20
254.4499942347997
 30
0.0
 10
67.28571276352862
 20
254.4500004629531
 30
0.0
 10
67.29999999999849
 20
254.4499999999993
 30
0.0
 10
67.29999999999849
 20
254.4499999999993
 30
0.0
  0
SPLINE
  5
C0
330
2
100
AcDbEntity
  8
GEB-KONTUR-A
 48
25.0
100
AcDbSpline
210
0.0
220
0.0
230
1.0
 70
     8
 71
     3
 72
    28
 73
    24
 74
     0
 42
0.0000000001
 43
0.0000000001
 40
0.0004989371433412
 40
0.0004989371433412
 40
0.0004989371433412
 40
0.0004989371433412
 40
0.3097928673343907
 40
0.3097928673343907
 40
0.4426463348395112
 40
0.4426463348395112
 40
0.4569216764164054
 40
0.4569216764164054
 40
0.4643727108466599
 40
0.4643727108466599
 40
0.4693499348465133
 40
0.4693499348465133
 40
0.4739314946579303
 40
0.4739314946579303
 40
0.4797999009367141
 40
0.4797999009367141
 40
0.4906728439551746
 40
0.4906728439551746
 40
0.5188612208651915
 40
0.5188612208651915
 40
0.6281794509544111
 40
0.6281794509544111
 40
1.001180653482267
 40
1.001180653482267
 40
1.001180653482267
 40
1.001180653482267
 10
34.48200854362925
 20
252.6870919881298
 30
0.0
 10
33.59808755812558
 20
252.7348873896321
 30
0.0
 10
32.85811704793116
 20
252.8020952443573
 30
0.0
 10
32.11515492364856
 20
252.9189257394742
 30
0.0
 10
31.75057671852691
 20
252.9849978705522
 30
0.0
 10
31.59341178505369
 20
253.0848146841013
 30
0.0
 10
31.57865685088592
 20
253.0960911089096
 30
0.0
 10
31.56205859892819
 20
253.1153509268379
 30
0.0
 10
31.55686449568972
 20
253.1229733412683
 30
0.0
 10
31.55140275400083
 20
253.1370899808744
 30
0.0
 10
31.55011201850563
 20
253.143011664665
 30
0.0
 10
31.54991024824693
 20
253.1548631174135
 30
0.0
 10
31.55082467397399
 20
253.1603722950253
 30
0.0
 10
31.55480038542788
 20
253.1725241937234
 30
0.0
 10
31.55831142573219
 20
253.1787999437531
 30
0.0
 10
31.56987982725045
 20
253.1948928792967
 30
0.0
 10
31.57992928293638
 20
253.2040825337929
 30
0.0
 10
31.61514072679054
 20
253.2313191908706
 30
0.0
 10
31.64939216874666
 20
253.2483189569977
 30
0.0
 10
31.81074396014907
 20
253.3158907074901
 30
0.0
 10
32.00699489220287
 20
253.3578971801833
 30
0.0
 10
32.68250109010344
 20
253.4817114473601
 30
0.0
 10
33.49268424342009
 20
253.5594132392364
 30
0.0
 10
34.48200854362949
 20
253.6129080118687
 30
0.0
  0
SPLINE
  5
C1
330
2
100
AcDbEntity
  8
GEB-KONTUR-A
 48
25.0
100
AcDbSpline
210
0.0
220
0.0
230
1.0
 70
     8
 71
     3
 72
    18
 73
    14
 74
     0
 42
0.0000000001
 43
0.0000000001
 40
6.967499064267328
 40
6.967499064267328
 40
6.967499064267328
 40
6.967499064267328
 40
7.202898006892271
 40
7.202898006892271
 40
7.768252488074633
 40
7.768252488074633
 40
8.807218467260678
 40
8.807218467260678
 40
10.10142440917724
 40
10.10142440917724
 40
12.17795843094045
 40
12.17795843094045
 40
13.92453479080067
 40
13.92453479080067
 40
13.92453479080067
 40
13.92453479080067
 10
67.29999999999851
 20
251.8499999999995
 30
0.0
 10
67.29999999999851
 20
251.8499999999995
 30
0.0
 10
67.28626590352546
 20
251.8499995721852
 30
0.0
 10
67.19282730078815
 20
251.8500053938626
 30
0.0
 10
67.04769031454606
 20
251.8500102718867
 30
0.0
 10
66.41226867429733
 20
251.8504674238938
 30
0.0
 10
65.73564777659488
 20
251.851189626831
 30
0.0
 10
63.63438378554829
 20
251.8590957607842
 30
0.0
 10
62.07167475497728
 20
251.8677388508511
 30
0.0
 10
57.02365915098254
 20
251.9219363882476
 30
0.0
 10
52.97746506656634
 20
251.985315750293
 30
0.0
 10
44.06928338385466
 20
252.2452037469277
 30
0.0
 10
39.47755227343402
 20
252.4169728007771
 30
0.0
 10
34.48200854362925
 20
252.6870919881298
 30
0.0
  0
SPLINE
  5
C2
330
2
100
AcDbEntity
  8
GEB-KONTUR-A
 48
25.0
100
AcDbSpline
210
0.0
220
0.0
230
1.0
 70
     8
 71
     3
 72
    16
 73
    12
 74
     0
 42
0.0000000001
 43
0.0000000001
 40
0.0021551240713042
 40
0.0021551240713042
 40
0.0021551240713042
 40
0.0021551240713042
 40
2.540499600665152
 40
2.540499600665152
 40
5.111814293382433
 40
5.111814293382433
 40
6.16008541993009
 40
6.16008541993009
 40
6.727406573759231
 40
6.727406573759231
 40
6.967499064267275
 40
6.967499064267275
 40
6.967499064267275
 40
6.967499064267275
 10
34.48200854362958
 20
245.1129080118688
 30
0.0
 10
41.74024965880451
 20
245.505375838733
 30
0.0
 10
48.12517033344318
 20
245.6939572675742
 30
0.0
 10
58.5302768701552
 20
245.9131728254522
 30
0.0
 10
62.4213654794861
 20
245.9361873012519
 30
0.0
 10
65.70873228783931
 20
245.9487694532793
 30
0.0
 10
66.39720223356464
 20
245.9495166698814
 30
0.0
 10
67.0423844639567
 20
245.9499885795292
 30
0.0
 10
67.1896193396522
 20
245.9499942347997
 30
0.0
 10
67.2857127635287
 20
245.9500004629531
 30
0.0
 10
67.29999999999858
 20
245.9499999999994
 30
0.0
 10
67.29999999999858
 20
245.9499999999994
 30
0.0
  0
SPLINE
  5
C3
330
2
100
AcDbEntity
  8
GEB-KONTUR-A
 48
25.0
100
AcDbSpline
210
0.0
220
0.0
230
1.0
 70
     8
 71
     3
 72
    28
 73
    24
 74
     0
 42
0.0000000001
 43
0.0000000001
 40
0.0004989371433412
 40
0.0004989371433412
 40
0.0004989371433412
 40
0.0004989371433412
 40
0.3097928673343193
 40
0.3097928673343193
 40
0.4426463348384405
 40
0.4426463348384405
 40
0.4569216764302368
 40
0.4569216764302368
 40
0.4643727108738822
 40
0.4643727108738822
 40
0.4693499348828997
 40
0.4693499348828997
 40
0.4739314947028603
 40
0.4739314947028603
 40
0.4797999009929401
 40
0.4797999009929401
 40
0.4906728440331948
 40
0.4906728440331948
 40
0.5188612210042665
 40
0.5188612210042665
 40
0.6281794513668528
 40
0.6281794513668528
 40
1.001180654831218
 40
1.001180654831218
 40
1.001180654831218
 40
1.001180654831218
 10
34.48200854362935
 20
244.1870919881298
 30
0.0
 10
33.59808755812587
 20
244.2348873896321
 30
0.0
 10
32.85811704793136
 20
244.3020952443573
 30
0.0
 10
32.11515492365024
 20
244.4189257394739
 30
0.0
 10
31.75057671852736
 20
244.484997870552
 30
0.0
 10
31.59341178503777
 20
244.5848146841117
 30
0.0
 10
31.57865685087855
 20
244.5960911089183
 30
0.0
 10
31.56205859892768
 20
244.6153509268386
 30
0.0
 10
31.55686449568974
 20
244.6229733412685
 30
0.0
 10
31.55140275400088
 20
244.6370899808747
 30
0.0
 10
31.55011201850573
 20
244.6430116646652
 30
0.0
 10
31.54991024824703
 20
244.6548631174135
 30
0.0
 10
31.5508246739742
 20
244.6603722950256
 30
0.0
 10
31.55480038542808
 20
244.6725241937236
 30
0.0
 10
31.55831142573277
 20
244.6787999437536
 30
0.0
 10
31.56987982725067
 20
244.6948928792967
 30
0.0
 10
31.57992928293632
 20
244.7040825337928
 30
0.0
 10
31.61514072679549
 20
244.7313191908743
 30
0.0
 10
31.6493921687576
 20
244.7483189570025
 30
0.0
 10
31.81074396014964
 20
244.8158907074903
 30
0.0
 10
32.00699489220447
 20
244.8578971801837
 30
0.0
 10
32.68250109010364
 20
244.9817114473601
 30
0.0
 10
33.49268424342036
 20
245.0594132392364
 30
0.0
 10
34.48200854362958
 20
245.1129080118688
 30
0.0
  0
SPLINE
  5
C4
330
2
100
AcDbEntity
  8
GEB-KONTUR-A
 48
25.0
100
AcDbSpline
210
0.0
220
0.0
230
1.0
 70
     8
 71
     3
 72
    18
 73
    14
 74
     0
 42
0.0000000001
 43
0.0000000001
 40
6.96749906426724
 40
6.96749906426724
 40
6.96749906426724
 40
6.96749906426724
 40
7.202898006892172
 40
7.202898006892172
 40
7.768252488074648
 40
7.768252488074648
 40
8.80721846726087
 40
8.80721846726087
 40
10.10142440917765
 40
10.10142440917765
 40
12.17795843094109
 40
12.17795843094109
 40
13.92453479080126
 40
13.92453479080126
 40
13.92453479080126
 40
13.92453479080126
 10
67.29999999999859
 20
243.3499999999995
 30
0.0
 10
67.29999999999859
 20
243.3499999999995
 30
0.0
 10
67.28626590352553
 20
243.3499995721852
 30
0.0
 10
67.19282730078825
 20
243.3500053938626
 30
0.0
 10
67.04769031454614
 20
243.3500102718867
 30
0.0
 10
66.41226867429738
 20
243.3504674238939
 30
0.0
 10
65.73564777659488
 20
243.351189626831
 30
0.0
 10
63.63438378554798
 20
243.3590957607842
 30
0.0
 10
62.07167475497674
 20
243.3677388508513
 30
0.0
 10
57.02365915098143
 20
243.4219363882478
 30
0.0
 10
52.97746506656501
 20
243.485315750293
 30
0.0
 10
44.06928338385344
 20
243.7452037469277
 30
0.0
 10
39.47755227343338
 20
243.9169728007771
 30
0.0
 10
34.48200854362935
 20
244.1870919881298
 30
0.0
  0
SPLINE
  5
C5
330
2
100
AcDbEntity
  8
GEB-KONTUR-A
 48
25.0
100
AcDbSpline
210
0.0
220
0.0
230
1.0
 70
     8
 71
     3
 72
    16
 73
    12
 74
     0
 42
0.0000000001
 43
0.0000000001
 40
0.0021551240713042
 40
0.0021551240713042
 40
0.0021551240713042
 40
0.0021551240713042
 40
2.540499600665151
 40
2.540499600665151
 40
5.111814293382431
 40
5.111814293382431
 40
6.160085419930124
 40
6.160085419930124
 40
6.72740657375922
 40
6.72740657375922
 40
6.967499064267198
 40
6.967499064267198
 40
6.967499064267198
 40
6.967499064267198
 10
34.48200854362966
 20
236.6129080118688
 30
0.0
 10
41.74024965880462
 20
237.0053758387332
 30
0.0
 10
48.12517033344324
 20
237.1939572675742
 30
0.0
 10
58.53027687015529
 20
237.4131728254522
 30
0.0
 10
62.42136547948617
 20
237.4361873012519
 30
0.0
 10
65.70873228783939
 20
237.4487694532795
 30
0.0
 10
66.39720223356473
 20
237.4495166698814
 30
0.0
 10
67.04238446395677
 20
237.4499885795292
 30
0.0
 10
67.18961933965227
 20
237.4499942347997
 30
0.0
 10
67.28571276352879
 20
237.4500004629531
 30
0.0
 10
67.29999999999866
 20
237.4499999999996
 30
0.0
 10
67.29999999999866
 20
237.4499999999996
 30
0.0
  0
SPLINE
  5
C6
330
2
100
AcDbEntity
  8
GEB-KONTUR-A
 48
25.0
100
AcDbSpline
210
0.0
220
0.0
230
1.0
 70
     8
 71
     3
 72
    28
 73
    24
 74
     0
 42
0.0000000001
 43
0.0000000001
 40
0.0004989371433413
 40
0.0004989371433413
 40
0.0004989371433413
 40
0.0004989371433413
 40
0.3097928673343907
 40
0.3097928673343907
 40
0.4426463348387936
 40
0.4426463348387936
 40
0.4569216764309727
 40
0.4569216764309727
 40
0.4643727108749549
 40
0.4643727108749549
 40
0.469349934884083
 40
0.469349934884083
 40
0.4739314947040373
 40
0.4739314947040373
 40
0.479799900993745
 40
0.479799900993745
 40
0.490672844032466
 40
0.490672844032466
 40
0.5188612209950154
 40
0.5188612209950154
 40
0.6281794512883497
 40
0.6281794512883497
 40
1.001180654515072
 40
1.001180654515072
 40
1.001180654515072
 40
1.001180654515072
 10
34.48200854362945
 20
235.6870919881298
 30
0.0
 10
33.59808755812577
 20
235.7348873896321
 30
0.0
 10
32.85811704793133
 20
235.8020952443574
 30
0.0
 10
32.11515492364995
 20
235.9189257394739
 30
0.0
 10
31.75057671852739
 20
235.9849978705522
 30
0.0
 10
31.59341178503749
 20
236.0848146841119
 30
0.0
 10
31.57865685087845
 20
236.0960911089185
 30
0.0
 10
31.56205859892776
 20
236.1153509268386
 30
0.0
 10
31.55686449568982
 20
236.1229733412685
 30
0.0
 10
31.55140275400102
 20
236.1370899808747
 30
0.0
 10
31.55011201850582
 20
236.143011664665
 30
0.0
 10
31.5499102482471
 20
236.1548631174135
 30
0.0
 10
31.55082467397418
 20
236.1603722950254
 30
0.0
 10
31.55480038542805
 20
236.1725241937236
 30
0.0
 10
31.55831142573237
 20
236.1787999437531
 30
0.0
 10
31.56987982725063
 20
236.1948928792967
 30
0.0
 10
31.57992928293655
 20
236.2040825337931
 30
0.0
 10
31.61514072679074
 20
236.2313191908707
 30
0.0
 10
31.64939216874686
 20
236.248318956998
 30
0.0
 10
31.81074396014962
 20
236.3158907074903
 30
0.0
 10
32.00699489220409
 20
236.3578971801837
 30
0.0
 10
32.68250109010339
 20
236.4817114473603
 30
0.0
 10
33.49268424341985
 20
236.5594132392364
 30
0.0
 10
34.48200854362966
 20
236.6129080118688
 30
0.0
  0
SPLINE
  5
C7
330
2
100
AcDbEntity
  8
GEB-KONTUR-A
 48
25.0
100
AcDbSpline
210
0.0
220
0.0
230
1.0
 70
     8
 71
     3
 72
    18
 73
    14
 74
     0
 42
0.0000000001
 43
0.0000000001
 40
6.967499064267324
 40
6.967499064267324
 40
6.967499064267324
 40
6.967499064267324
 40
7.202898006892268
 40
7.202898006892268
 40
7.768252488074629
 40
7.768252488074629
 40
8.807218467260673
 40
8.807218467260673
 40
10.10142440917723
 40
10.10142440917723
 40
12.17795843094045
 40
12.17795843094045
 40
13.92453479080066
 40
13.92453479080066
 40
13.92453479080066
 40
13.92453479080066
 10
67.29999999999868
 20
234.8499999999995
 30
0.0
 10
67.29999999999868
 20
234.8499999999995
 30
0.0
 10
67.28626590352563
 20
234.8499995721852
 30
0.0
 10
67.19282730078834
 20
234.8500053938626
 30
0.0
 10
67.04769031454623
 20
234.8500102718869
 30
0.0
 10
66.41226867429752
 20
234.8504674238939
 30
0.0
 10
65.73564777659507
 20
234.851189626831
 30
0.0
 10
63.63438378554846
 20
234.8590957607842
 30
0.0
 10
62.07167475497745
 20
234.8677388508511
 30
0.0
 10
57.02365915098271
 20
234.9219363882478
 30
0.0
 10
52.9774650665665
 20
234.9853157502928
 30
0.0
 10
44.06928338385483
 20
235.2452037469279
 30
0.0
 10
39.4775522734342
 20
235.4169728007771
 30
0.0
 10
34.48200854362945
 20
235.6870919881298
 30
0.0
  0
SPLINE
  5
C8
330
2
100
AcDbEntity
  8
GEB-KONTUR-A
 48
25.0
100
AcDbSpline
210
0.0
220
0.0
230
1.0
 70
     8
 71
     3
 72
    16
 73
    12
 74
     0
 42
0.0000000001
 43
0.0000000001
 40
0.0021551240713042
 40
0.0021551240713042
 40
0.0021551240713042
 40
0.0021551240713042
 40
2.540499600665151
 40
2.540499600665151
 40
5.111814293382431
 40
5.111814293382431
 40
6.160085419930124
 40
6.160085419930124
 40
6.72740657375922
 40
6.72740657375922
 40
6.967499064267198
 40
6.967499064267198
 40
6.967499064267198
 40
6.967499064267198
 10
34.48200854362975
 20
228.1129080118688
 30
0.0
 10
41.74024965880471
 20
228.5053758387332
 30
0.0
 10
48.12517033344335
 20
228.6939572675744
 30
0.0
 10
58.53027687015539
 20
228.9131728254522
 30
0.0
 10
62.42136547948627
 20
228.9361873012522
 30
0.0
 10
65.70873228783949
 20
228.9487694532795
 30
0.0
 10
66.39720223356483
 20
228.9495166698814
 30
0.0
 10
67.04238446395686
 20
228.9499885795292
 30
0.0
 10
67.18961933965236
 20
228.9499942348
 30
0.0
 10
67.28571276352889
 20
228.9500004629533
 30
0.0
 10
67.29999999999876
 20
228.9499999999996
 30
0.0
 10
67.29999999999876
 20
228.9499999999996
 30
0.0
  0
SPLINE
  5
C9
330
2
100
AcDbEntity
  8
GEB-KONTUR-A
 48
25.0
100
AcDbSpline
210
0.0
220
0.0
230
1.0
 70
     8
 71
     3
 72
    28
 73
    24
 74
     0
 42
0.0000000001
 43
0.0000000001
 40
0.0004989371433413
 40
0.0004989371433413
 40
0.0004989371433413
 40
0.0004989371433413
 40
0.3097928673343907
 40
0.3097928673343907
 40
0.4426463348389978
 40
0.4426463348389978
 40
0.4569216764302936
 40
0.4569216764302936
 40
0.4643727108734872
 40
0.4643727108734872
 40
0.469349934882203
 40
0.469349934882203
 40
0.4739314947018857
 40
0.4739314947018857
 40
0.4797999009916097
 40
0.4797999009916097
 40
0.4906728440312051
 40
0.4906728440312051
 40
0.5188612210005676
 40
0.5188612210005676
 40
0.6281794513565254
 40
0.6281794513565254
 40
1.001180654798189
 40
1.001180654798189
 40
1.001180654798189
 40
1.001180654798189
 10
34.48200854362954
 20
227.1870919881298
 30
0.0
 10
33.59808755812585
 20
227.2348873896324
 30
0.0
 10
32.85811704793144
 20
227.3020952443576
 30
0.0
 10
32.1151549236497
 20
227.4189257394742
 30
0.0
 10
31.75057671852741
 20
227.4849978705522
 30
0.0
 10
31.59341178503854
 20
227.5848146841113
 30
0.0
 10
31.57865685087898
 20
227.596091108918
 30
0.0
 10
31.56205859892786
 20
227.6153509268386
 30
0.0
 10
31.55686449568991
 20
227.6229733412688
 30
0.0
 10
31.55140275400106
 20
227.6370899808749
 30
0.0
 10
31.55011201850591
 20
227.6430116646652
 30
0.0
 10
31.54991024824722
 20
227.6548631174135
 30
0.0
 10
31.55082467397438
 20
227.6603722950256
 30
0.0
 10
31.55480038542826
 20
227.6725241937236
 30
0.0
 10
31.55831142573294
 20
227.6787999437538
 30
0.0
 10
31.56987982725084
 20
227.6948928792967
 30
0.0
 10
31.5799292829365
 20
227.7040825337929
 30
0.0
 10
31.61514072679566
 20
227.7313191908745
 30
0.0
 10
31.64939216875779
 20
227.7483189570026
 30
0.0
 10
31.81074396014981
 20
227.8158907074903
 30
0.0
 10
32.00699489220466
 20
227.8578971801837
 30
0.0
 10
32.6825010901037
 20
227.9817114473603
 30
0.0
 10
33.49268424342034
 20
228.0594132392364
 30
0.0
 10
34.48200854362975
 20
228.1129080118688
 30
0.0
  0
SPLINE
  5
CA
330
2
100
AcDbEntity
  8
GEB-KONTUR-A
 48
25.0
100
AcDbSpline
210
0.0
220
0.0
230
1.0
 70
     8
 71
     3
 72
    18
 73
    14
 74
     0
 42
0.0000000001
 43
0.0000000001
 40
6.967499064267324
 40
6.967499064267324
 40
6.967499064267324
 40
6.967499064267324
 40
7.202898006892268
 40
7.202898006892268
 40
7.768252488074629
 40
7.768252488074629
 40
8.807218467260673
 40
8.807218467260673
 40
10.10142440917723
 40
10.10142440917723
 40
12.17795843094045
 40
12.17795843094045
 40
13.92453479080066
 40
13.92453479080066
 40
13.92453479080066
 40
13.92453479080066
 10
67.29999999999877
 20
226.3499999999995
 30
0.0
 10
67.29999999999877
 20
226.3499999999995
 30
0.0
 10
67.28626590352573
 20
226.3499995721852
 30
0.0
 10
67.19282730078844
 20
226.3500053938626
 30
0.0
 10
67.04769031454633
 20
226.3500102718869
 30
0.0
 10
66.41226867429762
 20
226.3504674238939
 30
0.0
 10
65.73564777659516
 20
226.351189626831
 30
0.0
 10
63.63438378554857
 20
226.3590957607844
 30
0.0
 10
62.07167475497755
 20
226.3677388508511
 30
0.0
 10
57.02365915098281
 20
226.4219363882475
 30
0.0
 10
52.97746506656662
 20
226.485315750293
 30
0.0
 10
44.06928338385492
 20
226.7452037469279
 30
0.0
 10
39.47755227343428
 20
226.9169728007771
 30
0.0
 10
34.48200854362954
 20
227.1870919881298
 30
0.0
  0
LINE
  5
CB
330
2
100
AcDbEntity
  8
GEB-KONTUR-A
 48
25.0
100
AcDbLine
 10
67.29999999999893
 20
212.3499999999997
 30
0.0
 11
14.99999999999878
 21
212.3499999999995
 31
0.0
  0
LINE
  5
CC
330
2
100
AcDbEntity
  8
GEB-KONTUR-A
 48
25.0
100
AcDbLine
 10
-15.00000000000125
 20
212.3499999999992
 30
0.0
 11
-67.30000000000131
 21
212.3499999999988
 31
0.0
  0
SPLINE
  5
CD
330
2
100
AcDbEntity
  8
GEB-KONTUR-A
 48
25.0
100
AcDbSpline
210
0.0
220
0.0
230
1.0
 70
     8
 71
     3
 72
    28
 73
    24
 74
     0
 42
0.0000000001
 43
0.0000000001
 40
0.000498937143298
 40
0.000498937143298
 40
0.000498937143298
 40
0.000498937143298
 40
0.3097928673345961
 40
0.3097928673345961
 40
0.4426463348404388
 40
0.4426463348404388
 40
0.4569216764128086
 40
0.4569216764128086
 40
0.464372710839295
 40
0.464372710839295
 40
0.4693499348367589
 40
0.4693499348367589
 40
0.4739314946461365
 40
0.4739314946461365
 40
0.4797999009226541
 40
0.4797999009226541
 40
0.4906728439368808
 40
0.4906728439368808
 40
0.5188612208423465
 40
0.5188612208423465
 40
0.6281794509616951
 40
0.6281794509616951
 40
1.00118065358644
 40
1.00118065358644
 40
1.00118065358644
 40
1.00118065358644
 10
-34.48200854363248
 20
228.1129080118685
 30
0.0
 10
-33.59808755812804
 20
228.065112610366
 30
0.0
 10
-32.85811704793378
 20
227.9979047556408
 30
0.0
 10
-32.11515492365069
 20
227.881074260524
 30
0.0
 10
-31.75057671852966
 20
227.8150021294459
 30
0.0
 10
-31.59341178506153
 20
227.7151853158998
 30
0.0
 10
-31.57865685089112
 20
227.703908891091
 30
0.0
 10
-31.56205859893106
 20
227.6846490731602
 30
0.0
 10
-31.55686449569271
 20
227.6770266587298
 30
0.0
 10
-31.55140275400376
 20
227.6629100191235
 30
0.0
 10
-31.55011201850866
 20
227.6569883353332
 30
0.0
 10
-31.54991024824994
 20
227.6451368825846
 30
0.0
 10
-31.55082467397719
 20
227.6396277049725
 30
0.0
 10
-31.55480038543098
 20
227.6274758062748
 30
0.0
 10
-31.55831142573524
 20
227.621200056245
 30
0.0
 10
-31.56987982725352
 20
227.6051071207016
 30
0.0
 10
-31.57992928293919
 20
227.5959174662055
 30
0.0
 10
-31.61514072679992
 20
227.5686808091227
 30
0.0
 10
-31.64939216876408
 20
227.5516810429942
 30
0.0
 10
-31.81074396015103
 20
227.4841092925085
 30
0.0
 10
-32.0069948922033
 20
227.4421028198153
 30
0.0
 10
-32.68250109010617
 20
227.3182885526383
 30
0.0
 10
-33.4926842434227
 20
227.240586760762
 30
0.0
 10
-34.48200854363222
 20
227.1870919881296
 30
0.0
  0
SPLINE
  5
CE
330
2
100
AcDbEntity
  8
GEB-KONTUR-A
 48
25.0
100
AcDbSpline
210
0.0
220
0.0
230
1.0
 70
     8
 71
     3
 72
    18
 73
    14
 74
     0
 42
0.0000000001
 43
0.0000000001
 40
6.967499064267225
 40
6.967499064267225
 40
6.967499064267225
 40
6.967499064267225
 40
7.202898006892143
 40
7.202898006892143
 40
7.768252488074455
 40
7.768252488074455
 40
8.807218467260383
 40
8.807218467260383
 40
10.10142440917676
 40
10.10142440917676
 40
12.17795843093957
 40
12.17795843093957
 40
13.92453479079923
 40
13.92453479079923
 40
13.92453479079923
 40
13.92453479079923
 10
-67.30000000000146
 20
228.9499999999989
 30
0.0
 10
-67.30000000000146
 20
228.9499999999989
 30
0.0
 10
-67.28626590352843
 20
228.9500004278131
 30
0.0
 10
-67.19282730079112
 20
228.9499946061355
 30
0.0
 10
-67.04769031454901
 20
228.9499897281114
 30
0.0
 10
-66.4122686743002
 20
228.9495325761043
 30
0.0
 10
-65.73564777659768
 20
228.9488103731674
 30
0.0
 10
-63.63438378555085
 20
228.9409042392142
 30
0.0
 10
-62.07167475497965
 20
228.9322611491471
 30
0.0
 10
-57.02365915098443
 20
228.8780636117506
 30
0.0
 10
-52.97746506656807
 20
228.8146842497054
 30
0.0
 10
-44.06928338385657
 20
228.5547962530704
 30
0.0
 10
-39.47755227343652
 20
228.3830271992213
 30
0.0
 10
-34.48200854363248
 20
228.1129080118685
 30
0.0
  0
SPLINE
  5
CF
330
2
100
AcDbEntity
  8
GEB-KONTUR-A
 48
25.0
100
AcDbSpline
210
0.0
220
0.0
230
1.0
 70
     8
 71
     3
 72
    16
 73
    12
 74
     0
 42
0.0000000001
 43
0.0000000001
 40
0.0021551240712615
 40
0.0021551240712615
 40
0.0021551240712615
 40
0.0021551240712615
 40
2.540499600665186
 40
2.540499600665186
 40
5.11181429338246
 40
5.11181429338246
 40
6.160085419930142
 40
6.160085419930142
 40
6.727406573759338
 40
6.727406573759338
 40
6.967499064267363
 40
6.967499064267363
 40
6.967499064267363
 40
6.967499064267363
 10
-34.48200854363222
 20
227.1870919881296
 30
0.0
 10
-41.74024965880741
 20
226.7946241612654
 30
0.0
 10
-48.12517033344628
 20
226.6060427324239
 30
0.0
 10
-58.53027687015838
 20
226.3868271745462
 30
0.0
 10
-62.42136547948925
 20
226.3638126987462
 30
0.0
 10
-65.70873228784236
 20
226.3512305467188
 30
0.0
 10
-66.39720223356761
 20
226.350483330117
 30
0.0
 10
-67.04238446395962
 20
226.3500114204689
 30
0.0
 10
-67.18961933965508
 20
226.3500057651984
 30
0.0
 10
-67.28571276353156
 20
226.349999537045
 30
0.0
 10
-67.30000000000146
 20
226.3499999999988
 30
0.0
 10
-67.30000000000146
 20
226.3499999999988
 30
0.0
  0
SPLINE
  5
D0
330
2
100
AcDbEntity
  8
GEB-KONTUR-A
 48
25.0
100
AcDbSpline
210
0.0
220
0.0
230
1.0
 70
     8
 71
     3
 72
    28
 73
    24
 74
     0
 42
0.0000000001
 43
0.0000000001
 40
0.0004989371432979
 40
0.0004989371432979
 40
0.0004989371432979
 40
0.0004989371432979
 40
0.3097928673344945
 40
0.3097928673344945
 40
0.4426463348404785
 40
0.4426463348404785
 40
0.4569216764299562
 40
0.4569216764299562
 40
0.4643727108719906
 40
0.4643727108719906
 40
0.4693499348794454
 40
0.4693499348794454
 40
0.4739314946976311
 40
0.4739314946976311
 40
0.4797999009850105
 40
0.4797999009850105
 40
0.4906728440198935
 40
0.4906728440198935
 40
0.5188612209765895
 40
0.5188612209765895
 40
0.6281794512770162
 40
0.6281794512770162
 40
1.001180654521911
 40
1.001180654521911
 40
1.001180654521911
 40
1.001180654521911
 10
-34.48200854363259
 20
236.6129080118683
 30
0.0
 10
-33.59808755812841
 20
236.565112610366
 30
0.0
 10
-32.85811704793409
 20
236.4979047556408
 30
0.0
 10
-32.11515492365047
 20
236.381074260524
 30
0.0
 10
-31.7505767185298
 20
236.3150021294459
 30
0.0
 10
-31.59341178504349
 20
236.2151853158882
 30
0.0
 10
-31.5786568508828
 20
236.2039088910815
 30
0.0
 10
-31.56205859893035
 20
236.1846490731593
 30
0.0
 10
-31.55686449569277
 20
236.1770266587293
 30
0.0
 10
-31.55140275400424
 20
236.1629100191242
 30
0.0
 10
-31.55011201850872
 20
236.1569883353334
 30
0.0
 10
-31.54991024825003
 20
236.1451368825849
 30
0.0
 10
-31.55082467397702
 20
236.139627704973
 30
0.0
 10
-31.55480038543098
 20
236.1274758062748
 30
0.0
 10
-31.5583114257355
 20
236.1212000562448
 30
0.0
 10
-31.56987982725354
 20
236.1051071207014
 30
0.0
 10
-31.57992928293936
 20
236.0959174662053
 30
0.0
 10
-31.61514072679765
 20
236.0686808091245
 30
0.0
 10
-31.64939216875885
 20
236.0516810429965
 30
0.0
 10
-31.81074396015151
 20
235.9841092925083
 30
0.0
 10
-32.0069948922044
 20
235.9421028198151
 30
0.0
 10
-32.68250109010637
 20
235.818288552638
 30
0.0
 10
-33.49268424342287
 20
235.740586760762
 30
0.0
 10
-34.48200854363233
 20
235.6870919881296
 30
0.0
  0
SPLINE
  5
D1
330
2
100
AcDbEntity
  8
GEB-KONTUR-A
 48
25.0
100
AcDbSpline
210
0.0
220
0.0
230
1.0
 70
     8
 71
     3
 72
    18
 73
    14
 74
     0
 42
0.0000000001
 43
0.0000000001
 40
6.967499064267222
 40
6.967499064267222
 40
6.967499064267222
 40
6.967499064267222
 40
7.202898006892141
 40
7.202898006892141
 40
7.768252488074452
 40
7.768252488074452
 40
8.80721846726038
 40
8.80721846726038
 40
10.10142440917676
 40
10.10142440917676
 40
12.17795843093957
 40
12.17795843093957
 40
13.92453479079923
 40
13.92453479079923
 40
13.92453479079923
 40
13.92453479079923
 10
-67.30000000000157
 20
237.4499999999987
 30
0.0
 10
-67.30000000000157
 20
237.4499999999987
 30
0.0
 10
-67.28626590352852
 20
237.4500004278129
 30
0.0
 10
-67.19282730079121
 20
237.4499946061355
 30
0.0
 10
-67.0476903145491
 20
237.4499897281114
 30
0.0
 10
-66.41226867430032
 20
237.4495325761043
 30
0.0
 10
-65.7356477765978
 20
237.4488103731674
 30
0.0
 10
-63.63438378555096
 20
237.440904239214
 30
0.0
 10
-62.07167475497974
 20
237.4322611491471
 30
0.0
 10
-57.02365915098454
 20
237.3780636117506
 30
0.0
 10
-52.97746506656816
 20
237.3146842497054
 30
0.0
 10
-44.06928338385668
 20
237.0547962530704
 30
0.0
 10
-39.4775522734366
 20
236.8830271992213
 30
0.0
 10
-34.48200854363259
 20
236.6129080118683
 30
0.0
  0
SPLINE
  5
D2
330
2
100
AcDbEntity
  8
GEB-KONTUR-A
 48
25.0
100
AcDbSpline
210
0.0
220
0.0
230
1.0
 70
     8
 71
     3
 72
    16
 73
    12
 74
     0
 42
0.0000000001
 43
0.0000000001
 40
0.0021551240712496
 40
0.0021551240712496
 40
0.0021551240712496
 40
0.0021551240712496
 40
2.540499600665167
 40
2.540499600665167
 40
5.111814293382407
 40
5.111814293382407
 40
6.160085419930073
 40
6.160085419930073
 40
6.727406573759211
 40
6.727406573759211
 40
6.967499064267231
 40
6.967499064267231
 40
6.967499064267231
 40
6.967499064267231
 10
-34.48200854363233
 20
235.6870919881296
 30
0.0
 10
-41.74024965880749
 20
235.2946241612651
 30
0.0
 10
-48.12517033344633
 20
235.1060427324239
 30
0.0
 10
-58.53027687015853
 20
234.8868271745462
 30
0.0
 10
-62.42136547948931
 20
234.8638126987462
 30
0.0
 10
-65.70873228784236
 20
234.8512305467188
 30
0.0
 10
-66.3972022335677
 20
234.8504833301169
 30
0.0
 10
-67.04238446395968
 20
234.8500114204692
 30
0.0
 10
-67.18961933965516
 20
234.8500057651986
 30
0.0
 10
-67.28571276353168
 20
234.849999537045
 30
0.0
 10
-67.30000000000157
 20
234.8499999999988
 30
0.0
 10
-67.30000000000157
 20
234.8499999999988
 30
0.0
  0
SPLINE
  5
D3
330
2
100
AcDbEntity
  8
GEB-KONTUR-A
 48
25.0
100
AcDbSpline
210
0.0
220
0.0
230
1.0
 70
     8
 71
     3
 72
    28
 73
    24
 74
     0
 42
0.0000000001
 43
0.0000000001
 40
0.0004989371433128
 40
0.0004989371433128
 40
0.0004989371433128
 40
0.0004989371433128
 40
0.3097928673344023
 40
0.3097928673344023
 40
0.4426463348400195
 40
0.4426463348400195
 40
0.4569216764225796
 40
0.4569216764225796
 40
0.4643727108578075
 40
0.4643727108578075
 40
0.4693499348611132
 40
0.4693499348611132
 40
0.47393149467587
 40
0.47393149467587
 40
0.4797999009592869
 40
0.4797999009592869
 40
0.4906728439862781
 40
0.4906728439862781
 40
0.5188612209245501
 40
0.5188612209245501
 40
0.6281794511683714
 40
0.6281794511683714
 40
1.001180654211213
 40
1.001180654211213
 40
1.001180654211213
 40
1.001180654211213
 10
-34.48200854363264
 20
245.1129080118683
 30
0.0
 10
-33.59808755812887
 20
245.065112610366
 30
0.0
 10
-32.85811704793437
 20
244.9979047556408
 30
0.0
 10
-32.11515492365106
 20
244.8810742605238
 30
0.0
 10
-31.75057671852997
 20
244.8150021294457
 30
0.0
 10
-31.59341178505091
 20
244.715185315893
 30
0.0
 10
-31.57865685088635
 20
244.7039088910853
 30
0.0
 10
-31.56205859893123
 20
244.68464907316
 30
0.0
 10
-31.55686449569288
 20
244.6770266587298
 30
0.0
 10
-31.55140275400396
 20
244.6629100191235
 30
0.0
 10
-31.55011201850883
 20
244.6569883353332
 30
0.0
 10
-31.54991024825012
 20
244.6451368825847
 30
0.0
 10
-31.55082467397736
 20
244.6396277049725
 30
0.0
 10
-31.55480038543115
 20
244.6274758062748
 30
0.0
 10
-31.55831142573544
 20
244.621200056245
 30
0.0
 10
-31.56987982725369
 20
244.6051071207014
 30
0.0
 10
-31.57992928293936
 20
244.5959174662053
 30
0.0
 10
-31.61514072679987
 20
244.5686808091227
 30
0.0
 10
-31.64939216876366
 20
244.5516810429944
 30
0.0
 10
-31.81074396015029
 20
244.4841092925087
 30
0.0
 10
-32.00699489220085
 20
244.4421028198158
 30
0.0
 10
-32.68250109010626
 20
244.318288552638
 30
0.0
 10
-33.49268424342265
 20
244.240586760762
 30
0.0
 10
-34.48200854363239
 20
244.1870919881294
 30
0.0
  0
SPLINE
  5
D4
330
2
100
AcDbEntity
  8
GEB-KONTUR-A
 48
25.0
100
AcDbSpline
210
0.0
220
0.0
230
1.0
 70
     8
 71
     3
 72
    18
 73
    14
 74
     0
 42
0.0000000001
 43
0.0000000001
 40
6.967499064267225
 40
6.967499064267225
 40
6.967499064267225
 40
6.967499064267225
 40
7.202898006892143
 40
7.202898006892143
 40
7.768252488074455
 40
7.768252488074455
 40
8.807218467260383
 40
8.807218467260383
 40
10.10142440917676
 40
10.10142440917676
 40
12.17795843093957
 40
12.17795843093957
 40
13.92453479079923
 40
13.92453479079923
 40
13.92453479079923
 40
13.92453479079923
 10
-67.30000000000169
 20
245.9499999999987
 30
0.0
 10
-67.30000000000169
 20
245.9499999999987
 30
0.0
 10
-67.2862659035286
 20
245.950000427813
 30
0.0
 10
-67.19282730079129
 20
245.9499946061356
 30
0.0
 10
-67.04769031454919
 20
245.9499897281114
 30
0.0
 10
-66.41226867430041
 20
245.9495325761043
 30
0.0
 10
-65.73564777659786
 20
245.9488103731672
 30
0.0
 10
-63.63438378555102
 20
245.940904239214
 30
0.0
 10
-62.07167475497982
 20
245.9322611491471
 30
0.0
 10
-57.02365915098463
 20
245.8780636117506
 30
0.0
 10
-52.97746506656825
 20
245.8146842497051
 30
0.0
 10
-44.06928338385674
 20
245.5547962530702
 30
0.0
 10
-39.47755227343672
 20
245.3830271992213
 30
0.0
 10
-34.48200854363264
 20
245.1129080118683
 30
0.0
  0
SPLINE
  5
D5
330
2
100
AcDbEntity
  8
GEB-KONTUR-A
 48
25.0
100
AcDbSpline
210
0.0
220
0.0
230
1.0
 70
     8
 71
     3
 72
    16
 73
    12
 74
     0
 42
0.0000000001
 43
0.0000000001
 40
0.0021551240712497
 40
0.0021551240712497
 40
0.0021551240712497
 40
0.0021551240712497
 40
2.540499600665167
 40
2.540499600665167
 40
5.111814293382407
 40
5.111814293382407
 40
6.160085419930073
 40
6.160085419930073
 40
6.727406573759211
 40
6.727406573759211
 40
6.967499064267231
 40
6.967499064267231
 40
6.967499064267231
 40
6.967499064267231
 10
-34.48200854363239
 20
244.1870919881294
 30
0.0
 10
-41.74024965880758
 20
243.7946241612651
 30
0.0
 10
-48.12517033344644
 20
243.6060427324239
 30
0.0
 10
-58.53027687015859
 20
243.3868271745459
 30
0.0
 10
-62.42136547948937
 20
243.3638126987462
 30
0.0
 10
-65.70873228784242
 20
243.3512305467189
 30
0.0
 10
-66.39720223356775
 20
243.3504833301169
 30
0.0
 10
-67.04238446395979
 20
243.3500114204692
 30
0.0
 10
-67.18961933965528
 20
243.3500057651984
 30
0.0
 10
-67.28571276353179
 20
243.349999537045
 30
0.0
 10
-67.30000000000163
 20
243.3499999999988
 30
0.0
 10
-67.30000000000163
 20
243.3499999999988
 30
0.0
  0
SPLINE
  5
D6
330
2
100
AcDbEntity
  8
GEB-KONTUR-A
 48
25.0
100
AcDbSpline
210
0.0
220
0.0
230
1.0
 70
     8
 71
     3
 72
    28
 73
    24
 74
     0
 42
0.0000000001
 43
0.0000000001
 40
0.0004989371433128
 40
0.0004989371433128
 40
0.0004989371433128
 40
0.0004989371433128
 40
0.3097928673344475
 40
0.3097928673344475
 40
0.4426463348397804
 40
0.4426463348397804
 40
0.4569216764126402
 40
0.4569216764126402
 40
0.4643727108395581
 40
0.4643727108395581
 40
0.4693499348373181
 40
0.4693499348373181
 40
0.4739314946469707
 40
0.4739314946469707
 40
0.4797999009238487
 40
0.4797999009238487
 40
0.4906728439387179
 40
0.4906728439387179
 40
0.5188612208461335
 40
0.5188612208461335
 40
0.6281794509746256
 40
0.6281794509746256
 40
1.001180653622915
 40
1.001180653622915
 40
1.001180653622915
 40
1.001180653622915
 10
-34.48200854363276
 20
253.6129080118683
 30
0.0
 10
-33.59808755812881
 20
253.565112610366
 30
0.0
 10
-32.85811704793437
 20
253.4979047556408
 30
0.0
 10
-32.1151549236516
 20
253.381074260524
 30
0.0
 10
-31.75057671853003
 20
253.3150021294459
 30
0.0
 10
-31.5934117850612
 20
253.2151853158993
 30
0.0
 10
-31.57865685089112
 20
253.2039088910906
 30
0.0
 10
-31.56205859893134
 20
253.18464907316
 30
0.0
 10
-31.55686449569297
 20
253.1770266587298
 30
0.0
 10
-31.55140275400404
 20
253.1629100191235
 30
0.0
 10
-31.55011201850888
 20
253.1569883353329
 30
0.0
 10
-31.54991024825023
 20
253.1451368825845
 30
0.0
 10
-31.55082467397747
 20
253.1396277049726
 30
0.0
 10
-31.55480038543127
 20
253.1274758062748
 30
0.0
 10
-31.55831142573553
 20
253.121200056245
 30
0.0
 10
-31.56987982725374
 20
253.1051071207014
 30
0.0
 10
-31.57992928293945
 20
253.0959174662053
 30
0.0
 10
-31.61514072680052
 20
253.0686808091223
 30
0.0
 10
-31.64939216876508
 20
253.0516810429938
 30
0.0
 10
-31.81074396015029
 20
252.9841092925087
 30
0.0
 10
-32.00699489220071
 20
252.9421028198155
 30
0.0
 10
-32.68250109010663
 20
252.818288552638
 30
0.0
 10
-33.49268424342302
 20
252.7405867607618
 30
0.0
 10
-34.4820085436325
 20
252.6870919881294
 30
0.0
  0
SPLINE
  5
D7
330
2
100
AcDbEntity
  8
GEB-KONTUR-A
 48
25.0
100
AcDbSpline
210
0.0
220
0.0
230
1.0
 70
     8
 71
     3
 72
    18
 73
    14
 74
     0
 42
0.0000000001
 43
0.0000000001
 40
6.967499064267226
 40
6.967499064267226
 40
6.967499064267226
 40
6.967499064267226
 40
7.202898006892144
 40
7.202898006892144
 40
7.768252488074455
 40
7.768252488074455
 40
8.807218467260385
 40
8.807218467260385
 40
10.10142440917676
 40
10.10142440917676
 40
12.17795843093958
 40
12.17795843093958
 40
13.92453479079923
 40
13.92453479079923
 40
13.92453479079923
 40
13.92453479079923
 10
-67.30000000000174
 20
254.4499999999987
 30
0.0
 10
-67.30000000000174
 20
254.4499999999987
 30
0.0
 10
-67.28626590352871
 20
254.450000427813
 30
0.0
 10
-67.1928273007914
 20
254.4499946061355
 30
0.0
 10
-67.04769031454929
 20
254.4499897281114
 30
0.0
 10
-66.41226867430049
 20
254.4495325761043
 30
0.0
 10
-65.73564777659797
 20
254.4488103731672
 30
0.0
 10
-63.63438378555113
 20
254.440904239214
 30
0.0
 10
-62.07167475497993
 20
254.4322611491468
 30
0.0
 10
-57.02365915098472
 20
254.3780636117506
 30
0.0
 10
-52.97746506656832
 20
254.3146842497051
 30
0.0
 10
-44.06928338385682
 20
254.0547962530702
 30
0.0
 10
-39.47755227343677
 20
253.883027199221
 30
0.0
 10
-34.48200854363276
 20
253.6129080118683
 30
0.0
  0
SPLINE
  5
D8
330
2
100
AcDbEntity
  8
GEB-KONTUR-A
 48
25.0
100
AcDbSpline
210
0.0
220
0.0
230
1.0
 70
     8
 71
     3
 72
    16
 73
    12
 74
     0
 42
0.0000000001
 43
0.0000000001
 40
0.0021551240712615
 40
0.0021551240712615
 40
0.0021551240712615
 40
0.0021551240712615
 40
2.540499600665186
 40
2.540499600665186
 40
5.11181429338246
 40
5.11181429338246
 40
6.160085419930142
 40
6.160085419930142
 40
6.727406573759338
 40
6.727406573759338
 40
6.967499064267363
 40
6.967499064267363
 40
6.967499064267363
 40
6.967499064267363
 10
-34.4820085436325
 20
252.6870919881294
 30
0.0
 10
-41.7402496588077
 20
252.2946241612651
 30
0.0
 10
-48.12517033344656
 20
252.1060427324239
 30
0.0
 10
-58.53027687015867
 20
251.8868271745459
 30
0.0
 10
-62.42136547948954
 20
251.8638126987462
 30
0.0
 10
-65.70873228784265
 20
251.8512305467189
 30
0.0
 10
-66.39720223356789
 20
251.8504833301167
 30
0.0
 10
-67.04238446395987
 20
251.850011420469
 30
0.0
 10
-67.18961933965534
 20
251.8500057651984
 30
0.0
 10
-67.28571276353185
 20
251.8499995370451
 30
0.0
 10
-67.30000000000174
 20
251.8499999999988
 30
0.0
 10
-67.30000000000174
 20
251.8499999999988
 30
0.0
  0
LINE
  5
D9
330
2
100
AcDbEntity
  8
GEB-KONTUR-A
 48
25.0
100
AcDbLine
 10
72.94999999999844
 20
261.8999999999994
 30
0.0
 11
-72.95000000000186
 21
261.8999999999985
 31
0.0
  0
LINE
  5
DA
330
2
100
AcDbEntity
  8
GEB-KONTUR-A
 48
25.0
100
AcDbLine
 10
14.99999999999829
 20
261.899999999999
 30
0.0
 11
14.99999999999912
 21
184.7899999999995
 31
0.0
  0
LINE
  5
DB
330
2
100
AcDbEntity
  8
GEB-KONTUR-A
 48
25.0
100
AcDbLine
 10
14.99999999999912
 20
184.7899999999995
 30
0.0
 11
-15.00000000000094
 21
184.7899999999992
 31
0.0
  0
LINE
  5
DC
330
2
100
AcDbEntity
  8
GEB-KONTUR-A
 48
25.0
100
AcDbLine
 10
-15.00000000000094
 20
184.7899999999992
 30
0.0
 11
-15.00000000000176
 21
261.899999999999
 31
0.0
  0
LINE
  5
DD
330
2
100
AcDbEntity
  8
GEB-VERDECKT
 48
25.0
100
AcDbLine
 10
14.99999999999886
 20
203.3499999999995
 30
0.0
 11
-15.00000000000116
 21
203.3499999999992
 31
0.0
  0
LINE
  5
DE
330
2
100
AcDbEntity
  8
GEB-KONTUR-A
 48
25.0
100
AcDbLine
 10
-62.60000000000125
 20
206.349999999999
 30
0.0
 11
-62.60000000000122
 21
203.349999999999
 31
0.0
  0
LINE
  5
DF
330
2
100
AcDbEntity
  8
GEB-KONTUR-A
 48
25.0
100
AcDbLine
 10
62.599999999999
 20
206.3499999999997
 30
0.0
 11
62.59999999999902
 21
203.3499999999997
 31
0.0
  0
LINE
  5
E0
330
2
100
AcDbEntity
  8
GEB-KONTUR-A
 48
25.0
100
AcDbLine
 10
-15.00000000000116
 20
203.3499999999992
 30
0.0
 11
-62.60000000000122
 21
203.349999999999
 31
0.0
  0
LINE
  5
E1
330
2
100
AcDbEntity
  8
GEB-KONTUR-A
 48
25.0
100
AcDbLine
 10
62.59999999999904
 20
203.3499999999997
 30
0.0
 11
14.99999999999892
 21
203.3499999999995
 31
0.0
  0
LINE
  5
E2
330
2
100
AcDbEntity
  8
GEB-VERDECKT
 48
25.0
100
AcDbLine
 10
63.19999999999851
 20
286.7999999999993
 30
0.0
 11
63.2999999999981
 21
286.8999999999987
 31
0.0
  0
LINE
  5
E3
330
2
100
AcDbEntity
  8
GEB-VERDECKT
 48
25.0
100
AcDbLine
 10
-63.20000000000172
 20
286.7999999999993
 30
0.0
 11
-63.30000000000087
 21
286.8999999999983
 31
0.0
  0
LINE
  5
E4
330
2
100
AcDbEntity
  8
GEB-VERDECKT
 48
25.0
100
AcDbLine
 10
63.19999999999811
 20
286.7999999999995
 30
0.0
 11
-63.20000000000209
 21
286.7999999999991
 31
0.0
  0
LINE
  5
E5
330
2
100
AcDbEntity
  8
GEB-VERDECKT
 48
25.0
100
AcDbLine
 10
-66.60901075580446
 20
194.717370770229
 30
0.0
 11
-70.55839166098897
 21
194.8898044644543
 31
0.0
  0
LINE
  5
E6
330
2
100
AcDbEntity
  8
GEB-VERDECKT
 48
25.0
100
AcDbLine
 10
-71.11053153190718
 20
91.61559430298121
 30
0.0
 11
-75.05991243709172
 21
91.78802799720655
 31
0.0
  0
LINE
  5
E7
330
2
100
AcDbEntity
  8
GEB-VERDECKT
 48
25.0
100
AcDbLine
 10
-70.55839166098897
 20
194.8898044644543
 30
0.0
 11
-79.07664526369927
 21
200.3165305087573
 31
0.0
  0
LINE
  5
E8
330
2
100
AcDbEntity
  8
GEB-VERDECKT
 48
25.0
100
AcDbLine
 10
-75.0599124370917
 20
91.78802799720655
 30
0.0
 11
-84.01872185219188
 21
87.1243670035326
 31
0.0
  0
LINE
  5
E9
330
2
100
AcDbEntity
  8
GEB-VERDECKT
 48
25.0
100
AcDbLine
 10
-79.07664526369925
 20
200.3165305087573
 30
0.0
 11
-126.531435788838
 21
202.388451408611
 31
0.0
  0
LINE
  5
EA
330
2
100
AcDbEntity
  8
GEB-VERDECKT
 48
25.0
100
AcDbLine
 10
-84.01872185219188
 20
87.1243670035326
 30
0.0
 11
-131.4735123773307
 21
89.19628790338618
 31
0.0
  0
LINE
  5
EB
330
2
100
AcDbEntity
  8
GEB-VERDECKT
 48
25.0
100
AcDbLine
 10
-126.3613201781133
 20
206.2847394727798
 30
0.0
 11
-136.6515168604065
 21
206.7340191626429
 31
0.0
  0
LINE
  5
EC
330
2
100
AcDbEntity
  8
GEB-VERDECKT
 48
25.0
100
AcDbLine
 10
-131.6436279880555
 20
85.29999983921687
 30
0.0
 11
-141.9338246703487
 21
85.74927952907978
 31
0.0
  0
LINE
  5
ED
330
2
100
AcDbEntity
  8
GEB-VERDECKT
 48
25.0
100
AcDbLine
 10
-136.8216324711313
 20
202.8377310984738
 30
0.0
 11
-143.5152555557298
 21
203.1299809938214
 31
0.0
  0
LINE
  5
EE
330
2
100
AcDbEntity
  8
GEB-VERDECKT
 48
25.0
100
AcDbLine
 10
-141.7637090596239
 20
89.6455675932491
 30
0.0
 11
-148.4573321442224
 21
89.93781748859692
 31
0.0
  0
LINE
  5
EF
330
2
100
AcDbEntity
  8
GEB-VERDECKT
 48
25.0
100
AcDbLine
 10
-70.55839166098903
 20
194.8898044644543
 30
0.0
 11
-75.05991243709172
 21
91.78802799720655
 31
0.0
  0
LINE
  5
F0
330
2
100
AcDbEntity
  8
GEB-VERDECKT
 48
25.0
100
AcDbLine
 10
-79.07664526369925
 20
200.3165305087571
 30
0.0
 11
-84.01872185219188
 21
87.1243670035326
 31
0.0
  0
LINE
  5
F1
330
2
100
AcDbEntity
  8
GEB-VERDECKT
 48
25.0
100
AcDbLine
 10
-126.3613201781133
 20
206.2847394727798
 30
0.0
 11
-131.6436279880555
 21
85.29999983921698
 31
0.0
  0
LINE
  5
F2
330
2
100
AcDbEntity
  8
GEB-VERDECKT
 48
25.0
100
AcDbLine
 10
-136.6515168604065
 20
206.7340191626429
 30
0.0
 11
-141.9338246703487
 21
85.74927952908002
 31
0.0
  0
LINE
  5
F3
330
2
100
AcDbEntity
  8
GEB-VERDECKT
 48
25.0
100
AcDbLine
 10
-72.4021581506681
 20
130.8092379289279
 30
0.0
 11
-71.31167346653469
 21
155.7854434684743
 31
0.0
  0
LINE
  5
F4
330
2
100
AcDbEntity
  8
GEB-KONTUR-A
 48
25.0
100
AcDbLine
 10
-140.1656333908892
 20
206.4870677297888
 30
0.0
 11
-143.3625876999511
 21
206.626649769358
 31
0.0
  0
LINE
  5
F5
330
2
100
AcDbEntity
  8
GEB-KONTUR-A
 48
25.0
100
AcDbLine
 10
-145.4130456909392
 20
86.30156667349126
 30
0.0
 11
-148.6100000000011
 21
86.44114871306044
 31
0.0
  0
LINE
  5
F6
330
2
100
AcDbEntity
  8
GEB-KONTUR-A
 48
25.0
100
AcDbLine
 10
-122.711983546798
 20
209.6287403925378
 30
0.0
 11
-139.9955177801644
 21
210.3833557939581
 31
0.0
  0
LINE
  5
F7
330
2
100
AcDbEntity
  8
GEB-KONTUR-A
 48
25.0
100
AcDbLine
 10
-128.2996270682976
 20
81.65066320790174
 30
0.0
 11
-145.5831613016639
 21
82.40527860932207
 31
0.0
  0
LINE
  5
F8
330
2
100
AcDbEntity
  8
GEB-KONTUR-A
 48
25.0
100
AcDbLine
 10
-69.30954358646577
 20
201.6417568390816
 30
0.0
 11
-74.80430880516604
 21
201.8816634695911
 31
0.0
  0
ARC
  5
F9
330
2
100
AcDbEntity
  8
GEB-KONTUR-A
 48
25.0
100
AcDbCircle
 10
-110.2798194481401
 20
205.18222491346
 30
0.0
 40
5.314285714285775
100
AcDbArc
 50
146.215507085583
 51
177.5000000000014
  0
ARC
  5
FA
330
2
100
AcDbEntity
  8
GEB-KONTUR-A
 48
25.0
100
AcDbCircle
 10
-118.5005591000138
 20
205.5411501580663
 30
0.0
 40
5.314285714285757
100
AcDbArc
 50
357.5000000000014
 51
28.78449291441653
  0
ARC
  5
FB
330
2
100
AcDbEntity
  8
GEB-KONTUR-A
 48
25.0
100
AcDbCircle
 10
-114.2811408056636
 20
207.8593080897178
 30
0.0
 40
0.5000000000000044
100
AcDbArc
 50
28.78449291442301
 51
146.2155070855902
  0
ARC
  5
FC
330
2
100
AcDbEntity
  8
GEB-KONTUR-A
 48
25.0
100
AcDbCircle
 10
-115.52723174819
 20
84.99672385716257
 30
0.0
 40
5.314285714285762
100
AcDbArc
 50
177.5000000000014
 51
208.7844929144166
  0
ARC
  5
FD
330
2
100
AcDbEntity
  8
GEB-KONTUR-A
 48
25.0
100
AcDbCircle
 10
-123.7479714000637
 20
85.35564910176868
 30
0.0
 40
5.314285714285772
100
AcDbArc
 50
326.215507085583
 51
357.5000000000014
  0
ARC
  5
FE
330
2
100
AcDbEntity
  8
GEB-KONTUR-A
 48
25.0
100
AcDbCircle
 10
-119.7466500425402
 20
82.67856592551096
 30
0.0
 40
0.5000000000000044
100
AcDbArc
 50
208.784492914423
 51
326.2155070855902
  0
ARC
  5
FF
330
2
100
AcDbEntity
  8
GEB-KONTUR-A
 48
25.0
100
AcDbCircle
 10
-102.0376716200896
 20
204.8223649676961
 30
0.0
 40
5.314285714285774
100
AcDbArc
 50
146.215507085583
 51
177.5000000000014
  0
ARC
  5
100
330
2
100
AcDbEntity
  8
GEB-KONTUR-A
 48
25.0
100
AcDbCircle
 10
-110.2584112719633
 20
205.1812902123022
 30
0.0
 40
5.314285714285757
100
AcDbArc
 50
357.5000000000014
 51
28.78449291441653
  0
ARC
  5
101
330
2
100
AcDbEntity
  8
GEB-KONTUR-A
 48
25.0
100
AcDbCircle
 10
-106.0389929776132
 20
207.4994481439537
 30
0.0
 40
0.5000000000000044
100
AcDbArc
 50
28.78449291442301
 51
146.2155070855902
  0
ARC
  5
102
330
2
100
AcDbEntity
  8
GEB-KONTUR-A
 48
25.0
100
AcDbCircle
 10
-93.79552379203927
 20
204.4625050219322
 30
0.0
 40
5.314285714285775
100
AcDbArc
 50
146.215507085583
 51
177.5000000000014
  0
ARC
  5
103
330
2
100
AcDbEntity
  8
GEB-KONTUR-A
 48
25.0
100
AcDbCircle
 10
-102.0162634439129
 20
204.8214302665383
 30
0.0
 40
5.314285714285757
100
AcDbArc
 50
357.4999999999949
 51
28.78449291441574
  0
ARC
  5
104
330
2
100
AcDbEntity
  8
GEB-KONTUR-A
 48
25.0
100
AcDbCircle
 10
-97.79684514956276
 20
207.1395881981898
 30
0.0
 40
0.5000000000000045
100
AcDbArc
 50
28.78449291442223
 51
146.2155070855902
  0
ARC
  5
105
330
2
100
AcDbEntity
  8
GEB-KONTUR-A
 48
25.0
100
AcDbCircle
 10
-85.55337596398883
 20
204.1026450761681
 30
0.0
 40
5.314285714285775
100
AcDbArc
 50
146.2155070855839
 51
177.5000000000014
  0
ARC
  5
106
330
2
100
AcDbEntity
  8
GEB-KONTUR-A
 48
25.0
100
AcDbCircle
 10
-93.77411561586248
 20
204.4615703207742
 30
0.0
 40
5.314285714285757
100
AcDbArc
 50
357.5000000000014
 51
28.78449291441653
  0
ARC
  5
107
330
2
100
AcDbEntity
  8
GEB-KONTUR-A
 48
25.0
100
AcDbCircle
 10
-89.55469732151234
 20
206.7797282524257
 30
0.0
 40
0.5000000000000044
100
AcDbArc
 50
28.78449291442301
 51
146.2155070855902
  0
ARC
  5
108
330
2
100
AcDbEntity
  8
GEB-KONTUR-A
 48
25.0
100
AcDbCircle
 10
-107.2850839201396
 20
84.63686391139844
 30
0.0
 40
5.314285714285762
100
AcDbArc
 50
177.5000000000014
 51
208.7844929144166
  0
ARC
  5
109
330
2
100
AcDbEntity
  8
GEB-KONTUR-A
 48
25.0
100
AcDbCircle
 10
-115.5058235720132
 20
84.99578915600466
 30
0.0
 40
5.314285714285771
100
AcDbArc
 50
326.215507085583
 51
357.5000000000014
  0
ARC
  5
10A
330
2
100
AcDbEntity
  8
GEB-KONTUR-A
 48
25.0
100
AcDbCircle
 10
-111.5045022144898
 20
82.31870597974694
 30
0.0
 40
0.5000000000000044
100
AcDbArc
 50
208.784492914423
 51
326.2155070855902
  0
ARC
  5
10B
330
2
100
AcDbEntity
  8
GEB-KONTUR-A
 48
25.0
100
AcDbCircle
 10
-99.0429360920892
 20
84.27700396563455
 30
0.0
 40
5.314285714285762
100
AcDbArc
 50
177.5000000000014
 51
208.7844929144166
  0
ARC
  5
10C
330
2
100
AcDbEntity
  8
GEB-KONTUR-A
 48
25.0
100
AcDbCircle
 10
-107.2636757439628
 20
84.63592921024076
 30
0.0
 40
5.314285714285771
100
AcDbArc
 50
326.215507085583
 51
357.5000000000014
  0
ARC
  5
10D
330
2
100
AcDbEntity
  8
GEB-KONTUR-A
 48
25.0
100
AcDbCircle
 10
-103.2623543864394
 20
81.95884603398281
 30
0.0
 40
0.5000000000000044
100
AcDbArc
 50
208.784492914423
 51
326.2155070855902
  0
ARC
  5
10E
330
2
100
AcDbEntity
  8
GEB-KONTUR-A
 48
25.0
100
AcDbCircle
 10
-90.80078826403877
 20
83.91714401987043
 30
0.0
 40
5.314285714285762
100
AcDbArc
 50
177.5000000000014
 51
208.7844929144158
  0
ARC
  5
10F
330
2
100
AcDbEntity
  8
GEB-KONTUR-A
 48
25.0
100
AcDbCircle
 10
-99.02152791591241
 20
84.27606926447664
 30
0.0
 40
5.314285714285772
100
AcDbArc
 50
326.2155070855838
 51
357.5000000000014
  0
ARC
  5
110
330
2
100
AcDbEntity
  8
GEB-KONTUR-A
 48
25.0
100
AcDbCircle
 10
-95.02020655838899
 20
81.5989860882189
 30
0.0
 40
0.5000000000000044
100
AcDbArc
 50
208.784492914423
 51
326.2155070855902
  0
LINE
  5
111
330
2
100
AcDbEntity
  8
GEB-KONTUR-A
 48
25.0
100
AcDbLine
 10
-74.40428803073704
 20
84.95292455832077
 30
0.0
 11
-79.89905324943734
 21
85.19283118883004
 31
0.0
  0
LINE
  5
112
330
2
100
AcDbEntity
  8
GEB-KONTUR-A
 48
25.0
100
AcDbLine
 10
-120.8364594400251
 20
85.22852974430406
 30
0.0
 11
-128.1295114575728
 21
85.54695127207095
 31
0.0
  0
LINE
  5
113
330
2
100
AcDbEntity
  8
GEB-KONTUR-A
 48
25.0
100
AcDbLine
 10
-112.5943116119747
 20
84.86866979853994
 30
0.0
 11
-118.4387437082286
 21
85.12384321462718
 31
0.0
  0
LINE
  5
114
330
2
100
AcDbEntity
  8
GEB-KONTUR-A
 48
25.0
100
AcDbLine
 10
-104.3521637839243
 20
84.50880985277605
 30
0.0
 11
-110.1965958801782
 21
84.76398326886329
 31
0.0
  0
LINE
  5
115
330
2
100
AcDbEntity
  8
GEB-KONTUR-A
 48
25.0
100
AcDbLine
 10
-96.11001595587385
 20
84.14894990701203
 30
0.0
 11
-101.9544480521278
 21
84.40412332309916
 31
0.0
  0
LINE
  5
116
330
2
100
AcDbEntity
  8
GEB-KONTUR-A
 48
25.0
100
AcDbLine
 10
-79.97538717732664
 20
83.44449680106185
 30
0.0
 11
-93.71230022407738
 21
84.04426337733525
 31
0.0
  0
LINE
  5
117
330
2
100
AcDbEntity
  8
GEB-KONTUR-A
 48
25.0
100
AcDbLine
 10
-115.5890471399752
 20
205.4140308006017
 30
0.0
 11
-122.8820991575228
 21
205.7324523283685
 31
0.0
  0
LINE
  5
118
330
2
100
AcDbEntity
  8
GEB-KONTUR-A
 48
25.0
100
AcDbLine
 10
-107.3468993119247
 20
205.0541708548376
 30
0.0
 11
-113.1913314081787
 21
205.3093442709248
 31
0.0
  0
LINE
  5
119
330
2
100
AcDbEntity
  8
GEB-KONTUR-A
 48
25.0
100
AcDbLine
 10
-99.10475148387432
 20
204.6943109090737
 30
0.0
 11
-104.9491835801282
 21
204.9494843251607
 31
0.0
  0
LINE
  5
11A
330
2
100
AcDbEntity
  8
GEB-KONTUR-A
 48
25.0
100
AcDbLine
 10
-90.8626036558239
 20
204.3344509633095
 30
0.0
 11
-96.70703575207785
 21
204.5896243793968
 31
0.0
  0
LINE
  5
11B
330
2
100
AcDbEntity
  8
GEB-KONTUR-A
 48
25.0
100
AcDbLine
 10
-74.72797487727672
 20
203.6299978573593
 30
0.0
 11
-88.46488792402741
 21
204.2297644336327
 31
0.0
  0
LINE
  5
11C
330
2
100
AcDbEntity
  8
GEB-KONTUR-A
 48
25.0
100
AcDbLine
 10
-143.3625876999511
 20
206.626649769358
 30
0.0
 11
-148.6100000000011
 21
86.44114871306033
 31
0.0
  0
LINE
  5
11D
330
2
100
AcDbEntity
  8
GEB-KONTUR-A
 48
25.0
100
AcDbLine
 10
-139.9955177801643
 20
210.3833557939581
 30
0.0
 11
-145.5831613016639
 21
82.40527860932207
 31
0.0
  0
LINE
  5
11E
330
2
100
AcDbEntity
  8
GEB-KONTUR-A
 48
25.0
100
AcDbLine
 10
-69.30954358646577
 20
201.6417568390816
 30
0.0
 11
-71.31167346653469
 21
155.7854434684743
 31
0.0
  0
LINE
  5
11F
330
2
100
AcDbEntity
  8
GEB-KONTUR-A
 48
25.0
100
AcDbLine
 10
-124.9605629654811
 20
158.127804569993
 30
0.0
 11
-53.48865319351412
 21
155.0072735978768
 31
0.0
  0
LINE
  5
120
330
2
100
AcDbEntity
  8
GEB-KONTUR-A
 48
25.0
100
AcDbLine
 10
-53.48865319351415
 20
155.0072735978768
 30
0.0
 11
-54.57913787764756
 21
130.0310680583304
 31
0.0
  0
LINE
  5
121
330
2
100
AcDbEntity
  8
GEB-KONTUR-A
 48
25.0
100
AcDbLine
 10
-54.57913787764756
 20
130.0310680583304
 30
0.0
 11
-126.0510476496145
 21
133.1515990304466
 31
0.0
  0
LINE
  5
122
330
2
100
AcDbEntity
  8
GEB-KONTUR-A
 48
25.0
100
AcDbLine
 10
-72.4021581506681
 20
130.8092379289279
 30
0.0
 11
-74.40428803073704
 21
84.95292455832055
 31
0.0
  0
SPLINE
  5
123
330
2
100
AcDbEntity
  8
GEB-KONTUR-A
 48
25.0
100
AcDbSpline
210
0.0
220
0.0
230
1.0
 70
     8
 71
     3
 72
    28
 73
    24
 74
     0
 42
0.0000000001
 43
0.0000000001
 40
0.0003135965776807
 40
0.0003135965776807
 40
0.0003135965776807
 40
0.0003135965776807
 40
0.2718281047685484
 40
0.2718281047685484
 40
0.3877372981810514
 40
0.3877372981810514
 40
0.4023246078222999
 40
0.4023246078222999
 40
0.4094618536811402
 40
0.4094618536811402
 40
0.4141700486462444
 40
0.4141700486462444
 40
0.4184552481618232
 40
0.4184552481618232
 40
0.4238538387117052
 40
0.4238538387117052
 40
0.4337033556307786
 40
0.4337033556307786
 40
0.4587932382629688
 40
0.4587932382629688
 40
0.5538885019029778
 40
0.5538885019029778
 40
0.8728530398577539
 40
0.8728530398577539
 40
0.8728530398577539
 40
0.8728530398577539
 10
-118.8212872233769
 20
113.6689549180313
 30
0.0
 10
-118.7436875592634
 20
114.4347099344313
 30
0.0
 10
-118.6536444742769
 20
115.0747411162281
 30
0.0
 10
-118.5178910844552
 20
115.7143631163271
 30
0.0
 10
-118.446475877724
 20
116.0125906125456
 30
0.0
 10
-118.3512241795149
 20
116.1540398863507
 30
0.0
 10
-118.338829977463
 20
116.1694117966732
 30
0.0
 10
-118.3183936594658
 20
116.1858197945095
 30
0.0
 10
-118.3106731465058
 20
116.1907180088812
 30
0.0
 10
-118.2965944357259
 20
116.1956533426668
 30
0.0
 10
-118.2907529566258
 20
116.1967487017361
 30
0.0
 10
-118.2791917158307
 20
116.1966080688659
 30
0.0
 10
-118.2738770484929
 20
116.1955772278193
 30
0.0
 10
-118.262309276239
 20
116.1914317316589
 30
0.0
 10
-118.2564269341941
 20
116.1879361212366
 30
0.0
 10
-118.2415513136444
 20
116.1766212455379
 30
0.0
 10
-118.2332266833861
 20
116.1670229503233
 30
0.0
 10
-118.2089816359591
 20
116.1338146237697
 30
0.0
 10
-118.1943843490163
 20
116.1021444781517
 30
0.0
 10
-118.1382178329709
 20
115.9556141634291
 30
0.0
 10
-118.1070536117464
 20
115.7816911229491
 30
0.0
 10
-118.019546341327
 20
115.1871969527965
 30
0.0
 10
-117.9792225239665
 20
114.485560126884
 30
0.0
 10
-117.96750120612
 20
113.6316778154759
 30
0.0
  0
SPLINE
  5
124
330
2
100
AcDbEntity
  8
GEB-KONTUR-A
 48
25.0
100
AcDbSpline
210
0.0
220
0.0
230
1.0
 70
     8
 71
     3
 72
    18
 73
    14
 74
     0
 42
0.0000000001
 43
0.0000000001
 40
6.130712173490198
 40
6.130712173490198
 40
6.130712173490198
 40
6.130712173490198
 40
6.358283137277772
 40
6.358283137277772
 40
6.861022006813966
 40
6.861022006813966
 40
7.812083211287662
 40
7.812083211287662
 40
9.010772298241615
 40
9.010772298241615
 40
10.87123066565453
 40
10.87123066565453
 40
12.25035599329303
 40
12.25035599329303
 40
12.25035599329303
 40
12.25035599329303
 10
-120.8364594400251
 20
85.22852974430406
 30
0.0
 10
-120.8364594400251
 20
85.22852974430406
 30
0.0
 10
-120.8358333919482
 20
85.24288175691664
 30
0.0
 10
-120.8318043956935
 20
85.33499205821362
 30
0.0
 10
-120.8259719205382
 20
85.4683849036569
 30
0.0
 10
-120.7998561181242
 20
86.05547364038807
 30
0.0
 10
-120.771475788637
 20
86.68781005994583
 30
0.0
 10
-120.6766291030148
 20
88.66465818118866
 30
0.0
 10
-120.6024843713229
 20
90.14682001777487
 30
0.0
 10
-120.3390629047791
 20
94.84160263286595
 30
0.0
 10
-120.1114487648049
 20
98.5295129915462
 30
0.0
 10
-119.52390042638
 20
106.167097191444
 30
0.0
 10
-119.2157472669865
 20
109.7764154255721
 30
0.0
 10
-118.8212872233769
 20
113.6689549180313
 30
0.0
  0
SPLINE
  5
125
330
2
100
AcDbEntity
  8
GEB-KONTUR-A
 48
25.0
100
AcDbSpline
210
0.0
220
0.0
230
1.0
 70
     8
 71
     3
 72
    16
 73
    12
 74
     0
 42
0.0000000001
 43
0.0000000001
 40
0.0026009342830063
 40
0.0026009342830063
 40
0.0026009342830063
 40
0.0026009342830063
 40
2.288447646738543
 40
2.288447646738543
 40
4.621313960225665
 40
4.621313960225665
 40
5.462775317898823
 40
5.462775317898823
 40
5.94718201008025
 40
5.94718201008025
 40
6.130712173490306
 40
6.130712173490306
 40
6.130712173490306
 40
6.130712173490306
 10
-117.96750120612
 20
113.6316778154759
 30
0.0
 10
-117.8785264630307
 20
107.1499869099915
 30
0.0
 10
-117.951968000653
 20
101.4873246186868
 30
0.0
 10
-118.1524997652503
 20
92.31417544713735
 30
0.0
 10
-118.2821859588007
 20
88.93917090786477
 30
0.0
 10
-118.3877726882637
 20
86.31096345168646
 30
0.0
 10
-118.409331004228
 20
85.80532898385309
 30
0.0
 10
-118.4303846114699
 20
85.31539799220718
 30
0.0
 10
-118.4353728179824
 20
85.20112476360385
 30
0.0
 10
-118.4383359105385
 20
85.13317775093993
 30
0.0
 10
-118.4387437082286
 20
85.12384321462718
 30
0.0
 10
-118.4387437082286
 20
85.12384321462718
 30
0.0
  0
SPLINE
  5
126
330
2
100
AcDbEntity
  8
GEB-KONTUR-A
 48
25.0
100
AcDbSpline
210
0.0
220
0.0
230
1.0
 70
     8
 71
     3
 72
    28
 73
    24
 74
     0
 42
0.0000000001
 43
0.0000000001
 40
0.0003135965776805
 40
0.0003135965776805
 40
0.0003135965776805
 40
0.0003135965776805
 40
0.2718281047685725
 40
0.2718281047685725
 40
0.3877372981818239
 40
0.3877372981818239
 40
0.4023246078212745
 40
0.4023246078212745
 40
0.4094618536788143
 40
0.4094618536788143
 40
0.4141700486430022
 40
0.4141700486430022
 40
0.4184552481577143
 40
0.4184552481577143
 40
0.4238538387064911
 40
0.4238538387064911
 40
0.4337033556235263
 40
0.4337033556235263
 40
0.4587932382526708
 40
0.4587932382526708
 40
0.5538885018951829
 40
0.5538885018951829
 40
0.8728530398507752
 40
0.8728530398507752
 40
0.8728530398507752
 40
0.8728530398507752
 10
-110.5791393953265
 20
113.3090949722674
 30
0.0
 10
-110.501539731213
 20
114.0748499886672
 30
0.0
 10
-110.4114966462264
 20
114.7148811704641
 30
0.0
 10
-110.2757432564045
 20
115.3545031705643
 30
0.0
 10
-110.2043280496734
 20
115.6527306667818
 30
0.0
 10
-110.1090763514659
 20
115.7941799405846
 30
0.0
 10
-110.0966821494137
 20
115.8095518509083
 30
0.0
 10
-110.0762458314152
 20
115.8259598487456
 30
0.0
 10
-110.0685253184553
 20
115.8308580631172
 30
0.0
 10
-110.0544466076756
 20
115.8357933969027
 30
0.0
 10
-110.0486051285755
 20
115.836888755972
 30
0.0
 10
-110.0370438877803
 20
115.8367481231017
 30
0.0
 10
-110.0317292204425
 20
115.8357172820554
 30
0.0
 10
-110.0201614481885
 20
115.8315717858949
 30
0.0
 10
-110.0142791061436
 20
115.8280761754724
 30
0.0
 10
-109.999403485594
 20
115.8167612997739
 30
0.0
 10
-109.9910788553357
 20
115.8071630045593
 30
0.0
 10
-109.9668338079071
 20
115.7739546780034
 30
0.0
 10
-109.952236520964
 20
115.7422845323829
 30
0.0
 10
-109.8960700049209
 20
115.5957542176663
 30
0.0
 10
-109.8649057836964
 20
115.4218311771882
 30
0.0
 10
-109.7773985132765
 20
114.8273370070321
 30
0.0
 10
-109.7370746959161
 20
114.1257001811198
 30
0.0
 10
-109.7253533780696
 20
113.2718178697118
 30
0.0
  0
SPLINE
  5
127
330
2
100
AcDbEntity
  8
GEB-KONTUR-A
 48
25.0
100
AcDbSpline
210
0.0
220
0.0
230
1.0
 70
     8
 71
     3
 72
    18
 73
    14
 74
     0
 42
0.0000000001
 43
0.0000000001
 40
6.130712173490197
 40
6.130712173490197
 40
6.130712173490197
 40
6.130712173490197
 40
6.358283137277771
 40
6.358283137277771
 40
6.861022006813965
 40
6.861022006813965
 40
7.812083211287662
 40
7.812083211287662
 40
9.010772298241615
 40
9.010772298241615
 40
10.87123066565453
 40
10.87123066565453
 40
12.25035599329303
 40
12.25035599329303
 40
12.25035599329303
 40
12.25035599329303
 10
-112.5943116119747
 20
84.86866979853994
 30
0.0
 10
-112.5943116119747
 20
84.86866979853994
 30
0.0
 10
-112.5936855638978
 20
84.88302181115262
 30
0.0
 10
-112.5896565676431
 20
84.9751321124495
 30
0.0
 10
-112.5838240924878
 20
85.10852495789299
 30
0.0
 10
-112.5577082900737
 20
85.69561369462405
 30
0.0
 10
-112.5293279605866
 20
86.32795011418181
 30
0.0
 10
-112.4344812749643
 20
88.30479823542464
 30
0.0
 10
-112.3603365432725
 20
89.78696007201097
 30
0.0
 10
-112.0969150767287
 20
94.48174268710193
 30
0.0
 10
-111.8693009367545
 20
98.1696530457823
 30
0.0
 10
-111.2817525983295
 20
105.8072372456798
 30
0.0
 10
-110.9735994389361
 20
109.4165554798081
 30
0.0
 10
-110.5791393953265
 20
113.3090949722674
 30
0.0
  0
SPLINE
  5
128
330
2
100
AcDbEntity
  8
GEB-KONTUR-A
 48
25.0
100
AcDbSpline
210
0.0
220
0.0
230
1.0
 70
     8
 71
     3
 72
    16
 73
    12
 74
     0
 42
0.0000000001
 43
0.0000000001
 40
0.0026009342830061
 40
0.0026009342830061
 40
0.0026009342830061
 40
0.0026009342830061
 40
2.288447646738543
 40
2.288447646738543
 40
4.621313960225665
 40
4.621313960225665
 40
5.462775317898823
 40
5.462775317898823
 40
5.94718201008025
 40
5.94718201008025
 40
6.130712173490306
 40
6.130712173490306
 40
6.130712173490306
 40
6.130712173490306
 10
-109.7253533780696
 20
113.2718178697118
 30
0.0
 10
-109.6363786349803
 20
106.7901269642276
 30
0.0
 10
-109.7098201726026
 20
101.1274646729226
 30
0.0
 10
-109.9103519371998
 20
91.95431550137323
 30
0.0
 10
-110.0400381307502
 20
88.57931096210064
 30
0.0
 10
-110.1456248602133
 20
85.95110350592245
 30
0.0
 10
-110.1671831761776
 20
85.44546903808907
 30
0.0
 10
-110.1882367834194
 20
84.95553804644316
 30
0.0
 10
-110.193224989932
 20
84.84126481783983
 30
0.0
 10
-110.1961880824881
 20
84.77331780517591
 30
0.0
 10
-110.1965958801782
 20
84.76398326886306
 30
0.0
 10
-110.1965958801782
 20
84.76398326886306
 30
0.0
  0
SPLINE
  5
129
330
2
100
AcDbEntity
  8
GEB-KONTUR-A
 48
25.0
100
AcDbSpline
210
0.0
220
0.0
230
1.0
 70
     8
 71
     3
 72
    28
 73
    24
 74
     0
 42
0.0000000001
 43
0.0000000001
 40
0.0003135965776806
 40
0.0003135965776806
 40
0.0003135965776806
 40
0.0003135965776806
 40
0.2718281047685783
 40
0.2718281047685783
 40
0.3877372981810988
 40
0.3877372981810988
 40
0.4023246078226141
 40
0.4023246078226141
 40
0.4094618536817348
 40
0.4094618536817348
 40
0.4141700486469477
 40
0.4141700486469477
 40
0.4184552481625926
 40
0.4184552481625926
 40
0.4238538387125447
 40
0.4238538387125447
 40
0.433703355631724
 40
0.433703355631724
 40
0.4587932382663304
 40
0.4587932382663304
 40
0.5538885019295441
 40
0.5538885019295441
 40
0.8728530399546361
 40
0.8728530399546361
 40
0.8728530399546361
 40
0.8728530399546361
 10
-102.336991567276
 20
112.9492350265034
 30
0.0
 10
-102.2593919031625
 20
113.7149900429033
 30
0.0
 10
-102.169348818176
 20
114.3550212247
 30
0.0
 10
-102.0335954283543
 20
114.9946432247989
 30
0.0
 10
-101.9621802216231
 20
115.2928707210176
 30
0.0
 10
-101.8669285234139
 20
115.4343199948227
 30
0.0
 10
-101.854534321362
 20
115.4496919051452
 30
0.0
 10
-101.8340980033649
 20
115.4660999029816
 30
0.0
 10
-101.8263774904049
 20
115.4709981173532
 30
0.0
 10
-101.8122987796252
 20
115.4759334511388
 30
0.0
 10
-101.806457300525
 20
115.4770288102081
 30
0.0
 10
-101.7948960597299
 20
115.4768881773378
 30
0.0
 10
-101.7895813923921
 20
115.4758573362913
 30
0.0
 10
-101.7780136201381
 20
115.471711840131
 30
0.0
 10
-101.7721312780932
 20
115.4682162297083
 30
0.0
 10
-101.7572556575435
 20
115.4569013540099
 30
0.0
 10
-101.7489310272853
 20
115.4473030587953
 30
0.0
 10
-101.7246859798567
 20
115.4140947322394
 30
0.0
 10
-101.7100886929136
 20
115.3824245866188
 30
0.0
 10
-101.6539221768705
 20
115.2358942719023
 30
0.0
 10
-101.622757955646
 20
115.0619712314242
 30
0.0
 10
-101.535250685226
 20
114.4674770612681
 30
0.0
 10
-101.4949268678656
 20
113.7658402353555
 30
0.0
 10
-101.4832055500191
 20
112.9119579239478
 30
0.0
  0
SPLINE
  5
12A
330
2
100
AcDbEntity
  8
GEB-KONTUR-A
 48
25.0
100
AcDbSpline
210
0.0
220
0.0
230
1.0
 70
     8
 71
     3
 72
    18
 73
    14
 74
     0
 42
0.0000000001
 43
0.0000000001
 40
6.130712173490197
 40
6.130712173490197
 40
6.130712173490197
 40
6.130712173490197
 40
6.358283137277771
 40
6.358283137277771
 40
6.861022006813965
 40
6.861022006813965
 40
7.812083211287662
 40
7.812083211287662
 40
9.010772298241615
 40
9.010772298241615
 40
10.87123066565453
 40
10.87123066565453
 40
12.25035599329303
 40
12.25035599329303
 40
12.25035599329303
 40
12.25035599329303
 10
-104.3521637839243
 20
84.50880985277592
 30
0.0
 10
-104.3521637839243
 20
84.50880985277592
 30
0.0
 10
-104.3515377358474
 20
84.52316186538849
 30
0.0
 10
-104.3475087395926
 20
84.61527216668537
 30
0.0
 10
-104.3416762644373
 20
84.74866501212886
 30
0.0
 10
-104.3155604620233
 20
85.33575374886016
 30
0.0
 10
-104.2871801325361
 20
85.96809016841792
 30
0.0
 10
-104.1923334469139
 20
87.94493828966073
 30
0.0
 10
-104.1181887152221
 20
89.42710012624685
 30
0.0
 10
-103.8547672486783
 20
94.12188274133781
 30
0.0
 10
-103.627153108704
 20
97.80979310001828
 30
0.0
 10
-103.0396047702791
 20
105.4473772999158
 30
0.0
 10
-102.7314516108857
 20
109.0566955340442
 30
0.0
 10
-102.336991567276
 20
112.9492350265034
 30
0.0
  0
SPLINE
  5
12B
330
2
100
AcDbEntity
  8
GEB-KONTUR-A
 48
25.0
100
AcDbSpline
210
0.0
220
0.0
230
1.0
 70
     8
 71
     3
 72
    16
 73
    12
 74
     0
 42
0.0000000001
 43
0.0000000001
 40
0.0026009342830062
 40
0.0026009342830062
 40
0.0026009342830062
 40
0.0026009342830062
 40
2.288447646738543
 40
2.288447646738543
 40
4.621313960225665
 40
4.621313960225665
 40
5.462775317898823
 40
5.462775317898823
 40
5.94718201008025
 40
5.94718201008025
 40
6.130712173490306
 40
6.130712173490306
 40
6.130712173490306
 40
6.130712173490306
 10
-101.4832055500191
 20
112.9119579239478
 30
0.0
 10
-101.3942308069298
 20
106.4302670184635
 30
0.0
 10
-101.4676723445522
 20
100.7676047271586
 30
0.0
 10
-101.6682041091495
 20
91.59445555560933
 30
0.0
 10
-101.7978903026998
 20
88.21945101633662
 30
0.0
 10
-101.9034770321629
 20
85.59124356015843
 30
0.0
 10
-101.9250353481272
 20
85.08560909232505
 30
0.0
 10
-101.946088955369
 20
84.59567810067914
 30
0.0
 10
-101.9510771618816
 20
84.48140487207581
 30
0.0
 10
-101.9540402544377
 20
84.41345785941178
 30
0.0
 10
-101.9544480521278
 20
84.40412332309916
 30
0.0
 10
-101.9544480521278
 20
84.40412332309916
 30
0.0
  0
SPLINE
  5
12C
330
2
100
AcDbEntity
  8
GEB-KONTUR-A
 48
25.0
100
AcDbSpline
210
0.0
220
0.0
230
1.0
 70
     8
 71
     3
 72
    28
 73
    24
 74
     0
 42
0.0000000001
 43
0.0000000001
 40
0.0003135965776806
 40
0.0003135965776806
 40
0.0003135965776806
 40
0.0003135965776806
 40
0.2718281047685708
 40
0.2718281047685708
 40
0.3877372981814107
 40
0.3877372981814107
 40
0.4023246078280381
 40
0.4023246078280381
 40
0.4094618536916007
 40
0.4094618536916007
 40
0.4141700486598125
 40
0.4141700486598125
 40
0.4184552481781835
 40
0.4184552481781835
 40
0.4238538387315718
 40
0.4238538387315718
 40
0.4337033556570193
 40
0.4337033556570193
 40
0.4587932383075966
 40
0.4587932383075966
 40
0.5538885020313815
 40
0.5538885020313815
 40
0.8728530402595895
 40
0.8728530402595895
 40
0.8728530402595895
 40
0.8728530402595895
 10
-94.09484373922557
 20
112.5893750807392
 30
0.0
 10
-94.01724407511213
 20
113.3551300971392
 30
0.0
 10
-93.92720099012555
 20
113.995161278936
 30
0.0
 10
-93.79144760030376
 20
114.6347832790354
 30
0.0
 10
-93.72003239357267
 20
114.9330107752537
 30
0.0
 10
-93.62478069535981
 20
115.0744600490643
 30
0.0
 10
-93.6123864933087
 20
115.0898319593836
 30
0.0
 10
-93.5919501753141
 20
115.1062399572179
 30
0.0
 10
-93.58422966235437
 20
115.1111381715893
 30
0.0
 10
-93.57015095157478
 20
115.1160735053747
 30
0.0
 10
-93.56430947247464
 20
115.117168864444
 30
0.0
 10
-93.55274823167949
 20
115.1170282315738
 30
0.0
 10
-93.5474335643417
 20
115.1159973905272
 30
0.0
 10
-93.53586579208771
 20
115.1118518943668
 30
0.0
 10
-93.5299834500428
 20
115.1083562839444
 30
0.0
 10
-93.51510782949313
 20
115.0970414082458
 30
0.0
 10
-93.50678319923488
 20
115.0874431130313
 30
0.0
 10
-93.48253815180626
 20
115.0542347864755
 30
0.0
 10
-93.46794086486315
 20
115.0225646408548
 30
0.0
 10
-93.41177434882004
 20
114.8760343261382
 30
0.0
 10
-93.38061012759556
 20
114.7021112856602
 30
0.0
 10
-93.29310285717566
 20
114.1076171155042
 30
0.0
 10
-93.25277903981524
 20
113.4059802895917
 30
0.0
 10
-93.24105772196872
 20
112.5520979781838
 30
0.0
  0
SPLINE
  5
12D
330
2
100
AcDbEntity
  8
GEB-KONTUR-A
 48
25.0
100
AcDbSpline
210
0.0
220
0.0
230
1.0
 70
     8
 71
     3
 72
    18
 73
    14
 74
     0
 42
0.0000000001
 43
0.0000000001
 40
6.130712173490197
 40
6.130712173490197
 40
6.130712173490197
 40
6.130712173490197
 40
6.358283137277771
 40
6.358283137277771
 40
6.861022006813965
 40
6.861022006813965
 40
7.812083211287662
 40
7.812083211287662
 40
9.010772298241615
 40
9.010772298241615
 40
10.87123066565453
 40
10.87123066565453
 40
12.25035599329303
 40
12.25035599329303
 40
12.25035599329303
 40
12.25035599329303
 10
-96.11001595587385
 20
84.14894990701203
 30
0.0
 10
-96.11001595587385
 20
84.14894990701203
 30
0.0
 10
-96.10938990779699
 20
84.16330191962458
 30
0.0
 10
-96.10536091154225
 20
84.25541222092148
 30
0.0
 10
-96.09952843638694
 20
84.38880506636474
 30
0.0
 10
-96.07341263397287
 20
84.97589380309603
 30
0.0
 10
-96.04503230448571
 20
85.60823022265379
 30
0.0
 10
-95.95018561886352
 20
87.58507834389661
 30
0.0
 10
-95.87604088717162
 20
89.06724018048283
 30
0.0
 10
-95.61261942062785
 20
93.76202279557389
 30
0.0
 10
-95.38500528065364
 20
97.44993315425416
 30
0.0
 10
-94.7974569422287
 20
105.0875173541519
 30
0.0
 10
-94.48930378283524
 20
108.6968355882801
 30
0.0
 10
-94.09484373922557
 20
112.5893750807392
 30
0.0
  0
SPLINE
  5
12E
330
2
100
AcDbEntity
  8
GEB-KONTUR-A
 48
25.0
100
AcDbSpline
210
0.0
220
0.0
230
1.0
 70
     8
 71
     3
 72
    16
 73
    12
 74
     0
 42
0.0000000001
 43
0.0000000001
 40
0.0026009342830062
 40
0.0026009342830062
 40
0.0026009342830062
 40
0.0026009342830062
 40
2.288447646738542
 40
2.288447646738542
 40
4.621313960225664
 40
4.621313960225664
 40
5.462775317898822
 40
5.462775317898822
 40
5.947182010080249
 40
5.947182010080249
 40
6.130712173490305
 40
6.130712173490305
 40
6.130712173490305
 40
6.130712173490305
 10
-93.24105772196872
 20
112.5520979781838
 30
0.0
 10
-93.1520829788794
 20
106.0704070726995
 30
0.0
 10
-93.2255245165018
 20
100.4077447813947
 30
0.0
 10
-93.42605628109906
 20
91.23459560984532
 30
0.0
 10
-93.55574247464941
 20
87.8595910705726
 30
0.0
 10
-93.66132920411255
 20
85.23138361439441
 30
0.0
 10
-93.68288752007677
 20
84.72574914656105
 30
0.0
 10
-93.70394112731863
 20
84.23581815491502
 30
0.0
 10
-93.70892933383117
 20
84.12154492631179
 30
0.0
 10
-93.71189242638724
 20
84.05359791364787
 30
0.0
 10
-93.71230022407738
 20
84.04426337733514
 30
0.0
 10
-93.71230022407738
 20
84.04426337733514
 30
0.0
  0
LINE
  5
12F
330
2
100
AcDbEntity
  8
GEB-KONTUR-A
 48
25.0
100
AcDbLine
 10
-77.89692336936841
 20
131.0491445594373
 30
0.0
 11
-79.97538717732666
 21
83.44449680106164
 31
0.0
  0
LINE
  5
130
330
2
100
AcDbEntity
  8
GEB-KONTUR-A
 48
25.0
100
AcDbLine
 10
-74.72797487727675
 20
203.6299978573593
 30
0.0
 11
-76.80643868523501
 21
156.0253500989837
 31
0.0
  0
SPLINE
  5
131
330
2
100
AcDbEntity
  8
GEB-KONTUR-A
 48
25.0
100
AcDbSpline
210
0.0
220
0.0
230
1.0
 70
     8
 71
     3
 72
    16
 73
    12
 74
     0
 42
0.0000000001
 43
0.0000000001
 40
0.0026009342830066
 40
0.0026009342830066
 40
0.0026009342830066
 40
0.0026009342830066
 40
2.288447646738537
 40
2.288447646738537
 40
4.621313960225662
 40
4.621313960225662
 40
5.462775317898775
 40
5.462775317898775
 40
5.947182010080139
 40
5.947182010080139
 40
6.130712173490141
 40
6.130712173490141
 40
6.130712173490141
 40
6.130712173490141
 10
-91.33384615793252
 20
175.8266163624608
 30
0.0
 10
-91.42282090102185
 20
182.3083072679453
 30
0.0
 10
-91.34937936339952
 20
187.9709695592501
 30
0.0
 10
-91.14884759880224
 20
197.1441187307996
 30
0.0
 10
-91.01916140525188
 20
200.5191232700722
 30
0.0
 10
-90.91357467578873
 20
203.1473307262502
 30
0.0
 10
-90.89201635982448
 20
203.6529651940837
 30
0.0
 10
-90.8709627525827
 20
204.1428961857296
 30
0.0
 10
-90.86597454607014
 20
204.257169414333
 30
0.0
 10
-90.86301145351402
 20
204.3251164269971
 30
0.0
 10
-90.8626036558239
 20
204.3344509633095
 30
0.0
 10
-90.8626036558239
 20
204.3344509633095
 30
0.0
  0
SPLINE
  5
132
330
2
100
AcDbEntity
  8
GEB-KONTUR-A
 48
25.0
100
AcDbSpline
210
0.0
220
0.0
230
1.0
 70
     8
 71
     3
 72
    28
 73
    24
 74
     0
 42
0.0000000001
 43
0.0000000001
 40
0.0003135965776946
 40
0.0003135965776946
 40
0.0003135965776946
 40
0.0003135965776946
 40
0.2718281047685646
 40
0.2718281047685646
 40
0.3877372981792213
 40
0.3877372981792213
 40
0.4023246078318028
 40
0.4023246078318028
 40
0.4094618537003959
 40
0.4094618537003959
 40
0.4141700486716501
 40
0.4141700486716501
 40
0.418455248192727
 40
0.418455248192727
 40
0.4238538387497428
 40
0.4238538387497428
 40
0.4337033556822327
 40
0.4337033556822327
 40
0.4587932383512804
 40
0.4587932383512804
 40
0.5538885021516902
 40
0.5538885021516902
 40
0.8728530406378743
 40
0.8728530406378743
 40
0.8728530406378743
 40
0.8728530406378743
 10
-90.48006014067567
 20
175.7893392599054
 30
0.0
 10
-90.55765980478915
 20
175.0235842435056
 30
0.0
 10
-90.6477028897757
 20
174.3835530617086
 30
0.0
 10
-90.78345627959672
 20
173.7439310616129
 30
0.0
 10
-90.85487148632811
 20
173.4457035653918
 30
0.0
 10
-90.95012318454612
 20
173.3042542915735
 30
0.0
 10
-90.96251738659631
 20
173.2888823812582
 30
0.0
 10
-90.98295370458734
 20
173.2724743834267
 30
0.0
 10
-90.99067421754696
 20
173.2675761690555
 30
0.0
 10
-91.00475292832612
 20
173.2626408352702
 30
0.0
 10
-91.01059440742648
 20
173.2615454762006
 30
0.0
 10
-91.02215564822186
 20
173.2616861090708
 30
0.0
 10
-91.02747031555978
 20
173.2627169501174
 30
0.0
 10
-91.03903808781367
 20
173.2668624462778
 30
0.0
 10
-91.04492042985871
 20
173.2703580567005
 30
0.0
 10
-91.05979605040813
 20
173.2816729323988
 30
0.0
 10
-91.06812068066631
 20
173.2912712276131
 30
0.0
 10
-91.09236572809576
 20
173.3244795541702
 30
0.0
 10
-91.10696301503896
 20
173.3561496997919
 30
0.0
 10
-91.16312953108129
 20
173.5026800145067
 30
0.0
 10
-91.19429375230581
 20
173.6766030549852
 30
0.0
 10
-91.28180102272565
 20
174.2710972251407
 30
0.0
 10
-91.32212484008604
 20
174.9727340510533
 30
0.0
 10
-91.33384615793252
 20
175.8266163624608
 30
0.0
  0
SPLINE
  5
133
330
2
100
AcDbEntity
  8
GEB-KONTUR-A
 48
25.0
100
AcDbSpline
210
0.0
220
0.0
230
1.0
 70
     8
 71
     3
 72
    18
 73
    14
 74
     0
 42
0.0000000001
 43
0.0000000001
 40
6.130712173490147
 40
6.130712173490147
 40
6.130712173490147
 40
6.130712173490147
 40
6.358283137277687
 40
6.358283137277687
 40
6.861022006813815
 40
6.861022006813815
 40
7.812083211287264
 40
7.812083211287264
 40
9.010772298240867
 40
9.010772298240867
 40
10.87123066565347
 40
10.87123066565347
 40
12.25035599329209
 40
12.25035599329209
 40
12.25035599329209
 40
12.25035599329209
 10
-88.46488792402741
 20
204.2297644336327
 30
0.0
 10
-88.46488792402741
 20
204.2297644336327
 30
0.0
 10
-88.46551397210431
 20
204.2154124210201
 30
0.0
 10
-88.46954296835903
 20
204.1233021197233
 30
0.0
 10
-88.4753754435143
 20
203.9899092742798
 30
0.0
 10
-88.5014912459284
 20
203.4028205375487
 30
0.0
 10
-88.52987157541551
 20
202.7704841179911
 30
0.0
 10
-88.62471826103774
 20
200.7936359967487
 30
0.0
 10
-88.69886299272961
 20
199.311474160163
 30
0.0
 10
-88.96228445927334
 20
194.6166915450728
 30
0.0
 10
-89.18989859924749
 20
190.9287811863928
 30
0.0
 10
-89.7774469376724
 20
183.2911969864947
 30
0.0
 10
-90.0856000970659
 20
179.6818787523657
 30
0.0
 10
-90.48006014067567
 20
175.7893392599054
 30
0.0
  0
SPLINE
  5
134
330
2
100
AcDbEntity
  8
GEB-KONTUR-A
 48
25.0
100
AcDbSpline
210
0.0
220
0.0
230
1.0
 70
     8
 71
     3
 72
    16
 73
    12
 74
     0
 42
0.0000000001
 43
0.0000000001
 40
0.0026009342830066
 40
0.0026009342830066
 40
0.0026009342830066
 40
0.0026009342830066
 40
2.288447646738537
 40
2.288447646738537
 40
4.621313960225662
 40
4.621313960225662
 40
5.462775317898775
 40
5.462775317898775
 40
5.947182010080139
 40
5.947182010080139
 40
6.130712173490141
 40
6.130712173490141
 40
6.130712173490141
 40
6.130712173490141
 10
-99.57599398598299
 20
176.1864763082249
 30
0.0
 10
-99.66496872907226
 20
182.6681672137092
 30
0.0
 10
-99.59152719144993
 20
188.330829505014
 30
0.0
 10
-99.39099542685269
 20
197.5039786765635
 30
0.0
 10
-99.26130923330228
 20
200.8789832158361
 30
0.0
 10
-99.15572250383917
 20
203.5071906720143
 30
0.0
 10
-99.13416418787491
 20
204.0128251398475
 30
0.0
 10
-99.11311058063311
 20
204.5027561314935
 30
0.0
 10
-99.10812237412054
 20
204.6170293600969
 30
0.0
 10
-99.10515928156446
 20
204.6849763727609
 30
0.0
 10
-99.10475148387433
 20
204.6943109090735
 30
0.0
 10
-99.10475148387433
 20
204.6943109090735
 30
0.0
  0
SPLINE
  5
135
330
2
100
AcDbEntity
  8
GEB-KONTUR-A
 48
25.0
100
AcDbSpline
210
0.0
220
0.0
230
1.0
 70
     8
 71
     3
 72
    28
 73
    24
 74
     0
 42
0.0000000001
 43
0.0000000001
 40
0.0003135965776941
 40
0.0003135965776941
 40
0.0003135965776941
 40
0.0003135965776941
 40
0.2718281047685033
 40
0.2718281047685033
 40
0.3877372981797977
 40
0.3877372981797977
 40
0.4023246078276994
 40
0.4023246078276994
 40
0.4094618536919893
 40
0.4094618536919893
 40
0.4141700486610051
 40
0.4141700486610051
 40
0.4184552481801078
 40
0.4184552481801078
 40
0.4238538387340866
 40
0.4238538387340866
 40
0.4337033556610864
 40
0.4337033556610864
 40
0.4587932383144921
 40
0.4587932383144921
 40
0.5538885020434936
 40
0.5538885020434936
 40
0.8728530403033174
 40
0.8728530403033174
 40
0.8728530403033174
 40
0.8728530403033174
 10
-98.72220796872609
 20
176.1491992056694
 30
0.0
 10
-98.79980763283956
 20
175.3834441892697
 30
0.0
 10
-98.88985071782611
 20
174.7434130074728
 30
0.0
 10
-99.02560410764735
 20
174.1037910073758
 30
0.0
 10
-99.09701931437874
 20
173.8055635111556
 30
0.0
 10
-99.19227101259307
 20
173.6641142373428
 30
0.0
 10
-99.20466521464399
 20
173.6487423270243
 30
0.0
 10
-99.22510153263724
 20
173.6323343291911
 30
0.0
 10
-99.2328220455972
 20
173.6274361148195
 30
0.0
 10
-99.24690075637739
 20
173.6225007810338
 30
0.0
 10
-99.25274223547726
 20
173.6214054219647
 30
0.0
 10
-99.26430347627201
 20
173.621546054835
 30
0.0
 10
-99.26961814360964
 20
173.6225768958813
 30
0.0
 10
-99.28118591586409
 20
173.6267223920418
 30
0.0
 10
-99.28706825790914
 20
173.6302180024645
 30
0.0
 10
-99.30194387845856
 20
173.6415328781629
 30
0.0
 10
-99.31026850871687
 20
173.6511311733774
 30
0.0
 10
-99.33451355614474
 20
173.6843394999323
 30
0.0
 10
-99.34911084308765
 20
173.7160096455517
 30
0.0
 10
-99.40527735913239
 20
173.8625399602726
 30
0.0
 10
-99.43644158035702
 20
174.0364630007543
 30
0.0
 10
-99.52394885077609
 20
174.6309571709047
 30
0.0
 10
-99.56427266813648
 20
175.3325939968175
 30
0.0
 10
-99.57599398598299
 20
176.1864763082249
 30
0.0
  0
SPLINE
  5
136
330
2
100
AcDbEntity
  8
GEB-KONTUR-A
 48
25.0
100
AcDbSpline
210
0.0
220
0.0
230
1.0
 70
     8
 71
     3
 72
    18
 73
    14
 74
     0
 42
0.0000000001
 43
0.0000000001
 40
6.130712173490252
 40
6.130712173490252
 40
6.130712173490252
 40
6.130712173490252
 40
6.358283137277815
 40
6.358283137277815
 40
6.861022006813891
 40
6.861022006813891
 40
7.812083211287187
 40
7.812083211287187
 40
9.010772298240585
 40
9.010772298240585
 40
10.87123066565289
 40
10.87123066565289
 40
12.25035599329128
 40
12.25035599329128
 40
12.25035599329128
 40
12.25035599329128
 10
-96.70703575207785
 20
204.5896243793968
 30
0.0
 10
-96.70703575207785
 20
204.5896243793968
 30
0.0
 10
-96.70766180015476
 20
204.5752723667842
 30
0.0
 10
-96.71169079640947
 20
204.4831620654873
 30
0.0
 10
-96.71752327156477
 20
204.349769220044
 30
0.0
 10
-96.74363907397879
 20
203.7626804833128
 30
0.0
 10
-96.77201940346595
 20
203.1303440637553
 30
0.0
 10
-96.86686608908814
 20
201.1534959425128
 30
0.0
 10
-96.94101082078001
 20
199.6713341059269
 30
0.0
 10
-97.20443228732378
 20
194.9765514908367
 30
0.0
 10
-97.43204642729793
 20
191.2886411321567
 30
0.0
 10
-98.01959476572282
 20
183.6510569322588
 30
0.0
 10
-98.32774792511637
 20
180.0417386981296
 30
0.0
 10
-98.72220796872609
 20
176.1491992056694
 30
0.0
  0
SPLINE
  5
137
330
2
100
AcDbEntity
  8
GEB-KONTUR-A
 48
25.0
100
AcDbSpline
210
0.0
220
0.0
230
1.0
 70
     8
 71
     3
 72
    16
 73
    12
 74
     0
 42
0.0000000001
 43
0.0000000001
 40
0.0026009342830067
 40
0.0026009342830067
 40
0.0026009342830067
 40
0.0026009342830067
 40
2.288447646738537
 40
2.288447646738537
 40
4.621313960225662
 40
4.621313960225662
 40
5.462775317898775
 40
5.462775317898775
 40
5.947182010080139
 40
5.947182010080139
 40
6.130712173490141
 40
6.130712173490141
 40
6.130712173490141
 40
6.130712173490141
 10
-107.8181418140334
 20
176.546336253989
 30
0.0
 10
-107.9071165571227
 20
183.0280271594731
 30
0.0
 10
-107.8336750195003
 20
188.6906894507781
 30
0.0
 10
-107.6331432549031
 20
197.8638386223276
 30
0.0
 10
-107.5034570613527
 20
201.2388431616003
 30
0.0
 10
-107.3978703318896
 20
203.8670506177784
 30
0.0
 10
-107.3763120159253
 20
204.3726850856117
 30
0.0
 10
-107.3552584086835
 20
204.8626160772576
 30
0.0
 10
-107.3502702021709
 20
204.976889305861
 30
0.0
 10
-107.3473071096149
 20
205.0448363185249
 30
0.0
 10
-107.3468993119248
 20
205.0541708548376
 30
0.0
 10
-107.3468993119248
 20
205.0541708548376
 30
0.0
  0
SPLINE
  5
138
330
2
100
AcDbEntity
  8
GEB-KONTUR-A
 48
25.0
100
AcDbSpline
210
0.0
220
0.0
230
1.0
 70
     8
 71
     3
 72
    28
 73
    24
 74
     0
 42
0.0000000001
 43
0.0000000001
 40
0.0003135965776947
 40
0.0003135965776947
 40
0.0003135965776947
 40
0.0003135965776947
 40
0.2718281047685369
 40
0.2718281047685369
 40
0.387737298179117
 40
0.387737298179117
 40
0.4023246078316326
 40
0.4023246078316326
 40
0.4094618537001659
 40
0.4094618537001659
 40
0.4141700486713896
 40
0.4141700486713896
 40
0.4184552481924415
 40
0.4184552481924415
 40
0.4238538387494375
 40
0.4238538387494375
 40
0.4337033556819361
 40
0.4337033556819361
 40
0.4587932383515679
 40
0.4587932383515679
 40
0.5538885021561292
 40
0.5538885021561292
 40
0.8728530406591755
 40
0.8728530406591755
 40
0.8728530406591755
 40
0.8728530406591755
 10
-106.9643557967765
 20
176.5090591514333
 30
0.0
 10
-107.04195546089
 20
175.7433041350338
 30
0.0
 10
-107.1319985458765
 20
175.1032729532368
 30
0.0
 10
-107.2677519356975
 20
174.463650953141
 30
0.0
 10
-107.3391671424289
 20
174.1654234569198
 30
0.0
 10
-107.4344188406469
 20
174.0239741831017
 30
0.0
 10
-107.4468130426971
 20
174.0086022727861
 30
0.0
 10
-107.4672493606882
 20
173.9921942749547
 30
0.0
 10
-107.4749698736478
 20
173.9872960605835
 30
0.0
 10
-107.489048584427
 20
173.9823607267982
 30
0.0
 10
-107.4948900635273
 20
173.9812653677286
 30
0.0
 10
-107.5064513043227
 20
173.9814060005989
 30
0.0
 10
-107.5117659716606
 20
173.9824368416455
 30
0.0
 10
-107.5233337439145
 20
173.9865823378059
 30
0.0
 10
-107.5292160859596
 20
173.9900779482285
 30
0.0
 10
-107.544091706509
 20
174.0013928239268
 30
0.0
 10
-107.5524163367672
 20
174.0109911191414
 30
0.0
 10
-107.5766613841967
 20
174.0441994456985
 30
0.0
 10
-107.59125867114
 20
174.0758695913206
 30
0.0
 10
-107.6474251871823
 20
174.2223999060352
 30
0.0
 10
-107.6785894084068
 20
174.3963229465143
 30
0.0
 10
-107.7660966788265
 20
174.9908171166686
 30
0.0
 10
-107.8064204961869
 20
175.6924539425812
 30
0.0
 10
-107.8181418140334
 20
176.546336253989
 30
0.0
  0
SPLINE
  5
139
330
2
100
AcDbEntity
  8
GEB-KONTUR-A
 48
25.0
100
AcDbSpline
210
0.0
220
0.0
230
1.0
 70
     8
 71
     3
 72
    18
 73
    14
 74
     0
 42
0.0000000001
 43
0.0000000001
 40
6.130712173490252
 40
6.130712173490252
 40
6.130712173490252
 40
6.130712173490252
 40
6.358283137277815
 40
6.358283137277815
 40
6.861022006813891
 40
6.861022006813891
 40
7.812083211287187
 40
7.812083211287187
 40
9.010772298240585
 40
9.010772298240585
 40
10.87123066565289
 40
10.87123066565289
 40
12.25035599329128
 40
12.25035599329128
 40
12.25035599329128
 40
12.25035599329128
 10
-104.9491835801283
 20
204.9494843251607
 30
0.0
 10
-104.9491835801283
 20
204.9494843251607
 30
0.0
 10
-104.9498096282051
 20
204.9351323125482
 30
0.0
 10
-104.9538386244599
 20
204.8430220112514
 30
0.0
 10
-104.9596710996151
 20
204.7096291658081
 30
0.0
 10
-104.9857869020292
 20
204.122540429077
 30
0.0
 10
-105.0141672315163
 20
203.4902040095192
 30
0.0
 10
-105.1090139171386
 20
201.5133558882767
 30
0.0
 10
-105.1831586488304
 20
200.031194051691
 30
0.0
 10
-105.4465801153742
 20
195.3364114366006
 30
0.0
 10
-105.6741942553483
 20
191.6485010779206
 30
0.0
 10
-106.2617425937732
 20
184.0109168780227
 30
0.0
 10
-106.5698957531668
 20
180.4015986438937
 30
0.0
 10
-106.9643557967765
 20
176.5090591514333
 30
0.0
  0
SPLINE
  5
13A
330
2
100
AcDbEntity
  8
GEB-KONTUR-A
 48
25.0
100
AcDbSpline
210
0.0
220
0.0
230
1.0
 70
     8
 71
     3
 72
    16
 73
    12
 74
     0
 42
0.0000000001
 43
0.0000000001
 40
0.0026009342830065
 40
0.0026009342830065
 40
0.0026009342830065
 40
0.0026009342830065
 40
2.288447646738537
 40
2.288447646738537
 40
4.621313960225658
 40
4.621313960225658
 40
5.46277531789877
 40
5.46277531789877
 40
5.947182010080132
 40
5.947182010080132
 40
6.130712173490135
 40
6.130712173490135
 40
6.130712173490135
 40
6.130712173490135
 10
-116.0602896420838
 20
176.9061961997529
 30
0.0
 10
-116.1492643851731
 20
183.3878871052372
 30
0.0
 10
-116.0758228475508
 20
189.0505493965422
 30
0.0
 10
-115.8752910829535
 20
198.2236985680915
 30
0.0
 10
-115.7456048894031
 20
201.5987031073641
 30
0.0
 10
-115.64001815994
 20
204.2269105635423
 30
0.0
 10
-115.6184598439758
 20
204.7325450313756
 30
0.0
 10
-115.597406236734
 20
205.2224760230215
 30
0.0
 10
-115.5924180302214
 20
205.336749251625
 30
0.0
 10
-115.5894549376653
 20
205.404696264289
 30
0.0
 10
-115.5890471399752
 20
205.4140308006017
 30
0.0
 10
-115.5890471399752
 20
205.4140308006017
 30
0.0
  0
SPLINE
  5
13B
330
2
100
AcDbEntity
  8
GEB-KONTUR-A
 48
25.0
100
AcDbSpline
210
0.0
220
0.0
230
1.0
 70
     8
 71
     3
 72
    28
 73
    24
 74
     0
 42
0.0000000001
 43
0.0000000001
 40
0.0003135965776942
 40
0.0003135965776942
 40
0.0003135965776942
 40
0.0003135965776942
 40
0.2718281047686017
 40
0.2718281047686017
 40
0.3877372981810163
 40
0.3877372981810163
 40
0.4023246078311834
 40
0.4023246078311834
 40
0.4094618536978117
 40
0.4094618536978117
 40
0.4141700486678527
 40
0.4141700486678527
 40
0.4184552481878479
 40
0.4184552481878479
 40
0.423853838743504
 40
0.423853838743504
 40
0.4337033556735145
 40
0.4337033556735145
 40
0.4587932383359704
 40
0.4587932383359704
 40
0.5538885021105539
 40
0.5538885021105539
 40
0.8728530405182555
 40
0.8728530405182555
 40
0.8728530405182555
 40
0.8728530405182555
 10
-115.2065036248269
 20
176.8689190971975
 30
0.0
 10
-115.2841032889404
 20
176.1031640807976
 30
0.0
 10
-115.374146373927
 20
175.4631328990007
 30
0.0
 10
-115.5098997637485
 20
174.8235108989022
 30
0.0
 10
-115.5813149704798
 20
174.5252834026831
 30
0.0
 10
-115.6765666686955
 20
174.3838341288685
 30
0.0
 10
-115.688960870746
 20
174.3684622185513
 30
0.0
 10
-115.7093971887387
 20
174.3520542207187
 30
0.0
 10
-115.7171177016982
 20
174.3471560063474
 30
0.0
 10
-115.7311964124775
 20
174.3422206725621
 30
0.0
 10
-115.7370378915778
 20
174.3411253134927
 30
0.0
 10
-115.7485991323731
 20
174.3412659463629
 30
0.0
 10
-115.753913799711
 20
174.3422967874095
 30
0.0
 10
-115.7654815719649
 20
174.3464422835699
 30
0.0
 10
-115.77136391401
 20
174.3499378939925
 30
0.0
 10
-115.7862395345593
 20
174.3612527696909
 30
0.0
 10
-115.7945641648176
 20
174.3708510649053
 30
0.0
 10
-115.8188092122468
 20
174.4040593914621
 30
0.0
 10
-115.83340649919
 20
174.4357295370833
 30
0.0
 10
-115.889573015233
 20
174.5822598517999
 30
0.0
 10
-115.9207372364576
 20
174.7561828922805
 30
0.0
 10
-116.008244506877
 20
175.3506770624328
 30
0.0
 10
-116.0485683242373
 20
176.0523138883454
 30
0.0
 10
-116.0602896420838
 20
176.9061961997529
 30
0.0
  0
SPLINE
  5
13C
330
2
100
AcDbEntity
  8
GEB-KONTUR-A
 48
25.0
100
AcDbSpline
210
0.0
220
0.0
230
1.0
 70
     8
 71
     3
 72
    18
 73
    14
 74
     0
 42
0.0000000001
 43
0.0000000001
 40
6.130712173490252
 40
6.130712173490252
 40
6.130712173490252
 40
6.130712173490252
 40
6.358283137277815
 40
6.358283137277815
 40
6.861022006813891
 40
6.861022006813891
 40
7.812083211287187
 40
7.812083211287187
 40
9.010772298240585
 40
9.010772298240585
 40
10.8712306656529
 40
10.8712306656529
 40
12.25035599329129
 40
12.25035599329129
 40
12.25035599329129
 40
12.25035599329129
 10
-113.1913314081787
 20
205.3093442709248
 30
0.0
 10
-113.1913314081787
 20
205.3093442709248
 30
0.0
 10
-113.1919574562556
 20
205.2949922583123
 30
0.0
 10
-113.1959864525103
 20
205.2028819570153
 30
0.0
 10
-113.2018189276656
 20
205.069489111572
 30
0.0
 10
-113.2279347300796
 20
204.4824003748408
 30
0.0
 10
-113.2563150595668
 20
203.8500639552833
 30
0.0
 10
-113.351161745189
 20
201.8732158340408
 30
0.0
 10
-113.4253064768808
 20
200.3910539974549
 30
0.0
 10
-113.6887279434246
 20
195.6962713823648
 30
0.0
 10
-113.9163420833988
 20
192.0083610236847
 30
0.0
 10
-114.5038904218236
 20
184.3707768237868
 30
0.0
 10
-114.8120435812172
 20
180.7614585896576
 30
0.0
 10
-115.2065036248269
 20
176.8689190971975
 30
0.0
  0
LINE
  5
13D
330
2
100
AcDbEntity
  8
GEB-KONTUR-A
 48
25.0
100
AcDbLine
 10
-122.711983546798
 20
209.6287403925378
 30
0.0
 11
-128.2996270682976
 21
81.65066320790174
 31
0.0
  0
LINE
  5
13E
330
2
100
AcDbEntity
  8
GEB-VERDECKT
 48
25.0
100
AcDbLine
 10
-68.31452880178912
 20
155.6545853063784
 30
0.0
 11
-69.40501348592253
 21
130.678379766832
 31
0.0
  0
LINE
  5
13F
330
2
100
AcDbEntity
  8
GEB-KONTUR-A
 48
25.0
100
AcDbLine
 10
-74.26034405243143
 20
88.24978368954077
 30
0.0
 11
-71.26319938768583
 21
88.11892552744485
 31
0.0
  0
LINE
  5
140
330
2
100
AcDbEntity
  8
GEB-KONTUR-A
 48
25.0
100
AcDbLine
 10
-69.45348756477139
 20
198.3448977078617
 30
0.0
 11
-66.45634290002575
 21
198.2140395457657
 31
0.0
  0
LINE
  5
141
330
2
100
AcDbEntity
  8
GEB-KONTUR-A
 48
25.0
100
AcDbLine
 10
-66.45634290002579
 20
198.2140395457654
 30
0.0
 11
-68.31452880178912
 21
155.6545853063784
 31
0.0
  0
LINE
  5
142
330
2
100
AcDbEntity
  8
GEB-KONTUR-A
 48
25.0
100
AcDbLine
 10
-69.40501348592253
 20
130.6783797668321
 30
0.0
 11
-71.26319938768586
 21
88.11892552744485
 31
0.0
  0
LINE
  5
143
330
2
100
AcDbEntity
  8
GEB-VERDECKT
 48
25.0
100
AcDbLine
 10
-62.60000000000002
 20
207.0599999999999
 30
0.0
 11
62.60000000000002
 21
207.0599999999999
 31
0.0
  0
LINE
  5
144
330
2
100
AcDbEntity
  8
GEB-VERDECKT
 48
25.0
100
AcDbLine
 10
62.60000000000001
 20
206.3499999999999
 30
0.0
 11
62.60000000000001
 21
207.0599999999999
 31
0.0
  0
LINE
  5
145
330
2
100
AcDbEntity
  8
GEB-VERDECKT
 48
25.0
100
AcDbLine
 10
-62.60000000000002
 20
206.3499999999988
 30
0.0
 11
-62.60000000000002
 21
207.0599999999999
 31
0.0
  0
LINE
  5
146
330
2
100
AcDbEntity
  8
GEB-VERDECKT
 48
25.0
100
AcDbLine
 10
-77.93147379541847
 20
88.41006867565909
 30
0.0
 11
-74.26034405243135
 21
88.24978368954077
 31
0.0
  0
LINE
  5
147
330
2
100
AcDbEntity
  8
GEB-VERDECKT
 48
25.0
100
AcDbLine
 10
-73.12461730775843
 20
198.5051826939798
 30
0.0
 11
-69.45348756477139
 21
198.3448977078615
 31
0.0
  0
LINE
  5
148
330
2
100
AcDbEntity
  8
GEB-VERDECKT
 48
25.0
100
AcDbLine
 10
-58.49305591094918
 20
194.2629252605834
 30
0.0
 11
-73.28164710227366
 21
194.9086090962851
 31
0.0
  0
LINE
  5
149
330
2
100
AcDbEntity
  8
GEB-VERDECKT
 48
25.0
100
AcDbLine
 10
-58.44366876861167
 20
91.16264239955944
 30
0.0
 11
-77.77444400090323
 21
92.0066422733538
 31
0.0
  0
LINE
  5
14A
330
2
100
AcDbEntity
  8
GEB-VERDECKT
 48
25.0
100
AcDbLine
 10
-77.93147379541847
 20
88.41006867565909
 30
0.0
 11
-73.1246173077584
 21
198.5051826939798
 31
0.0
  0
LINE
  5
14B
330
2
100
AcDbEntity
  8
GEB-KONTUR-A
 48
25.0
100
AcDbLine
 10
62.60000000000001
 20
78.5
 30
0.0
 11
62.60000000000001
 21
206.3499999999999
 31
0.0
  0
LINE
  5
14C
330
2
100
AcDbEntity
  8
GEB-KONTUR-A
 48
25.0
100
AcDbLine
 10
-62.60000000000002
 20
198.0456679785718
 30
0.0
 11
-62.60000000000002
 21
206.3499999999988
 31
0.0
  0
LINE
  5
14D
330
2
100
AcDbEntity
  8
GEB-KONTUR-A
 48
25.0
100
AcDbLine
 10
-62.60000000000002
 20
78.5
 30
0.0
 11
-62.60000000000002
 21
87.74068207357391
 31
0.0
  0
LINE
  5
14E
330
2
100
AcDbEntity
  8
GEB-KONTUR-A
 48
25.0
100
AcDbLine
 10
-74.26034405243135
 20
88.24978368954077
 30
0.0
 11
-62.60000000000002
 21
87.74068207357391
 31
0.0
  0
LINE
  5
14F
330
2
100
AcDbEntity
  8
GEB-KONTUR-A
 48
25.0
100
AcDbLine
 10
-69.45348756477139
 20
198.3448977078615
 30
0.0
 11
-62.59999999999999
 21
198.0456679785718
 31
0.0
  0
ARC
  5
150
330
2
100
AcDbEntity
  8
GEB-KONTUR-A
 48
25.0
100
AcDbCircle
 10
-64.40000000000001
 20
76.70000000000005
 30
0.0
 40
1.199999999999995
100
AcDbArc
 50
110.9642300196001
 51
253.1255057020562
  0
ARC
  5
151
330
2
100
AcDbEntity
  8
GEB-KONTUR-A
 48
25.0
100
AcDbCircle
 10
64.40000000000001
 20
76.70000000000005
 30
0.0
 40
1.199999999999995
100
AcDbArc
 50
286.8744942979437
 51
69.03576998039598
  0
LINE
  5
152
330
2
100
AcDbEntity
  8
GEB-KONTUR-A
 48
25.0
100
AcDbLine
 10
62.60000000000001
 20
74.89999999999998
 30
0.0
 11
64.7483314773548
 21
75.55166852264517
 31
0.0
  0
LINE
  5
153
330
2
100
AcDbEntity
  8
GEB-KONTUR-A
 48
25.0
100
AcDbLine
 10
-62.60000000000002
 20
74.89999999999998
 30
0.0
 11
-64.74833147735481
 21
75.55166852264517
 31
0.0
  0
ARC
  5
154
330
2
100
AcDbEntity
  8
GEB-KONTUR-A
 48
25.0
100
AcDbCircle
 10
-58.87422412363597
 20
62.27795638265547
 30
0.0
 40
16.64440161147055
100
AcDbArc
 50
102.935003914994
 51
110.9642300196001
  0
ARC
  5
155
330
2
100
AcDbEntity
  8
GEB-KONTUR-A
 48
25.0
100
AcDbCircle
 10
58.87422412363597
 20
62.27795638265547
 30
0.0
 40
16.64440161147055
100
AcDbArc
 50
69.03576998039985
 51
77.06499608500593
  0
LINE
  5
156
330
2
100
AcDbEntity
  8
GEB-KONTUR-A
 48
25.0
100
AcDbLine
 10
62.60000000000001
 20
2.0
 30
0.0
 11
62.60000000000001
 21
74.89999999999998
 31
0.0
  0
LINE
  5
157
330
2
100
AcDbEntity
  8
GEB-KONTUR-A
 48
25.0
100
AcDbLine
 10
-62.60000000000002
 20
2.0
 30
0.0
 11
-62.60000000000002
 21
74.89999999999998
 31
0.0
  0
LINE
  5
158
330
2
100
AcDbEntity
  8
GEB-KONTUR-A
 48
25.0
100
AcDbLine
 10
61.98853863708269
 20
0.0
 30
0.0
 11
62.60000000000001
 21
2.0
 31
0.0
  0
LINE
  5
159
330
2
100
AcDbEntity
  8
GEB-KONTUR-A
 48
25.0
100
AcDbLine
 10
-61.98853863708269
 20
0.0
 30
0.0
 11
-62.60000000000002
 21
2.0
 31
0.0
  0
SPLINE
  5
15A
330
2
100
AcDbEntity
  8
GEB-KONTUR-A
 48
25.0
100
AcDbSpline
210
0.0
220
0.0
230
1.0
 70
     8
 71
     3
 72
    38
 73
    34
 74
     0
 42
0.0000000001
 43
0.0000000001
 40
9.258852538789497
 40
9.258852538789497
 40
9.258852538808527
 40
9.258852538808527
 40
10.36888101184098
 40
10.36888101184098
 40
11.47890948489246
 40
11.47890948489246
 40
12.58893795794394
 40
12.58893795794394
 40
13.69896643099542
 40
13.69896643099542
 40
14.90399632046151
 40
14.90399632046151
 40
16.1090262099276
 40
16.1090262099276
 40
17.31405609939369
 40
17.31405609939369
 40
18.51908598885977
 40
18.51908598885977
 40
19.67904063270218
 40
19.67904063270218
 40
20.83899527654459
 40
20.83899527654459
 40
21.998949920387
 40
21.998949920387
 40
23.15890456422941
 40
23.15890456422941
 40
24.26931867938974
 40
24.26931867938974
 40
25.37973279455006
 40
25.37973279455006
 40
26.49014690971038
 40
26.49014690971038
 40
27.6005610248707
 40
27.6005610248707
 40
27.60056102505272
 40
27.60056102505272
 10
-62.60000000000002
 20
198.0456679785718
 30
0.0
 10
-62.59999999998854
 20
198.0456679785581
 30
0.0
 10
-62.26605633264327
 20
197.6522365579351
 30
0.0
 10
-60.94703026257889
 20
196.0875116861882
 30
0.0
 10
-59.96262696624362
 20
194.9169417876778
 30
0.0
 10
-57.4856220682432
 20
191.9343889647998
 30
0.0
 10
-55.99103726713437
 20
190.1197382223472
 30
0.0
 10
-52.71349497948884
 20
186.058807980356
 30
0.0
 10
-50.93138834686531
 20
183.8126510777279
 30
0.0
 10
-47.20879017971668
 20
178.9724011967803
 30
0.0
 10
-45.11424607835439
 20
176.1711069603218
 30
0.0
 10
-40.89449894828468
 20
170.1445758794877
 30
0.0
 10
-38.76794880808276
 20
166.9214177179058
 30
0.0
 10
-34.88174760677177
 20
160.1674625142377
 30
0.0
 10
-33.12232666111527
 20
156.6441919402945
 30
0.0
 10
-30.53179353014016
 20
149.2988222462372
 30
0.0
 10
-29.71110903349114
 20
145.4739813334801
 30
0.0
 10
-29.71110903349114
 20
137.5906995557851
 30
0.0
 10
-30.48019862504475
 20
133.9022192335961
 30
0.0
 10
-32.99110381378156
 20
126.8606567400542
 30
0.0
 10
-34.71773002738846
 20
123.5026132232567
 30
0.0
 10
-38.55316722918266
 20
117.1081026591807
 30
0.0
 10
-40.66178094571327
 20
114.0749056667777
 30
0.0
 10
-44.8505697701294
 20
108.4272798556419
 30
0.0
 10
-46.93186187841414
 20
105.8148361640054
 30
0.0
 10
-50.69711007281455
 20
101.2315607701135
 30
0.0
 10
-52.53011088730549
 20
99.07778248198065
 30
0.0
 10
-55.89008950360701
 20
95.20360978007193
 30
0.0
 10
-57.41624623014292
 20
93.48325588972034
 30
0.0
 10
-59.93714184395014
 20
90.66716956644654
 30
0.0
 10
-60.93396308986368
 20
89.56888337070541
 30
0.0
 10
-62.26569840373642
 20
88.1053212462657
 30
0.0
 10
-62.60000000000002
 20
87.74068207357391
 30
0.0
 10
-62.60000000000002
 20
87.74068207357391
 30
0.0
  0
LINE
  5
15B
330
2
100
AcDbEntity
  8
GEB-KONTUR-A
 48
25.0
100
AcDbLine
 10
62.60000000000001
 20
78.5
 30
0.0
 11
-62.60000000000002
 21
78.5
 31
0.0
  0
LINE
  5
15C
330
2
100
AcDbEntity
  8
GEB-KONTUR-A
 48
25.0
100
AcDbLine
 10
-62.59999999999999
 20
74.89999999999998
 30
0.0
 11
62.59999999999998
 21
74.89999999999998
 31
0.0
  0
LINE
  5
15D
330
2
100
AcDbEntity
  8
GEB-KONTUR-A
 48
25.0
100
AcDbLine
 10
61.98853863708267
 20
0.0
 30
0.0
 11
-61.98853863708265
 21
0.0
 31
0.0
  0
LINE
  5
15E
330
2
100
AcDbEntity
  8
GEB-KONTUR-A
 48
25.0
100
AcDbLine
 10
-62.59999999999999
 20
2.0
 30
0.0
 11
62.59999999999998
 21
2.0
 31
0.0
  0
LINE
  5
15F
330
2
100
AcDbEntity
  8
GEB-VERDECKT
 48
25.0
100
AcDbLine
 10
58.40000000000002
 20
0.0
 30
0.0
 11
58.49918597125671
 21
207.0599999999999
 31
0.0
  0
LINE
  5
160
330
2
100
AcDbEntity
  8
GEB-VERDECKT
 48
25.0
100
AcDbLine
 10
-58.49305591094918
 20
194.2629252605834
 30
0.0
 11
-58.49918597125671
 21
207.0599999999999
 31
0.0
  0
LINE
  5
161
330
2
100
AcDbEntity
  8
GEB-VERDECKT
 48
25.0
100
AcDbLine
 10
-58.40000000000003
 20
0.0
 30
0.0
 11
-58.44366876861167
 21
91.16264239955944
 31
0.0
  0
SPLINE
  5
162
330
2
100
AcDbEntity
  8
GEB-VERDECKT
 48
25.0
100
AcDbSpline
210
0.0
220
0.0
230
1.0
 70
     8
 71
     3
 72
    38
 73
    34
 74
     0
 42
0.0000000001
 43
0.0000000001
 40
8.659841924337657
 40
8.659841924337657
 40
8.659841924387164
 40
8.659841924387164
 40
9.705173677294418
 40
9.705173677294418
 40
10.75050543025118
 40
10.75050543025118
 40
11.79583718320794
 40
11.79583718320794
 40
12.8411689361647
 40
12.8411689361647
 40
13.96079766429235
 40
13.96079766429235
 40
15.08042639242001
 40
15.08042639242001
 40
16.20005512054766
 40
16.20005512054766
 40
17.31968384867531
 40
17.31968384867531
 40
18.40390714865109
 40
18.40390714865109
 40
19.48813044862687
 40
19.48813044862687
 40
20.57235374860265
 40
20.57235374860265
 40
21.65657704857843
 40
21.65657704857843
 40
22.69427157176894
 40
22.69427157176894
 40
23.73196609495945
 40
23.73196609495945
 40
24.76966061814996
 40
24.76966061814996
 40
25.80735514134047
 40
25.80735514134047
 40
25.80735514155085
 40
25.80735514155085
 10
-58.49305591094918
 20
194.2629252605834
 30
0.0
 10
-58.49305591091916
 20
194.2629252605479
 30
0.0
 10
-58.17597429413564
 20
193.8896717774946
 30
0.0
 10
-56.92531433062592
 20
192.407214619707
 30
0.0
 10
-55.99237533288814
 20
191.298691860976
 30
0.0
 10
-53.64651247496758
 20
188.4759149025742
 30
0.0
 10
-52.2316855942978
 20
186.7591129226823
 30
0.0
 10
-49.13083210067637
 20
182.9184823313583
 30
0.0
 10
-47.44560277018158
 20
180.7947621777378
 30
0.0
 10
-43.95226859585775
 20
176.2510465622679
 30
0.0
 10
-42.00142360120193
 20
173.6406838324614
 30
0.0
 10
-38.07398724545198
 20
168.0282301583708
 30
0.0
 10
-36.09614898396879
 20
165.0280569747866
 30
0.0
 10
-32.48349837447705
 20
158.7434373680925
 30
0.0
 10
-30.84889136994215
 20
155.4658341307613
 30
0.0
 10
-28.44304904021507
 20
148.6348601329267
 30
0.0
 10
-27.68158612104358
 20
145.0788912601695
 30
0.0
 10
-27.67992011416434
 20
137.7327186759864
 30
0.0
 10
-28.4002728058822
 20
134.2866425157568
 30
0.0
 10
-30.75087423355913
 20
127.708607340847
 30
0.0
 10
-32.36691977906341
 20
124.5720078099144
 30
0.0
 10
-35.95585541553678
 20
118.5987246452713
 30
0.0
 10
-37.92857116584853
 20
115.7652159823133
 30
0.0
 10
-41.84692895109523
 20
110.4890754636324
 30
0.0
 10
-43.79362940815761
 20
108.0483099638902
 30
0.0
 10
-47.31484677655183
 20
103.7664576226103
 30
0.0
 10
-49.02875418066688
 20
101.7544347449764
 30
0.0
 10
-52.17031815772864
 20
98.13512640867271
 30
0.0
 10
-53.59720926444308
 20
96.52788038626432
 30
0.0
 10
-55.95410291756988
 20
93.89689012617145
 30
0.0
 10
-56.88605367241326
 20
92.87076009198472
 30
0.0
 10
-58.13112273472663
 20
91.5033387359556
 30
0.0
 10
-58.44366876861167
 20
91.16264239955944
 30
0.0
 10
-58.44366876861167
 20
91.16264239955944
 30
0.0
  0
TEXT
  5
163
330
2
100
AcDbEntity
  8
GEB-TEXT
100
AcDbText
 10
-73.83869713506271
 20
-10.5
 30
0.0
 40
3.5
  1
Abzweig PP-MD 87.5G d125/110
 72
     1
 11
-37.83000000000132
 21
-10.5
 31
0.0
100
AcDbText
  0
TEXT
  5
165
330
2
100
AcDbEntity
  8
GEB-TEXT
100
AcDbText
 10
-56.58221691678168
 20
-5.0
 30
0.0
 40
3.5
  1
Geberit Silent PP
 72
     1
 11
-37.83000000000132
 21
-5.0
 31
0.0
100
AcDbText
  0
TEXT
  5
166
330
2
100
AcDbEntity
  8
GEB-ART-NR
100
AcDbText
 10
-62.00544479964691
 20
-16.84278125428022
 30
0.0
 40
3.5
  1
GEB-ART-NR 390.651
 72
     1
 11
-37.27744343539044
 21
-16.84278125428022
 31
0.0
100
AcDbText
  0
ENDSEC
  0
SECTION
  2
OBJECTS
  0
DICTIONARY
  5
9
330
0
100
AcDbDictionary
281
     1
  3
ACAD_2007HEADERVARS_RT
350
195
  3
ACAD_COLOR
350
44
  3
ACAD_GROUP
350
31
  3
ACAD_LAYOUT
350
16
  3
ACAD_MATERIAL
350
B
  3
ACAD_MLEADERSTYLE
350
47
  3
ACAD_MLINESTYLE
350
32
  3
ACAD_PLOTSETTINGS
350
33
  3
ACAD_PLOTSTYLENAME
350
8
  3
ACAD_SCALELIST
350
45
  3
ACAD_TABLESTYLE
350
46
  3
ACAD_VISUALSTYLE
350
2B
  3
ACDB_RECOMPOSE_DATA
350
194
  3
AcDbVariableDictionary
350
16A
  0
DICTIONARY
  5
2C
330
28
100
AcDbDictionary
280
     1
281
     1
  0
DICTIONARY
  5
1C
330
1B
100
AcDbDictionary
280
     1
281
     1
  3
ACAD_LAYERFILTERS
360
1D
  3
ACLYDICTIONARY
360
1E
  0
DICTIONARY
  5
3
330
2
100
AcDbDictionary
280
     1
281
     1
  3
ACAD_SORTENTS
360
168
  0
DICTIONARY
  5
195
102
{ACAD_REACTORS
330
9
102
}
330
9
100
AcDbDictionary
281
     1
  3
DIMARCSYM
350
196
  3
DIMLTEX1
350
198
  3
DIMLTEX2
350
199
  3
DIMLTYPE
350
197
  0
DICTIONARY
  5
44
102
{ACAD_REACTORS
330
9
102
}
330
9
100
AcDbDictionary
281
     1
  0
DICTIONARY
  5
31
102
{ACAD_REACTORS
330
9
102
}
330
9
100
AcDbDictionary
281
     1
  0
DICTIONARY
  5
16
102
{ACAD_REACTORS
330
9
102
}
330
9
100
AcDbDictionary
281
     1
  3
Layout1
350
1A
  3
Model
350
15
  0
DICTIONARY
  5
B
102
{ACAD_REACTORS
330
9
102
}
330
9
100
AcDbDictionary
281
     1
  3
ByBlock
350
3C
  3
ByLayer
350
34
  3
Global
350
A
  0
DICTIONARY
  5
47
102
{ACAD_REACTORS
330
9
102
}
330
9
100
AcDbDictionary
281
     1
  3
Standard
350
188
  0
DICTIONARY
  5
32
102
{ACAD_REACTORS
330
9
102
}
330
9
100
AcDbDictionary
281
     1
  3
Standard
350
48
  0
DICTIONARY
  5
33
102
{ACAD_REACTORS
330
9
102
}
330
9
100
AcDbDictionary
281
     1
  0
ACDBDICTIONARYWDFLT
  5
8
102
{ACAD_REACTORS
330
9
102
}
330
9
100
AcDbDictionary
281
     1
  3
Normal
350
7
100
AcDbDictionaryWithDefault
340
7
  0
DICTIONARY
  5
45
102
{ACAD_REACTORS
330
9
102
}
330
9
100
AcDbDictionary
281
     1
  3
A0
350
4D
  3
A1
350
4E
  3
A2
350
4F
  3
A3
350
50
  3
A4
350
51
  3
A5
350
52
  3
A6
350
53
  3
A7
350
54
  3
A8
350
55
  3
A9
350
56
  3
B0
350
57
  3
B1
350
58
  3
B2
350
59
  3
B3
350
5A
  3
B4
350
5B
  3
B5
350
5C
  3
B6
350
5D
  3
B7
350
5E
  3
B8
350
5F
  3
B9
350
60
  3
C0
350
61
  3
C1
350
62
  3
C2
350
63
  3
C3
350
64
  3
C4
350
65
  3
C5
350
66
  3
C6
350
67
  3
C7
350
68
  3
C8
350
69
  3
C9
350
6A
  3
D0
350
6B
  3
D1
350
6C
  3
D2
350
6D
  0
DICTIONARY
  5
46
102
{ACAD_REACTORS
330
9
102
}
330
9
100
AcDbDictionary
281
     1
  3
Standard
350
49
  0
DICTIONARY
  5
2B
102
{ACAD_REACTORS
330
9
102
}
330
9
100
AcDbDictionary
281
     1
  3
2dWireframe
350
2A
  3
Basic
350
177
  3
Brighten
350
17B
  3
ColorChange
350
17F
  3
Conceptual
350
179
  3
Dim
350
17A
  3
EdgeColorOff
350
187
  3
Facepattern
350
17E
  3
Flat
350
173
  3
FlatWithEdges
350
174
  3
Gouraud
350
175
  3
GouraudWithEdges
350
176
  3
Hidden
350
178
  3
JitterOff
350
185
  3
Linepattern
350
17D
  3
OverhangOff
350
186
  3
Realistic
350
4B
  3
Shaded
350
184
  3
Shaded with edges
350
183
  3
Shades of Gray
350
180
  3
Sketchy
350
181
  3
Thicken
350
17C
  3
Wireframe
350
4C
  3
X-Ray
350
182
  0
XRECORD
  5
194
102
{ACAD_REACTORS
330
9
102
}
330
9
100
AcDbXrecord
280
     1
 90
        1
330
49
  0
DICTIONARY
  5
16A
102
{ACAD_REACTORS
330
9
102
}
330
9
100
AcDbDictionary
281
     1
  3
CANNOSCALE
350
16E
  3
CMLEADERSTYLE
350
16C
  3
CTABLESTYLE
350
16B
  3
DIMASSOC
350
191
  3
HIDETEXT
350
190
  3
INDEXCTL
350
18F
  3
LAYEREVAL
350
170
  3
LAYERNOTIFY
350
171
  3
LIGHTINGUNITS
350
16F
  3
MSLTSCALE
350
16D
  3
SORTENTS
350
18E
  3
XCLIPFRAME
350
192
  0
DICTIONARY
  5
1D
102
{ACAD_REACTORS
330
1C
102
}
330
1C
100
AcDbDictionary
281
     1
  0
DICTIONARY
  5
1E
102
{ACAD_REACTORS
330
1C
102
}
330
1C
100
AcDbDictionary
281
     1
1001
ACAD
1000
<All
  0
SORTENTSTABLE
  5
168
102
{ACAD_REACTORS
330
3
102
}
330
3
100
AcDbSortentsTable
330
2
331
134
  5
A8
331
BE
  5
11E
331
7F
  5
15A
331
F5
  5
E7
331
13C
  5
A0
331
FD
  5
DF
331
87
  5
154
331
C6
  5
116
331
105
  5
D7
331
CE
  5
10E
331
8F
  5
14C
331
144
  5
98
331
10D
  5
CF
331
D6
  5
106
331
97
  5
145
331
14C
  5
8F
331
154
  5
87
331
DE
  5
FE
331
9F
  5
13D
331
115
  5
C7
331
15C
  5
7D
331
11D
  5
BF
331
A7
  5
135
331
E6
  5
F6
331
AF
  5
12D
331
125
  5
B7
331
12D
  5
AF
331
B7
  5
125
331
F6
  5
E6
331
BF
  5
11D
331
80
  5
159
331
135
  5
A7
331
13D
  5
9F
331
C7
  5
115
331
88
  5
153
331
FE
  5
DE
331
145
  5
97
331
CF
  5
10D
331
90
  5
14B
331
106
  5
D6
331
14D
  5
8E
331
10E
  5
CE
331
D7
  5
105
331
98
  5
144
331
116
  5
C6
331
DF
  5
FD
331
A0
  5
13C
331
155
  5
86
331
11E
  5
BE
331
E7
  5
F5
331
A8
  5
134
331
15D
  5
7C
331
EF
  5
ED
331
B0
  5
12C
331
126
  5
B6
331
12E
  5
AE
331
B8
  5
124
331
79
  5
160
331
136
  5
A6
331
C0
  5
11C
331
81
  5
158
331
F7
  5
E5
331
13E
  5
9E
331
FF
  5
DD
331
89
  5
152
331
C8
  5
114
331
107
  5
D5
331
D0
  5
10C
331
91
  5
14A
331
146
  5
96
331
14E
  5
8D
331
10F
  5
CD
331
D8
  5
104
331
99
  5
143
331
156
  5
85
331
E0
  5
FC
331
A1
  5
13B
331
117
  5
C5
331
15E
  5
7B
331
11F
  5
BD
331
A9
  5
133
331
E8
  5
F4
331
127
  5
B5
331
B1
  5
12B
331
166
  5
163
331
12F
  5
AD
331
F0
  5
EC
331
7A
  5
15F
331
B9
  5
123
331
F8
  5
E4
331
C1
  5
11B
331
137
  5
A5
331
13F
  5
9D
331
C9
  5
113
331
8A
  5
151
331
100
  5
DC
331
147
  5
95
331
D1
  5
10B
331
92
  5
149
331
108
  5
D4
331
14F
  5
8C
331
110
  5
CC
331
9A
  5
142
331
D9
  5
103
331
118
  5
C4
331
E1
  5
FB
331
A2
  5
13A
331
157
  5
84
331
15F
  5
7A
331
E9
  5
F3
331
AA
  5
132
331
120
  5
BC
331
B2
  5
12A
331
128
  5
B4
331
130
  5
AC
331
BA
  5
122
331
7B
  5
15E
331
F1
  5
EB
331
138
  5
A4
331
F9
  5
E3
331
C2
  5
11A
331
140
  5
9C
331
101
  5
DB
331
8B
  5
150
331
CA
  5
112
331
109
  5
D3
331
D2
  5
10A
331
148
  5
94
331
150
  5
8B
331
DA
  5
102
331
9B
  5
141
331
111
  5
CB
331
158
  5
81
331
E2
  5
FA
331
A3
  5
139
331
119
  5
C3
331
160
  5
79
331
121
  5
BB
331
AB
  5
131
331
EA
  5
F2
331
129
  5
B3
331
B3
  5
129
331
F2
  5
EA
331
7C
  5
15D
331
BB
  5
121
331
131
  5
AB
331
FA
  5
E2
331
C3
  5
119
331
84
  5
157
331
139
  5
A3
331
141
  5
9B
331
CB
  5
111
331
8C
  5
14F
331
102
  5
DA
331
149
  5
92
331
10A
  5
D2
331
94
  5
148
331
D3
  5
109
331
151
  5
8A
331
112
  5
CA
331
9C
  5
140
331
DB
  5
101
331
11A
  5
C2
331
E3
  5
F9
331
A4
  5
138
331
159
  5
80
331
75
  5
161
331
161
  5
75
331
EB
  5
F1
331
AC
  5
130
331
122
  5
BA
331
B4
  5
128
331
12A
  5
B2
331
132
  5
AA
331
BC
  5
120
331
7D
  5
15C
331
F3
  5
E9
331
13A
  5
A2
331
FB
  5
E1
331
85
  5
156
331
C4
  5
118
331
103
  5
D9
331
8D
  5
14E
331
CC
  5
110
331
142
  5
9A
331
10B
  5
D1
331
D4
  5
108
331
95
  5
147
331
14A
  5
91
331
152
  5
89
331
DC
  5
100
331
9D
  5
13F
331
113
  5
C9
331
6E
  5
162
331
15A
  5
7F
331
11B
  5
C1
331
A5
  5
137
331
E4
  5
F8
331
162
  5
6E
331
123
  5
B9
331
AD
  5
12F
331
EC
  5
F0
331
12B
  5
B1
331
B5
  5
127
331
F4
  5
E8
331
BD
  5
11F
331
7E
  5
15B
331
133
  5
A9
331
FC
  5
E0
331
C5
  5
117
331
86
  5
155
331
13B
  5
A1
331
143
  5
99
331
CD
  5
10F
331
8E
  5
14D
331
104
  5
D8
331
14B
  5
90
331
10C
  5
D0
331
96
  5
146
331
D5
  5
107
331
114
  5
C8
331
9E
  5
13E
331
DD
  5
FF
331
153
  5
88
331
11C
  5
C0
331
E5
  5
F7
331
A6
  5
136
331
15B
  5
7E
331
163
  5
166
331
ED
  5
EF
331
AE
  5
12E
331
124
  5
B8
331
B6
  5
126
331
12C
  5
B0
  0
XRECORD
  5
196
102
{ACAD_REACTORS
330
195
102
}
330
195
100
AcDbXrecord
280
     1
 70
     1
  0
XRECORD
  5
198
102
{ACAD_REACTORS
330
195
102
}
330
195
100
AcDbXrecord
280
     1
340
24
  0
XRECORD
  5
199
102
{ACAD_REACTORS
330
195
102
}
330
195
100
AcDbXrecord
280
     1
340
24
  0
XRECORD
  5
197
102
{ACAD_REACTORS
330
195
102
}
330
195
100
AcDbXrecord
280
     1
340
24
  0
LAYOUT
  5
1A
102
{ACAD_XDICTIONARY
360
19D
102
}
102
{ACAD_REACTORS
330
16
102
}
330
16
100
AcDbPlotSettings
  1

  2
\\le-server\HP LaserJet 2100
  4

  6

 40
0.0
 41
0.0
 42
0.0
 43
0.0
 44
0.0
 45
0.0
 46
0.0
 47
0.0
 48
0.0
 49
0.0
140
0.0
141
0.0
142
1.0
143
1.0
 70
   688
 72
     0
 73
     0
 74
     5
  7

 75
    16
147
1.0
148
0.0
149
0.0
100
AcDbLayout
  1
Layout1
 70
     1
 71
     1
 10
0.0
 20
0.0
 11
1189.0
 21
840.9999999999998
 12
0.0
 22
0.0
 32
0.0
 14
0.0
 24
0.0
 34
0.0
 15
1189.0
 25
840.9999999999998
 35
0.0
146
0.0
 13
0.0
 23
0.0
 33
0.0
 16
1.0
 26
0.0
 36
0.0
 17
0.0
 27
1.0
 37
0.0
 76
     0
330
17
  0
LAYOUT
  5
15
102
{ACAD_XDICTIONARY
360
19B
102
}
102
{ACAD_REACTORS
330
16
102
}
330
16
100
AcDbPlotSettings
  1

  2
\\le-server\HP LaserJet 2100
  4

  6

 40
0.0
 41
0.0
 42
0.0
 43
0.0
 44
0.0
 45
0.0
 46
0.0
 47
0.0
 48
0.0
 49
0.0
140
0.0
141
0.0
142
1.0
143
1.0
 70
  1712
 72
     0
 73
     0
 74
     0
  7

 75
     0
147
1.0
148
0.0
149
0.0
100
AcDbLayout
  1
Model
 70
     1
 71
     0
 10
0.0
 20
0.0
 11
12.0
 21
9.0
 12
0.0
 22
0.0
 32
0.0
 14
0.0
 24
0.0
 34
0.0
 15
0.0
 25
0.0
 35
0.0
146
0.0
 13
0.0
 23
0.0
 33
0.0
 16
1.0
 26
0.0
 36
0.0
 17
0.0
 27
1.0
 37
0.0
 76
     0
330
2
331
29
  0
MATERIAL
  5
3C
102
{ACAD_XDICTIONARY
360
3D
102
}
102
{ACAD_REACTORS
330
B
102
}
330
B
100
AcDbMaterial
  1
ByBlock
 72
     0
 43
0.0208333333333333
 43
0.0
 43
0.0
 43
0.0
 43
0.0
 43
0.0208333333333333
 43
0.0
 43
0.0
 43
0.0
 43
0.0
 43
1.0
 43
0.0
 43
0.0
 43
0.0
 43
0.0
 43
1.0
 77
     0
 47
0.0208333333333333
 47
0.0
 47
0.0
 47
0.0
 47
0.0
 47
0.0208333333333333
 47
0.0
 47
0.0
 47
0.0
 47
0.0
 47
1.0
 47
0.0
 47
0.0
 47
0.0
 47
0.0
 47
1.0
171
     0
 49
0.0208333333333333
 49
0.0
 49
0.0
 49
0.0
 49
0.0
 49
0.0208333333333333
 49
0.0
 49
0.0
 49
0.0
 49
0.0
 49
1.0
 49
0.0
 49
0.0
 49
0.0
 49
0.0
 49
1.0
175
     0
142
0.0208333333333333
142
0.0
142
0.0
142
0.0
142
0.0
142
0.0208333333333333
142
0.0
142
0.0
142
0.0
142
0.0
142
1.0
142
0.0
142
0.0
142
0.0
142
0.0
142
1.0
179
     0
144
0.0208333333333333
144
0.0
144
0.0
144
0.0
144
0.0
144
0.0208333333333333
144
0.0
144
0.0
144
0.0
144
0.0
144
1.0
144
0.0
144
0.0
144
0.0
144
0.0
144
1.0
147
0.0208333333333333
147
0.0
147
0.0
147
0.0
147
0.0
147
0.0208333333333333
147
0.0
147
0.0
147
0.0
147
0.0
147
1.0
147
0.0
147
0.0
147
0.0
147
0.0
147
1.0
  0
MATERIAL
  5
34
102
{ACAD_XDICTIONARY
360
35
102
}
102
{ACAD_REACTORS
330
B
102
}
330
B
100
AcDbMaterial
  1
ByLayer
 72
     0
 43
0.0208333333333333
 43
0.0
 43
0.0
 43
0.0
 43
0.0
 43
0.0208333333333333
 43
0.0
 43
0.0
 43
0.0
 43
0.0
 43
1.0
 43
0.0
 43
0.0
 43
0.0
 43
0.0
 43
1.0
 77
     0
 47
0.0208333333333333
 47
0.0
 47
0.0
 47
0.0
 47
0.0
 47
0.0208333333333333
 47
0.0
 47
0.0
 47
0.0
 47
0.0
 47
1.0
 47
0.0
 47
0.0
 47
0.0
 47
0.0
 47
1.0
171
     0
 49
0.0208333333333333
 49
0.0
 49
0.0
 49
0.0
 49
0.0
 49
0.0208333333333333
 49
0.0
 49
0.0
 49
0.0
 49
0.0
 49
1.0
 49
0.0
 49
0.0
 49
0.0
 49
0.0
 49
1.0
175
     0
142
0.0208333333333333
142
0.0
142
0.0
142
0.0
142
0.0
142
0.0208333333333333
142
0.0
142
0.0
142
0.0
142
0.0
142
1.0
142
0.0
142
0.0
142
0.0
142
0.0
142
1.0
179
     0
144
0.0208333333333333
144
0.0
144
0.0
144
0.0
144
0.0
144
0.0208333333333333
144
0.0
144
0.0
144
0.0
144
0.0
144
1.0
144
0.0
144
0.0
144
0.0
144
0.0
144
1.0
147
0.0208333333333333
147
0.0
147
0.0
147
0.0
147
0.0
147
0.0208333333333333
147
0.0
147
0.0
147
0.0
147
0.0
147
1.0
147
0.0
147
0.0
147
0.0
147
0.0
147
1.0
  0
MATERIAL
  5
A
102
{ACAD_XDICTIONARY
360
C
102
}
102
{ACAD_REACTORS
330
B
102
}
330
B
100
AcDbMaterial
  1
Global
 72
     0
 43
0.0208333333333333
 43
0.0
 43
0.0
 43
0.0
 43
0.0
 43
0.0208333333333333
 43
0.0
 43
0.0
 43
0.0
 43
0.0
 43
1.0
 43
0.0
 43
0.0
 43
0.0
 43
0.0
 43
1.0
 77
     0
 47
0.0208333333333333
 47
0.0
 47
0.0
 47
0.0
 47
0.0
 47
0.0208333333333333
 47
0.0
 47
0.0
 47
0.0
 47
0.0
 47
1.0
 47
0.0
 47
0.0
 47
0.0
 47
0.0
 47
1.0
171
     0
 49
0.0208333333333333
 49
0.0
 49
0.0
 49
0.0
 49
0.0
 49
0.0208333333333333
 49
0.0
 49
0.0
 49
0.0
 49
0.0
 49
1.0
 49
0.0
 49
0.0
 49
0.0
 49
0.0
 49
1.0
175
     0
142
0.0208333333333333
142
0.0
142
0.0
142
0.0
142
0.0
142
0.0208333333333333
142
0.0
142
0.0
142
0.0
142
0.0
142
1.0
142
0.0
142
0.0
142
0.0
142
0.0
142
1.0
179
     0
144
0.0208333333333333
144
0.0
144
0.0
144
0.0
144
0.0
144
0.0208333333333333
144
0.0
144
0.0
144
0.0
144
0.0
144
1.0
144
0.0
144
0.0
144
0.0
144
0.0
144
1.0
147
0.0208333333333333
147
0.0
147
0.0
147
0.0
147
0.0
147
0.0208333333333333
147
0.0
147
0.0
147
0.0
147
0.0
147
1.0
147
0.0
147
0.0
147
0.0
147
0.0
147
1.0
  0
MLEADERSTYLE
  5
188
102
{ACAD_REACTORS
330
47
102
}
330
47
100
AcDbMLeaderStyle
170
     2
171
     1
172
     0
 90
        2
 40
0.0
 41
0.0
173
     1
 91
-1056964608
340
24
 92
       -2
290
     1
 42
2.0
291
     1
 43
0.36
  3
Standard
 44
4.0
300

342
21
174
     1
178
     6
175
     1
176
     0
 93
-1056964608
 45
4.0
292
     0
297
     0
 46
4.0
 94
-1056964608
 47
1.0
 49
1.0
140
1.0
293
     1
141
0.0
294
     1
177
     0
142
1.0
295
     0
296
     0
143
0.125
1001
ACAD_MLEADERVER
1070
     2
  0
MLINESTYLE
  5
48
102
{ACAD_REACTORS
330
32
102
}
330
32
100
AcDbMlineStyle
  2
STANDARD
 70
     0
  3

 62
   256
 51
90.0
 52
90.0
 71
     2
 49
0.5
 62
   256
  6
BYLAYER
 49
-0.5
 62
   256
  6
BYLAYER
  0
ACDBPLACEHOLDER
  5
7
102
{ACAD_REACTORS
330
8
102
}
330
8
  0
SCALE
  5
4D
102
{ACAD_REACTORS
330
45
102
}
330
45
100
AcDbScale
 70
     0
300
1:1
140
1.0
141
1.0
290
     1
  0
SCALE
  5
4E
102
{ACAD_REACTORS
330
45
102
}
330
45
100
AcDbScale
 70
     0
300
1:2
140
1.0
141
2.0
290
     0
  0
SCALE
  5
4F
102
{ACAD_REACTORS
330
45
102
}
330
45
100
AcDbScale
 70
     0
300
1:4
140
1.0
141
4.0
290
     0
  0
SCALE
  5
50
102
{ACAD_REACTORS
330
45
102
}
330
45
100
AcDbScale
 70
     0
300
1:5
140
1.0
141
5.0
290
     0
  0
SCALE
  5
51
102
{ACAD_REACTORS
330
45
102
}
330
45
100
AcDbScale
 70
     0
300
1:8
140
1.0
141
8.0
290
     0
  0
SCALE
  5
52
102
{ACAD_REACTORS
330
45
102
}
330
45
100
AcDbScale
 70
     0
300
1:10
140
1.0
141
10.0
290
     0
  0
SCALE
  5
53
102
{ACAD_REACTORS
330
45
102
}
330
45
100
AcDbScale
 70
     0
300
1:16
140
1.0
141
16.0
290
     0
  0
SCALE
  5
54
102
{ACAD_REACTORS
330
45
102
}
330
45
100
AcDbScale
 70
     0
300
1:20
140
1.0
141
20.0
290
     0
  0
SCALE
  5
55
102
{ACAD_REACTORS
330
45
102
}
330
45
100
AcDbScale
 70
     0
300
1:30
140
1.0
141
30.0
290
     0
  0
SCALE
  5
56
102
{ACAD_REACTORS
330
45
102
}
330
45
100
AcDbScale
 70
     0
300
1:40
140
1.0
141
40.0
290
     0
  0
SCALE
  5
57
102
{ACAD_REACTORS
330
45
102
}
330
45
100
AcDbScale
 70
     0
300
1:50
140
1.0
141
50.0
290
     0
  0
SCALE
  5
58
102
{ACAD_REACTORS
330
45
102
}
330
45
100
AcDbScale
 70
     0
300
1:100
140
1.0
141
100.0
290
     0
  0
SCALE
  5
59
102
{ACAD_REACTORS
330
45
102
}
330
45
100
AcDbScale
 70
     0
300
2:1
140
2.0
141
1.0
290
     0
  0
SCALE
  5
5A
102
{ACAD_REACTORS
330
45
102
}
330
45
100
AcDbScale
 70
     0
300
4:1
140
4.0
141
1.0
290
     0
  0
SCALE
  5
5B
102
{ACAD_REACTORS
330
45
102
}
330
45
100
AcDbScale
 70
     0
300
8:1
140
8.0
141
1.0
290
     0
  0
SCALE
  5
5C
102
{ACAD_REACTORS
330
45
102
}
330
45
100
AcDbScale
 70
     0
300
10:1
140
10.0
141
1.0
290
     0
  0
SCALE
  5
5D
102
{ACAD_REACTORS
330
45
102
}
330
45
100
AcDbScale
 70
     0
300
100:1
140
100.0
141
1.0
290
     0
  0
SCALE
  5
5E
102
{ACAD_REACTORS
330
45
102
}
330
45
100
AcDbScale
 70
     0
300
1/128" = 1'-0"
140
0.0078125
141
12.0
290
     0
  0
SCALE
  5
5F
102
{ACAD_REACTORS
330
45
102
}
330
45
100
AcDbScale
 70
     0
300
1/64" = 1'-0"
140
0.015625
141
12.0
290
     0
  0
SCALE
  5
60
102
{ACAD_REACTORS
330
45
102
}
330
45
100
AcDbScale
 70
     0
300
1/32" = 1'-0"
140
0.03125
141
12.0
290
     0
  0
SCALE
  5
61
102
{ACAD_REACTORS
330
45
102
}
330
45
100
AcDbScale
 70
     0
300
1/16" = 1'-0"
140
0.0625
141
12.0
290
     0
  0
SCALE
  5
62
102
{ACAD_REACTORS
330
45
102
}
330
45
100
AcDbScale
 70
     0
300
3/32" = 1'-0"
140
0.09375
141
12.0
290
     0
  0
SCALE
  5
63
102
{ACAD_REACTORS
330
45
102
}
330
45
100
AcDbScale
 70
     0
300
1/8" = 1'-0"
140
0.125
141
12.0
290
     0
  0
SCALE
  5
64
102
{ACAD_REACTORS
330
45
102
}
330
45
100
AcDbScale
 70
     0
300
3/16" = 1'-0"
140
0.1875
141
12.0
290
     0
  0
SCALE
  5
65
102
{ACAD_REACTORS
330
45
102
}
330
45
100
AcDbScale
 70
     0
300
1/4" = 1'-0"
140
0.25
141
12.0
290
     0
  0
SCALE
  5
66
102
{ACAD_REACTORS
330
45
102
}
330
45
100
AcDbScale
 70
     0
300
3/8" = 1'-0"
140
0.375
141
12.0
290
     0
  0
SCALE
  5
67
102
{ACAD_REACTORS
330
45
102
}
330
45
100
AcDbScale
 70
     0
300
1/2" = 1'-0"
140
0.5
141
12.0
290
     0
  0
SCALE
  5
68
102
{ACAD_REACTORS
330
45
102
}
330
45
100
AcDbScale
 70
     0
300
3/4" = 1'-0"
140
0.75
141
12.0
290
     0
  0
SCALE
  5
69
102
{ACAD_REACTORS
330
45
102
}
330
45
100
AcDbScale
 70
     0
300
1" = 1'-0"
140
1.0
141
12.0
290
     0
  0
SCALE
  5
6A
102
{ACAD_REACTORS
330
45
102
}
330
45
100
AcDbScale
 70
     0
300
1-1/2" = 1'-0"
140
1.5
141
12.0
290
     0
  0
SCALE
  5
6B
102
{ACAD_REACTORS
330
45
102
}
330
45
100
AcDbScale
 70
     0
300
3" = 1'-0"
140
3.0
141
12.0
290
     0
  0
SCALE
  5
6C
102
{ACAD_REACTORS
330
45
102
}
330
45
100
AcDbScale
 70
     0
300
6" = 1'-0"
140
6.0
141
12.0
290
     0
  0
SCALE
  5
6D
102
{ACAD_REACTORS
330
45
102
}
330
45
100
AcDbScale
 70
     0
300
1'-0" = 1'-0"
140
12.0
141
12.0
290
     0
  0
TABLESTYLE
  5
49
102
{ACAD_XDICTIONARY
360
4A
102
}
102
{ACAD_REACTORS
330
46
102
}
330
46
100
AcDbTableStyle
  3
Standard
 70
     0
 71
     0
 40
0.06
 41
0.06
280
     0
281
     0
  7
STANDARD
140
0.18
170
     2
 62
     0
 63
     7
283
     0
274
    -2
284
     1
 64
     0
275
    -2
285
     1
 65
     0
276
    -2
286
     1
 66
     0
277
    -2
287
     1
 67
     0
278
    -2
288
     1
 68
     0
279
    -2
289
     1
 69
     0
  7
STANDARD
140
0.25
170
     5
 62
     0
 63
     7
283
     0
274
    -2
284
     1
 64
     0
275
    -2
285
     1
 65
     0
276
    -2
286
     1
 66
     0
277
    -2
287
     1
 67
     0
278
    -2
288
     1
 68
     0
279
    -2
289
     1
 69
     0
  7
STANDARD
140
0.18
170
     5
 62
     0
 63
     7
283
     0
274
    -2
284
     1
 64
     0
275
    -2
285
     1
 65
     0
276
    -2
286
     1
 66
     0
277
    -2
287
     1
 67
     0
278
    -2
288
     1
 68
     0
279
    -2
289
     1
 69
     0
  0
VISUALSTYLE
  5
2A
102
{ACAD_XDICTIONARY
360
19F
102
}
102
{ACAD_REACTORS
330
2B
102
}
330
2B
100
AcDbVisualStyle
  2
2dWireframe
 70
     4
 71
     0
 72
     2
 73
     0
 90
        0
 40
-0.6
 41
-30.0
 62
     5
 63
     7
 74
     1
 91
        4
 64
     7
 65
   257
 75
     1
175
     1
 42
1.0
 92
        0
 66
   257
 43
1.0
 76
     1
 77
     6
 78
     2
 67
     7
 79
     5
170
     0
171
     0
290
     0
174
     0
 93
        1
 44
0.0
173
     0
291
     0
 45
0.0
1001
ACAD
1000
AcDbSavedByObjectVersion
1070
     0
  0
VISUALSTYLE
  5
177
102
{ACAD_XDICTIONARY
360
1B0
102
}
102
{ACAD_REACTORS
330
2B
102
}
330
2B
100
AcDbVisualStyle
  2
Basic
 70
     7
 71
     1
 72
     0
 73
     1
 90
        0
 40
-0.6
 41
-30.0
 62
     5
 63
     7
 74
     0
 91
        4
 64
     7
 65
   257
 75
     1
175
     1
 42
1.0
 92
        8
 66
     7
 43
1.0
 76
     1
 77
     6
 78
     2
 67
     7
 79
     5
170
     0
171
     0
290
     0
174
     0
 93
        1
 44
0.0
173
     0
291
     1
 45
0.0
1001
ACAD
1000
AcDbSavedByObjectVersion
1070
     0
  0
VISUALSTYLE
  5
17B
102
{ACAD_XDICTIONARY
360
1B8
102
}
102
{ACAD_REACTORS
330
2B
102
}
330
2B
100
AcDbVisualStyle
  2
Brighten
 70
    12
 71
     2
 72
     2
 73
     0
 90
        0
 40
-0.6
 41
-30.0
 62
     5
 63
     7
 74
     1
 91
        4
 64
     7
 65
   257
 75
     1
175
     1
 42
1.0
 92
        8
 66
     7
 43
1.0
 76
     1
 77
     6
 78
     2
 67
     7
 79
     5
170
     0
171
     0
290
     0
174
     0
 93
        1
 44
50.0
173
     0
291
     1
 45
0.0
1001
ACAD
1000
AcDbSavedByObjectVersion
1070
     0
  0
VISUALSTYLE
  5
17F
102
{ACAD_XDICTIONARY
360
1C0
102
}
102
{ACAD_REACTORS
330
2B
102
}
330
2B
100
AcDbVisualStyle
  2
ColorChange
 70
    16
 71
     2
 72
     2
 73
     3
 90
        0
 40
-0.6
 41
-30.0
 62
     5
 63
     8
 74
     1
 91
        4
 64
     7
 65
   257
 75
     1
175
     1
 42
1.0
 92
        8
 66
     8
 43
1.0
 76
     1
 77
     6
 78
     2
 67
     7
 79
     5
170
     0
171
     0
290
     0
174
     0
 93
        1
 44
0.0
173
     0
291
     1
 45
0.0
1001
ACAD
1000
AcDbSavedByObjectVersion
1070
     0
  0
VISUALSTYLE
  5
179
102
{ACAD_XDICTIONARY
360
1B4
102
}
102
{ACAD_REACTORS
330
2B
102
}
330
2B
100
AcDbVisualStyle
  2
Conceptual
 70
     9
 71
     3
 72
     2
 73
     0
 90
        0
 40
-0.6
 41
-30.0
 62
     5
 63
     7
 74
     2
 91
        2
 64
     7
 65
   257
 75
     1
175
     1
 42
179.0
 92
        8
 66
     7
 43
1.0
 76
     1
 77
     6
 78
     2
 67
     7
 79
     3
170
     0
171
     0
290
     0
174
     0
 93
        1
 44
0.0
173
     0
291
     0
 45
0.0
1001
ACAD
1000
AcDbSavedByObjectVersion
1070
     0
  0
VISUALSTYLE
  5
17A
102
{ACAD_XDICTIONARY
360
1B6
102
}
102
{ACAD_REACTORS
330
2B
102
}
330
2B
100
AcDbVisualStyle
  2
Dim
 70
    11
 71
     2
 72
     2
 73
     0
 90
        0
 40
-0.6
 41
-30.0
 62
     5
 63
     7
 74
     1
 91
        4
 64
     7
 65
   257
 75
     1
175
     1
 42
1.0
 92
        8
 66
     7
 43
1.0
 76
     1
 77
     6
 78
     2
 67
     7
 79
     5
170
     0
171
     0
290
     0
174
     0
 93
        1
 44
-50.0
173
     0
291
     1
 45
0.0
1001
ACAD
1000
AcDbSavedByObjectVersion
1070
     0
  0
VISUALSTYLE
  5
187
102
{ACAD_XDICTIONARY
360
1D0
102
}
102
{ACAD_REACTORS
330
2B
102
}
330
2B
100
AcDbVisualStyle
  2
EdgeColorOff
 70
    22
 71
     2
 72
     2
 73
     0
 90
        0
 40
-0.6
 41
-30.0
 62
     5
 63
     7
 74
     1
 91
        4
 64
     7
 65
   257
 75
     1
175
     1
 42
1.0
 92
        8
 66
     7
 43
1.0
 76
     1
 77
     6
 78
     2
 67
     7
 79
     5
170
     0
171
     0
290
     0
174
     0
 93
        1
 44
0.0
173
     0
291
     1
 45
0.0
1001
ACAD
1000
AcDbSavedByObjectVersion
1070
     0
  0
VISUALSTYLE
  5
17E
102
{ACAD_XDICTIONARY
360
1BE
102
}
102
{ACAD_REACTORS
330
2B
102
}
330
2B
100
AcDbVisualStyle
  2
Facepattern
 70
    15
 71
     2
 72
     2
 73
     0
 90
        0
 40
-0.6
 41
-30.0
 62
     5
 63
     7
 74
     1
 91
        4
 64
     7
 65
   257
 75
     1
175
     1
 42
1.0
 92
        8
 66
     7
 43
1.0
 76
     1
 77
     6
 78
     2
 67
     7
 79
     5
170
     0
171
     0
290
     0
174
     0
 93
        1
 44
0.0
173
     0
291
     1
 45
0.0
1001
ACAD
1000
AcDbSavedByObjectVersion
1070
     0
  0
VISUALSTYLE
  5
173
102
{ACAD_XDICTIONARY
360
1A8
102
}
102
{ACAD_REACTORS
330
2B
102
}
330
2B
100
AcDbVisualStyle
  2
Flat
 70
     0
 71
     2
 72
     1
 73
     1
 90
        2
 40
-0.6
 41
30.0
 62
     5
 63
     7
 74
     0
 91
        0
 64
     7
 65
   257
 75
     1
175
     1
 42
1.0
 92
        8
 66
     7
 43
1.0
 76
     1
 77
     6
 78
     2
 67
     7
 79
     5
170
     0
171
     0
290
     0
174
     0
 93
       13
 44
0.0
173
     0
291
     1
 45
0.0
1001
ACAD
1000
AcDbSavedByObjectVersion
1070
     0
  0
VISUALSTYLE
  5
174
102
{ACAD_XDICTIONARY
360
1AA
102
}
102
{ACAD_REACTORS
330
2B
102
}
330
2B
100
AcDbVisualStyle
  2
FlatWithEdges
 70
     1
 71
     2
 72
     1
 73
     1
 90
        2
 40
-0.6
 41
30.0
 62
     5
 63
     7
 74
     1
 91
        0
 64
     7
 65
   257
 75
     1
175
     1
 42
1.0
 92
        0
 66
   257
 43
1.0
 76
     1
 77
     6
 78
     2
 67
     7
 79
     5
170
     0
171
     0
290
     0
174
     0
 93
       13
 44
0.0
173
     0
291
     1
 45
0.0
1001
ACAD
1000
AcDbSavedByObjectVersion
1070
     0
  0
VISUALSTYLE
  5
175
102
{ACAD_XDICTIONARY
360
1AC
102
}
102
{ACAD_REACTORS
330
2B
102
}
330
2B
100
AcDbVisualStyle
  2
Gouraud
 70
     2
 71
     2
 72
     2
 73
     1
 90
        2
 40
-0.6
 41
30.0
 62
     5
 63
     7
 74
     0
 91
        0
 64
     7
 65
   257
 75
     1
175
     1
 42
1.0
 92
        0
 66
     7
 43
1.0
 76
     1
 77
     6
 78
     2
 67
     7
 79
     5
170
     0
171
     0
290
     0
174
     0
 93
       13
 44
0.0
173
     0
291
     1
 45
0.0
1001
ACAD
1000
AcDbSavedByObjectVersion
1070
     0
  0
VISUALSTYLE
  5
176
102
{ACAD_XDICTIONARY
360
1AE
102
}
102
{ACAD_REACTORS
330
2B
102
}
330
2B
100
AcDbVisualStyle
  2
GouraudWithEdges
 70
     3
 71
     2
 72
     2
 73
     1
 90
        2
 40
-0.6
 41
30.0
 62
     5
 63
     7
 74
     1
 91
        0
 64
     7
 65
   257
 75
     1
175
     1
 42
1.0
 92
        0
 66
   257
 43
1.0
 76
     1
 77
     6
 78
     2
 67
     7
 79
     5
170
     0
171
     0
290
     0
174
     0
 93
       13
 44
0.0
173
     0
291
     1
 45
0.0
1001
ACAD
1000
AcDbSavedByObjectVersion
1070
     0
  0
VISUALSTYLE
  5
178
102
{ACAD_XDICTIONARY
360
1B2
102
}
102
{ACAD_REACTORS
330
2B
102
}
330
2B
100
AcDbVisualStyle
  2
Hidden
 70
     6
 71
     1
 72
     2
 73
     2
 90
        0
 40
-0.6
 41
-30.0
 62
     5
 63
     7
 74
     2
 91
        2
 64
     7
 65
   257
 75
     2
175
     1
 42
40.0
 92
        0
 66
   257
 43
1.0
 76
     1
 77
     6
 78
     2
 67
     7
 79
     3
170
     0
171
     0
290
     0
174
     0
 93
        1
 44
0.0
173
     0
291
     0
 45
0.0
1001
ACAD
1000
AcDbSavedByObjectVersion
1070
     0
  0
VISUALSTYLE
  5
185
102
{ACAD_XDICTIONARY
360
1CC
102
}
102
{ACAD_REACTORS
330
2B
102
}
330
2B
100
AcDbVisualStyle
  2
JitterOff
 70
    20
 71
     2
 72
     2
 73
     0
 90
        0
 40
-0.6
 41
-30.0
 62
     5
 63
     7
 74
     1
 91
        4
 64
     7
 65
   257
 75
     1
175
     1
 42
1.0
 92
       10
 66
     7
 43
1.0
 76
     1
 77
     6
 78
     2
 67
     7
 79
     5
170
     0
171
     0
290
     0
174
     0
 93
        1
 44
0.0
173
     0
291
     1
 45
0.0
1001
ACAD
1000
AcDbSavedByObjectVersion
1070
     0
  0
VISUALSTYLE
  5
17D
102
{ACAD_XDICTIONARY
360
1BC
102
}
102
{ACAD_REACTORS
330
2B
102
}
330
2B
100
AcDbVisualStyle
  2
Linepattern
 70
    14
 71
     2
 72
     2
 73
     0
 90
        0
 40
-0.6
 41
-30.0
 62
     5
 63
     7
 74
     1
 91
        4
 64
     7
 65
   257
 75
     7
175
     7
 42
1.0
 92
        8
 66
     7
 43
1.0
 76
     1
 77
     6
 78
     2
 67
     7
 79
     5
170
     0
171
     0
290
     0
174
     0
 93
        1
 44
0.0
173
     0
291
     1
 45
0.0
1001
ACAD
1000
AcDbSavedByObjectVersion
1070
     0
  0
VISUALSTYLE
  5
186
102
{ACAD_XDICTIONARY
360
1CE
102
}
102
{ACAD_REACTORS
330
2B
102
}
330
2B
100
AcDbVisualStyle
  2
OverhangOff
 70
    21
 71
     2
 72
     2
 73
     0
 90
        0
 40
-0.6
 41
-30.0
 62
     5
 63
     7
 74
     1
 91
        4
 64
     7
 65
   257
 75
     1
175
     1
 42
1.0
 92
        9
 66
     7
 43
1.0
 76
     1
 77
     6
 78
     2
 67
     7
 79
     5
170
     0
171
     0
290
     0
174
     0
 93
        1
 44
0.0
173
     0
291
     1
 45
0.0
1001
ACAD
1000
AcDbSavedByObjectVersion
1070
     0
  0
VISUALSTYLE
  5
4B
102
{ACAD_XDICTIONARY
360
1A4
102
}
102
{ACAD_REACTORS
330
2B
102
}
330
2B
100
AcDbVisualStyle
  2
Realistic
 70
     8
 71
     2
 72
     2
 73
     0
 90
        0
 40
-0.6
 41
-30.0
 62
     5
 63
     7
 74
     1
 91
        0
 64
     7
 65
   257
 75
     1
175
     1
 42
1.0
 92
        8
 66
     8
 43
1.0
 76
     1
 77
     6
 78
     2
 67
     7
 79
     5
170
     0
171
     0
290
     0
174
     0
 93
       13
 44
0.0
173
     0
291
     0
 45
0.0
1001
ACAD
1000
AcDbSavedByObjectVersion
1070
     0
  0
VISUALSTYLE
  5
184
102
{ACAD_XDICTIONARY
360
1CA
102
}
102
{ACAD_REACTORS
330
2B
102
}
330
2B
100
AcDbVisualStyle
  2
Shaded
 70
    27
 71
     2
 72
     2
 73
     1
 90
        2
 40
-0.6
 41
30.0
 62
     5
 63
     7
 74
     0
 91
        4
 64
     7
 65
   257
 75
     1
175
     1
 42
1.0
 92
        8
 66
   257
 43
1.0
 76
     1
 77
     6
 78
     2
 67
     8
 79
     3
170
     0
171
     0
290
     0
174
     0
 93
        5
 44
0.0
173
     0
291
     0
 45
0.0
1001
ACAD
1000
AcDbSavedByObjectVersion
1070
     0
  0
VISUALSTYLE
  5
183
102
{ACAD_XDICTIONARY
360
1C8
102
}
102
{ACAD_REACTORS
330
2B
102
}
330
2B
100
AcDbVisualStyle
  2
Shaded with edges
 70
    26
 71
     2
 72
     2
 73
     1
 90
        2
 40
-0.6
 41
30.0
 62
     5
 63
     7
 74
     1
 91
       10
 64
     7
 65
   257
 75
     2
175
     1
 42
1.0
 92
        8
 66
   257
 43
1.0
 76
     1
 77
     6
 78
     2
 67
     7
 79
     3
170
     0
171
     0
290
     0
174
     0
 93
        5
 44
0.0
173
     0
291
     0
 45
0.0
1001
ACAD
1000
AcDbSavedByObjectVersion
1070
     0
  0
VISUALSTYLE
  5
180
102
{ACAD_XDICTIONARY
360
1C2
102
}
102
{ACAD_REACTORS
330
2B
102
}
330
2B
100
AcDbVisualStyle
  2
Shades of Gray
 70
    23
 71
     2
 72
     2
 73
     3
 90
        0
 40
-0.6
 41
-30.0
 62
     5
 63
     7
 74
     2
 91
        2
 64
     7
 65
     7
 75
     1
175
     1
 42
40.0
 92
        8
 66
     7
 43
1.0
 76
     1
 77
     6
 78
     2
 67
     7
 79
     3
170
     0
171
     0
290
     0
174
     0
 93
        1
 44
0.0
173
     0
291
     0
 45
0.0
1001
ACAD
1000
AcDbSavedByObjectVersion
1070
     0
  0
VISUALSTYLE
  5
181
102
{ACAD_XDICTIONARY
360
1C4
102
}
102
{ACAD_REACTORS
330
2B
102
}
330
2B
100
AcDbVisualStyle
  2
Sketchy
 70
    24
 71
     1
 72
     2
 73
     2
 90
        0
 40
-0.6
 41
-30.0
 62
     5
 63
     7
 74
     2
 91
        2
 64
     7
 65
     7
 75
     1
175
     1
 42
40.0
 92
       11
 66
     7
 43
1.0
 76
     1
 77
     6
 78
     2
 67
     7
 79
     6
170
     0
171
     0
290
     0
174
     0
 93
        1
 44
0.0
173
     0
291
     0
 45
0.0
1001
ACAD
1000
AcDbSavedByObjectVersion
1070
     0
  0
VISUALSTYLE
  5
17C
102
{ACAD_XDICTIONARY
360
1BA
102
}
102
{ACAD_REACTORS
330
2B
102
}
330
2B
100
AcDbVisualStyle
  2
Thicken
 70
    13
 71
     2
 72
     2
 73
     0
 90
        0
 40
-0.6
 41
-30.0
 62
     5
 63
     7
 74
     1
 91
        4
 64
     7
 65
   257
 75
     1
175
     1
 42
1.0
 92
       12
 66
     7
 43
1.0
 76
     1
 77
     6
 78
     2
 67
     7
 79
     5
170
     0
171
     0
290
     0
174
     0
 93
        1
 44
0.0
173
     0
291
     1
 45
0.0
1001
ACAD
1000
AcDbSavedByObjectVersion
1070
     0
  0
VISUALSTYLE
  5
4C
102
{ACAD_XDICTIONARY
360
1A6
102
}
102
{ACAD_REACTORS
330
2B
102
}
330
2B
100
AcDbVisualStyle
  2
Wireframe
 70
     5
 71
     0
 72
     2
 73
     0
 90
        0
 40
-0.6
 41
-30.0
 62
     5
 63
     7
 74
     1
 91
        4
 64
     7
 65
   257
 75
     1
175
     1
 42
1.0
 92
        0
 66
   257
 43
1.0
 76
     1
 77
     6
 78
     2
 67
     7
 79
     3
170
     0
171
     0
290
     0
174
     0
 93
        1
 44
0.0
173
     0
291
     0
 45
0.0
1001
ACAD
1000
AcDbSavedByObjectVersion
1070
     0
  0
VISUALSTYLE
  5
182
102
{ACAD_XDICTIONARY
360
1C6
102
}
102
{ACAD_REACTORS
330
2B
102
}
330
2B
100
AcDbVisualStyle
  2
X-Ray
 70
    25
 71
     2
 72
     2
 73
     1
 90
        1
 40
0.5
 41
-30.0
 62
     5
 63
     7
 74
     1
 91
        0
 64
     7
 65
   257
 75
     1
175
     1
 42
1.0
 92
        8
 66
     7
 43
1.0
 76
     1
 77
     6
 78
     2
 67
     7
 79
     3
170
     0
171
     0
290
     0
174
     0
 93
       13
 44
0.0
173
     0
291
     0
 45
0.0
1001
ACAD
1000
AcDbSavedByObjectVersion
1070
     0
  0
DICTIONARYVAR
  5
16E
102
{ACAD_REACTORS
330
16A
102
}
330
16A
100
DictionaryVariables
280
     0
  1
1:1
  0
DICTIONARYVAR
  5
16C
102
{ACAD_REACTORS
330
16A
102
}
330
16A
100
DictionaryVariables
280
     0
  1
STANDARD
  0
DICTIONARYVAR
  5
16B
102
{ACAD_REACTORS
330
16A
102
}
330
16A
100
DictionaryVariables
280
     0
  1
STANDARD
  0
DICTIONARYVAR
  5
191
102
{ACAD_REACTORS
330
16A
102
}
330
16A
100
DictionaryVariables
280
     0
  1
1
  0
DICTIONARYVAR
  5
190
102
{ACAD_REACTORS
330
16A
102
}
330
16A
100
DictionaryVariables
280
     0
  1
1
  0
DICTIONARYVAR
  5
18F
102
{ACAD_REACTORS
330
16A
102
}
330
16A
100
DictionaryVariables
280
     0
  1
0
  0
DICTIONARYVAR
  5
170
102
{ACAD_REACTORS
330
16A
102
}
330
16A
100
DictionaryVariables
280
     0
  1
1
  0
DICTIONARYVAR
  5
171
102
{ACAD_REACTORS
330
16A
102
}
330
16A
100
DictionaryVariables
280
     0
  1
15
  0
DICTIONARYVAR
  5
16F
102
{ACAD_REACTORS
330
16A
102
}
330
16A
100
DictionaryVariables
280
     0
  1
0
  0
DICTIONARYVAR
  5
16D
102
{ACAD_REACTORS
330
16A
102
}
330
16A
100
DictionaryVariables
280
     0
  1
0
  0
DICTIONARYVAR
  5
18E
102
{ACAD_REACTORS
330
16A
102
}
330
16A
100
DictionaryVariables
280
     0
  1
127
  0
DICTIONARYVAR
  5
192
102
{ACAD_REACTORS
330
16A
102
}
330
16A
100
DictionaryVariables
280
     0
  1
2
  0
DICTIONARY
  5
19D
330
1A
100
AcDbDictionary
280
     1
281
     1
  3
ACAD_XREC_ROUNDTRIP
360
19E
  0
DICTIONARY
  5
19B
330
15
100
AcDbDictionary
280
     1
281
     1
  3
ACAD_XREC_ROUNDTRIP
360
19C
  0
DICTIONARY
  5
3D
330
3C
100
AcDbDictionary
280
     1
281
     1
  3
ACAD_XREC_ROUNDTRIP
360
1A2
  3
BUMPTILE
360
3E
  3
DIFFUSETILE
360
3F
  3
OPACITYTILE
360
40
  3
REFLECTIONTILE
360
41
  3
REFRACTIONTILE
360
42
  3
SPECULARTILE
360
43
  0
DICTIONARY
  5
35
330
34
100
AcDbDictionary
280
     1
281
     1
  3
ACAD_XREC_ROUNDTRIP
360
1A1
  3
BUMPTILE
360
36
  3
DIFFUSETILE
360
37
  3
OPACITYTILE
360
38
  3
REFLECTIONTILE
360
39
  3
REFRACTIONTILE
360
3A
  3
SPECULARTILE
360
3B
  0
DICTIONARY
  5
C
330
A
100
AcDbDictionary
280
     1
281
     1
  3
ACAD_XREC_ROUNDTRIP
360
19A
  3
BUMPTILE
360
D
  3
DIFFUSETILE
360
E
  3
OPACITYTILE
360
F
  3
REFLECTIONTILE
360
10
  3
REFRACTIONTILE
360
11
  3
SPECULARTILE
360
12
  0
DICTIONARY
  5
4A
330
49
100
AcDbDictionary
280
     1
281
     1
  3
ACAD_ROUNDTRIP_2008_TABLESTYLE_CELLSTYLEMAP
360
193
  3
ACAD_XREC_ROUNDTRIP
360
1A3
  0
DICTIONARY
  5
19F
330
2A
100
AcDbDictionary
280
     1
281
     1
  3
ACAD_XREC_ROUNDTRIP
360
1A0
  0
DICTIONARY
  5
1B0
330
177
100
AcDbDictionary
280
     1
281
     1
  3
ACAD_XREC_ROUNDTRIP
360
1B1
  0
DICTIONARY
  5
1B8
330
17B
100
AcDbDictionary
280
     1
281
     1
  3
ACAD_XREC_ROUNDTRIP
360
1B9
  0
DICTIONARY
  5
1C0
330
17F
100
AcDbDictionary
280
     1
281
     1
  3
ACAD_XREC_ROUNDTRIP
360
1C1
  0
DICTIONARY
  5
1B4
330
179
100
AcDbDictionary
280
     1
281
     1
  3
ACAD_XREC_ROUNDTRIP
360
1B5
  0
DICTIONARY
  5
1B6
330
17A
100
AcDbDictionary
280
     1
281
     1
  3
ACAD_XREC_ROUNDTRIP
360
1B7
  0
DICTIONARY
  5
1D0
330
187
100
AcDbDictionary
280
     1
281
     1
  3
ACAD_XREC_ROUNDTRIP
360
1D1
  0
DICTIONARY
  5
1BE
330
17E
100
AcDbDictionary
280
     1
281
     1
  3
ACAD_XREC_ROUNDTRIP
360
1BF
  0
DICTIONARY
  5
1A8
330
173
100
AcDbDictionary
280
     1
281
     1
  3
ACAD_XREC_ROUNDTRIP
360
1A9
  0
DICTIONARY
  5
1AA
330
174
100
AcDbDictionary
280
     1
281
     1
  3
ACAD_XREC_ROUNDTRIP
360
1AB
  0
DICTIONARY
  5
1AC
330
175
100
AcDbDictionary
280
     1
281
     1
  3
ACAD_XREC_ROUNDTRIP
360
1AD
  0
DICTIONARY
  5
1AE
330
176
100
AcDbDictionary
280
     1
281
     1
  3
ACAD_XREC_ROUNDTRIP
360
1AF
  0
DICTIONARY
  5
1B2
330
178
100
AcDbDictionary
280
     1
281
     1
  3
ACAD_XREC_ROUNDTRIP
360
1B3
  0
DICTIONARY
  5
1CC
330
185
100
AcDbDictionary
280
     1
281
     1
  3
ACAD_XREC_ROUNDTRIP
360
1CD
  0
DICTIONARY
  5
1BC
330
17D
100
AcDbDictionary
280
     1
281
     1
  3
ACAD_XREC_ROUNDTRIP
360
1BD
  0
DICTIONARY
  5
1CE
330
186
100
AcDbDictionary
280
     1
281
     1
  3
ACAD_XREC_ROUNDTRIP
360
1CF
  0
DICTIONARY
  5
1A4
330
4B
100
AcDbDictionary
280
     1
281
     1
  3
ACAD_XREC_ROUNDTRIP
360
1A5
  0
DICTIONARY
  5
1CA
330
184
100
AcDbDictionary
280
     1
281
     1
  3
ACAD_XREC_ROUNDTRIP
360
1CB
  0
DICTIONARY
  5
1C8
330
183
100
AcDbDictionary
280
     1
281
     1
  3
ACAD_XREC_ROUNDTRIP
360
1C9
  0
DICTIONARY
  5
1C2
330
180
100
AcDbDictionary
280
     1
281
     1
  3
ACAD_XREC_ROUNDTRIP
360
1C3
  0
DICTIONARY
  5
1C4
330
181
100
AcDbDictionary
280
     1
281
     1
  3
ACAD_XREC_ROUNDTRIP
360
1C5
  0
DICTIONARY
  5
1BA
330
17C
100
AcDbDictionary
280
     1
281
     1
  3
ACAD_XREC_ROUNDTRIP
360
1BB
  0
DICTIONARY
  5
1A6
330
4C
100
AcDbDictionary
280
     1
281
     1
  3
ACAD_XREC_ROUNDTRIP
360
1A7
  0
DICTIONARY
  5
1C6
330
182
100
AcDbDictionary
280
     1
281
     1
  3
ACAD_XREC_ROUNDTRIP
360
1C7
  0
XRECORD
  5
19E
102
{ACAD_REACTORS
330
19D
102
}
330
19D
100
AcDbXrecord
280
     1
102
SHADEPLOT
 70
     0
102
SHADEPLOTRESLEVEL
 70
     2
102
SHADEPLOTCUSTOMDPI
 70
   300
  0
XRECORD
  5
19C
102
{ACAD_REACTORS
330
19B
102
}
330
19B
100
AcDbXrecord
280
     1
102
SHADEPLOT
 70
     0
102
SHADEPLOTRESLEVEL
 70
     2
102
SHADEPLOTCUSTOMDPI
 70
   300
  0
XRECORD
  5
1A2
102
{ACAD_REACTORS
330
3D
102
}
330
3D
100
AcDbXrecord
280
     1
102
MATERIAL
148
0.0
149
0.0
149
0.0
 93
        0
 94
      127
282
     0
 72
     0
 77
     0
171
     0
175
     0
179
     0
273
     0
  0
XRECORD
  5
3E
102
{ACAD_REACTORS
330
3D
102
}
330
3D
100
AcDbXrecord
280
     1
270
     1
271
     1
  0
XRECORD
  5
3F
102
{ACAD_REACTORS
330
3D
102
}
330
3D
100
AcDbXrecord
280
     1
270
     1
271
     1
  0
XRECORD
  5
40
102
{ACAD_REACTORS
330
3D
102
}
330
3D
100
AcDbXrecord
280
     1
270
     1
271
     1
  0
XRECORD
  5
41
102
{ACAD_REACTORS
330
3D
102
}
330
3D
100
AcDbXrecord
280
     1
270
     1
271
     1
  0
XRECORD
  5
42
102
{ACAD_REACTORS
330
3D
102
}
330
3D
100
AcDbXrecord
280
     1
270
     1
271
     1
  0
XRECORD
  5
43
102
{ACAD_REACTORS
330
3D
102
}
330
3D
100
AcDbXrecord
280
     1
270
     1
271
     1
  0
XRECORD
  5
1A1
102
{ACAD_REACTORS
330
35
102
}
330
35
100
AcDbXrecord
280
     1
102
MATERIAL
148
0.0
149
0.0
149
0.0
 93
        0
 94
      127
282
     0
 72
     0
 77
     0
171
     0
175
     0
179
     0
273
     0
  0
XRECORD
  5
36
102
{ACAD_REACTORS
330
35
102
}
330
35
100
AcDbXrecord
280
     1
270
     1
271
     1
  0
XRECORD
  5
37
102
{ACAD_REACTORS
330
35
102
}
330
35
100
AcDbXrecord
280
     1
270
     1
271
     1
  0
XRECORD
  5
38
102
{ACAD_REACTORS
330
35
102
}
330
35
100
AcDbXrecord
280
     1
270
     1
271
     1
  0
XRECORD
  5
39
102
{ACAD_REACTORS
330
35
102
}
330
35
100
AcDbXrecord
280
     1
270
     1
271
     1
  0
XRECORD
  5
3A
102
{ACAD_REACTORS
330
35
102
}
330
35
100
AcDbXrecord
280
     1
270
     1
271
     1
  0
XRECORD
  5
3B
102
{ACAD_REACTORS
330
35
102
}
330
35
100
AcDbXrecord
280
     1
270
     1
271
     1
  0
XRECORD
  5
19A
102
{ACAD_REACTORS
330
C
102
}
330
C
100
AcDbXrecord
280
     1
102
MATERIAL
148
0.0
149
0.0
149
0.0
 93
        0
 94
      127
282
     0
 72
     0
 77
     0
171
     0
175
     0
179
     0
273
     0
  0
XRECORD
  5
D
102
{ACAD_REACTORS
330
C
102
}
330
C
100
AcDbXrecord
280
     1
270
     1
271
     1
  0
XRECORD
  5
E
102
{ACAD_REACTORS
330
C
102
}
330
C
100
AcDbXrecord
280
     1
270
     1
271
     1
  0
XRECORD
  5
F
102
{ACAD_REACTORS
330
C
102
}
330
C
100
AcDbXrecord
280
     1
270
     1
271
     1
  0
XRECORD
  5
10
102
{ACAD_REACTORS
330
C
102
}
330
C
100
AcDbXrecord
280
     1
270
     1
271
     1
  0
XRECORD
  5
11
102
{ACAD_REACTORS
330
C
102
}
330
C
100
AcDbXrecord
280
     1
270
     1
271
     1
  0
XRECORD
  5
12
102
{ACAD_REACTORS
330
C
102
}
330
C
100
AcDbXrecord
280
     1
270
     1
271
     1
  0
CELLSTYLEMAP
  5
193
102
{ACAD_REACTORS
330
4A
102
}
330
4A
100
AcDbCellStyleMap
 90
        3
300
CELLSTYLE
  1
TABLEFORMAT_BEGIN
 90
        5
170
     1
 91
        0
 92
    32768
 62
   257
 93
        1
300
CONTENTFORMAT
  1
CONTENTFORMAT_BEGIN
 90
        0
 91
        0
 92
      512
 93
        0
300

 40
0.0
140
1.0
 94
        5
 62
     0
340
21
144
0.25
309
CONTENTFORMAT_END
171
     0
 94
        0
309
TABLEFORMAT_END
  1
CELLSTYLE_BEGIN
 90
        1
 91
        1
300
_TITLE
309
CELLSTYLE_END
300
CELLSTYLE
  1
TABLEFORMAT_BEGIN
 90
        5
170
     1
 91
        0
 92
        0
 62
   257
 93
        1
300
CONTENTFORMAT
  1
CONTENTFORMAT_BEGIN
 90
        0
 91
        0
 92
      512
 93
        0
300

 40
0.0
140
1.0
 94
        5
 62
     0
340
21
144
0.18
309
CONTENTFORMAT_END
171
     0
 94
        0
309
TABLEFORMAT_END
  1
CELLSTYLE_BEGIN
 90
        2
 91
        1
300
_HEADER
309
CELLSTYLE_END
300
CELLSTYLE
  1
TABLEFORMAT_BEGIN
 90
        5
170
     1
 91
        0
 92
        0
 62
   257
 93
        1
300
CONTENTFORMAT
  1
CONTENTFORMAT_BEGIN
 90
        0
 91
        0
 92
      512
 93
        0
300

 40
0.0
140
1.0
 94
        2
 62
     0
340
21
144
0.18
309
CONTENTFORMAT_END
171
     0
 94
        0
309
TABLEFORMAT_END
  1
CELLSTYLE_BEGIN
 90
        3
 91
        2
300
_DATA
309
CELLSTYLE_END
  0
XRECORD
  5
1A3
102
{ACAD_REACTORS
330
4A
102
}
330
4A
100
AcDbXrecord
280
     1
102
ACAD_ROUNDTRIP_PRE2007_TABLESTYLE
 90
      512
 91
        0
  1

 92
      512
 93
        0
  2

 94
      512
 95
        0
  3

  0
XRECORD
  5
1A0
102
{ACAD_REACTORS
330
19F
102
}
330
19F
100
AcDbXrecord
280
     1
102
RTVSPropertyOp0
 70
     1
102
RTVSPropertyOp1
 70
     1
102
RTVSPropertyOp2
 70
     1
102
RTVSPropertyOp3
 70
     1
102
RTVSPropertyOp4
 70
     1
102
RTVSPropertyOp5
 70
     1
102
RTVSPropertyOp6
 70
     1
102
RTVSPropertyOp7
 70
     1
102
RTVSPropertyOp8
 70
     1
102
RTVSPropertyOp9
 70
     1
102
RTVSPropertyOp10
 70
     1
102
RTVSPropertyOp11
 70
     1
102
RTVSPropertyOp12
 70
     1
102
RTVSPropertyOp13
 70
     1
102
RTVSPropertyOp14
 70
     1
102
RTVSPropertyOp15
 70
     1
102
RTVSPropertyOp16
 70
     1
102
RTVSPropertyOp17
 70
     1
102
RTVSPropertyOp18
 70
     1
102
RTVSPropertyOp19
 70
     1
102
RTVSPropertyOp20
 70
     1
102
RTVSPropertyOp21
 70
     1
102
RTVSPropertyOp22
 70
     1
102
RTVSPropertyOp23
 70
     1
102
RTVSPropertyOp24
 70
     1
102
RTVSPropertyOp25
 70
     1
102
RTVSPropertyOp26
 70
     1
102
RTVSPropertyOp27
 70
     1
102
RTVSPropertyOp28
 70
     1
102
RTVSPropertyOp29
 70
     1
102
RTVSPropertyOp30
 70
     1
102
RTVSPropertyOp31
 70
     1
102
RTVSPropertyOp32
 70
     1
  0
XRECORD
  5
1B1
102
{ACAD_REACTORS
330
1B0
102
}
330
1B0
100
AcDbXrecord
280
     1
102
RTVSPropertyOp0
 70
     1
102
RTVSPropertyOp1
 70
     1
102
RTVSPropertyOp2
 70
     1
102
RTVSPropertyOp3
 70
     1
102
RTVSPropertyOp4
 70
     1
102
RTVSPropertyOp5
 70
     1
102
RTVSPropertyOp6
 70
     1
102
RTVSPropertyOp7
 70
     1
102
RTVSPropertyOp8
 70
     1
102
RTVSPropertyOp9
 70
     1
102
RTVSPropertyOp10
 70
     1
102
RTVSPropertyOp11
 70
     1
102
RTVSPropertyOp12
 70
     1
102
RTVSPropertyOp13
 70
     1
102
RTVSPropertyOp14
 70
     1
102
RTVSPropertyOp15
 70
     1
102
RTVSPropertyOp16
 70
     1
102
RTVSPropertyOp17
 70
     1
102
RTVSPropertyOp18
 70
     1
102
RTVSPropertyOp19
 70
     1
102
RTVSPropertyOp20
 70
     1
102
RTVSPropertyOp21
 70
     1
102
RTVSPropertyOp22
 70
     1
102
RTVSPropertyOp23
 70
     1
102
RTVSPropertyOp24
 70
     1
102
RTVSPropertyOp25
 70
     1
102
RTVSPropertyOp26
 70
     1
102
RTVSPropertyOp27
 70
     1
102
RTVSPropertyOp28
 70
     1
102
RTVSPropertyOp29
 70
     1
102
RTVSPropertyOp30
 70
     1
102
RTVSPropertyOp31
 70
     1
102
RTVSPropertyOp32
 70
     1
  0
XRECORD
  5
1B9
102
{ACAD_REACTORS
330
1B8
102
}
330
1B8
100
AcDbXrecord
280
     1
102
RTVSPropertyOp0
 70
     1
102
RTVSPropertyOp1
 70
     1
102
RTVSPropertyOp2
 70
     1
102
RTVSPropertyOp3
 70
     1
102
RTVSPropertyOp4
 70
     1
102
RTVSPropertyOp5
 70
     1
102
RTVSPropertyOp6
 70
     1
102
RTVSPropertyOp7
 70
     1
102
RTVSPropertyOp8
 70
     1
102
RTVSPropertyOp9
 70
     1
102
RTVSPropertyOp10
 70
     1
102
RTVSPropertyOp11
 70
     1
102
RTVSPropertyOp12
 70
     1
102
RTVSPropertyOp13
 70
     1
102
RTVSPropertyOp14
 70
     1
102
RTVSPropertyOp15
 70
     1
102
RTVSPropertyOp16
 70
     1
102
RTVSPropertyOp17
 70
     1
102
RTVSPropertyOp18
 70
     1
102
RTVSPropertyOp19
 70
     1
102
RTVSPropertyOp20
 70
     1
102
RTVSPropertyOp21
 70
     1
102
RTVSPropertyOp22
 70
     1
102
RTVSPropertyOp23
 70
     1
102
RTVSPropertyOp24
 70
     1
102
RTVSPropertyOp25
 70
     1
102
RTVSPropertyOp26
 70
     1
102
RTVSPropertyOp27
 70
     1
102
RTVSPropertyOp28
 70
     1
102
RTVSPropertyOp29
 70
     1
102
RTVSPropertyOp30
 70
     1
102
RTVSPropertyOp31
 70
     1
102
RTVSPropertyOp32
 70
     1
  0
XRECORD
  5
1C1
102
{ACAD_REACTORS
330
1C0
102
}
330
1C0
100
AcDbXrecord
280
     1
102
RTVSPropertyOp0
 70
     1
102
RTVSPropertyOp1
 70
     1
102
RTVSPropertyOp2
 70
     1
102
RTVSPropertyOp3
 70
     1
102
RTVSPropertyOp4
 70
     1
102
RTVSPropertyOp5
 70
     1
102
RTVSPropertyOp6
 70
     1
102
RTVSPropertyOp7
 70
     1
102
RTVSPropertyOp8
 70
     1
102
RTVSPropertyOp9
 70
     1
102
RTVSPropertyOp10
 70
     1
102
RTVSPropertyOp11
 70
     1
102
RTVSPropertyOp12
 70
     1
102
RTVSPropertyOp13
 70
     1
102
RTVSPropertyOp14
 70
     1
102
RTVSPropertyOp15
 70
     1
102
RTVSPropertyOp16
 70
     1
102
RTVSPropertyOp17
 70
     1
102
RTVSPropertyOp18
 70
     1
102
RTVSPropertyOp19
 70
     1
102
RTVSPropertyOp20
 70
     1
102
RTVSPropertyOp21
 70
     1
102
RTVSPropertyOp22
 70
     1
102
RTVSPropertyOp23
 70
     1
102
RTVSPropertyOp24
 70
     1
102
RTVSPropertyOp25
 70
     1
102
RTVSPropertyOp26
 70
     1
102
RTVSPropertyOp27
 70
     1
102
RTVSPropertyOp28
 70
     1
102
RTVSPropertyOp29
 70
     1
102
RTVSPropertyOp30
 70
     1
102
RTVSPropertyOp31
 70
     1
102
RTVSPropertyOp32
 70
     1
  0
XRECORD
  5
1B5
102
{ACAD_REACTORS
330
1B4
102
}
330
1B4
100
AcDbXrecord
280
     1
102
RTVSPropertyOp0
 70
     1
102
RTVSPropertyOp1
 70
     1
102
RTVSPropertyOp2
 70
     1
102
RTVSPropertyOp3
 70
     1
102
RTVSPropertyOp4
 70
     1
102
RTVSPropertyOp5
 70
     1
102
RTVSPropertyOp6
 70
     1
102
RTVSPropertyOp7
 70
     1
102
RTVSPropertyOp8
 70
     1
102
RTVSPropertyOp9
 70
     1
102
RTVSPropertyOp10
 70
     1
102
RTVSPropertyOp11
 70
     1
102
RTVSPropertyOp12
 70
     1
102
RTVSPropertyOp13
 70
     1
102
RTVSPropertyOp14
 70
     1
102
RTVSPropertyOp15
 70
     1
102
RTVSPropertyOp16
 70
     1
102
RTVSPropertyOp17
 70
     1
102
RTVSPropertyOp18
 70
     1
102
RTVSPropertyOp19
 70
     1
102
RTVSPropertyOp20
 70
     1
102
RTVSPropertyOp21
 70
     1
102
RTVSPropertyOp22
 70
     1
102
RTVSPropertyOp23
 70
     1
102
RTVSPropertyOp24
 70
     1
102
RTVSPropertyOp25
 70
     1
102
RTVSPropertyOp26
 70
     1
102
RTVSPropertyOp27
 70
     1
102
RTVSPropertyOp28
 70
     1
102
RTVSPropertyOp29
 70
     1
102
RTVSPropertyOp30
 70
     1
102
RTVSPropertyOp31
 70
     1
102
RTVSPropertyOp32
 70
     1
  0
XRECORD
  5
1B7
102
{ACAD_REACTORS
330
1B6
102
}
330
1B6
100
AcDbXrecord
280
     1
102
RTVSPropertyOp0
 70
     1
102
RTVSPropertyOp1
 70
     1
102
RTVSPropertyOp2
 70
     1
102
RTVSPropertyOp3
 70
     1
102
RTVSPropertyOp4
 70
     1
102
RTVSPropertyOp5
 70
     1
102
RTVSPropertyOp6
 70
     1
102
RTVSPropertyOp7
 70
     1
102
RTVSPropertyOp8
 70
     1
102
RTVSPropertyOp9
 70
     1
102
RTVSPropertyOp10
 70
     1
102
RTVSPropertyOp11
 70
     1
102
RTVSPropertyOp12
 70
     1
102
RTVSPropertyOp13
 70
     1
102
RTVSPropertyOp14
 70
     1
102
RTVSPropertyOp15
 70
     1
102
RTVSPropertyOp16
 70
     1
102
RTVSPropertyOp17
 70
     1
102
RTVSPropertyOp18
 70
     1
102
RTVSPropertyOp19
 70
     1
102
RTVSPropertyOp20
 70
     1
102
RTVSPropertyOp21
 70
     1
102
RTVSPropertyOp22
 70
     1
102
RTVSPropertyOp23
 70
     1
102
RTVSPropertyOp24
 70
     1
102
RTVSPropertyOp25
 70
     1
102
RTVSPropertyOp26
 70
     1
102
RTVSPropertyOp27
 70
     1
102
RTVSPropertyOp28
 70
     1
102
RTVSPropertyOp29
 70
     1
102
RTVSPropertyOp30
 70
     1
102
RTVSPropertyOp31
 70
     1
102
RTVSPropertyOp32
 70
     1
  0
XRECORD
  5
1D1
102
{ACAD_REACTORS
330
1D0
102
}
330
1D0
100
AcDbXrecord
280
     1
102
RTVSPropertyOp0
 70
     0
102
RTVSPropertyOp1
 70
     0
102
RTVSPropertyOp2
 70
     0
102
RTVSPropertyOp3
 70
     0
102
RTVSPropertyOp4
 70
     0
102
RTVSPropertyOp5
 70
     0
102
RTVSPropertyOp6
 70
     0
102
RTVSPropertyOp7
 70
     0
102
RTVSPropertyOp8
 70
     0
102
RTVSPropertyOp9
 70
     0
102
RTVSPropertyOp10
 70
     0
102
RTVSPropertyOp11
 70
     0
102
RTVSPropertyOp12
 70
     0
102
RTVSPropertyOp13
 70
     0
102
RTVSPropertyOp14
 70
     2
102
RTVSPropertyOp15
 70
     0
102
RTVSPropertyOp16
 70
     0
102
RTVSPropertyOp17
 70
     0
102
RTVSPropertyOp18
 70
     0
102
RTVSPropertyOp19
 70
     0
102
RTVSPropertyOp20
 70
     0
102
RTVSPropertyOp21
 70
     0
102
RTVSPropertyOp22
 70
     0
102
RTVSPropertyOp23
 70
     0
102
RTVSPropertyOp24
 70
     0
102
RTVSPropertyOp25
 70
     0
102
RTVSPropertyOp26
 70
     0
102
RTVSPropertyOp27
 70
     0
102
RTVSPropertyOp28
 70
     0
102
RTVSPropertyOp29
 70
     0
102
RTVSPropertyOp30
 70
     0
102
RTVSPropertyOp31
 70
     0
102
RTVSPropertyOp32
 70
     0
  0
XRECORD
  5
1BF
102
{ACAD_REACTORS
330
1BE
102
}
330
1BE
100
AcDbXrecord
280
     1
102
RTVSPropertyOp0
 70
     1
102
RTVSPropertyOp1
 70
     1
102
RTVSPropertyOp2
 70
     1
102
RTVSPropertyOp3
 70
     1
102
RTVSPropertyOp4
 70
     1
102
RTVSPropertyOp5
 70
     1
102
RTVSPropertyOp6
 70
     1
102
RTVSPropertyOp7
 70
     1
102
RTVSPropertyOp8
 70
     1
102
RTVSPropertyOp9
 70
     1
102
RTVSPropertyOp10
 70
     1
102
RTVSPropertyOp11
 70
     1
102
RTVSPropertyOp12
 70
     1
102
RTVSPropertyOp13
 70
     1
102
RTVSPropertyOp14
 70
     1
102
RTVSPropertyOp15
 70
     1
102
RTVSPropertyOp16
 70
     1
102
RTVSPropertyOp17
 70
     1
102
RTVSPropertyOp18
 70
     1
102
RTVSPropertyOp19
 70
     1
102
RTVSPropertyOp20
 70
     1
102
RTVSPropertyOp21
 70
     1
102
RTVSPropertyOp22
 70
     1
102
RTVSPropertyOp23
 70
     1
102
RTVSPropertyOp24
 70
     1
102
RTVSPropertyOp25
 70
     1
102
RTVSPropertyOp26
 70
     1
102
RTVSPropertyOp27
 70
     1
102
RTVSPropertyOp28
 70
     1
102
RTVSPropertyOp29
 70
     1
102
RTVSPropertyOp30
 70
     1
102
RTVSPropertyOp31
 70
     1
102
RTVSPropertyOp32
 70
     1
  0
XRECORD
  5
1A9
102
{ACAD_REACTORS
330
1A8
102
}
330
1A8
100
AcDbXrecord
280
     1
102
RTVSPropertyOp0
 70
     1
102
RTVSPropertyOp1
 70
     1
102
RTVSPropertyOp2
 70
     1
102
RTVSPropertyOp3
 70
     1
102
RTVSPropertyOp4
 70
     1
102
RTVSPropertyOp5
 70
     1
102
RTVSPropertyOp6
 70
     1
102
RTVSPropertyOp7
 70
     1
102
RTVSPropertyOp8
 70
     1
102
RTVSPropertyOp9
 70
     1
102
RTVSPropertyOp10
 70
     1
102
RTVSPropertyOp11
 70
     1
102
RTVSPropertyOp12
 70
     1
102
RTVSPropertyOp13
 70
     1
102
RTVSPropertyOp14
 70
     1
102
RTVSPropertyOp15
 70
     1
102
RTVSPropertyOp16
 70
     1
102
RTVSPropertyOp17
 70
     1
102
RTVSPropertyOp18
 70
     1
102
RTVSPropertyOp19
 70
     1
102
RTVSPropertyOp20
 70
     1
102
RTVSPropertyOp21
 70
     1
102
RTVSPropertyOp22
 70
     1
102
RTVSPropertyOp23
 70
     1
102
RTVSPropertyOp24
 70
     1
102
RTVSPropertyOp25
 70
     1
102
RTVSPropertyOp26
 70
     1
102
RTVSPropertyOp27
 70
     1
102
RTVSPropertyOp28
 70
     1
102
RTVSPropertyOp29
 70
     1
102
RTVSPropertyOp30
 70
     1
102
RTVSPropertyOp31
 70
     1
102
RTVSPropertyOp32
 70
     1
  0
XRECORD
  5
1AB
102
{ACAD_REACTORS
330
1AA
102
}
330
1AA
100
AcDbXrecord
280
     1
102
RTVSPropertyOp0
 70
     1
102
RTVSPropertyOp1
 70
     1
102
RTVSPropertyOp2
 70
     1
102
RTVSPropertyOp3
 70
     1
102
RTVSPropertyOp4
 70
     1
102
RTVSPropertyOp5
 70
     1
102
RTVSPropertyOp6
 70
     1
102
RTVSPropertyOp7
 70
     1
102
RTVSPropertyOp8
 70
     1
102
RTVSPropertyOp9
 70
     1
102
RTVSPropertyOp10
 70
     1
102
RTVSPropertyOp11
 70
     1
102
RTVSPropertyOp12
 70
     1
102
RTVSPropertyOp13
 70
     1
102
RTVSPropertyOp14
 70
     1
102
RTVSPropertyOp15
 70
     1
102
RTVSPropertyOp16
 70
     1
102
RTVSPropertyOp17
 70
     1
102
RTVSPropertyOp18
 70
     1
102
RTVSPropertyOp19
 70
     1
102
RTVSPropertyOp20
 70
     1
102
RTVSPropertyOp21
 70
     1
102
RTVSPropertyOp22
 70
     1
102
RTVSPropertyOp23
 70
     1
102
RTVSPropertyOp24
 70
     1
102
RTVSPropertyOp25
 70
     1
102
RTVSPropertyOp26
 70
     1
102
RTVSPropertyOp27
 70
     1
102
RTVSPropertyOp28
 70
     1
102
RTVSPropertyOp29
 70
     1
102
RTVSPropertyOp30
 70
     1
102
RTVSPropertyOp31
 70
     1
102
RTVSPropertyOp32
 70
     1
  0
XRECORD
  5
1AD
102
{ACAD_REACTORS
330
1AC
102
}
330
1AC
100
AcDbXrecord
280
     1
102
RTVSPropertyOp0
 70
     1
102
RTVSPropertyOp1
 70
     1
102
RTVSPropertyOp2
 70
     1
102
RTVSPropertyOp3
 70
     1
102
RTVSPropertyOp4
 70
     1
102
RTVSPropertyOp5
 70
     1
102
RTVSPropertyOp6
 70
     1
102
RTVSPropertyOp7
 70
     1
102
RTVSPropertyOp8
 70
     1
102
RTVSPropertyOp9
 70
     1
102
RTVSPropertyOp10
 70
     1
102
RTVSPropertyOp11
 70
     1
102
RTVSPropertyOp12
 70
     1
102
RTVSPropertyOp13
 70
     1
102
RTVSPropertyOp14
 70
     1
102
RTVSPropertyOp15
 70
     1
102
RTVSPropertyOp16
 70
     1
102
RTVSPropertyOp17
 70
     1
102
RTVSPropertyOp18
 70
     1
102
RTVSPropertyOp19
 70
     1
102
RTVSPropertyOp20
 70
     1
102
RTVSPropertyOp21
 70
     1
102
RTVSPropertyOp22
 70
     1
102
RTVSPropertyOp23
 70
     1
102
RTVSPropertyOp24
 70
     1
102
RTVSPropertyOp25
 70
     1
102
RTVSPropertyOp26
 70
     1
102
RTVSPropertyOp27
 70
     1
102
RTVSPropertyOp28
 70
     1
102
RTVSPropertyOp29
 70
     1
102
RTVSPropertyOp30
 70
     1
102
RTVSPropertyOp31
 70
     1
102
RTVSPropertyOp32
 70
     1
  0
XRECORD
  5
1AF
102
{ACAD_REACTORS
330
1AE
102
}
330
1AE
100
AcDbXrecord
280
     1
102
RTVSPropertyOp0
 70
     1
102
RTVSPropertyOp1
 70
     1
102
RTVSPropertyOp2
 70
     1
102
RTVSPropertyOp3
 70
     1
102
RTVSPropertyOp4
 70
     1
102
RTVSPropertyOp5
 70
     1
102
RTVSPropertyOp6
 70
     1
102
RTVSPropertyOp7
 70
     1
102
RTVSPropertyOp8
 70
     1
102
RTVSPropertyOp9
 70
     1
102
RTVSPropertyOp10
 70
     1
102
RTVSPropertyOp11
 70
     1
102
RTVSPropertyOp12
 70
     1
102
RTVSPropertyOp13
 70
     1
102
RTVSPropertyOp14
 70
     1
102
RTVSPropertyOp15
 70
     1
102
RTVSPropertyOp16
 70
     1
102
RTVSPropertyOp17
 70
     1
102
RTVSPropertyOp18
 70
     1
102
RTVSPropertyOp19
 70
     1
102
RTVSPropertyOp20
 70
     1
102
RTVSPropertyOp21
 70
     1
102
RTVSPropertyOp22
 70
     1
102
RTVSPropertyOp23
 70
     1
102
RTVSPropertyOp24
 70
     1
102
RTVSPropertyOp25
 70
     1
102
RTVSPropertyOp26
 70
     1
102
RTVSPropertyOp27
 70
     1
102
RTVSPropertyOp28
 70
     1
102
RTVSPropertyOp29
 70
     1
102
RTVSPropertyOp30
 70
     1
102
RTVSPropertyOp31
 70
     1
102
RTVSPropertyOp32
 70
     1
  0
XRECORD
  5
1B3
102
{ACAD_REACTORS
330
1B2
102
}
330
1B2
100
AcDbXrecord
280
     1
102
RTVSPropertyOp0
 70
     1
102
RTVSPropertyOp1
 70
     1
102
RTVSPropertyOp2
 70
     1
102
RTVSPropertyOp3
 70
     1
102
RTVSPropertyOp4
 70
     1
102
RTVSPropertyOp5
 70
     1
102
RTVSPropertyOp6
 70
     1
102
RTVSPropertyOp7
 70
     1
102
RTVSPropertyOp8
 70
     1
102
RTVSPropertyOp9
 70
     1
102
RTVSPropertyOp10
 70
     1
102
RTVSPropertyOp11
 70
     1
102
RTVSPropertyOp12
 70
     1
102
RTVSPropertyOp13
 70
     1
102
RTVSPropertyOp14
 70
     1
102
RTVSPropertyOp15
 70
     1
102
RTVSPropertyOp16
 70
     1
102
RTVSPropertyOp17
 70
     1
102
RTVSPropertyOp18
 70
     1
102
RTVSPropertyOp19
 70
     1
102
RTVSPropertyOp20
 70
     1
102
RTVSPropertyOp21
 70
     1
102
RTVSPropertyOp22
 70
     1
102
RTVSPropertyOp23
 70
     1
102
RTVSPropertyOp24
 70
     1
102
RTVSPropertyOp25
 70
     1
102
RTVSPropertyOp26
 70
     1
102
RTVSPropertyOp27
 70
     1
102
RTVSPropertyOp28
 70
     1
102
RTVSPropertyOp29
 70
     1
102
RTVSPropertyOp30
 70
     1
102
RTVSPropertyOp31
 70
     1
102
RTVSPropertyOp32
 70
     1
  0
XRECORD
  5
1CD
102
{ACAD_REACTORS
330
1CC
102
}
330
1CC
100
AcDbXrecord
280
     1
102
RTVSPropertyOp0
 70
     0
102
RTVSPropertyOp1
 70
     0
102
RTVSPropertyOp2
 70
     0
102
RTVSPropertyOp3
 70
     0
102
RTVSPropertyOp4
 70
     0
102
RTVSPropertyOp5
 70
     0
102
RTVSPropertyOp6
 70
     0
102
RTVSPropertyOp7
 70
     0
102
RTVSPropertyOp8
 70
     0
102
RTVSPropertyOp9
 70
     0
102
RTVSPropertyOp10
 70
     0
102
RTVSPropertyOp11
 70
     0
102
RTVSPropertyOp12
 70
     0
102
RTVSPropertyOp13
 70
     0
102
RTVSPropertyOp14
 70
     2
102
RTVSPropertyOp15
 70
     0
102
RTVSPropertyOp16
 70
     0
102
RTVSPropertyOp17
 70
     0
102
RTVSPropertyOp18
 70
     0
102
RTVSPropertyOp19
 70
     0
102
RTVSPropertyOp20
 70
     0
102
RTVSPropertyOp21
 70
     0
102
RTVSPropertyOp22
 70
     0
102
RTVSPropertyOp23
 70
     0
102
RTVSPropertyOp24
 70
     0
102
RTVSPropertyOp25
 70
     0
102
RTVSPropertyOp26
 70
     0
102
RTVSPropertyOp27
 70
     0
102
RTVSPropertyOp28
 70
     0
102
RTVSPropertyOp29
 70
     0
102
RTVSPropertyOp30
 70
     0
102
RTVSPropertyOp31
 70
     0
102
RTVSPropertyOp32
 70
     0
  0
XRECORD
  5
1BD
102
{ACAD_REACTORS
330
1BC
102
}
330
1BC
100
AcDbXrecord
280
     1
102
RTVSPropertyOp0
 70
     1
102
RTVSPropertyOp1
 70
     1
102
RTVSPropertyOp2
 70
     1
102
RTVSPropertyOp3
 70
     1
102
RTVSPropertyOp4
 70
     1
102
RTVSPropertyOp5
 70
     1
102
RTVSPropertyOp6
 70
     1
102
RTVSPropertyOp7
 70
     1
102
RTVSPropertyOp8
 70
     1
102
RTVSPropertyOp9
 70
     1
102
RTVSPropertyOp10
 70
     1
102
RTVSPropertyOp11
 70
     1
102
RTVSPropertyOp12
 70
     1
102
RTVSPropertyOp13
 70
     1
102
RTVSPropertyOp14
 70
     1
102
RTVSPropertyOp15
 70
     1
102
RTVSPropertyOp16
 70
     1
102
RTVSPropertyOp17
 70
     1
102
RTVSPropertyOp18
 70
     1
102
RTVSPropertyOp19
 70
     1
102
RTVSPropertyOp20
 70
     1
102
RTVSPropertyOp21
 70
     1
102
RTVSPropertyOp22
 70
     1
102
RTVSPropertyOp23
 70
     1
102
RTVSPropertyOp24
 70
     1
102
RTVSPropertyOp25
 70
     1
102
RTVSPropertyOp26
 70
     1
102
RTVSPropertyOp27
 70
     1
102
RTVSPropertyOp28
 70
     1
102
RTVSPropertyOp29
 70
     1
102
RTVSPropertyOp30
 70
     1
102
RTVSPropertyOp31
 70
     1
102
RTVSPropertyOp32
 70
     1
  0
XRECORD
  5
1CF
102
{ACAD_REACTORS
330
1CE
102
}
330
1CE
100
AcDbXrecord
280
     1
102
RTVSPropertyOp0
 70
     0
102
RTVSPropertyOp1
 70
     0
102
RTVSPropertyOp2
 70
     0
102
RTVSPropertyOp3
 70
     0
102
RTVSPropertyOp4
 70
     0
102
RTVSPropertyOp5
 70
     0
102
RTVSPropertyOp6
 70
     0
102
RTVSPropertyOp7
 70
     0
102
RTVSPropertyOp8
 70
     0
102
RTVSPropertyOp9
 70
     0
102
RTVSPropertyOp10
 70
     0
102
RTVSPropertyOp11
 70
     0
102
RTVSPropertyOp12
 70
     0
102
RTVSPropertyOp13
 70
     0
102
RTVSPropertyOp14
 70
     2
102
RTVSPropertyOp15
 70
     0
102
RTVSPropertyOp16
 70
     0
102
RTVSPropertyOp17
 70
     0
102
RTVSPropertyOp18
 70
     0
102
RTVSPropertyOp19
 70
     0
102
RTVSPropertyOp20
 70
     0
102
RTVSPropertyOp21
 70
     0
102
RTVSPropertyOp22
 70
     0
102
RTVSPropertyOp23
 70
     0
102
RTVSPropertyOp24
 70
     0
102
RTVSPropertyOp25
 70
     0
102
RTVSPropertyOp26
 70
     0
102
RTVSPropertyOp27
 70
     0
102
RTVSPropertyOp28
 70
     0
102
RTVSPropertyOp29
 70
     0
102
RTVSPropertyOp30
 70
     0
102
RTVSPropertyOp31
 70
     0
102
RTVSPropertyOp32
 70
     0
  0
XRECORD
  5
1A5
102
{ACAD_REACTORS
330
1A4
102
}
330
1A4
100
AcDbXrecord
280
     1
102
RTVSPropertyOp0
 70
     1
102
RTVSPropertyOp1
 70
     1
102
RTVSPropertyOp2
 70
     1
102
RTVSPropertyOp3
 70
     1
102
RTVSPropertyOp4
 70
     1
102
RTVSPropertyOp5
 70
     1
102
RTVSPropertyOp6
 70
     1
102
RTVSPropertyOp7
 70
     1
102
RTVSPropertyOp8
 70
     1
102
RTVSPropertyOp9
 70
     1
102
RTVSPropertyOp10
 70
     1
102
RTVSPropertyOp11
 70
     1
102
RTVSPropertyOp12
 70
     1
102
RTVSPropertyOp13
 70
     1
102
RTVSPropertyOp14
 70
     1
102
RTVSPropertyOp15
 70
     1
102
RTVSPropertyOp16
 70
     1
102
RTVSPropertyOp17
 70
     1
102
RTVSPropertyOp18
 70
     1
102
RTVSPropertyOp19
 70
     1
102
RTVSPropertyOp20
 70
     1
102
RTVSPropertyOp21
 70
     1
102
RTVSPropertyOp22
 70
     1
102
RTVSPropertyOp23
 70
     1
102
RTVSPropertyOp24
 70
     1
102
RTVSPropertyOp25
 70
     1
102
RTVSPropertyOp26
 70
     1
102
RTVSPropertyOp27
 70
     1
102
RTVSPropertyOp28
 70
     1
102
RTVSPropertyOp29
 70
     1
102
RTVSPropertyOp30
 70
     1
102
RTVSPropertyOp31
 70
     1
102
RTVSPropertyOp32
 70
     1
  0
XRECORD
  5
1CB
102
{ACAD_REACTORS
330
1CA
102
}
330
1CA
100
AcDbXrecord
280
     1
102
RTVSPropertyOp0
 70
     1
102
RTVSPropertyOp1
 70
     1
102
RTVSPropertyOp2
 70
     1
102
RTVSPropertyOp3
 70
     1
102
RTVSPropertyOp4
 70
     1
102
RTVSPropertyOp5
 70
     1
102
RTVSPropertyOp6
 70
     1
102
RTVSPropertyOp7
 70
     1
102
RTVSPropertyOp8
 70
     1
102
RTVSPropertyOp9
 70
     1
102
RTVSPropertyOp10
 70
     1
102
RTVSPropertyOp11
 70
     1
102
RTVSPropertyOp12
 70
     1
102
RTVSPropertyOp13
 70
     1
102
RTVSPropertyOp14
 70
     1
102
RTVSPropertyOp15
 70
     1
102
RTVSPropertyOp16
 70
     1
102
RTVSPropertyOp17
 70
     1
102
RTVSPropertyOp18
 70
     1
102
RTVSPropertyOp19
 70
     1
102
RTVSPropertyOp20
 70
     1
102
RTVSPropertyOp21
 70
     1
102
RTVSPropertyOp22
 70
     1
102
RTVSPropertyOp23
 70
     1
102
RTVSPropertyOp24
 70
     1
102
RTVSPropertyOp25
 70
     1
102
RTVSPropertyOp26
 70
     1
102
RTVSPropertyOp27
 70
     1
102
RTVSPropertyOp28
 70
     1
102
RTVSPropertyOp29
 70
     1
102
RTVSPropertyOp30
 70
     1
102
RTVSPropertyOp31
 70
     1
102
RTVSPropertyOp32
 70
     1
  0
XRECORD
  5
1C9
102
{ACAD_REACTORS
330
1C8
102
}
330
1C8
100
AcDbXrecord
280
     1
102
RTVSPropertyOp0
 70
     1
102
RTVSPropertyOp1
 70
     1
102
RTVSPropertyOp2
 70
     1
102
RTVSPropertyOp3
 70
     1
102
RTVSPropertyOp4
 70
     1
102
RTVSPropertyOp5
 70
     1
102
RTVSPropertyOp6
 70
     1
102
RTVSPropertyOp7
 70
     1
102
RTVSPropertyOp8
 70
     1
102
RTVSPropertyOp9
 70
     1
102
RTVSPropertyOp10
 70
     1
102
RTVSPropertyOp11
 70
     1
102
RTVSPropertyOp12
 70
     1
102
RTVSPropertyOp13
 70
     1
102
RTVSPropertyOp14
 70
     1
102
RTVSPropertyOp15
 70
     1
102
RTVSPropertyOp16
 70
     1
102
RTVSPropertyOp17
 70
     1
102
RTVSPropertyOp18
 70
     1
102
RTVSPropertyOp19
 70
     1
102
RTVSPropertyOp20
 70
     1
102
RTVSPropertyOp21
 70
     1
102
RTVSPropertyOp22
 70
     1
102
RTVSPropertyOp23
 70
     1
102
RTVSPropertyOp24
 70
     1
102
RTVSPropertyOp25
 70
     1
102
RTVSPropertyOp26
 70
     1
102
RTVSPropertyOp27
 70
     1
102
RTVSPropertyOp28
 70
     1
102
RTVSPropertyOp29
 70
     1
102
RTVSPropertyOp30
 70
     1
102
RTVSPropertyOp31
 70
     1
102
RTVSPropertyOp32
 70
     1
  0
XRECORD
  5
1C3
102
{ACAD_REACTORS
330
1C2
102
}
330
1C2
100
AcDbXrecord
280
     1
102
RTVSPropertyOp0
 70
     1
102
RTVSPropertyOp1
 70
     1
102
RTVSPropertyOp2
 70
     1
102
RTVSPropertyOp3
 70
     1
102
RTVSPropertyOp4
 70
     1
102
RTVSPropertyOp5
 70
     1
102
RTVSPropertyOp6
 70
     1
102
RTVSPropertyOp7
 70
     1
102
RTVSPropertyOp8
 70
     1
102
RTVSPropertyOp9
 70
     1
102
RTVSPropertyOp10
 70
     1
102
RTVSPropertyOp11
 70
     1
102
RTVSPropertyOp12
 70
     1
102
RTVSPropertyOp13
 70
     1
102
RTVSPropertyOp14
 70
     1
102
RTVSPropertyOp15
 70
     1
102
RTVSPropertyOp16
 70
     1
102
RTVSPropertyOp17
 70
     1
102
RTVSPropertyOp18
 70
     1
102
RTVSPropertyOp19
 70
     1
102
RTVSPropertyOp20
 70
     1
102
RTVSPropertyOp21
 70
     1
102
RTVSPropertyOp22
 70
     1
102
RTVSPropertyOp23
 70
     1
102
RTVSPropertyOp24
 70
     1
102
RTVSPropertyOp25
 70
     1
102
RTVSPropertyOp26
 70
     1
102
RTVSPropertyOp27
 70
     1
102
RTVSPropertyOp28
 70
     1
102
RTVSPropertyOp29
 70
     1
102
RTVSPropertyOp30
 70
     1
102
RTVSPropertyOp31
 70
     1
102
RTVSPropertyOp32
 70
     1
  0
XRECORD
  5
1C5
102
{ACAD_REACTORS
330
1C4
102
}
330
1C4
100
AcDbXrecord
280
     1
102
RTVSPropertyOp0
 70
     1
102
RTVSPropertyOp1
 70
     1
102
RTVSPropertyOp2
 70
     1
102
RTVSPropertyOp3
 70
     1
102
RTVSPropertyOp4
 70
     1
102
RTVSPropertyOp5
 70
     1
102
RTVSPropertyOp6
 70
     1
102
RTVSPropertyOp7
 70
     1
102
RTVSPropertyOp8
 70
     1
102
RTVSPropertyOp9
 70
     1
102
RTVSPropertyOp10
 70
     1
102
RTVSPropertyOp11
 70
     1
102
RTVSPropertyOp12
 70
     1
102
RTVSPropertyOp13
 70
     1
102
RTVSPropertyOp14
 70
     1
102
RTVSPropertyOp15
 70
     1
102
RTVSPropertyOp16
 70
     1
102
RTVSPropertyOp17
 70
     1
102
RTVSPropertyOp18
 70
     1
102
RTVSPropertyOp19
 70
     1
102
RTVSPropertyOp20
 70
     1
102
RTVSPropertyOp21
 70
     1
102
RTVSPropertyOp22
 70
     1
102
RTVSPropertyOp23
 70
     1
102
RTVSPropertyOp24
 70
     1
102
RTVSPropertyOp25
 70
     1
102
RTVSPropertyOp26
 70
     1
102
RTVSPropertyOp27
 70
     1
102
RTVSPropertyOp28
 70
     1
102
RTVSPropertyOp29
 70
     1
102
RTVSPropertyOp30
 70
     1
102
RTVSPropertyOp31
 70
     1
102
RTVSPropertyOp32
 70
     1
  0
XRECORD
  5
1BB
102
{ACAD_REACTORS
330
1BA
102
}
330
1BA
100
AcDbXrecord
280
     1
102
RTVSPropertyOp0
 70
     1
102
RTVSPropertyOp1
 70
     1
102
RTVSPropertyOp2
 70
     1
102
RTVSPropertyOp3
 70
     1
102
RTVSPropertyOp4
 70
     1
102
RTVSPropertyOp5
 70
     1
102
RTVSPropertyOp6
 70
     1
102
RTVSPropertyOp7
 70
     1
102
RTVSPropertyOp8
 70
     1
102
RTVSPropertyOp9
 70
     1
102
RTVSPropertyOp10
 70
     1
102
RTVSPropertyOp11
 70
     1
102
RTVSPropertyOp12
 70
     1
102
RTVSPropertyOp13
 70
     1
102
RTVSPropertyOp14
 70
     1
102
RTVSPropertyOp15
 70
     1
102
RTVSPropertyOp16
 70
     1
102
RTVSPropertyOp17
 70
     1
102
RTVSPropertyOp18
 70
     1
102
RTVSPropertyOp19
 70
     1
102
RTVSPropertyOp20
 70
     1
102
RTVSPropertyOp21
 70
     1
102
RTVSPropertyOp22
 70
     1
102
RTVSPropertyOp23
 70
     1
102
RTVSPropertyOp24
 70
     1
102
RTVSPropertyOp25
 70
     1
102
RTVSPropertyOp26
 70
     1
102
RTVSPropertyOp27
 70
     1
102
RTVSPropertyOp28
 70
     1
102
RTVSPropertyOp29
 70
     1
102
RTVSPropertyOp30
 70
     1
102
RTVSPropertyOp31
 70
     1
102
RTVSPropertyOp32
 70
     1
  0
XRECORD
  5
1A7
102
{ACAD_REACTORS
330
1A6
102
}
330
1A6
100
AcDbXrecord
280
     1
102
RTVSPropertyOp0
 70
     1
102
RTVSPropertyOp1
 70
     1
102
RTVSPropertyOp2
 70
     1
102
RTVSPropertyOp3
 70
     1
102
RTVSPropertyOp4
 70
     1
102
RTVSPropertyOp5
 70
     1
102
RTVSPropertyOp6
 70
     1
102
RTVSPropertyOp7
 70
     1
102
RTVSPropertyOp8
 70
     1
102
RTVSPropertyOp9
 70
     1
102
RTVSPropertyOp10
 70
     1
102
RTVSPropertyOp11
 70
     1
102
RTVSPropertyOp12
 70
     1
102
RTVSPropertyOp13
 70
     1
102
RTVSPropertyOp14
 70
     1
102
RTVSPropertyOp15
 70
     1
102
RTVSPropertyOp16
 70
     1
102
RTVSPropertyOp17
 70
     1
102
RTVSPropertyOp18
 70
     1
102
RTVSPropertyOp19
 70
     1
102
RTVSPropertyOp20
 70
     1
102
RTVSPropertyOp21
 70
     1
102
RTVSPropertyOp22
 70
     1
102
RTVSPropertyOp23
 70
     1
102
RTVSPropertyOp24
 70
     1
102
RTVSPropertyOp25
 70
     1
102
RTVSPropertyOp26
 70
     1
102
RTVSPropertyOp27
 70
     1
102
RTVSPropertyOp28
 70
     1
102
RTVSPropertyOp29
 70
     1
102
RTVSPropertyOp30
 70
     1
102
RTVSPropertyOp31
 70
     1
102
RTVSPropertyOp32
 70
     1
  0
XRECORD
  5
1C7
102
{ACAD_REACTORS
330
1C6
102
}
330
1C6
100
AcDbXrecord
280
     1
102
RTVSPropertyOp0
 70
     1
102
RTVSPropertyOp1
 70
     1
102
RTVSPropertyOp2
 70
     1
102
RTVSPropertyOp3
 70
     1
102
RTVSPropertyOp4
 70
     1
102
RTVSPropertyOp5
 70
     1
102
RTVSPropertyOp6
 70
     1
102
RTVSPropertyOp7
 70
     1
102
RTVSPropertyOp8
 70
     1
102
RTVSPropertyOp9
 70
     1
102
RTVSPropertyOp10
 70
     1
102
RTVSPropertyOp11
 70
     1
102
RTVSPropertyOp12
 70
     1
102
RTVSPropertyOp13
 70
     1
102
RTVSPropertyOp14
 70
     1
102
RTVSPropertyOp15
 70
     1
102
RTVSPropertyOp16
 70
     1
102
RTVSPropertyOp17
 70
     1
102
RTVSPropertyOp18
 70
     1
102
RTVSPropertyOp19
 70
     1
102
RTVSPropertyOp20
 70
     1
102
RTVSPropertyOp21
 70
     1
102
RTVSPropertyOp22
 70
     1
102
RTVSPropertyOp23
 70
     1
102
RTVSPropertyOp24
 70
     1
102
RTVSPropertyOp25
 70
     1
102
RTVSPropertyOp26
 70
     1
102
RTVSPropertyOp27
 70
     1
102
RTVSPropertyOp28
 70
     1
102
RTVSPropertyOp29
 70
     1
102
RTVSPropertyOp30
 70
     1
102
RTVSPropertyOp31
 70
     1
102
RTVSPropertyOp32
 70
     1
  0
ENDSEC
  0
EOF
