  0
SECTION
  2
HEADER
  9
$ACADVER
  1
AC1015
  9
$ACADMAINTVER
 70
    18
  9
$DWGCODEPAGE
  3
ANSI_1252
  9
$INSBASE
 10
0.0
 20
0.0
 30
0.0
  9
$EXTMIN
 10
-118.7802555486332
 20
-17.92719838014727
 30
-0.0015258207003583
  9
$EXTMAX
 10
64.09816124883718
 20
224.2247479441862
 30
0.0000000349246037
  9
$LIMMIN
 10
0.0
 20
0.0
  9
$LIMMAX
 10
1189.0
 20
840.9999999999998
  9
$ORTHOMODE
 70
     0
  9
$REGENMODE
 70
     1
  9
$FILLMODE
 70
     1
  9
$QTEXTMODE
 70
     0
  9
$MIRRTEXT
 70
     0
  9
$LTSCALE
 40
1.0
  9
$ATTMODE
 70
     1
  9
$TEXTSIZE
 40
0.2
  9
$TRACEWID
 40
0.05
  9
$TEXTSTYLE
  7
STANDARD
  9
$CLAYER
  8
0
  9
$CELTYPE
  6
ByLayer
  9
$CECOLOR
 62
   256
  9
$CELTSCALE
 40
1.0
  9
$DISPSILH
 70
     0
  9
$DIMSCALE
 40
1.0
  9
$DIMASZ
 40
180.0
  9
$DIMEXO
 40
0.0625
  9
$DIMDLI
 40
0.38
  9
$DIMRND
 40
0.0
  9
$DIMDLE
 40
0.0
  9
$DIMEXE
 40
0.18
  9
$DIMTP
 40
0.0
  9
$DIMTM
 40
0.0
  9
$DIMTXT
 40
34.99999940395355
  9
$DIMCEN
 40
0.09
  9
$DIMTSZ
 40
0.0
  9
$DIMTOL
 70
     0
  9
$DIMLIM
 70
     0
  9
$DIMTIH
 70
     1
  9
$DIMTOH
 70
     1
  9
$DIMSE1
 70
     0
  9
$DIMSE2
 70
     0
  9
$DIMTAD
 70
     0
  9
$DIMZIN
 70
     0
  9
$DIMBLK
  1

  9
$DIMASO
 70
     1
  9
$DIMSHO
 70
     1
  9
$DIMPOST
  1

  9
$DIMAPOST
  1

  9
$DIMALT
 70
     0
  9
$DIMALTD
 70
     2
  9
$DIMALTF
 40
25.4
  9
$DIMLFAC
 40
1.0
  9
$DIMTOFL
 70
     0
  9
$DIMTVP
 40
0.0
  9
$DIMTIX
 70
     0
  9
$DIMSOXD
 70
     0
  9
$DIMSAH
 70
     0
  9
$DIMBLK1
  1

  9
$DIMBLK2
  1

  9
$DIMSTYLE
  2
STANDARD
  9
$DIMCLRD
 70
     0
  9
$DIMCLRE
 70
     0
  9
$DIMCLRT
 70
     0
  9
$DIMTFAC
 40
1.0
  9
$DIMGAP
 40
0.09
  9
$DIMJUST
 70
     0
  9
$DIMSD1
 70
     0
  9
$DIMSD2
 70
     0
  9
$DIMTOLJ
 70
     1
  9
$DIMTZIN
 70
     0
  9
$DIMALTZ
 70
     0
  9
$DIMALTTZ
 70
     0
  9
$DIMUPT
 70
     0
  9
$DIMDEC
 70
     4
  9
$DIMTDEC
 70
     4
  9
$DIMALTU
 70
     2
  9
$DIMALTTD
 70
     2
  9
$DIMTXSTY
  7
STANDARD
  9
$DIMAUNIT
 70
     0
  9
$DIMADEC
 70
     0
  9
$DIMALTRND
 40
0.0
  9
$DIMAZIN
 70
     0
  9
$DIMDSEP
 70
    46
  9
$DIMATFIT
 70
     3
  9
$DIMFRAC
 70
     0
  9
$DIMLDRBLK
  1

  9
$DIMLUNIT
 70
     2
  9
$DIMLWD
 70
    -2
  9
$DIMLWE
 70
    -2
  9
$DIMTMOVE
 70
     0
  9
$LUNITS
 70
     2
  9
$LUPREC
 70
     4
  9
$SKETCHINC
 40
0.1
  9
$FILLETRAD
 40
0.0
  9
$AUNITS
 70
     0
  9
$AUPREC
 70
     0
  9
$MENU
  1
.
  9
$ELEVATION
 40
0.0
  9
$PELEVATION
 40
0.0
  9
$THICKNESS
 40
0.0
  9
$LIMCHECK
 70
     0
  9
$CHAMFERA
 40
0.0
  9
$CHAMFERB
 40
0.0
  9
$CHAMFERC
 40
0.0
  9
$CHAMFERD
 40
0.0
  9
$SKPOLY
 70
     0
  9
$TDCREATE
 40
2454871.497639329
  9
$TDUCREATE
 40
2454871.455972662
  9
$TDUPDATE
 40
2455943.981446030
  9
$TDUUPDATE
 40
2455943.939779364
  9
$TDINDWG
 40
0.0122784259
  9
$TDUSRTIMER
 40
0.0122784259
  9
$USRTIMER
 70
     1
  9
$ANGBASE
 50
0.0
  9
$ANGDIR
 70
     0
  9
$PDMODE
 70
     0
  9
$PDSIZE
 40
0.0
  9
$PLINEWID
 40
0.0
  9
$SPLFRAME
 70
     0
  9
$SPLINETYPE
 70
     6
  9
$SPLINESEGS
 70
     8
  9
$HANDSEED
  5
1DD
  9
$SURFTAB1
 70
     6
  9
$SURFTAB2
 70
     6
  9
$SURFTYPE
 70
     6
  9
$SURFU
 70
     6
  9
$SURFV
 70
     6
  9
$UCSBASE
  2

  9
$UCSNAME
  2

  9
$UCSORG
 10
0.0
 20
0.0
 30
0.0
  9
$UCSXDIR
 10
1.0
 20
0.0
 30
0.0
  9
$UCSYDIR
 10
0.0
 20
1.0
 30
0.0
  9
$UCSORTHOREF
  2

  9
$UCSORTHOVIEW
 70
     0
  9
$UCSORGTOP
 10
0.0
 20
0.0
 30
0.0
  9
$UCSORGBOTTOM
 10
0.0
 20
0.0
 30
0.0
  9
$UCSORGLEFT
 10
0.0
 20
0.0
 30
0.0
  9
$UCSORGRIGHT
 10
0.0
 20
0.0
 30
0.0
  9
$UCSORGFRONT
 10
0.0
 20
0.0
 30
0.0
  9
$UCSORGBACK
 10
0.0
 20
0.0
 30
0.0
  9
$PUCSBASE
  2

  9
$PUCSNAME
  2

  9
$PUCSORG
 10
0.0
 20
0.0
 30
0.0
  9
$PUCSXDIR
 10
1.0
 20
0.0
 30
0.0
  9
$PUCSYDIR
 10
0.0
 20
1.0
 30
0.0
  9
$PUCSORTHOREF
  2

  9
$PUCSORTHOVIEW
 70
     0
  9
$PUCSORGTOP
 10
0.0
 20
0.0
 30
0.0
  9
$PUCSORGBOTTOM
 10
0.0
 20
0.0
 30
0.0
  9
$PUCSORGLEFT
 10
0.0
 20
0.0
 30
0.0
  9
$PUCSORGRIGHT
 10
0.0
 20
0.0
 30
0.0
  9
$PUCSORGFRONT
 10
0.0
 20
0.0
 30
0.0
  9
$PUCSORGBACK
 10
0.0
 20
0.0
 30
0.0
  9
$USERI1
 70
     0
  9
$USERI2
 70
     0
  9
$USERI3
 70
     0
  9
$USERI4
 70
     0
  9
$USERI5
 70
     0
  9
$USERR1
 40
0.0
  9
$USERR2
 40
0.0
  9
$USERR3
 40
0.0
  9
$USERR4
 40
0.0
  9
$USERR5
 40
0.0
  9
$WORLDVIEW
 70
     1
  9
$SHADEDGE
 70
     3
  9
$SHADEDIF
 70
    70
  9
$TILEMODE
 70
     1
  9
$MAXACTVP
 70
    64
  9
$PINSBASE
 10
0.0
 20
0.0
 30
0.0
  9
$PLIMCHECK
 70
     0
  9
$PEXTMIN
 10
0.0
 20
0.0
 30
0.0
  9
$PEXTMAX
 10
1189.0
 20
840.9999999999998
 30
0.0
  9
$PLIMMIN
 10
0.0
 20
0.0
  9
$PLIMMAX
 10
1189.0
 20
840.9999999999998
  9
$UNITMODE
 70
     0
  9
$VISRETAIN
 70
     1
  9
$PLINEGEN
 70
     0
  9
$PSLTSCALE
 70
     1
  9
$TREEDEPTH
 70
  3020
  9
$CMLSTYLE
  2
Standard
  9
$CMLJUST
 70
     0
  9
$CMLSCALE
 40
1.0
  9
$PROXYGRAPHICS
 70
     1
  9
$MEASUREMENT
 70
     1
  9
$CELWEIGHT
370
    -1
  9
$ENDCAPS
280
     0
  9
$JOINSTYLE
280
     0
  9
$LWDISPLAY
290
     0
  9
$INSUNITS
 70
     4
  9
$HYPERLINKBASE
  1

  9
$STYLESHEET
  1

  9
$XEDIT
290
     1
  9
$CEPSNTYPE
380
     0
  9
$PSTYLEMODE
290
     1
  9
$FINGERPRINTGUID
  2
{6C9A7F57-E87E-4DE7-B4DF-1B57CCE52B4E}
  9
$VERSIONGUID
  2
{921933DA-5DF3-427D-98DF-D6D7260D8EDB}
  9
$EXTNAMES
290
     1
  9
$PSVPSCALE
 40
0.0
  9
$OLESTARTUP
290
     0
  0
ENDSEC
  0
SECTION
  2
CLASSES
  0
CLASS
  1
ACDBDICTIONARYWDFLT
  2
AcDbDictionaryWithDefault
  3
ObjectDBX Classes
 90
        0
280
     0
281
     0
  0
CLASS
  1
MATERIAL
  2
AcDbMaterial
  3
ObjectDBX Classes
 90
     1153
280
     0
281
     0
  0
CLASS
  1
VISUALSTYLE
  2
AcDbVisualStyle
  3
ObjectDBX Classes
 90
     4095
280
     0
281
     0
  0
CLASS
  1
SCALE
  2
AcDbScale
  3
ObjectDBX Classes
 90
     1153
280
     0
281
     0
  0
CLASS
  1
TABLESTYLE
  2
AcDbTableStyle
  3
ObjectDBX Classes
 90
     4095
280
     0
281
     0
  0
CLASS
  1
MLEADERSTYLE
  2
AcDbMLeaderStyle
  3
ACDB_MLEADERSTYLE_CLASS
 90
     4095
280
     0
281
     0
  0
CLASS
  1
SORTENTSTABLE
  2
AcDbSortentsTable
  3
ObjectDBX Classes
 90
        0
280
     0
281
     0
  0
CLASS
  1
CELLSTYLEMAP
  2
AcDbCellStyleMap
  3
ObjectDBX Classes
 90
     1152
280
     0
281
     0
  0
CLASS
  1
DICTIONARYVAR
  2
AcDbDictionaryVar
  3
ObjectDBX Classes
 90
        0
280
     0
281
     0
  0
CLASS
  1
ACME_DOCUMENT
  2
AcMeDbDoc
  3
AcMeServices
 90
    33792
280
     1
281
     0
  0
CLASS
  1
AMGSETTINGSOBJ
  2
AmgSettingsObj
  3
"AcadM|Product Description: AutoCAD Mechanical|Company: Autodesk, Inc."
 90
    33792
280
     1
281
     0
  0
CLASS
  1
ACMESCOPE
  2
AcMeScope
  3
AcMeServices
 90
    33792
280
     1
281
     0
  0
CLASS
  1
ACMECOMMANDHISTORY
  2
AcMeCommandHistory
  3
AcMeServices
 90
    33792
280
     1
281
     0
  0
CLASS
  1
ACIMSYSVARMAN
  2
AcImSysVarManager
  3
AcMeServices
 90
    33792
280
     1
281
     0
  0
CLASS
  1
ACIMINTSYSVAR
  2
AcImIntSysVar
  3
AcMeServices
 90
    33792
280
     1
281
     0
  0
CLASS
  1
ACMEDRAWINGMAN
  2
AcMeDrawingMan
  3
AcMeServices
 90
    33792
280
     1
281
     0
  0
CLASS
  1
ACMEVIEW
  2
AcMeView
  3
AcMeServices
 90
    33792
280
     1
281
     0
  0
CLASS
  1
ACDBENTITYCACHE
  2
AcMeEntityCache
  3
AcMeServices
 90
    33792
280
     1
281
     0
  0
CLASS
  1
GSMANAGER
  2
AcMeGSManager
  3
AcMeServices
 90
    33792
280
     1
281
     0
  0
CLASS
  1
AMDTINTERNALREACTOR
  2
AmdtInternalReactor
  3
AcMeServices
 90
    33792
280
     1
281
     0
  0
CLASS
  1
ACMESTATEMGR
  2
AcMeStateMgr
  3
AcMeServices
 90
    33792
280
     1
281
     0
  0
CLASS
  1
ACGREFMASTER
  2
AcGrefMaster
  3
AcAttribServices
 90
    33792
280
     1
281
     0
  0
CLASS
  1
AM_DRAWING_MGR
  2
AcDmDwgMgr
  3
AcMechDwgViewMgmt
 90
    33792
280
     1
281
     0
  0
CLASS
  1
AM_DWG_DOCUMENT
  2
AcDmDwgDocument
  3
AcMechDwgViewMgmt
 90
    33792
280
     1
281
     0
  0
CLASS
  1
AM_DWG_SHEET
  2
AcDmSheet
  3
AcMechDwgViewMgmt
 90
    33792
280
     1
281
     0
  0
CLASS
  1
AM_VIEWDIMPARMAP
  2
AcDmViewDimParMap
  3
AcMechDwgViewMgmt
 90
    33792
280
     1
281
     0
  0
CLASS
  1
ACIMREALSYSVAR
  2
AcImRealSysVar
  3
AcMeServices
 90
    33792
280
     1
281
     0
  0
CLASS
  1
AM_DWGMGR_NAME
  2
AcDmDwgMgrName
  3
AcMechDwgViewMgmt
 90
    33792
280
     1
281
     0
  0
CLASS
  1
ACME_DATABASE
  2
AcMeDbDatabase
  3
AcMeServices
 90
    33792
280
     1
281
     0
  0
CLASS
  1
ACRFINSADJUSTERMGR
  2
AcRfInsAdjusterMgr
  3
AcMeServices
 90
    33792
280
     1
281
     0
  0
CLASS
  1
ACGREFACADMASTER
  2
AcGrefacadMaster
  3
AcGrefServices
 90
    33792
280
     1
281
     0
  0
CLASS
  1
AMDTMENUSTATEMGR
  2
AmdtMenuStateMgr
  3
McadcomServices
 90
    33792
280
     1
281
     0
  0
CLASS
  1
AMDTMCOMMENUSTATE
  2
AmdtMcomMenuState
  3
McadcomServices
 90
    33792
280
     1
281
     0
  0
CLASS
  1
AMIMASTER
  2
AmiMaster
  3
AmiServices
 90
    33792
280
     1
281
     0
  0
CLASS
  1
MAPIAMMOUDLE
  2
MApiAmModule
  3
MApiAmServices
 90
    33792
280
     1
281
     0
  0
CLASS
  1
ACIMSTRSYSVAR
  2
AcImStrSysVar
  3
AcMeServices
 90
    33792
280
     1
281
     0
  0
CLASS
  1
AMDTADMENUSTATE
  2
AmdtAdMenuState
  3
DesignerServices
 90
    33792
280
     1
281
     0
  0
CLASS
  1
ADAPPL
  2
AcAdAppl
  3
DesignerServices
 90
    33792
280
     1
281
     0
  0
CLASS
  1
DEPMGR
  2
AcAdDepMgr
  3
DesignerServices
 90
    33792
280
     1
281
     0
  0
CLASS
  1
PARAMMGR
  2
AcAdParamMgr
  3
DesignerServices
 90
    33792
280
     1
281
     0
  0
CLASS
  1
PARAMSCOPE
  2
AcAdParamScope
  3
DesignerServices
 90
    33792
280
     1
281
     0
  0
CLASS
  1
NAMEDAPPL
  2
AcAdNamedAppl
  3
DesignerServices
 90
    33792
280
     1
281
     0
  0
CLASS
  1
AMDTDMMENUSTATE
  2
AmdtDmMenuState
  3
AcMechDwgViewMgmt
 90
    33792
280
     1
281
     0
  0
CLASS
  1
AMDTAMMENUSTATE
  2
AmdtAmMenuState
  3
DesignerAssemblies
 90
    33792
280
     1
281
     0
  0
CLASS
  1
ACAMPROJECT
  2
AcAmProject
  3
DesignerAssemblies
 90
    33792
280
     1
281
     0
  0
CLASS
  1
ACAMGRCOMPDEF
  2
AcAmGrCompDef
  3
DesignerAssemblies
 90
    33792
280
     1
281
     0
  0
CLASS
  1
ACCMCONTEXT
  2
AcCmContext
  3
DesignerAssemblies
 90
    33792
280
     1
281
     0
  0
CLASS
  1
ACAMCOMPDEF
  2
AcAmCompDef
  3
DesignerAssemblies
 90
    33792
280
     1
281
     0
  0
CLASS
  1
ACAMCOMPDEFMGR
  2
AcAmCompDefMgr
  3
DesignerAssemblies
 90
    33792
280
     1
281
     0
  0
CLASS
  1
AMCONTEXTMGR
  2
AcAmContextMgr
  3
DesignerAssemblies
 90
    33792
280
     1
281
     0
  0
CLASS
  1
ACAMCONTEXTMODELER
  2
AcAmContextModeler
  3
DesignerAssemblies
 90
    33792
280
     1
281
     0
  0
CLASS
  1
ACMDATADICTIONARY
  2
AcmDataDictionary
  3
"AcmSymBB|Product Description: AutoCAD Mechanical|Company: Autodesk, Inc."
 90
    33792
280
     1
281
     0
  0
CLASS
  1
CATALOGSTATE
  2
AcAmCatalogState
  3
DesignerAssemblies
 90
    33792
280
     1
281
     0
  0
CLASS
  1
ACAMGRCOMPDEFSET
  2
AcAmGrCompDefSet
  3
DesignerAssemblies
 90
    33792
280
     1
281
     0
  0
CLASS
  1
AMDTBROWSERDBTAB
  2
AmdtBrowserDbTab
  3
McadcomServices
 90
    33792
280
     1
281
     0
  0
CLASS
  1
CBROWSERAPPOBJECT
  2
CBrowserAppObject
  3
McadcomServices
 90
    33792
280
     1
281
     0
  0
CLASS
  1
DM_PLACEHOLDER
  2
AcDmSelsetPlaceholder
  3
AcMechDwgViewMgmt
 90
    33792
280
     1
281
     0
  0
CLASS
  1
EXACXREFPANELOBJECT
  2
ExAcXREFPanelObject
  3
EXAC_ESW
 90
     1025
280
     0
281
     0
  0
CLASS
  1
NPOCOLLECTION
  2
AcDbImpNonPersistentObjectsCollection
  3
ObjectDBX Classes
 90
     1153
280
     0
281
     0
  0
CLASS
  1
ACMSTANDARDANSI
  2
AcmStandardANSI
  3
"Amdt_StdImp|Product Description: AutoCAD Mechanical|Company: Autodesk, Inc."
 90
    33792
280
     1
281
     0
  0
CLASS
  1
ACMSURFSTANDARDANSI
  2
AcmSurfTextStdANSI
  3
"Amdt_StdImp|Product Description: AutoCAD Mechanical|Company: Autodesk, Inc."
 90
    33792
280
     1
281
     0
  0
CLASS
  1
ACMFCFSTANDARDANSI
  2
AcmFCFStdANSI
  3
"Amdt_StdImp|Product Description: AutoCAD Mechanical|Company: Autodesk, Inc."
 90
    33792
280
     1
281
     0
  0
CLASS
  1
ACMWELDSTANDARDANSI
  2
AcmWeldingStdANSI
  3
"Amdt_StdImp|Product Description: AutoCAD Mechanical|Company: Autodesk, Inc."
 90
    33792
280
     1
281
     0
  0
CLASS
  1
ACMIDSTANDARDANSI
  2
AcmIdStdANSI
  3
"Amdt_StdImp|Product Description: AutoCAD Mechanical|Company: Autodesk, Inc."
 90
    33792
280
     1
281
     0
  0
CLASS
  1
ACMDATUMSTANDARDANSI
  2
AcmDatumStdANSI
  3
"Amdt_StdImp|Product Description: AutoCAD Mechanical|Company: Autodesk, Inc."
 90
    33792
280
     1
281
     0
  0
CLASS
  1
ACMBOMSTANDARDANSI
  2
AcmBOMStdANSI
  3
"Amdt_StdImp|Product Description: AutoCAD Mechanical|Company: Autodesk, Inc."
 90
    33792
280
     1
281
     0
  0
CLASS
  1
ACMDETAILSTANDARDANSI
  2
AmdtDetailSymStdANSI
  3
"Amdt_StdImp|Product Description: AutoCAD Mechanical|Company: Autodesk, Inc."
 90
    33792
280
     1
281
     0
  0
CLASS
  1
ACMSECTIONSTANDARDANSI
  2
AmdtSectionSymStdANSI
  3
"Amdt_StdImp|Product Description: AutoCAD Mechanical|Company: Autodesk, Inc."
 90
    33792
280
     1
281
     0
  0
CLASS
  1
ACMCENTERLINESTANDARDANSI
  2
AmdtCenterLineStdANSI
  3
"Amdt_StdImp|Product Description: AutoCAD Mechanical|Company: Autodesk, Inc."
 90
    33792
280
     1
281
     0
  0
CLASS
  1
ACMTHREADLINESTANDARDANSI
  2
AmdtThreadLineStdANSI
  3
"Amdt_StdImp|Product Description: AutoCAD Mechanical|Company: Autodesk, Inc."
 90
    33792
280
     1
281
     0
  0
CLASS
  1
ACMNOTESTANDARDANSI
  2
AmdtNoteStdANSI
  3
"Amdt_StdImp|Product Description: AutoCAD Mechanical|Company: Autodesk, Inc."
 90
    33792
280
     1
281
     0
  0
CLASS
  1
ACMTAPERSTANDARDANSI
  2
AcmTaperStdANSI
  3
"Amdt_StdImp|Product Description: AutoCAD Mechanical|Company: Autodesk, Inc."
 90
    33792
280
     1
281
     0
  0
CLASS
  1
ACMANOOTATIONVIEWSTANDARDANSI
  2
AmdtAnViewStdANSI
  3
"Amdt_StdImp|Product Description: AutoCAD Mechanical|Company: Autodesk, Inc."
 90
    33792
280
     1
281
     0
  0
CLASS
  1
ACAMGLAYSTD
  2
AcAmgLayStd
  3
"AmgLay|Product Description: AutoCAD Mechanical|Company: Autodesk, Inc."
 90
    33792
280
     1
281
     0
  0
CLASS
  1
ACAMGDIMSTD
  2
AcAmgDimStd
  3
"AmgDim|Product Description: AutoCAD Mechanical|Company: Autodesk, Inc."
 90
    33792
280
     1
281
     0
  0
CLASS
  1
AMGOBJPROPCFG
  2
AmgObjPropCfg
  3
"AmgLay|Product Description: AutoCAD Mechanical|Company: Autodesk, Inc."
 90
    33793
280
     1
281
     0
  0
CLASS
  1
ACAMGHOLECHARTSTDANSI
  2
AcAmgHoleChartStdANSI
  3
AmgDim|Product Description: AutoCAD Mechanical|Company: Autodesk, Inc.
 90
    33792
280
     1
281
     0
  0
CLASS
  1
ACAMGTITLESTD
  2
AcAmgTitleStd
  3
"AmgTitle|Product Description: AutoCAD Mechanical|Company: Autodesk, Inc."
 90
    36863
280
     1
281
     0
  0
CLASS
  1
AMDTNOTETEMPLATEDB
  2
AmdtNoteTemplateDB
  3
AcmSymBB|Product Description: AutoCAD Mechanical|Company: Autodesk, Inc.
 90
    33792
280
     1
281
     0
  0
CLASS
  1
ACAMGFILTERDAT
  2
AcAmgFilterDat
  3
"AcadM|Product Description: AutoCAD Mechanical|Company: Autodesk, Inc."
 90
    33792
280
     1
281
     0
  0
CLASS
  1
CAMSSTRUCTBTNSTATE
  2
StructBtnState
  3
DesignerAssemblies
 90
    33792
280
     1
281
     0
  0
CLASS
  1
ACDBPLACEHOLDER
  2
AcDbPlaceHolder
  3
ObjectDBX Classes
 90
        0
280
     0
281
     0
  0
CLASS
  1
LAYOUT
  2
AcDbLayout
  3
ObjectDBX Classes
 90
        0
280
     0
281
     0
  0
CLASS
  1
SOLID_BACKGROUND
  2
AcDbSolidBackground
  3
SCENEOE
 90
    36863
280
     0
281
     0
  0
ENDSEC
  0
SECTION
  2
TABLES
  0
TABLE
  2
VPORT
  5
28
102
{ACAD_XDICTIONARY
360
2C
102
}
330
0
100
AcDbSymbolTable
 70
     1
  0
VPORT
  5
29
330
28
100
AcDbSymbolTableRecord
100
AcDbViewportTableRecord
  2
*ACTIVE
 70
     0
 10
0.0
 20
0.0
 11
1.0
 21
1.0
 12
-27.34104714989803
 22
103.1487747820194
 13
0.0
 23
0.0
 14
1.0
 24
1.0
 15
0.0
 25
0.0
 16
0.0
 26
0.0
 36
1.0
 17
0.0
 27
0.0
 37
0.0
 40
271.1168333279811
 41
1.141762452107279
 42
50.0
 43
0.0
 44
0.0
 50
0.0
 51
0.0
 71
     0
 72
   100
 73
     1
 74
     1
 75
     0
 76
     0
 77
     0
 78
     0
281
     0
 65
     1
110
0.0
120
0.0
130
0.0
111
1.0
121
0.0
131
0.0
112
0.0
122
1.0
132
0.0
 79
     0
146
0.0
  0
ENDTAB
  0
TABLE
  2
LTYPE
  5
23
330
0
100
AcDbSymbolTable
 70
     3
  0
LTYPE
  5
24
330
23
100
AcDbSymbolTableRecord
100
AcDbLinetypeTableRecord
  2
ByBlock
 70
     0
  3

 72
    65
 73
     0
 40
0.0
  0
LTYPE
  5
25
330
23
100
AcDbSymbolTableRecord
100
AcDbLinetypeTableRecord
  2
ByLayer
 70
     0
  3

 72
    65
 73
     0
 40
0.0
  0
LTYPE
  5
13
330
23
100
AcDbSymbolTableRecord
100
AcDbLinetypeTableRecord
  2
CONTINUOUS
 70
     0
  3
Solid line
 72
    65
 73
     0
 40
0.0
  0
LTYPE
  5
77
330
23
100
AcDbSymbolTableRecord
100
AcDbLinetypeTableRecord
  2
DASHDOT
 70
     0
  3
Dash dot __ . __ . __ . __ . __ . __ . __ . __
 72
    65
 73
     4
 40
1.0
 49
0.5
 74
     0
 49
-0.25
 74
     0
 49
0.0
 74
     0
 49
-0.25
 74
     0
  0
LTYPE
  5
83
330
23
100
AcDbSymbolTableRecord
100
AcDbLinetypeTableRecord
  2
DASHED
 70
     0
  3
Dashed __ __ __ __ __ __ __ __ __ __ __ __ __ _
 72
    65
 73
     2
 40
0.75
 49
0.5
 74
     0
 49
-0.25
 74
     0
  0
ENDTAB
  0
TABLE
  2
LAYER
  5
1B
102
{ACAD_XDICTIONARY
360
1C
102
}
330
0
100
AcDbSymbolTable
 70
     7
  0
LAYER
  5
6
330
1B
100
AcDbSymbolTableRecord
100
AcDbLayerTableRecord
  2
0
 70
     0
 62
     7
  6
CONTINUOUS
370
    -3
390
7
  0
LAYER
  5
95
330
1B
100
AcDbSymbolTableRecord
100
AcDbLayerTableRecord
  2
GEB-KONTUR-A
 70
     0
 62
     5
  6
CONTINUOUS
370
    -3
390
7
  0
LAYER
  5
76
330
1B
100
AcDbSymbolTableRecord
100
AcDbLayerTableRecord
  2
GEB-SYMMETRIE
 70
     0
 62
     3
  6
DASHDOT
370
    -3
390
7
1001
AcAecLayerStandard
1000

1000

  0
LAYER
  5
82
330
1B
100
AcDbSymbolTableRecord
100
AcDbLayerTableRecord
  2
GEB-VERDECKT
 70
     0
 62
     2
  6
DASHED
370
    -3
390
7
1001
AcAecLayerStandard
1000

1000

  0
LAYER
  5
171
330
1B
100
AcDbSymbolTableRecord
100
AcDbLayerTableRecord
  2
GEB-ART-NR
 70
     0
 62
     1
  6
CONTINUOUS
370
    18
390
7
  0
LAYER
  5
72
330
1B
100
AcDbSymbolTableRecord
100
AcDbLayerTableRecord
  2
GEB-BEZUG
 70
     0
 62
     2
  6
CONTINUOUS
370
    25
390
7
  0
LAYER
  5
16E
330
1B
100
AcDbSymbolTableRecord
100
AcDbLayerTableRecord
  2
GEB-TEXT
 70
     0
 62
     5
  6
CONTINUOUS
370
    18
390
7
  0
ENDTAB
  0
TABLE
  2
STYLE
  5
20
330
0
100
AcDbSymbolTable
 70
     1
  0
STYLE
  5
21
330
20
100
AcDbSymbolTableRecord
100
AcDbTextStyleTableRecord
  2
STANDARD
 70
     0
 40
0.0
 41
1.0
 50
0.0
 71
     0
 42
0.2
  3
ARIAL.TTF
  4

1001
ACAD
1000
Arial
1071
       34
  0
ENDTAB
  0
TABLE
  2
VIEW
  5
26
330
0
100
AcDbSymbolTable
 70
     0
  0
ENDTAB
  0
TABLE
  2
UCS
  5
27
330
0
100
AcDbSymbolTable
 70
     0
  0
ENDTAB
  0
TABLE
  2
APPID
  5
2D
330
0
100
AcDbSymbolTable
 70
     3
  0
APPID
  5
1F
330
2D
100
AcDbSymbolTableRecord
100
AcDbRegAppTableRecord
  2
ACAD
 70
     0
  0
APPID
  5
78
330
2D
100
AcDbSymbolTableRecord
100
AcDbRegAppTableRecord
  2
AcAecLayerStandard
 70
     0
  0
APPID
  5
1DC
330
2D
100
AcDbSymbolTableRecord
100
AcDbRegAppTableRecord
  2
ACAD_MLEADERVER
 70
     0
  0
ENDTAB
  0
TABLE
  2
DIMSTYLE
  5
2E
330
0
100
AcDbSymbolTable
 70
     1
100
AcDbDimStyleTable
 71
     1
340
2F
  0
DIMSTYLE
105
2F
330
2E
100
AcDbSymbolTableRecord
100
AcDbDimStyleTableRecord
  2
STANDARD
 70
     0
279
     2
340
21
  0
ENDTAB
  0
TABLE
  2
BLOCK_RECORD
  5
1
330
0
100
AcDbSymbolTable
 70
     1
  0
BLOCK_RECORD
  5
2
102
{ACAD_XDICTIONARY
360
3
102
}
330
1
100
AcDbSymbolTableRecord
100
AcDbBlockTableRecord
  2
*Model_Space
340
15
  0
BLOCK_RECORD
  5
17
330
1
100
AcDbSymbolTableRecord
100
AcDbBlockTableRecord
  2
*Paper_Space
340
1A
  0
BLOCK_RECORD
  5
6F
330
1
100
AcDbSymbolTableRecord
100
AcDbBlockTableRecord
  2
Einfügepunkt
340
0
102
{BLKREFS
331
6E
102
}
  0
ENDTAB
  0
ENDSEC
  0
SECTION
  2
BLOCKS
  0
BLOCK
  5
5
330
2
100
AcDbEntity
  8
0
100
AcDbBlockBegin
  2
*Model_Space
 70
     0
 10
0.0
 20
0.0
 30
0.0
  3
*Model_Space
  1

  0
ENDBLK
  5
14
330
2
100
AcDbEntity
  8
0
100
AcDbBlockEnd
  0
BLOCK
  5
18
330
17
100
AcDbEntity
 67
     1
  8
0
100
AcDbBlockBegin
  2
*Paper_Space
 70
     0
 10
0.0
 20
0.0
 30
0.0
  3
*Paper_Space
  1

  0
ENDBLK
  5
19
330
17
100
AcDbEntity
 67
     1
  8
0
100
AcDbBlockEnd
  0
BLOCK
  5
70
330
6F
100
AcDbEntity
  8
0
100
AcDbBlockBegin
  2
Einfügepunkt
 70
     0
 10
0.0
 20
0.0
 30
0.0
  3
Einfügepunkt
  1

  0
LINE
  5
71
330
6F
100
AcDbEntity
  8
GEB-BEZUG
100
AcDbLine
 10
-0.7071067811865817
 20
-0.7071067811865106
 30
0.0
 11
0.7071067811864751
 21
0.7071067811865817
 31
0.0
  0
LINE
  5
73
330
6F
100
AcDbEntity
  8
GEB-BEZUG
100
AcDbLine
 10
-0.7071067811865106
 20
0.7071067811865817
 30
0.0
 11
0.7071067811865462
 21
-0.7071067811865106
 31
0.0
  0
ENDBLK
  5
74
330
6F
100
AcDbEntity
  8
0
100
AcDbBlockEnd
  0
ENDSEC
  0
SECTION
  2
ENTITIES
  0
INSERT
  5
6E
330
2
100
AcDbEntity
  8
0
 48
25.0
100
AcDbBlockReference
  2
Einfügepunkt
 10
0.0
 20
0.0
 30
0.0
  0
LINE
  5
75
330
2
100
AcDbEntity
  8
GEB-SYMMETRIE
 48
25.0
100
AcDbLine
 10
-0.0000000000009379
 20
146.0531434217769
 30
0.0
 11
-0.0000000000010516
 21
159.7999999999997
 31
0.0
  0
LINE
  5
79
330
2
100
AcDbEntity
  8
GEB-SYMMETRIE
 48
25.0
100
AcDbLine
 10
-0.0000000000008811
 20
154.7999999999997
 30
0.0
 11
-0.0000000000014779
 21
207.2999999999997
 31
0.0
  0
LINE
  5
7A
330
2
100
AcDbEntity
  8
GEB-SYMMETRIE
 48
25.0
100
AcDbLine
 10
-0.0000000000013927
 20
202.2999999999997
 30
0.0
 11
-0.0000000000015916
 21
217.5999999999997
 31
0.0
  0
LINE
  5
7B
330
2
100
AcDbEntity
  8
GEB-SYMMETRIE
 48
25.0
100
AcDbLine
 10
-0.0000000000015064
 20
212.5999999999997
 30
0.0
 11
-0.0000000000016485
 21
224.1999999999998
 31
0.0
  0
LINE
  5
7C
330
2
100
AcDbEntity
  8
GEB-SYMMETRIE
 48
25.0
100
AcDbLine
 10
-49.58006809816038
 20
145.7881041376081
 30
0.0
 11
-59.08520942090956
 21
146.2031075702382
 31
0.0
  0
LINE
  5
7D
330
2
100
AcDbEntity
  8
GEB-SYMMETRIE
 48
25.0
100
AcDbLine
 10
-55.59066973820108
 20
110.9671410576854
 30
0.0
 11
-65.77711768308367
 21
111.4118909798476
 31
0.0
  0
LINE
  5
7E
330
2
100
AcDbEntity
  8
GEB-SYMMETRIE
 48
25.0
100
AcDbLine
 10
-60.78187657517438
 20
111.1937940430209
 30
0.0
 11
-104.0406645696688
 21
113.0825135159398
 31
0.0
  0
LINE
  5
7F
330
2
100
AcDbEntity
  8
GEB-SYMMETRIE
 48
25.0
100
AcDbLine
 10
-99.04542346175958
 20
112.8644165791133
 30
0.0
 11
-112.732384097431
 21
113.4620021860183
 31
0.0
  0
LINE
  5
80
330
2
100
AcDbEntity
  8
GEB-SYMMETRIE
 48
25.0
100
AcDbLine
 10
-107.7371429895217
 20
113.2439052491918
 30
0.0
 11
-118.7266734269222
 21
113.7237185102103
 31
0.0
  0
LINE
  5
81
330
2
100
AcDbEntity
  8
GEB-VERDECKT
 48
25.0
100
AcDbLine
 10
51.59999999999931
 20
144.5999999999999
 30
0.0
 11
51.59999999999925
 21
148.5531434217771
 31
0.0
  0
LINE
  5
84
330
2
100
AcDbEntity
  8
GEB-VERDECKT
 48
25.0
100
AcDbLine
 10
-51.6000000000009
 20
144.5999999999994
 30
0.0
 11
-51.60000000000093
 21
148.5531434217764
 31
0.0
  0
LINE
  5
85
330
2
100
AcDbEntity
  8
GEB-VERDECKT
 48
25.0
100
AcDbLine
 10
51.59999999999927
 20
148.5531434217771
 30
0.0
 11
56.6499999999992
 21
157.2999999999999
 31
0.0
  0
LINE
  5
86
330
2
100
AcDbEntity
  8
GEB-VERDECKT
 48
25.0
100
AcDbLine
 10
-51.60000000000093
 20
148.5531434217764
 30
0.0
 11
-56.65000000000103
 21
157.2999999999993
 31
0.0
  0
LINE
  5
87
330
2
100
AcDbEntity
  8
GEB-VERDECKT
 48
25.0
100
AcDbLine
 10
56.6499999999992
 20
157.2999999999999
 30
0.0
 11
56.64999999999867
 21
204.7999999999997
 31
0.0
  0
LINE
  5
88
330
2
100
AcDbEntity
  8
GEB-VERDECKT
 48
25.0
100
AcDbLine
 10
-56.65000000000103
 20
157.2999999999993
 30
0.0
 11
-56.65000000000154
 21
204.799999999999
 31
0.0
  0
LINE
  5
89
330
2
100
AcDbEntity
  8
GEB-VERDECKT
 48
25.0
100
AcDbLine
 10
60.54999999999868
 20
204.7999999999997
 30
0.0
 11
60.54999999999857
 21
215.0999999999997
 31
0.0
  0
LINE
  5
8A
330
2
100
AcDbEntity
  8
GEB-VERDECKT
 48
25.0
100
AcDbLine
 10
-60.55000000000152
 20
204.799999999999
 30
0.0
 11
-60.55000000000163
 21
215.099999999999
 31
0.0
  0
LINE
  5
8B
330
2
100
AcDbEntity
  8
GEB-VERDECKT
 48
25.0
100
AcDbLine
 10
56.64999999999857
 20
215.0999999999997
 30
0.0
 11
56.64999999999849
 21
221.6999999999998
 31
0.0
  0
LINE
  5
8C
330
2
100
AcDbEntity
  8
GEB-VERDECKT
 48
25.0
100
AcDbLine
 10
-56.65000000000162
 20
215.099999999999
 30
0.0
 11
-56.65000000000171
 21
221.6999999999991
 31
0.0
  0
LINE
  5
8D
330
2
100
AcDbEntity
  8
GEB-VERDECKT
 48
25.0
100
AcDbLine
 10
-58.40000000000092
 20
147.5999999999994
 30
0.0
 11
-58.40000000000097
 21
150.4772872270341
 31
0.0
  0
LINE
  5
8E
330
2
100
AcDbEntity
  8
GEB-VERDECKT
 48
25.0
100
AcDbLine
 10
51.59999999999925
 20
148.5531434217771
 30
0.0
 11
-51.60000000000093
 21
148.5531434217764
 31
0.0
  0
LINE
  5
8F
330
2
100
AcDbEntity
  8
GEB-VERDECKT
 48
25.0
100
AcDbLine
 10
56.64999999999918
 20
157.2999999999999
 30
0.0
 11
-56.65000000000103
 21
157.2999999999993
 31
0.0
  0
LINE
  5
90
330
2
100
AcDbEntity
  8
GEB-VERDECKT
 48
25.0
100
AcDbLine
 10
60.54999999999868
 20
204.7999999999997
 30
0.0
 11
-60.55000000000152
 21
204.799999999999
 31
0.0
  0
LINE
  5
91
330
2
100
AcDbEntity
  8
GEB-VERDECKT
 48
25.0
100
AcDbLine
 10
60.54999999999856
 20
215.0999999999997
 30
0.0
 11
-60.55000000000163
 21
215.099999999999
 31
0.0
  0
LINE
  5
92
330
2
100
AcDbEntity
  8
GEB-VERDECKT
 48
25.0
100
AcDbLine
 10
-56.55504665630144
 20
147.5999999999994
 30
0.0
 11
-58.40000000000092
 21
147.5999999999994
 31
0.0
  0
LINE
  5
93
330
2
100
AcDbEntity
  8
GEB-VERDECKT
 48
25.0
100
AcDbLine
 10
-12.50000000000082
 20
147.5999999999994
 30
0.0
 11
12.4999999999992
 21
147.5999999999997
 31
0.0
  0
LINE
  5
94
330
2
100
AcDbEntity
  8
GEB-KONTUR-A
 48
25.0
100
AcDbLine
 10
60.14999999999855
 20
218.5999999999995
 30
0.0
 11
60.14999999999851
 21
221.7999999999995
 31
0.0
  0
LINE
  5
96
330
2
100
AcDbEntity
  8
GEB-KONTUR-A
 48
25.0
100
AcDbLine
 10
-60.15000000000168
 20
218.5999999999988
 30
0.0
 11
-60.15000000000171
 21
221.7999999999988
 31
0.0
  0
LINE
  5
97
330
2
100
AcDbEntity
  8
GEB-KONTUR-A
 48
25.0
100
AcDbLine
 10
64.04999999999873
 20
201.2999999999997
 30
0.0
 11
64.04999999999856
 21
218.5999999999995
 31
0.0
  0
LINE
  5
98
330
2
100
AcDbEntity
  8
GEB-KONTUR-A
 48
25.0
100
AcDbLine
 10
-64.05000000000152
 20
201.2999999999991
 30
0.0
 11
-64.05000000000171
 21
218.5999999999988
 31
0.0
  0
LINE
  5
99
330
2
100
AcDbEntity
  8
GEB-KONTUR-A
 48
25.0
100
AcDbLine
 10
-58.40000000000097
 20
150.4772872270341
 30
0.0
 11
-58.40000000000097
 21
153.0999999999992
 31
0.0
  0
ARC
  5
9A
330
2
100
AcDbEntity
  8
GEB-KONTUR-A
 48
25.0
100
AcDbCircle
 10
-60.15000000000137
 20
188.6857142857134
 30
0.0
 40
5.314285714285709
100
AcDbArc
 50
90.0
 51
121.2844929144176
  0
ARC
  5
9B
330
2
100
AcDbEntity
  8
GEB-KONTUR-A
 48
25.0
100
AcDbCircle
 10
-60.15000000000146
 20
196.9142857142847
 30
0.0
 40
5.314285714285721
100
AcDbArc
 50
238.7155070855838
 51
270.0000000000017
  0
ARC
  5
9C
330
2
100
AcDbEntity
  8
GEB-KONTUR-A
 48
25.0
100
AcDbCircle
 10
-62.65000000000142
 20
192.799999999999
 30
0.0
 40
0.5000000000000013
100
AcDbArc
 50
121.2844929144162
 51
238.7155070855748
  0
ARC
  5
9D
330
2
100
AcDbEntity
  8
GEB-KONTUR-A
 48
25.0
100
AcDbCircle
 10
60.14999999999886
 20
188.6857142857141
 30
0.0
 40
5.314285714285724
100
AcDbArc
 50
58.71550708558374
 51
90.00000000000161
  0
ARC
  5
9E
330
2
100
AcDbEntity
  8
GEB-KONTUR-A
 48
25.0
100
AcDbCircle
 10
60.14999999999878
 20
196.9142857142854
 30
0.0
 40
5.314285714285706
100
AcDbArc
 50
270.0000000000017
 51
301.2844929144176
  0
ARC
  5
9F
330
2
100
AcDbEntity
  8
GEB-KONTUR-A
 48
25.0
100
AcDbCircle
 10
62.64999999999884
 20
192.7999999999997
 30
0.0
 40
0.5000000000000014
100
AcDbArc
 50
301.2844929144059
 51
58.71550708557758
  0
ARC
  5
A0
330
2
100
AcDbEntity
  8
GEB-KONTUR-A
 48
25.0
100
AcDbCircle
 10
-60.15000000000128
 20
180.4357142857134
 30
0.0
 40
5.31428571428571
100
AcDbArc
 50
90.0
 51
121.2844929144176
  0
ARC
  5
A1
330
2
100
AcDbEntity
  8
GEB-KONTUR-A
 48
25.0
100
AcDbCircle
 10
-60.15000000000137
 20
188.6642857142847
 30
0.0
 40
5.314285714285721
100
AcDbArc
 50
238.7155070855838
 51
270.0000000000017
  0
ARC
  5
A2
330
2
100
AcDbEntity
  8
GEB-KONTUR-A
 48
25.0
100
AcDbCircle
 10
-62.65000000000137
 20
184.549999999999
 30
0.0
 40
0.5000000000000014
100
AcDbArc
 50
121.2844929144107
 51
238.7155070855776
  0
ARC
  5
A3
330
2
100
AcDbEntity
  8
GEB-KONTUR-A
 48
25.0
100
AcDbCircle
 10
-60.15000000000117
 20
172.1857142857134
 30
0.0
 40
5.314285714285709
100
AcDbArc
 50
90.0
 51
121.2844929144176
  0
ARC
  5
A4
330
2
100
AcDbEntity
  8
GEB-KONTUR-A
 48
25.0
100
AcDbCircle
 10
-60.15000000000128
 20
180.4142857142849
 30
0.0
 40
5.314285714285721
100
AcDbArc
 50
238.7155070855838
 51
270.0000000000017
  0
ARC
  5
A5
330
2
100
AcDbEntity
  8
GEB-KONTUR-A
 48
25.0
100
AcDbCircle
 10
-62.65000000000125
 20
176.299999999999
 30
0.0
 40
0.5000000000000013
100
AcDbArc
 50
121.2844929144107
 51
238.7155070855748
  0
ARC
  5
A6
330
2
100
AcDbEntity
  8
GEB-KONTUR-A
 48
25.0
100
AcDbCircle
 10
-60.15000000000111
 20
163.9357142857134
 30
0.0
 40
5.314285714285709
100
AcDbArc
 50
90.0
 51
121.2844929144176
  0
ARC
  5
A7
330
2
100
AcDbEntity
  8
GEB-KONTUR-A
 48
25.0
100
AcDbCircle
 10
-60.1500000000012
 20
172.1642857142849
 30
0.0
 40
5.314285714285721
100
AcDbArc
 50
238.7155070855838
 51
270.0000000000017
  0
ARC
  5
A8
330
2
100
AcDbEntity
  8
GEB-KONTUR-A
 48
25.0
100
AcDbCircle
 10
-62.65000000000114
 20
168.049999999999
 30
0.0
 40
0.5000000000000014
100
AcDbArc
 50
121.2844929144162
 51
238.7155070855776
  0
ARC
  5
A9
330
2
100
AcDbEntity
  8
GEB-KONTUR-A
 48
25.0
100
AcDbCircle
 10
60.14999999999893
 20
180.4357142857138
 30
0.0
 40
5.314285714285724
100
AcDbArc
 50
58.71550708558374
 51
90.00000000000161
  0
ARC
  5
AA
330
2
100
AcDbEntity
  8
GEB-KONTUR-A
 48
25.0
100
AcDbCircle
 10
60.14999999999886
 20
188.6642857142853
 30
0.0
 40
5.314285714285706
100
AcDbArc
 50
270.0000000000017
 51
301.2844929144176
  0
ARC
  5
AB
330
2
100
AcDbEntity
  8
GEB-KONTUR-A
 48
25.0
100
AcDbCircle
 10
62.64999999999893
 20
184.5499999999997
 30
0.0
 40
0.5000000000000013
100
AcDbArc
 50
301.2844929144176
 51
58.71550708557619
  0
ARC
  5
AC
330
2
100
AcDbEntity
  8
GEB-KONTUR-A
 48
25.0
100
AcDbCircle
 10
60.14999999999902
 20
172.1857142857141
 30
0.0
 40
5.314285714285724
100
AcDbArc
 50
58.71550708558374
 51
90.00000000000161
  0
ARC
  5
AD
330
2
100
AcDbEntity
  8
GEB-KONTUR-A
 48
25.0
100
AcDbCircle
 10
60.14999999999895
 20
180.4142857142856
 30
0.0
 40
5.314285714285706
100
AcDbArc
 50
270.0000000000017
 51
301.2844929144176
  0
ARC
  5
AE
330
2
100
AcDbEntity
  8
GEB-KONTUR-A
 48
25.0
100
AcDbCircle
 10
62.64999999999901
 20
176.2999999999997
 30
0.0
 40
0.5000000000000013
100
AcDbArc
 50
301.2844929144176
 51
58.71550708557758
  0
ARC
  5
AF
330
2
100
AcDbEntity
  8
GEB-KONTUR-A
 48
25.0
100
AcDbCircle
 10
60.14999999999912
 20
163.9357142857141
 30
0.0
 40
5.314285714285724
100
AcDbArc
 50
58.71550708558374
 51
90.00000000000161
  0
ARC
  5
B0
330
2
100
AcDbEntity
  8
GEB-KONTUR-A
 48
25.0
100
AcDbCircle
 10
60.14999999999904
 20
172.1642857142856
 30
0.0
 40
5.314285714285706
100
AcDbArc
 50
270.0000000000017
 51
301.2844929144176
  0
ARC
  5
B1
330
2
100
AcDbEntity
  8
GEB-KONTUR-A
 48
25.0
100
AcDbCircle
 10
62.64999999999908
 20
168.0499999999997
 30
0.0
 40
0.5000000000000014
100
AcDbArc
 50
301.2844929144176
 51
58.71550708557619
  0
LINE
  5
B2
330
2
100
AcDbEntity
  8
GEB-KONTUR-A
 48
25.0
100
AcDbLine
 10
58.39999999999929
 20
147.5999999999999
 30
0.0
 11
58.39999999999924
 21
153.0999999999999
 31
0.0
  0
LINE
  5
B3
330
2
100
AcDbEntity
  8
GEB-KONTUR-A
 48
25.0
100
AcDbLine
 10
60.14999999999879
 20
193.9999999999995
 30
0.0
 11
60.1499999999987
 21
201.2999999999997
 31
0.0
  0
LINE
  5
B4
330
2
100
AcDbEntity
  8
GEB-KONTUR-A
 48
25.0
100
AcDbLine
 10
60.14999999999886
 20
185.7499999999997
 30
0.0
 11
60.14999999999884
 21
191.5999999999996
 31
0.0
  0
LINE
  5
B5
330
2
100
AcDbEntity
  8
GEB-KONTUR-A
 48
25.0
100
AcDbLine
 10
60.14999999999898
 20
177.4999999999997
 30
0.0
 11
60.1499999999989
 21
183.3499999999999
 31
0.0
  0
LINE
  5
B6
330
2
100
AcDbEntity
  8
GEB-KONTUR-A
 48
25.0
100
AcDbLine
 10
60.14999999999904
 20
169.2499999999997
 30
0.0
 11
60.14999999999901
 21
175.0999999999996
 31
0.0
  0
LINE
  5
B7
330
2
100
AcDbEntity
  8
GEB-KONTUR-A
 48
25.0
100
AcDbLine
 10
60.14999999999922
 20
153.0999999999999
 30
0.0
 11
60.14999999999908
 21
166.8499999999997
 31
0.0
  0
LINE
  5
B8
330
2
100
AcDbEntity
  8
GEB-KONTUR-A
 48
25.0
100
AcDbLine
 10
-60.1500000000014
 20
193.999999999999
 30
0.0
 11
-60.15000000000148
 21
201.2999999999991
 31
0.0
  0
LINE
  5
B9
330
2
100
AcDbEntity
  8
GEB-KONTUR-A
 48
25.0
100
AcDbLine
 10
-60.15000000000132
 20
185.7499999999991
 30
0.0
 11
-60.15000000000137
 21
191.599999999999
 31
0.0
  0
LINE
  5
BA
330
2
100
AcDbEntity
  8
GEB-KONTUR-A
 48
25.0
100
AcDbLine
 10
-60.1500000000012
 20
177.4999999999991
 30
0.0
 11
-60.15000000000128
 21
183.349999999999
 31
0.0
  0
LINE
  5
BB
330
2
100
AcDbEntity
  8
GEB-KONTUR-A
 48
25.0
100
AcDbLine
 10
-60.15000000000114
 20
169.2499999999991
 30
0.0
 11
-60.15000000000117
 21
175.0999999999992
 31
0.0
  0
LINE
  5
BC
330
2
100
AcDbEntity
  8
GEB-KONTUR-A
 48
25.0
100
AcDbLine
 10
-60.15000000000097
 20
153.0999999999992
 30
0.0
 11
-60.15000000000111
 21
166.8499999999992
 31
0.0
  0
LINE
  5
BD
330
2
100
AcDbEntity
  8
GEB-KONTUR-A
 48
25.0
100
AcDbLine
 10
60.14999999999851
 20
221.7999999999995
 30
0.0
 11
-60.15000000000171
 21
221.7999999999988
 31
0.0
  0
LINE
  5
BE
330
2
100
AcDbEntity
  8
GEB-KONTUR-A
 48
25.0
100
AcDbLine
 10
64.04999999999853
 20
218.5999999999995
 30
0.0
 11
-64.05000000000171
 21
218.599999999999
 31
0.0
  0
LINE
  5
BF
330
2
100
AcDbEntity
  8
GEB-KONTUR-A
 48
25.0
100
AcDbLine
 10
-12.50000000000088
 20
147.5999999999994
 30
0.0
 11
-56.55504665630141
 21
147.5999999999994
 31
0.0
  0
LINE
  5
C0
330
2
100
AcDbEntity
  8
GEB-KONTUR-A
 48
25.0
100
AcDbLine
 10
58.39999999999929
 20
147.5999999999999
 30
0.0
 11
12.49999999999914
 21
147.5999999999997
 31
0.0
  0
SPLINE
  5
C1
330
2
100
AcDbEntity
  8
GEB-KONTUR-A
 48
25.0
100
AcDbSpline
210
0.0
220
0.0
230
1.0
 70
     8
 71
     3
 72
    16
 73
    12
 74
     0
 42
0.0000000001
 43
0.0000000001
 40
0.0026009342830052
 40
0.0026009342830052
 40
0.0026009342830052
 40
0.0026009342830052
 40
2.288447646738548
 40
2.288447646738548
 40
4.621313960225682
 40
4.621313960225682
 40
5.46277531789885
 40
5.46277531789885
 40
5.947182010080226
 40
5.947182010080226
 40
6.130712173490198
 40
6.130712173490198
 40
6.130712173490198
 40
6.130712173490198
 10
31.64874323162872
 20
193.2272997032637
 30
0.0
 10
38.12038397981157
 20
193.5989171485014
 30
0.0
 10
43.78086014623664
 20
193.7725473709531
 30
0.0
 10
52.95402558509723
 20
193.9723336152356
 30
0.0
 10
56.33147470020066
 20
193.9899864845635
 30
0.0
 10
58.96178631369671
 20
193.9991410493783
 30
0.0
 10
59.46787989009113
 20
193.9996587178714
 30
0.0
 10
59.95826292144251
 20
193.9999956387055
 30
0.0
 10
60.07264496976524
 20
193.9999967080844
 30
0.0
 10
60.14065656021095
 20
194.0000002428014
 30
0.0
 10
60.14999999999879
 20
193.9999999999995
 30
0.0
 10
60.14999999999879
 20
193.9999999999995
 30
0.0
  0
SPLINE
  5
C2
330
2
100
AcDbEntity
  8
GEB-KONTUR-A
 48
25.0
100
AcDbSpline
210
0.0
220
0.0
230
1.0
 70
     8
 71
     3
 72
    28
 73
    24
 74
     0
 42
0.0000000001
 43
0.0000000001
 40
0.0003135965776966
 40
0.0003135965776966
 40
0.0003135965776966
 40
0.0003135965776966
 40
0.2718281047685813
 40
0.2718281047685813
 40
0.3877372981802412
 40
0.3877372981802412
 40
0.4023246078334032
 40
0.4023246078334032
 40
0.4094618537022258
 40
0.4094618537022258
 40
0.4141700486735726
 40
0.4141700486735726
 40
0.4184552481946902
 40
0.4184552481946902
 40
0.4238538387516468
 40
0.4238538387516468
 40
0.4337033556841512
 40
0.4337033556841512
 40
0.4587932383512742
 40
0.4587932383512742
 40
0.5538885021223808
 40
0.5538885021223808
 40
0.872853040524146
 40
0.872853040524146
 40
0.872853040524146
 40
0.872853040524146
 10
31.64874323162872
 20
192.3727002967352
 30
0.0
 10
30.8803321945187
 20
192.4168243384761
 30
0.0
 10
30.23698255638402
 20
192.478863954353
 30
0.0
 10
29.59204785500531
 20
192.5865882172379
 30
0.0
 10
29.29098911771379
 20
192.6449269518361
 30
0.0
 10
29.14551965153979
 20
192.7339180608765
 30
0.0
 10
29.12962174437668
 20
192.745629953082
 30
0.0
 10
29.11233794365313
 20
192.7653311134129
 30
0.0
 10
29.10710762725102
 20
192.7728306210449
 30
0.0
 10
29.10156288607077
 20
192.7866806557749
 30
0.0
 10
29.10021376780071
 20
192.7924687961899
 30
0.0
 10
29.09984997257895
 20
192.8040251675654
 30
0.0
 10
29.10064800995988
 20
192.8093797411725
 30
0.0
 10
29.10428498138765
 20
192.8211173274733
 30
0.0
 10
29.10752068060742
 20
192.8271465472173
 30
0.0
 10
29.11817592159636
 20
192.8425015574184
 30
0.0
 10
29.1274019660892
 20
192.8512369362304
 30
0.0
 10
29.15952113155837
 20
192.8769074346039
 30
0.0
 10
29.19052440950122
 20
192.8928722605135
 30
0.0
 10
29.33446531081394
 20
192.9553768810406
 30
0.0
 10
29.506863450862
 20
192.9940978573065
 30
0.0
 10
30.09697478076601
 20
193.1074533116882
 30
0.0
 10
30.79618490368142
 20
193.1783437182089
 30
0.0
 10
31.64874323162872
 20
193.2272997032637
 30
0.0
  0
SPLINE
  5
C3
330
2
100
AcDbEntity
  8
GEB-KONTUR-A
 48
25.0
100
AcDbSpline
210
0.0
220
0.0
230
1.0
 70
     8
 71
     3
 72
    18
 73
    14
 74
     0
 42
0.0000000001
 43
0.0000000001
 40
6.130712173490306
 40
6.130712173490306
 40
6.130712173490306
 40
6.130712173490306
 40
6.358283137277893
 40
6.358283137277893
 40
6.861022006813983
 40
6.861022006813983
 40
7.812083211287353
 40
7.812083211287353
 40
9.010772298240878
 40
9.010772298240878
 40
10.8712306656534
 40
10.8712306656534
 40
12.25035599329195
 40
12.25035599329195
 40
12.25035599329195
 40
12.25035599329195
 10
60.14999999999884
 20
191.5999999999996
 30
0.0
 10
60.14999999999884
 20
191.5999999999996
 30
0.0
 10
60.13563433948853
 20
191.5999994262199
 30
0.0
 10
60.04343596444019
 20
191.6000067928503
 30
0.0
 10
59.90991567043519
 20
191.6000152025844
 30
0.0
 10
59.32224655679135
 20
191.6004976975161
 30
0.0
 10
58.68927404880539
 20
191.6012688879882
 30
0.0
 10
56.71017029462037
 20
191.6097963966192
 30
0.0
 10
55.22618499991001
 20
191.6192195676674
 30
0.0
 10
50.52438049460111
 20
191.6776067738606
 30
0.0
 10
46.83005182006712
 20
191.7441398851049
 30
0.0
 10
39.17410840940778
 20
191.9979822639509
 30
0.0
 10
35.55478399445063
 20
192.1484058796384
 30
0.0
 10
31.64874323162872
 20
192.3727002967352
 30
0.0
  0
SPLINE
  5
C4
330
2
100
AcDbEntity
  8
GEB-KONTUR-A
 48
25.0
100
AcDbSpline
210
0.0
220
0.0
230
1.0
 70
     8
 71
     3
 72
    16
 73
    12
 74
     0
 42
0.0000000001
 43
0.0000000001
 40
0.0026009342830055
 40
0.0026009342830055
 40
0.0026009342830055
 40
0.0026009342830055
 40
2.288447646738548
 40
2.288447646738548
 40
4.621313960225681
 40
4.621313960225681
 40
5.462775317898849
 40
5.462775317898849
 40
5.947182010080225
 40
5.947182010080225
 40
6.130712173490197
 40
6.130712173490197
 40
6.130712173490197
 40
6.130712173490197
 10
31.6487432316288
 20
184.9772997032637
 30
0.0
 10
38.12038397981167
 20
185.3489171485014
 30
0.0
 10
43.78086014623673
 20
185.5225473709531
 30
0.0
 10
52.95402558509732
 20
185.7223336152353
 30
0.0
 10
56.33147470020077
 20
185.7399864845636
 30
0.0
 10
58.96178631369678
 20
185.7491410493783
 30
0.0
 10
59.46787989009121
 20
185.7496587178716
 30
0.0
 10
59.95826292144258
 20
185.7499956387055
 30
0.0
 10
60.07264496976532
 20
185.7499967080844
 30
0.0
 10
60.14065656021102
 20
185.7500002428016
 30
0.0
 10
60.14999999999886
 20
185.7499999999997
 30
0.0
 10
60.14999999999886
 20
185.7499999999997
 30
0.0
  0
SPLINE
  5
C5
330
2
100
AcDbEntity
  8
GEB-KONTUR-A
 48
25.0
100
AcDbSpline
210
0.0
220
0.0
230
1.0
 70
     8
 71
     3
 72
    28
 73
    24
 74
     0
 42
0.0000000001
 43
0.0000000001
 40
0.0003135965776972
 40
0.0003135965776972
 40
0.0003135965776972
 40
0.0003135965776972
 40
0.2718281047683244
 40
0.2718281047683244
 40
0.3877372981776429
 40
0.3877372981776429
 40
0.4023246078302649
 40
0.4023246078302649
 40
0.4094618536987931
 40
0.4094618536987931
 40
0.4141700486699519
 40
0.4141700486699519
 40
0.4184552481908977
 40
0.4184552481908977
 40
0.423853838747831
 40
0.423853838747831
 40
0.4337033556810461
 40
0.4337033556810461
 40
0.4587932383474159
 40
0.4587932383474159
 40
0.553888502114328
 40
0.553888502114328
 40
0.8728530404944914
 40
0.8728530404944914
 40
0.8728530404944914
 40
0.8728530404944914
 10
31.6487432316288
 20
184.1227002967355
 30
0.0
 10
30.8803321945195
 20
184.1668243384761
 30
0.0
 10
30.23698255638448
 20
184.2288639543528
 30
0.0
 10
29.59204785500862
 20
184.3365882172374
 30
0.0
 10
29.29098911771461
 20
184.3949269518359
 30
0.0
 10
29.14551965154006
 20
184.4839180608764
 30
0.0
 10
29.12962174437684
 20
184.495629953082
 30
0.0
 10
29.11233794365318
 20
184.5153311134129
 30
0.0
 10
29.1071076272511
 20
184.5228306210449
 30
0.0
 10
29.10156288607085
 20
184.5366806557749
 30
0.0
 10
29.10021376780078
 20
184.5424687961899
 30
0.0
 10
29.09984997257902
 20
184.5540251675654
 30
0.0
 10
29.10064800995997
 20
184.5593797411725
 30
0.0
 10
29.10428498138779
 20
184.5711173274735
 30
0.0
 10
29.10752068060802
 20
184.577146547218
 30
0.0
 10
29.11817592159639
 20
184.5925015574182
 30
0.0
 10
29.12740196608826
 20
184.6012369362299
 30
0.0
 10
29.15952113155828
 20
184.6269074346039
 30
0.0
 10
29.19052440950104
 20
184.6428722605135
 30
0.0
 10
29.33446531081275
 20
184.7053768810401
 30
0.0
 10
29.50686345085876
 20
184.7440978573058
 30
0.0
 10
30.09697478076572
 20
184.8574533116882
 30
0.0
 10
30.79618490368108
 20
184.9283437182089
 30
0.0
 10
31.6487432316288
 20
184.9772997032637
 30
0.0
  0
SPLINE
  5
C6
330
2
100
AcDbEntity
  8
GEB-KONTUR-A
 48
25.0
100
AcDbSpline
210
0.0
220
0.0
230
1.0
 70
     8
 71
     3
 72
    18
 73
    14
 74
     0
 42
0.0000000001
 43
0.0000000001
 40
6.130712173490306
 40
6.130712173490306
 40
6.130712173490306
 40
6.130712173490306
 40
6.358283137277893
 40
6.358283137277893
 40
6.861022006813983
 40
6.861022006813983
 40
7.812083211287353
 40
7.812083211287353
 40
9.010772298240878
 40
9.010772298240878
 40
10.8712306656534
 40
10.8712306656534
 40
12.25035599329195
 40
12.25035599329195
 40
12.25035599329195
 40
12.25035599329195
 10
60.14999999999893
 20
183.3499999999999
 30
0.0
 10
60.14999999999893
 20
183.3499999999999
 30
0.0
 10
60.13563433948862
 20
183.3499994262199
 30
0.0
 10
60.04343596444029
 20
183.3500067928503
 30
0.0
 10
59.90991567043529
 20
183.3500152025844
 30
0.0
 10
59.32224655679147
 20
183.3504976975161
 30
0.0
 10
58.68927404880548
 20
183.3512688879884
 30
0.0
 10
56.71017029462046
 20
183.3597963966192
 30
0.0
 10
55.22618499991011
 20
183.3692195676674
 30
0.0
 10
50.5243804946012
 20
183.4276067738608
 30
0.0
 10
46.83005182006721
 20
183.4941398851049
 30
0.0
 10
39.17410840940789
 20
183.7479822639509
 30
0.0
 10
35.55478399445072
 20
183.8984058796386
 30
0.0
 10
31.6487432316288
 20
184.1227002967355
 30
0.0
  0
SPLINE
  5
C7
330
2
100
AcDbEntity
  8
GEB-KONTUR-A
 48
25.0
100
AcDbSpline
210
0.0
220
0.0
230
1.0
 70
     8
 71
     3
 72
    16
 73
    12
 74
     0
 42
0.0000000001
 43
0.0000000001
 40
0.0026009342830053
 40
0.0026009342830053
 40
0.0026009342830053
 40
0.0026009342830053
 40
2.288447646738548
 40
2.288447646738548
 40
4.621313960225681
 40
4.621313960225681
 40
5.462775317898849
 40
5.462775317898849
 40
5.947182010080225
 40
5.947182010080225
 40
6.130712173490197
 40
6.130712173490197
 40
6.130712173490197
 40
6.130712173490197
 10
31.6487432316289
 20
176.7272997032637
 30
0.0
 10
38.12038397981172
 20
177.0989171485014
 30
0.0
 10
43.78086014623683
 20
177.2725473709531
 30
0.0
 10
52.95402558509739
 20
177.4723336152353
 30
0.0
 10
56.33147470020084
 20
177.4899864845636
 30
0.0
 10
58.96178631369686
 20
177.4991410493783
 30
0.0
 10
59.46787989009131
 20
177.4996587178716
 30
0.0
 10
59.95826292144267
 20
177.4999956387057
 30
0.0
 10
60.0726449697654
 20
177.4999967080844
 30
0.0
 10
60.14065656021111
 20
177.5000002428014
 30
0.0
 10
60.14999999999898
 20
177.4999999999997
 30
0.0
 10
60.14999999999898
 20
177.4999999999997
 30
0.0
  0
SPLINE
  5
C8
330
2
100
AcDbEntity
  8
GEB-KONTUR-A
 48
25.0
100
AcDbSpline
210
0.0
220
0.0
230
1.0
 70
     8
 71
     3
 72
    28
 73
    24
 74
     0
 42
0.0000000001
 43
0.0000000001
 40
0.0003135965776966
 40
0.0003135965776966
 40
0.0003135965776966
 40
0.0003135965776966
 40
0.27182810476832
 40
0.27182810476832
 40
0.3877372981811838
 40
0.3877372981811838
 40
0.4023246078318479
 40
0.4023246078318479
 40
0.4094618536992356
 40
0.4094618536992356
 40
0.4141700486694376
 40
0.4141700486694376
 40
0.4184552481893958
 40
0.4184552481893958
 40
0.4238538387450838
 40
0.4238538387450838
 40
0.4337033556760258
 40
0.4337033556760258
 40
0.4587932383366095
 40
0.4587932383366095
 40
0.5538885020816426
 40
0.5538885020816426
 40
0.8728530403884468
 40
0.8728530403884468
 40
0.8728530403884468
 40
0.8728530403884468
 10
31.6487432316289
 20
175.8727002967355
 30
0.0
 10
30.8803321945196
 20
175.9168243384761
 30
0.0
 10
30.23698255638463
 20
175.978863954353
 30
0.0
 10
29.59204785500297
 20
176.0865882172384
 30
0.0
 10
29.29098911771334
 20
176.1449269518366
 30
0.0
 10
29.14551965154288
 20
176.2339180608746
 30
0.0
 10
29.12962174437812
 20
176.2456299530804
 30
0.0
 10
29.11233794365273
 20
176.2653311134133
 30
0.0
 10
29.10710762725118
 20
176.2728306210451
 30
0.0
 10
29.10156288607115
 20
176.2866806557745
 30
0.0
 10
29.10021376780087
 20
176.2924687961899
 30
0.0
 10
29.09984997257911
 20
176.3040251675656
 30
0.0
 10
29.10064800996004
 20
176.3093797411725
 30
0.0
 10
29.10428498138788
 20
176.3211173274737
 30
0.0
 10
29.10752068060809
 20
176.327146547218
 30
0.0
 10
29.11817592159649
 20
176.3425015574182
 30
0.0
 10
29.12740196608836
 20
176.3512369362299
 30
0.0
 10
29.15952113155838
 20
176.3769074346037
 30
0.0
 10
29.19052440950114
 20
176.3928722605135
 30
0.0
 10
29.33446531081285
 20
176.4553768810399
 30
0.0
 10
29.50686345085886
 20
176.4940978573058
 30
0.0
 10
30.09697478076578
 20
176.6074533116884
 30
0.0
 10
30.79618490368118
 20
176.6783437182089
 30
0.0
 10
31.6487432316289
 20
176.7272997032637
 30
0.0
  0
SPLINE
  5
C9
330
2
100
AcDbEntity
  8
GEB-KONTUR-A
 48
25.0
100
AcDbSpline
210
0.0
220
0.0
230
1.0
 70
     8
 71
     3
 72
    18
 73
    14
 74
     0
 42
0.0000000001
 43
0.0000000001
 40
6.130712173490306
 40
6.130712173490306
 40
6.130712173490306
 40
6.130712173490306
 40
6.358283137277893
 40
6.358283137277893
 40
6.861022006813983
 40
6.861022006813983
 40
7.812083211287353
 40
7.812083211287353
 40
9.010772298240878
 40
9.010772298240878
 40
10.8712306656534
 40
10.8712306656534
 40
12.25035599329195
 40
12.25035599329195
 40
12.25035599329195
 40
12.25035599329195
 10
60.14999999999901
 20
175.0999999999996
 30
0.0
 10
60.14999999999901
 20
175.0999999999996
 30
0.0
 10
60.13563433948871
 20
175.0999994262199
 30
0.0
 10
60.04343596444037
 20
175.1000067928503
 30
0.0
 10
59.90991567043536
 20
175.1000152025844
 30
0.0
 10
59.32224655679153
 20
175.1004976975162
 30
0.0
 10
58.68927404880557
 20
175.1012688879884
 30
0.0
 10
56.71017029462055
 20
175.1097963966192
 30
0.0
 10
55.22618499991018
 20
175.1192195676674
 30
0.0
 10
50.52438049460128
 20
175.1776067738608
 30
0.0
 10
46.83005182006731
 20
175.2441398851049
 30
0.0
 10
39.17410840940796
 20
175.4979822639509
 30
0.0
 10
35.5547839944508
 20
175.6484058796386
 30
0.0
 10
31.6487432316289
 20
175.8727002967355
 30
0.0
  0
SPLINE
  5
CA
330
2
100
AcDbEntity
  8
GEB-KONTUR-A
 48
25.0
100
AcDbSpline
210
0.0
220
0.0
230
1.0
 70
     8
 71
     3
 72
    16
 73
    12
 74
     0
 42
0.0000000001
 43
0.0000000001
 40
0.0026009342830054
 40
0.0026009342830054
 40
0.0026009342830054
 40
0.0026009342830054
 40
2.288447646738548
 40
2.288447646738548
 40
4.621313960225681
 40
4.621313960225681
 40
5.462775317898849
 40
5.462775317898849
 40
5.947182010080225
 40
5.947182010080225
 40
6.130712173490197
 40
6.130712173490197
 40
6.130712173490197
 40
6.130712173490197
 10
31.64874323162898
 20
168.4772997032637
 30
0.0
 10
38.12038397981182
 20
168.8489171485016
 30
0.0
 10
43.7808601462369
 20
169.0225473709531
 30
0.0
 10
52.95402558509748
 20
169.2223336152356
 30
0.0
 10
56.33147470020091
 20
169.2399864845636
 30
0.0
 10
58.96178631369695
 20
169.2491410493785
 30
0.0
 10
59.46787989009138
 20
169.2496587178716
 30
0.0
 10
59.95826292144275
 20
169.2499956387057
 30
0.0
 10
60.07264496976549
 20
169.2499967080844
 30
0.0
 10
60.1406565602112
 20
169.2500002428014
 30
0.0
 10
60.14999999999904
 20
169.2499999999997
 30
0.0
 10
60.14999999999904
 20
169.2499999999997
 30
0.0
  0
SPLINE
  5
CB
330
2
100
AcDbEntity
  8
GEB-KONTUR-A
 48
25.0
100
AcDbSpline
210
0.0
220
0.0
230
1.0
 70
     8
 71
     3
 72
    28
 73
    24
 74
     0
 42
0.0000000001
 43
0.0000000001
 40
0.0003135965776971
 40
0.0003135965776971
 40
0.0003135965776971
 40
0.0003135965776971
 40
0.2718281047684877
 40
0.2718281047684877
 40
0.3877372981793499
 40
0.3877372981793499
 40
0.4023246078319258
 40
0.4023246078319258
 40
0.4094618537003204
 40
0.4094618537003204
 40
0.4141700486713876
 40
0.4141700486713876
 40
0.4184552481922495
 40
0.4184552481922495
 40
0.4238538387490756
 40
0.4238538387490756
 40
0.4337033556820933
 40
0.4337033556820933
 40
0.4587932383479674
 40
0.4587932383479674
 40
0.5538885021130751
 40
0.5538885021130751
 40
0.8728530404872195
 40
0.8728530404872195
 40
0.8728530404872195
 40
0.8728530404872195
 10
31.64874323162898
 20
167.6227002967355
 30
0.0
 10
30.88033219451921
 20
167.6668243384761
 30
0.0
 10
30.23698255638439
 20
167.728863954353
 30
0.0
 10
29.59204785500666
 20
167.8365882172379
 30
0.0
 10
29.29098911771432
 20
167.8949269518361
 30
0.0
 10
29.14551965154056
 20
167.9839180608762
 30
0.0
 10
29.12962174437716
 20
167.9956299530818
 30
0.0
 10
29.11233794365337
 20
168.0153311134129
 30
0.0
 10
29.10710762725128
 20
168.0228306210451
 30
0.0
 10
29.10156288607104
 20
168.0366806557749
 30
0.0
 10
29.10021376780095
 20
168.0424687961899
 30
0.0
 10
29.09984997257921
 20
168.0540251675656
 30
0.0
 10
29.10064800996014
 20
168.0593797411727
 30
0.0
 10
29.10428498138798
 20
168.0711173274737
 30
0.0
 10
29.10752068060819
 20
168.077146547218
 30
0.0
 10
29.11817592159657
 20
168.0925015574182
 30
0.0
 10
29.12740196608844
 20
168.1012369362297
 30
0.0
 10
29.15952113155846
 20
168.1269074346039
 30
0.0
 10
29.19052440950125
 20
168.1428722605137
 30
0.0
 10
29.33446531081293
 20
168.2053768810401
 30
0.0
 10
29.50686345085896
 20
168.2440978573058
 30
0.0
 10
30.09697478076589
 20
168.3574533116884
 30
0.0
 10
30.79618490368126
 20
168.4283437182089
 30
0.0
 10
31.64874323162898
 20
168.4772997032637
 30
0.0
  0
SPLINE
  5
CC
330
2
100
AcDbEntity
  8
GEB-KONTUR-A
 48
25.0
100
AcDbSpline
210
0.0
220
0.0
230
1.0
 70
     8
 71
     3
 72
    18
 73
    14
 74
     0
 42
0.0000000001
 43
0.0000000001
 40
6.130712173490305
 40
6.130712173490305
 40
6.130712173490305
 40
6.130712173490305
 40
6.358283137277892
 40
6.358283137277892
 40
6.861022006813982
 40
6.861022006813982
 40
7.812083211287352
 40
7.812083211287352
 40
9.010772298240876
 40
9.010772298240876
 40
10.87123066565339
 40
10.87123066565339
 40
12.25035599329195
 40
12.25035599329195
 40
12.25035599329195
 40
12.25035599329195
 10
60.14999999999909
 20
166.8499999999997
 30
0.0
 10
60.14999999999909
 20
166.8499999999997
 30
0.0
 10
60.1356343394888
 20
166.8499994262199
 30
0.0
 10
60.04343596444046
 20
166.8500067928505
 30
0.0
 10
59.90991567043548
 20
166.8500152025847
 30
0.0
 10
59.32224655679164
 20
166.8504976975164
 30
0.0
 10
58.68927404880565
 20
166.8512688879884
 30
0.0
 10
56.71017029462063
 20
166.8597963966192
 30
0.0
 10
55.22618499991029
 20
166.8692195676676
 30
0.0
 10
50.52438049460137
 20
166.9276067738608
 30
0.0
 10
46.83005182006738
 20
166.9941398851049
 30
0.0
 10
39.17410840940807
 20
167.2479822639511
 30
0.0
 10
35.5547839944509
 20
167.3984058796386
 30
0.0
 10
31.64874323162898
 20
167.6227002967355
 30
0.0
  0
LINE
  5
CD
330
2
100
AcDbEntity
  8
GEB-KONTUR-A
 48
25.0
100
AcDbLine
 10
60.14999999999924
 20
153.0999999999999
 30
0.0
 11
12.49999999999912
 21
153.0999999999997
 31
0.0
  0
LINE
  5
CE
330
2
100
AcDbEntity
  8
GEB-KONTUR-A
 48
25.0
100
AcDbLine
 10
-12.50000000000088
 20
153.0999999999997
 30
0.0
 11
-60.15000000000097
 21
153.0999999999992
 31
0.0
  0
SPLINE
  5
CF
330
2
100
AcDbEntity
  8
GEB-KONTUR-A
 48
25.0
100
AcDbSpline
210
0.0
220
0.0
230
1.0
 70
     8
 71
     3
 72
    28
 73
    24
 74
     0
 42
0.0000000001
 43
0.0000000001
 40
0.0003135965776838
 40
0.0003135965776838
 40
0.0003135965776838
 40
0.0003135965776838
 40
0.27182810476805
 40
0.27182810476805
 40
0.387737298180165
 40
0.387737298180165
 40
0.4023246078165032
 40
0.4023246078165032
 40
0.4094618536715683
 40
0.4094618536715683
 40
0.4141700486340024
 40
0.4141700486340024
 40
0.4184552481471301
 40
0.4184552481471301
 40
0.423853838693815
 40
0.423853838693815
 40
0.4337033556057762
 40
0.4337033556057762
 40
0.4587932382218421
 40
0.4587932382218421
 40
0.5538885018049973
 40
0.5538885018049973
 40
0.8728530395660232
 40
0.8728530395660232
 40
0.8728530395660232
 40
0.8728530395660232
 10
-31.64874323163104
 20
168.4772997032635
 30
0.0
 10
-30.88033219452245
 20
168.4331756615229
 30
0.0
 10
-30.23698255638706
 20
168.3711360456461
 30
0.0
 10
-29.59204785500586
 20
168.2634117827606
 30
0.0
 10
-29.29098911771575
 20
168.2050730481624
 30
0.0
 10
-29.14551965156093
 20
168.1160819391339
 30
0.0
 10
-29.12962174438755
 20
168.1043700469265
 30
0.0
 10
-29.11233794365586
 20
168.0846688865863
 30
0.0
 10
-29.10710762725344
 20
168.077169378954
 30
0.0
 10
-29.10156288607303
 20
168.0633193442238
 30
0.0
 10
-29.1002137678031
 20
168.0575312038088
 30
0.0
 10
-29.09984997258135
 20
168.0459748324333
 30
0.0
 10
-29.10064800996236
 20
168.040620258826
 30
0.0
 10
-29.10428498138998
 20
168.0288826725259
 30
0.0
 10
-29.10752068060893
 20
168.0228534527825
 30
0.0
 10
-29.11817592159863
 20
168.0074984425805
 30
0.0
 10
-29.12740196609153
 20
167.9987630637683
 30
0.0
 10
-29.15952113156152
 20
167.9730925653944
 30
0.0
 10
-29.19052440950554
 20
167.9571277394846
 30
0.0
 10
-29.33446531081461
 20
167.8946231189591
 30
0.0
 10
-29.50686345085996
 20
167.8559021426933
 30
0.0
 10
-30.09697478076748
 20
167.7425466883105
 30
0.0
 10
-30.79618490368242
 20
167.6716562817901
 30
0.0
 10
-31.64874323163104
 20
167.6227002967352
 30
0.0
  0
SPLINE
  5
D0
330
2
100
AcDbEntity
  8
GEB-KONTUR-A
 48
25.0
100
AcDbSpline
210
0.0
220
0.0
230
1.0
 70
     8
 71
     3
 72
    18
 73
    14
 74
     0
 42
0.0000000001
 43
0.0000000001
 40
6.130712173490141
 40
6.130712173490141
 40
6.130712173490141
 40
6.130712173490141
 40
6.358283137277722
 40
6.358283137277722
 40
6.861022006813825
 40
6.861022006813825
 40
7.812083211287131
 40
7.812083211287131
 40
9.010772298240615
 40
9.010772298240615
 40
10.87123066565299
 40
10.87123066565299
 40
12.25035599329147
 40
12.25035599329147
 40
12.25035599329147
 40
12.25035599329147
 10
-60.15000000000114
 20
169.2499999999991
 30
0.0
 10
-60.15000000000114
 20
169.2499999999991
 30
0.0
 10
-60.13563433949085
 20
169.250000573779
 30
0.0
 10
-60.04343596444252
 20
169.2499932071484
 30
0.0
 10
-59.90991567043749
 20
169.2499847974143
 30
0.0
 10
-59.32224655679366
 20
169.2495023024826
 30
0.0
 10
-58.68927404880773
 20
169.2487311120105
 30
0.0
 10
-56.71017029462262
 20
169.2402036033795
 30
0.0
 10
-55.22618499991224
 20
169.2307804323313
 30
0.0
 10
-50.52438049460343
 20
169.1723932261382
 30
0.0
 10
-46.83005182006951
 20
169.1058601148941
 30
0.0
 10
-39.1741084094102
 20
168.8520177360478
 30
0.0
 10
-35.55478399445301
 20
168.7015941203603
 30
0.0
 10
-31.64874323163104
 20
168.4772997032635
 30
0.0
  0
SPLINE
  5
D1
330
2
100
AcDbEntity
  8
GEB-KONTUR-A
 48
25.0
100
AcDbSpline
210
0.0
220
0.0
230
1.0
 70
     8
 71
     3
 72
    16
 73
    12
 74
     0
 42
0.0000000001
 43
0.0000000001
 40
0.0026009342830057
 40
0.0026009342830057
 40
0.0026009342830057
 40
0.0026009342830057
 40
2.288447646738526
 40
2.288447646738526
 40
4.62131396022564
 40
4.62131396022564
 40
5.462775317898763
 40
5.462775317898763
 40
5.947182010080127
 40
5.947182010080127
 40
6.130712173490147
 40
6.130712173490147
 40
6.130712173490147
 40
6.130712173490147
 10
-31.64874323163104
 20
167.6227002967352
 30
0.0
 10
-38.12038397981382
 20
167.2510828514973
 30
0.0
 10
-43.78086014623884
 20
167.0774526290458
 30
0.0
 10
-52.95402558509938
 20
166.8776663847634
 30
0.0
 10
-56.33147470020285
 20
166.8600135154354
 30
0.0
 10
-58.96178631369889
 20
166.8508589506205
 30
0.0
 10
-59.46787989009337
 20
166.8503412821271
 30
0.0
 10
-59.95826292144482
 20
166.8500043612932
 30
0.0
 10
-60.07264496976754
 20
166.8500032919146
 30
0.0
 10
-60.14065656021322
 20
166.8499997571973
 30
0.0
 10
-60.15000000000114
 20
166.8499999999992
 30
0.0
 10
-60.15000000000114
 20
166.8499999999992
 30
0.0
  0
SPLINE
  5
D2
330
2
100
AcDbEntity
  8
GEB-KONTUR-A
 48
25.0
100
AcDbSpline
210
0.0
220
0.0
230
1.0
 70
     8
 71
     3
 72
    28
 73
    24
 74
     0
 42
0.0000000001
 43
0.0000000001
 40
0.0003135965776838
 40
0.0003135965776838
 40
0.0003135965776838
 40
0.0003135965776838
 40
0.2718281047683098
 40
0.2718281047683098
 40
0.3877372981820208
 40
0.3877372981820208
 40
0.4023246078199079
 40
0.4023246078199079
 40
0.4094618536761372
 40
0.4094618536761372
 40
0.4141700486393469
 40
0.4141700486393469
 40
0.4184552481531843
 40
0.4184552481531843
 40
0.4238538387007652
 40
0.4238538387007652
 40
0.4337033556144
 40
0.4337033556144
 40
0.4587932382340488
 40
0.4587932382340488
 40
0.5538885018260409
 40
0.5538885018260409
 40
0.8728530396201261
 40
0.8728530396201261
 40
0.8728530396201261
 40
0.8728530396201261
 10
-31.64874323163116
 20
176.7272997032632
 30
0.0
 10
-30.88033219452183
 20
176.6831756615229
 30
0.0
 10
-30.23698255638678
 20
176.6211360456459
 30
0.0
 10
-29.59204785500387
 20
176.5134117827601
 30
0.0
 10
-29.29098911771536
 20
176.4550730481621
 30
0.0
 10
-29.14551965155957
 20
176.366081939133
 30
0.0
 10
-29.12962174438698
 20
176.3543700469258
 30
0.0
 10
-29.11233794365598
 20
176.3346688865863
 30
0.0
 10
-29.10710762725356
 20
176.327169378954
 30
0.0
 10
-29.10156288607311
 20
176.3133193442236
 30
0.0
 10
-29.10021376780321
 20
176.3075312038088
 30
0.0
 10
-29.09984997258147
 20
176.2959748324333
 30
0.0
 10
-29.10064800996244
 20
176.2906202588262
 30
0.0
 10
-29.10428498139007
 20
176.2788826725259
 30
0.0
 10
-29.10752068060904
 20
176.2728534527825
 30
0.0
 10
-29.11817592159869
 20
176.2574984425803
 30
0.0
 10
-29.12740196609164
 20
176.2487630637681
 30
0.0
 10
-29.15952113156092
 20
176.2230925653948
 30
0.0
 10
-29.19052440950404
 20
176.207127739485
 30
0.0
 10
-29.33446531081512
 20
176.1446231189588
 30
0.0
 10
-29.50686345086123
 20
176.1059021426931
 30
0.0
 10
-30.09697478076743
 20
175.9925466883105
 30
0.0
 10
-30.7961849036825
 20
175.9216562817901
 30
0.0
 10
-31.64874323163113
 20
175.8727002967352
 30
0.0
  0
SPLINE
  5
D3
330
2
100
AcDbEntity
  8
GEB-KONTUR-A
 48
25.0
100
AcDbSpline
210
0.0
220
0.0
230
1.0
 70
     8
 71
     3
 72
    18
 73
    14
 74
     0
 42
0.0000000001
 43
0.0000000001
 40
6.130712173490141
 40
6.130712173490141
 40
6.130712173490141
 40
6.130712173490141
 40
6.358283137277722
 40
6.358283137277722
 40
6.861022006813825
 40
6.861022006813825
 40
7.812083211287131
 40
7.812083211287131
 40
9.010772298240615
 40
9.010772298240615
 40
10.87123066565299
 40
10.87123066565299
 40
12.25035599329147
 40
12.25035599329147
 40
12.25035599329147
 40
12.25035599329147
 10
-60.15000000000125
 20
177.4999999999991
 30
0.0
 10
-60.15000000000125
 20
177.4999999999991
 30
0.0
 10
-60.13563433949096
 20
177.5000005737788
 30
0.0
 10
-60.04343596444261
 20
177.4999932071484
 30
0.0
 10
-59.90991567043761
 20
177.4999847974143
 30
0.0
 10
-59.32224655679377
 20
177.4995023024828
 30
0.0
 10
-58.68927404880778
 20
177.4987311120105
 30
0.0
 10
-56.71017029462271
 20
177.4902036033795
 30
0.0
 10
-55.22618499991231
 20
177.4807804323313
 30
0.0
 10
-50.52438049460349
 20
177.4223932261382
 30
0.0
 10
-46.8300518200696
 20
177.3558601148938
 30
0.0
 10
-39.17410840941031
 20
177.1020177360478
 30
0.0
 10
-35.55478399445309
 20
176.9515941203601
 30
0.0
 10
-31.64874323163116
 20
176.7272997032632
 30
0.0
  0
SPLINE
  5
D4
330
2
100
AcDbEntity
  8
GEB-KONTUR-A
 48
25.0
100
AcDbSpline
210
0.0
220
0.0
230
1.0
 70
     8
 71
     3
 72
    16
 73
    12
 74
     0
 42
0.0000000001
 43
0.0000000001
 40
0.0026009342830058
 40
0.0026009342830058
 40
0.0026009342830058
 40
0.0026009342830058
 40
2.288447646738528
 40
2.288447646738528
 40
4.621313960225682
 40
4.621313960225682
 40
5.462775317898788
 40
5.462775317898788
 40
5.947182010080212
 40
5.947182010080212
 40
6.130712173490252
 40
6.130712173490252
 40
6.130712173490252
 40
6.130712173490252
 10
-31.64874323163113
 20
175.8727002967352
 30
0.0
 10
-38.12038397981394
 20
175.5010828514973
 30
0.0
 10
-43.78086014623892
 20
175.3274526290456
 30
0.0
 10
-52.95402558509957
 20
175.1276663847634
 30
0.0
 10
-56.33147470020304
 20
175.1100135154351
 30
0.0
 10
-58.96178631369906
 20
175.1008589506207
 30
0.0
 10
-59.46787989009351
 20
175.1003412821271
 30
0.0
 10
-59.95826292144489
 20
175.1000043612932
 30
0.0
 10
-60.07264496976763
 20
175.1000032919146
 30
0.0
 10
-60.14065656021333
 20
175.0999997571973
 30
0.0
 10
-60.1500000000012
 20
175.0999999999992
 30
0.0
 10
-60.1500000000012
 20
175.0999999999992
 30
0.0
  0
SPLINE
  5
D5
330
2
100
AcDbEntity
  8
GEB-KONTUR-A
 48
25.0
100
AcDbSpline
210
0.0
220
0.0
230
1.0
 70
     8
 71
     3
 72
    28
 73
    24
 74
     0
 42
0.0000000001
 43
0.0000000001
 40
0.0003135965776837
 40
0.0003135965776837
 40
0.0003135965776837
 40
0.0003135965776837
 40
0.2718281047680524
 40
0.2718281047680524
 40
0.3877372981799651
 40
0.3877372981799651
 40
0.4023246078170608
 40
0.4023246078170608
 40
0.4094618536727485
 40
0.4094618536727485
 40
0.414170048635601
 40
0.414170048635601
 40
0.4184552481491135
 40
0.4184552481491135
 40
0.4238538386962853
 40
0.4238538386962853
 40
0.4337033556091737
 40
0.4337033556091737
 40
0.4587932382269192
 40
0.4587932382269192
 40
0.5538885018116801
 40
0.5538885018116801
 40
0.8728530395814338
 40
0.8728530395814338
 40
0.8728530395814338
 40
0.8728530395814338
 10
-31.64874323163122
 20
184.9772997032632
 30
0.0
 10
-30.88033219452265
 20
184.9331756615229
 30
0.0
 10
-30.23698255638723
 20
184.8711360456459
 30
0.0
 10
-29.59204785500634
 20
184.7634117827606
 30
0.0
 10
-29.29098911771601
 20
184.7050730481623
 30
0.0
 10
-29.14551965156022
 20
184.6160819391334
 30
0.0
 10
-29.12962174438732
 20
184.6043700469258
 30
0.0
 10
-29.11233794365603
 20
184.5846688865863
 30
0.0
 10
-29.10710762725361
 20
184.577169378954
 30
0.0
 10
-29.10156288607323
 20
184.5633193442236
 30
0.0
 10
-29.1002137678033
 20
184.5575312038088
 30
0.0
 10
-29.09984997258155
 20
184.5459748324333
 30
0.0
 10
-29.10064800996252
 20
184.5406202588262
 30
0.0
 10
-29.10428498139015
 20
184.5288826725257
 30
0.0
 10
-29.10752068060915
 20
184.5228534527823
 30
0.0
 10
-29.11817592159881
 20
184.5074984425805
 30
0.0
 10
-29.12740196609176
 20
184.4987630637681
 30
0.0
 10
-29.15952113156098
 20
184.4730925653948
 30
0.0
 10
-29.19052440950409
 20
184.4571277394852
 30
0.0
 10
-29.3344653108152
 20
184.3946231189588
 30
0.0
 10
-29.50686345086135
 20
184.3559021426929
 30
0.0
 10
-30.09697478076743
 20
184.2425466883107
 30
0.0
 10
-30.79618490368245
 20
184.17165628179
 30
0.0
 10
-31.64874323163122
 20
184.1227002967352
 30
0.0
  0
SPLINE
  5
D6
330
2
100
AcDbEntity
  8
GEB-KONTUR-A
 48
25.0
100
AcDbSpline
210
0.0
220
0.0
230
1.0
 70
     8
 71
     3
 72
    18
 73
    14
 74
     0
 42
0.0000000001
 43
0.0000000001
 40
6.130712173490141
 40
6.130712173490141
 40
6.130712173490141
 40
6.130712173490141
 40
6.358283137277722
 40
6.358283137277722
 40
6.861022006813825
 40
6.861022006813825
 40
7.812083211287131
 40
7.812083211287131
 40
9.010772298240615
 40
9.010772298240615
 40
10.87123066565299
 40
10.87123066565299
 40
12.25035599329147
 40
12.25035599329147
 40
12.25035599329147
 40
12.25035599329147
 10
-60.15000000000132
 20
185.7499999999991
 30
0.0
 10
-60.15000000000132
 20
185.7499999999991
 30
0.0
 10
-60.13563433949101
 20
185.7500005737788
 30
0.0
 10
-60.04343596444269
 20
185.7499932071484
 30
0.0
 10
-59.9099156704377
 20
185.7499847974143
 30
0.0
 10
-59.32224655679383
 20
185.7495023024826
 30
0.0
 10
-58.68927404880785
 20
185.7487311120105
 30
0.0
 10
-56.71017029462277
 20
185.7402036033797
 30
0.0
 10
-55.22618499991239
 20
185.7307804323313
 30
0.0
 10
-50.52438049460355
 20
185.6723932261379
 30
0.0
 10
-46.83005182006965
 20
185.6058601148938
 30
0.0
 10
-39.17410840941037
 20
185.3520177360478
 30
0.0
 10
-35.55478399445318
 20
185.2015941203601
 30
0.0
 10
-31.64874323163122
 20
184.9772997032632
 30
0.0
  0
SPLINE
  5
D7
330
2
100
AcDbEntity
  8
GEB-KONTUR-A
 48
25.0
100
AcDbSpline
210
0.0
220
0.0
230
1.0
 70
     8
 71
     3
 72
    16
 73
    12
 74
     0
 42
0.0000000001
 43
0.0000000001
 40
0.0026009342830056
 40
0.0026009342830056
 40
0.0026009342830056
 40
0.0026009342830056
 40
2.288447646738528
 40
2.288447646738528
 40
4.621313960225682
 40
4.621313960225682
 40
5.462775317898788
 40
5.462775317898788
 40
5.947182010080212
 40
5.947182010080212
 40
6.130712173490252
 40
6.130712173490252
 40
6.130712173490252
 40
6.130712173490252
 10
-31.64874323163122
 20
184.1227002967352
 30
0.0
 10
-38.120383979814
 20
183.7510828514973
 30
0.0
 10
-43.78086014623903
 20
183.5774526290456
 30
0.0
 10
-52.95402558509962
 20
183.3776663847634
 30
0.0
 10
-56.33147470020316
 20
183.3600135154352
 30
0.0
 10
-58.96178631369915
 20
183.3508589506205
 30
0.0
 10
-59.4678798900936
 20
183.3503412821274
 30
0.0
 10
-59.95826292144499
 20
183.3500043612932
 30
0.0
 10
-60.07264496976771
 20
183.3500032919144
 30
0.0
 10
-60.14065656021344
 20
183.3499997571973
 30
0.0
 10
-60.15000000000128
 20
183.349999999999
 30
0.0
 10
-60.15000000000128
 20
183.349999999999
 30
0.0
  0
SPLINE
  5
D8
330
2
100
AcDbEntity
  8
GEB-KONTUR-A
 48
25.0
100
AcDbSpline
210
0.0
220
0.0
230
1.0
 70
     8
 71
     3
 72
    28
 73
    24
 74
     0
 42
0.0000000001
 43
0.0000000001
 40
0.0003135965776839
 40
0.0003135965776839
 40
0.0003135965776839
 40
0.0003135965776839
 40
0.2718281047680473
 40
0.2718281047680473
 40
0.3877372981787153
 40
0.3877372981787153
 40
0.4023246078281107
 40
0.4023246078281107
 40
0.4094618536937226
 40
0.4094618536937226
 40
0.4141700486636421
 40
0.4141700486636421
 40
0.4184552481835528
 40
0.4184552481835528
 40
0.4238538387384246
 40
0.4238538387384246
 40
0.4337033556666886
 40
0.4337033556666886
 40
0.4587932383214158
 40
0.4587932383214158
 40
0.5538885020421047
 40
0.5538885020421047
 40
0.8728530402747518
 40
0.8728530402747518
 40
0.8728530402747518
 40
0.8728530402747518
 10
-31.64874323163133
 20
193.2272997032632
 30
0.0
 10
-30.88033219452271
 20
193.1831756615227
 30
0.0
 10
-30.23698255638735
 20
193.1211360456459
 30
0.0
 10
-29.59204785500853
 20
193.0134117827608
 30
0.0
 10
-29.2909891177166
 20
192.9550730481626
 30
0.0
 10
-29.14551965154647
 20
192.8660819391248
 30
0.0
 10
-29.12962174438113
 20
192.8543700469188
 30
0.0
 10
-29.11233794365598
 20
192.8346688865861
 30
0.0
 10
-29.10710762725361
 20
192.827169378954
 30
0.0
 10
-29.10156288607297
 20
192.8133193442229
 30
0.0
 10
-29.10021376780341
 20
192.8075312038086
 30
0.0
 10
-29.09984997258167
 20
192.7959748324335
 30
0.0
 10
-29.10064800996236
 20
192.7906202588267
 30
0.0
 10
-29.10428498139026
 20
192.7788826725254
 30
0.0
 10
-29.1075206806099
 20
192.7728534527816
 30
0.0
 10
-29.11817592159889
 20
192.7574984425805
 30
0.0
 10
-29.1274019660913
 20
192.7487630637686
 30
0.0
 10
-29.15952113156036
 20
192.7230925653955
 30
0.0
 10
-29.19052440950262
 20
192.7071277394857
 30
0.0
 10
-29.33446531081617
 20
192.6446231189584
 30
0.0
 10
-29.50686345086396
 20
192.6059021426924
 30
0.0
 10
-30.09697478076743
 20
192.4925466883105
 30
0.0
 10
-30.7961849036827
 20
192.4216562817898
 30
0.0
 10
-31.6487432316313
 20
192.372700296735
 30
0.0
  0
SPLINE
  5
D9
330
2
100
AcDbEntity
  8
GEB-KONTUR-A
 48
25.0
100
AcDbSpline
210
0.0
220
0.0
230
1.0
 70
     8
 71
     3
 72
    18
 73
    14
 74
     0
 42
0.0000000001
 43
0.0000000001
 40
6.130712173490135
 40
6.130712173490135
 40
6.130712173490135
 40
6.130712173490135
 40
6.358283137277716
 40
6.358283137277716
 40
6.861022006813818
 40
6.861022006813818
 40
7.812083211287122
 40
7.812083211287122
 40
9.010772298240604
 40
9.010772298240604
 40
10.87123066565298
 40
10.87123066565298
 40
12.25035599329146
 40
12.25035599329146
 40
12.25035599329146
 40
12.25035599329146
 10
-60.1500000000014
 20
193.999999999999
 30
0.0
 10
-60.1500000000014
 20
193.999999999999
 30
0.0
 10
-60.13563433949108
 20
194.0000005737788
 30
0.0
 10
-60.04343596444275
 20
193.9999932071484
 30
0.0
 10
-59.90991567043778
 20
193.999984797414
 30
0.0
 10
-59.32224655679391
 20
193.9995023024826
 30
0.0
 10
-58.68927404880793
 20
193.9987311120105
 30
0.0
 10
-56.71017029462288
 20
193.9902036033795
 30
0.0
 10
-55.22618499991247
 20
193.9807804323313
 30
0.0
 10
-50.52438049460366
 20
193.9223932261379
 30
0.0
 10
-46.83005182006977
 20
193.8558601148938
 30
0.0
 10
-39.17410840941045
 20
193.6020177360478
 30
0.0
 10
-35.55478399445329
 20
193.4515941203601
 30
0.0
 10
-31.64874323163133
 20
193.2272997032632
 30
0.0
  0
SPLINE
  5
DA
330
2
100
AcDbEntity
  8
GEB-KONTUR-A
 48
25.0
100
AcDbSpline
210
0.0
220
0.0
230
1.0
 70
     8
 71
     3
 72
    16
 73
    12
 74
     0
 42
0.0000000001
 43
0.0000000001
 40
0.0026009342830058
 40
0.0026009342830058
 40
0.0026009342830058
 40
0.0026009342830058
 40
2.288447646738528
 40
2.288447646738528
 40
4.621313960225682
 40
4.621313960225682
 40
5.462775317898788
 40
5.462775317898788
 40
5.947182010080212
 40
5.947182010080212
 40
6.130712173490252
 40
6.130712173490252
 40
6.130712173490252
 40
6.130712173490252
 10
-31.6487432316313
 20
192.372700296735
 30
0.0
 10
-38.12038397981411
 20
192.0010828514973
 30
0.0
 10
-43.78086014623912
 20
191.8274526290456
 30
0.0
 10
-52.95402558509974
 20
191.6276663847632
 30
0.0
 10
-56.33147470020322
 20
191.6100135154352
 30
0.0
 10
-58.96178631369924
 20
191.6008589506205
 30
0.0
 10
-59.46787989009365
 20
191.6003412821271
 30
0.0
 10
-59.95826292144508
 20
191.600004361293
 30
0.0
 10
-60.07264496976782
 20
191.6000032919144
 30
0.0
 10
-60.1406565602135
 20
191.5999997571973
 30
0.0
 10
-60.1500000000014
 20
191.599999999999
 30
0.0
 10
-60.1500000000014
 20
191.599999999999
 30
0.0
  0
LINE
  5
DB
330
2
100
AcDbEntity
  8
GEB-KONTUR-A
 48
25.0
100
AcDbLine
 10
64.04999999999873
 20
201.2999999999997
 30
0.0
 11
-64.05000000000152
 21
201.2999999999991
 31
0.0
  0
LINE
  5
DC
330
2
100
AcDbEntity
  8
GEB-KONTUR-A
 48
25.0
100
AcDbLine
 10
12.49999999999863
 20
201.2999999999993
 30
0.0
 11
12.4999999999994
 21
129.7599999999997
 31
0.0
  0
LINE
  5
DD
330
2
100
AcDbEntity
  8
GEB-KONTUR-A
 48
25.0
100
AcDbLine
 10
12.4999999999994
 20
129.7599999999997
 30
0.0
 11
-12.50000000000065
 21
129.7599999999995
 31
0.0
  0
LINE
  5
DE
330
2
100
AcDbEntity
  8
GEB-KONTUR-A
 48
25.0
100
AcDbLine
 10
-12.50000000000065
 20
129.7599999999997
 30
0.0
 11
-12.50000000000142
 21
201.2999999999993
 31
0.0
  0
LINE
  5
DF
330
2
100
AcDbEntity
  8
GEB-VERDECKT
 48
25.0
100
AcDbLine
 10
-55.1000000000009
 20
147.5999999999994
 30
0.0
 11
-55.10000000000087
 21
144.5999999999994
 31
0.0
  0
LINE
  5
E0
330
2
100
AcDbEntity
  8
GEB-VERDECKT
 48
25.0
100
AcDbLine
 10
12.49999999999923
 20
144.5999999999999
 30
0.0
 11
-12.50000000000082
 21
144.5999999999997
 31
0.0
  0
LINE
  5
E1
330
2
100
AcDbEntity
  8
GEB-VERDECKT
 48
25.0
100
AcDbLine
 10
-52.53792175369159
 20
144.5999999999994
 30
0.0
 11
-55.10000000000087
 21
144.5999999999994
 31
0.0
  0
LINE
  5
E2
330
2
100
AcDbEntity
  8
GEB-KONTUR-A
 48
25.0
100
AcDbLine
 10
55.09999999999926
 20
147.5999999999999
 30
0.0
 11
55.09999999999931
 21
144.5999999999999
 31
0.0
  0
LINE
  5
E3
330
2
100
AcDbEntity
  8
GEB-KONTUR-A
 48
25.0
100
AcDbLine
 10
-12.50000000000082
 20
144.5999999999997
 30
0.0
 11
-52.53792175369159
 21
144.5999999999994
 31
0.0
  0
LINE
  5
E4
330
2
100
AcDbEntity
  8
GEB-KONTUR-A
 48
25.0
100
AcDbLine
 10
55.09999999999933
 20
144.5999999999999
 30
0.0
 11
12.49999999999926
 21
144.5999999999997
 31
0.0
  0
LINE
  5
E5
330
2
100
AcDbEntity
  8
GEB-VERDECKT
 48
25.0
100
AcDbLine
 10
56.64999999999885
 20
221.6999999999994
 30
0.0
 11
56.74999999999852
 21
221.7999999999991
 31
0.0
  0
LINE
  5
E6
330
2
100
AcDbEntity
  8
GEB-VERDECKT
 48
25.0
100
AcDbLine
 10
-56.65000000000137
 20
221.6999999999996
 30
0.0
 11
-56.7500000000006
 21
221.7999999999988
 31
0.0
  0
LINE
  5
E7
330
2
100
AcDbEntity
  8
GEB-VERDECKT
 48
25.0
100
AcDbLine
 10
56.64999999999849
 20
221.6999999999998
 30
0.0
 11
-56.65000000000174
 21
221.6999999999991
 31
0.0
  0
LINE
  5
E8
330
2
100
AcDbEntity
  8
GEB-VERDECKT
 48
25.0
100
AcDbLine
 10
-52.55721299405263
 20
145.9681367251965
 30
0.0
 11
-56.55724979563243
 21
146.1427821036222
 31
0.0
  0
LINE
  5
E9
330
2
100
AcDbEntity
  8
GEB-VERDECKT
 48
25.0
100
AcDbLine
 10
-55.61929398709921
 20
75.83495157015011
 30
0.0
 11
-59.619330788679
 21
76.00959694857579
 31
0.0
  0
LINE
  5
EA
330
2
100
AcDbEntity
  8
GEB-VERDECKT
 48
25.0
100
AcDbLine
 10
-56.55724979563243
 20
146.1427821036222
 30
0.0
 11
-61.61759847050982
 21
149.366579753703
 31
0.0
  0
LINE
  5
EB
330
2
100
AcDbEntity
  8
GEB-VERDECKT
 48
25.0
100
AcDbLine
 10
-59.619330788679
 20
76.00959694857579
 30
0.0
 11
-64.94139578774841
 21
73.23910526916552
 31
0.0
  0
LINE
  5
EC
330
2
100
AcDbEntity
  8
GEB-VERDECKT
 48
25.0
100
AcDbLine
 10
-61.61759847050976
 20
149.3665797537032
 30
0.0
 11
-99.88114535709541
 21
151.0372022897954
 31
0.0
  0
LINE
  5
ED
330
2
100
AcDbEntity
  8
GEB-VERDECKT
 48
25.0
100
AcDbLine
 10
-64.94139578774841
 20
73.23910526916552
 30
0.0
 11
-103.204942674334
 21
74.90972780525794
 31
0.0
  0
LINE
  5
EE
330
2
100
AcDbEntity
  8
GEB-VERDECKT
 48
25.0
100
AcDbLine
 10
-99.69794393016101
 20
155.2332048204393
 30
0.0
 11
-108.3896634579232
 21
155.6126934905178
 31
0.0
  0
LINE
  5
EF
330
2
100
AcDbEntity
  8
GEB-VERDECKT
 48
25.0
100
AcDbLine
 10
-103.3881441012684
 20
70.71372527461403
 30
0.0
 11
-112.0798636290307
 21
71.09321394469247
 31
0.0
  0
LINE
  5
F0
330
2
100
AcDbEntity
  8
GEB-VERDECKT
 48
25.0
100
AcDbLine
 10
-108.5728648848577
 20
151.4166909598739
 30
0.0
 11
-114.5671542143489
 21
151.678407284066
 31
0.0
  0
LINE
  5
F1
330
2
100
AcDbEntity
  8
GEB-VERDECKT
 48
25.0
100
AcDbLine
 10
-111.8966622020963
 20
75.28921647533639
 30
0.0
 11
-117.8909515315875
 21
75.55093279952825
 31
0.0
  0
LINE
  5
F2
330
2
100
AcDbEntity
  8
GEB-VERDECKT
 48
25.0
100
AcDbLine
 10
-55.36897526249553
 20
150.3449498290154
 30
0.0
 11
-58.40000000000088
 21
150.4772872270339
 31
0.0
  0
LINE
  5
F3
330
2
100
AcDbEntity
  8
GEB-VERDECKT
 48
25.0
100
AcDbLine
 10
-56.55724979563243
 20
146.1427821036222
 30
0.0
 11
-59.61933078867904
 21
76.00959694857579
 31
0.0
  0
LINE
  5
F4
330
2
100
AcDbEntity
  8
GEB-VERDECKT
 48
25.0
100
AcDbLine
 10
-61.61759847050982
 20
149.3665797537032
 30
0.0
 11
-64.94139578774841
 21
73.23910526916552
 31
0.0
  0
LINE
  5
F5
330
2
100
AcDbEntity
  8
GEB-VERDECKT
 48
25.0
100
AcDbLine
 10
-99.69794393016101
 20
155.2332048204393
 30
0.0
 11
-103.3881441012684
 21
70.71372527461403
 31
0.0
  0
LINE
  5
F6
330
2
100
AcDbEntity
  8
GEB-VERDECKT
 48
25.0
100
AcDbLine
 10
-108.3896634579233
 20
155.6126934905178
 30
0.0
 11
-112.0798636290307
 21
71.09321394469247
 31
0.0
  0
LINE
  5
F7
330
2
100
AcDbEntity
  8
GEB-VERDECKT
 48
25.0
100
AcDbLine
 10
-55.36897526249553
 20
150.3449498290156
 30
0.0
 11
-55.48882236026696
 21
147.599999999999
 31
0.0
  0
LINE
  5
F8
330
2
100
AcDbEntity
  8
GEB-VERDECKT
 48
25.0
100
AcDbLine
 10
-57.5870211100229
 20
99.54334776157793
 30
0.0
 11
-56.58377520062015
 21
122.5214568579606
 31
0.0
  0
LINE
  5
F9
330
2
100
AcDbEntity
  8
GEB-KONTUR-A
 48
25.0
100
AcDbLine
 10
-110.961436970399
 20
154.0233599822418
 30
0.0
 11
-114.4581057459356
 21
154.1760278380206
 31
0.0
  0
LINE
  5
FA
330
2
100
AcDbEntity
  8
GEB-KONTUR-A
 48
25.0
100
AcDbLine
 10
-114.5033312244643
 20
72.90064438979493
 30
0.0
 11
-118.0000000000009
 21
73.05331224557358
 31
0.0
  0
LINE
  5
FB
330
2
100
AcDbEntity
  8
GEB-KONTUR-A
 48
25.0
100
AcDbLine
 10
-97.09127490779302
 20
157.6217769059806
 30
0.0
 11
-110.7782355434646
 21
158.2193625128857
 31
0.0
  0
LINE
  5
FC
330
2
100
AcDbEntity
  8
GEB-KONTUR-A
 48
25.0
100
AcDbLine
 10
-100.9995720157271
 20
68.10705625224613
 30
0.0
 11
-114.6865326513987
 21
68.70464185915125
 31
0.0
  0
LINE
  5
FD
330
2
100
AcDbEntity
  8
GEB-KONTUR-A
 48
25.0
100
AcDbLine
 10
-58.40000000000088
 20
150.4772872270339
 30
0.0
 11
-58.56592957155754
 21
150.4845318685845
 31
0.0
  0
ARC
  5
FE
330
2
100
AcDbEntity
  8
GEB-KONTUR-A
 48
25.0
100
AcDbCircle
 10
-87.05564023969003
 20
152.9796103559999
 30
0.0
 40
4.428571428571423
100
AcDbArc
 50
146.215507085583
 51
177.5000000000014
  0
ARC
  5
FF
330
2
100
AcDbEntity
  8
GEB-KONTUR-A
 48
25.0
100
AcDbCircle
 10
-93.90625661625145
 20
153.2787147265051
 30
0.0
 40
4.428571428571467
100
AcDbArc
 50
357.4999999999949
 51
28.78449291441574
  0
ARC
  5
100
330
2
100
AcDbEntity
  8
GEB-KONTUR-A
 48
25.0
100
AcDbCircle
 10
-90.39007470429295
 20
155.2105130028812
 30
0.0
 40
0.4166666666666702
100
AcDbArc
 50
28.78449291442301
 51
146.2155070855757
  0
ARC
  5
101
330
2
100
AcDbEntity
  8
GEB-KONTUR-A
 48
25.0
100
AcDbCircle
 10
-90.59753449375532
 20
71.8568947635531
 30
0.0
 40
4.428571428571411
100
AcDbArc
 50
177.5000000000014
 51
208.7844929144158
  0
ARC
  5
102
330
2
100
AcDbEntity
  8
GEB-KONTUR-A
 48
25.0
100
AcDbCircle
 10
-97.44815087031668
 20
72.15599913405822
 30
0.0
 40
4.42857142857148
100
AcDbArc
 50
326.2155070855821
 51
357.5000000000014
  0
ARC
  5
103
330
2
100
AcDbEntity
  8
GEB-KONTUR-A
 48
25.0
100
AcDbCircle
 10
-94.11371640571378
 20
69.92509648717669
 30
0.0
 40
0.4166666666666702
100
AcDbArc
 50
208.7844929144166
 51
326.2155070855758
  0
ARC
  5
104
330
2
100
AcDbEntity
  8
GEB-KONTUR-A
 48
25.0
100
AcDbCircle
 10
-80.06230268861694
 20
152.6742746444426
 30
0.0
 40
4.428571428571423
100
AcDbArc
 50
146.215507085583
 51
177.5000000000014
  0
ARC
  5
105
330
2
100
AcDbEntity
  8
GEB-KONTUR-A
 48
25.0
100
AcDbCircle
 10
-86.91291906517831
 20
152.9733790149478
 30
0.0
 40
4.428571428571467
100
AcDbArc
 50
357.4999999999949
 51
28.78449291441574
  0
ARC
  5
106
330
2
100
AcDbEntity
  8
GEB-KONTUR-A
 48
25.0
100
AcDbCircle
 10
-83.39673715321982
 20
154.905177291324
 30
0.0
 40
0.4166666666666701
100
AcDbArc
 50
28.78449291442301
 51
146.2155070855757
  0
ARC
  5
107
330
2
100
AcDbEntity
  8
GEB-KONTUR-A
 48
25.0
100
AcDbCircle
 10
-73.06896513754384
 20
152.3689389328851
 30
0.0
 40
4.428571428571423
100
AcDbArc
 50
146.215507085583
 51
177.5000000000014
  0
ARC
  5
108
330
2
100
AcDbEntity
  8
GEB-KONTUR-A
 48
25.0
100
AcDbCircle
 10
-79.9195815141052
 20
152.6680433033905
 30
0.0
 40
4.428571428571467
100
AcDbArc
 50
357.4999999999949
 51
28.78449291441574
  0
ARC
  5
109
330
2
100
AcDbEntity
  8
GEB-KONTUR-A
 48
25.0
100
AcDbCircle
 10
-76.40339960214674
 20
154.5998415797667
 30
0.0
 40
0.4166666666666702
100
AcDbArc
 50
28.78449291441653
 51
146.2155070855757
  0
ARC
  5
10A
330
2
100
AcDbEntity
  8
GEB-KONTUR-A
 48
25.0
100
AcDbCircle
 10
-66.07562758647077
 20
152.0636032213278
 30
0.0
 40
4.428571428571423
100
AcDbArc
 50
146.2155070855821
 51
177.5000000000014
  0
ARC
  5
10B
330
2
100
AcDbEntity
  8
GEB-KONTUR-A
 48
25.0
100
AcDbCircle
 10
-72.9262439630321
 20
152.3627075918332
 30
0.0
 40
4.428571428571467
100
AcDbArc
 50
357.4999999999949
 51
28.78449291441574
  0
ARC
  5
10C
330
2
100
AcDbEntity
  8
GEB-KONTUR-A
 48
25.0
100
AcDbCircle
 10
-69.41006205107365
 20
154.2945058682094
 30
0.0
 40
0.4166666666666701
100
AcDbArc
 50
28.78449291441653
 51
146.2155070855757
  0
ARC
  5
10D
330
2
100
AcDbEntity
  8
GEB-KONTUR-A
 48
25.0
100
AcDbCircle
 10
-83.60419694268225
 20
71.55155905199558
 30
0.0
 40
4.428571428571411
100
AcDbArc
 50
177.5000000000014
 51
208.7844929144158
  0
ARC
  5
10E
330
2
100
AcDbEntity
  8
GEB-KONTUR-A
 48
25.0
100
AcDbCircle
 10
-90.45481331924362
 20
71.85066342250081
 30
0.0
 40
4.42857142857148
100
AcDbArc
 50
326.215507085583
 51
357.5000000000014
  0
ARC
  5
10F
330
2
100
AcDbEntity
  8
GEB-KONTUR-A
 48
25.0
100
AcDbCircle
 10
-87.12037885464068
 20
69.61976077561939
 30
0.0
 40
0.4166666666666701
100
AcDbArc
 50
208.7844929144166
 51
326.2155070855758
  0
ARC
  5
110
330
2
100
AcDbEntity
  8
GEB-KONTUR-A
 48
25.0
100
AcDbCircle
 10
-76.61085939160912
 20
71.24622334043829
 30
0.0
 40
4.428571428571411
100
AcDbArc
 50
177.5000000000014
 51
208.7844929144158
  0
ARC
  5
111
330
2
100
AcDbEntity
  8
GEB-KONTUR-A
 48
25.0
100
AcDbCircle
 10
-83.46147576817051
 20
71.54532771094352
 30
0.0
 40
4.42857142857148
100
AcDbArc
 50
326.215507085583
 51
357.5000000000014
  0
ARC
  5
112
330
2
100
AcDbEntity
  8
GEB-KONTUR-A
 48
25.0
100
AcDbCircle
 10
-80.12704130356761
 20
69.31442506406199
 30
0.0
 40
0.4166666666666701
100
AcDbArc
 50
208.784492914423
 51
326.2155070855984
  0
ARC
  5
113
330
2
100
AcDbEntity
  8
GEB-KONTUR-A
 48
25.0
100
AcDbCircle
 10
-69.61752184053605
 20
70.940887628881
 30
0.0
 40
4.428571428571411
100
AcDbArc
 50
177.5000000000014
 51
208.7844929144158
  0
ARC
  5
114
330
2
100
AcDbEntity
  8
GEB-KONTUR-A
 48
25.0
100
AcDbCircle
 10
-76.46813821709741
 20
71.23999199938612
 30
0.0
 40
4.42857142857148
100
AcDbArc
 50
326.2155070855821
 51
357.5000000000014
  0
ARC
  5
115
330
2
100
AcDbEntity
  8
GEB-KONTUR-A
 48
25.0
100
AcDbCircle
 10
-73.13370375249448
 20
69.0090893525047
 30
0.0
 40
0.4166666666666702
100
AcDbArc
 50
208.784492914423
 51
326.2155070855758
  0
LINE
  5
116
330
2
100
AcDbEntity
  8
GEB-KONTUR-A
 48
25.0
100
AcDbLine
 10
-58.8018210481475
 20
71.71985479052307
 30
0.0
 11
-61.99877535720947
 21
71.85943683009213
 31
0.0
  0
LINE
  5
117
330
2
100
AcDbEntity
  8
GEB-KONTUR-A
 48
25.0
100
AcDbLine
 10
-95.0218909036179
 20
72.05006633617109
 30
0.0
 11
-100.8163705887927
 21
72.30305878288982
 31
0.0
  0
LINE
  5
118
330
2
100
AcDbEntity
  8
GEB-KONTUR-A
 48
25.0
100
AcDbLine
 10
-88.02855335254475
 20
71.74473062461356
 30
0.0
 11
-93.02379446045412
 21
71.96282756144023
 31
0.0
  0
LINE
  5
119
330
2
100
AcDbEntity
  8
GEB-KONTUR-A
 48
25.0
100
AcDbLine
 10
-81.03521580147164
 20
71.43939491305627
 30
0.0
 11
-86.03045690938103
 21
71.65749184988294
 31
0.0
  0
LINE
  5
11A
330
2
100
AcDbEntity
  8
GEB-KONTUR-A
 48
25.0
100
AcDbLine
 10
-74.04187825039855
 20
71.13405920149887
 30
0.0
 11
-79.03711935830793
 21
71.35215613832554
 31
0.0
  0
LINE
  5
11B
330
2
100
AcDbEntity
  8
GEB-KONTUR-A
 48
25.0
100
AcDbLine
 10
-62.05329959141611
 20
70.61062655311491
 30
0.0
 11
-72.04378180723484
 21
71.04682042676825
 31
0.0
  0
LINE
  5
11C
330
2
100
AcDbEntity
  8
GEB-KONTUR-A
 48
25.0
100
AcDbLine
 10
-91.47999664955253
 20
153.1727819286179
 30
0.0
 11
-97.27447633472747
 21
153.4257743753367
 31
0.0
  0
LINE
  5
11D
330
2
100
AcDbEntity
  8
GEB-KONTUR-A
 48
25.0
100
AcDbLine
 10
-84.48665909847946
 20
152.8674462170604
 30
0.0
 11
-89.48190020638881
 21
153.0855431538871
 31
0.0
  0
LINE
  5
11E
330
2
100
AcDbEntity
  8
GEB-KONTUR-A
 48
25.0
100
AcDbLine
 10
-77.49332154740639
 20
152.5621105055031
 30
0.0
 11
-82.48856265531571
 21
152.7802074423298
 31
0.0
  0
LINE
  5
11F
330
2
100
AcDbEntity
  8
GEB-KONTUR-A
 48
25.0
100
AcDbLine
 10
-70.49998399633333
 20
152.2567747939458
 30
0.0
 11
-75.49522510424265
 21
152.4748717307725
 31
0.0
  0
LINE
  5
120
330
2
100
AcDbEntity
  8
GEB-KONTUR-A
 48
25.0
100
AcDbLine
 10
-58.51140533735085
 20
151.7333421455619
 30
0.0
 11
-68.50188755316955
 21
152.1695360192152
 31
0.0
  0
LINE
  5
121
330
2
100
AcDbEntity
  8
GEB-KONTUR-A
 48
25.0
100
AcDbLine
 10
-114.4581057459356
 20
154.1760278380206
 30
0.0
 11
-118.0000000000009
 21
73.05331224557358
 31
0.0
  0
LINE
  5
122
330
2
100
AcDbEntity
  8
GEB-KONTUR-A
 48
25.0
100
AcDbLine
 10
-110.7782355434646
 20
158.2193625128857
 30
0.0
 11
-114.6865326513987
 21
68.70464185915125
 31
0.0
  0
LINE
  5
123
330
2
100
AcDbEntity
  8
GEB-KONTUR-A
 48
25.0
100
AcDbLine
 10
-55.48882236026696
 20
147.599999999999
 30
0.0
 11
-56.58377520062015
 21
122.5214568579605
 31
0.0
  0
LINE
  5
124
330
2
100
AcDbEntity
  8
GEB-KONTUR-A
 48
25.0
100
AcDbLine
 10
-98.54380050705868
 20
124.3534711273047
 30
0.0
 11
-41.50813753694976
 21
121.8632403026177
 31
0.0
  0
LINE
  5
125
330
2
100
AcDbEntity
  8
GEB-KONTUR-A
 48
25.0
100
AcDbLine
 10
-41.50813753694976
 20
121.8632403026177
 30
0.0
 11
-42.51138344635243
 21
98.88513120623498
 31
0.0
  0
LINE
  5
126
330
2
100
AcDbEntity
  8
GEB-KONTUR-A
 48
25.0
100
AcDbLine
 10
-42.51138344635248
 20
98.88513120623498
 30
0.0
 11
-99.54704641646143
 21
101.3753620309221
 31
0.0
  0
LINE
  5
127
330
2
100
AcDbEntity
  8
GEB-KONTUR-A
 48
25.0
100
AcDbLine
 10
-57.5870211100229
 20
99.54334776157782
 30
0.0
 11
-58.8018210481475
 21
71.71985479052307
 31
0.0
  0
SPLINE
  5
128
330
2
100
AcDbEntity
  8
GEB-KONTUR-A
 48
25.0
100
AcDbSpline
210
0.0
220
0.0
230
1.0
 70
     8
 71
     3
 72
    28
 73
    24
 74
     0
 42
0.0000000001
 43
0.0000000001
 40
0.0001313713827774
 40
0.0001313713827774
 40
0.0001313713827774
 40
0.0001313713827774
 40
0.1699823435974464
 40
0.1699823435974464
 40
0.2359852913256785
 40
0.2359852913256785
 40
0.2509416450178962
 40
0.2509416450178962
 40
0.2577210618550381
 40
0.2577210618550381
 40
0.2621161837068308
 40
0.2621161837068308
 40
0.2660500458110009
 40
0.2660500458110009
 40
0.2708764225476415
 40
0.2708764225476415
 40
0.2794527665778864
 40
0.2794527665778864
 40
0.3006598919505363
 40
0.3006598919505363
 40
0.3800224291737506
 40
0.3800224291737506
 40
0.5638716632468812
 40
0.5638716632468812
 40
0.5638716632468812
 40
0.5638716632468812
 10
-93.64229993934666
 20
88.88572198782652
 30
0.0
 10
-93.58554340823985
 20
89.34207624295231
 30
0.0
 10
-93.51718806929566
 20
89.72299839634104
 30
0.0
 10
-93.41347261119427
 20
90.09350438588
 30
0.0
 10
-93.36815625239754
 20
90.23502079360014
 30
0.0
 10
-93.30030529624067
 20
90.33800693318767
 30
0.0
 10
-93.28540782946294
 20
90.35689448220001
 30
0.0
 10
-93.2611594647262
 20
90.37631794740889
 30
0.0
 10
-93.25240769387523
 20
90.38189652824042
 30
0.0
 10
-93.23649389638896
 20
90.3875991059199
 30
0.0
 10
-93.22991877103637
 20
90.38893012562756
 30
0.0
 10
-93.21694749076915
 20
90.38903340111415
 30
0.0
 10
-93.21100926826321
 20
90.38805637776761
 30
0.0
 10
-93.19821144267093
 20
90.38391881394989
 30
0.0
 10
-93.19175763518169
 20
90.38041253033133
 30
0.0
 10
-93.17563039966492
 20
90.36910427585837
 30
0.0
 10
-93.16666385304396
 20
90.35959229118224
 30
0.0
 10
-93.14092079437088
 20
90.32704639031408
 30
0.0
 10
-93.12557657949261
 20
90.29651691318793
 30
0.0
 10
-93.06727840847768
 20
90.15706176384981
 30
0.0
 10
-93.03638525065952
 20
89.99620844005233
 30
0.0
 10
-92.9753853055188
 20
89.61764358080859
 30
0.0
 10
-92.94580635865552
 20
89.26565550017608
 30
0.0
 10
-92.93081159163254
 20
88.85465773569695
 30
0.0
  0
SPLINE
  5
129
330
2
100
AcDbEntity
  8
GEB-KONTUR-A
 48
25.0
100
AcDbSpline
210
0.0
220
0.0
230
1.0
 70
     8
 71
     3
 72
    18
 73
    14
 74
     0
 42
0.0000000001
 43
0.0000000001
 40
3.852716598000005
 40
3.852716598000005
 40
3.852716598000005
 40
3.852716598000005
 40
4.038372487232881
 40
4.038372487232881
 40
4.368138376595315
 40
4.368138376595315
 40
5.010916804789026
 40
5.010916804789026
 40
5.870434557513849
 40
5.870434557513849
 40
6.913880305415015
 40
6.913880305415015
 40
7.695197836021934
 40
7.695197836021934
 40
7.695197836021934
 40
7.695197836021934
 10
-95.02189090361785
 20
72.05006633617109
 30
0.0
 10
-95.02189090361785
 20
72.05006633617109
 30
0.0
 10
-95.0212730191815
 20
72.06424913479281
 30
0.0
 10
-95.01782064710795
 20
72.14297793980847
 30
0.0
 10
-95.01364839346519
 20
72.23803492926151
 30
0.0
 10
-94.9950833284914
 20
72.64944802403658
 30
0.0
 10
-94.97490033433095
 20
73.08957493534172
 30
0.0
 10
-94.90294684992207
 20
74.50139021728421
 30
0.0
 10
-94.84316314388422
 20
75.59831096527796
 30
0.0
 10
-94.64538336109928
 20
78.62490989125217
 30
0.0
 10
-94.49464136459909
 20
80.66983067184549
 30
0.0
 10
-94.1077662774999
 20
84.82718594647748
 30
0.0
 10
-93.90374853650033
 20
86.78352903344535
 30
0.0
 10
-93.64229993934666
 20
88.88572198782652
 30
0.0
  0
SPLINE
  5
12A
330
2
100
AcDbEntity
  8
GEB-KONTUR-A
 48
25.0
100
AcDbSpline
210
0.0
220
0.0
230
1.0
 70
     8
 71
     3
 72
    16
 73
    12
 74
     0
 42
0.0000000001
 43
0.0000000001
 40
0.0029989623155942
 40
0.0029989623155942
 40
0.0029989623155942
 40
0.0029989623155942
 40
1.5931714554199
 40
1.5931714554199
 40
3.043278655103506
 40
3.043278655103506
 40
3.502361017653702
 40
3.502361017653702
 40
3.78315527300635
 40
3.78315527300635
 40
3.852716598000137
 40
3.852716598000137
 40
3.852716598000137
 40
3.852716598000137
 10
-92.93081159163254
 20
88.85465773569695
 30
0.0
 10
-92.77380239029261
 20
84.55112766721128
 30
0.0
 10
-92.79218642011386
 20
80.89084560904325
 30
0.0
 10
-92.88191253703974
 20
75.52892903527959
 30
0.0
 10
-92.95160097414443
 20
73.72853523145511
 30
0.0
 10
-93.00222723222075
 20
72.46501089534934
 30
0.0
 10
-93.01155087455454
 20
72.2464795646149
 30
0.0
 10
-93.02071008231582
 20
72.03339181824969
 30
0.0
 10
-93.02283228406892
 20
71.98487670524525
 30
0.0
 10
-93.02370750351192
 20
71.96481859271319
 30
0.0
 10
-93.02379446045412
 20
71.96282756144023
 30
0.0
 10
-93.02379446045412
 20
71.96282756144023
 30
0.0
  0
SPLINE
  5
12B
330
2
100
AcDbEntity
  8
GEB-KONTUR-A
 48
25.0
100
AcDbSpline
210
0.0
220
0.0
230
1.0
 70
     8
 71
     3
 72
    28
 73
    24
 74
     0
 42
0.0000000001
 43
0.0000000001
 40
0.0001313713827774
 40
0.0001313713827774
 40
0.0001313713827774
 40
0.0001313713827774
 40
0.1699823435974397
 40
0.1699823435974397
 40
0.2359852913257011
 40
0.2359852913257011
 40
0.2509416450175716
 40
0.2509416450175716
 40
0.2577210618544569
 40
0.2577210618544569
 40
0.2621161837060828
 40
0.2621161837060828
 40
0.2660500458101033
 40
0.2660500458101033
 40
0.2708764225465599
 40
0.2708764225465599
 40
0.2794527665764772
 40
0.2794527665764772
 40
0.3006598919483223
 40
0.3006598919483223
 40
0.3800224291685691
 40
0.3800224291685691
 40
0.5638716632348221
 40
0.5638716632348221
 40
0.5638716632348221
 40
0.5638716632348221
 10
-86.64896238827353
 20
88.58038627626923
 30
0.0
 10
-86.59220585716676
 20
89.03674053139502
 30
0.0
 10
-86.52385051822259
 20
89.41766268478374
 30
0.0
 10
-86.42013506012117
 20
89.78816867432271
 30
0.0
 10
-86.37481870132445
 20
89.92968508204285
 30
0.0
 10
-86.3069677451679
 20
90.03267122162981
 30
0.0
 10
-86.29207027839013
 20
90.05155877064238
 30
0.0
 10
-86.26782191365311
 20
90.0709822358516
 30
0.0
 10
-86.25907014280215
 20
90.07656081668313
 30
0.0
 10
-86.24315634531589
 20
90.08226339436248
 30
0.0
 10
-86.23658121996328
 20
90.08359441407026
 30
0.0
 10
-86.22360993969607
 20
90.08369768955686
 30
0.0
 10
-86.21767171719014
 20
90.08272066621021
 30
0.0
 10
-86.20487389159782
 20
90.0785831023926
 30
0.0
 10
-86.19842008410856
 20
90.07507681877404
 30
0.0
 10
-86.18229284859186
 20
90.06376856430108
 30
0.0
 10
-86.17332630197086
 20
90.05425657962495
 30
0.0
 10
-86.14758324329775
 20
90.02171067875668
 30
0.0
 10
-86.13223902841955
 20
89.99118120163064
 30
0.0
 10
-86.07394085740461
 20
89.85172605229241
 30
0.0
 10
-86.04304769958643
 20
89.69087272849504
 30
0.0
 10
-85.98204775444575
 20
89.3123078692513
 30
0.0
 10
-85.95246880758244
 20
88.96031978861879
 30
0.0
 10
-85.93747404055946
 20
88.54932202413966
 30
0.0
  0
SPLINE
  5
12C
330
2
100
AcDbEntity
  8
GEB-KONTUR-A
 48
25.0
100
AcDbSpline
210
0.0
220
0.0
230
1.0
 70
     8
 71
     3
 72
    18
 73
    14
 74
     0
 42
0.0000000001
 43
0.0000000001
 40
3.852716598000005
 40
3.852716598000005
 40
3.852716598000005
 40
3.852716598000005
 40
4.038372487232881
 40
4.038372487232881
 40
4.368138376595315
 40
4.368138376595315
 40
5.010916804789026
 40
5.010916804789026
 40
5.870434557513849
 40
5.870434557513849
 40
6.913880305415015
 40
6.913880305415015
 40
7.695197836021934
 40
7.695197836021934
 40
7.695197836021934
 40
7.695197836021934
 10
-88.02855335254477
 20
71.74473062461356
 30
0.0
 10
-88.02855335254477
 20
71.74473062461356
 30
0.0
 10
-88.02793546810837
 20
71.75891342323541
 30
0.0
 10
-88.02448309603489
 20
71.83764222825107
 30
0.0
 10
-88.02031084239208
 20
71.93269921770411
 30
0.0
 10
-88.00174577741833
 20
72.34411231247918
 30
0.0
 10
-87.98156278325782
 20
72.78423922378443
 30
0.0
 10
-87.90960929884901
 20
74.19605450572692
 30
0.0
 10
-87.84982559281113
 20
75.29297525372067
 30
0.0
 10
-87.6520458100262
 20
78.31957417969488
 30
0.0
 10
-87.50130381352603
 20
80.36449496028808
 30
0.0
 10
-87.11442872642678
 20
84.52185023492019
 30
0.0
 10
-86.91041098542726
 20
86.47819332188806
 30
0.0
 10
-86.64896238827353
 20
88.58038627626923
 30
0.0
  0
SPLINE
  5
12D
330
2
100
AcDbEntity
  8
GEB-KONTUR-A
 48
25.0
100
AcDbSpline
210
0.0
220
0.0
230
1.0
 70
     8
 71
     3
 72
    16
 73
    12
 74
     0
 42
0.0000000001
 43
0.0000000001
 40
0.0029989623155941
 40
0.0029989623155941
 40
0.0029989623155941
 40
0.0029989623155941
 40
1.5931714554199
 40
1.5931714554199
 40
3.043278655103506
 40
3.043278655103506
 40
3.502361017653702
 40
3.502361017653702
 40
3.78315527300635
 40
3.78315527300635
 40
3.852716598000137
 40
3.852716598000137
 40
3.852716598000137
 40
3.852716598000137
 10
-85.93747404055946
 20
88.54932202413966
 30
0.0
 10
-85.78046483921951
 20
84.24579195565399
 30
0.0
 10
-85.79884886904077
 20
80.58550989748585
 30
0.0
 10
-85.88857498596665
 20
75.22359332372229
 30
0.0
 10
-85.95826342307134
 20
73.42319951989771
 30
0.0
 10
-86.00888968114768
 20
72.15967518379205
 30
0.0
 10
-86.01821332348142
 20
71.94114385305749
 30
0.0
 10
-86.02737253124274
 20
71.7280561066924
 30
0.0
 10
-86.02949473299586
 20
71.67954099368796
 30
0.0
 10
-86.03036995243883
 20
71.6594828811559
 30
0.0
 10
-86.03045690938103
 20
71.65749184988294
 30
0.0
 10
-86.03045690938103
 20
71.65749184988294
 30
0.0
  0
SPLINE
  5
12E
330
2
100
AcDbEntity
  8
GEB-KONTUR-A
 48
25.0
100
AcDbSpline
210
0.0
220
0.0
230
1.0
 70
     8
 71
     3
 72
    28
 73
    24
 74
     0
 42
0.0000000001
 43
0.0000000001
 40
0.0001313713827693
 40
0.0001313713827693
 40
0.0001313713827693
 40
0.0001313713827693
 40
0.1699823435973711
 40
0.1699823435973711
 40
0.2359852913254426
 40
0.2359852913254426
 40
0.2509416450205721
 40
0.2509416450205721
 40
0.2577210618599997
 40
0.2577210618599997
 40
0.2621161837132609
 40
0.2621161837132609
 40
0.2660500458187362
 40
0.2660500458187362
 40
0.2708764225569044
 40
0.2708764225569044
 40
0.2794527665894658
 40
0.2794527665894658
 40
0.3006598919664957
 40
0.3006598919664957
 40
0.3800224291958478
 40
0.3800224291958478
 40
0.5638716632830613
 40
0.5638716632830613
 40
0.5638716632830613
 40
0.5638716632830613
 10
-79.65562483720046
 20
88.27505056471181
 30
0.0
 10
-79.59886830609369
 20
88.73140481983739
 30
0.0
 10
-79.53051296714949
 20
89.11232697322635
 30
0.0
 10
-79.42679750904813
 20
89.48283296276532
 30
0.0
 10
-79.38148115025135
 20
89.62434937048545
 30
0.0
 10
-79.31363019409201
 20
89.72733551007662
 30
0.0
 10
-79.29873272731484
 20
89.74622305908679
 30
0.0
 10
-79.27448436257987
 20
89.76564652429443
 30
0.0
 10
-79.26573259172901
 20
89.77122510512572
 30
0.0
 10
-79.24981879424283
 20
89.77692768280519
 30
0.0
 10
-79.24324366889024
 20
89.77825870251285
 30
0.0
 10
-79.23027238862298
 20
89.77836197799945
 30
0.0
 10
-79.22433416611707
 20
89.77738495465292
 30
0.0
 10
-79.21153634052484
 20
89.77324739083531
 30
0.0
 10
-79.20508253303577
 20
89.76974110721688
 30
0.0
 10
-79.18895529751876
 20
89.75843285274379
 30
0.0
 10
-79.17998875089771
 20
89.74892086806745
 30
0.0
 10
-79.15424569222608
 20
89.71637496720109
 30
0.0
 10
-79.13890147734807
 20
89.68584549007699
 30
0.0
 10
-79.08060330633151
 20
89.54639034073512
 30
0.0
 10
-79.04971014851341
 20
89.38553701693809
 30
0.0
 10
-78.98871020337264
 20
89.00697215769401
 30
0.0
 10
-78.95913125650935
 20
88.65498407706127
 30
0.0
 10
-78.94413648948639
 20
88.24398631258214
 30
0.0
  0
SPLINE
  5
12F
330
2
100
AcDbEntity
  8
GEB-KONTUR-A
 48
25.0
100
AcDbSpline
210
0.0
220
0.0
230
1.0
 70
     8
 71
     3
 72
    18
 73
    14
 74
     0
 42
0.0000000001
 43
0.0000000001
 40
3.852716598000075
 40
3.852716598000075
 40
3.852716598000075
 40
3.852716598000075
 40
4.038372487232971
 40
4.038372487232971
 40
4.36813837659545
 40
4.36813837659545
 40
5.010916804789212
 40
5.010916804789212
 40
5.870434557514112
 40
5.870434557514112
 40
6.913880305415295
 40
6.913880305415295
 40
7.69519783602225
 40
7.69519783602225
 40
7.69519783602225
 40
7.69519783602225
 10
-81.03521580147164
 20
71.43939491305627
 30
0.0
 10
-81.03521580147164
 20
71.43939491305627
 30
0.0
 10
-81.03459791703532
 20
71.45357771167812
 30
0.0
 10
-81.03114554496178
 20
71.53230651669378
 30
0.0
 10
-81.02697329131903
 20
71.62736350614682
 30
0.0
 10
-81.00840822634523
 20
72.03877660092189
 30
0.0
 10
-80.98822523218476
 20
72.47890351222713
 30
0.0
 10
-80.91627174777594
 20
73.89071879416963
 30
0.0
 10
-80.85648804173803
 20
74.98763954216338
 30
0.0
 10
-80.65870825895311
 20
78.01423846813782
 30
0.0
 10
-80.5079662624529
 20
80.05915924873091
 30
0.0
 10
-80.12109117535372
 20
84.21651452336289
 30
0.0
 10
-79.91707343435419
 20
86.17285761033077
 30
0.0
 10
-79.65562483720046
 20
88.27505056471181
 30
0.0
  0
SPLINE
  5
130
330
2
100
AcDbEntity
  8
GEB-KONTUR-A
 48
25.0
100
AcDbSpline
210
0.0
220
0.0
230
1.0
 70
     8
 71
     3
 72
    16
 73
    12
 74
     0
 42
0.0000000001
 43
0.0000000001
 40
0.0029989623156031
 40
0.0029989623156031
 40
0.0029989623156031
 40
0.0029989623156031
 40
1.593171455419883
 40
1.593171455419883
 40
3.043278655103513
 40
3.043278655103513
 40
3.502361017653645
 40
3.502361017653645
 40
3.783155273006256
 40
3.783155273006256
 40
3.852716598000064
 40
3.852716598000064
 40
3.852716598000064
 40
3.852716598000064
 10
-78.94413648948639
 20
88.24398631258214
 30
0.0
 10
-78.78712728814647
 20
83.9404562440967
 30
0.0
 10
-78.80551131796764
 20
80.28017418592867
 30
0.0
 10
-78.89523743489357
 20
74.918257612165
 30
0.0
 10
-78.96492587199825
 20
73.11786380834042
 30
0.0
 10
-79.01555213007455
 20
71.85433947223464
 30
0.0
 10
-79.02487577240833
 20
71.6358081415002
 30
0.0
 10
-79.03403498016968
 20
71.422720395135
 30
0.0
 10
-79.03615718192279
 20
71.37420528213056
 30
0.0
 10
-79.03703240136576
 20
71.35414716959849
 30
0.0
 10
-79.03711935830796
 20
71.35215613832554
 30
0.0
 10
-79.03711935830796
 20
71.35215613832554
 30
0.0
  0
SPLINE
  5
131
330
2
100
AcDbEntity
  8
GEB-KONTUR-A
 48
25.0
100
AcDbSpline
210
0.0
220
0.0
230
1.0
 70
     8
 71
     3
 72
    28
 73
    24
 74
     0
 42
0.0000000001
 43
0.0000000001
 40
0.0001313713827771
 40
0.0001313713827771
 40
0.0001313713827771
 40
0.0001313713827771
 40
0.1699823435973059
 40
0.1699823435973059
 40
0.235985291325338
 40
0.235985291325338
 40
0.2509416450169386
 40
0.2509416450169386
 40
0.2577210618536445
 40
0.2577210618536445
 40
0.2621161837051527
 40
0.2621161837051527
 40
0.2660500458090691
 40
0.2660500458090691
 40
0.2708764225453974
 40
0.2708764225453974
 40
0.2794527665750877
 40
0.2794527665750877
 40
0.3006598919464912
 40
0.3006598919464912
 40
0.3800224291658242
 40
0.3800224291658242
 40
0.5638716632298446
 40
0.5638716632298446
 40
0.5638716632298446
 40
0.5638716632298446
 10
-72.66228728612739
 20
87.96971485315452
 30
0.0
 10
-72.60553075502068
 20
88.42606910827976
 30
0.0
 10
-72.53717541607642
 20
88.80699126166883
 30
0.0
 10
-72.43345995797501
 20
89.1774972512078
 30
0.0
 10
-72.38814359917828
 20
89.31901365892816
 30
0.0
 10
-72.32029264302187
 20
89.42199979851489
 30
0.0
 10
-72.30539517624407
 20
89.44088734752757
 30
0.0
 10
-72.28114681150694
 20
89.46031081273691
 30
0.0
 10
-72.27239504065597
 20
89.46588939356843
 30
0.0
 10
-72.2564812431697
 20
89.47159197124779
 30
0.0
 10
-72.24990611781709
 20
89.47292299095556
 30
0.0
 10
-72.23693483754988
 20
89.47302626644216
 30
0.0
 10
-72.23099661504395
 20
89.47204924309563
 30
0.0
 10
-72.21819878945163
 20
89.4679116792779
 30
0.0
 10
-72.21174498196237
 20
89.46440539565925
 30
0.0
 10
-72.19561774644566
 20
89.45309714118639
 30
0.0
 10
-72.18665119982469
 20
89.44358515651016
 30
0.0
 10
-72.16090814115148
 20
89.41103925564197
 30
0.0
 10
-72.14556392627327
 20
89.3805097785156
 30
0.0
 10
-72.08726575525841
 20
89.24105462917783
 30
0.0
 10
-72.05637259744026
 20
89.08020130538057
 30
0.0
 10
-71.99537265229952
 20
88.70163644613626
 30
0.0
 10
-71.96579370543625
 20
88.34964836550375
 30
0.0
 10
-71.95079893841327
 20
87.93865060102485
 30
0.0
  0
SPLINE
  5
132
330
2
100
AcDbEntity
  8
GEB-KONTUR-A
 48
25.0
100
AcDbSpline
210
0.0
220
0.0
230
1.0
 70
     8
 71
     3
 72
    18
 73
    14
 74
     0
 42
0.0000000001
 43
0.0000000001
 40
3.852716598000007
 40
3.852716598000007
 40
3.852716598000007
 40
3.852716598000007
 40
4.038372487232883
 40
4.038372487232883
 40
4.368138376595316
 40
4.368138376595316
 40
5.010916804789028
 40
5.010916804789028
 40
5.870434557513852
 40
5.870434557513852
 40
6.913880305415016
 40
6.913880305415016
 40
7.695197836021931
 40
7.695197836021931
 40
7.695197836021931
 40
7.695197836021931
 10
-74.04187825039858
 20
71.13405920149887
 30
0.0
 10
-74.04187825039858
 20
71.13405920149887
 30
0.0
 10
-74.04126036596224
 20
71.14824200012083
 30
0.0
 10
-74.03780799388869
 20
71.22697080513626
 30
0.0
 10
-74.03363574024592
 20
71.3220277945893
 30
0.0
 10
-74.01507067527217
 20
71.73344088936449
 30
0.0
 10
-73.99488768111166
 20
72.17356780066961
 30
0.0
 10
-73.92293419670284
 20
73.58538308261223
 30
0.0
 10
-73.86315049066496
 20
74.68230383060597
 30
0.0
 10
-73.66537070788002
 20
77.70890275658018
 30
0.0
 10
-73.51462871137982
 20
79.75382353717339
 30
0.0
 10
-73.12775362428059
 20
83.91117881180548
 30
0.0
 10
-72.92373588328112
 20
85.86752189877325
 30
0.0
 10
-72.66228728612739
 20
87.96971485315452
 30
0.0
  0
SPLINE
  5
133
330
2
100
AcDbEntity
  8
GEB-KONTUR-A
 48
25.0
100
AcDbSpline
210
0.0
220
0.0
230
1.0
 70
     8
 71
     3
 72
    16
 73
    12
 74
     0
 42
0.0000000001
 43
0.0000000001
 40
0.0029989623155942
 40
0.0029989623155942
 40
0.0029989623155942
 40
0.0029989623155942
 40
1.5931714554199
 40
1.5931714554199
 40
3.043278655103506
 40
3.043278655103506
 40
3.502361017653702
 40
3.502361017653702
 40
3.78315527300635
 40
3.78315527300635
 40
3.852716598000137
 40
3.852716598000137
 40
3.852716598000137
 40
3.852716598000137
 10
-71.95079893841327
 20
87.93865060102485
 30
0.0
 10
-71.79378973707335
 20
83.63512053253931
 30
0.0
 10
-71.81217376689457
 20
79.97483847437115
 30
0.0
 10
-71.90189988382048
 20
74.6129219006076
 30
0.0
 10
-71.97158832092518
 20
72.81252809678313
 30
0.0
 10
-72.02221457900148
 20
71.54900376067735
 30
0.0
 10
-72.03153822133524
 20
71.3304724299428
 30
0.0
 10
-72.04069742909658
 20
71.11738468357771
 30
0.0
 10
-72.04281963084966
 20
71.06886957057326
 30
0.0
 10
-72.04369485029267
 20
71.0488114580412
 30
0.0
 10
-72.04378180723484
 20
71.04682042676825
 30
0.0
 10
-72.04378180723484
 20
71.04682042676825
 30
0.0
  0
LINE
  5
134
330
2
100
AcDbEntity
  8
GEB-KONTUR-A
 48
25.0
100
AcDbLine
 10
-60.78397541908486
 20
99.682929801147
 30
0.0
 11
-62.05329959141616
 21
70.61062655311491
 31
0.0
  0
LINE
  5
135
330
2
100
AcDbEntity
  8
GEB-KONTUR-A
 48
25.0
100
AcDbLine
 10
-58.51140533735085
 20
151.7333421455619
 30
0.0
 11
-59.78072950968211
 21
122.6610388975298
 31
0.0
  0
SPLINE
  5
136
330
2
100
AcDbEntity
  8
GEB-KONTUR-A
 48
25.0
100
AcDbSpline
210
0.0
220
0.0
230
1.0
 70
     8
 71
     3
 72
    16
 73
    12
 74
     0
 42
0.0000000001
 43
0.0000000001
 40
0.0029989623155371
 40
0.0029989623155371
 40
0.0029989623155371
 40
0.0029989623155371
 40
1.593171455419912
 40
1.593171455419912
 40
3.04327865510351
 40
3.04327865510351
 40
3.502361017653664
 40
3.502361017653664
 40
3.783155273006279
 40
3.783155273006279
 40
3.852716598000057
 40
3.852716598000057
 40
3.852716598000057
 40
3.852716598000057
 10
-70.59296686515486
 20
135.3649446196892
 30
0.0
 10
-70.74997606649484
 20
139.668474688175
 30
0.0
 10
-70.73159203667356
 20
143.3287567463433
 30
0.0
 10
-70.64186591974763
 20
148.6906733201067
 30
0.0
 10
-70.57217748264292
 20
150.4910671239313
 30
0.0
 10
-70.52155122456665
 20
151.7545914600368
 30
0.0
 10
-70.51222758223286
 20
151.9731227907712
 30
0.0
 10
-70.50306837447152
 20
152.1862105371365
 30
0.0
 10
-70.50094617271847
 20
152.2347256501407
 30
0.0
 10
-70.50007095327543
 20
152.254783762673
 30
0.0
 10
-70.49998399633333
 20
152.2567747939458
 30
0.0
 10
-70.49998399633333
 20
152.2567747939458
 30
0.0
  0
SPLINE
  5
137
330
2
100
AcDbEntity
  8
GEB-KONTUR-A
 48
25.0
100
AcDbSpline
210
0.0
220
0.0
230
1.0
 70
     8
 71
     3
 72
    28
 73
    24
 74
     0
 42
0.0000000001
 43
0.0000000001
 40
0.0001313713827752
 40
0.0001313713827752
 40
0.0001313713827752
 40
0.0001313713827752
 40
0.169982343597343
 40
0.169982343597343
 40
0.2359852913255565
 40
0.2359852913255565
 40
0.2509416450157996
 40
0.2509416450157996
 40
0.2577210618515501
 40
0.2577210618515501
 40
0.2621161837024098
 40
0.2621161837024098
 40
0.2660500458057591
 40
0.2660500458057591
 40
0.2708764225414193
 40
0.2708764225414193
 40
0.279452766569665
 40
0.279452766569665
 40
0.300659891936877
 40
0.300659891936877
 40
0.3800224291376095
 40
0.3800224291376095
 40
0.56387166315858
 40
0.56387166315858
 40
0.56387166315858
 40
0.56387166315858
 10
-69.88147851744077
 20
135.3338803675594
 30
0.0
 10
-69.93823504854751
 20
134.8775261124341
 30
0.0
 10
-70.00659038749174
 20
134.4966039590451
 30
0.0
 10
-70.11030584559319
 20
134.1260979695059
 30
0.0
 10
-70.15562220438991
 20
133.9845815617859
 30
0.0
 10
-70.22347316054506
 20
133.8815954222009
 30
0.0
 10
-70.23837062732312
 20
133.8627078731873
 30
0.0
 10
-70.26261899206125
 20
133.8432844079772
 30
0.0
 10
-70.2713707629122
 20
133.8377058271455
 30
0.0
 10
-70.2872845603984
 20
133.8320032494663
 30
0.0
 10
-70.29385968575098
 20
133.8306722297585
 30
0.0
 10
-70.30683096601831
 20
133.8305689542719
 30
0.0
 10
-70.31276918852427
 20
133.8315459776186
 30
0.0
 10
-70.32556701411647
 20
133.8356835414362
 30
0.0
 10
-70.3320208216056
 20
133.8391898250547
 30
0.0
 10
-70.34814805712244
 20
133.8504980795277
 30
0.0
 10
-70.35711460374341
 20
133.8600100642038
 30
0.0
 10
-70.38285766241625
 20
133.8925559650716
 30
0.0
 10
-70.39820187729444
 20
133.9230854421975
 30
0.0
 10
-70.45650004830974
 20
134.0625405915364
 30
0.0
 10
-70.4873932061279
 20
134.2233939153334
 30
0.0
 10
-70.54839315126864
 20
134.6019587745777
 30
0.0
 10
-70.57797209813188
 20
134.9539468552104
 30
0.0
 10
-70.59296686515486
 20
135.3649446196892
 30
0.0
  0
SPLINE
  5
138
330
2
100
AcDbEntity
  8
GEB-KONTUR-A
 48
25.0
100
AcDbSpline
210
0.0
220
0.0
230
1.0
 70
     8
 71
     3
 72
    18
 73
    14
 74
     0
 42
0.0000000001
 43
0.0000000001
 40
3.852716598000161
 40
3.852716598000161
 40
3.852716598000161
 40
3.852716598000161
 40
4.038372487233206
 40
4.038372487233206
 40
4.368138376595831
 40
4.368138376595831
 40
5.010916804789732
 40
5.010916804789732
 40
5.870434557514797
 40
5.870434557514797
 40
6.913880305416185
 40
6.913880305416185
 40
7.695197836023214
 40
7.695197836023214
 40
7.695197836023214
 40
7.695197836023214
 10
-68.50188755316955
 20
152.1695360192152
 30
0.0
 10
-68.50188755316955
 20
152.1695360192152
 30
0.0
 10
-68.50250543760589
 20
152.1553532205933
 30
0.0
 10
-68.50595780967939
 20
152.0766244155777
 30
0.0
 10
-68.5101300633222
 20
151.9815674261247
 30
0.0
 10
-68.52869512829599
 20
151.5701543313494
 30
0.0
 10
-68.54887812245644
 20
151.1300274200443
 30
0.0
 10
-68.62083160686532
 20
149.7182121381017
 30
0.0
 10
-68.6806153129032
 20
148.6212913901076
 30
0.0
 10
-68.87839509568815
 20
145.5946924641334
 30
0.0
 10
-69.02913709218836
 20
143.54977168354
 30
0.0
 10
-69.41601217928755
 20
139.3924164089082
 30
0.0
 10
-69.62002992028707
 20
137.4360733219406
 30
0.0
 10
-69.88147851744077
 20
135.3338803675594
 30
0.0
  0
SPLINE
  5
139
330
2
100
AcDbEntity
  8
GEB-KONTUR-A
 48
25.0
100
AcDbSpline
210
0.0
220
0.0
230
1.0
 70
     8
 71
     3
 72
    16
 73
    12
 74
     0
 42
0.0000000001
 43
0.0000000001
 40
0.002998962315537
 40
0.002998962315537
 40
0.002998962315537
 40
0.002998962315537
 40
1.593171455419912
 40
1.593171455419912
 40
3.043278655103509
 40
3.043278655103509
 40
3.502361017653663
 40
3.502361017653663
 40
3.783155273006277
 40
3.783155273006277
 40
3.852716598000055
 40
3.852716598000055
 40
3.852716598000055
 40
3.852716598000055
 10
-77.58630441622796
 20
135.6702803312465
 30
0.0
 10
-77.7433136175679
 20
139.9738103997323
 30
0.0
 10
-77.72492958774666
 20
143.6340924579005
 30
0.0
 10
-77.6352034708207
 20
148.996009031664
 30
0.0
 10
-77.565515033716
 20
150.7964028354886
 30
0.0
 10
-77.51488877563971
 20
152.0599271715943
 30
0.0
 10
-77.50556513330593
 20
152.2784585023285
 30
0.0
 10
-77.49640592554462
 20
152.4915462486938
 30
0.0
 10
-77.49428372379154
 20
152.5400613616982
 30
0.0
 10
-77.49340850434854
 20
152.5601194742303
 30
0.0
 10
-77.49332154740639
 20
152.5621105055031
 30
0.0
 10
-77.49332154740639
 20
152.5621105055031
 30
0.0
  0
SPLINE
  5
13A
330
2
100
AcDbEntity
  8
GEB-KONTUR-A
 48
25.0
100
AcDbSpline
210
0.0
220
0.0
230
1.0
 70
     8
 71
     3
 72
    28
 73
    24
 74
     0
 42
0.0000000001
 43
0.0000000001
 40
0.0001313713827752
 40
0.0001313713827752
 40
0.0001313713827752
 40
0.0001313713827752
 40
0.1699823435972259
 40
0.1699823435972259
 40
0.2359852913245822
 40
0.2359852913245822
 40
0.2509416450188038
 40
0.2509416450188038
 40
0.2577210618576808
 40
0.2577210618576808
 40
0.2621161837105964
 40
0.2621161837105964
 40
0.2660500458157879
 40
0.2660500458157879
 40
0.2708764225537337
 40
0.2708764225537337
 40
0.2794527665861169
 40
0.2794527665861169
 40
0.3006598919641251
 40
0.3006598919641251
 40
0.3800224292098393
 40
0.3800224292098393
 40
0.5638716633352173
 40
0.5638716633352173
 40
0.5638716633352173
 40
0.5638716633352173
 10
-76.87481606851389
 20
135.6392160791169
 30
0.0
 10
-76.93157259962058
 20
135.1828618239917
 30
0.0
 10
-76.99992793856478
 20
134.8019396706025
 30
0.0
 10
-77.10364339666594
 20
134.4314336810645
 30
0.0
 10
-77.14895975546276
 20
134.2899172733437
 30
0.0
 10
-77.21681071162172
 20
134.1869311337529
 30
0.0
 10
-77.23170817839909
 20
134.1680435847423
 30
0.0
 10
-77.25595654313455
 20
134.1486201195343
 30
0.0
 10
-77.26470831398533
 20
134.143041538703
 30
0.0
 10
-77.2806221114715
 20
134.1373389610237
 30
0.0
 10
-77.28719723682409
 20
134.1360079413159
 30
0.0
 10
-77.30016851709137
 20
134.1359046658293
 30
0.0
 10
-77.30610673959737
 20
134.136881689176
 30
0.0
 10
-77.31890456518957
 20
134.1410192529936
 30
0.0
 10
-77.32535837267874
 20
134.144525536612
 30
0.0
 10
-77.34148560819554
 20
134.155833791085
 30
0.0
 10
-77.35045215481645
 20
134.1653457757611
 30
0.0
 10
-77.37619521348998
 20
134.1978916766298
 30
0.0
 10
-77.39153942836821
 20
134.2284211537565
 30
0.0
 10
-77.44983759938285
 20
134.3678763030937
 30
0.0
 10
-77.480730757201
 20
134.5287296268911
 30
0.0
 10
-77.54173070234171
 20
134.9072944861349
 30
0.0
 10
-77.571309649205
 20
135.2592825667675
 30
0.0
 10
-77.58630441622796
 20
135.6702803312465
 30
0.0
  0
SPLINE
  5
13B
330
2
100
AcDbEntity
  8
GEB-KONTUR-A
 48
25.0
100
AcDbSpline
210
0.0
220
0.0
230
1.0
 70
     8
 71
     3
 72
    18
 73
    14
 74
     0
 42
0.0000000001
 43
0.0000000001
 40
3.852716598000162
 40
3.852716598000162
 40
3.852716598000162
 40
3.852716598000162
 40
4.038372487233207
 40
4.038372487233207
 40
4.368138376595832
 40
4.368138376595832
 40
5.010916804789735
 40
5.010916804789735
 40
5.8704345575148
 40
5.8704345575148
 40
6.913880305416191
 40
6.913880305416191
 40
7.695197836023223
 40
7.695197836023223
 40
7.695197836023223
 40
7.695197836023223
 10
-75.49522510424265
 20
152.4748717307725
 30
0.0
 10
-75.49522510424265
 20
152.4748717307725
 30
0.0
 10
-75.49584298867898
 20
152.4606889321508
 30
0.0
 10
-75.49929536075251
 20
152.381960127135
 30
0.0
 10
-75.50346761439527
 20
152.286903137682
 30
0.0
 10
-75.52203267936906
 20
151.8754900429069
 30
0.0
 10
-75.54221567352954
 20
151.4353631316016
 30
0.0
 10
-75.61416915793839
 20
150.023547849659
 30
0.0
 10
-75.67395286397626
 20
148.9266271016652
 30
0.0
 10
-75.87173264676121
 20
145.9000281756907
 30
0.0
 10
-76.02247464326143
 20
143.8551073950975
 30
0.0
 10
-76.40934973036064
 20
139.6977521204656
 30
0.0
 10
-76.61336747136019
 20
137.7414090334979
 30
0.0
 10
-76.87481606851389
 20
135.6392160791169
 30
0.0
  0
SPLINE
  5
13C
330
2
100
AcDbEntity
  8
GEB-KONTUR-A
 48
25.0
100
AcDbSpline
210
0.0
220
0.0
230
1.0
 70
     8
 71
     3
 72
    16
 73
    12
 74
     0
 42
0.0000000001
 43
0.0000000001
 40
0.002998962315537
 40
0.002998962315537
 40
0.002998962315537
 40
0.002998962315537
 40
1.593171455419912
 40
1.593171455419912
 40
3.043278655103509
 40
3.043278655103509
 40
3.502361017653663
 40
3.502361017653663
 40
3.783155273006277
 40
3.783155273006277
 40
3.852716598000055
 40
3.852716598000055
 40
3.852716598000055
 40
3.852716598000055
 10
-84.57964196730106
 20
135.9756160428038
 30
0.0
 10
-84.73665116864097
 20
140.2791461112897
 30
0.0
 10
-84.71826713881975
 20
143.9394281694578
 30
0.0
 10
-84.62854102189382
 20
149.3013447432215
 30
0.0
 10
-84.55885258478913
 20
151.1017385470459
 30
0.0
 10
-84.50822632671279
 20
152.3652628831517
 30
0.0
 10
-84.49890268437902
 20
152.583794213886
 30
0.0
 10
-84.48974347661772
 20
152.7968819602511
 30
0.0
 10
-84.4876212748646
 20
152.8453970732555
 30
0.0
 10
-84.48674605542166
 20
152.8654551857876
 30
0.0
 10
-84.48665909847946
 20
152.8674462170604
 30
0.0
 10
-84.48665909847946
 20
152.8674462170604
 30
0.0
  0
SPLINE
  5
13D
330
2
100
AcDbEntity
  8
GEB-KONTUR-A
 48
25.0
100
AcDbSpline
210
0.0
220
0.0
230
1.0
 70
     8
 71
     3
 72
    28
 73
    24
 74
     0
 42
0.0000000001
 43
0.0000000001
 40
0.0001313713827752
 40
0.0001313713827752
 40
0.0001313713827752
 40
0.0001313713827752
 40
0.1699823435973016
 40
0.1699823435973016
 40
0.2359852913252929
 40
0.2359852913252929
 40
0.2509416450192121
 40
0.2509416450192121
 40
0.2577210618577408
 40
0.2577210618577408
 40
0.2621161837104208
 40
0.2621161837104208
 40
0.2660500458153987
 40
0.2660500458153987
 40
0.2708764225530578
 40
0.2708764225530578
 40
0.2794527665848558
 40
0.2794527665848558
 40
0.3006598919607264
 40
0.3006598919607264
 40
0.3800224291930622
 40
0.3800224291930622
 40
0.563871663287074
 40
0.563871663287074
 40
0.563871663287074
 40
0.563871663287074
 10
-83.86815361958696
 20
135.9445517906742
 30
0.0
 10
-83.92491015069371
 20
135.4881975355489
 30
0.0
 10
-83.99326548963788
 20
135.1072753821598
 30
0.0
 10
-84.09698094773929
 20
134.7367693926209
 30
0.0
 10
-84.14229730653602
 20
134.5952529849007
 30
0.0
 10
-84.21014826269439
 20
134.4922668453109
 30
0.0
 10
-84.22504572947179
 20
134.4733792963
 30
0.0
 10
-84.24929409420755
 20
134.4539558310918
 30
0.0
 10
-84.25804586505838
 20
134.4483772502603
 30
0.0
 10
-84.27395966254456
 20
134.442674672581
 30
0.0
 10
-84.2805347878972
 20
134.4413436528732
 30
0.0
 10
-84.29350606816447
 20
134.4412403773866
 30
0.0
 10
-84.29944429067047
 20
134.4422174007332
 30
0.0
 10
-84.31224211626261
 20
134.4463549645509
 30
0.0
 10
-84.31869592375178
 20
134.4498612481693
 30
0.0
 10
-84.33482315926864
 20
134.4611695026424
 30
0.0
 10
-84.34378970588957
 20
134.4706814873186
 30
0.0
 10
-84.36953276456234
 20
134.5032273881862
 30
0.0
 10
-84.38487697944045
 20
134.5337568653119
 30
0.0
 10
-84.44317515045595
 20
134.6732120146509
 30
0.0
 10
-84.47406830827404
 20
134.8340653384482
 30
0.0
 10
-84.53506825341476
 20
135.2126301976922
 30
0.0
 10
-84.56464720027801
 20
135.5646182783246
 30
0.0
 10
-84.57964196730106
 20
135.9756160428038
 30
0.0
  0
SPLINE
  5
13E
330
2
100
AcDbEntity
  8
GEB-KONTUR-A
 48
25.0
100
AcDbSpline
210
0.0
220
0.0
230
1.0
 70
     8
 71
     3
 72
    18
 73
    14
 74
     0
 42
0.0000000001
 43
0.0000000001
 40
3.852716598000162
 40
3.852716598000162
 40
3.852716598000162
 40
3.852716598000162
 40
4.038372487233207
 40
4.038372487233207
 40
4.368138376595832
 40
4.368138376595832
 40
5.010916804789735
 40
5.010916804789735
 40
5.8704345575148
 40
5.8704345575148
 40
6.913880305416191
 40
6.913880305416191
 40
7.695197836023223
 40
7.695197836023223
 40
7.695197836023223
 40
7.695197836023223
 10
-82.48856265531575
 20
152.7802074423298
 30
0.0
 10
-82.48856265531575
 20
152.7802074423298
 30
0.0
 10
-82.48918053975206
 20
152.766024643708
 30
0.0
 10
-82.49263291182558
 20
152.6872958386923
 30
0.0
 10
-82.49680516546835
 20
152.5922388492395
 30
0.0
 10
-82.51537023044212
 20
152.1808257544642
 30
0.0
 10
-82.53555322460263
 20
151.7406988431589
 30
0.0
 10
-82.60750670901146
 20
150.3288835612165
 30
0.0
 10
-82.66729041504934
 20
149.2319628132225
 30
0.0
 10
-82.86507019783428
 20
146.205363887248
 30
0.0
 10
-83.01581219433453
 20
144.1604431066548
 30
0.0
 10
-83.40268728143371
 20
140.0030878320229
 30
0.0
 10
-83.60670502243326
 20
138.0467447450553
 30
0.0
 10
-83.86815361958696
 20
135.9445517906742
 30
0.0
  0
SPLINE
  5
13F
330
2
100
AcDbEntity
  8
GEB-KONTUR-A
 48
25.0
100
AcDbSpline
210
0.0
220
0.0
230
1.0
 70
     8
 71
     3
 72
    16
 73
    12
 74
     0
 42
0.0000000001
 43
0.0000000001
 40
0.0029989623155369
 40
0.0029989623155369
 40
0.0029989623155369
 40
0.0029989623155369
 40
1.593171455419912
 40
1.593171455419912
 40
3.043278655103509
 40
3.043278655103509
 40
3.502361017653663
 40
3.502361017653663
 40
3.783155273006277
 40
3.783155273006277
 40
3.852716598000055
 40
3.852716598000055
 40
3.852716598000055
 40
3.852716598000055
 10
-91.57297951837412
 20
136.2809517543612
 30
0.0
 10
-91.72998871971405
 20
140.584481822847
 30
0.0
 10
-91.71160468989285
 20
144.2447638810151
 30
0.0
 10
-91.62187857296689
 20
149.6066804547788
 30
0.0
 10
-91.55219013586219
 20
151.4070742586032
 30
0.0
 10
-91.50156387778592
 20
152.6705985947089
 30
0.0
 10
-91.49224023545214
 20
152.8891299254433
 30
0.0
 10
-91.48308102769078
 20
153.1022176718084
 30
0.0
 10
-91.48095882593773
 20
153.150732784813
 30
0.0
 10
-91.4800836064947
 20
153.1707908973449
 30
0.0
 10
-91.47999664955259
 20
153.1727819286179
 30
0.0
 10
-91.47999664955259
 20
153.1727819286179
 30
0.0
  0
SPLINE
  5
140
330
2
100
AcDbEntity
  8
GEB-KONTUR-A
 48
25.0
100
AcDbSpline
210
0.0
220
0.0
230
1.0
 70
     8
 71
     3
 72
    28
 73
    24
 74
     0
 42
0.0000000001
 43
0.0000000001
 40
0.0001313713827752
 40
0.0001313713827752
 40
0.0001313713827752
 40
0.0001313713827752
 40
0.1699823435973895
 40
0.1699823435973895
 40
0.2359852913262174
 40
0.2359852913262174
 40
0.250941645016928
 40
0.250941645016928
 40
0.2577210618529833
 40
0.2577210618529833
 40
0.2621161837040419
 40
0.2621161837040419
 40
0.2660500458075715
 40
0.2660500458075715
 40
0.2708764225434817
 40
0.2708764225434817
 40
0.2794527665722739
 40
0.2794527665722739
 40
0.3006598919422287
 40
0.3006598919422287
 40
0.3800224291630683
 40
0.3800224291630683
 40
0.5638716632309625
 40
0.5638716632309625
 40
0.5638716632309625
 40
0.5638716632309625
 10
-90.86149117066003
 20
136.2498875022317
 30
0.0
 10
-90.91824770176677
 20
135.793533247106
 30
0.0
 10
-90.98660304071103
 20
135.4126110937171
 30
0.0
 10
-91.09031849881271
 20
135.042105104177
 30
0.0
 10
-91.13563485760934
 20
134.9005886964576
 30
0.0
 10
-91.20348581376459
 20
134.7976025568726
 30
0.0
 10
-91.21838328054261
 20
134.7787150078592
 30
0.0
 10
-91.2426316452805
 20
134.7592915426492
 30
0.0
 10
-91.25138341613146
 20
134.7537129618177
 30
0.0
 10
-91.26729721361767
 20
134.7480103841384
 30
0.0
 10
-91.27387233897028
 20
134.7466793644307
 30
0.0
 10
-91.28684361923758
 20
134.746576088944
 30
0.0
 10
-91.29278184174356
 20
134.7475531122906
 30
0.0
 10
-91.30557966733576
 20
134.7516906761082
 30
0.0
 10
-91.31203347482495
 20
134.7551969597268
 30
0.0
 10
-91.3281607103417
 20
134.7665052141997
 30
0.0
 10
-91.33712725696264
 20
134.7760171988759
 30
0.0
 10
-91.36287031563682
 20
134.8085630997454
 30
0.0
 10
-91.37821453051524
 20
134.839092576873
 30
0.0
 10
-91.43651270152901
 20
134.9785477262082
 30
0.0
 10
-91.46740585934717
 20
135.1394010500057
 30
0.0
 10
-91.52840580448785
 20
135.5179659092495
 30
0.0
 10
-91.55798475135114
 20
135.8699539898821
 30
0.0
 10
-91.57297951837412
 20
136.2809517543612
 30
0.0
  0
SPLINE
  5
141
330
2
100
AcDbEntity
  8
GEB-KONTUR-A
 48
25.0
100
AcDbSpline
210
0.0
220
0.0
230
1.0
 70
     8
 71
     3
 72
    18
 73
    14
 74
     0
 42
0.0000000001
 43
0.0000000001
 40
3.852716598000162
 40
3.852716598000162
 40
3.852716598000162
 40
3.852716598000162
 40
4.038372487233207
 40
4.038372487233207
 40
4.368138376595832
 40
4.368138376595832
 40
5.010916804789735
 40
5.010916804789735
 40
5.8704345575148
 40
5.8704345575148
 40
6.913880305416191
 40
6.913880305416191
 40
7.695197836023223
 40
7.695197836023223
 40
7.695197836023223
 40
7.695197836023223
 10
-89.48190020638881
 20
153.0855431538871
 30
0.0
 10
-89.48190020638881
 20
153.0855431538871
 30
0.0
 10
-89.48251809082515
 20
153.0713603552653
 30
0.0
 10
-89.48597046289867
 20
152.9926315502498
 30
0.0
 10
-89.49014271654144
 20
152.8975745607968
 30
0.0
 10
-89.50870778151525
 20
152.4861614660217
 30
0.0
 10
-89.52889077567574
 20
152.0460345547165
 30
0.0
 10
-89.60084426008458
 20
150.6342192727738
 30
0.0
 10
-89.66062796612247
 20
149.5372985247797
 30
0.0
 10
-89.85840774890741
 20
146.5106995988053
 30
0.0
 10
-90.00914974540762
 20
144.4657788182123
 30
0.0
 10
-90.3960248325068
 20
140.3084235435802
 30
0.0
 10
-90.60004257350632
 20
138.3520804566126
 30
0.0
 10
-90.86149117066003
 20
136.2498875022317
 30
0.0
  0
LINE
  5
142
330
2
100
AcDbEntity
  8
GEB-KONTUR-A
 48
25.0
100
AcDbLine
 10
-97.09127490779302
 20
157.6217769059806
 30
0.0
 11
-100.9995720157271
 21
68.10705625224613
 31
0.0
  0
LINE
  5
143
330
2
100
AcDbEntity
  8
GEB-VERDECKT
 48
25.0
100
AcDbLine
 10
-55.4453091903849
 20
148.5966154412472
 30
0.0
 11
-52.44816452563927
 21
148.4657572791511
 31
0.0
  0
LINE
  5
144
330
2
100
AcDbEntity
  8
GEB-VERDECKT
 48
25.0
100
AcDbLine
 10
-52.44816452563924
 20
148.4657572791511
 30
0.0
 11
-52.61178405602024
 21
144.7182539161604
 31
0.0
  0
LINE
  5
145
330
2
100
AcDbEntity
  8
GEB-VERDECKT
 48
25.0
100
AcDbLine
 10
-53.58663053587452
 20
122.3905986958646
 30
0.0
 11
-54.58987644527727
 21
99.4124895994819
 31
0.0
  0
LINE
  5
146
330
2
100
AcDbEntity
  8
GEB-KONTUR-A
 48
25.0
100
AcDbLine
 10
-58.72548712025815
 20
73.46818917829136
 30
0.0
 11
-55.72834245551252
 21
73.33733101619532
 31
0.0
  0
LINE
  5
147
330
2
100
AcDbEntity
  8
GEB-KONTUR-A
 48
25.0
100
AcDbLine
 10
-52.61178405602027
 20
144.7182539161604
 30
0.0
 11
-53.58663053587452
 21
122.3905986958646
 31
0.0
  0
LINE
  5
148
330
2
100
AcDbEntity
  8
GEB-KONTUR-A
 48
25.0
100
AcDbLine
 10
-54.58987644527727
 20
99.4124895994819
 30
0.0
 11
-55.72834245551252
 21
73.33733101619532
 31
0.0
  0
LINE
  5
149
330
2
100
AcDbEntity
  8
GEB-VERDECKT
 48
25.0
100
AcDbLine
 10
-55.10000000000002
 20
151.24
 30
0.0
 11
55.10000000000002
 21
151.24
 31
0.0
  0
LINE
  5
14A
330
2
100
AcDbEntity
  8
GEB-VERDECKT
 48
25.0
100
AcDbLine
 10
55.10000000000002
 20
147.6000000000001
 30
0.0
 11
55.10000000000002
 21
151.24
 31
0.0
  0
LINE
  5
14B
330
2
100
AcDbEntity
  8
GEB-VERDECKT
 48
25.0
100
AcDbLine
 10
-55.10000000000002
 20
148.5815389163999
 30
0.0
 11
-55.10000000000002
 21
151.24
 31
0.0
  0
LINE
  5
14C
330
2
100
AcDbEntity
  8
GEB-VERDECKT
 48
25.0
100
AcDbLine
 10
-59.78469546100075
 20
73.51443521318469
 30
0.0
 11
-58.72548712025815
 21
73.46818917829125
 31
0.0
  0
LINE
  5
14D
330
2
100
AcDbEntity
  8
GEB-VERDECKT
 48
25.0
100
AcDbLine
 10
-56.50451753112751
 20
148.6428614761403
 30
0.0
 11
-55.10000000000002
 21
148.5815389163999
 31
0.0
  0
LINE
  5
14E
330
2
100
AcDbEntity
  8
GEB-VERDECKT
 48
25.0
100
AcDbLine
 10
-51.59816431017739
 20
145.8261684868469
 30
0.0
 11
-56.61792793827735
 21
146.0453361000277
 31
0.0
  0
LINE
  5
14F
330
2
100
AcDbEntity
  8
GEB-VERDECKT
 48
25.0
100
AcDbLine
 10
-51.55099684826893
 20
75.75742114955289
 30
0.0
 11
-59.6712850538509
 21
76.11196058929749
 31
0.0
  0
SPLINE
  5
150
330
2
100
AcDbEntity
  8
GEB-VERDECKT
 48
25.0
100
AcDbSpline
210
0.0
220
0.0
230
1.0
 70
     8
 71
     3
 72
     8
 73
     4
 74
     0
 42
0.0000000001
 43
0.0000000001
 40
10.756342534613
 40
10.756342534613
 40
10.756342534613
 40
10.756342534613
 40
10.88626718347001
 40
10.88626718347001
 40
10.88626718347001
 40
10.88626718347001
 10
-41.88724159799929
 20
121.8795312873193
 30
0.0
 10
-41.77415329266369
 20
121.4621829769962
 30
0.0
 10
-41.66588050167937
 20
121.042265487349
 30
0.0
 10
-41.56286431310658
 20
120.6201254962115
 30
0.0
  0
SPLINE
  5
151
330
2
100
AcDbEntity
  8
GEB-VERDECKT
 48
25.0
100
AcDbSpline
210
0.0
220
0.0
230
1.0
 70
     8
 71
     3
 72
    10
 73
     6
 74
     0
 42
0.0000000001
 43
0.0000000001
 40
5.960514580618239
 40
5.960514580618239
 40
5.960514580880293
 40
5.960514580880293
 40
6.695882615632337
 40
6.695882615632337
 40
6.794492956989098
 40
6.794492956989098
 40
6.794492956989098
 40
6.794492956989098
 10
-55.10000000000002
 20
148.5815389163999
 30
0.0
 10
-55.10000000000002
 20
148.5815389163999
 30
0.0
 10
-54.93286951681866
 20
148.3304553735506
 30
0.0
 10
-54.55312074718406
 20
147.7508523633632
 30
0.0
 10
-54.50521040647402
 20
147.6776525417442
 30
0.0
 10
-54.45438329732289
 20
147.5998663323257
 30
0.0
  0
LINE
  5
152
330
2
100
AcDbEntity
  8
GEB-VERDECKT
 48
25.0
100
AcDbLine
 10
-59.78469546100075
 20
73.51443521318469
 30
0.0
 11
-56.50451753112751
 21
148.6428614761403
 31
0.0
  0
LINE
  5
153
330
2
100
AcDbEntity
  8
GEB-KONTUR-A
 48
25.0
100
AcDbLine
 10
55.10000000000002
 20
72.39999999999998
 30
0.0
 11
55.10000000000002
 21
147.6000000000001
 31
0.0
  0
LINE
  5
154
330
2
100
AcDbEntity
  8
GEB-KONTUR-A
 48
25.0
100
AcDbLine
 10
-55.10000000000002
 20
72.39999999999998
 30
0.0
 11
-55.10000000000002
 21
73.30989699211818
 31
0.0
  0
LINE
  5
155
330
2
100
AcDbEntity
  8
GEB-KONTUR-A
 48
25.0
100
AcDbLine
 10
-58.72548712025815
 20
73.46818917829125
 30
0.0
 11
-55.09999999999999
 21
73.30989699211818
 31
0.0
  0
ARC
  5
156
330
2
100
AcDbEntity
  8
GEB-KONTUR-A
 48
25.0
100
AcDbCircle
 10
-56.75
 20
70.75
 30
0.0
 40
1.099999999999997
100
AcDbArc
 50
110.6049121868915
 51
253.1255057020562
  0
ARC
  5
157
330
2
100
AcDbEntity
  8
GEB-KONTUR-A
 48
25.0
100
AcDbCircle
 10
56.75
 20
70.75
 30
0.0
 40
1.099999999999997
100
AcDbArc
 50
286.8744942979437
 51
69.39508781310997
  0
LINE
  5
158
330
2
100
AcDbEntity
  8
GEB-KONTUR-A
 48
25.0
100
AcDbLine
 10
55.10000000000002
 20
69.09999999999991
 30
0.0
 11
57.06930385424188
 21
69.69736281242479
 31
0.0
  0
LINE
  5
159
330
2
100
AcDbEntity
  8
GEB-KONTUR-A
 48
25.0
100
AcDbLine
 10
-55.10000000000002
 20
69.09999999999991
 30
0.0
 11
-57.06930385424186
 21
69.69736281242479
 31
0.0
  0
ARC
  5
15A
330
2
100
AcDbEntity
  8
GEB-KONTUR-A
 48
25.0
100
AcDbCircle
 10
-51.27958466475056
 20
56.19998359043688
 30
0.0
 40
16.64440161147056
100
AcDbArc
 50
103.2694938372583
 51
110.6049121868915
  0
ARC
  5
15B
330
2
100
AcDbEntity
  8
GEB-KONTUR-A
 48
25.0
100
AcDbCircle
 10
51.27958466475057
 20
56.19998359043688
 30
0.0
 40
16.64440161147056
100
AcDbArc
 50
69.39508781310846
 51
76.73050616274167
  0
LINE
  5
15C
330
2
100
AcDbEntity
  8
GEB-KONTUR-A
 48
25.0
100
AcDbLine
 10
55.10000000000002
 20
2.0
 30
0.0
 11
55.10000000000002
 21
69.09999999999991
 31
0.0
  0
LINE
  5
15D
330
2
100
AcDbEntity
  8
GEB-KONTUR-A
 48
25.0
100
AcDbLine
 10
-55.10000000000002
 20
2.0
 30
0.0
 11
-55.10000000000002
 21
69.09999999999991
 31
0.0
  0
LINE
  5
15E
330
2
100
AcDbEntity
  8
GEB-KONTUR-A
 48
25.0
100
AcDbLine
 10
54.48853863708269
 20
0.0
 30
0.0
 11
55.10000000000002
 21
2.0
 31
0.0
  0
LINE
  5
15F
330
2
100
AcDbEntity
  8
GEB-KONTUR-A
 48
25.0
100
AcDbLine
 10
-54.48853863708269
 20
0.0
 30
0.0
 11
-55.10000000000002
 21
2.0
 31
0.0
  0
SPLINE
  5
160
330
2
100
AcDbEntity
  8
GEB-KONTUR-A
 48
25.0
100
AcDbSpline
210
0.0
220
0.0
230
1.0
 70
     8
 71
     3
 72
    26
 73
    22
 74
     0
 42
0.0000000001
 43
0.0000000001
 40
10.88626718347001
 40
10.88626718347001
 40
10.88626718347001
 40
10.88626718347001
 40
11.16636261981279
 40
11.16636261981279
 40
11.92115458645424
 40
11.92115458645424
 40
12.65618720662918
 40
12.65618720662918
 40
13.39121982680412
 40
13.39121982680412
 40
14.12625244697906
 40
14.12625244697906
 40
14.861285067154
 40
14.861285067154
 40
15.59575780181677
 40
15.59575780181677
 40
16.33023053647953
 40
16.33023053647953
 40
17.0647032711423
 40
17.0647032711423
 40
17.79917600579713
 40
17.79917600579713
 40
17.79917600580506
 40
17.79917600580506
 10
-41.56286431310658
 20
120.6201254962115
 30
0.0
 10
-41.34077893867981
 20
119.710063502159
 30
0.0
 10
-41.14312416194744
 20
118.7896722049688
 30
0.0
 10
-40.51943002238695
 20
115.3637101907948
 30
0.0
 10
-40.27716474629264
 20
112.8145122126427
 30
0.0
 10
-40.27716474629264
 20
107.8484302565881
 30
0.0
 10
-40.50755211752687
 20
105.3623738982008
 30
0.0
 10
-41.39199920092798
 20
100.496373923213
 30
0.0
 10
-42.04320209332988
 20
98.11580100062428
 30
0.0
 10
-43.59773654035137
 20
93.60041000115405
 30
0.0
 10
-44.49997456393816
 20
91.46019999103373
 30
0.0
 10
-46.36005659354083
 20
87.51650319342036
 30
0.0
 10
-47.31664535899187
 20
85.71290981084166
 30
0.0
 10
-49.11404292206388
 20
82.51856575539932
 30
0.0
 10
-50.02379718246277
 20
81.00876952799422
 30
0.0
 10
-51.70630606836439
 20
78.32466312400573
 30
0.0
 10
-52.47815149836696
 20
77.15015072590313
 30
0.0
 10
-53.7549659384845
 20
75.24551775437089
 30
0.0
 10
-54.26056267669278
 20
74.51382003058211
 30
0.0
 10
-54.93325639221317
 20
73.5458175696624
 30
0.0
 10
-55.09999999999641
 20
73.30989699212318
 30
0.0
 10
-55.10000000000002
 20
73.30989699211818
 30
0.0
  0
SPLINE
  5
161
330
2
100
AcDbEntity
  8
GEB-KONTUR-A
 48
25.0
100
AcDbSpline
210
0.0
220
0.0
230
1.0
 70
     8
 71
     3
 72
    18
 73
    14
 74
     0
 42
0.0000000001
 43
0.0000000001
 40
6.794492956989098
 40
6.794492956989098
 40
6.794492956989098
 40
6.794492956989098
 40
7.431250650384381
 40
7.431250650384381
 40
8.166618685136425
 40
8.166618685136425
 40
8.901986719888469
 40
8.901986719888469
 40
9.656778686529911
 40
9.656778686529911
 40
10.41157065317135
 40
10.41157065317135
 40
10.756342534613
 40
10.756342534613
 40
10.756342534613
 40
10.756342534613
 10
-54.45438329732289
 20
147.5998663323257
 30
0.0
 10
-54.12617681978983
 20
147.0975765460234
 30
0.0
 10
-53.67635022165976
 20
146.4040487343045
 30
0.0
 10
-52.49818885847815
 20
144.5442985220156
 30
0.0
 10
-51.73690635573709
 20
143.3198703812178
 30
0.0
 10
-50.08249128495322
 20
140.5401023976953
 30
0.0
 10
-49.19026098211142
 20
138.9846519165536
 30
0.0
 10
-47.40831700788797
 20
135.6768224408702
 30
0.0
 10
-46.44824856421467
 20
133.7924211992777
 30
0.0
 10
-44.57777736571256
 20
129.6901825651464
 30
0.0
 10
-43.66842262756344
 20
127.4724141785814
 30
0.0
 10
-42.52134017106032
 20
124.0764153490271
 30
0.0
 10
-42.18733606154105
 20
122.9870190768376
 30
0.0
 10
-41.88724159799929
 20
121.8795312873193
 30
0.0
  0
LINE
  5
162
330
2
100
AcDbEntity
  8
GEB-KONTUR-A
 48
25.0
100
AcDbLine
 10
55.09999999999999
 20
72.39999999999998
 30
0.0
 11
-55.09999999999999
 21
72.39999999999998
 31
0.0
  0
LINE
  5
163
330
2
100
AcDbEntity
  8
GEB-KONTUR-A
 48
25.0
100
AcDbLine
 10
-55.10000000000002
 20
69.09999999999991
 30
0.0
 11
55.10000000000002
 21
69.09999999999991
 31
0.0
  0
LINE
  5
164
330
2
100
AcDbEntity
  8
GEB-KONTUR-A
 48
25.0
100
AcDbLine
 10
54.48853863708269
 20
0.0
 30
0.0
 11
-54.48853863708269
 21
0.0
 31
0.0
  0
LINE
  5
165
330
2
100
AcDbEntity
  8
GEB-KONTUR-A
 48
25.0
100
AcDbLine
 10
-55.09999999999999
 20
2.0
 30
0.0
 11
55.09999999999999
 21
2.0
 31
0.0
  0
LINE
  5
166
330
2
100
AcDbEntity
  8
GEB-VERDECKT
 48
25.0
100
AcDbLine
 10
51.5
 20
0.0
 30
0.0
 11
51.59999999999998
 21
148.5531434217776
 31
0.0
  0
LINE
  5
167
330
2
100
AcDbEntity
  8
GEB-VERDECKT
 48
25.0
100
AcDbLine
 10
-51.59816431017739
 20
145.8261684868469
 30
0.0
 11
-51.59999999999996
 21
148.5531434217776
 31
0.0
  0
LINE
  5
168
330
2
100
AcDbEntity
  8
GEB-VERDECKT
 48
25.0
100
AcDbLine
 10
-51.49999999999997
 20
0.0
 30
0.0
 11
-51.55099684826893
 21
75.75742114955289
 31
0.0
  0
LINE
  5
169
330
2
100
AcDbEntity
  8
GEB-VERDECKT
 48
25.0
100
AcDbLine
 10
51.59999999999996
 20
148.5531434217776
 30
0.0
 11
53.15125736871053
 21
151.24
 31
0.0
  0
LINE
  5
16A
330
2
100
AcDbEntity
  8
GEB-VERDECKT
 48
25.0
100
AcDbLine
 10
-51.59999999999996
 20
148.5531434217776
 30
0.0
 11
-53.15125736871053
 21
151.24
 31
0.0
  0
SPLINE
  5
16B
330
2
100
AcDbEntity
  8
GEB-VERDECKT
 48
25.0
100
AcDbSpline
210
0.0
220
0.0
230
1.0
 70
     8
 71
     3
 72
    38
 73
    34
 74
     0
 42
0.0000000001
 43
0.0000000001
 40
5.546818796034033
 40
5.546818796034033
 40
5.546818796243345
 40
5.546818796243345
 40
6.234532086949168
 40
6.234532086949168
 40
6.922245377654991
 40
6.922245377654991
 40
7.609958668360815
 40
7.609958668360815
 40
8.297671959066638
 40
8.297671959066638
 40
8.996663367421652
 40
8.996663367421652
 40
9.695654775776665
 40
9.695654775776665
 40
10.39464618413168
 40
10.39464618413168
 40
11.09363759248669
 40
11.09363759248669
 40
11.77704024923156
 40
11.77704024923156
 40
12.46044290597642
 40
12.46044290597642
 40
13.14384556272128
 40
13.14384556272128
 40
13.82724821946615
 40
13.82724821946615
 40
14.51040058699163
 40
14.51040058699163
 40
15.19355295451712
 40
15.19355295451712
 40
15.87670532204261
 40
15.87670532204261
 40
16.55985768955602
 40
16.55985768955602
 40
16.55985768956809
 40
16.55985768956809
 10
-51.59816431017739
 20
145.8261684868469
 30
0.0
 10
-51.59816431017739
 20
145.8261684868469
 30
0.0
 10
-51.4419078486398
 20
145.5903059551606
 30
0.0
 10
-50.81617745457677
 20
144.6304757426637
 30
0.0
 10
-50.34708849417288
 20
143.9069268081716
 30
0.0
 10
-49.16807728034936
 20
142.0354314097676
 30
0.0
 10
-48.45759100654575
 20
140.885941259674
 30
0.0
 10
-46.91466576964237
 20
138.2761713889523
 30
0.0
 10
-46.08307877988809
 20
136.8157807866203
 30
0.0
 10
-44.43212181276763
 20
133.7249477684621
 30
0.0
 10
-43.54799462353312
 20
131.9737241753965
 30
0.0
 10
-41.82737949493303
 20
128.1631400003731
 30
0.0
 10
-40.99187458098763
 20
126.103827827032
 30
0.0
 10
-39.54629448502382
 20
121.776448329927
 30
0.0
 10
-38.9372024453719
 20
119.5043323168793
 30
0.0
 10
-38.10323853737788
 20
114.8703330938543
 30
0.0
 10
-37.88115975779493
 20
112.5078278417238
 30
0.0
 10
-37.8788814809503
 20
107.8998486687634
 30
0.0
 10
-38.0894882687964
 20
105.5873769068685
 30
0.0
 10
-38.90139270124499
 20
101.0598257308932
 30
0.0
 10
-39.50010769048117
 20
98.84418183360196
 30
0.0
 10
-40.93123528837196
 20
94.64123298166645
 30
0.0
 10
-41.76263827082087
 20
92.64891210264636
 30
0.0
 10
-43.47789819875433
 20
88.97793524542498
 30
0.0
 10
-44.36057508911218
 20
87.29917259762874
 30
0.0
 10
-46.02003007732787
 20
84.32567014857523
 30
0.0
 10
-46.86040923572213
 20
82.92027706432099
 30
0.0
 10
-48.41489315201656
 20
80.42222533679046
 30
0.0
 10
-49.12814821814279
 20
79.32937616765468
 30
0.0
 10
-50.30807888046386
 20
77.55745772595332
 30
0.0
 10
-50.77532613323345
 20
76.87692358423124
 30
0.0
 10
-51.39694861705675
 20
75.97672735024343
 30
0.0
 10
-51.55099684826351
 20
75.75742114956074
 30
0.0
 10
-51.55099684826893
 20
75.75742114955289
 30
0.0
  0
LINE
  5
16C
330
2
100
AcDbEntity
  8
GEB-VERDECKT
 48
25.0
100
AcDbLine
 10
-51.59999999999996
 20
148.5531434217776
 30
0.0
 11
51.59999999999996
 21
148.5531434217776
 31
0.0
  0
TEXT
  5
16D
330
2
100
AcDbEntity
  8
GEB-TEXT
100
AcDbText
 10
-61.98738173392561
 20
-10.5
 30
0.0
 40
3.5
  1
Abzweig PP-MD 87.5G d110/75
 72
     1
 11
-27.33833671346176
 21
-10.5
 31
0.0
100
AcDbText
  0
TEXT
  5
16F
330
2
100
AcDbEntity
  8
GEB-TEXT
100
AcDbText
 10
-46.09055363024211
 20
-5.0
 30
0.0
 40
3.5
  1
Geberit Silent PP
 72
     1
 11
-27.33833671346176
 21
-5.0
 31
0.0
100
AcDbText
  0
TEXT
  5
170
330
2
100
AcDbEntity
  8
GEB-ART-NR
100
AcDbText
 10
-51.51378151310735
 20
-16.84278125428022
 30
0.0
 40
3.5
  1
GEB-ART-NR 390.549
 72
     1
 11
-26.78578014885088
 21
-16.84278125428022
 31
0.0
100
AcDbText
  0
ENDSEC
  0
SECTION
  2
OBJECTS
  0
DICTIONARY
  5
9
330
0
100
AcDbDictionary
281
     1
  3
ACAD_2007HEADERVARS_RT
350
19F
  3
ACAD_COLOR
350
44
  3
ACAD_GROUP
350
31
  3
ACAD_LAYOUT
350
16
  3
ACAD_MATERIAL
350
B
  3
ACAD_MLEADERSTYLE
350
47
  3
ACAD_MLINESTYLE
350
32
  3
ACAD_PLOTSETTINGS
350
33
  3
ACAD_PLOTSTYLENAME
350
8
  3
ACAD_SCALELIST
350
45
  3
ACAD_TABLESTYLE
350
46
  3
ACAD_VISUALSTYLE
350
2B
  3
ACDB_RECOMPOSE_DATA
350
19E
  3
AcDbVariableDictionary
350
174
  0
DICTIONARY
  5
2C
330
28
100
AcDbDictionary
280
     1
281
     1
  0
DICTIONARY
  5
1C
330
1B
100
AcDbDictionary
280
     1
281
     1
  3
ACAD_LAYERFILTERS
360
1D
  3
ACLYDICTIONARY
360
1E
  0
DICTIONARY
  5
3
330
2
100
AcDbDictionary
280
     1
281
     1
  3
ACAD_SORTENTS
360
172
  0
DICTIONARY
  5
19F
102
{ACAD_REACTORS
330
9
102
}
330
9
100
AcDbDictionary
281
     1
  3
DIMARCSYM
350
1A0
  3
DIMLTEX1
350
1A2
  3
DIMLTEX2
350
1A3
  3
DIMLTYPE
350
1A1
  0
DICTIONARY
  5
44
102
{ACAD_REACTORS
330
9
102
}
330
9
100
AcDbDictionary
281
     1
  0
DICTIONARY
  5
31
102
{ACAD_REACTORS
330
9
102
}
330
9
100
AcDbDictionary
281
     1
  0
DICTIONARY
  5
16
102
{ACAD_REACTORS
330
9
102
}
330
9
100
AcDbDictionary
281
     1
  3
Layout1
350
1A
  3
Model
350
15
  0
DICTIONARY
  5
B
102
{ACAD_REACTORS
330
9
102
}
330
9
100
AcDbDictionary
281
     1
  3
ByBlock
350
3C
  3
ByLayer
350
34
  3
Global
350
A
  0
DICTIONARY
  5
47
102
{ACAD_REACTORS
330
9
102
}
330
9
100
AcDbDictionary
281
     1
  3
Standard
350
192
  0
DICTIONARY
  5
32
102
{ACAD_REACTORS
330
9
102
}
330
9
100
AcDbDictionary
281
     1
  3
Standard
350
48
  0
DICTIONARY
  5
33
102
{ACAD_REACTORS
330
9
102
}
330
9
100
AcDbDictionary
281
     1
  0
ACDBDICTIONARYWDFLT
  5
8
102
{ACAD_REACTORS
330
9
102
}
330
9
100
AcDbDictionary
281
     1
  3
Normal
350
7
100
AcDbDictionaryWithDefault
340
7
  0
DICTIONARY
  5
45
102
{ACAD_REACTORS
330
9
102
}
330
9
100
AcDbDictionary
281
     1
  3
A0
350
4D
  3
A1
350
4E
  3
A2
350
4F
  3
A3
350
50
  3
A4
350
51
  3
A5
350
52
  3
A6
350
53
  3
A7
350
54
  3
A8
350
55
  3
A9
350
56
  3
B0
350
57
  3
B1
350
58
  3
B2
350
59
  3
B3
350
5A
  3
B4
350
5B
  3
B5
350
5C
  3
B6
350
5D
  3
B7
350
5E
  3
B8
350
5F
  3
B9
350
60
  3
C0
350
61
  3
C1
350
62
  3
C2
350
63
  3
C3
350
64
  3
C4
350
65
  3
C5
350
66
  3
C6
350
67
  3
C7
350
68
  3
C8
350
69
  3
C9
350
6A
  3
D0
350
6B
  3
D1
350
6C
  3
D2
350
6D
  0
DICTIONARY
  5
46
102
{ACAD_REACTORS
330
9
102
}
330
9
100
AcDbDictionary
281
     1
  3
Standard
350
49
  0
DICTIONARY
  5
2B
102
{ACAD_REACTORS
330
9
102
}
330
9
100
AcDbDictionary
281
     1
  3
2dWireframe
350
2A
  3
Basic
350
181
  3
Brighten
350
185
  3
ColorChange
350
189
  3
Conceptual
350
183
  3
Dim
350
184
  3
EdgeColorOff
350
191
  3
Facepattern
350
188
  3
Flat
350
17D
  3
FlatWithEdges
350
17E
  3
Gouraud
350
17F
  3
GouraudWithEdges
350
180
  3
Hidden
350
182
  3
JitterOff
350
18F
  3
Linepattern
350
187
  3
OverhangOff
350
190
  3
Realistic
350
4B
  3
Shaded
350
18E
  3
Shaded with edges
350
18D
  3
Shades of Gray
350
18A
  3
Sketchy
350
18B
  3
Thicken
350
186
  3
Wireframe
350
4C
  3
X-Ray
350
18C
  0
XRECORD
  5
19E
102
{ACAD_REACTORS
330
9
102
}
330
9
100
AcDbXrecord
280
     1
 90
        1
330
49
  0
DICTIONARY
  5
174
102
{ACAD_REACTORS
330
9
102
}
330
9
100
AcDbDictionary
281
     1
  3
CANNOSCALE
350
178
  3
CMLEADERSTYLE
350
176
  3
CTABLESTYLE
350
175
  3
DIMASSOC
350
19B
  3
HIDETEXT
350
19A
  3
INDEXCTL
350
199
  3
LAYEREVAL
350
17A
  3
LAYERNOTIFY
350
17B
  3
LIGHTINGUNITS
350
179
  3
MSLTSCALE
350
177
  3
SORTENTS
350
198
  3
XCLIPFRAME
350
19C
  0
DICTIONARY
  5
1D
102
{ACAD_REACTORS
330
1C
102
}
330
1C
100
AcDbDictionary
281
     1
  0
DICTIONARY
  5
1E
102
{ACAD_REACTORS
330
1C
102
}
330
1C
100
AcDbDictionary
281
     1
1001
ACAD
1000
<All
  0
SORTENTSTABLE
  5
172
102
{ACAD_REACTORS
330
3
102
}
330
3
100
AcDbSortentsTable
330
2
331
B8
  5
12E
331
79
  5
16A
331
16D
  5
170
331
136
  5
B0
331
C0
  5
126
331
81
  5
162
331
F7
  5
EF
331
13E
  5
A8
331
FF
  5
E7
331
89
  5
15C
331
C8
  5
11E
331
107
  5
DF
331
91
  5
154
331
D0
  5
116
331
146
  5
A0
331
10F
  5
D7
331
14E
  5
98
331
D8
  5
10E
331
99
  5
14D
331
156
  5
8F
331
E0
  5
106
331
A1
  5
145
331
117
  5
CF
331
15E
  5
87
331
11F
  5
C7
331
A9
  5
13D
331
E8
  5
FE
331
166
  5
7D
331
B1
  5
135
331
127
  5
BF
331
12F
  5
B7
331
F0
  5
F6
331
7A
  5
169
331
B9
  5
12D
331
F8
  5
EE
331
C1
  5
125
331
137
  5
AF
331
100
  5
E6
331
C9
  5
11D
331
8A
  5
15B
331
13F
  5
A7
331
147
  5
9F
331
D1
  5
115
331
92
  5
153
331
108
  5
DE
331
14F
  5
97
331
110
  5
D6
331
9A
  5
14C
331
D9
  5
10D
331
118
  5
CE
331
A2
  5
144
331
E1
  5
105
331
157
  5
8E
331
120
  5
C6
331
E9
  5
FD
331
AA
  5
13C
331
15F
  5
86
331
167
  5
7C
331
B2
  5
134
331
128
  5
BE
331
75
  5
16B
331
130
  5
B6
331
BA
  5
12C
331
7B
  5
168
331
F1
  5
F5
331
138
  5
AE
331
C2
  5
124
331
F9
  5
ED
331
140
  5
A6
331
101
  5
E5
331
8B
  5
15A
331
CA
  5
11C
331
109
  5
DD
331
D2
  5
114
331
93
  5
152
331
148
  5
9E
331
111
  5
D5
331
DA
  5
10C
331
9B
  5
14B
331
150
  5
96
331
158
  5
8D
331
E2
  5
104
331
A3
  5
143
331
119
  5
CD
331
160
  5
85
331
121
  5
C5
331
AB
  5
13B
331
EA
  5
FC
331
B3
  5
133
331
129
  5
BD
331
6E
  5
16C
331
131
  5
B5
331
F2
  5
F4
331
7C
  5
167
331
BB
  5
12B
331
168
  5
7B
331
170
  5
16D
331
FA
  5
EC
331
C3
  5
123
331
84
  5
161
331
139
  5
AD
331
141
  5
A5
331
CB
  5
11B
331
8C
  5
159
331
102
  5
E4
331
149
  5
9D
331
D3
  5
113
331
94
  5
151
331
10A
  5
DC
331
151
  5
94
331
112
  5
D4
331
9C
  5
14A
331
DB
  5
10B
331
11A
  5
CC
331
E3
  5
103
331
A4
  5
142
331
159
  5
8C
331
122
  5
C4
331
EB
  5
FB
331
AC
  5
13A
331
161
  5
84
331
B4
  5
132
331
12A
  5
BC
331
169
  5
7A
331
BC
  5
12A
331
7D
  5
166
331
132
  5
B4
331
13A
  5
AC
331
C4
  5
122
331
85
  5
160
331
FB
  5
EB
331
142
  5
A4
331
103
  5
E3
331
8D
  5
158
331
CC
  5
11A
331
10B
  5
DB
331
D4
  5
112
331
14A
  5
9C
331
152
  5
93
331
DC
  5
10A
331
9D
  5
149
331
113
  5
D3
331
15A
  5
8B
331
E4
  5
102
331
A5
  5
141
331
11B
  5
CB
331
162
  5
81
331
123
  5
C3
331
AD
  5
139
331
EC
  5
FA
331
12B
  5
BB
331
B5
  5
131
331
133
  5
B3
331
F4
  5
F2
331
7E
  5
165
331
BD
  5
129
331
16A
  5
79
331
FC
  5
EA
331
C5
  5
121
331
86
  5
15F
331
13B
  5
AB
331
143
  5
A3
331
CD
  5
119
331
8E
  5
157
331
104
  5
E2
331
14B
  5
9B
331
D5
  5
111
331
96
  5
150
331
10C
  5
DA
331
153
  5
92
331
114
  5
D2
331
9E
  5
148
331
DD
  5
109
331
11C
  5
CA
331
E5
  5
101
331
A6
  5
140
331
15B
  5
8A
331
163
  5
80
331
ED
  5
F9
331
AE
  5
138
331
124
  5
C2
331
B6
  5
130
331
12C
  5
BA
331
16B
  5
75
331
134
  5
B2
331
BE
  5
128
331
7F
  5
164
331
F5
  5
F1
331
13C
  5
AA
331
FD
  5
E9
331
87
  5
15E
331
C6
  5
120
331
144
  5
A2
331
105
  5
E1
331
8F
  5
156
331
CE
  5
118
331
10D
  5
D9
331
D6
  5
110
331
97
  5
14F
331
14C
  5
9A
331
154
  5
91
331
DE
  5
108
331
9F
  5
147
331
115
  5
D1
331
15C
  5
89
331
E6
  5
100
331
A7
  5
13F
331
11D
  5
C9
331
164
  5
7F
331
125
  5
C1
331
AF
  5
137
331
EE
  5
F8
331
12D
  5
B9
331
B7
  5
12F
331
16C
  5
6E
331
F6
  5
F0
331
80
  5
163
331
BF
  5
127
331
135
  5
B1
331
FE
  5
E8
331
C7
  5
11F
331
88
  5
15D
331
13D
  5
A9
331
145
  5
A1
331
CF
  5
117
331
90
  5
155
331
106
  5
E0
331
14D
  5
99
331
10E
  5
D8
331
D7
  5
10F
331
98
  5
14E
331
155
  5
90
331
116
  5
D0
331
A0
  5
146
331
DF
  5
107
331
11E
  5
C8
331
E7
  5
FF
331
A8
  5
13E
331
15D
  5
88
331
165
  5
7E
331
EF
  5
F7
331
B0
  5
136
331
126
  5
C0
331
12E
  5
B8
  0
XRECORD
  5
1A0
102
{ACAD_REACTORS
330
19F
102
}
330
19F
100
AcDbXrecord
280
     1
 70
     1
  0
XRECORD
  5
1A2
102
{ACAD_REACTORS
330
19F
102
}
330
19F
100
AcDbXrecord
280
     1
340
24
  0
XRECORD
  5
1A3
102
{ACAD_REACTORS
330
19F
102
}
330
19F
100
AcDbXrecord
280
     1
340
24
  0
XRECORD
  5
1A1
102
{ACAD_REACTORS
330
19F
102
}
330
19F
100
AcDbXrecord
280
     1
340
24
  0
LAYOUT
  5
1A
102
{ACAD_XDICTIONARY
360
1A7
102
}
102
{ACAD_REACTORS
330
16
102
}
330
16
100
AcDbPlotSettings
  1

  2
\\le-server\HP LaserJet 2100
  4

  6

 40
0.0
 41
0.0
 42
0.0
 43
0.0
 44
0.0
 45
0.0
 46
0.0
 47
0.0
 48
0.0
 49
0.0
140
0.0
141
0.0
142
1.0
143
1.0
 70
   688
 72
     0
 73
     0
 74
     5
  7

 75
    16
147
1.0
148
0.0
149
0.0
100
AcDbLayout
  1
Layout1
 70
     1
 71
     1
 10
0.0
 20
0.0
 11
1189.0
 21
840.9999999999998
 12
0.0
 22
0.0
 32
0.0
 14
0.0
 24
0.0
 34
0.0
 15
1189.0
 25
840.9999999999998
 35
0.0
146
0.0
 13
0.0
 23
0.0
 33
0.0
 16
1.0
 26
0.0
 36
0.0
 17
0.0
 27
1.0
 37
0.0
 76
     0
330
17
  0
LAYOUT
  5
15
102
{ACAD_XDICTIONARY
360
1A5
102
}
102
{ACAD_REACTORS
330
16
102
}
330
16
100
AcDbPlotSettings
  1

  2
\\le-server\HP LaserJet 2100
  4

  6

 40
0.0
 41
0.0
 42
0.0
 43
0.0
 44
0.0
 45
0.0
 46
0.0
 47
0.0
 48
0.0
 49
0.0
140
0.0
141
0.0
142
1.0
143
1.0
 70
  1712
 72
     0
 73
     0
 74
     0
  7

 75
     0
147
1.0
148
0.0
149
0.0
100
AcDbLayout
  1
Model
 70
     1
 71
     0
 10
0.0
 20
0.0
 11
12.0
 21
9.0
 12
0.0
 22
0.0
 32
0.0
 14
0.0
 24
0.0
 34
0.0
 15
0.0
 25
0.0
 35
0.0
146
0.0
 13
0.0
 23
0.0
 33
0.0
 16
1.0
 26
0.0
 36
0.0
 17
0.0
 27
1.0
 37
0.0
 76
     0
330
2
331
29
  0
MATERIAL
  5
3C
102
{ACAD_XDICTIONARY
360
3D
102
}
102
{ACAD_REACTORS
330
B
102
}
330
B
100
AcDbMaterial
  1
ByBlock
 72
     0
 43
0.0208333333333333
 43
0.0
 43
0.0
 43
0.0
 43
0.0
 43
0.0208333333333333
 43
0.0
 43
0.0
 43
0.0
 43
0.0
 43
1.0
 43
0.0
 43
0.0
 43
0.0
 43
0.0
 43
1.0
 77
     0
 47
0.0208333333333333
 47
0.0
 47
0.0
 47
0.0
 47
0.0
 47
0.0208333333333333
 47
0.0
 47
0.0
 47
0.0
 47
0.0
 47
1.0
 47
0.0
 47
0.0
 47
0.0
 47
0.0
 47
1.0
171
     0
 49
0.0208333333333333
 49
0.0
 49
0.0
 49
0.0
 49
0.0
 49
0.0208333333333333
 49
0.0
 49
0.0
 49
0.0
 49
0.0
 49
1.0
 49
0.0
 49
0.0
 49
0.0
 49
0.0
 49
1.0
175
     0
142
0.0208333333333333
142
0.0
142
0.0
142
0.0
142
0.0
142
0.0208333333333333
142
0.0
142
0.0
142
0.0
142
0.0
142
1.0
142
0.0
142
0.0
142
0.0
142
0.0
142
1.0
179
     0
144
0.0208333333333333
144
0.0
144
0.0
144
0.0
144
0.0
144
0.0208333333333333
144
0.0
144
0.0
144
0.0
144
0.0
144
1.0
144
0.0
144
0.0
144
0.0
144
0.0
144
1.0
147
0.0208333333333333
147
0.0
147
0.0
147
0.0
147
0.0
147
0.0208333333333333
147
0.0
147
0.0
147
0.0
147
0.0
147
1.0
147
0.0
147
0.0
147
0.0
147
0.0
147
1.0
  0
MATERIAL
  5
34
102
{ACAD_XDICTIONARY
360
35
102
}
102
{ACAD_REACTORS
330
B
102
}
330
B
100
AcDbMaterial
  1
ByLayer
 72
     0
 43
0.0208333333333333
 43
0.0
 43
0.0
 43
0.0
 43
0.0
 43
0.0208333333333333
 43
0.0
 43
0.0
 43
0.0
 43
0.0
 43
1.0
 43
0.0
 43
0.0
 43
0.0
 43
0.0
 43
1.0
 77
     0
 47
0.0208333333333333
 47
0.0
 47
0.0
 47
0.0
 47
0.0
 47
0.0208333333333333
 47
0.0
 47
0.0
 47
0.0
 47
0.0
 47
1.0
 47
0.0
 47
0.0
 47
0.0
 47
0.0
 47
1.0
171
     0
 49
0.0208333333333333
 49
0.0
 49
0.0
 49
0.0
 49
0.0
 49
0.0208333333333333
 49
0.0
 49
0.0
 49
0.0
 49
0.0
 49
1.0
 49
0.0
 49
0.0
 49
0.0
 49
0.0
 49
1.0
175
     0
142
0.0208333333333333
142
0.0
142
0.0
142
0.0
142
0.0
142
0.0208333333333333
142
0.0
142
0.0
142
0.0
142
0.0
142
1.0
142
0.0
142
0.0
142
0.0
142
0.0
142
1.0
179
     0
144
0.0208333333333333
144
0.0
144
0.0
144
0.0
144
0.0
144
0.0208333333333333
144
0.0
144
0.0
144
0.0
144
0.0
144
1.0
144
0.0
144
0.0
144
0.0
144
0.0
144
1.0
147
0.0208333333333333
147
0.0
147
0.0
147
0.0
147
0.0
147
0.0208333333333333
147
0.0
147
0.0
147
0.0
147
0.0
147
1.0
147
0.0
147
0.0
147
0.0
147
0.0
147
1.0
  0
MATERIAL
  5
A
102
{ACAD_XDICTIONARY
360
C
102
}
102
{ACAD_REACTORS
330
B
102
}
330
B
100
AcDbMaterial
  1
Global
 72
     0
 43
0.0208333333333333
 43
0.0
 43
0.0
 43
0.0
 43
0.0
 43
0.0208333333333333
 43
0.0
 43
0.0
 43
0.0
 43
0.0
 43
1.0
 43
0.0
 43
0.0
 43
0.0
 43
0.0
 43
1.0
 77
     0
 47
0.0208333333333333
 47
0.0
 47
0.0
 47
0.0
 47
0.0
 47
0.0208333333333333
 47
0.0
 47
0.0
 47
0.0
 47
0.0
 47
1.0
 47
0.0
 47
0.0
 47
0.0
 47
0.0
 47
1.0
171
     0
 49
0.0208333333333333
 49
0.0
 49
0.0
 49
0.0
 49
0.0
 49
0.0208333333333333
 49
0.0
 49
0.0
 49
0.0
 49
0.0
 49
1.0
 49
0.0
 49
0.0
 49
0.0
 49
0.0
 49
1.0
175
     0
142
0.0208333333333333
142
0.0
142
0.0
142
0.0
142
0.0
142
0.0208333333333333
142
0.0
142
0.0
142
0.0
142
0.0
142
1.0
142
0.0
142
0.0
142
0.0
142
0.0
142
1.0
179
     0
144
0.0208333333333333
144
0.0
144
0.0
144
0.0
144
0.0
144
0.0208333333333333
144
0.0
144
0.0
144
0.0
144
0.0
144
1.0
144
0.0
144
0.0
144
0.0
144
0.0
144
1.0
147
0.0208333333333333
147
0.0
147
0.0
147
0.0
147
0.0
147
0.0208333333333333
147
0.0
147
0.0
147
0.0
147
0.0
147
1.0
147
0.0
147
0.0
147
0.0
147
0.0
147
1.0
  0
MLEADERSTYLE
  5
192
102
{ACAD_REACTORS
330
47
102
}
330
47
100
AcDbMLeaderStyle
170
     2
171
     1
172
     0
 90
        2
 40
0.0
 41
0.0
173
     1
 91
-1056964608
340
24
 92
       -2
290
     1
 42
2.0
291
     1
 43
0.36
  3
Standard
 44
4.0
300

342
21
174
     1
178
     6
175
     1
176
     0
 93
-1056964608
 45
4.0
292
     0
297
     0
 46
4.0
 94
-1056964608
 47
1.0
 49
1.0
140
1.0
293
     1
141
0.0
294
     1
177
     0
142
1.0
295
     0
296
     0
143
0.125
1001
ACAD_MLEADERVER
1070
     2
  0
MLINESTYLE
  5
48
102
{ACAD_REACTORS
330
32
102
}
330
32
100
AcDbMlineStyle
  2
STANDARD
 70
     0
  3

 62
   256
 51
90.0
 52
90.0
 71
     2
 49
0.5
 62
   256
  6
BYLAYER
 49
-0.5
 62
   256
  6
BYLAYER
  0
ACDBPLACEHOLDER
  5
7
102
{ACAD_REACTORS
330
8
102
}
330
8
  0
SCALE
  5
4D
102
{ACAD_REACTORS
330
45
102
}
330
45
100
AcDbScale
 70
     0
300
1:1
140
1.0
141
1.0
290
     1
  0
SCALE
  5
4E
102
{ACAD_REACTORS
330
45
102
}
330
45
100
AcDbScale
 70
     0
300
1:2
140
1.0
141
2.0
290
     0
  0
SCALE
  5
4F
102
{ACAD_REACTORS
330
45
102
}
330
45
100
AcDbScale
 70
     0
300
1:4
140
1.0
141
4.0
290
     0
  0
SCALE
  5
50
102
{ACAD_REACTORS
330
45
102
}
330
45
100
AcDbScale
 70
     0
300
1:5
140
1.0
141
5.0
290
     0
  0
SCALE
  5
51
102
{ACAD_REACTORS
330
45
102
}
330
45
100
AcDbScale
 70
     0
300
1:8
140
1.0
141
8.0
290
     0
  0
SCALE
  5
52
102
{ACAD_REACTORS
330
45
102
}
330
45
100
AcDbScale
 70
     0
300
1:10
140
1.0
141
10.0
290
     0
  0
SCALE
  5
53
102
{ACAD_REACTORS
330
45
102
}
330
45
100
AcDbScale
 70
     0
300
1:16
140
1.0
141
16.0
290
     0
  0
SCALE
  5
54
102
{ACAD_REACTORS
330
45
102
}
330
45
100
AcDbScale
 70
     0
300
1:20
140
1.0
141
20.0
290
     0
  0
SCALE
  5
55
102
{ACAD_REACTORS
330
45
102
}
330
45
100
AcDbScale
 70
     0
300
1:30
140
1.0
141
30.0
290
     0
  0
SCALE
  5
56
102
{ACAD_REACTORS
330
45
102
}
330
45
100
AcDbScale
 70
     0
300
1:40
140
1.0
141
40.0
290
     0
  0
SCALE
  5
57
102
{ACAD_REACTORS
330
45
102
}
330
45
100
AcDbScale
 70
     0
300
1:50
140
1.0
141
50.0
290
     0
  0
SCALE
  5
58
102
{ACAD_REACTORS
330
45
102
}
330
45
100
AcDbScale
 70
     0
300
1:100
140
1.0
141
100.0
290
     0
  0
SCALE
  5
59
102
{ACAD_REACTORS
330
45
102
}
330
45
100
AcDbScale
 70
     0
300
2:1
140
2.0
141
1.0
290
     0
  0
SCALE
  5
5A
102
{ACAD_REACTORS
330
45
102
}
330
45
100
AcDbScale
 70
     0
300
4:1
140
4.0
141
1.0
290
     0
  0
SCALE
  5
5B
102
{ACAD_REACTORS
330
45
102
}
330
45
100
AcDbScale
 70
     0
300
8:1
140
8.0
141
1.0
290
     0
  0
SCALE
  5
5C
102
{ACAD_REACTORS
330
45
102
}
330
45
100
AcDbScale
 70
     0
300
10:1
140
10.0
141
1.0
290
     0
  0
SCALE
  5
5D
102
{ACAD_REACTORS
330
45
102
}
330
45
100
AcDbScale
 70
     0
300
100:1
140
100.0
141
1.0
290
     0
  0
SCALE
  5
5E
102
{ACAD_REACTORS
330
45
102
}
330
45
100
AcDbScale
 70
     0
300
1/128" = 1'-0"
140
0.0078125
141
12.0
290
     0
  0
SCALE
  5
5F
102
{ACAD_REACTORS
330
45
102
}
330
45
100
AcDbScale
 70
     0
300
1/64" = 1'-0"
140
0.015625
141
12.0
290
     0
  0
SCALE
  5
60
102
{ACAD_REACTORS
330
45
102
}
330
45
100
AcDbScale
 70
     0
300
1/32" = 1'-0"
140
0.03125
141
12.0
290
     0
  0
SCALE
  5
61
102
{ACAD_REACTORS
330
45
102
}
330
45
100
AcDbScale
 70
     0
300
1/16" = 1'-0"
140
0.0625
141
12.0
290
     0
  0
SCALE
  5
62
102
{ACAD_REACTORS
330
45
102
}
330
45
100
AcDbScale
 70
     0
300
3/32" = 1'-0"
140
0.09375
141
12.0
290
     0
  0
SCALE
  5
63
102
{ACAD_REACTORS
330
45
102
}
330
45
100
AcDbScale
 70
     0
300
1/8" = 1'-0"
140
0.125
141
12.0
290
     0
  0
SCALE
  5
64
102
{ACAD_REACTORS
330
45
102
}
330
45
100
AcDbScale
 70
     0
300
3/16" = 1'-0"
140
0.1875
141
12.0
290
     0
  0
SCALE
  5
65
102
{ACAD_REACTORS
330
45
102
}
330
45
100
AcDbScale
 70
     0
300
1/4" = 1'-0"
140
0.25
141
12.0
290
     0
  0
SCALE
  5
66
102
{ACAD_REACTORS
330
45
102
}
330
45
100
AcDbScale
 70
     0
300
3/8" = 1'-0"
140
0.375
141
12.0
290
     0
  0
SCALE
  5
67
102
{ACAD_REACTORS
330
45
102
}
330
45
100
AcDbScale
 70
     0
300
1/2" = 1'-0"
140
0.5
141
12.0
290
     0
  0
SCALE
  5
68
102
{ACAD_REACTORS
330
45
102
}
330
45
100
AcDbScale
 70
     0
300
3/4" = 1'-0"
140
0.75
141
12.0
290
     0
  0
SCALE
  5
69
102
{ACAD_REACTORS
330
45
102
}
330
45
100
AcDbScale
 70
     0
300
1" = 1'-0"
140
1.0
141
12.0
290
     0
  0
SCALE
  5
6A
102
{ACAD_REACTORS
330
45
102
}
330
45
100
AcDbScale
 70
     0
300
1-1/2" = 1'-0"
140
1.5
141
12.0
290
     0
  0
SCALE
  5
6B
102
{ACAD_REACTORS
330
45
102
}
330
45
100
AcDbScale
 70
     0
300
3" = 1'-0"
140
3.0
141
12.0
290
     0
  0
SCALE
  5
6C
102
{ACAD_REACTORS
330
45
102
}
330
45
100
AcDbScale
 70
     0
300
6" = 1'-0"
140
6.0
141
12.0
290
     0
  0
SCALE
  5
6D
102
{ACAD_REACTORS
330
45
102
}
330
45
100
AcDbScale
 70
     0
300
1'-0" = 1'-0"
140
12.0
141
12.0
290
     0
  0
TABLESTYLE
  5
49
102
{ACAD_XDICTIONARY
360
4A
102
}
102
{ACAD_REACTORS
330
46
102
}
330
46
100
AcDbTableStyle
  3
Standard
 70
     0
 71
     0
 40
0.06
 41
0.06
280
     0
281
     0
  7
STANDARD
140
0.18
170
     2
 62
     0
 63
     7
283
     0
274
    -2
284
     1
 64
     0
275
    -2
285
     1
 65
     0
276
    -2
286
     1
 66
     0
277
    -2
287
     1
 67
     0
278
    -2
288
     1
 68
     0
279
    -2
289
     1
 69
     0
  7
STANDARD
140
0.25
170
     5
 62
     0
 63
     7
283
     0
274
    -2
284
     1
 64
     0
275
    -2
285
     1
 65
     0
276
    -2
286
     1
 66
     0
277
    -2
287
     1
 67
     0
278
    -2
288
     1
 68
     0
279
    -2
289
     1
 69
     0
  7
STANDARD
140
0.18
170
     5
 62
     0
 63
     7
283
     0
274
    -2
284
     1
 64
     0
275
    -2
285
     1
 65
     0
276
    -2
286
     1
 66
     0
277
    -2
287
     1
 67
     0
278
    -2
288
     1
 68
     0
279
    -2
289
     1
 69
     0
  0
VISUALSTYLE
  5
2A
102
{ACAD_XDICTIONARY
360
1A9
102
}
102
{ACAD_REACTORS
330
2B
102
}
330
2B
100
AcDbVisualStyle
  2
2dWireframe
 70
     4
 71
     0
 72
     2
 73
     0
 90
        0
 40
-0.6
 41
-30.0
 62
     5
 63
     7
 74
     1
 91
        4
 64
     7
 65
   257
 75
     1
175
     1
 42
1.0
 92
        0
 66
   257
 43
1.0
 76
     1
 77
     6
 78
     2
 67
     7
 79
     5
170
     0
171
     0
290
     0
174
     0
 93
        1
 44
0.0
173
     0
291
     0
 45
0.0
1001
ACAD
1000
AcDbSavedByObjectVersion
1070
     0
  0
VISUALSTYLE
  5
181
102
{ACAD_XDICTIONARY
360
1BA
102
}
102
{ACAD_REACTORS
330
2B
102
}
330
2B
100
AcDbVisualStyle
  2
Basic
 70
     7
 71
     1
 72
     0
 73
     1
 90
        0
 40
-0.6
 41
-30.0
 62
     5
 63
     7
 74
     0
 91
        4
 64
     7
 65
   257
 75
     1
175
     1
 42
1.0
 92
        8
 66
     7
 43
1.0
 76
     1
 77
     6
 78
     2
 67
     7
 79
     5
170
     0
171
     0
290
     0
174
     0
 93
        1
 44
0.0
173
     0
291
     1
 45
0.0
1001
ACAD
1000
AcDbSavedByObjectVersion
1070
     0
  0
VISUALSTYLE
  5
185
102
{ACAD_XDICTIONARY
360
1C2
102
}
102
{ACAD_REACTORS
330
2B
102
}
330
2B
100
AcDbVisualStyle
  2
Brighten
 70
    12
 71
     2
 72
     2
 73
     0
 90
        0
 40
-0.6
 41
-30.0
 62
     5
 63
     7
 74
     1
 91
        4
 64
     7
 65
   257
 75
     1
175
     1
 42
1.0
 92
        8
 66
     7
 43
1.0
 76
     1
 77
     6
 78
     2
 67
     7
 79
     5
170
     0
171
     0
290
     0
174
     0
 93
        1
 44
50.0
173
     0
291
     1
 45
0.0
1001
ACAD
1000
AcDbSavedByObjectVersion
1070
     0
  0
VISUALSTYLE
  5
189
102
{ACAD_XDICTIONARY
360
1CA
102
}
102
{ACAD_REACTORS
330
2B
102
}
330
2B
100
AcDbVisualStyle
  2
ColorChange
 70
    16
 71
     2
 72
     2
 73
     3
 90
        0
 40
-0.6
 41
-30.0
 62
     5
 63
     8
 74
     1
 91
        4
 64
     7
 65
   257
 75
     1
175
     1
 42
1.0
 92
        8
 66
     8
 43
1.0
 76
     1
 77
     6
 78
     2
 67
     7
 79
     5
170
     0
171
     0
290
     0
174
     0
 93
        1
 44
0.0
173
     0
291
     1
 45
0.0
1001
ACAD
1000
AcDbSavedByObjectVersion
1070
     0
  0
VISUALSTYLE
  5
183
102
{ACAD_XDICTIONARY
360
1BE
102
}
102
{ACAD_REACTORS
330
2B
102
}
330
2B
100
AcDbVisualStyle
  2
Conceptual
 70
     9
 71
     3
 72
     2
 73
     0
 90
        0
 40
-0.6
 41
-30.0
 62
     5
 63
     7
 74
     2
 91
        2
 64
     7
 65
   257
 75
     1
175
     1
 42
179.0
 92
        8
 66
     7
 43
1.0
 76
     1
 77
     6
 78
     2
 67
     7
 79
     3
170
     0
171
     0
290
     0
174
     0
 93
        1
 44
0.0
173
     0
291
     0
 45
0.0
1001
ACAD
1000
AcDbSavedByObjectVersion
1070
     0
  0
VISUALSTYLE
  5
184
102
{ACAD_XDICTIONARY
360
1C0
102
}
102
{ACAD_REACTORS
330
2B
102
}
330
2B
100
AcDbVisualStyle
  2
Dim
 70
    11
 71
     2
 72
     2
 73
     0
 90
        0
 40
-0.6
 41
-30.0
 62
     5
 63
     7
 74
     1
 91
        4
 64
     7
 65
   257
 75
     1
175
     1
 42
1.0
 92
        8
 66
     7
 43
1.0
 76
     1
 77
     6
 78
     2
 67
     7
 79
     5
170
     0
171
     0
290
     0
174
     0
 93
        1
 44
-50.0
173
     0
291
     1
 45
0.0
1001
ACAD
1000
AcDbSavedByObjectVersion
1070
     0
  0
VISUALSTYLE
  5
191
102
{ACAD_XDICTIONARY
360
1DA
102
}
102
{ACAD_REACTORS
330
2B
102
}
330
2B
100
AcDbVisualStyle
  2
EdgeColorOff
 70
    22
 71
     2
 72
     2
 73
     0
 90
        0
 40
-0.6
 41
-30.0
 62
     5
 63
     7
 74
     1
 91
        4
 64
     7
 65
   257
 75
     1
175
     1
 42
1.0
 92
        8
 66
     7
 43
1.0
 76
     1
 77
     6
 78
     2
 67
     7
 79
     5
170
     0
171
     0
290
     0
174
     0
 93
        1
 44
0.0
173
     0
291
     1
 45
0.0
1001
ACAD
1000
AcDbSavedByObjectVersion
1070
     0
  0
VISUALSTYLE
  5
188
102
{ACAD_XDICTIONARY
360
1C8
102
}
102
{ACAD_REACTORS
330
2B
102
}
330
2B
100
AcDbVisualStyle
  2
Facepattern
 70
    15
 71
     2
 72
     2
 73
     0
 90
        0
 40
-0.6
 41
-30.0
 62
     5
 63
     7
 74
     1
 91
        4
 64
     7
 65
   257
 75
     1
175
     1
 42
1.0
 92
        8
 66
     7
 43
1.0
 76
     1
 77
     6
 78
     2
 67
     7
 79
     5
170
     0
171
     0
290
     0
174
     0
 93
        1
 44
0.0
173
     0
291
     1
 45
0.0
1001
ACAD
1000
AcDbSavedByObjectVersion
1070
     0
  0
VISUALSTYLE
  5
17D
102
{ACAD_XDICTIONARY
360
1B2
102
}
102
{ACAD_REACTORS
330
2B
102
}
330
2B
100
AcDbVisualStyle
  2
Flat
 70
     0
 71
     2
 72
     1
 73
     1
 90
        2
 40
-0.6
 41
30.0
 62
     5
 63
     7
 74
     0
 91
        0
 64
     7
 65
   257
 75
     1
175
     1
 42
1.0
 92
        8
 66
     7
 43
1.0
 76
     1
 77
     6
 78
     2
 67
     7
 79
     5
170
     0
171
     0
290
     0
174
     0
 93
       13
 44
0.0
173
     0
291
     1
 45
0.0
1001
ACAD
1000
AcDbSavedByObjectVersion
1070
     0
  0
VISUALSTYLE
  5
17E
102
{ACAD_XDICTIONARY
360
1B4
102
}
102
{ACAD_REACTORS
330
2B
102
}
330
2B
100
AcDbVisualStyle
  2
FlatWithEdges
 70
     1
 71
     2
 72
     1
 73
     1
 90
        2
 40
-0.6
 41
30.0
 62
     5
 63
     7
 74
     1
 91
        0
 64
     7
 65
   257
 75
     1
175
     1
 42
1.0
 92
        0
 66
   257
 43
1.0
 76
     1
 77
     6
 78
     2
 67
     7
 79
     5
170
     0
171
     0
290
     0
174
     0
 93
       13
 44
0.0
173
     0
291
     1
 45
0.0
1001
ACAD
1000
AcDbSavedByObjectVersion
1070
     0
  0
VISUALSTYLE
  5
17F
102
{ACAD_XDICTIONARY
360
1B6
102
}
102
{ACAD_REACTORS
330
2B
102
}
330
2B
100
AcDbVisualStyle
  2
Gouraud
 70
     2
 71
     2
 72
     2
 73
     1
 90
        2
 40
-0.6
 41
30.0
 62
     5
 63
     7
 74
     0
 91
        0
 64
     7
 65
   257
 75
     1
175
     1
 42
1.0
 92
        0
 66
     7
 43
1.0
 76
     1
 77
     6
 78
     2
 67
     7
 79
     5
170
     0
171
     0
290
     0
174
     0
 93
       13
 44
0.0
173
     0
291
     1
 45
0.0
1001
ACAD
1000
AcDbSavedByObjectVersion
1070
     0
  0
VISUALSTYLE
  5
180
102
{ACAD_XDICTIONARY
360
1B8
102
}
102
{ACAD_REACTORS
330
2B
102
}
330
2B
100
AcDbVisualStyle
  2
GouraudWithEdges
 70
     3
 71
     2
 72
     2
 73
     1
 90
        2
 40
-0.6
 41
30.0
 62
     5
 63
     7
 74
     1
 91
        0
 64
     7
 65
   257
 75
     1
175
     1
 42
1.0
 92
        0
 66
   257
 43
1.0
 76
     1
 77
     6
 78
     2
 67
     7
 79
     5
170
     0
171
     0
290
     0
174
     0
 93
       13
 44
0.0
173
     0
291
     1
 45
0.0
1001
ACAD
1000
AcDbSavedByObjectVersion
1070
     0
  0
VISUALSTYLE
  5
182
102
{ACAD_XDICTIONARY
360
1BC
102
}
102
{ACAD_REACTORS
330
2B
102
}
330
2B
100
AcDbVisualStyle
  2
Hidden
 70
     6
 71
     1
 72
     2
 73
     2
 90
        0
 40
-0.6
 41
-30.0
 62
     5
 63
     7
 74
     2
 91
        2
 64
     7
 65
   257
 75
     2
175
     1
 42
40.0
 92
        0
 66
   257
 43
1.0
 76
     1
 77
     6
 78
     2
 67
     7
 79
     3
170
     0
171
     0
290
     0
174
     0
 93
        1
 44
0.0
173
     0
291
     0
 45
0.0
1001
ACAD
1000
AcDbSavedByObjectVersion
1070
     0
  0
VISUALSTYLE
  5
18F
102
{ACAD_XDICTIONARY
360
1D6
102
}
102
{ACAD_REACTORS
330
2B
102
}
330
2B
100
AcDbVisualStyle
  2
JitterOff
 70
    20
 71
     2
 72
     2
 73
     0
 90
        0
 40
-0.6
 41
-30.0
 62
     5
 63
     7
 74
     1
 91
        4
 64
     7
 65
   257
 75
     1
175
     1
 42
1.0
 92
       10
 66
     7
 43
1.0
 76
     1
 77
     6
 78
     2
 67
     7
 79
     5
170
     0
171
     0
290
     0
174
     0
 93
        1
 44
0.0
173
     0
291
     1
 45
0.0
1001
ACAD
1000
AcDbSavedByObjectVersion
1070
     0
  0
VISUALSTYLE
  5
187
102
{ACAD_XDICTIONARY
360
1C6
102
}
102
{ACAD_REACTORS
330
2B
102
}
330
2B
100
AcDbVisualStyle
  2
Linepattern
 70
    14
 71
     2
 72
     2
 73
     0
 90
        0
 40
-0.6
 41
-30.0
 62
     5
 63
     7
 74
     1
 91
        4
 64
     7
 65
   257
 75
     7
175
     7
 42
1.0
 92
        8
 66
     7
 43
1.0
 76
     1
 77
     6
 78
     2
 67
     7
 79
     5
170
     0
171
     0
290
     0
174
     0
 93
        1
 44
0.0
173
     0
291
     1
 45
0.0
1001
ACAD
1000
AcDbSavedByObjectVersion
1070
     0
  0
VISUALSTYLE
  5
190
102
{ACAD_XDICTIONARY
360
1D8
102
}
102
{ACAD_REACTORS
330
2B
102
}
330
2B
100
AcDbVisualStyle
  2
OverhangOff
 70
    21
 71
     2
 72
     2
 73
     0
 90
        0
 40
-0.6
 41
-30.0
 62
     5
 63
     7
 74
     1
 91
        4
 64
     7
 65
   257
 75
     1
175
     1
 42
1.0
 92
        9
 66
     7
 43
1.0
 76
     1
 77
     6
 78
     2
 67
     7
 79
     5
170
     0
171
     0
290
     0
174
     0
 93
        1
 44
0.0
173
     0
291
     1
 45
0.0
1001
ACAD
1000
AcDbSavedByObjectVersion
1070
     0
  0
VISUALSTYLE
  5
4B
102
{ACAD_XDICTIONARY
360
1AE
102
}
102
{ACAD_REACTORS
330
2B
102
}
330
2B
100
AcDbVisualStyle
  2
Realistic
 70
     8
 71
     2
 72
     2
 73
     0
 90
        0
 40
-0.6
 41
-30.0
 62
     5
 63
     7
 74
     1
 91
        0
 64
     7
 65
   257
 75
     1
175
     1
 42
1.0
 92
        8
 66
     8
 43
1.0
 76
     1
 77
     6
 78
     2
 67
     7
 79
     5
170
     0
171
     0
290
     0
174
     0
 93
       13
 44
0.0
173
     0
291
     0
 45
0.0
1001
ACAD
1000
AcDbSavedByObjectVersion
1070
     0
  0
VISUALSTYLE
  5
18E
102
{ACAD_XDICTIONARY
360
1D4
102
}
102
{ACAD_REACTORS
330
2B
102
}
330
2B
100
AcDbVisualStyle
  2
Shaded
 70
    27
 71
     2
 72
     2
 73
     1
 90
        2
 40
-0.6
 41
30.0
 62
     5
 63
     7
 74
     0
 91
        4
 64
     7
 65
   257
 75
     1
175
     1
 42
1.0
 92
        8
 66
   257
 43
1.0
 76
     1
 77
     6
 78
     2
 67
     8
 79
     3
170
     0
171
     0
290
     0
174
     0
 93
        5
 44
0.0
173
     0
291
     0
 45
0.0
1001
ACAD
1000
AcDbSavedByObjectVersion
1070
     0
  0
VISUALSTYLE
  5
18D
102
{ACAD_XDICTIONARY
360
1D2
102
}
102
{ACAD_REACTORS
330
2B
102
}
330
2B
100
AcDbVisualStyle
  2
Shaded with edges
 70
    26
 71
     2
 72
     2
 73
     1
 90
        2
 40
-0.6
 41
30.0
 62
     5
 63
     7
 74
     1
 91
       10
 64
     7
 65
   257
 75
     2
175
     1
 42
1.0
 92
        8
 66
   257
 43
1.0
 76
     1
 77
     6
 78
     2
 67
     7
 79
     3
170
     0
171
     0
290
     0
174
     0
 93
        5
 44
0.0
173
     0
291
     0
 45
0.0
1001
ACAD
1000
AcDbSavedByObjectVersion
1070
     0
  0
VISUALSTYLE
  5
18A
102
{ACAD_XDICTIONARY
360
1CC
102
}
102
{ACAD_REACTORS
330
2B
102
}
330
2B
100
AcDbVisualStyle
  2
Shades of Gray
 70
    23
 71
     2
 72
     2
 73
     3
 90
        0
 40
-0.6
 41
-30.0
 62
     5
 63
     7
 74
     2
 91
        2
 64
     7
 65
     7
 75
     1
175
     1
 42
40.0
 92
        8
 66
     7
 43
1.0
 76
     1
 77
     6
 78
     2
 67
     7
 79
     3
170
     0
171
     0
290
     0
174
     0
 93
        1
 44
0.0
173
     0
291
     0
 45
0.0
1001
ACAD
1000
AcDbSavedByObjectVersion
1070
     0
  0
VISUALSTYLE
  5
18B
102
{ACAD_XDICTIONARY
360
1CE
102
}
102
{ACAD_REACTORS
330
2B
102
}
330
2B
100
AcDbVisualStyle
  2
Sketchy
 70
    24
 71
     1
 72
     2
 73
     2
 90
        0
 40
-0.6
 41
-30.0
 62
     5
 63
     7
 74
     2
 91
        2
 64
     7
 65
     7
 75
     1
175
     1
 42
40.0
 92
       11
 66
     7
 43
1.0
 76
     1
 77
     6
 78
     2
 67
     7
 79
     6
170
     0
171
     0
290
     0
174
     0
 93
        1
 44
0.0
173
     0
291
     0
 45
0.0
1001
ACAD
1000
AcDbSavedByObjectVersion
1070
     0
  0
VISUALSTYLE
  5
186
102
{ACAD_XDICTIONARY
360
1C4
102
}
102
{ACAD_REACTORS
330
2B
102
}
330
2B
100
AcDbVisualStyle
  2
Thicken
 70
    13
 71
     2
 72
     2
 73
     0
 90
        0
 40
-0.6
 41
-30.0
 62
     5
 63
     7
 74
     1
 91
        4
 64
     7
 65
   257
 75
     1
175
     1
 42
1.0
 92
       12
 66
     7
 43
1.0
 76
     1
 77
     6
 78
     2
 67
     7
 79
     5
170
     0
171
     0
290
     0
174
     0
 93
        1
 44
0.0
173
     0
291
     1
 45
0.0
1001
ACAD
1000
AcDbSavedByObjectVersion
1070
     0
  0
VISUALSTYLE
  5
4C
102
{ACAD_XDICTIONARY
360
1B0
102
}
102
{ACAD_REACTORS
330
2B
102
}
330
2B
100
AcDbVisualStyle
  2
Wireframe
 70
     5
 71
     0
 72
     2
 73
     0
 90
        0
 40
-0.6
 41
-30.0
 62
     5
 63
     7
 74
     1
 91
        4
 64
     7
 65
   257
 75
     1
175
     1
 42
1.0
 92
        0
 66
   257
 43
1.0
 76
     1
 77
     6
 78
     2
 67
     7
 79
     3
170
     0
171
     0
290
     0
174
     0
 93
        1
 44
0.0
173
     0
291
     0
 45
0.0
1001
ACAD
1000
AcDbSavedByObjectVersion
1070
     0
  0
VISUALSTYLE
  5
18C
102
{ACAD_XDICTIONARY
360
1D0
102
}
102
{ACAD_REACTORS
330
2B
102
}
330
2B
100
AcDbVisualStyle
  2
X-Ray
 70
    25
 71
     2
 72
     2
 73
     1
 90
        1
 40
0.5
 41
-30.0
 62
     5
 63
     7
 74
     1
 91
        0
 64
     7
 65
   257
 75
     1
175
     1
 42
1.0
 92
        8
 66
     7
 43
1.0
 76
     1
 77
     6
 78
     2
 67
     7
 79
     3
170
     0
171
     0
290
     0
174
     0
 93
       13
 44
0.0
173
     0
291
     0
 45
0.0
1001
ACAD
1000
AcDbSavedByObjectVersion
1070
     0
  0
DICTIONARYVAR
  5
178
102
{ACAD_REACTORS
330
174
102
}
330
174
100
DictionaryVariables
280
     0
  1
1:1
  0
DICTIONARYVAR
  5
176
102
{ACAD_REACTORS
330
174
102
}
330
174
100
DictionaryVariables
280
     0
  1
STANDARD
  0
DICTIONARYVAR
  5
175
102
{ACAD_REACTORS
330
174
102
}
330
174
100
DictionaryVariables
280
     0
  1
STANDARD
  0
DICTIONARYVAR
  5
19B
102
{ACAD_REACTORS
330
174
102
}
330
174
100
DictionaryVariables
280
     0
  1
1
  0
DICTIONARYVAR
  5
19A
102
{ACAD_REACTORS
330
174
102
}
330
174
100
DictionaryVariables
280
     0
  1
1
  0
DICTIONARYVAR
  5
199
102
{ACAD_REACTORS
330
174
102
}
330
174
100
DictionaryVariables
280
     0
  1
0
  0
DICTIONARYVAR
  5
17A
102
{ACAD_REACTORS
330
174
102
}
330
174
100
DictionaryVariables
280
     0
  1
1
  0
DICTIONARYVAR
  5
17B
102
{ACAD_REACTORS
330
174
102
}
330
174
100
DictionaryVariables
280
     0
  1
15
  0
DICTIONARYVAR
  5
179
102
{ACAD_REACTORS
330
174
102
}
330
174
100
DictionaryVariables
280
     0
  1
0
  0
DICTIONARYVAR
  5
177
102
{ACAD_REACTORS
330
174
102
}
330
174
100
DictionaryVariables
280
     0
  1
0
  0
DICTIONARYVAR
  5
198
102
{ACAD_REACTORS
330
174
102
}
330
174
100
DictionaryVariables
280
     0
  1
127
  0
DICTIONARYVAR
  5
19C
102
{ACAD_REACTORS
330
174
102
}
330
174
100
DictionaryVariables
280
     0
  1
2
  0
DICTIONARY
  5
1A7
330
1A
100
AcDbDictionary
280
     1
281
     1
  3
ACAD_XREC_ROUNDTRIP
360
1A8
  0
DICTIONARY
  5
1A5
330
15
100
AcDbDictionary
280
     1
281
     1
  3
ACAD_XREC_ROUNDTRIP
360
1A6
  0
DICTIONARY
  5
3D
330
3C
100
AcDbDictionary
280
     1
281
     1
  3
ACAD_XREC_ROUNDTRIP
360
1AC
  3
BUMPTILE
360
3E
  3
DIFFUSETILE
360
3F
  3
OPACITYTILE
360
40
  3
REFLECTIONTILE
360
41
  3
REFRACTIONTILE
360
42
  3
SPECULARTILE
360
43
  0
DICTIONARY
  5
35
330
34
100
AcDbDictionary
280
     1
281
     1
  3
ACAD_XREC_ROUNDTRIP
360
1AB
  3
BUMPTILE
360
36
  3
DIFFUSETILE
360
37
  3
OPACITYTILE
360
38
  3
REFLECTIONTILE
360
39
  3
REFRACTIONTILE
360
3A
  3
SPECULARTILE
360
3B
  0
DICTIONARY
  5
C
330
A
100
AcDbDictionary
280
     1
281
     1
  3
ACAD_XREC_ROUNDTRIP
360
1A4
  3
BUMPTILE
360
D
  3
DIFFUSETILE
360
E
  3
OPACITYTILE
360
F
  3
REFLECTIONTILE
360
10
  3
REFRACTIONTILE
360
11
  3
SPECULARTILE
360
12
  0
DICTIONARY
  5
4A
330
49
100
AcDbDictionary
280
     1
281
     1
  3
ACAD_ROUNDTRIP_2008_TABLESTYLE_CELLSTYLEMAP
360
19D
  3
ACAD_XREC_ROUNDTRIP
360
1AD
  0
DICTIONARY
  5
1A9
330
2A
100
AcDbDictionary
280
     1
281
     1
  3
ACAD_XREC_ROUNDTRIP
360
1AA
  0
DICTIONARY
  5
1BA
330
181
100
AcDbDictionary
280
     1
281
     1
  3
ACAD_XREC_ROUNDTRIP
360
1BB
  0
DICTIONARY
  5
1C2
330
185
100
AcDbDictionary
280
     1
281
     1
  3
ACAD_XREC_ROUNDTRIP
360
1C3
  0
DICTIONARY
  5
1CA
330
189
100
AcDbDictionary
280
     1
281
     1
  3
ACAD_XREC_ROUNDTRIP
360
1CB
  0
DICTIONARY
  5
1BE
330
183
100
AcDbDictionary
280
     1
281
     1
  3
ACAD_XREC_ROUNDTRIP
360
1BF
  0
DICTIONARY
  5
1C0
330
184
100
AcDbDictionary
280
     1
281
     1
  3
ACAD_XREC_ROUNDTRIP
360
1C1
  0
DICTIONARY
  5
1DA
330
191
100
AcDbDictionary
280
     1
281
     1
  3
ACAD_XREC_ROUNDTRIP
360
1DB
  0
DICTIONARY
  5
1C8
330
188
100
AcDbDictionary
280
     1
281
     1
  3
ACAD_XREC_ROUNDTRIP
360
1C9
  0
DICTIONARY
  5
1B2
330
17D
100
AcDbDictionary
280
     1
281
     1
  3
ACAD_XREC_ROUNDTRIP
360
1B3
  0
DICTIONARY
  5
1B4
330
17E
100
AcDbDictionary
280
     1
281
     1
  3
ACAD_XREC_ROUNDTRIP
360
1B5
  0
DICTIONARY
  5
1B6
330
17F
100
AcDbDictionary
280
     1
281
     1
  3
ACAD_XREC_ROUNDTRIP
360
1B7
  0
DICTIONARY
  5
1B8
330
180
100
AcDbDictionary
280
     1
281
     1
  3
ACAD_XREC_ROUNDTRIP
360
1B9
  0
DICTIONARY
  5
1BC
330
182
100
AcDbDictionary
280
     1
281
     1
  3
ACAD_XREC_ROUNDTRIP
360
1BD
  0
DICTIONARY
  5
1D6
330
18F
100
AcDbDictionary
280
     1
281
     1
  3
ACAD_XREC_ROUNDTRIP
360
1D7
  0
DICTIONARY
  5
1C6
330
187
100
AcDbDictionary
280
     1
281
     1
  3
ACAD_XREC_ROUNDTRIP
360
1C7
  0
DICTIONARY
  5
1D8
330
190
100
AcDbDictionary
280
     1
281
     1
  3
ACAD_XREC_ROUNDTRIP
360
1D9
  0
DICTIONARY
  5
1AE
330
4B
100
AcDbDictionary
280
     1
281
     1
  3
ACAD_XREC_ROUNDTRIP
360
1AF
  0
DICTIONARY
  5
1D4
330
18E
100
AcDbDictionary
280
     1
281
     1
  3
ACAD_XREC_ROUNDTRIP
360
1D5
  0
DICTIONARY
  5
1D2
330
18D
100
AcDbDictionary
280
     1
281
     1
  3
ACAD_XREC_ROUNDTRIP
360
1D3
  0
DICTIONARY
  5
1CC
330
18A
100
AcDbDictionary
280
     1
281
     1
  3
ACAD_XREC_ROUNDTRIP
360
1CD
  0
DICTIONARY
  5
1CE
330
18B
100
AcDbDictionary
280
     1
281
     1
  3
ACAD_XREC_ROUNDTRIP
360
1CF
  0
DICTIONARY
  5
1C4
330
186
100
AcDbDictionary
280
     1
281
     1
  3
ACAD_XREC_ROUNDTRIP
360
1C5
  0
DICTIONARY
  5
1B0
330
4C
100
AcDbDictionary
280
     1
281
     1
  3
ACAD_XREC_ROUNDTRIP
360
1B1
  0
DICTIONARY
  5
1D0
330
18C
100
AcDbDictionary
280
     1
281
     1
  3
ACAD_XREC_ROUNDTRIP
360
1D1
  0
XRECORD
  5
1A8
102
{ACAD_REACTORS
330
1A7
102
}
330
1A7
100
AcDbXrecord
280
     1
102
SHADEPLOT
 70
     0
102
SHADEPLOTRESLEVEL
 70
     2
102
SHADEPLOTCUSTOMDPI
 70
   300
  0
XRECORD
  5
1A6
102
{ACAD_REACTORS
330
1A5
102
}
330
1A5
100
AcDbXrecord
280
     1
102
SHADEPLOT
 70
     0
102
SHADEPLOTRESLEVEL
 70
     2
102
SHADEPLOTCUSTOMDPI
 70
   300
  0
XRECORD
  5
1AC
102
{ACAD_REACTORS
330
3D
102
}
330
3D
100
AcDbXrecord
280
     1
102
MATERIAL
148
0.0
149
0.0
149
0.0
 93
        0
 94
      127
282
     0
 72
     0
 77
     0
171
     0
175
     0
179
     0
273
     0
  0
XRECORD
  5
3E
102
{ACAD_REACTORS
330
3D
102
}
330
3D
100
AcDbXrecord
280
     1
270
     1
271
     1
  0
XRECORD
  5
3F
102
{ACAD_REACTORS
330
3D
102
}
330
3D
100
AcDbXrecord
280
     1
270
     1
271
     1
  0
XRECORD
  5
40
102
{ACAD_REACTORS
330
3D
102
}
330
3D
100
AcDbXrecord
280
     1
270
     1
271
     1
  0
XRECORD
  5
41
102
{ACAD_REACTORS
330
3D
102
}
330
3D
100
AcDbXrecord
280
     1
270
     1
271
     1
  0
XRECORD
  5
42
102
{ACAD_REACTORS
330
3D
102
}
330
3D
100
AcDbXrecord
280
     1
270
     1
271
     1
  0
XRECORD
  5
43
102
{ACAD_REACTORS
330
3D
102
}
330
3D
100
AcDbXrecord
280
     1
270
     1
271
     1
  0
XRECORD
  5
1AB
102
{ACAD_REACTORS
330
35
102
}
330
35
100
AcDbXrecord
280
     1
102
MATERIAL
148
0.0
149
0.0
149
0.0
 93
        0
 94
      127
282
     0
 72
     0
 77
     0
171
     0
175
     0
179
     0
273
     0
  0
XRECORD
  5
36
102
{ACAD_REACTORS
330
35
102
}
330
35
100
AcDbXrecord
280
     1
270
     1
271
     1
  0
XRECORD
  5
37
102
{ACAD_REACTORS
330
35
102
}
330
35
100
AcDbXrecord
280
     1
270
     1
271
     1
  0
XRECORD
  5
38
102
{ACAD_REACTORS
330
35
102
}
330
35
100
AcDbXrecord
280
     1
270
     1
271
     1
  0
XRECORD
  5
39
102
{ACAD_REACTORS
330
35
102
}
330
35
100
AcDbXrecord
280
     1
270
     1
271
     1
  0
XRECORD
  5
3A
102
{ACAD_REACTORS
330
35
102
}
330
35
100
AcDbXrecord
280
     1
270
     1
271
     1
  0
XRECORD
  5
3B
102
{ACAD_REACTORS
330
35
102
}
330
35
100
AcDbXrecord
280
     1
270
     1
271
     1
  0
XRECORD
  5
1A4
102
{ACAD_REACTORS
330
C
102
}
330
C
100
AcDbXrecord
280
     1
102
MATERIAL
148
0.0
149
0.0
149
0.0
 93
        0
 94
      127
282
     0
 72
     0
 77
     0
171
     0
175
     0
179
     0
273
     0
  0
XRECORD
  5
D
102
{ACAD_REACTORS
330
C
102
}
330
C
100
AcDbXrecord
280
     1
270
     1
271
     1
  0
XRECORD
  5
E
102
{ACAD_REACTORS
330
C
102
}
330
C
100
AcDbXrecord
280
     1
270
     1
271
     1
  0
XRECORD
  5
F
102
{ACAD_REACTORS
330
C
102
}
330
C
100
AcDbXrecord
280
     1
270
     1
271
     1
  0
XRECORD
  5
10
102
{ACAD_REACTORS
330
C
102
}
330
C
100
AcDbXrecord
280
     1
270
     1
271
     1
  0
XRECORD
  5
11
102
{ACAD_REACTORS
330
C
102
}
330
C
100
AcDbXrecord
280
     1
270
     1
271
     1
  0
XRECORD
  5
12
102
{ACAD_REACTORS
330
C
102
}
330
C
100
AcDbXrecord
280
     1
270
     1
271
     1
  0
CELLSTYLEMAP
  5
19D
102
{ACAD_REACTORS
330
4A
102
}
330
4A
100
AcDbCellStyleMap
 90
        3
300
CELLSTYLE
  1
TABLEFORMAT_BEGIN
 90
        5
170
     1
 91
        0
 92
    32768
 62
   257
 93
        1
300
CONTENTFORMAT
  1
CONTENTFORMAT_BEGIN
 90
        0
 91
        0
 92
      512
 93
        0
300

 40
0.0
140
1.0
 94
        5
 62
     0
340
21
144
0.25
309
CONTENTFORMAT_END
171
     0
 94
        0
309
TABLEFORMAT_END
  1
CELLSTYLE_BEGIN
 90
        1
 91
        1
300
_TITLE
309
CELLSTYLE_END
300
CELLSTYLE
  1
TABLEFORMAT_BEGIN
 90
        5
170
     1
 91
        0
 92
        0
 62
   257
 93
        1
300
CONTENTFORMAT
  1
CONTENTFORMAT_BEGIN
 90
        0
 91
        0
 92
      512
 93
        0
300

 40
0.0
140
1.0
 94
        5
 62
     0
340
21
144
0.18
309
CONTENTFORMAT_END
171
     0
 94
        0
309
TABLEFORMAT_END
  1
CELLSTYLE_BEGIN
 90
        2
 91
        1
300
_HEADER
309
CELLSTYLE_END
300
CELLSTYLE
  1
TABLEFORMAT_BEGIN
 90
        5
170
     1
 91
        0
 92
        0
 62
   257
 93
        1
300
CONTENTFORMAT
  1
CONTENTFORMAT_BEGIN
 90
        0
 91
        0
 92
      512
 93
        0
300

 40
0.0
140
1.0
 94
        2
 62
     0
340
21
144
0.18
309
CONTENTFORMAT_END
171
     0
 94
        0
309
TABLEFORMAT_END
  1
CELLSTYLE_BEGIN
 90
        3
 91
        2
300
_DATA
309
CELLSTYLE_END
  0
XRECORD
  5
1AD
102
{ACAD_REACTORS
330
4A
102
}
330
4A
100
AcDbXrecord
280
     1
102
ACAD_ROUNDTRIP_PRE2007_TABLESTYLE
 90
      512
 91
        0
  1

 92
      512
 93
        0
  2

 94
      512
 95
        0
  3

  0
XRECORD
  5
1AA
102
{ACAD_REACTORS
330
1A9
102
}
330
1A9
100
AcDbXrecord
280
     1
102
RTVSPropertyOp0
 70
     1
102
RTVSPropertyOp1
 70
     1
102
RTVSPropertyOp2
 70
     1
102
RTVSPropertyOp3
 70
     1
102
RTVSPropertyOp4
 70
     1
102
RTVSPropertyOp5
 70
     1
102
RTVSPropertyOp6
 70
     1
102
RTVSPropertyOp7
 70
     1
102
RTVSPropertyOp8
 70
     1
102
RTVSPropertyOp9
 70
     1
102
RTVSPropertyOp10
 70
     1
102
RTVSPropertyOp11
 70
     1
102
RTVSPropertyOp12
 70
     1
102
RTVSPropertyOp13
 70
     1
102
RTVSPropertyOp14
 70
     1
102
RTVSPropertyOp15
 70
     1
102
RTVSPropertyOp16
 70
     1
102
RTVSPropertyOp17
 70
     1
102
RTVSPropertyOp18
 70
     1
102
RTVSPropertyOp19
 70
     1
102
RTVSPropertyOp20
 70
     1
102
RTVSPropertyOp21
 70
     1
102
RTVSPropertyOp22
 70
     1
102
RTVSPropertyOp23
 70
     1
102
RTVSPropertyOp24
 70
     1
102
RTVSPropertyOp25
 70
     1
102
RTVSPropertyOp26
 70
     1
102
RTVSPropertyOp27
 70
     1
102
RTVSPropertyOp28
 70
     1
102
RTVSPropertyOp29
 70
     1
102
RTVSPropertyOp30
 70
     1
102
RTVSPropertyOp31
 70
     1
102
RTVSPropertyOp32
 70
     1
  0
XRECORD
  5
1BB
102
{ACAD_REACTORS
330
1BA
102
}
330
1BA
100
AcDbXrecord
280
     1
102
RTVSPropertyOp0
 70
     1
102
RTVSPropertyOp1
 70
     1
102
RTVSPropertyOp2
 70
     1
102
RTVSPropertyOp3
 70
     1
102
RTVSPropertyOp4
 70
     1
102
RTVSPropertyOp5
 70
     1
102
RTVSPropertyOp6
 70
     1
102
RTVSPropertyOp7
 70
     1
102
RTVSPropertyOp8
 70
     1
102
RTVSPropertyOp9
 70
     1
102
RTVSPropertyOp10
 70
     1
102
RTVSPropertyOp11
 70
     1
102
RTVSPropertyOp12
 70
     1
102
RTVSPropertyOp13
 70
     1
102
RTVSPropertyOp14
 70
     1
102
RTVSPropertyOp15
 70
     1
102
RTVSPropertyOp16
 70
     1
102
RTVSPropertyOp17
 70
     1
102
RTVSPropertyOp18
 70
     1
102
RTVSPropertyOp19
 70
     1
102
RTVSPropertyOp20
 70
     1
102
RTVSPropertyOp21
 70
     1
102
RTVSPropertyOp22
 70
     1
102
RTVSPropertyOp23
 70
     1
102
RTVSPropertyOp24
 70
     1
102
RTVSPropertyOp25
 70
     1
102
RTVSPropertyOp26
 70
     1
102
RTVSPropertyOp27
 70
     1
102
RTVSPropertyOp28
 70
     1
102
RTVSPropertyOp29
 70
     1
102
RTVSPropertyOp30
 70
     1
102
RTVSPropertyOp31
 70
     1
102
RTVSPropertyOp32
 70
     1
  0
XRECORD
  5
1C3
102
{ACAD_REACTORS
330
1C2
102
}
330
1C2
100
AcDbXrecord
280
     1
102
RTVSPropertyOp0
 70
     1
102
RTVSPropertyOp1
 70
     1
102
RTVSPropertyOp2
 70
     1
102
RTVSPropertyOp3
 70
     1
102
RTVSPropertyOp4
 70
     1
102
RTVSPropertyOp5
 70
     1
102
RTVSPropertyOp6
 70
     1
102
RTVSPropertyOp7
 70
     1
102
RTVSPropertyOp8
 70
     1
102
RTVSPropertyOp9
 70
     1
102
RTVSPropertyOp10
 70
     1
102
RTVSPropertyOp11
 70
     1
102
RTVSPropertyOp12
 70
     1
102
RTVSPropertyOp13
 70
     1
102
RTVSPropertyOp14
 70
     1
102
RTVSPropertyOp15
 70
     1
102
RTVSPropertyOp16
 70
     1
102
RTVSPropertyOp17
 70
     1
102
RTVSPropertyOp18
 70
     1
102
RTVSPropertyOp19
 70
     1
102
RTVSPropertyOp20
 70
     1
102
RTVSPropertyOp21
 70
     1
102
RTVSPropertyOp22
 70
     1
102
RTVSPropertyOp23
 70
     1
102
RTVSPropertyOp24
 70
     1
102
RTVSPropertyOp25
 70
     1
102
RTVSPropertyOp26
 70
     1
102
RTVSPropertyOp27
 70
     1
102
RTVSPropertyOp28
 70
     1
102
RTVSPropertyOp29
 70
     1
102
RTVSPropertyOp30
 70
     1
102
RTVSPropertyOp31
 70
     1
102
RTVSPropertyOp32
 70
     1
  0
XRECORD
  5
1CB
102
{ACAD_REACTORS
330
1CA
102
}
330
1CA
100
AcDbXrecord
280
     1
102
RTVSPropertyOp0
 70
     1
102
RTVSPropertyOp1
 70
     1
102
RTVSPropertyOp2
 70
     1
102
RTVSPropertyOp3
 70
     1
102
RTVSPropertyOp4
 70
     1
102
RTVSPropertyOp5
 70
     1
102
RTVSPropertyOp6
 70
     1
102
RTVSPropertyOp7
 70
     1
102
RTVSPropertyOp8
 70
     1
102
RTVSPropertyOp9
 70
     1
102
RTVSPropertyOp10
 70
     1
102
RTVSPropertyOp11
 70
     1
102
RTVSPropertyOp12
 70
     1
102
RTVSPropertyOp13
 70
     1
102
RTVSPropertyOp14
 70
     1
102
RTVSPropertyOp15
 70
     1
102
RTVSPropertyOp16
 70
     1
102
RTVSPropertyOp17
 70
     1
102
RTVSPropertyOp18
 70
     1
102
RTVSPropertyOp19
 70
     1
102
RTVSPropertyOp20
 70
     1
102
RTVSPropertyOp21
 70
     1
102
RTVSPropertyOp22
 70
     1
102
RTVSPropertyOp23
 70
     1
102
RTVSPropertyOp24
 70
     1
102
RTVSPropertyOp25
 70
     1
102
RTVSPropertyOp26
 70
     1
102
RTVSPropertyOp27
 70
     1
102
RTVSPropertyOp28
 70
     1
102
RTVSPropertyOp29
 70
     1
102
RTVSPropertyOp30
 70
     1
102
RTVSPropertyOp31
 70
     1
102
RTVSPropertyOp32
 70
     1
  0
XRECORD
  5
1BF
102
{ACAD_REACTORS
330
1BE
102
}
330
1BE
100
AcDbXrecord
280
     1
102
RTVSPropertyOp0
 70
     1
102
RTVSPropertyOp1
 70
     1
102
RTVSPropertyOp2
 70
     1
102
RTVSPropertyOp3
 70
     1
102
RTVSPropertyOp4
 70
     1
102
RTVSPropertyOp5
 70
     1
102
RTVSPropertyOp6
 70
     1
102
RTVSPropertyOp7
 70
     1
102
RTVSPropertyOp8
 70
     1
102
RTVSPropertyOp9
 70
     1
102
RTVSPropertyOp10
 70
     1
102
RTVSPropertyOp11
 70
     1
102
RTVSPropertyOp12
 70
     1
102
RTVSPropertyOp13
 70
     1
102
RTVSPropertyOp14
 70
     1
102
RTVSPropertyOp15
 70
     1
102
RTVSPropertyOp16
 70
     1
102
RTVSPropertyOp17
 70
     1
102
RTVSPropertyOp18
 70
     1
102
RTVSPropertyOp19
 70
     1
102
RTVSPropertyOp20
 70
     1
102
RTVSPropertyOp21
 70
     1
102
RTVSPropertyOp22
 70
     1
102
RTVSPropertyOp23
 70
     1
102
RTVSPropertyOp24
 70
     1
102
RTVSPropertyOp25
 70
     1
102
RTVSPropertyOp26
 70
     1
102
RTVSPropertyOp27
 70
     1
102
RTVSPropertyOp28
 70
     1
102
RTVSPropertyOp29
 70
     1
102
RTVSPropertyOp30
 70
     1
102
RTVSPropertyOp31
 70
     1
102
RTVSPropertyOp32
 70
     1
  0
XRECORD
  5
1C1
102
{ACAD_REACTORS
330
1C0
102
}
330
1C0
100
AcDbXrecord
280
     1
102
RTVSPropertyOp0
 70
     1
102
RTVSPropertyOp1
 70
     1
102
RTVSPropertyOp2
 70
     1
102
RTVSPropertyOp3
 70
     1
102
RTVSPropertyOp4
 70
     1
102
RTVSPropertyOp5
 70
     1
102
RTVSPropertyOp6
 70
     1
102
RTVSPropertyOp7
 70
     1
102
RTVSPropertyOp8
 70
     1
102
RTVSPropertyOp9
 70
     1
102
RTVSPropertyOp10
 70
     1
102
RTVSPropertyOp11
 70
     1
102
RTVSPropertyOp12
 70
     1
102
RTVSPropertyOp13
 70
     1
102
RTVSPropertyOp14
 70
     1
102
RTVSPropertyOp15
 70
     1
102
RTVSPropertyOp16
 70
     1
102
RTVSPropertyOp17
 70
     1
102
RTVSPropertyOp18
 70
     1
102
RTVSPropertyOp19
 70
     1
102
RTVSPropertyOp20
 70
     1
102
RTVSPropertyOp21
 70
     1
102
RTVSPropertyOp22
 70
     1
102
RTVSPropertyOp23
 70
     1
102
RTVSPropertyOp24
 70
     1
102
RTVSPropertyOp25
 70
     1
102
RTVSPropertyOp26
 70
     1
102
RTVSPropertyOp27
 70
     1
102
RTVSPropertyOp28
 70
     1
102
RTVSPropertyOp29
 70
     1
102
RTVSPropertyOp30
 70
     1
102
RTVSPropertyOp31
 70
     1
102
RTVSPropertyOp32
 70
     1
  0
XRECORD
  5
1DB
102
{ACAD_REACTORS
330
1DA
102
}
330
1DA
100
AcDbXrecord
280
     1
102
RTVSPropertyOp0
 70
     0
102
RTVSPropertyOp1
 70
     0
102
RTVSPropertyOp2
 70
     0
102
RTVSPropertyOp3
 70
     0
102
RTVSPropertyOp4
 70
     0
102
RTVSPropertyOp5
 70
     0
102
RTVSPropertyOp6
 70
     0
102
RTVSPropertyOp7
 70
     0
102
RTVSPropertyOp8
 70
     0
102
RTVSPropertyOp9
 70
     0
102
RTVSPropertyOp10
 70
     0
102
RTVSPropertyOp11
 70
     0
102
RTVSPropertyOp12
 70
     0
102
RTVSPropertyOp13
 70
     0
102
RTVSPropertyOp14
 70
     2
102
RTVSPropertyOp15
 70
     0
102
RTVSPropertyOp16
 70
     0
102
RTVSPropertyOp17
 70
     0
102
RTVSPropertyOp18
 70
     0
102
RTVSPropertyOp19
 70
     0
102
RTVSPropertyOp20
 70
     0
102
RTVSPropertyOp21
 70
     0
102
RTVSPropertyOp22
 70
     0
102
RTVSPropertyOp23
 70
     0
102
RTVSPropertyOp24
 70
     0
102
RTVSPropertyOp25
 70
     0
102
RTVSPropertyOp26
 70
     0
102
RTVSPropertyOp27
 70
     0
102
RTVSPropertyOp28
 70
     0
102
RTVSPropertyOp29
 70
     0
102
RTVSPropertyOp30
 70
     0
102
RTVSPropertyOp31
 70
     0
102
RTVSPropertyOp32
 70
     0
  0
XRECORD
  5
1C9
102
{ACAD_REACTORS
330
1C8
102
}
330
1C8
100
AcDbXrecord
280
     1
102
RTVSPropertyOp0
 70
     1
102
RTVSPropertyOp1
 70
     1
102
RTVSPropertyOp2
 70
     1
102
RTVSPropertyOp3
 70
     1
102
RTVSPropertyOp4
 70
     1
102
RTVSPropertyOp5
 70
     1
102
RTVSPropertyOp6
 70
     1
102
RTVSPropertyOp7
 70
     1
102
RTVSPropertyOp8
 70
     1
102
RTVSPropertyOp9
 70
     1
102
RTVSPropertyOp10
 70
     1
102
RTVSPropertyOp11
 70
     1
102
RTVSPropertyOp12
 70
     1
102
RTVSPropertyOp13
 70
     1
102
RTVSPropertyOp14
 70
     1
102
RTVSPropertyOp15
 70
     1
102
RTVSPropertyOp16
 70
     1
102
RTVSPropertyOp17
 70
     1
102
RTVSPropertyOp18
 70
     1
102
RTVSPropertyOp19
 70
     1
102
RTVSPropertyOp20
 70
     1
102
RTVSPropertyOp21
 70
     1
102
RTVSPropertyOp22
 70
     1
102
RTVSPropertyOp23
 70
     1
102
RTVSPropertyOp24
 70
     1
102
RTVSPropertyOp25
 70
     1
102
RTVSPropertyOp26
 70
     1
102
RTVSPropertyOp27
 70
     1
102
RTVSPropertyOp28
 70
     1
102
RTVSPropertyOp29
 70
     1
102
RTVSPropertyOp30
 70
     1
102
RTVSPropertyOp31
 70
     1
102
RTVSPropertyOp32
 70
     1
  0
XRECORD
  5
1B3
102
{ACAD_REACTORS
330
1B2
102
}
330
1B2
100
AcDbXrecord
280
     1
102
RTVSPropertyOp0
 70
     1
102
RTVSPropertyOp1
 70
     1
102
RTVSPropertyOp2
 70
     1
102
RTVSPropertyOp3
 70
     1
102
RTVSPropertyOp4
 70
     1
102
RTVSPropertyOp5
 70
     1
102
RTVSPropertyOp6
 70
     1
102
RTVSPropertyOp7
 70
     1
102
RTVSPropertyOp8
 70
     1
102
RTVSPropertyOp9
 70
     1
102
RTVSPropertyOp10
 70
     1
102
RTVSPropertyOp11
 70
     1
102
RTVSPropertyOp12
 70
     1
102
RTVSPropertyOp13
 70
     1
102
RTVSPropertyOp14
 70
     1
102
RTVSPropertyOp15
 70
     1
102
RTVSPropertyOp16
 70
     1
102
RTVSPropertyOp17
 70
     1
102
RTVSPropertyOp18
 70
     1
102
RTVSPropertyOp19
 70
     1
102
RTVSPropertyOp20
 70
     1
102
RTVSPropertyOp21
 70
     1
102
RTVSPropertyOp22
 70
     1
102
RTVSPropertyOp23
 70
     1
102
RTVSPropertyOp24
 70
     1
102
RTVSPropertyOp25
 70
     1
102
RTVSPropertyOp26
 70
     1
102
RTVSPropertyOp27
 70
     1
102
RTVSPropertyOp28
 70
     1
102
RTVSPropertyOp29
 70
     1
102
RTVSPropertyOp30
 70
     1
102
RTVSPropertyOp31
 70
     1
102
RTVSPropertyOp32
 70
     1
  0
XRECORD
  5
1B5
102
{ACAD_REACTORS
330
1B4
102
}
330
1B4
100
AcDbXrecord
280
     1
102
RTVSPropertyOp0
 70
     1
102
RTVSPropertyOp1
 70
     1
102
RTVSPropertyOp2
 70
     1
102
RTVSPropertyOp3
 70
     1
102
RTVSPropertyOp4
 70
     1
102
RTVSPropertyOp5
 70
     1
102
RTVSPropertyOp6
 70
     1
102
RTVSPropertyOp7
 70
     1
102
RTVSPropertyOp8
 70
     1
102
RTVSPropertyOp9
 70
     1
102
RTVSPropertyOp10
 70
     1
102
RTVSPropertyOp11
 70
     1
102
RTVSPropertyOp12
 70
     1
102
RTVSPropertyOp13
 70
     1
102
RTVSPropertyOp14
 70
     1
102
RTVSPropertyOp15
 70
     1
102
RTVSPropertyOp16
 70
     1
102
RTVSPropertyOp17
 70
     1
102
RTVSPropertyOp18
 70
     1
102
RTVSPropertyOp19
 70
     1
102
RTVSPropertyOp20
 70
     1
102
RTVSPropertyOp21
 70
     1
102
RTVSPropertyOp22
 70
     1
102
RTVSPropertyOp23
 70
     1
102
RTVSPropertyOp24
 70
     1
102
RTVSPropertyOp25
 70
     1
102
RTVSPropertyOp26
 70
     1
102
RTVSPropertyOp27
 70
     1
102
RTVSPropertyOp28
 70
     1
102
RTVSPropertyOp29
 70
     1
102
RTVSPropertyOp30
 70
     1
102
RTVSPropertyOp31
 70
     1
102
RTVSPropertyOp32
 70
     1
  0
XRECORD
  5
1B7
102
{ACAD_REACTORS
330
1B6
102
}
330
1B6
100
AcDbXrecord
280
     1
102
RTVSPropertyOp0
 70
     1
102
RTVSPropertyOp1
 70
     1
102
RTVSPropertyOp2
 70
     1
102
RTVSPropertyOp3
 70
     1
102
RTVSPropertyOp4
 70
     1
102
RTVSPropertyOp5
 70
     1
102
RTVSPropertyOp6
 70
     1
102
RTVSPropertyOp7
 70
     1
102
RTVSPropertyOp8
 70
     1
102
RTVSPropertyOp9
 70
     1
102
RTVSPropertyOp10
 70
     1
102
RTVSPropertyOp11
 70
     1
102
RTVSPropertyOp12
 70
     1
102
RTVSPropertyOp13
 70
     1
102
RTVSPropertyOp14
 70
     1
102
RTVSPropertyOp15
 70
     1
102
RTVSPropertyOp16
 70
     1
102
RTVSPropertyOp17
 70
     1
102
RTVSPropertyOp18
 70
     1
102
RTVSPropertyOp19
 70
     1
102
RTVSPropertyOp20
 70
     1
102
RTVSPropertyOp21
 70
     1
102
RTVSPropertyOp22
 70
     1
102
RTVSPropertyOp23
 70
     1
102
RTVSPropertyOp24
 70
     1
102
RTVSPropertyOp25
 70
     1
102
RTVSPropertyOp26
 70
     1
102
RTVSPropertyOp27
 70
     1
102
RTVSPropertyOp28
 70
     1
102
RTVSPropertyOp29
 70
     1
102
RTVSPropertyOp30
 70
     1
102
RTVSPropertyOp31
 70
     1
102
RTVSPropertyOp32
 70
     1
  0
XRECORD
  5
1B9
102
{ACAD_REACTORS
330
1B8
102
}
330
1B8
100
AcDbXrecord
280
     1
102
RTVSPropertyOp0
 70
     1
102
RTVSPropertyOp1
 70
     1
102
RTVSPropertyOp2
 70
     1
102
RTVSPropertyOp3
 70
     1
102
RTVSPropertyOp4
 70
     1
102
RTVSPropertyOp5
 70
     1
102
RTVSPropertyOp6
 70
     1
102
RTVSPropertyOp7
 70
     1
102
RTVSPropertyOp8
 70
     1
102
RTVSPropertyOp9
 70
     1
102
RTVSPropertyOp10
 70
     1
102
RTVSPropertyOp11
 70
     1
102
RTVSPropertyOp12
 70
     1
102
RTVSPropertyOp13
 70
     1
102
RTVSPropertyOp14
 70
     1
102
RTVSPropertyOp15
 70
     1
102
RTVSPropertyOp16
 70
     1
102
RTVSPropertyOp17
 70
     1
102
RTVSPropertyOp18
 70
     1
102
RTVSPropertyOp19
 70
     1
102
RTVSPropertyOp20
 70
     1
102
RTVSPropertyOp21
 70
     1
102
RTVSPropertyOp22
 70
     1
102
RTVSPropertyOp23
 70
     1
102
RTVSPropertyOp24
 70
     1
102
RTVSPropertyOp25
 70
     1
102
RTVSPropertyOp26
 70
     1
102
RTVSPropertyOp27
 70
     1
102
RTVSPropertyOp28
 70
     1
102
RTVSPropertyOp29
 70
     1
102
RTVSPropertyOp30
 70
     1
102
RTVSPropertyOp31
 70
     1
102
RTVSPropertyOp32
 70
     1
  0
XRECORD
  5
1BD
102
{ACAD_REACTORS
330
1BC
102
}
330
1BC
100
AcDbXrecord
280
     1
102
RTVSPropertyOp0
 70
     1
102
RTVSPropertyOp1
 70
     1
102
RTVSPropertyOp2
 70
     1
102
RTVSPropertyOp3
 70
     1
102
RTVSPropertyOp4
 70
     1
102
RTVSPropertyOp5
 70
     1
102
RTVSPropertyOp6
 70
     1
102
RTVSPropertyOp7
 70
     1
102
RTVSPropertyOp8
 70
     1
102
RTVSPropertyOp9
 70
     1
102
RTVSPropertyOp10
 70
     1
102
RTVSPropertyOp11
 70
     1
102
RTVSPropertyOp12
 70
     1
102
RTVSPropertyOp13
 70
     1
102
RTVSPropertyOp14
 70
     1
102
RTVSPropertyOp15
 70
     1
102
RTVSPropertyOp16
 70
     1
102
RTVSPropertyOp17
 70
     1
102
RTVSPropertyOp18
 70
     1
102
RTVSPropertyOp19
 70
     1
102
RTVSPropertyOp20
 70
     1
102
RTVSPropertyOp21
 70
     1
102
RTVSPropertyOp22
 70
     1
102
RTVSPropertyOp23
 70
     1
102
RTVSPropertyOp24
 70
     1
102
RTVSPropertyOp25
 70
     1
102
RTVSPropertyOp26
 70
     1
102
RTVSPropertyOp27
 70
     1
102
RTVSPropertyOp28
 70
     1
102
RTVSPropertyOp29
 70
     1
102
RTVSPropertyOp30
 70
     1
102
RTVSPropertyOp31
 70
     1
102
RTVSPropertyOp32
 70
     1
  0
XRECORD
  5
1D7
102
{ACAD_REACTORS
330
1D6
102
}
330
1D6
100
AcDbXrecord
280
     1
102
RTVSPropertyOp0
 70
     0
102
RTVSPropertyOp1
 70
     0
102
RTVSPropertyOp2
 70
     0
102
RTVSPropertyOp3
 70
     0
102
RTVSPropertyOp4
 70
     0
102
RTVSPropertyOp5
 70
     0
102
RTVSPropertyOp6
 70
     0
102
RTVSPropertyOp7
 70
     0
102
RTVSPropertyOp8
 70
     0
102
RTVSPropertyOp9
 70
     0
102
RTVSPropertyOp10
 70
     0
102
RTVSPropertyOp11
 70
     0
102
RTVSPropertyOp12
 70
     0
102
RTVSPropertyOp13
 70
     0
102
RTVSPropertyOp14
 70
     2
102
RTVSPropertyOp15
 70
     0
102
RTVSPropertyOp16
 70
     0
102
RTVSPropertyOp17
 70
     0
102
RTVSPropertyOp18
 70
     0
102
RTVSPropertyOp19
 70
     0
102
RTVSPropertyOp20
 70
     0
102
RTVSPropertyOp21
 70
     0
102
RTVSPropertyOp22
 70
     0
102
RTVSPropertyOp23
 70
     0
102
RTVSPropertyOp24
 70
     0
102
RTVSPropertyOp25
 70
     0
102
RTVSPropertyOp26
 70
     0
102
RTVSPropertyOp27
 70
     0
102
RTVSPropertyOp28
 70
     0
102
RTVSPropertyOp29
 70
     0
102
RTVSPropertyOp30
 70
     0
102
RTVSPropertyOp31
 70
     0
102
RTVSPropertyOp32
 70
     0
  0
XRECORD
  5
1C7
102
{ACAD_REACTORS
330
1C6
102
}
330
1C6
100
AcDbXrecord
280
     1
102
RTVSPropertyOp0
 70
     1
102
RTVSPropertyOp1
 70
     1
102
RTVSPropertyOp2
 70
     1
102
RTVSPropertyOp3
 70
     1
102
RTVSPropertyOp4
 70
     1
102
RTVSPropertyOp5
 70
     1
102
RTVSPropertyOp6
 70
     1
102
RTVSPropertyOp7
 70
     1
102
RTVSPropertyOp8
 70
     1
102
RTVSPropertyOp9
 70
     1
102
RTVSPropertyOp10
 70
     1
102
RTVSPropertyOp11
 70
     1
102
RTVSPropertyOp12
 70
     1
102
RTVSPropertyOp13
 70
     1
102
RTVSPropertyOp14
 70
     1
102
RTVSPropertyOp15
 70
     1
102
RTVSPropertyOp16
 70
     1
102
RTVSPropertyOp17
 70
     1
102
RTVSPropertyOp18
 70
     1
102
RTVSPropertyOp19
 70
     1
102
RTVSPropertyOp20
 70
     1
102
RTVSPropertyOp21
 70
     1
102
RTVSPropertyOp22
 70
     1
102
RTVSPropertyOp23
 70
     1
102
RTVSPropertyOp24
 70
     1
102
RTVSPropertyOp25
 70
     1
102
RTVSPropertyOp26
 70
     1
102
RTVSPropertyOp27
 70
     1
102
RTVSPropertyOp28
 70
     1
102
RTVSPropertyOp29
 70
     1
102
RTVSPropertyOp30
 70
     1
102
RTVSPropertyOp31
 70
     1
102
RTVSPropertyOp32
 70
     1
  0
XRECORD
  5
1D9
102
{ACAD_REACTORS
330
1D8
102
}
330
1D8
100
AcDbXrecord
280
     1
102
RTVSPropertyOp0
 70
     0
102
RTVSPropertyOp1
 70
     0
102
RTVSPropertyOp2
 70
     0
102
RTVSPropertyOp3
 70
     0
102
RTVSPropertyOp4
 70
     0
102
RTVSPropertyOp5
 70
     0
102
RTVSPropertyOp6
 70
     0
102
RTVSPropertyOp7
 70
     0
102
RTVSPropertyOp8
 70
     0
102
RTVSPropertyOp9
 70
     0
102
RTVSPropertyOp10
 70
     0
102
RTVSPropertyOp11
 70
     0
102
RTVSPropertyOp12
 70
     0
102
RTVSPropertyOp13
 70
     0
102
RTVSPropertyOp14
 70
     2
102
RTVSPropertyOp15
 70
     0
102
RTVSPropertyOp16
 70
     0
102
RTVSPropertyOp17
 70
     0
102
RTVSPropertyOp18
 70
     0
102
RTVSPropertyOp19
 70
     0
102
RTVSPropertyOp20
 70
     0
102
RTVSPropertyOp21
 70
     0
102
RTVSPropertyOp22
 70
     0
102
RTVSPropertyOp23
 70
     0
102
RTVSPropertyOp24
 70
     0
102
RTVSPropertyOp25
 70
     0
102
RTVSPropertyOp26
 70
     0
102
RTVSPropertyOp27
 70
     0
102
RTVSPropertyOp28
 70
     0
102
RTVSPropertyOp29
 70
     0
102
RTVSPropertyOp30
 70
     0
102
RTVSPropertyOp31
 70
     0
102
RTVSPropertyOp32
 70
     0
  0
XRECORD
  5
1AF
102
{ACAD_REACTORS
330
1AE
102
}
330
1AE
100
AcDbXrecord
280
     1
102
RTVSPropertyOp0
 70
     1
102
RTVSPropertyOp1
 70
     1
102
RTVSPropertyOp2
 70
     1
102
RTVSPropertyOp3
 70
     1
102
RTVSPropertyOp4
 70
     1
102
RTVSPropertyOp5
 70
     1
102
RTVSPropertyOp6
 70
     1
102
RTVSPropertyOp7
 70
     1
102
RTVSPropertyOp8
 70
     1
102
RTVSPropertyOp9
 70
     1
102
RTVSPropertyOp10
 70
     1
102
RTVSPropertyOp11
 70
     1
102
RTVSPropertyOp12
 70
     1
102
RTVSPropertyOp13
 70
     1
102
RTVSPropertyOp14
 70
     1
102
RTVSPropertyOp15
 70
     1
102
RTVSPropertyOp16
 70
     1
102
RTVSPropertyOp17
 70
     1
102
RTVSPropertyOp18
 70
     1
102
RTVSPropertyOp19
 70
     1
102
RTVSPropertyOp20
 70
     1
102
RTVSPropertyOp21
 70
     1
102
RTVSPropertyOp22
 70
     1
102
RTVSPropertyOp23
 70
     1
102
RTVSPropertyOp24
 70
     1
102
RTVSPropertyOp25
 70
     1
102
RTVSPropertyOp26
 70
     1
102
RTVSPropertyOp27
 70
     1
102
RTVSPropertyOp28
 70
     1
102
RTVSPropertyOp29
 70
     1
102
RTVSPropertyOp30
 70
     1
102
RTVSPropertyOp31
 70
     1
102
RTVSPropertyOp32
 70
     1
  0
XRECORD
  5
1D5
102
{ACAD_REACTORS
330
1D4
102
}
330
1D4
100
AcDbXrecord
280
     1
102
RTVSPropertyOp0
 70
     1
102
RTVSPropertyOp1
 70
     1
102
RTVSPropertyOp2
 70
     1
102
RTVSPropertyOp3
 70
     1
102
RTVSPropertyOp4
 70
     1
102
RTVSPropertyOp5
 70
     1
102
RTVSPropertyOp6
 70
     1
102
RTVSPropertyOp7
 70
     1
102
RTVSPropertyOp8
 70
     1
102
RTVSPropertyOp9
 70
     1
102
RTVSPropertyOp10
 70
     1
102
RTVSPropertyOp11
 70
     1
102
RTVSPropertyOp12
 70
     1
102
RTVSPropertyOp13
 70
     1
102
RTVSPropertyOp14
 70
     1
102
RTVSPropertyOp15
 70
     1
102
RTVSPropertyOp16
 70
     1
102
RTVSPropertyOp17
 70
     1
102
RTVSPropertyOp18
 70
     1
102
RTVSPropertyOp19
 70
     1
102
RTVSPropertyOp20
 70
     1
102
RTVSPropertyOp21
 70
     1
102
RTVSPropertyOp22
 70
     1
102
RTVSPropertyOp23
 70
     1
102
RTVSPropertyOp24
 70
     1
102
RTVSPropertyOp25
 70
     1
102
RTVSPropertyOp26
 70
     1
102
RTVSPropertyOp27
 70
     1
102
RTVSPropertyOp28
 70
     1
102
RTVSPropertyOp29
 70
     1
102
RTVSPropertyOp30
 70
     1
102
RTVSPropertyOp31
 70
     1
102
RTVSPropertyOp32
 70
     1
  0
XRECORD
  5
1D3
102
{ACAD_REACTORS
330
1D2
102
}
330
1D2
100
AcDbXrecord
280
     1
102
RTVSPropertyOp0
 70
     1
102
RTVSPropertyOp1
 70
     1
102
RTVSPropertyOp2
 70
     1
102
RTVSPropertyOp3
 70
     1
102
RTVSPropertyOp4
 70
     1
102
RTVSPropertyOp5
 70
     1
102
RTVSPropertyOp6
 70
     1
102
RTVSPropertyOp7
 70
     1
102
RTVSPropertyOp8
 70
     1
102
RTVSPropertyOp9
 70
     1
102
RTVSPropertyOp10
 70
     1
102
RTVSPropertyOp11
 70
     1
102
RTVSPropertyOp12
 70
     1
102
RTVSPropertyOp13
 70
     1
102
RTVSPropertyOp14
 70
     1
102
RTVSPropertyOp15
 70
     1
102
RTVSPropertyOp16
 70
     1
102
RTVSPropertyOp17
 70
     1
102
RTVSPropertyOp18
 70
     1
102
RTVSPropertyOp19
 70
     1
102
RTVSPropertyOp20
 70
     1
102
RTVSPropertyOp21
 70
     1
102
RTVSPropertyOp22
 70
     1
102
RTVSPropertyOp23
 70
     1
102
RTVSPropertyOp24
 70
     1
102
RTVSPropertyOp25
 70
     1
102
RTVSPropertyOp26
 70
     1
102
RTVSPropertyOp27
 70
     1
102
RTVSPropertyOp28
 70
     1
102
RTVSPropertyOp29
 70
     1
102
RTVSPropertyOp30
 70
     1
102
RTVSPropertyOp31
 70
     1
102
RTVSPropertyOp32
 70
     1
  0
XRECORD
  5
1CD
102
{ACAD_REACTORS
330
1CC
102
}
330
1CC
100
AcDbXrecord
280
     1
102
RTVSPropertyOp0
 70
     1
102
RTVSPropertyOp1
 70
     1
102
RTVSPropertyOp2
 70
     1
102
RTVSPropertyOp3
 70
     1
102
RTVSPropertyOp4
 70
     1
102
RTVSPropertyOp5
 70
     1
102
RTVSPropertyOp6
 70
     1
102
RTVSPropertyOp7
 70
     1
102
RTVSPropertyOp8
 70
     1
102
RTVSPropertyOp9
 70
     1
102
RTVSPropertyOp10
 70
     1
102
RTVSPropertyOp11
 70
     1
102
RTVSPropertyOp12
 70
     1
102
RTVSPropertyOp13
 70
     1
102
RTVSPropertyOp14
 70
     1
102
RTVSPropertyOp15
 70
     1
102
RTVSPropertyOp16
 70
     1
102
RTVSPropertyOp17
 70
     1
102
RTVSPropertyOp18
 70
     1
102
RTVSPropertyOp19
 70
     1
102
RTVSPropertyOp20
 70
     1
102
RTVSPropertyOp21
 70
     1
102
RTVSPropertyOp22
 70
     1
102
RTVSPropertyOp23
 70
     1
102
RTVSPropertyOp24
 70
     1
102
RTVSPropertyOp25
 70
     1
102
RTVSPropertyOp26
 70
     1
102
RTVSPropertyOp27
 70
     1
102
RTVSPropertyOp28
 70
     1
102
RTVSPropertyOp29
 70
     1
102
RTVSPropertyOp30
 70
     1
102
RTVSPropertyOp31
 70
     1
102
RTVSPropertyOp32
 70
     1
  0
XRECORD
  5
1CF
102
{ACAD_REACTORS
330
1CE
102
}
330
1CE
100
AcDbXrecord
280
     1
102
RTVSPropertyOp0
 70
     1
102
RTVSPropertyOp1
 70
     1
102
RTVSPropertyOp2
 70
     1
102
RTVSPropertyOp3
 70
     1
102
RTVSPropertyOp4
 70
     1
102
RTVSPropertyOp5
 70
     1
102
RTVSPropertyOp6
 70
     1
102
RTVSPropertyOp7
 70
     1
102
RTVSPropertyOp8
 70
     1
102
RTVSPropertyOp9
 70
     1
102
RTVSPropertyOp10
 70
     1
102
RTVSPropertyOp11
 70
     1
102
RTVSPropertyOp12
 70
     1
102
RTVSPropertyOp13
 70
     1
102
RTVSPropertyOp14
 70
     1
102
RTVSPropertyOp15
 70
     1
102
RTVSPropertyOp16
 70
     1
102
RTVSPropertyOp17
 70
     1
102
RTVSPropertyOp18
 70
     1
102
RTVSPropertyOp19
 70
     1
102
RTVSPropertyOp20
 70
     1
102
RTVSPropertyOp21
 70
     1
102
RTVSPropertyOp22
 70
     1
102
RTVSPropertyOp23
 70
     1
102
RTVSPropertyOp24
 70
     1
102
RTVSPropertyOp25
 70
     1
102
RTVSPropertyOp26
 70
     1
102
RTVSPropertyOp27
 70
     1
102
RTVSPropertyOp28
 70
     1
102
RTVSPropertyOp29
 70
     1
102
RTVSPropertyOp30
 70
     1
102
RTVSPropertyOp31
 70
     1
102
RTVSPropertyOp32
 70
     1
  0
XRECORD
  5
1C5
102
{ACAD_REACTORS
330
1C4
102
}
330
1C4
100
AcDbXrecord
280
     1
102
RTVSPropertyOp0
 70
     1
102
RTVSPropertyOp1
 70
     1
102
RTVSPropertyOp2
 70
     1
102
RTVSPropertyOp3
 70
     1
102
RTVSPropertyOp4
 70
     1
102
RTVSPropertyOp5
 70
     1
102
RTVSPropertyOp6
 70
     1
102
RTVSPropertyOp7
 70
     1
102
RTVSPropertyOp8
 70
     1
102
RTVSPropertyOp9
 70
     1
102
RTVSPropertyOp10
 70
     1
102
RTVSPropertyOp11
 70
     1
102
RTVSPropertyOp12
 70
     1
102
RTVSPropertyOp13
 70
     1
102
RTVSPropertyOp14
 70
     1
102
RTVSPropertyOp15
 70
     1
102
RTVSPropertyOp16
 70
     1
102
RTVSPropertyOp17
 70
     1
102
RTVSPropertyOp18
 70
     1
102
RTVSPropertyOp19
 70
     1
102
RTVSPropertyOp20
 70
     1
102
RTVSPropertyOp21
 70
     1
102
RTVSPropertyOp22
 70
     1
102
RTVSPropertyOp23
 70
     1
102
RTVSPropertyOp24
 70
     1
102
RTVSPropertyOp25
 70
     1
102
RTVSPropertyOp26
 70
     1
102
RTVSPropertyOp27
 70
     1
102
RTVSPropertyOp28
 70
     1
102
RTVSPropertyOp29
 70
     1
102
RTVSPropertyOp30
 70
     1
102
RTVSPropertyOp31
 70
     1
102
RTVSPropertyOp32
 70
     1
  0
XRECORD
  5
1B1
102
{ACAD_REACTORS
330
1B0
102
}
330
1B0
100
AcDbXrecord
280
     1
102
RTVSPropertyOp0
 70
     1
102
RTVSPropertyOp1
 70
     1
102
RTVSPropertyOp2
 70
     1
102
RTVSPropertyOp3
 70
     1
102
RTVSPropertyOp4
 70
     1
102
RTVSPropertyOp5
 70
     1
102
RTVSPropertyOp6
 70
     1
102
RTVSPropertyOp7
 70
     1
102
RTVSPropertyOp8
 70
     1
102
RTVSPropertyOp9
 70
     1
102
RTVSPropertyOp10
 70
     1
102
RTVSPropertyOp11
 70
     1
102
RTVSPropertyOp12
 70
     1
102
RTVSPropertyOp13
 70
     1
102
RTVSPropertyOp14
 70
     1
102
RTVSPropertyOp15
 70
     1
102
RTVSPropertyOp16
 70
     1
102
RTVSPropertyOp17
 70
     1
102
RTVSPropertyOp18
 70
     1
102
RTVSPropertyOp19
 70
     1
102
RTVSPropertyOp20
 70
     1
102
RTVSPropertyOp21
 70
     1
102
RTVSPropertyOp22
 70
     1
102
RTVSPropertyOp23
 70
     1
102
RTVSPropertyOp24
 70
     1
102
RTVSPropertyOp25
 70
     1
102
RTVSPropertyOp26
 70
     1
102
RTVSPropertyOp27
 70
     1
102
RTVSPropertyOp28
 70
     1
102
RTVSPropertyOp29
 70
     1
102
RTVSPropertyOp30
 70
     1
102
RTVSPropertyOp31
 70
     1
102
RTVSPropertyOp32
 70
     1
  0
XRECORD
  5
1D1
102
{ACAD_REACTORS
330
1D0
102
}
330
1D0
100
AcDbXrecord
280
     1
102
RTVSPropertyOp0
 70
     1
102
RTVSPropertyOp1
 70
     1
102
RTVSPropertyOp2
 70
     1
102
RTVSPropertyOp3
 70
     1
102
RTVSPropertyOp4
 70
     1
102
RTVSPropertyOp5
 70
     1
102
RTVSPropertyOp6
 70
     1
102
RTVSPropertyOp7
 70
     1
102
RTVSPropertyOp8
 70
     1
102
RTVSPropertyOp9
 70
     1
102
RTVSPropertyOp10
 70
     1
102
RTVSPropertyOp11
 70
     1
102
RTVSPropertyOp12
 70
     1
102
RTVSPropertyOp13
 70
     1
102
RTVSPropertyOp14
 70
     1
102
RTVSPropertyOp15
 70
     1
102
RTVSPropertyOp16
 70
     1
102
RTVSPropertyOp17
 70
     1
102
RTVSPropertyOp18
 70
     1
102
RTVSPropertyOp19
 70
     1
102
RTVSPropertyOp20
 70
     1
102
RTVSPropertyOp21
 70
     1
102
RTVSPropertyOp22
 70
     1
102
RTVSPropertyOp23
 70
     1
102
RTVSPropertyOp24
 70
     1
102
RTVSPropertyOp25
 70
     1
102
RTVSPropertyOp26
 70
     1
102
RTVSPropertyOp27
 70
     1
102
RTVSPropertyOp28
 70
     1
102
RTVSPropertyOp29
 70
     1
102
RTVSPropertyOp30
 70
     1
102
RTVSPropertyOp31
 70
     1
102
RTVSPropertyOp32
 70
     1
  0
ENDSEC
  0
EOF
