  0
SECTION
  2
HEADER
  9
$ACADVER
  1
AC1015
  9
$ACADMAINTVER
 70
    18
  9
$DWGCODEPAGE
  3
ANSI_1252
  9
$INSBASE
 10
0.0
 20
0.0
 30
0.0
  9
$EXTMIN
 10
-91.92905922831187
 20
-17.92719838014727
 30
-0.0015258207003583
  9
$EXTMAX
 10
44.86689901941781
 20
162.3072521445656
 30
0.0000000349246037
  9
$LIMMIN
 10
0.0
 20
0.0
  9
$LIMMAX
 10
1189.0
 20
840.9999999999998
  9
$ORTHOMODE
 70
     0
  9
$REGENMODE
 70
     1
  9
$FILLMODE
 70
     1
  9
$QTEXTMODE
 70
     0
  9
$MIRRTEXT
 70
     0
  9
$LTSCALE
 40
1.0
  9
$ATTMODE
 70
     1
  9
$TEXTSIZE
 40
0.2
  9
$TRACEWID
 40
0.05
  9
$TEXTSTYLE
  7
STANDARD
  9
$CLAYER
  8
0
  9
$CELTYPE
  6
ByLayer
  9
$CECOLOR
 62
   256
  9
$CELTSCALE
 40
1.0
  9
$DISPSILH
 70
     0
  9
$DIMSCALE
 40
1.0
  9
$DIMASZ
 40
180.0
  9
$DIMEXO
 40
0.0625
  9
$DIMDLI
 40
0.38
  9
$DIMRND
 40
0.0
  9
$DIMDLE
 40
0.0
  9
$DIMEXE
 40
0.18
  9
$DIMTP
 40
0.0
  9
$DIMTM
 40
0.0
  9
$DIMTXT
 40
34.99999940395355
  9
$DIMCEN
 40
0.09
  9
$DIMTSZ
 40
0.0
  9
$DIMTOL
 70
     0
  9
$DIMLIM
 70
     0
  9
$DIMTIH
 70
     1
  9
$DIMTOH
 70
     1
  9
$DIMSE1
 70
     0
  9
$DIMSE2
 70
     0
  9
$DIMTAD
 70
     0
  9
$DIMZIN
 70
     0
  9
$DIMBLK
  1

  9
$DIMASO
 70
     1
  9
$DIMSHO
 70
     1
  9
$DIMPOST
  1

  9
$DIMAPOST
  1

  9
$DIMALT
 70
     0
  9
$DIMALTD
 70
     2
  9
$DIMALTF
 40
25.4
  9
$DIMLFAC
 40
1.0
  9
$DIMTOFL
 70
     0
  9
$DIMTVP
 40
0.0
  9
$DIMTIX
 70
     0
  9
$DIMSOXD
 70
     0
  9
$DIMSAH
 70
     0
  9
$DIMBLK1
  1

  9
$DIMBLK2
  1

  9
$DIMSTYLE
  2
STANDARD
  9
$DIMCLRD
 70
     0
  9
$DIMCLRE
 70
     0
  9
$DIMCLRT
 70
     0
  9
$DIMTFAC
 40
1.0
  9
$DIMGAP
 40
0.09
  9
$DIMJUST
 70
     0
  9
$DIMSD1
 70
     0
  9
$DIMSD2
 70
     0
  9
$DIMTOLJ
 70
     1
  9
$DIMTZIN
 70
     0
  9
$DIMALTZ
 70
     0
  9
$DIMALTTZ
 70
     0
  9
$DIMUPT
 70
     0
  9
$DIMDEC
 70
     4
  9
$DIMTDEC
 70
     4
  9
$DIMALTU
 70
     2
  9
$DIMALTTD
 70
     2
  9
$DIMTXSTY
  7
STANDARD
  9
$DIMAUNIT
 70
     0
  9
$DIMADEC
 70
     0
  9
$DIMALTRND
 40
0.0
  9
$DIMAZIN
 70
     0
  9
$DIMDSEP
 70
    46
  9
$DIMATFIT
 70
     3
  9
$DIMFRAC
 70
     0
  9
$DIMLDRBLK
  1

  9
$DIMLUNIT
 70
     2
  9
$DIMLWD
 70
    -2
  9
$DIMLWE
 70
    -2
  9
$DIMTMOVE
 70
     0
  9
$LUNITS
 70
     2
  9
$LUPREC
 70
     4
  9
$SKETCHINC
 40
0.1
  9
$FILLETRAD
 40
0.0
  9
$AUNITS
 70
     0
  9
$AUPREC
 70
     0
  9
$MENU
  1
.
  9
$ELEVATION
 40
0.0
  9
$PELEVATION
 40
0.0
  9
$THICKNESS
 40
0.0
  9
$LIMCHECK
 70
     0
  9
$CHAMFERA
 40
0.0
  9
$CHAMFERB
 40
0.0
  9
$CHAMFERC
 40
0.0
  9
$CHAMFERD
 40
0.0
  9
$SKPOLY
 70
     0
  9
$TDCREATE
 40
2454871.497639329
  9
$TDUCREATE
 40
2454871.455972662
  9
$TDUPDATE
 40
2455943.976186158
  9
$TDUUPDATE
 40
2455943.934519491
  9
$TDINDWG
 40
0.0122733681
  9
$TDUSRTIMER
 40
0.0122733681
  9
$USRTIMER
 70
     1
  9
$ANGBASE
 50
0.0
  9
$ANGDIR
 70
     0
  9
$PDMODE
 70
     0
  9
$PDSIZE
 40
0.0
  9
$PLINEWID
 40
0.0
  9
$SPLFRAME
 70
     0
  9
$SPLINETYPE
 70
     6
  9
$SPLINESEGS
 70
     8
  9
$HANDSEED
  5
1DF
  9
$SURFTAB1
 70
     6
  9
$SURFTAB2
 70
     6
  9
$SURFTYPE
 70
     6
  9
$SURFU
 70
     6
  9
$SURFV
 70
     6
  9
$UCSBASE
  2

  9
$UCSNAME
  2

  9
$UCSORG
 10
0.0
 20
0.0
 30
0.0
  9
$UCSXDIR
 10
1.0
 20
0.0
 30
0.0
  9
$UCSYDIR
 10
0.0
 20
1.0
 30
0.0
  9
$UCSORTHOREF
  2

  9
$UCSORTHOVIEW
 70
     0
  9
$UCSORGTOP
 10
0.0
 20
0.0
 30
0.0
  9
$UCSORGBOTTOM
 10
0.0
 20
0.0
 30
0.0
  9
$UCSORGLEFT
 10
0.0
 20
0.0
 30
0.0
  9
$UCSORGRIGHT
 10
0.0
 20
0.0
 30
0.0
  9
$UCSORGFRONT
 10
0.0
 20
0.0
 30
0.0
  9
$UCSORGBACK
 10
0.0
 20
0.0
 30
0.0
  9
$PUCSBASE
  2

  9
$PUCSNAME
  2

  9
$PUCSORG
 10
0.0
 20
0.0
 30
0.0
  9
$PUCSXDIR
 10
1.0
 20
0.0
 30
0.0
  9
$PUCSYDIR
 10
0.0
 20
1.0
 30
0.0
  9
$PUCSORTHOREF
  2

  9
$PUCSORTHOVIEW
 70
     0
  9
$PUCSORGTOP
 10
0.0
 20
0.0
 30
0.0
  9
$PUCSORGBOTTOM
 10
0.0
 20
0.0
 30
0.0
  9
$PUCSORGLEFT
 10
0.0
 20
0.0
 30
0.0
  9
$PUCSORGRIGHT
 10
0.0
 20
0.0
 30
0.0
  9
$PUCSORGFRONT
 10
0.0
 20
0.0
 30
0.0
  9
$PUCSORGBACK
 10
0.0
 20
0.0
 30
0.0
  9
$USERI1
 70
     0
  9
$USERI2
 70
     0
  9
$USERI3
 70
     0
  9
$USERI4
 70
     0
  9
$USERI5
 70
     0
  9
$USERR1
 40
0.0
  9
$USERR2
 40
0.0
  9
$USERR3
 40
0.0
  9
$USERR4
 40
0.0
  9
$USERR5
 40
0.0
  9
$WORLDVIEW
 70
     1
  9
$SHADEDGE
 70
     3
  9
$SHADEDIF
 70
    70
  9
$TILEMODE
 70
     1
  9
$MAXACTVP
 70
    64
  9
$PINSBASE
 10
0.0
 20
0.0
 30
0.0
  9
$PLIMCHECK
 70
     0
  9
$PEXTMIN
 10
0.0
 20
0.0
 30
0.0
  9
$PEXTMAX
 10
1189.0
 20
840.9999999999998
 30
0.0
  9
$PLIMMIN
 10
0.0
 20
0.0
  9
$PLIMMAX
 10
1189.0
 20
840.9999999999998
  9
$UNITMODE
 70
     0
  9
$VISRETAIN
 70
     1
  9
$PLINEGEN
 70
     0
  9
$PSLTSCALE
 70
     1
  9
$TREEDEPTH
 70
  3020
  9
$CMLSTYLE
  2
Standard
  9
$CMLJUST
 70
     0
  9
$CMLSCALE
 40
1.0
  9
$PROXYGRAPHICS
 70
     1
  9
$MEASUREMENT
 70
     1
  9
$CELWEIGHT
370
    -1
  9
$ENDCAPS
280
     0
  9
$JOINSTYLE
280
     0
  9
$LWDISPLAY
290
     0
  9
$INSUNITS
 70
     4
  9
$HYPERLINKBASE
  1

  9
$STYLESHEET
  1

  9
$XEDIT
290
     1
  9
$CEPSNTYPE
380
     0
  9
$PSTYLEMODE
290
     1
  9
$FINGERPRINTGUID
  2
{D84D4E3F-9CD5-45B5-85B9-042CB8AB1C75}
  9
$VERSIONGUID
  2
{B0A7E457-E8C9-488A-A637-AD593FCBE509}
  9
$EXTNAMES
290
     1
  9
$PSVPSCALE
 40
0.0
  9
$OLESTARTUP
290
     0
  0
ENDSEC
  0
SECTION
  2
CLASSES
  0
CLASS
  1
ACDBDICTIONARYWDFLT
  2
AcDbDictionaryWithDefault
  3
ObjectDBX Classes
 90
        0
280
     0
281
     0
  0
CLASS
  1
MATERIAL
  2
AcDbMaterial
  3
ObjectDBX Classes
 90
     1153
280
     0
281
     0
  0
CLASS
  1
VISUALSTYLE
  2
AcDbVisualStyle
  3
ObjectDBX Classes
 90
     4095
280
     0
281
     0
  0
CLASS
  1
SCALE
  2
AcDbScale
  3
ObjectDBX Classes
 90
     1153
280
     0
281
     0
  0
CLASS
  1
TABLESTYLE
  2
AcDbTableStyle
  3
ObjectDBX Classes
 90
     4095
280
     0
281
     0
  0
CLASS
  1
MLEADERSTYLE
  2
AcDbMLeaderStyle
  3
ACDB_MLEADERSTYLE_CLASS
 90
     4095
280
     0
281
     0
  0
CLASS
  1
SORTENTSTABLE
  2
AcDbSortentsTable
  3
ObjectDBX Classes
 90
        0
280
     0
281
     0
  0
CLASS
  1
CELLSTYLEMAP
  2
AcDbCellStyleMap
  3
ObjectDBX Classes
 90
     1152
280
     0
281
     0
  0
CLASS
  1
DICTIONARYVAR
  2
AcDbDictionaryVar
  3
ObjectDBX Classes
 90
        0
280
     0
281
     0
  0
CLASS
  1
ACME_DOCUMENT
  2
AcMeDbDoc
  3
AcMeServices
 90
    33792
280
     1
281
     0
  0
CLASS
  1
AMGSETTINGSOBJ
  2
AmgSettingsObj
  3
"AcadM|Product Description: AutoCAD Mechanical|Company: Autodesk, Inc."
 90
    33792
280
     1
281
     0
  0
CLASS
  1
ACMESCOPE
  2
AcMeScope
  3
AcMeServices
 90
    33792
280
     1
281
     0
  0
CLASS
  1
ACMECOMMANDHISTORY
  2
AcMeCommandHistory
  3
AcMeServices
 90
    33792
280
     1
281
     0
  0
CLASS
  1
ACIMSYSVARMAN
  2
AcImSysVarManager
  3
AcMeServices
 90
    33792
280
     1
281
     0
  0
CLASS
  1
ACIMINTSYSVAR
  2
AcImIntSysVar
  3
AcMeServices
 90
    33792
280
     1
281
     0
  0
CLASS
  1
ACMEDRAWINGMAN
  2
AcMeDrawingMan
  3
AcMeServices
 90
    33792
280
     1
281
     0
  0
CLASS
  1
ACMEVIEW
  2
AcMeView
  3
AcMeServices
 90
    33792
280
     1
281
     0
  0
CLASS
  1
ACDBENTITYCACHE
  2
AcMeEntityCache
  3
AcMeServices
 90
    33792
280
     1
281
     0
  0
CLASS
  1
GSMANAGER
  2
AcMeGSManager
  3
AcMeServices
 90
    33792
280
     1
281
     0
  0
CLASS
  1
AMDTINTERNALREACTOR
  2
AmdtInternalReactor
  3
AcMeServices
 90
    33792
280
     1
281
     0
  0
CLASS
  1
ACMESTATEMGR
  2
AcMeStateMgr
  3
AcMeServices
 90
    33792
280
     1
281
     0
  0
CLASS
  1
ACGREFMASTER
  2
AcGrefMaster
  3
AcAttribServices
 90
    33792
280
     1
281
     0
  0
CLASS
  1
AM_DRAWING_MGR
  2
AcDmDwgMgr
  3
AcMechDwgViewMgmt
 90
    33792
280
     1
281
     0
  0
CLASS
  1
AM_DWG_DOCUMENT
  2
AcDmDwgDocument
  3
AcMechDwgViewMgmt
 90
    33792
280
     1
281
     0
  0
CLASS
  1
AM_DWG_SHEET
  2
AcDmSheet
  3
AcMechDwgViewMgmt
 90
    33792
280
     1
281
     0
  0
CLASS
  1
AM_VIEWDIMPARMAP
  2
AcDmViewDimParMap
  3
AcMechDwgViewMgmt
 90
    33792
280
     1
281
     0
  0
CLASS
  1
ACIMREALSYSVAR
  2
AcImRealSysVar
  3
AcMeServices
 90
    33792
280
     1
281
     0
  0
CLASS
  1
AM_DWGMGR_NAME
  2
AcDmDwgMgrName
  3
AcMechDwgViewMgmt
 90
    33792
280
     1
281
     0
  0
CLASS
  1
ACME_DATABASE
  2
AcMeDbDatabase
  3
AcMeServices
 90
    33792
280
     1
281
     0
  0
CLASS
  1
ACRFINSADJUSTERMGR
  2
AcRfInsAdjusterMgr
  3
AcMeServices
 90
    33792
280
     1
281
     0
  0
CLASS
  1
ACGREFACADMASTER
  2
AcGrefacadMaster
  3
AcGrefServices
 90
    33792
280
     1
281
     0
  0
CLASS
  1
AMDTMENUSTATEMGR
  2
AmdtMenuStateMgr
  3
McadcomServices
 90
    33792
280
     1
281
     0
  0
CLASS
  1
AMDTMCOMMENUSTATE
  2
AmdtMcomMenuState
  3
McadcomServices
 90
    33792
280
     1
281
     0
  0
CLASS
  1
AMIMASTER
  2
AmiMaster
  3
AmiServices
 90
    33792
280
     1
281
     0
  0
CLASS
  1
MAPIAMMOUDLE
  2
MApiAmModule
  3
MApiAmServices
 90
    33792
280
     1
281
     0
  0
CLASS
  1
ACIMSTRSYSVAR
  2
AcImStrSysVar
  3
AcMeServices
 90
    33792
280
     1
281
     0
  0
CLASS
  1
AMDTADMENUSTATE
  2
AmdtAdMenuState
  3
DesignerServices
 90
    33792
280
     1
281
     0
  0
CLASS
  1
ADAPPL
  2
AcAdAppl
  3
DesignerServices
 90
    33792
280
     1
281
     0
  0
CLASS
  1
DEPMGR
  2
AcAdDepMgr
  3
DesignerServices
 90
    33792
280
     1
281
     0
  0
CLASS
  1
PARAMMGR
  2
AcAdParamMgr
  3
DesignerServices
 90
    33792
280
     1
281
     0
  0
CLASS
  1
PARAMSCOPE
  2
AcAdParamScope
  3
DesignerServices
 90
    33792
280
     1
281
     0
  0
CLASS
  1
NAMEDAPPL
  2
AcAdNamedAppl
  3
DesignerServices
 90
    33792
280
     1
281
     0
  0
CLASS
  1
AMDTDMMENUSTATE
  2
AmdtDmMenuState
  3
AcMechDwgViewMgmt
 90
    33792
280
     1
281
     0
  0
CLASS
  1
AMDTAMMENUSTATE
  2
AmdtAmMenuState
  3
DesignerAssemblies
 90
    33792
280
     1
281
     0
  0
CLASS
  1
ACAMPROJECT
  2
AcAmProject
  3
DesignerAssemblies
 90
    33792
280
     1
281
     0
  0
CLASS
  1
ACAMGRCOMPDEF
  2
AcAmGrCompDef
  3
DesignerAssemblies
 90
    33792
280
     1
281
     0
  0
CLASS
  1
ACCMCONTEXT
  2
AcCmContext
  3
DesignerAssemblies
 90
    33792
280
     1
281
     0
  0
CLASS
  1
ACAMCOMPDEF
  2
AcAmCompDef
  3
DesignerAssemblies
 90
    33792
280
     1
281
     0
  0
CLASS
  1
ACAMCOMPDEFMGR
  2
AcAmCompDefMgr
  3
DesignerAssemblies
 90
    33792
280
     1
281
     0
  0
CLASS
  1
AMCONTEXTMGR
  2
AcAmContextMgr
  3
DesignerAssemblies
 90
    33792
280
     1
281
     0
  0
CLASS
  1
ACAMCONTEXTMODELER
  2
AcAmContextModeler
  3
DesignerAssemblies
 90
    33792
280
     1
281
     0
  0
CLASS
  1
ACMDATADICTIONARY
  2
AcmDataDictionary
  3
"AcmSymBB|Product Description: AutoCAD Mechanical|Company: Autodesk, Inc."
 90
    33792
280
     1
281
     0
  0
CLASS
  1
CATALOGSTATE
  2
AcAmCatalogState
  3
DesignerAssemblies
 90
    33792
280
     1
281
     0
  0
CLASS
  1
ACAMGRCOMPDEFSET
  2
AcAmGrCompDefSet
  3
DesignerAssemblies
 90
    33792
280
     1
281
     0
  0
CLASS
  1
AMDTBROWSERDBTAB
  2
AmdtBrowserDbTab
  3
McadcomServices
 90
    33792
280
     1
281
     0
  0
CLASS
  1
CBROWSERAPPOBJECT
  2
CBrowserAppObject
  3
McadcomServices
 90
    33792
280
     1
281
     0
  0
CLASS
  1
DM_PLACEHOLDER
  2
AcDmSelsetPlaceholder
  3
AcMechDwgViewMgmt
 90
    33792
280
     1
281
     0
  0
CLASS
  1
EXACXREFPANELOBJECT
  2
ExAcXREFPanelObject
  3
EXAC_ESW
 90
     1025
280
     0
281
     0
  0
CLASS
  1
NPOCOLLECTION
  2
AcDbImpNonPersistentObjectsCollection
  3
ObjectDBX Classes
 90
     1153
280
     0
281
     0
  0
CLASS
  1
ACMSTANDARDANSI
  2
AcmStandardANSI
  3
"Amdt_StdImp|Product Description: AutoCAD Mechanical|Company: Autodesk, Inc."
 90
    33792
280
     1
281
     0
  0
CLASS
  1
ACMSURFSTANDARDANSI
  2
AcmSurfTextStdANSI
  3
"Amdt_StdImp|Product Description: AutoCAD Mechanical|Company: Autodesk, Inc."
 90
    33792
280
     1
281
     0
  0
CLASS
  1
ACMFCFSTANDARDANSI
  2
AcmFCFStdANSI
  3
"Amdt_StdImp|Product Description: AutoCAD Mechanical|Company: Autodesk, Inc."
 90
    33792
280
     1
281
     0
  0
CLASS
  1
ACMWELDSTANDARDANSI
  2
AcmWeldingStdANSI
  3
"Amdt_StdImp|Product Description: AutoCAD Mechanical|Company: Autodesk, Inc."
 90
    33792
280
     1
281
     0
  0
CLASS
  1
ACMIDSTANDARDANSI
  2
AcmIdStdANSI
  3
"Amdt_StdImp|Product Description: AutoCAD Mechanical|Company: Autodesk, Inc."
 90
    33792
280
     1
281
     0
  0
CLASS
  1
ACMDATUMSTANDARDANSI
  2
AcmDatumStdANSI
  3
"Amdt_StdImp|Product Description: AutoCAD Mechanical|Company: Autodesk, Inc."
 90
    33792
280
     1
281
     0
  0
CLASS
  1
ACMBOMSTANDARDANSI
  2
AcmBOMStdANSI
  3
"Amdt_StdImp|Product Description: AutoCAD Mechanical|Company: Autodesk, Inc."
 90
    33792
280
     1
281
     0
  0
CLASS
  1
ACMDETAILSTANDARDANSI
  2
AmdtDetailSymStdANSI
  3
"Amdt_StdImp|Product Description: AutoCAD Mechanical|Company: Autodesk, Inc."
 90
    33792
280
     1
281
     0
  0
CLASS
  1
ACMSECTIONSTANDARDANSI
  2
AmdtSectionSymStdANSI
  3
"Amdt_StdImp|Product Description: AutoCAD Mechanical|Company: Autodesk, Inc."
 90
    33792
280
     1
281
     0
  0
CLASS
  1
ACMCENTERLINESTANDARDANSI
  2
AmdtCenterLineStdANSI
  3
"Amdt_StdImp|Product Description: AutoCAD Mechanical|Company: Autodesk, Inc."
 90
    33792
280
     1
281
     0
  0
CLASS
  1
ACMTHREADLINESTANDARDANSI
  2
AmdtThreadLineStdANSI
  3
"Amdt_StdImp|Product Description: AutoCAD Mechanical|Company: Autodesk, Inc."
 90
    33792
280
     1
281
     0
  0
CLASS
  1
ACMNOTESTANDARDANSI
  2
AmdtNoteStdANSI
  3
"Amdt_StdImp|Product Description: AutoCAD Mechanical|Company: Autodesk, Inc."
 90
    33792
280
     1
281
     0
  0
CLASS
  1
ACMTAPERSTANDARDANSI
  2
AcmTaperStdANSI
  3
"Amdt_StdImp|Product Description: AutoCAD Mechanical|Company: Autodesk, Inc."
 90
    33792
280
     1
281
     0
  0
CLASS
  1
ACMANOOTATIONVIEWSTANDARDANSI
  2
AmdtAnViewStdANSI
  3
"Amdt_StdImp|Product Description: AutoCAD Mechanical|Company: Autodesk, Inc."
 90
    33792
280
     1
281
     0
  0
CLASS
  1
ACAMGLAYSTD
  2
AcAmgLayStd
  3
"AmgLay|Product Description: AutoCAD Mechanical|Company: Autodesk, Inc."
 90
    33792
280
     1
281
     0
  0
CLASS
  1
ACAMGDIMSTD
  2
AcAmgDimStd
  3
"AmgDim|Product Description: AutoCAD Mechanical|Company: Autodesk, Inc."
 90
    33792
280
     1
281
     0
  0
CLASS
  1
AMGOBJPROPCFG
  2
AmgObjPropCfg
  3
"AmgLay|Product Description: AutoCAD Mechanical|Company: Autodesk, Inc."
 90
    33793
280
     1
281
     0
  0
CLASS
  1
ACAMGHOLECHARTSTDANSI
  2
AcAmgHoleChartStdANSI
  3
AmgDim|Product Description: AutoCAD Mechanical|Company: Autodesk, Inc.
 90
    33792
280
     1
281
     0
  0
CLASS
  1
ACAMGTITLESTD
  2
AcAmgTitleStd
  3
"AmgTitle|Product Description: AutoCAD Mechanical|Company: Autodesk, Inc."
 90
    36863
280
     1
281
     0
  0
CLASS
  1
AMDTNOTETEMPLATEDB
  2
AmdtNoteTemplateDB
  3
AcmSymBB|Product Description: AutoCAD Mechanical|Company: Autodesk, Inc.
 90
    33792
280
     1
281
     0
  0
CLASS
  1
ACAMGFILTERDAT
  2
AcAmgFilterDat
  3
"AcadM|Product Description: AutoCAD Mechanical|Company: Autodesk, Inc."
 90
    33792
280
     1
281
     0
  0
CLASS
  1
CAMSSTRUCTBTNSTATE
  2
StructBtnState
  3
DesignerAssemblies
 90
    33792
280
     1
281
     0
  0
CLASS
  1
ACDBPLACEHOLDER
  2
AcDbPlaceHolder
  3
ObjectDBX Classes
 90
        0
280
     0
281
     0
  0
CLASS
  1
LAYOUT
  2
AcDbLayout
  3
ObjectDBX Classes
 90
        0
280
     0
281
     0
  0
CLASS
  1
SOLID_BACKGROUND
  2
AcDbSolidBackground
  3
SCENEOE
 90
    36863
280
     0
281
     0
  0
ENDSEC
  0
SECTION
  2
TABLES
  0
TABLE
  2
VPORT
  5
28
102
{ACAD_XDICTIONARY
360
2C
102
}
330
0
100
AcDbSymbolTable
 70
     1
  0
VPORT
  5
29
330
28
100
AcDbSymbolTableRecord
100
AcDbViewportTableRecord
  2
*ACTIVE
 70
     0
 10
0.0
 20
0.0
 11
1.0
 21
1.0
 12
-23.53108010444702
 22
72.19002688220917
 13
0.0
 23
0.0
 14
1.0
 24
1.0
 15
0.0
 25
0.0
 16
0.0
 26
0.0
 36
1.0
 17
0.0
 27
0.0
 37
0.0
 40
201.7931064548231
 41
1.141762452107279
 42
50.0
 43
0.0
 44
0.0
 50
0.0
 51
0.0
 71
     0
 72
   100
 73
     1
 74
     1
 75
     0
 76
     0
 77
     0
 78
     0
281
     0
 65
     1
110
0.0
120
0.0
130
0.0
111
1.0
121
0.0
131
0.0
112
0.0
122
1.0
132
0.0
 79
     0
146
0.0
  0
ENDTAB
  0
TABLE
  2
LTYPE
  5
23
330
0
100
AcDbSymbolTable
 70
     3
  0
LTYPE
  5
24
330
23
100
AcDbSymbolTableRecord
100
AcDbLinetypeTableRecord
  2
ByBlock
 70
     0
  3

 72
    65
 73
     0
 40
0.0
  0
LTYPE
  5
25
330
23
100
AcDbSymbolTableRecord
100
AcDbLinetypeTableRecord
  2
ByLayer
 70
     0
  3

 72
    65
 73
     0
 40
0.0
  0
LTYPE
  5
13
330
23
100
AcDbSymbolTableRecord
100
AcDbLinetypeTableRecord
  2
CONTINUOUS
 70
     0
  3
Solid line
 72
    65
 73
     0
 40
0.0
  0
LTYPE
  5
77
330
23
100
AcDbSymbolTableRecord
100
AcDbLinetypeTableRecord
  2
DASHDOT
 70
     0
  3
Dash dot __ . __ . __ . __ . __ . __ . __ . __
 72
    65
 73
     4
 40
1.0
 49
0.5
 74
     0
 49
-0.25
 74
     0
 49
0.0
 74
     0
 49
-0.25
 74
     0
  0
LTYPE
  5
83
330
23
100
AcDbSymbolTableRecord
100
AcDbLinetypeTableRecord
  2
DASHED
 70
     0
  3
Dashed __ __ __ __ __ __ __ __ __ __ __ __ __ _
 72
    65
 73
     2
 40
0.75
 49
0.5
 74
     0
 49
-0.25
 74
     0
  0
ENDTAB
  0
TABLE
  2
LAYER
  5
1B
102
{ACAD_XDICTIONARY
360
1C
102
}
330
0
100
AcDbSymbolTable
 70
     7
  0
LAYER
  5
6
330
1B
100
AcDbSymbolTableRecord
100
AcDbLayerTableRecord
  2
0
 70
     0
 62
     7
  6
CONTINUOUS
370
    -3
390
7
  0
LAYER
  5
95
330
1B
100
AcDbSymbolTableRecord
100
AcDbLayerTableRecord
  2
GEB-KONTUR-A
 70
     0
 62
     5
  6
CONTINUOUS
370
    -3
390
7
  0
LAYER
  5
76
330
1B
100
AcDbSymbolTableRecord
100
AcDbLayerTableRecord
  2
GEB-SYMMETRIE
 70
     0
 62
     3
  6
DASHDOT
370
    -3
390
7
1001
AcAecLayerStandard
1000

1000

  0
LAYER
  5
82
330
1B
100
AcDbSymbolTableRecord
100
AcDbLayerTableRecord
  2
GEB-VERDECKT
 70
     0
 62
     2
  6
DASHED
370
    -3
390
7
1001
AcAecLayerStandard
1000

1000

  0
LAYER
  5
173
330
1B
100
AcDbSymbolTableRecord
100
AcDbLayerTableRecord
  2
GEB-ART-NR
 70
     0
 62
     1
  6
CONTINUOUS
370
    18
390
7
  0
LAYER
  5
72
330
1B
100
AcDbSymbolTableRecord
100
AcDbLayerTableRecord
  2
GEB-BEZUG
 70
     0
 62
     2
  6
CONTINUOUS
370
    25
390
7
  0
LAYER
  5
170
330
1B
100
AcDbSymbolTableRecord
100
AcDbLayerTableRecord
  2
GEB-TEXT
 70
     0
 62
     5
  6
CONTINUOUS
370
    18
390
7
  0
ENDTAB
  0
TABLE
  2
STYLE
  5
20
330
0
100
AcDbSymbolTable
 70
     1
  0
STYLE
  5
21
330
20
100
AcDbSymbolTableRecord
100
AcDbTextStyleTableRecord
  2
STANDARD
 70
     0
 40
0.0
 41
1.0
 50
0.0
 71
     0
 42
0.2
  3
ARIAL.TTF
  4

1001
ACAD
1000
Arial
1071
       34
  0
ENDTAB
  0
TABLE
  2
VIEW
  5
26
330
0
100
AcDbSymbolTable
 70
     0
  0
ENDTAB
  0
TABLE
  2
UCS
  5
27
330
0
100
AcDbSymbolTable
 70
     0
  0
ENDTAB
  0
TABLE
  2
APPID
  5
2D
330
0
100
AcDbSymbolTable
 70
     3
  0
APPID
  5
1F
330
2D
100
AcDbSymbolTableRecord
100
AcDbRegAppTableRecord
  2
ACAD
 70
     0
  0
APPID
  5
78
330
2D
100
AcDbSymbolTableRecord
100
AcDbRegAppTableRecord
  2
AcAecLayerStandard
 70
     0
  0
APPID
  5
1DE
330
2D
100
AcDbSymbolTableRecord
100
AcDbRegAppTableRecord
  2
ACAD_MLEADERVER
 70
     0
  0
ENDTAB
  0
TABLE
  2
DIMSTYLE
  5
2E
330
0
100
AcDbSymbolTable
 70
     1
100
AcDbDimStyleTable
 71
     1
340
2F
  0
DIMSTYLE
105
2F
330
2E
100
AcDbSymbolTableRecord
100
AcDbDimStyleTableRecord
  2
STANDARD
 70
     0
279
     2
340
21
  0
ENDTAB
  0
TABLE
  2
BLOCK_RECORD
  5
1
330
0
100
AcDbSymbolTable
 70
     1
  0
BLOCK_RECORD
  5
2
102
{ACAD_XDICTIONARY
360
3
102
}
330
1
100
AcDbSymbolTableRecord
100
AcDbBlockTableRecord
  2
*Model_Space
340
15
  0
BLOCK_RECORD
  5
17
330
1
100
AcDbSymbolTableRecord
100
AcDbBlockTableRecord
  2
*Paper_Space
340
1A
  0
BLOCK_RECORD
  5
6F
330
1
100
AcDbSymbolTableRecord
100
AcDbBlockTableRecord
  2
Einfügepunkt
340
0
102
{BLKREFS
331
6E
102
}
  0
ENDTAB
  0
ENDSEC
  0
SECTION
  2
BLOCKS
  0
BLOCK
  5
5
330
2
100
AcDbEntity
  8
0
100
AcDbBlockBegin
  2
*Model_Space
 70
     0
 10
0.0
 20
0.0
 30
0.0
  3
*Model_Space
  1

  0
ENDBLK
  5
14
330
2
100
AcDbEntity
  8
0
100
AcDbBlockEnd
  0
BLOCK
  5
18
330
17
100
AcDbEntity
 67
     1
  8
0
100
AcDbBlockBegin
  2
*Paper_Space
 70
     0
 10
0.0
 20
0.0
 30
0.0
  3
*Paper_Space
  1

  0
ENDBLK
  5
19
330
17
100
AcDbEntity
 67
     1
  8
0
100
AcDbBlockEnd
  0
BLOCK
  5
70
330
6F
100
AcDbEntity
  8
0
100
AcDbBlockBegin
  2
Einfügepunkt
 70
     0
 10
0.0
 20
0.0
 30
0.0
  3
Einfügepunkt
  1

  0
LINE
  5
71
330
6F
100
AcDbEntity
  8
GEB-BEZUG
100
AcDbLine
 10
-0.7071067811865817
 20
-0.7071067811865106
 30
0.0
 11
0.7071067811864751
 21
0.7071067811865817
 31
0.0
  0
LINE
  5
73
330
6F
100
AcDbEntity
  8
GEB-BEZUG
100
AcDbLine
 10
-0.7071067811865106
 20
0.7071067811865817
 30
0.0
 11
0.7071067811865462
 21
-0.7071067811865106
 31
0.0
  0
ENDBLK
  5
74
330
6F
100
AcDbEntity
  8
0
100
AcDbBlockEnd
  0
ENDSEC
  0
SECTION
  2
ENTITIES
  0
INSERT
  5
6E
330
2
100
AcDbEntity
  8
0
 48
25.0
100
AcDbBlockReference
  2
Einfügepunkt
 10
0.0
 20
0.0
 30
0.0
  0
LINE
  5
75
330
2
100
AcDbEntity
  8
GEB-SYMMETRIE
 48
25.0
100
AcDbLine
 10
-0.00000000000054
 20
99.1538475772934
 30
0.0
 11
-0.0000000000006253
 21
109.3499999999999
 31
0.0
  0
LINE
  5
79
330
2
100
AcDbEntity
  8
GEB-SYMMETRIE
 48
25.0
100
AcDbLine
 10
-0.0000000000006253
 20
104.3499999999999
 30
0.0
 11
-0.0000000000010516
 21
147.6499999999998
 31
0.0
  0
LINE
  5
7A
330
2
100
AcDbEntity
  8
GEB-SYMMETRIE
 48
25.0
100
AcDbLine
 10
-0.0000000000010232
 20
142.6499999999998
 30
0.0
 11
-0.0000000000011369
 21
156.3499999999999
 31
0.0
  0
LINE
  5
7B
330
2
100
AcDbEntity
  8
GEB-SYMMETRIE
 48
25.0
100
AcDbLine
 10
-0.0000000000011084
 20
151.3499999999999
 30
0.0
 11
-0.0000000000011937
 21
162.2500000000002
 31
0.0
  0
LINE
  5
7C
330
2
100
AcDbEntity
  8
GEB-SYMMETRIE
 48
25.0
100
AcDbLine
 10
-32.79609152666831
 20
98.1441280640953
 30
0.0
 11
-41.67789146899758
 21
98.53191582430236
 31
0.0
  0
LINE
  5
7D
330
2
100
AcDbEntity
  8
GEB-SYMMETRIE
 48
25.0
100
AcDbLine
 10
-37.77754773258829
 20
80.26940335477638
 30
0.0
 11
-46.96901436705101
 21
80.67071145474903
 31
0.0
  0
LINE
  5
7E
330
2
100
AcDbEntity
  8
GEB-SYMMETRIE
 48
25.0
100
AcDbLine
 10
-41.97377325914175
 20
80.45261451792248
 30
0.0
 11
-77.73969959177231
 21
82.01418858560122
 31
0.0
  0
LINE
  5
7F
330
2
100
AcDbEntity
  8
GEB-SYMMETRIE
 48
25.0
100
AcDbLine
 10
-72.74445848386301
 20
81.79609164877456
 30
0.0
 11
-86.43141911953444
 21
82.39367725567991
 31
0.0
  0
LINE
  5
80
330
2
100
AcDbEntity
  8
GEB-SYMMETRIE
 48
25.0
100
AcDbLine
 10
-81.43617801162514
 20
82.17558031885301
 30
0.0
 11
-91.92618433823463
 21
82.63358388618916
 31
0.0
  0
LINE
  5
81
330
2
100
AcDbEntity
  8
GEB-VERDECKT
 48
25.0
100
AcDbLine
 10
35.09999999999954
 20
97.65000000000009
 30
0.0
 11
35.09999999999951
 21
101.6538475772934
 31
0.0
  0
LINE
  5
84
330
2
100
AcDbEntity
  8
GEB-VERDECKT
 48
25.0
100
AcDbLine
 10
-35.10000000000059
 20
97.64999999999965
 30
0.0
 11
-35.10000000000065
 21
101.653847577293
 31
0.0
  0
LINE
  5
85
330
2
100
AcDbEntity
  8
GEB-VERDECKT
 48
25.0
100
AcDbLine
 10
35.09999999999951
 20
101.6538475772934
 30
0.0
 11
38.09999999999944
 21
106.8499999999999
 31
0.0
  0
LINE
  5
86
330
2
100
AcDbEntity
  8
GEB-VERDECKT
 48
25.0
100
AcDbLine
 10
-35.10000000000065
 20
101.653847577293
 30
0.0
 11
-38.10000000000068
 21
106.8499999999997
 31
0.0
  0
LINE
  5
87
330
2
100
AcDbEntity
  8
GEB-VERDECKT
 48
25.0
100
AcDbLine
 10
38.09999999999944
 20
106.8499999999999
 30
0.0
 11
38.09999999999903
 21
145.1499999999998
 31
0.0
  0
LINE
  5
88
330
2
100
AcDbEntity
  8
GEB-VERDECKT
 48
25.0
100
AcDbLine
 10
-38.10000000000071
 20
106.8499999999997
 30
0.0
 11
-38.1000000000011
 21
145.1499999999994
 31
0.0
  0
LINE
  5
89
330
2
100
AcDbEntity
  8
GEB-VERDECKT
 48
25.0
100
AcDbLine
 10
42.29999999999903
 20
145.1499999999998
 30
0.0
 11
42.29999999999892
 21
153.8499999999999
 31
0.0
  0
LINE
  5
8A
330
2
100
AcDbEntity
  8
GEB-VERDECKT
 48
25.0
100
AcDbLine
 10
-42.30000000000112
 20
145.1499999999994
 30
0.0
 11
-42.3000000000012
 21
153.8499999999994
 31
0.0
  0
LINE
  5
8B
330
2
100
AcDbEntity
  8
GEB-VERDECKT
 48
25.0
100
AcDbLine
 10
38.09999999999894
 20
153.8499999999999
 30
0.0
 11
38.09999999999888
 21
159.75
 31
0.0
  0
LINE
  5
8C
330
2
100
AcDbEntity
  8
GEB-VERDECKT
 48
25.0
100
AcDbLine
 10
-38.10000000000122
 20
153.8499999999994
 30
0.0
 11
-38.10000000000125
 21
159.7499999999995
 31
0.0
  0
LINE
  5
8D
330
2
100
AcDbEntity
  8
GEB-VERDECKT
 48
25.0
100
AcDbLine
 10
-39.35000000000065
 20
100.6499999999996
 30
0.0
 11
-39.35000000000065
 21
101.8585408344617
 31
0.0
  0
LINE
  5
8E
330
2
100
AcDbEntity
  8
GEB-VERDECKT
 48
25.0
100
AcDbLine
 10
35.09999999999951
 20
101.6538475772934
 30
0.0
 11
-35.10000000000065
 21
101.653847577293
 31
0.0
  0
LINE
  5
8F
330
2
100
AcDbEntity
  8
GEB-VERDECKT
 48
25.0
100
AcDbLine
 10
38.09999999999944
 20
106.8499999999999
 30
0.0
 11
-38.10000000000068
 21
106.8499999999997
 31
0.0
  0
LINE
  5
90
330
2
100
AcDbEntity
  8
GEB-VERDECKT
 48
25.0
100
AcDbLine
 10
42.29999999999903
 20
145.1499999999998
 30
0.0
 11
-42.30000000000109
 21
145.1499999999994
 31
0.0
  0
LINE
  5
91
330
2
100
AcDbEntity
  8
GEB-VERDECKT
 48
25.0
100
AcDbLine
 10
42.29999999999894
 20
153.8499999999999
 30
0.0
 11
-42.3000000000012
 21
153.8499999999992
 31
0.0
  0
LINE
  5
92
330
2
100
AcDbEntity
  8
GEB-VERDECKT
 48
25.0
100
AcDbLine
 10
-38.71798187689893
 20
100.6499999999997
 30
0.0
 11
-39.35000000000065
 21
100.6499999999997
 31
0.0
  0
LINE
  5
93
330
2
100
AcDbEntity
  8
GEB-VERDECKT
 48
25.0
100
AcDbLine
 10
-11.50000000000059
 20
100.6499999999997
 30
0.0
 11
11.49999999999946
 21
100.6499999999998
 31
0.0
  0
LINE
  5
94
330
2
100
AcDbEntity
  8
GEB-KONTUR-A
 48
25.0
100
AcDbLine
 10
40.59999999999891
 20
156.3499999999999
 30
0.0
 11
40.59999999999887
 21
159.8499999999997
 31
0.0
  0
LINE
  5
96
330
2
100
AcDbEntity
  8
GEB-KONTUR-A
 48
25.0
100
AcDbLine
 10
-40.60000000000124
 20
156.3499999999994
 30
0.0
 11
-40.60000000000127
 21
159.8499999999994
 31
0.0
  0
LINE
  5
97
330
2
100
AcDbEntity
  8
GEB-KONTUR-A
 48
25.0
100
AcDbLine
 10
44.79999999999907
 20
142.6499999999998
 30
0.0
 11
44.79999999999892
 21
156.3499999999999
 31
0.0
  0
LINE
  5
98
330
2
100
AcDbEntity
  8
GEB-KONTUR-A
 48
25.0
100
AcDbLine
 10
-44.80000000000109
 20
142.6499999999994
 30
0.0
 11
-44.80000000000123
 21
156.3499999999992
 31
0.0
  0
LINE
  5
99
330
2
100
AcDbEntity
  8
GEB-KONTUR-A
 48
25.0
100
AcDbLine
 10
-39.35000000000065
 20
101.8585408344617
 30
0.0
 11
-39.35000000000068
 21
103.8499999999995
 31
0.0
  0
ARC
  5
9A
330
2
100
AcDbEntity
  8
GEB-KONTUR-A
 48
25.0
100
AcDbCircle
 10
-40.60000000000099
 20
132.4214285714279
 30
0.0
 40
4.428571428571368
100
AcDbArc
 50
90.00000000000161
 51
121.2844929144176
  0
ARC
  5
9B
330
2
100
AcDbEntity
  8
GEB-KONTUR-A
 48
25.0
100
AcDbCircle
 10
-40.60000000000104
 20
139.2785714285708
 30
0.0
 40
4.428571428571437
100
AcDbArc
 50
238.7155070855838
 51
270.0
  0
ARC
  5
9C
330
2
100
AcDbEntity
  8
GEB-KONTUR-A
 48
25.0
100
AcDbCircle
 10
-42.68333333333436
 20
135.8499999999994
 30
0.0
 40
0.4166666666666677
100
AcDbArc
 50
121.2844929144176
 51
238.7155070855941
  0
ARC
  5
9D
330
2
100
AcDbEntity
  8
GEB-KONTUR-A
 48
25.0
100
AcDbCircle
 10
40.59999999999917
 20
132.4214285714283
 30
0.0
 40
4.42857142857138
100
AcDbArc
 50
58.71550708558374
 51
90.0
  0
ARC
  5
9E
330
2
100
AcDbEntity
  8
GEB-KONTUR-A
 48
25.0
100
AcDbCircle
 10
40.59999999999911
 20
139.2785714285712
 30
0.0
 40
4.428571428571425
100
AcDbArc
 50
270.0000000000017
 51
301.2844929144176
  0
ARC
  5
9F
330
2
100
AcDbEntity
  8
GEB-KONTUR-A
 48
25.0
100
AcDbCircle
 10
42.68333333333248
 20
135.8499999999999
 30
0.0
 40
0.4166666666666675
100
AcDbArc
 50
301.2844929144149
 51
58.71550708558931
  0
ARC
  5
A0
330
2
100
AcDbEntity
  8
GEB-KONTUR-A
 48
25.0
100
AcDbCircle
 10
-40.60000000000087
 20
125.4214285714281
 30
0.0
 40
4.428571428571368
100
AcDbArc
 50
90.00000000000161
 51
121.2844929144176
  0
ARC
  5
A1
330
2
100
AcDbEntity
  8
GEB-KONTUR-A
 48
25.0
100
AcDbCircle
 10
-40.60000000000099
 20
132.2785714285708
 30
0.0
 40
4.428571428571437
100
AcDbArc
 50
238.7155070855838
 51
270.0
  0
ARC
  5
A2
330
2
100
AcDbEntity
  8
GEB-KONTUR-A
 48
25.0
100
AcDbCircle
 10
-42.68333333333427
 20
128.8499999999994
 30
0.0
 40
0.4166666666666675
100
AcDbArc
 50
121.2844929144176
 51
238.7155070855941
  0
ARC
  5
A3
330
2
100
AcDbEntity
  8
GEB-KONTUR-A
 48
25.0
100
AcDbCircle
 10
-40.60000000000082
 20
118.4214285714281
 30
0.0
 40
4.428571428571368
100
AcDbArc
 50
90.00000000000161
 51
121.2844929144176
  0
ARC
  5
A4
330
2
100
AcDbEntity
  8
GEB-KONTUR-A
 48
25.0
100
AcDbCircle
 10
-40.60000000000087
 20
125.278571428571
 30
0.0
 40
4.428571428571437
100
AcDbArc
 50
238.7155070855838
 51
270.0
  0
ARC
  5
A5
330
2
100
AcDbEntity
  8
GEB-KONTUR-A
 48
25.0
100
AcDbCircle
 10
-42.68333333333422
 20
121.8499999999994
 30
0.0
 40
0.4166666666666675
100
AcDbArc
 50
121.2844929144176
 51
238.7155070855941
  0
ARC
  5
A6
330
2
100
AcDbEntity
  8
GEB-KONTUR-A
 48
25.0
100
AcDbCircle
 10
-40.60000000000075
 20
111.4214285714282
 30
0.0
 40
4.428571428571368
100
AcDbArc
 50
90.00000000000161
 51
121.2844929144176
  0
ARC
  5
A7
330
2
100
AcDbEntity
  8
GEB-KONTUR-A
 48
25.0
100
AcDbCircle
 10
-40.60000000000082
 20
118.278571428571
 30
0.0
 40
4.428571428571437
100
AcDbArc
 50
238.7155070855838
 51
270.0
  0
ARC
  5
A8
330
2
100
AcDbEntity
  8
GEB-KONTUR-A
 48
25.0
100
AcDbCircle
 10
-42.68333333333413
 20
114.8499999999994
 30
0.0
 40
0.4166666666666677
100
AcDbArc
 50
121.2844929144148
 51
238.7155070855941
  0
ARC
  5
A9
330
2
100
AcDbEntity
  8
GEB-KONTUR-A
 48
25.0
100
AcDbCircle
 10
40.59999999999925
 20
125.4214285714285
 30
0.0
 40
4.42857142857138
100
AcDbArc
 50
58.71550708558374
 51
90.0
  0
ARC
  5
AA
330
2
100
AcDbEntity
  8
GEB-KONTUR-A
 48
25.0
100
AcDbCircle
 10
40.59999999999917
 20
132.2785714285714
 30
0.0
 40
4.428571428571425
100
AcDbArc
 50
270.0000000000017
 51
301.2844929144176
  0
ARC
  5
AB
330
2
100
AcDbEntity
  8
GEB-KONTUR-A
 48
25.0
100
AcDbCircle
 10
42.68333333333254
 20
128.8499999999999
 30
0.0
 40
0.4166666666666677
100
AcDbArc
 50
301.2844929144149
 51
58.71550708558792
  0
ARC
  5
AC
330
2
100
AcDbEntity
  8
GEB-KONTUR-A
 48
25.0
100
AcDbCircle
 10
40.59999999999933
 20
118.4214285714286
 30
0.0
 40
4.42857142857138
100
AcDbArc
 50
58.71550708558374
 51
90.00000000000161
  0
ARC
  5
AD
330
2
100
AcDbEntity
  8
GEB-KONTUR-A
 48
25.0
100
AcDbCircle
 10
40.59999999999925
 20
125.2785714285714
 30
0.0
 40
4.428571428571425
100
AcDbArc
 50
270.0000000000017
 51
301.2844929144176
  0
ARC
  5
AE
330
2
100
AcDbEntity
  8
GEB-KONTUR-A
 48
25.0
100
AcDbCircle
 10
42.68333333333262
 20
121.8499999999999
 30
0.0
 40
0.4166666666666677
100
AcDbArc
 50
301.2844929144149
 51
58.71550708558792
  0
ARC
  5
AF
330
2
100
AcDbEntity
  8
GEB-KONTUR-A
 48
25.0
100
AcDbCircle
 10
40.5999999999994
 20
111.4214285714286
 30
0.0
 40
4.42857142857138
100
AcDbArc
 50
58.71550708558374
 51
90.00000000000161
  0
ARC
  5
B0
330
2
100
AcDbEntity
  8
GEB-KONTUR-A
 48
25.0
100
AcDbCircle
 10
40.59999999999933
 20
118.2785714285712
 30
0.0
 40
4.428571428571425
100
AcDbArc
 50
270.0000000000017
 51
301.2844929144176
  0
ARC
  5
B1
330
2
100
AcDbEntity
  8
GEB-KONTUR-A
 48
25.0
100
AcDbCircle
 10
42.68333333333271
 20
114.8500000000001
 30
0.0
 40
0.4166666666666675
100
AcDbArc
 50
301.2844929144149
 51
58.71550708559409
  0
LINE
  5
B2
330
2
100
AcDbEntity
  8
GEB-KONTUR-A
 48
25.0
100
AcDbLine
 10
39.34999999999951
 20
100.6500000000001
 30
0.0
 11
39.34999999999948
 21
103.8499999999999
 31
0.0
  0
LINE
  5
B3
330
2
100
AcDbEntity
  8
GEB-KONTUR-A
 48
25.0
100
AcDbLine
 10
40.59999999999911
 20
136.8499999999999
 30
0.0
 11
40.59999999999905
 21
142.6499999999998
 31
0.0
  0
LINE
  5
B4
330
2
100
AcDbEntity
  8
GEB-KONTUR-A
 48
25.0
100
AcDbLine
 10
40.59999999999919
 20
129.8499999999999
 30
0.0
 11
40.59999999999916
 21
134.8499999999999
 31
0.0
  0
LINE
  5
B5
330
2
100
AcDbEntity
  8
GEB-KONTUR-A
 48
25.0
100
AcDbLine
 10
40.59999999999925
 20
122.8499999999999
 30
0.0
 11
40.59999999999923
 21
127.8499999999999
 31
0.0
  0
LINE
  5
B6
330
2
100
AcDbEntity
  8
GEB-KONTUR-A
 48
25.0
100
AcDbLine
 10
40.59999999999935
 20
115.8499999999999
 30
0.0
 11
40.5999999999993
 21
120.8499999999999
 31
0.0
  0
LINE
  5
B7
330
2
100
AcDbEntity
  8
GEB-KONTUR-A
 48
25.0
100
AcDbLine
 10
40.59999999999948
 20
103.8500000000001
 30
0.0
 11
40.59999999999937
 21
113.8499999999999
 31
0.0
  0
LINE
  5
B8
330
2
100
AcDbEntity
  8
GEB-KONTUR-A
 48
25.0
100
AcDbLine
 10
-40.60000000000104
 20
136.8499999999994
 30
0.0
 11
-40.6000000000011
 21
142.6499999999994
 31
0.0
  0
LINE
  5
B9
330
2
100
AcDbEntity
  8
GEB-KONTUR-A
 48
25.0
100
AcDbLine
 10
-40.60000000000096
 20
129.8499999999994
 30
0.0
 11
-40.60000000000099
 21
134.8499999999994
 31
0.0
  0
LINE
  5
BA
330
2
100
AcDbEntity
  8
GEB-KONTUR-A
 48
25.0
100
AcDbLine
 10
-40.60000000000087
 20
122.8499999999994
 30
0.0
 11
-40.60000000000093
 21
127.8499999999994
 31
0.0
  0
LINE
  5
BB
330
2
100
AcDbEntity
  8
GEB-KONTUR-A
 48
25.0
100
AcDbLine
 10
-40.60000000000082
 20
115.8499999999994
 30
0.0
 11
-40.60000000000084
 21
120.8499999999994
 31
0.0
  0
LINE
  5
BC
330
2
100
AcDbEntity
  8
GEB-KONTUR-A
 48
25.0
100
AcDbLine
 10
-40.60000000000067
 20
103.8499999999997
 30
0.0
 11
-40.60000000000079
 21
113.8499999999994
 31
0.0
  0
LINE
  5
BD
330
2
100
AcDbEntity
  8
GEB-KONTUR-A
 48
25.0
100
AcDbLine
 10
40.59999999999888
 20
159.8499999999997
 30
0.0
 11
-40.60000000000124
 21
159.8499999999994
 31
0.0
  0
LINE
  5
BE
330
2
100
AcDbEntity
  8
GEB-KONTUR-A
 48
25.0
100
AcDbLine
 10
44.79999999999892
 20
156.3499999999999
 30
0.0
 11
-44.80000000000123
 21
156.3499999999992
 31
0.0
  0
LINE
  5
BF
330
2
100
AcDbEntity
  8
GEB-KONTUR-A
 48
25.0
100
AcDbLine
 10
-11.50000000000062
 20
100.6499999999997
 30
0.0
 11
-38.71798187689893
 21
100.6499999999997
 31
0.0
  0
LINE
  5
C0
330
2
100
AcDbEntity
  8
GEB-KONTUR-A
 48
25.0
100
AcDbLine
 10
39.34999999999951
 20
100.6500000000001
 30
0.0
 11
11.49999999999943
 21
100.6499999999998
 31
0.0
  0
SPLINE
  5
C1
330
2
100
AcDbEntity
  8
GEB-KONTUR-A
 48
25.0
100
AcDbSpline
210
0.0
220
0.0
230
1.0
 70
     8
 71
     3
 72
    16
 73
    12
 74
     0
 42
0.0000000001
 43
0.0000000001
 40
0.0029989623155395
 40
0.0029989623155395
 40
0.0029989623155395
 40
0.0029989623155395
 40
1.593171455419905
 40
1.593171455419905
 40
3.043278655103499
 40
3.043278655103499
 40
3.502361017653607
 40
3.502361017653607
 40
3.783155273006209
 40
3.783155273006209
 40
3.852716598000005
 40
3.852716598000005
 40
3.852716598000005
 40
3.852716598000005
 10
23.72019124937181
 20
136.2060830860532
 30
0.0
 10
28.01277666564343
 20
136.5506601945196
 30
0.0
 10
31.67037684646246
 20
136.6919529231827
 30
0.0
 10
37.0311038620022
 20
136.83619572169
 30
0.0
 10
38.83282385679307
 20
136.845105687275
 30
0.0
 10
40.09735388406662
 20
136.8496417716405
 30
0.0
 10
40.31608391296333
 20
136.849859206115
 30
0.0
 10
40.52936836604167
 20
136.8500034728417
 30
0.0
 10
40.57792987254891
 20
136.8499994904616
 30
0.0
 10
40.59800707073828
 20
136.850000026614
 30
0.0
 10
40.59999999999914
 20
136.8499999999999
 30
0.0
 10
40.59999999999914
 20
136.8499999999999
 30
0.0
  0
SPLINE
  5
C2
330
2
100
AcDbEntity
  8
GEB-KONTUR-A
 48
25.0
100
AcDbSpline
210
0.0
220
0.0
230
1.0
 70
     8
 71
     3
 72
    28
 73
    24
 74
     0
 42
0.0000000001
 43
0.0000000001
 40
0.000131371382778
 40
0.000131371382778
 40
0.000131371382778
 40
0.000131371382778
 40
0.1699823435974093
 40
0.1699823435974093
 40
0.2359852913257261
 40
0.2359852913257261
 40
0.2509416450210416
 40
0.2509416450210416
 40
0.2577210618604786
 40
0.2577210618604786
 40
0.2621161837137094
 40
0.2621161837137094
 40
0.2660500458191795
 40
0.2660500458191795
 40
0.270876422557421
 40
0.270876422557421
 40
0.2794527665900437
 40
0.2794527665900437
 40
0.3006598919666543
 40
0.3006598919666543
 40
0.3800224291940839
 40
0.3800224291940839
 40
0.5638716632770061
 40
0.5638716632770061
 40
0.5638716632770061
 40
0.5638716632770061
 10
23.72019124937182
 20
135.4939169139463
 30
0.0
 10
23.26179565726135
 20
135.5307135323814
 30
0.0
 10
22.87825443934919
 20
135.5823882212246
 30
0.0
 10
22.50357708467192
 20
135.6698437209127
 30
0.0
 10
22.36021869740634
 20
135.7089440895702
 30
0.0
 10
22.25437096066023
 20
135.7722382743377
 30
0.0
 10
22.23485157003756
 20
135.786297698711
 30
0.0
 10
22.21438889285076
 20
135.8096757447226
 30
0.0
 10
22.20843387470926
 20
135.8181758515486
 30
0.0
 10
22.20204257452326
 20
135.8338257596811
 30
0.0
 10
22.20042601871162
 20
135.840336568707
 30
0.0
 10
22.19975704222176
 20
135.8532909983762
 30
0.0
 10
22.20047411403093
 20
135.8592661861701
 30
0.0
 10
22.20404950649262
 20
135.8722323090669
 30
0.0
 10
22.20727094177711
 20
135.8788329159047
 30
0.0
 10
22.21786497316444
 20
135.8954380609991
 30
0.0
 10
22.22697678926842
 20
135.9048109803989
 30
0.0
 10
22.25836881720069
 20
135.9319491696399
 30
0.0
 10
22.28819993177471
 20
135.9486104573141
 30
0.0
 10
22.42497942021109
 20
136.0129360895689
 30
0.0
 10
22.58433210666868
 20
136.0508161673858
 30
0.0
 10
22.95987587581274
 20
136.1282708213334
 30
0.0
 10
23.31023872624539
 20
136.1731751200307
 30
0.0
 10
23.72019124937181
 20
136.2060830860532
 30
0.0
  0
SPLINE
  5
C3
330
2
100
AcDbEntity
  8
GEB-KONTUR-A
 48
25.0
100
AcDbSpline
210
0.0
220
0.0
230
1.0
 70
     8
 71
     3
 72
    18
 73
    14
 74
     0
 42
0.0000000001
 43
0.0000000001
 40
3.852716598000137
 40
3.852716598000137
 40
3.852716598000137
 40
3.852716598000137
 40
4.038372487232973
 40
4.038372487232973
 40
4.368138376595207
 40
4.368138376595207
 40
5.010916804788372
 40
5.010916804788372
 40
5.870434557512496
 40
5.870434557512496
 40
6.913880305412786
 40
6.913880305412786
 40
7.695197836018963
 40
7.695197836018963
 40
7.695197836018963
 40
7.695197836018963
 10
40.59999999999916
 20
134.8499999999999
 30
0.0
 10
40.59999999999916
 20
134.8499999999999
 30
0.0
 10
40.58580374851837
 20
134.84999865136
 30
0.0
 10
40.50699928552545
 20
134.8500136352977
 30
0.0
 10
40.41185077811564
 20
134.8500355902347
 30
0.0
 10
40.00001946068445
 20
134.850637398232
 30
0.0
 10
39.55943108283425
 20
134.8516031164201
 30
0.0
 10
38.14582096929873
 20
134.861905599384
 30
0.0
 10
37.04733651816736
 20
134.8737853935649
 30
0.0
 10
34.01499121077279
 20
134.9393585428695
 30
0.0
 10
31.9654414681077
 20
135.0007588747307
 30
0.0
 10
27.79516782021658
 20
135.205924452332
 30
0.0
 10
25.83178760950351
 20
135.3244135267186
 30
0.0
 10
23.72019124937182
 20
135.4939169139463
 30
0.0
  0
SPLINE
  5
C4
330
2
100
AcDbEntity
  8
GEB-KONTUR-A
 48
25.0
100
AcDbSpline
210
0.0
220
0.0
230
1.0
 70
     8
 71
     3
 72
    16
 73
    12
 74
     0
 42
0.0000000001
 43
0.0000000001
 40
0.0029989623155395
 40
0.0029989623155395
 40
0.0029989623155395
 40
0.0029989623155395
 40
1.593171455419905
 40
1.593171455419905
 40
3.043278655103499
 40
3.043278655103499
 40
3.502361017653607
 40
3.502361017653607
 40
3.783155273006209
 40
3.783155273006209
 40
3.852716598000005
 40
3.852716598000005
 40
3.852716598000005
 40
3.852716598000005
 10
23.72019124937189
 20
129.2060830860532
 30
0.0
 10
28.0127766656435
 20
129.5506601945194
 30
0.0
 10
31.67037684646253
 20
129.6919529231827
 30
0.0
 10
37.03110386200228
 20
129.83619572169
 30
0.0
 10
38.83282385679314
 20
129.845105687275
 30
0.0
 10
40.0973538840667
 20
129.8496417716405
 30
0.0
 10
40.31608391296339
 20
129.8498592061153
 30
0.0
 10
40.52936836604174
 20
129.8500034728415
 30
0.0
 10
40.57792987254898
 20
129.8499994904616
 30
0.0
 10
40.59800707073836
 20
129.850000026614
 30
0.0
 10
40.59999999999921
 20
129.8499999999999
 30
0.0
 10
40.59999999999921
 20
129.8499999999999
 30
0.0
  0
SPLINE
  5
C5
330
2
100
AcDbEntity
  8
GEB-KONTUR-A
 48
25.0
100
AcDbSpline
210
0.0
220
0.0
230
1.0
 70
     8
 71
     3
 72
    28
 73
    24
 74
     0
 42
0.0000000001
 43
0.0000000001
 40
0.0001313713827781
 40
0.0001313713827781
 40
0.0001313713827781
 40
0.0001313713827781
 40
0.1699823435973194
 40
0.1699823435973194
 40
0.2359852913255852
 40
0.2359852913255852
 40
0.250941645021387
 40
0.250941645021387
 40
0.2577210618614909
 40
0.2577210618614909
 40
0.2621161837148943
 40
0.2621161837148943
 40
0.2660500458204216
 40
0.2660500458204216
 40
0.2708764225588008
 40
0.2708764225588008
 40
0.2794527665918141
 40
0.2794527665918141
 40
0.3006598919693166
 40
0.3006598919693166
 40
0.3800224291978393
 40
0.3800224291978393
 40
0.56387166328299
 40
0.56387166328299
 40
0.56387166328299
 40
0.56387166328299
 10
23.72019124937189
 20
128.4939169139463
 30
0.0
 10
23.26179565726164
 20
128.5307135323815
 30
0.0
 10
22.87825443934939
 20
128.5823882212248
 30
0.0
 10
22.50357708467197
 20
128.6698437209127
 30
0.0
 10
22.36021869740639
 20
128.7089440895702
 30
0.0
 10
22.25437096065964
 20
128.7722382743382
 30
0.0
 10
22.23485157003734
 20
128.7862976987112
 30
0.0
 10
22.21438889285052
 20
128.8096757447229
 30
0.0
 10
22.20843387470933
 20
128.8181758515488
 30
0.0
 10
22.20204257452357
 20
128.8338257596806
 30
0.0
 10
22.20042601871165
 20
128.8403365687068
 30
0.0
 10
22.19975704222179
 20
128.8532909983764
 30
0.0
 10
22.200474114031
 20
128.8592661861701
 30
0.0
 10
22.20404950649271
 20
128.8722323090669
 30
0.0
 10
22.20727094177724
 20
128.8788329159047
 30
0.0
 10
22.21786497316455
 20
128.8954380609993
 30
0.0
 10
22.22697678926866
 20
128.9048109803989
 30
0.0
 10
22.25836881720045
 20
128.9319491696396
 30
0.0
 10
22.28819993177403
 20
128.9486104573136
 30
0.0
 10
22.42497942021123
 20
129.0129360895689
 30
0.0
 10
22.58433210666868
 20
129.0508161673858
 30
0.0
 10
22.95987587581284
 20
129.1282708213334
 30
0.0
 10
23.31023872624542
 20
129.1731751200307
 30
0.0
 10
23.72019124937189
 20
129.2060830860532
 30
0.0
  0
SPLINE
  5
C6
330
2
100
AcDbEntity
  8
GEB-KONTUR-A
 48
25.0
100
AcDbSpline
210
0.0
220
0.0
230
1.0
 70
     8
 71
     3
 72
    18
 73
    14
 74
     0
 42
0.0000000001
 43
0.0000000001
 40
3.852716598000137
 40
3.852716598000137
 40
3.852716598000137
 40
3.852716598000137
 40
4.038372487232973
 40
4.038372487232973
 40
4.368138376595207
 40
4.368138376595207
 40
5.010916804788372
 40
5.010916804788372
 40
5.870434557512496
 40
5.870434557512496
 40
6.913880305412786
 40
6.913880305412786
 40
7.695197836018963
 40
7.695197836018963
 40
7.695197836018963
 40
7.695197836018963
 10
40.59999999999923
 20
127.8499999999999
 30
0.0
 10
40.59999999999923
 20
127.8499999999999
 30
0.0
 10
40.58580374851845
 20
127.8499986513602
 30
0.0
 10
40.50699928552552
 20
127.8500136352977
 30
0.0
 10
40.4118507781157
 20
127.8500355902347
 30
0.0
 10
40.00001946068453
 20
127.8506373982322
 30
0.0
 10
39.55943108283432
 20
127.8516031164201
 30
0.0
 10
38.1458209692988
 20
127.861905599384
 30
0.0
 10
37.04733651816743
 20
127.8737853935649
 30
0.0
 10
34.01499121077286
 20
127.9393585428697
 30
0.0
 10
31.96544146810777
 20
128.0007588747307
 30
0.0
 10
27.79516782021665
 20
128.205924452332
 30
0.0
 10
25.83178760950359
 20
128.3244135267187
 30
0.0
 10
23.72019124937189
 20
128.4939169139463
 30
0.0
  0
SPLINE
  5
C7
330
2
100
AcDbEntity
  8
GEB-KONTUR-A
 48
25.0
100
AcDbSpline
210
0.0
220
0.0
230
1.0
 70
     8
 71
     3
 72
    16
 73
    12
 74
     0
 42
0.0000000001
 43
0.0000000001
 40
0.0029989623155394
 40
0.0029989623155394
 40
0.0029989623155394
 40
0.0029989623155394
 40
1.593171455419909
 40
1.593171455419909
 40
3.043278655103514
 40
3.043278655103514
 40
3.502361017653661
 40
3.502361017653661
 40
3.783155273006291
 40
3.783155273006291
 40
3.852716598000075
 40
3.852716598000075
 40
3.852716598000075
 40
3.852716598000075
 10
23.72019124937196
 20
122.2060830860532
 30
0.0
 10
28.01277666564359
 20
122.5506601945196
 30
0.0
 10
31.6703768464626
 20
122.6919529231827
 30
0.0
 10
37.03110386200235
 20
122.8361957216902
 30
0.0
 10
38.83282385679322
 20
122.845105687275
 30
0.0
 10
40.09735388406681
 20
122.8496417716408
 30
0.0
 10
40.31608391296351
 20
122.8498592061153
 30
0.0
 10
40.52936836604181
 20
122.8500034728417
 30
0.0
 10
40.57792987254905
 20
122.8499994904616
 30
0.0
 10
40.59800707073842
 20
122.850000026614
 30
0.0
 10
40.59999999999928
 20
122.8499999999999
 30
0.0
 10
40.59999999999928
 20
122.8499999999999
 30
0.0
  0
SPLINE
  5
C8
330
2
100
AcDbEntity
  8
GEB-KONTUR-A
 48
25.0
100
AcDbSpline
210
0.0
220
0.0
230
1.0
 70
     8
 71
     3
 72
    28
 73
    24
 74
     0
 42
0.0000000001
 43
0.0000000001
 40
0.0001313713827864
 40
0.0001313713827864
 40
0.0001313713827864
 40
0.0001313713827864
 40
0.1699823435973689
 40
0.1699823435973689
 40
0.235985291325556
 40
0.235985291325556
 40
0.25094164502052
 40
0.25094164502052
 40
0.2577210618596857
 40
0.2577210618596857
 40
0.2621161837128967
 40
0.2621161837128967
 40
0.2660500458183976
 40
0.2660500458183976
 40
0.2708764225566737
 40
0.2708764225566737
 40
0.2794527665894336
 40
0.2794527665894336
 40
0.3006598919665349
 40
0.3006598919665349
 40
0.3800224291978983
 40
0.3800224291978983
 40
0.5638716632899971
 40
0.5638716632899971
 40
0.5638716632899971
 40
0.5638716632899971
 10
23.72019124937196
 20
121.4939169139465
 30
0.0
 10
23.26179565726163
 20
121.5307135323817
 30
0.0
 10
22.87825443934943
 20
121.5823882212248
 30
0.0
 10
22.50357708467226
 20
121.6698437209127
 30
0.0
 10
22.36021869740652
 20
121.7089440895702
 30
0.0
 10
22.25437096066074
 20
121.7722382743375
 30
0.0
 10
22.23485157003786
 20
121.7862976987107
 30
0.0
 10
22.21438889285094
 20
121.8096757447226
 30
0.0
 10
22.20843387470939
 20
121.8181758515488
 30
0.0
 10
22.20204257452329
 20
121.8338257596813
 30
0.0
 10
22.20042601871178
 20
121.8403365687072
 30
0.0
 10
22.19975704222192
 20
121.8532909983764
 30
0.0
 10
22.20047411403108
 20
121.8592661861701
 30
0.0
 10
22.20404950649281
 20
121.8722323090669
 30
0.0
 10
22.20727094177735
 20
121.8788329159049
 30
0.0
 10
22.21786497316464
 20
121.8954380609993
 30
0.0
 10
22.22697678926853
 20
121.9048109803987
 30
0.0
 10
22.25836881720121
 20
121.9319491696401
 30
0.0
 10
22.28819993177566
 20
121.9486104573145
 30
0.0
 10
22.42497942021131
 20
122.0129360895692
 30
0.0
 10
22.58433210666887
 20
122.050816167386
 30
0.0
 10
22.95987587581362
 20
122.1282708213339
 30
0.0
 10
23.31023872624647
 20
122.1731751200309
 30
0.0
 10
23.72019124937196
 20
122.2060830860532
 30
0.0
  0
SPLINE
  5
C9
330
2
100
AcDbEntity
  8
GEB-KONTUR-A
 48
25.0
100
AcDbSpline
210
0.0
220
0.0
230
1.0
 70
     8
 71
     3
 72
    18
 73
    14
 74
     0
 42
0.0000000001
 43
0.0000000001
 40
3.852716598000064
 40
3.852716598000064
 40
3.852716598000064
 40
3.852716598000064
 40
4.038372487233065
 40
4.038372487233065
 40
4.368138376595619
 40
4.368138376595619
 40
5.010916804789375
 40
5.010916804789375
 40
5.870434557514304
 40
5.870434557514304
 40
6.913880305415636
 40
6.913880305415636
 40
7.695197836022617
 40
7.695197836022617
 40
7.695197836022617
 40
7.695197836022617
 10
40.5999999999993
 20
120.8499999999999
 30
0.0
 10
40.5999999999993
 20
120.8499999999999
 30
0.0
 10
40.58580374851849
 20
120.8499986513602
 30
0.0
 10
40.5069992855256
 20
120.8500136352977
 30
0.0
 10
40.41185077811578
 20
120.8500355902347
 30
0.0
 10
40.00001946068464
 20
120.8506373982322
 30
0.0
 10
39.55943108283448
 20
120.8516031164204
 30
0.0
 10
38.14582096929905
 20
120.8619055993843
 30
0.0
 10
37.04733651816776
 20
120.8737853935652
 30
0.0
 10
34.01499121077335
 20
120.9393585428695
 30
0.0
 10
31.9654414681082
 20
121.0007588747307
 30
0.0
 10
27.79516782021679
 20
121.205924452332
 30
0.0
 10
25.83178760950368
 20
121.3244135267189
 30
0.0
 10
23.72019124937196
 20
121.4939169139465
 30
0.0
  0
SPLINE
  5
CA
330
2
100
AcDbEntity
  8
GEB-KONTUR-A
 48
25.0
100
AcDbSpline
210
0.0
220
0.0
230
1.0
 70
     8
 71
     3
 72
    16
 73
    12
 74
     0
 42
0.0000000001
 43
0.0000000001
 40
0.0029989623155396
 40
0.0029989623155396
 40
0.0029989623155396
 40
0.0029989623155396
 40
1.593171455419905
 40
1.593171455419905
 40
3.0432786551035
 40
3.0432786551035
 40
3.502361017653608
 40
3.502361017653608
 40
3.78315527300621
 40
3.78315527300621
 40
3.852716598000007
 40
3.852716598000007
 40
3.852716598000007
 40
3.852716598000007
 10
23.72019124937204
 20
115.2060830860532
 30
0.0
 10
28.01277666564366
 20
115.5506601945196
 30
0.0
 10
31.67037684646269
 20
115.6919529231829
 30
0.0
 10
37.03110386200243
 20
115.8361957216903
 30
0.0
 10
38.8328238567933
 20
115.8451056872752
 30
0.0
 10
40.09735388406684
 20
115.8496417716408
 30
0.0
 10
40.31608391296353
 20
115.8498592061153
 30
0.0
 10
40.52936836604188
 20
115.8500034728417
 30
0.0
 10
40.57792987254912
 20
115.8499994904616
 30
0.0
 10
40.5980070707385
 20
115.850000026614
 30
0.0
 10
40.59999999999935
 20
115.8499999999999
 30
0.0
 10
40.59999999999935
 20
115.8499999999999
 30
0.0
  0
SPLINE
  5
CB
330
2
100
AcDbEntity
  8
GEB-KONTUR-A
 48
25.0
100
AcDbSpline
210
0.0
220
0.0
230
1.0
 70
     8
 71
     3
 72
    28
 73
    24
 74
     0
 42
0.0000000001
 43
0.0000000001
 40
0.000131371382778
 40
0.000131371382778
 40
0.000131371382778
 40
0.000131371382778
 40
0.169982343597392
 40
0.169982343597392
 40
0.2359852913257936
 40
0.2359852913257936
 40
0.2509416450213089
 40
0.2509416450213089
 40
0.2577210618608663
 40
0.2577210618608663
 40
0.2621161837141739
 40
0.2621161837141739
 40
0.2660500458197111
 40
0.2660500458197111
 40
0.2708764225580294
 40
0.2708764225580294
 40
0.2794527665908004
 40
0.2794527665908004
 40
0.3006598919678226
 40
0.3006598919678226
 40
0.3800224291952978
 40
0.3800224291952978
 40
0.5638716632781922
 40
0.5638716632781922
 40
0.5638716632781922
 40
0.5638716632781922
 10
23.72019124937205
 20
114.4939169139463
 30
0.0
 10
23.26179565726162
 20
114.5307135323817
 30
0.0
 10
22.87825443934943
 20
114.5823882212248
 30
0.0
 10
22.50357708467203
 20
114.6698437209129
 30
0.0
 10
22.36021869740654
 20
114.7089440895702
 30
0.0
 10
22.25437096066023
 20
114.7722382743379
 30
0.0
 10
22.23485157003771
 20
114.7862976987112
 30
0.0
 10
22.21438889285102
 20
114.8096757447226
 30
0.0
 10
22.20843387470949
 20
114.8181758515488
 30
0.0
 10
22.20204257452349
 20
114.8338257596811
 30
0.0
 10
22.20042601871184
 20
114.8403365687072
 30
0.0
 10
22.19975704222199
 20
114.8532909983764
 30
0.0
 10
22.20047411403115
 20
114.8592661861703
 30
0.0
 10
22.20404950649287
 20
114.8722323090669
 30
0.0
 10
22.20727094177732
 20
114.8788329159047
 30
0.0
 10
22.21786497316471
 20
114.8954380609993
 30
0.0
 10
22.22697678926881
 20
114.9048109803989
 30
0.0
 10
22.25836881720073
 20
114.9319491696396
 30
0.0
 10
22.28819993177446
 20
114.9486104573138
 30
0.0
 10
22.42497942021137
 20
115.0129360895689
 30
0.0
 10
22.58433210666871
 20
115.0508161673861
 30
0.0
 10
22.95987587581345
 20
115.1282708213337
 30
0.0
 10
23.31023872624633
 20
115.1731751200309
 30
0.0
 10
23.72019124937204
 20
115.2060830860532
 30
0.0
  0
SPLINE
  5
CC
330
2
100
AcDbEntity
  8
GEB-KONTUR-A
 48
25.0
100
AcDbSpline
210
0.0
220
0.0
230
1.0
 70
     8
 71
     3
 72
    18
 73
    14
 74
     0
 42
0.0000000001
 43
0.0000000001
 40
3.852716598000137
 40
3.852716598000137
 40
3.852716598000137
 40
3.852716598000137
 40
4.038372487232973
 40
4.038372487232973
 40
4.368138376595207
 40
4.368138376595207
 40
5.010916804788372
 40
5.010916804788372
 40
5.870434557512497
 40
5.870434557512497
 40
6.913880305412788
 40
6.913880305412788
 40
7.695197836018965
 40
7.695197836018965
 40
7.695197836018965
 40
7.695197836018965
 10
40.59999999999937
 20
113.8499999999999
 30
0.0
 10
40.59999999999937
 20
113.8499999999999
 30
0.0
 10
40.58580374851859
 20
113.8499986513602
 30
0.0
 10
40.50699928552567
 20
113.8500136352977
 30
0.0
 10
40.41185077811585
 20
113.8500355902347
 30
0.0
 10
40.00001946068468
 20
113.8506373982322
 30
0.0
 10
39.55943108283448
 20
113.8516031164204
 30
0.0
 10
38.14582096929895
 20
113.8619055993842
 30
0.0
 10
37.04733651816758
 20
113.8737853935652
 30
0.0
 10
34.01499121077302
 20
113.9393585428697
 30
0.0
 10
31.96544146810793
 20
114.0007588747307
 30
0.0
 10
27.7951678202168
 20
114.205924452332
 30
0.0
 10
25.83178760950374
 20
114.3244135267186
 30
0.0
 10
23.72019124937205
 20
114.4939169139463
 30
0.0
  0
LINE
  5
CD
330
2
100
AcDbEntity
  8
GEB-KONTUR-A
 48
25.0
100
AcDbLine
 10
40.59999999999948
 20
103.8500000000001
 30
0.0
 11
11.49999999999943
 21
103.8499999999998
 31
0.0
  0
LINE
  5
CE
330
2
100
AcDbEntity
  8
GEB-KONTUR-A
 48
25.0
100
AcDbLine
 10
-11.50000000000062
 20
103.8499999999998
 30
0.0
 11
-40.60000000000067
 21
103.8499999999995
 31
0.0
  0
SPLINE
  5
CF
330
2
100
AcDbEntity
  8
GEB-KONTUR-A
 48
25.0
100
AcDbSpline
210
0.0
220
0.0
230
1.0
 70
     8
 71
     3
 72
    28
 73
    24
 74
     0
 42
0.0000000001
 43
0.0000000001
 40
0.000131371382778
 40
0.000131371382778
 40
0.000131371382778
 40
0.000131371382778
 40
0.1699823435973507
 40
0.1699823435973507
 40
0.2359852913250708
 40
0.2359852913250708
 40
0.2509416450211804
 40
0.2509416450211804
 40
0.2577210618612661
 40
0.2577210618612661
 40
0.2621161837149482
 40
0.2621161837149482
 40
0.2660500458207986
 40
0.2660500458207986
 40
0.2708764225594155
 40
0.2708764225594155
 40
0.2794527665927058
 40
0.2794527665927058
 40
0.3006598919705631
 40
0.3006598919705631
 40
0.3800224291993486
 40
0.3800224291993486
 40
0.5638716632853738
 40
0.5638716632853738
 40
0.5638716632853738
 40
0.5638716632853738
 10
-23.72019124937347
 20
115.206083086053
 30
0.0
 10
-23.26179565726315
 20
115.1692864676179
 30
0.0
 10
-22.87825443935094
 20
115.1176117787747
 30
0.0
 10
-22.50357708467442
 20
115.0301562790869
 30
0.0
 10
-22.36021869740824
 20
114.9910559104294
 30
0.0
 10
-22.25437096066059
 20
114.9277617256609
 30
0.0
 10
-22.23485157003864
 20
114.9137023012879
 30
0.0
 10
-22.21438889285241
 20
114.8903242552767
 30
0.0
 10
-22.20843387471089
 20
114.8818241484507
 30
0.0
 10
-22.20204257452488
 20
114.8661742403183
 30
0.0
 10
-22.20042601871325
 20
114.8596634312923
 30
0.0
 10
-22.19975704222341
 20
114.8467090016231
 30
0.0
 10
-22.20047411403252
 20
114.8407338138295
 30
0.0
 10
-22.20404950649424
 20
114.8277676909324
 30
0.0
 10
-22.20727094177872
 20
114.8211670840949
 30
0.0
 10
-22.21786497316609
 20
114.8045619390002
 30
0.0
 10
-22.22697678927011
 20
114.7951890196007
 30
0.0
 10
-22.25836881720181
 20
114.7680508303601
 30
0.0
 10
-22.28819993177518
 20
114.7513895426859
 30
0.0
 10
-22.42497942021277
 20
114.6870639104304
 30
0.0
 10
-22.58433210667022
 20
114.6491838326135
 30
0.0
 10
-22.95987587581476
 20
114.5717291786657
 30
0.0
 10
-23.31023872624758
 20
114.5268248799687
 30
0.0
 10
-23.72019124937347
 20
114.4939169139463
 30
0.0
  0
SPLINE
  5
D0
330
2
100
AcDbEntity
  8
GEB-KONTUR-A
 48
25.0
100
AcDbSpline
210
0.0
220
0.0
230
1.0
 70
     8
 71
     3
 72
    18
 73
    14
 74
     0
 42
0.0000000001
 43
0.0000000001
 40
3.852716598000057
 40
3.852716598000057
 40
3.852716598000057
 40
3.852716598000057
 40
4.038372487232973
 40
4.038372487232973
 40
4.368138376595388
 40
4.368138376595388
 40
5.010916804788964
 40
5.010916804788964
 40
5.870434557513595
 40
5.870434557513595
 40
6.913880305414467
 40
6.913880305414467
 40
7.695197836021181
 40
7.695197836021181
 40
7.695197836021181
 40
7.695197836021181
 10
-40.60000000000082
 20
115.8499999999994
 30
0.0
 10
-40.60000000000082
 20
115.8499999999994
 30
0.0
 10
-40.58580374851999
 20
115.8500013486391
 30
0.0
 10
-40.50699928552709
 20
115.8499863647018
 30
0.0
 10
-40.41185077811727
 20
115.8499644097646
 30
0.0
 10
-40.00001946068607
 20
115.8493626017673
 30
0.0
 10
-39.55943108283586
 20
115.8483968835792
 30
0.0
 10
-38.14582096930045
 20
115.8380944006153
 30
0.0
 10
-37.04733651816912
 20
115.8262146064344
 30
0.0
 10
-34.01499121077461
 20
115.7606414571298
 30
0.0
 10
-31.96544146810959
 20
115.6992411252686
 30
0.0
 10
-27.79516782021838
 20
115.4940755476675
 30
0.0
 10
-25.83178760950523
 20
115.3755864732807
 30
0.0
 10
-23.72019124937347
 20
115.206083086053
 30
0.0
  0
SPLINE
  5
D1
330
2
100
AcDbEntity
  8
GEB-KONTUR-A
 48
25.0
100
AcDbSpline
210
0.0
220
0.0
230
1.0
 70
     8
 71
     3
 72
    16
 73
    12
 74
     0
 42
0.0000000001
 43
0.0000000001
 40
0.0029989623155932
 40
0.0029989623155932
 40
0.0029989623155932
 40
0.0029989623155932
 40
1.593171455419905
 40
1.593171455419905
 40
3.043278655103556
 40
3.043278655103556
 40
3.50236101765371
 40
3.50236101765371
 40
3.783155273006349
 40
3.783155273006349
 40
3.852716598000161
 40
3.852716598000161
 40
3.852716598000161
 40
3.852716598000161
 10
-23.72019124937347
 20
114.4939169139463
 30
0.0
 10
-28.01277666564488
 20
114.1493398054799
 30
0.0
 10
-31.67037684646383
 20
114.0080470768166
 30
0.0
 10
-37.03110386200359
 20
113.8638042783093
 30
0.0
 10
-38.83282385679456
 20
113.8548943127243
 30
0.0
 10
-40.09735388406824
 20
113.8503582283588
 30
0.0
 10
-40.31608391296495
 20
113.8501407938843
 30
0.0
 10
-40.52936836604334
 20
113.8499965271576
 30
0.0
 10
-40.57792987255055
 20
113.8500005095379
 30
0.0
 10
-40.59800707073995
 20
113.8499999733853
 30
0.0
 10
-40.60000000000079
 20
113.8499999999994
 30
0.0
 10
-40.60000000000079
 20
113.8499999999994
 30
0.0
  0
SPLINE
  5
D2
330
2
100
AcDbEntity
  8
GEB-KONTUR-A
 48
25.0
100
AcDbSpline
210
0.0
220
0.0
230
1.0
 70
     8
 71
     3
 72
    28
 73
    24
 74
     0
 42
0.0000000001
 43
0.0000000001
 40
0.000131371382778
 40
0.000131371382778
 40
0.000131371382778
 40
0.000131371382778
 40
0.1699823435974038
 40
0.1699823435974038
 40
0.2359852913253754
 40
0.2359852913253754
 40
0.2509416450220895
 40
0.2509416450220895
 40
0.2577210618626646
 40
0.2577210618626646
 40
0.2621161837166742
 40
0.2621161837166742
 40
0.2660500458228199
 40
0.2660500458228199
 40
0.2708764225618075
 40
0.2708764225618075
 40
0.2794527665957558
 40
0.2794527665957558
 40
0.3006598919750579
 40
0.3006598919750579
 40
0.3800224292087483
 40
0.3800224292087483
 40
0.5638716633062723
 40
0.5638716633062723
 40
0.5638716633062723
 40
0.5638716633062723
 10
-23.72019124937356
 20
122.206083086053
 30
0.0
 10
-23.26179565726306
 20
122.1692864676179
 30
0.0
 10
-22.87825443935094
 20
122.1176117787747
 30
0.0
 10
-22.50357708467419
 20
122.0301562790869
 30
0.0
 10
-22.36021869740824
 20
121.9910559104292
 30
0.0
 10
-22.25437096065997
 20
121.9277617256605
 30
0.0
 10
-22.23485157003842
 20
121.9137023012874
 30
0.0
 10
-22.21438889285241
 20
121.8903242552767
 30
0.0
 10
-22.20843387471098
 20
121.8818241484507
 30
0.0
 10
-22.202042574525
 20
121.8661742403183
 30
0.0
 10
-22.20042601871336
 20
121.8596634312923
 30
0.0
 10
-22.19975704222347
 20
121.8467090016231
 30
0.0
 10
-22.20047411403263
 20
121.8407338138292
 30
0.0
 10
-22.20404950649433
 20
121.8277676909324
 30
0.0
 10
-22.20727094177883
 20
121.8211670840946
 30
0.0
 10
-22.21786497316617
 20
121.8045619390002
 30
0.0
 10
-22.22697678927014
 20
121.7951890196004
 30
0.0
 10
-22.25836881720178
 20
121.7680508303601
 30
0.0
 10
-22.28819993177507
 20
121.7513895426859
 30
0.0
 10
-22.42497942021279
 20
121.6870639104304
 30
0.0
 10
-22.58433210667027
 20
121.6491838326135
 30
0.0
 10
-22.95987587581473
 20
121.5717291786659
 30
0.0
 10
-23.31023872624758
 20
121.5268248799686
 30
0.0
 10
-23.72019124937356
 20
121.4939169139461
 30
0.0
  0
SPLINE
  5
D3
330
2
100
AcDbEntity
  8
GEB-KONTUR-A
 48
25.0
100
AcDbSpline
210
0.0
220
0.0
230
1.0
 70
     8
 71
     3
 72
    18
 73
    14
 74
     0
 42
0.0000000001
 43
0.0000000001
 40
3.852716598000055
 40
3.852716598000055
 40
3.852716598000055
 40
3.852716598000055
 40
4.038372487232971
 40
4.038372487232971
 40
4.368138376595386
 40
4.368138376595386
 40
5.010916804788961
 40
5.010916804788961
 40
5.870434557513592
 40
5.870434557513592
 40
6.913880305414465
 40
6.913880305414465
 40
7.695197836021178
 40
7.695197836021178
 40
7.695197836021178
 40
7.695197836021178
 10
-40.60000000000087
 20
122.8499999999994
 30
0.0
 10
-40.60000000000087
 20
122.8499999999994
 30
0.0
 10
-40.58580374852008
 20
122.8500013486393
 30
0.0
 10
-40.50699928552714
 20
122.8499863647016
 30
0.0
 10
-40.41185077811735
 20
122.8499644097646
 30
0.0
 10
-40.00001946068616
 20
122.8493626017673
 30
0.0
 10
-39.55943108283597
 20
122.8483968835792
 30
0.0
 10
-38.1458209693005
 20
122.8380944006153
 30
0.0
 10
-37.0473365181692
 20
122.8262146064344
 30
0.0
 10
-34.01499121077473
 20
122.7606414571298
 30
0.0
 10
-31.9654414681097
 20
122.6992411252686
 30
0.0
 10
-27.79516782021847
 20
122.4940755476673
 30
0.0
 10
-25.83178760950529
 20
122.3755864732807
 30
0.0
 10
-23.72019124937356
 20
122.206083086053
 30
0.0
  0
SPLINE
  5
D4
330
2
100
AcDbEntity
  8
GEB-KONTUR-A
 48
25.0
100
AcDbSpline
210
0.0
220
0.0
230
1.0
 70
     8
 71
     3
 72
    16
 73
    12
 74
     0
 42
0.0000000001
 43
0.0000000001
 40
0.0029989623155932
 40
0.0029989623155932
 40
0.0029989623155932
 40
0.0029989623155932
 40
1.593171455419905
 40
1.593171455419905
 40
3.043278655103556
 40
3.043278655103556
 40
3.50236101765371
 40
3.50236101765371
 40
3.78315527300635
 40
3.78315527300635
 40
3.852716598000162
 40
3.852716598000162
 40
3.852716598000162
 40
3.852716598000162
 10
-23.72019124937356
 20
121.4939169139461
 30
0.0
 10
-28.01277666564499
 20
121.1493398054799
 30
0.0
 10
-31.67037684646391
 20
121.0080470768166
 30
0.0
 10
-37.03110386200365
 20
120.8638042783093
 30
0.0
 10
-38.83282385679468
 20
120.8548943127243
 30
0.0
 10
-40.09735388406832
 20
120.8503582283588
 30
0.0
 10
-40.31608391296503
 20
120.8501407938843
 30
0.0
 10
-40.5293683660434
 20
120.8499965271576
 30
0.0
 10
-40.57792987255064
 20
120.8500005095377
 30
0.0
 10
-40.59800707074001
 20
120.8499999733853
 30
0.0
 10
-40.60000000000084
 20
120.8499999999994
 30
0.0
 10
-40.60000000000084
 20
120.8499999999994
 30
0.0
  0
SPLINE
  5
D5
330
2
100
AcDbEntity
  8
GEB-KONTUR-A
 48
25.0
100
AcDbSpline
210
0.0
220
0.0
230
1.0
 70
     8
 71
     3
 72
    28
 73
    24
 74
     0
 42
0.0000000001
 43
0.0000000001
 40
0.0001313713827781
 40
0.0001313713827781
 40
0.0001313713827781
 40
0.0001313713827781
 40
0.1699823435975302
 40
0.1699823435975302
 40
0.2359852913256318
 40
0.2359852913256318
 40
0.2509416450236358
 40
0.2509416450236358
 40
0.257721061865188
 40
0.257721061865188
 40
0.2621161837198194
 40
0.2621161837198194
 40
0.2660500458265647
 40
0.2660500458265647
 40
0.2708764225664946
 40
0.2708764225664946
 40
0.279452766602463
 40
0.279452766602463
 40
0.3006598919874288
 40
0.3006598919874288
 40
0.3800224292458948
 40
0.3800224292458948
 40
0.5638716634004349
 40
0.5638716634004349
 40
0.5638716634004349
 40
0.5638716634004349
 10
-23.72019124937361
 20
129.206083086053
 30
0.0
 10
-23.26179565726278
 20
129.1692864676176
 30
0.0
 10
-22.87825443935077
 20
129.1176117787745
 30
0.0
 10
-22.50357708467425
 20
129.0301562790869
 30
0.0
 10
-22.3602186974083
 20
128.9910559104294
 30
0.0
 10
-22.2543709606584
 20
128.9277617256596
 30
0.0
 10
-22.23485157003773
 20
128.9137023012865
 30
0.0
 10
-22.21438889285241
 20
128.8903242552767
 30
0.0
 10
-22.208433874711
 20
128.8818241484507
 30
0.0
 10
-22.20204257452505
 20
128.8661742403183
 30
0.0
 10
-22.20042601871339
 20
128.8596634312923
 30
0.0
 10
-22.19975704222355
 20
128.8467090016229
 30
0.0
 10
-22.20047411403271
 20
128.8407338138292
 30
0.0
 10
-22.20404950649447
 20
128.8277676909324
 30
0.0
 10
-22.20727094177911
 20
128.8211670840944
 30
0.0
 10
-22.21786497316629
 20
128.804561939
 30
0.0
 10
-22.22697678927034
 20
128.7951890196007
 30
0.0
 10
-22.25836881720252
 20
128.7680508303594
 30
0.0
 10
-22.28819993177655
 20
128.7513895426853
 30
0.0
 10
-22.42497942021296
 20
128.6870639104304
 30
0.0
 10
-22.58433210667022
 20
128.6491838326135
 30
0.0
 10
-22.9598758758149
 20
128.5717291786657
 30
0.0
 10
-23.31023872624769
 20
128.5268248799686
 30
0.0
 10
-23.72019124937361
 20
128.4939169139461
 30
0.0
  0
SPLINE
  5
D6
330
2
100
AcDbEntity
  8
GEB-KONTUR-A
 48
25.0
100
AcDbSpline
210
0.0
220
0.0
230
1.0
 70
     8
 71
     3
 72
    18
 73
    14
 74
     0
 42
0.0000000001
 43
0.0000000001
 40
3.852716598000055
 40
3.852716598000055
 40
3.852716598000055
 40
3.852716598000055
 40
4.038372487232971
 40
4.038372487232971
 40
4.368138376595386
 40
4.368138376595386
 40
5.010916804788961
 40
5.010916804788961
 40
5.870434557513592
 40
5.870434557513592
 40
6.913880305414465
 40
6.913880305414465
 40
7.695197836021178
 40
7.695197836021178
 40
7.695197836021178
 40
7.695197836021178
 10
-40.60000000000096
 20
129.8499999999994
 30
0.0
 10
-40.60000000000096
 20
129.8499999999994
 30
0.0
 10
-40.58580374852016
 20
129.8500013486391
 30
0.0
 10
-40.50699928552723
 20
129.8499863647016
 30
0.0
 10
-40.41185077811741
 20
129.8499644097646
 30
0.0
 10
-40.00001946068624
 20
129.8493626017671
 30
0.0
 10
-39.55943108283603
 20
129.8483968835792
 30
0.0
 10
-38.14582096930059
 20
129.8380944006151
 30
0.0
 10
-37.04733651816929
 20
129.8262146064344
 30
0.0
 10
-34.01499121077478
 20
129.7606414571296
 30
0.0
 10
-31.96544146810976
 20
129.6992411252686
 30
0.0
 10
-27.79516782021853
 20
129.4940755476673
 30
0.0
 10
-25.8317876095054
 20
129.3755864732807
 30
0.0
 10
-23.72019124937361
 20
129.206083086053
 30
0.0
  0
SPLINE
  5
D7
330
2
100
AcDbEntity
  8
GEB-KONTUR-A
 48
25.0
100
AcDbSpline
210
0.0
220
0.0
230
1.0
 70
     8
 71
     3
 72
    16
 73
    12
 74
     0
 42
0.0000000001
 43
0.0000000001
 40
0.0029989623155932
 40
0.0029989623155932
 40
0.0029989623155932
 40
0.0029989623155932
 40
1.593171455419905
 40
1.593171455419905
 40
3.043278655103556
 40
3.043278655103556
 40
3.50236101765371
 40
3.50236101765371
 40
3.78315527300635
 40
3.78315527300635
 40
3.852716598000162
 40
3.852716598000162
 40
3.852716598000162
 40
3.852716598000162
 10
-23.72019124937361
 20
128.4939169139461
 30
0.0
 10
-28.01277666564508
 20
128.1493398054799
 30
0.0
 10
-31.67037684646397
 20
128.0080470768166
 30
0.0
 10
-37.03110386200374
 20
127.8638042783093
 30
0.0
 10
-38.83282385679473
 20
127.8548943127243
 30
0.0
 10
-40.0973538840684
 20
127.8503582283588
 30
0.0
 10
-40.3160839129651
 20
127.850140793884
 30
0.0
 10
-40.52936836604345
 20
127.8499965271576
 30
0.0
 10
-40.57792987255072
 20
127.8500005095377
 30
0.0
 10
-40.5980070707401
 20
127.8499999733853
 30
0.0
 10
-40.60000000000093
 20
127.8499999999994
 30
0.0
 10
-40.60000000000093
 20
127.8499999999994
 30
0.0
  0
SPLINE
  5
D8
330
2
100
AcDbEntity
  8
GEB-KONTUR-A
 48
25.0
100
AcDbSpline
210
0.0
220
0.0
230
1.0
 70
     8
 71
     3
 72
    28
 73
    24
 74
     0
 42
0.0000000001
 43
0.0000000001
 40
0.000131371382778
 40
0.000131371382778
 40
0.000131371382778
 40
0.000131371382778
 40
0.1699823435976068
 40
0.1699823435976068
 40
0.2359852913261083
 40
0.2359852913261083
 40
0.2509416450231195
 40
0.2509416450231195
 40
0.2577210618638121
 40
0.2577210618638121
 40
0.2621161837178669
 40
0.2621161837178669
 40
0.2660500458240963
 40
0.2660500458240963
 40
0.2708764225633938
 40
0.2708764225633938
 40
0.2794527665982388
 40
0.2794527665982388
 40
0.3006598919804268
 40
0.3006598919804268
 40
0.3800224292284974
 40
0.3800224292284974
 40
0.563871663358956
 40
0.563871663358956
 40
0.563871663358956
 40
0.563871663358956
 10
-23.72019124937367
 20
136.2060830860528
 30
0.0
 10
-23.2617956572627
 20
136.1692864676177
 30
0.0
 10
-22.87825443935083
 20
136.1176117787745
 30
0.0
 10
-22.50357708467382
 20
136.0301562790867
 30
0.0
 10
-22.36021869740822
 20
135.9910559104291
 30
0.0
 10
-22.25437096065994
 20
135.9277617256603
 30
0.0
 10
-22.23485157003847
 20
135.9137023012874
 30
0.0
 10
-22.21438889285261
 20
135.8903242552767
 30
0.0
 10
-22.20843387471112
 20
135.8818241484507
 30
0.0
 10
-22.20204257452514
 20
135.8661742403183
 30
0.0
 10
-22.20042601871347
 20
135.8596634312921
 30
0.0
 10
-22.19975704222361
 20
135.8467090016229
 30
0.0
 10
-22.2004741140328
 20
135.840733813829
 30
0.0
 10
-22.20404950649453
 20
135.8277676909324
 30
0.0
 10
-22.2072709417792
 20
135.8211670840944
 30
0.0
 10
-22.21786497316637
 20
135.804561939
 30
0.0
 10
-22.22697678927042
 20
135.7951890196004
 30
0.0
 10
-22.25836881720261
 20
135.7680508303594
 30
0.0
 10
-22.2881999317766
 20
135.7513895426853
 30
0.0
 10
-22.42497942021305
 20
135.6870639104304
 30
0.0
 10
-22.5843321066703
 20
135.6491838326133
 30
0.0
 10
-22.95987587581499
 20
135.5717291786657
 30
0.0
 10
-23.31023872624777
 20
135.5268248799684
 30
0.0
 10
-23.72019124937367
 20
135.4939169139461
 30
0.0
  0
SPLINE
  5
D9
330
2
100
AcDbEntity
  8
GEB-KONTUR-A
 48
25.0
100
AcDbSpline
210
0.0
220
0.0
230
1.0
 70
     8
 71
     3
 72
    18
 73
    14
 74
     0
 42
0.0000000001
 43
0.0000000001
 40
3.852716598000055
 40
3.852716598000055
 40
3.852716598000055
 40
3.852716598000055
 40
4.038372487232971
 40
4.038372487232971
 40
4.368138376595386
 40
4.368138376595386
 40
5.010916804788961
 40
5.010916804788961
 40
5.870434557513592
 40
5.870434557513592
 40
6.913880305414465
 40
6.913880305414465
 40
7.695197836021178
 40
7.695197836021178
 40
7.695197836021178
 40
7.695197836021178
 10
-40.60000000000104
 20
136.8499999999994
 30
0.0
 10
-40.60000000000104
 20
136.8499999999994
 30
0.0
 10
-40.58580374852022
 20
136.8500013486391
 30
0.0
 10
-40.50699928552728
 20
136.8499863647016
 30
0.0
 10
-40.41185077811746
 20
136.8499644097646
 30
0.0
 10
-40.0000194606863
 20
136.8493626017671
 30
0.0
 10
-39.55943108283611
 20
136.8483968835789
 30
0.0
 10
-38.1458209693007
 20
136.8380944006151
 30
0.0
 10
-37.04733651816935
 20
136.8262146064342
 30
0.0
 10
-34.01499121077487
 20
136.7606414571298
 30
0.0
 10
-31.96544146810984
 20
136.6992411252686
 30
0.0
 10
-27.79516782021858
 20
136.4940755476673
 30
0.0
 10
-25.83178760950545
 20
136.3755864732804
 30
0.0
 10
-23.72019124937367
 20
136.2060830860528
 30
0.0
  0
SPLINE
  5
DA
330
2
100
AcDbEntity
  8
GEB-KONTUR-A
 48
25.0
100
AcDbSpline
210
0.0
220
0.0
230
1.0
 70
     8
 71
     3
 72
    16
 73
    12
 74
     0
 42
0.0000000001
 43
0.0000000001
 40
0.0029989623155932
 40
0.0029989623155932
 40
0.0029989623155932
 40
0.0029989623155932
 40
1.593171455419905
 40
1.593171455419905
 40
3.043278655103556
 40
3.043278655103556
 40
3.50236101765371
 40
3.50236101765371
 40
3.78315527300635
 40
3.78315527300635
 40
3.852716598000162
 40
3.852716598000162
 40
3.852716598000162
 40
3.852716598000162
 10
-23.72019124937367
 20
135.4939169139461
 30
0.0
 10
-28.01277666564514
 20
135.1493398054799
 30
0.0
 10
-31.67037684646402
 20
135.0080470768166
 30
0.0
 10
-37.03110386200382
 20
134.8638042783093
 30
0.0
 10
-38.83282385679479
 20
134.8548943127243
 30
0.0
 10
-40.09735388406847
 20
134.8503582283586
 30
0.0
 10
-40.31608391296515
 20
134.850140793884
 30
0.0
 10
-40.52936836604354
 20
134.8499965271576
 30
0.0
 10
-40.57792987255078
 20
134.8500005095377
 30
0.0
 10
-40.59800707074015
 20
134.8499999733853
 30
0.0
 10
-40.60000000000099
 20
134.8499999999994
 30
0.0
 10
-40.60000000000099
 20
134.8499999999994
 30
0.0
  0
LINE
  5
DB
330
2
100
AcDbEntity
  8
GEB-KONTUR-A
 48
25.0
100
AcDbLine
 10
44.79999999999907
 20
142.6499999999998
 30
0.0
 11
-44.80000000000109
 21
142.6499999999994
 31
0.0
  0
LINE
  5
DC
330
2
100
AcDbEntity
  8
GEB-KONTUR-A
 48
25.0
100
AcDbLine
 10
11.499999999999
 20
142.6499999999996
 30
0.0
 11
11.4999999999996
 21
85.56000000000006
 31
0.0
  0
LINE
  5
DD
330
2
100
AcDbEntity
  8
GEB-KONTUR-A
 48
25.0
100
AcDbLine
 10
11.4999999999996
 20
85.56000000000006
 30
0.0
 11
-11.50000000000042
 21
85.55999999999995
 31
0.0
  0
LINE
  5
DE
330
2
100
AcDbEntity
  8
GEB-KONTUR-A
 48
25.0
100
AcDbLine
 10
-11.50000000000042
 20
85.55999999999995
 30
0.0
 11
-11.50000000000102
 21
142.6499999999994
 31
0.0
  0
LINE
  5
DF
330
2
100
AcDbEntity
  8
GEB-VERDECKT
 48
25.0
100
AcDbLine
 10
-37.60000000000065
 20
100.355776608014
 30
0.0
 11
-37.60000000000059
 21
97.64999999999965
 31
0.0
  0
LINE
  5
E0
330
2
100
AcDbEntity
  8
GEB-VERDECKT
 48
25.0
100
AcDbLine
 10
11.49999999999946
 20
97.65000000000009
 30
0.0
 11
-11.50000000000059
 21
97.64999999999986
 31
0.0
  0
LINE
  5
E1
330
2
100
AcDbEntity
  8
GEB-VERDECKT
 48
25.0
100
AcDbLine
 10
-36.25703318075134
 20
97.64999999999965
 30
0.0
 11
-37.60000000000059
 21
97.64999999999965
 31
0.0
  0
LINE
  5
E2
330
2
100
AcDbEntity
  8
GEB-KONTUR-A
 48
25.0
100
AcDbLine
 10
-37.60000000000065
 20
100.6499999999996
 30
0.0
 11
-37.60000000000065
 21
100.355776608014
 31
0.0
  0
LINE
  5
E3
330
2
100
AcDbEntity
  8
GEB-KONTUR-A
 48
25.0
100
AcDbLine
 10
37.59999999999951
 20
100.6500000000001
 30
0.0
 11
37.59999999999954
 21
97.65000000000009
 31
0.0
  0
LINE
  5
E4
330
2
100
AcDbEntity
  8
GEB-KONTUR-A
 48
25.0
100
AcDbLine
 10
-11.50000000000057
 20
97.64999999999975
 30
0.0
 11
-36.25703318075131
 21
97.64999999999975
 31
0.0
  0
LINE
  5
E5
330
2
100
AcDbEntity
  8
GEB-KONTUR-A
 48
25.0
100
AcDbLine
 10
37.59999999999954
 20
97.65000000000009
 30
0.0
 11
11.49999999999949
 21
97.64999999999986
 31
0.0
  0
LINE
  5
E6
330
2
100
AcDbEntity
  8
GEB-VERDECKT
 48
25.0
100
AcDbLine
 10
38.09999999999916
 20
159.7499999999997
 30
0.0
 11
38.19999999999888
 21
159.8499999999994
 31
0.0
  0
LINE
  5
E7
330
2
100
AcDbEntity
  8
GEB-VERDECKT
 48
25.0
100
AcDbLine
 10
-38.10000000000096
 20
159.7499999999997
 30
0.0
 11
-38.20000000000039
 21
159.8499999999992
 31
0.0
  0
LINE
  5
E8
330
2
100
AcDbEntity
  8
GEB-VERDECKT
 48
25.0
100
AcDbLine
 10
38.09999999999887
 20
159.7499999999997
 30
0.0
 11
-38.10000000000125
 21
159.7499999999995
 31
0.0
  0
LINE
  5
E9
330
2
100
AcDbEntity
  8
GEB-VERDECKT
 48
25.0
100
AcDbLine
 10
-35.49077796949669
 20
98.26178061503208
 30
0.0
 11
-39.48674785991455
 21
98.43624842828171
 31
0.0
  0
LINE
  5
EA
330
2
100
AcDbEntity
  8
GEB-VERDECKT
 48
25.0
100
AcDbLine
 10
-37.06761882275362
 20
62.14618740484787
 30
0.0
 11
-41.06358871317143
 21
62.32065521809762
 31
0.0
  0
LINE
  5
EB
330
2
100
AcDbEntity
  8
GEB-VERDECKT
 48
25.0
100
AcDbLine
 10
-39.48674785991455
 20
98.43624842828171
 30
0.0
 11
-43.57719637210709
 21
101.0421515287638
 31
0.0
  0
LINE
  5
EC
330
2
100
AcDbEntity
  8
GEB-VERDECKT
 48
25.0
100
AcDbLine
 10
-41.06358871317143
 20
62.3206552180975
 30
0.0
 11
-45.36559125408584
 21
60.08117444390769
 31
0.0
  0
LINE
  5
ED
330
2
100
AcDbEntity
  8
GEB-VERDECKT
 48
25.0
100
AcDbLine
 10
-43.57719637210709
 20
101.0421515287638
 30
0.0
 11
-74.3478815968287
 21
102.3856286596161
 31
0.0
  0
LINE
  5
EE
330
2
100
AcDbEntity
  8
GEB-VERDECKT
 48
25.0
100
AcDbLine
 10
-45.36559125408584
 20
60.08117444390769
 30
0.0
 11
-76.13627647880747
 21
61.42465157475999
 31
0.0
  0
LINE
  5
EF
330
2
100
AcDbEntity
  8
GEB-VERDECKT
 48
25.0
100
AcDbLine
 10
-74.15813726178948
 20
106.7314884234972
 30
0.0
 11
-82.84985678955171
 21
107.1109770935757
 31
0.0
  0
LINE
  5
F0
330
2
100
AcDbEntity
  8
GEB-VERDECKT
 48
25.0
100
AcDbLine
 10
-76.32602081384667
 20
57.07879181087901
 30
0.0
 11
-85.01774034160888
 21
57.45828048095734
 31
0.0
  0
LINE
  5
F1
330
2
100
AcDbEntity
  8
GEB-VERDECKT
 48
25.0
100
AcDbLine
 10
-83.03960112459092
 20
102.7651173296946
 30
0.0
 11
-88.53436634329119
 21
103.0050239602039
 31
0.0
  0
LINE
  5
F2
330
2
100
AcDbEntity
  8
GEB-VERDECKT
 48
25.0
100
AcDbLine
 10
-84.82799600656969
 20
61.80414024483844
 30
0.0
 11
-90.32276122526999
 21
62.04404687534782
 31
0.0
  0
LINE
  5
F3
330
2
100
AcDbEntity
  8
GEB-VERDECKT
 48
25.0
100
AcDbLine
 10
-38.33852623251602
 20
101.8143789360461
 30
0.0
 11
-39.35000000000059
 21
101.8585408344615
 31
0.0
  0
LINE
  5
F4
330
2
100
AcDbEntity
  8
GEB-VERDECKT
 48
25.0
100
AcDbLine
 10
-39.48674785991452
 20
98.43624842828171
 30
0.0
 11
-41.06358871317143
 21
62.32065521809762
 31
0.0
  0
LINE
  5
F5
330
2
100
AcDbEntity
  8
GEB-VERDECKT
 48
25.0
100
AcDbLine
 10
-43.57719637210712
 20
101.0421515287638
 30
0.0
 11
-45.36559125408584
 21
60.08117444390769
 31
0.0
  0
LINE
  5
F6
330
2
100
AcDbEntity
  8
GEB-VERDECKT
 48
25.0
100
AcDbLine
 10
-74.15813726178948
 20
106.7314884234972
 30
0.0
 11
-76.32602081384664
 21
57.07879181087901
 31
0.0
  0
LINE
  5
F7
330
2
100
AcDbEntity
  8
GEB-VERDECKT
 48
25.0
100
AcDbLine
 10
-82.84985678955171
 20
107.1109770935757
 30
0.0
 11
-85.01774034160893
 21
57.45828048095734
 31
0.0
  0
LINE
  5
F8
330
2
100
AcDbEntity
  8
GEB-VERDECKT
 48
25.0
100
AcDbLine
 10
-38.33852623251602
 20
101.8143789360461
 30
0.0
 11
-38.38936411476661
 21
100.6499999999996
 31
0.0
  0
LINE
  5
F9
330
2
100
AcDbEntity
  8
GEB-VERDECKT
 48
25.0
100
AcDbLine
 10
-39.62529815979343
 20
72.34245639938115
 30
0.0
 11
-38.92738796194803
 21
88.32722794469077
 31
0.0
  0
LINE
  5
FA
330
2
100
AcDbEntity
  8
GEB-KONTUR-A
 48
25.0
100
AcDbLine
 10
-84.95045879302404
 20
104.8504525475889
 30
0.0
 11
-88.44712756856058
 21
105.0031204033677
 31
0.0
  0
LINE
  5
FB
330
2
100
AcDbEntity
  8
GEB-KONTUR-A
 48
25.0
100
AcDbLine
 10
-86.91333122446414
 20
59.89328257640545
 30
0.0
 11
-90.41000000000066
 21
60.0459504321841
 31
0.0
  0
LINE
  5
FC
330
2
100
AcDbEntity
  8
GEB-KONTUR-A
 48
25.0
100
AcDbLine
 10
-72.07280204389508
 20
108.6423460919302
 30
0.0
 11
-84.7607144579848
 21
109.1963123114701
 31
0.0
  0
LINE
  5
FD
330
2
100
AcDbEntity
  8
GEB-KONTUR-A
 48
25.0
100
AcDbLine
 10
-74.41516314541357
 20
54.99345659298445
 30
0.0
 11
-87.10307555950334
 21
55.54742281252424
 31
0.0
  0
LINE
  5
FE
330
2
100
AcDbEntity
  8
GEB-KONTUR-A
 48
25.0
100
AcDbLine
 10
-39.35000000000059
 20
101.8585408344615
 30
0.0
 11
-40.83614678647069
 21
101.9234274044593
 31
0.0
  0
ARC
  5
FF
330
2
100
AcDbEntity
  8
GEB-KONTUR-A
 48
25.0
100
AcDbCircle
 10
-64.22734425392576
 20
103.9456618268109
 30
0.0
 40
3.542857142857203
100
AcDbArc
 50
146.215507085583
 51
177.5000000000014
  0
ARC
  5
100
330
2
100
AcDbEntity
  8
GEB-KONTUR-A
 48
25.0
100
AcDbCircle
 10
-69.70783735517492
 20
104.184945323215
 30
0.0
 40
3.542857142857173
100
AcDbArc
 50
357.5000000000014
 51
28.78449291441574
  0
ARC
  5
101
330
2
100
AcDbEntity
  8
GEB-KONTUR-A
 48
25.0
100
AcDbCircle
 10
-66.89489182560814
 20
105.7303839443161
 30
0.0
 40
0.3333333333333361
100
AcDbArc
 50
28.78449291442301
 51
146.2155070855902
  0
ARC
  5
102
330
2
100
AcDbEntity
  8
GEB-KONTUR-A
 48
25.0
100
AcDbCircle
 10
-66.19021668536589
 20
58.98849185562733
 30
0.0
 40
3.542857142857194
100
AcDbArc
 50
177.5000000000014
 51
208.7844929144158
  0
ARC
  5
103
330
2
100
AcDbEntity
  8
GEB-KONTUR-A
 48
25.0
100
AcDbCircle
 10
-71.67070978661502
 20
59.22777535203147
 30
0.0
 40
3.542857142857183
100
AcDbArc
 50
326.215507085583
 51
357.5000000000014
  0
ARC
  5
104
330
2
100
AcDbEntity
  8
GEB-KONTUR-A
 48
25.0
100
AcDbCircle
 10
-69.00316221493267
 20
57.44305323452625
 30
0.0
 40
0.3333333333333361
100
AcDbArc
 50
208.784492914423
 51
326.2155070855838
  0
ARC
  5
105
330
2
100
AcDbEntity
  8
GEB-KONTUR-A
 48
25.0
100
AcDbCircle
 10
-58.48281697983003
 20
103.6948503494601
 30
0.0
 40
3.542857142857203
100
AcDbArc
 50
146.215507085583
 51
177.5000000000014
  0
ARC
  5
106
330
2
100
AcDbEntity
  8
GEB-KONTUR-A
 48
25.0
100
AcDbCircle
 10
-63.96331008107916
 20
103.9341338458644
 30
0.0
 40
3.542857142857173
100
AcDbArc
 50
357.4999999999949
 51
28.78449291441574
  0
ARC
  5
107
330
2
100
AcDbEntity
  8
GEB-KONTUR-A
 48
25.0
100
AcDbCircle
 10
-61.15036455151238
 20
105.4795724669653
 30
0.0
 40
0.3333333333333361
100
AcDbArc
 50
28.78449291442301
 51
146.2155070855839
  0
ARC
  5
108
330
2
100
AcDbEntity
  8
GEB-KONTUR-A
 48
25.0
100
AcDbCircle
 10
-52.73828970573427
 20
103.4440388721095
 30
0.0
 40
3.542857142857203
100
AcDbArc
 50
146.215507085583
 51
177.5000000000014
  0
ARC
  5
109
330
2
100
AcDbEntity
  8
GEB-KONTUR-A
 48
25.0
100
AcDbCircle
 10
-58.2187828069834
 20
103.6833223685137
 30
0.0
 40
3.542857142857173
100
AcDbArc
 50
357.5000000000014
 51
28.78449291441574
  0
ARC
  5
10A
330
2
100
AcDbEntity
  8
GEB-KONTUR-A
 48
25.0
100
AcDbCircle
 10
-55.40583727741659
 20
105.2287609896146
 30
0.0
 40
0.3333333333333361
100
AcDbArc
 50
28.78449291442301
 51
146.2155070855839
  0
ARC
  5
10B
330
2
100
AcDbEntity
  8
GEB-KONTUR-A
 48
25.0
100
AcDbCircle
 10
-46.99376243163851
 20
103.1932273947589
 30
0.0
 40
3.542857142857203
100
AcDbArc
 50
146.215507085583
 51
177.5000000000014
  0
ARC
  5
10C
330
2
100
AcDbEntity
  8
GEB-KONTUR-A
 48
25.0
100
AcDbCircle
 10
-52.47425553288763
 20
103.432510891163
 30
0.0
 40
3.542857142857173
100
AcDbArc
 50
357.4999999999949
 51
28.78449291441574
  0
ARC
  5
10D
330
2
100
AcDbEntity
  8
GEB-KONTUR-A
 48
25.0
100
AcDbCircle
 10
-49.66131000332087
 20
104.977949512264
 30
0.0
 40
0.3333333333333361
100
AcDbArc
 50
28.7844929144238
 51
146.2155070855902
  0
ARC
  5
10E
330
2
100
AcDbEntity
  8
GEB-KONTUR-A
 48
25.0
100
AcDbCircle
 10
-60.4456894112701
 20
58.73768037827653
 30
0.0
 40
3.542857142857194
100
AcDbArc
 50
177.5000000000014
 51
208.7844929144158
  0
ARC
  5
10F
330
2
100
AcDbEntity
  8
GEB-KONTUR-A
 48
25.0
100
AcDbCircle
 10
-65.92618251251926
 20
58.97696387468068
 30
0.0
 40
3.542857142857183
100
AcDbArc
 50
326.215507085583
 51
357.5000000000014
  0
ARC
  5
110
330
2
100
AcDbEntity
  8
GEB-KONTUR-A
 48
25.0
100
AcDbCircle
 10
-63.25863494083694
 20
57.19224175717545
 30
0.0
 40
0.3333333333333361
100
AcDbArc
 50
208.784492914423
 51
326.2155070855838
  0
ARC
  5
111
330
2
100
AcDbEntity
  8
GEB-KONTUR-A
 48
25.0
100
AcDbCircle
 10
-54.70116213717438
 20
58.48686890092586
 30
0.0
 40
3.542857142857194
100
AcDbArc
 50
177.5000000000014
 51
208.7844929144158
  0
ARC
  5
112
330
2
100
AcDbEntity
  8
GEB-KONTUR-A
 48
25.0
100
AcDbCircle
 10
-60.1816552384235
 20
58.72615239733
 30
0.0
 40
3.542857142857183
100
AcDbArc
 50
326.215507085583
 51
357.5000000000014
  0
ARC
  5
113
330
2
100
AcDbEntity
  8
GEB-KONTUR-A
 48
25.0
100
AcDbCircle
 10
-57.51410766674118
 20
56.94143027982477
 30
0.0
 40
0.3333333333333362
100
AcDbArc
 50
208.784492914423
 51
326.2155070855838
  0
ARC
  5
114
330
2
100
AcDbEntity
  8
GEB-KONTUR-A
 48
25.0
100
AcDbCircle
 10
-48.95663486307864
 20
58.23605742357518
 30
0.0
 40
3.542857142857194
100
AcDbArc
 50
177.5000000000014
 51
208.7844929144158
  0
ARC
  5
115
330
2
100
AcDbEntity
  8
GEB-KONTUR-A
 48
25.0
100
AcDbCircle
 10
-54.43712796432774
 20
58.47534091997932
 30
0.0
 40
3.542857142857183
100
AcDbArc
 50
326.215507085583
 51
357.5000000000014
  0
ARC
  5
116
330
2
100
AcDbEntity
  8
GEB-KONTUR-A
 48
25.0
100
AcDbCircle
 10
-51.76958039264542
 20
56.6906188024742
 30
0.0
 40
0.3333333333333361
100
AcDbArc
 50
208.784492914423
 51
326.2155070855838
  0
LINE
  5
117
330
2
100
AcDbEntity
  8
GEB-KONTUR-A
 48
25.0
100
AcDbLine
 10
-40.21415988922547
 20
58.85530540802609
 30
0.0
 11
-42.71178044318014
 21
58.96435387643942
 31
0.0
  0
LINE
  5
118
330
2
100
AcDbEntity
  8
GEB-KONTUR-A
 48
25.0
100
AcDbLine
 10
-69.72970181325592
 20
59.14302911372146
 30
0.0
 11
-74.22541881037438
 21
59.33931635686554
 31
0.0
  0
LINE
  5
119
330
2
100
AcDbEntity
  8
GEB-KONTUR-A
 48
25.0
100
AcDbLine
 10
-63.98517453916023
 20
58.8922176363709
 30
0.0
 11
-68.13122465872499
 21
59.07323809393711
 31
0.0
  0
LINE
  5
11A
330
2
100
AcDbEntity
  8
GEB-KONTUR-A
 48
25.0
100
AcDbLine
 10
-58.24064726506444
 20
58.64140615902022
 30
0.0
 11
-62.3866973846292
 21
58.82242661658643
 31
0.0
  0
LINE
  5
11B
330
2
100
AcDbEntity
  8
GEB-KONTUR-A
 48
25.0
100
AcDbLine
 10
-52.49611999096874
 20
58.39059468166954
 30
0.0
 11
-56.64217011053347
 21
58.57161513923563
 31
0.0
  0
LINE
  5
11C
330
2
100
AcDbEntity
  8
GEB-KONTUR-A
 48
25.0
100
AcDbLine
 10
-42.75539983054545
 20
57.9653056548575
 30
0.0
 11
-50.89764283643771
 21
58.32080366188495
 31
0.0
  0
LINE
  5
11D
330
2
100
AcDbEntity
  8
GEB-KONTUR-A
 48
25.0
100
AcDbLine
 10
-67.76682938181585
 20
104.1001990849051
 30
0.0
 11
-72.26254637893427
 21
104.2964863280492
 31
0.0
  0
LINE
  5
11E
330
2
100
AcDbEntity
  8
GEB-KONTUR-A
 48
25.0
100
AcDbLine
 10
-62.02230210772009
 20
103.8493876075545
 30
0.0
 11
-66.16835222728486
 21
104.0304080651206
 31
0.0
  0
LINE
  5
11F
330
2
100
AcDbEntity
  8
GEB-KONTUR-A
 48
25.0
100
AcDbLine
 10
-56.27777483362433
 20
103.5985761302038
 30
0.0
 11
-60.42382495318912
 21
103.7795965877699
 31
0.0
  0
LINE
  5
120
330
2
100
AcDbEntity
  8
GEB-KONTUR-A
 48
25.0
100
AcDbLine
 10
-50.53324755952861
 20
103.3477646528532
 30
0.0
 11
-54.67929767909334
 21
103.5287851104192
 31
0.0
  0
LINE
  5
121
330
2
100
AcDbEntity
  8
GEB-KONTUR-A
 48
25.0
100
AcDbLine
 10
-40.79252739910535
 20
102.9224756260411
 30
0.0
 11
-48.9347704049976
 21
103.2779736330686
 31
0.0
  0
LINE
  5
122
330
2
100
AcDbEntity
  8
GEB-KONTUR-A
 48
25.0
100
AcDbLine
 10
-88.44712756856058
 20
105.0031204033677
 30
0.0
 11
-90.41000000000071
 21
60.0459504321841
 31
0.0
  0
LINE
  5
123
330
2
100
AcDbEntity
  8
GEB-KONTUR-A
 48
25.0
100
AcDbLine
 10
-84.7607144579848
 20
109.1963123114701
 30
0.0
 11
-87.10307555950334
 21
55.54742281252436
 31
0.0
  0
LINE
  5
124
330
2
100
AcDbEntity
  8
GEB-KONTUR-A
 48
25.0
100
AcDbLine
 10
-38.38936411476664
 20
100.6499999999996
 30
0.0
 11
-38.92738796194806
 21
88.32722794469077
 31
0.0
  0
LINE
  5
125
330
2
100
AcDbEntity
  8
GEB-KONTUR-A
 48
25.0
100
AcDbLine
 10
-72.89502749573159
 20
89.81028711511237
 30
0.0
 11
-31.03490701145128
 21
87.98263478450474
 31
0.0
  0
LINE
  5
126
330
2
100
AcDbEntity
  8
GEB-KONTUR-A
 48
25.0
100
AcDbLine
 10
-31.03490701145128
 20
87.98263478450474
 30
0.0
 11
-31.73281720929669
 21
71.997863239195
 31
0.0
  0
LINE
  5
127
330
2
100
AcDbEntity
  8
GEB-KONTUR-A
 48
25.0
100
AcDbLine
 10
-31.73281720929669
 20
71.997863239195
 30
0.0
 11
-73.592937693577
 21
73.82551556980252
 31
0.0
  0
LINE
  5
128
330
2
100
AcDbEntity
  8
GEB-KONTUR-A
 48
25.0
100
AcDbLine
 10
-39.62529815979346
 20
72.34245639938115
 30
0.0
 11
-40.2141598892255
 21
58.85530540802597
 31
0.0
  0
SPLINE
  5
129
330
2
100
AcDbEntity
  8
GEB-KONTUR-A
 48
25.0
100
AcDbSpline
210
0.0
220
0.0
230
1.0
 70
     8
 71
     3
 72
    24
 73
    20
 74
     0
 42
0.0000000001
 43
0.0000000001
 40
0.0000055821876418
 40
0.0000055821876418
 40
0.0000055821876418
 40
0.0000055821876418
 40
0.0797062645507928
 40
0.0797062645507928
 40
0.1104873140283597
 40
0.1104873140283597
 40
0.1192869985898762
 40
0.1192869985898762
 40
0.1245841505066574
 40
0.1245841505066574
 40
0.1289625715540771
 40
0.1289625715540771
 40
0.1336538861313518
 40
0.1336538861313518
 40
0.1410144087418903
 40
0.1410144087418903
 40
0.1573264411730768
 40
0.1573264411730768
 40
0.2370684289283308
 40
0.2370684289283308
 40
0.2370684289283308
 40
0.2370684289283308
 10
-68.91742259949916
 20
65.93754390807442
 30
0.0
 10
-68.87963622822787
 20
66.12545907627486
 30
0.0
 10
-68.83124794666125
 20
66.28110856734361
 30
0.0
 10
-68.75600855040395
 20
66.43025299365286
 30
0.0
 10
-68.72482273456473
 20
66.48324958059254
 30
0.0
 10
-68.67495161514876
 20
66.52697973739328
 30
0.0
 10
-68.66174137973155
 20
66.53646675590426
 30
0.0
 10
-68.63793765102539
 20
66.5467866578316
 30
0.0
 10
-68.62823210126615
 20
66.549633217414
 30
0.0
 10
-68.60934827974128
 20
66.55154910606893
 30
0.0
 10
-68.60085862516434
 20
66.55113830929804
 30
0.0
 10
-68.5834278120856
 20
66.54765989255418
 30
0.0
 10
-68.57503123459321
 20
66.54451109886145
 30
0.0
 10
-68.55516028041495
 20
66.53434023025249
 30
0.0
 10
-68.54445457723096
 20
66.52603055526731
 30
0.0
 10
-68.51511251752026
 20
66.49839487907195
 30
0.0
 10
-68.49849497538352
 20
66.47402310177574
 30
0.0
 10
-68.42336364755758
 20
66.34376963353168
 30
0.0
 10
-68.37512571354205
 20
66.15361246043483
 30
0.0
 10
-68.34823192132791
 20
65.9126925063706
 30
0.0
  0
SPLINE
  5
12A
330
2
100
AcDbEntity
  8
GEB-KONTUR-A
 48
25.0
100
AcDbSpline
210
0.0
220
0.0
230
1.0
 70
     8
 71
     3
 72
    16
 73
    12
 74
     0
 42
0.0000000001
 43
0.0000000001
 40
1.676880953268498
 40
1.676880953268498
 40
1.676880953268498
 40
1.676880953268498
 40
1.780979118027105
 40
1.780979118027105
 40
2.041461774906938
 40
2.041461774906938
 40
2.513255447205641
 40
2.513255447205641
 40
2.965658246933415
 40
2.965658246933415
 40
3.315140399756461
 40
3.315140399756461
 40
3.315140399756461
 40
3.315140399756461
 10
-69.72970181325592
 20
59.14302911372146
 30
0.0
 10
-69.72970181325592
 20
59.14302911372146
 30
0.0
 10
-69.72928072142622
 20
59.15274757129987
 30
0.0
 10
-69.7262633222831
 20
59.22082186153966
 30
0.0
 10
-69.72145347811556
 20
59.33022438500779
 30
0.0
 10
-69.69681400868961
 20
59.80655240722876
 30
0.0
 10
-69.66867567618755
 20
60.30882183390258
 30
0.0
 10
-69.55487457157762
 20
61.65364712572364
 30
0.0
 10
-69.47196001158213
 20
62.47711580819407
 30
0.0
 10
-69.23347483374891
 20
64.19791347626563
 30
0.0
 10
-69.09942712307617
 20
65.03241834267782
 30
0.0
 10
-68.91742259949916
 20
65.93754390807442
 30
0.0
  0
SPLINE
  5
12B
330
2
100
AcDbEntity
  8
GEB-KONTUR-A
 48
25.0
100
AcDbSpline
210
0.0
220
0.0
230
1.0
 70
     8
 71
     3
 72
    14
 73
    10
 74
     0
 42
0.0000000001
 43
0.0000000001
 40
0.00104050069455
 40
0.00104050069455
 40
0.00104050069455
 40
0.00104050069455
 40
0.7997210698762909
 40
0.7997210698762909
 40
1.294895980592259
 40
1.294895980592259
 40
1.560560944277864
 40
1.560560944277864
 40
1.676880953268758
 40
1.676880953268758
 40
1.676880953268758
 40
1.676880953268758
 10
-68.34823192132791
 20
65.9126925063706
 30
0.0
 10
-68.13510903516882
 20
64.00349518921337
 30
0.0
 10
-68.08958909018795
 20
62.33095645755918
 30
0.0
 10
-68.08748441530633
 20
60.35499214409174
 30
0.0
 10
-68.10411245871728
 20
59.80230923587328
 30
0.0
 10
-68.12217195955145
 20
59.28367197389047
 30
0.0
 10
-68.12727642578682
 20
59.16506554733633
 30
0.0
 10
-68.13068984965696
 20
59.08537215129013
 30
0.0
 10
-68.13122465872499
 20
59.07323809393711
 30
0.0
 10
-68.13122465872499
 20
59.07323809393711
 30
0.0
  0
SPLINE
  5
12C
330
2
100
AcDbEntity
  8
GEB-KONTUR-A
 48
25.0
100
AcDbSpline
210
0.0
220
0.0
230
1.0
 70
     8
 71
     3
 72
    24
 73
    20
 74
     0
 42
0.0000000001
 43
0.0000000001
 40
0.0000055821876419
 40
0.0000055821876419
 40
0.0000055821876419
 40
0.0000055821876419
 40
0.0797062645505069
 40
0.0797062645505069
 40
0.1104873140278859
 40
0.1104873140278859
 40
0.1192869985893094
 40
0.1192869985893094
 40
0.1245841505060605
 40
0.1245841505060605
 40
0.1289625715534667
 40
0.1289625715534667
 40
0.1336538861307285
 40
0.1336538861307285
 40
0.1410144087412548
 40
0.1410144087412548
 40
0.1573264411724262
 40
0.1573264411724262
 40
0.2370684289276523
 40
0.2370684289276523
 40
0.2370684289276523
 40
0.2370684289276523
 10
-63.17289532540337
 20
65.68673243072362
 30
0.0
 10
-63.13510895413225
 20
65.8746475989235
 30
0.0
 10
-63.08672067256572
 20
66.0302970899927
 30
0.0
 10
-63.01148127630816
 20
66.17944151630218
 30
0.0
 10
-62.98029546046897
 20
66.23243810324186
 30
0.0
 10
-62.93042434105302
 20
66.27616826004248
 30
0.0
 10
-62.91721410563582
 20
66.28565527855357
 30
0.0
 10
-62.89341037692961
 20
66.29597518048092
 30
0.0
 10
-62.88370482717039
 20
66.29882174006332
 30
0.0
 10
-62.86482100564558
 20
66.30073762871825
 30
0.0
 10
-62.85633135106857
 20
66.30032683194713
 30
0.0
 10
-62.83890053798984
 20
66.2968484152035
 30
0.0
 10
-62.83050396049748
 20
66.29369962151077
 30
0.0
 10
-62.81063300631917
 20
66.28352875290182
 30
0.0
 10
-62.7999273031352
 20
66.27521907791652
 30
0.0
 10
-62.77058524342454
 20
66.24758340172127
 30
0.0
 10
-62.75396770128776
 20
66.22321162442506
 30
0.0
 10
-62.67883637346185
 20
66.092958156181
 30
0.0
 10
-62.63059843944629
 20
65.90280098308415
 30
0.0
 10
-62.60370464723212
 20
65.66188102901993
 30
0.0
  0
SPLINE
  5
12D
330
2
100
AcDbEntity
  8
GEB-KONTUR-A
 48
25.0
100
AcDbSpline
210
0.0
220
0.0
230
1.0
 70
     8
 71
     3
 72
    16
 73
    12
 74
     0
 42
0.0000000001
 43
0.0000000001
 40
1.676880953268403
 40
1.676880953268403
 40
1.676880953268403
 40
1.676880953268403
 40
1.780979118027001
 40
1.780979118027001
 40
2.041461774906799
 40
2.041461774906799
 40
2.513255447205438
 40
2.513255447205438
 40
2.965658246933149
 40
2.965658246933149
 40
3.31514039975615
 40
3.31514039975615
 40
3.31514039975615
 40
3.31514039975615
 10
-63.98517453916023
 20
58.8922176363709
 30
0.0
 10
-63.98517453916023
 20
58.8922176363709
 30
0.0
 10
-63.98475344733049
 20
58.90193609394919
 30
0.0
 10
-63.98173604818731
 20
58.97001038418898
 30
0.0
 10
-63.9769262040198
 20
59.07941290765712
 30
0.0
 10
-63.95228673459389
 20
59.55574092987808
 30
0.0
 10
-63.92414840209179
 20
60.0580103565519
 30
0.0
 10
-63.81034729748185
 20
61.40283564837296
 30
0.0
 10
-63.72743273748636
 20
62.22630433084339
 30
0.0
 10
-63.48894755965315
 20
63.94710199891495
 30
0.0
 10
-63.35489984898038
 20
64.78160686532726
 30
0.0
 10
-63.17289532540337
 20
65.68673243072362
 30
0.0
  0
SPLINE
  5
12E
330
2
100
AcDbEntity
  8
GEB-KONTUR-A
 48
25.0
100
AcDbSpline
210
0.0
220
0.0
230
1.0
 70
     8
 71
     3
 72
    14
 73
    10
 74
     0
 42
0.0000000001
 43
0.0000000001
 40
0.0010405006945501
 40
0.0010405006945501
 40
0.0010405006945501
 40
0.0010405006945501
 40
0.7997210698762909
 40
0.7997210698762909
 40
1.294895980592259
 40
1.294895980592259
 40
1.560560944277864
 40
1.560560944277864
 40
1.676880953268758
 40
1.676880953268758
 40
1.676880953268758
 40
1.676880953268758
 10
-62.60370464723212
 20
65.66188102901993
 30
0.0
 10
-62.39058176107306
 20
63.75268371186257
 30
0.0
 10
-62.34506181609219
 20
62.08014498020839
 30
0.0
 10
-62.34295714121057
 20
60.10418066674105
 30
0.0
 10
-62.35958518462152
 20
59.55149775852271
 30
0.0
 10
-62.37764468545567
 20
59.0328604965398
 30
0.0
 10
-62.38274915169106
 20
58.91425406998564
 30
0.0
 10
-62.38616257556123
 20
58.83456067393922
 30
0.0
 10
-62.38669738462923
 20
58.82242661658643
 30
0.0
 10
-62.38669738462923
 20
58.82242661658643
 30
0.0
  0
SPLINE
  5
12F
330
2
100
AcDbEntity
  8
GEB-KONTUR-A
 48
25.0
100
AcDbSpline
210
0.0
220
0.0
230
1.0
 70
     8
 71
     3
 72
    24
 73
    20
 74
     0
 42
0.0000000001
 43
0.0000000001
 40
0.0000055821876419
 40
0.0000055821876419
 40
0.0000055821876419
 40
0.0000055821876419
 40
0.0797062645506145
 40
0.0797062645506145
 40
0.110487314028043
 40
0.110487314028043
 40
0.1192869985894759
 40
0.1192869985894759
 40
0.1245841505062301
 40
0.1245841505062301
 40
0.1289625715536373
 40
0.1289625715536373
 40
0.1336538861309002
 40
0.1336538861309002
 40
0.1410144087414276
 40
0.1410144087414276
 40
0.1573264411725955
 40
0.1573264411725955
 40
0.2370684289277609
 40
0.2370684289277609
 40
0.2370684289277609
 40
0.2370684289277609
 10
-57.42836805130764
 20
65.43592095337294
 30
0.0
 10
-57.39058168003643
 20
65.62383612157304
 30
0.0
 10
-57.34219339846987
 20
65.77948561264202
 30
0.0
 10
-57.26695400221243
 20
65.92863003895138
 30
0.0
 10
-57.23576818637321
 20
65.98162662589129
 30
0.0
 10
-57.18589706695732
 20
66.0253567826918
 30
0.0
 10
-57.17268683154009
 20
66.03484380120301
 30
0.0
 10
-57.14888310283384
 20
66.04516370313024
 30
0.0
 10
-57.13917755307466
 20
66.04801026271264
 30
0.0
 10
-57.1202937315498
 20
66.04992615136746
 30
0.0
 10
-57.11180407697281
 20
66.04951535459656
 30
0.0
 10
-57.09437326389411
 20
66.04603693785271
 30
0.0
 10
-57.08597668640172
 20
66.04288814416008
 30
0.0
 10
-57.06610573222343
 20
66.03271727555102
 30
0.0
 10
-57.05540002903944
 20
66.02440760056584
 30
0.0
 10
-57.02605796932878
 20
65.99677192437059
 30
0.0
 10
-57.00944042719206
 20
65.97240014707449
 30
0.0
 10
-56.93430909936608
 20
65.84214667883021
 30
0.0
 10
-56.88607116535052
 20
65.65198950573336
 30
0.0
 10
-56.85917737313636
 20
65.41106955166924
 30
0.0
  0
SPLINE
  5
130
330
2
100
AcDbEntity
  8
GEB-KONTUR-A
 48
25.0
100
AcDbSpline
210
0.0
220
0.0
230
1.0
 70
     8
 71
     3
 72
    16
 73
    12
 74
     0
 42
0.0000000001
 43
0.0000000001
 40
1.676880953268417
 40
1.676880953268417
 40
1.676880953268417
 40
1.676880953268417
 40
1.780979118027016
 40
1.780979118027016
 40
2.041461774906816
 40
2.041461774906816
 40
2.513255447205459
 40
2.513255447205459
 40
2.965658246933175
 40
2.965658246933175
 40
3.315140399756177
 40
3.315140399756177
 40
3.315140399756177
 40
3.315140399756177
 10
-58.24064726506444
 20
58.64140615902022
 30
0.0
 10
-58.24064726506444
 20
58.64140615902022
 30
0.0
 10
-58.24022617323473
 20
58.65112461659851
 30
0.0
 10
-58.23720877409158
 20
58.7191989068383
 30
0.0
 10
-58.23239892992404
 20
58.82860143030644
 30
0.0
 10
-58.20775946049815
 20
59.30492945252741
 30
0.0
 10
-58.17962112799603
 20
59.80719887920122
 30
0.0
 10
-58.06582002338609
 20
61.15202417102216
 30
0.0
 10
-57.98290546339064
 20
61.97549285349271
 30
0.0
 10
-57.74442028555739
 20
63.69629052156438
 30
0.0
 10
-57.61037257488465
 20
64.53079538797658
 30
0.0
 10
-57.42836805130764
 20
65.43592095337294
 30
0.0
  0
SPLINE
  5
131
330
2
100
AcDbEntity
  8
GEB-KONTUR-A
 48
25.0
100
AcDbSpline
210
0.0
220
0.0
230
1.0
 70
     8
 71
     3
 72
    14
 73
    10
 74
     0
 42
0.0000000001
 43
0.0000000001
 40
0.0010405006945506
 40
0.0010405006945506
 40
0.0010405006945506
 40
0.0010405006945506
 40
0.7997210698762415
 40
0.7997210698762415
 40
1.294895980592154
 40
1.294895980592154
 40
1.56056094427773
 40
1.56056094427773
 40
1.676880953268603
 40
1.676880953268603
 40
1.676880953268603
 40
1.676880953268603
 10
-56.85917737313636
 20
65.41106955166924
 30
0.0
 10
-56.64605448697733
 20
63.50187223451212
 30
0.0
 10
-56.60053454199647
 20
61.82933350285782
 30
0.0
 10
-56.59842986711481
 20
59.85336918939049
 30
0.0
 10
-56.61505791052576
 20
59.30068628117203
 30
0.0
 10
-56.63311741135993
 20
58.78204901918912
 30
0.0
 10
-56.6382218775953
 20
58.66344259263508
 30
0.0
 10
-56.64163530146547
 20
58.58374919658865
 30
0.0
 10
-56.64217011053347
 20
58.57161513923563
 30
0.0
 10
-56.64217011053347
 20
58.57161513923563
 30
0.0
  0
SPLINE
  5
132
330
2
100
AcDbEntity
  8
GEB-KONTUR-A
 48
25.0
100
AcDbSpline
210
0.0
220
0.0
230
1.0
 70
     8
 71
     3
 72
    24
 73
    20
 74
     0
 42
0.0000000001
 43
0.0000000001
 40
0.0000055821876419
 40
0.0000055821876419
 40
0.0000055821876419
 40
0.0000055821876419
 40
0.0797062645506081
 40
0.0797062645506081
 40
0.1104873140280388
 40
0.1104873140280388
 40
0.1192869985894973
 40
0.1192869985894973
 40
0.1245841505062383
 40
0.1245841505062383
 40
0.1289625715536254
 40
0.1289625715536254
 40
0.1336538861308641
 40
0.1336538861308641
 40
0.1410144087413495
 40
0.1410144087413495
 40
0.1573264411724176
 40
0.1573264411724176
 40
0.2370684289270919
 40
0.2370684289270919
 40
0.2370684289270919
 40
0.2370684289270919
 10
-51.68384077721191
 20
65.18510947602226
 30
0.0
 10
-51.64605440594067
 20
65.37302464422237
 30
0.0
 10
-51.59766612437414
 20
65.52867413529134
 30
0.0
 10
-51.52242672811667
 20
65.6778185616007
 30
0.0
 10
-51.49124091227744
 20
65.73081514854038
 30
0.0
 10
-51.44136979286153
 20
65.77454530534123
 30
0.0
 10
-51.42815955744433
 20
65.78403232385233
 30
0.0
 10
-51.40435582873817
 20
65.79435222577967
 30
0.0
 10
-51.39465027897893
 20
65.79719878536185
 30
0.0
 10
-51.37576645745406
 20
65.79911467401678
 30
0.0
 10
-51.36727680287709
 20
65.79870387724588
 30
0.0
 10
-51.34984598979835
 20
65.79522546050203
 30
0.0
 10
-51.34144941230596
 20
65.79207666680952
 30
0.0
 10
-51.32157845812767
 20
65.78190579820034
 30
0.0
 10
-51.31087275494372
 20
65.77359612321515
 30
0.0
 10
-51.28153069523301
 20
65.74596044702002
 30
0.0
 10
-51.2649131530963
 20
65.72158866972381
 30
0.0
 10
-51.18978182527036
 20
65.59133520147952
 30
0.0
 10
-51.1415438912548
 20
65.40117802838267
 30
0.0
 10
-51.11465009904063
 20
65.16025807431867
 30
0.0
  0
SPLINE
  5
133
330
2
100
AcDbEntity
  8
GEB-KONTUR-A
 48
25.0
100
AcDbSpline
210
0.0
220
0.0
230
1.0
 70
     8
 71
     3
 72
    16
 73
    12
 74
     0
 42
0.0000000001
 43
0.0000000001
 40
1.676880953268403
 40
1.676880953268403
 40
1.676880953268403
 40
1.676880953268403
 40
1.780979118027001
 40
1.780979118027001
 40
2.041461774906798
 40
2.041461774906798
 40
2.513255447205436
 40
2.513255447205436
 40
2.965658246933148
 40
2.965658246933148
 40
3.315140399756146
 40
3.315140399756146
 40
3.315140399756146
 40
3.315140399756146
 10
-52.49611999096874
 20
58.39059468166954
 30
0.0
 10
-52.49611999096874
 20
58.39059468166954
 30
0.0
 10
-52.49569889913897
 20
58.40031313924772
 30
0.0
 10
-52.49268149999585
 20
58.46838742948762
 30
0.0
 10
-52.48787165582831
 20
58.57778995295575
 30
0.0
 10
-52.46323218640239
 20
59.05411797517661
 30
0.0
 10
-52.4350938539003
 20
59.55638740185055
 30
0.0
 10
-52.32129274929033
 20
60.90121269367148
 30
0.0
 10
-52.23837818929488
 20
61.72468137614214
 30
0.0
 10
-51.99989301146167
 20
63.4454790442137
 30
0.0
 10
-51.86584530078892
 20
64.27998391062579
 30
0.0
 10
-51.68384077721191
 20
65.18510947602226
 30
0.0
  0
SPLINE
  5
134
330
2
100
AcDbEntity
  8
GEB-KONTUR-A
 48
25.0
100
AcDbSpline
210
0.0
220
0.0
230
1.0
 70
     8
 71
     3
 72
    14
 73
    10
 74
     0
 42
0.0000000001
 43
0.0000000001
 40
0.00104050069455
 40
0.00104050069455
 40
0.00104050069455
 40
0.00104050069455
 40
0.7997210698762909
 40
0.7997210698762909
 40
1.294895980592259
 40
1.294895980592259
 40
1.560560944277864
 40
1.560560944277864
 40
1.676880953268758
 40
1.676880953268758
 40
1.676880953268758
 40
1.676880953268758
 10
-51.11465009904063
 20
65.16025807431867
 30
0.0
 10
-50.90152721288157
 20
63.25106075716121
 30
0.0
 10
-50.85600726790071
 20
61.57852202550703
 30
0.0
 10
-50.85390259301911
 20
59.60255771203981
 30
0.0
 10
-50.87053063643003
 20
59.04987480382124
 30
0.0
 10
-50.88859013726417
 20
58.53123754183832
 30
0.0
 10
-50.89369460349954
 20
58.4126311152844
 30
0.0
 10
-50.89710802736971
 20
58.33293771923798
 30
0.0
 10
-50.89764283643771
 20
58.32080366188495
 30
0.0
 10
-50.89764283643771
 20
58.32080366188495
 30
0.0
  0
LINE
  5
135
330
2
100
AcDbEntity
  8
GEB-KONTUR-A
 48
25.0
100
AcDbLine
 10
-42.1229187137481
 20
72.4515048677946
 30
0.0
 11
-42.75539983054549
 21
57.96530565485761
 31
0.0
  0
LINE
  5
136
330
2
100
AcDbEntity
  8
GEB-KONTUR-A
 48
25.0
100
AcDbLine
 10
-40.79252739910535
 20
102.9224756260412
 30
0.0
 11
-41.42500851590273
 21
88.43627641310423
 31
0.0
  0
SPLINE
  5
137
330
2
100
AcDbEntity
  8
GEB-KONTUR-A
 48
25.0
100
AcDbSpline
210
0.0
220
0.0
230
1.0
 70
     8
 71
     3
 72
    14
 73
    10
 74
     0
 42
0.0000000001
 43
0.0000000001
 40
0.0010405006945535
 40
0.0010405006945535
 40
0.0010405006945535
 40
0.0010405006945535
 40
0.7997210698762756
 40
0.7997210698762756
 40
1.294895980592232
 40
1.294895980592232
 40
1.560560944277818
 40
1.560560944277818
 40
1.676880953268691
 40
1.676880953268691
 40
1.676880953268691
 40
1.676880953268691
 10
-50.31624029692571
 20
96.50831024041952
 30
0.0
 10
-50.52936318308474
 20
98.41750755757699
 30
0.0
 10
-50.57488312806561
 20
100.0900462892311
 30
0.0
 10
-50.57698780294723
 20
102.0660106026983
 30
0.0
 10
-50.56035975953628
 20
102.6186935109169
 30
0.0
 10
-50.54230025870214
 20
103.1373307728999
 30
0.0
 10
-50.53719579246678
 20
103.2559371994539
 30
0.0
 10
-50.53378236859657
 20
103.3356305955002
 30
0.0
 10
-50.53324755952861
 20
103.3477646528532
 30
0.0
 10
-50.53324755952861
 20
103.3477646528532
 30
0.0
  0
SPLINE
  5
138
330
2
100
AcDbEntity
  8
GEB-KONTUR-A
 48
25.0
100
AcDbSpline
210
0.0
220
0.0
230
1.0
 70
     8
 71
     3
 72
    24
 73
    20
 74
     0
 42
0.0000000001
 43
0.0000000001
 40
0.000005582187637
 40
0.000005582187637
 40
0.000005582187637
 40
0.000005582187637
 40
0.0797062645506989
 40
0.0797062645506989
 40
0.1104873140282088
 40
0.1104873140282088
 40
0.1192869985897118
 40
0.1192869985897118
 40
0.1245841505064624
 40
0.1245841505064624
 40
0.1289625715538599
 40
0.1289625715538599
 40
0.1336538861311021
 40
0.1336538861311021
 40
0.1410144087415187
 40
0.1410144087415187
 40
0.1573264411726776
 40
0.1573264411726776
 40
0.2370684289276588
 40
0.2370684289276588
 40
0.2370684289276588
 40
0.2370684289276588
 10
-49.74704961875443
 20
96.48345883871593
 30
0.0
 10
-49.78483599002569
 20
96.29554367051561
 30
0.0
 10
-49.83322427159226
 20
96.13989417944674
 30
0.0
 10
-49.90846366784968
 20
95.99074975313738
 30
0.0
 10
-49.93964948368887
 20
95.93775316619758
 30
0.0
 10
-49.98952060310481
 20
95.89402300939696
 30
0.0
 10
-50.00273083852201
 20
95.88453599088586
 30
0.0
 10
-50.02653456722811
 20
95.87421608895851
 30
0.0
 10
-50.03624011698739
 20
95.87136952937612
 30
0.0
 10
-50.05512393851228
 20
95.86945364072141
 30
0.0
 10
-50.06361359308925
 20
95.8698644374923
 30
0.0
 10
-50.0810444061679
 20
95.87334285423617
 30
0.0
 10
-50.08944098366024
 20
95.87649164792868
 30
0.0
 10
-50.1093119378387
 20
95.88666251653785
 30
0.0
 10
-50.12001764102274
 20
95.89497219152315
 30
0.0
 10
-50.14935970073327
 20
95.92260786771817
 30
0.0
 10
-50.16597724287001
 20
95.94697964501438
 30
0.0
 10
-50.24110857069598
 20
96.07723311325868
 30
0.0
 10
-50.28934650471154
 20
96.26739028635553
 30
0.0
 10
-50.31624029692571
 20
96.50831024041952
 30
0.0
  0
SPLINE
  5
139
330
2
100
AcDbEntity
  8
GEB-KONTUR-A
 48
25.0
100
AcDbSpline
210
0.0
220
0.0
230
1.0
 70
     8
 71
     3
 72
    16
 73
    12
 74
     0
 42
0.0000000001
 43
0.0000000001
 40
1.676880953268575
 40
1.676880953268575
 40
1.676880953268575
 40
1.676880953268575
 40
1.780979118027185
 40
1.780979118027185
 40
2.04146177490701
 40
2.04146177490701
 40
2.51325544720568
 40
2.51325544720568
 40
2.965658246933419
 40
2.965658246933419
 40
3.315140399756433
 40
3.315140399756433
 40
3.315140399756433
 40
3.315140399756433
 10
-48.9347704049976
 20
103.2779736330686
 30
0.0
 10
-48.9347704049976
 20
103.2779736330686
 30
0.0
 10
-48.93519149682731
 20
103.2682551754903
 30
0.0
 10
-48.93820889597046
 20
103.2001808852506
 30
0.0
 10
-48.943018740138
 20
103.0907783617824
 30
0.0
 10
-48.96765820956392
 20
102.6144503395614
 30
0.0
 10
-48.99579654206601
 20
102.1121809128876
 30
0.0
 10
-49.10959764667598
 20
100.7673556210667
 30
0.0
 10
-49.19251220667144
 20
99.94388693859605
 30
0.0
 10
-49.43099738450465
 20
98.2230892705245
 30
0.0
 10
-49.56504509517742
 20
97.38858440411242
 30
0.0
 10
-49.74704961875443
 20
96.48345883871593
 30
0.0
  0
SPLINE
  5
13A
330
2
100
AcDbEntity
  8
GEB-KONTUR-A
 48
25.0
100
AcDbSpline
210
0.0
220
0.0
230
1.0
 70
     8
 71
     3
 72
    14
 73
    10
 74
     0
 42
0.0000000001
 43
0.0000000001
 40
0.0010405006945525
 40
0.0010405006945525
 40
0.0010405006945525
 40
0.0010405006945525
 40
0.799721069876351
 40
0.799721069876351
 40
1.294895980592392
 40
1.294895980592392
 40
1.560560944278021
 40
1.560560944278021
 40
1.676880953268911
 40
1.676880953268911
 40
1.676880953268911
 40
1.676880953268911
 10
-56.06076757102147
 20
96.75912171777032
 30
0.0
 10
-56.27389045718047
 20
98.66831903492766
 30
0.0
 10
-56.31941040216133
 20
100.3408577665819
 30
0.0
 10
-56.32151507704293
 20
102.3168220800491
 30
0.0
 10
-56.30488703363204
 20
102.8695049882676
 30
0.0
 10
-56.28682753279787
 20
103.3881422502505
 30
0.0
 10
-56.2817230665625
 20
103.5067486768046
 30
0.0
 10
-56.27830964269233
 20
103.5864420728509
 30
0.0
 10
-56.27777483362433
 20
103.5985761302038
 30
0.0
 10
-56.27777483362433
 20
103.5985761302038
 30
0.0
  0
SPLINE
  5
13B
330
2
100
AcDbEntity
  8
GEB-KONTUR-A
 48
25.0
100
AcDbSpline
210
0.0
220
0.0
230
1.0
 70
     8
 71
     3
 72
    24
 73
    20
 74
     0
 42
0.0000000001
 43
0.0000000001
 40
0.0000055821876371
 40
0.0000055821876371
 40
0.0000055821876371
 40
0.0000055821876371
 40
0.0797062645507289
 40
0.0797062645507289
 40
0.1104873140282521
 40
0.1104873140282521
 40
0.11928699858975
 40
0.11928699858975
 40
0.1245841505064988
 40
0.1245841505064988
 40
0.1289625715538938
 40
0.1289625715538938
 40
0.1336538861311327
 40
0.1336538861311327
 40
0.1410144087415437
 40
0.1410144087415437
 40
0.1573264411726897
 40
0.1573264411726897
 40
0.2370684289275492
 40
0.2370684289275492
 40
0.2370684289275492
 40
0.2370684289275492
 10
-55.49157689285016
 20
96.73427031606662
 30
0.0
 10
-55.52936326412146
 20
96.54635514786628
 30
0.0
 10
-55.57775154568799
 20
96.3907056567973
 30
0.0
 10
-55.6529909419454
 20
96.24156123048805
 30
0.0
 10
-55.6841767577846
 20
96.18856464354838
 30
0.0
 10
-55.73404787720057
 20
96.14483448674764
 30
0.0
 10
-55.74725811261777
 20
96.13534746823667
 30
0.0
 10
-55.77106184132387
 20
96.1250275663092
 30
0.0
 10
-55.78076739108315
 20
96.12218100672704
 30
0.0
 10
-55.79965121260804
 20
96.1202651180721
 30
0.0
 10
-55.80814086718501
 20
96.12067591484299
 30
0.0
 10
-55.82557168026363
 20
96.12415433158686
 30
0.0
 10
-55.83396825775594
 20
96.12730312527936
 30
0.0
 10
-55.85383921193446
 20
96.13747399388854
 30
0.0
 10
-55.8645449151185
 20
96.14578366887371
 30
0.0
 10
-55.893886974829
 20
96.17341934506908
 30
0.0
 10
-55.91050451696577
 20
96.19779112236507
 30
0.0
 10
-55.98563584479172
 20
96.32804459060924
 30
0.0
 10
-56.03387377880728
 20
96.51820176370598
 30
0.0
 10
-56.06076757102147
 20
96.75912171777032
 30
0.0
  0
SPLINE
  5
13C
330
2
100
AcDbEntity
  8
GEB-KONTUR-A
 48
25.0
100
AcDbSpline
210
0.0
220
0.0
230
1.0
 70
     8
 71
     3
 72
    16
 73
    12
 74
     0
 42
0.0000000001
 43
0.0000000001
 40
1.676880953268539
 40
1.676880953268539
 40
1.676880953268539
 40
1.676880953268539
 40
1.780979118027128
 40
1.780979118027128
 40
2.041461774906926
 40
2.041461774906926
 40
2.513255447205579
 40
2.513255447205579
 40
2.965658246933299
 40
2.965658246933299
 40
3.315140399756303
 40
3.315140399756303
 40
3.315140399756303
 40
3.315140399756303
 10
-54.67929767909334
 20
103.5287851104192
 30
0.0
 10
-54.67929767909334
 20
103.5287851104192
 30
0.0
 10
-54.67971877092307
 20
103.519066652841
 30
0.0
 10
-54.68273617006622
 20
103.4509923626011
 30
0.0
 10
-54.68754601423376
 20
103.341589839133
 30
0.0
 10
-54.71218548365965
 20
102.8652618169121
 30
0.0
 10
-54.74032381616178
 20
102.3629923902384
 30
0.0
 10
-54.85412492077171
 20
101.0181670984173
 30
0.0
 10
-54.93703948076717
 20
100.1946984159469
 30
0.0
 10
-55.17552465860041
 20
98.47390074787519
 30
0.0
 10
-55.30957236927318
 20
97.63939588146309
 30
0.0
 10
-55.49157689285016
 20
96.73427031606662
 30
0.0
  0
SPLINE
  5
13D
330
2
100
AcDbEntity
  8
GEB-KONTUR-A
 48
25.0
100
AcDbSpline
210
0.0
220
0.0
230
1.0
 70
     8
 71
     3
 72
    14
 73
    10
 74
     0
 42
0.0000000001
 43
0.0000000001
 40
0.0010405006945525
 40
0.0010405006945525
 40
0.0010405006945525
 40
0.0010405006945525
 40
0.799721069876351
 40
0.799721069876351
 40
1.294895980592392
 40
1.294895980592392
 40
1.560560944278021
 40
1.560560944278021
 40
1.676880953268911
 40
1.676880953268911
 40
1.676880953268911
 40
1.676880953268911
 10
-61.80529484511717
 20
97.009933195121
 30
0.0
 10
-62.01841773127623
 20
98.91913051227835
 30
0.0
 10
-62.06393767625707
 20
100.5916692439325
 30
0.0
 10
-62.06604235113869
 20
102.5676335573998
 30
0.0
 10
-62.04941430772774
 20
103.1203164656183
 30
0.0
 10
-62.03135480689363
 20
103.6389537276011
 30
0.0
 10
-62.02625034065826
 20
103.7575601541552
 30
0.0
 10
-62.02283691678809
 20
103.8372535502014
 30
0.0
 10
-62.02230210772009
 20
103.8493876075545
 30
0.0
 10
-62.02230210772009
 20
103.8493876075545
 30
0.0
  0
SPLINE
  5
13E
330
2
100
AcDbEntity
  8
GEB-KONTUR-A
 48
25.0
100
AcDbSpline
210
0.0
220
0.0
230
1.0
 70
     8
 71
     3
 72
    24
 73
    20
 74
     0
 42
0.0000000001
 43
0.0000000001
 40
0.000005582187637
 40
0.000005582187637
 40
0.000005582187637
 40
0.000005582187637
 40
0.0797062645506766
 40
0.0797062645506766
 40
0.1104873140281758
 40
0.1104873140281758
 40
0.1192869985896628
 40
0.1192869985896628
 40
0.1245841505064045
 40
0.1245841505064045
 40
0.1289625715537934
 40
0.1289625715537934
 40
0.1336538861310257
 40
0.1336538861310257
 40
0.1410144087414344
 40
0.1410144087414344
 40
0.1573264411725624
 40
0.1573264411725624
 40
0.2370684289273233
 40
0.2370684289273233
 40
0.2370684289273233
 40
0.2370684289273233
 10
-61.23610416694589
 20
96.98508179341718
 30
0.0
 10
-61.27389053821719
 20
96.79716662521707
 30
0.0
 10
-61.32227881978372
 20
96.64151713414799
 30
0.0
 10
-61.39751821604116
 20
96.49237270783874
 30
0.0
 10
-61.42870403188036
 20
96.43937612089906
 30
0.0
 10
-61.47857515129629
 20
96.39564596409844
 30
0.0
 10
-61.49178538671347
 20
96.38615894558734
 30
0.0
 10
-61.51558911541963
 20
96.37583904366
 30
0.0
 10
-61.52529466517887
 20
96.3729924840776
 30
0.0
 10
-61.5441784867038
 20
96.37107659542266
 30
0.0
 10
-61.55266814128077
 20
96.37148739219355
 30
0.0
 10
-61.57009895435942
 20
96.37496580893742
 30
0.0
 10
-61.57849553185172
 20
96.37811460263003
 30
0.0
 10
-61.59836648603022
 20
96.3882854712391
 30
0.0
 10
-61.60907218921426
 20
96.3965951462244
 30
0.0
 10
-61.63841424892476
 20
96.42423082241965
 30
0.0
 10
-61.65503179106147
 20
96.44860259971574
 30
0.0
 10
-61.7301631188875
 20
96.57885606795993
 30
0.0
 10
-61.778401052903
 20
96.76901324105688
 30
0.0
 10
-61.80529484511717
 20
97.009933195121
 30
0.0
  0
SPLINE
  5
13F
330
2
100
AcDbEntity
  8
GEB-KONTUR-A
 48
25.0
100
AcDbSpline
210
0.0
220
0.0
230
1.0
 70
     8
 71
     3
 72
    16
 73
    12
 74
     0
 42
0.0000000001
 43
0.0000000001
 40
1.676880953268539
 40
1.676880953268539
 40
1.676880953268539
 40
1.676880953268539
 40
1.780979118027127
 40
1.780979118027127
 40
2.041461774906925
 40
2.041461774906925
 40
2.513255447205578
 40
2.513255447205578
 40
2.965658246933299
 40
2.965658246933299
 40
3.315140399756301
 40
3.315140399756301
 40
3.315140399756301
 40
3.315140399756301
 10
-60.4238249531891
 20
103.7795965877699
 30
0.0
 10
-60.4238249531891
 20
103.7795965877699
 30
0.0
 10
-60.42424604501883
 20
103.7698781301917
 30
0.0
 10
-60.42726344416195
 20
103.7018038399518
 30
0.0
 10
-60.43207328832949
 20
103.5924013164838
 30
0.0
 10
-60.45671275775541
 20
103.1160732942628
 30
0.0
 10
-60.48485109025754
 20
102.613803867589
 30
0.0
 10
-60.59865219486747
 20
101.2689785757679
 30
0.0
 10
-60.6815667548629
 20
100.4455098932975
 30
0.0
 10
-60.92005193269613
 20
98.72471222522598
 30
0.0
 10
-61.05409964336891
 20
97.89020735881377
 30
0.0
 10
-61.23610416694589
 20
96.98508179341718
 30
0.0
  0
SPLINE
  5
140
330
2
100
AcDbEntity
  8
GEB-KONTUR-A
 48
25.0
100
AcDbSpline
210
0.0
220
0.0
230
1.0
 70
     8
 71
     3
 72
    14
 73
    10
 74
     0
 42
0.0000000001
 43
0.0000000001
 40
0.0010405006945526
 40
0.0010405006945526
 40
0.0010405006945526
 40
0.0010405006945526
 40
0.7997210698763092
 40
0.7997210698763092
 40
1.294895980592301
 40
1.294895980592301
 40
1.560560944277916
 40
1.560560944277916
 40
1.676880953268805
 40
1.676880953268805
 40
1.676880953268805
 40
1.676880953268805
 10
-67.54982211921296
 20
97.26074467247167
 30
0.0
 10
-67.76294500537201
 20
99.16994198962903
 30
0.0
 10
-67.80846495035283
 20
100.8424807212832
 30
0.0
 10
-67.81056962523445
 20
102.8184450347505
 30
0.0
 10
-67.7939415818235
 20
103.3711279429688
 30
0.0
 10
-67.77588208098939
 20
103.8897652049518
 30
0.0
 10
-67.77077761475396
 20
104.0083716315059
 30
0.0
 10
-67.76736419088385
 20
104.0880650275523
 30
0.0
 10
-67.76682938181585
 20
104.1001990849051
 30
0.0
 10
-67.76682938181585
 20
104.1001990849051
 30
0.0
  0
SPLINE
  5
141
330
2
100
AcDbEntity
  8
GEB-KONTUR-A
 48
25.0
100
AcDbSpline
210
0.0
220
0.0
230
1.0
 70
     8
 71
     3
 72
    24
 73
    20
 74
     0
 42
0.0000000001
 43
0.0000000001
 40
0.0000055821876371
 40
0.0000055821876371
 40
0.0000055821876371
 40
0.0000055821876371
 40
0.0797062645507802
 40
0.0797062645507802
 40
0.1104873140283095
 40
0.1104873140283095
 40
0.1192869985898162
 40
0.1192869985898162
 40
0.1245841505065914
 40
0.1245841505065914
 40
0.1289625715540144
 40
0.1289625715540144
 40
0.133653886131285
 40
0.133653886131285
 40
0.141014408741743
 40
0.141014408741743
 40
0.1573264411729928
 40
0.1573264411729928
 40
0.2370684289282775
 40
0.2370684289282775
 40
0.2370684289282775
 40
0.2370684289282775
 10
-66.98063144104168
 20
97.23589327076787
 30
0.0
 10
-67.018417812313
 20
97.04797810256742
 30
0.0
 10
-67.06680609387956
 20
96.89232861149868
 30
0.0
 10
-67.14204549013686
 20
96.74318418518954
 30
0.0
 10
-67.17323130597612
 20
96.69018759824973
 30
0.0
 10
-67.22310242539205
 20
96.64645744144912
 30
0.0
 10
-67.23631266080926
 20
96.63697042293803
 30
0.0
 10
-67.26011638951542
 20
96.62665052101068
 30
0.0
 10
-67.26982193927463
 20
96.62380396142829
 30
0.0
 10
-67.28870576079953
 20
96.62188807277335
 30
0.0
 10
-67.29719541537654
 20
96.62229886954447
 30
0.0
 10
-67.31462622845516
 20
96.62577728628811
 30
0.0
 10
-67.32302280594746
 20
96.6289260799806
 30
0.0
 10
-67.34289376012594
 20
96.63909694858979
 30
0.0
 10
-67.35359946330999
 20
96.6474066235752
 30
0.0
 10
-67.38294152302052
 20
96.67504229977033
 30
0.0
 10
-67.39955906515723
 20
96.69941407706643
 30
0.0
 10
-67.47469039298318
 20
96.8296675453106
 30
0.0
 10
-67.52292832699876
 20
97.01982471840734
 30
0.0
 10
-67.54982211921296
 20
97.26074467247167
 30
0.0
  0
SPLINE
  5
142
330
2
100
AcDbEntity
  8
GEB-KONTUR-A
 48
25.0
100
AcDbSpline
210
0.0
220
0.0
230
1.0
 70
     8
 71
     3
 72
    16
 73
    12
 74
     0
 42
0.0000000001
 43
0.0000000001
 40
1.676880953268539
 40
1.676880953268539
 40
1.676880953268539
 40
1.676880953268539
 40
1.780979118027127
 40
1.780979118027127
 40
2.041461774906925
 40
2.041461774906925
 40
2.513255447205578
 40
2.513255447205578
 40
2.965658246933299
 40
2.965658246933299
 40
3.315140399756302
 40
3.315140399756302
 40
3.315140399756302
 40
3.315140399756302
 10
-66.16835222728486
 20
104.0304080651207
 30
0.0
 10
-66.16835222728486
 20
104.0304080651207
 30
0.0
 10
-66.16877331911459
 20
104.0206896075424
 30
0.0
 10
-66.17179071825771
 20
103.9526153173026
 30
0.0
 10
-66.17660056242525
 20
103.8432127938345
 30
0.0
 10
-66.20124003185117
 20
103.3668847716135
 30
0.0
 10
-66.2293783643533
 20
102.8646153449397
 30
0.0
 10
-66.34317946896323
 20
101.5197900531187
 30
0.0
 10
-66.42609402895866
 20
100.6963213706482
 30
0.0
 10
-66.6645792067919
 20
98.97552370257665
 30
0.0
 10
-66.7986269174647
 20
98.14101883616434
 30
0.0
 10
-66.98063144104168
 20
97.23589327076787
 30
0.0
  0
LINE
  5
143
330
2
100
AcDbEntity
  8
GEB-KONTUR-A
 48
25.0
100
AcDbLine
 10
-72.07280204389502
 20
108.6423460919302
 30
0.0
 11
-74.41516314541357
 21
54.99345659298445
 31
0.0
  0
LINE
  5
144
330
2
100
AcDbEntity
  8
GEB-KONTUR-A
 48
25.0
100
AcDbLine
 10
-40.15200226222987
 20
60.2789491237802
 30
0.0
 11
-37.6
 21
60.16752629870655
 31
0.0
  0
LINE
  5
145
330
2
100
AcDbEntity
  8
GEB-KONTUR-A
 48
25.0
100
AcDbLine
 10
-38.40068385951165
 20
100.3907352202918
 30
0.0
 11
-37.60000000000028
 21
100.355776608014
 31
0.0
  0
LINE
  5
146
330
2
100
AcDbEntity
  8
GEB-KONTUR-A
 48
25.0
100
AcDbLine
 10
-35.58219121740248
 20
96.16807301697713
 30
0.0
 11
-35.93024329720245
 21
88.19636978259485
 31
0.0
  0
LINE
  5
147
330
2
100
AcDbEntity
  8
GEB-KONTUR-A
 48
25.0
100
AcDbLine
 10
-36.62815349504786
 20
72.21159823728521
 30
0.0
 11
-37.11452204569975
 21
61.07192698302333
 31
0.0
  0
LINE
  5
148
330
2
100
AcDbEntity
  8
GEB-VERDECKT
 48
25.0
100
AcDbLine
 10
-37.6
 20
60.16752629870655
 30
0.0
 11
-37.15485759748427
 21
60.14809096168415
 31
0.0
  0
LINE
  5
149
330
2
100
AcDbEntity
  8
GEB-VERDECKT
 48
25.0
100
AcDbLine
 10
-37.60000000000028
 20
100.3557766080139
 30
0.0
 11
-35.40353919476604
 21
100.2598770581958
 31
0.0
  0
LINE
  5
14A
330
2
100
AcDbEntity
  8
GEB-VERDECKT
 48
25.0
100
AcDbLine
 10
-35.40353919476604
 20
100.2598770581958
 30
0.0
 11
-35.58219121740248
 21
96.16807301697713
 31
0.0
  0
LINE
  5
14B
330
2
100
AcDbEntity
  8
GEB-VERDECKT
 48
25.0
100
AcDbLine
 10
-35.93024329720248
 20
88.19636978259495
 30
0.0
 11
-36.62815349504786
 21
72.21159823728521
 31
0.0
  0
LINE
  5
14C
330
2
100
AcDbEntity
  8
GEB-VERDECKT
 48
25.0
100
AcDbLine
 10
-37.11452204569975
 20
61.07192698302333
 30
0.0
 11
-37.15485759748427
 21
60.14809096168426
 31
0.0
  0
LINE
  5
14D
330
2
100
AcDbEntity
  8
GEB-VERDECKT
 48
25.0
100
AcDbLine
 10
-37.60000000000002
 20
101.6200000000001
 30
0.0
 11
37.59999999999998
 21
101.6200000000001
 31
0.0
  0
LINE
  5
14E
330
2
100
AcDbEntity
  8
GEB-VERDECKT
 48
25.0
100
AcDbLine
 10
37.59999999999998
 20
100.6500000000002
 30
0.0
 11
37.59999999999998
 21
101.6200000000001
 31
0.0
  0
LINE
  5
14F
330
2
100
AcDbEntity
  8
GEB-VERDECKT
 48
25.0
100
AcDbLine
 10
-37.60000000000002
 20
100.6499999999994
 30
0.0
 11
-37.60000000000002
 21
101.6200000000001
 31
0.0
  0
LINE
  5
150
330
2
100
AcDbEntity
  8
GEB-VERDECKT
 48
25.0
100
AcDbLine
 10
-40.53787359815894
 20
60.29579663014818
 30
0.0
 11
-40.15200226222984
 21
60.27894912378008
 31
0.0
  0
LINE
  5
151
330
2
100
AcDbEntity
  8
GEB-VERDECKT
 48
25.0
100
AcDbLine
 10
-38.78655519544066
 20
100.4075827266597
 30
0.0
 11
-38.40068385951165
 21
100.3907352202916
 31
0.0
  0
LINE
  5
152
330
2
100
AcDbEntity
  8
GEB-VERDECKT
 48
25.0
100
AcDbLine
 10
-35.09664619174919
 20
98.2445724499853
 30
0.0
 11
-38.87379397017133
 21
98.409486283496
 31
0.0
  0
LINE
  5
153
330
2
100
AcDbEntity
  8
GEB-VERDECKT
 48
25.0
100
AcDbLine
 10
-35.06104892254453
 20
62.05857867099291
 30
0.0
 11
-40.45063482342823
 21
62.29389307331178
 31
0.0
  0
SPLINE
  5
154
330
2
100
AcDbEntity
  8
GEB-VERDECKT
 48
25.0
100
AcDbSpline
210
0.0
220
0.0
230
1.0
 70
     8
 71
     3
 72
    18
 73
    14
 74
     0
 42
0.0000000001
 43
0.0000000001
 40
5.423276385933914
 40
5.423276385933914
 40
5.423276385933914
 40
5.423276385933914
 40
5.445230018899986
 40
5.445230018899986
 40
5.837240763481236
 40
5.837240763481236
 40
6.229251508062485
 40
6.229251508062485
 40
6.613659180917585
 40
6.613659180917585
 40
6.998066853772684
 40
6.998066853772684
 40
7.027378333386371
 40
7.027378333386371
 40
7.027378333386371
 40
7.027378333386371
 10
-32.78345024472495
 20
88.05897246676227
 30
0.0
 10
-32.76669913220783
 20
87.98954352032911
 30
0.0
 10
-32.75010529500264
 20
87.91992996110469
 30
0.0
 10
-32.44029123174716
 20
86.60390490833425
 30
0.0
 10
-32.19939119276364
 20
85.29836870170901
 30
0.0
 10
-31.87510197535934
 20
82.65387683471761
 30
0.0
 10
-31.79236346986491
 20
81.31478704832217
 30
0.0
 10
-31.79236346986491
 20
78.72672565686753
 30
0.0
 10
-31.87202584215498
 20
77.41240387579342
 30
0.0
 10
-32.18910931817368
 20
74.81896118188024
 30
0.0
 10
-32.4259788893578
 20
73.53973561472276
 30
0.0
 10
-32.73829180820883
 20
72.2285110526684
 30
0.0
 10
-32.76072700707516
 20
72.13595150725939
 30
0.0
 10
-32.78345447577152
 20
72.04374558441372
 30
0.0
  0
LINE
  5
155
330
2
100
AcDbEntity
  8
GEB-VERDECKT
 48
25.0
100
AcDbLine
 10
-40.53787359815894
 20
60.29579663014818
 30
0.0
 11
-38.78655519544063
 21
100.4075827266597
 31
0.0
  0
LINE
  5
156
330
2
100
AcDbEntity
  8
GEB-KONTUR-A
 48
25.0
100
AcDbLine
 10
37.59999999999998
 20
58.95000000000004
 30
0.0
 11
37.59999999999998
 21
100.6500000000002
 31
0.0
  0
LINE
  5
157
330
2
100
AcDbEntity
  8
GEB-KONTUR-A
 48
25.0
100
AcDbLine
 10
-37.60000000000002
 20
100.3557766080139
 30
0.0
 11
-37.60000000000002
 21
100.6499999999994
 31
0.0
  0
LINE
  5
158
330
2
100
AcDbEntity
  8
GEB-KONTUR-A
 48
25.0
100
AcDbLine
 10
-37.60000000000002
 20
58.95000000000004
 30
0.0
 11
-37.60000000000002
 21
60.16752629870643
 31
0.0
  0
LINE
  5
159
330
2
100
AcDbEntity
  8
GEB-KONTUR-A
 48
25.0
100
AcDbLine
 10
-40.15200226222984
 20
60.27894912378008
 30
0.0
 11
-37.60000000000002
 21
60.16752629870643
 31
0.0
  0
LINE
  5
15A
330
2
100
AcDbEntity
  8
GEB-KONTUR-A
 48
25.0
100
AcDbLine
 10
-38.40068385951165
 20
100.3907352202916
 30
0.0
 11
-37.60000000000002
 21
100.3557766080139
 31
0.0
  0
ARC
  5
15B
330
2
100
AcDbEntity
  8
GEB-KONTUR-A
 48
25.0
100
AcDbCircle
 10
-38.725
 20
57.82500000000005
 30
0.0
 40
0.7500000000000001
100
AcDbArc
 50
109.3750953629676
 51
253.1255057020547
  0
ARC
  5
15C
330
2
100
AcDbEntity
  8
GEB-KONTUR-A
 48
25.0
100
AcDbCircle
 10
38.72499999999997
 20
57.82500000000005
 30
0.0
 40
0.7500000000000002
100
AcDbArc
 50
286.8744942979453
 51
70.62490463703238
  0
LINE
  5
15D
330
2
100
AcDbEntity
  8
GEB-KONTUR-A
 48
25.0
100
AcDbLine
 10
37.59999999999997
 20
56.70000000000005
 30
0.0
 11
38.9427071733467
 21
57.10729282665329
 31
0.0
  0
LINE
  5
15E
330
2
100
AcDbEntity
  8
GEB-KONTUR-A
 48
25.0
100
AcDbLine
 10
-37.60000000000002
 20
56.70000000000005
 30
0.0
 11
-38.94270717334675
 21
57.10729282665329
 31
0.0
  0
ARC
  5
15F
330
2
100
AcDbEntity
  8
GEB-KONTUR-A
 48
25.0
100
AcDbCircle
 10
-33.45201459254202
 20
42.83074685156168
 30
0.0
 40
16.64440161147056
100
AcDbArc
 50
104.4308901345321
 51
109.3750953629676
  0
ARC
  5
160
330
2
100
AcDbEntity
  8
GEB-KONTUR-A
 48
25.0
100
AcDbCircle
 10
33.45201459254198
 20
42.83074685156168
 30
0.0
 40
16.64440161147056
100
AcDbArc
 50
70.62490463703238
 51
75.56910986546786
  0
LINE
  5
161
330
2
100
AcDbEntity
  8
GEB-KONTUR-A
 48
25.0
100
AcDbLine
 10
37.59999999999998
 20
2.000000000000113
 30
0.0
 11
37.59999999999998
 21
56.70000000000005
 31
0.0
  0
LINE
  5
162
330
2
100
AcDbEntity
  8
GEB-KONTUR-A
 48
25.0
100
AcDbLine
 10
-37.60000000000002
 20
2.000000000000113
 30
0.0
 11
-37.60000000000002
 21
56.70000000000005
 31
0.0
  0
LINE
  5
163
330
2
100
AcDbEntity
  8
GEB-KONTUR-A
 48
25.0
100
AcDbLine
 10
36.98853863708269
 20
0.0
 30
0.0
 11
37.59999999999998
 21
2.000000000000113
 31
0.0
  0
LINE
  5
164
330
2
100
AcDbEntity
  8
GEB-KONTUR-A
 48
25.0
100
AcDbLine
 10
-36.98853863708271
 20
0.0
 30
0.0
 11
-37.60000000000002
 21
2.000000000000113
 31
0.0
  0
SPLINE
  5
165
330
2
100
AcDbEntity
  8
GEB-KONTUR-A
 48
25.0
100
AcDbSpline
210
0.0
220
0.0
230
1.0
 70
     8
 71
     3
 72
    18
 73
    14
 74
     0
 42
0.0000000001
 43
0.0000000001
 40
7.027378333386371
 40
7.027378333386371
 40
7.027378333386371
 40
7.027378333386371
 40
7.382474526627783
 40
7.382474526627783
 40
7.766882199482882
 40
7.766882199482882
 40
8.153003028394296
 40
8.153003028394296
 40
8.53912385730571
 40
8.53912385730571
 40
8.925244686217125
 40
8.925244686217125
 40
9.311365515128539
 40
9.311365515128539
 40
9.311365515132951
 40
9.311365515132951
 10
-32.78345447577152
 20
72.04374558441372
 30
0.0
 10
-33.05878815808484
 20
70.92670978040962
 30
0.0
 10
-33.37701623439497
 20
69.86157268094553
 30
0.0
 10
-34.0700006571808
 20
67.80538130533432
 30
0.0
 10
-34.446566333911
 20
66.82761044213589
 30
0.0
 10
-35.16384771919488
 20
65.09459698834087
 30
0.0
 10
-35.53110373570274
 20
64.27753898047559
 30
0.0
 10
-36.21392076025745
 20
62.83178065948129
 30
0.0
 10
-36.52898284059015
 20
62.2029431829194
 30
0.0
 10
-37.05078175359484
 20
61.18780957931517
 30
0.0
 10
-37.25765742904193
 20
60.800693802036
 30
0.0
 10
-37.53234351966995
 20
60.29046610381647
 30
0.0
 10
-37.60000000000002
 20
60.16752629870643
 30
0.0
 10
-37.60000000000002
 20
60.16752629870643
 30
0.0
  0
SPLINE
  5
166
330
2
100
AcDbEntity
  8
GEB-KONTUR-A
 48
25.0
100
AcDbSpline
210
0.0
220
0.0
230
1.0
 70
     8
 71
     3
 72
    18
 73
    14
 74
     0
 42
0.0000000001
 43
0.0000000001
 40
3.114625754021709
 40
3.114625754021709
 40
3.114625754031242
 40
3.114625754031242
 40
3.501271447957804
 40
3.501271447957804
 40
3.887917141884365
 40
3.887917141884365
 40
4.274562835810926
 40
4.274562835810926
 40
4.661208529737487
 40
4.661208529737487
 40
5.053219274318736
 40
5.053219274318736
 40
5.423276385933914
 40
5.423276385933914
 40
5.423276385933914
 40
5.423276385933914
 10
-37.60000000000002
 20
100.3557766080139
 30
0.0
 10
-37.60000000000002
 20
100.3557766080139
 30
0.0
 10
-37.53216052839923
 20
100.2265697905871
 30
0.0
 10
-37.25819666684748
 20
99.69376705628633
 30
0.0
 10
-37.0522490231368
 20
99.29037142127027
 30
0.0
 10
-36.53453493876177
 20
98.23826642472091
 30
0.0
 10
-36.22263440483124
 20
97.58871953062408
 30
0.0
 10
-35.54827138413492
 20
96.10389439126789
 30
0.0
 10
-35.18629959918798
 20
95.26852912213007
 30
0.0
 10
-34.47379566696552
 20
93.49191748769795
 30
0.0
 10
-34.09627675849947
 20
92.48336657588357
 30
0.0
 10
-33.39286135365984
 20
90.34714837173146
 30
0.0
 10
-33.06581208998315
 20
89.22928789561343
 30
0.0
 10
-32.78345024472495
 20
88.05897246676227
 30
0.0
  0
LINE
  5
167
330
2
100
AcDbEntity
  8
GEB-KONTUR-A
 48
25.0
100
AcDbLine
 10
37.59999999999998
 20
58.95000000000004
 30
0.0
 11
-37.60000000000002
 21
58.95000000000004
 31
0.0
  0
LINE
  5
168
330
2
100
AcDbEntity
  8
GEB-KONTUR-A
 48
25.0
100
AcDbLine
 10
-37.60000000000002
 20
56.70000000000005
 30
0.0
 11
37.59999999999998
 21
56.70000000000005
 31
0.0
  0
LINE
  5
169
330
2
100
AcDbEntity
  8
GEB-KONTUR-A
 48
25.0
100
AcDbLine
 10
36.98853863708265
 20
0.0
 30
0.0
 11
-36.98853863708271
 21
0.0
 31
0.0
  0
LINE
  5
16A
330
2
100
AcDbEntity
  8
GEB-KONTUR-A
 48
25.0
100
AcDbLine
 10
-37.6
 20
2.000000000000113
 30
0.0
 11
37.59999999999998
 21
2.000000000000113
 31
0.0
  0
LINE
  5
16B
330
2
100
AcDbEntity
  8
GEB-VERDECKT
 48
25.0
100
AcDbLine
 10
34.99999999999999
 20
0.0
 30
0.0
 11
35.09996670310261
 21
101.6200000000001
 31
0.0
  0
LINE
  5
16C
330
2
100
AcDbEntity
  8
GEB-VERDECKT
 48
25.0
100
AcDbLine
 10
-35.09664619174919
 20
98.2445724499853
 30
0.0
 11
-35.09996670310264
 21
101.6200000000001
 31
0.0
  0
LINE
  5
16D
330
2
100
AcDbEntity
  8
GEB-VERDECKT
 48
25.0
100
AcDbLine
 10
-35.0
 20
0.0
 30
0.0
 11
-35.06104892254453
 21
62.05857867099291
 31
0.0
  0
SPLINE
  5
16E
330
2
100
AcDbEntity
  8
GEB-VERDECKT
 48
25.0
100
AcDbSpline
210
0.0
220
0.0
230
1.0
 70
     8
 71
     3
 72
    36
 73
    32
 74
     0
 42
0.0000000001
 43
0.0000000001
 40
2.79982608428937
 40
2.79982608428937
 40
2.799826084306331
 40
2.799826084306331
 40
3.148740268698784
 40
3.148740268698784
 40
3.497654453091236
 40
3.497654453091236
 40
3.846568637483689
 40
3.846568637483689
 40
4.195482821876142
 40
4.195482821876142
 40
4.897567495244402
 40
4.897567495244402
 40
5.248609831928532
 40
5.248609831928532
 40
5.599652168612662
 40
5.599652168612662
 40
5.944990109936503
 40
5.944990109936503
 40
6.290328051260343
 40
6.290328051260343
 40
6.635665992584183
 40
6.635665992584183
 40
6.981003933908024
 40
6.981003933908024
 40
7.327985844546763
 40
7.327985844546763
 40
7.674967755185502
 40
7.674967755185502
 40
8.021949665824241
 40
8.021949665824241
 40
8.368931576460298
 40
8.368931576460298
 40
8.36893157646298
 40
8.36893157646298
 10
-35.09664619174919
 20
98.2445724499853
 30
0.0
 10
-35.09664619174919
 20
98.2445724499853
 30
0.0
 10
-35.03733294318377
 20
98.12780200697103
 30
0.0
 10
-34.79774311181188
 20
97.64585987804663
 30
0.0
 10
-34.61762301545565
 20
97.28086660639622
 30
0.0
 10
-34.16503640163575
 20
96.32831536060018
 30
0.0
 10
-33.89246235585944
 20
95.73999647922244
 30
0.0
 10
-33.30369125052073
 20
94.39437026455129
 30
0.0
 10
-32.98793538508096
 20
93.63698102225828
 30
0.0
 10
-32.05959333556484
 20
91.22641667485675
 30
0.0
 10
-31.37540322318014
 20
89.19786799750045
 30
0.0
 10
-30.61991356549041
 20
85.83872328611823
 30
0.0
 10
-30.41353576156135
 20
84.66644952351861
 30
0.0
 10
-30.1354825174397
 20
82.29391852369792
 30
0.0
 10
-30.06432396999225
 20
81.09355441571983
 30
0.0
 10
-30.06236694744041
 20
78.77228794553457
 30
0.0
 10
-30.12933943833372
 20
77.59055099395755
 30
0.0
 10
-30.39874549565553
 20
75.25706440443241
 30
0.0
 10
-30.60074003060075
 20
74.10523250515666
 30
0.0
 10
-31.09739659117619
 20
71.91019949995325
 30
0.0
 10
-31.39180948027397
 20
70.86470950157263
 30
0.0
 10
-32.01121028702224
 20
68.93784949398514
 30
0.0
 10
-32.33559260228495
 20
68.05640414353252
 30
0.0
 10
-32.95441255687885
 20
66.49404930598473
 30
0.0
 10
-33.27165480635926
 20
65.75767001957274
 30
0.0
 10
-33.86188357460168
 20
64.45526505915314
 30
0.0
 10
-34.13442524960561
 20
63.88911512869959
 30
0.0
 10
-34.58588091952737
 20
62.97561744671134
 30
0.0
 10
-34.76490268209599
 20
62.62753379605374
 30
0.0
 10
-35.00255372429422
 20
62.16893890983181
 30
0.0
 10
-35.06104892254362
 20
62.05857867099462
 30
0.0
 10
-35.06104892254453
 20
62.05857867099291
 30
0.0
  0
TEXT
  5
16F
330
2
100
AcDbEntity
  8
GEB-TEXT
100
AcDbText
 10
-56.8524850749841
 20
-10.5
 30
0.0
 40
3.5
  1
Abzweig PP-MD 87.5G d75/40
 72
     1
 11
-23.5630921691178
 21
-10.5
 31
0.0
100
AcDbText
  0
TEXT
  5
171
330
2
100
AcDbEntity
  8
GEB-TEXT
100
AcDbText
 10
-42.31530908589815
 20
-5.0
 30
0.0
 40
3.5
  1
Geberit Silent PP
 72
     1
 11
-23.5630921691178
 21
-5.0
 31
0.0
100
AcDbText
  0
TEXT
  5
172
330
2
100
AcDbEntity
  8
GEB-ART-NR
100
AcDbText
 10
-47.73853696876339
 20
-16.84278125428022
 30
0.0
 40
3.5
  1
GEB-ART-NR 390.347
 72
     1
 11
-23.01053560450691
 21
-16.84278125428022
 31
0.0
100
AcDbText
  0
ENDSEC
  0
SECTION
  2
OBJECTS
  0
DICTIONARY
  5
9
330
0
100
AcDbDictionary
281
     1
  3
ACAD_2007HEADERVARS_RT
350
1A1
  3
ACAD_COLOR
350
44
  3
ACAD_GROUP
350
31
  3
ACAD_LAYOUT
350
16
  3
ACAD_MATERIAL
350
B
  3
ACAD_MLEADERSTYLE
350
47
  3
ACAD_MLINESTYLE
350
32
  3
ACAD_PLOTSETTINGS
350
33
  3
ACAD_PLOTSTYLENAME
350
8
  3
ACAD_SCALELIST
350
45
  3
ACAD_TABLESTYLE
350
46
  3
ACAD_VISUALSTYLE
350
2B
  3
ACDB_RECOMPOSE_DATA
350
1A0
  3
AcDbVariableDictionary
350
176
  0
DICTIONARY
  5
2C
330
28
100
AcDbDictionary
280
     1
281
     1
  0
DICTIONARY
  5
1C
330
1B
100
AcDbDictionary
280
     1
281
     1
  3
ACAD_LAYERFILTERS
360
1D
  3
ACLYDICTIONARY
360
1E
  0
DICTIONARY
  5
3
330
2
100
AcDbDictionary
280
     1
281
     1
  3
ACAD_SORTENTS
360
174
  0
DICTIONARY
  5
1A1
102
{ACAD_REACTORS
330
9
102
}
330
9
100
AcDbDictionary
281
     1
  3
DIMARCSYM
350
1A2
  3
DIMLTEX1
350
1A4
  3
DIMLTEX2
350
1A5
  3
DIMLTYPE
350
1A3
  0
DICTIONARY
  5
44
102
{ACAD_REACTORS
330
9
102
}
330
9
100
AcDbDictionary
281
     1
  0
DICTIONARY
  5
31
102
{ACAD_REACTORS
330
9
102
}
330
9
100
AcDbDictionary
281
     1
  0
DICTIONARY
  5
16
102
{ACAD_REACTORS
330
9
102
}
330
9
100
AcDbDictionary
281
     1
  3
Layout1
350
1A
  3
Model
350
15
  0
DICTIONARY
  5
B
102
{ACAD_REACTORS
330
9
102
}
330
9
100
AcDbDictionary
281
     1
  3
ByBlock
350
3C
  3
ByLayer
350
34
  3
Global
350
A
  0
DICTIONARY
  5
47
102
{ACAD_REACTORS
330
9
102
}
330
9
100
AcDbDictionary
281
     1
  3
Standard
350
194
  0
DICTIONARY
  5
32
102
{ACAD_REACTORS
330
9
102
}
330
9
100
AcDbDictionary
281
     1
  3
Standard
350
48
  0
DICTIONARY
  5
33
102
{ACAD_REACTORS
330
9
102
}
330
9
100
AcDbDictionary
281
     1
  0
ACDBDICTIONARYWDFLT
  5
8
102
{ACAD_REACTORS
330
9
102
}
330
9
100
AcDbDictionary
281
     1
  3
Normal
350
7
100
AcDbDictionaryWithDefault
340
7
  0
DICTIONARY
  5
45
102
{ACAD_REACTORS
330
9
102
}
330
9
100
AcDbDictionary
281
     1
  3
A0
350
4D
  3
A1
350
4E
  3
A2
350
4F
  3
A3
350
50
  3
A4
350
51
  3
A5
350
52
  3
A6
350
53
  3
A7
350
54
  3
A8
350
55
  3
A9
350
56
  3
B0
350
57
  3
B1
350
58
  3
B2
350
59
  3
B3
350
5A
  3
B4
350
5B
  3
B5
350
5C
  3
B6
350
5D
  3
B7
350
5E
  3
B8
350
5F
  3
B9
350
60
  3
C0
350
61
  3
C1
350
62
  3
C2
350
63
  3
C3
350
64
  3
C4
350
65
  3
C5
350
66
  3
C6
350
67
  3
C7
350
68
  3
C8
350
69
  3
C9
350
6A
  3
D0
350
6B
  3
D1
350
6C
  3
D2
350
6D
  0
DICTIONARY
  5
46
102
{ACAD_REACTORS
330
9
102
}
330
9
100
AcDbDictionary
281
     1
  3
Standard
350
49
  0
DICTIONARY
  5
2B
102
{ACAD_REACTORS
330
9
102
}
330
9
100
AcDbDictionary
281
     1
  3
2dWireframe
350
2A
  3
Basic
350
183
  3
Brighten
350
187
  3
ColorChange
350
18B
  3
Conceptual
350
185
  3
Dim
350
186
  3
EdgeColorOff
350
193
  3
Facepattern
350
18A
  3
Flat
350
17F
  3
FlatWithEdges
350
180
  3
Gouraud
350
181
  3
GouraudWithEdges
350
182
  3
Hidden
350
184
  3
JitterOff
350
191
  3
Linepattern
350
189
  3
OverhangOff
350
192
  3
Realistic
350
4B
  3
Shaded
350
190
  3
Shaded with edges
350
18F
  3
Shades of Gray
350
18C
  3
Sketchy
350
18D
  3
Thicken
350
188
  3
Wireframe
350
4C
  3
X-Ray
350
18E
  0
XRECORD
  5
1A0
102
{ACAD_REACTORS
330
9
102
}
330
9
100
AcDbXrecord
280
     1
 90
        1
330
49
  0
DICTIONARY
  5
176
102
{ACAD_REACTORS
330
9
102
}
330
9
100
AcDbDictionary
281
     1
  3
CANNOSCALE
350
17A
  3
CMLEADERSTYLE
350
178
  3
CTABLESTYLE
350
177
  3
DIMASSOC
350
19D
  3
HIDETEXT
350
19C
  3
INDEXCTL
350
19B
  3
LAYEREVAL
350
17C
  3
LAYERNOTIFY
350
17D
  3
LIGHTINGUNITS
350
17B
  3
MSLTSCALE
350
179
  3
SORTENTS
350
19A
  3
XCLIPFRAME
350
19E
  0
DICTIONARY
  5
1D
102
{ACAD_REACTORS
330
1C
102
}
330
1C
100
AcDbDictionary
281
     1
  0
DICTIONARY
  5
1E
102
{ACAD_REACTORS
330
1C
102
}
330
1C
100
AcDbDictionary
281
     1
1001
ACAD
1000
<All
  0
SORTENTSTABLE
  5
174
102
{ACAD_REACTORS
330
3
102
}
330
3
100
AcDbSortentsTable
330
2
331
169
  5
7C
331
F3
  5
F5
331
BC
  5
12C
331
7D
  5
168
331
132
  5
B6
331
13A
  5
AE
331
C4
  5
124
331
85
  5
162
331
FB
  5
ED
331
142
  5
A6
331
103
  5
E5
331
8D
  5
15A
331
CC
  5
11C
331
10B
  5
DD
331
D4
  5
114
331
14A
  5
9E
331
113
  5
D5
331
DC
  5
10C
331
9D
  5
14B
331
152
  5
96
331
15A
  5
8D
331
E4
  5
104
331
A5
  5
143
331
11B
  5
CD
331
162
  5
85
331
123
  5
C5
331
AD
  5
13B
331
EC
  5
FC
331
B5
  5
133
331
12B
  5
BD
331
133
  5
B5
331
7E
  5
167
331
BD
  5
12B
331
16A
  5
7B
331
172
  5
16F
331
FC
  5
EC
331
C5
  5
123
331
86
  5
161
331
13B
  5
AD
331
104
  5
E4
331
CD
  5
11B
331
8E
  5
159
331
143
  5
A5
331
14B
  5
9D
331
D5
  5
113
331
96
  5
152
331
10C
  5
DC
331
153
  5
94
331
114
  5
D4
331
9E
  5
14A
331
DD
  5
10B
331
11C
  5
CC
331
A6
  5
142
331
E5
  5
103
331
15B
  5
8C
331
124
  5
C4
331
ED
  5
FB
331
AE
  5
13A
331
163
  5
84
331
B6
  5
132
331
12C
  5
BC
331
16B
  5
7A
331
134
  5
B4
331
BE
  5
12A
331
7F
  5
166
331
F5
  5
F3
331
13C
  5
AC
331
C6
  5
122
331
87
  5
160
331
FD
  5
EB
331
144
  5
A4
331
105
  5
E3
331
8F
  5
158
331
CE
  5
11A
331
10D
  5
DB
331
D6
  5
112
331
97
  5
151
331
14C
  5
9C
331
115
  5
D3
331
DE
  5
10A
331
9F
  5
149
331
154
  5
93
331
15C
  5
8B
331
E6
  5
102
331
A7
  5
141
331
11D
  5
CB
331
164
  5
81
331
125
  5
C3
331
AF
  5
139
331
EE
  5
FA
331
B7
  5
131
331
12D
  5
BB
331
135
  5
B3
331
F6
  5
F2
331
80
  5
165
331
BF
  5
129
331
16C
  5
79
331
FE
  5
EA
331
C7
  5
121
331
88
  5
15F
331
13D
  5
AB
331
145
  5
A3
331
CF
  5
119
331
90
  5
157
331
106
  5
E2
331
14D
  5
9B
331
D7
  5
111
331
10E
  5
DA
331
98
  5
150
331
155
  5
92
331
116
  5
D2
331
A0
  5
148
331
DF
  5
109
331
11E
  5
CA
331
E7
  5
101
331
A8
  5
140
331
15D
  5
8A
331
126
  5
C2
331
EF
  5
F9
331
B0
  5
138
331
165
  5
80
331
12E
  5
BA
331
75
  5
16D
331
B8
  5
130
331
79
  5
16C
331
16D
  5
75
331
136
  5
B2
331
C0
  5
128
331
81
  5
164
331
F7
  5
F1
331
13E
  5
AA
331
C8
  5
120
331
89
  5
15E
331
FF
  5
E9
331
146
  5
A2
331
107
  5
E1
331
91
  5
156
331
D0
  5
118
331
10F
  5
D9
331
14E
  5
9A
331
D8
  5
110
331
99
  5
14F
331
156
  5
91
331
E0
  5
108
331
A1
  5
147
331
117
  5
D1
331
15E
  5
89
331
E8
  5
100
331
A9
  5
13F
331
11F
  5
C9
331
166
  5
7F
331
B1
  5
137
331
127
  5
C1
331
12F
  5
B9
331
6E
  5
16E
331
F0
  5
F8
331
7A
  5
16B
331
B9
  5
12F
331
137
  5
B1
331
F8
  5
F0
331
C1
  5
127
331
16E
  5
6E
331
100
  5
E8
331
C9
  5
11F
331
8A
  5
15D
331
13F
  5
A9
331
147
  5
A1
331
D1
  5
117
331
92
  5
155
331
108
  5
E0
331
14F
  5
99
331
D9
  5
10F
331
9A
  5
14E
331
110
  5
D8
331
157
  5
90
331
118
  5
D0
331
A2
  5
146
331
E1
  5
107
331
120
  5
C8
331
E9
  5
FF
331
AA
  5
13E
331
15F
  5
88
331
167
  5
7E
331
B2
  5
136
331
128
  5
C0
331
F1
  5
F7
331
BA
  5
12E
331
7B
  5
16A
331
130
  5
B8
331
16F
  5
172
331
138
  5
B0
331
C2
  5
126
331
F9
  5
EF
331
140
  5
A8
331
101
  5
E7
331
8B
  5
15C
331
CA
  5
11E
331
148
  5
A0
331
109
  5
DF
331
93
  5
154
331
D2
  5
116
331
111
  5
D7
331
DA
  5
10E
331
9B
  5
14D
331
150
  5
98
331
158
  5
8F
331
E2
  5
106
331
A3
  5
145
331
119
  5
CF
331
160
  5
87
331
EA
  5
FE
331
AB
  5
13D
331
121
  5
C7
331
B3
  5
135
331
129
  5
BF
331
131
  5
B7
331
F2
  5
F6
331
7C
  5
169
331
BB
  5
12D
331
168
  5
7D
331
FA
  5
EE
331
84
  5
163
331
C3
  5
125
331
139
  5
AF
331
102
  5
E6
331
CB
  5
11D
331
8C
  5
15B
331
141
  5
A7
331
149
  5
9F
331
D3
  5
115
331
94
  5
153
331
10A
  5
DE
331
151
  5
97
331
112
  5
D6
331
9C
  5
14C
331
DB
  5
10D
331
159
  5
8E
331
11A
  5
CE
331
A4
  5
144
331
E3
  5
105
331
122
  5
C6
331
EB
  5
FD
331
AC
  5
13C
331
161
  5
86
331
B4
  5
134
331
12A
  5
BE
  0
XRECORD
  5
1A2
102
{ACAD_REACTORS
330
1A1
102
}
330
1A1
100
AcDbXrecord
280
     1
 70
     1
  0
XRECORD
  5
1A4
102
{ACAD_REACTORS
330
1A1
102
}
330
1A1
100
AcDbXrecord
280
     1
340
24
  0
XRECORD
  5
1A5
102
{ACAD_REACTORS
330
1A1
102
}
330
1A1
100
AcDbXrecord
280
     1
340
24
  0
XRECORD
  5
1A3
102
{ACAD_REACTORS
330
1A1
102
}
330
1A1
100
AcDbXrecord
280
     1
340
24
  0
LAYOUT
  5
1A
102
{ACAD_XDICTIONARY
360
1A9
102
}
102
{ACAD_REACTORS
330
16
102
}
330
16
100
AcDbPlotSettings
  1

  2
\\le-server\HP LaserJet 2100
  4

  6

 40
0.0
 41
0.0
 42
0.0
 43
0.0
 44
0.0
 45
0.0
 46
0.0
 47
0.0
 48
0.0
 49
0.0
140
0.0
141
0.0
142
1.0
143
1.0
 70
   688
 72
     0
 73
     0
 74
     5
  7

 75
    16
147
1.0
148
0.0
149
0.0
100
AcDbLayout
  1
Layout1
 70
     1
 71
     1
 10
0.0
 20
0.0
 11
1189.0
 21
840.9999999999998
 12
0.0
 22
0.0
 32
0.0
 14
0.0
 24
0.0
 34
0.0
 15
1189.0
 25
840.9999999999998
 35
0.0
146
0.0
 13
0.0
 23
0.0
 33
0.0
 16
1.0
 26
0.0
 36
0.0
 17
0.0
 27
1.0
 37
0.0
 76
     0
330
17
  0
LAYOUT
  5
15
102
{ACAD_XDICTIONARY
360
1A7
102
}
102
{ACAD_REACTORS
330
16
102
}
330
16
100
AcDbPlotSettings
  1

  2
\\le-server\HP LaserJet 2100
  4

  6

 40
0.0
 41
0.0
 42
0.0
 43
0.0
 44
0.0
 45
0.0
 46
0.0
 47
0.0
 48
0.0
 49
0.0
140
0.0
141
0.0
142
1.0
143
1.0
 70
  1712
 72
     0
 73
     0
 74
     0
  7

 75
     0
147
1.0
148
0.0
149
0.0
100
AcDbLayout
  1
Model
 70
     1
 71
     0
 10
0.0
 20
0.0
 11
12.0
 21
9.0
 12
0.0
 22
0.0
 32
0.0
 14
0.0
 24
0.0
 34
0.0
 15
0.0
 25
0.0
 35
0.0
146
0.0
 13
0.0
 23
0.0
 33
0.0
 16
1.0
 26
0.0
 36
0.0
 17
0.0
 27
1.0
 37
0.0
 76
     0
330
2
331
29
  0
MATERIAL
  5
3C
102
{ACAD_XDICTIONARY
360
3D
102
}
102
{ACAD_REACTORS
330
B
102
}
330
B
100
AcDbMaterial
  1
ByBlock
 72
     0
 43
0.0208333333333333
 43
0.0
 43
0.0
 43
0.0
 43
0.0
 43
0.0208333333333333
 43
0.0
 43
0.0
 43
0.0
 43
0.0
 43
1.0
 43
0.0
 43
0.0
 43
0.0
 43
0.0
 43
1.0
 77
     0
 47
0.0208333333333333
 47
0.0
 47
0.0
 47
0.0
 47
0.0
 47
0.0208333333333333
 47
0.0
 47
0.0
 47
0.0
 47
0.0
 47
1.0
 47
0.0
 47
0.0
 47
0.0
 47
0.0
 47
1.0
171
     0
 49
0.0208333333333333
 49
0.0
 49
0.0
 49
0.0
 49
0.0
 49
0.0208333333333333
 49
0.0
 49
0.0
 49
0.0
 49
0.0
 49
1.0
 49
0.0
 49
0.0
 49
0.0
 49
0.0
 49
1.0
175
     0
142
0.0208333333333333
142
0.0
142
0.0
142
0.0
142
0.0
142
0.0208333333333333
142
0.0
142
0.0
142
0.0
142
0.0
142
1.0
142
0.0
142
0.0
142
0.0
142
0.0
142
1.0
179
     0
144
0.0208333333333333
144
0.0
144
0.0
144
0.0
144
0.0
144
0.0208333333333333
144
0.0
144
0.0
144
0.0
144
0.0
144
1.0
144
0.0
144
0.0
144
0.0
144
0.0
144
1.0
147
0.0208333333333333
147
0.0
147
0.0
147
0.0
147
0.0
147
0.0208333333333333
147
0.0
147
0.0
147
0.0
147
0.0
147
1.0
147
0.0
147
0.0
147
0.0
147
0.0
147
1.0
  0
MATERIAL
  5
34
102
{ACAD_XDICTIONARY
360
35
102
}
102
{ACAD_REACTORS
330
B
102
}
330
B
100
AcDbMaterial
  1
ByLayer
 72
     0
 43
0.0208333333333333
 43
0.0
 43
0.0
 43
0.0
 43
0.0
 43
0.0208333333333333
 43
0.0
 43
0.0
 43
0.0
 43
0.0
 43
1.0
 43
0.0
 43
0.0
 43
0.0
 43
0.0
 43
1.0
 77
     0
 47
0.0208333333333333
 47
0.0
 47
0.0
 47
0.0
 47
0.0
 47
0.0208333333333333
 47
0.0
 47
0.0
 47
0.0
 47
0.0
 47
1.0
 47
0.0
 47
0.0
 47
0.0
 47
0.0
 47
1.0
171
     0
 49
0.0208333333333333
 49
0.0
 49
0.0
 49
0.0
 49
0.0
 49
0.0208333333333333
 49
0.0
 49
0.0
 49
0.0
 49
0.0
 49
1.0
 49
0.0
 49
0.0
 49
0.0
 49
0.0
 49
1.0
175
     0
142
0.0208333333333333
142
0.0
142
0.0
142
0.0
142
0.0
142
0.0208333333333333
142
0.0
142
0.0
142
0.0
142
0.0
142
1.0
142
0.0
142
0.0
142
0.0
142
0.0
142
1.0
179
     0
144
0.0208333333333333
144
0.0
144
0.0
144
0.0
144
0.0
144
0.0208333333333333
144
0.0
144
0.0
144
0.0
144
0.0
144
1.0
144
0.0
144
0.0
144
0.0
144
0.0
144
1.0
147
0.0208333333333333
147
0.0
147
0.0
147
0.0
147
0.0
147
0.0208333333333333
147
0.0
147
0.0
147
0.0
147
0.0
147
1.0
147
0.0
147
0.0
147
0.0
147
0.0
147
1.0
  0
MATERIAL
  5
A
102
{ACAD_XDICTIONARY
360
C
102
}
102
{ACAD_REACTORS
330
B
102
}
330
B
100
AcDbMaterial
  1
Global
 72
     0
 43
0.0208333333333333
 43
0.0
 43
0.0
 43
0.0
 43
0.0
 43
0.0208333333333333
 43
0.0
 43
0.0
 43
0.0
 43
0.0
 43
1.0
 43
0.0
 43
0.0
 43
0.0
 43
0.0
 43
1.0
 77
     0
 47
0.0208333333333333
 47
0.0
 47
0.0
 47
0.0
 47
0.0
 47
0.0208333333333333
 47
0.0
 47
0.0
 47
0.0
 47
0.0
 47
1.0
 47
0.0
 47
0.0
 47
0.0
 47
0.0
 47
1.0
171
     0
 49
0.0208333333333333
 49
0.0
 49
0.0
 49
0.0
 49
0.0
 49
0.0208333333333333
 49
0.0
 49
0.0
 49
0.0
 49
0.0
 49
1.0
 49
0.0
 49
0.0
 49
0.0
 49
0.0
 49
1.0
175
     0
142
0.0208333333333333
142
0.0
142
0.0
142
0.0
142
0.0
142
0.0208333333333333
142
0.0
142
0.0
142
0.0
142
0.0
142
1.0
142
0.0
142
0.0
142
0.0
142
0.0
142
1.0
179
     0
144
0.0208333333333333
144
0.0
144
0.0
144
0.0
144
0.0
144
0.0208333333333333
144
0.0
144
0.0
144
0.0
144
0.0
144
1.0
144
0.0
144
0.0
144
0.0
144
0.0
144
1.0
147
0.0208333333333333
147
0.0
147
0.0
147
0.0
147
0.0
147
0.0208333333333333
147
0.0
147
0.0
147
0.0
147
0.0
147
1.0
147
0.0
147
0.0
147
0.0
147
0.0
147
1.0
  0
MLEADERSTYLE
  5
194
102
{ACAD_REACTORS
330
47
102
}
330
47
100
AcDbMLeaderStyle
170
     2
171
     1
172
     0
 90
        2
 40
0.0
 41
0.0
173
     1
 91
-1056964608
340
24
 92
       -2
290
     1
 42
2.0
291
     1
 43
0.36
  3
Standard
 44
4.0
300

342
21
174
     1
178
     6
175
     1
176
     0
 93
-1056964608
 45
4.0
292
     0
297
     0
 46
4.0
 94
-1056964608
 47
1.0
 49
1.0
140
1.0
293
     1
141
0.0
294
     1
177
     0
142
1.0
295
     0
296
     0
143
0.125
1001
ACAD_MLEADERVER
1070
     2
  0
MLINESTYLE
  5
48
102
{ACAD_REACTORS
330
32
102
}
330
32
100
AcDbMlineStyle
  2
STANDARD
 70
     0
  3

 62
   256
 51
90.0
 52
90.0
 71
     2
 49
0.5
 62
   256
  6
BYLAYER
 49
-0.5
 62
   256
  6
BYLAYER
  0
ACDBPLACEHOLDER
  5
7
102
{ACAD_REACTORS
330
8
102
}
330
8
  0
SCALE
  5
4D
102
{ACAD_REACTORS
330
45
102
}
330
45
100
AcDbScale
 70
     0
300
1:1
140
1.0
141
1.0
290
     1
  0
SCALE
  5
4E
102
{ACAD_REACTORS
330
45
102
}
330
45
100
AcDbScale
 70
     0
300
1:2
140
1.0
141
2.0
290
     0
  0
SCALE
  5
4F
102
{ACAD_REACTORS
330
45
102
}
330
45
100
AcDbScale
 70
     0
300
1:4
140
1.0
141
4.0
290
     0
  0
SCALE
  5
50
102
{ACAD_REACTORS
330
45
102
}
330
45
100
AcDbScale
 70
     0
300
1:5
140
1.0
141
5.0
290
     0
  0
SCALE
  5
51
102
{ACAD_REACTORS
330
45
102
}
330
45
100
AcDbScale
 70
     0
300
1:8
140
1.0
141
8.0
290
     0
  0
SCALE
  5
52
102
{ACAD_REACTORS
330
45
102
}
330
45
100
AcDbScale
 70
     0
300
1:10
140
1.0
141
10.0
290
     0
  0
SCALE
  5
53
102
{ACAD_REACTORS
330
45
102
}
330
45
100
AcDbScale
 70
     0
300
1:16
140
1.0
141
16.0
290
     0
  0
SCALE
  5
54
102
{ACAD_REACTORS
330
45
102
}
330
45
100
AcDbScale
 70
     0
300
1:20
140
1.0
141
20.0
290
     0
  0
SCALE
  5
55
102
{ACAD_REACTORS
330
45
102
}
330
45
100
AcDbScale
 70
     0
300
1:30
140
1.0
141
30.0
290
     0
  0
SCALE
  5
56
102
{ACAD_REACTORS
330
45
102
}
330
45
100
AcDbScale
 70
     0
300
1:40
140
1.0
141
40.0
290
     0
  0
SCALE
  5
57
102
{ACAD_REACTORS
330
45
102
}
330
45
100
AcDbScale
 70
     0
300
1:50
140
1.0
141
50.0
290
     0
  0
SCALE
  5
58
102
{ACAD_REACTORS
330
45
102
}
330
45
100
AcDbScale
 70
     0
300
1:100
140
1.0
141
100.0
290
     0
  0
SCALE
  5
59
102
{ACAD_REACTORS
330
45
102
}
330
45
100
AcDbScale
 70
     0
300
2:1
140
2.0
141
1.0
290
     0
  0
SCALE
  5
5A
102
{ACAD_REACTORS
330
45
102
}
330
45
100
AcDbScale
 70
     0
300
4:1
140
4.0
141
1.0
290
     0
  0
SCALE
  5
5B
102
{ACAD_REACTORS
330
45
102
}
330
45
100
AcDbScale
 70
     0
300
8:1
140
8.0
141
1.0
290
     0
  0
SCALE
  5
5C
102
{ACAD_REACTORS
330
45
102
}
330
45
100
AcDbScale
 70
     0
300
10:1
140
10.0
141
1.0
290
     0
  0
SCALE
  5
5D
102
{ACAD_REACTORS
330
45
102
}
330
45
100
AcDbScale
 70
     0
300
100:1
140
100.0
141
1.0
290
     0
  0
SCALE
  5
5E
102
{ACAD_REACTORS
330
45
102
}
330
45
100
AcDbScale
 70
     0
300
1/128" = 1'-0"
140
0.0078125
141
12.0
290
     0
  0
SCALE
  5
5F
102
{ACAD_REACTORS
330
45
102
}
330
45
100
AcDbScale
 70
     0
300
1/64" = 1'-0"
140
0.015625
141
12.0
290
     0
  0
SCALE
  5
60
102
{ACAD_REACTORS
330
45
102
}
330
45
100
AcDbScale
 70
     0
300
1/32" = 1'-0"
140
0.03125
141
12.0
290
     0
  0
SCALE
  5
61
102
{ACAD_REACTORS
330
45
102
}
330
45
100
AcDbScale
 70
     0
300
1/16" = 1'-0"
140
0.0625
141
12.0
290
     0
  0
SCALE
  5
62
102
{ACAD_REACTORS
330
45
102
}
330
45
100
AcDbScale
 70
     0
300
3/32" = 1'-0"
140
0.09375
141
12.0
290
     0
  0
SCALE
  5
63
102
{ACAD_REACTORS
330
45
102
}
330
45
100
AcDbScale
 70
     0
300
1/8" = 1'-0"
140
0.125
141
12.0
290
     0
  0
SCALE
  5
64
102
{ACAD_REACTORS
330
45
102
}
330
45
100
AcDbScale
 70
     0
300
3/16" = 1'-0"
140
0.1875
141
12.0
290
     0
  0
SCALE
  5
65
102
{ACAD_REACTORS
330
45
102
}
330
45
100
AcDbScale
 70
     0
300
1/4" = 1'-0"
140
0.25
141
12.0
290
     0
  0
SCALE
  5
66
102
{ACAD_REACTORS
330
45
102
}
330
45
100
AcDbScale
 70
     0
300
3/8" = 1'-0"
140
0.375
141
12.0
290
     0
  0
SCALE
  5
67
102
{ACAD_REACTORS
330
45
102
}
330
45
100
AcDbScale
 70
     0
300
1/2" = 1'-0"
140
0.5
141
12.0
290
     0
  0
SCALE
  5
68
102
{ACAD_REACTORS
330
45
102
}
330
45
100
AcDbScale
 70
     0
300
3/4" = 1'-0"
140
0.75
141
12.0
290
     0
  0
SCALE
  5
69
102
{ACAD_REACTORS
330
45
102
}
330
45
100
AcDbScale
 70
     0
300
1" = 1'-0"
140
1.0
141
12.0
290
     0
  0
SCALE
  5
6A
102
{ACAD_REACTORS
330
45
102
}
330
45
100
AcDbScale
 70
     0
300
1-1/2" = 1'-0"
140
1.5
141
12.0
290
     0
  0
SCALE
  5
6B
102
{ACAD_REACTORS
330
45
102
}
330
45
100
AcDbScale
 70
     0
300
3" = 1'-0"
140
3.0
141
12.0
290
     0
  0
SCALE
  5
6C
102
{ACAD_REACTORS
330
45
102
}
330
45
100
AcDbScale
 70
     0
300
6" = 1'-0"
140
6.0
141
12.0
290
     0
  0
SCALE
  5
6D
102
{ACAD_REACTORS
330
45
102
}
330
45
100
AcDbScale
 70
     0
300
1'-0" = 1'-0"
140
12.0
141
12.0
290
     0
  0
TABLESTYLE
  5
49
102
{ACAD_XDICTIONARY
360
4A
102
}
102
{ACAD_REACTORS
330
46
102
}
330
46
100
AcDbTableStyle
  3
Standard
 70
     0
 71
     0
 40
0.06
 41
0.06
280
     0
281
     0
  7
STANDARD
140
0.18
170
     2
 62
     0
 63
     7
283
     0
274
    -2
284
     1
 64
     0
275
    -2
285
     1
 65
     0
276
    -2
286
     1
 66
     0
277
    -2
287
     1
 67
     0
278
    -2
288
     1
 68
     0
279
    -2
289
     1
 69
     0
  7
STANDARD
140
0.25
170
     5
 62
     0
 63
     7
283
     0
274
    -2
284
     1
 64
     0
275
    -2
285
     1
 65
     0
276
    -2
286
     1
 66
     0
277
    -2
287
     1
 67
     0
278
    -2
288
     1
 68
     0
279
    -2
289
     1
 69
     0
  7
STANDARD
140
0.18
170
     5
 62
     0
 63
     7
283
     0
274
    -2
284
     1
 64
     0
275
    -2
285
     1
 65
     0
276
    -2
286
     1
 66
     0
277
    -2
287
     1
 67
     0
278
    -2
288
     1
 68
     0
279
    -2
289
     1
 69
     0
  0
VISUALSTYLE
  5
2A
102
{ACAD_XDICTIONARY
360
1AB
102
}
102
{ACAD_REACTORS
330
2B
102
}
330
2B
100
AcDbVisualStyle
  2
2dWireframe
 70
     4
 71
     0
 72
     2
 73
     0
 90
        0
 40
-0.6
 41
-30.0
 62
     5
 63
     7
 74
     1
 91
        4
 64
     7
 65
   257
 75
     1
175
     1
 42
1.0
 92
        0
 66
   257
 43
1.0
 76
     1
 77
     6
 78
     2
 67
     7
 79
     5
170
     0
171
     0
290
     0
174
     0
 93
        1
 44
0.0
173
     0
291
     0
 45
0.0
1001
ACAD
1000
AcDbSavedByObjectVersion
1070
     0
  0
VISUALSTYLE
  5
183
102
{ACAD_XDICTIONARY
360
1BC
102
}
102
{ACAD_REACTORS
330
2B
102
}
330
2B
100
AcDbVisualStyle
  2
Basic
 70
     7
 71
     1
 72
     0
 73
     1
 90
        0
 40
-0.6
 41
-30.0
 62
     5
 63
     7
 74
     0
 91
        4
 64
     7
 65
   257
 75
     1
175
     1
 42
1.0
 92
        8
 66
     7
 43
1.0
 76
     1
 77
     6
 78
     2
 67
     7
 79
     5
170
     0
171
     0
290
     0
174
     0
 93
        1
 44
0.0
173
     0
291
     1
 45
0.0
1001
ACAD
1000
AcDbSavedByObjectVersion
1070
     0
  0
VISUALSTYLE
  5
187
102
{ACAD_XDICTIONARY
360
1C4
102
}
102
{ACAD_REACTORS
330
2B
102
}
330
2B
100
AcDbVisualStyle
  2
Brighten
 70
    12
 71
     2
 72
     2
 73
     0
 90
        0
 40
-0.6
 41
-30.0
 62
     5
 63
     7
 74
     1
 91
        4
 64
     7
 65
   257
 75
     1
175
     1
 42
1.0
 92
        8
 66
     7
 43
1.0
 76
     1
 77
     6
 78
     2
 67
     7
 79
     5
170
     0
171
     0
290
     0
174
     0
 93
        1
 44
50.0
173
     0
291
     1
 45
0.0
1001
ACAD
1000
AcDbSavedByObjectVersion
1070
     0
  0
VISUALSTYLE
  5
18B
102
{ACAD_XDICTIONARY
360
1CC
102
}
102
{ACAD_REACTORS
330
2B
102
}
330
2B
100
AcDbVisualStyle
  2
ColorChange
 70
    16
 71
     2
 72
     2
 73
     3
 90
        0
 40
-0.6
 41
-30.0
 62
     5
 63
     8
 74
     1
 91
        4
 64
     7
 65
   257
 75
     1
175
     1
 42
1.0
 92
        8
 66
     8
 43
1.0
 76
     1
 77
     6
 78
     2
 67
     7
 79
     5
170
     0
171
     0
290
     0
174
     0
 93
        1
 44
0.0
173
     0
291
     1
 45
0.0
1001
ACAD
1000
AcDbSavedByObjectVersion
1070
     0
  0
VISUALSTYLE
  5
185
102
{ACAD_XDICTIONARY
360
1C0
102
}
102
{ACAD_REACTORS
330
2B
102
}
330
2B
100
AcDbVisualStyle
  2
Conceptual
 70
     9
 71
     3
 72
     2
 73
     0
 90
        0
 40
-0.6
 41
-30.0
 62
     5
 63
     7
 74
     2
 91
        2
 64
     7
 65
   257
 75
     1
175
     1
 42
179.0
 92
        8
 66
     7
 43
1.0
 76
     1
 77
     6
 78
     2
 67
     7
 79
     3
170
     0
171
     0
290
     0
174
     0
 93
        1
 44
0.0
173
     0
291
     0
 45
0.0
1001
ACAD
1000
AcDbSavedByObjectVersion
1070
     0
  0
VISUALSTYLE
  5
186
102
{ACAD_XDICTIONARY
360
1C2
102
}
102
{ACAD_REACTORS
330
2B
102
}
330
2B
100
AcDbVisualStyle
  2
Dim
 70
    11
 71
     2
 72
     2
 73
     0
 90
        0
 40
-0.6
 41
-30.0
 62
     5
 63
     7
 74
     1
 91
        4
 64
     7
 65
   257
 75
     1
175
     1
 42
1.0
 92
        8
 66
     7
 43
1.0
 76
     1
 77
     6
 78
     2
 67
     7
 79
     5
170
     0
171
     0
290
     0
174
     0
 93
        1
 44
-50.0
173
     0
291
     1
 45
0.0
1001
ACAD
1000
AcDbSavedByObjectVersion
1070
     0
  0
VISUALSTYLE
  5
193
102
{ACAD_XDICTIONARY
360
1DC
102
}
102
{ACAD_REACTORS
330
2B
102
}
330
2B
100
AcDbVisualStyle
  2
EdgeColorOff
 70
    22
 71
     2
 72
     2
 73
     0
 90
        0
 40
-0.6
 41
-30.0
 62
     5
 63
     7
 74
     1
 91
        4
 64
     7
 65
   257
 75
     1
175
     1
 42
1.0
 92
        8
 66
     7
 43
1.0
 76
     1
 77
     6
 78
     2
 67
     7
 79
     5
170
     0
171
     0
290
     0
174
     0
 93
        1
 44
0.0
173
     0
291
     1
 45
0.0
1001
ACAD
1000
AcDbSavedByObjectVersion
1070
     0
  0
VISUALSTYLE
  5
18A
102
{ACAD_XDICTIONARY
360
1CA
102
}
102
{ACAD_REACTORS
330
2B
102
}
330
2B
100
AcDbVisualStyle
  2
Facepattern
 70
    15
 71
     2
 72
     2
 73
     0
 90
        0
 40
-0.6
 41
-30.0
 62
     5
 63
     7
 74
     1
 91
        4
 64
     7
 65
   257
 75
     1
175
     1
 42
1.0
 92
        8
 66
     7
 43
1.0
 76
     1
 77
     6
 78
     2
 67
     7
 79
     5
170
     0
171
     0
290
     0
174
     0
 93
        1
 44
0.0
173
     0
291
     1
 45
0.0
1001
ACAD
1000
AcDbSavedByObjectVersion
1070
     0
  0
VISUALSTYLE
  5
17F
102
{ACAD_XDICTIONARY
360
1B4
102
}
102
{ACAD_REACTORS
330
2B
102
}
330
2B
100
AcDbVisualStyle
  2
Flat
 70
     0
 71
     2
 72
     1
 73
     1
 90
        2
 40
-0.6
 41
30.0
 62
     5
 63
     7
 74
     0
 91
        0
 64
     7
 65
   257
 75
     1
175
     1
 42
1.0
 92
        8
 66
     7
 43
1.0
 76
     1
 77
     6
 78
     2
 67
     7
 79
     5
170
     0
171
     0
290
     0
174
     0
 93
       13
 44
0.0
173
     0
291
     1
 45
0.0
1001
ACAD
1000
AcDbSavedByObjectVersion
1070
     0
  0
VISUALSTYLE
  5
180
102
{ACAD_XDICTIONARY
360
1B6
102
}
102
{ACAD_REACTORS
330
2B
102
}
330
2B
100
AcDbVisualStyle
  2
FlatWithEdges
 70
     1
 71
     2
 72
     1
 73
     1
 90
        2
 40
-0.6
 41
30.0
 62
     5
 63
     7
 74
     1
 91
        0
 64
     7
 65
   257
 75
     1
175
     1
 42
1.0
 92
        0
 66
   257
 43
1.0
 76
     1
 77
     6
 78
     2
 67
     7
 79
     5
170
     0
171
     0
290
     0
174
     0
 93
       13
 44
0.0
173
     0
291
     1
 45
0.0
1001
ACAD
1000
AcDbSavedByObjectVersion
1070
     0
  0
VISUALSTYLE
  5
181
102
{ACAD_XDICTIONARY
360
1B8
102
}
102
{ACAD_REACTORS
330
2B
102
}
330
2B
100
AcDbVisualStyle
  2
Gouraud
 70
     2
 71
     2
 72
     2
 73
     1
 90
        2
 40
-0.6
 41
30.0
 62
     5
 63
     7
 74
     0
 91
        0
 64
     7
 65
   257
 75
     1
175
     1
 42
1.0
 92
        0
 66
     7
 43
1.0
 76
     1
 77
     6
 78
     2
 67
     7
 79
     5
170
     0
171
     0
290
     0
174
     0
 93
       13
 44
0.0
173
     0
291
     1
 45
0.0
1001
ACAD
1000
AcDbSavedByObjectVersion
1070
     0
  0
VISUALSTYLE
  5
182
102
{ACAD_XDICTIONARY
360
1BA
102
}
102
{ACAD_REACTORS
330
2B
102
}
330
2B
100
AcDbVisualStyle
  2
GouraudWithEdges
 70
     3
 71
     2
 72
     2
 73
     1
 90
        2
 40
-0.6
 41
30.0
 62
     5
 63
     7
 74
     1
 91
        0
 64
     7
 65
   257
 75
     1
175
     1
 42
1.0
 92
        0
 66
   257
 43
1.0
 76
     1
 77
     6
 78
     2
 67
     7
 79
     5
170
     0
171
     0
290
     0
174
     0
 93
       13
 44
0.0
173
     0
291
     1
 45
0.0
1001
ACAD
1000
AcDbSavedByObjectVersion
1070
     0
  0
VISUALSTYLE
  5
184
102
{ACAD_XDICTIONARY
360
1BE
102
}
102
{ACAD_REACTORS
330
2B
102
}
330
2B
100
AcDbVisualStyle
  2
Hidden
 70
     6
 71
     1
 72
     2
 73
     2
 90
        0
 40
-0.6
 41
-30.0
 62
     5
 63
     7
 74
     2
 91
        2
 64
     7
 65
   257
 75
     2
175
     1
 42
40.0
 92
        0
 66
   257
 43
1.0
 76
     1
 77
     6
 78
     2
 67
     7
 79
     3
170
     0
171
     0
290
     0
174
     0
 93
        1
 44
0.0
173
     0
291
     0
 45
0.0
1001
ACAD
1000
AcDbSavedByObjectVersion
1070
     0
  0
VISUALSTYLE
  5
191
102
{ACAD_XDICTIONARY
360
1D8
102
}
102
{ACAD_REACTORS
330
2B
102
}
330
2B
100
AcDbVisualStyle
  2
JitterOff
 70
    20
 71
     2
 72
     2
 73
     0
 90
        0
 40
-0.6
 41
-30.0
 62
     5
 63
     7
 74
     1
 91
        4
 64
     7
 65
   257
 75
     1
175
     1
 42
1.0
 92
       10
 66
     7
 43
1.0
 76
     1
 77
     6
 78
     2
 67
     7
 79
     5
170
     0
171
     0
290
     0
174
     0
 93
        1
 44
0.0
173
     0
291
     1
 45
0.0
1001
ACAD
1000
AcDbSavedByObjectVersion
1070
     0
  0
VISUALSTYLE
  5
189
102
{ACAD_XDICTIONARY
360
1C8
102
}
102
{ACAD_REACTORS
330
2B
102
}
330
2B
100
AcDbVisualStyle
  2
Linepattern
 70
    14
 71
     2
 72
     2
 73
     0
 90
        0
 40
-0.6
 41
-30.0
 62
     5
 63
     7
 74
     1
 91
        4
 64
     7
 65
   257
 75
     7
175
     7
 42
1.0
 92
        8
 66
     7
 43
1.0
 76
     1
 77
     6
 78
     2
 67
     7
 79
     5
170
     0
171
     0
290
     0
174
     0
 93
        1
 44
0.0
173
     0
291
     1
 45
0.0
1001
ACAD
1000
AcDbSavedByObjectVersion
1070
     0
  0
VISUALSTYLE
  5
192
102
{ACAD_XDICTIONARY
360
1DA
102
}
102
{ACAD_REACTORS
330
2B
102
}
330
2B
100
AcDbVisualStyle
  2
OverhangOff
 70
    21
 71
     2
 72
     2
 73
     0
 90
        0
 40
-0.6
 41
-30.0
 62
     5
 63
     7
 74
     1
 91
        4
 64
     7
 65
   257
 75
     1
175
     1
 42
1.0
 92
        9
 66
     7
 43
1.0
 76
     1
 77
     6
 78
     2
 67
     7
 79
     5
170
     0
171
     0
290
     0
174
     0
 93
        1
 44
0.0
173
     0
291
     1
 45
0.0
1001
ACAD
1000
AcDbSavedByObjectVersion
1070
     0
  0
VISUALSTYLE
  5
4B
102
{ACAD_XDICTIONARY
360
1B0
102
}
102
{ACAD_REACTORS
330
2B
102
}
330
2B
100
AcDbVisualStyle
  2
Realistic
 70
     8
 71
     2
 72
     2
 73
     0
 90
        0
 40
-0.6
 41
-30.0
 62
     5
 63
     7
 74
     1
 91
        0
 64
     7
 65
   257
 75
     1
175
     1
 42
1.0
 92
        8
 66
     8
 43
1.0
 76
     1
 77
     6
 78
     2
 67
     7
 79
     5
170
     0
171
     0
290
     0
174
     0
 93
       13
 44
0.0
173
     0
291
     0
 45
0.0
1001
ACAD
1000
AcDbSavedByObjectVersion
1070
     0
  0
VISUALSTYLE
  5
190
102
{ACAD_XDICTIONARY
360
1D6
102
}
102
{ACAD_REACTORS
330
2B
102
}
330
2B
100
AcDbVisualStyle
  2
Shaded
 70
    27
 71
     2
 72
     2
 73
     1
 90
        2
 40
-0.6
 41
30.0
 62
     5
 63
     7
 74
     0
 91
        4
 64
     7
 65
   257
 75
     1
175
     1
 42
1.0
 92
        8
 66
   257
 43
1.0
 76
     1
 77
     6
 78
     2
 67
     8
 79
     3
170
     0
171
     0
290
     0
174
     0
 93
        5
 44
0.0
173
     0
291
     0
 45
0.0
1001
ACAD
1000
AcDbSavedByObjectVersion
1070
     0
  0
VISUALSTYLE
  5
18F
102
{ACAD_XDICTIONARY
360
1D4
102
}
102
{ACAD_REACTORS
330
2B
102
}
330
2B
100
AcDbVisualStyle
  2
Shaded with edges
 70
    26
 71
     2
 72
     2
 73
     1
 90
        2
 40
-0.6
 41
30.0
 62
     5
 63
     7
 74
     1
 91
       10
 64
     7
 65
   257
 75
     2
175
     1
 42
1.0
 92
        8
 66
   257
 43
1.0
 76
     1
 77
     6
 78
     2
 67
     7
 79
     3
170
     0
171
     0
290
     0
174
     0
 93
        5
 44
0.0
173
     0
291
     0
 45
0.0
1001
ACAD
1000
AcDbSavedByObjectVersion
1070
     0
  0
VISUALSTYLE
  5
18C
102
{ACAD_XDICTIONARY
360
1CE
102
}
102
{ACAD_REACTORS
330
2B
102
}
330
2B
100
AcDbVisualStyle
  2
Shades of Gray
 70
    23
 71
     2
 72
     2
 73
     3
 90
        0
 40
-0.6
 41
-30.0
 62
     5
 63
     7
 74
     2
 91
        2
 64
     7
 65
     7
 75
     1
175
     1
 42
40.0
 92
        8
 66
     7
 43
1.0
 76
     1
 77
     6
 78
     2
 67
     7
 79
     3
170
     0
171
     0
290
     0
174
     0
 93
        1
 44
0.0
173
     0
291
     0
 45
0.0
1001
ACAD
1000
AcDbSavedByObjectVersion
1070
     0
  0
VISUALSTYLE
  5
18D
102
{ACAD_XDICTIONARY
360
1D0
102
}
102
{ACAD_REACTORS
330
2B
102
}
330
2B
100
AcDbVisualStyle
  2
Sketchy
 70
    24
 71
     1
 72
     2
 73
     2
 90
        0
 40
-0.6
 41
-30.0
 62
     5
 63
     7
 74
     2
 91
        2
 64
     7
 65
     7
 75
     1
175
     1
 42
40.0
 92
       11
 66
     7
 43
1.0
 76
     1
 77
     6
 78
     2
 67
     7
 79
     6
170
     0
171
     0
290
     0
174
     0
 93
        1
 44
0.0
173
     0
291
     0
 45
0.0
1001
ACAD
1000
AcDbSavedByObjectVersion
1070
     0
  0
VISUALSTYLE
  5
188
102
{ACAD_XDICTIONARY
360
1C6
102
}
102
{ACAD_REACTORS
330
2B
102
}
330
2B
100
AcDbVisualStyle
  2
Thicken
 70
    13
 71
     2
 72
     2
 73
     0
 90
        0
 40
-0.6
 41
-30.0
 62
     5
 63
     7
 74
     1
 91
        4
 64
     7
 65
   257
 75
     1
175
     1
 42
1.0
 92
       12
 66
     7
 43
1.0
 76
     1
 77
     6
 78
     2
 67
     7
 79
     5
170
     0
171
     0
290
     0
174
     0
 93
        1
 44
0.0
173
     0
291
     1
 45
0.0
1001
ACAD
1000
AcDbSavedByObjectVersion
1070
     0
  0
VISUALSTYLE
  5
4C
102
{ACAD_XDICTIONARY
360
1B2
102
}
102
{ACAD_REACTORS
330
2B
102
}
330
2B
100
AcDbVisualStyle
  2
Wireframe
 70
     5
 71
     0
 72
     2
 73
     0
 90
        0
 40
-0.6
 41
-30.0
 62
     5
 63
     7
 74
     1
 91
        4
 64
     7
 65
   257
 75
     1
175
     1
 42
1.0
 92
        0
 66
   257
 43
1.0
 76
     1
 77
     6
 78
     2
 67
     7
 79
     3
170
     0
171
     0
290
     0
174
     0
 93
        1
 44
0.0
173
     0
291
     0
 45
0.0
1001
ACAD
1000
AcDbSavedByObjectVersion
1070
     0
  0
VISUALSTYLE
  5
18E
102
{ACAD_XDICTIONARY
360
1D2
102
}
102
{ACAD_REACTORS
330
2B
102
}
330
2B
100
AcDbVisualStyle
  2
X-Ray
 70
    25
 71
     2
 72
     2
 73
     1
 90
        1
 40
0.5
 41
-30.0
 62
     5
 63
     7
 74
     1
 91
        0
 64
     7
 65
   257
 75
     1
175
     1
 42
1.0
 92
        8
 66
     7
 43
1.0
 76
     1
 77
     6
 78
     2
 67
     7
 79
     3
170
     0
171
     0
290
     0
174
     0
 93
       13
 44
0.0
173
     0
291
     0
 45
0.0
1001
ACAD
1000
AcDbSavedByObjectVersion
1070
     0
  0
DICTIONARYVAR
  5
17A
102
{ACAD_REACTORS
330
176
102
}
330
176
100
DictionaryVariables
280
     0
  1
1:1
  0
DICTIONARYVAR
  5
178
102
{ACAD_REACTORS
330
176
102
}
330
176
100
DictionaryVariables
280
     0
  1
STANDARD
  0
DICTIONARYVAR
  5
177
102
{ACAD_REACTORS
330
176
102
}
330
176
100
DictionaryVariables
280
     0
  1
STANDARD
  0
DICTIONARYVAR
  5
19D
102
{ACAD_REACTORS
330
176
102
}
330
176
100
DictionaryVariables
280
     0
  1
1
  0
DICTIONARYVAR
  5
19C
102
{ACAD_REACTORS
330
176
102
}
330
176
100
DictionaryVariables
280
     0
  1
1
  0
DICTIONARYVAR
  5
19B
102
{ACAD_REACTORS
330
176
102
}
330
176
100
DictionaryVariables
280
     0
  1
0
  0
DICTIONARYVAR
  5
17C
102
{ACAD_REACTORS
330
176
102
}
330
176
100
DictionaryVariables
280
     0
  1
1
  0
DICTIONARYVAR
  5
17D
102
{ACAD_REACTORS
330
176
102
}
330
176
100
DictionaryVariables
280
     0
  1
15
  0
DICTIONARYVAR
  5
17B
102
{ACAD_REACTORS
330
176
102
}
330
176
100
DictionaryVariables
280
     0
  1
0
  0
DICTIONARYVAR
  5
179
102
{ACAD_REACTORS
330
176
102
}
330
176
100
DictionaryVariables
280
     0
  1
0
  0
DICTIONARYVAR
  5
19A
102
{ACAD_REACTORS
330
176
102
}
330
176
100
DictionaryVariables
280
     0
  1
127
  0
DICTIONARYVAR
  5
19E
102
{ACAD_REACTORS
330
176
102
}
330
176
100
DictionaryVariables
280
     0
  1
2
  0
DICTIONARY
  5
1A9
330
1A
100
AcDbDictionary
280
     1
281
     1
  3
ACAD_XREC_ROUNDTRIP
360
1AA
  0
DICTIONARY
  5
1A7
330
15
100
AcDbDictionary
280
     1
281
     1
  3
ACAD_XREC_ROUNDTRIP
360
1A8
  0
DICTIONARY
  5
3D
330
3C
100
AcDbDictionary
280
     1
281
     1
  3
ACAD_XREC_ROUNDTRIP
360
1AE
  3
BUMPTILE
360
3E
  3
DIFFUSETILE
360
3F
  3
OPACITYTILE
360
40
  3
REFLECTIONTILE
360
41
  3
REFRACTIONTILE
360
42
  3
SPECULARTILE
360
43
  0
DICTIONARY
  5
35
330
34
100
AcDbDictionary
280
     1
281
     1
  3
ACAD_XREC_ROUNDTRIP
360
1AD
  3
BUMPTILE
360
36
  3
DIFFUSETILE
360
37
  3
OPACITYTILE
360
38
  3
REFLECTIONTILE
360
39
  3
REFRACTIONTILE
360
3A
  3
SPECULARTILE
360
3B
  0
DICTIONARY
  5
C
330
A
100
AcDbDictionary
280
     1
281
     1
  3
ACAD_XREC_ROUNDTRIP
360
1A6
  3
BUMPTILE
360
D
  3
DIFFUSETILE
360
E
  3
OPACITYTILE
360
F
  3
REFLECTIONTILE
360
10
  3
REFRACTIONTILE
360
11
  3
SPECULARTILE
360
12
  0
DICTIONARY
  5
4A
330
49
100
AcDbDictionary
280
     1
281
     1
  3
ACAD_ROUNDTRIP_2008_TABLESTYLE_CELLSTYLEMAP
360
19F
  3
ACAD_XREC_ROUNDTRIP
360
1AF
  0
DICTIONARY
  5
1AB
330
2A
100
AcDbDictionary
280
     1
281
     1
  3
ACAD_XREC_ROUNDTRIP
360
1AC
  0
DICTIONARY
  5
1BC
330
183
100
AcDbDictionary
280
     1
281
     1
  3
ACAD_XREC_ROUNDTRIP
360
1BD
  0
DICTIONARY
  5
1C4
330
187
100
AcDbDictionary
280
     1
281
     1
  3
ACAD_XREC_ROUNDTRIP
360
1C5
  0
DICTIONARY
  5
1CC
330
18B
100
AcDbDictionary
280
     1
281
     1
  3
ACAD_XREC_ROUNDTRIP
360
1CD
  0
DICTIONARY
  5
1C0
330
185
100
AcDbDictionary
280
     1
281
     1
  3
ACAD_XREC_ROUNDTRIP
360
1C1
  0
DICTIONARY
  5
1C2
330
186
100
AcDbDictionary
280
     1
281
     1
  3
ACAD_XREC_ROUNDTRIP
360
1C3
  0
DICTIONARY
  5
1DC
330
193
100
AcDbDictionary
280
     1
281
     1
  3
ACAD_XREC_ROUNDTRIP
360
1DD
  0
DICTIONARY
  5
1CA
330
18A
100
AcDbDictionary
280
     1
281
     1
  3
ACAD_XREC_ROUNDTRIP
360
1CB
  0
DICTIONARY
  5
1B4
330
17F
100
AcDbDictionary
280
     1
281
     1
  3
ACAD_XREC_ROUNDTRIP
360
1B5
  0
DICTIONARY
  5
1B6
330
180
100
AcDbDictionary
280
     1
281
     1
  3
ACAD_XREC_ROUNDTRIP
360
1B7
  0
DICTIONARY
  5
1B8
330
181
100
AcDbDictionary
280
     1
281
     1
  3
ACAD_XREC_ROUNDTRIP
360
1B9
  0
DICTIONARY
  5
1BA
330
182
100
AcDbDictionary
280
     1
281
     1
  3
ACAD_XREC_ROUNDTRIP
360
1BB
  0
DICTIONARY
  5
1BE
330
184
100
AcDbDictionary
280
     1
281
     1
  3
ACAD_XREC_ROUNDTRIP
360
1BF
  0
DICTIONARY
  5
1D8
330
191
100
AcDbDictionary
280
     1
281
     1
  3
ACAD_XREC_ROUNDTRIP
360
1D9
  0
DICTIONARY
  5
1C8
330
189
100
AcDbDictionary
280
     1
281
     1
  3
ACAD_XREC_ROUNDTRIP
360
1C9
  0
DICTIONARY
  5
1DA
330
192
100
AcDbDictionary
280
     1
281
     1
  3
ACAD_XREC_ROUNDTRIP
360
1DB
  0
DICTIONARY
  5
1B0
330
4B
100
AcDbDictionary
280
     1
281
     1
  3
ACAD_XREC_ROUNDTRIP
360
1B1
  0
DICTIONARY
  5
1D6
330
190
100
AcDbDictionary
280
     1
281
     1
  3
ACAD_XREC_ROUNDTRIP
360
1D7
  0
DICTIONARY
  5
1D4
330
18F
100
AcDbDictionary
280
     1
281
     1
  3
ACAD_XREC_ROUNDTRIP
360
1D5
  0
DICTIONARY
  5
1CE
330
18C
100
AcDbDictionary
280
     1
281
     1
  3
ACAD_XREC_ROUNDTRIP
360
1CF
  0
DICTIONARY
  5
1D0
330
18D
100
AcDbDictionary
280
     1
281
     1
  3
ACAD_XREC_ROUNDTRIP
360
1D1
  0
DICTIONARY
  5
1C6
330
188
100
AcDbDictionary
280
     1
281
     1
  3
ACAD_XREC_ROUNDTRIP
360
1C7
  0
DICTIONARY
  5
1B2
330
4C
100
AcDbDictionary
280
     1
281
     1
  3
ACAD_XREC_ROUNDTRIP
360
1B3
  0
DICTIONARY
  5
1D2
330
18E
100
AcDbDictionary
280
     1
281
     1
  3
ACAD_XREC_ROUNDTRIP
360
1D3
  0
XRECORD
  5
1AA
102
{ACAD_REACTORS
330
1A9
102
}
330
1A9
100
AcDbXrecord
280
     1
102
SHADEPLOT
 70
     0
102
SHADEPLOTRESLEVEL
 70
     2
102
SHADEPLOTCUSTOMDPI
 70
   300
  0
XRECORD
  5
1A8
102
{ACAD_REACTORS
330
1A7
102
}
330
1A7
100
AcDbXrecord
280
     1
102
SHADEPLOT
 70
     0
102
SHADEPLOTRESLEVEL
 70
     2
102
SHADEPLOTCUSTOMDPI
 70
   300
  0
XRECORD
  5
1AE
102
{ACAD_REACTORS
330
3D
102
}
330
3D
100
AcDbXrecord
280
     1
102
MATERIAL
148
0.0
149
0.0
149
0.0
 93
        0
 94
      127
282
     0
 72
     0
 77
     0
171
     0
175
     0
179
     0
273
     0
  0
XRECORD
  5
3E
102
{ACAD_REACTORS
330
3D
102
}
330
3D
100
AcDbXrecord
280
     1
270
     1
271
     1
  0
XRECORD
  5
3F
102
{ACAD_REACTORS
330
3D
102
}
330
3D
100
AcDbXrecord
280
     1
270
     1
271
     1
  0
XRECORD
  5
40
102
{ACAD_REACTORS
330
3D
102
}
330
3D
100
AcDbXrecord
280
     1
270
     1
271
     1
  0
XRECORD
  5
41
102
{ACAD_REACTORS
330
3D
102
}
330
3D
100
AcDbXrecord
280
     1
270
     1
271
     1
  0
XRECORD
  5
42
102
{ACAD_REACTORS
330
3D
102
}
330
3D
100
AcDbXrecord
280
     1
270
     1
271
     1
  0
XRECORD
  5
43
102
{ACAD_REACTORS
330
3D
102
}
330
3D
100
AcDbXrecord
280
     1
270
     1
271
     1
  0
XRECORD
  5
1AD
102
{ACAD_REACTORS
330
35
102
}
330
35
100
AcDbXrecord
280
     1
102
MATERIAL
148
0.0
149
0.0
149
0.0
 93
        0
 94
      127
282
     0
 72
     0
 77
     0
171
     0
175
     0
179
     0
273
     0
  0
XRECORD
  5
36
102
{ACAD_REACTORS
330
35
102
}
330
35
100
AcDbXrecord
280
     1
270
     1
271
     1
  0
XRECORD
  5
37
102
{ACAD_REACTORS
330
35
102
}
330
35
100
AcDbXrecord
280
     1
270
     1
271
     1
  0
XRECORD
  5
38
102
{ACAD_REACTORS
330
35
102
}
330
35
100
AcDbXrecord
280
     1
270
     1
271
     1
  0
XRECORD
  5
39
102
{ACAD_REACTORS
330
35
102
}
330
35
100
AcDbXrecord
280
     1
270
     1
271
     1
  0
XRECORD
  5
3A
102
{ACAD_REACTORS
330
35
102
}
330
35
100
AcDbXrecord
280
     1
270
     1
271
     1
  0
XRECORD
  5
3B
102
{ACAD_REACTORS
330
35
102
}
330
35
100
AcDbXrecord
280
     1
270
     1
271
     1
  0
XRECORD
  5
1A6
102
{ACAD_REACTORS
330
C
102
}
330
C
100
AcDbXrecord
280
     1
102
MATERIAL
148
0.0
149
0.0
149
0.0
 93
        0
 94
      127
282
     0
 72
     0
 77
     0
171
     0
175
     0
179
     0
273
     0
  0
XRECORD
  5
D
102
{ACAD_REACTORS
330
C
102
}
330
C
100
AcDbXrecord
280
     1
270
     1
271
     1
  0
XRECORD
  5
E
102
{ACAD_REACTORS
330
C
102
}
330
C
100
AcDbXrecord
280
     1
270
     1
271
     1
  0
XRECORD
  5
F
102
{ACAD_REACTORS
330
C
102
}
330
C
100
AcDbXrecord
280
     1
270
     1
271
     1
  0
XRECORD
  5
10
102
{ACAD_REACTORS
330
C
102
}
330
C
100
AcDbXrecord
280
     1
270
     1
271
     1
  0
XRECORD
  5
11
102
{ACAD_REACTORS
330
C
102
}
330
C
100
AcDbXrecord
280
     1
270
     1
271
     1
  0
XRECORD
  5
12
102
{ACAD_REACTORS
330
C
102
}
330
C
100
AcDbXrecord
280
     1
270
     1
271
     1
  0
CELLSTYLEMAP
  5
19F
102
{ACAD_REACTORS
330
4A
102
}
330
4A
100
AcDbCellStyleMap
 90
        3
300
CELLSTYLE
  1
TABLEFORMAT_BEGIN
 90
        5
170
     1
 91
        0
 92
    32768
 62
   257
 93
        1
300
CONTENTFORMAT
  1
CONTENTFORMAT_BEGIN
 90
        0
 91
        0
 92
      512
 93
        0
300

 40
0.0
140
1.0
 94
        5
 62
     0
340
21
144
0.25
309
CONTENTFORMAT_END
171
     0
 94
        0
309
TABLEFORMAT_END
  1
CELLSTYLE_BEGIN
 90
        1
 91
        1
300
_TITLE
309
CELLSTYLE_END
300
CELLSTYLE
  1
TABLEFORMAT_BEGIN
 90
        5
170
     1
 91
        0
 92
        0
 62
   257
 93
        1
300
CONTENTFORMAT
  1
CONTENTFORMAT_BEGIN
 90
        0
 91
        0
 92
      512
 93
        0
300

 40
0.0
140
1.0
 94
        5
 62
     0
340
21
144
0.18
309
CONTENTFORMAT_END
171
     0
 94
        0
309
TABLEFORMAT_END
  1
CELLSTYLE_BEGIN
 90
        2
 91
        1
300
_HEADER
309
CELLSTYLE_END
300
CELLSTYLE
  1
TABLEFORMAT_BEGIN
 90
        5
170
     1
 91
        0
 92
        0
 62
   257
 93
        1
300
CONTENTFORMAT
  1
CONTENTFORMAT_BEGIN
 90
        0
 91
        0
 92
      512
 93
        0
300

 40
0.0
140
1.0
 94
        2
 62
     0
340
21
144
0.18
309
CONTENTFORMAT_END
171
     0
 94
        0
309
TABLEFORMAT_END
  1
CELLSTYLE_BEGIN
 90
        3
 91
        2
300
_DATA
309
CELLSTYLE_END
  0
XRECORD
  5
1AF
102
{ACAD_REACTORS
330
4A
102
}
330
4A
100
AcDbXrecord
280
     1
102
ACAD_ROUNDTRIP_PRE2007_TABLESTYLE
 90
      512
 91
        0
  1

 92
      512
 93
        0
  2

 94
      512
 95
        0
  3

  0
XRECORD
  5
1AC
102
{ACAD_REACTORS
330
1AB
102
}
330
1AB
100
AcDbXrecord
280
     1
102
RTVSPropertyOp0
 70
     1
102
RTVSPropertyOp1
 70
     1
102
RTVSPropertyOp2
 70
     1
102
RTVSPropertyOp3
 70
     1
102
RTVSPropertyOp4
 70
     1
102
RTVSPropertyOp5
 70
     1
102
RTVSPropertyOp6
 70
     1
102
RTVSPropertyOp7
 70
     1
102
RTVSPropertyOp8
 70
     1
102
RTVSPropertyOp9
 70
     1
102
RTVSPropertyOp10
 70
     1
102
RTVSPropertyOp11
 70
     1
102
RTVSPropertyOp12
 70
     1
102
RTVSPropertyOp13
 70
     1
102
RTVSPropertyOp14
 70
     1
102
RTVSPropertyOp15
 70
     1
102
RTVSPropertyOp16
 70
     1
102
RTVSPropertyOp17
 70
     1
102
RTVSPropertyOp18
 70
     1
102
RTVSPropertyOp19
 70
     1
102
RTVSPropertyOp20
 70
     1
102
RTVSPropertyOp21
 70
     1
102
RTVSPropertyOp22
 70
     1
102
RTVSPropertyOp23
 70
     1
102
RTVSPropertyOp24
 70
     1
102
RTVSPropertyOp25
 70
     1
102
RTVSPropertyOp26
 70
     1
102
RTVSPropertyOp27
 70
     1
102
RTVSPropertyOp28
 70
     1
102
RTVSPropertyOp29
 70
     1
102
RTVSPropertyOp30
 70
     1
102
RTVSPropertyOp31
 70
     1
102
RTVSPropertyOp32
 70
     1
  0
XRECORD
  5
1BD
102
{ACAD_REACTORS
330
1BC
102
}
330
1BC
100
AcDbXrecord
280
     1
102
RTVSPropertyOp0
 70
     1
102
RTVSPropertyOp1
 70
     1
102
RTVSPropertyOp2
 70
     1
102
RTVSPropertyOp3
 70
     1
102
RTVSPropertyOp4
 70
     1
102
RTVSPropertyOp5
 70
     1
102
RTVSPropertyOp6
 70
     1
102
RTVSPropertyOp7
 70
     1
102
RTVSPropertyOp8
 70
     1
102
RTVSPropertyOp9
 70
     1
102
RTVSPropertyOp10
 70
     1
102
RTVSPropertyOp11
 70
     1
102
RTVSPropertyOp12
 70
     1
102
RTVSPropertyOp13
 70
     1
102
RTVSPropertyOp14
 70
     1
102
RTVSPropertyOp15
 70
     1
102
RTVSPropertyOp16
 70
     1
102
RTVSPropertyOp17
 70
     1
102
RTVSPropertyOp18
 70
     1
102
RTVSPropertyOp19
 70
     1
102
RTVSPropertyOp20
 70
     1
102
RTVSPropertyOp21
 70
     1
102
RTVSPropertyOp22
 70
     1
102
RTVSPropertyOp23
 70
     1
102
RTVSPropertyOp24
 70
     1
102
RTVSPropertyOp25
 70
     1
102
RTVSPropertyOp26
 70
     1
102
RTVSPropertyOp27
 70
     1
102
RTVSPropertyOp28
 70
     1
102
RTVSPropertyOp29
 70
     1
102
RTVSPropertyOp30
 70
     1
102
RTVSPropertyOp31
 70
     1
102
RTVSPropertyOp32
 70
     1
  0
XRECORD
  5
1C5
102
{ACAD_REACTORS
330
1C4
102
}
330
1C4
100
AcDbXrecord
280
     1
102
RTVSPropertyOp0
 70
     1
102
RTVSPropertyOp1
 70
     1
102
RTVSPropertyOp2
 70
     1
102
RTVSPropertyOp3
 70
     1
102
RTVSPropertyOp4
 70
     1
102
RTVSPropertyOp5
 70
     1
102
RTVSPropertyOp6
 70
     1
102
RTVSPropertyOp7
 70
     1
102
RTVSPropertyOp8
 70
     1
102
RTVSPropertyOp9
 70
     1
102
RTVSPropertyOp10
 70
     1
102
RTVSPropertyOp11
 70
     1
102
RTVSPropertyOp12
 70
     1
102
RTVSPropertyOp13
 70
     1
102
RTVSPropertyOp14
 70
     1
102
RTVSPropertyOp15
 70
     1
102
RTVSPropertyOp16
 70
     1
102
RTVSPropertyOp17
 70
     1
102
RTVSPropertyOp18
 70
     1
102
RTVSPropertyOp19
 70
     1
102
RTVSPropertyOp20
 70
     1
102
RTVSPropertyOp21
 70
     1
102
RTVSPropertyOp22
 70
     1
102
RTVSPropertyOp23
 70
     1
102
RTVSPropertyOp24
 70
     1
102
RTVSPropertyOp25
 70
     1
102
RTVSPropertyOp26
 70
     1
102
RTVSPropertyOp27
 70
     1
102
RTVSPropertyOp28
 70
     1
102
RTVSPropertyOp29
 70
     1
102
RTVSPropertyOp30
 70
     1
102
RTVSPropertyOp31
 70
     1
102
RTVSPropertyOp32
 70
     1
  0
XRECORD
  5
1CD
102
{ACAD_REACTORS
330
1CC
102
}
330
1CC
100
AcDbXrecord
280
     1
102
RTVSPropertyOp0
 70
     1
102
RTVSPropertyOp1
 70
     1
102
RTVSPropertyOp2
 70
     1
102
RTVSPropertyOp3
 70
     1
102
RTVSPropertyOp4
 70
     1
102
RTVSPropertyOp5
 70
     1
102
RTVSPropertyOp6
 70
     1
102
RTVSPropertyOp7
 70
     1
102
RTVSPropertyOp8
 70
     1
102
RTVSPropertyOp9
 70
     1
102
RTVSPropertyOp10
 70
     1
102
RTVSPropertyOp11
 70
     1
102
RTVSPropertyOp12
 70
     1
102
RTVSPropertyOp13
 70
     1
102
RTVSPropertyOp14
 70
     1
102
RTVSPropertyOp15
 70
     1
102
RTVSPropertyOp16
 70
     1
102
RTVSPropertyOp17
 70
     1
102
RTVSPropertyOp18
 70
     1
102
RTVSPropertyOp19
 70
     1
102
RTVSPropertyOp20
 70
     1
102
RTVSPropertyOp21
 70
     1
102
RTVSPropertyOp22
 70
     1
102
RTVSPropertyOp23
 70
     1
102
RTVSPropertyOp24
 70
     1
102
RTVSPropertyOp25
 70
     1
102
RTVSPropertyOp26
 70
     1
102
RTVSPropertyOp27
 70
     1
102
RTVSPropertyOp28
 70
     1
102
RTVSPropertyOp29
 70
     1
102
RTVSPropertyOp30
 70
     1
102
RTVSPropertyOp31
 70
     1
102
RTVSPropertyOp32
 70
     1
  0
XRECORD
  5
1C1
102
{ACAD_REACTORS
330
1C0
102
}
330
1C0
100
AcDbXrecord
280
     1
102
RTVSPropertyOp0
 70
     1
102
RTVSPropertyOp1
 70
     1
102
RTVSPropertyOp2
 70
     1
102
RTVSPropertyOp3
 70
     1
102
RTVSPropertyOp4
 70
     1
102
RTVSPropertyOp5
 70
     1
102
RTVSPropertyOp6
 70
     1
102
RTVSPropertyOp7
 70
     1
102
RTVSPropertyOp8
 70
     1
102
RTVSPropertyOp9
 70
     1
102
RTVSPropertyOp10
 70
     1
102
RTVSPropertyOp11
 70
     1
102
RTVSPropertyOp12
 70
     1
102
RTVSPropertyOp13
 70
     1
102
RTVSPropertyOp14
 70
     1
102
RTVSPropertyOp15
 70
     1
102
RTVSPropertyOp16
 70
     1
102
RTVSPropertyOp17
 70
     1
102
RTVSPropertyOp18
 70
     1
102
RTVSPropertyOp19
 70
     1
102
RTVSPropertyOp20
 70
     1
102
RTVSPropertyOp21
 70
     1
102
RTVSPropertyOp22
 70
     1
102
RTVSPropertyOp23
 70
     1
102
RTVSPropertyOp24
 70
     1
102
RTVSPropertyOp25
 70
     1
102
RTVSPropertyOp26
 70
     1
102
RTVSPropertyOp27
 70
     1
102
RTVSPropertyOp28
 70
     1
102
RTVSPropertyOp29
 70
     1
102
RTVSPropertyOp30
 70
     1
102
RTVSPropertyOp31
 70
     1
102
RTVSPropertyOp32
 70
     1
  0
XRECORD
  5
1C3
102
{ACAD_REACTORS
330
1C2
102
}
330
1C2
100
AcDbXrecord
280
     1
102
RTVSPropertyOp0
 70
     1
102
RTVSPropertyOp1
 70
     1
102
RTVSPropertyOp2
 70
     1
102
RTVSPropertyOp3
 70
     1
102
RTVSPropertyOp4
 70
     1
102
RTVSPropertyOp5
 70
     1
102
RTVSPropertyOp6
 70
     1
102
RTVSPropertyOp7
 70
     1
102
RTVSPropertyOp8
 70
     1
102
RTVSPropertyOp9
 70
     1
102
RTVSPropertyOp10
 70
     1
102
RTVSPropertyOp11
 70
     1
102
RTVSPropertyOp12
 70
     1
102
RTVSPropertyOp13
 70
     1
102
RTVSPropertyOp14
 70
     1
102
RTVSPropertyOp15
 70
     1
102
RTVSPropertyOp16
 70
     1
102
RTVSPropertyOp17
 70
     1
102
RTVSPropertyOp18
 70
     1
102
RTVSPropertyOp19
 70
     1
102
RTVSPropertyOp20
 70
     1
102
RTVSPropertyOp21
 70
     1
102
RTVSPropertyOp22
 70
     1
102
RTVSPropertyOp23
 70
     1
102
RTVSPropertyOp24
 70
     1
102
RTVSPropertyOp25
 70
     1
102
RTVSPropertyOp26
 70
     1
102
RTVSPropertyOp27
 70
     1
102
RTVSPropertyOp28
 70
     1
102
RTVSPropertyOp29
 70
     1
102
RTVSPropertyOp30
 70
     1
102
RTVSPropertyOp31
 70
     1
102
RTVSPropertyOp32
 70
     1
  0
XRECORD
  5
1DD
102
{ACAD_REACTORS
330
1DC
102
}
330
1DC
100
AcDbXrecord
280
     1
102
RTVSPropertyOp0
 70
     0
102
RTVSPropertyOp1
 70
     0
102
RTVSPropertyOp2
 70
     0
102
RTVSPropertyOp3
 70
     0
102
RTVSPropertyOp4
 70
     0
102
RTVSPropertyOp5
 70
     0
102
RTVSPropertyOp6
 70
     0
102
RTVSPropertyOp7
 70
     0
102
RTVSPropertyOp8
 70
     0
102
RTVSPropertyOp9
 70
     0
102
RTVSPropertyOp10
 70
     0
102
RTVSPropertyOp11
 70
     0
102
RTVSPropertyOp12
 70
     0
102
RTVSPropertyOp13
 70
     0
102
RTVSPropertyOp14
 70
     2
102
RTVSPropertyOp15
 70
     0
102
RTVSPropertyOp16
 70
     0
102
RTVSPropertyOp17
 70
     0
102
RTVSPropertyOp18
 70
     0
102
RTVSPropertyOp19
 70
     0
102
RTVSPropertyOp20
 70
     0
102
RTVSPropertyOp21
 70
     0
102
RTVSPropertyOp22
 70
     0
102
RTVSPropertyOp23
 70
     0
102
RTVSPropertyOp24
 70
     0
102
RTVSPropertyOp25
 70
     0
102
RTVSPropertyOp26
 70
     0
102
RTVSPropertyOp27
 70
     0
102
RTVSPropertyOp28
 70
     0
102
RTVSPropertyOp29
 70
     0
102
RTVSPropertyOp30
 70
     0
102
RTVSPropertyOp31
 70
     0
102
RTVSPropertyOp32
 70
     0
  0
XRECORD
  5
1CB
102
{ACAD_REACTORS
330
1CA
102
}
330
1CA
100
AcDbXrecord
280
     1
102
RTVSPropertyOp0
 70
     1
102
RTVSPropertyOp1
 70
     1
102
RTVSPropertyOp2
 70
     1
102
RTVSPropertyOp3
 70
     1
102
RTVSPropertyOp4
 70
     1
102
RTVSPropertyOp5
 70
     1
102
RTVSPropertyOp6
 70
     1
102
RTVSPropertyOp7
 70
     1
102
RTVSPropertyOp8
 70
     1
102
RTVSPropertyOp9
 70
     1
102
RTVSPropertyOp10
 70
     1
102
RTVSPropertyOp11
 70
     1
102
RTVSPropertyOp12
 70
     1
102
RTVSPropertyOp13
 70
     1
102
RTVSPropertyOp14
 70
     1
102
RTVSPropertyOp15
 70
     1
102
RTVSPropertyOp16
 70
     1
102
RTVSPropertyOp17
 70
     1
102
RTVSPropertyOp18
 70
     1
102
RTVSPropertyOp19
 70
     1
102
RTVSPropertyOp20
 70
     1
102
RTVSPropertyOp21
 70
     1
102
RTVSPropertyOp22
 70
     1
102
RTVSPropertyOp23
 70
     1
102
RTVSPropertyOp24
 70
     1
102
RTVSPropertyOp25
 70
     1
102
RTVSPropertyOp26
 70
     1
102
RTVSPropertyOp27
 70
     1
102
RTVSPropertyOp28
 70
     1
102
RTVSPropertyOp29
 70
     1
102
RTVSPropertyOp30
 70
     1
102
RTVSPropertyOp31
 70
     1
102
RTVSPropertyOp32
 70
     1
  0
XRECORD
  5
1B5
102
{ACAD_REACTORS
330
1B4
102
}
330
1B4
100
AcDbXrecord
280
     1
102
RTVSPropertyOp0
 70
     1
102
RTVSPropertyOp1
 70
     1
102
RTVSPropertyOp2
 70
     1
102
RTVSPropertyOp3
 70
     1
102
RTVSPropertyOp4
 70
     1
102
RTVSPropertyOp5
 70
     1
102
RTVSPropertyOp6
 70
     1
102
RTVSPropertyOp7
 70
     1
102
RTVSPropertyOp8
 70
     1
102
RTVSPropertyOp9
 70
     1
102
RTVSPropertyOp10
 70
     1
102
RTVSPropertyOp11
 70
     1
102
RTVSPropertyOp12
 70
     1
102
RTVSPropertyOp13
 70
     1
102
RTVSPropertyOp14
 70
     1
102
RTVSPropertyOp15
 70
     1
102
RTVSPropertyOp16
 70
     1
102
RTVSPropertyOp17
 70
     1
102
RTVSPropertyOp18
 70
     1
102
RTVSPropertyOp19
 70
     1
102
RTVSPropertyOp20
 70
     1
102
RTVSPropertyOp21
 70
     1
102
RTVSPropertyOp22
 70
     1
102
RTVSPropertyOp23
 70
     1
102
RTVSPropertyOp24
 70
     1
102
RTVSPropertyOp25
 70
     1
102
RTVSPropertyOp26
 70
     1
102
RTVSPropertyOp27
 70
     1
102
RTVSPropertyOp28
 70
     1
102
RTVSPropertyOp29
 70
     1
102
RTVSPropertyOp30
 70
     1
102
RTVSPropertyOp31
 70
     1
102
RTVSPropertyOp32
 70
     1
  0
XRECORD
  5
1B7
102
{ACAD_REACTORS
330
1B6
102
}
330
1B6
100
AcDbXrecord
280
     1
102
RTVSPropertyOp0
 70
     1
102
RTVSPropertyOp1
 70
     1
102
RTVSPropertyOp2
 70
     1
102
RTVSPropertyOp3
 70
     1
102
RTVSPropertyOp4
 70
     1
102
RTVSPropertyOp5
 70
     1
102
RTVSPropertyOp6
 70
     1
102
RTVSPropertyOp7
 70
     1
102
RTVSPropertyOp8
 70
     1
102
RTVSPropertyOp9
 70
     1
102
RTVSPropertyOp10
 70
     1
102
RTVSPropertyOp11
 70
     1
102
RTVSPropertyOp12
 70
     1
102
RTVSPropertyOp13
 70
     1
102
RTVSPropertyOp14
 70
     1
102
RTVSPropertyOp15
 70
     1
102
RTVSPropertyOp16
 70
     1
102
RTVSPropertyOp17
 70
     1
102
RTVSPropertyOp18
 70
     1
102
RTVSPropertyOp19
 70
     1
102
RTVSPropertyOp20
 70
     1
102
RTVSPropertyOp21
 70
     1
102
RTVSPropertyOp22
 70
     1
102
RTVSPropertyOp23
 70
     1
102
RTVSPropertyOp24
 70
     1
102
RTVSPropertyOp25
 70
     1
102
RTVSPropertyOp26
 70
     1
102
RTVSPropertyOp27
 70
     1
102
RTVSPropertyOp28
 70
     1
102
RTVSPropertyOp29
 70
     1
102
RTVSPropertyOp30
 70
     1
102
RTVSPropertyOp31
 70
     1
102
RTVSPropertyOp32
 70
     1
  0
XRECORD
  5
1B9
102
{ACAD_REACTORS
330
1B8
102
}
330
1B8
100
AcDbXrecord
280
     1
102
RTVSPropertyOp0
 70
     1
102
RTVSPropertyOp1
 70
     1
102
RTVSPropertyOp2
 70
     1
102
RTVSPropertyOp3
 70
     1
102
RTVSPropertyOp4
 70
     1
102
RTVSPropertyOp5
 70
     1
102
RTVSPropertyOp6
 70
     1
102
RTVSPropertyOp7
 70
     1
102
RTVSPropertyOp8
 70
     1
102
RTVSPropertyOp9
 70
     1
102
RTVSPropertyOp10
 70
     1
102
RTVSPropertyOp11
 70
     1
102
RTVSPropertyOp12
 70
     1
102
RTVSPropertyOp13
 70
     1
102
RTVSPropertyOp14
 70
     1
102
RTVSPropertyOp15
 70
     1
102
RTVSPropertyOp16
 70
     1
102
RTVSPropertyOp17
 70
     1
102
RTVSPropertyOp18
 70
     1
102
RTVSPropertyOp19
 70
     1
102
RTVSPropertyOp20
 70
     1
102
RTVSPropertyOp21
 70
     1
102
RTVSPropertyOp22
 70
     1
102
RTVSPropertyOp23
 70
     1
102
RTVSPropertyOp24
 70
     1
102
RTVSPropertyOp25
 70
     1
102
RTVSPropertyOp26
 70
     1
102
RTVSPropertyOp27
 70
     1
102
RTVSPropertyOp28
 70
     1
102
RTVSPropertyOp29
 70
     1
102
RTVSPropertyOp30
 70
     1
102
RTVSPropertyOp31
 70
     1
102
RTVSPropertyOp32
 70
     1
  0
XRECORD
  5
1BB
102
{ACAD_REACTORS
330
1BA
102
}
330
1BA
100
AcDbXrecord
280
     1
102
RTVSPropertyOp0
 70
     1
102
RTVSPropertyOp1
 70
     1
102
RTVSPropertyOp2
 70
     1
102
RTVSPropertyOp3
 70
     1
102
RTVSPropertyOp4
 70
     1
102
RTVSPropertyOp5
 70
     1
102
RTVSPropertyOp6
 70
     1
102
RTVSPropertyOp7
 70
     1
102
RTVSPropertyOp8
 70
     1
102
RTVSPropertyOp9
 70
     1
102
RTVSPropertyOp10
 70
     1
102
RTVSPropertyOp11
 70
     1
102
RTVSPropertyOp12
 70
     1
102
RTVSPropertyOp13
 70
     1
102
RTVSPropertyOp14
 70
     1
102
RTVSPropertyOp15
 70
     1
102
RTVSPropertyOp16
 70
     1
102
RTVSPropertyOp17
 70
     1
102
RTVSPropertyOp18
 70
     1
102
RTVSPropertyOp19
 70
     1
102
RTVSPropertyOp20
 70
     1
102
RTVSPropertyOp21
 70
     1
102
RTVSPropertyOp22
 70
     1
102
RTVSPropertyOp23
 70
     1
102
RTVSPropertyOp24
 70
     1
102
RTVSPropertyOp25
 70
     1
102
RTVSPropertyOp26
 70
     1
102
RTVSPropertyOp27
 70
     1
102
RTVSPropertyOp28
 70
     1
102
RTVSPropertyOp29
 70
     1
102
RTVSPropertyOp30
 70
     1
102
RTVSPropertyOp31
 70
     1
102
RTVSPropertyOp32
 70
     1
  0
XRECORD
  5
1BF
102
{ACAD_REACTORS
330
1BE
102
}
330
1BE
100
AcDbXrecord
280
     1
102
RTVSPropertyOp0
 70
     1
102
RTVSPropertyOp1
 70
     1
102
RTVSPropertyOp2
 70
     1
102
RTVSPropertyOp3
 70
     1
102
RTVSPropertyOp4
 70
     1
102
RTVSPropertyOp5
 70
     1
102
RTVSPropertyOp6
 70
     1
102
RTVSPropertyOp7
 70
     1
102
RTVSPropertyOp8
 70
     1
102
RTVSPropertyOp9
 70
     1
102
RTVSPropertyOp10
 70
     1
102
RTVSPropertyOp11
 70
     1
102
RTVSPropertyOp12
 70
     1
102
RTVSPropertyOp13
 70
     1
102
RTVSPropertyOp14
 70
     1
102
RTVSPropertyOp15
 70
     1
102
RTVSPropertyOp16
 70
     1
102
RTVSPropertyOp17
 70
     1
102
RTVSPropertyOp18
 70
     1
102
RTVSPropertyOp19
 70
     1
102
RTVSPropertyOp20
 70
     1
102
RTVSPropertyOp21
 70
     1
102
RTVSPropertyOp22
 70
     1
102
RTVSPropertyOp23
 70
     1
102
RTVSPropertyOp24
 70
     1
102
RTVSPropertyOp25
 70
     1
102
RTVSPropertyOp26
 70
     1
102
RTVSPropertyOp27
 70
     1
102
RTVSPropertyOp28
 70
     1
102
RTVSPropertyOp29
 70
     1
102
RTVSPropertyOp30
 70
     1
102
RTVSPropertyOp31
 70
     1
102
RTVSPropertyOp32
 70
     1
  0
XRECORD
  5
1D9
102
{ACAD_REACTORS
330
1D8
102
}
330
1D8
100
AcDbXrecord
280
     1
102
RTVSPropertyOp0
 70
     0
102
RTVSPropertyOp1
 70
     0
102
RTVSPropertyOp2
 70
     0
102
RTVSPropertyOp3
 70
     0
102
RTVSPropertyOp4
 70
     0
102
RTVSPropertyOp5
 70
     0
102
RTVSPropertyOp6
 70
     0
102
RTVSPropertyOp7
 70
     0
102
RTVSPropertyOp8
 70
     0
102
RTVSPropertyOp9
 70
     0
102
RTVSPropertyOp10
 70
     0
102
RTVSPropertyOp11
 70
     0
102
RTVSPropertyOp12
 70
     0
102
RTVSPropertyOp13
 70
     0
102
RTVSPropertyOp14
 70
     2
102
RTVSPropertyOp15
 70
     0
102
RTVSPropertyOp16
 70
     0
102
RTVSPropertyOp17
 70
     0
102
RTVSPropertyOp18
 70
     0
102
RTVSPropertyOp19
 70
     0
102
RTVSPropertyOp20
 70
     0
102
RTVSPropertyOp21
 70
     0
102
RTVSPropertyOp22
 70
     0
102
RTVSPropertyOp23
 70
     0
102
RTVSPropertyOp24
 70
     0
102
RTVSPropertyOp25
 70
     0
102
RTVSPropertyOp26
 70
     0
102
RTVSPropertyOp27
 70
     0
102
RTVSPropertyOp28
 70
     0
102
RTVSPropertyOp29
 70
     0
102
RTVSPropertyOp30
 70
     0
102
RTVSPropertyOp31
 70
     0
102
RTVSPropertyOp32
 70
     0
  0
XRECORD
  5
1C9
102
{ACAD_REACTORS
330
1C8
102
}
330
1C8
100
AcDbXrecord
280
     1
102
RTVSPropertyOp0
 70
     1
102
RTVSPropertyOp1
 70
     1
102
RTVSPropertyOp2
 70
     1
102
RTVSPropertyOp3
 70
     1
102
RTVSPropertyOp4
 70
     1
102
RTVSPropertyOp5
 70
     1
102
RTVSPropertyOp6
 70
     1
102
RTVSPropertyOp7
 70
     1
102
RTVSPropertyOp8
 70
     1
102
RTVSPropertyOp9
 70
     1
102
RTVSPropertyOp10
 70
     1
102
RTVSPropertyOp11
 70
     1
102
RTVSPropertyOp12
 70
     1
102
RTVSPropertyOp13
 70
     1
102
RTVSPropertyOp14
 70
     1
102
RTVSPropertyOp15
 70
     1
102
RTVSPropertyOp16
 70
     1
102
RTVSPropertyOp17
 70
     1
102
RTVSPropertyOp18
 70
     1
102
RTVSPropertyOp19
 70
     1
102
RTVSPropertyOp20
 70
     1
102
RTVSPropertyOp21
 70
     1
102
RTVSPropertyOp22
 70
     1
102
RTVSPropertyOp23
 70
     1
102
RTVSPropertyOp24
 70
     1
102
RTVSPropertyOp25
 70
     1
102
RTVSPropertyOp26
 70
     1
102
RTVSPropertyOp27
 70
     1
102
RTVSPropertyOp28
 70
     1
102
RTVSPropertyOp29
 70
     1
102
RTVSPropertyOp30
 70
     1
102
RTVSPropertyOp31
 70
     1
102
RTVSPropertyOp32
 70
     1
  0
XRECORD
  5
1DB
102
{ACAD_REACTORS
330
1DA
102
}
330
1DA
100
AcDbXrecord
280
     1
102
RTVSPropertyOp0
 70
     0
102
RTVSPropertyOp1
 70
     0
102
RTVSPropertyOp2
 70
     0
102
RTVSPropertyOp3
 70
     0
102
RTVSPropertyOp4
 70
     0
102
RTVSPropertyOp5
 70
     0
102
RTVSPropertyOp6
 70
     0
102
RTVSPropertyOp7
 70
     0
102
RTVSPropertyOp8
 70
     0
102
RTVSPropertyOp9
 70
     0
102
RTVSPropertyOp10
 70
     0
102
RTVSPropertyOp11
 70
     0
102
RTVSPropertyOp12
 70
     0
102
RTVSPropertyOp13
 70
     0
102
RTVSPropertyOp14
 70
     2
102
RTVSPropertyOp15
 70
     0
102
RTVSPropertyOp16
 70
     0
102
RTVSPropertyOp17
 70
     0
102
RTVSPropertyOp18
 70
     0
102
RTVSPropertyOp19
 70
     0
102
RTVSPropertyOp20
 70
     0
102
RTVSPropertyOp21
 70
     0
102
RTVSPropertyOp22
 70
     0
102
RTVSPropertyOp23
 70
     0
102
RTVSPropertyOp24
 70
     0
102
RTVSPropertyOp25
 70
     0
102
RTVSPropertyOp26
 70
     0
102
RTVSPropertyOp27
 70
     0
102
RTVSPropertyOp28
 70
     0
102
RTVSPropertyOp29
 70
     0
102
RTVSPropertyOp30
 70
     0
102
RTVSPropertyOp31
 70
     0
102
RTVSPropertyOp32
 70
     0
  0
XRECORD
  5
1B1
102
{ACAD_REACTORS
330
1B0
102
}
330
1B0
100
AcDbXrecord
280
     1
102
RTVSPropertyOp0
 70
     1
102
RTVSPropertyOp1
 70
     1
102
RTVSPropertyOp2
 70
     1
102
RTVSPropertyOp3
 70
     1
102
RTVSPropertyOp4
 70
     1
102
RTVSPropertyOp5
 70
     1
102
RTVSPropertyOp6
 70
     1
102
RTVSPropertyOp7
 70
     1
102
RTVSPropertyOp8
 70
     1
102
RTVSPropertyOp9
 70
     1
102
RTVSPropertyOp10
 70
     1
102
RTVSPropertyOp11
 70
     1
102
RTVSPropertyOp12
 70
     1
102
RTVSPropertyOp13
 70
     1
102
RTVSPropertyOp14
 70
     1
102
RTVSPropertyOp15
 70
     1
102
RTVSPropertyOp16
 70
     1
102
RTVSPropertyOp17
 70
     1
102
RTVSPropertyOp18
 70
     1
102
RTVSPropertyOp19
 70
     1
102
RTVSPropertyOp20
 70
     1
102
RTVSPropertyOp21
 70
     1
102
RTVSPropertyOp22
 70
     1
102
RTVSPropertyOp23
 70
     1
102
RTVSPropertyOp24
 70
     1
102
RTVSPropertyOp25
 70
     1
102
RTVSPropertyOp26
 70
     1
102
RTVSPropertyOp27
 70
     1
102
RTVSPropertyOp28
 70
     1
102
RTVSPropertyOp29
 70
     1
102
RTVSPropertyOp30
 70
     1
102
RTVSPropertyOp31
 70
     1
102
RTVSPropertyOp32
 70
     1
  0
XRECORD
  5
1D7
102
{ACAD_REACTORS
330
1D6
102
}
330
1D6
100
AcDbXrecord
280
     1
102
RTVSPropertyOp0
 70
     1
102
RTVSPropertyOp1
 70
     1
102
RTVSPropertyOp2
 70
     1
102
RTVSPropertyOp3
 70
     1
102
RTVSPropertyOp4
 70
     1
102
RTVSPropertyOp5
 70
     1
102
RTVSPropertyOp6
 70
     1
102
RTVSPropertyOp7
 70
     1
102
RTVSPropertyOp8
 70
     1
102
RTVSPropertyOp9
 70
     1
102
RTVSPropertyOp10
 70
     1
102
RTVSPropertyOp11
 70
     1
102
RTVSPropertyOp12
 70
     1
102
RTVSPropertyOp13
 70
     1
102
RTVSPropertyOp14
 70
     1
102
RTVSPropertyOp15
 70
     1
102
RTVSPropertyOp16
 70
     1
102
RTVSPropertyOp17
 70
     1
102
RTVSPropertyOp18
 70
     1
102
RTVSPropertyOp19
 70
     1
102
RTVSPropertyOp20
 70
     1
102
RTVSPropertyOp21
 70
     1
102
RTVSPropertyOp22
 70
     1
102
RTVSPropertyOp23
 70
     1
102
RTVSPropertyOp24
 70
     1
102
RTVSPropertyOp25
 70
     1
102
RTVSPropertyOp26
 70
     1
102
RTVSPropertyOp27
 70
     1
102
RTVSPropertyOp28
 70
     1
102
RTVSPropertyOp29
 70
     1
102
RTVSPropertyOp30
 70
     1
102
RTVSPropertyOp31
 70
     1
102
RTVSPropertyOp32
 70
     1
  0
XRECORD
  5
1D5
102
{ACAD_REACTORS
330
1D4
102
}
330
1D4
100
AcDbXrecord
280
     1
102
RTVSPropertyOp0
 70
     1
102
RTVSPropertyOp1
 70
     1
102
RTVSPropertyOp2
 70
     1
102
RTVSPropertyOp3
 70
     1
102
RTVSPropertyOp4
 70
     1
102
RTVSPropertyOp5
 70
     1
102
RTVSPropertyOp6
 70
     1
102
RTVSPropertyOp7
 70
     1
102
RTVSPropertyOp8
 70
     1
102
RTVSPropertyOp9
 70
     1
102
RTVSPropertyOp10
 70
     1
102
RTVSPropertyOp11
 70
     1
102
RTVSPropertyOp12
 70
     1
102
RTVSPropertyOp13
 70
     1
102
RTVSPropertyOp14
 70
     1
102
RTVSPropertyOp15
 70
     1
102
RTVSPropertyOp16
 70
     1
102
RTVSPropertyOp17
 70
     1
102
RTVSPropertyOp18
 70
     1
102
RTVSPropertyOp19
 70
     1
102
RTVSPropertyOp20
 70
     1
102
RTVSPropertyOp21
 70
     1
102
RTVSPropertyOp22
 70
     1
102
RTVSPropertyOp23
 70
     1
102
RTVSPropertyOp24
 70
     1
102
RTVSPropertyOp25
 70
     1
102
RTVSPropertyOp26
 70
     1
102
RTVSPropertyOp27
 70
     1
102
RTVSPropertyOp28
 70
     1
102
RTVSPropertyOp29
 70
     1
102
RTVSPropertyOp30
 70
     1
102
RTVSPropertyOp31
 70
     1
102
RTVSPropertyOp32
 70
     1
  0
XRECORD
  5
1CF
102
{ACAD_REACTORS
330
1CE
102
}
330
1CE
100
AcDbXrecord
280
     1
102
RTVSPropertyOp0
 70
     1
102
RTVSPropertyOp1
 70
     1
102
RTVSPropertyOp2
 70
     1
102
RTVSPropertyOp3
 70
     1
102
RTVSPropertyOp4
 70
     1
102
RTVSPropertyOp5
 70
     1
102
RTVSPropertyOp6
 70
     1
102
RTVSPropertyOp7
 70
     1
102
RTVSPropertyOp8
 70
     1
102
RTVSPropertyOp9
 70
     1
102
RTVSPropertyOp10
 70
     1
102
RTVSPropertyOp11
 70
     1
102
RTVSPropertyOp12
 70
     1
102
RTVSPropertyOp13
 70
     1
102
RTVSPropertyOp14
 70
     1
102
RTVSPropertyOp15
 70
     1
102
RTVSPropertyOp16
 70
     1
102
RTVSPropertyOp17
 70
     1
102
RTVSPropertyOp18
 70
     1
102
RTVSPropertyOp19
 70
     1
102
RTVSPropertyOp20
 70
     1
102
RTVSPropertyOp21
 70
     1
102
RTVSPropertyOp22
 70
     1
102
RTVSPropertyOp23
 70
     1
102
RTVSPropertyOp24
 70
     1
102
RTVSPropertyOp25
 70
     1
102
RTVSPropertyOp26
 70
     1
102
RTVSPropertyOp27
 70
     1
102
RTVSPropertyOp28
 70
     1
102
RTVSPropertyOp29
 70
     1
102
RTVSPropertyOp30
 70
     1
102
RTVSPropertyOp31
 70
     1
102
RTVSPropertyOp32
 70
     1
  0
XRECORD
  5
1D1
102
{ACAD_REACTORS
330
1D0
102
}
330
1D0
100
AcDbXrecord
280
     1
102
RTVSPropertyOp0
 70
     1
102
RTVSPropertyOp1
 70
     1
102
RTVSPropertyOp2
 70
     1
102
RTVSPropertyOp3
 70
     1
102
RTVSPropertyOp4
 70
     1
102
RTVSPropertyOp5
 70
     1
102
RTVSPropertyOp6
 70
     1
102
RTVSPropertyOp7
 70
     1
102
RTVSPropertyOp8
 70
     1
102
RTVSPropertyOp9
 70
     1
102
RTVSPropertyOp10
 70
     1
102
RTVSPropertyOp11
 70
     1
102
RTVSPropertyOp12
 70
     1
102
RTVSPropertyOp13
 70
     1
102
RTVSPropertyOp14
 70
     1
102
RTVSPropertyOp15
 70
     1
102
RTVSPropertyOp16
 70
     1
102
RTVSPropertyOp17
 70
     1
102
RTVSPropertyOp18
 70
     1
102
RTVSPropertyOp19
 70
     1
102
RTVSPropertyOp20
 70
     1
102
RTVSPropertyOp21
 70
     1
102
RTVSPropertyOp22
 70
     1
102
RTVSPropertyOp23
 70
     1
102
RTVSPropertyOp24
 70
     1
102
RTVSPropertyOp25
 70
     1
102
RTVSPropertyOp26
 70
     1
102
RTVSPropertyOp27
 70
     1
102
RTVSPropertyOp28
 70
     1
102
RTVSPropertyOp29
 70
     1
102
RTVSPropertyOp30
 70
     1
102
RTVSPropertyOp31
 70
     1
102
RTVSPropertyOp32
 70
     1
  0
XRECORD
  5
1C7
102
{ACAD_REACTORS
330
1C6
102
}
330
1C6
100
AcDbXrecord
280
     1
102
RTVSPropertyOp0
 70
     1
102
RTVSPropertyOp1
 70
     1
102
RTVSPropertyOp2
 70
     1
102
RTVSPropertyOp3
 70
     1
102
RTVSPropertyOp4
 70
     1
102
RTVSPropertyOp5
 70
     1
102
RTVSPropertyOp6
 70
     1
102
RTVSPropertyOp7
 70
     1
102
RTVSPropertyOp8
 70
     1
102
RTVSPropertyOp9
 70
     1
102
RTVSPropertyOp10
 70
     1
102
RTVSPropertyOp11
 70
     1
102
RTVSPropertyOp12
 70
     1
102
RTVSPropertyOp13
 70
     1
102
RTVSPropertyOp14
 70
     1
102
RTVSPropertyOp15
 70
     1
102
RTVSPropertyOp16
 70
     1
102
RTVSPropertyOp17
 70
     1
102
RTVSPropertyOp18
 70
     1
102
RTVSPropertyOp19
 70
     1
102
RTVSPropertyOp20
 70
     1
102
RTVSPropertyOp21
 70
     1
102
RTVSPropertyOp22
 70
     1
102
RTVSPropertyOp23
 70
     1
102
RTVSPropertyOp24
 70
     1
102
RTVSPropertyOp25
 70
     1
102
RTVSPropertyOp26
 70
     1
102
RTVSPropertyOp27
 70
     1
102
RTVSPropertyOp28
 70
     1
102
RTVSPropertyOp29
 70
     1
102
RTVSPropertyOp30
 70
     1
102
RTVSPropertyOp31
 70
     1
102
RTVSPropertyOp32
 70
     1
  0
XRECORD
  5
1B3
102
{ACAD_REACTORS
330
1B2
102
}
330
1B2
100
AcDbXrecord
280
     1
102
RTVSPropertyOp0
 70
     1
102
RTVSPropertyOp1
 70
     1
102
RTVSPropertyOp2
 70
     1
102
RTVSPropertyOp3
 70
     1
102
RTVSPropertyOp4
 70
     1
102
RTVSPropertyOp5
 70
     1
102
RTVSPropertyOp6
 70
     1
102
RTVSPropertyOp7
 70
     1
102
RTVSPropertyOp8
 70
     1
102
RTVSPropertyOp9
 70
     1
102
RTVSPropertyOp10
 70
     1
102
RTVSPropertyOp11
 70
     1
102
RTVSPropertyOp12
 70
     1
102
RTVSPropertyOp13
 70
     1
102
RTVSPropertyOp14
 70
     1
102
RTVSPropertyOp15
 70
     1
102
RTVSPropertyOp16
 70
     1
102
RTVSPropertyOp17
 70
     1
102
RTVSPropertyOp18
 70
     1
102
RTVSPropertyOp19
 70
     1
102
RTVSPropertyOp20
 70
     1
102
RTVSPropertyOp21
 70
     1
102
RTVSPropertyOp22
 70
     1
102
RTVSPropertyOp23
 70
     1
102
RTVSPropertyOp24
 70
     1
102
RTVSPropertyOp25
 70
     1
102
RTVSPropertyOp26
 70
     1
102
RTVSPropertyOp27
 70
     1
102
RTVSPropertyOp28
 70
     1
102
RTVSPropertyOp29
 70
     1
102
RTVSPropertyOp30
 70
     1
102
RTVSPropertyOp31
 70
     1
102
RTVSPropertyOp32
 70
     1
  0
XRECORD
  5
1D3
102
{ACAD_REACTORS
330
1D2
102
}
330
1D2
100
AcDbXrecord
280
     1
102
RTVSPropertyOp0
 70
     1
102
RTVSPropertyOp1
 70
     1
102
RTVSPropertyOp2
 70
     1
102
RTVSPropertyOp3
 70
     1
102
RTVSPropertyOp4
 70
     1
102
RTVSPropertyOp5
 70
     1
102
RTVSPropertyOp6
 70
     1
102
RTVSPropertyOp7
 70
     1
102
RTVSPropertyOp8
 70
     1
102
RTVSPropertyOp9
 70
     1
102
RTVSPropertyOp10
 70
     1
102
RTVSPropertyOp11
 70
     1
102
RTVSPropertyOp12
 70
     1
102
RTVSPropertyOp13
 70
     1
102
RTVSPropertyOp14
 70
     1
102
RTVSPropertyOp15
 70
     1
102
RTVSPropertyOp16
 70
     1
102
RTVSPropertyOp17
 70
     1
102
RTVSPropertyOp18
 70
     1
102
RTVSPropertyOp19
 70
     1
102
RTVSPropertyOp20
 70
     1
102
RTVSPropertyOp21
 70
     1
102
RTVSPropertyOp22
 70
     1
102
RTVSPropertyOp23
 70
     1
102
RTVSPropertyOp24
 70
     1
102
RTVSPropertyOp25
 70
     1
102
RTVSPropertyOp26
 70
     1
102
RTVSPropertyOp27
 70
     1
102
RTVSPropertyOp28
 70
     1
102
RTVSPropertyOp29
 70
     1
102
RTVSPropertyOp30
 70
     1
102
RTVSPropertyOp31
 70
     1
102
RTVSPropertyOp32
 70
     1
  0
ENDSEC
  0
EOF
