  0
SECTION
  2
HEADER
  9
$ACADVER
  1
AC1015
  9
$ACADMAINTVER
 70
    18
  9
$DWGCODEPAGE
  3
ANSI_1252
  9
$INSBASE
 10
0.0
 20
0.0
 30
0.0
  9
$EXTMIN
 10
-61.72146336795004
 20
-20.42956349536507
 30
-0.0015258207003583
  9
$EXTMAX
 10
44.86689901941781
 20
212.5470440731697
 30
0.0000000349246037
  9
$LIMMIN
 10
0.0
 20
0.0
  9
$LIMMAX
 10
1189.0
 20
840.9999999999998
  9
$ORTHOMODE
 70
     0
  9
$REGENMODE
 70
     1
  9
$FILLMODE
 70
     1
  9
$QTEXTMODE
 70
     0
  9
$MIRRTEXT
 70
     0
  9
$LTSCALE
 40
1.0
  9
$ATTMODE
 70
     1
  9
$TEXTSIZE
 40
0.2
  9
$TRACEWID
 40
0.05
  9
$TEXTSTYLE
  7
STANDARD
  9
$CLAYER
  8
0
  9
$CELTYPE
  6
ByLayer
  9
$CECOLOR
 62
   256
  9
$CELTSCALE
 40
1.0
  9
$DISPSILH
 70
     0
  9
$DIMSCALE
 40
1.0
  9
$DIMASZ
 40
180.0
  9
$DIMEXO
 40
0.0625
  9
$DIMDLI
 40
0.38
  9
$DIMRND
 40
0.0
  9
$DIMDLE
 40
0.0
  9
$DIMEXE
 40
0.18
  9
$DIMTP
 40
0.0
  9
$DIMTM
 40
0.0
  9
$DIMTXT
 40
34.99999940395355
  9
$DIMCEN
 40
0.09
  9
$DIMTSZ
 40
0.0
  9
$DIMTOL
 70
     0
  9
$DIMLIM
 70
     0
  9
$DIMTIH
 70
     1
  9
$DIMTOH
 70
     1
  9
$DIMSE1
 70
     0
  9
$DIMSE2
 70
     0
  9
$DIMTAD
 70
     0
  9
$DIMZIN
 70
     0
  9
$DIMBLK
  1

  9
$DIMASO
 70
     1
  9
$DIMSHO
 70
     1
  9
$DIMPOST
  1

  9
$DIMAPOST
  1

  9
$DIMALT
 70
     0
  9
$DIMALTD
 70
     2
  9
$DIMALTF
 40
25.4
  9
$DIMLFAC
 40
1.0
  9
$DIMTOFL
 70
     0
  9
$DIMTVP
 40
0.0
  9
$DIMTIX
 70
     0
  9
$DIMSOXD
 70
     0
  9
$DIMSAH
 70
     0
  9
$DIMBLK1
  1

  9
$DIMBLK2
  1

  9
$DIMSTYLE
  2
STANDARD
  9
$DIMCLRD
 70
     0
  9
$DIMCLRE
 70
     0
  9
$DIMCLRT
 70
     0
  9
$DIMTFAC
 40
1.0
  9
$DIMGAP
 40
0.09
  9
$DIMJUST
 70
     0
  9
$DIMSD1
 70
     0
  9
$DIMSD2
 70
     0
  9
$DIMTOLJ
 70
     1
  9
$DIMTZIN
 70
     0
  9
$DIMALTZ
 70
     0
  9
$DIMALTTZ
 70
     0
  9
$DIMUPT
 70
     0
  9
$DIMDEC
 70
     4
  9
$DIMTDEC
 70
     4
  9
$DIMALTU
 70
     2
  9
$DIMALTTD
 70
     2
  9
$DIMTXSTY
  7
STANDARD
  9
$DIMAUNIT
 70
     0
  9
$DIMADEC
 70
     0
  9
$DIMALTRND
 40
0.0
  9
$DIMAZIN
 70
     0
  9
$DIMDSEP
 70
    46
  9
$DIMATFIT
 70
     3
  9
$DIMFRAC
 70
     0
  9
$DIMLDRBLK
  1

  9
$DIMLUNIT
 70
     2
  9
$DIMLWD
 70
    -2
  9
$DIMLWE
 70
    -2
  9
$DIMTMOVE
 70
     0
  9
$LUNITS
 70
     2
  9
$LUPREC
 70
     4
  9
$SKETCHINC
 40
0.1
  9
$FILLETRAD
 40
0.0
  9
$AUNITS
 70
     0
  9
$AUPREC
 70
     0
  9
$MENU
  1
.
  9
$ELEVATION
 40
0.0
  9
$PELEVATION
 40
0.0
  9
$THICKNESS
 40
0.0
  9
$LIMCHECK
 70
     0
  9
$CHAMFERA
 40
0.0
  9
$CHAMFERB
 40
0.0
  9
$CHAMFERC
 40
0.0
  9
$CHAMFERD
 40
0.0
  9
$SKPOLY
 70
     0
  9
$TDCREATE
 40
2454871.497639329
  9
$TDUCREATE
 40
2454871.455972662
  9
$TDUPDATE
 40
2455943.883020105
  9
$TDUUPDATE
 40
2455943.841353438
  9
$TDINDWG
 40
0.0122959722
  9
$TDUSRTIMER
 40
0.0122959722
  9
$USRTIMER
 70
     1
  9
$ANGBASE
 50
0.0
  9
$ANGDIR
 70
     0
  9
$PDMODE
 70
     0
  9
$PDSIZE
 40
0.0
  9
$PLINEWID
 40
0.0
  9
$SPLFRAME
 70
     0
  9
$SPLINETYPE
 70
     6
  9
$SPLINESEGS
 70
     8
  9
$HANDSEED
  5
20D
  9
$SURFTAB1
 70
     6
  9
$SURFTAB2
 70
     6
  9
$SURFTYPE
 70
     6
  9
$SURFU
 70
     6
  9
$SURFV
 70
     6
  9
$UCSBASE
  2

  9
$UCSNAME
  2

  9
$UCSORG
 10
0.0
 20
0.0
 30
0.0
  9
$UCSXDIR
 10
1.0
 20
0.0
 30
0.0
  9
$UCSYDIR
 10
0.0
 20
1.0
 30
0.0
  9
$UCSORTHOREF
  2

  9
$UCSORTHOVIEW
 70
     0
  9
$UCSORGTOP
 10
0.0
 20
0.0
 30
0.0
  9
$UCSORGBOTTOM
 10
0.0
 20
0.0
 30
0.0
  9
$UCSORGLEFT
 10
0.0
 20
0.0
 30
0.0
  9
$UCSORGRIGHT
 10
0.0
 20
0.0
 30
0.0
  9
$UCSORGFRONT
 10
0.0
 20
0.0
 30
0.0
  9
$UCSORGBACK
 10
0.0
 20
0.0
 30
0.0
  9
$PUCSBASE
  2

  9
$PUCSNAME
  2

  9
$PUCSORG
 10
0.0
 20
0.0
 30
0.0
  9
$PUCSXDIR
 10
1.0
 20
0.0
 30
0.0
  9
$PUCSYDIR
 10
0.0
 20
1.0
 30
0.0
  9
$PUCSORTHOREF
  2

  9
$PUCSORTHOVIEW
 70
     0
  9
$PUCSORGTOP
 10
0.0
 20
0.0
 30
0.0
  9
$PUCSORGBOTTOM
 10
0.0
 20
0.0
 30
0.0
  9
$PUCSORGLEFT
 10
0.0
 20
0.0
 30
0.0
  9
$PUCSORGRIGHT
 10
0.0
 20
0.0
 30
0.0
  9
$PUCSORGFRONT
 10
0.0
 20
0.0
 30
0.0
  9
$PUCSORGBACK
 10
0.0
 20
0.0
 30
0.0
  9
$USERI1
 70
     0
  9
$USERI2
 70
     0
  9
$USERI3
 70
     0
  9
$USERI4
 70
     0
  9
$USERI5
 70
     0
  9
$USERR1
 40
0.0
  9
$USERR2
 40
0.0
  9
$USERR3
 40
0.0
  9
$USERR4
 40
0.0
  9
$USERR5
 40
0.0
  9
$WORLDVIEW
 70
     1
  9
$SHADEDGE
 70
     3
  9
$SHADEDIF
 70
    70
  9
$TILEMODE
 70
     1
  9
$MAXACTVP
 70
    64
  9
$PINSBASE
 10
0.0
 20
0.0
 30
0.0
  9
$PLIMCHECK
 70
     0
  9
$PEXTMIN
 10
0.0
 20
0.0
 30
0.0
  9
$PEXTMAX
 10
1189.0
 20
840.9999999999998
 30
0.0
  9
$PLIMMIN
 10
0.0
 20
0.0
  9
$PLIMMAX
 10
1189.0
 20
840.9999999999998
  9
$UNITMODE
 70
     0
  9
$VISRETAIN
 70
     1
  9
$PLINEGEN
 70
     0
  9
$PSLTSCALE
 70
     1
  9
$TREEDEPTH
 70
  3020
  9
$CMLSTYLE
  2
Standard
  9
$CMLJUST
 70
     0
  9
$CMLSCALE
 40
1.0
  9
$PROXYGRAPHICS
 70
     1
  9
$MEASUREMENT
 70
     1
  9
$CELWEIGHT
370
    -1
  9
$ENDCAPS
280
     0
  9
$JOINSTYLE
280
     0
  9
$LWDISPLAY
290
     0
  9
$INSUNITS
 70
     4
  9
$HYPERLINKBASE
  1

  9
$STYLESHEET
  1

  9
$XEDIT
290
     1
  9
$CEPSNTYPE
380
     0
  9
$PSTYLEMODE
290
     1
  9
$FINGERPRINTGUID
  2
{15A1E36E-3F86-4DB4-91D5-EDB4BD61693C}
  9
$VERSIONGUID
  2
{69F0550E-8C1A-4287-8211-EF4CACB3D5F0}
  9
$EXTNAMES
290
     1
  9
$PSVPSCALE
 40
0.0
  9
$OLESTARTUP
290
     0
  0
ENDSEC
  0
SECTION
  2
CLASSES
  0
CLASS
  1
ACDBDICTIONARYWDFLT
  2
AcDbDictionaryWithDefault
  3
ObjectDBX Classes
 90
        0
280
     0
281
     0
  0
CLASS
  1
MATERIAL
  2
AcDbMaterial
  3
ObjectDBX Classes
 90
     1153
280
     0
281
     0
  0
CLASS
  1
VISUALSTYLE
  2
AcDbVisualStyle
  3
ObjectDBX Classes
 90
     4095
280
     0
281
     0
  0
CLASS
  1
SCALE
  2
AcDbScale
  3
ObjectDBX Classes
 90
     1153
280
     0
281
     0
  0
CLASS
  1
TABLESTYLE
  2
AcDbTableStyle
  3
ObjectDBX Classes
 90
     4095
280
     0
281
     0
  0
CLASS
  1
MLEADERSTYLE
  2
AcDbMLeaderStyle
  3
ACDB_MLEADERSTYLE_CLASS
 90
     4095
280
     0
281
     0
  0
CLASS
  1
SORTENTSTABLE
  2
AcDbSortentsTable
  3
ObjectDBX Classes
 90
        0
280
     0
281
     0
  0
CLASS
  1
CELLSTYLEMAP
  2
AcDbCellStyleMap
  3
ObjectDBX Classes
 90
     1152
280
     0
281
     0
  0
CLASS
  1
DICTIONARYVAR
  2
AcDbDictionaryVar
  3
ObjectDBX Classes
 90
        0
280
     0
281
     0
  0
CLASS
  1
ACME_DOCUMENT
  2
AcMeDbDoc
  3
AcMeServices
 90
    33792
280
     1
281
     0
  0
CLASS
  1
AMGSETTINGSOBJ
  2
AmgSettingsObj
  3
"AcadM|Product Description: AutoCAD Mechanical|Company: Autodesk, Inc."
 90
    33792
280
     1
281
     0
  0
CLASS
  1
ACMESCOPE
  2
AcMeScope
  3
AcMeServices
 90
    33792
280
     1
281
     0
  0
CLASS
  1
ACMECOMMANDHISTORY
  2
AcMeCommandHistory
  3
AcMeServices
 90
    33792
280
     1
281
     0
  0
CLASS
  1
ACIMSYSVARMAN
  2
AcImSysVarManager
  3
AcMeServices
 90
    33792
280
     1
281
     0
  0
CLASS
  1
ACIMINTSYSVAR
  2
AcImIntSysVar
  3
AcMeServices
 90
    33792
280
     1
281
     0
  0
CLASS
  1
ACMEDRAWINGMAN
  2
AcMeDrawingMan
  3
AcMeServices
 90
    33792
280
     1
281
     0
  0
CLASS
  1
ACMEVIEW
  2
AcMeView
  3
AcMeServices
 90
    33792
280
     1
281
     0
  0
CLASS
  1
ACDBENTITYCACHE
  2
AcMeEntityCache
  3
AcMeServices
 90
    33792
280
     1
281
     0
  0
CLASS
  1
GSMANAGER
  2
AcMeGSManager
  3
AcMeServices
 90
    33792
280
     1
281
     0
  0
CLASS
  1
AMDTINTERNALREACTOR
  2
AmdtInternalReactor
  3
AcMeServices
 90
    33792
280
     1
281
     0
  0
CLASS
  1
ACMESTATEMGR
  2
AcMeStateMgr
  3
AcMeServices
 90
    33792
280
     1
281
     0
  0
CLASS
  1
ACGREFMASTER
  2
AcGrefMaster
  3
AcAttribServices
 90
    33792
280
     1
281
     0
  0
CLASS
  1
AM_DRAWING_MGR
  2
AcDmDwgMgr
  3
AcMechDwgViewMgmt
 90
    33792
280
     1
281
     0
  0
CLASS
  1
AM_DWG_DOCUMENT
  2
AcDmDwgDocument
  3
AcMechDwgViewMgmt
 90
    33792
280
     1
281
     0
  0
CLASS
  1
AM_DWG_SHEET
  2
AcDmSheet
  3
AcMechDwgViewMgmt
 90
    33792
280
     1
281
     0
  0
CLASS
  1
AM_VIEWDIMPARMAP
  2
AcDmViewDimParMap
  3
AcMechDwgViewMgmt
 90
    33792
280
     1
281
     0
  0
CLASS
  1
ACIMREALSYSVAR
  2
AcImRealSysVar
  3
AcMeServices
 90
    33792
280
     1
281
     0
  0
CLASS
  1
AM_DWGMGR_NAME
  2
AcDmDwgMgrName
  3
AcMechDwgViewMgmt
 90
    33792
280
     1
281
     0
  0
CLASS
  1
ACME_DATABASE
  2
AcMeDbDatabase
  3
AcMeServices
 90
    33792
280
     1
281
     0
  0
CLASS
  1
ACRFINSADJUSTERMGR
  2
AcRfInsAdjusterMgr
  3
AcMeServices
 90
    33792
280
     1
281
     0
  0
CLASS
  1
ACGREFACADMASTER
  2
AcGrefacadMaster
  3
AcGrefServices
 90
    33792
280
     1
281
     0
  0
CLASS
  1
AMDTMENUSTATEMGR
  2
AmdtMenuStateMgr
  3
McadcomServices
 90
    33792
280
     1
281
     0
  0
CLASS
  1
AMDTMCOMMENUSTATE
  2
AmdtMcomMenuState
  3
McadcomServices
 90
    33792
280
     1
281
     0
  0
CLASS
  1
AMIMASTER
  2
AmiMaster
  3
AmiServices
 90
    33792
280
     1
281
     0
  0
CLASS
  1
MAPIAMMOUDLE
  2
MApiAmModule
  3
MApiAmServices
 90
    33792
280
     1
281
     0
  0
CLASS
  1
ACIMSTRSYSVAR
  2
AcImStrSysVar
  3
AcMeServices
 90
    33792
280
     1
281
     0
  0
CLASS
  1
AMDTADMENUSTATE
  2
AmdtAdMenuState
  3
DesignerServices
 90
    33792
280
     1
281
     0
  0
CLASS
  1
ADAPPL
  2
AcAdAppl
  3
DesignerServices
 90
    33792
280
     1
281
     0
  0
CLASS
  1
DEPMGR
  2
AcAdDepMgr
  3
DesignerServices
 90
    33792
280
     1
281
     0
  0
CLASS
  1
PARAMMGR
  2
AcAdParamMgr
  3
DesignerServices
 90
    33792
280
     1
281
     0
  0
CLASS
  1
PARAMSCOPE
  2
AcAdParamScope
  3
DesignerServices
 90
    33792
280
     1
281
     0
  0
CLASS
  1
NAMEDAPPL
  2
AcAdNamedAppl
  3
DesignerServices
 90
    33792
280
     1
281
     0
  0
CLASS
  1
AMDTDMMENUSTATE
  2
AmdtDmMenuState
  3
AcMechDwgViewMgmt
 90
    33792
280
     1
281
     0
  0
CLASS
  1
AMDTAMMENUSTATE
  2
AmdtAmMenuState
  3
DesignerAssemblies
 90
    33792
280
     1
281
     0
  0
CLASS
  1
ACAMPROJECT
  2
AcAmProject
  3
DesignerAssemblies
 90
    33792
280
     1
281
     0
  0
CLASS
  1
ACAMGRCOMPDEF
  2
AcAmGrCompDef
  3
DesignerAssemblies
 90
    33792
280
     1
281
     0
  0
CLASS
  1
ACCMCONTEXT
  2
AcCmContext
  3
DesignerAssemblies
 90
    33792
280
     1
281
     0
  0
CLASS
  1
ACAMCOMPDEF
  2
AcAmCompDef
  3
DesignerAssemblies
 90
    33792
280
     1
281
     0
  0
CLASS
  1
ACAMCOMPDEFMGR
  2
AcAmCompDefMgr
  3
DesignerAssemblies
 90
    33792
280
     1
281
     0
  0
CLASS
  1
AMCONTEXTMGR
  2
AcAmContextMgr
  3
DesignerAssemblies
 90
    33792
280
     1
281
     0
  0
CLASS
  1
ACAMCONTEXTMODELER
  2
AcAmContextModeler
  3
DesignerAssemblies
 90
    33792
280
     1
281
     0
  0
CLASS
  1
ACMDATADICTIONARY
  2
AcmDataDictionary
  3
"AcmSymBB|Product Description: AutoCAD Mechanical|Company: Autodesk, Inc."
 90
    33792
280
     1
281
     0
  0
CLASS
  1
CATALOGSTATE
  2
AcAmCatalogState
  3
DesignerAssemblies
 90
    33792
280
     1
281
     0
  0
CLASS
  1
ACAMGRCOMPDEFSET
  2
AcAmGrCompDefSet
  3
DesignerAssemblies
 90
    33792
280
     1
281
     0
  0
CLASS
  1
AMDTBROWSERDBTAB
  2
AmdtBrowserDbTab
  3
McadcomServices
 90
    33792
280
     1
281
     0
  0
CLASS
  1
CBROWSERAPPOBJECT
  2
CBrowserAppObject
  3
McadcomServices
 90
    33792
280
     1
281
     0
  0
CLASS
  1
DM_PLACEHOLDER
  2
AcDmSelsetPlaceholder
  3
AcMechDwgViewMgmt
 90
    33792
280
     1
281
     0
  0
CLASS
  1
EXACXREFPANELOBJECT
  2
ExAcXREFPanelObject
  3
EXAC_ESW
 90
     1025
280
     0
281
     0
  0
CLASS
  1
NPOCOLLECTION
  2
AcDbImpNonPersistentObjectsCollection
  3
ObjectDBX Classes
 90
     1153
280
     0
281
     0
  0
CLASS
  1
ACMSTANDARDANSI
  2
AcmStandardANSI
  3
"Amdt_StdImp|Product Description: AutoCAD Mechanical|Company: Autodesk, Inc."
 90
    33792
280
     1
281
     0
  0
CLASS
  1
ACMSURFSTANDARDANSI
  2
AcmSurfTextStdANSI
  3
"Amdt_StdImp|Product Description: AutoCAD Mechanical|Company: Autodesk, Inc."
 90
    33792
280
     1
281
     0
  0
CLASS
  1
ACMFCFSTANDARDANSI
  2
AcmFCFStdANSI
  3
"Amdt_StdImp|Product Description: AutoCAD Mechanical|Company: Autodesk, Inc."
 90
    33792
280
     1
281
     0
  0
CLASS
  1
ACMWELDSTANDARDANSI
  2
AcmWeldingStdANSI
  3
"Amdt_StdImp|Product Description: AutoCAD Mechanical|Company: Autodesk, Inc."
 90
    33792
280
     1
281
     0
  0
CLASS
  1
ACMIDSTANDARDANSI
  2
AcmIdStdANSI
  3
"Amdt_StdImp|Product Description: AutoCAD Mechanical|Company: Autodesk, Inc."
 90
    33792
280
     1
281
     0
  0
CLASS
  1
ACMDATUMSTANDARDANSI
  2
AcmDatumStdANSI
  3
"Amdt_StdImp|Product Description: AutoCAD Mechanical|Company: Autodesk, Inc."
 90
    33792
280
     1
281
     0
  0
CLASS
  1
ACMBOMSTANDARDANSI
  2
AcmBOMStdANSI
  3
"Amdt_StdImp|Product Description: AutoCAD Mechanical|Company: Autodesk, Inc."
 90
    33792
280
     1
281
     0
  0
CLASS
  1
ACMDETAILSTANDARDANSI
  2
AmdtDetailSymStdANSI
  3
"Amdt_StdImp|Product Description: AutoCAD Mechanical|Company: Autodesk, Inc."
 90
    33792
280
     1
281
     0
  0
CLASS
  1
ACMSECTIONSTANDARDANSI
  2
AmdtSectionSymStdANSI
  3
"Amdt_StdImp|Product Description: AutoCAD Mechanical|Company: Autodesk, Inc."
 90
    33792
280
     1
281
     0
  0
CLASS
  1
ACMCENTERLINESTANDARDANSI
  2
AmdtCenterLineStdANSI
  3
"Amdt_StdImp|Product Description: AutoCAD Mechanical|Company: Autodesk, Inc."
 90
    33792
280
     1
281
     0
  0
CLASS
  1
ACMTHREADLINESTANDARDANSI
  2
AmdtThreadLineStdANSI
  3
"Amdt_StdImp|Product Description: AutoCAD Mechanical|Company: Autodesk, Inc."
 90
    33792
280
     1
281
     0
  0
CLASS
  1
ACMNOTESTANDARDANSI
  2
AmdtNoteStdANSI
  3
"Amdt_StdImp|Product Description: AutoCAD Mechanical|Company: Autodesk, Inc."
 90
    33792
280
     1
281
     0
  0
CLASS
  1
ACMTAPERSTANDARDANSI
  2
AcmTaperStdANSI
  3
"Amdt_StdImp|Product Description: AutoCAD Mechanical|Company: Autodesk, Inc."
 90
    33792
280
     1
281
     0
  0
CLASS
  1
ACMANOOTATIONVIEWSTANDARDANSI
  2
AmdtAnViewStdANSI
  3
"Amdt_StdImp|Product Description: AutoCAD Mechanical|Company: Autodesk, Inc."
 90
    33792
280
     1
281
     0
  0
CLASS
  1
ACAMGLAYSTD
  2
AcAmgLayStd
  3
"AmgLay|Product Description: AutoCAD Mechanical|Company: Autodesk, Inc."
 90
    33792
280
     1
281
     0
  0
CLASS
  1
ACAMGDIMSTD
  2
AcAmgDimStd
  3
"AmgDim|Product Description: AutoCAD Mechanical|Company: Autodesk, Inc."
 90
    33792
280
     1
281
     0
  0
CLASS
  1
AMGOBJPROPCFG
  2
AmgObjPropCfg
  3
"AmgLay|Product Description: AutoCAD Mechanical|Company: Autodesk, Inc."
 90
    33793
280
     1
281
     0
  0
CLASS
  1
ACAMGHOLECHARTSTDANSI
  2
AcAmgHoleChartStdANSI
  3
AmgDim|Product Description: AutoCAD Mechanical|Company: Autodesk, Inc.
 90
    33792
280
     1
281
     0
  0
CLASS
  1
ACAMGTITLESTD
  2
AcAmgTitleStd
  3
"AmgTitle|Product Description: AutoCAD Mechanical|Company: Autodesk, Inc."
 90
    36863
280
     1
281
     0
  0
CLASS
  1
AMDTNOTETEMPLATEDB
  2
AmdtNoteTemplateDB
  3
AcmSymBB|Product Description: AutoCAD Mechanical|Company: Autodesk, Inc.
 90
    33792
280
     1
281
     0
  0
CLASS
  1
ACAMGFILTERDAT
  2
AcAmgFilterDat
  3
"AcadM|Product Description: AutoCAD Mechanical|Company: Autodesk, Inc."
 90
    33792
280
     1
281
     0
  0
CLASS
  1
CAMSSTRUCTBTNSTATE
  2
StructBtnState
  3
DesignerAssemblies
 90
    33792
280
     1
281
     0
  0
CLASS
  1
ACDBPLACEHOLDER
  2
AcDbPlaceHolder
  3
ObjectDBX Classes
 90
        0
280
     0
281
     0
  0
CLASS
  1
LAYOUT
  2
AcDbLayout
  3
ObjectDBX Classes
 90
        0
280
     0
281
     0
  0
CLASS
  1
SOLID_BACKGROUND
  2
AcDbSolidBackground
  3
SCENEOE
 90
    36863
280
     0
281
     0
  0
ENDSEC
  0
SECTION
  2
TABLES
  0
TABLE
  2
VPORT
  5
28
102
{ACAD_XDICTIONARY
360
2C
102
}
330
0
100
AcDbSymbolTable
 70
     1
  0
VPORT
  5
29
330
28
100
AcDbSymbolTableRecord
100
AcDbViewportTableRecord
  2
*ACTIVE
 70
     0
 10
0.0
 20
0.0
 11
1.0
 21
1.0
 12
-8.42728217426611
 22
96.05874028890232
 13
0.0
 23
0.0
 14
1.0
 24
1.0
 15
0.0
 25
0.0
 16
0.0
 26
0.0
 36
1.0
 17
0.0
 27
0.0
 37
0.0
 40
260.8439909001452
 41
1.141762452107279
 42
50.0
 43
0.0
 44
0.0
 50
0.0
 51
0.0
 71
     0
 72
   100
 73
     1
 74
     1
 75
     0
 76
     0
 77
     0
 78
     0
281
     0
 65
     1
110
0.0
120
0.0
130
0.0
111
1.0
121
0.0
131
0.0
112
0.0
122
1.0
132
0.0
 79
     0
146
0.0
  0
ENDTAB
  0
TABLE
  2
LTYPE
  5
23
330
0
100
AcDbSymbolTable
 70
     3
  0
LTYPE
  5
24
330
23
100
AcDbSymbolTableRecord
100
AcDbLinetypeTableRecord
  2
ByBlock
 70
     0
  3

 72
    65
 73
     0
 40
0.0
  0
LTYPE
  5
25
330
23
100
AcDbSymbolTableRecord
100
AcDbLinetypeTableRecord
  2
ByLayer
 70
     0
  3

 72
    65
 73
     0
 40
0.0
  0
LTYPE
  5
13
330
23
100
AcDbSymbolTableRecord
100
AcDbLinetypeTableRecord
  2
CONTINUOUS
 70
     0
  3
Solid line
 72
    65
 73
     0
 40
0.0
  0
LTYPE
  5
77
330
23
100
AcDbSymbolTableRecord
100
AcDbLinetypeTableRecord
  2
DASHDOT
 70
     0
  3
Dash dot __ . __ . __ . __ . __ . __ . __ . __
 72
    65
 73
     4
 40
1.0
 49
0.5
 74
     0
 49
-0.25
 74
     0
 49
0.0
 74
     0
 49
-0.25
 74
     0
  0
LTYPE
  5
80
330
23
100
AcDbSymbolTableRecord
100
AcDbLinetypeTableRecord
  2
DASHED
 70
     0
  3
Dashed __ __ __ __ __ __ __ __ __ __ __ __ __ _
 72
    65
 73
     2
 40
0.75
 49
0.5
 74
     0
 49
-0.25
 74
     0
  0
ENDTAB
  0
TABLE
  2
LAYER
  5
1B
102
{ACAD_XDICTIONARY
360
1C
102
}
330
0
100
AcDbSymbolTable
 70
     7
  0
LAYER
  5
6
330
1B
100
AcDbSymbolTableRecord
100
AcDbLayerTableRecord
  2
0
 70
     0
 62
     7
  6
CONTINUOUS
370
    -3
390
7
  0
LAYER
  5
83
330
1B
100
AcDbSymbolTableRecord
100
AcDbLayerTableRecord
  2
GEB-KONTUR-A
 70
     0
 62
     5
  6
CONTINUOUS
370
    -3
390
7
  0
LAYER
  5
76
330
1B
100
AcDbSymbolTableRecord
100
AcDbLayerTableRecord
  2
GEB-SYMMETRIE
 70
     0
 62
     3
  6
DASHDOT
370
    -3
390
7
1001
AcAecLayerStandard
1000

1000

  0
LAYER
  5
7F
330
1B
100
AcDbSymbolTableRecord
100
AcDbLayerTableRecord
  2
GEB-VERDECKT
 70
     0
 62
     2
  6
DASHED
370
    -3
390
7
1001
AcAecLayerStandard
1000

1000

  0
LAYER
  5
1A1
330
1B
100
AcDbSymbolTableRecord
100
AcDbLayerTableRecord
  2
GEB-ART-NR
 70
     0
 62
     1
  6
CONTINUOUS
370
    18
390
7
  0
LAYER
  5
72
330
1B
100
AcDbSymbolTableRecord
100
AcDbLayerTableRecord
  2
GEB-BEZUG
 70
     0
 62
     2
  6
CONTINUOUS
370
    25
390
7
  0
LAYER
  5
19E
330
1B
100
AcDbSymbolTableRecord
100
AcDbLayerTableRecord
  2
GEB-TEXT
 70
     0
 62
     5
  6
CONTINUOUS
370
    18
390
7
  0
ENDTAB
  0
TABLE
  2
STYLE
  5
20
330
0
100
AcDbSymbolTable
 70
     1
  0
STYLE
  5
21
330
20
100
AcDbSymbolTableRecord
100
AcDbTextStyleTableRecord
  2
STANDARD
 70
     0
 40
0.0
 41
1.0
 50
0.0
 71
     0
 42
0.2
  3
ARIAL.TTF
  4

1001
ACAD
1000
Arial
1071
       34
  0
ENDTAB
  0
TABLE
  2
VIEW
  5
26
330
0
100
AcDbSymbolTable
 70
     0
  0
ENDTAB
  0
TABLE
  2
UCS
  5
27
330
0
100
AcDbSymbolTable
 70
     0
  0
ENDTAB
  0
TABLE
  2
APPID
  5
2D
330
0
100
AcDbSymbolTable
 70
     3
  0
APPID
  5
1F
330
2D
100
AcDbSymbolTableRecord
100
AcDbRegAppTableRecord
  2
ACAD
 70
     0
  0
APPID
  5
78
330
2D
100
AcDbSymbolTableRecord
100
AcDbRegAppTableRecord
  2
AcAecLayerStandard
 70
     0
  0
APPID
  5
20C
330
2D
100
AcDbSymbolTableRecord
100
AcDbRegAppTableRecord
  2
ACAD_MLEADERVER
 70
     0
  0
ENDTAB
  0
TABLE
  2
DIMSTYLE
  5
2E
330
0
100
AcDbSymbolTable
 70
     1
100
AcDbDimStyleTable
 71
     1
340
2F
  0
DIMSTYLE
105
2F
330
2E
100
AcDbSymbolTableRecord
100
AcDbDimStyleTableRecord
  2
STANDARD
 70
     0
279
     2
340
21
  0
ENDTAB
  0
TABLE
  2
BLOCK_RECORD
  5
1
330
0
100
AcDbSymbolTable
 70
     1
  0
BLOCK_RECORD
  5
2
102
{ACAD_XDICTIONARY
360
3
102
}
330
1
100
AcDbSymbolTableRecord
100
AcDbBlockTableRecord
  2
*Model_Space
340
15
  0
BLOCK_RECORD
  5
17
330
1
100
AcDbSymbolTableRecord
100
AcDbBlockTableRecord
  2
*Paper_Space
340
1A
  0
BLOCK_RECORD
  5
6F
330
1
100
AcDbSymbolTableRecord
100
AcDbBlockTableRecord
  2
Einfügepunkt
340
0
102
{BLKREFS
331
6E
102
}
  0
ENDTAB
  0
ENDSEC
  0
SECTION
  2
BLOCKS
  0
BLOCK
  5
5
330
2
100
AcDbEntity
  8
0
100
AcDbBlockBegin
  2
*Model_Space
 70
     0
 10
0.0
 20
0.0
 30
0.0
  3
*Model_Space
  1

  0
ENDBLK
  5
14
330
2
100
AcDbEntity
  8
0
100
AcDbBlockEnd
  0
BLOCK
  5
18
330
17
100
AcDbEntity
 67
     1
  8
0
100
AcDbBlockBegin
  2
*Paper_Space
 70
     0
 10
0.0
 20
0.0
 30
0.0
  3
*Paper_Space
  1

  0
ENDBLK
  5
19
330
17
100
AcDbEntity
 67
     1
  8
0
100
AcDbBlockEnd
  0
BLOCK
  5
70
330
6F
100
AcDbEntity
  8
0
100
AcDbBlockBegin
  2
Einfügepunkt
 70
     0
 10
0.0
 20
0.0
 30
0.0
  3
Einfügepunkt
  1

  0
LINE
  5
71
330
6F
100
AcDbEntity
  8
GEB-BEZUG
100
AcDbLine
 10
-0.7071067811865817
 20
-0.7071067811865106
 30
0.0
 11
0.7071067811864751
 21
0.7071067811865817
 31
0.0
  0
LINE
  5
73
330
6F
100
AcDbEntity
  8
GEB-BEZUG
100
AcDbLine
 10
-0.7071067811865106
 20
0.7071067811865817
 30
0.0
 11
0.7071067811865462
 21
-0.7071067811865106
 31
0.0
  0
ENDBLK
  5
74
330
6F
100
AcDbEntity
  8
0
100
AcDbBlockEnd
  0
ENDSEC
  0
SECTION
  2
ENTITIES
  0
INSERT
  5
6E
330
2
100
AcDbEntity
  8
0
 48
25.0
100
AcDbBlockReference
  2
Einfügepunkt
 10
0.0
 20
0.0
 30
0.0
  0
LINE
  5
75
330
2
100
AcDbEntity
  8
GEB-SYMMETRIE
 48
25.0
100
AcDbLine
 10
-58.50000000000003
 20
105.0
 30
0.0
 11
-32.49999999999997
 21
105.0
 31
0.0
  0
LINE
  5
79
330
2
100
AcDbEntity
  8
GEB-SYMMETRIE
 48
25.0
100
AcDbLine
 10
0.0
 20
203.9999999999999
 30
0.0
 11
0.0
 21
212.5000000000001
 31
0.0
  0
LINE
  5
7A
330
2
100
AcDbEntity
  8
GEB-SYMMETRIE
 48
25.0
100
AcDbLine
 10
0.0
 20
192.8000000000001
 30
0.0
 11
0.0
 21
206.4999999999999
 31
0.0
  0
LINE
  5
7B
330
2
100
AcDbEntity
  8
GEB-SYMMETRIE
 48
25.0
100
AcDbLine
 10
0.0
 20
154.5
 30
0.0
 11
0.0
 21
197.8
 31
0.0
  0
LINE
  5
7C
330
2
100
AcDbEntity
  8
GEB-SYMMETRIE
 48
25.0
100
AcDbLine
 10
0.0
 20
-2.5
 30
0.0
 11
0.0000000000000284
 21
114.775
 31
0.0
  0
LINE
  5
7D
330
2
100
AcDbEntity
  8
GEB-SYMMETRIE
 48
25.0
100
AcDbLine
 10
0.0
 20
-2.5
 30
0.0
 11
0.0000000000000284
 21
114.775
 31
0.0
  0
LINE
  5
7E
330
2
100
AcDbEntity
  8
GEB-VERDECKT
 48
25.0
100
AcDbLine
 10
-55.46333333333336
 20
150.0440240924138
 30
0.0
 11
-55.46333333333336
 21
149.6208831051394
 31
0.0
  0
LINE
  5
81
330
2
100
AcDbEntity
  8
GEB-VERDECKT
 48
25.0
100
AcDbLine
 10
-41.22333333333338
 20
147.5936360807388
 30
0.0
 11
-55.46333333333336
 21
148.5893938828144
 31
0.0
  0
LINE
  5
82
330
2
100
AcDbEntity
  8
GEB-KONTUR-A
 48
25.0
100
AcDbLine
 10
-55.46333333333334
 20
150.101060549481
 30
0.0
 11
-55.46333333333334
 21
150.0440240924138
 31
0.0
  0
SPLINE
  5
84
330
2
100
AcDbEntity
  8
GEB-KONTUR-A
 48
25.0
100
AcDbSpline
210
0.0
220
0.0
230
1.0
 70
    12
 71
     2
 72
     6
 73
     3
 74
     0
 42
0.0000000001
 43
0.0000000001
 40
0.0
 40
0.0
 40
0.0
 40
1.427486262982798
 40
1.427486262982798
 40
1.427486262982798
 10
-41.22333333333336
 20
149.0469769018294
 30
0.0
 41
1.0
 10
-48.26365103182721
 20
149.5399357734675
 30
0.0
 41
1.000062464993907
 10
-55.46333333333336
 20
150.0440240924138
 30
0.0
 41
1.0
  0
LINE
  5
85
330
2
100
AcDbEntity
  8
GEB-VERDECKT
 48
25.0
100
AcDbLine
 10
-41.22333333333336
 20
62.40636391926114
 30
0.0
 11
-55.46333333333334
 21
61.41060611718557
 31
0.0
  0
LINE
  5
86
330
2
100
AcDbEntity
  8
GEB-VERDECKT
 48
25.0
100
AcDbLine
 10
-55.46333333333334
 20
60.37911689486043
 30
0.0
 11
-55.46333333333334
 21
59.9559759075861
 31
0.0
  0
LINE
  5
87
330
2
100
AcDbEntity
  8
GEB-VERDECKT
 48
25.0
100
AcDbLine
 10
-41.22333333333336
 20
62.78242138798794
 30
0.0
 11
-55.46333333333334
 21
61.80579679286541
 31
0.0
  0
LINE
  5
88
330
2
100
AcDbEntity
  8
GEB-VERDECKT
 48
25.0
100
AcDbLine
 10
-41.22333333333336
 20
63.66715599833094
 30
0.0
 11
-55.46333333333334
 21
62.69053140320853
 31
0.0
  0
LINE
  5
89
330
2
100
AcDbEntity
  8
GEB-VERDECKT
 48
25.0
100
AcDbLine
 10
-55.46333333333334
 20
62.51701339618569
 30
0.0
 11
-55.46333333333334
 21
61.26385150520343
 31
0.0
  0
LINE
  5
8A
330
2
100
AcDbEntity
  8
GEB-VERDECKT
 48
25.0
100
AcDbLine
 10
-41.22333333333336
 20
66.51634609265897
 30
0.0
 11
-55.46333333333334
 21
65.59638583998287
 31
0.0
  0
LINE
  5
8B
330
2
100
AcDbEntity
  8
GEB-VERDECKT
 48
25.0
100
AcDbLine
 10
-55.46333333333334
 20
65.59638583998287
 30
0.0
 11
-55.46333333333334
 21
64.25248276196123
 31
0.0
  0
LINE
  5
8C
330
2
100
AcDbEntity
  8
GEB-VERDECKT
 48
25.0
100
AcDbLine
 10
-41.22333333333336
 20
70.84444142476434
 30
0.0
 11
-55.46333333333334
 21
70.01649907112517
 31
0.0
  0
LINE
  5
8D
330
2
100
AcDbEntity
  8
GEB-VERDECKT
 48
25.0
100
AcDbLine
 10
-55.46333333333334
 20
70.01649907112517
 30
0.0
 11
-55.46333333333334
 21
68.80701825470612
 31
0.0
  0
LINE
  5
8E
330
2
100
AcDbEntity
  8
GEB-VERDECKT
 48
25.0
100
AcDbLine
 10
-41.22333333333336
 20
76.48511571825804
 30
0.0
 11
-55.46333333333334
 21
75.78100862399094
 31
0.0
  0
LINE
  5
8F
330
2
100
AcDbEntity
  8
GEB-VERDECKT
 48
25.0
100
AcDbLine
 10
-55.46333333333334
 20
75.78100862399094
 30
0.0
 11
-55.46333333333334
 21
74.75242973866443
 31
0.0
  0
LINE
  5
90
330
2
100
AcDbEntity
  8
GEB-VERDECKT
 48
25.0
100
AcDbLine
 10
-41.22333333333336
 20
83.22160102336784
 30
0.0
 11
-55.46333333333334
 21
82.66838762923759
 31
0.0
  0
LINE
  5
91
330
2
100
AcDbEntity
  8
GEB-VERDECKT
 48
25.0
100
AcDbLine
 10
-55.46333333333334
 20
82.66838762923759
 30
0.0
 11
-55.46333333333334
 21
81.86023838473307
 31
0.0
  0
LINE
  5
92
330
2
100
AcDbEntity
  8
GEB-VERDECKT
 48
25.0
100
AcDbLine
 10
-41.22333333333336
 20
90.79501798768262
 30
0.0
 11
-55.46333333333334
 21
90.4139579741801
 31
0.0
  0
LINE
  5
93
330
2
100
AcDbEntity
  8
GEB-VERDECKT
 48
25.0
100
AcDbLine
 10
-55.46333333333334
 20
90.4139579741801
 30
0.0
 11
-55.46333333333334
 21
89.85729509274859
 31
0.0
  0
LINE
  5
94
330
2
100
AcDbEntity
  8
GEB-VERDECKT
 48
25.0
100
AcDbLine
 10
-41.22333333333336
 20
98.91432444448525
 30
0.0
 11
-55.46333333333334
 21
98.72006173422812
 31
0.0
  0
LINE
  5
95
330
2
100
AcDbEntity
  8
GEB-VERDECKT
 48
25.0
100
AcDbLine
 10
-55.46333333333334
 20
98.72006173422812
 30
0.0
 11
-55.46333333333334
 21
98.43627745822301
 31
0.0
  0
LINE
  5
96
330
2
100
AcDbEntity
  8
GEB-VERDECKT
 48
25.0
100
AcDbLine
 10
-55.46333333333336
 20
111.563722541777
 30
0.0
 11
-55.46333333333336
 21
111.2799382657718
 31
0.0
  0
LINE
  5
97
330
2
100
AcDbEntity
  8
GEB-VERDECKT
 48
25.0
100
AcDbLine
 10
-41.22333333333336
 20
111.0856755555147
 30
0.0
 11
-55.46333333333336
 21
111.2799382657718
 31
0.0
  0
LINE
  5
98
330
2
100
AcDbEntity
  8
GEB-VERDECKT
 48
25.0
100
AcDbLine
 10
-55.46333333333336
 20
120.1427049072514
 30
0.0
 11
-55.46333333333336
 21
119.5860420258199
 31
0.0
  0
LINE
  5
99
330
2
100
AcDbEntity
  8
GEB-VERDECKT
 48
25.0
100
AcDbLine
 10
-41.22333333333336
 20
119.2049820123173
 30
0.0
 11
-55.46333333333336
 21
119.5860420258199
 31
0.0
  0
LINE
  5
9A
330
2
100
AcDbEntity
  8
GEB-VERDECKT
 48
25.0
100
AcDbLine
 10
-55.46333333333336
 20
128.1397616152669
 30
0.0
 11
-55.46333333333336
 21
127.3316123707624
 31
0.0
  0
LINE
  5
9B
330
2
100
AcDbEntity
  8
GEB-VERDECKT
 48
25.0
100
AcDbLine
 10
-41.22333333333336
 20
126.7783989766321
 30
0.0
 11
-55.46333333333336
 21
127.3316123707624
 31
0.0
  0
LINE
  5
9C
330
2
100
AcDbEntity
  8
GEB-VERDECKT
 48
25.0
100
AcDbLine
 10
-55.46333333333336
 20
135.2475702613356
 30
0.0
 11
-55.46333333333336
 21
134.218991376009
 31
0.0
  0
LINE
  5
9D
330
2
100
AcDbEntity
  8
GEB-VERDECKT
 48
25.0
100
AcDbLine
 10
-41.22333333333336
 20
133.5148842817419
 30
0.0
 11
-55.46333333333336
 21
134.218991376009
 31
0.0
  0
LINE
  5
9E
330
2
100
AcDbEntity
  8
GEB-VERDECKT
 48
25.0
100
AcDbLine
 10
-55.46333333333336
 20
141.1929817452939
 30
0.0
 11
-55.46333333333336
 21
139.9835009288746
 31
0.0
  0
LINE
  5
9F
330
2
100
AcDbEntity
  8
GEB-VERDECKT
 48
25.0
100
AcDbLine
 10
-41.22333333333336
 20
139.1555585752356
 30
0.0
 11
-55.46333333333336
 21
139.9835009288748
 31
0.0
  0
LINE
  5
A0
330
2
100
AcDbEntity
  8
GEB-VERDECKT
 48
25.0
100
AcDbLine
 10
-55.46333333333336
 20
145.7475172380385
 30
0.0
 11
-55.46333333333336
 21
144.4036141600171
 31
0.0
  0
LINE
  5
A1
330
2
100
AcDbEntity
  8
GEB-VERDECKT
 48
25.0
100
AcDbLine
 10
-41.22333333333338
 20
143.483653907341
 30
0.0
 11
-55.46333333333336
 21
144.4036141600171
 31
0.0
  0
LINE
  5
A2
330
2
100
AcDbEntity
  8
GEB-VERDECKT
 48
25.0
100
AcDbLine
 10
-55.46333333333336
 20
148.7361484947963
 30
0.0
 11
-55.46333333333336
 21
147.4829866038142
 31
0.0
  0
LINE
  5
A3
330
2
100
AcDbEntity
  8
GEB-VERDECKT
 48
25.0
100
AcDbLine
 10
-41.22333333333338
 20
146.332844001669
 30
0.0
 11
-55.46333333333336
 21
147.3094685967913
 31
0.0
  0
LINE
  5
A4
330
2
100
AcDbEntity
  8
GEB-VERDECKT
 48
25.0
100
AcDbLine
 10
-41.22333333333338
 20
147.217578612012
 30
0.0
 11
-55.46333333333336
 21
148.1942032071346
 31
0.0
  0
LINE
  5
A5
330
2
100
AcDbEntity
  8
GEB-KONTUR-A
 48
25.0
100
AcDbLine
 10
-55.46333333333334
 20
59.9559759075862
 30
0.0
 11
-55.46333333333334
 21
59.89893945051893
 31
0.0
  0
SPLINE
  5
A6
330
2
100
AcDbEntity
  8
GEB-KONTUR-A
 48
25.0
100
AcDbSpline
210
0.0
220
0.0
230
1.0
 70
    12
 71
     2
 72
     6
 73
     3
 74
     0
 42
0.0000000001
 43
0.0000000001
 40
0.0
 40
0.0
 40
0.0
 40
1.427486262982798
 40
1.427486262982798
 40
1.427486262982798
 10
-55.46333333333334
 20
59.9559759075862
 30
0.0
 41
1.0
 10
-48.26365103136453
 20
60.46006422656489
 30
0.0
 41
1.000062468685086
 10
-41.22333333333336
 20
60.95302309817054
 30
0.0
 41
1.0
  0
LINE
  5
A7
330
2
100
AcDbEntity
  8
GEB-KONTUR-A
 48
25.0
100
AcDbLine
 10
-55.46333333333334
 20
61.26385150520366
 30
0.0
 11
-55.46333333333334
 21
60.37911689486055
 31
0.0
  0
LINE
  5
A8
330
2
100
AcDbEntity
  8
GEB-KONTUR-A
 48
25.0
100
AcDbLine
 10
-41.22333333333336
 20
62.24174071359619
 30
0.0
 11
-41.22333333333336
 21
61.35700610325296
 31
0.0
  0
SPLINE
  5
A9
330
2
100
AcDbEntity
  8
GEB-KONTUR-A
 48
25.0
100
AcDbSpline
210
0.0
220
0.0
230
1.0
 70
    12
 71
     2
 72
     6
 73
     3
 74
     0
 42
0.0000000001
 43
0.0000000001
 40
0.0
 40
0.0
 40
0.0
 40
1.427486262982798
 40
1.427486262982798
 40
1.427486262982798
 10
-41.22333333333336
 20
61.35700610325296
 30
0.0
 41
1.0
 10
-48.26365103355167
 20
60.87351929798774
 30
0.0
 41
1.000062467803478
 10
-55.46333333333334
 20
60.37911689486043
 30
0.0
 41
1.0
  0
SPLINE
  5
AA
330
2
100
AcDbEntity
  8
GEB-KONTUR-A
 48
25.0
100
AcDbSpline
210
0.0
220
0.0
230
1.0
 70
    12
 71
     2
 72
     6
 73
     3
 74
     0
 42
0.0000000001
 43
0.0000000001
 40
0.0
 40
0.0
 40
0.0
 40
1.427486262982798
 40
1.427486262982798
 40
1.427486262982798
 10
-55.46333333333334
 20
61.26385150520343
 30
0.0
 41
1.0
 10
-48.26365103127028
 20
61.75825390848752
 30
0.0
 41
1.000062463181573
 10
-41.22333333333336
 20
62.24174071359619
 30
0.0
 41
1.0
  0
LINE
  5
AB
330
2
100
AcDbEntity
  8
GEB-KONTUR-A
 48
25.0
100
AcDbLine
 10
-55.46333333333334
 20
64.25248276196123
 30
0.0
 11
-55.46333333333334
 21
62.51701339618569
 31
0.0
  0
LINE
  5
AC
330
2
100
AcDbEntity
  8
GEB-KONTUR-A
 48
25.0
100
AcDbLine
 10
-41.22333333333336
 20
65.17363425429028
 30
0.0
 11
-41.22333333333336
 21
64.78087672688332
 31
0.0
  0
LINE
  5
AD
330
2
100
AcDbEntity
  8
GEB-KONTUR-A
 48
25.0
100
AcDbLine
 10
-41.22333333333336
 20
64.78087672688332
 30
0.0
 11
-55.46333333333334
 21
63.86091647420733
 31
0.0
  0
LINE
  5
AE
330
2
100
AcDbEntity
  8
GEB-KONTUR-A
 48
25.0
100
AcDbLine
 10
-41.22333333333336
 20
64.78087672688332
 30
0.0
 11
-41.22333333333336
 21
63.43816488851451
 31
0.0
  0
SPLINE
  5
AF
330
2
100
AcDbEntity
  8
GEB-KONTUR-A
 48
25.0
100
AcDbSpline
210
0.0
220
0.0
230
1.0
 70
    12
 71
     2
 72
     6
 73
     3
 74
     0
 42
0.0000000001
 43
0.0000000001
 40
0.0
 40
0.0
 40
0.0
 40
1.427486262982798
 40
1.427486262982798
 40
1.427486262982798
 10
-41.22333333333336
 20
63.43816488851462
 30
0.0
 41
1.0
 10
-48.26365103322377
 20
62.98273027654784
 30
0.0
 41
1.000062464772075
 10
-55.46333333333334
 20
62.51701339618569
 30
0.0
 41
1.0
  0
SPLINE
  5
B0
330
2
100
AcDbEntity
  8
GEB-KONTUR-A
 48
25.0
100
AcDbSpline
210
0.0
220
0.0
230
1.0
 70
    12
 71
     2
 72
     6
 73
     3
 74
     0
 42
0.0000000001
 43
0.0000000001
 40
0.0
 40
0.0
 40
0.0
 40
1.427486262982797
 40
1.427486262982797
 40
1.427486262982797
 10
-55.46333333333334
 20
64.25248276196146
 30
0.0
 41
1.0
 10
-48.26365103264956
 20
64.71819964236067
 30
0.0
 41
1.000062468710432
 10
-41.22333333333336
 20
65.17363425429028
 30
0.0
 41
1.0
  0
LINE
  5
B1
330
2
100
AcDbEntity
  8
GEB-KONTUR-A
 48
25.0
100
AcDbLine
 10
-55.46333333333334
 20
68.80701825470612
 30
0.0
 11
-55.46333333333334
 21
66.28750724796225
 31
0.0
  0
LINE
  5
B2
330
2
100
AcDbEntity
  8
GEB-KONTUR-A
 48
25.0
100
AcDbLine
 10
-41.22333333333336
 20
69.63603269570865
 30
0.0
 11
-41.22333333333336
 21
68.32493041802035
 31
0.0
  0
LINE
  5
B3
330
2
100
AcDbEntity
  8
GEB-KONTUR-A
 48
25.0
100
AcDbLine
 10
-41.22333333333336
 20
68.32493041802035
 30
0.0
 11
-55.46333333333334
 21
67.4969880643813
 31
0.0
  0
LINE
  5
B4
330
2
100
AcDbEntity
  8
GEB-KONTUR-A
 48
25.0
100
AcDbLine
 10
-41.22333333333336
 20
68.32493041802035
 30
0.0
 11
-41.22333333333336
 21
67.11652168896478
 31
0.0
  0
SPLINE
  5
B5
330
2
100
AcDbEntity
  8
GEB-KONTUR-A
 48
25.0
100
AcDbSpline
210
0.0
220
0.0
230
1.0
 70
    12
 71
     2
 72
     6
 73
     3
 74
     0
 42
0.0000000001
 43
0.0000000001
 40
0.0
 40
0.0
 40
0.0
 40
1.427486262982798
 40
1.427486262982798
 40
1.427486262982798
 10
-41.22333333333336
 20
67.11652168896478
 30
0.0
 41
1.0
 10
-48.26365103168211
 20
66.70664136709127
 30
0.0
 41
1.000062464809111
 10
-55.46333333333334
 20
66.28750724796225
 30
0.0
 41
1.0
  0
SPLINE
  5
B6
330
2
100
AcDbEntity
  8
GEB-KONTUR-A
 48
25.0
100
AcDbSpline
210
0.0
220
0.0
230
1.0
 70
    12
 71
     2
 72
     6
 73
     3
 74
     0
 42
0.0000000001
 43
0.0000000001
 40
0.0
 40
0.0
 40
0.0
 40
1.427486262982798
 40
1.427486262982798
 40
1.427486262982798
 10
-55.46333333333334
 20
68.80701825470612
 30
0.0
 41
1.0
 10
-48.26365103135628
 20
69.226152373854
 30
0.0
 41
1.000062465788597
 10
-41.22333333333336
 20
69.63603269570865
 30
0.0
 41
1.0
  0
LINE
  5
B7
330
2
100
AcDbEntity
  8
GEB-KONTUR-A
 48
25.0
100
AcDbLine
 10
-55.46333333333334
 20
74.75242973866443
 30
0.0
 11
-55.46333333333334
 21
71.5457004859835
 31
0.0
  0
LINE
  5
B8
330
2
100
AcDbEntity
  8
GEB-KONTUR-A
 48
25.0
100
AcDbLine
 10
-41.22333333333336
 20
75.45744856828958
 30
0.0
 11
-41.22333333333336
 21
73.27838646557712
 31
0.0
  0
LINE
  5
B9
330
2
100
AcDbEntity
  8
GEB-KONTUR-A
 48
25.0
100
AcDbLine
 10
-41.22333333333336
 20
73.27838646557712
 30
0.0
 11
-55.46333333333334
 21
72.57427937131001
 31
0.0
  0
LINE
  5
BA
330
2
100
AcDbEntity
  8
GEB-KONTUR-A
 48
25.0
100
AcDbLine
 10
-41.22333333333336
 20
73.27838646557712
 30
0.0
 11
-41.22333333333336
 21
72.25071931560865
 31
0.0
  0
SPLINE
  5
BB
330
2
100
AcDbEntity
  8
GEB-KONTUR-A
 48
25.0
100
AcDbSpline
210
0.0
220
0.0
230
1.0
 70
    12
 71
     2
 72
     6
 73
     3
 74
     0
 42
0.0000000001
 43
0.0000000001
 40
0.0
 40
0.0
 40
0.0
 40
1.427486262982798
 40
1.427486262982798
 40
1.427486262982798
 10
-41.22333333333336
 20
72.25071931560865
 30
0.0
 41
1.0
 10
-48.26365103293523
 20
71.90214475457242
 30
0.0
 41
1.000062468096176
 10
-55.46333333333334
 20
71.5457004859835
 30
0.0
 41
1.0
  0
SPLINE
  5
BC
330
2
100
AcDbEntity
  8
GEB-KONTUR-A
 48
25.0
100
AcDbSpline
210
0.0
220
0.0
230
1.0
 70
    12
 71
     2
 72
     6
 73
     3
 74
     0
 42
0.0000000001
 43
0.0000000001
 40
0.0
 40
0.0
 40
0.0
 40
1.427486262982798
 40
1.427486262982798
 40
1.427486262982798
 10
-55.46333333333334
 20
74.75242973866443
 30
0.0
 41
1.0
 10
-48.26365103213396
 20
75.10887400729302
 30
0.0
 41
1.000062472160069
 10
-41.22333333333336
 20
75.45744856828958
 30
0.0
 41
1.0
  0
LINE
  5
BD
330
2
100
AcDbEntity
  8
GEB-KONTUR-A
 48
25.0
100
AcDbLine
 10
-55.46333333333334
 20
81.86023838473307
 30
0.0
 11
-55.46333333333334
 21
78.08952369294104
 31
0.0
  0
LINE
  5
BE
330
2
100
AcDbEntity
  8
GEB-KONTUR-A
 48
25.0
100
AcDbLine
 10
-41.22333333333336
 20
82.41416812473756
 30
0.0
 11
-41.22333333333336
 21
79.45088633157581
 31
0.0
  0
LINE
  5
BF
330
2
100
AcDbEntity
  8
GEB-KONTUR-A
 48
25.0
100
AcDbLine
 10
-41.22333333333336
 20
79.45088633157581
 30
0.0
 11
-55.46333333333334
 21
78.89767293744558
 31
0.0
  0
LINE
  5
C0
330
2
100
AcDbEntity
  8
GEB-KONTUR-A
 48
25.0
100
AcDbLine
 10
-41.22333333333336
 20
79.45088633157581
 30
0.0
 11
-41.22333333333336
 21
78.64345343294565
 31
0.0
  0
SPLINE
  5
C1
330
2
100
AcDbEntity
  8
GEB-KONTUR-A
 48
25.0
100
AcDbSpline
210
0.0
220
0.0
230
1.0
 70
    12
 71
     2
 72
     6
 73
     3
 74
     0
 42
0.0000000001
 43
0.0000000001
 40
0.0
 40
0.0
 40
0.0
 40
1.427486262982798
 40
1.427486262982798
 40
1.427486262982798
 10
-41.22333333333336
 20
78.64345343294565
 30
0.0
 41
1.0
 10
-48.26365103237185
 20
78.36958015773928
 30
0.0
 41
1.000062468580946
 10
-55.46333333333334
 20
78.08952369294104
 30
0.0
 41
1.0
  0
SPLINE
  5
C2
330
2
100
AcDbEntity
  8
GEB-KONTUR-A
 48
25.0
100
AcDbSpline
210
0.0
220
0.0
230
1.0
 70
    12
 71
     2
 72
     6
 73
     3
 74
     0
 42
0.0000000001
 43
0.0000000001
 40
0.0
 40
0.0
 40
0.0
 40
1.427486262982798
 40
1.427486262982798
 40
1.427486262982798
 10
-55.46333333333334
 20
81.86023838473307
 30
0.0
 41
1.0
 10
-48.26365103321885
 20
82.14029484949833
 30
0.0
 41
1.000062467161957
 10
-41.22333333333336
 20
82.41416812473756
 30
0.0
 41
1.0
  0
LINE
  5
C3
330
2
100
AcDbEntity
  8
GEB-KONTUR-A
 48
25.0
100
AcDbLine
 10
-55.46333333333334
 20
89.85729509274859
 30
0.0
 11
-55.46333333333334
 21
85.66750141280989
 31
0.0
  0
LINE
  5
C4
330
2
100
AcDbEntity
  8
GEB-KONTUR-A
 48
25.0
100
AcDbLine
 10
-41.22333333333336
 20
90.2388485338713
 30
0.0
 11
-41.22333333333336
 21
86.60522430774392
 31
0.0
  0
LINE
  5
C5
330
2
100
AcDbEntity
  8
GEB-KONTUR-A
 48
25.0
100
AcDbLine
 10
-41.22333333333336
 20
86.60522430774392
 30
0.0
 11
-55.46333333333334
 21
86.2241642942414
 31
0.0
  0
LINE
  5
C6
330
2
100
AcDbEntity
  8
GEB-KONTUR-A
 48
25.0
100
AcDbLine
 10
-41.22333333333336
 20
86.60522430774392
 30
0.0
 11
-41.22333333333336
 21
86.04905485393272
 31
0.0
  0
SPLINE
  5
C7
330
2
100
AcDbEntity
  8
GEB-KONTUR-A
 48
25.0
100
AcDbSpline
210
0.0
220
0.0
230
1.0
 70
    12
 71
     2
 72
     6
 73
     3
 74
     0
 42
0.0000000001
 43
0.0000000001
 40
0.0
 40
0.0
 40
0.0
 40
1.427486262982798
 40
1.427486262982798
 40
1.427486262982798
 10
-41.22333333333336
 20
86.04905485393272
 30
0.0
 41
1.0
 10
-48.26365103159881
 20
85.86040766092549
 30
0.0
 41
1.00006246428439
 10
-55.46333333333334
 20
85.66750141280989
 30
0.0
 41
1.0
  0
SPLINE
  5
C8
330
2
100
AcDbEntity
  8
GEB-KONTUR-A
 48
25.0
100
AcDbSpline
210
0.0
220
0.0
230
1.0
 70
    12
 71
     2
 72
     6
 73
     3
 74
     0
 42
0.0000000001
 43
0.0000000001
 40
0.0
 40
0.0
 40
0.0
 40
1.427486262982798
 40
1.427486262982798
 40
1.427486262982798
 10
-55.46333333333334
 20
89.85729509274859
 30
0.0
 41
1.0
 10
-48.26365103079638
 20
90.05020134088567
 30
0.0
 41
1.000062467067218
 10
-41.22333333333336
 20
90.23884853387142
 30
0.0
 41
1.0
  0
LINE
  5
C9
330
2
100
AcDbEntity
  8
GEB-KONTUR-A
 48
25.0
100
AcDbLine
 10
-55.46333333333334
 20
98.43627745822288
 30
0.0
 11
-55.46333333333334
 21
93.98841621159442
 31
0.0
  0
LINE
  5
CA
330
2
100
AcDbEntity
  8
GEB-KONTUR-A
 48
25.0
100
AcDbLine
 10
-41.22333333333336
 20
98.63079171569939
 30
0.0
 11
-41.22333333333336
 21
94.46646319785656
 31
0.0
  0
LINE
  5
CB
330
2
100
AcDbEntity
  8
GEB-KONTUR-A
 48
25.0
100
AcDbLine
 10
-41.22333333333336
 20
94.46646319785656
 30
0.0
 11
-55.46333333333334
 21
94.27220048759943
 31
0.0
  0
LINE
  5
CC
330
2
100
AcDbEntity
  8
GEB-KONTUR-A
 48
25.0
100
AcDbLine
 10
-41.22333333333336
 20
94.46646319785656
 30
0.0
 11
-41.22333333333336
 21
94.18293046907081
 31
0.0
  0
SPLINE
  5
CD
330
2
100
AcDbEntity
  8
GEB-KONTUR-A
 48
25.0
100
AcDbSpline
210
0.0
220
0.0
230
1.0
 70
    12
 71
     2
 72
     6
 73
     3
 74
     0
 42
0.0000000001
 43
0.0000000001
 40
0.0
 40
0.0
 40
0.0
 40
1.427486262982798
 40
1.427486262982798
 40
1.427486262982798
 10
-41.22333333333336
 20
94.18293046907081
 30
0.0
 41
1.0
 10
-48.26365103082037
 20
94.08675896407601
 30
0.0
 41
1.000062467090792
 10
-55.46333333333334
 20
93.98841621159432
 30
0.0
 41
1.0
  0
SPLINE
  5
CE
330
2
100
AcDbEntity
  8
GEB-KONTUR-A
 48
25.0
100
AcDbSpline
210
0.0
220
0.0
230
1.0
 70
    12
 71
     2
 72
     6
 73
     3
 74
     0
 42
0.0000000001
 43
0.0000000001
 40
0.0
 40
0.0
 40
0.0
 40
1.427486262982798
 40
1.427486262982798
 40
1.427486262982798
 10
-55.46333333333334
 20
98.43627745822301
 30
0.0
 41
1.0
 10
-48.26365103287191
 20
98.53462021067651
 30
0.0
 41
1.000062467616586
 10
-41.22333333333336
 20
98.63079171569939
 30
0.0
 41
1.0
  0
LINE
  5
CF
330
2
100
AcDbEntity
  8
GEB-KONTUR-A
 48
25.0
100
AcDbLine
 10
-55.46333333333334
 20
107.2674999999999
 30
0.0
 11
-55.46333333333334
 21
102.7325
 31
0.0
  0
LINE
  5
D0
330
2
100
AcDbEntity
  8
GEB-KONTUR-A
 48
25.0
100
AcDbLine
 10
-41.22333333333336
 20
107.2674999999999
 30
0.0
 11
-41.22333333333336
 21
102.7325
 31
0.0
  0
SPLINE
  5
D1
330
2
100
AcDbEntity
  8
GEB-KONTUR-A
 48
25.0
100
AcDbSpline
210
0.0
220
0.0
230
1.0
 70
    28
 71
     2
 72
     6
 73
     3
 74
     0
 42
0.0000000001
 43
0.0000000001
 40
0.0
 40
0.0
 40
0.0
 40
1.427486262982798
 40
1.427486262982798
 40
1.427486262982798
 10
-41.22333333333336
 20
102.7325
 30
0.0
 41
1.0
 10
-48.26365103502116
 20
102.7325
 30
0.0
 41
1.0000624680092
 10
-55.46333333333334
 20
102.7325
 30
0.0
 41
1.0
  0
SPLINE
  5
D2
330
2
100
AcDbEntity
  8
GEB-KONTUR-A
 48
25.0
100
AcDbSpline
210
0.0
220
0.0
230
1.0
 70
    28
 71
     2
 72
     6
 73
     3
 74
     0
 42
0.0000000001
 43
0.0000000001
 40
0.0
 40
0.0
 40
0.0
 40
1.427486262982798
 40
1.427486262982798
 40
1.427486262982798
 10
-55.46333333333334
 20
107.2674999999999
 30
0.0
 41
1.0
 10
-48.26365103270342
 20
107.2674999999999
 30
0.0
 41
1.000062462809597
 10
-41.22333333333336
 20
107.2674999999999
 30
0.0
 41
1.0
  0
LINE
  5
D3
330
2
100
AcDbEntity
  8
GEB-KONTUR-A
 48
25.0
100
AcDbLine
 10
-55.46333333333334
 20
116.0115837884055
 30
0.0
 11
-55.46333333333334
 21
111.563722541777
 31
0.0
  0
LINE
  5
D4
330
2
100
AcDbEntity
  8
GEB-KONTUR-A
 48
25.0
100
AcDbLine
 10
-41.22333333333336
 20
115.5335368021434
 30
0.0
 11
-41.22333333333336
 21
111.3692082843005
 31
0.0
  0
SPLINE
  5
D5
330
2
100
AcDbEntity
  8
GEB-KONTUR-A
 48
25.0
100
AcDbSpline
210
0.0
220
0.0
230
1.0
 70
    12
 71
     2
 72
     6
 73
     3
 74
     0
 42
0.0000000001
 43
0.0000000001
 40
0.0
 40
0.0
 40
0.0
 40
1.427486262982798
 40
1.427486262982798
 40
1.427486262982798
 10
-41.22333333333336
 20
111.3692082843005
 30
0.0
 41
1.0
 10
-48.26365103250572
 20
111.4653797893185
 30
0.0
 41
1.000062467313346
 10
-55.46333333333336
 20
111.563722541777
 30
0.0
 41
1.0
  0
LINE
  5
D6
330
2
100
AcDbEntity
  8
GEB-KONTUR-A
 48
25.0
100
AcDbLine
 10
-41.22333333333336
 20
115.8170695309292
 30
0.0
 11
-41.22333333333336
 21
115.5335368021434
 31
0.0
  0
LINE
  5
D7
330
2
100
AcDbEntity
  8
GEB-KONTUR-A
 48
25.0
100
AcDbLine
 10
-41.22333333333336
 20
115.5335368021434
 30
0.0
 11
-55.46333333333336
 21
115.7277995124005
 31
0.0
  0
SPLINE
  5
D8
330
2
100
AcDbEntity
  8
GEB-KONTUR-A
 48
25.0
100
AcDbSpline
210
0.0
220
0.0
230
1.0
 70
    12
 71
     2
 72
     6
 73
     3
 74
     0
 42
0.0000000001
 43
0.0000000001
 40
0.0
 40
0.0
 40
0.0
 40
1.427486262982798
 40
1.427486262982798
 40
1.427486262982798
 10
-55.46333333333336
 20
116.0115837884055
 30
0.0
 41
1.0
 10
-48.26365103036803
 20
115.9132410359178
 30
0.0
 41
1.000062467107201
 10
-41.22333333333336
 20
115.8170695309292
 30
0.0
 41
1.0
  0
LINE
  5
D9
330
2
100
AcDbEntity
  8
GEB-KONTUR-A
 48
25.0
100
AcDbLine
 10
-55.46333333333336
 20
124.3324985871899
 30
0.0
 11
-55.46333333333334
 21
120.1427049072514
 31
0.0
  0
LINE
  5
DA
330
2
100
AcDbEntity
  8
GEB-KONTUR-A
 48
25.0
100
AcDbLine
 10
-41.22333333333336
 20
123.394775692256
 30
0.0
 11
-41.22333333333336
 21
119.7611514661286
 31
0.0
  0
SPLINE
  5
DB
330
2
100
AcDbEntity
  8
GEB-KONTUR-A
 48
25.0
100
AcDbSpline
210
0.0
220
0.0
230
1.0
 70
    12
 71
     2
 72
     6
 73
     3
 74
     0
 42
0.0000000001
 43
0.0000000001
 40
0.0
 40
0.0
 40
0.0
 40
1.427486262982798
 40
1.427486262982798
 40
1.427486262982798
 10
-41.22333333333336
 20
119.7611514661286
 30
0.0
 41
1.0
 10
-48.26365103215124
 20
119.9497986591506
 30
0.0
 41
1.00006246455895
 10
-55.46333333333336
 20
120.1427049072514
 30
0.0
 41
1.0
  0
LINE
  5
DC
330
2
100
AcDbEntity
  8
GEB-KONTUR-A
 48
25.0
100
AcDbLine
 10
-41.22333333333338
 20
123.9509451460673
 30
0.0
 11
-41.22333333333336
 21
123.394775692256
 31
0.0
  0
LINE
  5
DD
330
2
100
AcDbEntity
  8
GEB-KONTUR-A
 48
25.0
100
AcDbLine
 10
-41.22333333333336
 20
123.394775692256
 30
0.0
 11
-55.46333333333336
 21
123.7758357057586
 31
0.0
  0
SPLINE
  5
DE
330
2
100
AcDbEntity
  8
GEB-KONTUR-A
 48
25.0
100
AcDbSpline
210
0.0
220
0.0
230
1.0
 70
    12
 71
     2
 72
     6
 73
     3
 74
     0
 42
0.0000000001
 43
0.0000000001
 40
0.0
 40
0.0
 40
0.0
 40
1.427486262982798
 40
1.427486262982798
 40
1.427486262982798
 10
-55.46333333333336
 20
124.3324985871901
 30
0.0
 41
1.0
 10
-48.26365103292116
 20
124.1395923391098
 30
0.0
 41
1.000062466283982
 10
-41.22333333333336
 20
123.9509451460673
 30
0.0
 41
1.0
  0
LINE
  5
DF
330
2
100
AcDbEntity
  8
GEB-KONTUR-A
 48
25.0
100
AcDbLine
 10
-55.46333333333334
 20
131.9104763070588
 30
0.0
 11
-55.46333333333334
 21
128.1397616152668
 31
0.0
  0
LINE
  5
E0
330
2
100
AcDbEntity
  8
GEB-KONTUR-A
 48
25.0
100
AcDbLine
 10
-41.22333333333336
 20
130.5491136684242
 30
0.0
 11
-41.22333333333336
 21
127.5858318752624
 31
0.0
  0
SPLINE
  5
E1
330
2
100
AcDbEntity
  8
GEB-KONTUR-A
 48
25.0
100
AcDbSpline
210
0.0
220
0.0
230
1.0
 70
    12
 71
     2
 72
     6
 73
     3
 74
     0
 42
0.0000000001
 43
0.0000000001
 40
0.0
 40
0.0
 40
0.0
 40
1.427486262982798
 40
1.427486262982798
 40
1.427486262982798
 10
-41.22333333333336
 20
127.5858318752624
 30
0.0
 41
1.0
 10
-48.26365103201585
 20
127.8597051504547
 30
0.0
 41
1.000062465202646
 10
-55.46333333333336
 20
128.1397616152669
 30
0.0
 41
1.0
  0
LINE
  5
E2
330
2
100
AcDbEntity
  8
GEB-KONTUR-A
 48
25.0
100
AcDbLine
 10
-41.22333333333338
 20
131.3565465670543
 30
0.0
 11
-41.22333333333336
 21
130.5491136684242
 31
0.0
  0
LINE
  5
E3
330
2
100
AcDbEntity
  8
GEB-KONTUR-A
 48
25.0
100
AcDbLine
 10
-41.22333333333336
 20
130.5491136684242
 30
0.0
 11
-55.46333333333336
 21
131.1023270625544
 31
0.0
  0
SPLINE
  5
E4
330
2
100
AcDbEntity
  8
GEB-KONTUR-A
 48
25.0
100
AcDbSpline
210
0.0
220
0.0
230
1.0
 70
    12
 71
     2
 72
     6
 73
     3
 74
     0
 42
0.0000000001
 43
0.0000000001
 40
0.0
 40
0.0
 40
0.0
 40
1.427486262982798
 40
1.427486262982798
 40
1.427486262982798
 10
-55.46333333333336
 20
131.9104763070589
 30
0.0
 41
1.0
 10
-48.26365103015141
 20
131.6304198421743
 30
0.0
 41
1.000062469166682
 10
-41.22333333333336
 20
131.3565465670543
 30
0.0
 41
1.0
  0
LINE
  5
E5
330
2
100
AcDbEntity
  8
GEB-KONTUR-A
 48
25.0
100
AcDbLine
 10
-55.46333333333334
 20
138.4542995140167
 30
0.0
 11
-55.46333333333334
 21
135.2475702613356
 31
0.0
  0
LINE
  5
E6
330
2
100
AcDbEntity
  8
GEB-KONTUR-A
 48
25.0
100
AcDbLine
 10
-41.22333333333336
 20
136.7216135344229
 30
0.0
 11
-41.22333333333336
 21
134.5425514317102
 31
0.0
  0
SPLINE
  5
E7
330
2
100
AcDbEntity
  8
GEB-KONTUR-A
 48
25.0
100
AcDbSpline
210
0.0
220
0.0
230
1.0
 70
    12
 71
     2
 72
     6
 73
     3
 74
     0
 42
0.0000000001
 43
0.0000000001
 40
0.0
 40
0.0
 40
0.0
 40
1.427486262982798
 40
1.427486262982798
 40
1.427486262982798
 10
-41.22333333333336
 20
134.5425514317104
 30
0.0
 41
1.0
 10
-48.26365103172173
 20
134.8911259926865
 30
0.0
 41
1.000062465535434
 10
-55.46333333333336
 20
135.2475702613356
 30
0.0
 41
1.0
  0
LINE
  5
E8
330
2
100
AcDbEntity
  8
GEB-KONTUR-A
 48
25.0
100
AcDbLine
 10
-41.22333333333338
 20
137.7492806843912
 30
0.0
 11
-41.22333333333336
 21
136.7216135344229
 31
0.0
  0
LINE
  5
E9
330
2
100
AcDbEntity
  8
GEB-KONTUR-A
 48
25.0
100
AcDbLine
 10
-41.22333333333336
 20
136.7216135344229
 30
0.0
 11
-55.46333333333336
 21
137.42572062869
 31
0.0
  0
SPLINE
  5
EA
330
2
100
AcDbEntity
  8
GEB-KONTUR-A
 48
25.0
100
AcDbSpline
210
0.0
220
0.0
230
1.0
 70
    12
 71
     2
 72
     6
 73
     3
 74
     0
 42
0.0000000001
 43
0.0000000001
 40
0.0
 40
0.0
 40
0.0
 40
1.427486262982798
 40
1.427486262982798
 40
1.427486262982798
 10
-55.46333333333336
 20
138.4542995140165
 30
0.0
 41
1.0
 10
-48.26365103237709
 20
138.0978552453999
 30
0.0
 41
1.000062465528631
 10
-41.22333333333336
 20
137.7492806843912
 30
0.0
 41
1.0
  0
LINE
  5
EB
330
2
100
AcDbEntity
  8
GEB-KONTUR-A
 48
25.0
100
AcDbLine
 10
-55.46333333333336
 20
143.7124927520377
 30
0.0
 11
-55.46333333333336
 21
141.1929817452939
 31
0.0
  0
LINE
  5
EC
330
2
100
AcDbEntity
  8
GEB-KONTUR-A
 48
25.0
100
AcDbLine
 10
-41.22333333333338
 20
141.6750695819796
 30
0.0
 11
-41.22333333333338
 21
140.3639673042913
 31
0.0
  0
SPLINE
  5
ED
330
2
100
AcDbEntity
  8
GEB-KONTUR-A
 48
25.0
100
AcDbSpline
210
0.0
220
0.0
230
1.0
 70
    12
 71
     2
 72
     6
 73
     3
 74
     0
 42
0.0000000001
 43
0.0000000001
 40
0.0
 40
0.0
 40
0.0
 40
1.427486262982798
 40
1.427486262982798
 40
1.427486262982798
 10
-41.22333333333336
 20
140.3639673042913
 30
0.0
 41
1.0
 10
-48.26365103111931
 20
140.7738476261322
 30
0.0
 41
1.000062466992019
 10
-55.46333333333336
 20
141.1929817452939
 30
0.0
 41
1.0
  0
LINE
  5
EE
330
2
100
AcDbEntity
  8
GEB-KONTUR-A
 48
25.0
100
AcDbLine
 10
-41.22333333333338
 20
142.8834783110352
 30
0.0
 11
-41.22333333333338
 21
141.6750695819796
 31
0.0
  0
LINE
  5
EF
330
2
100
AcDbEntity
  8
GEB-KONTUR-A
 48
25.0
100
AcDbLine
 10
-41.22333333333338
 20
141.6750695819796
 30
0.0
 11
-55.46333333333336
 21
142.5030119356184
 31
0.0
  0
SPLINE
  5
F0
330
2
100
AcDbEntity
  8
GEB-KONTUR-A
 48
25.0
100
AcDbSpline
210
0.0
220
0.0
230
1.0
 70
    12
 71
     2
 72
     6
 73
     3
 74
     0
 42
0.0000000001
 43
0.0000000001
 40
0.0
 40
0.0
 40
0.0
 40
1.427486262982798
 40
1.427486262982798
 40
1.427486262982798
 10
-55.46333333333336
 20
143.7124927520377
 30
0.0
 41
1.0
 10
-48.26365103201843
 20
143.2933586329284
 30
0.0
 41
1.000062465692391
 10
-41.22333333333336
 20
142.8834783110352
 30
0.0
 41
1.0
  0
LINE
  5
F1
330
2
100
AcDbEntity
  8
GEB-KONTUR-A
 48
25.0
100
AcDbLine
 10
-55.46333333333334
 20
147.4829866038142
 30
0.0
 11
-55.46333333333334
 21
145.7475172380385
 31
0.0
  0
LINE
  5
F2
330
2
100
AcDbEntity
  8
GEB-KONTUR-A
 48
25.0
100
AcDbLine
 10
-41.22333333333338
 20
145.2191232731166
 30
0.0
 11
-41.22333333333338
 21
144.8263657457097
 31
0.0
  0
SPLINE
  5
F3
330
2
100
AcDbEntity
  8
GEB-KONTUR-A
 48
25.0
100
AcDbSpline
210
0.0
220
0.0
230
1.0
 70
    12
 71
     2
 72
     6
 73
     3
 74
     0
 42
0.0000000001
 43
0.0000000001
 40
0.0
 40
0.0
 40
0.0
 40
1.427486262982798
 40
1.427486262982798
 40
1.427486262982798
 10
-41.22333333333336
 20
144.8263657457097
 30
0.0
 41
1.0
 10
-48.26365103348519
 20
145.2818003576934
 30
0.0
 41
1.000062467550643
 10
-55.46333333333336
 20
145.7475172380385
 30
0.0
 41
1.0
  0
LINE
  5
F4
330
2
100
AcDbEntity
  8
GEB-KONTUR-A
 48
25.0
100
AcDbLine
 10
-41.22333333333338
 20
146.5618351114853
 30
0.0
 11
-41.22333333333338
 21
145.2191232731166
 31
0.0
  0
LINE
  5
F5
330
2
100
AcDbEntity
  8
GEB-KONTUR-A
 48
25.0
100
AcDbLine
 10
-41.22333333333338
 20
145.2191232731166
 30
0.0
 11
-55.46333333333336
 21
146.1390835257927
 31
0.0
  0
SPLINE
  5
F6
330
2
100
AcDbEntity
  8
GEB-KONTUR-A
 48
25.0
100
AcDbSpline
210
0.0
220
0.0
230
1.0
 70
    12
 71
     2
 72
     6
 73
     3
 74
     0
 42
0.0000000001
 43
0.0000000001
 40
0.0
 40
0.0
 40
0.0
 40
1.427486262982798
 40
1.427486262982798
 40
1.427486262982798
 10
-55.46333333333336
 20
147.4829866038142
 30
0.0
 41
1.0
 10
-48.26365103180899
 20
147.0172697233606
 30
0.0
 41
1.000062468148002
 10
-41.22333333333336
 20
146.5618351114853
 30
0.0
 41
1.0
  0
LINE
  5
F7
330
2
100
AcDbEntity
  8
GEB-KONTUR-A
 48
25.0
100
AcDbLine
 10
-55.46333333333334
 20
149.6208831051394
 30
0.0
 11
-55.46333333333334
 21
148.7361484947965
 31
0.0
  0
SPLINE
  5
F8
330
2
100
AcDbEntity
  8
GEB-KONTUR-A
 48
25.0
100
AcDbSpline
210
0.0
220
0.0
230
1.0
 70
    12
 71
     2
 72
     6
 73
     3
 74
     0
 42
0.0000000001
 43
0.0000000001
 40
0.0
 40
0.0
 40
0.0
 40
1.427486262982798
 40
1.427486262982798
 40
1.427486262982798
 10
-41.22333333333336
 20
147.7582592864038
 30
0.0
 41
1.0
 10
-48.26365102967995
 20
148.2417460914033
 30
0.0
 41
1.000062470482795
 10
-55.46333333333336
 20
148.7361484947963
 30
0.0
 41
1.0
  0
LINE
  5
F9
330
2
100
AcDbEntity
  8
GEB-KONTUR-A
 48
25.0
100
AcDbLine
 10
-41.22333333333338
 20
148.642993896747
 30
0.0
 11
-41.22333333333338
 21
147.7582592864038
 31
0.0
  0
SPLINE
  5
FA
330
2
100
AcDbEntity
  8
GEB-KONTUR-A
 48
25.0
100
AcDbSpline
210
0.0
220
0.0
230
1.0
 70
    12
 71
     2
 72
     6
 73
     3
 74
     0
 42
0.0000000001
 43
0.0000000001
 40
0.0
 40
0.0
 40
0.0
 40
1.427486262982798
 40
1.427486262982798
 40
1.427486262982798
 10
-55.46333333333336
 20
149.6208831051395
 30
0.0
 41
1.0
 10
-48.26365103183881
 20
149.1264807018946
 30
0.0
 41
1.000062464242667
 10
-41.22333333333336
 20
148.642993896747
 30
0.0
 41
1.0
  0
LINE
  5
FB
330
2
100
AcDbEntity
  8
GEB-KONTUR-A
 48
25.0
100
AcDbLine
 10
-55.46333333333336
 20
150.101060549481
 30
0.0
 11
-59.0233333333334
 21
150.35
 31
0.0
  0
LINE
  5
FC
330
2
100
AcDbEntity
  8
GEB-KONTUR-A
 48
25.0
100
AcDbLine
 10
-55.46333333333331
 20
59.89893945051893
 30
0.0
 11
-59.02333333333337
 21
59.64999999999998
 31
0.0
  0
LINE
  5
FD
330
2
100
AcDbEntity
  8
GEB-KONTUR-A
 48
25.0
100
AcDbLine
 10
-41.22333333333336
 20
149.0469769018296
 30
0.0
 11
-41.22333333333336
 21
148.642993896747
 31
0.0
  0
LINE
  5
FE
330
2
100
AcDbEntity
  8
GEB-KONTUR-A
 48
25.0
100
AcDbLine
 10
-41.22333333333336
 20
61.35700610325319
 30
0.0
 11
-41.22333333333336
 21
60.95302309817054
 31
0.0
  0
LINE
  5
FF
330
2
100
AcDbEntity
  8
GEB-KONTUR-A
 48
25.0
100
AcDbLine
 10
-41.22333333333336
 20
63.43816488851451
 30
0.0
 11
-41.22333333333336
 21
62.24174071359619
 31
0.0
  0
LINE
  5
100
330
2
100
AcDbEntity
  8
GEB-KONTUR-A
 48
25.0
100
AcDbLine
 10
-41.22333333333336
 20
67.11652168896478
 30
0.0
 11
-41.22333333333336
 21
65.17363425429028
 31
0.0
  0
LINE
  5
101
330
2
100
AcDbEntity
  8
GEB-KONTUR-A
 48
25.0
100
AcDbLine
 10
-41.22333333333336
 20
72.25071931560876
 30
0.0
 11
-41.22333333333336
 21
69.63603269570865
 31
0.0
  0
LINE
  5
102
330
2
100
AcDbEntity
  8
GEB-KONTUR-A
 48
25.0
100
AcDbLine
 10
-41.22333333333336
 20
78.64345343294565
 30
0.0
 11
-41.22333333333336
 21
75.45744856828981
 31
0.0
  0
LINE
  5
103
330
2
100
AcDbEntity
  8
GEB-KONTUR-A
 48
25.0
100
AcDbLine
 10
-41.22333333333336
 20
86.04905485393294
 30
0.0
 11
-41.22333333333336
 21
82.41416812473756
 31
0.0
  0
LINE
  5
104
330
2
100
AcDbEntity
  8
GEB-KONTUR-A
 48
25.0
100
AcDbLine
 10
-41.22333333333336
 20
94.1829304690707
 30
0.0
 11
-41.22333333333336
 21
90.2388485338713
 31
0.0
  0
LINE
  5
105
330
2
100
AcDbEntity
  8
GEB-KONTUR-A
 48
25.0
100
AcDbLine
 10
-41.22333333333336
 20
102.7325
 30
0.0
 11
-41.22333333333336
 21
98.63079171569939
 31
0.0
  0
LINE
  5
106
330
2
100
AcDbEntity
  8
GEB-KONTUR-A
 48
25.0
100
AcDbLine
 10
-41.22333333333336
 20
111.3692082843005
 30
0.0
 11
-41.22333333333336
 21
107.2674999999999
 31
0.0
  0
LINE
  5
107
330
2
100
AcDbEntity
  8
GEB-KONTUR-A
 48
25.0
100
AcDbLine
 10
-41.22333333333336
 20
119.7611514661286
 30
0.0
 11
-41.22333333333336
 21
115.8170695309292
 31
0.0
  0
LINE
  5
108
330
2
100
AcDbEntity
  8
GEB-KONTUR-A
 48
25.0
100
AcDbLine
 10
-41.22333333333336
 20
127.5858318752624
 30
0.0
 11
-41.22333333333336
 21
123.9509451460673
 31
0.0
  0
LINE
  5
109
330
2
100
AcDbEntity
  8
GEB-KONTUR-A
 48
25.0
100
AcDbLine
 10
-41.22333333333336
 20
134.5425514317102
 30
0.0
 11
-41.22333333333336
 21
131.3565465670543
 31
0.0
  0
LINE
  5
10A
330
2
100
AcDbEntity
  8
GEB-KONTUR-A
 48
25.0
100
AcDbLine
 10
-41.22333333333336
 20
140.3639673042913
 30
0.0
 11
-41.22333333333336
 21
137.7492806843912
 31
0.0
  0
LINE
  5
10B
330
2
100
AcDbEntity
  8
GEB-KONTUR-A
 48
25.0
100
AcDbLine
 10
-41.22333333333336
 20
144.8263657457097
 30
0.0
 11
-41.22333333333336
 21
142.8834783110352
 31
0.0
  0
LINE
  5
10C
330
2
100
AcDbEntity
  8
GEB-KONTUR-A
 48
25.0
100
AcDbLine
 10
-41.22333333333336
 20
147.7582592864038
 30
0.0
 11
-41.22333333333336
 21
146.5618351114855
 31
0.0
  0
LINE
  5
10D
330
2
100
AcDbEntity
  8
GEB-KONTUR-A
 48
25.0
100
AcDbLine
 10
-59.02333333333337
 20
150.35
 30
0.0
 11
-59.02333333333337
 21
59.64999999999998
 31
0.0
  0
LINE
  5
10E
330
2
100
AcDbEntity
  8
GEB-VERDECKT
 48
25.0
100
AcDbLine
 10
-41.22333333333338
 20
146.0745867422068
 30
0.0
 11
-56.00000000000003
 21
147.1078719333587
 31
0.0
  0
LINE
  5
10F
330
2
100
AcDbEntity
  8
GEB-VERDECKT
 48
25.0
100
AcDbLine
 10
-41.22333333333336
 20
63.92541325779314
 30
0.0
 11
-56.00000000000003
 21
62.89212806664124
 31
0.0
  0
LINE
  5
110
330
2
100
AcDbEntity
  8
GEB-VERDECKT
 48
25.0
100
AcDbLine
 10
-53.69173335498715
 20
133.9499999999999
 30
0.0
 11
-56.00000000000003
 21
141.5000000000001
 31
0.0
  0
LINE
  5
111
330
2
100
AcDbEntity
  8
GEB-VERDECKT
 48
25.0
100
AcDbLine
 10
-53.69173335498715
 20
76.05000000000007
 30
0.0
 11
-56.00000000000003
 21
68.49999999999988
 31
0.0
  0
LINE
  5
112
330
2
100
AcDbEntity
  8
GEB-VERDECKT
 48
25.0
100
AcDbLine
 10
-41.22333333333336
 20
132.6395183507376
 30
0.0
 11
-53.69173335498712
 21
133.9499999999999
 31
0.0
  0
LINE
  5
113
330
2
100
AcDbEntity
  8
GEB-VERDECKT
 48
25.0
100
AcDbLine
 10
-41.22333333333336
 20
77.3604816492624
 30
0.0
 11
-53.69173335498712
 21
76.05000000000007
 31
0.0
  0
LINE
  5
114
330
2
100
AcDbEntity
  8
GEB-VERDECKT
 48
25.0
100
AcDbLine
 10
-56.00000000000003
 20
147.1078719333587
 30
0.0
 11
-56.00000000000003
 21
62.89212806664124
 31
0.0
  0
LINE
  5
115
330
2
100
AcDbEntity
  8
GEB-VERDECKT
 48
25.0
100
AcDbLine
 10
-53.69173335498712
 20
133.9499999999999
 30
0.0
 11
-53.69173335498712
 21
76.05000000000007
 31
0.0
  0
LINE
  5
116
330
2
100
AcDbEntity
  8
GEB-VERDECKT
 48
25.0
100
AcDbLine
 10
-55.99789618337758
 20
130.8779049763344
 30
0.0
 11
-55.99789618337758
 21
79.12209502366557
 31
0.0
  0
LINE
  5
117
330
2
100
AcDbEntity
  8
GEB-VERDECKT
 48
25.0
100
AcDbLine
 10
-44.24666666666666
 20
129.6290393363944
 30
0.0
 11
-44.24666666666666
 21
80.37096066360561
 31
0.0
  0
ARC
  5
118
330
2
100
AcDbEntity
  8
GEB-KONTUR-A
 48
25.0
100
AcDbCircle
 10
-0.0692243869675622
 20
123.0240799029606
 30
0.0
 40
61.64782573625995
100
AcDbArc
 50
162.9999999999982
 51
197.0000000000018
  0
SPLINE
  5
119
330
2
100
AcDbEntity
  8
GEB-VERDECKT
 48
25.0
100
AcDbSpline
210
0.0
220
0.0
230
1.0
 70
    12
 71
     2
 72
     6
 73
     3
 74
     0
 42
0.0000000001
 43
0.0000000001
 40
0.0
 40
0.0
 40
0.0
 40
1.042047450601066
 40
1.042047450601066
 40
1.042047450601066
 10
-59.0233333333334
 20
140.8495149855446
 30
0.0
 41
1.0
 10
-57.26624621519244
 20
135.070496472579
 30
0.0
 41
1.013103382688965
 10
-55.99789618337758
 20
130.8779049763344
 30
0.0
 41
1.0
  0
SPLINE
  5
11A
330
2
100
AcDbEntity
  8
GEB-VERDECKT
 48
25.0
100
AcDbSpline
210
0.0
220
0.0
230
1.0
 70
    12
 71
     2
 72
     6
 73
     3
 74
     0
 42
0.0000000001
 43
0.0000000001
 40
0.0
 40
0.0
 40
0.0
 40
1.181740498816599
 40
1.181740498816599
 40
1.181740498816599
 10
-55.9978961833776
 20
130.8779049763344
 30
0.0
 41
1.0
 10
-49.97699730734581
 20
130.2383704448492
 30
0.0
 41
1.000299137339315
 10
-44.24666666666666
 20
129.6290393363944
 30
0.0
 41
1.0
  0
SPLINE
  5
11B
330
2
100
AcDbEntity
  8
GEB-VERDECKT
 48
25.0
100
AcDbSpline
210
0.0
220
0.0
230
1.0
 70
    12
 71
     2
 72
     6
 73
     3
 74
     0
 42
0.0000000001
 43
0.0000000001
 40
0.0
 40
0.0
 40
0.0
 40
1.181740498816598
 40
1.181740498816598
 40
1.181740498816598
 10
-44.24666666666666
 20
80.37096066360561
 30
0.0
 41
1.0
 10
-49.976997300844
 20
79.76162955584186
 30
0.0
 41
1.000299137326837
 10
-55.9978961833776
 20
79.12209502366557
 30
0.0
 41
1.0
  0
SPLINE
  5
11C
330
2
100
AcDbEntity
  8
GEB-VERDECKT
 48
25.0
100
AcDbSpline
210
0.0
220
0.0
230
1.0
 70
    12
 71
     2
 72
     6
 73
     3
 74
     0
 42
0.0000000001
 43
0.0000000001
 40
0.0
 40
0.0
 40
0.0
 40
0.8137966966741259
 40
0.8137966966741259
 40
0.8137966966741259
 10
-55.99789618337758
 20
79.12209502366557
 30
0.0
 41
1.0
 10
-56.99124019037089
 20
75.83854905283783
 30
0.0
 41
1.010233209184116
 10
-58.27252421514223
 20
71.62088258771302
 30
0.0
 41
1.004482977641794
  0
ARC
  5
11D
330
2
100
AcDbEntity
  8
GEB-VERDECKT
 48
25.0
100
AcDbCircle
 10
-117.9774422796993
 20
86.97592009703942
 30
0.0
 40
61.64782573626006
100
AcDbArc
 50
345.5771167232866
 51
17.00000000000179
  0
SPLINE
  5
11E
330
2
100
AcDbEntity
  8
GEB-VERDECKT
 48
25.0
100
AcDbSpline
210
0.0
220
0.0
230
1.0
 70
     8
 71
     3
 72
     8
 73
     4
 74
     0
 42
0.0000000001
 43
0.0000000001
 40
1.226817139907718
 40
1.226817139907718
 40
1.226817139907718
 40
1.226817139907718
 40
1.676109224762758
 40
1.676109224762758
 40
1.676109224762758
 40
1.676109224762758
 10
-58.27252421514223
 20
71.62088258771302
 30
0.0
 10
-58.51602492890652
 20
70.674079940365
 30
0.0
 10
-58.77053033203281
 20
69.7787215528432
 30
0.0
 10
-59.02333333333331
 20
68.95184019407896
 30
0.0
  0
LINE
  5
11F
330
2
100
AcDbEntity
  8
GEB-VERDECKT
 48
25.0
100
AcDbLine
 10
-11.50000000000003
 20
150.7999999999999
 30
0.0
 11
11.49999999999997
 21
150.7999999999999
 31
0.0
  0
LINE
  5
120
330
2
100
AcDbEntity
  8
GEB-KONTUR-A
 48
25.0
100
AcDbLine
 10
11.5
 20
192.8000000000001
 30
0.0
 11
11.49999999999997
 21
135.7099999999999
 31
0.0
  0
LINE
  5
121
330
2
100
AcDbEntity
  8
GEB-KONTUR-A
 48
25.0
100
AcDbLine
 10
11.49999999999997
 20
135.7099999999999
 30
0.0
 11
-11.50000000000003
 21
135.7099999999999
 31
0.0
  0
LINE
  5
122
330
2
100
AcDbEntity
  8
GEB-KONTUR-A
 48
25.0
100
AcDbLine
 10
-11.50000000000003
 20
135.7099999999999
 30
0.0
 11
-11.5
 21
192.8000000000001
 31
0.0
  0
ARC
  5
123
330
2
100
AcDbEntity
  8
GEB-KONTUR-A
 48
25.0
100
AcDbCircle
 10
-40.59999999999999
 20
182.5714285714287
 30
0.0
 40
4.428571428571371
100
AcDbArc
 50
90.0
 51
121.2844929144162
  0
ARC
  5
124
330
2
100
AcDbEntity
  8
GEB-KONTUR-A
 48
25.0
100
AcDbCircle
 10
-40.60000000000002
 20
189.4285714285714
 30
0.0
 40
4.428571428571429
100
AcDbArc
 50
238.7155070855838
 51
270.0
  0
ARC
  5
125
330
2
100
AcDbEntity
  8
GEB-KONTUR-A
 48
25.0
100
AcDbCircle
 10
-42.68333333333333
 20
186.0000000000001
 30
0.0
 40
0.4166666666666666
100
AcDbArc
 50
121.2844929144176
 51
238.7155070855879
  0
SPLINE
  5
126
330
2
100
AcDbEntity
  8
GEB-KONTUR-A
 48
25.0
100
AcDbSpline
210
0.0
220
0.0
230
1.0
 70
     8
 71
     3
 72
    28
 73
    24
 74
     0
 42
0.0000000001
 43
0.0000000001
 40
0.0001313713827774
 40
0.0001313713827774
 40
0.0001313713827774
 40
0.0001313713827774
 40
0.1699823435974464
 40
0.1699823435974464
 40
0.2359852913256785
 40
0.2359852913256785
 40
0.2509416450178962
 40
0.2509416450178962
 40
0.2577210618550381
 40
0.2577210618550381
 40
0.2621161837068308
 40
0.2621161837068308
 40
0.2660500458110009
 40
0.2660500458110009
 40
0.2708764225476415
 40
0.2708764225476415
 40
0.2794527665778864
 40
0.2794527665778864
 40
0.3006598919505363
 40
0.3006598919505363
 40
0.3800224291737506
 40
0.3800224291737506
 40
0.5638716632468812
 40
0.5638716632468812
 40
0.5638716632468812
 40
0.5638716632468812
 10
-23.72019124937273
 20
186.3560830860534
 30
0.0
 10
-23.26179565726213
 20
186.3192864676181
 30
0.0
 10
-22.87825443935
 20
186.2676117787751
 30
0.0
 10
-22.503577084673
 20
186.1801562790871
 30
0.0
 10
-22.36021869740728
 20
186.1410559104298
 30
0.0
 10
-22.25437096066508
 20
186.0777617256646
 30
0.0
 10
-22.23485157004018
 20
186.0637023012908
 30
0.0
 10
-22.21438889285173
 20
186.0403242552773
 30
0.0
 10
-22.20843387471015
 20
186.0318241484511
 30
0.0
 10
-22.20204257452412
 20
186.0161742403187
 30
0.0
 10
-22.2004260187125
 20
186.0096634312928
 30
0.0
 10
-22.19975704222264
 20
185.9967090016235
 30
0.0
 10
-22.2004741140318
 20
185.9907338138297
 30
0.0
 10
-22.20404950649356
 20
185.9777676909328
 30
0.0
 10
-22.20727094177826
 20
185.9711670840948
 30
0.0
 10
-22.21786497316543
 20
185.9545619390006
 30
0.0
 10
-22.22697678926954
 20
185.9451890196011
 30
0.0
 10
-22.2583688172034
 20
185.9180508303583
 30
0.0
 10
-22.2881999317795
 20
185.9013895426839
 30
0.0
 10
-22.42497942021203
 20
185.8370639104308
 30
0.0
 10
-22.58433210666954
 20
185.7991838326138
 30
0.0
 10
-22.95987587581405
 20
185.7217291786662
 30
0.0
 10
-23.31023872624684
 20
185.6768248799691
 30
0.0
 10
-23.72019124937273
 20
185.6439169139465
 30
0.0
  0
SPLINE
  5
127
330
2
100
AcDbEntity
  8
GEB-KONTUR-A
 48
25.0
100
AcDbSpline
210
0.0
220
0.0
230
1.0
 70
     8
 71
     3
 72
    18
 73
    14
 74
     0
 42
0.0000000001
 43
0.0000000001
 40
3.852716598000005
 40
3.852716598000005
 40
3.852716598000005
 40
3.852716598000005
 40
4.038372487232881
 40
4.038372487232881
 40
4.368138376595315
 40
4.368138376595315
 40
5.010916804789026
 40
5.010916804789026
 40
5.870434557513849
 40
5.870434557513849
 40
6.913880305415015
 40
6.913880305415015
 40
7.695197836021934
 40
7.695197836021934
 40
7.695197836021934
 40
7.695197836021934
 10
-40.59999999999999
 20
187.0000000000001
 30
0.0
 10
-40.59999999999999
 20
187.0000000000001
 30
0.0
 10
-40.58580374851922
 20
187.0000013486398
 30
0.0
 10
-40.50699928552629
 20
186.9999863647023
 30
0.0
 10
-40.4118507781165
 20
186.9999644097653
 30
0.0
 10
-40.00001946068539
 20
186.9993626017677
 30
0.0
 10
-39.55943108283518
 20
186.9983968835796
 30
0.0
 10
-38.14582096929973
 20
186.9880944006157
 30
0.0
 10
-37.04733651816844
 20
186.9762146064348
 30
0.0
 10
-34.0149912107741
 20
186.9106414571302
 30
0.0
 10
-31.96544146810902
 20
186.8492411252692
 30
0.0
 10
-27.7951678202177
 20
186.644075547668
 30
0.0
 10
-25.83178760950452
 20
186.5255864732811
 30
0.0
 10
-23.72019124937273
 20
186.3560830860534
 30
0.0
  0
SPLINE
  5
128
330
2
100
AcDbEntity
  8
GEB-KONTUR-A
 48
25.0
100
AcDbSpline
210
0.0
220
0.0
230
1.0
 70
     8
 71
     3
 72
    16
 73
    12
 74
     0
 42
0.0000000001
 43
0.0000000001
 40
0.0029989623155942
 40
0.0029989623155942
 40
0.0029989623155942
 40
0.0029989623155942
 40
1.5931714554199
 40
1.5931714554199
 40
3.043278655103506
 40
3.043278655103506
 40
3.502361017653702
 40
3.502361017653702
 40
3.78315527300635
 40
3.78315527300635
 40
3.852716598000137
 40
3.852716598000137
 40
3.852716598000137
 40
3.852716598000137
 10
-23.72019124937273
 20
185.6439169139465
 30
0.0
 10
-28.01277666564414
 20
185.2993398054803
 30
0.0
 10
-31.67037684646306
 20
185.158047076817
 30
0.0
 10
-37.03110386200277
 20
185.0138042783097
 30
0.0
 10
-38.83282385679374
 20
185.0048943127248
 30
0.0
 10
-40.09735388406745
 20
185.0003582283592
 30
0.0
 10
-40.31608391296418
 20
185.0001407938846
 30
0.0
 10
-40.52936836604252
 20
184.9999965271582
 30
0.0
 10
-40.57792987254979
 20
185.0000005095382
 30
0.0
 10
-40.59800707073915
 20
184.9999999733859
 30
0.0
 10
-40.59999999999999
 20
185.0
 30
0.0
 10
-40.59999999999999
 20
185.0
 30
0.0
  0
ARC
  5
129
330
2
100
AcDbEntity
  8
GEB-KONTUR-A
 48
25.0
100
AcDbCircle
 10
40.60000000000002
 20
175.5714285714286
 30
0.0
 40
4.428571428571371
100
AcDbArc
 50
58.71550708558374
 51
90.0
  0
ARC
  5
12A
330
2
100
AcDbEntity
  8
GEB-KONTUR-A
 48
25.0
100
AcDbCircle
 10
40.60000000000002
 20
182.4285714285714
 30
0.0
 40
4.428571428571429
100
AcDbArc
 50
270.0
 51
301.2844929144162
  0
ARC
  5
12B
330
2
100
AcDbEntity
  8
GEB-KONTUR-A
 48
25.0
100
AcDbCircle
 10
42.68333333333333
 20
179.0000000000001
 30
0.0
 40
0.4166666666666666
100
AcDbArc
 50
301.2844929144149
 51
58.71550708558931
  0
ARC
  5
12C
330
2
100
AcDbEntity
  8
GEB-KONTUR-A
 48
25.0
100
AcDbCircle
 10
40.60000000000002
 20
168.5714285714285
 30
0.0
 40
4.428571428571371
100
AcDbArc
 50
58.71550708558374
 51
90.0
  0
ARC
  5
12D
330
2
100
AcDbEntity
  8
GEB-KONTUR-A
 48
25.0
100
AcDbCircle
 10
40.60000000000002
 20
175.4285714285714
 30
0.0
 40
4.428571428571429
100
AcDbArc
 50
270.0
 51
301.2844929144162
  0
ARC
  5
12E
330
2
100
AcDbEntity
  8
GEB-KONTUR-A
 48
25.0
100
AcDbCircle
 10
42.68333333333333
 20
172.0
 30
0.0
 40
0.4166666666666666
100
AcDbArc
 50
301.2844929144149
 51
58.71550708558931
  0
ARC
  5
12F
330
2
100
AcDbEntity
  8
GEB-KONTUR-A
 48
25.0
100
AcDbCircle
 10
40.59999999999999
 20
161.5714285714285
 30
0.0
 40
4.428571428571371
100
AcDbArc
 50
58.71550708558374
 51
90.0
  0
ARC
  5
130
330
2
100
AcDbEntity
  8
GEB-KONTUR-A
 48
25.0
100
AcDbCircle
 10
40.60000000000002
 20
168.4285714285714
 30
0.0
 40
4.428571428571428
100
AcDbArc
 50
270.0
 51
301.2844929144162
  0
ARC
  5
131
330
2
100
AcDbEntity
  8
GEB-KONTUR-A
 48
25.0
100
AcDbCircle
 10
42.68333333333333
 20
165.0
 30
0.0
 40
0.4166666666666666
100
AcDbArc
 50
301.284492914428
 51
58.71550708558931
  0
ARC
  5
132
330
2
100
AcDbEntity
  8
GEB-KONTUR-A
 48
25.0
100
AcDbCircle
 10
-40.60000000000002
 20
175.5714285714286
 30
0.0
 40
4.428571428571372
100
AcDbArc
 50
90.0
 51
121.2844929144176
  0
ARC
  5
133
330
2
100
AcDbEntity
  8
GEB-KONTUR-A
 48
25.0
100
AcDbCircle
 10
-40.59999999999999
 20
182.4285714285714
 30
0.0
 40
4.428571428571429
100
AcDbArc
 50
238.7155070855838
 51
270.0
  0
ARC
  5
134
330
2
100
AcDbEntity
  8
GEB-KONTUR-A
 48
25.0
100
AcDbCircle
 10
-42.68333333333333
 20
179.0000000000001
 30
0.0
 40
0.4166666666666666
100
AcDbArc
 50
121.2844929144148
 51
238.7155070855879
  0
ARC
  5
135
330
2
100
AcDbEntity
  8
GEB-KONTUR-A
 48
25.0
100
AcDbCircle
 10
-40.60000000000002
 20
168.5714285714285
 30
0.0
 40
4.428571428571371
100
AcDbArc
 50
90.0
 51
121.2844929144162
  0
ARC
  5
136
330
2
100
AcDbEntity
  8
GEB-KONTUR-A
 48
25.0
100
AcDbCircle
 10
-40.60000000000002
 20
175.4285714285714
 30
0.0
 40
4.428571428571429
100
AcDbArc
 50
238.7155070855838
 51
270.0
  0
ARC
  5
137
330
2
100
AcDbEntity
  8
GEB-KONTUR-A
 48
25.0
100
AcDbCircle
 10
-42.68333333333337
 20
172.0
 30
0.0
 40
0.4166666666666666
100
AcDbArc
 50
121.2844929144176
 51
238.7155070855969
  0
ARC
  5
138
330
2
100
AcDbEntity
  8
GEB-KONTUR-A
 48
25.0
100
AcDbCircle
 10
-40.60000000000002
 20
161.5714285714288
 30
0.0
 40
4.428571428571371
100
AcDbArc
 50
90.0
 51
121.2844929144162
  0
ARC
  5
139
330
2
100
AcDbEntity
  8
GEB-KONTUR-A
 48
25.0
100
AcDbCircle
 10
-40.60000000000002
 20
168.4285714285715
 30
0.0
 40
4.428571428571429
100
AcDbArc
 50
238.7155070855838
 51
270.0
  0
ARC
  5
13A
330
2
100
AcDbEntity
  8
GEB-KONTUR-A
 48
25.0
100
AcDbCircle
 10
-42.68333333333337
 20
165.0
 30
0.0
 40
0.4166666666666666
100
AcDbArc
 50
121.2844929144121
 51
238.7155070855879
  0
SPLINE
  5
13B
330
2
100
AcDbEntity
  8
GEB-KONTUR-A
 48
25.0
100
AcDbSpline
210
0.0
220
0.0
230
1.0
 70
     8
 71
     3
 72
    28
 73
    24
 74
     0
 42
0.0000000001
 43
0.0000000001
 40
0.0001313713827774
 40
0.0001313713827774
 40
0.0001313713827774
 40
0.0001313713827774
 40
0.1699823435974397
 40
0.1699823435974397
 40
0.2359852913257011
 40
0.2359852913257011
 40
0.2509416450175716
 40
0.2509416450175716
 40
0.2577210618544569
 40
0.2577210618544569
 40
0.2621161837060828
 40
0.2621161837060828
 40
0.2660500458101033
 40
0.2660500458101033
 40
0.2708764225465599
 40
0.2708764225465599
 40
0.2794527665764772
 40
0.2794527665764772
 40
0.3006598919483223
 40
0.3006598919483223
 40
0.3800224291685691
 40
0.3800224291685691
 40
0.5638716632348221
 40
0.5638716632348221
 40
0.5638716632348221
 40
0.5638716632348221
 10
-23.72019124937273
 20
179.3560830860534
 30
0.0
 10
-23.26179565726215
 20
179.3192864676182
 30
0.0
 10
-22.87825443935
 20
179.267611778775
 30
0.0
 10
-22.50357708467294
 20
179.1801562790871
 30
0.0
 10
-22.36021869740722
 20
179.1410559104297
 30
0.0
 10
-22.25437096066554
 20
179.0777617256647
 30
0.0
 10
-22.23485157004041
 20
179.063702301291
 30
0.0
 10
-22.21438889285176
 20
179.0403242552774
 30
0.0
 10
-22.20843387471015
 20
179.0318241484511
 30
0.0
 10
-22.20204257452414
 20
179.0161742403187
 30
0.0
 10
-22.2004260187125
 20
179.0096634312926
 30
0.0
 10
-22.19975704222264
 20
178.9967090016235
 30
0.0
 10
-22.2004741140318
 20
178.9907338138299
 30
0.0
 10
-22.20404950649356
 20
178.9777676909328
 30
0.0
 10
-22.20727094177826
 20
178.9711670840949
 30
0.0
 10
-22.21786497316543
 20
178.9545619390006
 30
0.0
 10
-22.22697678926954
 20
178.945189019601
 30
0.0
 10
-22.2583688172034
 20
178.9180508303585
 30
0.0
 10
-22.2881999317795
 20
178.9013895426839
 30
0.0
 10
-22.42497942021203
 20
178.8370639104308
 30
0.0
 10
-22.58433210666954
 20
178.7991838326138
 30
0.0
 10
-22.95987587581405
 20
178.7217291786662
 30
0.0
 10
-23.31023872624684
 20
178.6768248799691
 30
0.0
 10
-23.72019124937273
 20
178.6439169139465
 30
0.0
  0
SPLINE
  5
13C
330
2
100
AcDbEntity
  8
GEB-KONTUR-A
 48
25.0
100
AcDbSpline
210
0.0
220
0.0
230
1.0
 70
     8
 71
     3
 72
    18
 73
    14
 74
     0
 42
0.0000000001
 43
0.0000000001
 40
3.852716598000005
 40
3.852716598000005
 40
3.852716598000005
 40
3.852716598000005
 40
4.038372487232881
 40
4.038372487232881
 40
4.368138376595315
 40
4.368138376595315
 40
5.010916804789026
 40
5.010916804789026
 40
5.870434557513849
 40
5.870434557513849
 40
6.913880305415015
 40
6.913880305415015
 40
7.695197836021934
 40
7.695197836021934
 40
7.695197836021934
 40
7.695197836021934
 10
-40.59999999999999
 20
180.0
 30
0.0
 10
-40.59999999999999
 20
180.0
 30
0.0
 10
-40.58580374851922
 20
180.0000013486398
 30
0.0
 10
-40.50699928552629
 20
179.9999863647023
 30
0.0
 10
-40.4118507781165
 20
179.9999644097652
 30
0.0
 10
-40.00001946068539
 20
179.9993626017677
 30
0.0
 10
-39.55943108283518
 20
179.9983968835796
 30
0.0
 10
-38.14582096929973
 20
179.9880944006157
 30
0.0
 10
-37.04733651816847
 20
179.9762146064348
 30
0.0
 10
-34.0149912107741
 20
179.9106414571303
 30
0.0
 10
-31.96544146810902
 20
179.8492411252692
 30
0.0
 10
-27.7951678202177
 20
179.6440755476679
 30
0.0
 10
-25.83178760950452
 20
179.5255864732811
 30
0.0
 10
-23.72019124937273
 20
179.3560830860534
 30
0.0
  0
SPLINE
  5
13D
330
2
100
AcDbEntity
  8
GEB-KONTUR-A
 48
25.0
100
AcDbSpline
210
0.0
220
0.0
230
1.0
 70
     8
 71
     3
 72
    16
 73
    12
 74
     0
 42
0.0000000001
 43
0.0000000001
 40
0.0029989623155941
 40
0.0029989623155941
 40
0.0029989623155941
 40
0.0029989623155941
 40
1.5931714554199
 40
1.5931714554199
 40
3.043278655103506
 40
3.043278655103506
 40
3.502361017653702
 40
3.502361017653702
 40
3.78315527300635
 40
3.78315527300635
 40
3.852716598000137
 40
3.852716598000137
 40
3.852716598000137
 40
3.852716598000137
 10
-23.72019124937273
 20
178.6439169139465
 30
0.0
 10
-28.01277666564414
 20
178.2993398054804
 30
0.0
 10
-31.67037684646306
 20
178.1580470768171
 30
0.0
 10
-37.03110386200277
 20
178.0138042783097
 30
0.0
 10
-38.83282385679374
 20
178.004894312725
 30
0.0
 10
-40.09735388406745
 20
178.0003582283592
 30
0.0
 10
-40.31608391296418
 20
178.0001407938847
 30
0.0
 10
-40.52936836604252
 20
177.9999965271582
 30
0.0
 10
-40.57792987254979
 20
178.0000005095383
 30
0.0
 10
-40.59800707073915
 20
177.999999973386
 30
0.0
 10
-40.59999999999999
 20
178.0000000000001
 30
0.0
 10
-40.59999999999999
 20
178.0000000000001
 30
0.0
  0
SPLINE
  5
13E
330
2
100
AcDbEntity
  8
GEB-KONTUR-A
 48
25.0
100
AcDbSpline
210
0.0
220
0.0
230
1.0
 70
     8
 71
     3
 72
    28
 73
    24
 74
     0
 42
0.0000000001
 43
0.0000000001
 40
0.0001313713827693
 40
0.0001313713827693
 40
0.0001313713827693
 40
0.0001313713827693
 40
0.1699823435973711
 40
0.1699823435973711
 40
0.2359852913254426
 40
0.2359852913254426
 40
0.2509416450205721
 40
0.2509416450205721
 40
0.2577210618599997
 40
0.2577210618599997
 40
0.2621161837132609
 40
0.2621161837132609
 40
0.2660500458187362
 40
0.2660500458187362
 40
0.2708764225569044
 40
0.2708764225569044
 40
0.2794527665894658
 40
0.2794527665894658
 40
0.3006598919664957
 40
0.3006598919664957
 40
0.3800224291958478
 40
0.3800224291958478
 40
0.5638716632830613
 40
0.5638716632830613
 40
0.5638716632830613
 40
0.5638716632830613
 10
-23.72019124937273
 20
172.3560830860534
 30
0.0
 10
-23.2617956572623
 20
172.3192864676183
 30
0.0
 10
-22.87825443935012
 20
172.267611778775
 30
0.0
 10
-22.50357708467311
 20
172.1801562790873
 30
0.0
 10
-22.36021869740733
 20
172.1410559104296
 30
0.0
 10
-22.25437096066125
 20
172.077761725662
 30
0.0
 10
-22.23485157003853
 20
172.063702301289
 30
0.0
 10
-22.21438889285156
 20
172.0403242552771
 30
0.0
 10
-22.20843387471015
 20
172.0318241484512
 30
0.0
 10
-22.20204257452417
 20
172.0161742403188
 30
0.0
 10
-22.20042601871254
 20
172.0096634312928
 30
0.0
 10
-22.19975704222264
 20
171.9967090016235
 30
0.0
 10
-22.2004741140318
 20
171.9907338138299
 30
0.0
 10
-22.20404950649351
 20
171.977767690933
 30
0.0
 10
-22.20727094177801
 20
171.9711670840951
 30
0.0
 10
-22.21786497316537
 20
171.9545619390005
 30
0.0
 10
-22.2269767892696
 20
171.9451890196009
 30
0.0
 10
-22.2583688172017
 20
171.9180508303599
 30
0.0
 10
-22.28819993177581
 20
171.9013895426857
 30
0.0
 10
-22.42497942021197
 20
171.8370639104308
 30
0.0
 10
-22.58433210666916
 20
171.7991838326139
 30
0.0
 10
-22.95987587581402
 20
171.7217291786661
 30
0.0
 10
-23.31023872624701
 20
171.6768248799691
 30
0.0
 10
-23.72019124937273
 20
171.6439169139466
 30
0.0
  0
SPLINE
  5
13F
330
2
100
AcDbEntity
  8
GEB-KONTUR-A
 48
25.0
100
AcDbSpline
210
0.0
220
0.0
230
1.0
 70
     8
 71
     3
 72
    18
 73
    14
 74
     0
 42
0.0000000001
 43
0.0000000001
 40
3.852716598000075
 40
3.852716598000075
 40
3.852716598000075
 40
3.852716598000075
 40
4.038372487232971
 40
4.038372487232971
 40
4.36813837659545
 40
4.36813837659545
 40
5.010916804789212
 40
5.010916804789212
 40
5.870434557514112
 40
5.870434557514112
 40
6.913880305415295
 40
6.913880305415295
 40
7.69519783602225
 40
7.69519783602225
 40
7.69519783602225
 40
7.69519783602225
 10
-40.59999999999999
 20
173.0000000000001
 30
0.0
 10
-40.59999999999999
 20
173.0000000000001
 30
0.0
 10
-40.58580374851922
 20
173.0000013486398
 30
0.0
 10
-40.50699928552626
 20
172.9999863647023
 30
0.0
 10
-40.41185077811644
 20
172.9999644097651
 30
0.0
 10
-40.00001946068531
 20
172.9993626017677
 30
0.0
 10
-39.55943108283512
 20
172.9983968835796
 30
0.0
 10
-38.14582096929965
 20
172.9880944006157
 30
0.0
 10
-37.04733651816833
 20
172.9762146064348
 30
0.0
 10
-34.01499121077387
 20
172.9106414571304
 30
0.0
 10
-31.96544146810885
 20
172.8492411252692
 30
0.0
 10
-27.79516782021762
 20
172.6440755476679
 30
0.0
 10
-25.83178760950443
 20
172.5255864732811
 30
0.0
 10
-23.72019124937273
 20
172.3560830860534
 30
0.0
  0
SPLINE
  5
140
330
2
100
AcDbEntity
  8
GEB-KONTUR-A
 48
25.0
100
AcDbSpline
210
0.0
220
0.0
230
1.0
 70
     8
 71
     3
 72
    16
 73
    12
 74
     0
 42
0.0000000001
 43
0.0000000001
 40
0.0029989623156031
 40
0.0029989623156031
 40
0.0029989623156031
 40
0.0029989623156031
 40
1.593171455419883
 40
1.593171455419883
 40
3.043278655103513
 40
3.043278655103513
 40
3.502361017653645
 40
3.502361017653645
 40
3.783155273006256
 40
3.783155273006256
 40
3.852716598000064
 40
3.852716598000064
 40
3.852716598000064
 40
3.852716598000064
 10
-23.72019124937273
 20
171.6439169139466
 30
0.0
 10
-28.01277666564411
 20
171.2993398054804
 30
0.0
 10
-31.67037684646294
 20
171.1580470768172
 30
0.0
 10
-37.03110386200274
 20
171.0138042783097
 30
0.0
 10
-38.83282385679374
 20
171.0048943127249
 30
0.0
 10
-40.09735388406745
 20
171.0003582283592
 30
0.0
 10
-40.31608391296418
 20
171.0001407938847
 30
0.0
 10
-40.52936836604255
 20
170.9999965271582
 30
0.0
 10
-40.57792987254979
 20
171.0000005095382
 30
0.0
 10
-40.59800707073915
 20
170.999999973386
 30
0.0
 10
-40.59999999999999
 20
171.0000000000001
 30
0.0
 10
-40.59999999999999
 20
171.0000000000001
 30
0.0
  0
SPLINE
  5
141
330
2
100
AcDbEntity
  8
GEB-KONTUR-A
 48
25.0
100
AcDbSpline
210
0.0
220
0.0
230
1.0
 70
     8
 71
     3
 72
    28
 73
    24
 74
     0
 42
0.0000000001
 43
0.0000000001
 40
0.0001313713827771
 40
0.0001313713827771
 40
0.0001313713827771
 40
0.0001313713827771
 40
0.1699823435973059
 40
0.1699823435973059
 40
0.235985291325338
 40
0.235985291325338
 40
0.2509416450169386
 40
0.2509416450169386
 40
0.2577210618536445
 40
0.2577210618536445
 40
0.2621161837051527
 40
0.2621161837051527
 40
0.2660500458090691
 40
0.2660500458090691
 40
0.2708764225453974
 40
0.2708764225453974
 40
0.2794527665750877
 40
0.2794527665750877
 40
0.3006598919464912
 40
0.3006598919464912
 40
0.3800224291658242
 40
0.3800224291658242
 40
0.5638716632298446
 40
0.5638716632298446
 40
0.5638716632298446
 40
0.5638716632298446
 10
-23.72019124937273
 20
165.3560830860534
 30
0.0
 10
-23.2617956572625
 20
165.3192864676183
 30
0.0
 10
-22.8782544393502
 20
165.2676117787752
 30
0.0
 10
-22.50357708467311
 20
165.1801562790872
 30
0.0
 10
-22.36021869740731
 20
165.1410559104298
 30
0.0
 10
-22.25437096066583
 20
165.0777617256649
 30
0.0
 10
-22.23485157004055
 20
165.0637023012912
 30
0.0
 10
-22.21438889285176
 20
165.0403242552772
 30
0.0
 10
-22.20843387471015
 20
165.0318241484511
 30
0.0
 10
-22.20204257452414
 20
165.0161742403186
 30
0.0
 10
-22.20042601871254
 20
165.0096634312927
 30
0.0
 10
-22.19975704222264
 20
164.9967090016235
 30
0.0
 10
-22.2004741140318
 20
164.9907338138298
 30
0.0
 10
-22.20404950649356
 20
164.9777676909327
 30
0.0
 10
-22.20727094177826
 20
164.9711670840948
 30
0.0
 10
-22.21786497316543
 20
164.9545619390005
 30
0.0
 10
-22.22697678926954
 20
164.9451890196009
 30
0.0
 10
-22.25836881720358
 20
164.9180508303583
 30
0.0
 10
-22.28819993177979
 20
164.9013895426838
 30
0.0
 10
-22.424979420212
 20
164.8370639104308
 30
0.0
 10
-22.58433210666928
 20
164.7991838326139
 30
0.0
 10
-22.9598758758143
 20
164.7217291786661
 30
0.0
 10
-23.31023872624729
 20
164.6768248799691
 30
0.0
 10
-23.72019124937273
 20
164.6439169139466
 30
0.0
  0
SPLINE
  5
142
330
2
100
AcDbEntity
  8
GEB-KONTUR-A
 48
25.0
100
AcDbSpline
210
0.0
220
0.0
230
1.0
 70
     8
 71
     3
 72
    18
 73
    14
 74
     0
 42
0.0000000001
 43
0.0000000001
 40
3.852716598000007
 40
3.852716598000007
 40
3.852716598000007
 40
3.852716598000007
 40
4.038372487232883
 40
4.038372487232883
 40
4.368138376595316
 40
4.368138376595316
 40
5.010916804789028
 40
5.010916804789028
 40
5.870434557513852
 40
5.870434557513852
 40
6.913880305415016
 40
6.913880305415016
 40
7.695197836021931
 40
7.695197836021931
 40
7.695197836021931
 40
7.695197836021931
 10
-40.59999999999999
 20
166.0000000000001
 30
0.0
 10
-40.59999999999999
 20
166.0000000000001
 30
0.0
 10
-40.58580374851922
 20
166.0000013486398
 30
0.0
 10
-40.50699928552629
 20
165.9999863647023
 30
0.0
 10
-40.4118507781165
 20
165.9999644097653
 30
0.0
 10
-40.00001946068539
 20
165.9993626017677
 30
0.0
 10
-39.55943108283518
 20
165.9983968835796
 30
0.0
 10
-38.14582096929973
 20
165.9880944006157
 30
0.0
 10
-37.04733651816847
 20
165.9762146064348
 30
0.0
 10
-34.0149912107741
 20
165.9106414571303
 30
0.0
 10
-31.96544146810902
 20
165.8492411252692
 30
0.0
 10
-27.7951678202177
 20
165.6440755476678
 30
0.0
 10
-25.83178760950452
 20
165.5255864732811
 30
0.0
 10
-23.72019124937273
 20
165.3560830860534
 30
0.0
  0
SPLINE
  5
143
330
2
100
AcDbEntity
  8
GEB-KONTUR-A
 48
25.0
100
AcDbSpline
210
0.0
220
0.0
230
1.0
 70
     8
 71
     3
 72
    16
 73
    12
 74
     0
 42
0.0000000001
 43
0.0000000001
 40
0.0029989623155942
 40
0.0029989623155942
 40
0.0029989623155942
 40
0.0029989623155942
 40
1.5931714554199
 40
1.5931714554199
 40
3.043278655103506
 40
3.043278655103506
 40
3.502361017653702
 40
3.502361017653702
 40
3.78315527300635
 40
3.78315527300635
 40
3.852716598000137
 40
3.852716598000137
 40
3.852716598000137
 40
3.852716598000137
 10
-23.72019124937273
 20
164.6439169139466
 30
0.0
 10
-28.0127766656442
 20
164.2993398054803
 30
0.0
 10
-31.67037684646306
 20
164.1580470768172
 30
0.0
 10
-37.03110386200277
 20
164.0138042783098
 30
0.0
 10
-38.83282385679374
 20
164.0048943127249
 30
0.0
 10
-40.09735388406745
 20
164.0003582283593
 30
0.0
 10
-40.31608391296418
 20
164.0001407938847
 30
0.0
 10
-40.52936836604252
 20
163.9999965271582
 30
0.0
 10
-40.57792987254979
 20
164.0000005095384
 30
0.0
 10
-40.59800707073915
 20
163.999999973386
 30
0.0
 10
-40.60000000000002
 20
164.0000000000001
 30
0.0
 10
-40.60000000000002
 20
164.0000000000001
 30
0.0
  0
SPLINE
  5
144
330
2
100
AcDbEntity
  8
GEB-KONTUR-A
 48
25.0
100
AcDbSpline
210
0.0
220
0.0
230
1.0
 70
     8
 71
     3
 72
    16
 73
    12
 74
     0
 42
0.0000000001
 43
0.0000000001
 40
0.0029989623155371
 40
0.0029989623155371
 40
0.0029989623155371
 40
0.0029989623155371
 40
1.593171455419912
 40
1.593171455419912
 40
3.04327865510351
 40
3.04327865510351
 40
3.502361017653664
 40
3.502361017653664
 40
3.783155273006279
 40
3.783155273006279
 40
3.852716598000057
 40
3.852716598000057
 40
3.852716598000057
 40
3.852716598000057
 10
23.72019124937271
 20
165.3560830860534
 30
0.0
 10
28.01277666564434
 20
165.7006601945197
 30
0.0
 10
31.67037684646337
 20
165.8419529231829
 30
0.0
 10
37.03110386200305
 20
165.9861957216902
 30
0.0
 10
38.83282385679391
 20
165.9951056872751
 30
0.0
 10
40.0973538840675
 20
165.9996417716407
 30
0.0
 10
40.31608391296418
 20
165.9998592061153
 30
0.0
 10
40.52936836604252
 20
166.0000034728417
 30
0.0
 10
40.57792987254976
 20
165.9999994904618
 30
0.0
 10
40.59800707073913
 20
166.0000000266139
 30
0.0
 10
40.60000000000002
 20
166.0000000000001
 30
0.0
 10
40.60000000000002
 20
166.0000000000001
 30
0.0
  0
SPLINE
  5
145
330
2
100
AcDbEntity
  8
GEB-KONTUR-A
 48
25.0
100
AcDbSpline
210
0.0
220
0.0
230
1.0
 70
     8
 71
     3
 72
    28
 73
    24
 74
     0
 42
0.0000000001
 43
0.0000000001
 40
0.0001313713827752
 40
0.0001313713827752
 40
0.0001313713827752
 40
0.0001313713827752
 40
0.169982343597343
 40
0.169982343597343
 40
0.2359852913255565
 40
0.2359852913255565
 40
0.2509416450157996
 40
0.2509416450157996
 40
0.2577210618515501
 40
0.2577210618515501
 40
0.2621161837024098
 40
0.2621161837024098
 40
0.2660500458057591
 40
0.2660500458057591
 40
0.2708764225414193
 40
0.2708764225414193
 40
0.279452766569665
 40
0.279452766569665
 40
0.300659891936877
 40
0.300659891936877
 40
0.3800224291376095
 40
0.3800224291376095
 40
0.56387166315858
 40
0.56387166315858
 40
0.56387166315858
 40
0.56387166315858
 10
23.72019124937271
 20
164.6439169139466
 30
0.0
 10
23.26179565726238
 20
164.6807135323819
 30
0.0
 10
22.87825443935012
 20
164.7323882212249
 30
0.0
 10
22.50357708467283
 20
164.8198437209129
 30
0.0
 10
22.36021869740719
 20
164.8589440895704
 30
0.0
 10
22.25437096066764
 20
164.922238274334
 30
0.0
 10
22.23485157004132
 20
164.9362976987079
 30
0.0
 10
22.2143888928517
 20
164.9596757447228
 30
0.0
 10
22.20843387471015
 20
164.9681758515488
 30
0.0
 10
22.20204257452414
 20
164.9838257596814
 30
0.0
 10
22.20042601871256
 20
164.9903365687073
 30
0.0
 10
22.19975704222267
 20
165.0032909983765
 30
0.0
 10
22.20047411403186
 20
165.0092661861703
 30
0.0
 10
22.20404950649356
 20
165.0222323090672
 30
0.0
 10
22.20727094177812
 20
165.0288329159051
 30
0.0
 10
22.21786497316543
 20
165.0454380609994
 30
0.0
 10
22.22697678926943
 20
165.0548109803991
 30
0.0
 10
22.25836881720304
 20
165.0819491696414
 30
0.0
 10
22.28819993177873
 20
165.0986104573159
 30
0.0
 10
22.42497942021203
 20
165.1629360895691
 30
0.0
 10
22.58433210666925
 20
165.2008161673863
 30
0.0
 10
22.95987587581436
 20
165.278270821334
 30
0.0
 10
23.3102387262474
 20
165.323175120031
 30
0.0
 10
23.72019124937271
 20
165.3560830860534
 30
0.0
  0
SPLINE
  5
146
330
2
100
AcDbEntity
  8
GEB-KONTUR-A
 48
25.0
100
AcDbSpline
210
0.0
220
0.0
230
1.0
 70
     8
 71
     3
 72
    18
 73
    14
 74
     0
 42
0.0000000001
 43
0.0000000001
 40
3.852716598000161
 40
3.852716598000161
 40
3.852716598000161
 40
3.852716598000161
 40
4.038372487233206
 40
4.038372487233206
 40
4.368138376595831
 40
4.368138376595831
 40
5.010916804789732
 40
5.010916804789732
 40
5.870434557514797
 40
5.870434557514797
 40
6.913880305416185
 40
6.913880305416185
 40
7.695197836023214
 40
7.695197836023214
 40
7.695197836023214
 40
7.695197836023214
 10
40.59999999999999
 20
164.0000000000001
 30
0.0
 10
40.59999999999999
 20
164.0000000000001
 30
0.0
 10
40.5858037485192
 20
163.9999986513602
 30
0.0
 10
40.50699928552626
 20
164.0000136352978
 30
0.0
 10
40.41185077811644
 20
164.0000355902349
 30
0.0
 10
40.00001946068528
 20
164.0006373982322
 30
0.0
 10
39.55943108283506
 20
164.0016031164203
 30
0.0
 10
38.14582096929951
 20
164.0119055993842
 30
0.0
 10
37.04733651816813
 20
164.0237853935651
 30
0.0
 10
34.01499121077359
 20
164.0893585428698
 30
0.0
 10
31.96544146810851
 20
164.1507588747309
 30
0.0
 10
27.79516782021736
 20
164.3559244523321
 30
0.0
 10
25.83178760950435
 20
164.474413526719
 30
0.0
 10
23.72019124937271
 20
164.6439169139466
 30
0.0
  0
SPLINE
  5
147
330
2
100
AcDbEntity
  8
GEB-KONTUR-A
 48
25.0
100
AcDbSpline
210
0.0
220
0.0
230
1.0
 70
     8
 71
     3
 72
    16
 73
    12
 74
     0
 42
0.0000000001
 43
0.0000000001
 40
0.002998962315537
 40
0.002998962315537
 40
0.002998962315537
 40
0.002998962315537
 40
1.593171455419912
 40
1.593171455419912
 40
3.043278655103509
 40
3.043278655103509
 40
3.502361017653663
 40
3.502361017653663
 40
3.783155273006277
 40
3.783155273006277
 40
3.852716598000055
 40
3.852716598000055
 40
3.852716598000055
 40
3.852716598000055
 10
23.72019124937271
 20
172.3560830860534
 30
0.0
 10
28.01277666564434
 20
172.7006601945197
 30
0.0
 10
31.67037684646337
 20
172.8419529231829
 30
0.0
 10
37.03110386200308
 20
172.9861957216902
 30
0.0
 10
38.83282385679391
 20
172.9951056872751
 30
0.0
 10
40.0973538840675
 20
172.9996417716409
 30
0.0
 10
40.31608391296418
 20
172.9998592061152
 30
0.0
 10
40.52936836604252
 20
173.0000034728418
 30
0.0
 10
40.57792987254976
 20
172.9999994904618
 30
0.0
 10
40.59800707073913
 20
173.0000000266141
 30
0.0
 10
40.60000000000002
 20
173.0
 30
0.0
 10
40.60000000000002
 20
173.0
 30
0.0
  0
SPLINE
  5
148
330
2
100
AcDbEntity
  8
GEB-KONTUR-A
 48
25.0
100
AcDbSpline
210
0.0
220
0.0
230
1.0
 70
     8
 71
     3
 72
    28
 73
    24
 74
     0
 42
0.0000000001
 43
0.0000000001
 40
0.0001313713827752
 40
0.0001313713827752
 40
0.0001313713827752
 40
0.0001313713827752
 40
0.1699823435972259
 40
0.1699823435972259
 40
0.2359852913245822
 40
0.2359852913245822
 40
0.2509416450188038
 40
0.2509416450188038
 40
0.2577210618576808
 40
0.2577210618576808
 40
0.2621161837105964
 40
0.2621161837105964
 40
0.2660500458157879
 40
0.2660500458157879
 40
0.2708764225537337
 40
0.2708764225537337
 40
0.2794527665861169
 40
0.2794527665861169
 40
0.3006598919641251
 40
0.3006598919641251
 40
0.3800224292098393
 40
0.3800224292098393
 40
0.5638716633352173
 40
0.5638716633352173
 40
0.5638716633352173
 40
0.5638716633352173
 10
23.72019124937271
 20
171.6439169139465
 30
0.0
 10
23.2617956572627
 20
171.6807135323818
 30
0.0
 10
22.87825443935028
 20
171.7323882212248
 30
0.0
 10
22.50357708467402
 20
171.8198437209126
 30
0.0
 10
22.36021869740759
 20
171.8589440895703
 30
0.0
 10
22.25437096066213
 20
171.9222382743373
 30
0.0
 10
22.23485157003887
 20
171.9362976987106
 30
0.0
 10
22.2143888928515
 20
171.9596757447231
 30
0.0
 10
22.20843387471012
 20
171.968175851549
 30
0.0
 10
22.20204257452417
 20
171.9838257596814
 30
0.0
 10
22.20042601871256
 20
171.9903365687074
 30
0.0
 10
22.19975704222267
 20
172.0032909983766
 30
0.0
 10
22.20047411403186
 20
172.0092661861703
 30
0.0
 10
22.20404950649359
 20
172.0222323090672
 30
0.0
 10
22.20727094177821
 20
172.0288329159051
 30
0.0
 10
22.21786497316543
 20
172.0454380609994
 30
0.0
 10
22.2269767892694
 20
172.054810980399
 30
0.0
 10
22.25836881720377
 20
172.081949169642
 30
0.0
 10
22.28819993178039
 20
172.0986104573166
 30
0.0
 10
22.42497942021203
 20
172.1629360895691
 30
0.0
 10
22.58433210666954
 20
172.2008161673862
 30
0.0
 10
22.95987587581413
 20
172.2782708213339
 30
0.0
 10
23.31023872624695
 20
172.3231751200311
 30
0.0
 10
23.72019124937271
 20
172.3560830860534
 30
0.0
  0
SPLINE
  5
149
330
2
100
AcDbEntity
  8
GEB-KONTUR-A
 48
25.0
100
AcDbSpline
210
0.0
220
0.0
230
1.0
 70
     8
 71
     3
 72
    18
 73
    14
 74
     0
 42
0.0000000001
 43
0.0000000001
 40
3.852716598000162
 40
3.852716598000162
 40
3.852716598000162
 40
3.852716598000162
 40
4.038372487233207
 40
4.038372487233207
 40
4.368138376595832
 40
4.368138376595832
 40
5.010916804789735
 40
5.010916804789735
 40
5.8704345575148
 40
5.8704345575148
 40
6.913880305416191
 40
6.913880305416191
 40
7.695197836023223
 40
7.695197836023223
 40
7.695197836023223
 40
7.695197836023223
 10
40.60000000000002
 20
171.0000000000001
 30
0.0
 10
40.60000000000002
 20
171.0000000000001
 30
0.0
 10
40.5858037485192
 20
170.9999986513602
 30
0.0
 10
40.50699928552626
 20
171.0000136352978
 30
0.0
 10
40.41185077811644
 20
171.0000355902349
 30
0.0
 10
40.00001946068528
 20
171.0006373982322
 30
0.0
 10
39.55943108283506
 20
171.0016031164203
 30
0.0
 10
38.14582096929951
 20
171.0119055993842
 30
0.0
 10
37.04733651816813
 20
171.0237853935652
 30
0.0
 10
34.01499121077359
 20
171.0893585428698
 30
0.0
 10
31.96544146810851
 20
171.1507588747308
 30
0.0
 10
27.79516782021736
 20
171.3559244523321
 30
0.0
 10
25.83178760950435
 20
171.4744135267189
 30
0.0
 10
23.72019124937271
 20
171.6439169139465
 30
0.0
  0
SPLINE
  5
14A
330
2
100
AcDbEntity
  8
GEB-KONTUR-A
 48
25.0
100
AcDbSpline
210
0.0
220
0.0
230
1.0
 70
     8
 71
     3
 72
    16
 73
    12
 74
     0
 42
0.0000000001
 43
0.0000000001
 40
0.002998962315537
 40
0.002998962315537
 40
0.002998962315537
 40
0.002998962315537
 40
1.593171455419912
 40
1.593171455419912
 40
3.043278655103509
 40
3.043278655103509
 40
3.502361017653663
 40
3.502361017653663
 40
3.783155273006277
 40
3.783155273006277
 40
3.852716598000055
 40
3.852716598000055
 40
3.852716598000055
 40
3.852716598000055
 10
23.72019124937271
 20
179.3560830860534
 30
0.0
 10
28.01277666564434
 20
179.7006601945197
 30
0.0
 10
31.67037684646337
 20
179.8419529231829
 30
0.0
 10
37.03110386200308
 20
179.9861957216902
 30
0.0
 10
38.83282385679391
 20
179.9951056872752
 30
0.0
 10
40.0973538840675
 20
179.9996417716407
 30
0.0
 10
40.31608391296418
 20
179.9998592061154
 30
0.0
 10
40.52936836604252
 20
180.0000034728418
 30
0.0
 10
40.57792987254976
 20
179.9999994904617
 30
0.0
 10
40.59800707073913
 20
180.0000000266141
 30
0.0
 10
40.60000000000002
 20
180.0
 30
0.0
 10
40.60000000000002
 20
180.0
 30
0.0
  0
SPLINE
  5
14B
330
2
100
AcDbEntity
  8
GEB-KONTUR-A
 48
25.0
100
AcDbSpline
210
0.0
220
0.0
230
1.0
 70
     8
 71
     3
 72
    28
 73
    24
 74
     0
 42
0.0000000001
 43
0.0000000001
 40
0.0001313713827752
 40
0.0001313713827752
 40
0.0001313713827752
 40
0.0001313713827752
 40
0.1699823435973016
 40
0.1699823435973016
 40
0.2359852913252929
 40
0.2359852913252929
 40
0.2509416450192121
 40
0.2509416450192121
 40
0.2577210618577408
 40
0.2577210618577408
 40
0.2621161837104208
 40
0.2621161837104208
 40
0.2660500458153987
 40
0.2660500458153987
 40
0.2708764225530578
 40
0.2708764225530578
 40
0.2794527665848558
 40
0.2794527665848558
 40
0.3006598919607264
 40
0.3006598919607264
 40
0.3800224291930622
 40
0.3800224291930622
 40
0.563871663287074
 40
0.563871663287074
 40
0.563871663287074
 40
0.563871663287074
 10
23.72019124937271
 20
178.6439169139465
 30
0.0
 10
23.2617956572625
 20
178.6807135323818
 30
0.0
 10
22.87825443935023
 20
178.7323882212248
 30
0.0
 10
22.50357708467314
 20
178.8198437209128
 30
0.0
 10
22.36021869740733
 20
178.8589440895703
 30
0.0
 10
22.25437096066281
 20
178.922238274337
 30
0.0
 10
22.23485157003921
 20
178.9362976987103
 30
0.0
 10
22.21438889285159
 20
178.9596757447229
 30
0.0
 10
22.20843387471015
 20
178.9681758515489
 30
0.0
 10
22.20204257452417
 20
178.9838257596812
 30
0.0
 10
22.20042601871256
 20
178.9903365687072
 30
0.0
 10
22.19975704222267
 20
179.0032909983764
 30
0.0
 10
22.20047411403186
 20
179.0092661861703
 30
0.0
 10
22.20404950649356
 20
179.0222323090672
 30
0.0
 10
22.20727094177812
 20
179.028832915905
 30
0.0
 10
22.21786497316543
 20
179.0454380609995
 30
0.0
 10
22.22697678926943
 20
179.054810980399
 30
0.0
 10
22.25836881720292
 20
179.0819491696412
 30
0.0
 10
22.28819993177845
 20
179.0986104573156
 30
0.0
 10
22.42497942021203
 20
179.1629360895691
 30
0.0
 10
22.58433210666931
 20
179.2008161673861
 30
0.0
 10
22.95987587581402
 20
179.2782708213338
 30
0.0
 10
23.31023872624684
 20
179.3231751200309
 30
0.0
 10
23.72019124937271
 20
179.3560830860534
 30
0.0
  0
SPLINE
  5
14C
330
2
100
AcDbEntity
  8
GEB-KONTUR-A
 48
25.0
100
AcDbSpline
210
0.0
220
0.0
230
1.0
 70
     8
 71
     3
 72
    18
 73
    14
 74
     0
 42
0.0000000001
 43
0.0000000001
 40
3.852716598000162
 40
3.852716598000162
 40
3.852716598000162
 40
3.852716598000162
 40
4.038372487233207
 40
4.038372487233207
 40
4.368138376595832
 40
4.368138376595832
 40
5.010916804789735
 40
5.010916804789735
 40
5.8704345575148
 40
5.8704345575148
 40
6.913880305416191
 40
6.913880305416191
 40
7.695197836023223
 40
7.695197836023223
 40
7.695197836023223
 40
7.695197836023223
 10
40.60000000000002
 20
178.0
 30
0.0
 10
40.60000000000002
 20
178.0
 30
0.0
 10
40.5858037485192
 20
177.9999986513603
 30
0.0
 10
40.50699928552626
 20
178.0000136352977
 30
0.0
 10
40.41185077811644
 20
178.0000355902348
 30
0.0
 10
40.00001946068528
 20
178.0006373982322
 30
0.0
 10
39.55943108283506
 20
178.0016031164205
 30
0.0
 10
38.14582096929951
 20
178.0119055993843
 30
0.0
 10
37.04733651816813
 20
178.0237853935652
 30
0.0
 10
34.01499121077359
 20
178.0893585428697
 30
0.0
 10
31.96544146810851
 20
178.1507588747308
 30
0.0
 10
27.79516782021736
 20
178.3559244523321
 30
0.0
 10
25.83178760950435
 20
178.4744135267189
 30
0.0
 10
23.72019124937271
 20
178.6439169139465
 30
0.0
  0
ARC
  5
14D
330
2
100
AcDbEntity
  8
GEB-KONTUR-A
 48
25.0
100
AcDbCircle
 10
40.60000000000002
 20
182.5714285714287
 30
0.0
 40
4.428571428571371
100
AcDbArc
 50
58.71550708558374
 51
90.0
  0
ARC
  5
14E
330
2
100
AcDbEntity
  8
GEB-KONTUR-A
 48
25.0
100
AcDbCircle
 10
40.60000000000002
 20
189.4285714285714
 30
0.0
 40
4.428571428571429
100
AcDbArc
 50
270.0
 51
301.2844929144162
  0
ARC
  5
14F
330
2
100
AcDbEntity
  8
GEB-KONTUR-A
 48
25.0
100
AcDbCircle
 10
42.68333333333333
 20
186.0000000000001
 30
0.0
 40
0.4166666666666666
100
AcDbArc
 50
301.284492914428
 51
58.71550708558931
  0
SPLINE
  5
150
330
2
100
AcDbEntity
  8
GEB-KONTUR-A
 48
25.0
100
AcDbSpline
210
0.0
220
0.0
230
1.0
 70
     8
 71
     3
 72
    16
 73
    12
 74
     0
 42
0.0000000001
 43
0.0000000001
 40
0.0029989623155369
 40
0.0029989623155369
 40
0.0029989623155369
 40
0.0029989623155369
 40
1.593171455419912
 40
1.593171455419912
 40
3.043278655103509
 40
3.043278655103509
 40
3.502361017653663
 40
3.502361017653663
 40
3.783155273006277
 40
3.783155273006277
 40
3.852716598000055
 40
3.852716598000055
 40
3.852716598000055
 40
3.852716598000055
 10
23.72019124937271
 20
186.3560830860534
 30
0.0
 10
28.01277666564434
 20
186.7006601945196
 30
0.0
 10
31.67037684646337
 20
186.8419529231829
 30
0.0
 10
37.03110386200308
 20
186.9861957216902
 30
0.0
 10
38.83282385679391
 20
186.9951056872752
 30
0.0
 10
40.0973538840675
 20
186.9996417716407
 30
0.0
 10
40.31608391296418
 20
186.9998592061152
 30
0.0
 10
40.52936836604252
 20
187.0000034728417
 30
0.0
 10
40.57792987254976
 20
186.9999994904616
 30
0.0
 10
40.59800707073913
 20
187.0000000266142
 30
0.0
 10
40.60000000000002
 20
187.0000000000001
 30
0.0
 10
40.60000000000002
 20
187.0000000000001
 30
0.0
  0
SPLINE
  5
151
330
2
100
AcDbEntity
  8
GEB-KONTUR-A
 48
25.0
100
AcDbSpline
210
0.0
220
0.0
230
1.0
 70
     8
 71
     3
 72
    28
 73
    24
 74
     0
 42
0.0000000001
 43
0.0000000001
 40
0.0001313713827752
 40
0.0001313713827752
 40
0.0001313713827752
 40
0.0001313713827752
 40
0.1699823435973895
 40
0.1699823435973895
 40
0.2359852913262174
 40
0.2359852913262174
 40
0.250941645016928
 40
0.250941645016928
 40
0.2577210618529833
 40
0.2577210618529833
 40
0.2621161837040419
 40
0.2621161837040419
 40
0.2660500458075715
 40
0.2660500458075715
 40
0.2708764225434817
 40
0.2708764225434817
 40
0.2794527665722739
 40
0.2794527665722739
 40
0.3006598919422287
 40
0.3006598919422287
 40
0.3800224291630683
 40
0.3800224291630683
 40
0.5638716632309625
 40
0.5638716632309625
 40
0.5638716632309625
 40
0.5638716632309625
 10
23.72019124937271
 20
185.6439169139465
 30
0.0
 10
23.26179565726227
 20
185.6807135323817
 30
0.0
 10
22.87825443935009
 20
185.7323882212249
 30
0.0
 10
22.50357708467195
 20
185.8198437209131
 30
0.0
 10
22.36021869740691
 20
185.8589440895706
 30
0.0
 10
22.2543709606673
 20
185.9222382743343
 30
0.0
 10
22.2348515700412
 20
185.9362976987082
 30
0.0
 10
22.2143888928517
 20
185.9596757447228
 30
0.0
 10
22.20843387471015
 20
185.968175851549
 30
0.0
 10
22.20204257452417
 20
185.9838257596813
 30
0.0
 10
22.20042601871256
 20
185.9903365687072
 30
0.0
 10
22.19975704222267
 20
186.0032909983764
 30
0.0
 10
22.20047411403186
 20
186.0092661861703
 30
0.0
 10
22.20404950649359
 20
186.0222323090673
 30
0.0
 10
22.20727094177821
 20
186.0288329159051
 30
0.0
 10
22.21786497316543
 20
186.0454380609993
 30
0.0
 10
22.2269767892694
 20
186.0548109803991
 30
0.0
 10
22.25836881720463
 20
186.0819491696428
 30
0.0
 10
22.28819993178223
 20
186.0986104573175
 30
0.0
 10
22.42497942021194
 20
186.1629360895691
 30
0.0
 10
22.58433210666948
 20
186.2008161673863
 30
0.0
 10
22.95987587581402
 20
186.2782708213338
 30
0.0
 10
23.31023872624689
 20
186.3231751200309
 30
0.0
 10
23.72019124937271
 20
186.3560830860534
 30
0.0
  0
SPLINE
  5
152
330
2
100
AcDbEntity
  8
GEB-KONTUR-A
 48
25.0
100
AcDbSpline
210
0.0
220
0.0
230
1.0
 70
     8
 71
     3
 72
    18
 73
    14
 74
     0
 42
0.0000000001
 43
0.0000000001
 40
3.852716598000162
 40
3.852716598000162
 40
3.852716598000162
 40
3.852716598000162
 40
4.038372487233207
 40
4.038372487233207
 40
4.368138376595832
 40
4.368138376595832
 40
5.010916804789735
 40
5.010916804789735
 40
5.8704345575148
 40
5.8704345575148
 40
6.913880305416191
 40
6.913880305416191
 40
7.695197836023223
 40
7.695197836023223
 40
7.695197836023223
 40
7.695197836023223
 10
40.60000000000002
 20
185.0
 30
0.0
 10
40.60000000000002
 20
185.0
 30
0.0
 10
40.5858037485192
 20
184.9999986513603
 30
0.0
 10
40.50699928552626
 20
185.0000136352977
 30
0.0
 10
40.41185077811644
 20
185.0000355902348
 30
0.0
 10
40.00001946068528
 20
185.0006373982323
 30
0.0
 10
39.55943108283506
 20
185.0016031164203
 30
0.0
 10
38.14582096929951
 20
185.0119055993843
 30
0.0
 10
37.04733651816813
 20
185.0237853935652
 30
0.0
 10
34.01499121077359
 20
185.0893585428697
 30
0.0
 10
31.96544146810851
 20
185.1507588747308
 30
0.0
 10
27.79516782021736
 20
185.3559244523322
 30
0.0
 10
25.83178760950435
 20
185.4744135267189
 30
0.0
 10
23.72019124937271
 20
185.6439169139465
 30
0.0
  0
LINE
  5
153
330
2
100
AcDbEntity
  8
GEB-VERDECKT
 48
25.0
100
AcDbLine
 10
35.1
 20
147.8
 30
0.0
 11
35.1
 21
151.8038475772933
 31
0.0
  0
LINE
  5
154
330
2
100
AcDbEntity
  8
GEB-VERDECKT
 48
25.0
100
AcDbLine
 10
-35.10000000000002
 20
147.8
 30
0.0
 11
-35.10000000000002
 21
151.8038475772933
 31
0.0
  0
LINE
  5
155
330
2
100
AcDbEntity
  8
GEB-VERDECKT
 48
25.0
100
AcDbLine
 10
35.1
 20
151.8038475772933
 30
0.0
 11
38.09999999999997
 21
157.0
 31
0.0
  0
LINE
  5
156
330
2
100
AcDbEntity
  8
GEB-VERDECKT
 48
25.0
100
AcDbLine
 10
-35.10000000000002
 20
151.8038475772933
 30
0.0
 11
-38.1
 21
157.0
 31
0.0
  0
LINE
  5
157
330
2
100
AcDbEntity
  8
GEB-VERDECKT
 48
25.0
100
AcDbLine
 10
38.1
 20
157.0
 30
0.0
 11
38.10000000000002
 21
195.3000000000001
 31
0.0
  0
LINE
  5
158
330
2
100
AcDbEntity
  8
GEB-VERDECKT
 48
25.0
100
AcDbLine
 10
-38.10000000000002
 20
157.0
 30
0.0
 11
-38.1
 21
195.3000000000001
 31
0.0
  0
LINE
  5
159
330
2
100
AcDbEntity
  8
GEB-VERDECKT
 48
25.0
100
AcDbLine
 10
42.29999999999998
 20
195.3000000000001
 30
0.0
 11
42.29999999999998
 21
204.0000000000001
 31
0.0
  0
LINE
  5
15A
330
2
100
AcDbEntity
  8
GEB-VERDECKT
 48
25.0
100
AcDbLine
 10
-42.29999999999998
 20
195.3000000000001
 30
0.0
 11
-42.29999999999998
 21
204.0000000000001
 31
0.0
  0
LINE
  5
15B
330
2
100
AcDbEntity
  8
GEB-VERDECKT
 48
25.0
100
AcDbLine
 10
38.10000000000002
 20
204.0000000000001
 30
0.0
 11
38.10000000000002
 21
210.0000000000001
 31
0.0
  0
LINE
  5
15C
330
2
100
AcDbEntity
  8
GEB-VERDECKT
 48
25.0
100
AcDbLine
 10
-38.1
 20
204.0000000000001
 30
0.0
 11
-38.1
 21
210.0000000000001
 31
0.0
  0
LINE
  5
15D
330
2
100
AcDbEntity
  8
GEB-VERDECKT
 48
25.0
100
AcDbLine
 10
35.1
 20
151.8038475772933
 30
0.0
 11
-35.10000000000002
 21
151.8038475772933
 31
0.0
  0
LINE
  5
15E
330
2
100
AcDbEntity
  8
GEB-VERDECKT
 48
25.0
100
AcDbLine
 10
38.1
 20
157.0
 30
0.0
 11
-38.1
 21
157.0
 31
0.0
  0
LINE
  5
15F
330
2
100
AcDbEntity
  8
GEB-VERDECKT
 48
25.0
100
AcDbLine
 10
42.30000000000001
 20
195.3000000000001
 30
0.0
 11
-42.29999999999998
 21
195.3000000000001
 31
0.0
  0
LINE
  5
160
330
2
100
AcDbEntity
  8
GEB-VERDECKT
 48
25.0
100
AcDbLine
 10
42.29999999999998
 20
204.0000000000001
 30
0.0
 11
-42.30000000000001
 21
204.0000000000001
 31
0.0
  0
LINE
  5
161
330
2
100
AcDbEntity
  8
GEB-KONTUR-A
 48
25.0
100
AcDbLine
 10
40.60000000000002
 20
206.5000000000001
 30
0.0
 11
40.60000000000002
 21
210.0000000000001
 31
0.0
  0
LINE
  5
162
330
2
100
AcDbEntity
  8
GEB-KONTUR-A
 48
25.0
100
AcDbLine
 10
-40.59999999999999
 20
206.5000000000001
 30
0.0
 11
-40.59999999999999
 21
210.0000000000001
 31
0.0
  0
LINE
  5
163
330
2
100
AcDbEntity
  8
GEB-KONTUR-A
 48
25.0
100
AcDbLine
 10
44.79999999999998
 20
192.8000000000001
 30
0.0
 11
44.79999999999998
 21
206.5000000000001
 31
0.0
  0
LINE
  5
164
330
2
100
AcDbEntity
  8
GEB-KONTUR-A
 48
25.0
100
AcDbLine
 10
-44.79999999999998
 20
192.8000000000001
 30
0.0
 11
-44.79999999999998
 21
206.5000000000001
 31
0.0
  0
LINE
  5
165
330
2
100
AcDbEntity
  8
GEB-KONTUR-A
 48
25.0
100
AcDbLine
 10
39.35
 20
150.7999999999999
 30
0.0
 11
39.35
 21
154.0000000000001
 31
0.0
  0
LINE
  5
166
330
2
100
AcDbEntity
  8
GEB-KONTUR-A
 48
25.0
100
AcDbLine
 10
-39.35000000000002
 20
150.7999999999999
 30
0.0
 11
-39.35000000000002
 21
154.0000000000001
 31
0.0
  0
LINE
  5
167
330
2
100
AcDbEntity
  8
GEB-KONTUR-A
 48
25.0
100
AcDbLine
 10
-40.59999999999999
 20
187.0000000000001
 30
0.0
 11
-40.59999999999999
 21
192.8000000000001
 31
0.0
  0
LINE
  5
168
330
2
100
AcDbEntity
  8
GEB-KONTUR-A
 48
25.0
100
AcDbLine
 10
-40.59999999999999
 20
180.0000000000001
 30
0.0
 11
-40.59999999999999
 21
185.0000000000001
 31
0.0
  0
LINE
  5
169
330
2
100
AcDbEntity
  8
GEB-KONTUR-A
 48
25.0
100
AcDbLine
 10
-40.59999999999999
 20
173.0000000000001
 30
0.0
 11
-40.59999999999999
 21
178.0000000000001
 31
0.0
  0
LINE
  5
16A
330
2
100
AcDbEntity
  8
GEB-KONTUR-A
 48
25.0
100
AcDbLine
 10
-40.59999999999999
 20
166.0000000000001
 30
0.0
 11
-40.59999999999999
 21
171.0000000000001
 31
0.0
  0
LINE
  5
16B
330
2
100
AcDbEntity
  8
GEB-KONTUR-A
 48
25.0
100
AcDbLine
 10
-40.60000000000002
 20
154.0000000000001
 30
0.0
 11
-40.59999999999999
 21
164.0000000000001
 31
0.0
  0
LINE
  5
16C
330
2
100
AcDbEntity
  8
GEB-KONTUR-A
 48
25.0
100
AcDbLine
 10
40.60000000000002
 20
187.0000000000001
 30
0.0
 11
40.60000000000002
 21
192.8000000000001
 31
0.0
  0
LINE
  5
16D
330
2
100
AcDbEntity
  8
GEB-KONTUR-A
 48
25.0
100
AcDbLine
 10
40.60000000000002
 20
180.0
 30
0.0
 11
40.60000000000002
 21
185.0
 31
0.0
  0
LINE
  5
16E
330
2
100
AcDbEntity
  8
GEB-KONTUR-A
 48
25.0
100
AcDbLine
 10
40.60000000000002
 20
173.0
 30
0.0
 11
40.60000000000002
 21
178.0
 31
0.0
  0
LINE
  5
16F
330
2
100
AcDbEntity
  8
GEB-KONTUR-A
 48
25.0
100
AcDbLine
 10
40.60000000000002
 20
166.0000000000001
 30
0.0
 11
40.60000000000002
 21
171.0000000000001
 31
0.0
  0
LINE
  5
170
330
2
100
AcDbEntity
  8
GEB-KONTUR-A
 48
25.0
100
AcDbLine
 10
40.59999999999999
 20
154.0000000000001
 30
0.0
 11
40.60000000000002
 21
164.0000000000001
 31
0.0
  0
LINE
  5
171
330
2
100
AcDbEntity
  8
GEB-KONTUR-A
 48
25.0
100
AcDbLine
 10
40.60000000000002
 20
210.0000000000001
 30
0.0
 11
-40.59999999999996
 21
210.0000000000001
 31
0.0
  0
LINE
  5
172
330
2
100
AcDbEntity
  8
GEB-KONTUR-A
 48
25.0
100
AcDbLine
 10
44.79999999999998
 20
206.5000000000001
 30
0.0
 11
-44.80000000000001
 21
206.5000000000001
 31
0.0
  0
LINE
  5
173
330
2
100
AcDbEntity
  8
GEB-KONTUR-A
 48
25.0
100
AcDbLine
 10
39.35000000000002
 20
150.7999999999999
 30
0.0
 11
11.5
 21
150.7999999999999
 31
0.0
  0
LINE
  5
174
330
2
100
AcDbEntity
  8
GEB-KONTUR-A
 48
25.0
100
AcDbLine
 10
-11.50000000000005
 20
150.7999999999999
 30
0.0
 11
-39.35
 21
150.7999999999999
 31
0.0
  0
LINE
  5
175
330
2
100
AcDbEntity
  8
GEB-KONTUR-A
 48
25.0
100
AcDbLine
 10
-11.50000000000003
 20
154.0000000000001
 30
0.0
 11
-40.59999999999999
 21
154.0000000000001
 31
0.0
  0
LINE
  5
176
330
2
100
AcDbEntity
  8
GEB-KONTUR-A
 48
25.0
100
AcDbLine
 10
40.60000000000002
 20
154.0000000000001
 30
0.0
 11
11.5
 21
154.0000000000001
 31
0.0
  0
LINE
  5
177
330
2
100
AcDbEntity
  8
GEB-KONTUR-A
 48
25.0
100
AcDbLine
 10
44.79999999999998
 20
192.8000000000001
 30
0.0
 11
-44.80000000000001
 21
192.8000000000001
 31
0.0
  0
LINE
  5
178
330
2
100
AcDbEntity
  8
GEB-VERDECKT
 48
25.0
100
AcDbLine
 10
11.49999999999997
 20
147.8
 30
0.0
 11
-11.5
 21
147.8
 31
0.0
  0
LINE
  5
179
330
2
100
AcDbEntity
  8
GEB-KONTUR-A
 48
25.0
100
AcDbLine
 10
-37.60000000000002
 20
150.7999999999999
 30
0.0
 11
-37.60000000000002
 21
147.8
 31
0.0
  0
LINE
  5
17A
330
2
100
AcDbEntity
  8
GEB-KONTUR-A
 48
25.0
100
AcDbLine
 10
37.6
 20
150.7999999999999
 30
0.0
 11
37.6
 21
147.8
 31
0.0
  0
LINE
  5
17B
330
2
100
AcDbEntity
  8
GEB-KONTUR-A
 48
25.0
100
AcDbLine
 10
37.6
 20
147.8
 30
0.0
 11
11.49999999999997
 21
147.8
 31
0.0
  0
LINE
  5
17C
330
2
100
AcDbEntity
  8
GEB-KONTUR-A
 48
25.0
100
AcDbLine
 10
-11.50000000000003
 20
147.8
 30
0.0
 11
-37.60000000000002
 21
147.8
 31
0.0
  0
LINE
  5
17D
330
2
100
AcDbEntity
  8
GEB-VERDECKT
 48
25.0
100
AcDbLine
 10
35.0
 20
0.0
 30
0.0
 11
35.00000000000003
 21
154.3000000000001
 31
0.0
  0
LINE
  5
17E
330
2
100
AcDbEntity
  8
GEB-VERDECKT
 48
25.0
100
AcDbLine
 10
-34.99999999999997
 20
139.7499999999999
 30
0.0
 11
-34.99999999999997
 21
154.3000000000001
 31
0.0
  0
LINE
  5
17F
330
2
100
AcDbEntity
  8
GEB-VERDECKT
 48
25.0
100
AcDbLine
 10
-35.0
 20
0.0
 30
0.0
 11
-34.99999999999997
 21
70.25000000000011
 31
0.0
  0
LINE
  5
180
330
2
100
AcDbEntity
  8
GEB-VERDECKT
 48
25.0
100
AcDbLine
 10
37.60000000000002
 20
150.7999999999999
 30
0.0
 11
37.60000000000002
 21
154.3000000000001
 31
0.0
  0
LINE
  5
181
330
2
100
AcDbEntity
  8
GEB-VERDECKT
 48
25.0
100
AcDbLine
 10
-37.59999999999997
 20
150.7999999999999
 30
0.0
 11
-37.59999999999997
 21
154.3000000000001
 31
0.0
  0
LINE
  5
182
330
2
100
AcDbEntity
  8
GEB-VERDECKT
 48
25.0
100
AcDbLine
 10
37.60000000000002
 20
154.3000000000001
 30
0.0
 11
-37.59999999999997
 21
154.3000000000001
 31
0.0
  0
ARC
  5
183
330
2
100
AcDbEntity
  8
GEB-KONTUR-A
 48
25.0
100
AcDbCircle
 10
-37.6
 20
55.67656249999993
 30
0.0
 40
3.023437499999995
100
AcDbArc
 50
90.0
 51
120.8443226374781
  0
ARC
  5
184
330
2
100
AcDbEntity
  8
GEB-KONTUR-A
 48
25.0
100
AcDbCircle
 10
37.6
 20
55.67656249999993
 30
0.0
 40
3.023437499999995
100
AcDbArc
 50
59.15567736252183
 51
90.0
  0
ARC
  5
185
330
2
100
AcDbEntity
  8
GEB-KONTUR-A
 48
25.0
100
AcDbCircle
 10
-38.80833333333334
 20
57.69999999999993
 30
0.0
 40
0.6666666666666668
100
AcDbArc
 50
120.8443226374781
 51
239.1556773625218
  0
ARC
  5
186
330
2
100
AcDbEntity
  8
GEB-KONTUR-A
 48
25.0
100
AcDbCircle
 10
38.80833333333334
 20
57.69999999999993
 30
0.0
 40
0.6666666666666666
100
AcDbArc
 50
300.8443226374782
 51
59.15567736252323
  0
ARC
  5
187
330
2
100
AcDbEntity
  8
GEB-KONTUR-A
 48
25.0
100
AcDbCircle
 10
-37.6
 20
59.72343750000004
 30
0.0
 40
3.023437499999995
100
AcDbArc
 50
239.1556773625218
 51
270.0
  0
ARC
  5
188
330
2
100
AcDbEntity
  8
GEB-KONTUR-A
 48
25.0
100
AcDbCircle
 10
37.6
 20
59.72343749999993
 30
0.0
 40
3.023437499999995
100
AcDbArc
 50
270.0
 51
300.8443226374782
  0
LINE
  5
189
330
2
100
AcDbEntity
  8
GEB-KONTUR-A
 48
25.0
100
AcDbLine
 10
37.6
 20
4.000000000000113
 30
0.0
 11
37.6
 21
56.70000000000005
 31
0.0
  0
LINE
  5
18A
330
2
100
AcDbEntity
  8
GEB-KONTUR-A
 48
25.0
100
AcDbLine
 10
-37.60000000000002
 20
4.000000000000113
 30
0.0
 11
-37.6
 21
56.70000000000005
 31
0.0
  0
LINE
  5
18B
330
2
100
AcDbEntity
  8
GEB-KONTUR-A
 48
25.0
100
AcDbLine
 10
36.37707727416535
 20
0.0
 30
0.0
 11
37.6
 21
4.000000000000113
 31
0.0
  0
LINE
  5
18C
330
2
100
AcDbEntity
  8
GEB-KONTUR-A
 48
25.0
100
AcDbLine
 10
-36.37707727416537
 20
0.0
 30
0.0
 11
-37.60000000000002
 21
4.000000000000113
 31
0.0
  0
LINE
  5
18D
330
2
100
AcDbEntity
  8
GEB-KONTUR-A
 48
25.0
100
AcDbLine
 10
37.6
 20
58.70000000000004
 30
0.0
 11
37.60000000000002
 21
150.7999999999999
 31
0.0
  0
LINE
  5
18E
330
2
100
AcDbEntity
  8
GEB-KONTUR-A
 48
25.0
100
AcDbLine
 10
-37.6
 20
144.3850000000001
 30
0.0
 11
-37.59999999999997
 21
150.7999999999999
 31
0.0
  0
LINE
  5
18F
330
2
100
AcDbEntity
  8
GEB-KONTUR-A
 48
25.0
100
AcDbLine
 10
-37.6
 20
58.70000000000004
 30
0.0
 11
-37.6
 21
65.61499999999989
 31
0.0
  0
LINE
  5
190
330
2
100
AcDbEntity
  8
GEB-KONTUR-A
 48
25.0
100
AcDbLine
 10
37.6
 20
56.70000000000005
 30
0.0
 11
-37.60000000000002
 21
56.70000000000005
 31
0.0
  0
LINE
  5
191
330
2
100
AcDbEntity
  8
GEB-KONTUR-A
 48
25.0
100
AcDbLine
 10
37.6
 20
4.000000000000113
 30
0.0
 11
-37.60000000000002
 21
4.000000000000113
 31
0.0
  0
LINE
  5
192
330
2
100
AcDbEntity
  8
GEB-KONTUR-A
 48
25.0
100
AcDbLine
 10
36.37707727416535
 20
0.0
 30
0.0
 11
-36.37707727416537
 21
0.0
 31
0.0
  0
LINE
  5
193
330
2
100
AcDbEntity
  8
GEB-KONTUR-A
 48
25.0
100
AcDbLine
 10
37.60000000000002
 20
58.70000000000004
 30
0.0
 11
-37.6
 21
58.70000000000004
 31
0.0
  0
LINE
  5
194
330
2
100
AcDbEntity
  8
GEB-VERDECKT
 48
25.0
100
AcDbLine
 10
-56.00000000000003
 20
65.61499999999989
 30
0.0
 11
-41.22333333333336
 21
65.61499999999989
 31
0.0
  0
LINE
  5
195
330
2
100
AcDbEntity
  8
GEB-VERDECKT
 48
25.0
100
AcDbLine
 10
-56.00000000000003
 20
144.3850000000001
 30
0.0
 11
-41.22333333333336
 21
144.3850000000001
 31
0.0
  0
LINE
  5
196
330
2
100
AcDbEntity
  8
GEB-VERDECKT
 48
25.0
100
AcDbLine
 10
-56.00000000000003
 20
70.25000000000011
 30
0.0
 11
-34.99999999999997
 21
70.25000000000011
 31
0.0
  0
LINE
  5
197
330
2
100
AcDbEntity
  8
GEB-VERDECKT
 48
25.0
100
AcDbLine
 10
-56.00000000000003
 20
139.7499999999999
 30
0.0
 11
-34.99999999999997
 21
139.7499999999999
 31
0.0
  0
SPLINE
  5
198
330
2
100
AcDbEntity
  8
GEB-VERDECKT
 48
25.0
100
AcDbSpline
210
0.0
220
0.0
230
1.0
 70
     8
 71
     3
 72
    50
 73
    46
 74
     0
 42
0.0000000001
 43
0.0000000001
 40
6.586052447176168
 40
6.586052447176168
 40
6.586052447380747
 40
6.586052447380747
 40
7.303832393556787
 40
7.303832393556787
 40
8.021612339937405
 40
8.021612339937405
 40
8.739392286318022
 40
8.739392286318022
 40
9.45717223269864
 40
9.45717223269864
 40
10.38590539811206
 40
10.38590539811206
 40
11.31463856352548
 40
11.31463856352548
 40
12.24337172893891
 40
12.24337172893891
 40
12.70773831164562
 40
12.70773831164562
 40
12.93992160299898
 40
12.93992160299898
 40
13.05601324867566
 40
13.05601324867566
 40
13.17210489435234
 40
13.17210489435234
 40
13.28819654002901
 40
13.28819654002901
 40
13.40428818570569
 40
13.40428818570569
 40
13.63647147705905
 40
13.63647147705905
 40
14.10083805976576
 40
14.10083805976576
 40
15.02957122517918
 40
15.02957122517918
 40
15.95830439059261
 40
15.95830439059261
 40
16.88703755600603
 40
16.88703755600603
 40
17.60481750238665
 40
17.60481750238665
 40
18.32259744876727
 40
18.32259744876727
 40
19.04037739514788
 40
19.04037739514788
 40
19.75815734152797
 40
19.75815734152797
 40
19.7581573415285
 40
19.7581573415285
 10
-34.99999999999997
 20
70.25000000000011
 30
0.0
 10
-34.99999999985798
 20
70.25000000014301
 30
0.0
 10
-34.75090536767834
 20
70.50084743722391
 30
0.0
 10
-33.77316365927007
 20
71.48593299473919
 30
0.0
 10
-33.04491522053587
 20
72.21977075510096
 30
0.0
 10
-31.20732973704503
 20
74.07307908034557
 30
0.0
 10
-30.09620249677832
 20
75.19436002973669
 30
0.0
 10
-27.63867217288078
 20
77.67801308868127
 30
0.0
 10
-26.29251922234312
 20
79.04016303656544
 30
0.0
 10
-23.15387440934182
 20
82.22380805945078
 30
0.0
 10
-21.22545856515157
 20
84.18470837508847
 30
0.0
 10
-17.26463386361664
 20
88.24219998774209
 30
0.0
 10
-15.23140473085343
 20
90.33784643171122
 30
0.0
 10
-11.31784880604346
 20
94.46070790804027
 30
0.0
 10
-9.440910375372823
 20
96.46682506423724
 30
0.0
 10
-6.944866120943231
 20
99.42558415350493
 30
0.0
 10
-6.175653756439601
 20
100.3844535968119
 30
0.0
 10
-5.174470704542471
 20
101.9197135929668
 30
0.0
 10
-4.868713069608759
 20
102.4427923063494
 30
0.0
 10
-4.497600337069172
 20
103.3091508558251
 30
0.0
 10
-4.389311737509501
 20
103.6113463486455
 30
0.0
 10
-4.228523454050559
 20
104.2633105287291
 30
0.0
 10
-4.175823272122443
 20
104.6130278477443
 30
0.0
 10
-4.175823272122443
 20
105.3869721522555
 30
0.0
 10
-4.228523454050588
 20
105.7366894712709
 30
0.0
 10
-4.38931173750953
 20
106.3886536513545
 30
0.0
 10
-4.497600337069144
 20
106.6908491441749
 30
0.0
 10
-4.86871306960873
 20
107.5572076936505
 30
0.0
 10
-5.174470704542471
 20
108.0802864070332
 30
0.0
 10
-6.175653756439572
 20
109.6155464031881
 30
0.0
 10
-6.944866120943174
 20
110.574415846495
 30
0.0
 10
-9.440910375372737
 20
113.5331749357627
 30
0.0
 10
-11.31784880604346
 20
115.5392920919597
 30
0.0
 10
-15.23140473085343
 20
119.6621535682887
 30
0.0
 10
-17.26463386361664
 20
121.7578000122577
 30
0.0
 10
-21.22545856515154
 20
125.8152916249115
 30
0.0
 10
-23.1538744093418
 20
127.7761919405492
 30
0.0
 10
-26.29251922234312
 20
130.9598369634345
 30
0.0
 10
-27.63867217288078
 20
132.3219869113187
 30
0.0
 10
-30.09620249677832
 20
134.8056399702633
 30
0.0
 10
-31.20732973704503
 20
135.9269209196544
 30
0.0
 10
-33.04491522053587
 20
137.780229244899
 30
0.0
 10
-33.77316365927004
 20
138.5140670052608
 30
0.0
 10
-34.75090536781733
 20
139.499152562916
 30
0.0
 10
-34.9999999999996
 20
139.7499999999996
 30
0.0
 10
-34.99999999999997
 20
139.7499999999999
 30
0.0
  0
LINE
  5
199
330
2
100
AcDbEntity
  8
GEB-KONTUR-A
 48
25.0
100
AcDbLine
 10
-41.22333333333336
 20
65.61499999999989
 30
0.0
 11
-37.6
 21
65.61499999999989
 31
0.0
  0
LINE
  5
19A
330
2
100
AcDbEntity
  8
GEB-KONTUR-A
 48
25.0
100
AcDbLine
 10
-41.22333333333336
 20
144.3850000000001
 30
0.0
 11
-37.6
 21
144.3850000000001
 31
0.0
  0
LINE
  5
19B
330
2
100
AcDbEntity
  8
GEB-KONTUR-A
 48
25.0
100
AcDbLine
 10
-37.6
 20
65.61499999999989
 30
0.0
 11
-37.6
 21
144.3850000000001
 31
0.0
  0
SPLINE
  5
19C
330
2
100
AcDbEntity
  8
GEB-KONTUR-A
 48
25.0
100
AcDbSpline
210
0.0
220
0.0
230
1.0
 70
     8
 71
     3
 72
    50
 73
    46
 74
     0
 42
0.0000000001
 43
0.0000000001
 40
6.859813268196115
 40
6.859813268196115
 40
6.859813268196115
 40
6.859813268196115
 40
7.624111995955456
 40
7.624111995955456
 40
8.388410723714798
 40
8.388410723714798
 40
9.152709451474139
 40
9.152709451474139
 40
9.91700817923348
 40
9.91700817923348
 40
10.86766276852316
 40
10.86766276852316
 40
11.81831735781285
 40
11.81831735781285
 40
12.2936446524577
 40
12.2936446524577
 40
12.76897194710254
 40
12.76897194710254
 40
13.24429924174739
 40
13.24429924174739
 40
13.48196288906981
 40
13.48196288906981
 40
13.71962653639223
 40
13.71962653639223
 40
13.95729018371465
 40
13.95729018371465
 40
14.19495383103708
 40
14.19495383103708
 40
14.67028112568192
 40
14.67028112568192
 40
15.14560842032676
 40
15.14560842032676
 40
15.62093571497161
 40
15.62093571497161
 40
16.57159030426129
 40
16.57159030426129
 40
17.52224489355098
 40
17.52224489355098
 40
18.28654362131032
 40
18.28654362131032
 40
19.05084234906966
 40
19.05084234906966
 40
19.81514107682901
 40
19.81514107682901
 40
20.57943980458835
 40
20.57943980458835
 40
20.57943980458835
 40
20.57943980458835
 10
-37.6
 20
142.0675
 30
0.0
 10
-37.6
 20
142.0675
 30
0.0
 10
-37.33704962731091
 20
141.800854469282
 30
0.0
 10
-36.30414538877642
 20
140.7524626733367
 30
0.0
 10
-35.53461905288077
 20
139.9711475082461
 30
0.0
 10
-33.59287493140718
 20
137.9962612223194
 30
0.0
 10
-32.41878143823442
 20
136.8007713077314
 30
0.0
 10
-29.82310323226622
 20
134.150114102867
 30
0.0
 10
-28.40180368452641
 20
132.6951723632491
 30
0.0
 10
-25.16326060318898
 20
129.3642312520027
 30
0.0
 10
-23.20985192706493
 20
127.3456385763739
 30
0.0
 10
-19.19600302034666
 20
123.1415786510537
 30
0.0
 10
-17.13424961313231
 20
120.9575967960119
 30
0.0
 10
-14.16121403237395
 20
117.6879959334857
 30
0.0
 10
-13.19649463061037
 20
116.605772979986
 30
0.0
 10
-11.34654908802065
 20
114.4493741335972
 30
0.0
 10
-10.4602503880435
 20
113.3761298570201
 30
0.0
 10
-8.819718157160878
 20
111.2072652245125
 30
0.0
 10
-8.068991458955338
 20
110.1298159829526
 30
0.0
 10
-7.141229228606079
 20
108.3878921687668
 30
0.0
 10
-6.866949459555428
 20
107.787897291039
 30
0.0
 10
-6.449966425081754
 20
106.4897742342402
 30
0.0
 10
-6.305588295313924
 20
105.7922121577413
 30
0.0
 10
-6.305588295313924
 20
104.2077878422586
 30
0.0
 10
-6.449966425081754
 20
103.5102257657597
 30
0.0
 10
-6.866949459555428
 20
102.2121027089609
 30
0.0
 10
-7.141229228606107
 20
101.6121078312332
 30
0.0
 10
-8.068991458955366
 20
99.87018401704734
 30
0.0
 10
-8.819718157160906
 20
98.79273477548736
 30
0.0
 10
-10.46025038804353
 20
96.62387014297985
 30
0.0
 10
-11.34654908802065
 20
95.55062586640259
 30
0.0
 10
-13.19649463061037
 20
93.394227020014
 30
0.0
 10
-14.161214032374
 20
92.3120040665143
 30
0.0
 10
-17.13424961313231
 20
89.04240320398811
 30
0.0
 10
-19.19600302034664
 20
86.85842134894631
 30
0.0
 10
-23.20985192706493
 20
82.65436142362602
 30
0.0
 10
-25.16326060318898
 20
80.6357687479973
 30
0.0
 10
-28.40180368452641
 20
77.30482763675093
 30
0.0
 10
-29.82310323226622
 20
75.84988589713294
 30
0.0
 10
-32.41878143823442
 20
73.19922869226854
 30
0.0
 10
-33.59287493140718
 20
72.00373877768061
 30
0.0
 10
-35.53461905288077
 20
70.02885249175392
 30
0.0
 10
-36.30414538877648
 20
69.24753732666329
 30
0.0
 10
-37.33704962731091
 20
68.19914553071794
 30
0.0
 10
-37.6
 20
67.9325
 30
0.0
 10
-37.6
 20
67.9325
 30
0.0
  0
TEXT
  5
19D
330
2
100
AcDbEntity
  8
GEB-TEXT
100
AcDbText
 10
-43.66470213733516
 20
-13.0
 30
0.0
 40
3.5
  1
Reinigungsstück PP-MD 90G d75
 72
     1
 11
-7.111666666666678
 21
-13.0
 31
0.0
100
AcDbText
  0
TEXT
  5
19F
330
2
100
AcDbEntity
  8
GEB-TEXT
100
AcDbText
 10
-25.86388358344704
 20
-7.5
 30
0.0
 40
3.5
  1
Geberit Silent PP
 72
     1
 11
-7.111666666666678
 21
-7.5
 31
0.0
100
AcDbText
  0
TEXT
  5
1A0
330
2
100
AcDbEntity
  8
GEB-ART-NR
100
AcDbText
 10
-31.28711146631228
 20
-19.34278125428022
 30
0.0
 40
3.5
  1
GEB-ART-NR 390.327
 72
     1
 11
-6.559110102055797
 21
-19.34278125428022
 31
0.0
100
AcDbText
  0
ENDSEC
  0
SECTION
  2
OBJECTS
  0
DICTIONARY
  5
9
330
0
100
AcDbDictionary
281
     1
  3
ACAD_2007HEADERVARS_RT
350
1CF
  3
ACAD_COLOR
350
44
  3
ACAD_GROUP
350
31
  3
ACAD_LAYOUT
350
16
  3
ACAD_MATERIAL
350
B
  3
ACAD_MLEADERSTYLE
350
47
  3
ACAD_MLINESTYLE
350
32
  3
ACAD_PLOTSETTINGS
350
33
  3
ACAD_PLOTSTYLENAME
350
8
  3
ACAD_SCALELIST
350
45
  3
ACAD_TABLESTYLE
350
46
  3
ACAD_VISUALSTYLE
350
2B
  3
ACDB_RECOMPOSE_DATA
350
1CE
  3
AcDbVariableDictionary
350
1A4
  0
DICTIONARY
  5
2C
330
28
100
AcDbDictionary
280
     1
281
     1
  0
DICTIONARY
  5
1C
330
1B
100
AcDbDictionary
280
     1
281
     1
  3
ACAD_LAYERFILTERS
360
1D
  3
ACLYDICTIONARY
360
1E
  0
DICTIONARY
  5
3
330
2
100
AcDbDictionary
280
     1
281
     1
  3
ACAD_SORTENTS
360
1A2
  0
DICTIONARY
  5
1CF
102
{ACAD_REACTORS
330
9
102
}
330
9
100
AcDbDictionary
281
     1
  3
DIMARCSYM
350
1D0
  3
DIMLTEX1
350
1D2
  3
DIMLTEX2
350
1D3
  3
DIMLTYPE
350
1D1
  0
DICTIONARY
  5
44
102
{ACAD_REACTORS
330
9
102
}
330
9
100
AcDbDictionary
281
     1
  0
DICTIONARY
  5
31
102
{ACAD_REACTORS
330
9
102
}
330
9
100
AcDbDictionary
281
     1
  0
DICTIONARY
  5
16
102
{ACAD_REACTORS
330
9
102
}
330
9
100
AcDbDictionary
281
     1
  3
Layout1
350
1A
  3
Model
350
15
  0
DICTIONARY
  5
B
102
{ACAD_REACTORS
330
9
102
}
330
9
100
AcDbDictionary
281
     1
  3
ByBlock
350
3C
  3
ByLayer
350
34
  3
Global
350
A
  0
DICTIONARY
  5
47
102
{ACAD_REACTORS
330
9
102
}
330
9
100
AcDbDictionary
281
     1
  3
Standard
350
1C2
  0
DICTIONARY
  5
32
102
{ACAD_REACTORS
330
9
102
}
330
9
100
AcDbDictionary
281
     1
  3
Standard
350
48
  0
DICTIONARY
  5
33
102
{ACAD_REACTORS
330
9
102
}
330
9
100
AcDbDictionary
281
     1
  0
ACDBDICTIONARYWDFLT
  5
8
102
{ACAD_REACTORS
330
9
102
}
330
9
100
AcDbDictionary
281
     1
  3
Normal
350
7
100
AcDbDictionaryWithDefault
340
7
  0
DICTIONARY
  5
45
102
{ACAD_REACTORS
330
9
102
}
330
9
100
AcDbDictionary
281
     1
  3
A0
350
4D
  3
A1
350
4E
  3
A2
350
4F
  3
A3
350
50
  3
A4
350
51
  3
A5
350
52
  3
A6
350
53
  3
A7
350
54
  3
A8
350
55
  3
A9
350
56
  3
B0
350
57
  3
B1
350
58
  3
B2
350
59
  3
B3
350
5A
  3
B4
350
5B
  3
B5
350
5C
  3
B6
350
5D
  3
B7
350
5E
  3
B8
350
5F
  3
B9
350
60
  3
C0
350
61
  3
C1
350
62
  3
C2
350
63
  3
C3
350
64
  3
C4
350
65
  3
C5
350
66
  3
C6
350
67
  3
C7
350
68
  3
C8
350
69
  3
C9
350
6A
  3
D0
350
6B
  3
D1
350
6C
  3
D2
350
6D
  0
DICTIONARY
  5
46
102
{ACAD_REACTORS
330
9
102
}
330
9
100
AcDbDictionary
281
     1
  3
Standard
350
49
  0
DICTIONARY
  5
2B
102
{ACAD_REACTORS
330
9
102
}
330
9
100
AcDbDictionary
281
     1
  3
2dWireframe
350
2A
  3
Basic
350
1B1
  3
Brighten
350
1B5
  3
ColorChange
350
1B9
  3
Conceptual
350
1B3
  3
Dim
350
1B4
  3
EdgeColorOff
350
1C1
  3
Facepattern
350
1B8
  3
Flat
350
1AD
  3
FlatWithEdges
350
1AE
  3
Gouraud
350
1AF
  3
GouraudWithEdges
350
1B0
  3
Hidden
350
1B2
  3
JitterOff
350
1BF
  3
Linepattern
350
1B7
  3
OverhangOff
350
1C0
  3
Realistic
350
4B
  3
Shaded
350
1BE
  3
Shaded with edges
350
1BD
  3
Shades of Gray
350
1BA
  3
Sketchy
350
1BB
  3
Thicken
350
1B6
  3
Wireframe
350
4C
  3
X-Ray
350
1BC
  0
XRECORD
  5
1CE
102
{ACAD_REACTORS
330
9
102
}
330
9
100
AcDbXrecord
280
     1
 90
        1
330
49
  0
DICTIONARY
  5
1A4
102
{ACAD_REACTORS
330
9
102
}
330
9
100
AcDbDictionary
281
     1
  3
CANNOSCALE
350
1A8
  3
CMLEADERSTYLE
350
1A6
  3
CTABLESTYLE
350
1A5
  3
DIMASSOC
350
1CB
  3
HIDETEXT
350
1CA
  3
INDEXCTL
350
1C9
  3
LAYEREVAL
350
1AA
  3
LAYERNOTIFY
350
1AB
  3
LIGHTINGUNITS
350
1A9
  3
MSLTSCALE
350
1A7
  3
SORTENTS
350
1C8
  3
XCLIPFRAME
350
1CC
  0
DICTIONARY
  5
1D
102
{ACAD_REACTORS
330
1C
102
}
330
1C
100
AcDbDictionary
281
     1
  0
DICTIONARY
  5
1E
102
{ACAD_REACTORS
330
1C
102
}
330
1C
100
AcDbDictionary
281
     1
1001
ACAD
1000
<All
  0
SORTENTSTABLE
  5
1A2
102
{ACAD_REACTORS
330
3
102
}
330
3
100
AcDbSortentsTable
330
2
331
132
  5
E4
331
F3
  5
123
331
7D
  5
196
331
BC
  5
15A
331
169
  5
AD
331
171
  5
A5
331
FB
  5
11B
331
85
  5
191
331
C4
  5
152
331
13A
  5
DC
331
179
  5
9D
331
103
  5
113
331
CC
  5
14A
331
8D
  5
189
331
142
  5
D4
331
181
  5
95
331
D4
  5
142
331
95
  5
181
331
14A
  5
CC
331
152
  5
C4
331
113
  5
103
331
9D
  5
179
331
DC
  5
13A
331
189
  5
8D
331
15A
  5
BC
331
11B
  5
FB
331
A5
  5
171
331
E4
  5
132
331
191
  5
85
331
199
  5
7A
331
123
  5
F3
331
EC
  5
12A
331
AD
  5
169
331
162
  5
B4
331
B5
  5
161
331
12B
  5
EB
331
6E
  5
19C
331
16A
  5
AC
331
F4
  5
122
331
BD
  5
159
331
7E
  5
195
331
133
  5
E3
331
172
  5
A4
331
13B
  5
DB
331
C5
  5
151
331
86
  5
190
331
FC
  5
11A
331
143
  5
D3
331
104
  5
112
331
8E
  5
188
331
CD
  5
149
331
17A
  5
9C
331
182
  5
94
331
10C
  5
10A
331
96
  5
180
331
D5
  5
141
331
14B
  5
CB
331
18A
  5
8C
331
114
  5
102
331
DD
  5
139
331
9E
  5
178
331
153
  5
C3
331
192
  5
84
331
15B
  5
BB
331
E5
  5
131
331
A6
  5
170
331
11C
  5
FA
331
163
  5
B3
331
124
  5
F2
331
AE
  5
168
331
ED
  5
129
331
19A
  5
79
331
B6
  5
160
331
12C
  5
EA
331
134
  5
E2
331
F5
  5
121
331
BE
  5
158
331
16B
  5
AB
331
173
  5
A3
331
FD
  5
119
331
C6
  5
150
331
87
  5
18F
331
13C
  5
DA
331
17B
  5
9B
331
105
  5
111
331
CE
  5
148
331
8F
  5
187
331
144
  5
D2
331
183
  5
93
331
14C
  5
CA
331
D6
  5
140
331
97
  5
17F
331
10D
  5
109
331
154
  5
C2
331
115
  5
101
331
9F
  5
177
331
DE
  5
138
331
18B
  5
8B
331
193
  5
82
331
11D
  5
F9
331
A7
  5
16F
331
E6
  5
130
331
15C
  5
BA
331
19B
  5
75
331
125
  5
F1
331
EE
  5
128
331
AF
  5
167
331
164
  5
B2
331
B7
  5
15F
331
12D
  5
E9
331
16C
  5
AA
331
135
  5
E1
331
BF
  5
157
331
F6
  5
120
331
174
  5
A2
331
13D
  5
D9
331
C7
  5
14F
331
88
  5
18E
331
FE
  5
118
331
145
  5
D1
331
106
  5
110
331
90
  5
186
331
CF
  5
147
331
17C
  5
9A
331
184
  5
92
331
10E
  5
108
331
D7
  5
13F
331
14D
  5
C9
331
98
  5
17E
331
18C
  5
8A
331
116
  5
100
331
DF
  5
137
331
A0
  5
176
331
155
  5
C1
331
194
  5
81
331
15D
  5
B9
331
E7
  5
12F
331
A8
  5
16E
331
11E
  5
F8
331
165
  5
B1
331
126
  5
F0
331
B0
  5
166
331
EF
  5
127
331
19C
  5
6E
331
12E
  5
E8
331
B8
  5
15E
331
79
  5
19A
331
136
  5
E0
331
F7
  5
11F
331
81
  5
194
331
C0
  5
156
331
16D
  5
A9
331
175
  5
A1
331
FF
  5
117
331
C8
  5
14E
331
89
  5
18D
331
13E
  5
D8
331
17D
  5
99
331
146
  5
D0
331
D0
  5
146
331
91
  5
185
331
107
  5
10F
331
185
  5
91
331
14E
  5
C8
331
10F
  5
107
331
D8
  5
13E
331
99
  5
17D
331
156
  5
C0
331
117
  5
FF
331
A1
  5
175
331
E0
  5
136
331
18D
  5
89
331
195
  5
7E
331
11F
  5
F7
331
E8
  5
12E
331
A9
  5
16D
331
15E
  5
B8
331
19D
  5
1A0
331
127
  5
EF
331
B1
  5
165
331
166
  5
B0
331
12F
  5
E7
331
F0
  5
126
331
B9
  5
15D
331
7A
  5
199
331
16E
  5
A8
331
137
  5
DF
331
C1
  5
155
331
82
  5
193
331
F8
  5
11E
331
13F
  5
D7
331
C9
  5
14D
331
8A
  5
18C
331
100
  5
116
331
176
  5
A0
331
147
  5
CF
331
108
  5
10E
331
92
  5
184
331
D1
  5
145
331
17E
  5
98
331
186
  5
90
331
14F
  5
C7
331
110
  5
106
331
D9
  5
13D
331
9A
  5
17C
331
18E
  5
88
331
157
  5
BF
331
E1
  5
135
331
A2
  5
174
331
118
  5
FE
331
196
  5
7D
331
15F
  5
B7
331
E9
  5
12D
331
AA
  5
16C
331
120
  5
F6
331
167
  5
AF
331
B2
  5
164
331
128
  5
EE
331
130
  5
E6
331
F1
  5
125
331
7B
  5
198
331
BA
  5
15C
331
138
  5
DE
331
F9
  5
11D
331
C2
  5
154
331
16F
  5
A7
331
177
  5
9F
331
101
  5
115
331
CA
  5
14C
331
8B
  5
18B
331
140
  5
D6
331
17F
  5
97
331
148
  5
CE
331
D2
  5
144
331
93
  5
183
331
109
  5
10D
331
187
  5
8F
331
150
  5
C6
331
DA
  5
13C
331
9B
  5
17B
331
111
  5
105
331
158
  5
BE
331
119
  5
FD
331
A3
  5
173
331
E2
  5
134
331
18F
  5
87
331
197
  5
7C
331
121
  5
F5
331
EA
  5
12C
331
AB
  5
16B
331
160
  5
B6
331
B3
  5
163
331
129
  5
ED
331
168
  5
AE
331
F2
  5
124
331
BB
  5
15B
331
7C
  5
197
331
131
  5
E5
331
170
  5
A6
331
139
  5
DD
331
C3
  5
153
331
84
  5
192
331
FA
  5
11C
331
141
  5
D5
331
102
  5
114
331
8C
  5
18A
331
CB
  5
14B
331
178
  5
9E
331
149
  5
CD
331
10A
  5
10C
331
94
  5
182
331
D3
  5
143
331
180
  5
96
331
188
  5
8E
331
112
  5
104
331
DB
  5
13B
331
9C
  5
17A
331
151
  5
C5
331
190
  5
86
331
159
  5
BD
331
E3
  5
133
331
A4
  5
172
331
11A
  5
FC
331
161
  5
B5
331
EB
  5
12B
331
AC
  5
16A
331
122
  5
F4
331
198
  5
7B
331
B4
  5
162
331
12A
  5
EC
331
1A0
  5
19D
331
75
  5
19B
  0
XRECORD
  5
1D0
102
{ACAD_REACTORS
330
1CF
102
}
330
1CF
100
AcDbXrecord
280
     1
 70
     1
  0
XRECORD
  5
1D2
102
{ACAD_REACTORS
330
1CF
102
}
330
1CF
100
AcDbXrecord
280
     1
340
24
  0
XRECORD
  5
1D3
102
{ACAD_REACTORS
330
1CF
102
}
330
1CF
100
AcDbXrecord
280
     1
340
24
  0
XRECORD
  5
1D1
102
{ACAD_REACTORS
330
1CF
102
}
330
1CF
100
AcDbXrecord
280
     1
340
24
  0
LAYOUT
  5
1A
102
{ACAD_XDICTIONARY
360
1D7
102
}
102
{ACAD_REACTORS
330
16
102
}
330
16
100
AcDbPlotSettings
  1

  2
\\le-server\HP LaserJet 2100
  4

  6

 40
0.0
 41
0.0
 42
0.0
 43
0.0
 44
0.0
 45
0.0
 46
0.0
 47
0.0
 48
0.0
 49
0.0
140
0.0
141
0.0
142
1.0
143
1.0
 70
   688
 72
     0
 73
     0
 74
     5
  7

 75
    16
147
1.0
148
0.0
149
0.0
100
AcDbLayout
  1
Layout1
 70
     1
 71
     1
 10
0.0
 20
0.0
 11
1189.0
 21
840.9999999999998
 12
0.0
 22
0.0
 32
0.0
 14
0.0
 24
0.0
 34
0.0
 15
1189.0
 25
840.9999999999998
 35
0.0
146
0.0
 13
0.0
 23
0.0
 33
0.0
 16
1.0
 26
0.0
 36
0.0
 17
0.0
 27
1.0
 37
0.0
 76
     0
330
17
  0
LAYOUT
  5
15
102
{ACAD_XDICTIONARY
360
1D5
102
}
102
{ACAD_REACTORS
330
16
102
}
330
16
100
AcDbPlotSettings
  1

  2
\\le-server\HP LaserJet 2100
  4

  6

 40
0.0
 41
0.0
 42
0.0
 43
0.0
 44
0.0
 45
0.0
 46
0.0
 47
0.0
 48
0.0
 49
0.0
140
0.0
141
0.0
142
1.0
143
1.0
 70
  1712
 72
     0
 73
     0
 74
     0
  7

 75
     0
147
1.0
148
0.0
149
0.0
100
AcDbLayout
  1
Model
 70
     1
 71
     0
 10
0.0
 20
0.0
 11
12.0
 21
9.0
 12
0.0
 22
0.0
 32
0.0
 14
0.0
 24
0.0
 34
0.0
 15
0.0
 25
0.0
 35
0.0
146
0.0
 13
0.0
 23
0.0
 33
0.0
 16
1.0
 26
0.0
 36
0.0
 17
0.0
 27
1.0
 37
0.0
 76
     0
330
2
331
29
  0
MATERIAL
  5
3C
102
{ACAD_XDICTIONARY
360
3D
102
}
102
{ACAD_REACTORS
330
B
102
}
330
B
100
AcDbMaterial
  1
ByBlock
 72
     0
 43
0.0208333333333333
 43
0.0
 43
0.0
 43
0.0
 43
0.0
 43
0.0208333333333333
 43
0.0
 43
0.0
 43
0.0
 43
0.0
 43
1.0
 43
0.0
 43
0.0
 43
0.0
 43
0.0
 43
1.0
 77
     0
 47
0.0208333333333333
 47
0.0
 47
0.0
 47
0.0
 47
0.0
 47
0.0208333333333333
 47
0.0
 47
0.0
 47
0.0
 47
0.0
 47
1.0
 47
0.0
 47
0.0
 47
0.0
 47
0.0
 47
1.0
171
     0
 49
0.0208333333333333
 49
0.0
 49
0.0
 49
0.0
 49
0.0
 49
0.0208333333333333
 49
0.0
 49
0.0
 49
0.0
 49
0.0
 49
1.0
 49
0.0
 49
0.0
 49
0.0
 49
0.0
 49
1.0
175
     0
142
0.0208333333333333
142
0.0
142
0.0
142
0.0
142
0.0
142
0.0208333333333333
142
0.0
142
0.0
142
0.0
142
0.0
142
1.0
142
0.0
142
0.0
142
0.0
142
0.0
142
1.0
179
     0
144
0.0208333333333333
144
0.0
144
0.0
144
0.0
144
0.0
144
0.0208333333333333
144
0.0
144
0.0
144
0.0
144
0.0
144
1.0
144
0.0
144
0.0
144
0.0
144
0.0
144
1.0
147
0.0208333333333333
147
0.0
147
0.0
147
0.0
147
0.0
147
0.0208333333333333
147
0.0
147
0.0
147
0.0
147
0.0
147
1.0
147
0.0
147
0.0
147
0.0
147
0.0
147
1.0
  0
MATERIAL
  5
34
102
{ACAD_XDICTIONARY
360
35
102
}
102
{ACAD_REACTORS
330
B
102
}
330
B
100
AcDbMaterial
  1
ByLayer
 72
     0
 43
0.0208333333333333
 43
0.0
 43
0.0
 43
0.0
 43
0.0
 43
0.0208333333333333
 43
0.0
 43
0.0
 43
0.0
 43
0.0
 43
1.0
 43
0.0
 43
0.0
 43
0.0
 43
0.0
 43
1.0
 77
     0
 47
0.0208333333333333
 47
0.0
 47
0.0
 47
0.0
 47
0.0
 47
0.0208333333333333
 47
0.0
 47
0.0
 47
0.0
 47
0.0
 47
1.0
 47
0.0
 47
0.0
 47
0.0
 47
0.0
 47
1.0
171
     0
 49
0.0208333333333333
 49
0.0
 49
0.0
 49
0.0
 49
0.0
 49
0.0208333333333333
 49
0.0
 49
0.0
 49
0.0
 49
0.0
 49
1.0
 49
0.0
 49
0.0
 49
0.0
 49
0.0
 49
1.0
175
     0
142
0.0208333333333333
142
0.0
142
0.0
142
0.0
142
0.0
142
0.0208333333333333
142
0.0
142
0.0
142
0.0
142
0.0
142
1.0
142
0.0
142
0.0
142
0.0
142
0.0
142
1.0
179
     0
144
0.0208333333333333
144
0.0
144
0.0
144
0.0
144
0.0
144
0.0208333333333333
144
0.0
144
0.0
144
0.0
144
0.0
144
1.0
144
0.0
144
0.0
144
0.0
144
0.0
144
1.0
147
0.0208333333333333
147
0.0
147
0.0
147
0.0
147
0.0
147
0.0208333333333333
147
0.0
147
0.0
147
0.0
147
0.0
147
1.0
147
0.0
147
0.0
147
0.0
147
0.0
147
1.0
  0
MATERIAL
  5
A
102
{ACAD_XDICTIONARY
360
C
102
}
102
{ACAD_REACTORS
330
B
102
}
330
B
100
AcDbMaterial
  1
Global
 72
     0
 43
0.0208333333333333
 43
0.0
 43
0.0
 43
0.0
 43
0.0
 43
0.0208333333333333
 43
0.0
 43
0.0
 43
0.0
 43
0.0
 43
1.0
 43
0.0
 43
0.0
 43
0.0
 43
0.0
 43
1.0
 77
     0
 47
0.0208333333333333
 47
0.0
 47
0.0
 47
0.0
 47
0.0
 47
0.0208333333333333
 47
0.0
 47
0.0
 47
0.0
 47
0.0
 47
1.0
 47
0.0
 47
0.0
 47
0.0
 47
0.0
 47
1.0
171
     0
 49
0.0208333333333333
 49
0.0
 49
0.0
 49
0.0
 49
0.0
 49
0.0208333333333333
 49
0.0
 49
0.0
 49
0.0
 49
0.0
 49
1.0
 49
0.0
 49
0.0
 49
0.0
 49
0.0
 49
1.0
175
     0
142
0.0208333333333333
142
0.0
142
0.0
142
0.0
142
0.0
142
0.0208333333333333
142
0.0
142
0.0
142
0.0
142
0.0
142
1.0
142
0.0
142
0.0
142
0.0
142
0.0
142
1.0
179
     0
144
0.0208333333333333
144
0.0
144
0.0
144
0.0
144
0.0
144
0.0208333333333333
144
0.0
144
0.0
144
0.0
144
0.0
144
1.0
144
0.0
144
0.0
144
0.0
144
0.0
144
1.0
147
0.0208333333333333
147
0.0
147
0.0
147
0.0
147
0.0
147
0.0208333333333333
147
0.0
147
0.0
147
0.0
147
0.0
147
1.0
147
0.0
147
0.0
147
0.0
147
0.0
147
1.0
  0
MLEADERSTYLE
  5
1C2
102
{ACAD_REACTORS
330
47
102
}
330
47
100
AcDbMLeaderStyle
170
     2
171
     1
172
     0
 90
        2
 40
0.0
 41
0.0
173
     1
 91
-1056964608
340
24
 92
       -2
290
     1
 42
2.0
291
     1
 43
0.36
  3
Standard
 44
4.0
300

342
21
174
     1
178
     6
175
     1
176
     0
 93
-1056964608
 45
4.0
292
     0
297
     0
 46
4.0
 94
-1056964608
 47
1.0
 49
1.0
140
1.0
293
     1
141
0.0
294
     1
177
     0
142
1.0
295
     0
296
     0
143
0.125
1001
ACAD_MLEADERVER
1070
     2
  0
MLINESTYLE
  5
48
102
{ACAD_REACTORS
330
32
102
}
330
32
100
AcDbMlineStyle
  2
STANDARD
 70
     0
  3

 62
   256
 51
90.0
 52
90.0
 71
     2
 49
0.5
 62
   256
  6
BYLAYER
 49
-0.5
 62
   256
  6
BYLAYER
  0
ACDBPLACEHOLDER
  5
7
102
{ACAD_REACTORS
330
8
102
}
330
8
  0
SCALE
  5
4D
102
{ACAD_REACTORS
330
45
102
}
330
45
100
AcDbScale
 70
     0
300
1:1
140
1.0
141
1.0
290
     1
  0
SCALE
  5
4E
102
{ACAD_REACTORS
330
45
102
}
330
45
100
AcDbScale
 70
     0
300
1:2
140
1.0
141
2.0
290
     0
  0
SCALE
  5
4F
102
{ACAD_REACTORS
330
45
102
}
330
45
100
AcDbScale
 70
     0
300
1:4
140
1.0
141
4.0
290
     0
  0
SCALE
  5
50
102
{ACAD_REACTORS
330
45
102
}
330
45
100
AcDbScale
 70
     0
300
1:5
140
1.0
141
5.0
290
     0
  0
SCALE
  5
51
102
{ACAD_REACTORS
330
45
102
}
330
45
100
AcDbScale
 70
     0
300
1:8
140
1.0
141
8.0
290
     0
  0
SCALE
  5
52
102
{ACAD_REACTORS
330
45
102
}
330
45
100
AcDbScale
 70
     0
300
1:10
140
1.0
141
10.0
290
     0
  0
SCALE
  5
53
102
{ACAD_REACTORS
330
45
102
}
330
45
100
AcDbScale
 70
     0
300
1:16
140
1.0
141
16.0
290
     0
  0
SCALE
  5
54
102
{ACAD_REACTORS
330
45
102
}
330
45
100
AcDbScale
 70
     0
300
1:20
140
1.0
141
20.0
290
     0
  0
SCALE
  5
55
102
{ACAD_REACTORS
330
45
102
}
330
45
100
AcDbScale
 70
     0
300
1:30
140
1.0
141
30.0
290
     0
  0
SCALE
  5
56
102
{ACAD_REACTORS
330
45
102
}
330
45
100
AcDbScale
 70
     0
300
1:40
140
1.0
141
40.0
290
     0
  0
SCALE
  5
57
102
{ACAD_REACTORS
330
45
102
}
330
45
100
AcDbScale
 70
     0
300
1:50
140
1.0
141
50.0
290
     0
  0
SCALE
  5
58
102
{ACAD_REACTORS
330
45
102
}
330
45
100
AcDbScale
 70
     0
300
1:100
140
1.0
141
100.0
290
     0
  0
SCALE
  5
59
102
{ACAD_REACTORS
330
45
102
}
330
45
100
AcDbScale
 70
     0
300
2:1
140
2.0
141
1.0
290
     0
  0
SCALE
  5
5A
102
{ACAD_REACTORS
330
45
102
}
330
45
100
AcDbScale
 70
     0
300
4:1
140
4.0
141
1.0
290
     0
  0
SCALE
  5
5B
102
{ACAD_REACTORS
330
45
102
}
330
45
100
AcDbScale
 70
     0
300
8:1
140
8.0
141
1.0
290
     0
  0
SCALE
  5
5C
102
{ACAD_REACTORS
330
45
102
}
330
45
100
AcDbScale
 70
     0
300
10:1
140
10.0
141
1.0
290
     0
  0
SCALE
  5
5D
102
{ACAD_REACTORS
330
45
102
}
330
45
100
AcDbScale
 70
     0
300
100:1
140
100.0
141
1.0
290
     0
  0
SCALE
  5
5E
102
{ACAD_REACTORS
330
45
102
}
330
45
100
AcDbScale
 70
     0
300
1/128" = 1'-0"
140
0.0078125
141
12.0
290
     0
  0
SCALE
  5
5F
102
{ACAD_REACTORS
330
45
102
}
330
45
100
AcDbScale
 70
     0
300
1/64" = 1'-0"
140
0.015625
141
12.0
290
     0
  0
SCALE
  5
60
102
{ACAD_REACTORS
330
45
102
}
330
45
100
AcDbScale
 70
     0
300
1/32" = 1'-0"
140
0.03125
141
12.0
290
     0
  0
SCALE
  5
61
102
{ACAD_REACTORS
330
45
102
}
330
45
100
AcDbScale
 70
     0
300
1/16" = 1'-0"
140
0.0625
141
12.0
290
     0
  0
SCALE
  5
62
102
{ACAD_REACTORS
330
45
102
}
330
45
100
AcDbScale
 70
     0
300
3/32" = 1'-0"
140
0.09375
141
12.0
290
     0
  0
SCALE
  5
63
102
{ACAD_REACTORS
330
45
102
}
330
45
100
AcDbScale
 70
     0
300
1/8" = 1'-0"
140
0.125
141
12.0
290
     0
  0
SCALE
  5
64
102
{ACAD_REACTORS
330
45
102
}
330
45
100
AcDbScale
 70
     0
300
3/16" = 1'-0"
140
0.1875
141
12.0
290
     0
  0
SCALE
  5
65
102
{ACAD_REACTORS
330
45
102
}
330
45
100
AcDbScale
 70
     0
300
1/4" = 1'-0"
140
0.25
141
12.0
290
     0
  0
SCALE
  5
66
102
{ACAD_REACTORS
330
45
102
}
330
45
100
AcDbScale
 70
     0
300
3/8" = 1'-0"
140
0.375
141
12.0
290
     0
  0
SCALE
  5
67
102
{ACAD_REACTORS
330
45
102
}
330
45
100
AcDbScale
 70
     0
300
1/2" = 1'-0"
140
0.5
141
12.0
290
     0
  0
SCALE
  5
68
102
{ACAD_REACTORS
330
45
102
}
330
45
100
AcDbScale
 70
     0
300
3/4" = 1'-0"
140
0.75
141
12.0
290
     0
  0
SCALE
  5
69
102
{ACAD_REACTORS
330
45
102
}
330
45
100
AcDbScale
 70
     0
300
1" = 1'-0"
140
1.0
141
12.0
290
     0
  0
SCALE
  5
6A
102
{ACAD_REACTORS
330
45
102
}
330
45
100
AcDbScale
 70
     0
300
1-1/2" = 1'-0"
140
1.5
141
12.0
290
     0
  0
SCALE
  5
6B
102
{ACAD_REACTORS
330
45
102
}
330
45
100
AcDbScale
 70
     0
300
3" = 1'-0"
140
3.0
141
12.0
290
     0
  0
SCALE
  5
6C
102
{ACAD_REACTORS
330
45
102
}
330
45
100
AcDbScale
 70
     0
300
6" = 1'-0"
140
6.0
141
12.0
290
     0
  0
SCALE
  5
6D
102
{ACAD_REACTORS
330
45
102
}
330
45
100
AcDbScale
 70
     0
300
1'-0" = 1'-0"
140
12.0
141
12.0
290
     0
  0
TABLESTYLE
  5
49
102
{ACAD_XDICTIONARY
360
4A
102
}
102
{ACAD_REACTORS
330
46
102
}
330
46
100
AcDbTableStyle
  3
Standard
 70
     0
 71
     0
 40
0.06
 41
0.06
280
     0
281
     0
  7
STANDARD
140
0.18
170
     2
 62
     0
 63
     7
283
     0
274
    -2
284
     1
 64
     0
275
    -2
285
     1
 65
     0
276
    -2
286
     1
 66
     0
277
    -2
287
     1
 67
     0
278
    -2
288
     1
 68
     0
279
    -2
289
     1
 69
     0
  7
STANDARD
140
0.25
170
     5
 62
     0
 63
     7
283
     0
274
    -2
284
     1
 64
     0
275
    -2
285
     1
 65
     0
276
    -2
286
     1
 66
     0
277
    -2
287
     1
 67
     0
278
    -2
288
     1
 68
     0
279
    -2
289
     1
 69
     0
  7
STANDARD
140
0.18
170
     5
 62
     0
 63
     7
283
     0
274
    -2
284
     1
 64
     0
275
    -2
285
     1
 65
     0
276
    -2
286
     1
 66
     0
277
    -2
287
     1
 67
     0
278
    -2
288
     1
 68
     0
279
    -2
289
     1
 69
     0
  0
VISUALSTYLE
  5
2A
102
{ACAD_XDICTIONARY
360
1D9
102
}
102
{ACAD_REACTORS
330
2B
102
}
330
2B
100
AcDbVisualStyle
  2
2dWireframe
 70
     4
 71
     0
 72
     2
 73
     0
 90
        0
 40
-0.6
 41
-30.0
 62
     5
 63
     7
 74
     1
 91
        4
 64
     7
 65
   257
 75
     1
175
     1
 42
1.0
 92
        0
 66
   257
 43
1.0
 76
     1
 77
     6
 78
     2
 67
     7
 79
     5
170
     0
171
     0
290
     0
174
     0
 93
        1
 44
0.0
173
     0
291
     0
 45
0.0
1001
ACAD
1000
AcDbSavedByObjectVersion
1070
     0
  0
VISUALSTYLE
  5
1B1
102
{ACAD_XDICTIONARY
360
1EA
102
}
102
{ACAD_REACTORS
330
2B
102
}
330
2B
100
AcDbVisualStyle
  2
Basic
 70
     7
 71
     1
 72
     0
 73
     1
 90
        0
 40
-0.6
 41
-30.0
 62
     5
 63
     7
 74
     0
 91
        4
 64
     7
 65
   257
 75
     1
175
     1
 42
1.0
 92
        8
 66
     7
 43
1.0
 76
     1
 77
     6
 78
     2
 67
     7
 79
     5
170
     0
171
     0
290
     0
174
     0
 93
        1
 44
0.0
173
     0
291
     1
 45
0.0
1001
ACAD
1000
AcDbSavedByObjectVersion
1070
     0
  0
VISUALSTYLE
  5
1B5
102
{ACAD_XDICTIONARY
360
1F2
102
}
102
{ACAD_REACTORS
330
2B
102
}
330
2B
100
AcDbVisualStyle
  2
Brighten
 70
    12
 71
     2
 72
     2
 73
     0
 90
        0
 40
-0.6
 41
-30.0
 62
     5
 63
     7
 74
     1
 91
        4
 64
     7
 65
   257
 75
     1
175
     1
 42
1.0
 92
        8
 66
     7
 43
1.0
 76
     1
 77
     6
 78
     2
 67
     7
 79
     5
170
     0
171
     0
290
     0
174
     0
 93
        1
 44
50.0
173
     0
291
     1
 45
0.0
1001
ACAD
1000
AcDbSavedByObjectVersion
1070
     0
  0
VISUALSTYLE
  5
1B9
102
{ACAD_XDICTIONARY
360
1FA
102
}
102
{ACAD_REACTORS
330
2B
102
}
330
2B
100
AcDbVisualStyle
  2
ColorChange
 70
    16
 71
     2
 72
     2
 73
     3
 90
        0
 40
-0.6
 41
-30.0
 62
     5
 63
     8
 74
     1
 91
        4
 64
     7
 65
   257
 75
     1
175
     1
 42
1.0
 92
        8
 66
     8
 43
1.0
 76
     1
 77
     6
 78
     2
 67
     7
 79
     5
170
     0
171
     0
290
     0
174
     0
 93
        1
 44
0.0
173
     0
291
     1
 45
0.0
1001
ACAD
1000
AcDbSavedByObjectVersion
1070
     0
  0
VISUALSTYLE
  5
1B3
102
{ACAD_XDICTIONARY
360
1EE
102
}
102
{ACAD_REACTORS
330
2B
102
}
330
2B
100
AcDbVisualStyle
  2
Conceptual
 70
     9
 71
     3
 72
     2
 73
     0
 90
        0
 40
-0.6
 41
-30.0
 62
     5
 63
     7
 74
     2
 91
        2
 64
     7
 65
   257
 75
     1
175
     1
 42
179.0
 92
        8
 66
     7
 43
1.0
 76
     1
 77
     6
 78
     2
 67
     7
 79
     3
170
     0
171
     0
290
     0
174
     0
 93
        1
 44
0.0
173
     0
291
     0
 45
0.0
1001
ACAD
1000
AcDbSavedByObjectVersion
1070
     0
  0
VISUALSTYLE
  5
1B4
102
{ACAD_XDICTIONARY
360
1F0
102
}
102
{ACAD_REACTORS
330
2B
102
}
330
2B
100
AcDbVisualStyle
  2
Dim
 70
    11
 71
     2
 72
     2
 73
     0
 90
        0
 40
-0.6
 41
-30.0
 62
     5
 63
     7
 74
     1
 91
        4
 64
     7
 65
   257
 75
     1
175
     1
 42
1.0
 92
        8
 66
     7
 43
1.0
 76
     1
 77
     6
 78
     2
 67
     7
 79
     5
170
     0
171
     0
290
     0
174
     0
 93
        1
 44
-50.0
173
     0
291
     1
 45
0.0
1001
ACAD
1000
AcDbSavedByObjectVersion
1070
     0
  0
VISUALSTYLE
  5
1C1
102
{ACAD_XDICTIONARY
360
20A
102
}
102
{ACAD_REACTORS
330
2B
102
}
330
2B
100
AcDbVisualStyle
  2
EdgeColorOff
 70
    22
 71
     2
 72
     2
 73
     0
 90
        0
 40
-0.6
 41
-30.0
 62
     5
 63
     7
 74
     1
 91
        4
 64
     7
 65
   257
 75
     1
175
     1
 42
1.0
 92
        8
 66
     7
 43
1.0
 76
     1
 77
     6
 78
     2
 67
     7
 79
     5
170
     0
171
     0
290
     0
174
     0
 93
        1
 44
0.0
173
     0
291
     1
 45
0.0
1001
ACAD
1000
AcDbSavedByObjectVersion
1070
     0
  0
VISUALSTYLE
  5
1B8
102
{ACAD_XDICTIONARY
360
1F8
102
}
102
{ACAD_REACTORS
330
2B
102
}
330
2B
100
AcDbVisualStyle
  2
Facepattern
 70
    15
 71
     2
 72
     2
 73
     0
 90
        0
 40
-0.6
 41
-30.0
 62
     5
 63
     7
 74
     1
 91
        4
 64
     7
 65
   257
 75
     1
175
     1
 42
1.0
 92
        8
 66
     7
 43
1.0
 76
     1
 77
     6
 78
     2
 67
     7
 79
     5
170
     0
171
     0
290
     0
174
     0
 93
        1
 44
0.0
173
     0
291
     1
 45
0.0
1001
ACAD
1000
AcDbSavedByObjectVersion
1070
     0
  0
VISUALSTYLE
  5
1AD
102
{ACAD_XDICTIONARY
360
1E2
102
}
102
{ACAD_REACTORS
330
2B
102
}
330
2B
100
AcDbVisualStyle
  2
Flat
 70
     0
 71
     2
 72
     1
 73
     1
 90
        2
 40
-0.6
 41
30.0
 62
     5
 63
     7
 74
     0
 91
        0
 64
     7
 65
   257
 75
     1
175
     1
 42
1.0
 92
        8
 66
     7
 43
1.0
 76
     1
 77
     6
 78
     2
 67
     7
 79
     5
170
     0
171
     0
290
     0
174
     0
 93
       13
 44
0.0
173
     0
291
     1
 45
0.0
1001
ACAD
1000
AcDbSavedByObjectVersion
1070
     0
  0
VISUALSTYLE
  5
1AE
102
{ACAD_XDICTIONARY
360
1E4
102
}
102
{ACAD_REACTORS
330
2B
102
}
330
2B
100
AcDbVisualStyle
  2
FlatWithEdges
 70
     1
 71
     2
 72
     1
 73
     1
 90
        2
 40
-0.6
 41
30.0
 62
     5
 63
     7
 74
     1
 91
        0
 64
     7
 65
   257
 75
     1
175
     1
 42
1.0
 92
        0
 66
   257
 43
1.0
 76
     1
 77
     6
 78
     2
 67
     7
 79
     5
170
     0
171
     0
290
     0
174
     0
 93
       13
 44
0.0
173
     0
291
     1
 45
0.0
1001
ACAD
1000
AcDbSavedByObjectVersion
1070
     0
  0
VISUALSTYLE
  5
1AF
102
{ACAD_XDICTIONARY
360
1E6
102
}
102
{ACAD_REACTORS
330
2B
102
}
330
2B
100
AcDbVisualStyle
  2
Gouraud
 70
     2
 71
     2
 72
     2
 73
     1
 90
        2
 40
-0.6
 41
30.0
 62
     5
 63
     7
 74
     0
 91
        0
 64
     7
 65
   257
 75
     1
175
     1
 42
1.0
 92
        0
 66
     7
 43
1.0
 76
     1
 77
     6
 78
     2
 67
     7
 79
     5
170
     0
171
     0
290
     0
174
     0
 93
       13
 44
0.0
173
     0
291
     1
 45
0.0
1001
ACAD
1000
AcDbSavedByObjectVersion
1070
     0
  0
VISUALSTYLE
  5
1B0
102
{ACAD_XDICTIONARY
360
1E8
102
}
102
{ACAD_REACTORS
330
2B
102
}
330
2B
100
AcDbVisualStyle
  2
GouraudWithEdges
 70
     3
 71
     2
 72
     2
 73
     1
 90
        2
 40
-0.6
 41
30.0
 62
     5
 63
     7
 74
     1
 91
        0
 64
     7
 65
   257
 75
     1
175
     1
 42
1.0
 92
        0
 66
   257
 43
1.0
 76
     1
 77
     6
 78
     2
 67
     7
 79
     5
170
     0
171
     0
290
     0
174
     0
 93
       13
 44
0.0
173
     0
291
     1
 45
0.0
1001
ACAD
1000
AcDbSavedByObjectVersion
1070
     0
  0
VISUALSTYLE
  5
1B2
102
{ACAD_XDICTIONARY
360
1EC
102
}
102
{ACAD_REACTORS
330
2B
102
}
330
2B
100
AcDbVisualStyle
  2
Hidden
 70
     6
 71
     1
 72
     2
 73
     2
 90
        0
 40
-0.6
 41
-30.0
 62
     5
 63
     7
 74
     2
 91
        2
 64
     7
 65
   257
 75
     2
175
     1
 42
40.0
 92
        0
 66
   257
 43
1.0
 76
     1
 77
     6
 78
     2
 67
     7
 79
     3
170
     0
171
     0
290
     0
174
     0
 93
        1
 44
0.0
173
     0
291
     0
 45
0.0
1001
ACAD
1000
AcDbSavedByObjectVersion
1070
     0
  0
VISUALSTYLE
  5
1BF
102
{ACAD_XDICTIONARY
360
206
102
}
102
{ACAD_REACTORS
330
2B
102
}
330
2B
100
AcDbVisualStyle
  2
JitterOff
 70
    20
 71
     2
 72
     2
 73
     0
 90
        0
 40
-0.6
 41
-30.0
 62
     5
 63
     7
 74
     1
 91
        4
 64
     7
 65
   257
 75
     1
175
     1
 42
1.0
 92
       10
 66
     7
 43
1.0
 76
     1
 77
     6
 78
     2
 67
     7
 79
     5
170
     0
171
     0
290
     0
174
     0
 93
        1
 44
0.0
173
     0
291
     1
 45
0.0
1001
ACAD
1000
AcDbSavedByObjectVersion
1070
     0
  0
VISUALSTYLE
  5
1B7
102
{ACAD_XDICTIONARY
360
1F6
102
}
102
{ACAD_REACTORS
330
2B
102
}
330
2B
100
AcDbVisualStyle
  2
Linepattern
 70
    14
 71
     2
 72
     2
 73
     0
 90
        0
 40
-0.6
 41
-30.0
 62
     5
 63
     7
 74
     1
 91
        4
 64
     7
 65
   257
 75
     7
175
     7
 42
1.0
 92
        8
 66
     7
 43
1.0
 76
     1
 77
     6
 78
     2
 67
     7
 79
     5
170
     0
171
     0
290
     0
174
     0
 93
        1
 44
0.0
173
     0
291
     1
 45
0.0
1001
ACAD
1000
AcDbSavedByObjectVersion
1070
     0
  0
VISUALSTYLE
  5
1C0
102
{ACAD_XDICTIONARY
360
208
102
}
102
{ACAD_REACTORS
330
2B
102
}
330
2B
100
AcDbVisualStyle
  2
OverhangOff
 70
    21
 71
     2
 72
     2
 73
     0
 90
        0
 40
-0.6
 41
-30.0
 62
     5
 63
     7
 74
     1
 91
        4
 64
     7
 65
   257
 75
     1
175
     1
 42
1.0
 92
        9
 66
     7
 43
1.0
 76
     1
 77
     6
 78
     2
 67
     7
 79
     5
170
     0
171
     0
290
     0
174
     0
 93
        1
 44
0.0
173
     0
291
     1
 45
0.0
1001
ACAD
1000
AcDbSavedByObjectVersion
1070
     0
  0
VISUALSTYLE
  5
4B
102
{ACAD_XDICTIONARY
360
1DE
102
}
102
{ACAD_REACTORS
330
2B
102
}
330
2B
100
AcDbVisualStyle
  2
Realistic
 70
     8
 71
     2
 72
     2
 73
     0
 90
        0
 40
-0.6
 41
-30.0
 62
     5
 63
     7
 74
     1
 91
        0
 64
     7
 65
   257
 75
     1
175
     1
 42
1.0
 92
        8
 66
     8
 43
1.0
 76
     1
 77
     6
 78
     2
 67
     7
 79
     5
170
     0
171
     0
290
     0
174
     0
 93
       13
 44
0.0
173
     0
291
     0
 45
0.0
1001
ACAD
1000
AcDbSavedByObjectVersion
1070
     0
  0
VISUALSTYLE
  5
1BE
102
{ACAD_XDICTIONARY
360
204
102
}
102
{ACAD_REACTORS
330
2B
102
}
330
2B
100
AcDbVisualStyle
  2
Shaded
 70
    27
 71
     2
 72
     2
 73
     1
 90
        2
 40
-0.6
 41
30.0
 62
     5
 63
     7
 74
     0
 91
        4
 64
     7
 65
   257
 75
     1
175
     1
 42
1.0
 92
        8
 66
   257
 43
1.0
 76
     1
 77
     6
 78
     2
 67
     8
 79
     3
170
     0
171
     0
290
     0
174
     0
 93
        5
 44
0.0
173
     0
291
     0
 45
0.0
1001
ACAD
1000
AcDbSavedByObjectVersion
1070
     0
  0
VISUALSTYLE
  5
1BD
102
{ACAD_XDICTIONARY
360
202
102
}
102
{ACAD_REACTORS
330
2B
102
}
330
2B
100
AcDbVisualStyle
  2
Shaded with edges
 70
    26
 71
     2
 72
     2
 73
     1
 90
        2
 40
-0.6
 41
30.0
 62
     5
 63
     7
 74
     1
 91
       10
 64
     7
 65
   257
 75
     2
175
     1
 42
1.0
 92
        8
 66
   257
 43
1.0
 76
     1
 77
     6
 78
     2
 67
     7
 79
     3
170
     0
171
     0
290
     0
174
     0
 93
        5
 44
0.0
173
     0
291
     0
 45
0.0
1001
ACAD
1000
AcDbSavedByObjectVersion
1070
     0
  0
VISUALSTYLE
  5
1BA
102
{ACAD_XDICTIONARY
360
1FC
102
}
102
{ACAD_REACTORS
330
2B
102
}
330
2B
100
AcDbVisualStyle
  2
Shades of Gray
 70
    23
 71
     2
 72
     2
 73
     3
 90
        0
 40
-0.6
 41
-30.0
 62
     5
 63
     7
 74
     2
 91
        2
 64
     7
 65
     7
 75
     1
175
     1
 42
40.0
 92
        8
 66
     7
 43
1.0
 76
     1
 77
     6
 78
     2
 67
     7
 79
     3
170
     0
171
     0
290
     0
174
     0
 93
        1
 44
0.0
173
     0
291
     0
 45
0.0
1001
ACAD
1000
AcDbSavedByObjectVersion
1070
     0
  0
VISUALSTYLE
  5
1BB
102
{ACAD_XDICTIONARY
360
1FE
102
}
102
{ACAD_REACTORS
330
2B
102
}
330
2B
100
AcDbVisualStyle
  2
Sketchy
 70
    24
 71
     1
 72
     2
 73
     2
 90
        0
 40
-0.6
 41
-30.0
 62
     5
 63
     7
 74
     2
 91
        2
 64
     7
 65
     7
 75
     1
175
     1
 42
40.0
 92
       11
 66
     7
 43
1.0
 76
     1
 77
     6
 78
     2
 67
     7
 79
     6
170
     0
171
     0
290
     0
174
     0
 93
        1
 44
0.0
173
     0
291
     0
 45
0.0
1001
ACAD
1000
AcDbSavedByObjectVersion
1070
     0
  0
VISUALSTYLE
  5
1B6
102
{ACAD_XDICTIONARY
360
1F4
102
}
102
{ACAD_REACTORS
330
2B
102
}
330
2B
100
AcDbVisualStyle
  2
Thicken
 70
    13
 71
     2
 72
     2
 73
     0
 90
        0
 40
-0.6
 41
-30.0
 62
     5
 63
     7
 74
     1
 91
        4
 64
     7
 65
   257
 75
     1
175
     1
 42
1.0
 92
       12
 66
     7
 43
1.0
 76
     1
 77
     6
 78
     2
 67
     7
 79
     5
170
     0
171
     0
290
     0
174
     0
 93
        1
 44
0.0
173
     0
291
     1
 45
0.0
1001
ACAD
1000
AcDbSavedByObjectVersion
1070
     0
  0
VISUALSTYLE
  5
4C
102
{ACAD_XDICTIONARY
360
1E0
102
}
102
{ACAD_REACTORS
330
2B
102
}
330
2B
100
AcDbVisualStyle
  2
Wireframe
 70
     5
 71
     0
 72
     2
 73
     0
 90
        0
 40
-0.6
 41
-30.0
 62
     5
 63
     7
 74
     1
 91
        4
 64
     7
 65
   257
 75
     1
175
     1
 42
1.0
 92
        0
 66
   257
 43
1.0
 76
     1
 77
     6
 78
     2
 67
     7
 79
     3
170
     0
171
     0
290
     0
174
     0
 93
        1
 44
0.0
173
     0
291
     0
 45
0.0
1001
ACAD
1000
AcDbSavedByObjectVersion
1070
     0
  0
VISUALSTYLE
  5
1BC
102
{ACAD_XDICTIONARY
360
200
102
}
102
{ACAD_REACTORS
330
2B
102
}
330
2B
100
AcDbVisualStyle
  2
X-Ray
 70
    25
 71
     2
 72
     2
 73
     1
 90
        1
 40
0.5
 41
-30.0
 62
     5
 63
     7
 74
     1
 91
        0
 64
     7
 65
   257
 75
     1
175
     1
 42
1.0
 92
        8
 66
     7
 43
1.0
 76
     1
 77
     6
 78
     2
 67
     7
 79
     3
170
     0
171
     0
290
     0
174
     0
 93
       13
 44
0.0
173
     0
291
     0
 45
0.0
1001
ACAD
1000
AcDbSavedByObjectVersion
1070
     0
  0
DICTIONARYVAR
  5
1A8
102
{ACAD_REACTORS
330
1A4
102
}
330
1A4
100
DictionaryVariables
280
     0
  1
1:1
  0
DICTIONARYVAR
  5
1A6
102
{ACAD_REACTORS
330
1A4
102
}
330
1A4
100
DictionaryVariables
280
     0
  1
STANDARD
  0
DICTIONARYVAR
  5
1A5
102
{ACAD_REACTORS
330
1A4
102
}
330
1A4
100
DictionaryVariables
280
     0
  1
STANDARD
  0
DICTIONARYVAR
  5
1CB
102
{ACAD_REACTORS
330
1A4
102
}
330
1A4
100
DictionaryVariables
280
     0
  1
1
  0
DICTIONARYVAR
  5
1CA
102
{ACAD_REACTORS
330
1A4
102
}
330
1A4
100
DictionaryVariables
280
     0
  1
1
  0
DICTIONARYVAR
  5
1C9
102
{ACAD_REACTORS
330
1A4
102
}
330
1A4
100
DictionaryVariables
280
     0
  1
0
  0
DICTIONARYVAR
  5
1AA
102
{ACAD_REACTORS
330
1A4
102
}
330
1A4
100
DictionaryVariables
280
     0
  1
1
  0
DICTIONARYVAR
  5
1AB
102
{ACAD_REACTORS
330
1A4
102
}
330
1A4
100
DictionaryVariables
280
     0
  1
15
  0
DICTIONARYVAR
  5
1A9
102
{ACAD_REACTORS
330
1A4
102
}
330
1A4
100
DictionaryVariables
280
     0
  1
0
  0
DICTIONARYVAR
  5
1A7
102
{ACAD_REACTORS
330
1A4
102
}
330
1A4
100
DictionaryVariables
280
     0
  1
0
  0
DICTIONARYVAR
  5
1C8
102
{ACAD_REACTORS
330
1A4
102
}
330
1A4
100
DictionaryVariables
280
     0
  1
127
  0
DICTIONARYVAR
  5
1CC
102
{ACAD_REACTORS
330
1A4
102
}
330
1A4
100
DictionaryVariables
280
     0
  1
2
  0
DICTIONARY
  5
1D7
330
1A
100
AcDbDictionary
280
     1
281
     1
  3
ACAD_XREC_ROUNDTRIP
360
1D8
  0
DICTIONARY
  5
1D5
330
15
100
AcDbDictionary
280
     1
281
     1
  3
ACAD_XREC_ROUNDTRIP
360
1D6
  0
DICTIONARY
  5
3D
330
3C
100
AcDbDictionary
280
     1
281
     1
  3
ACAD_XREC_ROUNDTRIP
360
1DC
  3
BUMPTILE
360
3E
  3
DIFFUSETILE
360
3F
  3
OPACITYTILE
360
40
  3
REFLECTIONTILE
360
41
  3
REFRACTIONTILE
360
42
  3
SPECULARTILE
360
43
  0
DICTIONARY
  5
35
330
34
100
AcDbDictionary
280
     1
281
     1
  3
ACAD_XREC_ROUNDTRIP
360
1DB
  3
BUMPTILE
360
36
  3
DIFFUSETILE
360
37
  3
OPACITYTILE
360
38
  3
REFLECTIONTILE
360
39
  3
REFRACTIONTILE
360
3A
  3
SPECULARTILE
360
3B
  0
DICTIONARY
  5
C
330
A
100
AcDbDictionary
280
     1
281
     1
  3
ACAD_XREC_ROUNDTRIP
360
1D4
  3
BUMPTILE
360
D
  3
DIFFUSETILE
360
E
  3
OPACITYTILE
360
F
  3
REFLECTIONTILE
360
10
  3
REFRACTIONTILE
360
11
  3
SPECULARTILE
360
12
  0
DICTIONARY
  5
4A
330
49
100
AcDbDictionary
280
     1
281
     1
  3
ACAD_ROUNDTRIP_2008_TABLESTYLE_CELLSTYLEMAP
360
1CD
  3
ACAD_XREC_ROUNDTRIP
360
1DD
  0
DICTIONARY
  5
1D9
330
2A
100
AcDbDictionary
280
     1
281
     1
  3
ACAD_XREC_ROUNDTRIP
360
1DA
  0
DICTIONARY
  5
1EA
330
1B1
100
AcDbDictionary
280
     1
281
     1
  3
ACAD_XREC_ROUNDTRIP
360
1EB
  0
DICTIONARY
  5
1F2
330
1B5
100
AcDbDictionary
280
     1
281
     1
  3
ACAD_XREC_ROUNDTRIP
360
1F3
  0
DICTIONARY
  5
1FA
330
1B9
100
AcDbDictionary
280
     1
281
     1
  3
ACAD_XREC_ROUNDTRIP
360
1FB
  0
DICTIONARY
  5
1EE
330
1B3
100
AcDbDictionary
280
     1
281
     1
  3
ACAD_XREC_ROUNDTRIP
360
1EF
  0
DICTIONARY
  5
1F0
330
1B4
100
AcDbDictionary
280
     1
281
     1
  3
ACAD_XREC_ROUNDTRIP
360
1F1
  0
DICTIONARY
  5
20A
330
1C1
100
AcDbDictionary
280
     1
281
     1
  3
ACAD_XREC_ROUNDTRIP
360
20B
  0
DICTIONARY
  5
1F8
330
1B8
100
AcDbDictionary
280
     1
281
     1
  3
ACAD_XREC_ROUNDTRIP
360
1F9
  0
DICTIONARY
  5
1E2
330
1AD
100
AcDbDictionary
280
     1
281
     1
  3
ACAD_XREC_ROUNDTRIP
360
1E3
  0
DICTIONARY
  5
1E4
330
1AE
100
AcDbDictionary
280
     1
281
     1
  3
ACAD_XREC_ROUNDTRIP
360
1E5
  0
DICTIONARY
  5
1E6
330
1AF
100
AcDbDictionary
280
     1
281
     1
  3
ACAD_XREC_ROUNDTRIP
360
1E7
  0
DICTIONARY
  5
1E8
330
1B0
100
AcDbDictionary
280
     1
281
     1
  3
ACAD_XREC_ROUNDTRIP
360
1E9
  0
DICTIONARY
  5
1EC
330
1B2
100
AcDbDictionary
280
     1
281
     1
  3
ACAD_XREC_ROUNDTRIP
360
1ED
  0
DICTIONARY
  5
206
330
1BF
100
AcDbDictionary
280
     1
281
     1
  3
ACAD_XREC_ROUNDTRIP
360
207
  0
DICTIONARY
  5
1F6
330
1B7
100
AcDbDictionary
280
     1
281
     1
  3
ACAD_XREC_ROUNDTRIP
360
1F7
  0
DICTIONARY
  5
208
330
1C0
100
AcDbDictionary
280
     1
281
     1
  3
ACAD_XREC_ROUNDTRIP
360
209
  0
DICTIONARY
  5
1DE
330
4B
100
AcDbDictionary
280
     1
281
     1
  3
ACAD_XREC_ROUNDTRIP
360
1DF
  0
DICTIONARY
  5
204
330
1BE
100
AcDbDictionary
280
     1
281
     1
  3
ACAD_XREC_ROUNDTRIP
360
205
  0
DICTIONARY
  5
202
330
1BD
100
AcDbDictionary
280
     1
281
     1
  3
ACAD_XREC_ROUNDTRIP
360
203
  0
DICTIONARY
  5
1FC
330
1BA
100
AcDbDictionary
280
     1
281
     1
  3
ACAD_XREC_ROUNDTRIP
360
1FD
  0
DICTIONARY
  5
1FE
330
1BB
100
AcDbDictionary
280
     1
281
     1
  3
ACAD_XREC_ROUNDTRIP
360
1FF
  0
DICTIONARY
  5
1F4
330
1B6
100
AcDbDictionary
280
     1
281
     1
  3
ACAD_XREC_ROUNDTRIP
360
1F5
  0
DICTIONARY
  5
1E0
330
4C
100
AcDbDictionary
280
     1
281
     1
  3
ACAD_XREC_ROUNDTRIP
360
1E1
  0
DICTIONARY
  5
200
330
1BC
100
AcDbDictionary
280
     1
281
     1
  3
ACAD_XREC_ROUNDTRIP
360
201
  0
XRECORD
  5
1D8
102
{ACAD_REACTORS
330
1D7
102
}
330
1D7
100
AcDbXrecord
280
     1
102
SHADEPLOT
 70
     0
102
SHADEPLOTRESLEVEL
 70
     2
102
SHADEPLOTCUSTOMDPI
 70
   300
  0
XRECORD
  5
1D6
102
{ACAD_REACTORS
330
1D5
102
}
330
1D5
100
AcDbXrecord
280
     1
102
SHADEPLOT
 70
     0
102
SHADEPLOTRESLEVEL
 70
     2
102
SHADEPLOTCUSTOMDPI
 70
   300
  0
XRECORD
  5
1DC
102
{ACAD_REACTORS
330
3D
102
}
330
3D
100
AcDbXrecord
280
     1
102
MATERIAL
148
0.0
149
0.0
149
0.0
 93
        0
 94
      127
282
     0
 72
     0
 77
     0
171
     0
175
     0
179
     0
273
     0
  0
XRECORD
  5
3E
102
{ACAD_REACTORS
330
3D
102
}
330
3D
100
AcDbXrecord
280
     1
270
     1
271
     1
  0
XRECORD
  5
3F
102
{ACAD_REACTORS
330
3D
102
}
330
3D
100
AcDbXrecord
280
     1
270
     1
271
     1
  0
XRECORD
  5
40
102
{ACAD_REACTORS
330
3D
102
}
330
3D
100
AcDbXrecord
280
     1
270
     1
271
     1
  0
XRECORD
  5
41
102
{ACAD_REACTORS
330
3D
102
}
330
3D
100
AcDbXrecord
280
     1
270
     1
271
     1
  0
XRECORD
  5
42
102
{ACAD_REACTORS
330
3D
102
}
330
3D
100
AcDbXrecord
280
     1
270
     1
271
     1
  0
XRECORD
  5
43
102
{ACAD_REACTORS
330
3D
102
}
330
3D
100
AcDbXrecord
280
     1
270
     1
271
     1
  0
XRECORD
  5
1DB
102
{ACAD_REACTORS
330
35
102
}
330
35
100
AcDbXrecord
280
     1
102
MATERIAL
148
0.0
149
0.0
149
0.0
 93
        0
 94
      127
282
     0
 72
     0
 77
     0
171
     0
175
     0
179
     0
273
     0
  0
XRECORD
  5
36
102
{ACAD_REACTORS
330
35
102
}
330
35
100
AcDbXrecord
280
     1
270
     1
271
     1
  0
XRECORD
  5
37
102
{ACAD_REACTORS
330
35
102
}
330
35
100
AcDbXrecord
280
     1
270
     1
271
     1
  0
XRECORD
  5
38
102
{ACAD_REACTORS
330
35
102
}
330
35
100
AcDbXrecord
280
     1
270
     1
271
     1
  0
XRECORD
  5
39
102
{ACAD_REACTORS
330
35
102
}
330
35
100
AcDbXrecord
280
     1
270
     1
271
     1
  0
XRECORD
  5
3A
102
{ACAD_REACTORS
330
35
102
}
330
35
100
AcDbXrecord
280
     1
270
     1
271
     1
  0
XRECORD
  5
3B
102
{ACAD_REACTORS
330
35
102
}
330
35
100
AcDbXrecord
280
     1
270
     1
271
     1
  0
XRECORD
  5
1D4
102
{ACAD_REACTORS
330
C
102
}
330
C
100
AcDbXrecord
280
     1
102
MATERIAL
148
0.0
149
0.0
149
0.0
 93
        0
 94
      127
282
     0
 72
     0
 77
     0
171
     0
175
     0
179
     0
273
     0
  0
XRECORD
  5
D
102
{ACAD_REACTORS
330
C
102
}
330
C
100
AcDbXrecord
280
     1
270
     1
271
     1
  0
XRECORD
  5
E
102
{ACAD_REACTORS
330
C
102
}
330
C
100
AcDbXrecord
280
     1
270
     1
271
     1
  0
XRECORD
  5
F
102
{ACAD_REACTORS
330
C
102
}
330
C
100
AcDbXrecord
280
     1
270
     1
271
     1
  0
XRECORD
  5
10
102
{ACAD_REACTORS
330
C
102
}
330
C
100
AcDbXrecord
280
     1
270
     1
271
     1
  0
XRECORD
  5
11
102
{ACAD_REACTORS
330
C
102
}
330
C
100
AcDbXrecord
280
     1
270
     1
271
     1
  0
XRECORD
  5
12
102
{ACAD_REACTORS
330
C
102
}
330
C
100
AcDbXrecord
280
     1
270
     1
271
     1
  0
CELLSTYLEMAP
  5
1CD
102
{ACAD_REACTORS
330
4A
102
}
330
4A
100
AcDbCellStyleMap
 90
        3
300
CELLSTYLE
  1
TABLEFORMAT_BEGIN
 90
        5
170
     1
 91
        0
 92
    32768
 62
   257
 93
        1
300
CONTENTFORMAT
  1
CONTENTFORMAT_BEGIN
 90
        0
 91
        0
 92
      512
 93
        0
300

 40
0.0
140
1.0
 94
        5
 62
     0
340
21
144
0.25
309
CONTENTFORMAT_END
171
     0
 94
        0
309
TABLEFORMAT_END
  1
CELLSTYLE_BEGIN
 90
        1
 91
        1
300
_TITLE
309
CELLSTYLE_END
300
CELLSTYLE
  1
TABLEFORMAT_BEGIN
 90
        5
170
     1
 91
        0
 92
        0
 62
   257
 93
        1
300
CONTENTFORMAT
  1
CONTENTFORMAT_BEGIN
 90
        0
 91
        0
 92
      512
 93
        0
300

 40
0.0
140
1.0
 94
        5
 62
     0
340
21
144
0.18
309
CONTENTFORMAT_END
171
     0
 94
        0
309
TABLEFORMAT_END
  1
CELLSTYLE_BEGIN
 90
        2
 91
        1
300
_HEADER
309
CELLSTYLE_END
300
CELLSTYLE
  1
TABLEFORMAT_BEGIN
 90
        5
170
     1
 91
        0
 92
        0
 62
   257
 93
        1
300
CONTENTFORMAT
  1
CONTENTFORMAT_BEGIN
 90
        0
 91
        0
 92
      512
 93
        0
300

 40
0.0
140
1.0
 94
        2
 62
     0
340
21
144
0.18
309
CONTENTFORMAT_END
171
     0
 94
        0
309
TABLEFORMAT_END
  1
CELLSTYLE_BEGIN
 90
        3
 91
        2
300
_DATA
309
CELLSTYLE_END
  0
XRECORD
  5
1DD
102
{ACAD_REACTORS
330
4A
102
}
330
4A
100
AcDbXrecord
280
     1
102
ACAD_ROUNDTRIP_PRE2007_TABLESTYLE
 90
      512
 91
        0
  1

 92
      512
 93
        0
  2

 94
      512
 95
        0
  3

  0
XRECORD
  5
1DA
102
{ACAD_REACTORS
330
1D9
102
}
330
1D9
100
AcDbXrecord
280
     1
102
RTVSPropertyOp0
 70
     1
102
RTVSPropertyOp1
 70
     1
102
RTVSPropertyOp2
 70
     1
102
RTVSPropertyOp3
 70
     1
102
RTVSPropertyOp4
 70
     1
102
RTVSPropertyOp5
 70
     1
102
RTVSPropertyOp6
 70
     1
102
RTVSPropertyOp7
 70
     1
102
RTVSPropertyOp8
 70
     1
102
RTVSPropertyOp9
 70
     1
102
RTVSPropertyOp10
 70
     1
102
RTVSPropertyOp11
 70
     1
102
RTVSPropertyOp12
 70
     1
102
RTVSPropertyOp13
 70
     1
102
RTVSPropertyOp14
 70
     1
102
RTVSPropertyOp15
 70
     1
102
RTVSPropertyOp16
 70
     1
102
RTVSPropertyOp17
 70
     1
102
RTVSPropertyOp18
 70
     1
102
RTVSPropertyOp19
 70
     1
102
RTVSPropertyOp20
 70
     1
102
RTVSPropertyOp21
 70
     1
102
RTVSPropertyOp22
 70
     1
102
RTVSPropertyOp23
 70
     1
102
RTVSPropertyOp24
 70
     1
102
RTVSPropertyOp25
 70
     1
102
RTVSPropertyOp26
 70
     1
102
RTVSPropertyOp27
 70
     1
102
RTVSPropertyOp28
 70
     1
102
RTVSPropertyOp29
 70
     1
102
RTVSPropertyOp30
 70
     1
102
RTVSPropertyOp31
 70
     1
102
RTVSPropertyOp32
 70
     1
  0
XRECORD
  5
1EB
102
{ACAD_REACTORS
330
1EA
102
}
330
1EA
100
AcDbXrecord
280
     1
102
RTVSPropertyOp0
 70
     1
102
RTVSPropertyOp1
 70
     1
102
RTVSPropertyOp2
 70
     1
102
RTVSPropertyOp3
 70
     1
102
RTVSPropertyOp4
 70
     1
102
RTVSPropertyOp5
 70
     1
102
RTVSPropertyOp6
 70
     1
102
RTVSPropertyOp7
 70
     1
102
RTVSPropertyOp8
 70
     1
102
RTVSPropertyOp9
 70
     1
102
RTVSPropertyOp10
 70
     1
102
RTVSPropertyOp11
 70
     1
102
RTVSPropertyOp12
 70
     1
102
RTVSPropertyOp13
 70
     1
102
RTVSPropertyOp14
 70
     1
102
RTVSPropertyOp15
 70
     1
102
RTVSPropertyOp16
 70
     1
102
RTVSPropertyOp17
 70
     1
102
RTVSPropertyOp18
 70
     1
102
RTVSPropertyOp19
 70
     1
102
RTVSPropertyOp20
 70
     1
102
RTVSPropertyOp21
 70
     1
102
RTVSPropertyOp22
 70
     1
102
RTVSPropertyOp23
 70
     1
102
RTVSPropertyOp24
 70
     1
102
RTVSPropertyOp25
 70
     1
102
RTVSPropertyOp26
 70
     1
102
RTVSPropertyOp27
 70
     1
102
RTVSPropertyOp28
 70
     1
102
RTVSPropertyOp29
 70
     1
102
RTVSPropertyOp30
 70
     1
102
RTVSPropertyOp31
 70
     1
102
RTVSPropertyOp32
 70
     1
  0
XRECORD
  5
1F3
102
{ACAD_REACTORS
330
1F2
102
}
330
1F2
100
AcDbXrecord
280
     1
102
RTVSPropertyOp0
 70
     1
102
RTVSPropertyOp1
 70
     1
102
RTVSPropertyOp2
 70
     1
102
RTVSPropertyOp3
 70
     1
102
RTVSPropertyOp4
 70
     1
102
RTVSPropertyOp5
 70
     1
102
RTVSPropertyOp6
 70
     1
102
RTVSPropertyOp7
 70
     1
102
RTVSPropertyOp8
 70
     1
102
RTVSPropertyOp9
 70
     1
102
RTVSPropertyOp10
 70
     1
102
RTVSPropertyOp11
 70
     1
102
RTVSPropertyOp12
 70
     1
102
RTVSPropertyOp13
 70
     1
102
RTVSPropertyOp14
 70
     1
102
RTVSPropertyOp15
 70
     1
102
RTVSPropertyOp16
 70
     1
102
RTVSPropertyOp17
 70
     1
102
RTVSPropertyOp18
 70
     1
102
RTVSPropertyOp19
 70
     1
102
RTVSPropertyOp20
 70
     1
102
RTVSPropertyOp21
 70
     1
102
RTVSPropertyOp22
 70
     1
102
RTVSPropertyOp23
 70
     1
102
RTVSPropertyOp24
 70
     1
102
RTVSPropertyOp25
 70
     1
102
RTVSPropertyOp26
 70
     1
102
RTVSPropertyOp27
 70
     1
102
RTVSPropertyOp28
 70
     1
102
RTVSPropertyOp29
 70
     1
102
RTVSPropertyOp30
 70
     1
102
RTVSPropertyOp31
 70
     1
102
RTVSPropertyOp32
 70
     1
  0
XRECORD
  5
1FB
102
{ACAD_REACTORS
330
1FA
102
}
330
1FA
100
AcDbXrecord
280
     1
102
RTVSPropertyOp0
 70
     1
102
RTVSPropertyOp1
 70
     1
102
RTVSPropertyOp2
 70
     1
102
RTVSPropertyOp3
 70
     1
102
RTVSPropertyOp4
 70
     1
102
RTVSPropertyOp5
 70
     1
102
RTVSPropertyOp6
 70
     1
102
RTVSPropertyOp7
 70
     1
102
RTVSPropertyOp8
 70
     1
102
RTVSPropertyOp9
 70
     1
102
RTVSPropertyOp10
 70
     1
102
RTVSPropertyOp11
 70
     1
102
RTVSPropertyOp12
 70
     1
102
RTVSPropertyOp13
 70
     1
102
RTVSPropertyOp14
 70
     1
102
RTVSPropertyOp15
 70
     1
102
RTVSPropertyOp16
 70
     1
102
RTVSPropertyOp17
 70
     1
102
RTVSPropertyOp18
 70
     1
102
RTVSPropertyOp19
 70
     1
102
RTVSPropertyOp20
 70
     1
102
RTVSPropertyOp21
 70
     1
102
RTVSPropertyOp22
 70
     1
102
RTVSPropertyOp23
 70
     1
102
RTVSPropertyOp24
 70
     1
102
RTVSPropertyOp25
 70
     1
102
RTVSPropertyOp26
 70
     1
102
RTVSPropertyOp27
 70
     1
102
RTVSPropertyOp28
 70
     1
102
RTVSPropertyOp29
 70
     1
102
RTVSPropertyOp30
 70
     1
102
RTVSPropertyOp31
 70
     1
102
RTVSPropertyOp32
 70
     1
  0
XRECORD
  5
1EF
102
{ACAD_REACTORS
330
1EE
102
}
330
1EE
100
AcDbXrecord
280
     1
102
RTVSPropertyOp0
 70
     1
102
RTVSPropertyOp1
 70
     1
102
RTVSPropertyOp2
 70
     1
102
RTVSPropertyOp3
 70
     1
102
RTVSPropertyOp4
 70
     1
102
RTVSPropertyOp5
 70
     1
102
RTVSPropertyOp6
 70
     1
102
RTVSPropertyOp7
 70
     1
102
RTVSPropertyOp8
 70
     1
102
RTVSPropertyOp9
 70
     1
102
RTVSPropertyOp10
 70
     1
102
RTVSPropertyOp11
 70
     1
102
RTVSPropertyOp12
 70
     1
102
RTVSPropertyOp13
 70
     1
102
RTVSPropertyOp14
 70
     1
102
RTVSPropertyOp15
 70
     1
102
RTVSPropertyOp16
 70
     1
102
RTVSPropertyOp17
 70
     1
102
RTVSPropertyOp18
 70
     1
102
RTVSPropertyOp19
 70
     1
102
RTVSPropertyOp20
 70
     1
102
RTVSPropertyOp21
 70
     1
102
RTVSPropertyOp22
 70
     1
102
RTVSPropertyOp23
 70
     1
102
RTVSPropertyOp24
 70
     1
102
RTVSPropertyOp25
 70
     1
102
RTVSPropertyOp26
 70
     1
102
RTVSPropertyOp27
 70
     1
102
RTVSPropertyOp28
 70
     1
102
RTVSPropertyOp29
 70
     1
102
RTVSPropertyOp30
 70
     1
102
RTVSPropertyOp31
 70
     1
102
RTVSPropertyOp32
 70
     1
  0
XRECORD
  5
1F1
102
{ACAD_REACTORS
330
1F0
102
}
330
1F0
100
AcDbXrecord
280
     1
102
RTVSPropertyOp0
 70
     1
102
RTVSPropertyOp1
 70
     1
102
RTVSPropertyOp2
 70
     1
102
RTVSPropertyOp3
 70
     1
102
RTVSPropertyOp4
 70
     1
102
RTVSPropertyOp5
 70
     1
102
RTVSPropertyOp6
 70
     1
102
RTVSPropertyOp7
 70
     1
102
RTVSPropertyOp8
 70
     1
102
RTVSPropertyOp9
 70
     1
102
RTVSPropertyOp10
 70
     1
102
RTVSPropertyOp11
 70
     1
102
RTVSPropertyOp12
 70
     1
102
RTVSPropertyOp13
 70
     1
102
RTVSPropertyOp14
 70
     1
102
RTVSPropertyOp15
 70
     1
102
RTVSPropertyOp16
 70
     1
102
RTVSPropertyOp17
 70
     1
102
RTVSPropertyOp18
 70
     1
102
RTVSPropertyOp19
 70
     1
102
RTVSPropertyOp20
 70
     1
102
RTVSPropertyOp21
 70
     1
102
RTVSPropertyOp22
 70
     1
102
RTVSPropertyOp23
 70
     1
102
RTVSPropertyOp24
 70
     1
102
RTVSPropertyOp25
 70
     1
102
RTVSPropertyOp26
 70
     1
102
RTVSPropertyOp27
 70
     1
102
RTVSPropertyOp28
 70
     1
102
RTVSPropertyOp29
 70
     1
102
RTVSPropertyOp30
 70
     1
102
RTVSPropertyOp31
 70
     1
102
RTVSPropertyOp32
 70
     1
  0
XRECORD
  5
20B
102
{ACAD_REACTORS
330
20A
102
}
330
20A
100
AcDbXrecord
280
     1
102
RTVSPropertyOp0
 70
     0
102
RTVSPropertyOp1
 70
     0
102
RTVSPropertyOp2
 70
     0
102
RTVSPropertyOp3
 70
     0
102
RTVSPropertyOp4
 70
     0
102
RTVSPropertyOp5
 70
     0
102
RTVSPropertyOp6
 70
     0
102
RTVSPropertyOp7
 70
     0
102
RTVSPropertyOp8
 70
     0
102
RTVSPropertyOp9
 70
     0
102
RTVSPropertyOp10
 70
     0
102
RTVSPropertyOp11
 70
     0
102
RTVSPropertyOp12
 70
     0
102
RTVSPropertyOp13
 70
     0
102
RTVSPropertyOp14
 70
     2
102
RTVSPropertyOp15
 70
     0
102
RTVSPropertyOp16
 70
     0
102
RTVSPropertyOp17
 70
     0
102
RTVSPropertyOp18
 70
     0
102
RTVSPropertyOp19
 70
     0
102
RTVSPropertyOp20
 70
     0
102
RTVSPropertyOp21
 70
     0
102
RTVSPropertyOp22
 70
     0
102
RTVSPropertyOp23
 70
     0
102
RTVSPropertyOp24
 70
     0
102
RTVSPropertyOp25
 70
     0
102
RTVSPropertyOp26
 70
     0
102
RTVSPropertyOp27
 70
     0
102
RTVSPropertyOp28
 70
     0
102
RTVSPropertyOp29
 70
     0
102
RTVSPropertyOp30
 70
     0
102
RTVSPropertyOp31
 70
     0
102
RTVSPropertyOp32
 70
     0
  0
XRECORD
  5
1F9
102
{ACAD_REACTORS
330
1F8
102
}
330
1F8
100
AcDbXrecord
280
     1
102
RTVSPropertyOp0
 70
     1
102
RTVSPropertyOp1
 70
     1
102
RTVSPropertyOp2
 70
     1
102
RTVSPropertyOp3
 70
     1
102
RTVSPropertyOp4
 70
     1
102
RTVSPropertyOp5
 70
     1
102
RTVSPropertyOp6
 70
     1
102
RTVSPropertyOp7
 70
     1
102
RTVSPropertyOp8
 70
     1
102
RTVSPropertyOp9
 70
     1
102
RTVSPropertyOp10
 70
     1
102
RTVSPropertyOp11
 70
     1
102
RTVSPropertyOp12
 70
     1
102
RTVSPropertyOp13
 70
     1
102
RTVSPropertyOp14
 70
     1
102
RTVSPropertyOp15
 70
     1
102
RTVSPropertyOp16
 70
     1
102
RTVSPropertyOp17
 70
     1
102
RTVSPropertyOp18
 70
     1
102
RTVSPropertyOp19
 70
     1
102
RTVSPropertyOp20
 70
     1
102
RTVSPropertyOp21
 70
     1
102
RTVSPropertyOp22
 70
     1
102
RTVSPropertyOp23
 70
     1
102
RTVSPropertyOp24
 70
     1
102
RTVSPropertyOp25
 70
     1
102
RTVSPropertyOp26
 70
     1
102
RTVSPropertyOp27
 70
     1
102
RTVSPropertyOp28
 70
     1
102
RTVSPropertyOp29
 70
     1
102
RTVSPropertyOp30
 70
     1
102
RTVSPropertyOp31
 70
     1
102
RTVSPropertyOp32
 70
     1
  0
XRECORD
  5
1E3
102
{ACAD_REACTORS
330
1E2
102
}
330
1E2
100
AcDbXrecord
280
     1
102
RTVSPropertyOp0
 70
     1
102
RTVSPropertyOp1
 70
     1
102
RTVSPropertyOp2
 70
     1
102
RTVSPropertyOp3
 70
     1
102
RTVSPropertyOp4
 70
     1
102
RTVSPropertyOp5
 70
     1
102
RTVSPropertyOp6
 70
     1
102
RTVSPropertyOp7
 70
     1
102
RTVSPropertyOp8
 70
     1
102
RTVSPropertyOp9
 70
     1
102
RTVSPropertyOp10
 70
     1
102
RTVSPropertyOp11
 70
     1
102
RTVSPropertyOp12
 70
     1
102
RTVSPropertyOp13
 70
     1
102
RTVSPropertyOp14
 70
     1
102
RTVSPropertyOp15
 70
     1
102
RTVSPropertyOp16
 70
     1
102
RTVSPropertyOp17
 70
     1
102
RTVSPropertyOp18
 70
     1
102
RTVSPropertyOp19
 70
     1
102
RTVSPropertyOp20
 70
     1
102
RTVSPropertyOp21
 70
     1
102
RTVSPropertyOp22
 70
     1
102
RTVSPropertyOp23
 70
     1
102
RTVSPropertyOp24
 70
     1
102
RTVSPropertyOp25
 70
     1
102
RTVSPropertyOp26
 70
     1
102
RTVSPropertyOp27
 70
     1
102
RTVSPropertyOp28
 70
     1
102
RTVSPropertyOp29
 70
     1
102
RTVSPropertyOp30
 70
     1
102
RTVSPropertyOp31
 70
     1
102
RTVSPropertyOp32
 70
     1
  0
XRECORD
  5
1E5
102
{ACAD_REACTORS
330
1E4
102
}
330
1E4
100
AcDbXrecord
280
     1
102
RTVSPropertyOp0
 70
     1
102
RTVSPropertyOp1
 70
     1
102
RTVSPropertyOp2
 70
     1
102
RTVSPropertyOp3
 70
     1
102
RTVSPropertyOp4
 70
     1
102
RTVSPropertyOp5
 70
     1
102
RTVSPropertyOp6
 70
     1
102
RTVSPropertyOp7
 70
     1
102
RTVSPropertyOp8
 70
     1
102
RTVSPropertyOp9
 70
     1
102
RTVSPropertyOp10
 70
     1
102
RTVSPropertyOp11
 70
     1
102
RTVSPropertyOp12
 70
     1
102
RTVSPropertyOp13
 70
     1
102
RTVSPropertyOp14
 70
     1
102
RTVSPropertyOp15
 70
     1
102
RTVSPropertyOp16
 70
     1
102
RTVSPropertyOp17
 70
     1
102
RTVSPropertyOp18
 70
     1
102
RTVSPropertyOp19
 70
     1
102
RTVSPropertyOp20
 70
     1
102
RTVSPropertyOp21
 70
     1
102
RTVSPropertyOp22
 70
     1
102
RTVSPropertyOp23
 70
     1
102
RTVSPropertyOp24
 70
     1
102
RTVSPropertyOp25
 70
     1
102
RTVSPropertyOp26
 70
     1
102
RTVSPropertyOp27
 70
     1
102
RTVSPropertyOp28
 70
     1
102
RTVSPropertyOp29
 70
     1
102
RTVSPropertyOp30
 70
     1
102
RTVSPropertyOp31
 70
     1
102
RTVSPropertyOp32
 70
     1
  0
XRECORD
  5
1E7
102
{ACAD_REACTORS
330
1E6
102
}
330
1E6
100
AcDbXrecord
280
     1
102
RTVSPropertyOp0
 70
     1
102
RTVSPropertyOp1
 70
     1
102
RTVSPropertyOp2
 70
     1
102
RTVSPropertyOp3
 70
     1
102
RTVSPropertyOp4
 70
     1
102
RTVSPropertyOp5
 70
     1
102
RTVSPropertyOp6
 70
     1
102
RTVSPropertyOp7
 70
     1
102
RTVSPropertyOp8
 70
     1
102
RTVSPropertyOp9
 70
     1
102
RTVSPropertyOp10
 70
     1
102
RTVSPropertyOp11
 70
     1
102
RTVSPropertyOp12
 70
     1
102
RTVSPropertyOp13
 70
     1
102
RTVSPropertyOp14
 70
     1
102
RTVSPropertyOp15
 70
     1
102
RTVSPropertyOp16
 70
     1
102
RTVSPropertyOp17
 70
     1
102
RTVSPropertyOp18
 70
     1
102
RTVSPropertyOp19
 70
     1
102
RTVSPropertyOp20
 70
     1
102
RTVSPropertyOp21
 70
     1
102
RTVSPropertyOp22
 70
     1
102
RTVSPropertyOp23
 70
     1
102
RTVSPropertyOp24
 70
     1
102
RTVSPropertyOp25
 70
     1
102
RTVSPropertyOp26
 70
     1
102
RTVSPropertyOp27
 70
     1
102
RTVSPropertyOp28
 70
     1
102
RTVSPropertyOp29
 70
     1
102
RTVSPropertyOp30
 70
     1
102
RTVSPropertyOp31
 70
     1
102
RTVSPropertyOp32
 70
     1
  0
XRECORD
  5
1E9
102
{ACAD_REACTORS
330
1E8
102
}
330
1E8
100
AcDbXrecord
280
     1
102
RTVSPropertyOp0
 70
     1
102
RTVSPropertyOp1
 70
     1
102
RTVSPropertyOp2
 70
     1
102
RTVSPropertyOp3
 70
     1
102
RTVSPropertyOp4
 70
     1
102
RTVSPropertyOp5
 70
     1
102
RTVSPropertyOp6
 70
     1
102
RTVSPropertyOp7
 70
     1
102
RTVSPropertyOp8
 70
     1
102
RTVSPropertyOp9
 70
     1
102
RTVSPropertyOp10
 70
     1
102
RTVSPropertyOp11
 70
     1
102
RTVSPropertyOp12
 70
     1
102
RTVSPropertyOp13
 70
     1
102
RTVSPropertyOp14
 70
     1
102
RTVSPropertyOp15
 70
     1
102
RTVSPropertyOp16
 70
     1
102
RTVSPropertyOp17
 70
     1
102
RTVSPropertyOp18
 70
     1
102
RTVSPropertyOp19
 70
     1
102
RTVSPropertyOp20
 70
     1
102
RTVSPropertyOp21
 70
     1
102
RTVSPropertyOp22
 70
     1
102
RTVSPropertyOp23
 70
     1
102
RTVSPropertyOp24
 70
     1
102
RTVSPropertyOp25
 70
     1
102
RTVSPropertyOp26
 70
     1
102
RTVSPropertyOp27
 70
     1
102
RTVSPropertyOp28
 70
     1
102
RTVSPropertyOp29
 70
     1
102
RTVSPropertyOp30
 70
     1
102
RTVSPropertyOp31
 70
     1
102
RTVSPropertyOp32
 70
     1
  0
XRECORD
  5
1ED
102
{ACAD_REACTORS
330
1EC
102
}
330
1EC
100
AcDbXrecord
280
     1
102
RTVSPropertyOp0
 70
     1
102
RTVSPropertyOp1
 70
     1
102
RTVSPropertyOp2
 70
     1
102
RTVSPropertyOp3
 70
     1
102
RTVSPropertyOp4
 70
     1
102
RTVSPropertyOp5
 70
     1
102
RTVSPropertyOp6
 70
     1
102
RTVSPropertyOp7
 70
     1
102
RTVSPropertyOp8
 70
     1
102
RTVSPropertyOp9
 70
     1
102
RTVSPropertyOp10
 70
     1
102
RTVSPropertyOp11
 70
     1
102
RTVSPropertyOp12
 70
     1
102
RTVSPropertyOp13
 70
     1
102
RTVSPropertyOp14
 70
     1
102
RTVSPropertyOp15
 70
     1
102
RTVSPropertyOp16
 70
     1
102
RTVSPropertyOp17
 70
     1
102
RTVSPropertyOp18
 70
     1
102
RTVSPropertyOp19
 70
     1
102
RTVSPropertyOp20
 70
     1
102
RTVSPropertyOp21
 70
     1
102
RTVSPropertyOp22
 70
     1
102
RTVSPropertyOp23
 70
     1
102
RTVSPropertyOp24
 70
     1
102
RTVSPropertyOp25
 70
     1
102
RTVSPropertyOp26
 70
     1
102
RTVSPropertyOp27
 70
     1
102
RTVSPropertyOp28
 70
     1
102
RTVSPropertyOp29
 70
     1
102
RTVSPropertyOp30
 70
     1
102
RTVSPropertyOp31
 70
     1
102
RTVSPropertyOp32
 70
     1
  0
XRECORD
  5
207
102
{ACAD_REACTORS
330
206
102
}
330
206
100
AcDbXrecord
280
     1
102
RTVSPropertyOp0
 70
     0
102
RTVSPropertyOp1
 70
     0
102
RTVSPropertyOp2
 70
     0
102
RTVSPropertyOp3
 70
     0
102
RTVSPropertyOp4
 70
     0
102
RTVSPropertyOp5
 70
     0
102
RTVSPropertyOp6
 70
     0
102
RTVSPropertyOp7
 70
     0
102
RTVSPropertyOp8
 70
     0
102
RTVSPropertyOp9
 70
     0
102
RTVSPropertyOp10
 70
     0
102
RTVSPropertyOp11
 70
     0
102
RTVSPropertyOp12
 70
     0
102
RTVSPropertyOp13
 70
     0
102
RTVSPropertyOp14
 70
     2
102
RTVSPropertyOp15
 70
     0
102
RTVSPropertyOp16
 70
     0
102
RTVSPropertyOp17
 70
     0
102
RTVSPropertyOp18
 70
     0
102
RTVSPropertyOp19
 70
     0
102
RTVSPropertyOp20
 70
     0
102
RTVSPropertyOp21
 70
     0
102
RTVSPropertyOp22
 70
     0
102
RTVSPropertyOp23
 70
     0
102
RTVSPropertyOp24
 70
     0
102
RTVSPropertyOp25
 70
     0
102
RTVSPropertyOp26
 70
     0
102
RTVSPropertyOp27
 70
     0
102
RTVSPropertyOp28
 70
     0
102
RTVSPropertyOp29
 70
     0
102
RTVSPropertyOp30
 70
     0
102
RTVSPropertyOp31
 70
     0
102
RTVSPropertyOp32
 70
     0
  0
XRECORD
  5
1F7
102
{ACAD_REACTORS
330
1F6
102
}
330
1F6
100
AcDbXrecord
280
     1
102
RTVSPropertyOp0
 70
     1
102
RTVSPropertyOp1
 70
     1
102
RTVSPropertyOp2
 70
     1
102
RTVSPropertyOp3
 70
     1
102
RTVSPropertyOp4
 70
     1
102
RTVSPropertyOp5
 70
     1
102
RTVSPropertyOp6
 70
     1
102
RTVSPropertyOp7
 70
     1
102
RTVSPropertyOp8
 70
     1
102
RTVSPropertyOp9
 70
     1
102
RTVSPropertyOp10
 70
     1
102
RTVSPropertyOp11
 70
     1
102
RTVSPropertyOp12
 70
     1
102
RTVSPropertyOp13
 70
     1
102
RTVSPropertyOp14
 70
     1
102
RTVSPropertyOp15
 70
     1
102
RTVSPropertyOp16
 70
     1
102
RTVSPropertyOp17
 70
     1
102
RTVSPropertyOp18
 70
     1
102
RTVSPropertyOp19
 70
     1
102
RTVSPropertyOp20
 70
     1
102
RTVSPropertyOp21
 70
     1
102
RTVSPropertyOp22
 70
     1
102
RTVSPropertyOp23
 70
     1
102
RTVSPropertyOp24
 70
     1
102
RTVSPropertyOp25
 70
     1
102
RTVSPropertyOp26
 70
     1
102
RTVSPropertyOp27
 70
     1
102
RTVSPropertyOp28
 70
     1
102
RTVSPropertyOp29
 70
     1
102
RTVSPropertyOp30
 70
     1
102
RTVSPropertyOp31
 70
     1
102
RTVSPropertyOp32
 70
     1
  0
XRECORD
  5
209
102
{ACAD_REACTORS
330
208
102
}
330
208
100
AcDbXrecord
280
     1
102
RTVSPropertyOp0
 70
     0
102
RTVSPropertyOp1
 70
     0
102
RTVSPropertyOp2
 70
     0
102
RTVSPropertyOp3
 70
     0
102
RTVSPropertyOp4
 70
     0
102
RTVSPropertyOp5
 70
     0
102
RTVSPropertyOp6
 70
     0
102
RTVSPropertyOp7
 70
     0
102
RTVSPropertyOp8
 70
     0
102
RTVSPropertyOp9
 70
     0
102
RTVSPropertyOp10
 70
     0
102
RTVSPropertyOp11
 70
     0
102
RTVSPropertyOp12
 70
     0
102
RTVSPropertyOp13
 70
     0
102
RTVSPropertyOp14
 70
     2
102
RTVSPropertyOp15
 70
     0
102
RTVSPropertyOp16
 70
     0
102
RTVSPropertyOp17
 70
     0
102
RTVSPropertyOp18
 70
     0
102
RTVSPropertyOp19
 70
     0
102
RTVSPropertyOp20
 70
     0
102
RTVSPropertyOp21
 70
     0
102
RTVSPropertyOp22
 70
     0
102
RTVSPropertyOp23
 70
     0
102
RTVSPropertyOp24
 70
     0
102
RTVSPropertyOp25
 70
     0
102
RTVSPropertyOp26
 70
     0
102
RTVSPropertyOp27
 70
     0
102
RTVSPropertyOp28
 70
     0
102
RTVSPropertyOp29
 70
     0
102
RTVSPropertyOp30
 70
     0
102
RTVSPropertyOp31
 70
     0
102
RTVSPropertyOp32
 70
     0
  0
XRECORD
  5
1DF
102
{ACAD_REACTORS
330
1DE
102
}
330
1DE
100
AcDbXrecord
280
     1
102
RTVSPropertyOp0
 70
     1
102
RTVSPropertyOp1
 70
     1
102
RTVSPropertyOp2
 70
     1
102
RTVSPropertyOp3
 70
     1
102
RTVSPropertyOp4
 70
     1
102
RTVSPropertyOp5
 70
     1
102
RTVSPropertyOp6
 70
     1
102
RTVSPropertyOp7
 70
     1
102
RTVSPropertyOp8
 70
     1
102
RTVSPropertyOp9
 70
     1
102
RTVSPropertyOp10
 70
     1
102
RTVSPropertyOp11
 70
     1
102
RTVSPropertyOp12
 70
     1
102
RTVSPropertyOp13
 70
     1
102
RTVSPropertyOp14
 70
     1
102
RTVSPropertyOp15
 70
     1
102
RTVSPropertyOp16
 70
     1
102
RTVSPropertyOp17
 70
     1
102
RTVSPropertyOp18
 70
     1
102
RTVSPropertyOp19
 70
     1
102
RTVSPropertyOp20
 70
     1
102
RTVSPropertyOp21
 70
     1
102
RTVSPropertyOp22
 70
     1
102
RTVSPropertyOp23
 70
     1
102
RTVSPropertyOp24
 70
     1
102
RTVSPropertyOp25
 70
     1
102
RTVSPropertyOp26
 70
     1
102
RTVSPropertyOp27
 70
     1
102
RTVSPropertyOp28
 70
     1
102
RTVSPropertyOp29
 70
     1
102
RTVSPropertyOp30
 70
     1
102
RTVSPropertyOp31
 70
     1
102
RTVSPropertyOp32
 70
     1
  0
XRECORD
  5
205
102
{ACAD_REACTORS
330
204
102
}
330
204
100
AcDbXrecord
280
     1
102
RTVSPropertyOp0
 70
     1
102
RTVSPropertyOp1
 70
     1
102
RTVSPropertyOp2
 70
     1
102
RTVSPropertyOp3
 70
     1
102
RTVSPropertyOp4
 70
     1
102
RTVSPropertyOp5
 70
     1
102
RTVSPropertyOp6
 70
     1
102
RTVSPropertyOp7
 70
     1
102
RTVSPropertyOp8
 70
     1
102
RTVSPropertyOp9
 70
     1
102
RTVSPropertyOp10
 70
     1
102
RTVSPropertyOp11
 70
     1
102
RTVSPropertyOp12
 70
     1
102
RTVSPropertyOp13
 70
     1
102
RTVSPropertyOp14
 70
     1
102
RTVSPropertyOp15
 70
     1
102
RTVSPropertyOp16
 70
     1
102
RTVSPropertyOp17
 70
     1
102
RTVSPropertyOp18
 70
     1
102
RTVSPropertyOp19
 70
     1
102
RTVSPropertyOp20
 70
     1
102
RTVSPropertyOp21
 70
     1
102
RTVSPropertyOp22
 70
     1
102
RTVSPropertyOp23
 70
     1
102
RTVSPropertyOp24
 70
     1
102
RTVSPropertyOp25
 70
     1
102
RTVSPropertyOp26
 70
     1
102
RTVSPropertyOp27
 70
     1
102
RTVSPropertyOp28
 70
     1
102
RTVSPropertyOp29
 70
     1
102
RTVSPropertyOp30
 70
     1
102
RTVSPropertyOp31
 70
     1
102
RTVSPropertyOp32
 70
     1
  0
XRECORD
  5
203
102
{ACAD_REACTORS
330
202
102
}
330
202
100
AcDbXrecord
280
     1
102
RTVSPropertyOp0
 70
     1
102
RTVSPropertyOp1
 70
     1
102
RTVSPropertyOp2
 70
     1
102
RTVSPropertyOp3
 70
     1
102
RTVSPropertyOp4
 70
     1
102
RTVSPropertyOp5
 70
     1
102
RTVSPropertyOp6
 70
     1
102
RTVSPropertyOp7
 70
     1
102
RTVSPropertyOp8
 70
     1
102
RTVSPropertyOp9
 70
     1
102
RTVSPropertyOp10
 70
     1
102
RTVSPropertyOp11
 70
     1
102
RTVSPropertyOp12
 70
     1
102
RTVSPropertyOp13
 70
     1
102
RTVSPropertyOp14
 70
     1
102
RTVSPropertyOp15
 70
     1
102
RTVSPropertyOp16
 70
     1
102
RTVSPropertyOp17
 70
     1
102
RTVSPropertyOp18
 70
     1
102
RTVSPropertyOp19
 70
     1
102
RTVSPropertyOp20
 70
     1
102
RTVSPropertyOp21
 70
     1
102
RTVSPropertyOp22
 70
     1
102
RTVSPropertyOp23
 70
     1
102
RTVSPropertyOp24
 70
     1
102
RTVSPropertyOp25
 70
     1
102
RTVSPropertyOp26
 70
     1
102
RTVSPropertyOp27
 70
     1
102
RTVSPropertyOp28
 70
     1
102
RTVSPropertyOp29
 70
     1
102
RTVSPropertyOp30
 70
     1
102
RTVSPropertyOp31
 70
     1
102
RTVSPropertyOp32
 70
     1
  0
XRECORD
  5
1FD
102
{ACAD_REACTORS
330
1FC
102
}
330
1FC
100
AcDbXrecord
280
     1
102
RTVSPropertyOp0
 70
     1
102
RTVSPropertyOp1
 70
     1
102
RTVSPropertyOp2
 70
     1
102
RTVSPropertyOp3
 70
     1
102
RTVSPropertyOp4
 70
     1
102
RTVSPropertyOp5
 70
     1
102
RTVSPropertyOp6
 70
     1
102
RTVSPropertyOp7
 70
     1
102
RTVSPropertyOp8
 70
     1
102
RTVSPropertyOp9
 70
     1
102
RTVSPropertyOp10
 70
     1
102
RTVSPropertyOp11
 70
     1
102
RTVSPropertyOp12
 70
     1
102
RTVSPropertyOp13
 70
     1
102
RTVSPropertyOp14
 70
     1
102
RTVSPropertyOp15
 70
     1
102
RTVSPropertyOp16
 70
     1
102
RTVSPropertyOp17
 70
     1
102
RTVSPropertyOp18
 70
     1
102
RTVSPropertyOp19
 70
     1
102
RTVSPropertyOp20
 70
     1
102
RTVSPropertyOp21
 70
     1
102
RTVSPropertyOp22
 70
     1
102
RTVSPropertyOp23
 70
     1
102
RTVSPropertyOp24
 70
     1
102
RTVSPropertyOp25
 70
     1
102
RTVSPropertyOp26
 70
     1
102
RTVSPropertyOp27
 70
     1
102
RTVSPropertyOp28
 70
     1
102
RTVSPropertyOp29
 70
     1
102
RTVSPropertyOp30
 70
     1
102
RTVSPropertyOp31
 70
     1
102
RTVSPropertyOp32
 70
     1
  0
XRECORD
  5
1FF
102
{ACAD_REACTORS
330
1FE
102
}
330
1FE
100
AcDbXrecord
280
     1
102
RTVSPropertyOp0
 70
     1
102
RTVSPropertyOp1
 70
     1
102
RTVSPropertyOp2
 70
     1
102
RTVSPropertyOp3
 70
     1
102
RTVSPropertyOp4
 70
     1
102
RTVSPropertyOp5
 70
     1
102
RTVSPropertyOp6
 70
     1
102
RTVSPropertyOp7
 70
     1
102
RTVSPropertyOp8
 70
     1
102
RTVSPropertyOp9
 70
     1
102
RTVSPropertyOp10
 70
     1
102
RTVSPropertyOp11
 70
     1
102
RTVSPropertyOp12
 70
     1
102
RTVSPropertyOp13
 70
     1
102
RTVSPropertyOp14
 70
     1
102
RTVSPropertyOp15
 70
     1
102
RTVSPropertyOp16
 70
     1
102
RTVSPropertyOp17
 70
     1
102
RTVSPropertyOp18
 70
     1
102
RTVSPropertyOp19
 70
     1
102
RTVSPropertyOp20
 70
     1
102
RTVSPropertyOp21
 70
     1
102
RTVSPropertyOp22
 70
     1
102
RTVSPropertyOp23
 70
     1
102
RTVSPropertyOp24
 70
     1
102
RTVSPropertyOp25
 70
     1
102
RTVSPropertyOp26
 70
     1
102
RTVSPropertyOp27
 70
     1
102
RTVSPropertyOp28
 70
     1
102
RTVSPropertyOp29
 70
     1
102
RTVSPropertyOp30
 70
     1
102
RTVSPropertyOp31
 70
     1
102
RTVSPropertyOp32
 70
     1
  0
XRECORD
  5
1F5
102
{ACAD_REACTORS
330
1F4
102
}
330
1F4
100
AcDbXrecord
280
     1
102
RTVSPropertyOp0
 70
     1
102
RTVSPropertyOp1
 70
     1
102
RTVSPropertyOp2
 70
     1
102
RTVSPropertyOp3
 70
     1
102
RTVSPropertyOp4
 70
     1
102
RTVSPropertyOp5
 70
     1
102
RTVSPropertyOp6
 70
     1
102
RTVSPropertyOp7
 70
     1
102
RTVSPropertyOp8
 70
     1
102
RTVSPropertyOp9
 70
     1
102
RTVSPropertyOp10
 70
     1
102
RTVSPropertyOp11
 70
     1
102
RTVSPropertyOp12
 70
     1
102
RTVSPropertyOp13
 70
     1
102
RTVSPropertyOp14
 70
     1
102
RTVSPropertyOp15
 70
     1
102
RTVSPropertyOp16
 70
     1
102
RTVSPropertyOp17
 70
     1
102
RTVSPropertyOp18
 70
     1
102
RTVSPropertyOp19
 70
     1
102
RTVSPropertyOp20
 70
     1
102
RTVSPropertyOp21
 70
     1
102
RTVSPropertyOp22
 70
     1
102
RTVSPropertyOp23
 70
     1
102
RTVSPropertyOp24
 70
     1
102
RTVSPropertyOp25
 70
     1
102
RTVSPropertyOp26
 70
     1
102
RTVSPropertyOp27
 70
     1
102
RTVSPropertyOp28
 70
     1
102
RTVSPropertyOp29
 70
     1
102
RTVSPropertyOp30
 70
     1
102
RTVSPropertyOp31
 70
     1
102
RTVSPropertyOp32
 70
     1
  0
XRECORD
  5
1E1
102
{ACAD_REACTORS
330
1E0
102
}
330
1E0
100
AcDbXrecord
280
     1
102
RTVSPropertyOp0
 70
     1
102
RTVSPropertyOp1
 70
     1
102
RTVSPropertyOp2
 70
     1
102
RTVSPropertyOp3
 70
     1
102
RTVSPropertyOp4
 70
     1
102
RTVSPropertyOp5
 70
     1
102
RTVSPropertyOp6
 70
     1
102
RTVSPropertyOp7
 70
     1
102
RTVSPropertyOp8
 70
     1
102
RTVSPropertyOp9
 70
     1
102
RTVSPropertyOp10
 70
     1
102
RTVSPropertyOp11
 70
     1
102
RTVSPropertyOp12
 70
     1
102
RTVSPropertyOp13
 70
     1
102
RTVSPropertyOp14
 70
     1
102
RTVSPropertyOp15
 70
     1
102
RTVSPropertyOp16
 70
     1
102
RTVSPropertyOp17
 70
     1
102
RTVSPropertyOp18
 70
     1
102
RTVSPropertyOp19
 70
     1
102
RTVSPropertyOp20
 70
     1
102
RTVSPropertyOp21
 70
     1
102
RTVSPropertyOp22
 70
     1
102
RTVSPropertyOp23
 70
     1
102
RTVSPropertyOp24
 70
     1
102
RTVSPropertyOp25
 70
     1
102
RTVSPropertyOp26
 70
     1
102
RTVSPropertyOp27
 70
     1
102
RTVSPropertyOp28
 70
     1
102
RTVSPropertyOp29
 70
     1
102
RTVSPropertyOp30
 70
     1
102
RTVSPropertyOp31
 70
     1
102
RTVSPropertyOp32
 70
     1
  0
XRECORD
  5
201
102
{ACAD_REACTORS
330
200
102
}
330
200
100
AcDbXrecord
280
     1
102
RTVSPropertyOp0
 70
     1
102
RTVSPropertyOp1
 70
     1
102
RTVSPropertyOp2
 70
     1
102
RTVSPropertyOp3
 70
     1
102
RTVSPropertyOp4
 70
     1
102
RTVSPropertyOp5
 70
     1
102
RTVSPropertyOp6
 70
     1
102
RTVSPropertyOp7
 70
     1
102
RTVSPropertyOp8
 70
     1
102
RTVSPropertyOp9
 70
     1
102
RTVSPropertyOp10
 70
     1
102
RTVSPropertyOp11
 70
     1
102
RTVSPropertyOp12
 70
     1
102
RTVSPropertyOp13
 70
     1
102
RTVSPropertyOp14
 70
     1
102
RTVSPropertyOp15
 70
     1
102
RTVSPropertyOp16
 70
     1
102
RTVSPropertyOp17
 70
     1
102
RTVSPropertyOp18
 70
     1
102
RTVSPropertyOp19
 70
     1
102
RTVSPropertyOp20
 70
     1
102
RTVSPropertyOp21
 70
     1
102
RTVSPropertyOp22
 70
     1
102
RTVSPropertyOp23
 70
     1
102
RTVSPropertyOp24
 70
     1
102
RTVSPropertyOp25
 70
     1
102
RTVSPropertyOp26
 70
     1
102
RTVSPropertyOp27
 70
     1
102
RTVSPropertyOp28
 70
     1
102
RTVSPropertyOp29
 70
     1
102
RTVSPropertyOp30
 70
     1
102
RTVSPropertyOp31
 70
     1
102
RTVSPropertyOp32
 70
     1
  0
ENDSEC
  0
EOF
