  0
SECTION
  2
HEADER
  9
$ACADVER
  1
AC1015
  9
$ACADMAINTVER
 70
    18
  9
$DWGCODEPAGE
  3
ANSI_1252
  9
$INSBASE
 10
0.0
 20
0.0
 30
0.0
  9
$EXTMIN
 10
-35.46674624829456
 20
-20.54871977325877
 30
0.0
  9
$EXTMAX
 10
35.46674624829479
 20
3096.930214277749
 30
0.0
  9
$LIMMIN
 10
0.0
 20
0.0
  9
$LIMMAX
 10
1189.0
 20
840.9999999999998
  9
$ORTHOMODE
 70
     0
  9
$REGENMODE
 70
     1
  9
$FILLMODE
 70
     1
  9
$QTEXTMODE
 70
     0
  9
$MIRRTEXT
 70
     0
  9
$LTSCALE
 40
1.0
  9
$ATTMODE
 70
     1
  9
$TEXTSIZE
 40
0.2
  9
$TRACEWID
 40
0.05
  9
$TEXTSTYLE
  7
STANDARD
  9
$CLAYER
  8
0
  9
$CELTYPE
  6
ByLayer
  9
$CECOLOR
 62
   256
  9
$CELTSCALE
 40
1.0
  9
$DISPSILH
 70
     0
  9
$DIMSCALE
 40
1.0
  9
$DIMASZ
 40
180.0
  9
$DIMEXO
 40
0.0625
  9
$DIMDLI
 40
0.38
  9
$DIMRND
 40
0.0
  9
$DIMDLE
 40
0.0
  9
$DIMEXE
 40
0.18
  9
$DIMTP
 40
0.0
  9
$DIMTM
 40
0.0
  9
$DIMTXT
 40
34.99999940395355
  9
$DIMCEN
 40
0.09
  9
$DIMTSZ
 40
0.0
  9
$DIMTOL
 70
     0
  9
$DIMLIM
 70
     0
  9
$DIMTIH
 70
     1
  9
$DIMTOH
 70
     1
  9
$DIMSE1
 70
     0
  9
$DIMSE2
 70
     0
  9
$DIMTAD
 70
     0
  9
$DIMZIN
 70
     0
  9
$DIMBLK
  1

  9
$DIMASO
 70
     1
  9
$DIMSHO
 70
     1
  9
$DIMPOST
  1

  9
$DIMAPOST
  1

  9
$DIMALT
 70
     0
  9
$DIMALTD
 70
     2
  9
$DIMALTF
 40
25.4
  9
$DIMLFAC
 40
1.0
  9
$DIMTOFL
 70
     0
  9
$DIMTVP
 40
0.0
  9
$DIMTIX
 70
     0
  9
$DIMSOXD
 70
     0
  9
$DIMSAH
 70
     0
  9
$DIMBLK1
  1

  9
$DIMBLK2
  1

  9
$DIMSTYLE
  2
STANDARD
  9
$DIMCLRD
 70
     0
  9
$DIMCLRE
 70
     0
  9
$DIMCLRT
 70
     0
  9
$DIMTFAC
 40
1.0
  9
$DIMGAP
 40
0.09
  9
$DIMJUST
 70
     0
  9
$DIMSD1
 70
     0
  9
$DIMSD2
 70
     0
  9
$DIMTOLJ
 70
     1
  9
$DIMTZIN
 70
     0
  9
$DIMALTZ
 70
     0
  9
$DIMALTTZ
 70
     0
  9
$DIMUPT
 70
     0
  9
$DIMDEC
 70
     4
  9
$DIMTDEC
 70
     4
  9
$DIMALTU
 70
     2
  9
$DIMALTTD
 70
     2
  9
$DIMTXSTY
  7
STANDARD
  9
$DIMAUNIT
 70
     0
  9
$DIMADEC
 70
     0
  9
$DIMALTRND
 40
0.0
  9
$DIMAZIN
 70
     0
  9
$DIMDSEP
 70
    46
  9
$DIMATFIT
 70
     3
  9
$DIMFRAC
 70
     0
  9
$DIMLDRBLK
  1

  9
$DIMLUNIT
 70
     2
  9
$DIMLWD
 70
    -2
  9
$DIMLWE
 70
    -2
  9
$DIMTMOVE
 70
     0
  9
$LUNITS
 70
     2
  9
$LUPREC
 70
     4
  9
$SKETCHINC
 40
0.1
  9
$FILLETRAD
 40
0.0
  9
$AUNITS
 70
     0
  9
$AUPREC
 70
     0
  9
$MENU
  1
.
  9
$ELEVATION
 40
0.0
  9
$PELEVATION
 40
0.0
  9
$THICKNESS
 40
0.0
  9
$LIMCHECK
 70
     0
  9
$CHAMFERA
 40
0.0
  9
$CHAMFERB
 40
0.0
  9
$CHAMFERC
 40
0.0
  9
$CHAMFERD
 40
0.0
  9
$SKPOLY
 70
     0
  9
$TDCREATE
 40
2454871.497639329
  9
$TDUCREATE
 40
2454871.455972662
  9
$TDUPDATE
 40
2455943.900207789
  9
$TDUUPDATE
 40
2455943.858541123
  9
$TDINDWG
 40
0.0122241898
  9
$TDUSRTIMER
 40
0.0122241898
  9
$USRTIMER
 70
     1
  9
$ANGBASE
 50
0.0
  9
$ANGDIR
 70
     0
  9
$PDMODE
 70
     0
  9
$PDSIZE
 40
0.0
  9
$PLINEWID
 40
0.0
  9
$SPLFRAME
 70
     0
  9
$SPLINETYPE
 70
     6
  9
$SPLINESEGS
 70
     8
  9
$HANDSEED
  5
1A4
  9
$SURFTAB1
 70
     6
  9
$SURFTAB2
 70
     6
  9
$SURFTYPE
 70
     6
  9
$SURFU
 70
     6
  9
$SURFV
 70
     6
  9
$UCSBASE
  2

  9
$UCSNAME
  2

  9
$UCSORG
 10
0.0
 20
0.0
 30
0.0
  9
$UCSXDIR
 10
1.0
 20
0.0
 30
0.0
  9
$UCSYDIR
 10
0.0
 20
1.0
 30
0.0
  9
$UCSORTHOREF
  2

  9
$UCSORTHOVIEW
 70
     0
  9
$UCSORGTOP
 10
0.0
 20
0.0
 30
0.0
  9
$UCSORGBOTTOM
 10
0.0
 20
0.0
 30
0.0
  9
$UCSORGLEFT
 10
0.0
 20
0.0
 30
0.0
  9
$UCSORGRIGHT
 10
0.0
 20
0.0
 30
0.0
  9
$UCSORGFRONT
 10
0.0
 20
0.0
 30
0.0
  9
$UCSORGBACK
 10
0.0
 20
0.0
 30
0.0
  9
$PUCSBASE
  2

  9
$PUCSNAME
  2

  9
$PUCSORG
 10
0.0
 20
0.0
 30
0.0
  9
$PUCSXDIR
 10
1.0
 20
0.0
 30
0.0
  9
$PUCSYDIR
 10
0.0
 20
1.0
 30
0.0
  9
$PUCSORTHOREF
  2

  9
$PUCSORTHOVIEW
 70
     0
  9
$PUCSORGTOP
 10
0.0
 20
0.0
 30
0.0
  9
$PUCSORGBOTTOM
 10
0.0
 20
0.0
 30
0.0
  9
$PUCSORGLEFT
 10
0.0
 20
0.0
 30
0.0
  9
$PUCSORGRIGHT
 10
0.0
 20
0.0
 30
0.0
  9
$PUCSORGFRONT
 10
0.0
 20
0.0
 30
0.0
  9
$PUCSORGBACK
 10
0.0
 20
0.0
 30
0.0
  9
$USERI1
 70
     0
  9
$USERI2
 70
     0
  9
$USERI3
 70
     0
  9
$USERI4
 70
     0
  9
$USERI5
 70
     0
  9
$USERR1
 40
0.0
  9
$USERR2
 40
0.0
  9
$USERR3
 40
0.0
  9
$USERR4
 40
0.0
  9
$USERR5
 40
0.0
  9
$WORLDVIEW
 70
     1
  9
$SHADEDGE
 70
     3
  9
$SHADEDIF
 70
    70
  9
$TILEMODE
 70
     1
  9
$MAXACTVP
 70
    64
  9
$PINSBASE
 10
0.0
 20
0.0
 30
0.0
  9
$PLIMCHECK
 70
     0
  9
$PEXTMIN
 10
0.0
 20
0.0
 30
0.0
  9
$PEXTMAX
 10
1189.0
 20
840.9999999999998
 30
0.0
  9
$PLIMMIN
 10
0.0
 20
0.0
  9
$PLIMMAX
 10
1189.0
 20
840.9999999999998
  9
$UNITMODE
 70
     0
  9
$VISRETAIN
 70
     1
  9
$PLINEGEN
 70
     0
  9
$PSLTSCALE
 70
     1
  9
$TREEDEPTH
 70
  3020
  9
$CMLSTYLE
  2
Standard
  9
$CMLJUST
 70
     0
  9
$CMLSCALE
 40
1.0
  9
$PROXYGRAPHICS
 70
     1
  9
$MEASUREMENT
 70
     1
  9
$CELWEIGHT
370
    -1
  9
$ENDCAPS
280
     0
  9
$JOINSTYLE
280
     0
  9
$LWDISPLAY
290
     0
  9
$INSUNITS
 70
     4
  9
$HYPERLINKBASE
  1

  9
$STYLESHEET
  1

  9
$XEDIT
290
     1
  9
$CEPSNTYPE
380
     0
  9
$PSTYLEMODE
290
     1
  9
$FINGERPRINTGUID
  2
{27096DAA-6FBB-46D6-82BF-61177E0A161D}
  9
$VERSIONGUID
  2
{2D94A84D-9DD6-4360-AF19-85F771E07A62}
  9
$EXTNAMES
290
     1
  9
$PSVPSCALE
 40
0.0
  9
$OLESTARTUP
290
     0
  0
ENDSEC
  0
SECTION
  2
CLASSES
  0
CLASS
  1
ACDBDICTIONARYWDFLT
  2
AcDbDictionaryWithDefault
  3
ObjectDBX Classes
 90
        0
280
     0
281
     0
  0
CLASS
  1
MATERIAL
  2
AcDbMaterial
  3
ObjectDBX Classes
 90
     1153
280
     0
281
     0
  0
CLASS
  1
VISUALSTYLE
  2
AcDbVisualStyle
  3
ObjectDBX Classes
 90
     4095
280
     0
281
     0
  0
CLASS
  1
SCALE
  2
AcDbScale
  3
ObjectDBX Classes
 90
     1153
280
     0
281
     0
  0
CLASS
  1
TABLESTYLE
  2
AcDbTableStyle
  3
ObjectDBX Classes
 90
     4095
280
     0
281
     0
  0
CLASS
  1
MLEADERSTYLE
  2
AcDbMLeaderStyle
  3
ACDB_MLEADERSTYLE_CLASS
 90
     4095
280
     0
281
     0
  0
CLASS
  1
SORTENTSTABLE
  2
AcDbSortentsTable
  3
ObjectDBX Classes
 90
        0
280
     0
281
     0
  0
CLASS
  1
CELLSTYLEMAP
  2
AcDbCellStyleMap
  3
ObjectDBX Classes
 90
     1152
280
     0
281
     0
  0
CLASS
  1
DICTIONARYVAR
  2
AcDbDictionaryVar
  3
ObjectDBX Classes
 90
        0
280
     0
281
     0
  0
CLASS
  1
ACME_DOCUMENT
  2
AcMeDbDoc
  3
AcMeServices
 90
    33792
280
     1
281
     0
  0
CLASS
  1
AMGSETTINGSOBJ
  2
AmgSettingsObj
  3
"AcadM|Product Description: AutoCAD Mechanical|Company: Autodesk, Inc."
 90
    33792
280
     1
281
     0
  0
CLASS
  1
ACMESCOPE
  2
AcMeScope
  3
AcMeServices
 90
    33792
280
     1
281
     0
  0
CLASS
  1
ACMECOMMANDHISTORY
  2
AcMeCommandHistory
  3
AcMeServices
 90
    33792
280
     1
281
     0
  0
CLASS
  1
ACIMSYSVARMAN
  2
AcImSysVarManager
  3
AcMeServices
 90
    33792
280
     1
281
     0
  0
CLASS
  1
ACIMINTSYSVAR
  2
AcImIntSysVar
  3
AcMeServices
 90
    33792
280
     1
281
     0
  0
CLASS
  1
ACMEDRAWINGMAN
  2
AcMeDrawingMan
  3
AcMeServices
 90
    33792
280
     1
281
     0
  0
CLASS
  1
ACMEVIEW
  2
AcMeView
  3
AcMeServices
 90
    33792
280
     1
281
     0
  0
CLASS
  1
ACDBENTITYCACHE
  2
AcMeEntityCache
  3
AcMeServices
 90
    33792
280
     1
281
     0
  0
CLASS
  1
GSMANAGER
  2
AcMeGSManager
  3
AcMeServices
 90
    33792
280
     1
281
     0
  0
CLASS
  1
AMDTINTERNALREACTOR
  2
AmdtInternalReactor
  3
AcMeServices
 90
    33792
280
     1
281
     0
  0
CLASS
  1
ACMESTATEMGR
  2
AcMeStateMgr
  3
AcMeServices
 90
    33792
280
     1
281
     0
  0
CLASS
  1
ACGREFMASTER
  2
AcGrefMaster
  3
AcAttribServices
 90
    33792
280
     1
281
     0
  0
CLASS
  1
AM_DRAWING_MGR
  2
AcDmDwgMgr
  3
AcMechDwgViewMgmt
 90
    33792
280
     1
281
     0
  0
CLASS
  1
AM_DWG_DOCUMENT
  2
AcDmDwgDocument
  3
AcMechDwgViewMgmt
 90
    33792
280
     1
281
     0
  0
CLASS
  1
AM_DWG_SHEET
  2
AcDmSheet
  3
AcMechDwgViewMgmt
 90
    33792
280
     1
281
     0
  0
CLASS
  1
AM_VIEWDIMPARMAP
  2
AcDmViewDimParMap
  3
AcMechDwgViewMgmt
 90
    33792
280
     1
281
     0
  0
CLASS
  1
ACIMREALSYSVAR
  2
AcImRealSysVar
  3
AcMeServices
 90
    33792
280
     1
281
     0
  0
CLASS
  1
AM_DWGMGR_NAME
  2
AcDmDwgMgrName
  3
AcMechDwgViewMgmt
 90
    33792
280
     1
281
     0
  0
CLASS
  1
ACME_DATABASE
  2
AcMeDbDatabase
  3
AcMeServices
 90
    33792
280
     1
281
     0
  0
CLASS
  1
ACRFINSADJUSTERMGR
  2
AcRfInsAdjusterMgr
  3
AcMeServices
 90
    33792
280
     1
281
     0
  0
CLASS
  1
ACGREFACADMASTER
  2
AcGrefacadMaster
  3
AcGrefServices
 90
    33792
280
     1
281
     0
  0
CLASS
  1
AMDTMENUSTATEMGR
  2
AmdtMenuStateMgr
  3
McadcomServices
 90
    33792
280
     1
281
     0
  0
CLASS
  1
AMDTMCOMMENUSTATE
  2
AmdtMcomMenuState
  3
McadcomServices
 90
    33792
280
     1
281
     0
  0
CLASS
  1
AMIMASTER
  2
AmiMaster
  3
AmiServices
 90
    33792
280
     1
281
     0
  0
CLASS
  1
MAPIAMMOUDLE
  2
MApiAmModule
  3
MApiAmServices
 90
    33792
280
     1
281
     0
  0
CLASS
  1
ACIMSTRSYSVAR
  2
AcImStrSysVar
  3
AcMeServices
 90
    33792
280
     1
281
     0
  0
CLASS
  1
AMDTADMENUSTATE
  2
AmdtAdMenuState
  3
DesignerServices
 90
    33792
280
     1
281
     0
  0
CLASS
  1
ADAPPL
  2
AcAdAppl
  3
DesignerServices
 90
    33792
280
     1
281
     0
  0
CLASS
  1
DEPMGR
  2
AcAdDepMgr
  3
DesignerServices
 90
    33792
280
     1
281
     0
  0
CLASS
  1
PARAMMGR
  2
AcAdParamMgr
  3
DesignerServices
 90
    33792
280
     1
281
     0
  0
CLASS
  1
PARAMSCOPE
  2
AcAdParamScope
  3
DesignerServices
 90
    33792
280
     1
281
     0
  0
CLASS
  1
NAMEDAPPL
  2
AcAdNamedAppl
  3
DesignerServices
 90
    33792
280
     1
281
     0
  0
CLASS
  1
AMDTDMMENUSTATE
  2
AmdtDmMenuState
  3
AcMechDwgViewMgmt
 90
    33792
280
     1
281
     0
  0
CLASS
  1
AMDTAMMENUSTATE
  2
AmdtAmMenuState
  3
DesignerAssemblies
 90
    33792
280
     1
281
     0
  0
CLASS
  1
ACAMPROJECT
  2
AcAmProject
  3
DesignerAssemblies
 90
    33792
280
     1
281
     0
  0
CLASS
  1
ACAMGRCOMPDEF
  2
AcAmGrCompDef
  3
DesignerAssemblies
 90
    33792
280
     1
281
     0
  0
CLASS
  1
ACCMCONTEXT
  2
AcCmContext
  3
DesignerAssemblies
 90
    33792
280
     1
281
     0
  0
CLASS
  1
ACAMCOMPDEF
  2
AcAmCompDef
  3
DesignerAssemblies
 90
    33792
280
     1
281
     0
  0
CLASS
  1
ACAMCOMPDEFMGR
  2
AcAmCompDefMgr
  3
DesignerAssemblies
 90
    33792
280
     1
281
     0
  0
CLASS
  1
AMCONTEXTMGR
  2
AcAmContextMgr
  3
DesignerAssemblies
 90
    33792
280
     1
281
     0
  0
CLASS
  1
ACAMCONTEXTMODELER
  2
AcAmContextModeler
  3
DesignerAssemblies
 90
    33792
280
     1
281
     0
  0
CLASS
  1
ACMDATADICTIONARY
  2
AcmDataDictionary
  3
"AcmSymBB|Product Description: AutoCAD Mechanical|Company: Autodesk, Inc."
 90
    33792
280
     1
281
     0
  0
CLASS
  1
CATALOGSTATE
  2
AcAmCatalogState
  3
DesignerAssemblies
 90
    33792
280
     1
281
     0
  0
CLASS
  1
ACAMGRCOMPDEFSET
  2
AcAmGrCompDefSet
  3
DesignerAssemblies
 90
    33792
280
     1
281
     0
  0
CLASS
  1
AMDTBROWSERDBTAB
  2
AmdtBrowserDbTab
  3
McadcomServices
 90
    33792
280
     1
281
     0
  0
CLASS
  1
CBROWSERAPPOBJECT
  2
CBrowserAppObject
  3
McadcomServices
 90
    33792
280
     1
281
     0
  0
CLASS
  1
DM_PLACEHOLDER
  2
AcDmSelsetPlaceholder
  3
AcMechDwgViewMgmt
 90
    33792
280
     1
281
     0
  0
CLASS
  1
EXACXREFPANELOBJECT
  2
ExAcXREFPanelObject
  3
EXAC_ESW
 90
     1025
280
     0
281
     0
  0
CLASS
  1
NPOCOLLECTION
  2
AcDbImpNonPersistentObjectsCollection
  3
ObjectDBX Classes
 90
     1153
280
     0
281
     0
  0
CLASS
  1
ACMSTANDARDANSI
  2
AcmStandardANSI
  3
"Amdt_StdImp|Product Description: AutoCAD Mechanical|Company: Autodesk, Inc."
 90
    33792
280
     1
281
     0
  0
CLASS
  1
ACMSURFSTANDARDANSI
  2
AcmSurfTextStdANSI
  3
"Amdt_StdImp|Product Description: AutoCAD Mechanical|Company: Autodesk, Inc."
 90
    33792
280
     1
281
     0
  0
CLASS
  1
ACMFCFSTANDARDANSI
  2
AcmFCFStdANSI
  3
"Amdt_StdImp|Product Description: AutoCAD Mechanical|Company: Autodesk, Inc."
 90
    33792
280
     1
281
     0
  0
CLASS
  1
ACMWELDSTANDARDANSI
  2
AcmWeldingStdANSI
  3
"Amdt_StdImp|Product Description: AutoCAD Mechanical|Company: Autodesk, Inc."
 90
    33792
280
     1
281
     0
  0
CLASS
  1
ACMIDSTANDARDANSI
  2
AcmIdStdANSI
  3
"Amdt_StdImp|Product Description: AutoCAD Mechanical|Company: Autodesk, Inc."
 90
    33792
280
     1
281
     0
  0
CLASS
  1
ACMDATUMSTANDARDANSI
  2
AcmDatumStdANSI
  3
"Amdt_StdImp|Product Description: AutoCAD Mechanical|Company: Autodesk, Inc."
 90
    33792
280
     1
281
     0
  0
CLASS
  1
ACMBOMSTANDARDANSI
  2
AcmBOMStdANSI
  3
"Amdt_StdImp|Product Description: AutoCAD Mechanical|Company: Autodesk, Inc."
 90
    33792
280
     1
281
     0
  0
CLASS
  1
ACMDETAILSTANDARDANSI
  2
AmdtDetailSymStdANSI
  3
"Amdt_StdImp|Product Description: AutoCAD Mechanical|Company: Autodesk, Inc."
 90
    33792
280
     1
281
     0
  0
CLASS
  1
ACMSECTIONSTANDARDANSI
  2
AmdtSectionSymStdANSI
  3
"Amdt_StdImp|Product Description: AutoCAD Mechanical|Company: Autodesk, Inc."
 90
    33792
280
     1
281
     0
  0
CLASS
  1
ACMCENTERLINESTANDARDANSI
  2
AmdtCenterLineStdANSI
  3
"Amdt_StdImp|Product Description: AutoCAD Mechanical|Company: Autodesk, Inc."
 90
    33792
280
     1
281
     0
  0
CLASS
  1
ACMTHREADLINESTANDARDANSI
  2
AmdtThreadLineStdANSI
  3
"Amdt_StdImp|Product Description: AutoCAD Mechanical|Company: Autodesk, Inc."
 90
    33792
280
     1
281
     0
  0
CLASS
  1
ACMNOTESTANDARDANSI
  2
AmdtNoteStdANSI
  3
"Amdt_StdImp|Product Description: AutoCAD Mechanical|Company: Autodesk, Inc."
 90
    33792
280
     1
281
     0
  0
CLASS
  1
ACMTAPERSTANDARDANSI
  2
AcmTaperStdANSI
  3
"Amdt_StdImp|Product Description: AutoCAD Mechanical|Company: Autodesk, Inc."
 90
    33792
280
     1
281
     0
  0
CLASS
  1
ACMANOOTATIONVIEWSTANDARDANSI
  2
AmdtAnViewStdANSI
  3
"Amdt_StdImp|Product Description: AutoCAD Mechanical|Company: Autodesk, Inc."
 90
    33792
280
     1
281
     0
  0
CLASS
  1
ACAMGLAYSTD
  2
AcAmgLayStd
  3
"AmgLay|Product Description: AutoCAD Mechanical|Company: Autodesk, Inc."
 90
    33792
280
     1
281
     0
  0
CLASS
  1
ACAMGDIMSTD
  2
AcAmgDimStd
  3
"AmgDim|Product Description: AutoCAD Mechanical|Company: Autodesk, Inc."
 90
    33792
280
     1
281
     0
  0
CLASS
  1
AMGOBJPROPCFG
  2
AmgObjPropCfg
  3
"AmgLay|Product Description: AutoCAD Mechanical|Company: Autodesk, Inc."
 90
    33793
280
     1
281
     0
  0
CLASS
  1
ACAMGHOLECHARTSTDANSI
  2
AcAmgHoleChartStdANSI
  3
AmgDim|Product Description: AutoCAD Mechanical|Company: Autodesk, Inc.
 90
    33792
280
     1
281
     0
  0
CLASS
  1
ACAMGTITLESTD
  2
AcAmgTitleStd
  3
"AmgTitle|Product Description: AutoCAD Mechanical|Company: Autodesk, Inc."
 90
    36863
280
     1
281
     0
  0
CLASS
  1
AMDTNOTETEMPLATEDB
  2
AmdtNoteTemplateDB
  3
AcmSymBB|Product Description: AutoCAD Mechanical|Company: Autodesk, Inc.
 90
    33792
280
     1
281
     0
  0
CLASS
  1
ACAMGFILTERDAT
  2
AcAmgFilterDat
  3
"AcadM|Product Description: AutoCAD Mechanical|Company: Autodesk, Inc."
 90
    33792
280
     1
281
     0
  0
CLASS
  1
CAMSSTRUCTBTNSTATE
  2
StructBtnState
  3
DesignerAssemblies
 90
    33792
280
     1
281
     0
  0
CLASS
  1
ACDBPLACEHOLDER
  2
AcDbPlaceHolder
  3
ObjectDBX Classes
 90
        0
280
     0
281
     0
  0
CLASS
  1
LAYOUT
  2
AcDbLayout
  3
ObjectDBX Classes
 90
        0
280
     0
281
     0
  0
CLASS
  1
SOLID_BACKGROUND
  2
AcDbSolidBackground
  3
SCENEOE
 90
    36863
280
     0
281
     0
  0
ENDSEC
  0
SECTION
  2
TABLES
  0
TABLE
  2
VPORT
  5
28
102
{ACAD_XDICTIONARY
360
2C
102
}
330
0
100
AcDbSymbolTable
 70
     1
  0
VPORT
  5
29
330
28
100
AcDbSymbolTableRecord
100
AcDbViewportTableRecord
  2
*ACTIVE
 70
     0
 10
0.0
 20
0.0
 11
1.0
 21
1.0
 12
0.0000000000002274
 22
1538.190747252245
 13
0.0
 23
0.0
 14
1.0
 24
1.0
 15
0.0
 25
0.0
 16
0.0
 26
0.0
 36
1.0
 17
0.0
 27
0.0
 37
0.0
 40
3490.374656888175
 41
1.141762452107279
 42
50.0
 43
0.0
 44
0.0
 50
0.0
 51
0.0
 71
     0
 72
   100
 73
     1
 74
     1
 75
     0
 76
     0
 77
     0
 78
     0
281
     0
 65
     1
110
0.0
120
0.0
130
0.0
111
1.0
121
0.0
131
0.0
112
0.0
122
1.0
132
0.0
 79
     0
146
0.0
  0
ENDTAB
  0
TABLE
  2
LTYPE
  5
23
330
0
100
AcDbSymbolTable
 70
     3
  0
LTYPE
  5
24
330
23
100
AcDbSymbolTableRecord
100
AcDbLinetypeTableRecord
  2
ByBlock
 70
     0
  3

 72
    65
 73
     0
 40
0.0
  0
LTYPE
  5
25
330
23
100
AcDbSymbolTableRecord
100
AcDbLinetypeTableRecord
  2
ByLayer
 70
     0
  3

 72
    65
 73
     0
 40
0.0
  0
LTYPE
  5
13
330
23
100
AcDbSymbolTableRecord
100
AcDbLinetypeTableRecord
  2
CONTINUOUS
 70
     0
  3
Solid line
 72
    65
 73
     0
 40
0.0
  0
LTYPE
  5
77
330
23
100
AcDbSymbolTableRecord
100
AcDbLinetypeTableRecord
  2
DASHDOT
 70
     0
  3
Dash dot __ . __ . __ . __ . __ . __ . __ . __
 72
    65
 73
     4
 40
1.0
 49
0.5
 74
     0
 49
-0.25
 74
     0
 49
0.0
 74
     0
 49
-0.25
 74
     0
  0
LTYPE
  5
81
330
23
100
AcDbSymbolTableRecord
100
AcDbLinetypeTableRecord
  2
DASHED
 70
     0
  3
Dashed __ __ __ __ __ __ __ __ __ __ __ __ __ _
 72
    65
 73
     2
 40
0.75
 49
0.5
 74
     0
 49
-0.25
 74
     0
  0
ENDTAB
  0
TABLE
  2
LAYER
  5
1B
102
{ACAD_XDICTIONARY
360
1C
102
}
330
0
100
AcDbSymbolTable
 70
     7
  0
LAYER
  5
6
330
1B
100
AcDbSymbolTableRecord
100
AcDbLayerTableRecord
  2
0
 70
     0
 62
     7
  6
CONTINUOUS
370
    -3
390
7
  0
LAYER
  5
130
330
1B
100
AcDbSymbolTableRecord
100
AcDbLayerTableRecord
  2
GEB-KONTUR-A
 70
     0
 62
     5
  6
CONTINUOUS
370
    -3
390
7
  0
LAYER
  5
76
330
1B
100
AcDbSymbolTableRecord
100
AcDbLayerTableRecord
  2
GEB-SYMMETRIE
 70
     0
 62
     3
  6
DASHDOT
370
    -3
390
7
1001
AcAecLayerStandard
1000

1000

  0
LAYER
  5
80
330
1B
100
AcDbSymbolTableRecord
100
AcDbLayerTableRecord
  2
GEB-VERDECKT
 70
     0
 62
     2
  6
DASHED
370
    -3
390
7
1001
AcAecLayerStandard
1000

1000

  0
LAYER
  5
138
330
1B
100
AcDbSymbolTableRecord
100
AcDbLayerTableRecord
  2
GEB-ART-NR
 70
     0
 62
     1
  6
CONTINUOUS
370
    18
390
7
  0
LAYER
  5
72
330
1B
100
AcDbSymbolTableRecord
100
AcDbLayerTableRecord
  2
GEB-BEZUG
 70
     0
 62
     2
  6
CONTINUOUS
370
    25
390
7
  0
LAYER
  5
135
330
1B
100
AcDbSymbolTableRecord
100
AcDbLayerTableRecord
  2
GEB-TEXT
 70
     0
 62
     5
  6
CONTINUOUS
370
    18
390
7
  0
ENDTAB
  0
TABLE
  2
STYLE
  5
20
330
0
100
AcDbSymbolTable
 70
     1
  0
STYLE
  5
21
330
20
100
AcDbSymbolTableRecord
100
AcDbTextStyleTableRecord
  2
STANDARD
 70
     0
 40
0.0
 41
1.0
 50
0.0
 71
     0
 42
0.2
  3
ARIAL.TTF
  4

1001
ACAD
1000
Arial
1071
       34
  0
ENDTAB
  0
TABLE
  2
VIEW
  5
26
330
0
100
AcDbSymbolTable
 70
     0
  0
ENDTAB
  0
TABLE
  2
UCS
  5
27
330
0
100
AcDbSymbolTable
 70
     0
  0
ENDTAB
  0
TABLE
  2
APPID
  5
2D
330
0
100
AcDbSymbolTable
 70
     3
  0
APPID
  5
1F
330
2D
100
AcDbSymbolTableRecord
100
AcDbRegAppTableRecord
  2
ACAD
 70
     0
  0
APPID
  5
78
330
2D
100
AcDbSymbolTableRecord
100
AcDbRegAppTableRecord
  2
AcAecLayerStandard
 70
     0
  0
APPID
  5
1A3
330
2D
100
AcDbSymbolTableRecord
100
AcDbRegAppTableRecord
  2
ACAD_MLEADERVER
 70
     0
  0
ENDTAB
  0
TABLE
  2
DIMSTYLE
  5
2E
330
0
100
AcDbSymbolTable
 70
     1
100
AcDbDimStyleTable
 71
     1
340
2F
  0
DIMSTYLE
105
2F
330
2E
100
AcDbSymbolTableRecord
100
AcDbDimStyleTableRecord
  2
STANDARD
 70
     0
279
     2
340
21
  0
ENDTAB
  0
TABLE
  2
BLOCK_RECORD
  5
1
330
0
100
AcDbSymbolTable
 70
     1
  0
BLOCK_RECORD
  5
2
102
{ACAD_XDICTIONARY
360
3
102
}
330
1
100
AcDbSymbolTableRecord
100
AcDbBlockTableRecord
  2
*Model_Space
340
15
  0
BLOCK_RECORD
  5
17
330
1
100
AcDbSymbolTableRecord
100
AcDbBlockTableRecord
  2
*Paper_Space
340
1A
  0
BLOCK_RECORD
  5
6F
330
1
100
AcDbSymbolTableRecord
100
AcDbBlockTableRecord
  2
Einfügepunkt
340
0
102
{BLKREFS
331
6E
102
}
  0
ENDTAB
  0
ENDSEC
  0
SECTION
  2
BLOCKS
  0
BLOCK
  5
5
330
2
100
AcDbEntity
  8
0
100
AcDbBlockBegin
  2
*Model_Space
 70
     0
 10
0.0
 20
0.0
 30
0.0
  3
*Model_Space
  1

  0
ENDBLK
  5
14
330
2
100
AcDbEntity
  8
0
100
AcDbBlockEnd
  0
BLOCK
  5
18
330
17
100
AcDbEntity
 67
     1
  8
0
100
AcDbBlockBegin
  2
*Paper_Space
 70
     0
 10
0.0
 20
0.0
 30
0.0
  3
*Paper_Space
  1

  0
ENDBLK
  5
19
330
17
100
AcDbEntity
 67
     1
  8
0
100
AcDbBlockEnd
  0
BLOCK
  5
70
330
6F
100
AcDbEntity
  8
0
100
AcDbBlockBegin
  2
Einfügepunkt
 70
     0
 10
0.0
 20
0.0
 30
0.0
  3
Einfügepunkt
  1

  0
LINE
  5
71
330
6F
100
AcDbEntity
  8
GEB-BEZUG
100
AcDbLine
 10
-0.7071067811865817
 20
-0.7071067811865106
 30
0.0
 11
0.7071067811864751
 21
0.7071067811865817
 31
0.0
  0
LINE
  5
73
330
6F
100
AcDbEntity
  8
GEB-BEZUG
100
AcDbLine
 10
-0.7071067811865106
 20
0.7071067811865817
 30
0.0
 11
0.7071067811865462
 21
-0.7071067811865106
 31
0.0
  0
ENDBLK
  5
74
330
6F
100
AcDbEntity
  8
0
100
AcDbBlockEnd
  0
ENDSEC
  0
SECTION
  2
ENTITIES
  0
INSERT
  5
6E
330
2
100
AcDbEntity
  8
0
 48
25.0
100
AcDbBlockReference
  2
Einfügepunkt
 10
0.0
 20
0.0
 30
0.0
  0
LINE
  5
75
330
2
100
AcDbEntity
  8
GEB-SYMMETRIE
 48
25.0
100
AcDbLine
 10
-0.0000000000003411
 20
3084.430214277749
 30
0.0
 11
-0.0000000000003411
 21
3096.930214277749
 31
0.0
  0
LINE
  5
79
330
2
100
AcDbEntity
  8
GEB-SYMMETRIE
 48
25.0
100
AcDbLine
 10
-0.0000000000003411
 20
3075.730214277749
 30
0.0
 11
-0.0000000000003411
 21
3089.430214277749
 31
0.0
  0
LINE
  5
7A
330
2
100
AcDbEntity
  8
GEB-SYMMETRIE
 48
25.0
100
AcDbLine
 10
-0.0000000000003411
 20
3047.530214277748
 30
0.0
 11
-0.0000000000003411
 21
3080.730214277749
 31
0.0
  0
LINE
  5
7B
330
2
100
AcDbEntity
  8
GEB-SYMMETRIE
 48
25.0
100
AcDbLine
 10
-0.0000000000003411
 20
3047.880214277749
 30
0.0
 11
-0.0000000000003411
 21
46.38021427774811
 31
0.0
  0
LINE
  5
7C
330
2
100
AcDbEntity
  8
GEB-SYMMETRIE
 48
25.0
100
AcDbLine
 10
0.0
 20
46.73021427774734
 30
0.0
 11
0.0
 21
13.53021427774729
 31
0.0
  0
LINE
  5
7D
330
2
100
AcDbEntity
  8
GEB-SYMMETRIE
 48
25.0
100
AcDbLine
 10
0.0
 20
18.53021427774729
 30
0.0
 11
0.0
 21
4.830214277747245
 31
0.0
  0
LINE
  5
7E
330
2
100
AcDbEntity
  8
GEB-SYMMETRIE
 48
25.0
100
AcDbLine
 10
0.0
 20
9.830214277747245
 30
0.0
 11
0.0
 21
-2.669785722252754
 31
0.0
  0
LINE
  5
7F
330
2
100
AcDbEntity
  8
GEB-VERDECKT
 48
25.0
100
AcDbLine
 10
18.0749999999997
 20
3035.430214277749
 30
0.0
 11
18.0749999999997
 21
3045.46714485245
 31
0.0
  0
LINE
  5
82
330
2
100
AcDbEntity
  8
GEB-VERDECKT
 48
25.0
100
AcDbLine
 10
-18.07500000000016
 20
3035.430214277749
 30
0.0
 11
-18.07500000000016
 21
3045.46714485245
 31
0.0
  0
LINE
  5
83
330
2
100
AcDbEntity
  8
GEB-VERDECKT
 48
25.0
100
AcDbLine
 10
18.07500000000004
 20
3045.46714485245
 30
0.0
 11
20.39999999999998
 21
3050.030214277749
 31
0.0
  0
LINE
  5
84
330
2
100
AcDbEntity
  8
GEB-VERDECKT
 48
25.0
100
AcDbLine
 10
-18.07500000000016
 20
3045.46714485245
 30
0.0
 11
-20.4000000000002
 21
3050.030214277749
 31
0.0
  0
LINE
  5
85
330
2
100
AcDbEntity
  8
GEB-VERDECKT
 48
25.0
100
AcDbLine
 10
20.39999999999975
 20
3050.030214277749
 30
0.0
 11
20.39999999999975
 21
3078.230214277749
 31
0.0
  0
LINE
  5
86
330
2
100
AcDbEntity
  8
GEB-VERDECKT
 48
25.0
100
AcDbLine
 10
-20.39999999999998
 20
3050.030214277749
 30
0.0
 11
-20.39999999999998
 21
3078.230214277749
 31
0.0
  0
LINE
  5
87
330
2
100
AcDbEntity
  8
GEB-VERDECKT
 48
25.0
100
AcDbLine
 10
24.74999999999977
 20
3078.230214277749
 30
0.0
 11
24.74999999999977
 21
3086.930214277749
 31
0.0
  0
LINE
  5
88
330
2
100
AcDbEntity
  8
GEB-VERDECKT
 48
25.0
100
AcDbLine
 10
-24.75000000000012
 20
3078.230214277749
 30
0.0
 11
-24.75000000000012
 21
3086.930214277749
 31
0.0
  0
LINE
  5
89
330
2
100
AcDbEntity
  8
GEB-VERDECKT
 48
25.0
100
AcDbLine
 10
20.39999999999975
 20
3086.930214277749
 30
0.0
 11
20.39999999999975
 21
3094.430214277749
 31
0.0
  0
LINE
  5
8A
330
2
100
AcDbEntity
  8
GEB-VERDECKT
 48
25.0
100
AcDbLine
 10
-20.39999999999998
 20
3086.930214277749
 30
0.0
 11
-20.39999999999998
 21
3094.430214277749
 31
0.0
  0
LINE
  5
8B
330
2
100
AcDbEntity
  8
GEB-VERDECKT
 48
25.0
100
AcDbLine
 10
22.39999999999975
 20
3088.930214277749
 30
0.0
 11
22.39999999999975
 21
3094.430214277749
 31
0.0
  0
LINE
  5
8C
330
2
100
AcDbEntity
  8
GEB-VERDECKT
 48
25.0
100
AcDbLine
 10
-22.39999999999998
 20
3088.930214277749
 30
0.0
 11
-22.39999999999998
 21
3094.430214277749
 31
0.0
  0
LINE
  5
8D
330
2
100
AcDbEntity
  8
GEB-VERDECKT
 48
25.0
100
AcDbLine
 10
26.74999999999989
 20
3076.230214277749
 30
0.0
 11
26.74999999999989
 21
3088.930214277749
 31
0.0
  0
LINE
  5
8E
330
2
100
AcDbEntity
  8
GEB-VERDECKT
 48
25.0
100
AcDbLine
 10
-26.75000000000011
 20
3076.230214277749
 30
0.0
 11
-26.75000000000011
 21
3088.930214277749
 31
0.0
  0
LINE
  5
8F
330
2
100
AcDbEntity
  8
GEB-VERDECKT
 48
25.0
100
AcDbLine
 10
22.39999999999975
 20
3072.430214277749
 30
0.0
 11
22.39999999999975
 21
3076.230214277749
 31
0.0
  0
LINE
  5
90
330
2
100
AcDbEntity
  8
GEB-VERDECKT
 48
25.0
100
AcDbLine
 10
22.39999999999975
 20
3066.680214277749
 30
0.0
 11
22.39999999999975
 21
3071.430214277749
 31
0.0
  0
LINE
  5
91
330
2
100
AcDbEntity
  8
GEB-VERDECKT
 48
25.0
100
AcDbLine
 10
22.39999999999975
 20
3060.930214277749
 30
0.0
 11
22.39999999999975
 21
3065.680214277749
 31
0.0
  0
LINE
  5
92
330
2
100
AcDbEntity
  8
GEB-VERDECKT
 48
25.0
100
AcDbLine
 10
22.39999999999975
 20
3055.180214277749
 30
0.0
 11
22.39999999999975
 21
3059.930214277749
 31
0.0
  0
LINE
  5
93
330
2
100
AcDbEntity
  8
GEB-VERDECKT
 48
25.0
100
AcDbLine
 10
22.39999999999975
 20
3047.93021427775
 30
0.0
 11
22.39999999999975
 21
3054.180214277749
 31
0.0
  0
LINE
  5
94
330
2
100
AcDbEntity
  8
GEB-VERDECKT
 48
25.0
100
AcDbLine
 10
-22.39999999999998
 20
3072.430214277749
 30
0.0
 11
-22.39999999999998
 21
3076.230214277749
 31
0.0
  0
LINE
  5
95
330
2
100
AcDbEntity
  8
GEB-VERDECKT
 48
25.0
100
AcDbLine
 10
-22.39999999999998
 20
3066.680214277749
 30
0.0
 11
-22.39999999999998
 21
3071.430214277749
 31
0.0
  0
LINE
  5
96
330
2
100
AcDbEntity
  8
GEB-VERDECKT
 48
25.0
100
AcDbLine
 10
-22.39999999999998
 20
3060.930214277749
 30
0.0
 11
-22.39999999999998
 21
3065.680214277749
 31
0.0
  0
LINE
  5
97
330
2
100
AcDbEntity
  8
GEB-VERDECKT
 48
25.0
100
AcDbLine
 10
-22.39999999999998
 20
3055.180214277749
 30
0.0
 11
-22.39999999999998
 21
3059.930214277749
 31
0.0
  0
LINE
  5
98
330
2
100
AcDbEntity
  8
GEB-VERDECKT
 48
25.0
100
AcDbLine
 10
-22.39999999999998
 20
3047.930214277749
 30
0.0
 11
-22.39999999999998
 21
3054.180214277749
 31
0.0
  0
LINE
  5
99
330
2
100
AcDbEntity
  8
GEB-VERDECKT
 48
25.0
100
AcDbLine
 10
21.39999999999986
 20
3045.430214277749
 30
0.0
 11
21.39999999999986
 21
3047.930214277749
 31
0.0
  0
LINE
  5
9A
330
2
100
AcDbEntity
  8
GEB-VERDECKT
 48
25.0
100
AcDbLine
 10
-21.4000000000002
 20
3045.430214277749
 30
0.0
 11
-21.4000000000002
 21
3047.930214277749
 31
0.0
  0
LINE
  5
9B
330
2
100
AcDbEntity
  8
GEB-VERDECKT
 48
25.0
100
AcDbLine
 10
20.07499999999982
 20
3035.430214277749
 30
0.0
 11
20.07499999999982
 21
3045.430214277749
 31
0.0
  0
LINE
  5
9C
330
2
100
AcDbEntity
  8
GEB-VERDECKT
 48
25.0
100
AcDbLine
 10
-20.07500000000016
 20
3035.430214277749
 30
0.0
 11
-20.07500000000016
 21
3045.430214277749
 31
0.0
  0
LINE
  5
9D
330
2
100
AcDbEntity
  8
GEB-VERDECKT
 48
25.0
100
AcDbLine
 10
18.0749999999997
 20
3045.46714485245
 30
0.0
 11
-18.07500000000016
 21
3045.46714485245
 31
0.0
  0
LINE
  5
9E
330
2
100
AcDbEntity
  8
GEB-VERDECKT
 48
25.0
100
AcDbLine
 10
20.39999999999975
 20
3050.030214277748
 30
0.0
 11
-20.39999999999998
 21
3050.030214277748
 31
0.0
  0
LINE
  5
9F
330
2
100
AcDbEntity
  8
GEB-VERDECKT
 48
25.0
100
AcDbLine
 10
24.74999999999977
 20
3078.230214277749
 30
0.0
 11
-24.75000000000012
 21
3078.230214277749
 31
0.0
  0
LINE
  5
A0
330
2
100
AcDbEntity
  8
GEB-VERDECKT
 48
25.0
100
AcDbLine
 10
24.74999999999977
 20
3086.930214277749
 30
0.0
 11
-24.75000000000012
 21
3086.930214277749
 31
0.0
  0
LINE
  5
A1
330
2
100
AcDbEntity
  8
GEB-VERDECKT
 48
25.0
100
AcDbLine
 10
22.39999999999975
 20
3094.430214277749
 30
0.0
 11
-22.39999999999998
 21
3094.430214277749
 31
0.0
  0
LINE
  5
A2
330
2
100
AcDbEntity
  8
GEB-VERDECKT
 48
25.0
100
AcDbLine
 10
26.74999999999989
 20
3088.930214277749
 30
0.0
 11
-26.75000000000011
 21
3088.930214277749
 31
0.0
  0
LINE
  5
A3
330
2
100
AcDbEntity
  8
GEB-VERDECKT
 48
25.0
100
AcDbLine
 10
26.74999999999989
 20
3076.230214277749
 30
0.0
 11
-26.75000000000011
 21
3076.230214277749
 31
0.0
  0
LINE
  5
A4
330
2
100
AcDbEntity
  8
GEB-VERDECKT
 48
25.0
100
AcDbLine
 10
22.39999999999975
 20
3047.930214277749
 30
0.0
 11
-22.39999999999998
 21
3047.930214277749
 31
0.0
  0
LINE
  5
A5
330
2
100
AcDbEntity
  8
GEB-VERDECKT
 48
25.0
100
AcDbLine
 10
21.39999999999986
 20
3045.430214277749
 30
0.0
 11
-21.4000000000002
 21
3045.430214277749
 31
0.0
  0
LINE
  5
A6
330
2
100
AcDbEntity
  8
GEB-VERDECKT
 48
25.0
100
AcDbLine
 10
20.07499999999982
 20
3035.430214277749
 30
0.0
 11
-20.07500000000016
 21
3035.430214277749
 31
0.0
  0
ARC
  5
A7
330
2
100
AcDbEntity
  8
GEB-VERDECKT
 48
25.0
100
AcDbCircle
 10
-22.39999999999998
 20
3071.055214277749
 30
0.0
 40
1.375000000000005
100
AcDbArc
 50
90.00000000001303
 51
133.6028189727126
  0
ARC
  5
A8
330
2
100
AcDbEntity
  8
GEB-VERDECKT
 48
25.0
100
AcDbCircle
 10
-22.39999999999998
 20
3072.805214277749
 30
0.0
 40
1.374999999999994
100
AcDbArc
 50
226.3971810272921
 51
270.0
  0
ARC
  5
A9
330
2
100
AcDbEntity
  8
GEB-VERDECKT
 48
25.0
100
AcDbCircle
 10
-23.23333333333346
 20
3071.930214277749
 30
0.0
 40
0.1666666666666666
100
AcDbArc
 50
133.6028189726895
 51
226.3971810273105
  0
SPLINE
  5
AA
330
2
100
AcDbEntity
  8
GEB-VERDECKT
 48
25.0
100
AcDbSpline
210
0.0
220
0.0
230
1.0
 70
     8
 71
     3
 72
    18
 73
    14
 74
     0
 42
0.0000000001
 43
0.0000000001
 40
2.515839392244418
 40
2.515839392244418
 40
2.515839392244418
 40
2.515839392244418
 40
2.560407317312832
 40
2.560407317312832
 40
2.769292494592967
 40
2.769292494592967
 40
3.10658663506589
 40
3.10658663506589
 40
3.792662241568975
 40
3.792662241568975
 40
4.498523124862364
 40
4.498523124862364
 40
5.026979215875235
 40
5.026979215875235
 40
5.026979215875235
 40
5.026979215875235
 10
-22.39999999999998
 20
3072.430214277749
 30
0.0
 10
-22.39999999999998
 20
3072.430214277749
 30
0.0
 10
-22.39851285206726
 20
3072.430214291845
 30
0.0
 10
-22.38159541763832
 20
3072.430213971248
 30
0.0
 10
-22.33498798840708
 20
3072.43021858153
 30
0.0
 10
-22.12811184027953
 20
3072.430092035374
 30
0.0
 10
-21.91587966293935
 20
3072.429901047597
 30
0.0
 10
-21.02115262172345
 20
3072.426950554811
 30
0.0
 10
-20.08460667599718
 20
3072.422186587458
 30
0.0
 10
-17.56815226386732
 20
3072.384171130711
 30
0.0
 10
-15.98637264665888
 20
3072.350816607791
 30
0.0
 10
-12.78974086937239
 20
3072.230842077665
 30
0.0
 10
-11.29501047335986
 20
3072.161337445738
 30
0.0
 10
-9.708524889791419
 20
3072.050903932921
 30
0.0
  0
SPLINE
  5
AB
330
2
100
AcDbEntity
  8
GEB-VERDECKT
 48
25.0
100
AcDbSpline
210
0.0
220
0.0
230
1.0
 70
     8
 71
     3
 72
    16
 73
    12
 74
     0
 42
0.0000000001
 43
0.0000000001
 40
0.0026302539176521
 40
0.0026302539176521
 40
0.0026302539176521
 40
0.0026302539176521
 40
0.7966428389618099
 40
0.7966428389618099
 40
1.604303165644387
 40
1.604303165644387
 40
2.119037224898871
 40
2.119037224898871
 40
2.368046377464019
 40
2.368046377464019
 40
2.515839392244391
 40
2.515839392244391
 40
2.515839392244391
 40
2.515839392244391
 10
-9.708524889791419
 20
3071.809524622577
 30
0.0
 10
-12.08894037455354
 20
3071.643826524423
 30
0.0
 10
-14.25608987834528
 20
3071.56605450229
 30
0.0
 10
-17.97869449656252
 20
3071.463456074036
 30
0.0
 10
-19.48988893407898
 20
3071.445690073955
 30
0.0
 10
-21.24449016605252
 20
3071.432055547586
 30
0.0
 10
-21.74305382423029
 20
3071.430933080496
 30
0.0
 10
-22.19451175379675
 20
3071.430258008354
 30
0.0
 10
-22.29588191360142
 20
3071.43023085357
 30
0.0
 10
-22.38364625328484
 20
3071.43021257739
 30
0.0
 10
-22.39999999999998
 20
3071.430214277749
 30
0.0
 10
-22.39999999999998
 20
3071.430214277749
 30
0.0
  0
SPLINE
  5
AC
330
2
100
AcDbEntity
  8
GEB-VERDECKT
 48
25.0
100
AcDbSpline
210
0.0
220
0.0
230
1.0
 70
     8
 71
     3
 72
    28
 73
    24
 74
     0
 42
0.0000000001
 43
0.0000000001
 40
0.000549672068412
 40
0.000549672068412
 40
0.000549672068412
 40
0.000549672068412
 40
0.0733177656791823
 40
0.0733177656791823
 40
0.1082986036710511
 40
0.1082986036710511
 40
0.1130439421073878
 40
0.1130439421073878
 40
0.1153813164161232
 40
0.1153813164161232
 40
0.1169282292691532
 40
0.1169282292691532
 40
0.118340803302445
 40
0.118340803302445
 40
0.1201304062779208
 40
0.1201304062779208
 40
0.1234160542160876
 40
0.1234160542160876
 40
0.1318469493905364
 40
0.1318469493905364
 40
0.1639189615350106
 40
0.1639189615350106
 40
0.2618557506767484
 40
0.2618557506767484
 40
0.2618557506767484
 40
0.2618557506767484
 10
-9.708524889791419
 20
3072.050903932921
 30
0.0
 10
-9.490957187882827
 20
3072.035759284999
 30
0.0
 10
-9.311640451560037
 20
3072.017353679056
 30
0.0
 10
-9.126366151959359
 20
3071.985981137377
 30
0.0
 10
-9.050683271681577
 20
3071.970410061314
 30
0.0
 10
-9.012661946990988
 20
3071.947940520959
 30
0.0
 10
-9.008240754480425
 20
3071.94479355778
 30
0.0
 10
-9.003426395890642
 20
3071.939502950817
 30
0.0
 10
-9.001966459793152
 20
3071.937482411059
 30
0.0
 10
-9.000423182139797
 20
3071.933749366319
 30
0.0
 10
-9.000050916345458
 20
3071.932188099078
 30
0.0
 10
-8.999962784909826
 20
3071.929068753152
 30
0.0
 10
-9.000195534075487
 20
3071.927622186094
 30
0.0
 10
-9.001240342501546
 20
3071.924444064352
 30
0.0
 10
-9.0021680601061
 20
3071.922808332694
 30
0.0
 10
-9.005225689370149
 20
3071.918629479867
 30
0.0
 10
-9.007878850609699
 20
3071.916246760759
 30
0.0
 10
-9.017139782384106
 20
3071.909217739423
 30
0.0
 10
-9.026120895700046
 20
3071.904824030045
 30
0.0
 10
-9.068058101325846
 20
3071.8875121788
 30
0.0
 10
-9.118811449334657
 20
3071.876550086269
 30
0.0
 10
-9.285558323509008
 20
3071.845768803134
 30
0.0
 10
-9.474803919500232
 20
3071.825793681707
 30
0.0
 10
-9.708524889791419
 20
3071.809524622577
 30
0.0
  0
ARC
  5
AD
330
2
100
AcDbEntity
  8
GEB-VERDECKT
 48
25.0
100
AcDbCircle
 10
22.39999999999975
 20
3071.055214277749
 30
0.0
 40
1.375000000000006
100
AcDbArc
 50
46.39718102729212
 51
90.0
  0
ARC
  5
AE
330
2
100
AcDbEntity
  8
GEB-VERDECKT
 48
25.0
100
AcDbCircle
 10
22.39999999999975
 20
3072.805214277749
 30
0.0
 40
1.374999999999993
100
AcDbArc
 50
270.000000000013
 51
313.6028189727126
  0
ARC
  5
AF
330
2
100
AcDbEntity
  8
GEB-VERDECKT
 48
25.0
100
AcDbCircle
 10
23.23333333333312
 20
3071.930214277749
 30
0.0
 40
0.1666666666666666
100
AcDbArc
 50
313.6028189726895
 51
46.39718102731053
  0
SPLINE
  5
B0
330
2
100
AcDbEntity
  8
GEB-VERDECKT
 48
25.0
100
AcDbSpline
210
0.0
220
0.0
230
1.0
 70
     8
 71
     3
 72
    16
 73
    12
 74
     0
 42
0.0000000001
 43
0.0000000001
 40
0.0026302539176697
 40
0.0026302539176697
 40
0.0026302539176697
 40
0.0026302539176697
 40
0.796642838961812
 40
0.796642838961812
 40
1.604303165644373
 40
1.604303165644373
 40
2.119037224898893
 40
2.119037224898893
 40
2.368046377464043
 40
2.368046377464043
 40
2.515839392244428
 40
2.515839392244428
 40
2.515839392244428
 40
2.515839392244428
 10
9.708524889791192
 20
3072.050903932921
 30
0.0
 10
12.0889403745532
 20
3072.216602031074
 30
0.0
 10
14.25608987834493
 20
3072.294374053207
 30
0.0
 10
17.97869449656207
 20
3072.396972481461
 30
0.0
 10
19.48988893407875
 20
3072.414738481543
 30
0.0
 10
21.24449016605229
 20
3072.428373007911
 30
0.0
 10
21.74305382423018
 20
3072.429495475002
 30
0.0
 10
22.19451175379652
 20
3072.430170547143
 30
0.0
 10
22.29588191360119
 20
3072.430197701928
 30
0.0
 10
22.38364625328438
 20
3072.430215978108
 30
0.0
 10
22.39999999999975
 20
3072.430214277749
 30
0.0
 10
22.39999999999975
 20
3072.430214277749
 30
0.0
  0
SPLINE
  5
B1
330
2
100
AcDbEntity
  8
GEB-VERDECKT
 48
25.0
100
AcDbSpline
210
0.0
220
0.0
230
1.0
 70
     8
 71
     3
 72
    18
 73
    14
 74
     0
 42
0.0000000001
 43
0.0000000001
 40
2.515839392244428
 40
2.515839392244428
 40
2.515839392244428
 40
2.515839392244428
 40
2.560407317312793
 40
2.560407317312793
 40
2.769292494592959
 40
2.769292494592959
 40
3.106586635065938
 40
3.106586635065938
 40
3.79266224156908
 40
3.79266224156908
 40
4.498523124862665
 40
4.498523124862665
 40
5.026979215875925
 40
5.026979215875925
 40
5.026979215875925
 40
5.026979215875925
 10
22.39999999999975
 20
3071.430214277749
 30
0.0
 10
22.39999999999975
 20
3071.430214277749
 30
0.0
 10
22.39851285206703
 20
3071.430214263653
 30
0.0
 10
22.38159541763787
 20
3071.43021458425
 30
0.0
 10
22.33498798840697
 20
3071.430209973967
 30
0.0
 10
22.12811184027942
 20
3071.430336520124
 30
0.0
 10
21.91587966293923
 20
3071.430527507902
 30
0.0
 10
21.02115262172367
 20
3071.433478000687
 30
0.0
 10
20.08460667599775
 20
3071.43824196804
 30
0.0
 10
17.56815226386845
 20
3071.476257424786
 30
0.0
 10
15.98637264666036
 20
3071.509611947706
 30
0.0
 10
12.78974086937353
 20
3071.629586477832
 30
0.0
 10
11.29501047336032
 20
3071.69909110976
 30
0.0
 10
9.708524889791192
 20
3071.809524622577
 30
0.0
  0
SPLINE
  5
B2
330
2
100
AcDbEntity
  8
GEB-VERDECKT
 48
25.0
100
AcDbSpline
210
0.0
220
0.0
230
1.0
 70
     8
 71
     3
 72
    28
 73
    24
 74
     0
 42
0.0000000001
 43
0.0000000001
 40
0.0005496720684024
 40
0.0005496720684024
 40
0.0005496720684024
 40
0.0005496720684024
 40
0.0733177656789543
 40
0.0733177656789543
 40
0.1082986036718085
 40
0.1082986036718085
 40
0.1130439421153812
 40
0.1130439421153812
 40
0.1153813164303101
 40
0.1153813164303101
 40
0.1169282292877371
 40
0.1169282292877371
 40
0.1183408033249771
 40
0.1183408033249771
 40
0.120130406304983
 40
0.120130406304983
 40
0.1234160542513166
 40
0.1234160542513166
 40
0.1318469494475599
 40
0.1318469494475599
 40
0.1639189616747492
 40
0.1639189616747492
 40
0.2618557510724027
 40
0.2618557510724027
 40
0.2618557510724027
 40
0.2618557510724027
 10
9.708524889791192
 20
3071.809524622577
 30
0.0
 10
9.490957187883168
 20
3071.824669270499
 30
0.0
 10
9.311640451560037
 20
3071.843074876441
 30
0.0
 10
9.126366151956972
 20
3071.874447418121
 30
0.0
 10
9.050683271680782
 20
3071.890018494184
 30
0.0
 10
9.012661946983939
 20
3071.912488034543
 30
0.0
 10
9.008240754477128
 20
3071.915634997721
 30
0.0
 10
9.00342639588996
 20
3071.920925604682
 30
0.0
 10
9.001966459792811
 20
3071.922946144439
 30
0.0
 10
9.000423182139343
 20
3071.926679189178
 30
0.0
 10
9.00005091634523
 20
3071.92824045642
 30
0.0
 10
8.999962784909598
 20
3071.931359802345
 30
0.0
 10
9.000195534075032
 20
3071.932806369403
 30
0.0
 10
9.001240342501318
 20
3071.935984491146
 30
0.0
 10
9.002168060105759
 20
3071.937620222803
 30
0.0
 10
9.005225689369922
 20
3071.941799075631
 30
0.0
 10
9.007878850609813
 20
3071.944181794739
 30
0.0
 10
9.017139782383878
 20
3071.951210816076
 30
0.0
 10
9.026120895699591
 20
3071.955604525453
 30
0.0
 10
9.068058101325846
 20
3071.972916376698
 30
0.0
 10
9.118811449335339
 20
3071.983878469229
 30
0.0
 10
9.285558323507984
 20
3072.014659752364
 30
0.0
 10
9.474803919499208
 20
3072.034634873791
 30
0.0
 10
9.708524889791192
 20
3072.050903932921
 30
0.0
  0
ARC
  5
B3
330
2
100
AcDbEntity
  8
GEB-VERDECKT
 48
25.0
100
AcDbCircle
 10
-22.39999999999998
 20
3065.305214277749
 30
0.0
 40
1.375000000000005
100
AcDbArc
 50
90.0
 51
133.6028189727126
  0
ARC
  5
B4
330
2
100
AcDbEntity
  8
GEB-VERDECKT
 48
25.0
100
AcDbCircle
 10
-22.39999999999998
 20
3067.055214277749
 30
0.0
 40
1.374999999999994
100
AcDbArc
 50
226.3971810272874
 51
270.0
  0
ARC
  5
B5
330
2
100
AcDbEntity
  8
GEB-VERDECKT
 48
25.0
100
AcDbCircle
 10
-23.23333333333346
 20
3066.180214277749
 30
0.0
 40
0.1666666666666666
100
AcDbArc
 50
133.6028189727263
 51
226.3971810272737
  0
ARC
  5
B6
330
2
100
AcDbEntity
  8
GEB-VERDECKT
 48
25.0
100
AcDbCircle
 10
-22.39999999999998
 20
3059.555214277749
 30
0.0
 40
1.375000000000005
100
AcDbArc
 50
90.0
 51
133.6028189726895
  0
ARC
  5
B7
330
2
100
AcDbEntity
  8
GEB-VERDECKT
 48
25.0
100
AcDbCircle
 10
-22.39999999999998
 20
3061.305214277749
 30
0.0
 40
1.374999999999994
100
AcDbArc
 50
226.3971810273105
 51
270.0
  0
ARC
  5
B8
330
2
100
AcDbEntity
  8
GEB-VERDECKT
 48
25.0
100
AcDbCircle
 10
-23.23333333333346
 20
3060.430214277749
 30
0.0
 40
0.1666666666666666
100
AcDbArc
 50
133.6028189726895
 51
226.3971810273105
  0
ARC
  5
B9
330
2
100
AcDbEntity
  8
GEB-VERDECKT
 48
25.0
100
AcDbCircle
 10
-22.39999999999998
 20
3053.805214277749
 30
0.0
 40
1.375000000000005
100
AcDbArc
 50
90.0
 51
133.6028189726895
  0
ARC
  5
BA
330
2
100
AcDbEntity
  8
GEB-VERDECKT
 48
25.0
100
AcDbCircle
 10
-22.39999999999998
 20
3055.555214277749
 30
0.0
 40
1.374999999999994
100
AcDbArc
 50
226.3971810272874
 51
270.0
  0
ARC
  5
BB
330
2
100
AcDbEntity
  8
GEB-VERDECKT
 48
25.0
100
AcDbCircle
 10
-23.23333333333346
 20
3054.680214277749
 30
0.0
 40
0.1666666666666666
100
AcDbArc
 50
133.6028189726895
 51
226.3971810273105
  0
ARC
  5
BC
330
2
100
AcDbEntity
  8
GEB-VERDECKT
 48
25.0
100
AcDbCircle
 10
22.39999999999975
 20
3065.305214277749
 30
0.0
 40
1.375000000000006
100
AcDbArc
 50
46.39718102728738
 51
90.0
  0
ARC
  5
BD
330
2
100
AcDbEntity
  8
GEB-VERDECKT
 48
25.0
100
AcDbCircle
 10
22.39999999999975
 20
3067.055214277749
 30
0.0
 40
1.374999999999993
100
AcDbArc
 50
270.0
 51
313.6028189727126
  0
ARC
  5
BE
330
2
100
AcDbEntity
  8
GEB-VERDECKT
 48
25.0
100
AcDbCircle
 10
23.23333333333312
 20
3066.180214277749
 30
0.0
 40
0.1666666666666666
100
AcDbArc
 50
313.6028189728968
 51
46.39718102731053
  0
ARC
  5
BF
330
2
100
AcDbEntity
  8
GEB-VERDECKT
 48
25.0
100
AcDbCircle
 10
22.39999999999975
 20
3059.555214277749
 30
0.0
 40
1.375000000000006
100
AcDbArc
 50
46.39718102731053
 51
90.0
  0
ARC
  5
C0
330
2
100
AcDbEntity
  8
GEB-VERDECKT
 48
25.0
100
AcDbCircle
 10
22.39999999999975
 20
3061.305214277749
 30
0.0
 40
1.374999999999993
100
AcDbArc
 50
269.999999999987
 51
313.6028189726848
  0
ARC
  5
C1
330
2
100
AcDbEntity
  8
GEB-VERDECKT
 48
25.0
100
AcDbCircle
 10
23.23333333333312
 20
3060.430214277749
 30
0.0
 40
0.1666666666666666
100
AcDbArc
 50
313.6028189726895
 51
46.39718102731053
  0
ARC
  5
C2
330
2
100
AcDbEntity
  8
GEB-VERDECKT
 48
25.0
100
AcDbCircle
 10
22.39999999999975
 20
3053.805214277749
 30
0.0
 40
1.375000000000006
100
AcDbArc
 50
46.39718102731053
 51
90.0
  0
ARC
  5
C3
330
2
100
AcDbEntity
  8
GEB-VERDECKT
 48
25.0
100
AcDbCircle
 10
22.39999999999975
 20
3055.555214277749
 30
0.0
 40
1.374999999999993
100
AcDbArc
 50
270.0
 51
313.6028189727126
  0
ARC
  5
C4
330
2
100
AcDbEntity
  8
GEB-VERDECKT
 48
25.0
100
AcDbCircle
 10
23.23333333333312
 20
3054.680214277749
 30
0.0
 40
0.1666666666666666
100
AcDbArc
 50
313.6028189726895
 51
46.39718102731053
  0
SPLINE
  5
C5
330
2
100
AcDbEntity
  8
GEB-VERDECKT
 48
25.0
100
AcDbSpline
210
0.0
220
0.0
230
1.0
 70
     8
 71
     3
 72
    18
 73
    14
 74
     0
 42
0.0000000001
 43
0.0000000001
 40
2.515839392244418
 40
2.515839392244418
 40
2.515839392244418
 40
2.515839392244418
 40
2.560407317312832
 40
2.560407317312832
 40
2.769292494592967
 40
2.769292494592967
 40
3.10658663506589
 40
3.10658663506589
 40
3.792662241568975
 40
3.792662241568975
 40
4.498523124862364
 40
4.498523124862364
 40
5.026979215875235
 40
5.026979215875235
 40
5.026979215875235
 40
5.026979215875235
 10
-22.39999999999998
 20
3066.680214277749
 30
0.0
 10
-22.39999999999998
 20
3066.680214277749
 30
0.0
 10
-22.39851285206726
 20
3066.680214291845
 30
0.0
 10
-22.38159541763832
 20
3066.680213971248
 30
0.0
 10
-22.33498798840708
 20
3066.68021858153
 30
0.0
 10
-22.12811184027953
 20
3066.680092035374
 30
0.0
 10
-21.91587966293935
 20
3066.679901047596
 30
0.0
 10
-21.02115262172345
 20
3066.676950554811
 30
0.0
 10
-20.08460667599718
 20
3066.672186587458
 30
0.0
 10
-17.56815226386732
 20
3066.634171130711
 30
0.0
 10
-15.98637264665888
 20
3066.600816607791
 30
0.0
 10
-12.78974086937239
 20
3066.480842077665
 30
0.0
 10
-11.29501047335986
 20
3066.411337445738
 30
0.0
 10
-9.708524889791419
 20
3066.300903932921
 30
0.0
  0
SPLINE
  5
C6
330
2
100
AcDbEntity
  8
GEB-VERDECKT
 48
25.0
100
AcDbSpline
210
0.0
220
0.0
230
1.0
 70
     8
 71
     3
 72
    16
 73
    12
 74
     0
 42
0.0000000001
 43
0.0000000001
 40
0.0026302539176523
 40
0.0026302539176523
 40
0.0026302539176523
 40
0.0026302539176523
 40
0.7966428389618099
 40
0.7966428389618099
 40
1.604303165644387
 40
1.604303165644387
 40
2.119037224898871
 40
2.119037224898871
 40
2.368046377464019
 40
2.368046377464019
 40
2.515839392244391
 40
2.515839392244391
 40
2.515839392244391
 40
2.515839392244391
 10
-9.708524889791419
 20
3066.059524622576
 30
0.0
 10
-12.08894037455354
 20
3065.893826524423
 30
0.0
 10
-14.25608987834528
 20
3065.81605450229
 30
0.0
 10
-17.97869449656252
 20
3065.713456074037
 30
0.0
 10
-19.48988893407898
 20
3065.695690073955
 30
0.0
 10
-21.24449016605252
 20
3065.682055547587
 30
0.0
 10
-21.74305382423051
 20
3065.680933080495
 30
0.0
 10
-22.19451175379675
 20
3065.680258008355
 30
0.0
 10
-22.29588191360142
 20
3065.68023085357
 30
0.0
 10
-22.38364625328484
 20
3065.680212577388
 30
0.0
 10
-22.39999999999998
 20
3065.680214277749
 30
0.0
 10
-22.39999999999998
 20
3065.680214277749
 30
0.0
  0
SPLINE
  5
C7
330
2
100
AcDbEntity
  8
GEB-VERDECKT
 48
25.0
100
AcDbSpline
210
0.0
220
0.0
230
1.0
 70
     8
 71
     3
 72
    28
 73
    24
 74
     0
 42
0.0000000001
 43
0.0000000001
 40
0.0005496720684116
 40
0.0005496720684116
 40
0.0005496720684116
 40
0.0005496720684116
 40
0.0733177656786593
 40
0.0733177656786593
 40
0.1082986036703403
 40
0.1082986036703403
 40
0.1130439421147523
 40
0.1130439421147523
 40
0.1153813164303518
 40
0.1153813164303518
 40
0.1169282292880171
 40
0.1169282292880171
 40
0.1183408033255357
 40
0.1183408033255357
 40
0.1201304063061903
 40
0.1201304063061903
 40
0.1234160542533079
 40
0.1234160542533079
 40
0.1318469494530809
 40
0.1318469494530809
 40
0.1639189616967058
 40
0.1639189616967058
 40
0.2618557511463248
 40
0.2618557511463248
 40
0.2618557511463248
 40
0.2618557511463248
 10
-9.708524889791419
 20
3066.300903932921
 30
0.0
 10
-9.490957187884191
 20
3066.285759284999
 30
0.0
 10
-9.31164045156072
 20
3066.267353679057
 30
0.0
 10
-9.126366151958677
 20
3066.235981137377
 30
0.0
 10
-9.05068327168135
 20
3066.220410061314
 30
0.0
 10
-9.012661946983257
 20
3066.197940520954
 30
0.0
 10
-9.008240754476787
 20
3066.194793557777
 30
0.0
 10
-9.003426395890414
 20
3066.189502950816
 30
0.0
 10
-9.001966459793152
 20
3066.187482411058
 30
0.0
 10
-9.000423182139797
 20
3066.18374936632
 30
0.0
 10
-9.000050916345458
 20
3066.182188099078
 30
0.0
 10
-8.999962784909826
 20
3066.179068753152
 30
0.0
 10
-9.000195534075487
 20
3066.177622186094
 30
0.0
 10
-9.001240342501546
 20
3066.174444064352
 30
0.0
 10
-9.002168060105873
 20
3066.172808332695
 30
0.0
 10
-9.005225689370377
 20
3066.168629479867
 30
0.0
 10
-9.007878850610381
 20
3066.166246760758
 30
0.0
 10
-9.01713978238456
 20
3066.159217739422
 30
0.0
 10
-9.026120895700728
 20
3066.154824030045
 30
0.0
 10
-9.0680581013263
 20
3066.1375121788
 30
0.0
 10
-9.118811449336476
 20
3066.126550086269
 30
0.0
 10
-9.285558323508553
 20
3066.095768803134
 30
0.0
 10
-9.474803919500004
 20
3066.075793681707
 30
0.0
 10
-9.708524889791419
 20
3066.059524622576
 30
0.0
  0
SPLINE
  5
C8
330
2
100
AcDbEntity
  8
GEB-VERDECKT
 48
25.0
100
AcDbSpline
210
0.0
220
0.0
230
1.0
 70
     8
 71
     3
 72
    18
 73
    14
 74
     0
 42
0.0000000001
 43
0.0000000001
 40
2.515839392244418
 40
2.515839392244418
 40
2.515839392244418
 40
2.515839392244418
 40
2.560407317312832
 40
2.560407317312832
 40
2.769292494592967
 40
2.769292494592967
 40
3.10658663506589
 40
3.10658663506589
 40
3.792662241568975
 40
3.792662241568975
 40
4.498523124862364
 40
4.498523124862364
 40
5.026979215875235
 40
5.026979215875235
 40
5.026979215875235
 40
5.026979215875235
 10
-22.39999999999998
 20
3060.930214277749
 30
0.0
 10
-22.39999999999998
 20
3060.930214277749
 30
0.0
 10
-22.39851285206726
 20
3060.930214291844
 30
0.0
 10
-22.38159541763832
 20
3060.930213971247
 30
0.0
 10
-22.33498798840708
 20
3060.93021858153
 30
0.0
 10
-22.12811184027953
 20
3060.930092035373
 30
0.0
 10
-21.91587966293935
 20
3060.929901047597
 30
0.0
 10
-21.02115262172345
 20
3060.926950554811
 30
0.0
 10
-20.08460667599718
 20
3060.922186587458
 30
0.0
 10
-17.56815226386732
 20
3060.884171130711
 30
0.0
 10
-15.98637264665888
 20
3060.850816607791
 30
0.0
 10
-12.78974086937239
 20
3060.730842077666
 30
0.0
 10
-11.29501047335986
 20
3060.661337445738
 30
0.0
 10
-9.708524889791419
 20
3060.550903932921
 30
0.0
  0
SPLINE
  5
C9
330
2
100
AcDbEntity
  8
GEB-VERDECKT
 48
25.0
100
AcDbSpline
210
0.0
220
0.0
230
1.0
 70
     8
 71
     3
 72
    16
 73
    12
 74
     0
 42
0.0000000001
 43
0.0000000001
 40
0.0026302539176523
 40
0.0026302539176523
 40
0.0026302539176523
 40
0.0026302539176523
 40
0.7966428389618099
 40
0.7966428389618099
 40
1.604303165644387
 40
1.604303165644387
 40
2.119037224898871
 40
2.119037224898871
 40
2.368046377464019
 40
2.368046377464019
 40
2.515839392244391
 40
2.515839392244391
 40
2.515839392244391
 40
2.515839392244391
 10
-9.708524889791419
 20
3060.309524622576
 30
0.0
 10
-12.08894037455354
 20
3060.143826524424
 30
0.0
 10
-14.25608987834528
 20
3060.06605450229
 30
0.0
 10
-17.97869449656252
 20
3059.963456074037
 30
0.0
 10
-19.48988893407898
 20
3059.945690073954
 30
0.0
 10
-21.24449016605252
 20
3059.932055547587
 30
0.0
 10
-21.74305382423051
 20
3059.930933080496
 30
0.0
 10
-22.19451175379675
 20
3059.930258008355
 30
0.0
 10
-22.29588191360142
 20
3059.93023085357
 30
0.0
 10
-22.38364625328484
 20
3059.930212577389
 30
0.0
 10
-22.39999999999998
 20
3059.930214277749
 30
0.0
 10
-22.39999999999998
 20
3059.930214277749
 30
0.0
  0
SPLINE
  5
CA
330
2
100
AcDbEntity
  8
GEB-VERDECKT
 48
25.0
100
AcDbSpline
210
0.0
220
0.0
230
1.0
 70
     8
 71
     3
 72
    28
 73
    24
 74
     0
 42
0.0000000001
 43
0.0000000001
 40
0.0005496720684121
 40
0.0005496720684121
 40
0.0005496720684121
 40
0.0005496720684121
 40
0.07331776567894
 40
0.07331776567894
 40
0.1082986036710411
 40
0.1082986036710411
 40
0.1130439421169878
 40
0.1130439421169878
 40
0.1153813164338578
 40
0.1153813164338578
 40
0.1169282292923663
 40
0.1169282292923663
 40
0.118340803330668
 40
0.118340803330668
 40
0.1201304063124875
 40
0.1201304063124875
 40
0.1234160542622167
 40
0.1234160542622167
 40
0.1318469494648156
 40
0.1318469494648156
 40
0.1639189617067637
 40
0.1639189617067637
 40
0.2618557511502213
 40
0.2618557511502213
 40
0.2618557511502213
 40
0.2618557511502213
 10
-9.708524889791419
 20
3060.550903932921
 30
0.0
 10
-9.490957187883509
 20
3060.535759284999
 30
0.0
 10
-9.311640451560265
 20
3060.517353679057
 30
0.0
 10
-9.126366151958677
 20
3060.485981137377
 30
0.0
 10
-9.05068327168135
 20
3060.470410061313
 30
0.0
 10
-9.012661946981893
 20
3060.447940520953
 30
0.0
 10
-9.008240754476332
 20
3060.444793557776
 30
0.0
 10
-9.003426395890187
 20
3060.439502950816
 30
0.0
 10
-9.001966459792924
 20
3060.437482411058
 30
0.0
 10
-9.000423182139797
 20
3060.43374936632
 30
0.0
 10
-9.000050916345458
 20
3060.432188099078
 30
0.0
 10
-8.999962784909826
 20
3060.429068753152
 30
0.0
 10
-9.000195534075487
 20
3060.427622186094
 30
0.0
 10
-9.001240342501546
 20
3060.424444064352
 30
0.0
 10
-9.0021680601061
 20
3060.422808332694
 30
0.0
 10
-9.005225689370149
 20
3060.418629479868
 30
0.0
 10
-9.007878850609699
 20
3060.416246760758
 30
0.0
 10
-9.017139782382969
 20
3060.409217739422
 30
0.0
 10
-9.026120895697317
 20
3060.404824030046
 30
0.0
 10
-9.0680581013263
 20
3060.3875121788
 30
0.0
 10
-9.118811449336021
 20
3060.376550086268
 30
0.0
 10
-9.285558323508553
 20
3060.345768803134
 30
0.0
 10
-9.474803919500004
 20
3060.325793681706
 30
0.0
 10
-9.708524889791419
 20
3060.309524622576
 30
0.0
  0
SPLINE
  5
CB
330
2
100
AcDbEntity
  8
GEB-VERDECKT
 48
25.0
100
AcDbSpline
210
0.0
220
0.0
230
1.0
 70
     8
 71
     3
 72
    18
 73
    14
 74
     0
 42
0.0000000001
 43
0.0000000001
 40
2.515839392244382
 40
2.515839392244382
 40
2.515839392244382
 40
2.515839392244382
 40
2.560407317312762
 40
2.560407317312762
 40
2.769292494592905
 40
2.769292494592905
 40
3.106586635065826
 40
3.106586635065826
 40
3.792662241568866
 40
3.792662241568866
 40
4.498523124862278
 40
4.498523124862278
 40
5.026979215875345
 40
5.026979215875345
 40
5.026979215875345
 40
5.026979215875345
 10
-22.39999999999998
 20
3055.180214277749
 30
0.0
 10
-22.39999999999998
 20
3055.180214277749
 30
0.0
 10
-22.39851285206726
 20
3055.180214291844
 30
0.0
 10
-22.38159541763832
 20
3055.180213971247
 30
0.0
 10
-22.33498798840708
 20
3055.180218581531
 30
0.0
 10
-22.12811184027976
 20
3055.180092035373
 30
0.0
 10
-21.91587966293957
 20
3055.179901047597
 30
0.0
 10
-21.02115262172367
 20
3055.176950554811
 30
0.0
 10
-20.08460667599786
 20
3055.172186587458
 30
0.0
 10
-17.56815226386823
 20
3055.134171130712
 30
0.0
 10
-15.98637264666001
 20
3055.100816607791
 30
0.0
 10
-12.7897408693733
 20
3054.980842077665
 30
0.0
 10
-11.29501047336032
 20
3054.911337445738
 30
0.0
 10
-9.708524889791419
 20
3054.800903932921
 30
0.0
  0
SPLINE
  5
CC
330
2
100
AcDbEntity
  8
GEB-VERDECKT
 48
25.0
100
AcDbSpline
210
0.0
220
0.0
230
1.0
 70
     8
 71
     3
 72
    16
 73
    12
 74
     0
 42
0.0000000001
 43
0.0000000001
 40
0.0026302539176522
 40
0.0026302539176522
 40
0.0026302539176522
 40
0.0026302539176522
 40
0.7966428389618099
 40
0.7966428389618099
 40
1.604303165644386
 40
1.604303165644386
 40
2.11903722489887
 40
2.11903722489887
 40
2.368046377464017
 40
2.368046377464017
 40
2.515839392244389
 40
2.515839392244389
 40
2.515839392244389
 40
2.515839392244389
 10
-9.708524889791419
 20
3054.559524622577
 30
0.0
 10
-12.08894037455354
 20
3054.393826524423
 30
0.0
 10
-14.25608987834528
 20
3054.316054502291
 30
0.0
 10
-17.97869449656252
 20
3054.213456074036
 30
0.0
 10
-19.48988893407898
 20
3054.195690073954
 30
0.0
 10
-21.24449016605252
 20
3054.182055547586
 30
0.0
 10
-21.74305382423051
 20
3054.180933080496
 30
0.0
 10
-22.19451175379675
 20
3054.180258008355
 30
0.0
 10
-22.29588191360142
 20
3054.18023085357
 30
0.0
 10
-22.38364625328484
 20
3054.180212577389
 30
0.0
 10
-22.39999999999998
 20
3054.180214277749
 30
0.0
 10
-22.39999999999998
 20
3054.180214277749
 30
0.0
  0
SPLINE
  5
CD
330
2
100
AcDbEntity
  8
GEB-VERDECKT
 48
25.0
100
AcDbSpline
210
0.0
220
0.0
230
1.0
 70
     8
 71
     3
 72
    28
 73
    24
 74
     0
 42
0.0000000001
 43
0.0000000001
 40
0.0005496720684118
 40
0.0005496720684118
 40
0.0005496720684118
 40
0.0005496720684118
 40
0.0733177656787973
 40
0.0733177656787973
 40
0.1082986036707144
 40
0.1082986036707144
 40
0.1130439421071746
 40
0.1130439421071746
 40
0.1153813164160088
 40
0.1153813164160088
 40
0.1169282292691141
 40
0.1169282292691141
 40
0.1183408033024798
 40
0.1183408033024798
 40
0.1201304062780323
 40
0.1201304062780323
 40
0.1234160542162653
 40
0.1234160542162653
 40
0.1318469493907262
 40
0.1318469493907262
 40
0.1639189615343812
 40
0.1639189615343812
 40
0.2618557506774307
 40
0.2618557506774307
 40
0.2618557506774307
 40
0.2618557506774307
 10
-9.708524889791419
 20
3054.800903932921
 30
0.0
 10
-9.490957187883736
 20
3054.785759284999
 30
0.0
 10
-9.31164045156072
 20
3054.767353679056
 30
0.0
 10
-9.126366151958677
 20
3054.735981137377
 30
0.0
 10
-9.05068327168135
 20
3054.720410061314
 30
0.0
 10
-9.012661946990988
 20
3054.697940520959
 30
0.0
 10
-9.008240754480425
 20
3054.69479355778
 30
0.0
 10
-9.003426395890642
 20
3054.689502950816
 30
0.0
 10
-9.001966459793152
 20
3054.687482411058
 30
0.0
 10
-9.000423182139797
 20
3054.68374936632
 30
0.0
 10
-9.000050916345458
 20
3054.682188099079
 30
0.0
 10
-8.999962784909826
 20
3054.679068753152
 30
0.0
 10
-9.000195534075487
 20
3054.677622186094
 30
0.0
 10
-9.001240342501546
 20
3054.674444064352
 30
0.0
 10
-9.0021680601061
 20
3054.672808332695
 30
0.0
 10
-9.005225689370149
 20
3054.668629479867
 30
0.0
 10
-9.007878850609699
 20
3054.666246760759
 30
0.0
 10
-9.017139782384106
 20
3054.659217739422
 30
0.0
 10
-9.026120895699818
 20
3054.654824030045
 30
0.0
 10
-9.0680581013263
 20
3054.6375121788
 30
0.0
 10
-9.118811449336021
 20
3054.626550086269
 30
0.0
 10
-9.285558323509008
 20
3054.595768803133
 30
0.0
 10
-9.474803919500459
 20
3054.575793681707
 30
0.0
 10
-9.708524889791419
 20
3054.559524622577
 30
0.0
  0
SPLINE
  5
CE
330
2
100
AcDbEntity
  8
GEB-VERDECKT
 48
25.0
100
AcDbSpline
210
0.0
220
0.0
230
1.0
 70
     8
 71
     3
 72
    16
 73
    12
 74
     0
 42
0.0000000001
 43
0.0000000001
 40
0.0026302539176697
 40
0.0026302539176697
 40
0.0026302539176697
 40
0.0026302539176697
 40
0.796642838961812
 40
0.796642838961812
 40
1.604303165644373
 40
1.604303165644373
 40
2.119037224898893
 40
2.119037224898893
 40
2.368046377464043
 40
2.368046377464043
 40
2.515839392244428
 40
2.515839392244428
 40
2.515839392244428
 40
2.515839392244428
 10
9.708524889791192
 20
3066.300903932921
 30
0.0
 10
12.0889403745532
 20
3066.466602031074
 30
0.0
 10
14.25608987834493
 20
3066.544374053207
 30
0.0
 10
17.97869449656207
 20
3066.646972481462
 30
0.0
 10
19.48988893407875
 20
3066.664738481542
 30
0.0
 10
21.24449016605229
 20
3066.678373007912
 30
0.0
 10
21.74305382423018
 20
3066.679495475002
 30
0.0
 10
22.19451175379652
 20
3066.680170547142
 30
0.0
 10
22.29588191360119
 20
3066.680197701928
 30
0.0
 10
22.38364625328438
 20
3066.680215978108
 30
0.0
 10
22.39999999999975
 20
3066.680214277749
 30
0.0
 10
22.39999999999975
 20
3066.680214277749
 30
0.0
  0
SPLINE
  5
CF
330
2
100
AcDbEntity
  8
GEB-VERDECKT
 48
25.0
100
AcDbSpline
210
0.0
220
0.0
230
1.0
 70
     8
 71
     3
 72
    18
 73
    14
 74
     0
 42
0.0000000001
 43
0.0000000001
 40
2.515839392244428
 40
2.515839392244428
 40
2.515839392244428
 40
2.515839392244428
 40
2.560407317312793
 40
2.560407317312793
 40
2.769292494592959
 40
2.769292494592959
 40
3.106586635065938
 40
3.106586635065938
 40
3.79266224156908
 40
3.79266224156908
 40
4.498523124862665
 40
4.498523124862665
 40
5.026979215875925
 40
5.026979215875925
 40
5.026979215875925
 40
5.026979215875925
 10
22.39999999999975
 20
3065.680214277749
 30
0.0
 10
22.39999999999975
 20
3065.680214277749
 30
0.0
 10
22.39851285206703
 20
3065.680214263653
 30
0.0
 10
22.38159541763787
 20
3065.680214584251
 30
0.0
 10
22.33498798840697
 20
3065.680209973967
 30
0.0
 10
22.12811184027942
 20
3065.680336520124
 30
0.0
 10
21.91587966293923
 20
3065.680527507901
 30
0.0
 10
21.02115262172367
 20
3065.683478000687
 30
0.0
 10
20.08460667599775
 20
3065.68824196804
 30
0.0
 10
17.56815226386845
 20
3065.726257424786
 30
0.0
 10
15.98637264666036
 20
3065.759611947707
 30
0.0
 10
12.78974086937353
 20
3065.879586477832
 30
0.0
 10
11.29501047336032
 20
3065.94909110976
 30
0.0
 10
9.708524889791192
 20
3066.059524622576
 30
0.0
  0
SPLINE
  5
D0
330
2
100
AcDbEntity
  8
GEB-VERDECKT
 48
25.0
100
AcDbSpline
210
0.0
220
0.0
230
1.0
 70
     8
 71
     3
 72
    28
 73
    24
 74
     0
 42
0.0000000001
 43
0.0000000001
 40
0.0005496720684023
 40
0.0005496720684023
 40
0.0005496720684023
 40
0.0005496720684023
 40
0.0733177656788685
 40
0.0733177656788685
 40
0.1082986036715544
 40
0.1082986036715544
 40
0.1130439421116897
 40
0.1130439421116897
 40
0.11538131642375
 40
0.11538131642375
 40
0.1169282292792469
 40
0.1169282292792469
 40
0.1183408033147176
 40
0.1183408033147176
 40
0.1201304062924637
 40
0.1201304062924637
 40
0.123416054234606
 40
0.123416054234606
 40
0.1318469494200796
 40
0.1318469494200796
 40
0.163918961605004
 40
0.163918961605004
 40
0.2618557508701128
 40
0.2618557508701128
 40
0.2618557508701128
 40
0.2618557508701128
 10
9.708524889791192
 20
3066.059524622576
 30
0.0
 10
9.490957187883395
 20
3066.074669270499
 30
0.0
 10
9.311640451560265
 20
3066.093074876441
 30
0.0
 10
9.126366151957086
 20
3066.124447418121
 30
0.0
 10
9.050683271680782
 20
3066.140018494184
 30
0.0
 10
9.012661946987236
 20
3066.162488034541
 30
0.0
 10
9.008240754478606
 20
3066.165634997719
 30
0.0
 10
9.003426395890187
 20
3066.17092560468
 30
0.0
 10
9.001966459792811
 20
3066.172946144439
 30
0.0
 10
9.000423182139343
 20
3066.176679189179
 30
0.0
 10
9.00005091634523
 20
3066.17824045642
 30
0.0
 10
8.999962784909598
 20
3066.181359802345
 30
0.0
 10
9.000195534075032
 20
3066.182806369403
 30
0.0
 10
9.001240342501318
 20
3066.185984491146
 30
0.0
 10
9.002168060105759
 20
3066.187620222804
 30
0.0
 10
9.005225689369922
 20
3066.191799075631
 30
0.0
 10
9.007878850609813
 20
3066.194181794739
 30
0.0
 10
9.017139782383765
 20
3066.201210816075
 30
0.0
 10
9.026120895699364
 20
3066.205604525453
 30
0.0
 10
9.068058101325505
 20
3066.222916376697
 30
0.0
 10
9.118811449334316
 20
3066.233878469229
 30
0.0
 10
9.28555832350878
 20
3066.264659752364
 30
0.0
 10
9.474803919500118
 20
3066.284634873791
 30
0.0
 10
9.708524889791192
 20
3066.300903932921
 30
0.0
  0
SPLINE
  5
D1
330
2
100
AcDbEntity
  8
GEB-VERDECKT
 48
25.0
100
AcDbSpline
210
0.0
220
0.0
230
1.0
 70
     8
 71
     3
 72
    16
 73
    12
 74
     0
 42
0.0000000001
 43
0.0000000001
 40
0.0026302539176695
 40
0.0026302539176695
 40
0.0026302539176695
 40
0.0026302539176695
 40
0.796642838961812
 40
0.796642838961812
 40
1.604303165644373
 40
1.604303165644373
 40
2.119037224898893
 40
2.119037224898893
 40
2.368046377464043
 40
2.368046377464043
 40
2.515839392244428
 40
2.515839392244428
 40
2.515839392244428
 40
2.515839392244428
 10
9.708524889791192
 20
3060.550903932921
 30
0.0
 10
12.0889403745532
 20
3060.716602031074
 30
0.0
 10
14.25608987834493
 20
3060.794374053207
 30
0.0
 10
17.97869449656207
 20
3060.896972481461
 30
0.0
 10
19.48988893407875
 20
3060.914738481543
 30
0.0
 10
21.24449016605229
 20
3060.928373007911
 30
0.0
 10
21.74305382423018
 20
3060.929495475003
 30
0.0
 10
22.19451175379652
 20
3060.930170547143
 30
0.0
 10
22.29588191360119
 20
3060.930197701928
 30
0.0
 10
22.38364625328438
 20
3060.930215978109
 30
0.0
 10
22.39999999999975
 20
3060.930214277749
 30
0.0
 10
22.39999999999975
 20
3060.930214277749
 30
0.0
  0
SPLINE
  5
D2
330
2
100
AcDbEntity
  8
GEB-VERDECKT
 48
25.0
100
AcDbSpline
210
0.0
220
0.0
230
1.0
 70
     8
 71
     3
 72
    18
 73
    14
 74
     0
 42
0.0000000001
 43
0.0000000001
 40
2.515839392244428
 40
2.515839392244428
 40
2.515839392244428
 40
2.515839392244428
 40
2.560407317312793
 40
2.560407317312793
 40
2.769292494592959
 40
2.769292494592959
 40
3.106586635065938
 40
3.106586635065938
 40
3.79266224156908
 40
3.79266224156908
 40
4.498523124862665
 40
4.498523124862665
 40
5.026979215875925
 40
5.026979215875925
 40
5.026979215875925
 40
5.026979215875925
 10
22.39999999999975
 20
3059.930214277749
 30
0.0
 10
22.39999999999975
 20
3059.930214277749
 30
0.0
 10
22.39851285206703
 20
3059.930214263653
 30
0.0
 10
22.38159541763787
 20
3059.93021458425
 30
0.0
 10
22.33498798840697
 20
3059.930209973967
 30
0.0
 10
22.12811184027942
 20
3059.930336520124
 30
0.0
 10
21.91587966293923
 20
3059.9305275079
 30
0.0
 10
21.02115262172367
 20
3059.933478000687
 30
0.0
 10
20.08460667599775
 20
3059.93824196804
 30
0.0
 10
17.56815226386845
 20
3059.976257424786
 30
0.0
 10
15.98637264666036
 20
3060.009611947707
 30
0.0
 10
12.78974086937353
 20
3060.129586477832
 30
0.0
 10
11.29501047336032
 20
3060.19909110976
 30
0.0
 10
9.708524889791192
 20
3060.309524622576
 30
0.0
  0
SPLINE
  5
D3
330
2
100
AcDbEntity
  8
GEB-VERDECKT
 48
25.0
100
AcDbSpline
210
0.0
220
0.0
230
1.0
 70
     8
 71
     3
 72
    28
 73
    24
 74
     0
 42
0.0000000001
 43
0.0000000001
 40
0.000549672068402
 40
0.000549672068402
 40
0.000549672068402
 40
0.000549672068402
 40
0.0733177656789543
 40
0.0733177656789543
 40
0.1082986036718085
 40
0.1082986036718085
 40
0.1130439421153812
 40
0.1130439421153812
 40
0.1153813164303101
 40
0.1153813164303101
 40
0.1169282292877371
 40
0.1169282292877371
 40
0.1183408033249771
 40
0.1183408033249771
 40
0.120130406304983
 40
0.120130406304983
 40
0.1234160542513166
 40
0.1234160542513166
 40
0.1318469494475599
 40
0.1318469494475599
 40
0.1639189616747492
 40
0.1639189616747492
 40
0.2618557510724715
 40
0.2618557510724715
 40
0.2618557510724715
 40
0.2618557510724715
 10
9.708524889791192
 20
3060.309524622576
 30
0.0
 10
9.490957187883168
 20
3060.324669270499
 30
0.0
 10
9.311640451560037
 20
3060.343074876441
 30
0.0
 10
9.126366151956972
 20
3060.374447418121
 30
0.0
 10
9.050683271680782
 20
3060.390018494185
 30
0.0
 10
9.012661946983939
 20
3060.412488034544
 30
0.0
 10
9.008240754477128
 20
3060.41563499772
 30
0.0
 10
9.00342639588996
 20
3060.420925604681
 30
0.0
 10
9.001966459792811
 20
3060.42294614444
 30
0.0
 10
9.000423182139343
 20
3060.426679189179
 30
0.0
 10
9.00005091634523
 20
3060.428240456419
 30
0.0
 10
8.999962784909598
 20
3060.431359802346
 30
0.0
 10
9.000195534075032
 20
3060.432806369403
 30
0.0
 10
9.001240342501318
 20
3060.435984491145
 30
0.0
 10
9.002168060105759
 20
3060.437620222803
 30
0.0
 10
9.005225689369922
 20
3060.441799075631
 30
0.0
 10
9.007878850609813
 20
3060.444181794739
 30
0.0
 10
9.017139782383878
 20
3060.451210816076
 30
0.0
 10
9.026120895699591
 20
3060.455604525453
 30
0.0
 10
9.068058101325846
 20
3060.472916376697
 30
0.0
 10
9.118811449335339
 20
3060.483878469229
 30
0.0
 10
9.285558323508098
 20
3060.514659752364
 30
0.0
 10
9.474803919499322
 20
3060.534634873791
 30
0.0
 10
9.708524889791192
 20
3060.550903932921
 30
0.0
  0
SPLINE
  5
D4
330
2
100
AcDbEntity
  8
GEB-VERDECKT
 48
25.0
100
AcDbSpline
210
0.0
220
0.0
230
1.0
 70
     8
 71
     3
 72
    16
 73
    12
 74
     0
 42
0.0000000001
 43
0.0000000001
 40
0.0026302539176696
 40
0.0026302539176696
 40
0.0026302539176696
 40
0.0026302539176696
 40
0.796642838961812
 40
0.796642838961812
 40
1.604303165644373
 40
1.604303165644373
 40
2.119037224898893
 40
2.119037224898893
 40
2.368046377464043
 40
2.368046377464043
 40
2.515839392244428
 40
2.515839392244428
 40
2.515839392244428
 40
2.515839392244428
 10
9.708524889791192
 20
3054.800903932921
 30
0.0
 10
12.0889403745532
 20
3054.966602031074
 30
0.0
 10
14.25608987834493
 20
3055.044374053207
 30
0.0
 10
17.97869449656207
 20
3055.146972481461
 30
0.0
 10
19.48988893407875
 20
3055.164738481543
 30
0.0
 10
21.24449016605229
 20
3055.17837300791
 30
0.0
 10
21.74305382423018
 20
3055.179495475002
 30
0.0
 10
22.19451175379652
 20
3055.180170547143
 30
0.0
 10
22.29588191360119
 20
3055.180197701928
 30
0.0
 10
22.38364625328438
 20
3055.180215978109
 30
0.0
 10
22.39999999999975
 20
3055.180214277749
 30
0.0
 10
22.39999999999975
 20
3055.180214277749
 30
0.0
  0
SPLINE
  5
D5
330
2
100
AcDbEntity
  8
GEB-VERDECKT
 48
25.0
100
AcDbSpline
210
0.0
220
0.0
230
1.0
 70
     8
 71
     3
 72
    18
 73
    14
 74
     0
 42
0.0000000001
 43
0.0000000001
 40
2.515839392244426
 40
2.515839392244426
 40
2.515839392244426
 40
2.515839392244426
 40
2.560407317312792
 40
2.560407317312792
 40
2.769292494592957
 40
2.769292494592957
 40
3.106586635065935
 40
3.106586635065935
 40
3.792662241569077
 40
3.792662241569077
 40
4.49852312486266
 40
4.49852312486266
 40
5.026979215875918
 40
5.026979215875918
 40
5.026979215875918
 40
5.026979215875918
 10
22.39999999999975
 20
3054.180214277749
 30
0.0
 10
22.39999999999975
 20
3054.180214277749
 30
0.0
 10
22.39851285206703
 20
3054.180214263653
 30
0.0
 10
22.38159541763787
 20
3054.18021458425
 30
0.0
 10
22.33498798840697
 20
3054.180209973967
 30
0.0
 10
22.12811184027942
 20
3054.180336520124
 30
0.0
 10
21.91587966293923
 20
3054.180527507901
 30
0.0
 10
21.02115262172367
 20
3054.183478000687
 30
0.0
 10
20.08460667599775
 20
3054.18824196804
 30
0.0
 10
17.56815226386845
 20
3054.226257424786
 30
0.0
 10
15.98637264666024
 20
3054.259611947707
 30
0.0
 10
12.78974086937353
 20
3054.379586477832
 30
0.0
 10
11.29501047336032
 20
3054.44909110976
 30
0.0
 10
9.708524889791192
 20
3054.559524622577
 30
0.0
  0
SPLINE
  5
D6
330
2
100
AcDbEntity
  8
GEB-VERDECKT
 48
25.0
100
AcDbSpline
210
0.0
220
0.0
230
1.0
 70
     8
 71
     3
 72
    28
 73
    24
 74
     0
 42
0.0000000001
 43
0.0000000001
 40
0.0005496720684023
 40
0.0005496720684023
 40
0.0005496720684023
 40
0.0005496720684023
 40
0.0733177656788465
 40
0.0733177656788465
 40
0.1082986036717465
 40
0.1082986036717465
 40
0.1130439421115249
 40
0.1130439421115249
 40
0.1153813164234461
 40
0.1153813164234461
 40
0.1169282292787884
 40
0.1169282292787884
 40
0.1183408033142187
 40
0.1183408033142187
 40
0.1201304062921886
 40
0.1201304062921886
 40
0.1234160542340896
 40
0.1234160542340896
 40
0.1318469494175242
 40
0.1318469494175242
 40
0.1639189615868125
 40
0.1639189615868125
 40
0.2618557508126225
 40
0.2618557508126225
 40
0.2618557508126225
 40
0.2618557508126225
 10
9.708524889791192
 20
3054.559524622577
 30
0.0
 10
9.490957187883395
 20
3054.574669270499
 30
0.0
 10
9.311640451560265
 20
3054.593074876441
 30
0.0
 10
9.126366151956631
 20
3054.624447418121
 30
0.0
 10
9.050683271680668
 20
3054.640018494184
 30
0.0
 10
9.012661946987577
 20
3054.662488034541
 30
0.0
 10
9.00824075447872
 20
3054.66563499772
 30
0.0
 10
9.00342639588996
 20
3054.670925604682
 30
0.0
 10
9.001966459792811
 20
3054.672946144439
 30
0.0
 10
9.000423182139456
 20
3054.676679189178
 30
0.0
 10
9.00005091634523
 20
3054.67824045642
 30
0.0
 10
8.999962784909598
 20
3054.681359802346
 30
0.0
 10
9.000195534075146
 20
3054.682806369403
 30
0.0
 10
9.001240342501318
 20
3054.685984491146
 30
0.0
 10
9.002168060105645
 20
3054.687620222802
 30
0.0
 10
9.005225689369922
 20
3054.691799075631
 30
0.0
 10
9.007878850609813
 20
3054.694181794739
 30
0.0
 10
9.017139782382741
 20
3054.701210816075
 30
0.0
 10
9.026120895696976
 20
3054.705604525452
 30
0.0
 10
9.068058101326641
 20
3054.722916376698
 30
0.0
 10
9.118811449337385
 20
3054.733878469229
 30
0.0
 10
9.285558323508666
 20
3054.764659752363
 30
0.0
 10
9.474803919500232
 20
3054.784634873791
 30
0.0
 10
9.708524889791192
 20
3054.800903932921
 30
0.0
  0
LINE
  5
D7
330
2
100
AcDbEntity
  8
GEB-VERDECKT
 48
25.0
100
AcDbLine
 10
-18.07500000000016
 20
58.83021427774725
 30
0.0
 11
-18.07500000000016
 21
48.79328370304666
 31
0.0
  0
LINE
  5
D8
330
2
100
AcDbEntity
  8
GEB-VERDECKT
 48
25.0
100
AcDbLine
 10
18.07500000000004
 20
58.83021427774725
 30
0.0
 11
18.07500000000004
 21
48.79328370304666
 31
0.0
  0
LINE
  5
D9
330
2
100
AcDbEntity
  8
GEB-VERDECKT
 48
25.0
100
AcDbLine
 10
-18.07500000000016
 20
48.79328370304666
 30
0.0
 11
-20.39999999999998
 21
44.23021427774734
 31
0.0
  0
LINE
  5
DA
330
2
100
AcDbEntity
  8
GEB-VERDECKT
 48
25.0
100
AcDbLine
 10
18.07500000000016
 20
48.79328370304666
 30
0.0
 11
20.4000000000002
 21
44.23021427774734
 31
0.0
  0
LINE
  5
DB
330
2
100
AcDbEntity
  8
GEB-VERDECKT
 48
25.0
100
AcDbLine
 10
-20.39999999999998
 20
44.23021427774687
 30
0.0
 11
-20.39999999999998
 21
16.03021427774752
 31
0.0
  0
LINE
  5
DC
330
2
100
AcDbEntity
  8
GEB-VERDECKT
 48
25.0
100
AcDbLine
 10
20.40000000000009
 20
44.23021427774734
 30
0.0
 11
20.40000000000009
 21
16.03021427774729
 31
0.0
  0
LINE
  5
DD
330
2
100
AcDbEntity
  8
GEB-VERDECKT
 48
25.0
100
AcDbLine
 10
-24.75000000000012
 20
16.03021427774729
 30
0.0
 11
-24.75000000000012
 21
7.330214277747245
 31
0.0
  0
LINE
  5
DE
330
2
100
AcDbEntity
  8
GEB-VERDECKT
 48
25.0
100
AcDbLine
 10
24.75000000000012
 20
16.03021427774729
 30
0.0
 11
24.75000000000012
 21
7.330214277747245
 31
0.0
  0
LINE
  5
DF
330
2
100
AcDbEntity
  8
GEB-VERDECKT
 48
25.0
100
AcDbLine
 10
-20.39999999999998
 20
7.330214277747245
 30
0.0
 11
-20.39999999999998
 21
-0.1697857222527546
 31
0.0
  0
LINE
  5
E0
330
2
100
AcDbEntity
  8
GEB-VERDECKT
 48
25.0
100
AcDbLine
 10
20.40000000000009
 20
7.330214277747245
 30
0.0
 11
20.40000000000009
 21
-0.1697857222527546
 31
0.0
  0
LINE
  5
E1
330
2
100
AcDbEntity
  8
GEB-VERDECKT
 48
25.0
100
AcDbLine
 10
-22.39999999999998
 20
5.330214277747018
 30
0.0
 11
-22.39999999999998
 21
-0.1697857222525272
 31
0.0
  0
LINE
  5
E2
330
2
100
AcDbEntity
  8
GEB-VERDECKT
 48
25.0
100
AcDbLine
 10
22.40000000000009
 20
5.330214277747245
 30
0.0
 11
22.40000000000009
 21
-0.1697857222527546
 31
0.0
  0
LINE
  5
E3
330
2
100
AcDbEntity
  8
GEB-VERDECKT
 48
25.0
100
AcDbLine
 10
-26.75000000000011
 20
18.03021427774706
 30
0.0
 11
-26.75000000000011
 21
5.330214277747245
 31
0.0
  0
LINE
  5
E4
330
2
100
AcDbEntity
  8
GEB-VERDECKT
 48
25.0
100
AcDbLine
 10
26.75000000000011
 20
18.03021427774706
 30
0.0
 11
26.75000000000011
 21
5.330214277747245
 31
0.0
  0
LINE
  5
E5
330
2
100
AcDbEntity
  8
GEB-VERDECKT
 48
25.0
100
AcDbLine
 10
-22.39999999999998
 20
21.83021427774747
 30
0.0
 11
-22.39999999999998
 21
18.03021427774706
 31
0.0
  0
LINE
  5
E6
330
2
100
AcDbEntity
  8
GEB-VERDECKT
 48
25.0
100
AcDbLine
 10
-22.39999999999998
 20
27.58021427774725
 30
0.0
 11
-22.39999999999998
 21
22.83021427774725
 31
0.0
  0
LINE
  5
E7
330
2
100
AcDbEntity
  8
GEB-VERDECKT
 48
25.0
100
AcDbLine
 10
-22.39999999999998
 20
33.33021427774724
 30
0.0
 11
-22.39999999999998
 21
28.58021427774725
 31
0.0
  0
LINE
  5
E8
330
2
100
AcDbEntity
  8
GEB-VERDECKT
 48
25.0
100
AcDbLine
 10
-22.39999999999998
 20
39.08021427774725
 30
0.0
 11
-22.39999999999998
 21
34.33021427774747
 31
0.0
  0
LINE
  5
E9
330
2
100
AcDbEntity
  8
GEB-VERDECKT
 48
25.0
100
AcDbLine
 10
-22.39999999999998
 20
46.33021427774724
 30
0.0
 11
-22.39999999999998
 21
40.08021427774724
 31
0.0
  0
LINE
  5
EA
330
2
100
AcDbEntity
  8
GEB-VERDECKT
 48
25.0
100
AcDbLine
 10
22.40000000000009
 20
21.83021427774747
 30
0.0
 11
22.40000000000009
 21
18.03021427774706
 31
0.0
  0
LINE
  5
EB
330
2
100
AcDbEntity
  8
GEB-VERDECKT
 48
25.0
100
AcDbLine
 10
22.40000000000009
 20
27.58021427774725
 30
0.0
 11
22.40000000000009
 21
22.83021427774725
 31
0.0
  0
LINE
  5
EC
330
2
100
AcDbEntity
  8
GEB-VERDECKT
 48
25.0
100
AcDbLine
 10
22.40000000000009
 20
33.33021427774724
 30
0.0
 11
22.40000000000009
 21
28.58021427774725
 31
0.0
  0
LINE
  5
ED
330
2
100
AcDbEntity
  8
GEB-VERDECKT
 48
25.0
100
AcDbLine
 10
22.40000000000009
 20
39.08021427774725
 30
0.0
 11
22.40000000000009
 21
34.33021427774747
 31
0.0
  0
LINE
  5
EE
330
2
100
AcDbEntity
  8
GEB-VERDECKT
 48
25.0
100
AcDbLine
 10
22.40000000000009
 20
46.33021427774724
 30
0.0
 11
22.40000000000009
 21
40.08021427774724
 31
0.0
  0
LINE
  5
EF
330
2
100
AcDbEntity
  8
GEB-VERDECKT
 48
25.0
100
AcDbLine
 10
-21.39999999999998
 20
48.83021427774725
 30
0.0
 11
-21.39999999999998
 21
46.33021427774724
 31
0.0
  0
LINE
  5
F0
330
2
100
AcDbEntity
  8
GEB-VERDECKT
 48
25.0
100
AcDbLine
 10
21.39999999999998
 20
48.83021427774725
 30
0.0
 11
21.39999999999998
 21
46.33021427774724
 31
0.0
  0
LINE
  5
F1
330
2
100
AcDbEntity
  8
GEB-VERDECKT
 48
25.0
100
AcDbLine
 10
-20.07500000000016
 20
58.83021427774725
 30
0.0
 11
-20.07500000000016
 21
48.83021427774725
 31
0.0
  0
LINE
  5
F2
330
2
100
AcDbEntity
  8
GEB-VERDECKT
 48
25.0
100
AcDbLine
 10
20.07500000000005
 20
58.83021427774725
 30
0.0
 11
20.07500000000005
 21
48.83021427774725
 31
0.0
  0
LINE
  5
F3
330
2
100
AcDbEntity
  8
GEB-VERDECKT
 48
25.0
100
AcDbLine
 10
-18.07500000000016
 20
48.79328370304666
 30
0.0
 11
18.07500000000004
 21
48.79328370304666
 31
0.0
  0
LINE
  5
F4
330
2
100
AcDbEntity
  8
GEB-VERDECKT
 48
25.0
100
AcDbLine
 10
-20.39999999999998
 20
44.23021427774734
 30
0.0
 11
20.40000000000009
 21
44.23021427774734
 31
0.0
  0
LINE
  5
F5
330
2
100
AcDbEntity
  8
GEB-VERDECKT
 48
25.0
100
AcDbLine
 10
-24.75000000000012
 20
16.03021427774729
 30
0.0
 11
24.75000000000012
 21
16.03021427774729
 31
0.0
  0
LINE
  5
F6
330
2
100
AcDbEntity
  8
GEB-VERDECKT
 48
25.0
100
AcDbLine
 10
-24.75000000000012
 20
7.330214277747245
 30
0.0
 11
24.75000000000012
 21
7.330214277747245
 31
0.0
  0
LINE
  5
F7
330
2
100
AcDbEntity
  8
GEB-VERDECKT
 48
25.0
100
AcDbLine
 10
-22.39999999999998
 20
-0.1697857222527546
 30
0.0
 11
22.40000000000009
 21
-0.1697857222527546
 31
0.0
  0
LINE
  5
F8
330
2
100
AcDbEntity
  8
GEB-VERDECKT
 48
25.0
100
AcDbLine
 10
-26.75000000000011
 20
5.330214277747245
 30
0.0
 11
26.75000000000011
 21
5.330214277747245
 31
0.0
  0
LINE
  5
F9
330
2
100
AcDbEntity
  8
GEB-VERDECKT
 48
25.0
100
AcDbLine
 10
-26.75000000000011
 20
18.03021427774752
 30
0.0
 11
26.75000000000011
 21
18.03021427774752
 31
0.0
  0
LINE
  5
FA
330
2
100
AcDbEntity
  8
GEB-VERDECKT
 48
25.0
100
AcDbLine
 10
-22.39999999999998
 20
46.33021427774724
 30
0.0
 11
22.40000000000009
 21
46.33021427774724
 31
0.0
  0
LINE
  5
FB
330
2
100
AcDbEntity
  8
GEB-VERDECKT
 48
25.0
100
AcDbLine
 10
-21.39999999999998
 20
48.83021427774725
 30
0.0
 11
21.39999999999998
 21
48.83021427774725
 31
0.0
  0
LINE
  5
FC
330
2
100
AcDbEntity
  8
GEB-VERDECKT
 48
25.0
100
AcDbLine
 10
-20.07500000000016
 20
58.83021427774725
 30
0.0
 11
20.07500000000005
 21
58.83021427774725
 31
0.0
  0
ARC
  5
FD
330
2
100
AcDbEntity
  8
GEB-VERDECKT
 48
25.0
100
AcDbCircle
 10
22.40000000000009
 20
23.20521427774725
 30
0.0
 40
1.375000000000007
100
AcDbArc
 50
270.0
 51
313.6028189726941
  0
ARC
  5
FE
330
2
100
AcDbEntity
  8
GEB-VERDECKT
 48
25.0
100
AcDbCircle
 10
22.40000000000009
 20
21.45521427774724
 30
0.0
 40
1.374999999999999
100
AcDbArc
 50
46.39718102730581
 51
90.0
  0
ARC
  5
FF
330
2
100
AcDbEntity
  8
GEB-VERDECKT
 48
25.0
100
AcDbCircle
 10
23.23333333333335
 20
22.33021427774724
 30
0.0
 40
0.1666666666666669
100
AcDbArc
 50
313.6028189726895
 51
46.39718102731053
  0
SPLINE
  5
100
330
2
100
AcDbEntity
  8
GEB-VERDECKT
 48
25.0
100
AcDbSpline
210
0.0
220
0.0
230
1.0
 70
     8
 71
     3
 72
    18
 73
    14
 74
     0
 42
0.0000000001
 43
0.0000000001
 40
2.515839392244418
 40
2.515839392244418
 40
2.515839392244418
 40
2.515839392244418
 40
2.560407317312832
 40
2.560407317312832
 40
2.769292494592967
 40
2.769292494592967
 40
3.10658663506589
 40
3.10658663506589
 40
3.792662241568975
 40
3.792662241568975
 40
4.498523124862364
 40
4.498523124862364
 40
5.026979215875235
 40
5.026979215875235
 40
5.026979215875235
 40
5.026979215875235
 10
22.40000000000009
 20
21.83021427774747
 30
0.0
 10
22.40000000000009
 20
21.83021427774747
 30
0.0
 10
22.39851285206726
 20
21.83021426365167
 30
0.0
 10
22.38159541763821
 20
21.83021458424923
 30
0.0
 10
22.33498798840708
 20
21.83020997396602
 30
0.0
 10
22.12811184027953
 20
21.83033652012273
 30
0.0
 10
21.91587966293935
 20
21.83052750789943
 30
0.0
 10
21.02115262172333
 20
21.83347800068532
 30
0.0
 10
20.08460667599718
 20
21.83824196803812
 30
0.0
 10
17.5681522638672
 20
21.87625742478508
 30
0.0
 10
15.98637264665888
 20
21.90961194770489
 30
0.0
 10
12.78974086937239
 20
22.02958647783112
 30
0.0
 10
11.29501047335975
 20
22.09909110975855
 30
0.0
 10
9.708524889791306
 20
22.20952462257469
 30
0.0
  0
SPLINE
  5
101
330
2
100
AcDbEntity
  8
GEB-VERDECKT
 48
25.0
100
AcDbSpline
210
0.0
220
0.0
230
1.0
 70
     8
 71
     3
 72
    16
 73
    12
 74
     0
 42
0.0000000001
 43
0.0000000001
 40
0.0026302539176521
 40
0.0026302539176521
 40
0.0026302539176521
 40
0.0026302539176521
 40
0.7966428389618099
 40
0.7966428389618099
 40
1.604303165644387
 40
1.604303165644387
 40
2.119037224898871
 40
2.119037224898871
 40
2.368046377464019
 40
2.368046377464019
 40
2.515839392244391
 40
2.515839392244391
 40
2.515839392244391
 40
2.515839392244391
 10
9.708524889791306
 20
22.4509039329198
 30
0.0
 10
12.08894037455354
 20
22.61660203107272
 30
0.0
 10
14.25608987834528
 20
22.69437405320559
 30
0.0
 10
17.97869449656252
 20
22.79697248145954
 30
0.0
 10
19.48988893407898
 20
22.8147384815411
 30
0.0
 10
21.24449016605252
 20
22.82837300790948
 30
0.0
 10
21.74305382423029
 20
22.82949547500084
 30
0.0
 10
22.19451175379675
 20
22.83017054714151
 30
0.0
 10
22.29588191360154
 20
22.83019770192641
 30
0.0
 10
22.38364625328472
 20
22.83021597810739
 30
0.0
 10
22.40000000000009
 20
22.83021427774725
 30
0.0
 10
22.40000000000009
 20
22.83021427774725
 30
0.0
  0
SPLINE
  5
102
330
2
100
AcDbEntity
  8
GEB-VERDECKT
 48
25.0
100
AcDbSpline
210
0.0
220
0.0
230
1.0
 70
     8
 71
     3
 72
    28
 73
    24
 74
     0
 42
0.0000000001
 43
0.0000000001
 40
0.000549672068412
 40
0.000549672068412
 40
0.000549672068412
 40
0.000549672068412
 40
0.0733177656791823
 40
0.0733177656791823
 40
0.1082986036710511
 40
0.1082986036710511
 40
0.1130439421073878
 40
0.1130439421073878
 40
0.1153813164161232
 40
0.1153813164161232
 40
0.1169282292691532
 40
0.1169282292691532
 40
0.118340803302445
 40
0.118340803302445
 40
0.1201304062779208
 40
0.1201304062779208
 40
0.1234160542160876
 40
0.1234160542160876
 40
0.1318469493905364
 40
0.1318469493905364
 40
0.1639189615350106
 40
0.1639189615350106
 40
0.2618557506767484
 40
0.2618557506767484
 40
0.2618557506767484
 40
0.2618557506767484
 10
9.708524889791306
 20
22.20952462257469
 30
0.0
 10
9.490957187882713
 20
22.22466927049731
 30
0.0
 10
9.311640451559924
 20
22.24307487643955
 30
0.0
 10
9.126366151959246
 20
22.27444741811883
 30
0.0
 10
9.05068327168135
 20
22.29001849418296
 30
0.0
 10
9.012661946990874
 20
22.31248803453786
 30
0.0
 10
9.008240754480311
 20
22.31563499771619
 30
0.0
 10
9.003426395890642
 20
22.32092560467936
 30
0.0
 10
9.001966459792924
 20
22.32294614443754
 30
0.0
 10
9.00042318213957
 20
22.32667918917673
 30
0.0
 10
9.000050916345571
 20
22.32824045641837
 30
0.0
 10
8.999962784909712
 20
22.33135980234374
 30
0.0
 10
9.000195534075487
 20
22.33280636940185
 30
0.0
 10
9.001240342501546
 20
22.33598449114424
 30
0.0
 10
9.002168060106214
 20
22.33762022280166
 30
0.0
 10
9.005225689370149
 20
22.34179907562907
 30
0.0
 10
9.007878850609699
 20
22.34418179473778
 30
0.0
 10
9.017139782384219
 20
22.3512108160744
 30
0.0
 10
9.026120895700046
 20
22.35560452545156
 30
0.0
 10
9.068058101325618
 20
22.37291637669591
 30
0.0
 10
9.11881144933443
 20
22.38387846922751
 30
0.0
 10
9.285558323509008
 20
22.41465975236224
 30
0.0
 10
9.474803919500232
 20
22.43463487378949
 30
0.0
 10
9.708524889791306
 20
22.4509039329198
 30
0.0
  0
ARC
  5
103
330
2
100
AcDbEntity
  8
GEB-VERDECKT
 48
25.0
100
AcDbCircle
 10
-22.39999999999998
 20
23.20521427774725
 30
0.0
 40
1.37500000000001
100
AcDbArc
 50
226.3971810273058
 51
270.0
  0
ARC
  5
104
330
2
100
AcDbEntity
  8
GEB-VERDECKT
 48
25.0
100
AcDbCircle
 10
-22.39999999999998
 20
21.45521427774724
 30
0.0
 40
1.374999999999996
100
AcDbArc
 50
90.0
 51
133.6028189726942
  0
ARC
  5
105
330
2
100
AcDbEntity
  8
GEB-VERDECKT
 48
25.0
100
AcDbCircle
 10
-23.23333333333346
 20
22.33021427774724
 30
0.0
 40
0.1666666666666669
100
AcDbArc
 50
133.6028189726895
 51
226.3971810273105
  0
SPLINE
  5
106
330
2
100
AcDbEntity
  8
GEB-VERDECKT
 48
25.0
100
AcDbSpline
210
0.0
220
0.0
230
1.0
 70
     8
 71
     3
 72
    16
 73
    12
 74
     0
 42
0.0000000001
 43
0.0000000001
 40
0.0026302539176697
 40
0.0026302539176697
 40
0.0026302539176697
 40
0.0026302539176697
 40
0.796642838961812
 40
0.796642838961812
 40
1.604303165644373
 40
1.604303165644373
 40
2.119037224898893
 40
2.119037224898893
 40
2.368046377464043
 40
2.368046377464043
 40
2.515839392244428
 40
2.515839392244428
 40
2.515839392244428
 40
2.515839392244428
 10
-9.708524889791419
 20
22.20952462257469
 30
0.0
 10
-12.08894037455332
 20
22.04382652442177
 30
0.0
 10
-14.25608987834528
 20
21.96605450228913
 30
0.0
 10
-17.9786944965623
 20
21.86345607403518
 30
0.0
 10
-19.48988893407875
 20
21.84569007395339
 30
0.0
 10
-21.24449016605252
 20
21.83205554758501
 30
0.0
 10
-21.74305382423029
 20
21.83093308049388
 30
0.0
 10
-22.19451175379675
 20
21.83025800835344
 30
0.0
 10
-22.29588191360142
 20
21.83023085356831
 30
0.0
 10
-22.38364625328484
 20
21.8302125773871
 30
0.0
 10
-22.39999999999998
 20
21.83021427774747
 30
0.0
 10
-22.39999999999998
 20
21.83021427774747
 30
0.0
  0
SPLINE
  5
107
330
2
100
AcDbEntity
  8
GEB-VERDECKT
 48
25.0
100
AcDbSpline
210
0.0
220
0.0
230
1.0
 70
     8
 71
     3
 72
    18
 73
    14
 74
     0
 42
0.0000000001
 43
0.0000000001
 40
2.515839392244428
 40
2.515839392244428
 40
2.515839392244428
 40
2.515839392244428
 40
2.560407317312793
 40
2.560407317312793
 40
2.769292494592959
 40
2.769292494592959
 40
3.106586635065938
 40
3.106586635065938
 40
3.79266224156908
 40
3.79266224156908
 40
4.498523124862665
 40
4.498523124862665
 40
5.026979215875925
 40
5.026979215875925
 40
5.026979215875925
 40
5.026979215875925
 10
-22.39999999999998
 20
22.83021427774725
 30
0.0
 10
-22.39999999999998
 20
22.83021427774725
 30
0.0
 10
-22.39851285206726
 20
22.83021429184305
 30
0.0
 10
-22.38159541763832
 20
22.83021397124571
 30
0.0
 10
-22.33498798840731
 20
22.83021858152892
 30
0.0
 10
-22.12811184027976
 20
22.83009203537176
 30
0.0
 10
-21.91587966293957
 20
22.82990104759528
 30
0.0
 10
-21.0211526217239
 20
22.8269505548094
 30
0.0
 10
-20.08460667599809
 20
22.82218658745683
 30
0.0
 10
-17.56815226386868
 20
22.78417113070941
 30
0.0
 10
-15.98637264666047
 20
22.75081660778983
 30
0.0
 10
-12.78974086937376
 20
22.63084207766338
 30
0.0
 10
-11.29501047336055
 20
22.56133744573617
 30
0.0
 10
-9.708524889791419
 20
22.4509039329198
 30
0.0
  0
SPLINE
  5
108
330
2
100
AcDbEntity
  8
GEB-VERDECKT
 48
25.0
100
AcDbSpline
210
0.0
220
0.0
230
1.0
 70
     8
 71
     3
 72
    28
 73
    24
 74
     0
 42
0.0000000001
 43
0.0000000001
 40
0.0005496720684024
 40
0.0005496720684024
 40
0.0005496720684024
 40
0.0005496720684024
 40
0.0733177656789543
 40
0.0733177656789543
 40
0.1082986036718085
 40
0.1082986036718085
 40
0.1130439421153812
 40
0.1130439421153812
 40
0.1153813164303101
 40
0.1153813164303101
 40
0.1169282292877371
 40
0.1169282292877371
 40
0.1183408033249771
 40
0.1183408033249771
 40
0.120130406304983
 40
0.120130406304983
 40
0.1234160542513166
 40
0.1234160542513166
 40
0.1318469494475599
 40
0.1318469494475599
 40
0.1639189616747492
 40
0.1639189616747492
 40
0.2618557510724027
 40
0.2618557510724027
 40
0.2618557510724027
 40
0.2618557510724027
 10
-9.708524889791419
 20
22.4509039329198
 30
0.0
 10
-9.490957187883282
 20
22.4357592849974
 30
0.0
 10
-9.311640451560265
 20
22.41735367905494
 30
0.0
 10
-9.126366151957086
 20
22.38598113737521
 30
0.0
 10
-9.050683271680895
 20
22.37041006131153
 30
0.0
 10
-9.012661946984167
 20
22.34794052095299
 30
0.0
 10
-9.008240754477242
 20
22.34479355777535
 30
0.0
 10
-9.003426395890187
 20
22.3395029508149
 30
0.0
 10
-9.001966459792924
 20
22.33748241105695
 30
0.0
 10
-9.00042318213957
 20
22.33374936631776
 30
0.0
 10
-9.000050916345458
 20
22.33218809907635
 30
0.0
 10
-8.999962784909826
 20
22.32906875315098
 30
0.0
 10
-9.00019553407526
 20
22.32762218609332
 30
0.0
 10
-9.001240342501318
 20
22.32444406435047
 30
0.0
 10
-9.0021680601061
 20
22.32280833269328
 30
0.0
 10
-9.005225689370149
 20
22.31862947986542
 30
0.0
 10
-9.007878850609927
 20
22.31624676075671
 30
0.0
 10
-9.017139782384106
 20
22.30921773942032
 30
0.0
 10
-9.026120895699818
 20
22.30482403004316
 30
0.0
 10
-9.068058101326073
 20
22.28751217879858
 30
0.0
 10
-9.118811449335566
 20
22.27655008626698
 30
0.0
 10
-9.285558323508098
 20
22.24576880313248
 30
0.0
 10
-9.474803919499322
 20
22.225793681705
 30
0.0
 10
-9.708524889791419
 20
22.20952462257469
 30
0.0
  0
ARC
  5
109
330
2
100
AcDbEntity
  8
GEB-VERDECKT
 48
25.0
100
AcDbCircle
 10
22.40000000000009
 20
28.95521427774724
 30
0.0
 40
1.375000000000007
100
AcDbArc
 50
270.0
 51
313.6028189727126
  0
ARC
  5
10A
330
2
100
AcDbEntity
  8
GEB-VERDECKT
 48
25.0
100
AcDbCircle
 10
22.40000000000009
 20
27.20521427774725
 30
0.0
 40
1.374999999999999
100
AcDbArc
 50
46.39718102730581
 51
90.0
  0
ARC
  5
10B
330
2
100
AcDbEntity
  8
GEB-VERDECKT
 48
25.0
100
AcDbCircle
 10
23.23333333333335
 20
28.08021427774747
 30
0.0
 40
0.1666666666666669
100
AcDbArc
 50
313.6028189726895
 51
46.39718102731053
  0
ARC
  5
10C
330
2
100
AcDbEntity
  8
GEB-VERDECKT
 48
25.0
100
AcDbCircle
 10
22.40000000000009
 20
34.70521427774725
 30
0.0
 40
1.375000000000007
100
AcDbArc
 50
270.0
 51
313.6028189726941
  0
ARC
  5
10D
330
2
100
AcDbEntity
  8
GEB-VERDECKT
 48
25.0
100
AcDbCircle
 10
22.40000000000009
 20
32.95521427774725
 30
0.0
 40
1.374999999999999
100
AcDbArc
 50
46.39718102730581
 51
90.0
  0
ARC
  5
10E
330
2
100
AcDbEntity
  8
GEB-VERDECKT
 48
25.0
100
AcDbCircle
 10
23.23333333333335
 20
33.83021427774725
 30
0.0
 40
0.1666666666666669
100
AcDbArc
 50
313.6028189726895
 51
46.39718102731053
  0
ARC
  5
10F
330
2
100
AcDbEntity
  8
GEB-VERDECKT
 48
25.0
100
AcDbCircle
 10
22.40000000000009
 20
40.45521427774724
 30
0.0
 40
1.375000000000007
100
AcDbArc
 50
270.0
 51
313.6028189726941
  0
ARC
  5
110
330
2
100
AcDbEntity
  8
GEB-VERDECKT
 48
25.0
100
AcDbCircle
 10
22.40000000000009
 20
38.70521427774747
 30
0.0
 40
1.374999999999999
100
AcDbArc
 50
46.39718102728738
 51
90.0
  0
ARC
  5
111
330
2
100
AcDbEntity
  8
GEB-VERDECKT
 48
25.0
100
AcDbCircle
 10
23.23333333333335
 20
39.58021427774724
 30
0.0
 40
0.1666666666666669
100
AcDbArc
 50
313.6028189726895
 51
46.39718102731053
  0
ARC
  5
112
330
2
100
AcDbEntity
  8
GEB-VERDECKT
 48
25.0
100
AcDbCircle
 10
-22.39999999999998
 20
28.95521427774724
 30
0.0
 40
1.37500000000001
100
AcDbArc
 50
226.3971810272874
 51
270.0
  0
ARC
  5
113
330
2
100
AcDbEntity
  8
GEB-VERDECKT
 48
25.0
100
AcDbCircle
 10
-22.39999999999998
 20
27.20521427774725
 30
0.0
 40
1.374999999999996
100
AcDbArc
 50
90.0
 51
133.6028189726942
  0
ARC
  5
114
330
2
100
AcDbEntity
  8
GEB-VERDECKT
 48
25.0
100
AcDbCircle
 10
-23.23333333333346
 20
28.08021427774747
 30
0.0
 40
0.1666666666666669
100
AcDbArc
 50
133.6028189726895
 51
226.3971810273105
  0
ARC
  5
115
330
2
100
AcDbEntity
  8
GEB-VERDECKT
 48
25.0
100
AcDbCircle
 10
-22.39999999999998
 20
34.70521427774725
 30
0.0
 40
1.37500000000001
100
AcDbArc
 50
226.3971810273058
 51
270.0
  0
ARC
  5
116
330
2
100
AcDbEntity
  8
GEB-VERDECKT
 48
25.0
100
AcDbCircle
 10
-22.39999999999998
 20
32.95521427774725
 30
0.0
 40
1.374999999999995
100
AcDbArc
 50
90.0
 51
133.6028189726942
  0
ARC
  5
117
330
2
100
AcDbEntity
  8
GEB-VERDECKT
 48
25.0
100
AcDbCircle
 10
-23.23333333333346
 20
33.83021427774725
 30
0.0
 40
0.1666666666666669
100
AcDbArc
 50
133.6028189726895
 51
226.3971810273105
  0
ARC
  5
118
330
2
100
AcDbEntity
  8
GEB-VERDECKT
 48
25.0
100
AcDbCircle
 10
-22.39999999999998
 20
40.45521427774724
 30
0.0
 40
1.37500000000001
100
AcDbArc
 50
226.3971810273058
 51
270.0
  0
ARC
  5
119
330
2
100
AcDbEntity
  8
GEB-VERDECKT
 48
25.0
100
AcDbCircle
 10
-22.39999999999998
 20
38.70521427774747
 30
0.0
 40
1.374999999999996
100
AcDbArc
 50
90.0
 51
133.6028189727126
  0
ARC
  5
11A
330
2
100
AcDbEntity
  8
GEB-VERDECKT
 48
25.0
100
AcDbCircle
 10
-23.23333333333346
 20
39.58021427774724
 30
0.0
 40
0.1666666666666669
100
AcDbArc
 50
133.6028189726895
 51
226.3971810273105
  0
SPLINE
  5
11B
330
2
100
AcDbEntity
  8
GEB-VERDECKT
 48
25.0
100
AcDbSpline
210
0.0
220
0.0
230
1.0
 70
     8
 71
     3
 72
    18
 73
    14
 74
     0
 42
0.0000000001
 43
0.0000000001
 40
2.515839392244418
 40
2.515839392244418
 40
2.515839392244418
 40
2.515839392244418
 40
2.560407317312832
 40
2.560407317312832
 40
2.769292494592967
 40
2.769292494592967
 40
3.10658663506589
 40
3.10658663506589
 40
3.792662241568975
 40
3.792662241568975
 40
4.498523124862364
 40
4.498523124862364
 40
5.026979215875235
 40
5.026979215875235
 40
5.026979215875235
 40
5.026979215875235
 10
22.40000000000009
 20
27.58021427774725
 30
0.0
 10
22.40000000000009
 20
27.58021427774725
 30
0.0
 10
22.39851285206726
 20
27.58021426365144
 30
0.0
 10
22.38159541763821
 20
27.58021458424901
 30
0.0
 10
22.33498798840708
 20
27.5802099739658
 30
0.0
 10
22.12811184027953
 20
27.58033652012296
 30
0.0
 10
21.91587966293935
 20
27.58052750789943
 30
0.0
 10
21.02115262172333
 20
27.58347800068509
 30
0.0
 10
20.08460667599718
 20
27.58824196803789
 30
0.0
 10
17.5681522638672
 20
27.62625742478508
 30
0.0
 10
15.98637264665888
 20
27.65961194770466
 30
0.0
 10
12.78974086937239
 20
27.77958647783112
 30
0.0
 10
11.29501047335975
 20
27.84909110975855
 30
0.0
 10
9.708524889791306
 20
27.95952462257492
 30
0.0
  0
SPLINE
  5
11C
330
2
100
AcDbEntity
  8
GEB-VERDECKT
 48
25.0
100
AcDbSpline
210
0.0
220
0.0
230
1.0
 70
     8
 71
     3
 72
    16
 73
    12
 74
     0
 42
0.0000000001
 43
0.0000000001
 40
0.0026302539176523
 40
0.0026302539176523
 40
0.0026302539176523
 40
0.0026302539176523
 40
0.7966428389618099
 40
0.7966428389618099
 40
1.604303165644387
 40
1.604303165644387
 40
2.119037224898871
 40
2.119037224898871
 40
2.368046377464019
 40
2.368046377464019
 40
2.515839392244391
 40
2.515839392244391
 40
2.515839392244391
 40
2.515839392244391
 10
9.708524889791306
 20
28.2009039329198
 30
0.0
 10
12.08894037455354
 20
28.36660203107295
 30
0.0
 10
14.25608987834528
 20
28.44437405320537
 30
0.0
 10
17.97869449656252
 20
28.54697248145953
 30
0.0
 10
19.48988893407898
 20
28.56473848154133
 30
0.0
 10
21.24449016605252
 20
28.57837300790971
 30
0.0
 10
21.74305382423029
 20
28.57949547500084
 30
0.0
 10
22.19451175379675
 20
28.58017054714128
 30
0.0
 10
22.29588191360154
 20
28.58019770192641
 30
0.0
 10
22.38364625328472
 20
28.58021597810716
 30
0.0
 10
22.40000000000009
 20
28.58021427774725
 30
0.0
 10
22.40000000000009
 20
28.58021427774725
 30
0.0
  0
SPLINE
  5
11D
330
2
100
AcDbEntity
  8
GEB-VERDECKT
 48
25.0
100
AcDbSpline
210
0.0
220
0.0
230
1.0
 70
     8
 71
     3
 72
    28
 73
    24
 74
     0
 42
0.0000000001
 43
0.0000000001
 40
0.0005496720684116
 40
0.0005496720684116
 40
0.0005496720684116
 40
0.0005496720684116
 40
0.0733177656786593
 40
0.0733177656786593
 40
0.1082986036703403
 40
0.1082986036703403
 40
0.1130439421147523
 40
0.1130439421147523
 40
0.1153813164303518
 40
0.1153813164303518
 40
0.1169282292880171
 40
0.1169282292880171
 40
0.1183408033255357
 40
0.1183408033255357
 40
0.1201304063061903
 40
0.1201304063061903
 40
0.1234160542533079
 40
0.1234160542533079
 40
0.1318469494530809
 40
0.1318469494530809
 40
0.1639189616967058
 40
0.1639189616967058
 40
0.2618557511463248
 40
0.2618557511463248
 40
0.2618557511463248
 40
0.2618557511463248
 10
9.708524889791306
 20
27.95952462257492
 30
0.0
 10
9.490957187884305
 20
27.97466927049732
 30
0.0
 10
9.311640451560833
 20
27.99307487643933
 30
0.0
 10
9.126366151958677
 20
28.02444741811905
 30
0.0
 10
9.05068327168135
 20
28.04001849418273
 30
0.0
 10
9.01266194698303
 20
28.06248803454219
 30
0.0
 10
9.008240754476901
 20
28.06563499771982
 30
0.0
 10
9.003426395890301
 20
28.07092560467982
 30
0.0
 10
9.001966459792924
 20
28.07294614443776
 30
0.0
 10
9.00042318213957
 20
28.07667918917673
 30
0.0
 10
9.000050916345571
 20
28.07824045641837
 30
0.0
 10
8.999962784909712
 20
28.08135980234397
 30
0.0
 10
9.00019553407526
 20
28.08280636940185
 30
0.0
 10
9.001240342501432
 20
28.08598449114402
 30
0.0
 10
9.002168060105759
 20
28.0876202228012
 30
0.0
 10
9.005225689370149
 20
28.0917990756293
 30
0.0
 10
9.007878850610381
 20
28.09418179473823
 30
0.0
 10
9.017139782384447
 20
28.10121081607463
 30
0.0
 10
9.026120895700501
 20
28.10560452545201
 30
0.0
 10
9.068058101326414
 20
28.12291637669637
 30
0.0
 10
9.118811449336249
 20
28.13387846922797
 30
0.0
 10
9.285558323508553
 20
28.16465975236202
 30
0.0
 10
9.474803919500004
 20
28.18463487378972
 30
0.0
 10
9.708524889791306
 20
28.2009039329198
 30
0.0
  0
SPLINE
  5
11E
330
2
100
AcDbEntity
  8
GEB-VERDECKT
 48
25.0
100
AcDbSpline
210
0.0
220
0.0
230
1.0
 70
     8
 71
     3
 72
    18
 73
    14
 74
     0
 42
0.0000000001
 43
0.0000000001
 40
2.515839392244418
 40
2.515839392244418
 40
2.515839392244418
 40
2.515839392244418
 40
2.560407317312832
 40
2.560407317312832
 40
2.769292494592967
 40
2.769292494592967
 40
3.10658663506589
 40
3.10658663506589
 40
3.792662241568975
 40
3.792662241568975
 40
4.498523124862364
 40
4.498523124862364
 40
5.026979215875235
 40
5.026979215875235
 40
5.026979215875235
 40
5.026979215875235
 10
22.40000000000009
 20
33.33021427774748
 30
0.0
 10
22.40000000000009
 20
33.33021427774748
 30
0.0
 10
22.39851285206726
 20
33.33021426365144
 30
0.0
 10
22.38159541763821
 20
33.33021458424878
 30
0.0
 10
22.33498798840708
 20
33.33020997396602
 30
0.0
 10
22.12811184027953
 20
33.33033652012296
 30
0.0
 10
21.91587966293935
 20
33.33052750789943
 30
0.0
 10
21.02115262172333
 20
33.33347800068532
 30
0.0
 10
20.08460667599718
 20
33.33824196803812
 30
0.0
 10
17.5681522638672
 20
33.37625742478508
 30
0.0
 10
15.98637264665888
 20
33.40961194770489
 30
0.0
 10
12.78974086937239
 20
33.52958647783112
 30
0.0
 10
11.29501047335975
 20
33.59909110975877
 30
0.0
 10
9.708524889791306
 20
33.70952462257492
 30
0.0
  0
SPLINE
  5
11F
330
2
100
AcDbEntity
  8
GEB-VERDECKT
 48
25.0
100
AcDbSpline
210
0.0
220
0.0
230
1.0
 70
     8
 71
     3
 72
    16
 73
    12
 74
     0
 42
0.0000000001
 43
0.0000000001
 40
0.0026302539176523
 40
0.0026302539176523
 40
0.0026302539176523
 40
0.0026302539176523
 40
0.7966428389618099
 40
0.7966428389618099
 40
1.604303165644387
 40
1.604303165644387
 40
2.119037224898871
 40
2.119037224898871
 40
2.368046377464019
 40
2.368046377464019
 40
2.515839392244391
 40
2.515839392244391
 40
2.515839392244391
 40
2.515839392244391
 10
9.708524889791306
 20
33.9509039329198
 30
0.0
 10
12.08894037455354
 20
34.11660203107272
 30
0.0
 10
14.25608987834528
 20
34.1943740532056
 30
0.0
 10
17.97869449656252
 20
34.29697248145954
 30
0.0
 10
19.48988893407898
 20
34.31473848154133
 30
0.0
 10
21.24449016605252
 20
34.32837300790948
 30
0.0
 10
21.74305382423029
 20
34.32949547500061
 30
0.0
 10
22.19451175379675
 20
34.33017054714128
 30
0.0
 10
22.29588191360154
 20
34.33019770192618
 30
0.0
 10
22.38364625328472
 20
34.33021597810739
 30
0.0
 10
22.40000000000009
 20
34.33021427774747
 30
0.0
 10
22.40000000000009
 20
34.33021427774747
 30
0.0
  0
SPLINE
  5
120
330
2
100
AcDbEntity
  8
GEB-VERDECKT
 48
25.0
100
AcDbSpline
210
0.0
220
0.0
230
1.0
 70
     8
 71
     3
 72
    28
 73
    24
 74
     0
 42
0.0000000001
 43
0.0000000001
 40
0.0005496720684121
 40
0.0005496720684121
 40
0.0005496720684121
 40
0.0005496720684121
 40
0.07331776567894
 40
0.07331776567894
 40
0.1082986036710411
 40
0.1082986036710411
 40
0.1130439421169878
 40
0.1130439421169878
 40
0.1153813164338578
 40
0.1153813164338578
 40
0.1169282292923663
 40
0.1169282292923663
 40
0.118340803330668
 40
0.118340803330668
 40
0.1201304063124875
 40
0.1201304063124875
 40
0.1234160542622167
 40
0.1234160542622167
 40
0.1318469494648156
 40
0.1318469494648156
 40
0.1639189617067637
 40
0.1639189617067637
 40
0.2618557511502213
 40
0.2618557511502213
 40
0.2618557511502213
 40
0.2618557511502213
 10
9.708524889791306
 20
33.70952462257492
 30
0.0
 10
9.490957187883395
 20
33.72466927049732
 30
0.0
 10
9.311640451560379
 20
33.74307487643955
 30
0.0
 10
9.12636615195845
 20
33.77444741811928
 30
0.0
 10
9.050683271681236
 20
33.79001849418296
 30
0.0
 10
9.012661946981666
 20
33.81248803454287
 30
0.0
 10
9.008240754476105
 20
33.81563499772051
 30
0.0
 10
9.003426395890301
 20
33.82092560467981
 30
0.0
 10
9.001966459792924
 20
33.82294614443754
 30
0.0
 10
9.00042318213957
 20
33.8266791891765
 30
0.0
 10
9.000050916345571
 20
33.8282404564186
 30
0.0
 10
8.999962784909712
 20
33.83135980234374
 30
0.0
 10
9.000195534075487
 20
33.83280636940185
 30
0.0
 10
9.001240342501546
 20
33.83598449114425
 30
0.0
 10
9.002168060106214
 20
33.83762022280166
 30
0.0
 10
9.005225689370149
 20
33.84179907562907
 30
0.0
 10
9.007878850609699
 20
33.84418179473755
 30
0.0
 10
9.017139782382969
 20
33.85121081607326
 30
0.0
 10
9.026120895697317
 20
33.85560452545064
 30
0.0
 10
9.0680581013263
 20
33.87291637669614
 30
0.0
 10
9.118811449335908
 20
33.88387846922797
 30
0.0
 10
9.285558323508553
 20
33.91465975236224
 30
0.0
 10
9.474803919500004
 20
33.93463487378972
 30
0.0
 10
9.708524889791306
 20
33.9509039329198
 30
0.0
  0
SPLINE
  5
121
330
2
100
AcDbEntity
  8
GEB-VERDECKT
 48
25.0
100
AcDbSpline
210
0.0
220
0.0
230
1.0
 70
     8
 71
     3
 72
    18
 73
    14
 74
     0
 42
0.0000000001
 43
0.0000000001
 40
2.515839392244382
 40
2.515839392244382
 40
2.515839392244382
 40
2.515839392244382
 40
2.560407317312762
 40
2.560407317312762
 40
2.769292494592905
 40
2.769292494592905
 40
3.106586635065826
 40
3.106586635065826
 40
3.792662241568866
 40
3.792662241568866
 40
4.498523124862278
 40
4.498523124862278
 40
5.026979215875345
 40
5.026979215875345
 40
5.026979215875345
 40
5.026979215875345
 10
22.40000000000009
 20
39.08021427774725
 30
0.0
 10
22.40000000000009
 20
39.08021427774725
 30
0.0
 10
22.39851285206726
 20
39.08021426365167
 30
0.0
 10
22.38159541763821
 20
39.08021458424901
 30
0.0
 10
22.33498798840708
 20
39.0802099739658
 30
0.0
 10
22.12811184027976
 20
39.08033652012296
 30
0.0
 10
21.91587966293957
 20
39.08052750789943
 30
0.0
 10
21.02115262172379
 20
39.08347800068509
 30
0.0
 10
20.08460667599763
 20
39.08824196803812
 30
0.0
 10
17.56815226386823
 20
39.12625742478486
 30
0.0
 10
15.98637264666001
 20
39.15961194770489
 30
0.0
 10
12.7897408693733
 20
39.27958647783089
 30
0.0
 10
11.29501047336032
 20
39.34909110975855
 30
0.0
 10
9.708524889791306
 20
39.45952462257515
 30
0.0
  0
SPLINE
  5
122
330
2
100
AcDbEntity
  8
GEB-VERDECKT
 48
25.0
100
AcDbSpline
210
0.0
220
0.0
230
1.0
 70
     8
 71
     3
 72
    16
 73
    12
 74
     0
 42
0.0000000001
 43
0.0000000001
 40
0.0026302539176522
 40
0.0026302539176522
 40
0.0026302539176522
 40
0.0026302539176522
 40
0.7966428389618099
 40
0.7966428389618099
 40
1.604303165644386
 40
1.604303165644386
 40
2.11903722489887
 40
2.11903722489887
 40
2.368046377464017
 40
2.368046377464017
 40
2.515839392244389
 40
2.515839392244389
 40
2.515839392244389
 40
2.515839392244389
 10
9.708524889791306
 20
39.70090393291958
 30
0.0
 10
12.08894037455354
 20
39.86660203107272
 30
0.0
 10
14.25608987834528
 20
39.94437405320537
 30
0.0
 10
17.97869449656252
 20
40.04697248145953
 30
0.0
 10
19.48988893407898
 20
40.06473848154132
 30
0.0
 10
21.24449016605252
 20
40.07837300790948
 30
0.0
 10
21.74305382423029
 20
40.07949547500084
 30
0.0
 10
22.19451175379675
 20
40.08017054714151
 30
0.0
 10
22.29588191360154
 20
40.08019770192641
 30
0.0
 10
22.38364625328472
 20
40.08021597810738
 30
0.0
 10
22.40000000000009
 20
40.08021427774724
 30
0.0
 10
22.40000000000009
 20
40.08021427774724
 30
0.0
  0
SPLINE
  5
123
330
2
100
AcDbEntity
  8
GEB-VERDECKT
 48
25.0
100
AcDbSpline
210
0.0
220
0.0
230
1.0
 70
     8
 71
     3
 72
    28
 73
    24
 74
     0
 42
0.0000000001
 43
0.0000000001
 40
0.0005496720684118
 40
0.0005496720684118
 40
0.0005496720684118
 40
0.0005496720684118
 40
0.0733177656787973
 40
0.0733177656787973
 40
0.1082986036707144
 40
0.1082986036707144
 40
0.1130439421071746
 40
0.1130439421071746
 40
0.1153813164160088
 40
0.1153813164160088
 40
0.1169282292691141
 40
0.1169282292691141
 40
0.1183408033024798
 40
0.1183408033024798
 40
0.1201304062780323
 40
0.1201304062780323
 40
0.1234160542162653
 40
0.1234160542162653
 40
0.1318469493907262
 40
0.1318469493907262
 40
0.1639189615343812
 40
0.1639189615343812
 40
0.2618557506774307
 40
0.2618557506774307
 40
0.2618557506774307
 40
0.2618557506774307
 10
9.708524889791306
 20
39.45952462257515
 30
0.0
 10
9.49095718788385
 20
39.47466927049731
 30
0.0
 10
9.311640451560492
 20
39.49307487643933
 30
0.0
 10
9.12636615195845
 20
39.52444741811905
 30
0.0
 10
9.050683271681236
 20
39.54001849418296
 30
0.0
 10
9.01266194699076
 20
39.56248803453764
 30
0.0
 10
9.008240754480311
 20
39.56563499771619
 30
0.0
 10
9.003426395890528
 20
39.57092560467936
 30
0.0
 10
9.001966459792924
 20
39.57294614443754
 30
0.0
 10
9.00042318213957
 20
39.57667918917673
 30
0.0
 10
9.000050916345458
 20
39.57824045641837
 30
0.0
 10
8.999962784909712
 20
39.58135980234374
 30
0.0
 10
9.000195534075487
 20
39.58280636940163
 30
0.0
 10
9.001240342501546
 20
39.58598449114402
 30
0.0
 10
9.002168060106214
 20
39.58762022280144
 30
0.0
 10
9.005225689370149
 20
39.59179907562907
 30
0.0
 10
9.007878850609699
 20
39.59418179473755
 30
0.0
 10
9.017139782384106
 20
39.60121081607417
 30
0.0
 10
9.026120895699591
 20
39.60560452545156
 30
0.0
 10
9.068058101326073
 20
39.62291637669591
 30
0.0
 10
9.118811449335908
 20
39.63387846922819
 30
0.0
 10
9.28555832350878
 20
39.66465975236202
 30
0.0
 10
9.474803919500345
 20
39.68463487378972
 30
0.0
 10
9.708524889791306
 20
39.70090393291958
 30
0.0
  0
SPLINE
  5
124
330
2
100
AcDbEntity
  8
GEB-VERDECKT
 48
25.0
100
AcDbSpline
210
0.0
220
0.0
230
1.0
 70
     8
 71
     3
 72
    16
 73
    12
 74
     0
 42
0.0000000001
 43
0.0000000001
 40
0.0026302539176697
 40
0.0026302539176697
 40
0.0026302539176697
 40
0.0026302539176697
 40
0.796642838961812
 40
0.796642838961812
 40
1.604303165644373
 40
1.604303165644373
 40
2.119037224898893
 40
2.119037224898893
 40
2.368046377464043
 40
2.368046377464043
 40
2.515839392244428
 40
2.515839392244428
 40
2.515839392244428
 40
2.515839392244428
 10
-9.708524889791419
 20
27.95952462257492
 30
0.0
 10
-12.08894037455332
 20
27.79382652442178
 30
0.0
 10
-14.25608987834528
 20
27.71605450228913
 30
0.0
 10
-17.9786944965623
 20
27.61345607403496
 30
0.0
 10
-19.48988893407875
 20
27.59569007395362
 30
0.0
 10
-21.24449016605252
 20
27.58205554758502
 30
0.0
 10
-21.74305382423029
 20
27.58093308049388
 30
0.0
 10
-22.19451175379675
 20
27.58025800835322
 30
0.0
 10
-22.29588191360142
 20
27.58023085356831
 30
0.0
 10
-22.38364625328484
 20
27.58021257738733
 30
0.0
 10
-22.39999999999998
 20
27.58021427774725
 30
0.0
 10
-22.39999999999998
 20
27.58021427774725
 30
0.0
  0
SPLINE
  5
125
330
2
100
AcDbEntity
  8
GEB-VERDECKT
 48
25.0
100
AcDbSpline
210
0.0
220
0.0
230
1.0
 70
     8
 71
     3
 72
    18
 73
    14
 74
     0
 42
0.0000000001
 43
0.0000000001
 40
2.515839392244428
 40
2.515839392244428
 40
2.515839392244428
 40
2.515839392244428
 40
2.560407317312793
 40
2.560407317312793
 40
2.769292494592959
 40
2.769292494592959
 40
3.106586635065938
 40
3.106586635065938
 40
3.79266224156908
 40
3.79266224156908
 40
4.498523124862665
 40
4.498523124862665
 40
5.026979215875925
 40
5.026979215875925
 40
5.026979215875925
 40
5.026979215875925
 10
-22.39999999999998
 20
28.58021427774725
 30
0.0
 10
-22.39999999999998
 20
28.58021427774725
 30
0.0
 10
-22.39851285206726
 20
28.58021429184305
 30
0.0
 10
-22.38159541763832
 20
28.58021397124549
 30
0.0
 10
-22.33498798840731
 20
28.5802185815287
 30
0.0
 10
-22.12811184027976
 20
28.58009203537199
 30
0.0
 10
-21.91587966293957
 20
28.57990104759506
 30
0.0
 10
-21.0211526217239
 20
28.5769505548094
 30
0.0
 10
-20.08460667599809
 20
28.5721865874566
 30
0.0
 10
-17.56815226386868
 20
28.53417113070964
 30
0.0
 10
-15.98637264666047
 20
28.50081660778983
 30
0.0
 10
-12.78974086937376
 20
28.3808420776636
 30
0.0
 10
-11.29501047336055
 20
28.31133744573595
 30
0.0
 10
-9.708524889791419
 20
28.2009039329198
 30
0.0
  0
SPLINE
  5
126
330
2
100
AcDbEntity
  8
GEB-VERDECKT
 48
25.0
100
AcDbSpline
210
0.0
220
0.0
230
1.0
 70
     8
 71
     3
 72
    28
 73
    24
 74
     0
 42
0.0000000001
 43
0.0000000001
 40
0.0005496720684023
 40
0.0005496720684023
 40
0.0005496720684023
 40
0.0005496720684023
 40
0.0733177656788685
 40
0.0733177656788685
 40
0.1082986036715544
 40
0.1082986036715544
 40
0.1130439421116897
 40
0.1130439421116897
 40
0.11538131642375
 40
0.11538131642375
 40
0.1169282292792469
 40
0.1169282292792469
 40
0.1183408033147176
 40
0.1183408033147176
 40
0.1201304062924637
 40
0.1201304062924637
 40
0.123416054234606
 40
0.123416054234606
 40
0.1318469494200796
 40
0.1318469494200796
 40
0.163918961605004
 40
0.163918961605004
 40
0.2618557508701128
 40
0.2618557508701128
 40
0.2618557508701128
 40
0.2618557508701128
 10
-9.708524889791419
 20
28.2009039329198
 30
0.0
 10
-9.490957187883509
 20
28.1857592849974
 30
0.0
 10
-9.311640451560265
 20
28.16735367905517
 30
0.0
 10
-9.126366151957313
 20
28.13598113737521
 30
0.0
 10
-9.050683271680895
 20
28.12041006131176
 30
0.0
 10
-9.01266194698735
 20
28.09794052095481
 30
0.0
 10
-9.008240754478606
 20
28.09479355777717
 30
0.0
 10
-9.003426395890187
 20
28.08950295081491
 30
0.0
 10
-9.001966459792924
 20
28.08748241105718
 30
0.0
 10
-9.00042318213957
 20
28.08374936631776
 30
0.0
 10
-9.000050916345458
 20
28.08218809907635
 30
0.0
 10
-8.999962784909826
 20
28.07906875315098
 30
0.0
 10
-9.00019553407526
 20
28.0776221860931
 30
0.0
 10
-9.001240342501318
 20
28.07444406435048
 30
0.0
 10
-9.0021680601061
 20
28.07280833269306
 30
0.0
 10
-9.005225689370149
 20
28.06862947986542
 30
0.0
 10
-9.007878850609927
 20
28.06624676075694
 30
0.0
 10
-9.017139782384106
 20
28.05921773942055
 30
0.0
 10
-9.026120895699591
 20
28.05482403004294
 30
0.0
 10
-9.068058101325618
 20
28.03751217879881
 30
0.0
 10
-9.11881144933443
 20
28.02655008626721
 30
0.0
 10
-9.285558323509008
 20
27.99576880313248
 30
0.0
 10
-9.474803919500459
 20
27.97579368170477
 30
0.0
 10
-9.708524889791419
 20
27.95952462257492
 30
0.0
  0
SPLINE
  5
127
330
2
100
AcDbEntity
  8
GEB-VERDECKT
 48
25.0
100
AcDbSpline
210
0.0
220
0.0
230
1.0
 70
     8
 71
     3
 72
    16
 73
    12
 74
     0
 42
0.0000000001
 43
0.0000000001
 40
0.0026302539176695
 40
0.0026302539176695
 40
0.0026302539176695
 40
0.0026302539176695
 40
0.796642838961812
 40
0.796642838961812
 40
1.604303165644373
 40
1.604303165644373
 40
2.119037224898893
 40
2.119037224898893
 40
2.368046377464043
 40
2.368046377464043
 40
2.515839392244428
 40
2.515839392244428
 40
2.515839392244428
 40
2.515839392244428
 10
-9.708524889791419
 20
33.70952462257492
 30
0.0
 10
-12.08894037455332
 20
33.54382652442178
 30
0.0
 10
-14.25608987834528
 20
33.46605450228913
 30
0.0
 10
-17.9786944965623
 20
33.36345607403496
 30
0.0
 10
-19.48988893407875
 20
33.3456900739534
 30
0.0
 10
-21.24449016605252
 20
33.33205554758502
 30
0.0
 10
-21.74305382423029
 20
33.33093308049388
 30
0.0
 10
-22.19451175379675
 20
33.33025800835344
 30
0.0
 10
-22.29588191360142
 20
33.33023085356831
 30
0.0
 10
-22.38364625328484
 20
33.3302125773871
 30
0.0
 10
-22.39999999999998
 20
33.33021427774748
 30
0.0
 10
-22.39999999999998
 20
33.33021427774748
 30
0.0
  0
SPLINE
  5
128
330
2
100
AcDbEntity
  8
GEB-VERDECKT
 48
25.0
100
AcDbSpline
210
0.0
220
0.0
230
1.0
 70
     8
 71
     3
 72
    18
 73
    14
 74
     0
 42
0.0000000001
 43
0.0000000001
 40
2.515839392244428
 40
2.515839392244428
 40
2.515839392244428
 40
2.515839392244428
 40
2.560407317312793
 40
2.560407317312793
 40
2.769292494592959
 40
2.769292494592959
 40
3.106586635065938
 40
3.106586635065938
 40
3.79266224156908
 40
3.79266224156908
 40
4.498523124862665
 40
4.498523124862665
 40
5.026979215875925
 40
5.026979215875925
 40
5.026979215875925
 40
5.026979215875925
 10
-22.39999999999998
 20
34.33021427774747
 30
0.0
 10
-22.39999999999998
 20
34.33021427774747
 30
0.0
 10
-22.39851285206726
 20
34.33021429184305
 30
0.0
 10
-22.38159541763832
 20
34.33021397124571
 30
0.0
 10
-22.33498798840731
 20
34.33021858152893
 30
0.0
 10
-22.12811184027976
 20
34.33009203537177
 30
0.0
 10
-21.91587966293957
 20
34.32990104759529
 30
0.0
 10
-21.0211526217239
 20
34.32695055480963
 30
0.0
 10
-20.08460667599809
 20
34.32218658745637
 30
0.0
 10
-17.56815226386868
 20
34.28417113070964
 30
0.0
 10
-15.98637264666047
 20
34.2508166077896
 30
0.0
 10
-12.78974086937376
 20
34.1308420776636
 30
0.0
 10
-11.29501047336055
 20
34.06133744573617
 30
0.0
 10
-9.708524889791419
 20
33.9509039329198
 30
0.0
  0
SPLINE
  5
129
330
2
100
AcDbEntity
  8
GEB-VERDECKT
 48
25.0
100
AcDbSpline
210
0.0
220
0.0
230
1.0
 70
     8
 71
     3
 72
    28
 73
    24
 74
     0
 42
0.0000000001
 43
0.0000000001
 40
0.000549672068402
 40
0.000549672068402
 40
0.000549672068402
 40
0.000549672068402
 40
0.0733177656789543
 40
0.0733177656789543
 40
0.1082986036718085
 40
0.1082986036718085
 40
0.1130439421153812
 40
0.1130439421153812
 40
0.1153813164303101
 40
0.1153813164303101
 40
0.1169282292877371
 40
0.1169282292877371
 40
0.1183408033249771
 40
0.1183408033249771
 40
0.120130406304983
 40
0.120130406304983
 40
0.1234160542513166
 40
0.1234160542513166
 40
0.1318469494475599
 40
0.1318469494475599
 40
0.1639189616747492
 40
0.1639189616747492
 40
0.2618557510724715
 40
0.2618557510724715
 40
0.2618557510724715
 40
0.2618557510724715
 10
-9.708524889791419
 20
33.9509039329198
 30
0.0
 10
-9.490957187883282
 20
33.93575928499763
 30
0.0
 10
-9.311640451560265
 20
33.91735367905517
 30
0.0
 10
-9.126366151957086
 20
33.88598113737544
 30
0.0
 10
-9.050683271680895
 20
33.87041006131153
 30
0.0
 10
-9.012661946984167
 20
33.84794052095299
 30
0.0
 10
-9.008240754477242
 20
33.84479355777535
 30
0.0
 10
-9.003426395890187
 20
33.8395029508149
 30
0.0
 10
-9.001966459792924
 20
33.83748241105696
 30
0.0
 10
-9.00042318213957
 20
33.83374936631776
 30
0.0
 10
-9.000050916345458
 20
33.83218809907612
 30
0.0
 10
-8.999962784909826
 20
33.82906875315098
 30
0.0
 10
-9.00019553407526
 20
33.8276221860931
 30
0.0
 10
-9.001240342501318
 20
33.82444406435047
 30
0.0
 10
-9.0021680601061
 20
33.82280833269329
 30
0.0
 10
-9.005225689370149
 20
33.81862947986542
 30
0.0
 10
-9.007878850609927
 20
33.81624676075694
 30
0.0
 10
-9.017139782384106
 20
33.80921773942032
 30
0.0
 10
-9.026120895699818
 20
33.80482403004294
 30
0.0
 10
-9.068058101326073
 20
33.78751217879881
 30
0.0
 10
-9.118811449335566
 20
33.77655008626675
 30
0.0
 10
-9.285558323508325
 20
33.7457688031327
 30
0.0
 10
-9.474803919499549
 20
33.725793681705
 30
0.0
 10
-9.708524889791419
 20
33.70952462257492
 30
0.0
  0
SPLINE
  5
12A
330
2
100
AcDbEntity
  8
GEB-VERDECKT
 48
25.0
100
AcDbSpline
210
0.0
220
0.0
230
1.0
 70
     8
 71
     3
 72
    16
 73
    12
 74
     0
 42
0.0000000001
 43
0.0000000001
 40
0.0026302539176696
 40
0.0026302539176696
 40
0.0026302539176696
 40
0.0026302539176696
 40
0.796642838961812
 40
0.796642838961812
 40
1.604303165644373
 40
1.604303165644373
 40
2.119037224898893
 40
2.119037224898893
 40
2.368046377464043
 40
2.368046377464043
 40
2.515839392244428
 40
2.515839392244428
 40
2.515839392244428
 40
2.515839392244428
 10
-9.708524889791419
 20
39.45952462257515
 30
0.0
 10
-12.08894037455332
 20
39.293826524422
 30
0.0
 10
-14.25608987834528
 20
39.21605450228913
 30
0.0
 10
-17.9786944965623
 20
39.11345607403518
 30
0.0
 10
-19.48988893407875
 20
39.09569007395317
 30
0.0
 10
-21.24449016605252
 20
39.08205554758501
 30
0.0
 10
-21.74305382423029
 20
39.08093308049388
 30
0.0
 10
-22.19451175379675
 20
39.08025800835321
 30
0.0
 10
-22.29588191360142
 20
39.08023085356831
 30
0.0
 10
-22.38364625328484
 20
39.08021257738733
 30
0.0
 10
-22.39999999999998
 20
39.08021427774725
 30
0.0
 10
-22.39999999999998
 20
39.08021427774725
 30
0.0
  0
SPLINE
  5
12B
330
2
100
AcDbEntity
  8
GEB-VERDECKT
 48
25.0
100
AcDbSpline
210
0.0
220
0.0
230
1.0
 70
     8
 71
     3
 72
    18
 73
    14
 74
     0
 42
0.0000000001
 43
0.0000000001
 40
2.515839392244426
 40
2.515839392244426
 40
2.515839392244426
 40
2.515839392244426
 40
2.560407317312792
 40
2.560407317312792
 40
2.769292494592957
 40
2.769292494592957
 40
3.106586635065935
 40
3.106586635065935
 40
3.792662241569077
 40
3.792662241569077
 40
4.49852312486266
 40
4.49852312486266
 40
5.026979215875918
 40
5.026979215875918
 40
5.026979215875918
 40
5.026979215875918
 10
-22.39999999999998
 20
40.08021427774724
 30
0.0
 10
-22.39999999999998
 20
40.08021427774724
 30
0.0
 10
-22.39851285206726
 20
40.08021429184305
 30
0.0
 10
-22.38159541763832
 20
40.08021397124571
 30
0.0
 10
-22.33498798840731
 20
40.08021858152893
 30
0.0
 10
-22.12811184027976
 20
40.08009203537153
 30
0.0
 10
-21.91587966293957
 20
40.07990104759528
 30
0.0
 10
-21.0211526217239
 20
40.07695055480939
 30
0.0
 10
-20.08460667599809
 20
40.07218658745659
 30
0.0
 10
-17.56815226386868
 20
40.03417113070987
 30
0.0
 10
-15.98637264666047
 20
40.00081660778983
 30
0.0
 10
-12.78974086937376
 20
39.88084207766383
 30
0.0
 10
-11.29501047336055
 20
39.81133744573595
 30
0.0
 10
-9.708524889791419
 20
39.70090393291958
 30
0.0
  0
SPLINE
  5
12C
330
2
100
AcDbEntity
  8
GEB-VERDECKT
 48
25.0
100
AcDbSpline
210
0.0
220
0.0
230
1.0
 70
     8
 71
     3
 72
    28
 73
    24
 74
     0
 42
0.0000000001
 43
0.0000000001
 40
0.0005496720684023
 40
0.0005496720684023
 40
0.0005496720684023
 40
0.0005496720684023
 40
0.0733177656788465
 40
0.0733177656788465
 40
0.1082986036717465
 40
0.1082986036717465
 40
0.1130439421115249
 40
0.1130439421115249
 40
0.1153813164234461
 40
0.1153813164234461
 40
0.1169282292787884
 40
0.1169282292787884
 40
0.1183408033142187
 40
0.1183408033142187
 40
0.1201304062921886
 40
0.1201304062921886
 40
0.1234160542340896
 40
0.1234160542340896
 40
0.1318469494175242
 40
0.1318469494175242
 40
0.1639189615868125
 40
0.1639189615868125
 40
0.2618557508126225
 40
0.2618557508126225
 40
0.2618557508126225
 40
0.2618557508126225
 10
-9.708524889791419
 20
39.70090393291958
 30
0.0
 10
-9.490957187883736
 20
39.6857592849974
 30
0.0
 10
-9.311640451560265
 20
39.66735367905517
 30
0.0
 10
-9.126366151956858
 20
39.63598113737521
 30
0.0
 10
-9.050683271680895
 20
39.62041006131153
 30
0.0
 10
-9.012661946987805
 20
39.59794052095526
 30
0.0
 10
-9.008240754478833
 20
39.59479355777716
 30
0.0
 10
-9.003426395890187
 20
39.58950295081468
 30
0.0
 10
-9.001966459792924
 20
39.58748241105695
 30
0.0
 10
-9.00042318213957
 20
39.58374936631799
 30
0.0
 10
-9.000050916345458
 20
39.58218809907635
 30
0.0
 10
-8.999962784909826
 20
39.57906875315098
 30
0.0
 10
-9.000195534075487
 20
39.57762218609309
 30
0.0
 10
-9.001240342501546
 20
39.57444406435048
 30
0.0
 10
-9.002168060105645
 20
39.57280833269351
 30
0.0
 10
-9.005225689370149
 20
39.56862947986542
 30
0.0
 10
-9.007878850609927
 20
39.56624676075671
 30
0.0
 10
-9.017139782382969
 20
39.55921773942146
 30
0.0
 10
-9.02612089569709
 20
39.5548240300443
 30
0.0
 10
-9.068058101326755
 20
39.53751217879835
 30
0.0
 10
-9.11881144933784
 20
39.5265500862663
 30
0.0
 10
-9.28555832350878
 20
39.49576880313248
 30
0.0
 10
-9.474803919500459
 20
39.47579368170477
 30
0.0
 10
-9.708524889791419
 20
39.45952462257515
 30
0.0
  0
LINE
  5
12D
330
2
100
AcDbEntity
  8
GEB-VERDECKT
 48
25.0
100
AcDbLine
 10
-18.07500000000016
 20
3045.380214277749
 30
0.0
 11
-18.07500000000016
 21
48.88021427774811
 31
0.0
  0
LINE
  5
12E
330
2
100
AcDbEntity
  8
GEB-VERDECKT
 48
25.0
100
AcDbLine
 10
18.07499999999993
 20
3045.380214277749
 30
0.0
 11
18.07499999999993
 21
48.88021427774811
 31
0.0
  0
LINE
  5
12F
330
2
100
AcDbEntity
  8
GEB-KONTUR-A
 48
25.0
100
AcDbLine
 10
-20.07500000000016
 20
3045.380214277749
 30
0.0
 11
-20.07500000000016
 21
48.88021427774811
 31
0.0
  0
LINE
  5
131
330
2
100
AcDbEntity
  8
GEB-KONTUR-A
 48
25.0
100
AcDbLine
 10
20.07499999999982
 20
3045.380214277749
 30
0.0
 11
20.07499999999982
 21
48.88021427774811
 31
0.0
  0
LINE
  5
132
330
2
100
AcDbEntity
  8
GEB-KONTUR-A
 48
25.0
100
AcDbLine
 10
20.07499999999982
 20
48.88021427774834
 30
0.0
 11
-20.07500000000016
 21
48.88021427774834
 31
0.0
  0
LINE
  5
133
330
2
100
AcDbEntity
  8
GEB-KONTUR-A
 48
25.0
100
AcDbLine
 10
-20.07500000000016
 20
3045.380214277749
 30
0.0
 11
20.07499999999982
 21
3045.380214277749
 31
0.0
  0
TEXT
  5
134
330
2
100
AcDbEntity
  8
GEB-TEXT
100
AcDbText
 10
-35.46674624829456
 20
-13.16978572225275
 30
0.0
 40
3.5
  1
Rohr PP-MD d40x3000 2 Muffen
 72
     1
 11
0.0000000000001137
 21
-13.16978572225275
 31
0.0
100
AcDbText
  0
TEXT
  5
136
330
2
100
AcDbEntity
  8
GEB-TEXT
100
AcDbText
 10
-18.75221691678024
 20
-7.669785722252754
 30
0.0
 40
3.5
  1
Geberit Silent PP
 72
     1
 11
0.0000000000001137
 21
-7.669785722252754
 31
0.0
100
AcDbText
  0
TEXT
  5
137
330
2
100
AcDbEntity
  8
GEB-ART-NR
100
AcDbText
 10
-24.17544479964548
 20
-19.51256697653298
 30
0.0
 40
3.5
  1
GEB-ART-NR 390.114
 72
     1
 11
0.5525565646109954
 21
-19.51256697653298
 31
0.0
100
AcDbText
  0
ENDSEC
  0
SECTION
  2
OBJECTS
  0
DICTIONARY
  5
9
330
0
100
AcDbDictionary
281
     1
  3
ACAD_2007HEADERVARS_RT
350
166
  3
ACAD_COLOR
350
44
  3
ACAD_GROUP
350
31
  3
ACAD_LAYOUT
350
16
  3
ACAD_MATERIAL
350
B
  3
ACAD_MLEADERSTYLE
350
47
  3
ACAD_MLINESTYLE
350
32
  3
ACAD_PLOTSETTINGS
350
33
  3
ACAD_PLOTSTYLENAME
350
8
  3
ACAD_SCALELIST
350
45
  3
ACAD_TABLESTYLE
350
46
  3
ACAD_VISUALSTYLE
350
2B
  3
ACDB_RECOMPOSE_DATA
350
165
  3
AcDbVariableDictionary
350
13B
  0
DICTIONARY
  5
2C
330
28
100
AcDbDictionary
280
     1
281
     1
  0
DICTIONARY
  5
1C
330
1B
100
AcDbDictionary
280
     1
281
     1
  3
ACAD_LAYERFILTERS
360
1D
  3
ACLYDICTIONARY
360
1E
  0
DICTIONARY
  5
3
330
2
100
AcDbDictionary
280
     1
281
     1
  3
ACAD_SORTENTS
360
139
  0
DICTIONARY
  5
166
102
{ACAD_REACTORS
330
9
102
}
330
9
100
AcDbDictionary
281
     1
  3
DIMARCSYM
350
167
  3
DIMLTEX1
350
169
  3
DIMLTEX2
350
16A
  3
DIMLTYPE
350
168
  0
DICTIONARY
  5
44
102
{ACAD_REACTORS
330
9
102
}
330
9
100
AcDbDictionary
281
     1
  0
DICTIONARY
  5
31
102
{ACAD_REACTORS
330
9
102
}
330
9
100
AcDbDictionary
281
     1
  0
DICTIONARY
  5
16
102
{ACAD_REACTORS
330
9
102
}
330
9
100
AcDbDictionary
281
     1
  3
Layout1
350
1A
  3
Model
350
15
  0
DICTIONARY
  5
B
102
{ACAD_REACTORS
330
9
102
}
330
9
100
AcDbDictionary
281
     1
  3
ByBlock
350
3C
  3
ByLayer
350
34
  3
Global
350
A
  0
DICTIONARY
  5
47
102
{ACAD_REACTORS
330
9
102
}
330
9
100
AcDbDictionary
281
     1
  3
Standard
350
159
  0
DICTIONARY
  5
32
102
{ACAD_REACTORS
330
9
102
}
330
9
100
AcDbDictionary
281
     1
  3
Standard
350
48
  0
DICTIONARY
  5
33
102
{ACAD_REACTORS
330
9
102
}
330
9
100
AcDbDictionary
281
     1
  0
ACDBDICTIONARYWDFLT
  5
8
102
{ACAD_REACTORS
330
9
102
}
330
9
100
AcDbDictionary
281
     1
  3
Normal
350
7
100
AcDbDictionaryWithDefault
340
7
  0
DICTIONARY
  5
45
102
{ACAD_REACTORS
330
9
102
}
330
9
100
AcDbDictionary
281
     1
  3
A0
350
4D
  3
A1
350
4E
  3
A2
350
4F
  3
A3
350
50
  3
A4
350
51
  3
A5
350
52
  3
A6
350
53
  3
A7
350
54
  3
A8
350
55
  3
A9
350
56
  3
B0
350
57
  3
B1
350
58
  3
B2
350
59
  3
B3
350
5A
  3
B4
350
5B
  3
B5
350
5C
  3
B6
350
5D
  3
B7
350
5E
  3
B8
350
5F
  3
B9
350
60
  3
C0
350
61
  3
C1
350
62
  3
C2
350
63
  3
C3
350
64
  3
C4
350
65
  3
C5
350
66
  3
C6
350
67
  3
C7
350
68
  3
C8
350
69
  3
C9
350
6A
  3
D0
350
6B
  3
D1
350
6C
  3
D2
350
6D
  0
DICTIONARY
  5
46
102
{ACAD_REACTORS
330
9
102
}
330
9
100
AcDbDictionary
281
     1
  3
Standard
350
49
  0
DICTIONARY
  5
2B
102
{ACAD_REACTORS
330
9
102
}
330
9
100
AcDbDictionary
281
     1
  3
2dWireframe
350
2A
  3
Basic
350
148
  3
Brighten
350
14C
  3
ColorChange
350
150
  3
Conceptual
350
14A
  3
Dim
350
14B
  3
EdgeColorOff
350
158
  3
Facepattern
350
14F
  3
Flat
350
144
  3
FlatWithEdges
350
145
  3
Gouraud
350
146
  3
GouraudWithEdges
350
147
  3
Hidden
350
149
  3
JitterOff
350
156
  3
Linepattern
350
14E
  3
OverhangOff
350
157
  3
Realistic
350
4B
  3
Shaded
350
155
  3
Shaded with edges
350
154
  3
Shades of Gray
350
151
  3
Sketchy
350
152
  3
Thicken
350
14D
  3
Wireframe
350
4C
  3
X-Ray
350
153
  0
XRECORD
  5
165
102
{ACAD_REACTORS
330
9
102
}
330
9
100
AcDbXrecord
280
     1
 90
        1
330
49
  0
DICTIONARY
  5
13B
102
{ACAD_REACTORS
330
9
102
}
330
9
100
AcDbDictionary
281
     1
  3
CANNOSCALE
350
13F
  3
CMLEADERSTYLE
350
13D
  3
CTABLESTYLE
350
13C
  3
DIMASSOC
350
162
  3
HIDETEXT
350
161
  3
INDEXCTL
350
160
  3
LAYEREVAL
350
141
  3
LAYERNOTIFY
350
142
  3
LIGHTINGUNITS
350
140
  3
MSLTSCALE
350
13E
  3
SORTENTS
350
15F
  3
XCLIPFRAME
350
163
  0
DICTIONARY
  5
1D
102
{ACAD_REACTORS
330
1C
102
}
330
1C
100
AcDbDictionary
281
     1
  0
DICTIONARY
  5
1E
102
{ACAD_REACTORS
330
1C
102
}
330
1C
100
AcDbDictionary
281
     1
1001
ACAD
1000
<All
  0
SORTENTSTABLE
  5
139
102
{ACAD_REACTORS
330
3
102
}
330
3
100
AcDbSortentsTable
330
2
331
F5
  5
B6
331
BE
  5
ED
331
7F
  5
12A
331
134
  5
137
331
C6
  5
E5
331
87
  5
124
331
FD
  5
AE
331
CE
  5
DD
331
8F
  5
11C
331
105
  5
A6
331
10D
  5
9E
331
97
  5
114
331
D6
  5
D5
331
115
  5
96
331
DE
  5
CD
331
9F
  5
10C
331
E6
  5
C5
331
A7
  5
104
331
11D
  5
8E
331
EE
  5
BD
331
AF
  5
FC
331
125
  5
86
331
B7
  5
F4
331
12D
  5
7C
331
F6
  5
B5
331
BF
  5
EC
331
FE
  5
AD
331
88
  5
123
331
C7
  5
E4
331
106
  5
A5
331
CF
  5
DC
331
90
  5
11B
331
D7
  5
D4
331
10E
  5
9D
331
75
  5
132
331
98
  5
113
331
DF
  5
CC
331
A0
  5
10B
331
116
  5
95
331
11E
  5
8D
331
A8
  5
103
331
E7
  5
C4
331
126
  5
85
331
EF
  5
BC
331
B0
  5
FB
331
12E
  5
7B
331
79
  5
131
331
B8
  5
F3
331
F7
  5
B4
331
C0
  5
EB
331
C8
  5
E3
331
89
  5
122
331
FF
  5
AC
331
107
  5
A4
331
91
  5
11A
331
D0
  5
DB
331
10F
  5
9C
331
6E
  5
133
331
99
  5
112
331
D8
  5
D3
331
117
  5
94
331
E0
  5
CB
331
A1
  5
10A
331
E8
  5
C3
331
A9
  5
102
331
11F
  5
8C
331
B1
  5
FA
331
127
  5
84
331
12F
  5
7A
331
B9
  5
F2
331
7A
  5
12F
331
F0
  5
BB
331
137
  5
134
331
F8
  5
B3
331
82
  5
129
331
C1
  5
EA
331
100
  5
AB
331
8A
  5
121
331
C9
  5
E2
331
108
  5
A3
331
D1
  5
DA
331
92
  5
119
331
D9
  5
D2
331
9A
  5
111
331
110
  5
9B
331
118
  5
93
331
A2
  5
109
331
E1
  5
CA
331
120
  5
8B
331
AA
  5
101
331
E9
  5
C2
331
128
  5
83
331
B2
  5
F9
331
F1
  5
BA
331
BA
  5
F1
331
7B
  5
12E
331
F9
  5
B2
331
C2
  5
E9
331
83
  5
128
331
CA
  5
E1
331
8B
  5
120
331
101
  5
AA
331
109
  5
A2
331
93
  5
118
331
D2
  5
D9
331
111
  5
9A
331
9B
  5
110
331
DA
  5
D1
331
119
  5
92
331
E2
  5
C9
331
A3
  5
108
331
EA
  5
C1
331
AB
  5
100
331
121
  5
8A
331
B3
  5
F8
331
129
  5
82
331
131
  5
79
331
BB
  5
F0
331
7C
  5
12D
331
F2
  5
B9
331
FA
  5
B1
331
84
  5
127
331
C3
  5
E8
331
102
  5
A9
331
CB
  5
E0
331
8C
  5
11F
331
10A
  5
A1
331
D3
  5
D8
331
94
  5
117
331
DB
  5
D0
331
9C
  5
10F
331
112
  5
99
331
11A
  5
91
331
A4
  5
107
331
E3
  5
C8
331
122
  5
89
331
AC
  5
FF
331
EB
  5
C0
331
12A
  5
7F
331
B4
  5
F7
331
F3
  5
B8
331
BC
  5
EF
331
7D
  5
12C
331
132
  5
75
331
C4
  5
E7
331
85
  5
126
331
FB
  5
B0
331
CC
  5
DF
331
8D
  5
11E
331
103
  5
A8
331
10B
  5
A0
331
95
  5
116
331
D4
  5
D7
331
113
  5
98
331
DC
  5
CF
331
9D
  5
10E
331
11B
  5
90
331
E4
  5
C7
331
A5
  5
106
331
EC
  5
BF
331
AD
  5
FE
331
123
  5
88
331
B5
  5
F6
331
12B
  5
7E
331
133
  5
6E
331
BD
  5
EE
331
7E
  5
12B
331
F4
  5
B7
331
FC
  5
AF
331
86
  5
125
331
C5
  5
E6
331
104
  5
A7
331
CD
  5
DE
331
8E
  5
11D
331
D5
  5
D6
331
96
  5
115
331
10C
  5
9F
331
DD
  5
CE
331
9E
  5
10D
331
114
  5
97
331
11C
  5
8F
331
A6
  5
105
331
E5
  5
C6
331
124
  5
87
331
ED
  5
BE
331
AE
  5
FD
331
12C
  5
7D
331
B6
  5
F5
  0
XRECORD
  5
167
102
{ACAD_REACTORS
330
166
102
}
330
166
100
AcDbXrecord
280
     1
 70
     1
  0
XRECORD
  5
169
102
{ACAD_REACTORS
330
166
102
}
330
166
100
AcDbXrecord
280
     1
340
24
  0
XRECORD
  5
16A
102
{ACAD_REACTORS
330
166
102
}
330
166
100
AcDbXrecord
280
     1
340
24
  0
XRECORD
  5
168
102
{ACAD_REACTORS
330
166
102
}
330
166
100
AcDbXrecord
280
     1
340
24
  0
LAYOUT
  5
1A
102
{ACAD_XDICTIONARY
360
16E
102
}
102
{ACAD_REACTORS
330
16
102
}
330
16
100
AcDbPlotSettings
  1

  2
\\le-server\HP LaserJet 2100
  4

  6

 40
0.0
 41
0.0
 42
0.0
 43
0.0
 44
0.0
 45
0.0
 46
0.0
 47
0.0
 48
0.0
 49
0.0
140
0.0
141
0.0
142
1.0
143
1.0
 70
   688
 72
     0
 73
     0
 74
     5
  7

 75
    16
147
1.0
148
0.0
149
0.0
100
AcDbLayout
  1
Layout1
 70
     1
 71
     1
 10
0.0
 20
0.0
 11
1189.0
 21
840.9999999999998
 12
0.0
 22
0.0
 32
0.0
 14
0.0
 24
0.0
 34
0.0
 15
1189.0
 25
840.9999999999998
 35
0.0
146
0.0
 13
0.0
 23
0.0
 33
0.0
 16
1.0
 26
0.0
 36
0.0
 17
0.0
 27
1.0
 37
0.0
 76
     0
330
17
  0
LAYOUT
  5
15
102
{ACAD_XDICTIONARY
360
16C
102
}
102
{ACAD_REACTORS
330
16
102
}
330
16
100
AcDbPlotSettings
  1

  2
\\le-server\HP LaserJet 2100
  4

  6

 40
0.0
 41
0.0
 42
0.0
 43
0.0
 44
0.0
 45
0.0
 46
0.0
 47
0.0
 48
0.0
 49
0.0
140
0.0
141
0.0
142
1.0
143
1.0
 70
  1712
 72
     0
 73
     0
 74
     0
  7

 75
     0
147
1.0
148
0.0
149
0.0
100
AcDbLayout
  1
Model
 70
     1
 71
     0
 10
0.0
 20
0.0
 11
12.0
 21
9.0
 12
0.0
 22
0.0
 32
0.0
 14
0.0
 24
0.0
 34
0.0
 15
0.0
 25
0.0
 35
0.0
146
0.0
 13
0.0
 23
0.0
 33
0.0
 16
1.0
 26
0.0
 36
0.0
 17
0.0
 27
1.0
 37
0.0
 76
     0
330
2
331
29
  0
MATERIAL
  5
3C
102
{ACAD_XDICTIONARY
360
3D
102
}
102
{ACAD_REACTORS
330
B
102
}
330
B
100
AcDbMaterial
  1
ByBlock
 72
     0
 43
0.0208333333333333
 43
0.0
 43
0.0
 43
0.0
 43
0.0
 43
0.0208333333333333
 43
0.0
 43
0.0
 43
0.0
 43
0.0
 43
1.0
 43
0.0
 43
0.0
 43
0.0
 43
0.0
 43
1.0
 77
     0
 47
0.0208333333333333
 47
0.0
 47
0.0
 47
0.0
 47
0.0
 47
0.0208333333333333
 47
0.0
 47
0.0
 47
0.0
 47
0.0
 47
1.0
 47
0.0
 47
0.0
 47
0.0
 47
0.0
 47
1.0
171
     0
 49
0.0208333333333333
 49
0.0
 49
0.0
 49
0.0
 49
0.0
 49
0.0208333333333333
 49
0.0
 49
0.0
 49
0.0
 49
0.0
 49
1.0
 49
0.0
 49
0.0
 49
0.0
 49
0.0
 49
1.0
175
     0
142
0.0208333333333333
142
0.0
142
0.0
142
0.0
142
0.0
142
0.0208333333333333
142
0.0
142
0.0
142
0.0
142
0.0
142
1.0
142
0.0
142
0.0
142
0.0
142
0.0
142
1.0
179
     0
144
0.0208333333333333
144
0.0
144
0.0
144
0.0
144
0.0
144
0.0208333333333333
144
0.0
144
0.0
144
0.0
144
0.0
144
1.0
144
0.0
144
0.0
144
0.0
144
0.0
144
1.0
147
0.0208333333333333
147
0.0
147
0.0
147
0.0
147
0.0
147
0.0208333333333333
147
0.0
147
0.0
147
0.0
147
0.0
147
1.0
147
0.0
147
0.0
147
0.0
147
0.0
147
1.0
  0
MATERIAL
  5
34
102
{ACAD_XDICTIONARY
360
35
102
}
102
{ACAD_REACTORS
330
B
102
}
330
B
100
AcDbMaterial
  1
ByLayer
 72
     0
 43
0.0208333333333333
 43
0.0
 43
0.0
 43
0.0
 43
0.0
 43
0.0208333333333333
 43
0.0
 43
0.0
 43
0.0
 43
0.0
 43
1.0
 43
0.0
 43
0.0
 43
0.0
 43
0.0
 43
1.0
 77
     0
 47
0.0208333333333333
 47
0.0
 47
0.0
 47
0.0
 47
0.0
 47
0.0208333333333333
 47
0.0
 47
0.0
 47
0.0
 47
0.0
 47
1.0
 47
0.0
 47
0.0
 47
0.0
 47
0.0
 47
1.0
171
     0
 49
0.0208333333333333
 49
0.0
 49
0.0
 49
0.0
 49
0.0
 49
0.0208333333333333
 49
0.0
 49
0.0
 49
0.0
 49
0.0
 49
1.0
 49
0.0
 49
0.0
 49
0.0
 49
0.0
 49
1.0
175
     0
142
0.0208333333333333
142
0.0
142
0.0
142
0.0
142
0.0
142
0.0208333333333333
142
0.0
142
0.0
142
0.0
142
0.0
142
1.0
142
0.0
142
0.0
142
0.0
142
0.0
142
1.0
179
     0
144
0.0208333333333333
144
0.0
144
0.0
144
0.0
144
0.0
144
0.0208333333333333
144
0.0
144
0.0
144
0.0
144
0.0
144
1.0
144
0.0
144
0.0
144
0.0
144
0.0
144
1.0
147
0.0208333333333333
147
0.0
147
0.0
147
0.0
147
0.0
147
0.0208333333333333
147
0.0
147
0.0
147
0.0
147
0.0
147
1.0
147
0.0
147
0.0
147
0.0
147
0.0
147
1.0
  0
MATERIAL
  5
A
102
{ACAD_XDICTIONARY
360
C
102
}
102
{ACAD_REACTORS
330
B
102
}
330
B
100
AcDbMaterial
  1
Global
 72
     0
 43
0.0208333333333333
 43
0.0
 43
0.0
 43
0.0
 43
0.0
 43
0.0208333333333333
 43
0.0
 43
0.0
 43
0.0
 43
0.0
 43
1.0
 43
0.0
 43
0.0
 43
0.0
 43
0.0
 43
1.0
 77
     0
 47
0.0208333333333333
 47
0.0
 47
0.0
 47
0.0
 47
0.0
 47
0.0208333333333333
 47
0.0
 47
0.0
 47
0.0
 47
0.0
 47
1.0
 47
0.0
 47
0.0
 47
0.0
 47
0.0
 47
1.0
171
     0
 49
0.0208333333333333
 49
0.0
 49
0.0
 49
0.0
 49
0.0
 49
0.0208333333333333
 49
0.0
 49
0.0
 49
0.0
 49
0.0
 49
1.0
 49
0.0
 49
0.0
 49
0.0
 49
0.0
 49
1.0
175
     0
142
0.0208333333333333
142
0.0
142
0.0
142
0.0
142
0.0
142
0.0208333333333333
142
0.0
142
0.0
142
0.0
142
0.0
142
1.0
142
0.0
142
0.0
142
0.0
142
0.0
142
1.0
179
     0
144
0.0208333333333333
144
0.0
144
0.0
144
0.0
144
0.0
144
0.0208333333333333
144
0.0
144
0.0
144
0.0
144
0.0
144
1.0
144
0.0
144
0.0
144
0.0
144
0.0
144
1.0
147
0.0208333333333333
147
0.0
147
0.0
147
0.0
147
0.0
147
0.0208333333333333
147
0.0
147
0.0
147
0.0
147
0.0
147
1.0
147
0.0
147
0.0
147
0.0
147
0.0
147
1.0
  0
MLEADERSTYLE
  5
159
102
{ACAD_REACTORS
330
47
102
}
330
47
100
AcDbMLeaderStyle
170
     2
171
     1
172
     0
 90
        2
 40
0.0
 41
0.0
173
     1
 91
-1056964608
340
24
 92
       -2
290
     1
 42
2.0
291
     1
 43
0.36
  3
Standard
 44
4.0
300

342
21
174
     1
178
     6
175
     1
176
     0
 93
-1056964608
 45
4.0
292
     0
297
     0
 46
4.0
 94
-1056964608
 47
1.0
 49
1.0
140
1.0
293
     1
141
0.0
294
     1
177
     0
142
1.0
295
     0
296
     0
143
0.125
1001
ACAD_MLEADERVER
1070
     2
  0
MLINESTYLE
  5
48
102
{ACAD_REACTORS
330
32
102
}
330
32
100
AcDbMlineStyle
  2
STANDARD
 70
     0
  3

 62
   256
 51
90.0
 52
90.0
 71
     2
 49
0.5
 62
   256
  6
BYLAYER
 49
-0.5
 62
   256
  6
BYLAYER
  0
ACDBPLACEHOLDER
  5
7
102
{ACAD_REACTORS
330
8
102
}
330
8
  0
SCALE
  5
4D
102
{ACAD_REACTORS
330
45
102
}
330
45
100
AcDbScale
 70
     0
300
1:1
140
1.0
141
1.0
290
     1
  0
SCALE
  5
4E
102
{ACAD_REACTORS
330
45
102
}
330
45
100
AcDbScale
 70
     0
300
1:2
140
1.0
141
2.0
290
     0
  0
SCALE
  5
4F
102
{ACAD_REACTORS
330
45
102
}
330
45
100
AcDbScale
 70
     0
300
1:4
140
1.0
141
4.0
290
     0
  0
SCALE
  5
50
102
{ACAD_REACTORS
330
45
102
}
330
45
100
AcDbScale
 70
     0
300
1:5
140
1.0
141
5.0
290
     0
  0
SCALE
  5
51
102
{ACAD_REACTORS
330
45
102
}
330
45
100
AcDbScale
 70
     0
300
1:8
140
1.0
141
8.0
290
     0
  0
SCALE
  5
52
102
{ACAD_REACTORS
330
45
102
}
330
45
100
AcDbScale
 70
     0
300
1:10
140
1.0
141
10.0
290
     0
  0
SCALE
  5
53
102
{ACAD_REACTORS
330
45
102
}
330
45
100
AcDbScale
 70
     0
300
1:16
140
1.0
141
16.0
290
     0
  0
SCALE
  5
54
102
{ACAD_REACTORS
330
45
102
}
330
45
100
AcDbScale
 70
     0
300
1:20
140
1.0
141
20.0
290
     0
  0
SCALE
  5
55
102
{ACAD_REACTORS
330
45
102
}
330
45
100
AcDbScale
 70
     0
300
1:30
140
1.0
141
30.0
290
     0
  0
SCALE
  5
56
102
{ACAD_REACTORS
330
45
102
}
330
45
100
AcDbScale
 70
     0
300
1:40
140
1.0
141
40.0
290
     0
  0
SCALE
  5
57
102
{ACAD_REACTORS
330
45
102
}
330
45
100
AcDbScale
 70
     0
300
1:50
140
1.0
141
50.0
290
     0
  0
SCALE
  5
58
102
{ACAD_REACTORS
330
45
102
}
330
45
100
AcDbScale
 70
     0
300
1:100
140
1.0
141
100.0
290
     0
  0
SCALE
  5
59
102
{ACAD_REACTORS
330
45
102
}
330
45
100
AcDbScale
 70
     0
300
2:1
140
2.0
141
1.0
290
     0
  0
SCALE
  5
5A
102
{ACAD_REACTORS
330
45
102
}
330
45
100
AcDbScale
 70
     0
300
4:1
140
4.0
141
1.0
290
     0
  0
SCALE
  5
5B
102
{ACAD_REACTORS
330
45
102
}
330
45
100
AcDbScale
 70
     0
300
8:1
140
8.0
141
1.0
290
     0
  0
SCALE
  5
5C
102
{ACAD_REACTORS
330
45
102
}
330
45
100
AcDbScale
 70
     0
300
10:1
140
10.0
141
1.0
290
     0
  0
SCALE
  5
5D
102
{ACAD_REACTORS
330
45
102
}
330
45
100
AcDbScale
 70
     0
300
100:1
140
100.0
141
1.0
290
     0
  0
SCALE
  5
5E
102
{ACAD_REACTORS
330
45
102
}
330
45
100
AcDbScale
 70
     0
300
1/128" = 1'-0"
140
0.0078125
141
12.0
290
     0
  0
SCALE
  5
5F
102
{ACAD_REACTORS
330
45
102
}
330
45
100
AcDbScale
 70
     0
300
1/64" = 1'-0"
140
0.015625
141
12.0
290
     0
  0
SCALE
  5
60
102
{ACAD_REACTORS
330
45
102
}
330
45
100
AcDbScale
 70
     0
300
1/32" = 1'-0"
140
0.03125
141
12.0
290
     0
  0
SCALE
  5
61
102
{ACAD_REACTORS
330
45
102
}
330
45
100
AcDbScale
 70
     0
300
1/16" = 1'-0"
140
0.0625
141
12.0
290
     0
  0
SCALE
  5
62
102
{ACAD_REACTORS
330
45
102
}
330
45
100
AcDbScale
 70
     0
300
3/32" = 1'-0"
140
0.09375
141
12.0
290
     0
  0
SCALE
  5
63
102
{ACAD_REACTORS
330
45
102
}
330
45
100
AcDbScale
 70
     0
300
1/8" = 1'-0"
140
0.125
141
12.0
290
     0
  0
SCALE
  5
64
102
{ACAD_REACTORS
330
45
102
}
330
45
100
AcDbScale
 70
     0
300
3/16" = 1'-0"
140
0.1875
141
12.0
290
     0
  0
SCALE
  5
65
102
{ACAD_REACTORS
330
45
102
}
330
45
100
AcDbScale
 70
     0
300
1/4" = 1'-0"
140
0.25
141
12.0
290
     0
  0
SCALE
  5
66
102
{ACAD_REACTORS
330
45
102
}
330
45
100
AcDbScale
 70
     0
300
3/8" = 1'-0"
140
0.375
141
12.0
290
     0
  0
SCALE
  5
67
102
{ACAD_REACTORS
330
45
102
}
330
45
100
AcDbScale
 70
     0
300
1/2" = 1'-0"
140
0.5
141
12.0
290
     0
  0
SCALE
  5
68
102
{ACAD_REACTORS
330
45
102
}
330
45
100
AcDbScale
 70
     0
300
3/4" = 1'-0"
140
0.75
141
12.0
290
     0
  0
SCALE
  5
69
102
{ACAD_REACTORS
330
45
102
}
330
45
100
AcDbScale
 70
     0
300
1" = 1'-0"
140
1.0
141
12.0
290
     0
  0
SCALE
  5
6A
102
{ACAD_REACTORS
330
45
102
}
330
45
100
AcDbScale
 70
     0
300
1-1/2" = 1'-0"
140
1.5
141
12.0
290
     0
  0
SCALE
  5
6B
102
{ACAD_REACTORS
330
45
102
}
330
45
100
AcDbScale
 70
     0
300
3" = 1'-0"
140
3.0
141
12.0
290
     0
  0
SCALE
  5
6C
102
{ACAD_REACTORS
330
45
102
}
330
45
100
AcDbScale
 70
     0
300
6" = 1'-0"
140
6.0
141
12.0
290
     0
  0
SCALE
  5
6D
102
{ACAD_REACTORS
330
45
102
}
330
45
100
AcDbScale
 70
     0
300
1'-0" = 1'-0"
140
12.0
141
12.0
290
     0
  0
TABLESTYLE
  5
49
102
{ACAD_XDICTIONARY
360
4A
102
}
102
{ACAD_REACTORS
330
46
102
}
330
46
100
AcDbTableStyle
  3
Standard
 70
     0
 71
     0
 40
0.06
 41
0.06
280
     0
281
     0
  7
STANDARD
140
0.18
170
     2
 62
     0
 63
     7
283
     0
274
    -2
284
     1
 64
     0
275
    -2
285
     1
 65
     0
276
    -2
286
     1
 66
     0
277
    -2
287
     1
 67
     0
278
    -2
288
     1
 68
     0
279
    -2
289
     1
 69
     0
  7
STANDARD
140
0.25
170
     5
 62
     0
 63
     7
283
     0
274
    -2
284
     1
 64
     0
275
    -2
285
     1
 65
     0
276
    -2
286
     1
 66
     0
277
    -2
287
     1
 67
     0
278
    -2
288
     1
 68
     0
279
    -2
289
     1
 69
     0
  7
STANDARD
140
0.18
170
     5
 62
     0
 63
     7
283
     0
274
    -2
284
     1
 64
     0
275
    -2
285
     1
 65
     0
276
    -2
286
     1
 66
     0
277
    -2
287
     1
 67
     0
278
    -2
288
     1
 68
     0
279
    -2
289
     1
 69
     0
  0
VISUALSTYLE
  5
2A
102
{ACAD_XDICTIONARY
360
170
102
}
102
{ACAD_REACTORS
330
2B
102
}
330
2B
100
AcDbVisualStyle
  2
2dWireframe
 70
     4
 71
     0
 72
     2
 73
     0
 90
        0
 40
-0.6
 41
-30.0
 62
     5
 63
     7
 74
     1
 91
        4
 64
     7
 65
   257
 75
     1
175
     1
 42
1.0
 92
        0
 66
   257
 43
1.0
 76
     1
 77
     6
 78
     2
 67
     7
 79
     5
170
     0
171
     0
290
     0
174
     0
 93
        1
 44
0.0
173
     0
291
     0
 45
0.0
1001
ACAD
1000
AcDbSavedByObjectVersion
1070
     0
  0
VISUALSTYLE
  5
148
102
{ACAD_XDICTIONARY
360
181
102
}
102
{ACAD_REACTORS
330
2B
102
}
330
2B
100
AcDbVisualStyle
  2
Basic
 70
     7
 71
     1
 72
     0
 73
     1
 90
        0
 40
-0.6
 41
-30.0
 62
     5
 63
     7
 74
     0
 91
        4
 64
     7
 65
   257
 75
     1
175
     1
 42
1.0
 92
        8
 66
     7
 43
1.0
 76
     1
 77
     6
 78
     2
 67
     7
 79
     5
170
     0
171
     0
290
     0
174
     0
 93
        1
 44
0.0
173
     0
291
     1
 45
0.0
1001
ACAD
1000
AcDbSavedByObjectVersion
1070
     0
  0
VISUALSTYLE
  5
14C
102
{ACAD_XDICTIONARY
360
189
102
}
102
{ACAD_REACTORS
330
2B
102
}
330
2B
100
AcDbVisualStyle
  2
Brighten
 70
    12
 71
     2
 72
     2
 73
     0
 90
        0
 40
-0.6
 41
-30.0
 62
     5
 63
     7
 74
     1
 91
        4
 64
     7
 65
   257
 75
     1
175
     1
 42
1.0
 92
        8
 66
     7
 43
1.0
 76
     1
 77
     6
 78
     2
 67
     7
 79
     5
170
     0
171
     0
290
     0
174
     0
 93
        1
 44
50.0
173
     0
291
     1
 45
0.0
1001
ACAD
1000
AcDbSavedByObjectVersion
1070
     0
  0
VISUALSTYLE
  5
150
102
{ACAD_XDICTIONARY
360
191
102
}
102
{ACAD_REACTORS
330
2B
102
}
330
2B
100
AcDbVisualStyle
  2
ColorChange
 70
    16
 71
     2
 72
     2
 73
     3
 90
        0
 40
-0.6
 41
-30.0
 62
     5
 63
     8
 74
     1
 91
        4
 64
     7
 65
   257
 75
     1
175
     1
 42
1.0
 92
        8
 66
     8
 43
1.0
 76
     1
 77
     6
 78
     2
 67
     7
 79
     5
170
     0
171
     0
290
     0
174
     0
 93
        1
 44
0.0
173
     0
291
     1
 45
0.0
1001
ACAD
1000
AcDbSavedByObjectVersion
1070
     0
  0
VISUALSTYLE
  5
14A
102
{ACAD_XDICTIONARY
360
185
102
}
102
{ACAD_REACTORS
330
2B
102
}
330
2B
100
AcDbVisualStyle
  2
Conceptual
 70
     9
 71
     3
 72
     2
 73
     0
 90
        0
 40
-0.6
 41
-30.0
 62
     5
 63
     7
 74
     2
 91
        2
 64
     7
 65
   257
 75
     1
175
     1
 42
179.0
 92
        8
 66
     7
 43
1.0
 76
     1
 77
     6
 78
     2
 67
     7
 79
     3
170
     0
171
     0
290
     0
174
     0
 93
        1
 44
0.0
173
     0
291
     0
 45
0.0
1001
ACAD
1000
AcDbSavedByObjectVersion
1070
     0
  0
VISUALSTYLE
  5
14B
102
{ACAD_XDICTIONARY
360
187
102
}
102
{ACAD_REACTORS
330
2B
102
}
330
2B
100
AcDbVisualStyle
  2
Dim
 70
    11
 71
     2
 72
     2
 73
     0
 90
        0
 40
-0.6
 41
-30.0
 62
     5
 63
     7
 74
     1
 91
        4
 64
     7
 65
   257
 75
     1
175
     1
 42
1.0
 92
        8
 66
     7
 43
1.0
 76
     1
 77
     6
 78
     2
 67
     7
 79
     5
170
     0
171
     0
290
     0
174
     0
 93
        1
 44
-50.0
173
     0
291
     1
 45
0.0
1001
ACAD
1000
AcDbSavedByObjectVersion
1070
     0
  0
VISUALSTYLE
  5
158
102
{ACAD_XDICTIONARY
360
1A1
102
}
102
{ACAD_REACTORS
330
2B
102
}
330
2B
100
AcDbVisualStyle
  2
EdgeColorOff
 70
    22
 71
     2
 72
     2
 73
     0
 90
        0
 40
-0.6
 41
-30.0
 62
     5
 63
     7
 74
     1
 91
        4
 64
     7
 65
   257
 75
     1
175
     1
 42
1.0
 92
        8
 66
     7
 43
1.0
 76
     1
 77
     6
 78
     2
 67
     7
 79
     5
170
     0
171
     0
290
     0
174
     0
 93
        1
 44
0.0
173
     0
291
     1
 45
0.0
1001
ACAD
1000
AcDbSavedByObjectVersion
1070
     0
  0
VISUALSTYLE
  5
14F
102
{ACAD_XDICTIONARY
360
18F
102
}
102
{ACAD_REACTORS
330
2B
102
}
330
2B
100
AcDbVisualStyle
  2
Facepattern
 70
    15
 71
     2
 72
     2
 73
     0
 90
        0
 40
-0.6
 41
-30.0
 62
     5
 63
     7
 74
     1
 91
        4
 64
     7
 65
   257
 75
     1
175
     1
 42
1.0
 92
        8
 66
     7
 43
1.0
 76
     1
 77
     6
 78
     2
 67
     7
 79
     5
170
     0
171
     0
290
     0
174
     0
 93
        1
 44
0.0
173
     0
291
     1
 45
0.0
1001
ACAD
1000
AcDbSavedByObjectVersion
1070
     0
  0
VISUALSTYLE
  5
144
102
{ACAD_XDICTIONARY
360
179
102
}
102
{ACAD_REACTORS
330
2B
102
}
330
2B
100
AcDbVisualStyle
  2
Flat
 70
     0
 71
     2
 72
     1
 73
     1
 90
        2
 40
-0.6
 41
30.0
 62
     5
 63
     7
 74
     0
 91
        0
 64
     7
 65
   257
 75
     1
175
     1
 42
1.0
 92
        8
 66
     7
 43
1.0
 76
     1
 77
     6
 78
     2
 67
     7
 79
     5
170
     0
171
     0
290
     0
174
     0
 93
       13
 44
0.0
173
     0
291
     1
 45
0.0
1001
ACAD
1000
AcDbSavedByObjectVersion
1070
     0
  0
VISUALSTYLE
  5
145
102
{ACAD_XDICTIONARY
360
17B
102
}
102
{ACAD_REACTORS
330
2B
102
}
330
2B
100
AcDbVisualStyle
  2
FlatWithEdges
 70
     1
 71
     2
 72
     1
 73
     1
 90
        2
 40
-0.6
 41
30.0
 62
     5
 63
     7
 74
     1
 91
        0
 64
     7
 65
   257
 75
     1
175
     1
 42
1.0
 92
        0
 66
   257
 43
1.0
 76
     1
 77
     6
 78
     2
 67
     7
 79
     5
170
     0
171
     0
290
     0
174
     0
 93
       13
 44
0.0
173
     0
291
     1
 45
0.0
1001
ACAD
1000
AcDbSavedByObjectVersion
1070
     0
  0
VISUALSTYLE
  5
146
102
{ACAD_XDICTIONARY
360
17D
102
}
102
{ACAD_REACTORS
330
2B
102
}
330
2B
100
AcDbVisualStyle
  2
Gouraud
 70
     2
 71
     2
 72
     2
 73
     1
 90
        2
 40
-0.6
 41
30.0
 62
     5
 63
     7
 74
     0
 91
        0
 64
     7
 65
   257
 75
     1
175
     1
 42
1.0
 92
        0
 66
     7
 43
1.0
 76
     1
 77
     6
 78
     2
 67
     7
 79
     5
170
     0
171
     0
290
     0
174
     0
 93
       13
 44
0.0
173
     0
291
     1
 45
0.0
1001
ACAD
1000
AcDbSavedByObjectVersion
1070
     0
  0
VISUALSTYLE
  5
147
102
{ACAD_XDICTIONARY
360
17F
102
}
102
{ACAD_REACTORS
330
2B
102
}
330
2B
100
AcDbVisualStyle
  2
GouraudWithEdges
 70
     3
 71
     2
 72
     2
 73
     1
 90
        2
 40
-0.6
 41
30.0
 62
     5
 63
     7
 74
     1
 91
        0
 64
     7
 65
   257
 75
     1
175
     1
 42
1.0
 92
        0
 66
   257
 43
1.0
 76
     1
 77
     6
 78
     2
 67
     7
 79
     5
170
     0
171
     0
290
     0
174
     0
 93
       13
 44
0.0
173
     0
291
     1
 45
0.0
1001
ACAD
1000
AcDbSavedByObjectVersion
1070
     0
  0
VISUALSTYLE
  5
149
102
{ACAD_XDICTIONARY
360
183
102
}
102
{ACAD_REACTORS
330
2B
102
}
330
2B
100
AcDbVisualStyle
  2
Hidden
 70
     6
 71
     1
 72
     2
 73
     2
 90
        0
 40
-0.6
 41
-30.0
 62
     5
 63
     7
 74
     2
 91
        2
 64
     7
 65
   257
 75
     2
175
     1
 42
40.0
 92
        0
 66
   257
 43
1.0
 76
     1
 77
     6
 78
     2
 67
     7
 79
     3
170
     0
171
     0
290
     0
174
     0
 93
        1
 44
0.0
173
     0
291
     0
 45
0.0
1001
ACAD
1000
AcDbSavedByObjectVersion
1070
     0
  0
VISUALSTYLE
  5
156
102
{ACAD_XDICTIONARY
360
19D
102
}
102
{ACAD_REACTORS
330
2B
102
}
330
2B
100
AcDbVisualStyle
  2
JitterOff
 70
    20
 71
     2
 72
     2
 73
     0
 90
        0
 40
-0.6
 41
-30.0
 62
     5
 63
     7
 74
     1
 91
        4
 64
     7
 65
   257
 75
     1
175
     1
 42
1.0
 92
       10
 66
     7
 43
1.0
 76
     1
 77
     6
 78
     2
 67
     7
 79
     5
170
     0
171
     0
290
     0
174
     0
 93
        1
 44
0.0
173
     0
291
     1
 45
0.0
1001
ACAD
1000
AcDbSavedByObjectVersion
1070
     0
  0
VISUALSTYLE
  5
14E
102
{ACAD_XDICTIONARY
360
18D
102
}
102
{ACAD_REACTORS
330
2B
102
}
330
2B
100
AcDbVisualStyle
  2
Linepattern
 70
    14
 71
     2
 72
     2
 73
     0
 90
        0
 40
-0.6
 41
-30.0
 62
     5
 63
     7
 74
     1
 91
        4
 64
     7
 65
   257
 75
     7
175
     7
 42
1.0
 92
        8
 66
     7
 43
1.0
 76
     1
 77
     6
 78
     2
 67
     7
 79
     5
170
     0
171
     0
290
     0
174
     0
 93
        1
 44
0.0
173
     0
291
     1
 45
0.0
1001
ACAD
1000
AcDbSavedByObjectVersion
1070
     0
  0
VISUALSTYLE
  5
157
102
{ACAD_XDICTIONARY
360
19F
102
}
102
{ACAD_REACTORS
330
2B
102
}
330
2B
100
AcDbVisualStyle
  2
OverhangOff
 70
    21
 71
     2
 72
     2
 73
     0
 90
        0
 40
-0.6
 41
-30.0
 62
     5
 63
     7
 74
     1
 91
        4
 64
     7
 65
   257
 75
     1
175
     1
 42
1.0
 92
        9
 66
     7
 43
1.0
 76
     1
 77
     6
 78
     2
 67
     7
 79
     5
170
     0
171
     0
290
     0
174
     0
 93
        1
 44
0.0
173
     0
291
     1
 45
0.0
1001
ACAD
1000
AcDbSavedByObjectVersion
1070
     0
  0
VISUALSTYLE
  5
4B
102
{ACAD_XDICTIONARY
360
175
102
}
102
{ACAD_REACTORS
330
2B
102
}
330
2B
100
AcDbVisualStyle
  2
Realistic
 70
     8
 71
     2
 72
     2
 73
     0
 90
        0
 40
-0.6
 41
-30.0
 62
     5
 63
     7
 74
     1
 91
        0
 64
     7
 65
   257
 75
     1
175
     1
 42
1.0
 92
        8
 66
     8
 43
1.0
 76
     1
 77
     6
 78
     2
 67
     7
 79
     5
170
     0
171
     0
290
     0
174
     0
 93
       13
 44
0.0
173
     0
291
     0
 45
0.0
1001
ACAD
1000
AcDbSavedByObjectVersion
1070
     0
  0
VISUALSTYLE
  5
155
102
{ACAD_XDICTIONARY
360
19B
102
}
102
{ACAD_REACTORS
330
2B
102
}
330
2B
100
AcDbVisualStyle
  2
Shaded
 70
    27
 71
     2
 72
     2
 73
     1
 90
        2
 40
-0.6
 41
30.0
 62
     5
 63
     7
 74
     0
 91
        4
 64
     7
 65
   257
 75
     1
175
     1
 42
1.0
 92
        8
 66
   257
 43
1.0
 76
     1
 77
     6
 78
     2
 67
     8
 79
     3
170
     0
171
     0
290
     0
174
     0
 93
        5
 44
0.0
173
     0
291
     0
 45
0.0
1001
ACAD
1000
AcDbSavedByObjectVersion
1070
     0
  0
VISUALSTYLE
  5
154
102
{ACAD_XDICTIONARY
360
199
102
}
102
{ACAD_REACTORS
330
2B
102
}
330
2B
100
AcDbVisualStyle
  2
Shaded with edges
 70
    26
 71
     2
 72
     2
 73
     1
 90
        2
 40
-0.6
 41
30.0
 62
     5
 63
     7
 74
     1
 91
       10
 64
     7
 65
   257
 75
     2
175
     1
 42
1.0
 92
        8
 66
   257
 43
1.0
 76
     1
 77
     6
 78
     2
 67
     7
 79
     3
170
     0
171
     0
290
     0
174
     0
 93
        5
 44
0.0
173
     0
291
     0
 45
0.0
1001
ACAD
1000
AcDbSavedByObjectVersion
1070
     0
  0
VISUALSTYLE
  5
151
102
{ACAD_XDICTIONARY
360
193
102
}
102
{ACAD_REACTORS
330
2B
102
}
330
2B
100
AcDbVisualStyle
  2
Shades of Gray
 70
    23
 71
     2
 72
     2
 73
     3
 90
        0
 40
-0.6
 41
-30.0
 62
     5
 63
     7
 74
     2
 91
        2
 64
     7
 65
     7
 75
     1
175
     1
 42
40.0
 92
        8
 66
     7
 43
1.0
 76
     1
 77
     6
 78
     2
 67
     7
 79
     3
170
     0
171
     0
290
     0
174
     0
 93
        1
 44
0.0
173
     0
291
     0
 45
0.0
1001
ACAD
1000
AcDbSavedByObjectVersion
1070
     0
  0
VISUALSTYLE
  5
152
102
{ACAD_XDICTIONARY
360
195
102
}
102
{ACAD_REACTORS
330
2B
102
}
330
2B
100
AcDbVisualStyle
  2
Sketchy
 70
    24
 71
     1
 72
     2
 73
     2
 90
        0
 40
-0.6
 41
-30.0
 62
     5
 63
     7
 74
     2
 91
        2
 64
     7
 65
     7
 75
     1
175
     1
 42
40.0
 92
       11
 66
     7
 43
1.0
 76
     1
 77
     6
 78
     2
 67
     7
 79
     6
170
     0
171
     0
290
     0
174
     0
 93
        1
 44
0.0
173
     0
291
     0
 45
0.0
1001
ACAD
1000
AcDbSavedByObjectVersion
1070
     0
  0
VISUALSTYLE
  5
14D
102
{ACAD_XDICTIONARY
360
18B
102
}
102
{ACAD_REACTORS
330
2B
102
}
330
2B
100
AcDbVisualStyle
  2
Thicken
 70
    13
 71
     2
 72
     2
 73
     0
 90
        0
 40
-0.6
 41
-30.0
 62
     5
 63
     7
 74
     1
 91
        4
 64
     7
 65
   257
 75
     1
175
     1
 42
1.0
 92
       12
 66
     7
 43
1.0
 76
     1
 77
     6
 78
     2
 67
     7
 79
     5
170
     0
171
     0
290
     0
174
     0
 93
        1
 44
0.0
173
     0
291
     1
 45
0.0
1001
ACAD
1000
AcDbSavedByObjectVersion
1070
     0
  0
VISUALSTYLE
  5
4C
102
{ACAD_XDICTIONARY
360
177
102
}
102
{ACAD_REACTORS
330
2B
102
}
330
2B
100
AcDbVisualStyle
  2
Wireframe
 70
     5
 71
     0
 72
     2
 73
     0
 90
        0
 40
-0.6
 41
-30.0
 62
     5
 63
     7
 74
     1
 91
        4
 64
     7
 65
   257
 75
     1
175
     1
 42
1.0
 92
        0
 66
   257
 43
1.0
 76
     1
 77
     6
 78
     2
 67
     7
 79
     3
170
     0
171
     0
290
     0
174
     0
 93
        1
 44
0.0
173
     0
291
     0
 45
0.0
1001
ACAD
1000
AcDbSavedByObjectVersion
1070
     0
  0
VISUALSTYLE
  5
153
102
{ACAD_XDICTIONARY
360
197
102
}
102
{ACAD_REACTORS
330
2B
102
}
330
2B
100
AcDbVisualStyle
  2
X-Ray
 70
    25
 71
     2
 72
     2
 73
     1
 90
        1
 40
0.5
 41
-30.0
 62
     5
 63
     7
 74
     1
 91
        0
 64
     7
 65
   257
 75
     1
175
     1
 42
1.0
 92
        8
 66
     7
 43
1.0
 76
     1
 77
     6
 78
     2
 67
     7
 79
     3
170
     0
171
     0
290
     0
174
     0
 93
       13
 44
0.0
173
     0
291
     0
 45
0.0
1001
ACAD
1000
AcDbSavedByObjectVersion
1070
     0
  0
DICTIONARYVAR
  5
13F
102
{ACAD_REACTORS
330
13B
102
}
330
13B
100
DictionaryVariables
280
     0
  1
1:1
  0
DICTIONARYVAR
  5
13D
102
{ACAD_REACTORS
330
13B
102
}
330
13B
100
DictionaryVariables
280
     0
  1
STANDARD
  0
DICTIONARYVAR
  5
13C
102
{ACAD_REACTORS
330
13B
102
}
330
13B
100
DictionaryVariables
280
     0
  1
STANDARD
  0
DICTIONARYVAR
  5
162
102
{ACAD_REACTORS
330
13B
102
}
330
13B
100
DictionaryVariables
280
     0
  1
1
  0
DICTIONARYVAR
  5
161
102
{ACAD_REACTORS
330
13B
102
}
330
13B
100
DictionaryVariables
280
     0
  1
1
  0
DICTIONARYVAR
  5
160
102
{ACAD_REACTORS
330
13B
102
}
330
13B
100
DictionaryVariables
280
     0
  1
0
  0
DICTIONARYVAR
  5
141
102
{ACAD_REACTORS
330
13B
102
}
330
13B
100
DictionaryVariables
280
     0
  1
1
  0
DICTIONARYVAR
  5
142
102
{ACAD_REACTORS
330
13B
102
}
330
13B
100
DictionaryVariables
280
     0
  1
15
  0
DICTIONARYVAR
  5
140
102
{ACAD_REACTORS
330
13B
102
}
330
13B
100
DictionaryVariables
280
     0
  1
0
  0
DICTIONARYVAR
  5
13E
102
{ACAD_REACTORS
330
13B
102
}
330
13B
100
DictionaryVariables
280
     0
  1
0
  0
DICTIONARYVAR
  5
15F
102
{ACAD_REACTORS
330
13B
102
}
330
13B
100
DictionaryVariables
280
     0
  1
127
  0
DICTIONARYVAR
  5
163
102
{ACAD_REACTORS
330
13B
102
}
330
13B
100
DictionaryVariables
280
     0
  1
2
  0
DICTIONARY
  5
16E
330
1A
100
AcDbDictionary
280
     1
281
     1
  3
ACAD_XREC_ROUNDTRIP
360
16F
  0
DICTIONARY
  5
16C
330
15
100
AcDbDictionary
280
     1
281
     1
  3
ACAD_XREC_ROUNDTRIP
360
16D
  0
DICTIONARY
  5
3D
330
3C
100
AcDbDictionary
280
     1
281
     1
  3
ACAD_XREC_ROUNDTRIP
360
173
  3
BUMPTILE
360
3E
  3
DIFFUSETILE
360
3F
  3
OPACITYTILE
360
40
  3
REFLECTIONTILE
360
41
  3
REFRACTIONTILE
360
42
  3
SPECULARTILE
360
43
  0
DICTIONARY
  5
35
330
34
100
AcDbDictionary
280
     1
281
     1
  3
ACAD_XREC_ROUNDTRIP
360
172
  3
BUMPTILE
360
36
  3
DIFFUSETILE
360
37
  3
OPACITYTILE
360
38
  3
REFLECTIONTILE
360
39
  3
REFRACTIONTILE
360
3A
  3
SPECULARTILE
360
3B
  0
DICTIONARY
  5
C
330
A
100
AcDbDictionary
280
     1
281
     1
  3
ACAD_XREC_ROUNDTRIP
360
16B
  3
BUMPTILE
360
D
  3
DIFFUSETILE
360
E
  3
OPACITYTILE
360
F
  3
REFLECTIONTILE
360
10
  3
REFRACTIONTILE
360
11
  3
SPECULARTILE
360
12
  0
DICTIONARY
  5
4A
330
49
100
AcDbDictionary
280
     1
281
     1
  3
ACAD_ROUNDTRIP_2008_TABLESTYLE_CELLSTYLEMAP
360
164
  3
ACAD_XREC_ROUNDTRIP
360
174
  0
DICTIONARY
  5
170
330
2A
100
AcDbDictionary
280
     1
281
     1
  3
ACAD_XREC_ROUNDTRIP
360
171
  0
DICTIONARY
  5
181
330
148
100
AcDbDictionary
280
     1
281
     1
  3
ACAD_XREC_ROUNDTRIP
360
182
  0
DICTIONARY
  5
189
330
14C
100
AcDbDictionary
280
     1
281
     1
  3
ACAD_XREC_ROUNDTRIP
360
18A
  0
DICTIONARY
  5
191
330
150
100
AcDbDictionary
280
     1
281
     1
  3
ACAD_XREC_ROUNDTRIP
360
192
  0
DICTIONARY
  5
185
330
14A
100
AcDbDictionary
280
     1
281
     1
  3
ACAD_XREC_ROUNDTRIP
360
186
  0
DICTIONARY
  5
187
330
14B
100
AcDbDictionary
280
     1
281
     1
  3
ACAD_XREC_ROUNDTRIP
360
188
  0
DICTIONARY
  5
1A1
330
158
100
AcDbDictionary
280
     1
281
     1
  3
ACAD_XREC_ROUNDTRIP
360
1A2
  0
DICTIONARY
  5
18F
330
14F
100
AcDbDictionary
280
     1
281
     1
  3
ACAD_XREC_ROUNDTRIP
360
190
  0
DICTIONARY
  5
179
330
144
100
AcDbDictionary
280
     1
281
     1
  3
ACAD_XREC_ROUNDTRIP
360
17A
  0
DICTIONARY
  5
17B
330
145
100
AcDbDictionary
280
     1
281
     1
  3
ACAD_XREC_ROUNDTRIP
360
17C
  0
DICTIONARY
  5
17D
330
146
100
AcDbDictionary
280
     1
281
     1
  3
ACAD_XREC_ROUNDTRIP
360
17E
  0
DICTIONARY
  5
17F
330
147
100
AcDbDictionary
280
     1
281
     1
  3
ACAD_XREC_ROUNDTRIP
360
180
  0
DICTIONARY
  5
183
330
149
100
AcDbDictionary
280
     1
281
     1
  3
ACAD_XREC_ROUNDTRIP
360
184
  0
DICTIONARY
  5
19D
330
156
100
AcDbDictionary
280
     1
281
     1
  3
ACAD_XREC_ROUNDTRIP
360
19E
  0
DICTIONARY
  5
18D
330
14E
100
AcDbDictionary
280
     1
281
     1
  3
ACAD_XREC_ROUNDTRIP
360
18E
  0
DICTIONARY
  5
19F
330
157
100
AcDbDictionary
280
     1
281
     1
  3
ACAD_XREC_ROUNDTRIP
360
1A0
  0
DICTIONARY
  5
175
330
4B
100
AcDbDictionary
280
     1
281
     1
  3
ACAD_XREC_ROUNDTRIP
360
176
  0
DICTIONARY
  5
19B
330
155
100
AcDbDictionary
280
     1
281
     1
  3
ACAD_XREC_ROUNDTRIP
360
19C
  0
DICTIONARY
  5
199
330
154
100
AcDbDictionary
280
     1
281
     1
  3
ACAD_XREC_ROUNDTRIP
360
19A
  0
DICTIONARY
  5
193
330
151
100
AcDbDictionary
280
     1
281
     1
  3
ACAD_XREC_ROUNDTRIP
360
194
  0
DICTIONARY
  5
195
330
152
100
AcDbDictionary
280
     1
281
     1
  3
ACAD_XREC_ROUNDTRIP
360
196
  0
DICTIONARY
  5
18B
330
14D
100
AcDbDictionary
280
     1
281
     1
  3
ACAD_XREC_ROUNDTRIP
360
18C
  0
DICTIONARY
  5
177
330
4C
100
AcDbDictionary
280
     1
281
     1
  3
ACAD_XREC_ROUNDTRIP
360
178
  0
DICTIONARY
  5
197
330
153
100
AcDbDictionary
280
     1
281
     1
  3
ACAD_XREC_ROUNDTRIP
360
198
  0
XRECORD
  5
16F
102
{ACAD_REACTORS
330
16E
102
}
330
16E
100
AcDbXrecord
280
     1
102
SHADEPLOT
 70
     0
102
SHADEPLOTRESLEVEL
 70
     2
102
SHADEPLOTCUSTOMDPI
 70
   300
  0
XRECORD
  5
16D
102
{ACAD_REACTORS
330
16C
102
}
330
16C
100
AcDbXrecord
280
     1
102
SHADEPLOT
 70
     0
102
SHADEPLOTRESLEVEL
 70
     2
102
SHADEPLOTCUSTOMDPI
 70
   300
  0
XRECORD
  5
173
102
{ACAD_REACTORS
330
3D
102
}
330
3D
100
AcDbXrecord
280
     1
102
MATERIAL
148
0.0
149
0.0
149
0.0
 93
        0
 94
      127
282
     0
 72
     0
 77
     0
171
     0
175
     0
179
     0
273
     0
  0
XRECORD
  5
3E
102
{ACAD_REACTORS
330
3D
102
}
330
3D
100
AcDbXrecord
280
     1
270
     1
271
     1
  0
XRECORD
  5
3F
102
{ACAD_REACTORS
330
3D
102
}
330
3D
100
AcDbXrecord
280
     1
270
     1
271
     1
  0
XRECORD
  5
40
102
{ACAD_REACTORS
330
3D
102
}
330
3D
100
AcDbXrecord
280
     1
270
     1
271
     1
  0
XRECORD
  5
41
102
{ACAD_REACTORS
330
3D
102
}
330
3D
100
AcDbXrecord
280
     1
270
     1
271
     1
  0
XRECORD
  5
42
102
{ACAD_REACTORS
330
3D
102
}
330
3D
100
AcDbXrecord
280
     1
270
     1
271
     1
  0
XRECORD
  5
43
102
{ACAD_REACTORS
330
3D
102
}
330
3D
100
AcDbXrecord
280
     1
270
     1
271
     1
  0
XRECORD
  5
172
102
{ACAD_REACTORS
330
35
102
}
330
35
100
AcDbXrecord
280
     1
102
MATERIAL
148
0.0
149
0.0
149
0.0
 93
        0
 94
      127
282
     0
 72
     0
 77
     0
171
     0
175
     0
179
     0
273
     0
  0
XRECORD
  5
36
102
{ACAD_REACTORS
330
35
102
}
330
35
100
AcDbXrecord
280
     1
270
     1
271
     1
  0
XRECORD
  5
37
102
{ACAD_REACTORS
330
35
102
}
330
35
100
AcDbXrecord
280
     1
270
     1
271
     1
  0
XRECORD
  5
38
102
{ACAD_REACTORS
330
35
102
}
330
35
100
AcDbXrecord
280
     1
270
     1
271
     1
  0
XRECORD
  5
39
102
{ACAD_REACTORS
330
35
102
}
330
35
100
AcDbXrecord
280
     1
270
     1
271
     1
  0
XRECORD
  5
3A
102
{ACAD_REACTORS
330
35
102
}
330
35
100
AcDbXrecord
280
     1
270
     1
271
     1
  0
XRECORD
  5
3B
102
{ACAD_REACTORS
330
35
102
}
330
35
100
AcDbXrecord
280
     1
270
     1
271
     1
  0
XRECORD
  5
16B
102
{ACAD_REACTORS
330
C
102
}
330
C
100
AcDbXrecord
280
     1
102
MATERIAL
148
0.0
149
0.0
149
0.0
 93
        0
 94
      127
282
     0
 72
     0
 77
     0
171
     0
175
     0
179
     0
273
     0
  0
XRECORD
  5
D
102
{ACAD_REACTORS
330
C
102
}
330
C
100
AcDbXrecord
280
     1
270
     1
271
     1
  0
XRECORD
  5
E
102
{ACAD_REACTORS
330
C
102
}
330
C
100
AcDbXrecord
280
     1
270
     1
271
     1
  0
XRECORD
  5
F
102
{ACAD_REACTORS
330
C
102
}
330
C
100
AcDbXrecord
280
     1
270
     1
271
     1
  0
XRECORD
  5
10
102
{ACAD_REACTORS
330
C
102
}
330
C
100
AcDbXrecord
280
     1
270
     1
271
     1
  0
XRECORD
  5
11
102
{ACAD_REACTORS
330
C
102
}
330
C
100
AcDbXrecord
280
     1
270
     1
271
     1
  0
XRECORD
  5
12
102
{ACAD_REACTORS
330
C
102
}
330
C
100
AcDbXrecord
280
     1
270
     1
271
     1
  0
CELLSTYLEMAP
  5
164
102
{ACAD_REACTORS
330
4A
102
}
330
4A
100
AcDbCellStyleMap
 90
        3
300
CELLSTYLE
  1
TABLEFORMAT_BEGIN
 90
        5
170
     1
 91
        0
 92
    32768
 62
   257
 93
        1
300
CONTENTFORMAT
  1
CONTENTFORMAT_BEGIN
 90
        0
 91
        0
 92
      512
 93
        0
300

 40
0.0
140
1.0
 94
        5
 62
     0
340
21
144
0.25
309
CONTENTFORMAT_END
171
     0
 94
        0
309
TABLEFORMAT_END
  1
CELLSTYLE_BEGIN
 90
        1
 91
        1
300
_TITLE
309
CELLSTYLE_END
300
CELLSTYLE
  1
TABLEFORMAT_BEGIN
 90
        5
170
     1
 91
        0
 92
        0
 62
   257
 93
        1
300
CONTENTFORMAT
  1
CONTENTFORMAT_BEGIN
 90
        0
 91
        0
 92
      512
 93
        0
300

 40
0.0
140
1.0
 94
        5
 62
     0
340
21
144
0.18
309
CONTENTFORMAT_END
171
     0
 94
        0
309
TABLEFORMAT_END
  1
CELLSTYLE_BEGIN
 90
        2
 91
        1
300
_HEADER
309
CELLSTYLE_END
300
CELLSTYLE
  1
TABLEFORMAT_BEGIN
 90
        5
170
     1
 91
        0
 92
        0
 62
   257
 93
        1
300
CONTENTFORMAT
  1
CONTENTFORMAT_BEGIN
 90
        0
 91
        0
 92
      512
 93
        0
300

 40
0.0
140
1.0
 94
        2
 62
     0
340
21
144
0.18
309
CONTENTFORMAT_END
171
     0
 94
        0
309
TABLEFORMAT_END
  1
CELLSTYLE_BEGIN
 90
        3
 91
        2
300
_DATA
309
CELLSTYLE_END
  0
XRECORD
  5
174
102
{ACAD_REACTORS
330
4A
102
}
330
4A
100
AcDbXrecord
280
     1
102
ACAD_ROUNDTRIP_PRE2007_TABLESTYLE
 90
      512
 91
        0
  1

 92
      512
 93
        0
  2

 94
      512
 95
        0
  3

  0
XRECORD
  5
171
102
{ACAD_REACTORS
330
170
102
}
330
170
100
AcDbXrecord
280
     1
102
RTVSPropertyOp0
 70
     1
102
RTVSPropertyOp1
 70
     1
102
RTVSPropertyOp2
 70
     1
102
RTVSPropertyOp3
 70
     1
102
RTVSPropertyOp4
 70
     1
102
RTVSPropertyOp5
 70
     1
102
RTVSPropertyOp6
 70
     1
102
RTVSPropertyOp7
 70
     1
102
RTVSPropertyOp8
 70
     1
102
RTVSPropertyOp9
 70
     1
102
RTVSPropertyOp10
 70
     1
102
RTVSPropertyOp11
 70
     1
102
RTVSPropertyOp12
 70
     1
102
RTVSPropertyOp13
 70
     1
102
RTVSPropertyOp14
 70
     1
102
RTVSPropertyOp15
 70
     1
102
RTVSPropertyOp16
 70
     1
102
RTVSPropertyOp17
 70
     1
102
RTVSPropertyOp18
 70
     1
102
RTVSPropertyOp19
 70
     1
102
RTVSPropertyOp20
 70
     1
102
RTVSPropertyOp21
 70
     1
102
RTVSPropertyOp22
 70
     1
102
RTVSPropertyOp23
 70
     1
102
RTVSPropertyOp24
 70
     1
102
RTVSPropertyOp25
 70
     1
102
RTVSPropertyOp26
 70
     1
102
RTVSPropertyOp27
 70
     1
102
RTVSPropertyOp28
 70
     1
102
RTVSPropertyOp29
 70
     1
102
RTVSPropertyOp30
 70
     1
102
RTVSPropertyOp31
 70
     1
102
RTVSPropertyOp32
 70
     1
  0
XRECORD
  5
182
102
{ACAD_REACTORS
330
181
102
}
330
181
100
AcDbXrecord
280
     1
102
RTVSPropertyOp0
 70
     1
102
RTVSPropertyOp1
 70
     1
102
RTVSPropertyOp2
 70
     1
102
RTVSPropertyOp3
 70
     1
102
RTVSPropertyOp4
 70
     1
102
RTVSPropertyOp5
 70
     1
102
RTVSPropertyOp6
 70
     1
102
RTVSPropertyOp7
 70
     1
102
RTVSPropertyOp8
 70
     1
102
RTVSPropertyOp9
 70
     1
102
RTVSPropertyOp10
 70
     1
102
RTVSPropertyOp11
 70
     1
102
RTVSPropertyOp12
 70
     1
102
RTVSPropertyOp13
 70
     1
102
RTVSPropertyOp14
 70
     1
102
RTVSPropertyOp15
 70
     1
102
RTVSPropertyOp16
 70
     1
102
RTVSPropertyOp17
 70
     1
102
RTVSPropertyOp18
 70
     1
102
RTVSPropertyOp19
 70
     1
102
RTVSPropertyOp20
 70
     1
102
RTVSPropertyOp21
 70
     1
102
RTVSPropertyOp22
 70
     1
102
RTVSPropertyOp23
 70
     1
102
RTVSPropertyOp24
 70
     1
102
RTVSPropertyOp25
 70
     1
102
RTVSPropertyOp26
 70
     1
102
RTVSPropertyOp27
 70
     1
102
RTVSPropertyOp28
 70
     1
102
RTVSPropertyOp29
 70
     1
102
RTVSPropertyOp30
 70
     1
102
RTVSPropertyOp31
 70
     1
102
RTVSPropertyOp32
 70
     1
  0
XRECORD
  5
18A
102
{ACAD_REACTORS
330
189
102
}
330
189
100
AcDbXrecord
280
     1
102
RTVSPropertyOp0
 70
     1
102
RTVSPropertyOp1
 70
     1
102
RTVSPropertyOp2
 70
     1
102
RTVSPropertyOp3
 70
     1
102
RTVSPropertyOp4
 70
     1
102
RTVSPropertyOp5
 70
     1
102
RTVSPropertyOp6
 70
     1
102
RTVSPropertyOp7
 70
     1
102
RTVSPropertyOp8
 70
     1
102
RTVSPropertyOp9
 70
     1
102
RTVSPropertyOp10
 70
     1
102
RTVSPropertyOp11
 70
     1
102
RTVSPropertyOp12
 70
     1
102
RTVSPropertyOp13
 70
     1
102
RTVSPropertyOp14
 70
     1
102
RTVSPropertyOp15
 70
     1
102
RTVSPropertyOp16
 70
     1
102
RTVSPropertyOp17
 70
     1
102
RTVSPropertyOp18
 70
     1
102
RTVSPropertyOp19
 70
     1
102
RTVSPropertyOp20
 70
     1
102
RTVSPropertyOp21
 70
     1
102
RTVSPropertyOp22
 70
     1
102
RTVSPropertyOp23
 70
     1
102
RTVSPropertyOp24
 70
     1
102
RTVSPropertyOp25
 70
     1
102
RTVSPropertyOp26
 70
     1
102
RTVSPropertyOp27
 70
     1
102
RTVSPropertyOp28
 70
     1
102
RTVSPropertyOp29
 70
     1
102
RTVSPropertyOp30
 70
     1
102
RTVSPropertyOp31
 70
     1
102
RTVSPropertyOp32
 70
     1
  0
XRECORD
  5
192
102
{ACAD_REACTORS
330
191
102
}
330
191
100
AcDbXrecord
280
     1
102
RTVSPropertyOp0
 70
     1
102
RTVSPropertyOp1
 70
     1
102
RTVSPropertyOp2
 70
     1
102
RTVSPropertyOp3
 70
     1
102
RTVSPropertyOp4
 70
     1
102
RTVSPropertyOp5
 70
     1
102
RTVSPropertyOp6
 70
     1
102
RTVSPropertyOp7
 70
     1
102
RTVSPropertyOp8
 70
     1
102
RTVSPropertyOp9
 70
     1
102
RTVSPropertyOp10
 70
     1
102
RTVSPropertyOp11
 70
     1
102
RTVSPropertyOp12
 70
     1
102
RTVSPropertyOp13
 70
     1
102
RTVSPropertyOp14
 70
     1
102
RTVSPropertyOp15
 70
     1
102
RTVSPropertyOp16
 70
     1
102
RTVSPropertyOp17
 70
     1
102
RTVSPropertyOp18
 70
     1
102
RTVSPropertyOp19
 70
     1
102
RTVSPropertyOp20
 70
     1
102
RTVSPropertyOp21
 70
     1
102
RTVSPropertyOp22
 70
     1
102
RTVSPropertyOp23
 70
     1
102
RTVSPropertyOp24
 70
     1
102
RTVSPropertyOp25
 70
     1
102
RTVSPropertyOp26
 70
     1
102
RTVSPropertyOp27
 70
     1
102
RTVSPropertyOp28
 70
     1
102
RTVSPropertyOp29
 70
     1
102
RTVSPropertyOp30
 70
     1
102
RTVSPropertyOp31
 70
     1
102
RTVSPropertyOp32
 70
     1
  0
XRECORD
  5
186
102
{ACAD_REACTORS
330
185
102
}
330
185
100
AcDbXrecord
280
     1
102
RTVSPropertyOp0
 70
     1
102
RTVSPropertyOp1
 70
     1
102
RTVSPropertyOp2
 70
     1
102
RTVSPropertyOp3
 70
     1
102
RTVSPropertyOp4
 70
     1
102
RTVSPropertyOp5
 70
     1
102
RTVSPropertyOp6
 70
     1
102
RTVSPropertyOp7
 70
     1
102
RTVSPropertyOp8
 70
     1
102
RTVSPropertyOp9
 70
     1
102
RTVSPropertyOp10
 70
     1
102
RTVSPropertyOp11
 70
     1
102
RTVSPropertyOp12
 70
     1
102
RTVSPropertyOp13
 70
     1
102
RTVSPropertyOp14
 70
     1
102
RTVSPropertyOp15
 70
     1
102
RTVSPropertyOp16
 70
     1
102
RTVSPropertyOp17
 70
     1
102
RTVSPropertyOp18
 70
     1
102
RTVSPropertyOp19
 70
     1
102
RTVSPropertyOp20
 70
     1
102
RTVSPropertyOp21
 70
     1
102
RTVSPropertyOp22
 70
     1
102
RTVSPropertyOp23
 70
     1
102
RTVSPropertyOp24
 70
     1
102
RTVSPropertyOp25
 70
     1
102
RTVSPropertyOp26
 70
     1
102
RTVSPropertyOp27
 70
     1
102
RTVSPropertyOp28
 70
     1
102
RTVSPropertyOp29
 70
     1
102
RTVSPropertyOp30
 70
     1
102
RTVSPropertyOp31
 70
     1
102
RTVSPropertyOp32
 70
     1
  0
XRECORD
  5
188
102
{ACAD_REACTORS
330
187
102
}
330
187
100
AcDbXrecord
280
     1
102
RTVSPropertyOp0
 70
     1
102
RTVSPropertyOp1
 70
     1
102
RTVSPropertyOp2
 70
     1
102
RTVSPropertyOp3
 70
     1
102
RTVSPropertyOp4
 70
     1
102
RTVSPropertyOp5
 70
     1
102
RTVSPropertyOp6
 70
     1
102
RTVSPropertyOp7
 70
     1
102
RTVSPropertyOp8
 70
     1
102
RTVSPropertyOp9
 70
     1
102
RTVSPropertyOp10
 70
     1
102
RTVSPropertyOp11
 70
     1
102
RTVSPropertyOp12
 70
     1
102
RTVSPropertyOp13
 70
     1
102
RTVSPropertyOp14
 70
     1
102
RTVSPropertyOp15
 70
     1
102
RTVSPropertyOp16
 70
     1
102
RTVSPropertyOp17
 70
     1
102
RTVSPropertyOp18
 70
     1
102
RTVSPropertyOp19
 70
     1
102
RTVSPropertyOp20
 70
     1
102
RTVSPropertyOp21
 70
     1
102
RTVSPropertyOp22
 70
     1
102
RTVSPropertyOp23
 70
     1
102
RTVSPropertyOp24
 70
     1
102
RTVSPropertyOp25
 70
     1
102
RTVSPropertyOp26
 70
     1
102
RTVSPropertyOp27
 70
     1
102
RTVSPropertyOp28
 70
     1
102
RTVSPropertyOp29
 70
     1
102
RTVSPropertyOp30
 70
     1
102
RTVSPropertyOp31
 70
     1
102
RTVSPropertyOp32
 70
     1
  0
XRECORD
  5
1A2
102
{ACAD_REACTORS
330
1A1
102
}
330
1A1
100
AcDbXrecord
280
     1
102
RTVSPropertyOp0
 70
     0
102
RTVSPropertyOp1
 70
     0
102
RTVSPropertyOp2
 70
     0
102
RTVSPropertyOp3
 70
     0
102
RTVSPropertyOp4
 70
     0
102
RTVSPropertyOp5
 70
     0
102
RTVSPropertyOp6
 70
     0
102
RTVSPropertyOp7
 70
     0
102
RTVSPropertyOp8
 70
     0
102
RTVSPropertyOp9
 70
     0
102
RTVSPropertyOp10
 70
     0
102
RTVSPropertyOp11
 70
     0
102
RTVSPropertyOp12
 70
     0
102
RTVSPropertyOp13
 70
     0
102
RTVSPropertyOp14
 70
     2
102
RTVSPropertyOp15
 70
     0
102
RTVSPropertyOp16
 70
     0
102
RTVSPropertyOp17
 70
     0
102
RTVSPropertyOp18
 70
     0
102
RTVSPropertyOp19
 70
     0
102
RTVSPropertyOp20
 70
     0
102
RTVSPropertyOp21
 70
     0
102
RTVSPropertyOp22
 70
     0
102
RTVSPropertyOp23
 70
     0
102
RTVSPropertyOp24
 70
     0
102
RTVSPropertyOp25
 70
     0
102
RTVSPropertyOp26
 70
     0
102
RTVSPropertyOp27
 70
     0
102
RTVSPropertyOp28
 70
     0
102
RTVSPropertyOp29
 70
     0
102
RTVSPropertyOp30
 70
     0
102
RTVSPropertyOp31
 70
     0
102
RTVSPropertyOp32
 70
     0
  0
XRECORD
  5
190
102
{ACAD_REACTORS
330
18F
102
}
330
18F
100
AcDbXrecord
280
     1
102
RTVSPropertyOp0
 70
     1
102
RTVSPropertyOp1
 70
     1
102
RTVSPropertyOp2
 70
     1
102
RTVSPropertyOp3
 70
     1
102
RTVSPropertyOp4
 70
     1
102
RTVSPropertyOp5
 70
     1
102
RTVSPropertyOp6
 70
     1
102
RTVSPropertyOp7
 70
     1
102
RTVSPropertyOp8
 70
     1
102
RTVSPropertyOp9
 70
     1
102
RTVSPropertyOp10
 70
     1
102
RTVSPropertyOp11
 70
     1
102
RTVSPropertyOp12
 70
     1
102
RTVSPropertyOp13
 70
     1
102
RTVSPropertyOp14
 70
     1
102
RTVSPropertyOp15
 70
     1
102
RTVSPropertyOp16
 70
     1
102
RTVSPropertyOp17
 70
     1
102
RTVSPropertyOp18
 70
     1
102
RTVSPropertyOp19
 70
     1
102
RTVSPropertyOp20
 70
     1
102
RTVSPropertyOp21
 70
     1
102
RTVSPropertyOp22
 70
     1
102
RTVSPropertyOp23
 70
     1
102
RTVSPropertyOp24
 70
     1
102
RTVSPropertyOp25
 70
     1
102
RTVSPropertyOp26
 70
     1
102
RTVSPropertyOp27
 70
     1
102
RTVSPropertyOp28
 70
     1
102
RTVSPropertyOp29
 70
     1
102
RTVSPropertyOp30
 70
     1
102
RTVSPropertyOp31
 70
     1
102
RTVSPropertyOp32
 70
     1
  0
XRECORD
  5
17A
102
{ACAD_REACTORS
330
179
102
}
330
179
100
AcDbXrecord
280
     1
102
RTVSPropertyOp0
 70
     1
102
RTVSPropertyOp1
 70
     1
102
RTVSPropertyOp2
 70
     1
102
RTVSPropertyOp3
 70
     1
102
RTVSPropertyOp4
 70
     1
102
RTVSPropertyOp5
 70
     1
102
RTVSPropertyOp6
 70
     1
102
RTVSPropertyOp7
 70
     1
102
RTVSPropertyOp8
 70
     1
102
RTVSPropertyOp9
 70
     1
102
RTVSPropertyOp10
 70
     1
102
RTVSPropertyOp11
 70
     1
102
RTVSPropertyOp12
 70
     1
102
RTVSPropertyOp13
 70
     1
102
RTVSPropertyOp14
 70
     1
102
RTVSPropertyOp15
 70
     1
102
RTVSPropertyOp16
 70
     1
102
RTVSPropertyOp17
 70
     1
102
RTVSPropertyOp18
 70
     1
102
RTVSPropertyOp19
 70
     1
102
RTVSPropertyOp20
 70
     1
102
RTVSPropertyOp21
 70
     1
102
RTVSPropertyOp22
 70
     1
102
RTVSPropertyOp23
 70
     1
102
RTVSPropertyOp24
 70
     1
102
RTVSPropertyOp25
 70
     1
102
RTVSPropertyOp26
 70
     1
102
RTVSPropertyOp27
 70
     1
102
RTVSPropertyOp28
 70
     1
102
RTVSPropertyOp29
 70
     1
102
RTVSPropertyOp30
 70
     1
102
RTVSPropertyOp31
 70
     1
102
RTVSPropertyOp32
 70
     1
  0
XRECORD
  5
17C
102
{ACAD_REACTORS
330
17B
102
}
330
17B
100
AcDbXrecord
280
     1
102
RTVSPropertyOp0
 70
     1
102
RTVSPropertyOp1
 70
     1
102
RTVSPropertyOp2
 70
     1
102
RTVSPropertyOp3
 70
     1
102
RTVSPropertyOp4
 70
     1
102
RTVSPropertyOp5
 70
     1
102
RTVSPropertyOp6
 70
     1
102
RTVSPropertyOp7
 70
     1
102
RTVSPropertyOp8
 70
     1
102
RTVSPropertyOp9
 70
     1
102
RTVSPropertyOp10
 70
     1
102
RTVSPropertyOp11
 70
     1
102
RTVSPropertyOp12
 70
     1
102
RTVSPropertyOp13
 70
     1
102
RTVSPropertyOp14
 70
     1
102
RTVSPropertyOp15
 70
     1
102
RTVSPropertyOp16
 70
     1
102
RTVSPropertyOp17
 70
     1
102
RTVSPropertyOp18
 70
     1
102
RTVSPropertyOp19
 70
     1
102
RTVSPropertyOp20
 70
     1
102
RTVSPropertyOp21
 70
     1
102
RTVSPropertyOp22
 70
     1
102
RTVSPropertyOp23
 70
     1
102
RTVSPropertyOp24
 70
     1
102
RTVSPropertyOp25
 70
     1
102
RTVSPropertyOp26
 70
     1
102
RTVSPropertyOp27
 70
     1
102
RTVSPropertyOp28
 70
     1
102
RTVSPropertyOp29
 70
     1
102
RTVSPropertyOp30
 70
     1
102
RTVSPropertyOp31
 70
     1
102
RTVSPropertyOp32
 70
     1
  0
XRECORD
  5
17E
102
{ACAD_REACTORS
330
17D
102
}
330
17D
100
AcDbXrecord
280
     1
102
RTVSPropertyOp0
 70
     1
102
RTVSPropertyOp1
 70
     1
102
RTVSPropertyOp2
 70
     1
102
RTVSPropertyOp3
 70
     1
102
RTVSPropertyOp4
 70
     1
102
RTVSPropertyOp5
 70
     1
102
RTVSPropertyOp6
 70
     1
102
RTVSPropertyOp7
 70
     1
102
RTVSPropertyOp8
 70
     1
102
RTVSPropertyOp9
 70
     1
102
RTVSPropertyOp10
 70
     1
102
RTVSPropertyOp11
 70
     1
102
RTVSPropertyOp12
 70
     1
102
RTVSPropertyOp13
 70
     1
102
RTVSPropertyOp14
 70
     1
102
RTVSPropertyOp15
 70
     1
102
RTVSPropertyOp16
 70
     1
102
RTVSPropertyOp17
 70
     1
102
RTVSPropertyOp18
 70
     1
102
RTVSPropertyOp19
 70
     1
102
RTVSPropertyOp20
 70
     1
102
RTVSPropertyOp21
 70
     1
102
RTVSPropertyOp22
 70
     1
102
RTVSPropertyOp23
 70
     1
102
RTVSPropertyOp24
 70
     1
102
RTVSPropertyOp25
 70
     1
102
RTVSPropertyOp26
 70
     1
102
RTVSPropertyOp27
 70
     1
102
RTVSPropertyOp28
 70
     1
102
RTVSPropertyOp29
 70
     1
102
RTVSPropertyOp30
 70
     1
102
RTVSPropertyOp31
 70
     1
102
RTVSPropertyOp32
 70
     1
  0
XRECORD
  5
180
102
{ACAD_REACTORS
330
17F
102
}
330
17F
100
AcDbXrecord
280
     1
102
RTVSPropertyOp0
 70
     1
102
RTVSPropertyOp1
 70
     1
102
RTVSPropertyOp2
 70
     1
102
RTVSPropertyOp3
 70
     1
102
RTVSPropertyOp4
 70
     1
102
RTVSPropertyOp5
 70
     1
102
RTVSPropertyOp6
 70
     1
102
RTVSPropertyOp7
 70
     1
102
RTVSPropertyOp8
 70
     1
102
RTVSPropertyOp9
 70
     1
102
RTVSPropertyOp10
 70
     1
102
RTVSPropertyOp11
 70
     1
102
RTVSPropertyOp12
 70
     1
102
RTVSPropertyOp13
 70
     1
102
RTVSPropertyOp14
 70
     1
102
RTVSPropertyOp15
 70
     1
102
RTVSPropertyOp16
 70
     1
102
RTVSPropertyOp17
 70
     1
102
RTVSPropertyOp18
 70
     1
102
RTVSPropertyOp19
 70
     1
102
RTVSPropertyOp20
 70
     1
102
RTVSPropertyOp21
 70
     1
102
RTVSPropertyOp22
 70
     1
102
RTVSPropertyOp23
 70
     1
102
RTVSPropertyOp24
 70
     1
102
RTVSPropertyOp25
 70
     1
102
RTVSPropertyOp26
 70
     1
102
RTVSPropertyOp27
 70
     1
102
RTVSPropertyOp28
 70
     1
102
RTVSPropertyOp29
 70
     1
102
RTVSPropertyOp30
 70
     1
102
RTVSPropertyOp31
 70
     1
102
RTVSPropertyOp32
 70
     1
  0
XRECORD
  5
184
102
{ACAD_REACTORS
330
183
102
}
330
183
100
AcDbXrecord
280
     1
102
RTVSPropertyOp0
 70
     1
102
RTVSPropertyOp1
 70
     1
102
RTVSPropertyOp2
 70
     1
102
RTVSPropertyOp3
 70
     1
102
RTVSPropertyOp4
 70
     1
102
RTVSPropertyOp5
 70
     1
102
RTVSPropertyOp6
 70
     1
102
RTVSPropertyOp7
 70
     1
102
RTVSPropertyOp8
 70
     1
102
RTVSPropertyOp9
 70
     1
102
RTVSPropertyOp10
 70
     1
102
RTVSPropertyOp11
 70
     1
102
RTVSPropertyOp12
 70
     1
102
RTVSPropertyOp13
 70
     1
102
RTVSPropertyOp14
 70
     1
102
RTVSPropertyOp15
 70
     1
102
RTVSPropertyOp16
 70
     1
102
RTVSPropertyOp17
 70
     1
102
RTVSPropertyOp18
 70
     1
102
RTVSPropertyOp19
 70
     1
102
RTVSPropertyOp20
 70
     1
102
RTVSPropertyOp21
 70
     1
102
RTVSPropertyOp22
 70
     1
102
RTVSPropertyOp23
 70
     1
102
RTVSPropertyOp24
 70
     1
102
RTVSPropertyOp25
 70
     1
102
RTVSPropertyOp26
 70
     1
102
RTVSPropertyOp27
 70
     1
102
RTVSPropertyOp28
 70
     1
102
RTVSPropertyOp29
 70
     1
102
RTVSPropertyOp30
 70
     1
102
RTVSPropertyOp31
 70
     1
102
RTVSPropertyOp32
 70
     1
  0
XRECORD
  5
19E
102
{ACAD_REACTORS
330
19D
102
}
330
19D
100
AcDbXrecord
280
     1
102
RTVSPropertyOp0
 70
     0
102
RTVSPropertyOp1
 70
     0
102
RTVSPropertyOp2
 70
     0
102
RTVSPropertyOp3
 70
     0
102
RTVSPropertyOp4
 70
     0
102
RTVSPropertyOp5
 70
     0
102
RTVSPropertyOp6
 70
     0
102
RTVSPropertyOp7
 70
     0
102
RTVSPropertyOp8
 70
     0
102
RTVSPropertyOp9
 70
     0
102
RTVSPropertyOp10
 70
     0
102
RTVSPropertyOp11
 70
     0
102
RTVSPropertyOp12
 70
     0
102
RTVSPropertyOp13
 70
     0
102
RTVSPropertyOp14
 70
     2
102
RTVSPropertyOp15
 70
     0
102
RTVSPropertyOp16
 70
     0
102
RTVSPropertyOp17
 70
     0
102
RTVSPropertyOp18
 70
     0
102
RTVSPropertyOp19
 70
     0
102
RTVSPropertyOp20
 70
     0
102
RTVSPropertyOp21
 70
     0
102
RTVSPropertyOp22
 70
     0
102
RTVSPropertyOp23
 70
     0
102
RTVSPropertyOp24
 70
     0
102
RTVSPropertyOp25
 70
     0
102
RTVSPropertyOp26
 70
     0
102
RTVSPropertyOp27
 70
     0
102
RTVSPropertyOp28
 70
     0
102
RTVSPropertyOp29
 70
     0
102
RTVSPropertyOp30
 70
     0
102
RTVSPropertyOp31
 70
     0
102
RTVSPropertyOp32
 70
     0
  0
XRECORD
  5
18E
102
{ACAD_REACTORS
330
18D
102
}
330
18D
100
AcDbXrecord
280
     1
102
RTVSPropertyOp0
 70
     1
102
RTVSPropertyOp1
 70
     1
102
RTVSPropertyOp2
 70
     1
102
RTVSPropertyOp3
 70
     1
102
RTVSPropertyOp4
 70
     1
102
RTVSPropertyOp5
 70
     1
102
RTVSPropertyOp6
 70
     1
102
RTVSPropertyOp7
 70
     1
102
RTVSPropertyOp8
 70
     1
102
RTVSPropertyOp9
 70
     1
102
RTVSPropertyOp10
 70
     1
102
RTVSPropertyOp11
 70
     1
102
RTVSPropertyOp12
 70
     1
102
RTVSPropertyOp13
 70
     1
102
RTVSPropertyOp14
 70
     1
102
RTVSPropertyOp15
 70
     1
102
RTVSPropertyOp16
 70
     1
102
RTVSPropertyOp17
 70
     1
102
RTVSPropertyOp18
 70
     1
102
RTVSPropertyOp19
 70
     1
102
RTVSPropertyOp20
 70
     1
102
RTVSPropertyOp21
 70
     1
102
RTVSPropertyOp22
 70
     1
102
RTVSPropertyOp23
 70
     1
102
RTVSPropertyOp24
 70
     1
102
RTVSPropertyOp25
 70
     1
102
RTVSPropertyOp26
 70
     1
102
RTVSPropertyOp27
 70
     1
102
RTVSPropertyOp28
 70
     1
102
RTVSPropertyOp29
 70
     1
102
RTVSPropertyOp30
 70
     1
102
RTVSPropertyOp31
 70
     1
102
RTVSPropertyOp32
 70
     1
  0
XRECORD
  5
1A0
102
{ACAD_REACTORS
330
19F
102
}
330
19F
100
AcDbXrecord
280
     1
102
RTVSPropertyOp0
 70
     0
102
RTVSPropertyOp1
 70
     0
102
RTVSPropertyOp2
 70
     0
102
RTVSPropertyOp3
 70
     0
102
RTVSPropertyOp4
 70
     0
102
RTVSPropertyOp5
 70
     0
102
RTVSPropertyOp6
 70
     0
102
RTVSPropertyOp7
 70
     0
102
RTVSPropertyOp8
 70
     0
102
RTVSPropertyOp9
 70
     0
102
RTVSPropertyOp10
 70
     0
102
RTVSPropertyOp11
 70
     0
102
RTVSPropertyOp12
 70
     0
102
RTVSPropertyOp13
 70
     0
102
RTVSPropertyOp14
 70
     2
102
RTVSPropertyOp15
 70
     0
102
RTVSPropertyOp16
 70
     0
102
RTVSPropertyOp17
 70
     0
102
RTVSPropertyOp18
 70
     0
102
RTVSPropertyOp19
 70
     0
102
RTVSPropertyOp20
 70
     0
102
RTVSPropertyOp21
 70
     0
102
RTVSPropertyOp22
 70
     0
102
RTVSPropertyOp23
 70
     0
102
RTVSPropertyOp24
 70
     0
102
RTVSPropertyOp25
 70
     0
102
RTVSPropertyOp26
 70
     0
102
RTVSPropertyOp27
 70
     0
102
RTVSPropertyOp28
 70
     0
102
RTVSPropertyOp29
 70
     0
102
RTVSPropertyOp30
 70
     0
102
RTVSPropertyOp31
 70
     0
102
RTVSPropertyOp32
 70
     0
  0
XRECORD
  5
176
102
{ACAD_REACTORS
330
175
102
}
330
175
100
AcDbXrecord
280
     1
102
RTVSPropertyOp0
 70
     1
102
RTVSPropertyOp1
 70
     1
102
RTVSPropertyOp2
 70
     1
102
RTVSPropertyOp3
 70
     1
102
RTVSPropertyOp4
 70
     1
102
RTVSPropertyOp5
 70
     1
102
RTVSPropertyOp6
 70
     1
102
RTVSPropertyOp7
 70
     1
102
RTVSPropertyOp8
 70
     1
102
RTVSPropertyOp9
 70
     1
102
RTVSPropertyOp10
 70
     1
102
RTVSPropertyOp11
 70
     1
102
RTVSPropertyOp12
 70
     1
102
RTVSPropertyOp13
 70
     1
102
RTVSPropertyOp14
 70
     1
102
RTVSPropertyOp15
 70
     1
102
RTVSPropertyOp16
 70
     1
102
RTVSPropertyOp17
 70
     1
102
RTVSPropertyOp18
 70
     1
102
RTVSPropertyOp19
 70
     1
102
RTVSPropertyOp20
 70
     1
102
RTVSPropertyOp21
 70
     1
102
RTVSPropertyOp22
 70
     1
102
RTVSPropertyOp23
 70
     1
102
RTVSPropertyOp24
 70
     1
102
RTVSPropertyOp25
 70
     1
102
RTVSPropertyOp26
 70
     1
102
RTVSPropertyOp27
 70
     1
102
RTVSPropertyOp28
 70
     1
102
RTVSPropertyOp29
 70
     1
102
RTVSPropertyOp30
 70
     1
102
RTVSPropertyOp31
 70
     1
102
RTVSPropertyOp32
 70
     1
  0
XRECORD
  5
19C
102
{ACAD_REACTORS
330
19B
102
}
330
19B
100
AcDbXrecord
280
     1
102
RTVSPropertyOp0
 70
     1
102
RTVSPropertyOp1
 70
     1
102
RTVSPropertyOp2
 70
     1
102
RTVSPropertyOp3
 70
     1
102
RTVSPropertyOp4
 70
     1
102
RTVSPropertyOp5
 70
     1
102
RTVSPropertyOp6
 70
     1
102
RTVSPropertyOp7
 70
     1
102
RTVSPropertyOp8
 70
     1
102
RTVSPropertyOp9
 70
     1
102
RTVSPropertyOp10
 70
     1
102
RTVSPropertyOp11
 70
     1
102
RTVSPropertyOp12
 70
     1
102
RTVSPropertyOp13
 70
     1
102
RTVSPropertyOp14
 70
     1
102
RTVSPropertyOp15
 70
     1
102
RTVSPropertyOp16
 70
     1
102
RTVSPropertyOp17
 70
     1
102
RTVSPropertyOp18
 70
     1
102
RTVSPropertyOp19
 70
     1
102
RTVSPropertyOp20
 70
     1
102
RTVSPropertyOp21
 70
     1
102
RTVSPropertyOp22
 70
     1
102
RTVSPropertyOp23
 70
     1
102
RTVSPropertyOp24
 70
     1
102
RTVSPropertyOp25
 70
     1
102
RTVSPropertyOp26
 70
     1
102
RTVSPropertyOp27
 70
     1
102
RTVSPropertyOp28
 70
     1
102
RTVSPropertyOp29
 70
     1
102
RTVSPropertyOp30
 70
     1
102
RTVSPropertyOp31
 70
     1
102
RTVSPropertyOp32
 70
     1
  0
XRECORD
  5
19A
102
{ACAD_REACTORS
330
199
102
}
330
199
100
AcDbXrecord
280
     1
102
RTVSPropertyOp0
 70
     1
102
RTVSPropertyOp1
 70
     1
102
RTVSPropertyOp2
 70
     1
102
RTVSPropertyOp3
 70
     1
102
RTVSPropertyOp4
 70
     1
102
RTVSPropertyOp5
 70
     1
102
RTVSPropertyOp6
 70
     1
102
RTVSPropertyOp7
 70
     1
102
RTVSPropertyOp8
 70
     1
102
RTVSPropertyOp9
 70
     1
102
RTVSPropertyOp10
 70
     1
102
RTVSPropertyOp11
 70
     1
102
RTVSPropertyOp12
 70
     1
102
RTVSPropertyOp13
 70
     1
102
RTVSPropertyOp14
 70
     1
102
RTVSPropertyOp15
 70
     1
102
RTVSPropertyOp16
 70
     1
102
RTVSPropertyOp17
 70
     1
102
RTVSPropertyOp18
 70
     1
102
RTVSPropertyOp19
 70
     1
102
RTVSPropertyOp20
 70
     1
102
RTVSPropertyOp21
 70
     1
102
RTVSPropertyOp22
 70
     1
102
RTVSPropertyOp23
 70
     1
102
RTVSPropertyOp24
 70
     1
102
RTVSPropertyOp25
 70
     1
102
RTVSPropertyOp26
 70
     1
102
RTVSPropertyOp27
 70
     1
102
RTVSPropertyOp28
 70
     1
102
RTVSPropertyOp29
 70
     1
102
RTVSPropertyOp30
 70
     1
102
RTVSPropertyOp31
 70
     1
102
RTVSPropertyOp32
 70
     1
  0
XRECORD
  5
194
102
{ACAD_REACTORS
330
193
102
}
330
193
100
AcDbXrecord
280
     1
102
RTVSPropertyOp0
 70
     1
102
RTVSPropertyOp1
 70
     1
102
RTVSPropertyOp2
 70
     1
102
RTVSPropertyOp3
 70
     1
102
RTVSPropertyOp4
 70
     1
102
RTVSPropertyOp5
 70
     1
102
RTVSPropertyOp6
 70
     1
102
RTVSPropertyOp7
 70
     1
102
RTVSPropertyOp8
 70
     1
102
RTVSPropertyOp9
 70
     1
102
RTVSPropertyOp10
 70
     1
102
RTVSPropertyOp11
 70
     1
102
RTVSPropertyOp12
 70
     1
102
RTVSPropertyOp13
 70
     1
102
RTVSPropertyOp14
 70
     1
102
RTVSPropertyOp15
 70
     1
102
RTVSPropertyOp16
 70
     1
102
RTVSPropertyOp17
 70
     1
102
RTVSPropertyOp18
 70
     1
102
RTVSPropertyOp19
 70
     1
102
RTVSPropertyOp20
 70
     1
102
RTVSPropertyOp21
 70
     1
102
RTVSPropertyOp22
 70
     1
102
RTVSPropertyOp23
 70
     1
102
RTVSPropertyOp24
 70
     1
102
RTVSPropertyOp25
 70
     1
102
RTVSPropertyOp26
 70
     1
102
RTVSPropertyOp27
 70
     1
102
RTVSPropertyOp28
 70
     1
102
RTVSPropertyOp29
 70
     1
102
RTVSPropertyOp30
 70
     1
102
RTVSPropertyOp31
 70
     1
102
RTVSPropertyOp32
 70
     1
  0
XRECORD
  5
196
102
{ACAD_REACTORS
330
195
102
}
330
195
100
AcDbXrecord
280
     1
102
RTVSPropertyOp0
 70
     1
102
RTVSPropertyOp1
 70
     1
102
RTVSPropertyOp2
 70
     1
102
RTVSPropertyOp3
 70
     1
102
RTVSPropertyOp4
 70
     1
102
RTVSPropertyOp5
 70
     1
102
RTVSPropertyOp6
 70
     1
102
RTVSPropertyOp7
 70
     1
102
RTVSPropertyOp8
 70
     1
102
RTVSPropertyOp9
 70
     1
102
RTVSPropertyOp10
 70
     1
102
RTVSPropertyOp11
 70
     1
102
RTVSPropertyOp12
 70
     1
102
RTVSPropertyOp13
 70
     1
102
RTVSPropertyOp14
 70
     1
102
RTVSPropertyOp15
 70
     1
102
RTVSPropertyOp16
 70
     1
102
RTVSPropertyOp17
 70
     1
102
RTVSPropertyOp18
 70
     1
102
RTVSPropertyOp19
 70
     1
102
RTVSPropertyOp20
 70
     1
102
RTVSPropertyOp21
 70
     1
102
RTVSPropertyOp22
 70
     1
102
RTVSPropertyOp23
 70
     1
102
RTVSPropertyOp24
 70
     1
102
RTVSPropertyOp25
 70
     1
102
RTVSPropertyOp26
 70
     1
102
RTVSPropertyOp27
 70
     1
102
RTVSPropertyOp28
 70
     1
102
RTVSPropertyOp29
 70
     1
102
RTVSPropertyOp30
 70
     1
102
RTVSPropertyOp31
 70
     1
102
RTVSPropertyOp32
 70
     1
  0
XRECORD
  5
18C
102
{ACAD_REACTORS
330
18B
102
}
330
18B
100
AcDbXrecord
280
     1
102
RTVSPropertyOp0
 70
     1
102
RTVSPropertyOp1
 70
     1
102
RTVSPropertyOp2
 70
     1
102
RTVSPropertyOp3
 70
     1
102
RTVSPropertyOp4
 70
     1
102
RTVSPropertyOp5
 70
     1
102
RTVSPropertyOp6
 70
     1
102
RTVSPropertyOp7
 70
     1
102
RTVSPropertyOp8
 70
     1
102
RTVSPropertyOp9
 70
     1
102
RTVSPropertyOp10
 70
     1
102
RTVSPropertyOp11
 70
     1
102
RTVSPropertyOp12
 70
     1
102
RTVSPropertyOp13
 70
     1
102
RTVSPropertyOp14
 70
     1
102
RTVSPropertyOp15
 70
     1
102
RTVSPropertyOp16
 70
     1
102
RTVSPropertyOp17
 70
     1
102
RTVSPropertyOp18
 70
     1
102
RTVSPropertyOp19
 70
     1
102
RTVSPropertyOp20
 70
     1
102
RTVSPropertyOp21
 70
     1
102
RTVSPropertyOp22
 70
     1
102
RTVSPropertyOp23
 70
     1
102
RTVSPropertyOp24
 70
     1
102
RTVSPropertyOp25
 70
     1
102
RTVSPropertyOp26
 70
     1
102
RTVSPropertyOp27
 70
     1
102
RTVSPropertyOp28
 70
     1
102
RTVSPropertyOp29
 70
     1
102
RTVSPropertyOp30
 70
     1
102
RTVSPropertyOp31
 70
     1
102
RTVSPropertyOp32
 70
     1
  0
XRECORD
  5
178
102
{ACAD_REACTORS
330
177
102
}
330
177
100
AcDbXrecord
280
     1
102
RTVSPropertyOp0
 70
     1
102
RTVSPropertyOp1
 70
     1
102
RTVSPropertyOp2
 70
     1
102
RTVSPropertyOp3
 70
     1
102
RTVSPropertyOp4
 70
     1
102
RTVSPropertyOp5
 70
     1
102
RTVSPropertyOp6
 70
     1
102
RTVSPropertyOp7
 70
     1
102
RTVSPropertyOp8
 70
     1
102
RTVSPropertyOp9
 70
     1
102
RTVSPropertyOp10
 70
     1
102
RTVSPropertyOp11
 70
     1
102
RTVSPropertyOp12
 70
     1
102
RTVSPropertyOp13
 70
     1
102
RTVSPropertyOp14
 70
     1
102
RTVSPropertyOp15
 70
     1
102
RTVSPropertyOp16
 70
     1
102
RTVSPropertyOp17
 70
     1
102
RTVSPropertyOp18
 70
     1
102
RTVSPropertyOp19
 70
     1
102
RTVSPropertyOp20
 70
     1
102
RTVSPropertyOp21
 70
     1
102
RTVSPropertyOp22
 70
     1
102
RTVSPropertyOp23
 70
     1
102
RTVSPropertyOp24
 70
     1
102
RTVSPropertyOp25
 70
     1
102
RTVSPropertyOp26
 70
     1
102
RTVSPropertyOp27
 70
     1
102
RTVSPropertyOp28
 70
     1
102
RTVSPropertyOp29
 70
     1
102
RTVSPropertyOp30
 70
     1
102
RTVSPropertyOp31
 70
     1
102
RTVSPropertyOp32
 70
     1
  0
XRECORD
  5
198
102
{ACAD_REACTORS
330
197
102
}
330
197
100
AcDbXrecord
280
     1
102
RTVSPropertyOp0
 70
     1
102
RTVSPropertyOp1
 70
     1
102
RTVSPropertyOp2
 70
     1
102
RTVSPropertyOp3
 70
     1
102
RTVSPropertyOp4
 70
     1
102
RTVSPropertyOp5
 70
     1
102
RTVSPropertyOp6
 70
     1
102
RTVSPropertyOp7
 70
     1
102
RTVSPropertyOp8
 70
     1
102
RTVSPropertyOp9
 70
     1
102
RTVSPropertyOp10
 70
     1
102
RTVSPropertyOp11
 70
     1
102
RTVSPropertyOp12
 70
     1
102
RTVSPropertyOp13
 70
     1
102
RTVSPropertyOp14
 70
     1
102
RTVSPropertyOp15
 70
     1
102
RTVSPropertyOp16
 70
     1
102
RTVSPropertyOp17
 70
     1
102
RTVSPropertyOp18
 70
     1
102
RTVSPropertyOp19
 70
     1
102
RTVSPropertyOp20
 70
     1
102
RTVSPropertyOp21
 70
     1
102
RTVSPropertyOp22
 70
     1
102
RTVSPropertyOp23
 70
     1
102
RTVSPropertyOp24
 70
     1
102
RTVSPropertyOp25
 70
     1
102
RTVSPropertyOp26
 70
     1
102
RTVSPropertyOp27
 70
     1
102
RTVSPropertyOp28
 70
     1
102
RTVSPropertyOp29
 70
     1
102
RTVSPropertyOp30
 70
     1
102
RTVSPropertyOp31
 70
     1
102
RTVSPropertyOp32
 70
     1
  0
ENDSEC
  0
EOF
