  0
SECTION
  2
HEADER
  9
$ACADVER
  1
AC1027
  9
$ACADMAINTVER
 70
   105
  9
$DWGCODEPAGE
  3
ANSI_1252
  9
$REQUIREDVERSIONS
160
                 0
  9
$COMMENTS
  1
File was created by Cadenas
  9
$CUSTOMPROPERTYTAG
  1
NN
  9
$CUSTOMPROPERTY
  1
Geberit Mapress Carbon Steel set of connector T-pieces for inlet and return flow, with union connector for Euro cone
  9
$CUSTOMPROPERTYTAG
  1
NT
  9
$CUSTOMPROPERTY
  1

  9
$CUSTOMPROPERTYTAG
  1
NB
  9
$CUSTOMPROPERTY
  1
24046
  9
$CUSTOMPROPERTYTAG
  1
NBSYN
  9
$CUSTOMPROPERTY
  1
$ARTNRT.
  9
$CUSTOMPROPERTYTAG
  1
LINA
  9
$CUSTOMPROPERTY
  1
24046
  9
$CUSTOMPROPERTYTAG
  1
CATALOG
  9
$CUSTOMPROPERTY
  1
GEBERIT
  9
$CUSTOMPROPERTYTAG
  1
ARTNRT
  9
$CUSTOMPROPERTY
  1
24046
  9
$CUSTOMPROPERTYTAG
  1
AD
  9
$CUSTOMPROPERTY
  1
5
  9
$CUSTOMPROPERTYTAG
  1
D
  9
$CUSTOMPROPERTY
  1
18.0
  9
$CUSTOMPROPERTYTAG
  1
D1
  9
$CUSTOMPROPERTY
  1
15.0
  9
$CUSTOMPROPERTYTAG
  1
DN
  9
$CUSTOMPROPERTY
  1
15 / 12
  9
$CUSTOMPROPERTYTAG
  1
L
  9
$CUSTOMPROPERTY
  1
2.9
  9
$CUSTOMPROPERTYTAG
  1
L1
  9
$CUSTOMPROPERTY
  1
12.7
  9
$CUSTOMPROPERTYTAG
  1
LL1
  9
$CUSTOMPROPERTY
  1
6.8
  9
$CUSTOMPROPERTYTAG
  1
Z
  9
$CUSTOMPROPERTY
  1
10.0
  9
$CUSTOMPROPERTYTAG
  1
Z1
  9
$CUSTOMPROPERTY
  1
1.7
  9
$CUSTOMPROPERTYTAG
  1
COMPANY
  9
$CUSTOMPROPERTY
  1
geberit
  9
$INSBASE
 10
0.0
 20
0.0
 30
0.0
  9
$EXTMIN
 10
1.000000000000000E+20
 20
1.000000000000000E+20
 30
1.000000000000000E+20
  9
$EXTMAX
 10
-1.000000000000000E+20
 20
-1.000000000000000E+20
 30
-1.000000000000000E+20
  9
$LIMMIN
 10
0.0
 20
0.0
  9
$LIMMAX
 10
420.0
 20
297.0
  9
$ORTHOMODE
 70
     0
  9
$REGENMODE
 70
     1
  9
$FILLMODE
 70
     1
  9
$QTEXTMODE
 70
     0
  9
$MIRRTEXT
 70
     1
  9
$LTSCALE
 40
1.0
  9
$ATTMODE
 70
     1
  9
$TEXTSIZE
 40
2.5
  9
$TRACEWID
 40
1.0
  9
$TEXTSTYLE
  7
Standard
  9
$CLAYER
  8
0
  9
$CELTYPE
  6
ByLayer
  9
$CECOLOR
 62
   256
  9
$CELTSCALE
 40
1.0
  9
$DISPSILH
 70
     0
  9
$DIMSCALE
 40
1.0
  9
$DIMASZ
 40
2.5
  9
$DIMEXO
 40
0.625
  9
$DIMDLI
 40
3.75
  9
$DIMRND
 40
0.0
  9
$DIMDLE
 40
0.0
  9
$DIMEXE
 40
1.25
  9
$DIMTP
 40
0.0
  9
$DIMTM
 40
0.0
  9
$DIMTXT
 40
2.5
  9
$DIMCEN
 40
2.5
  9
$DIMTSZ
 40
0.0
  9
$DIMTOL
 70
     0
  9
$DIMLIM
 70
     0
  9
$DIMTIH
 70
     0
  9
$DIMTOH
 70
     0
  9
$DIMSE1
 70
     0
  9
$DIMSE2
 70
     0
  9
$DIMTAD
 70
     1
  9
$DIMZIN
 70
     8
  9
$DIMBLK
  1

  9
$DIMASO
 70
     1
  9
$DIMSHO
 70
     1
  9
$DIMPOST
  1

  9
$DIMAPOST
  1

  9
$DIMALT
 70
     0
  9
$DIMALTD
 70
     3
  9
$DIMALTF
 40
0.03937007874016
  9
$DIMLFAC
 40
1.0
  9
$DIMTOFL
 70
     1
  9
$DIMTVP
 40
0.0
  9
$DIMTIX
 70
     0
  9
$DIMSOXD
 70
     0
  9
$DIMSAH
 70
     0
  9
$DIMBLK1
  1

  9
$DIMBLK2
  1

  9
$DIMSTYLE
  2
ISO-25
  9
$DIMCLRD
 70
     0
  9
$DIMCLRE
 70
     0
  9
$DIMCLRT
 70
     0
  9
$DIMTFAC
 40
1.0
  9
$DIMGAP
 40
0.625
  9
$DIMJUST
 70
     0
  9
$DIMSD1
 70
     0
  9
$DIMSD2
 70
     0
  9
$DIMTOLJ
 70
     0
  9
$DIMTZIN
 70
     8
  9
$DIMALTZ
 70
     0
  9
$DIMALTTZ
 70
     0
  9
$DIMUPT
 70
     0
  9
$DIMDEC
 70
     2
  9
$DIMTDEC
 70
     2
  9
$DIMALTU
 70
     2
  9
$DIMALTTD
 70
     3
  9
$DIMTXSTY
  7
Standard
  9
$DIMAUNIT
 70
     0
  9
$DIMADEC
 70
     0
  9
$DIMALTRND
 40
0.0
  9
$DIMAZIN
 70
     0
  9
$DIMDSEP
 70
    44
  9
$DIMATFIT
 70
     3
  9
$DIMFRAC
 70
     0
  9
$DIMLDRBLK
  1

  9
$DIMLUNIT
 70
     2
  9
$DIMLWD
 70
    -2
  9
$DIMLWE
 70
    -2
  9
$DIMTMOVE
 70
     0
  9
$DIMFXL
 40
1.0
  9
$DIMFXLON
 70
     0
  9
$DIMJOGANG
 40
0.7853981633974483
  9
$DIMTFILL
 70
     0
  9
$DIMTFILLCLR
 70
     0
  9
$DIMARCSYM
 70
     0
  9
$DIMLTYPE
  6

  9
$DIMLTEX1
  6

  9
$DIMLTEX2
  6

  9
$DIMTXTDIRECTION
 70
     0
  9
$LUNITS
 70
     2
  9
$LUPREC
 70
     4
  9
$SKETCHINC
 40
1.0
  9
$FILLETRAD
 40
10.0
  9
$AUNITS
 70
     0
  9
$AUPREC
 70
     0
  9
$MENU
  1
.
  9
$ELEVATION
 40
0.0
  9
$PELEVATION
 40
0.0
  9
$THICKNESS
 40
0.0
  9
$LIMCHECK
 70
     0
  9
$CHAMFERA
 40
0.0
  9
$CHAMFERB
 40
0.0
  9
$CHAMFERC
 40
0.0
  9
$CHAMFERD
 40
0.0
  9
$SKPOLY
 70
     0
  9
$TDCREATE
 40
2458934.670196771
  9
$TDUCREATE
 40
2458934.628530104
  9
$TDUPDATE
 40
2458934.670197002
  9
$TDUUPDATE
 40
2458934.628530336
  9
$TDINDWG
 40
0.0000000116
  9
$TDUSRTIMER
 40
0.0000000116
  9
$USRTIMER
 70
     1
  9
$ANGBASE
 50
0.0
  9
$ANGDIR
 70
     0
  9
$PDMODE
 70
     0
  9
$PDSIZE
 40
0.0
  9
$PLINEWID
 40
0.0
  9
$SPLFRAME
 70
     0
  9
$SPLINETYPE
 70
     6
  9
$SPLINESEGS
 70
     8
  9
$HANDSEED
  5
2EA
  9
$SURFTAB1
 70
     6
  9
$SURFTAB2
 70
     6
  9
$SURFTYPE
 70
     6
  9
$SURFU
 70
     6
  9
$SURFV
 70
     6
  9
$UCSBASE
  2

  9
$UCSNAME
  2

  9
$UCSORG
 10
0.0
 20
0.0
 30
0.0
  9
$UCSXDIR
 10
1.0
 20
0.0
 30
0.0
  9
$UCSYDIR
 10
0.0
 20
1.0
 30
0.0
  9
$UCSORTHOREF
  2

  9
$UCSORTHOVIEW
 70
     0
  9
$UCSORGTOP
 10
0.0
 20
0.0
 30
0.0
  9
$UCSORGBOTTOM
 10
0.0
 20
0.0
 30
0.0
  9
$UCSORGLEFT
 10
0.0
 20
0.0
 30
0.0
  9
$UCSORGRIGHT
 10
0.0
 20
0.0
 30
0.0
  9
$UCSORGFRONT
 10
0.0
 20
0.0
 30
0.0
  9
$UCSORGBACK
 10
0.0
 20
0.0
 30
0.0
  9
$PUCSBASE
  2

  9
$PUCSNAME
  2

  9
$PUCSORG
 10
0.0
 20
0.0
 30
0.0
  9
$PUCSXDIR
 10
1.0
 20
0.0
 30
0.0
  9
$PUCSYDIR
 10
0.0
 20
1.0
 30
0.0
  9
$PUCSORTHOREF
  2

  9
$PUCSORTHOVIEW
 70
     0
  9
$PUCSORGTOP
 10
0.0
 20
0.0
 30
0.0
  9
$PUCSORGBOTTOM
 10
0.0
 20
0.0
 30
0.0
  9
$PUCSORGLEFT
 10
0.0
 20
0.0
 30
0.0
  9
$PUCSORGRIGHT
 10
0.0
 20
0.0
 30
0.0
  9
$PUCSORGFRONT
 10
0.0
 20
0.0
 30
0.0
  9
$PUCSORGBACK
 10
0.0
 20
0.0
 30
0.0
  9
$USERI1
 70
     0
  9
$USERI2
 70
     0
  9
$USERI3
 70
     0
  9
$USERI4
 70
     0
  9
$USERI5
 70
     0
  9
$USERR1
 40
0.0
  9
$USERR2
 40
0.0
  9
$USERR3
 40
0.0
  9
$USERR4
 40
0.0
  9
$USERR5
 40
0.0
  9
$WORLDVIEW
 70
     1
  9
$SHADEDGE
 70
     3
  9
$SHADEDIF
 70
    70
  9
$TILEMODE
 70
     1
  9
$MAXACTVP
 70
    64
  9
$PINSBASE
 10
0.0
 20
0.0
 30
0.0
  9
$PLIMCHECK
 70
     0
  9
$PEXTMIN
 10
1.000000000000000E+20
 20
1.000000000000000E+20
 30
1.000000000000000E+20
  9
$PEXTMAX
 10
-1.000000000000000E+20
 20
-1.000000000000000E+20
 30
-1.000000000000000E+20
  9
$PLIMMIN
 10
0.0
 20
0.0
  9
$PLIMMAX
 10
420.0
 20
297.0
  9
$UNITMODE
 70
     0
  9
$VISRETAIN
 70
     1
  9
$PLINEGEN
 70
     0
  9
$PSLTSCALE
 70
     1
  9
$TREEDEPTH
 70
  3020
  9
$CMLSTYLE
  2
Standard
  9
$CMLJUST
 70
     0
  9
$CMLSCALE
 40
20.0
  9
$PROXYGRAPHICS
 70
     1
  9
$MEASUREMENT
 70
     1
  9
$CELWEIGHT
370
    -1
  9
$ENDCAPS
280
     0
  9
$JOINSTYLE
280
     0
  9
$LWDISPLAY
290
     0
  9
$INSUNITS
 70
     4
  9
$HYPERLINKBASE
  1

  9
$STYLESHEET
  1

  9
$XEDIT
290
     1
  9
$CEPSNTYPE
380
     0
  9
$PSTYLEMODE
290
     1
  9
$FINGERPRINTGUID
  2
{01E90AE5-ECBD-4EDC-B911-D081BF4C2FC3}
  9
$VERSIONGUID
  2
{FAEB1C32-E019-11D5-929B-00C0DF256EC4}
  9
$EXTNAMES
290
     1
  9
$PSVPSCALE
 40
0.0
  9
$OLESTARTUP
290
     0
  9
$SORTENTS
280
   127
  9
$INDEXCTL
280
     0
  9
$HIDETEXT
280
     1
  9
$XCLIPFRAME
280
     2
  9
$HALOGAP
280
     0
  9
$OBSCOLOR
 70
   257
  9
$OBSLTYPE
280
     0
  9
$INTERSECTIONDISPLAY
280
     0
  9
$INTERSECTIONCOLOR
 70
   257
  9
$DIMASSOC
280
     2
  9
$PROJECTNAME
  1

  9
$CAMERADISPLAY
290
     0
  9
$LENSLENGTH
 40
50.0
  9
$CAMERAHEIGHT
 40
0.0
  9
$STEPSPERSEC
 40
2.0
  9
$STEPSIZE
 40
6.0
  9
$3DDWFPREC
 40
2.0
  9
$PSOLWIDTH
 40
5.0
  9
$PSOLHEIGHT
 40
80.0
  9
$LOFTANG1
 40
1.570796326794897
  9
$LOFTANG2
 40
1.570796326794897
  9
$LOFTMAG1
 40
0.0
  9
$LOFTMAG2
 40
0.0
  9
$LOFTPARAM
 70
     7
  9
$LOFTNORMALS
280
     1
  9
$LATITUDE
 40
37.795
  9
$LONGITUDE
 40
-122.394
  9
$NORTHDIRECTION
 40
0.0
  9
$TIMEZONE
 70
 -8000
  9
$LIGHTGLYPHDISPLAY
280
     1
  9
$TILEMODELIGHTSYNCH
280
     1
  9
$CMATERIAL
347
44
  9
$SOLIDHIST
280
     0
  9
$SHOWHIST
280
     1
  9
$DWFFRAME
280
     2
  9
$DGNFRAME
280
     2
  9
$REALWORLDSCALE
290
     1
  9
$INTERFERECOLOR
 62
   256
  9
$CSHADOW
280
     0
  9
$SHADOWPLANELOCATION
 40
0.0
  0
ENDSEC
  0
SECTION
  2
CLASSES
  0
CLASS
  1
ACDBDICTIONARYWDFLT
  2
AcDbDictionaryWithDefault
  3
ObjectDBX Classes
 90
        0
 91
        4
280
     0
281
     0
  0
CLASS
  1
VISUALSTYLE
  2
AcDbVisualStyle
  3
ObjectDBX Classes
 90
     4095
 91
        4
280
     0
281
     0
  0
CLASS
  1
MATERIAL
  2
AcDbMaterial
  3
ObjectDBX Classes
 90
     1153
 91
        4
280
     0
281
     0
  0
CLASS
  1
SCALE
  2
AcDbScale
  3
ObjectDBX Classes
 90
     1153
 91
        4
280
     0
281
     0
  0
CLASS
  1
TABLESTYLE
  2
AcDbTableStyle
  3
ObjectDBX Classes
 90
     4095
 91
        4
280
     0
281
     0
  0
CLASS
  1
MLEADERSTYLE
  2
AcDbMLeaderStyle
  3
ACDB_MLEADERSTYLE_CLASS
 90
     4095
 91
        4
280
     0
281
     0
  0
CLASS
  1
SUN
  2
AcDbSun
  3
SCENEOE
 90
     1153
 91
        4
280
     0
281
     0
  0
CLASS
  1
DICTIONARYVAR
  2
AcDbDictionaryVar
  3
ObjectDBX Classes
 90
        0
 91
        4
280
     0
281
     0
  0
CLASS
  1
CELLSTYLEMAP
  2
AcDbCellStyleMap
  3
ObjectDBX Classes
 90
     1152
 91
        4
280
     0
281
     0
  0
ENDSEC
  0
SECTION
  2
TABLES
  0
TABLE
  2
VPORT
  5
8
330
0
100
AcDbSymbolTable
 70
     1
  0
VPORT
  5
29
330
8
100
AcDbSymbolTableRecord
100
AcDbViewportTableRecord
  2
*Active
 70
     0
 10
0.0
 20
0.0
 11
1.0
 21
1.0
 12
29.25
 22
39.61642813588973
 13
0.0
 23
0.0
 14
10.0
 24
10.0
 15
10.0
 25
10.0
 16
0.0
 26
0.0
 36
1.0
 17
0.0
 27
0.0
 37
0.0
 40
159.0933534529619
 41
1.97493926210992
 42
50.0
 43
0.0
 44
0.0
 50
0.0
 51
0.0
 71
     0
 72
   100
 73
     1
 74
     3
 75
     0
 76
     0
 77
     0
 78
     0
281
     0
 65
     1
110
0.0
120
0.0
130
0.0
111
1.0
121
0.0
131
0.0
112
0.0
122
1.0
132
0.0
 79
     0
146
0.0
348
2F
 60
     3
 61
     5
292
     1
282
     1
141
0.0
142
0.0
 63
   250
361
6D
  0
ENDTAB
  0
TABLE
  2
LTYPE
  5
5
330
0
100
AcDbSymbolTable
 70
     3
  0
LTYPE
  5
14
330
5
100
AcDbSymbolTableRecord
100
AcDbLinetypeTableRecord
  2
ByBlock
 70
     0
  3

 72
    65
 73
     0
 40
0.0
  0
LTYPE
  5
15
330
5
100
AcDbSymbolTableRecord
100
AcDbLinetypeTableRecord
  2
ByLayer
 70
     0
  3

 72
    65
 73
     0
 40
0.0
  0
LTYPE
  5
16
330
5
100
AcDbSymbolTableRecord
100
AcDbLinetypeTableRecord
  2
Continuous
 70
     0
  3
Solid line
 72
    65
 73
     0
 40
0.0
  0
LTYPE
  5
9B
330
5
100
AcDbSymbolTableRecord
100
AcDbLinetypeTableRecord
  2
Dashed
 70
     0
  3

 72
    65
 73
     2
 40
2.0
 49
1.0
 74
     0
 49
-1.0
 74
     0
  0
LTYPE
  5
150
330
5
100
AcDbSymbolTableRecord
100
AcDbLinetypeTableRecord
  2
Center
 70
     0
  3

 72
    65
 73
     4
 40
1.5
 49
0.45
 74
     0
 49
-0.5
 74
     0
 49
0.05
 74
     0
 49
-0.5
 74
     0
  0
ENDTAB
  0
TABLE
  2
LAYER
  5
2
330
0
100
AcDbSymbolTable
 70
     7
  0
LAYER
  5
10
330
2
100
AcDbSymbolTableRecord
100
AcDbLayerTableRecord
  2
0
 70
     0
 62
     7
  6
Continuous
370
    -3
390
F
347
46
348
0
  0
LAYER
  5
6E
330
2
100
AcDbSymbolTableRecord
100
AcDbLayerTableRecord
  2
AM_6
 70
     0
 62
    -2
  6
Continuous
370
    35
390
F
347
46
348
0
  0
LAYER
  5
9C
330
2
100
AcDbSymbolTableRecord
100
AcDbLayerTableRecord
  2
VER
 70
     0
 62
    -6
  6
Dashed
370
    25
390
F
347
46
348
0
  0
LAYER
  5
14B
330
2
100
AcDbSymbolTableRecord
100
AcDbLayerTableRecord
  2
GEW
 70
     0
 62
     3
  6
Continuous
370
    25
390
F
347
46
348
0
  0
LAYER
  5
151
330
2
100
AcDbSymbolTableRecord
100
AcDbLayerTableRecord
  2
MITTE
 70
     0
 62
     7
  6
Center
370
    25
390
F
347
46
348
0
  0
LAYER
  5
166
330
2
100
AcDbSymbolTableRecord
100
AcDbLayerTableRecord
  2
050
 70
     0
 62
     7
  6
Continuous
370
    50
390
F
347
46
348
0
  0
LAYER
  5
2DB
330
2
100
AcDbSymbolTableRecord
100
AcDbLayerTableRecord
  2
2d ConnectionPoints
 70
     0
 62
    -7
  6
Continuous
370
    50
390
F
347
46
348
0
  0
ENDTAB
  0
TABLE
  2
STYLE
  5
3
330
0
100
AcDbSymbolTable
 70
     1
  0
STYLE
  5
11
330
3
100
AcDbSymbolTableRecord
100
AcDbTextStyleTableRecord
  2
Standard
 70
     0
 40
0.0
 41
1.0
 50
0.0
 71
     0
 42
2.5
  3
txt
  4

  0
ENDTAB
  0
TABLE
  2
VIEW
  5
6
330
0
100
AcDbSymbolTable
 70
     0
  0
ENDTAB
  0
TABLE
  2
UCS
  5
7
330
0
100
AcDbSymbolTable
 70
     0
  0
ENDTAB
  0
TABLE
  2
APPID
  5
9
330
0
100
AcDbSymbolTable
 70
     1
  0
APPID
  5
12
330
9
100
AcDbSymbolTableRecord
100
AcDbRegAppTableRecord
  2
ACAD
 70
     0
  0
ENDTAB
  0
TABLE
  2
DIMSTYLE
  5
A
330
0
100
AcDbSymbolTable
 70
     1
100
AcDbDimStyleTable
  0
DIMSTYLE
105
27
330
A
100
AcDbSymbolTableRecord
100
AcDbDimStyleTableRecord
  2
ISO-25
 70
     0
 41
2.5
 42
0.625
 43
3.75
 44
1.25
 73
     0
 74
     0
 77
     1
 78
     8
140
2.5
141
2.5
143
0.03937007874016
147
0.625
171
     3
172
     1
178
     0
271
     2
272
     2
274
     3
278
    44
283
     0
284
     8
340
11
  0
ENDTAB
  0
TABLE
  2
BLOCK_RECORD
  5
1
330
0
100
AcDbSymbolTable
 70
     3
  0
BLOCK_RECORD
  5
1F
330
1
100
AcDbSymbolTableRecord
100
AcDbBlockTableRecord
  2
*Model_Space
340
22
 70
     0
280
     1
281
     0
  0
BLOCK_RECORD
  5
1B
330
1
100
AcDbSymbolTableRecord
100
AcDbBlockTableRecord
  2
*Paper_Space
340
1E
 70
     0
280
     1
281
     0
  0
BLOCK_RECORD
  5
23
330
1
100
AcDbSymbolTableRecord
100
AcDbBlockTableRecord
  2
*Paper_Space0
340
26
 70
     0
280
     1
281
     0
  0
BLOCK_RECORD
  5
80
330
1
100
AcDbSymbolTableRecord
100
AcDbBlockTableRecord
  2
1_24046_2_0_in_24046_0
340
0
102
{BLKREFS
331
81
102
}
 70
     0
280
     1
281
     0
  0
BLOCK_RECORD
  5
1AE
330
1
100
AcDbSymbolTableRecord
100
AcDbBlockTableRecord
  2
2_24046_1_0_in_24046_0
340
0
102
{BLKREFS
331
1AF
102
}
 70
     0
280
     1
281
     0
  0
ENDTAB
  0
ENDSEC
  0
SECTION
  2
BLOCKS
  0
BLOCK
  5
20
330
1F
100
AcDbEntity
  8
0
100
AcDbBlockBegin
  2
*Model_Space
 70
     0
 10
0.0
 20
0.0
 30
0.0
  3
*Model_Space
  1

  0
ENDBLK
  5
21
330
1F
100
AcDbEntity
  8
0
100
AcDbBlockEnd
  0
BLOCK
  5
1C
330
1B
100
AcDbEntity
 67
     1
  8
0
100
AcDbBlockBegin
  2
*Paper_Space
 70
     0
 10
0.0
 20
0.0
 30
0.0
  3
*Paper_Space
  1

  0
ENDBLK
  5
1D
330
1B
100
AcDbEntity
 67
     1
  8
0
100
AcDbBlockEnd
  0
BLOCK
  5
24
330
23
100
AcDbEntity
  8
0
100
AcDbBlockBegin
  2
*Paper_Space0
 70
     0
 10
0.0
 20
0.0
 30
0.0
  3
*Paper_Space0
  1

  0
ENDBLK
  5
25
330
23
100
AcDbEntity
  8
0
100
AcDbBlockEnd
  0
BLOCK
  5
82
330
80
100
AcDbEntity
  8
0
100
AcDbBlockBegin
  2
1_24046_2_0_in_24046_0
 70
     2
 10
0.0
 20
0.0
 30
0.0
  3
1_24046_2_0_in_24046_0
  1

  0
ATTDEF
  5
84
330
80
100
AcDbEntity
  8
AM_6
100
AcDbText
 10
179.769465723032
 20
117.0
 30
0.0
 40
0.5
  1
Geberit Mapress Carbon Steel set of connector T-pieces for inlet and return flow, with union connector for Euro cone - part2
100
AcDbAttributeDefinition
  3

  2
NN
 70
     8
280
     0
  0
ATTDEF
  5
85
330
80
100
AcDbEntity
  8
AM_6
100
AcDbText
 10
179.769465723032
 20
116.5
 30
0.0
 40
0.5
  1

100
AcDbAttributeDefinition
  3

  2
NT
 70
     8
280
     0
  0
ATTDEF
  5
86
330
80
100
AcDbEntity
  8
AM_6
100
AcDbText
 10
179.769465723032
 20
116.0
 30
0.0
 40
0.5
  1
24046_2
100
AcDbAttributeDefinition
  3

  2
NB
 70
     8
280
     0
  0
ATTDEF
  5
87
330
80
100
AcDbEntity
  8
AM_6
100
AcDbText
 10
179.769465723032
 20
115.5
 30
0.0
 40
0.5
  1
$ARTNRT._2
100
AcDbAttributeDefinition
  3

  2
NBSYN
 70
     8
280
     0
  0
ATTDEF
  5
88
330
80
100
AcDbEntity
  8
AM_6
100
AcDbText
 10
179.769465723032
 20
115.0
 30
0.0
 40
0.5
  1
24046
100
AcDbAttributeDefinition
  3

  2
LINA
 70
     8
280
     0
  0
ATTDEF
  5
89
330
80
100
AcDbEntity
  8
AM_6
100
AcDbText
 10
179.769465723032
 20
114.5
 30
0.0
 40
0.5
  1
GEBERIT
100
AcDbAttributeDefinition
  3

  2
CATALOG
 70
     8
280
     0
  0
ATTDEF
  5
8A
330
80
100
AcDbEntity
  8
AM_6
100
AcDbText
 10
179.769465723032
 20
114.0
 30
0.0
 40
0.5
  1
24046
100
AcDbAttributeDefinition
  3

  2
ARTNRT
 70
     8
280
     0
  0
ATTDEF
  5
8B
330
80
100
AcDbEntity
  8
AM_6
100
AcDbText
 10
179.769465723032
 20
113.5
 30
0.0
 40
0.5
  1
5
100
AcDbAttributeDefinition
  3

  2
AD
 70
     8
280
     0
  0
ATTDEF
  5
8C
330
80
100
AcDbEntity
  8
AM_6
100
AcDbText
 10
179.769465723032
 20
113.0
 30
0.0
 40
0.5
  1
18.0
100
AcDbAttributeDefinition
  3

  2
D
 70
     8
280
     0
  0
ATTDEF
  5
8D
330
80
100
AcDbEntity
  8
AM_6
100
AcDbText
 10
179.769465723032
 20
112.5
 30
0.0
 40
0.5
  1
15.0
100
AcDbAttributeDefinition
  3

  2
D1
 70
     8
280
     0
  0
ATTDEF
  5
8E
330
80
100
AcDbEntity
  8
AM_6
100
AcDbText
 10
179.769465723032
 20
112.0
 30
0.0
 40
0.5
  1
15 / 12
100
AcDbAttributeDefinition
  3

  2
DN
 70
     8
280
     0
  0
ATTDEF
  5
8F
330
80
100
AcDbEntity
  8
AM_6
100
AcDbText
 10
179.769465723032
 20
111.5
 30
0.0
 40
0.5
  1
2.9
100
AcDbAttributeDefinition
  3

  2
L
 70
     8
280
     0
  0
ATTDEF
  5
90
330
80
100
AcDbEntity
  8
AM_6
100
AcDbText
 10
179.769465723032
 20
111.0
 30
0.0
 40
0.5
  1
12.7
100
AcDbAttributeDefinition
  3

  2
L1
 70
     8
280
     0
  0
ATTDEF
  5
91
330
80
100
AcDbEntity
  8
AM_6
100
AcDbText
 10
179.769465723032
 20
110.5
 30
0.0
 40
0.5
  1
6.8
100
AcDbAttributeDefinition
  3

  2
LL1
 70
     8
280
     0
  0
ATTDEF
  5
92
330
80
100
AcDbEntity
  8
AM_6
100
AcDbText
 10
179.769465723032
 20
110.0
 30
0.0
 40
0.5
  1
10.0
100
AcDbAttributeDefinition
  3

  2
Z
 70
     8
280
     0
  0
ATTDEF
  5
93
330
80
100
AcDbEntity
  8
AM_6
100
AcDbText
 10
179.769465723032
 20
109.5
 30
0.0
 40
0.5
  1
1.7
100
AcDbAttributeDefinition
  3

  2
Z1
 70
     8
280
     0
  0
ATTDEF
  5
94
330
80
100
AcDbEntity
  8
AM_6
100
AcDbText
 10
179.769465723032
 20
109.0
 30
0.0
 40
0.5
  1
2.150
100
AcDbAttributeDefinition
  3

  2
L1X
 70
     8
280
     0
  0
ATTDEF
  5
95
330
80
100
AcDbEntity
  8
AM_6
100
AcDbText
 10
179.769465723032
 20
108.5
 30
0.0
 40
0.5
  1
2.7
100
AcDbAttributeDefinition
  3

  2
R
 70
     8
280
     0
  0
ATTDEF
  5
96
330
80
100
AcDbEntity
  8
AM_6
100
AcDbText
 10
179.769465723032
 20
108.0
 30
0.0
 40
0.5
  1
20.0
100
AcDbAttributeDefinition
  3

  2
DX
 70
     8
280
     0
  0
ATTDEF
  5
97
330
80
100
AcDbEntity
  8
AM_6
100
AcDbText
 10
179.769465723032
 20
107.5
 30
0.0
 40
0.5
  1
2.25
100
AcDbAttributeDefinition
  3

  2
DXX
 70
     8
280
     0
  0
ATTDEF
  5
98
330
80
100
AcDbEntity
  8
AM_6
100
AcDbText
 10
179.769465723032
 20
107.0
 30
0.0
 40
0.5
  1
3.002
100
AcDbAttributeDefinition
  3

  2
LX
 70
     8
280
     0
  0
ATTDEF
  5
99
330
80
100
AcDbEntity
  8
AM_6
100
AcDbText
 10
179.769465723032
 20
106.5
 30
0.0
 40
0.5
  1
24.0
100
AcDbAttributeDefinition
  3

  2
ANGLE
 70
     8
280
     0
  0
ATTDEF
  5
9A
330
80
100
AcDbEntity
  8
AM_6
100
AcDbText
 10
179.769465723032
 20
106.0
 30
0.0
 40
0.5
  1
geberit
100
AcDbAttributeDefinition
  3

  2
COMPANY
 70
     8
280
     0
  0
LINE
  5
9D
330
80
100
AcDbEntity
  8
VER
100
AcDbLine
 10
37.00200000000001
 20
35.94486655569209
 30
0.0
 11
37.00200000000001
 21
34.05513344428368
 31
0.0
  0
LINE
  5
9E
330
80
100
AcDbEntity
  8
VER
100
AcDbLine
 10
62.998
 20
35.94486655573324
 30
0.0
 11
62.998
 21
34.05513344430263
 31
0.0
  0
LINE
  5
9F
330
80
100
AcDbEntity
  8
VER
100
AcDbLine
 10
73.92019640163284
 20
42.7361620591987
 30
0.0
 11
73.92019640163282
 21
27.26383794080131
 31
0.0
  0
LINE
  5
A0
330
80
100
AcDbEntity
  8
VER
100
AcDbLine
 10
26.07980359835089
 20
42.73616205920676
 30
0.0
 11
26.07980359834967
 21
27.26383794079263
 31
0.0
  0
LINE
  5
A1
330
80
100
AcDbEntity
  8
VER
100
AcDbLine
 10
-20.62891333776218
 20
42.39529973538307
 30
0.0
 11
-20.62891333774947
 21
27.60470026460751
 31
0.0
  0
LINE
  5
A2
330
80
100
AcDbEntity
  8
VER
100
AcDbLine
 10
120.6289133377495
 20
42.39529973539249
 30
0.0
 11
120.6289133377624
 21
27.60470026461709
 31
0.0
  0
LWPOLYLINE
  5
A3
330
80
100
AcDbEntity
  8
VER
100
AcDbPolyline
 90
       19
 70
     0
 43
0.0
 10
50.0
 20
27.62398631585237
 10
50.65366807060744
 20
27.59228969643728
 10
51.30236133250198
 20
27.49744106860473
 10
51.94114283826891
 20
27.34016228768368
 10
52.56515107494251
 20
27.12165034016446
 10
53.16963696305525
 20
26.84356823390883
 10
53.75
 20
26.50803234165594
 10
54.30182327263284
 20
26.11759629414795
 10
54.82090707264905
 20
25.67523154545814
 10
55.30330085889911
 20
25.18430475843117
 10
55.74533332339234
 20
24.64855218234602
 10
56.14364033216744
 20
24.07205121780293
 10
56.49519052838329
 20
23.45918938524289
 10
56.79730840277487
 20
22.81463093326777
 10
57.04769465589431
 20
22.14328134089213
 10
57.24444369716802
 20
21.45024998388593
 10
57.38605814759156
 20
20.74081124933974
 10
57.4714602356881
 20
20.02036439439429
 10
57.5
 20
19.29439245463342
  0
LINE
  5
A4
330
80
100
AcDbEntity
  8
VER
100
AcDbLine
 10
57.5
 20
25.0
 30
0.0
 11
57.5
 21
45.0
 31
0.0
  0
LINE
  5
A5
330
80
100
AcDbEntity
  8
VER
100
AcDbLine
 10
42.5
 20
45.0
 30
0.0
 11
42.5
 21
25.0
 31
0.0
  0
LWPOLYLINE
  5
A6
330
80
100
AcDbEntity
  8
VER
100
AcDbPolyline
 90
       19
 70
     0
 43
0.0
 10
42.5
 20
19.29439245463341
 10
42.52853976431191
 20
20.02036439439429
 10
42.61394185240844
 20
20.74081124933974
 10
42.75555630283199
 20
21.45024998388592
 10
42.95230534410569
 20
22.14328134089213
 10
43.20269159722513
 20
22.81463093326776
 10
43.50480947161671
 20
23.45918938524288
 10
43.85635966783256
 20
24.07205121780293
 10
44.25466667660766
 20
24.64855218234601
 10
44.69669914110089
 20
25.18430475843117
 10
45.17909292735095
 20
25.67523154545814
 10
45.69817672736715
 20
26.11759629414795
 10
46.24999999999999
 20
26.50803234165593
 10
46.83036303694475
 20
26.84356823390882
 10
47.43484892505748
 20
27.12165034016446
 10
48.05885716173108
 20
27.34016228768368
 10
48.69763866749801
 20
27.49744106860473
 10
49.34633192939255
 20
27.59228969643728
 10
49.99999999999999
 20
27.62398631585237
  0
LINE
  5
A7
330
80
100
AcDbEntity
  8
VER
100
AcDbLine
 10
19.57582334957354
 20
44.67238577978743
 30
0.0
 11
19.57582334957353
 21
44.68245836551856
 31
0.0
  0
LINE
  5
A8
330
80
100
AcDbEntity
  8
VER
100
AcDbLine
 10
19.57582334957353
 20
25.31754163448148
 30
0.0
 11
19.57582334957354
 21
25.32761422021257
 31
0.0
  0
LINE
  5
A9
330
80
100
AcDbEntity
  8
VER
100
AcDbLine
 10
80.42417665042647
 20
25.32761422021257
 30
0.0
 11
80.42417665042647
 21
25.31754163448148
 31
0.0
  0
LINE
  5
AA
330
80
100
AcDbEntity
  8
VER
100
AcDbLine
 10
80.42417665042647
 20
44.68245836551856
 30
0.0
 11
80.42417665042647
 21
44.67238577978743
 31
0.0
  0
ELLIPSE
  5
AB
330
80
100
AcDbEntity
  8
VER
100
AcDbEllipse
 10
49.99999999999999
 20
73.36474508437577
 30
0.0
 11
-7.500000000000021
 21
9.184850993605176E-16
 31
0.0
210
0.0
220
0.0
230
1.0
 40
0.3090169943749488
 41
3.141592653589806
 42
6.283185307179574
  0
LINE
  5
AC
330
80
100
AcDbEntity
  8
VER
100
AcDbLine
 10
72.92726945602982
 20
41.86700242979703
 30
0.0
 11
72.92726945602982
 21
28.13299757019655
 31
0.0
  0
LINE
  5
AD
330
80
100
AcDbEntity
  8
VER
100
AcDbLine
 10
79.43046621511363
 20
43.44312599670003
 30
0.0
 11
79.43046621511363
 21
26.55687400329997
 31
0.0
  0
LINE
  5
AE
330
80
100
AcDbEntity
  8
VER
100
AcDbLine
 10
117.1966527196653
 20
43.44247427211437
 30
0.0
 11
117.1966527196653
 21
26.55752572788564
 31
0.0
  0
LINE
  5
AF
330
80
100
AcDbEntity
  8
VER
100
AcDbLine
 10
121.7750064802281
 20
41.53651425751516
 30
0.0
 11
121.7750064802281
 21
28.46348574247691
 31
0.0
  0
LINE
  5
B0
330
80
100
AcDbEntity
  8
VER
100
AcDbLine
 10
-17.19665271966528
 20
43.44247427211437
 30
0.0
 11
-17.19665271966528
 21
26.55752572788564
 31
0.0
  0
LINE
  5
B1
330
80
100
AcDbEntity
  8
VER
100
AcDbLine
 10
-21.77500648022808
 20
41.53651425752309
 30
0.0
 11
-21.77500648022808
 21
28.46348574246649
 31
0.0
  0
LINE
  5
B2
330
80
100
AcDbEntity
  8
VER
100
AcDbLine
 10
27.07273054397015
 20
41.86700242979705
 30
0.0
 11
27.07273054397015
 21
28.13299757020297
 31
0.0
  0
LINE
  5
B3
330
80
100
AcDbEntity
  8
VER
100
AcDbLine
 10
20.56953378488638
 20
43.44312599670004
 30
0.0
 11
20.56953378488638
 21
26.55687400330005
 31
0.0
  0
LINE
  5
B4
330
80
100
AcDbEntity
  8
VER
100
AcDbLine
 10
42.66550335742116
 20
92.0
 30
0.0
 11
57.33449664257885
 21
92.0
 31
0.0
  0
LINE
  5
B5
330
80
100
AcDbEntity
  8
VER
100
AcDbLine
 10
62.0
 20
97.4506900428972
 30
0.0
 11
62.0
 21
108.5493099571028
 31
0.0
  0
LINE
  5
B6
330
80
100
AcDbEntity
  8
VER
100
AcDbLine
 10
38.00000000000001
 20
108.5493099571028
 30
0.0
 11
38.00000000000001
 21
97.4506900428972
 31
0.0
  0
LINE
  5
B7
330
80
100
AcDbEntity
  8
VER
100
AcDbLine
 10
19.62820450381115
 20
43.44097150806707
 30
0.0
 11
19.62820450381116
 21
43.43641031541073
 31
0.0
  0
LINE
  5
B8
330
80
100
AcDbEntity
  8
VER
100
AcDbLine
 10
19.62820450381116
 20
26.56358968458926
 30
0.0
 11
19.62820450381115
 21
26.55902849193293
 31
0.0
  0
LINE
  5
B9
330
80
100
AcDbEntity
  8
VER
100
AcDbLine
 10
80.37179549618885
 20
43.43641031541073
 30
0.0
 11
80.37179549618885
 21
43.44097150806707
 31
0.0
  0
LINE
  5
BA
330
80
100
AcDbEntity
  8
VER
100
AcDbLine
 10
80.37179549618885
 20
26.55902849193293
 30
0.0
 11
80.37179549618885
 21
26.56358968458926
 31
0.0
  0
CIRCLE
  5
BB
330
80
100
AcDbEntity
  8
VER
100
AcDbCircle
 10
50.0
 20
103.0
 30
0.0
 40
11.26360389693211
  0
CIRCLE
  5
BC
330
80
100
AcDbEntity
  8
VER
100
AcDbCircle
 10
50.0
 20
103.0
 30
0.0
 40
11.00000000000001
  0
LINE
  5
BD
330
80
100
AcDbEntity
  8
VER
100
AcDbLine
 10
-50.0
 20
43.99999999999999
 30
0.0
 11
-62.73550845249723
 21
43.99999999999999
 31
0.0
  0
LINE
  5
BE
330
80
100
AcDbEntity
  8
VER
100
AcDbLine
 10
-62.73550845249723
 20
26.00000000000002
 30
0.0
 11
-50.0
 21
26.00000000000002
 31
0.0
  0
LINE
  5
BF
330
80
100
AcDbEntity
  8
VER
100
AcDbLine
 10
162.7355084524972
 20
44.00000000000001
 30
0.0
 11
150.0
 21
44.00000000000001
 31
0.0
  0
LINE
  5
C0
330
80
100
AcDbEntity
  8
VER
100
AcDbLine
 10
150.0
 20
25.99999999999999
 30
0.0
 11
162.7355084524972
 21
25.99999999999999
 31
0.0
  0
ARC
  5
C1
330
80
100
AcDbEntity
  8
VER
100
AcDbCircle
 10
-62.73550845249729
 20
45.49999999999981
 30
0.0
 40
1.499999999999822
100
AcDbArc
 50
234.9999999999984
 51
270.0000000000024
  0
ARC
  5
C2
330
80
100
AcDbEntity
  8
VER
100
AcDbCircle
 10
-62.73550845249724
 20
24.49999999999999
 30
0.0
 40
1.500000000000028
100
AcDbArc
 50
89.99999999999973
 51
124.9999999999987
  0
ARC
  5
C3
330
80
100
AcDbEntity
  8
VER
100
AcDbCircle
 10
162.7355084524974
 20
45.49999999999949
 30
0.0
 40
1.499999999999474
100
AcDbArc
 50
269.9999999999924
 51
305.000000000004
  0
ARC
  5
C4
330
80
100
AcDbEntity
  8
VER
100
AcDbCircle
 10
162.7355084524973
 20
24.50000000000023
 30
0.0
 40
1.499999999999755
100
AcDbArc
 50
54.9999999999977
 51
90.00000000000217
  0
LINE
  5
C5
330
80
100
AcDbEntity
  8
VER
100
AcDbLine
 10
169.6
 20
44.39999999999999
 30
0.0
 11
168.9
 21
44.39999999999999
 31
0.0
  0
LINE
  5
C6
330
80
100
AcDbEntity
  8
VER
100
AcDbLine
 10
168.9
 20
25.6
 30
0.0
 11
169.6
 21
25.6
 31
0.0
  0
LINE
  5
C7
330
80
100
AcDbEntity
  8
VER
100
AcDbLine
 10
-68.89999999999999
 20
44.39999999999998
 30
0.0
 11
-69.59999999999998
 21
44.39999999999998
 31
0.0
  0
LINE
  5
C8
330
80
100
AcDbEntity
  8
VER
100
AcDbLine
 10
-69.59999999999998
 20
25.60000000000002
 30
0.0
 11
-68.89999999999999
 21
25.60000000000002
 31
0.0
  0
LWPOLYLINE
  5
C9
330
80
100
AcDbEntity
  8
VER
100
AcDbPolyline
 90
       20
 70
     0
 43
0.0
 10
122.2877184315275
 20
41.24123499785534
 10
124.0261842919396
 20
40.32101312348833
 10
125.9464476192113
 20
39.29938502766007
 10
127.5556037408262
 20
38.44862182993355
 10
129.2053144254137
 20
37.50667139119726
 10
130.7914396978535
 20
36.38862476209263
 10
131.2878547857422
 20
35.93078878091868
 10
131.6689215088846
 20
35.36030771973113
 10
131.7389602373221
 20
35.04325045461815
 10
131.6969014463285
 20
34.71994693556245
 10
131.5026233622273
 20
34.33452344918445
 10
131.1396624888039
 20
33.91516515968097
 10
130.719070945406
 20
33.55335745578358
 10
129.5589139976141
 20
32.73313426383108
 10
128.3556498411844
 20
32.01699000806965
 10
127.1607333251563
 20
31.35878452858737
 10
125.5294167076871
 20
30.47573510831893
 10
123.9839451150856
 20
29.65573712031488
 10
122.5633439656367
 20
28.90513294412109
 10
122.2877184315275
 20
28.75876500214466
  0
LWPOLYLINE
  5
CA
330
80
100
AcDbEntity
  8
VER
100
AcDbPolyline
 90
       20
 70
     0
 43
0.0
 10
-22.28771843152753
 20
28.75876500214466
 10
-24.0261842919396
 20
29.67898687651167
 10
-25.94644761921125
 20
30.70061497233992
 10
-27.55560374082618
 20
31.55137817006645
 10
-29.20531442541367
 20
32.49332860880274
 10
-30.79143969785353
 20
33.61137523790736
 10
-31.28785478574216
 20
34.06921121908133
 10
-31.66892150888456
 20
34.63969228026887
 10
-31.7389602373221
 20
34.95674954538186
 10
-31.69690144632851
 20
35.28005306443754
 10
-31.50262336222733
 20
35.66547655081552
 10
-31.13966248880392
 20
36.08483484031899
 10
-30.71907094540606
 20
36.44664254421637
 10
-29.55891399761423
 20
37.26686573616885
 10
-28.35564984118456
 20
37.98300999193026
 10
-27.16073332515657
 20
38.64121547141252
 10
-25.52941670768738
 20
39.52426489168097
 10
-23.9839451150858
 20
40.34426287968502
 10
-22.56334396563686
 20
41.09486705587882
 10
-22.28771843152755
 20
41.24123499785536
  0
LINE
  5
CB
330
80
100
AcDbEntity
  8
VER
100
AcDbLine
 10
-68.89999999999999
 20
25.60000000000002
 30
0.0
 11
-68.89999999999999
 21
44.39999999999998
 31
0.0
  0
LINE
  5
CC
330
80
100
AcDbEntity
  8
VER
100
AcDbLine
 10
-68.89999999999999
 20
25.60000000000002
 30
0.0
 11
-68.49999999999999
 21
25.20000000000003
 31
0.0
  0
LINE
  5
CD
330
80
100
AcDbEntity
  8
VER
100
AcDbLine
 10
-68.49999999999999
 20
44.79999999999996
 30
0.0
 11
-68.89999999999999
 21
44.39999999999998
 31
0.0
  0
LINE
  5
CE
330
80
100
AcDbEntity
  8
VER
100
AcDbLine
 10
-69.59999999999998
 20
25.60000000000002
 30
0.0
 11
-69.59999999999998
 21
44.39999999999998
 31
0.0
  0
LINE
  5
CF
330
80
100
AcDbEntity
  8
VER
100
AcDbLine
 10
-69.59999999999998
 20
44.39999999999998
 30
0.0
 11
-69.99999999999999
 21
44.79999999999996
 31
0.0
  0
LINE
  5
D0
330
80
100
AcDbEntity
  8
VER
100
AcDbLine
 10
-69.99999999999999
 20
25.20000000000003
 30
0.0
 11
-69.59999999999998
 21
25.60000000000002
 31
0.0
  0
LINE
  5
D1
330
80
100
AcDbEntity
  8
VER
100
AcDbLine
 10
168.9
 20
25.6
 30
0.0
 11
168.9
 21
44.39999999999999
 31
0.0
  0
LINE
  5
D2
330
80
100
AcDbEntity
  8
VER
100
AcDbLine
 10
168.9
 20
44.39999999999999
 30
0.0
 11
168.5
 21
44.79999999999999
 31
0.0
  0
LINE
  5
D3
330
80
100
AcDbEntity
  8
VER
100
AcDbLine
 10
168.5
 20
25.2
 30
0.0
 11
168.9
 21
25.6
 31
0.0
  0
LINE
  5
D4
330
80
100
AcDbEntity
  8
VER
100
AcDbLine
 10
169.6
 20
25.6
 30
0.0
 11
169.6
 21
44.39999999999999
 31
0.0
  0
LINE
  5
D5
330
80
100
AcDbEntity
  8
VER
100
AcDbLine
 10
169.6
 20
25.6
 30
0.0
 11
170.0
 21
25.2
 31
0.0
  0
LINE
  5
D6
330
80
100
AcDbEntity
  8
VER
100
AcDbLine
 10
170.0
 20
44.79999999999999
 30
0.0
 11
169.6
 21
44.39999999999999
 31
0.0
  0
LWPOLYLINE
  5
D7
330
80
100
AcDbEntity
  8
VER
100
AcDbPolyline
 90
        3
 70
     0
 43
0.0
 10
75.42392843728504
 20
42.70069527174061
 10
74.16659344642402
 20
42.35416027597444
 10
72.92726945602982
 20
41.86700242979703
  0
LWPOLYLINE
  5
D8
330
80
100
AcDbEntity
  8
VER
100
AcDbPolyline
 90
        3
 70
     0
 43
0.0
 10
72.92726945602982
 20
28.13299757019655
 10
74.15795608562983
 20
27.64868029909546
 10
75.42392843728503
 20
27.29930472825939
  0
LWPOLYLINE
  5
D9
330
80
100
AcDbEntity
  8
VER
100
AcDbPolyline
 90
       10
 70
     0
 43
0.0
 10
72.92726945602982
 20
28.13299757019655
 10
71.94370506727836
 20
28.59904810008347
 10
70.90970683252401
 20
29.10551106658781
 10
69.80321359051558
 20
29.66527625929892
 10
68.66399713914775
 20
30.26279490278777
 10
66.37492689438727
 20
31.55185968307577
 10
65.20141719725781
 20
32.28778533572632
 10
64.07748995800922
 20
33.11515501389106
 10
63.49046023192719
 20
33.65473283545535
 10
62.998
 20
34.31102845238571
  0
LWPOLYLINE
  5
DA
330
80
100
AcDbEntity
  8
VER
100
AcDbPolyline
 90
       10
 70
     0
 43
0.0
 10
62.998
 20
35.68897154761954
 10
63.42908731845852
 20
36.283699027944
 10
63.9668759624934
 20
36.79214776465463
 10
65.13848568732105
 20
37.67964938563673
 10
66.37668282502155
 20
38.45918910681338
 10
67.62688026362022
 20
39.17089962694434
 10
69.21600651840178
 20
40.0310270463658
 10
70.75959997637239
 20
40.82090754690178
 10
72.2193117401977
 20
41.53312581178756
 10
72.92726945602982
 20
41.86700242979703
  0
LWPOLYLINE
  5
DB
330
80
100
AcDbEntity
  8
VER
100
AcDbPolyline
 90
        3
 70
     0
 43
0.0
 10
27.07273054397015
 20
41.86700242979705
 10
25.84204391437095
 20
42.35131970090428
 10
24.57607156271497
 20
42.70069527174061
  0
LWPOLYLINE
  5
DC
330
80
100
AcDbEntity
  8
VER
100
AcDbPolyline
 90
       10
 70
     0
 43
0.0
 10
27.07273054397015
 20
41.86700242979705
 10
28.05629493272203
 20
41.40095189991302
 10
29.09029316747683
 20
40.89448893341176
 10
30.19678640948483
 20
40.33472374070084
 10
31.33600286085224
 20
39.73720509721223
 10
33.62507310561272
 20
38.44814031692423
 10
34.7985828027422
 20
37.71221466427367
 10
35.92251004199078
 20
36.88484498610894
 10
36.50953976806954
 20
36.34526716454806
 10
37.00200000000001
 20
35.68897154762907
  0
LWPOLYLINE
  5
DD
330
80
100
AcDbEntity
  8
VER
100
AcDbPolyline
 90
       10
 70
     0
 43
0.0
 10
37.00200000000001
 20
34.31102845237084
 10
36.57091268154041
 20
33.71630097205203
 10
36.03312403750687
 20
33.20785223534557
 10
34.86151431267936
 20
32.32035061436356
 10
33.62331717497904
 20
31.54081089318697
 10
32.37311973638052
 20
30.82910037305609
 10
30.78399348159889
 20
29.96897295363457
 10
29.24040002362825
 20
29.17909245309855
 10
27.78068825980287
 20
28.46687418821271
 10
27.07273054397015
 20
28.13299757020297
  0
LWPOLYLINE
  5
DE
330
80
100
AcDbEntity
  8
VER
100
AcDbPolyline
 90
        3
 70
     0
 43
0.0
 10
24.57607156271496
 20
27.2993047282594
 10
25.83340655357597
 20
27.64583972402557
 10
27.07273054397015
 20
28.13299757020297
  0
LWPOLYLINE
  5
DF
330
80
100
AcDbEntity
  8
VER
100
AcDbPolyline
 90
        7
 70
     0
 43
0.0
 10
-28.87239481387106
 20
32.30906991997926
 10
-28.16755420937701
 20
31.87241713946324
 10
-26.93583520247291
 20
31.17729477917632
 10
-25.10196515593303
 20
30.16002118512099
 10
-23.35942935897649
 20
29.20947671690559
 10
-21.75351590197523
 20
28.32950182214031
 10
-21.62972130929316
 20
28.26086370047457
  0
LWPOLYLINE
  5
E0
330
80
100
AcDbEntity
  8
VER
100
AcDbPolyline
 90
        7
 70
     0
 43
0.0
 10
-21.62972130929316
 20
41.73913629952544
 10
-23.37730022593606
 20
40.77917786636961
 10
-25.28125786736465
 20
39.73935569084485
 10
-26.62024854897789
 20
39.02165552293869
 10
-28.00200199285619
 20
38.26206179718429
 10
-29.3718375136867
 20
37.41502205164954
 10
-29.71960916811302
 20
37.14645484601321
  0
LWPOLYLINE
  5
E1
330
80
100
AcDbEntity
  8
VER
100
AcDbPolyline
 90
        7
 70
     0
 43
0.0
 10
128.8723948138718
 20
37.69093008002034
 10
128.167554209377
 20
38.12758286053679
 10
126.9358352024728
 20
38.82270522082375
 10
125.101965155933
 20
39.83997881487906
 10
123.3594293589764
 20
40.79052328309444
 10
121.7535159019752
 20
41.67049817785973
 10
121.6297213092932
 20
41.73913629952543
  0
LWPOLYLINE
  5
E2
330
80
100
AcDbEntity
  8
VER
100
AcDbPolyline
 90
        7
 70
     0
 43
0.0
 10
121.6297213092932
 20
28.26086370047456
 10
123.3773002259361
 20
29.22082213363038
 10
125.2812578673647
 20
30.26064430915515
 10
126.6202485489779
 20
30.97834447706131
 10
128.0020019928562
 20
31.73793820281569
 10
129.3718375136868
 20
32.58497794835044
 10
129.7196091681143
 20
32.85354515398758
  0
LWPOLYLINE
  5
E3
330
80
100
AcDbEntity
  8
VER
100
AcDbPolyline
 90
        7
 70
     0
 43
0.0
 10
57.0
 20
38.75477860039626
 10
57.16954729885801
 20
37.52799593610203
 10
57.25546092730394
 20
36.19246931308891
 10
57.27680332269713
 20
34.8630493361477
 10
57.24231861370119
 20
33.50069061217651
 10
57.15805337922429
 20
32.3563843027835
 10
57.0
 20
31.24522139960374
  0
LWPOLYLINE
  5
E4
330
80
100
AcDbEntity
  8
VER
100
AcDbPolyline
 90
        7
 70
     0
 43
0.0
 10
43.0
 20
31.24522139960374
 10
42.83045270114201
 20
32.47200406389776
 10
42.74453907269609
 20
33.80753068691062
 10
42.72319667730287
 20
35.13695066385182
 10
42.7576813862988
 20
36.49930938782302
 10
42.84194662077569
 20
37.64361569721626
 10
43.0
 20
38.75477860039626
  0
LINE
  5
E5
330
80
100
AcDbEntity
  8
VER
100
AcDbLine
 10
20.07644458052135
 20
26.5
 30
0.0
 11
79.8851320627497
 21
26.5
 31
0.0
  0
LINE
  5
E6
330
80
100
AcDbEntity
  8
VER
100
AcDbLine
 10
-63.59587310702379
 20
25.72872806643351
 30
0.0
 11
-63.59587310702379
 21
44.27127193356649
 31
0.0
  0
LINE
  5
E7
330
80
100
AcDbEntity
  8
VER
100
AcDbLine
 10
-63.59587310702379
 20
44.27127193356649
 30
0.0
 11
-66.61170827637874
 21
46.38298245314677
 31
0.0
  0
LINE
  5
E8
330
80
100
AcDbEntity
  8
VER
100
AcDbLine
 10
-66.61170827637874
 20
23.61701754685323
 30
0.0
 11
-63.59587310702379
 21
25.72872806643351
 31
0.0
  0
LINE
  5
E9
330
80
100
AcDbEntity
  8
VER
100
AcDbLine
 10
163.5958731070238
 20
25.72872806643348
 30
0.0
 11
163.5958731070238
 21
44.27127193356652
 31
0.0
  0
LINE
  5
EA
330
80
100
AcDbEntity
  8
VER
100
AcDbLine
 10
163.5958731070238
 20
25.72872806643348
 30
0.0
 11
166.6117082763787
 21
23.61701754685319
 31
0.0
  0
LINE
  5
EB
330
80
100
AcDbEntity
  8
VER
100
AcDbLine
 10
166.6117082763787
 20
46.38298245314682
 30
0.0
 11
163.5958731070238
 21
44.27127193356652
 31
0.0
  0
LINE
  5
EC
330
80
100
AcDbEntity
  8
VER
100
AcDbLine
 10
-66.61170827637874
 20
23.61701754685323
 30
0.0
 11
-66.61170827637874
 21
46.38298245314677
 31
0.0
  0
LINE
  5
ED
330
80
100
AcDbEntity
  8
VER
100
AcDbLine
 10
-68.5
 20
24.60000000000002
 30
0.0
 11
-68.5
 21
45.39999999999998
 31
0.0
  0
ARC
  5
EE
330
80
100
AcDbEntity
  8
VER
100
AcDbCircle
 10
-67.30000000000001
 20
45.39999999999999
 30
0.0
 40
1.200000000000006
100
AcDbArc
 50
54.99999999999896
 51
180.0000000000003
  0
ARC
  5
EF
330
80
100
AcDbEntity
  8
VER
100
AcDbCircle
 10
-67.30000000000001
 20
24.60000000000001
 30
0.0
 40
1.199999999999989
100
AcDbArc
 50
179.9999999999995
 51
305.000000000001
  0
LINE
  5
F0
330
80
100
AcDbEntity
  8
VER
100
AcDbLine
 10
168.5
 20
24.6
 30
0.0
 11
168.5
 21
45.4
 31
0.0
  0
LINE
  5
F1
330
80
100
AcDbEntity
  8
VER
100
AcDbLine
 10
166.6117082763787
 20
23.61701754685319
 30
0.0
 11
166.6117082763787
 21
46.38298245314682
 31
0.0
  0
ARC
  5
F2
330
80
100
AcDbEntity
  8
VER
100
AcDbCircle
 10
167.3
 20
45.40000000000003
 30
0.0
 40
1.199999999999989
100
AcDbArc
 50
359.9999999999983
 51
125.0000000000009
  0
ARC
  5
F3
330
80
100
AcDbEntity
  8
VER
100
AcDbCircle
 10
167.3
 20
24.59999999999998
 30
0.0
 40
1.199999999999984
100
AcDbArc
 50
235.0000000000007
 51
0.0000000000010178
  0
LWPOLYLINE
  5
F4
330
80
100
AcDbEntity
  8
VER
100
AcDbPolyline
 90
        3
 70
     0
 43
0.0
 10
73.92019640163284
 20
42.7361620591987
 10
74.93492362621909
 20
43.18152387538578
 10
75.97513267589078
 20
43.53548991918856
  0
LWPOLYLINE
  5
F5
330
80
100
AcDbEntity
  8
VER
100
AcDbPolyline
 90
       11
 70
     0
 43
0.0
 10
73.92019640163284
 20
42.7361620591987
 10
72.81414544941588
 20
42.18191386487559
 10
71.64940479797433
 20
41.5865113396921
 10
70.40115830371748
 20
40.93403651634465
 10
69.11475370202531
 20
40.24215020040386
 10
67.8295665714836
 20
39.52529534584473
 10
66.53559684092302
 20
38.76355580614337
 10
65.21321553964627
 20
37.9218425651041
 10
63.95389202838405
 20
36.97135950072572
 10
63.44473598087143
 20
36.49519585988855
 10
62.998
 20
35.94486655573324
  0
LWPOLYLINE
  5
F6
330
80
100
AcDbEntity
  8
VER
100
AcDbPolyline
 90
       10
 70
     0
 43
0.0
 10
62.998
 20
34.05513344430263
 10
63.40453798485031
 20
33.5452524141157
 10
63.87815913594151
 20
33.09403511437772
 10
64.95526768036783
 20
32.26151908804407
 10
67.10556197783801
 20
30.89505556436142
 10
69.30467291206661
 20
29.65427719677665
 10
70.5068426604443
 20
29.0100925611345
 10
71.67455018073642
 20
28.40050434002724
 10
72.82615859990925
 20
27.81201041999579
 10
73.92019640163282
 20
27.26383794080131
  0
LWPOLYLINE
  5
F7
330
80
100
AcDbEntity
  8
VER
100
AcDbPolyline
 90
        3
 70
     0
 43
0.0
 10
75.97513267589078
 20
26.46451008081144
 10
74.93970997146802
 20
26.81662867321927
 10
73.92019640163282
 20
27.26383794080131
  0
LWPOLYLINE
  5
F8
330
80
100
AcDbEntity
  8
VER
100
AcDbPolyline
 90
       11
 70
     0
 43
0.0
 10
26.07980359834967
 20
27.26383794079263
 10
27.18585455057
 20
27.81808613511728
 10
28.35059520201552
 20
28.41348866030267
 10
29.59884169627723
 20
29.06596348365258
 10
30.88524629797466
 20
29.75784979959614
 10
32.17043342851638
 20
30.47470465415527
 10
33.46440315907696
 20
31.23644419385663
 10
34.78678446035369
 20
32.07815743489589
 10
36.04610797161591
 20
33.02864049927427
 10
36.55526401913239
 20
33.50480414011542
 10
37.00200000000001
 20
34.05513344428368
  0
LWPOLYLINE
  5
F9
330
80
100
AcDbEntity
  8
VER
100
AcDbPolyline
 90
       10
 70
     0
 43
0.0
 10
37.00200000000001
 20
35.94486655569209
 10
36.59546201515099
 20
36.45474758588104
 10
36.12184086406036
 20
36.90596488562063
 10
35.04473231963196
 20
37.73848091195605
 10
32.89443802216159
 20
39.10494443563878
 10
30.69532708793286
 20
40.34572280322363
 10
29.49315733955081
 20
40.98990743886807
 10
28.32544981925465
 20
41.59949565997735
 10
27.17384140007786
 20
42.18798958001073
 10
26.07980359835089
 20
42.73616205920676
  0
LWPOLYLINE
  5
FA
330
80
100
AcDbEntity
  8
VER
100
AcDbPolyline
 90
        3
 70
     0
 43
0.0
 10
24.02486732410923
 20
43.53548991918854
 10
25.06029002852368
 20
43.18337132678392
 10
26.07980359835089
 20
42.73616205920676
  0
LWPOLYLINE
  5
FB
330
80
100
AcDbEntity
  8
VER
100
AcDbPolyline
 90
        3
 70
     0
 43
0.0
 10
26.07980359834967
 20
27.26383794079263
 10
25.06507637377186
 20
26.81847612461075
 10
24.02486732410923
 20
26.46451008081145
  0
LINE
  5
FC
330
80
100
AcDbEntity
  8
VER
100
AcDbLine
 10
117.1966527196653
 20
43.44247427211437
 30
0.0
 11
80.37179549618885
 21
43.44097150806707
 31
0.0
  0
LWPOLYLINE
  5
FD
330
80
100
AcDbEntity
  8
VER
100
AcDbPolyline
 90
        5
 70
     0
 43
0.0
 10
121.7750064802281
 20
41.53651425751516
 10
120.6726287920229
 20
42.18367785136547
 10
119.551198718416
 20
42.74419336580722
 10
118.3843426374429
 20
43.18091276571598
 10
117.1966527196653
 20
43.44247427211437
  0
LINE
  5
FE
330
80
100
AcDbEntity
  8
VER
100
AcDbLine
 10
121.7750064802281
 20
41.53651425751516
 30
0.0
 11
122.2877184315275
 21
41.24123499785534
 31
0.0
  0
ELLIPSE
  5
FF
330
80
100
AcDbEntity
  8
VER
100
AcDbEllipse
 10
124.6347328615161
 20
34.99999999999998
 30
0.0
 11
9.658229070795129E-14
 21
-8.500000000000028
 31
0.0
210
0.0
220
0.0
230
1.0
 40
0.4067366430758056
 41
5.536969300598209
 42
10.17099396735072
  0
LINE
  5
100
330
80
100
AcDbEntity
  8
VER
100
AcDbLine
 10
122.2877184315275
 20
28.75876500214466
 30
0.0
 11
121.7750064802281
 21
28.46348574247691
 31
0.0
  0
LWPOLYLINE
  5
101
330
80
100
AcDbEntity
  8
VER
100
AcDbPolyline
 90
        5
 70
     0
 43
0.0
 10
117.1966527196653
 20
26.55752572788564
 10
118.3588927735205
 20
26.81142096834349
 10
119.5012734299123
 20
27.23383036056747
 10
120.6481451833251
 20
27.80290996289531
 10
121.7750064802281
 20
28.46348574247691
  0
LINE
  5
102
330
80
100
AcDbEntity
  8
VER
100
AcDbLine
 10
80.37179549618885
 20
26.55902849193293
 30
0.0
 11
117.1966527196653
 21
26.55752572788564
 31
0.0
  0
ELLIPSE
  5
103
330
80
100
AcDbEntity
  8
VER
100
AcDbEllipse
 10
-24.63473286151602
 20
35.00000000000005
 30
0.0
 11
-3.254283394087926E-15
 21
8.50000000000005
 31
0.0
210
0.0
220
0.0
230
1.0
 40
0.4067366430758009
 41
5.536969300598248
 42
10.17099396735071
  0
LINE
  5
104
330
80
100
AcDbEntity
  8
VER
100
AcDbLine
 10
-22.28771843152755
 20
41.24123499785536
 30
0.0
 11
-21.77500648022808
 21
41.53651425752309
 31
0.0
  0
LWPOLYLINE
  5
105
330
80
100
AcDbEntity
  8
VER
100
AcDbPolyline
 90
        5
 70
     0
 43
0.0
 10
-17.19665271966528
 20
43.44247427211437
 10
-18.35889277352051
 20
43.1885790316565
 10
-19.50127342991227
 20
42.76616963943253
 10
-20.64814518332507
 20
42.19709003710469
 10
-21.77500648022808
 20
41.53651425752309
  0
LINE
  5
106
330
80
100
AcDbEntity
  8
VER
100
AcDbLine
 10
19.62820450381115
 20
43.44097150806707
 30
0.0
 11
-17.19665271966528
 21
43.44247427211437
 31
0.0
  0
LINE
  5
107
330
80
100
AcDbEntity
  8
VER
100
AcDbLine
 10
-17.19665271966528
 20
26.55752572788564
 30
0.0
 11
19.62820450381115
 21
26.55902849193293
 31
0.0
  0
LWPOLYLINE
  5
108
330
80
100
AcDbEntity
  8
VER
100
AcDbPolyline
 90
        5
 70
     0
 43
0.0
 10
-21.77500648022808
 20
28.46348574246649
 10
-20.67262879202165
 20
27.81632214862523
 10
-19.55119871841374
 20
27.25580663419177
 10
-18.38434263744171
 20
26.81908723428367
 10
-17.19665271966528
 20
26.55752572788564
  0
LINE
  5
109
330
80
100
AcDbEntity
  8
VER
100
AcDbLine
 10
-21.77500648022808
 20
28.46348574246649
 30
0.0
 11
-22.28771843152753
 21
28.75876500214466
 31
0.0
  0
LWPOLYLINE
  5
10A
330
80
100
AcDbEntity
  8
VER
100
AcDbPolyline
 90
        3
 70
     0
 43
0.0
 10
19.62820450381115
 20
43.44097150806707
 10
19.65402786959507
 20
43.49600680582756
 10
19.66377403271602
 20
43.49997969741526
  0
LWPOLYLINE
  5
10B
330
80
100
AcDbEntity
  8
VER
100
AcDbPolyline
 90
        3
 70
     0
 43
0.0
 10
19.66377403271603
 20
26.50002030258474
 10
19.63790148816227
 20
26.53074610877059
 10
19.62820450381115
 20
26.55902849193294
  0
LWPOLYLINE
  5
10C
330
80
100
AcDbEntity
  8
VER
100
AcDbPolyline
 90
        3
 70
     0
 43
0.0
 10
80.33622596728394
 20
43.49997969741526
 10
80.36209851183769
 20
43.46925389122951
 10
80.37179549618884
 20
43.44097150806707
  0
LWPOLYLINE
  5
10D
330
80
100
AcDbEntity
  8
VER
100
AcDbPolyline
 90
        3
 70
     0
 43
0.0
 10
80.37179549618884
 20
26.55902849193294
 10
80.34597213040493
 20
26.50399319417244
 10
80.33622596728372
 20
26.50002030258476
  0
LWPOLYLINE
  5
10E
330
80
100
AcDbEntity
  8
VER
100
AcDbPolyline
 90
        4
 70
     0
 43
0.0
 10
79.43046621511363
 20
43.44312599670003
 10
77.99593661331893
 20
43.24729467901377
 10
76.56617464344266
 20
42.95973462699656
 10
75.42392843728504
 20
42.70069527174061
  0
LINE
  5
10F
330
80
100
AcDbEntity
  8
VER
100
AcDbLine
 10
80.37179549618885
 20
43.43641031541073
 30
0.0
 11
79.43046621511363
 21
43.44312599670003
 31
0.0
  0
ELLIPSE
  5
110
330
80
100
AcDbEntity
  8
VER
100
AcDbEllipse
 10
80.33557760308459
 20
35.00000000000829
 30
0.0
 11
6.989290916783949E-12
 21
-8.499999999991701
 31
0.0
210
0.0
220
0.0
230
1.0
 40
0.0348994967024566
 41
3.019195873199902
 42
3.13940700021766
  0
LINE
  5
111
330
80
100
AcDbEntity
  8
VER
100
AcDbLine
 10
150.0
 20
43.5
 30
0.0
 11
79.998
 21
43.49999256499159
 31
0.0
  0
LINE
  5
112
330
80
100
AcDbEntity
  8
VER
100
AcDbLine
 10
79.998
 20
26.5000074350084
 30
0.0
 11
150.0
 21
26.5
 31
0.0
  0
ELLIPSE
  5
113
330
80
100
AcDbEntity
  8
VER
100
AcDbEllipse
 10
80.33557760308463
 20
34.99999999999582
 30
0.0
 11
-7.083007964934506E-12
 21
-8.499999999995794
 31
0.0
210
0.0
220
0.0
230
1.0
 40
0.0348994967024465
 41
0.0021856533716349
 42
0.1223967803900386
  0
LINE
  5
114
330
80
100
AcDbEntity
  8
VER
100
AcDbLine
 10
79.43046621511363
 20
26.55687400329997
 30
0.0
 11
80.37179549618885
 21
26.56358968458926
 31
0.0
  0
LWPOLYLINE
  5
115
330
80
100
AcDbEntity
  8
VER
100
AcDbPolyline
 90
        3
 70
     0
 43
0.0
 10
75.42392843728503
 20
27.29930472825939
 10
77.41856260760368
 20
26.86067285864803
 10
79.43046621511363
 20
26.55687400329997
  0
ELLIPSE
  5
116
330
80
100
AcDbEntity
  8
VER
100
AcDbEllipse
 10
74.19316467061421
 20
34.99999999999997
 30
0.0
 11
-6.195755720852157E-14
 21
-8.500000000000025
 31
0.0
210
0.0
220
0.0
230
1.0
 40
0.3420201433256733
 41
2.704447932788523
 42
6.720330027980888
  0
LINE
  5
117
330
80
100
AcDbEntity
  8
VER
100
AcDbLine
 10
20.56953378488638
 20
43.44312599670004
 30
0.0
 11
19.62820450381116
 21
43.43641031541073
 31
0.0
  0
LWPOLYLINE
  5
118
330
80
100
AcDbEntity
  8
VER
100
AcDbPolyline
 90
        3
 70
     0
 43
0.0
 10
24.57607156271497
 20
42.70069527174061
 10
22.58143739239633
 20
43.13932714135196
 10
20.56953378488638
 20
43.44312599670004
  0
ELLIPSE
  5
119
330
80
100
AcDbEntity
  8
VER
100
AcDbEllipse
 10
25.80683532938589
 20
35.00000000000005
 30
0.0
 11
9.677681112463926E-14
 21
8.50000000000005
 31
0.0
210
0.0
220
0.0
230
1.0
 40
0.3420201433256749
 41
2.704447932788508
 42
6.720330027980928
  0
LWPOLYLINE
  5
11A
330
80
100
AcDbEntity
  8
VER
100
AcDbPolyline
 90
        4
 70
     0
 43
0.0
 10
20.56953378488638
 20
26.55687400330005
 10
22.00406338668108
 20
26.75270532098623
 10
23.43382535655734
 20
27.04026537300344
 10
24.57607156271496
 20
27.2993047282594
  0
LINE
  5
11B
330
80
100
AcDbEntity
  8
VER
100
AcDbLine
 10
19.62820450381116
 20
26.56358968458926
 30
0.0
 11
20.56953378488638
 21
26.55687400330005
 31
0.0
  0
ELLIPSE
  5
11C
330
80
100
AcDbEntity
  8
VER
100
AcDbEllipse
 10
19.66442239692136
 20
35.00000000000095
 30
0.0
 11
-1.073398256830397E-12
 21
8.500000000000952
 31
0.0
210
0.0
220
0.0
230
1.0
 40
0.0348994967024934
 41
3.019195873199933
 42
3.139407000217439
  0
LINE
  5
11D
330
80
100
AcDbEntity
  8
VER
100
AcDbLine
 10
-50.0
 20
26.5
 30
0.0
 11
20.002
 21
26.5000074350084
 31
0.0
  0
LINE
  5
11E
330
80
100
AcDbEntity
  8
VER
100
AcDbLine
 10
20.002
 20
43.49999256499161
 30
0.0
 11
-50.0
 21
43.5
 31
0.0
  0
ELLIPSE
  5
11F
330
80
100
AcDbEntity
  8
VER
100
AcDbEllipse
 10
19.66442239692231
 20
35.00000000000651
 30
0.0
 11
1.175379816850391E-13
 21
8.499999999993491
 31
0.0
210
0.0
220
0.0
230
1.0
 40
0.034899496702499
 41
0.0021856533723552
 42
0.1223967803899361
  0
LINE
  5
120
330
80
100
AcDbEntity
  8
VER
100
AcDbLine
 10
79.92355541947886
 20
43.5
 30
0.0
 11
20.11486793725047
 21
43.5
 31
0.0
  0
LWPOLYLINE
  5
121
330
80
100
AcDbEntity
  8
VER
100
AcDbPolyline
 90
       10
 70
     0
 43
0.0
 10
57.0
 20
41.46903102002099
 10
57.27573484466081
 20
40.27482614852997
 10
57.41546215992596
 20
38.94860156275878
 10
57.47382989594034
 20
37.53381610349282
 10
57.4912243719371
 20
36.06065439627091
 10
57.49420228336508
 20
34.41552018329202
 10
57.47942388456546
 20
32.78634908951028
 10
57.42474196088421
 20
31.18980381824226
 10
57.27303089470232
 20
29.70634968637385
 10
57.0
 20
28.53096897997901
  0
ELLIPSE
  5
122
330
80
100
AcDbEntity
  8
VER
100
AcDbEllipse
 10
62.17638090205041
 20
35.0
 30
0.0
 11
-1.836970198721032E-15
 21
-10.00000000000001
 31
0.0
210
0.0
220
0.0
230
1.0
 40
0.2588190451025203
 41
3.141592653589791
 42
6.28318530717959
  0
LWPOLYLINE
  5
123
330
80
100
AcDbEntity
  8
VER
100
AcDbPolyline
 90
       10
 70
     0
 43
0.0
 10
43.0
 20
28.53096897997901
 10
42.7242651553392
 20
29.72517385147003
 10
42.58453784007404
 20
31.05139843724122
 10
42.52617010405967
 20
32.46618389650717
 10
42.50877562806291
 20
33.93934560372909
 10
42.50579771663492
 20
35.58447981670797
 10
42.52057611543455
 20
37.21365091048973
 10
42.5752580391158
 20
38.81019618175775
 10
42.72696910529768
 20
40.29365031362615
 10
43.0
 20
41.46903102002099
  0
ELLIPSE
  5
124
330
80
100
AcDbEntity
  8
VER
100
AcDbEllipse
 10
37.8236190979496
 20
35.0
 30
0.0
 11
6.123233995736770E-16
 21
10.00000000000001
 31
0.0
210
0.0
220
0.0
230
1.0
 40
0.2588190451025204
 41
3.141592653589787
 42
6.283185307179592
  0
LWPOLYLINE
  5
125
330
80
100
AcDbEntity
  8
VER
100
AcDbPolyline
 90
       18
 70
     0
 43
0.0
 10
57.0
 20
28.53096897997901
 10
56.65538729305156
 20
27.72651130996801
 10
56.17184572915706
 20
27.04310435233963
 10
55.53064728565973
 20
26.49212078772267
 10
54.74034498494248
 20
26.07290342375466
 10
53.87285527999199
 20
25.79031660309338
 10
52.90995783211929
 20
25.59785960855742
 10
51.84106905510298
 20
25.47562524764116
 10
50.72572864434474
 20
25.41576595844727
 10
49.53237941344172
 20
25.40936667335453
 10
48.35191244198553
 20
25.46111899761543
 10
47.20216759876175
 20
25.58130186197246
 10
46.13436412164761
 20
25.78815598000693
 10
45.21026573225473
 20
26.09453619214483
 10
44.42149388107214
 20
26.52333494917491
 10
43.82079489786904
 20
27.05288565756777
 10
43.35722691871354
 20
27.70181858387483
 10
43.0
 20
28.53096897997901
  0
LWPOLYLINE
  5
126
330
80
100
AcDbEntity
  8
VER
100
AcDbPolyline
 90
       18
 70
     0
 43
0.0
 10
43.0
 20
41.46903102002099
 10
43.34461270694844
 20
42.27348869003199
 10
43.82815427084294
 20
42.95689564766037
 10
44.46935271434027
 20
43.50787921227733
 10
45.25965501505751
 20
43.92709657624534
 10
46.12714472000802
 20
44.20968339690662
 10
47.09004216788072
 20
44.40214039144258
 10
48.15893094489702
 20
44.52437475235885
 10
49.27427135565527
 20
44.58423404155273
 10
50.46762058655827
 20
44.59063332664547
 10
51.64808755801446
 20
44.53888100238457
 10
52.79783240123825
 20
44.41869813802754
 10
53.86563587835239
 20
44.21184401999308
 10
54.78973426774527
 20
43.90546380785518
 10
55.57850611892786
 20
43.47666505082509
 10
56.17920510213097
 20
42.94711434243223
 10
56.64277308128647
 20
42.29818141612517
 10
57.0
 20
41.46903102002099
  0
LWPOLYLINE
  5
127
330
80
100
AcDbEntity
  8
VER
100
AcDbPolyline
 90
        4
 70
     0
 43
0.0
 10
80.33622596728401
 20
44.9999827428087
 10
80.36666383951014
 20
44.96354897217174
 10
80.39687499860058
 20
44.8512865777012
 10
80.42417665042647
 20
44.68245836551854
  0
LWPOLYLINE
  5
128
330
80
100
AcDbEntity
  8
VER
100
AcDbPolyline
 90
        4
 70
     0
 43
0.0
 10
80.42417665042647
 20
25.31754163448146
 10
80.39437543667098
 20
25.13649695490722
 10
80.3641366077927
 20
25.0305194892521
 10
80.336225967284
 20
25.00001725719132
  0
LINE
  5
129
330
80
100
AcDbEntity
  8
VER
100
AcDbLine
 10
80.42417665042647
 20
25.31754163448148
 30
0.0
 11
116.5
 21
25.31754163448146
 31
0.0
  0
LINE
  5
12A
330
80
100
AcDbEntity
  8
VER
100
AcDbLine
 10
116.5
 20
44.68245836551854
 30
0.0
 11
80.42417665042647
 21
44.68245836551856
 31
0.0
  0
LWPOLYLINE
  5
12B
330
80
100
AcDbEntity
  8
VER
100
AcDbPolyline
 90
        5
 70
     0
 43
0.0
 10
116.5
 20
44.68245836551854
 10
117.5576096257968
 20
44.28283014093895
 10
118.5919347374897
 20
43.75477643677182
 10
119.6204399371377
 20
43.1117987080742
 10
120.6289133377495
 20
42.39529973539249
  0
LWPOLYLINE
  5
12C
330
80
100
AcDbEntity
  8
VER
100
AcDbPolyline
 90
        4
 70
     0
 43
0.0
 10
120.6289133377624
 20
27.60470026461709
 10
118.6251829316577
 20
26.26428170685762
 10
117.5746234767322
 20
25.72481484080158
 10
116.5
 20
25.31754163448146
  0
LINE
  5
12D
330
80
100
AcDbEntity
  8
VER
100
AcDbLine
 10
120.6289133377624
 20
27.60470026461709
 30
0.0
 11
121.6297213092932
 21
28.26086370047456
 31
0.0
  0
ELLIPSE
  5
12E
330
80
100
AcDbEntity
  8
VER
100
AcDbEllipse
 10
124.634732861516
 20
35.00000000000005
 30
0.0
 11
4.257195078628499E-14
 21
-9.999999999999943
 31
0.0
210
0.0
220
0.0
230
1.0
 40
0.4067366430758009
 41
3.141592653589779
 42
3.972895698133381
  0
LWPOLYLINE
  5
12F
330
80
100
AcDbEntity
  8
VER
100
AcDbPolyline
 90
        3
 70
     0
 43
0.0
 10
121.6297213092932
 20
41.73913629952543
 10
121.281787042535
 20
41.94554724226312
 10
120.6289133377495
 20
42.39529973539249
  0
ELLIPSE
  5
130
330
80
100
AcDbEntity
  8
VER
100
AcDbEllipse
 10
124.634732861516
 20
35.00000000000016
 30
0.0
 11
6.921730337729022E-14
 21
-10.00000000000018
 31
0.0
210
0.0
220
0.0
230
1.0
 40
0.4067366430757956
 41
5.451882262635997
 42
6.283185307179579
  0
LWPOLYLINE
  5
131
330
80
100
AcDbEntity
  8
VER
100
AcDbPolyline
 90
        5
 70
     0
 43
0.0
 10
-16.5
 20
25.31754163448145
 10
-17.55760962579682
 20
25.71716985906104
 10
-18.59193473748968
 20
26.24522356322818
 10
-19.62043993713772
 20
26.8882012919258
 10
-20.62891333774947
 20
27.60470026460751
  0
LWPOLYLINE
  5
132
330
80
100
AcDbEntity
  8
VER
100
AcDbPolyline
 90
        4
 70
     0
 43
0.0
 10
-20.62891333776218
 20
42.39529973538307
 10
-18.62518293165762
 20
43.73571829314245
 10
-17.57462347673218
 20
44.27518515919846
 10
-16.5
 20
44.68245836551854
  0
LINE
  5
133
330
80
100
AcDbEntity
  8
VER
100
AcDbLine
 10
-20.62891333776218
 20
42.39529973538307
 30
0.0
 11
-21.62972130929316
 21
41.73913629952544
 31
0.0
  0
ELLIPSE
  5
134
330
80
100
AcDbEntity
  8
VER
100
AcDbEllipse
 10
-24.634732861516
 20
35.00000000000006
 30
0.0
 11
1.837589179357628E-14
 21
10.00000000000006
 31
0.0
210
0.0
220
0.0
230
1.0
 40
0.4067366430757987
 41
3.141592653589796
 42
3.972895698133389
  0
LWPOLYLINE
  5
135
330
80
100
AcDbEntity
  8
VER
100
AcDbPolyline
 90
        3
 70
     0
 43
0.0
 10
-21.62972130929316
 20
28.26086370047457
 10
-21.28178704253497
 20
28.05445275773687
 10
-20.62891333774947
 20
27.60470026460751
  0
ELLIPSE
  5
136
330
80
100
AcDbEntity
  8
VER
100
AcDbEllipse
 10
-24.634732861516
 20
34.99999999999994
 30
0.0
 11
-1.493079894517860E-14
 21
10.00000000000006
 31
0.0
210
0.0
220
0.0
230
1.0
 40
0.4067366430757987
 41
5.451882262635993
 42
6.283185307179581
  0
LWPOLYLINE
  5
137
330
80
100
AcDbEntity
  8
VER
100
AcDbPolyline
 90
        4
 70
     0
 43
0.0
 10
19.57582334957354
 20
44.68245836551854
 10
19.60562456332903
 20
44.86350304509279
 10
19.63586339220731
 20
44.9694805107479
 10
19.66377403271602
 20
44.99998274280869
  0
LINE
  5
138
330
80
100
AcDbEntity
  8
VER
100
AcDbLine
 10
19.57582334957353
 20
44.68245836551856
 30
0.0
 11
-16.5
 21
44.68245836551854
 31
0.0
  0
LINE
  5
139
330
80
100
AcDbEntity
  8
VER
100
AcDbLine
 10
-16.5
 20
25.31754163448145
 30
0.0
 11
19.57582334957353
 21
25.31754163448148
 31
0.0
  0
LWPOLYLINE
  5
13A
330
80
100
AcDbEntity
  8
VER
100
AcDbPolyline
 90
        4
 70
     0
 43
0.0
 10
19.66377403271601
 20
25.00001725719132
 10
19.6333361604899
 20
25.03645102782824
 10
19.60312500139944
 20
25.14871342229874
 10
19.57582334957354
 20
25.31754163448146
  0
ELLIPSE
  5
13B
330
80
100
AcDbEntity
  8
VER
100
AcDbEllipse
 10
19.6644223969227
 20
35.00000000000058
 30
0.0
 11
2.626249572111259E-13
 21
10.00000000000058
 31
0.0
210
0.0
220
0.0
230
1.0
 40
0.034899496702504
 41
2.884914307757604
 42
3.139734848633696
  0
LINE
  5
13C
330
80
100
AcDbEntity
  8
VER
100
AcDbLine
 10
20.00199999999999
 20
25.32237064527462
 30
0.0
 11
19.57582334957354
 21
25.32761422021257
 31
0.0
  0
LWPOLYLINE
  5
13D
330
80
100
AcDbEntity
  8
VER
100
AcDbPolyline
 90
        3
 70
     0
 43
0.0
 10
24.02486732410923
 20
26.46451008081145
 10
22.02051479885979
 20
25.85111561708653
 10
20.00199999999999
 20
25.32237064527462
  0
ELLIPSE
  5
13E
330
80
100
AcDbEntity
  8
VER
100
AcDbEllipse
 10
25.80683532938582
 20
35.00000000000007
 30
0.0
 11
1.837589179357631E-14
 21
10.00000000000007
 31
0.0
210
0.0
220
0.0
230
1.0
 40
0.3420201433256697
 41
2.593555803361901
 42
3.141592653589791
  0
LWPOLYLINE
  5
13F
330
80
100
AcDbEntity
  8
VER
100
AcDbPolyline
 90
        3
 70
     0
 43
0.0
 10
20.002
 20
44.67762935472537
 10
22.0185916896842
 20
44.14945756621934
 10
24.02486732410923
 20
43.53548991918854
  0
LINE
  5
140
330
80
100
AcDbEntity
  8
VER
100
AcDbLine
 10
19.57582334957354
 20
44.67238577978743
 30
0.0
 11
20.002
 21
44.67762935472537
 31
0.0
  0
ELLIPSE
  5
141
330
80
100
AcDbEntity
  8
VER
100
AcDbEllipse
 10
19.66442239692245
 20
35.00000000000033
 30
0.0
 11
-1.493079894517801E-14
 21
9.999999999999659
 31
0.0
210
0.0
220
0.0
230
1.0
 40
0.0348994967025019
 41
0.0018578049560638
 42
0.2566783458322022
  0
ELLIPSE
  5
142
330
80
100
AcDbEntity
  8
VER
100
AcDbEllipse
 10
25.80683532938576
 20
35.0000000000002
 30
0.0
 11
1.837589179357581E-14
 21
9.999999999999801
 31
0.0
210
0.0
220
0.0
230
1.0
 40
0.3420201433256683
 41
6.28318530717958
 42
6.831222157407487
  0
ELLIPSE
  5
143
330
80
100
AcDbEntity
  8
VER
100
AcDbEllipse
 10
80.33557760307816
 20
34.99999999999928
 30
0.0
 11
6.110061393944103E-13
 21
-10.00000000000074
 31
0.0
210
0.0
220
0.0
230
1.0
 40
0.0348994967024953
 41
2.884914307757564
 42
3.139734848633615
  0
LINE
  5
144
330
80
100
AcDbEntity
  8
VER
100
AcDbLine
 10
79.998
 20
44.67762935472537
 30
0.0
 11
80.42417665042647
 21
44.67238577978743
 31
0.0
  0
LWPOLYLINE
  5
145
330
80
100
AcDbEntity
  8
VER
100
AcDbPolyline
 90
        3
 70
     0
 43
0.0
 10
75.97513267589078
 20
43.53548991918856
 10
77.9794852011402
 20
44.14888438291347
 10
79.998
 20
44.67762935472537
  0
ELLIPSE
  5
146
330
80
100
AcDbEntity
  8
VER
100
AcDbEllipse
 10
74.19316467061432
 20
35.0
 30
0.0
 11
1.669169295443028E-13
 21
-10.0
 31
0.0
210
0.0
220
0.0
230
1.0
 40
0.3420201433256664
 41
2.593555803361888
 42
3.141592653589778
  0
LWPOLYLINE
  5
147
330
80
100
AcDbEntity
  8
VER
100
AcDbPolyline
 90
        3
 70
     0
 43
0.0
 10
79.99800000000002
 20
25.32237064527462
 10
77.9814083103158
 20
25.85054243378066
 10
75.97513267589078
 20
26.46451008081144
  0
LINE
  5
148
330
80
100
AcDbEntity
  8
VER
100
AcDbLine
 10
80.42417665042647
 20
25.32761422021257
 30
0.0
 11
79.99800000000002
 21
25.32237064527462
 31
0.0
  0
ELLIPSE
  5
149
330
80
100
AcDbEntity
  8
VER
100
AcDbEllipse
 10
80.33557760307728
 20
35.0000000000003
 30
0.0
 11
2.557347715143229E-13
 21
-10.0000000000003
 31
0.0
210
0.0
220
0.0
230
1.0
 40
0.0348994967025068
 41
0.0018578049561784
 42
0.2566783458322806
  0
ELLIPSE
  5
14A
330
80
100
AcDbEntity
  8
VER
100
AcDbEllipse
 10
74.1931646706144
 20
35.00000000000024
 30
0.0
 11
-1.617090857447476E-13
 21
-10.00000000000025
 31
0.0
210
0.0
220
0.0
230
1.0
 40
0.3420201433256651
 41
6.283185307179579
 42
6.831222157407463
  0
ARC
  5
14C
330
80
100
AcDbEntity
  8
GEW
100
AcDbCircle
 10
50.00000000000003
 20
103.0
 30
0.0
 40
12.05849999999999
100
AcDbArc
 50
74.99999999999996
 51
14.99999999999989
  0
CIRCLE
  5
14D
330
80
100
AcDbEntity
  8
VER
100
AcDbCircle
 10
50.00000000000001
 20
103.0000000000001
 30
0.0
 40
11.90000000000009
  0
ELLIPSE
  5
14E
330
80
100
AcDbEntity
  8
VER
100
AcDbEllipse
 10
62.17638090205044
 20
34.99999999999999
 30
0.0
 11
1.353760846598928E-14
 21
-8.500000000000018
 31
0.0
210
0.0
220
0.0
230
1.0
 40
0.2588190451025172
 41
0.0
 42
6.283185307179586
  0
ELLIPSE
  5
14F
330
80
100
AcDbEntity
  8
VER
100
AcDbEllipse
 10
37.82361909794962
 20
35.00000000000002
 30
0.0
 11
1.373212888267702E-14
 21
8.500000000000021
 31
0.0
210
0.0
220
0.0
230
1.0
 40
0.2588190451025213
 41
0.0
 42
6.283185307179586
  0
LINE
  5
152
330
80
100
AcDbEntity
  8
MITTE
100
AcDbLine
 10
36.11794999999999
 20
103.0
 30
0.0
 11
63.88205000000001
 21
103.0
 31
0.0
  0
LINE
  5
153
330
80
100
AcDbEntity
  8
MITTE
100
AcDbLine
 10
50.0
 20
76.75
 30
0.0
 11
50.0
 21
116.88205
 31
0.0
  0
LINE
  5
154
330
80
100
AcDbEntity
  8
MITTE
100
AcDbLine
 10
58.25
 20
78.0
 30
0.0
 11
41.75
 21
78.0
 31
0.0
  0
LINE
  5
155
330
80
100
AcDbEntity
  8
MITTE
100
AcDbLine
 10
58.25
 20
68.72949016875154
 30
0.0
 11
41.75
 21
68.72949016875154
 31
0.0
  0
LINE
  5
156
330
80
100
AcDbEntity
  8
MITTE
100
AcDbLine
 10
50.0
 20
72.07949016875158
 30
0.0
 11
50.0
 21
-1.620509831248421
 31
0.0
  0
LINE
  5
157
330
80
100
AcDbEntity
  8
MITTE
100
AcDbLine
 10
43.0
 20
46.0
 30
0.0
 11
43.0
 21
24.0
 31
0.0
  0
LINE
  5
158
330
80
100
AcDbEntity
  8
MITTE
100
AcDbLine
 10
-30.76946572303199
 20
35.0
 30
0.0
 11
-74.76946572303198
 21
35.0
 31
0.0
  0
LINE
  5
159
330
80
100
AcDbEntity
  8
MITTE
100
AcDbLine
 10
57.0
 20
24.0
 30
0.0
 11
57.0
 21
46.0
 31
0.0
  0
LINE
  5
15A
330
80
100
AcDbEntity
  8
MITTE
100
AcDbLine
 10
130.769465723032
 20
35.0
 30
0.0
 11
174.769465723032
 21
35.0
 31
0.0
  0
LINE
  5
15B
330
80
100
AcDbEntity
  8
MITTE
100
AcDbLine
 10
32.64723819589918
 20
51.5
 30
0.0
 11
32.64723819589918
 21
18.5
 31
0.0
  0
LINE
  5
15C
330
80
100
AcDbEntity
  8
MITTE
100
AcDbLine
 10
18.96643246287242
 20
51.5
 30
0.0
 11
18.96643246287242
 21
18.5
 31
0.0
  0
LINE
  5
15D
330
80
100
AcDbEntity
  8
MITTE
100
AcDbLine
 10
-16.5
 20
51.5
 30
0.0
 11
-16.5
 21
18.5
 31
0.0
  0
LINE
  5
15E
330
80
100
AcDbEntity
  8
MITTE
100
AcDbLine
 10
-32.76946572303206
 20
51.5
 30
0.0
 11
-32.76946572303206
 21
18.5
 31
0.0
  0
LINE
  5
15F
330
80
100
AcDbEntity
  8
MITTE
100
AcDbLine
 10
67.35276180410082
 20
18.5
 30
0.0
 11
67.35276180410082
 21
51.5
 31
0.0
  0
LINE
  5
160
330
80
100
AcDbEntity
  8
MITTE
100
AcDbLine
 10
81.0335675371276
 20
18.5
 30
0.0
 11
81.0335675371276
 21
51.5
 31
0.0
  0
LINE
  5
161
330
80
100
AcDbEntity
  8
MITTE
100
AcDbLine
 10
116.5
 20
18.5
 30
0.0
 11
116.5
 21
51.5
 31
0.0
  0
LINE
  5
162
330
80
100
AcDbEntity
  8
MITTE
100
AcDbLine
 10
132.7694657230321
 20
18.5
 30
0.0
 11
132.7694657230321
 21
51.5
 31
0.0
  0
LINE
  5
163
330
80
100
AcDbEntity
  8
MITTE
100
AcDbLine
 10
-18.32509999999998
 20
35.0
 30
0.0
 11
21.82710000000001
 21
35.0
 31
0.0
  0
LINE
  5
164
330
80
100
AcDbEntity
  8
MITTE
100
AcDbLine
 10
78.17290000000003
 20
35.0
 30
0.0
 11
118.3251
 21
35.0
 31
0.0
  0
LINE
  5
165
330
80
100
AcDbEntity
  8
MITTE
100
AcDbLine
 10
42.3
 20
35.0
 30
0.0
 11
57.7
 21
35.0
 31
0.0
  0
LINE
  5
167
330
80
100
AcDbEntity
  8
050
100
AcDbLine
 10
57.5
 20
19.29439245463341
 30
0.0
 11
57.5
 21
25.0
 31
0.0
  0
LINE
  5
168
330
80
100
AcDbEntity
  8
050
100
AcDbLine
 10
42.5
 20
25.0
 30
0.0
 11
42.5
 21
19.29439245463341
 31
0.0
  0
LWPOLYLINE
  5
169
330
80
100
AcDbEntity
  8
050
100
AcDbPolyline
 90
       37
 70
     0
 43
0.0
 10
57.5
 20
19.29439245463341
 10
57.4714602356881
 20
18.56842051487255
 10
57.38605814759156
 20
17.8479736599271
 10
57.24444369716802
 20
17.13853492538091
 10
57.04769465589431
 20
16.4455035683747
 10
56.79730840277488
 20
15.77415397599906
 10
56.4951905283833
 20
15.12959552402394
 10
56.14364033216744
 20
14.5167336914639
 10
55.74533332339234
 20
13.94023272692082
 10
55.30330085889912
 20
13.40448015083566
 10
54.82090707264906
 20
12.91355336380869
 10
54.30182327263285
 20
12.47118861511888
 10
53.75000000000001
 20
12.0807525676109
 10
53.16963696305526
 20
11.74521667535801
 10
52.56515107494253
 20
11.46713456910237
 10
51.94114283826892
 20
11.24862262158315
 10
51.302361332502
 20
11.0913438406621
 10
50.65366807060745
 20
10.99649521282955
 10
50.00000000000001
 20
10.96479859341446
 10
49.34633192939258
 20
10.99649521282954
 10
48.69763866749804
 20
11.09134384066209
 10
48.05885716173111
 20
11.24862262158314
 10
47.4348489250575
 20
11.46713456910236
 10
46.83036303694477
 20
11.74521667535799
 10
46.25000000000002
 20
12.08075256761088
 10
45.69817672736718
 20
12.47118861511886
 10
45.17909292735097
 20
12.91355336380867
 10
44.69669914110091
 20
13.40448015083564
 10
44.25466667660768
 20
13.9402327269208
 10
43.85635966783258
 20
14.51673369146388
 10
43.50480947161672
 20
15.12959552402392
 10
43.20269159722514
 20
15.77415397599904
 10
42.9523053441057
 20
16.44550356837467
 10
42.755556302832
 20
17.13853492538088
 10
42.61394185240844
 20
17.84797365992706
 10
42.52853976431192
 20
18.56842051487251
 10
42.5
 20
19.29439245463338
  0
LINE
  5
16A
330
80
100
AcDbEntity
  8
050
100
AcDbLine
 10
57.5
 20
68.72949016875158
 30
0.0
 11
42.5
 21
68.72949016875158
 31
0.0
  0
LINE
  5
16B
330
80
100
AcDbEntity
  8
050
100
AcDbLine
 10
42.5
 20
92.0
 30
0.0
 11
42.5
 21
45.0
 31
0.0
  0
LINE
  5
16C
330
80
100
AcDbEntity
  8
050
100
AcDbLine
 10
57.5
 20
45.0
 30
0.0
 11
57.5
 21
92.0
 31
0.0
  0
LINE
  5
16D
330
80
100
AcDbEntity
  8
050
100
AcDbLine
 10
57.5
 20
78.0
 30
0.0
 11
42.5
 21
78.0
 31
0.0
  0
ELLIPSE
  5
16E
330
80
100
AcDbEntity
  8
050
100
AcDbEllipse
 10
50.0
 20
73.36474508437584
 30
0.0
 11
-7.500000000000021
 21
9.184850993605176E-16
 31
0.0
210
0.0
220
0.0
230
1.0
 40
0.3090169943749488
 41
0.0000000000000188
 42
3.141592653589775
  0
CIRCLE
  5
16F
330
80
100
AcDbEntity
  8
050
100
AcDbCircle
 10
50.0
 20
103.0
 30
0.0
 40
6.500000000000005
  0
CIRCLE
  5
170
330
80
100
AcDbEntity
  8
050
100
AcDbCircle
 10
50.0
 20
103.0
 30
0.0
 40
7.000000000000006
  0
LINE
  5
171
330
80
100
AcDbEntity
  8
050
100
AcDbLine
 10
41.33974596215562
 20
92.0
 30
0.0
 11
42.66550335742116
 21
92.0
 31
0.0
  0
LINE
  5
172
330
80
100
AcDbEntity
  8
050
100
AcDbLine
 10
57.33449664257885
 20
92.0
 30
0.0
 11
58.66025403784439
 21
92.0
 31
0.0
  0
ARC
  5
173
330
80
100
AcDbEntity
  8
050
100
AcDbCircle
 10
49.99999999999947
 20
102.9999999999995
 30
0.0
 40
13.99999999999927
100
AcDbArc
 50
211.0027191338733
 51
231.7867892982622
  0
ARC
  5
174
330
80
100
AcDbEntity
  8
050
100
AcDbCircle
 10
50.00000000000023
 20
102.9999999999998
 30
0.0
 40
13.99999999999972
100
AcDbArc
 50
308.2132107017379
 51
328.9972808661262
  0
LINE
  5
175
330
80
100
AcDbEntity
  8
050
100
AcDbLine
 10
62.0
 20
108.5493099571028
 30
0.0
 11
62.0
 21
110.211102550928
 31
0.0
  0
LINE
  5
176
330
80
100
AcDbEntity
  8
050
100
AcDbLine
 10
62.00000000000001
 20
95.78889744907202
 30
0.0
 11
62.0
 21
97.4506900428972
 31
0.0
  0
ARC
  5
177
330
80
100
AcDbEntity
  8
050
100
AcDbCircle
 10
50.0
 20
103.0
 30
0.0
 40
13.99999999999999
100
AcDbArc
 50
31.00271913387393
 51
148.9972808661261
  0
LINE
  5
178
330
80
100
AcDbEntity
  8
050
100
AcDbLine
 10
38.00000000000001
 20
97.4506900428972
 30
0.0
 11
38.00000000000001
 21
95.78889744907202
 31
0.0
  0
LINE
  5
179
330
80
100
AcDbEntity
  8
050
100
AcDbLine
 10
38.00000000000001
 20
110.211102550928
 30
0.0
 11
38.00000000000001
 21
108.5493099571028
 31
0.0
  0
LWPOLYLINE
  5
17A
330
80
100
AcDbEntity
  8
050
100
AcDbPolyline
 90
       20
 70
     0
 43
0.0
 10
-47.74678008174966
 20
44.99998744020979
 10
-47.75725890854346
 20
44.8832981414479
 10
-47.76779512004769
 20
44.51940693650441
 10
-47.77834374505395
 20
43.88120305977775
 10
-47.78833680606347
 20
42.96892049168374
 10
-47.79692085667619
 20
41.85916186902521
 10
-47.80432623668747
 20
40.51996420735563
 10
-47.80991481140358
 20
39.06379341024237
 10
-47.81383276762072
 20
37.44869541872364
 10
-47.81574052161443
 20
35.81030434203329
 10
-47.81568730869797
 20
34.10141394746829
 10
-47.81367778523918
 20
32.46551253967996
 10
-47.80966021078643
 20
30.85548120192733
 10
-47.80398269645295
 20
29.40647823318825
 10
-47.79649685487668
 20
28.0767931031333
 10
-47.78784729438859
 20
26.97803165871896
 10
-47.77780199836381
 20
26.07858549893595
 10
-47.76721823197115
 20
25.4539476002889
 10
-47.75580256860977
 20
25.08615786400833
 10
-47.74678008174966
 20
25.0000125597902
  0
ARC
  5
17B
330
80
100
AcDbEntity
  8
050
100
AcDbCircle
 10
-50.00000000000003
 20
40.17299999999987
 30
0.0
 40
5.327000000000121
100
AcDbArc
 50
64.99112605015165
 51
89.99999999999955
  0
ARC
  5
17C
330
80
100
AcDbEntity
  8
050
100
AcDbCircle
 10
-49.99999999999997
 20
29.82699999999979
 30
0.0
 40
5.326999999999778
100
AcDbArc
 50
269.9999999999999
 51
295.0297621947698
  0
LINE
  5
17D
330
80
100
AcDbEntity
  8
050
100
AcDbLine
 10
-49.99999999999999
 20
24.50000000000001
 30
0.0
 11
-49.99999999999999
 21
45.49999999999999
 31
0.0
  0
LINE
  5
17E
330
80
100
AcDbEntity
  8
050
100
AcDbLine
 10
-49.99999999999999
 20
45.49999999999999
 30
0.0
 11
-62.73550845249723
 21
45.49999999999999
 31
0.0
  0
LINE
  5
17F
330
80
100
AcDbEntity
  8
050
100
AcDbLine
 10
-62.73550845249723
 20
24.50000000000001
 30
0.0
 11
-49.99999999999999
 21
24.50000000000001
 31
0.0
  0
LINE
  5
180
330
80
100
AcDbEntity
  8
050
100
AcDbLine
 10
162.7355084524972
 20
45.5
 30
0.0
 11
150.0
 21
45.5
 31
0.0
  0
LINE
  5
181
330
80
100
AcDbEntity
  8
050
100
AcDbLine
 10
150.0
 20
24.49999999999999
 30
0.0
 11
162.7355084524972
 21
24.49999999999999
 31
0.0
  0
LINE
  5
182
330
80
100
AcDbEntity
  8
050
100
AcDbLine
 10
150.0
 20
24.49999999999999
 30
0.0
 11
150.0
 21
45.50000000000001
 31
0.0
  0
LWPOLYLINE
  5
183
330
80
100
AcDbEntity
  8
050
100
AcDbPolyline
 90
       20
 70
     0
 43
0.0
 10
147.7467800817495
 20
44.99998744020978
 10
147.7572589085433
 20
44.883298141449
 10
147.7677951200477
 20
44.51940693650441
 10
147.7783437450539
 20
43.88120305977775
 10
147.7883368060635
 20
42.96892049168375
 10
147.7969208566762
 20
41.85916186902521
 10
147.8043262366875
 20
40.51996420735565
 10
147.8099148114036
 20
39.06379341024238
 10
147.8138327676207
 20
37.44869541872364
 10
147.8157405216145
 20
35.8103043420333
 10
147.815687308698
 20
34.10141394746829
 10
147.8136777852392
 20
32.46551253967996
 10
147.8096602107864
 20
30.85548120192733
 10
147.8039826964529
 20
29.40647823318825
 10
147.7964968548767
 20
28.0767931031333
 10
147.7878472943886
 20
26.97803165871897
 10
147.7778019983638
 20
26.07858549893595
 10
147.7672182319711
 20
25.45394760028891
 10
147.7558025686097
 20
25.08615786400833
 10
147.7467800817497
 20
25.0000125597902
  0
ARC
  5
184
330
80
100
AcDbEntity
  8
050
100
AcDbCircle
 10
150.0
 20
40.17300000000007
 30
0.0
 40
5.326999999999948
100
AcDbArc
 50
90.0000000000003
 51
115.029274840671
  0
ARC
  5
185
330
80
100
AcDbEntity
  8
050
100
AcDbCircle
 10
150.0
 20
29.82700000000018
 30
0.0
 40
5.327000000000181
100
AcDbArc
 50
244.9903154726765
 51
269.9999999999997
  0
LINE
  5
186
330
80
100
AcDbEntity
  8
050
100
AcDbLine
 10
-32.76946572303201
 20
25.0
 30
0.0
 11
-32.76946572303201
 21
45.0
 31
0.0
  0
LINE
  5
187
330
80
100
AcDbEntity
  8
050
100
AcDbLine
 10
132.769465723032
 20
45.0
 30
0.0
 11
132.769465723032
 21
25.0
 31
0.0
  0
CIRCLE
  5
188
330
80
100
AcDbEntity
  8
050
100
AcDbCircle
 10
50.0
 20
103.0
 30
0.0
 40
13.22100000000001
  0
CIRCLE
  5
189
330
80
100
AcDbEntity
  8
050
100
AcDbCircle
 10
50.0
 20
103.0
 30
0.0
 40
12.0585
  0
CIRCLE
  5
18A
330
80
100
AcDbEntity
  8
050
100
AcDbCircle
 10
50.0
 20
103.0
 30
0.0
 40
9.000000000000007
  0
CIRCLE
  5
18B
330
80
100
AcDbEntity
  8
050
100
AcDbCircle
 10
50.0
 20
103.0
 30
0.0
 40
10.73205080756887
  0
ELLIPSE
  5
18C
330
80
100
AcDbEntity
  8
050
100
AcDbEllipse
 10
62.17638090205043
 20
35.00000000000003
 30
0.0
 11
-1.836970198721035E-15
 21
-10.00000000000003
 31
0.0
210
0.0
220
0.0
230
1.0
 40
0.2588190451025206
 41
6.283185307179584
 42
9.424777960769383
  0
ELLIPSE
  5
18D
330
80
100
AcDbEntity
  8
050
100
AcDbEllipse
 10
37.82361909794959
 20
34.99999999999999
 30
0.0
 11
6.123233995736779E-16
 21
10.00000000000002
 31
0.0
210
0.0
220
0.0
230
1.0
 40
0.25881904510252
 41
0.0000000000000002
 42
3.141592653589793
  0
LINE
  5
18E
330
80
100
AcDbEntity
  8
050
100
AcDbLine
 10
20.11503809042138
 20
25.0
 30
0.0
 11
79.88513206269374
 21
25.0
 31
0.0
  0
LINE
  5
18F
330
80
100
AcDbEntity
  8
050
100
AcDbLine
 10
57.0
 20
25.0
 30
0.0
 11
57.0
 21
45.0
 31
0.0
  0
LINE
  5
190
330
80
100
AcDbEntity
  8
050
100
AcDbLine
 10
43.0
 20
25.0
 30
0.0
 11
43.0
 21
45.0
 31
0.0
  0
LINE
  5
191
330
80
100
AcDbEntity
  8
050
100
AcDbLine
 10
162.7355084524972
 20
24.49999999999999
 30
0.0
 11
162.7355084524972
 21
45.5
 31
0.0
  0
LINE
  5
192
330
80
100
AcDbEntity
  8
050
100
AcDbLine
 10
162.7355084524972
 20
24.49999999999999
 30
0.0
 11
165.7513436218522
 21
22.38828948041972
 31
0.0
  0
LINE
  5
193
330
80
100
AcDbEntity
  8
050
100
AcDbLine
 10
165.7513436218522
 20
47.61171051958028
 30
0.0
 11
162.7355084524972
 21
45.5
 31
0.0
  0
LINE
  5
194
330
80
100
AcDbEntity
  8
050
100
AcDbLine
 10
-62.73550845249723
 20
24.50000000000001
 30
0.0
 11
-62.73550845249723
 21
45.49999999999999
 31
0.0
  0
LINE
  5
195
330
80
100
AcDbEntity
  8
050
100
AcDbLine
 10
-62.73550845249723
 20
45.49999999999999
 30
0.0
 11
-65.75134362185216
 21
47.61171051958027
 31
0.0
  0
LINE
  5
196
330
80
100
AcDbEntity
  8
050
100
AcDbLine
 10
-65.75134362185216
 20
22.38828948041973
 30
0.0
 11
-62.73550845249723
 21
24.50000000000001
 31
0.0
  0
LINE
  5
197
330
80
100
AcDbEntity
  8
050
100
AcDbLine
 10
170.0
 20
24.6
 30
0.0
 11
170.0
 21
45.4
 31
0.0
  0
LINE
  5
198
330
80
100
AcDbEntity
  8
050
100
AcDbLine
 10
165.7513436218522
 20
22.38828948041972
 30
0.0
 11
165.7513436218522
 21
47.61171051958028
 31
0.0
  0
ARC
  5
199
330
80
100
AcDbEntity
  8
050
100
AcDbCircle
 10
167.3
 20
45.40000000000003
 30
0.0
 40
2.699999999999989
100
AcDbArc
 50
359.9999999999993
 51
124.9999999999998
  0
ARC
  5
19A
330
80
100
AcDbEntity
  8
050
100
AcDbCircle
 10
167.3
 20
24.59999999999996
 30
0.0
 40
2.699999999999954
100
AcDbArc
 50
235.0
 51
0.0000000000009047
  0
LINE
  5
19B
330
80
100
AcDbEntity
  8
050
100
AcDbLine
 10
-65.75134362185216
 20
22.38828948041973
 30
0.0
 11
-65.75134362185216
 21
47.61171051958027
 31
0.0
  0
LINE
  5
19C
330
80
100
AcDbEntity
  8
050
100
AcDbLine
 10
-69.99999999999999
 20
24.60000000000002
 30
0.0
 11
-69.99999999999999
 21
45.39999999999998
 31
0.0
  0
ARC
  5
19D
330
80
100
AcDbEntity
  8
050
100
AcDbCircle
 10
-67.29999999999998
 20
45.39999999999999
 30
0.0
 40
2.700000000000002
100
AcDbArc
 50
55.00000000000001
 51
180.0000000000002
  0
ARC
  5
19E
330
80
100
AcDbEntity
  8
050
100
AcDbCircle
 10
-67.29999999999998
 20
24.6
 30
0.0
 40
2.700000000000003
100
AcDbArc
 50
179.9999999999996
 51
305.0000000000001
  0
LINE
  5
19F
330
80
100
AcDbEntity
  8
050
100
AcDbLine
 10
147.7468873633201
 20
45.0
 30
0.0
 11
79.99800000000002
 21
44.99999368024363
 31
0.0
  0
LINE
  5
1A0
330
80
100
AcDbEntity
  8
050
100
AcDbLine
 10
79.99800000000002
 20
25.00000631975637
 30
0.0
 11
147.7468874885176
 21
25.0
 31
0.0
  0
LINE
  5
1A1
330
80
100
AcDbEntity
  8
050
100
AcDbLine
 10
116.5
 20
25.0
 30
0.0
 11
116.5
 21
45.0
 31
0.0
  0
ELLIPSE
  5
1A2
330
80
100
AcDbEntity
  8
050
100
AcDbEllipse
 10
124.6347328615161
 20
35.00000000000001
 30
0.0
 11
-1.836970198721029E-15
 21
-9.999999999999996
 31
0.0
210
0.0
220
0.0
230
1.0
 40
0.4067366430758015
 41
6.283185307179576
 42
9.42477796076939
  0
ELLIPSE
  5
1A3
330
80
100
AcDbEntity
  8
050
100
AcDbEllipse
 10
-24.63473286151599
 20
35.0
 30
0.0
 11
6.123233995736775E-16
 21
10.00000000000001
 31
0.0
210
0.0
220
0.0
230
1.0
 40
0.4067366430758005
 41
0.0000000000000028
 42
3.14159265358979
  0
LINE
  5
1A4
330
80
100
AcDbEntity
  8
050
100
AcDbLine
 10
-16.5
 20
25.0
 30
0.0
 11
-16.5
 21
45.0
 31
0.0
  0
LINE
  5
1A5
330
80
100
AcDbEntity
  8
050
100
AcDbLine
 10
20.00200000000001
 20
25.00000631975637
 30
0.0
 11
20.00200000000001
 21
44.99999368024363
 31
0.0
  0
LINE
  5
1A6
330
80
100
AcDbEntity
  8
050
100
AcDbLine
 10
-47.7468874885177
 20
25.0
 30
0.0
 11
20.00200000000001
 21
25.00000631975637
 31
0.0
  0
LINE
  5
1A7
330
80
100
AcDbEntity
  8
050
100
AcDbLine
 10
20.00200000000001
 20
44.99999368024363
 30
0.0
 11
-47.74688736332016
 21
45.0
 31
0.0
  0
LINE
  5
1A8
330
80
100
AcDbEntity
  8
050
100
AcDbLine
 10
79.88496190957855
 20
45.0
 30
0.0
 11
20.11486793730628
 21
45.0
 31
0.0
  0
ELLIPSE
  5
1A9
330
80
100
AcDbEntity
  8
050
100
AcDbEllipse
 10
25.80683532938579
 20
35.0
 30
0.0
 11
6.123233995736775E-16
 21
10.00000000000001
 31
0.0
210
0.0
220
0.0
230
1.0
 40
0.3420201433256685
 41
3.141592653589794
 42
6.283185307179585
  0
LINE
  5
1AA
330
80
100
AcDbEntity
  8
050
100
AcDbLine
 10
79.99800000000002
 20
44.99999368024363
 30
0.0
 11
79.99800000000002
 21
25.00000631975637
 31
0.0
  0
ELLIPSE
  5
1AB
330
80
100
AcDbEntity
  8
050
100
AcDbEllipse
 10
74.19316467061418
 20
35.0
 30
0.0
 11
-1.836970198721029E-15
 21
-9.999999999999996
 31
0.0
210
0.0
220
0.0
230
1.0
 40
0.3420201433256695
 41
3.141592653589786
 42
6.283185307179595
  0
ELLIPSE
  5
1AC
330
80
100
AcDbEntity
  8
050
100
AcDbEllipse
 10
80.33557760307775
 20
35.0
 30
0.0
 11
-1.836970198721079E-15
 21
-10.00000000000027
 31
0.0
210
0.0
220
0.0
230
1.0
 40
0.0348994967025225
 41
4.455893628648413
 42
4.968884332120966
  0
ELLIPSE
  5
1AD
330
80
100
AcDbEntity
  8
050
100
AcDbEllipse
 10
19.66442239692242
 20
35.0
 30
0.0
 11
6.123233995736918E-16
 21
10.00000000000025
 31
0.0
210
0.0
220
0.0
230
1.0
 40
0.0348994967025009
 41
4.455893628648438
 42
4.968884332120939
  0
ENDBLK
  5
83
330
80
100
AcDbEntity
  8
0
100
AcDbBlockEnd
  0
BLOCK
  5
1B0
330
1AE
100
AcDbEntity
  8
0
100
AcDbBlockBegin
  2
2_24046_1_0_in_24046_0
 70
     2
 10
0.0
 20
0.0
 30
0.0
  3
2_24046_1_0_in_24046_0
  1

  0
ATTDEF
  5
1B2
330
1AE
100
AcDbEntity
  8
AM_6
100
AcDbText
 10
129.769465723032
 20
117.0
 30
0.0
 40
0.5
  1
Geberit Mapress Carbon Steel set of connector T-pieces for inlet and return flow, with union connector for Euro cone - part1
100
AcDbAttributeDefinition
  3

  2
NN
 70
     8
280
     0
  0
ATTDEF
  5
1B3
330
1AE
100
AcDbEntity
  8
AM_6
100
AcDbText
 10
129.769465723032
 20
116.5
 30
0.0
 40
0.5
  1

100
AcDbAttributeDefinition
  3

  2
NT
 70
     8
280
     0
  0
ATTDEF
  5
1B4
330
1AE
100
AcDbEntity
  8
AM_6
100
AcDbText
 10
129.769465723032
 20
116.0
 30
0.0
 40
0.5
  1
24046_1
100
AcDbAttributeDefinition
  3

  2
NB
 70
     8
280
     0
  0
ATTDEF
  5
1B5
330
1AE
100
AcDbEntity
  8
AM_6
100
AcDbText
 10
129.769465723032
 20
115.5
 30
0.0
 40
0.5
  1
$ARTNRT._1
100
AcDbAttributeDefinition
  3

  2
NBSYN
 70
     8
280
     0
  0
ATTDEF
  5
1B6
330
1AE
100
AcDbEntity
  8
AM_6
100
AcDbText
 10
129.769465723032
 20
115.0
 30
0.0
 40
0.5
  1
24046
100
AcDbAttributeDefinition
  3

  2
LINA
 70
     8
280
     0
  0
ATTDEF
  5
1B7
330
1AE
100
AcDbEntity
  8
AM_6
100
AcDbText
 10
129.769465723032
 20
114.5
 30
0.0
 40
0.5
  1
GEBERIT
100
AcDbAttributeDefinition
  3

  2
CATALOG
 70
     8
280
     0
  0
ATTDEF
  5
1B8
330
1AE
100
AcDbEntity
  8
AM_6
100
AcDbText
 10
129.769465723032
 20
114.0
 30
0.0
 40
0.5
  1
24046
100
AcDbAttributeDefinition
  3

  2
ARTNRT
 70
     8
280
     0
  0
ATTDEF
  5
1B9
330
1AE
100
AcDbEntity
  8
AM_6
100
AcDbText
 10
129.769465723032
 20
113.5
 30
0.0
 40
0.5
  1
5
100
AcDbAttributeDefinition
  3

  2
AD
 70
     8
280
     0
  0
ATTDEF
  5
1BA
330
1AE
100
AcDbEntity
  8
AM_6
100
AcDbText
 10
129.769465723032
 20
113.0
 30
0.0
 40
0.5
  1
18.0
100
AcDbAttributeDefinition
  3

  2
D
 70
     8
280
     0
  0
ATTDEF
  5
1BB
330
1AE
100
AcDbEntity
  8
AM_6
100
AcDbText
 10
129.769465723032
 20
112.5
 30
0.0
 40
0.5
  1
15.0
100
AcDbAttributeDefinition
  3

  2
D1
 70
     8
280
     0
  0
ATTDEF
  5
1BC
330
1AE
100
AcDbEntity
  8
AM_6
100
AcDbText
 10
129.769465723032
 20
112.0
 30
0.0
 40
0.5
  1
15 / 12
100
AcDbAttributeDefinition
  3

  2
DN
 70
     8
280
     0
  0
ATTDEF
  5
1BD
330
1AE
100
AcDbEntity
  8
AM_6
100
AcDbText
 10
129.769465723032
 20
111.5
 30
0.0
 40
0.5
  1
2.9
100
AcDbAttributeDefinition
  3

  2
L
 70
     8
280
     0
  0
ATTDEF
  5
1BE
330
1AE
100
AcDbEntity
  8
AM_6
100
AcDbText
 10
129.769465723032
 20
111.0
 30
0.0
 40
0.5
  1
12.7
100
AcDbAttributeDefinition
  3

  2
L1
 70
     8
280
     0
  0
ATTDEF
  5
1BF
330
1AE
100
AcDbEntity
  8
AM_6
100
AcDbText
 10
129.769465723032
 20
110.5
 30
0.0
 40
0.5
  1
6.8
100
AcDbAttributeDefinition
  3

  2
LL1
 70
     8
280
     0
  0
ATTDEF
  5
1C0
330
1AE
100
AcDbEntity
  8
AM_6
100
AcDbText
 10
129.769465723032
 20
110.0
 30
0.0
 40
0.5
  1
10.0
100
AcDbAttributeDefinition
  3

  2
Z
 70
     8
280
     0
  0
ATTDEF
  5
1C1
330
1AE
100
AcDbEntity
  8
AM_6
100
AcDbText
 10
129.769465723032
 20
109.5
 30
0.0
 40
0.5
  1
1.7
100
AcDbAttributeDefinition
  3

  2
Z1
 70
     8
280
     0
  0
ATTDEF
  5
1C2
330
1AE
100
AcDbEntity
  8
AM_6
100
AcDbText
 10
129.769465723032
 20
109.0
 30
0.0
 40
0.5
  1
2.150
100
AcDbAttributeDefinition
  3

  2
L1X
 70
     8
280
     0
  0
ATTDEF
  5
1C3
330
1AE
100
AcDbEntity
  8
AM_6
100
AcDbText
 10
129.769465723032
 20
108.5
 30
0.0
 40
0.5
  1
2.7
100
AcDbAttributeDefinition
  3

  2
R
 70
     8
280
     0
  0
ATTDEF
  5
1C4
330
1AE
100
AcDbEntity
  8
AM_6
100
AcDbText
 10
129.769465723032
 20
108.0
 30
0.0
 40
0.5
  1
20.0
100
AcDbAttributeDefinition
  3

  2
DX
 70
     8
280
     0
  0
ATTDEF
  5
1C5
330
1AE
100
AcDbEntity
  8
AM_6
100
AcDbText
 10
129.769465723032
 20
107.5
 30
0.0
 40
0.5
  1
2.25
100
AcDbAttributeDefinition
  3

  2
DXX
 70
     8
280
     0
  0
ATTDEF
  5
1C6
330
1AE
100
AcDbEntity
  8
AM_6
100
AcDbText
 10
129.769465723032
 20
107.0
 30
0.0
 40
0.5
  1
3.002
100
AcDbAttributeDefinition
  3

  2
LX
 70
     8
280
     0
  0
ATTDEF
  5
1C7
330
1AE
100
AcDbEntity
  8
AM_6
100
AcDbText
 10
129.769465723032
 20
106.5
 30
0.0
 40
0.5
  1
24.0
100
AcDbAttributeDefinition
  3

  2
ANGLE
 70
     8
280
     0
  0
ATTDEF
  5
1C8
330
1AE
100
AcDbEntity
  8
AM_6
100
AcDbText
 10
129.769465723032
 20
106.0
 30
0.0
 40
0.5
  1
1
100
AcDbAttributeDefinition
  3

  2
V
 70
     8
280
     0
  0
ATTDEF
  5
1C9
330
1AE
100
AcDbEntity
  8
AM_6
100
AcDbText
 10
129.769465723032
 20
105.5
 30
0.0
 40
0.5
  1
geberit
100
AcDbAttributeDefinition
  3

  2
COMPANY
 70
     8
280
     0
  0
LINE
  5
1CA
330
1AE
100
AcDbEntity
  8
VER
100
AcDbLine
 10
-12.99799999999999
 20
0.9448665557400954
 30
0.0
 11
-12.99799999999999
 21
-0.9448665557163609
 31
0.0
  0
LINE
  5
1CB
330
1AE
100
AcDbEntity
  8
VER
100
AcDbLine
 10
12.998
 20
0.9448665557332397
 30
0.0
 11
12.998
 21
-0.9448665556973795
 31
0.0
  0
LINE
  5
1CC
330
1AE
100
AcDbEntity
  8
VER
100
AcDbLine
 10
23.92019640163283
 20
7.736162059198699
 30
0.0
 11
23.92019640163281
 21
-7.736162059198685
 31
0.0
  0
LINE
  5
1CD
330
1AE
100
AcDbEntity
  8
VER
100
AcDbLine
 10
-23.92019640164911
 20
7.736162059206762
 30
0.0
 11
-23.92019640165026
 21
-7.736162059207328
 31
0.0
  0
LINE
  5
1CE
330
1AE
100
AcDbEntity
  8
VER
100
AcDbLine
 10
-70.62891333776219
 20
7.395299735383068
 30
0.0
 11
-70.62891333774947
 21
-7.395299735392484
 31
0.0
  0
LINE
  5
1CF
330
1AE
100
AcDbEntity
  8
VER
100
AcDbLine
 10
70.62891333774945
 20
7.395299735392491
 30
0.0
 11
70.62891333776238
 21
-7.395299735382912
 31
0.0
  0
LWPOLYLINE
  5
1D0
330
1AE
100
AcDbEntity
  8
VER
100
AcDbPolyline
 90
       19
 70
     0
 43
0.0
 10
0.0000000000000029
 20
-7.376013684147675
 10
0.6536680706074391
 20
-7.407710303562756
 10
1.30236133250198
 20
-7.502558931395309
 10
1.941142838268909
 20
-7.659837712316359
 10
2.565151074942518
 20
-7.878349659835576
 10
3.169636963055249
 20
-8.156431766091215
 10
3.750000000000003
 20
-8.491967658344103
 10
4.301823272632848
 20
-8.882403705852086
 10
4.820907072649047
 20
-9.324768454541898
 10
5.303300858899109
 20
-9.815695241568868
 10
5.745333323392337
 20
-10.35144781765403
 10
6.143640332167441
 20
-10.92794878219711
 10
6.495190528383292
 20
-11.54081061475715
 10
6.797308402774876
 20
-12.18536906673227
 10
7.047694655894315
 20
-12.85671865910791
 10
7.244443697168014
 20
-13.54975001611412
 10
7.386058147591562
 20
-14.2591887506603
 10
7.471460235688093
 20
-14.97963560560575
 10
7.500000000000003
 20
-15.70560754536662
  0
LINE
  5
1D1
330
1AE
100
AcDbEntity
  8
VER
100
AcDbLine
 10
7.500000000000003
 20
25.00000000000001
 30
0.0
 11
7.500000000000003
 21
44.99999999999999
 31
0.0
  0
LINE
  5
1D2
330
1AE
100
AcDbEntity
  8
VER
100
AcDbLine
 10
7.500000000000003
 20
-10.0
 30
0.0
 11
7.500000000000003
 21
10.0
 31
0.0
  0
LINE
  5
1D3
330
1AE
100
AcDbEntity
  8
VER
100
AcDbLine
 10
-7.499999999999997
 20
10.0
 30
0.0
 11
-7.499999999999997
 21
-10.0
 31
0.0
  0
LINE
  5
1D4
330
1AE
100
AcDbEntity
  8
VER
100
AcDbLine
 10
-7.499999999999998
 20
45.0
 30
0.0
 11
-7.499999999999997
 21
24.99999999999999
 31
0.0
  0
LWPOLYLINE
  5
1D5
330
1AE
100
AcDbEntity
  8
VER
100
AcDbPolyline
 90
       19
 70
     0
 43
0.0
 10
-7.499999999999997
 20
-15.70560754536663
 10
-7.471460235688089
 20
-14.97963560560576
 10
-7.386058147591558
 20
-14.25918875066031
 10
-7.244443697168011
 20
-13.54975001611412
 10
-7.047694655894311
 20
-12.85671865910792
 10
-6.797308402774874
 20
-12.18536906673228
 10
-6.49519052838329
 20
-11.54081061475716
 10
-6.14364033216744
 20
-10.92794878219712
 10
-5.745333323392337
 20
-10.35144781765403
 10
-5.30330085889911
 20
-9.815695241568875
 10
-4.820907072649049
 20
-9.324768454541905
 10
-4.301823272632851
 20
-8.882403705852093
 10
-3.750000000000006
 20
-8.491967658344109
 10
-3.169636963055253
 20
-8.15643176609122
 10
-2.565151074942524
 20
-7.878349659835582
 10
-1.941142838268915
 20
-7.659837712316363
 10
-1.302361332501988
 20
-7.502558931395311
 10
-0.6536680706074477
 20
-7.407710303562758
 10
-0.0000000000000122
 20
-7.376013684147675
  0
LINE
  5
1D6
330
1AE
100
AcDbEntity
  8
VER
100
AcDbLine
 10
-30.42417665042646
 20
9.672385779787428
 30
0.0
 11
-30.42417665042647
 21
9.682458365518558
 31
0.0
  0
LINE
  5
1D7
330
1AE
100
AcDbEntity
  8
VER
100
AcDbLine
 10
-30.42417665042647
 20
-9.682458365518533
 30
0.0
 11
-30.42417665042646
 21
-9.672385779787426
 31
0.0
  0
LINE
  5
1D8
330
1AE
100
AcDbEntity
  8
VER
100
AcDbLine
 10
30.42417665042647
 20
-9.672385779787426
 30
0.0
 11
30.42417665042648
 21
-9.682458365518523
 31
0.0
  0
LINE
  5
1D9
330
1AE
100
AcDbEntity
  8
VER
100
AcDbLine
 10
30.42417665042648
 20
9.682458365518558
 30
0.0
 11
30.42417665042647
 21
9.672385779787428
 31
0.0
  0
ELLIPSE
  5
1DA
330
1AE
100
AcDbEntity
  8
VER
100
AcDbEllipse
 10
-0.0000000000000098
 20
73.36474508437577
 30
0.0
 11
-7.500000000000016
 21
9.184850993605168E-16
 31
0.0
210
0.0
220
0.0
230
1.0
 40
0.309016994374949
 41
3.141592653589806
 42
6.283185307179574
  0
LINE
  5
1DB
330
1AE
100
AcDbEntity
  8
VER
100
AcDbLine
 10
-22.92726945602985
 20
6.867002429797042
 30
0.0
 11
-22.92726945602985
 21
-6.867002429797028
 31
0.0
  0
LINE
  5
1DC
330
1AE
100
AcDbEntity
  8
VER
100
AcDbLine
 10
-71.77500648022809
 20
6.536514257523093
 30
0.0
 11
-71.77500648022809
 21
-6.536514257533512
 31
0.0
  0
LINE
  5
1DD
330
1AE
100
AcDbEntity
  8
VER
100
AcDbLine
 10
22.92726945602982
 20
6.867002429797032
 30
0.0
 11
22.92726945602982
 21
-6.86700242980345
 31
0.0
  0
LINE
  5
1DE
330
1AE
100
AcDbEntity
  8
VER
100
AcDbLine
 10
29.43046621511363
 20
8.443125996700031
 30
0.0
 11
29.43046621511363
 21
-8.443125996700035
 31
0.0
  0
LINE
  5
1DF
330
1AE
100
AcDbEntity
  8
VER
100
AcDbLine
 10
67.19665271966528
 20
8.442474272114364
 30
0.0
 11
67.19665271966528
 21
-8.442474272114364
 31
0.0
  0
LINE
  5
1E0
330
1AE
100
AcDbEntity
  8
VER
100
AcDbLine
 10
71.77500648022807
 20
6.536514257515162
 30
0.0
 11
71.77500648022807
 21
-6.536514257523093
 31
0.0
  0
LINE
  5
1E1
330
1AE
100
AcDbEntity
  8
VER
100
AcDbLine
 10
-29.43046621511362
 20
8.443125996700038
 30
0.0
 11
-29.43046621511362
 21
-8.443125996699948
 31
0.0
  0
LINE
  5
1E2
330
1AE
100
AcDbEntity
  8
VER
100
AcDbLine
 10
-67.19665271966528
 20
8.442474272114364
 30
0.0
 11
-67.19665271966528
 21
-8.442474272114364
 31
0.0
  0
LINE
  5
1E3
330
1AE
100
AcDbEntity
  8
VER
100
AcDbLine
 10
-7.334496642578823
 20
92.0
 30
0.0
 11
7.334496642578828
 21
92.0
 31
0.0
  0
LINE
  5
1E4
330
1AE
100
AcDbEntity
  8
VER
100
AcDbLine
 10
12.0
 20
97.45069004289721
 30
0.0
 11
12.0
 21
108.5493099571028
 31
0.0
  0
LINE
  5
1E5
330
1AE
100
AcDbEntity
  8
VER
100
AcDbLine
 10
-12.0
 20
108.5493099571028
 30
0.0
 11
-12.0
 21
97.45069004289721
 31
0.0
  0
LINE
  5
1E6
330
1AE
100
AcDbEntity
  8
VER
100
AcDbLine
 10
-30.37179549618885
 20
8.440971508067067
 30
0.0
 11
-30.37179549618884
 21
8.436410315410738
 31
0.0
  0
LINE
  5
1E7
330
1AE
100
AcDbEntity
  8
VER
100
AcDbLine
 10
-30.37179549618884
 20
-8.43641031541074
 30
0.0
 11
-30.37179549618885
 21
-8.440971508067067
 31
0.0
  0
LINE
  5
1E8
330
1AE
100
AcDbEntity
  8
VER
100
AcDbLine
 10
30.37179549618885
 20
8.436410315410738
 30
0.0
 11
30.37179549618885
 21
8.440971508067067
 31
0.0
  0
LINE
  5
1E9
330
1AE
100
AcDbEntity
  8
VER
100
AcDbLine
 10
30.37179549618885
 20
-8.440971508067067
 30
0.0
 11
30.37179549618885
 21
-8.43641031541074
 31
0.0
  0
CIRCLE
  5
1EA
330
1AE
100
AcDbEntity
  8
VER
100
AcDbCircle
 10
0.0000000000000029
 20
103.0
 30
0.0
 40
11.26360389693212
  0
CIRCLE
  5
1EB
330
1AE
100
AcDbEntity
  8
VER
100
AcDbCircle
 10
0.0000000000000029
 20
103.0
 30
0.0
 40
11.00000000000001
  0
LINE
  5
1EC
330
1AE
100
AcDbEntity
  8
VER
100
AcDbLine
 10
-100.0
 20
8.999999999999988
 30
0.0
 11
-112.7355084524972
 21
8.999999999999988
 31
0.0
  0
LINE
  5
1ED
330
1AE
100
AcDbEntity
  8
VER
100
AcDbLine
 10
-112.7355084524972
 20
-8.999999999999986
 30
0.0
 11
-100.0
 21
-8.999999999999986
 31
0.0
  0
LINE
  5
1EE
330
1AE
100
AcDbEntity
  8
VER
100
AcDbLine
 10
112.7355084524972
 20
9.000000000000007
 30
0.0
 11
100.0
 21
9.000000000000007
 31
0.0
  0
LINE
  5
1EF
330
1AE
100
AcDbEntity
  8
VER
100
AcDbLine
 10
100.0
 20
-9.000000000000007
 30
0.0
 11
112.7355084524972
 21
-9.000000000000007
 31
0.0
  0
ARC
  5
1F0
330
1AE
100
AcDbEntity
  8
VER
100
AcDbCircle
 10
-112.7355084524972
 20
10.50000000000001
 30
0.0
 40
1.500000000000021
100
AcDbArc
 50
235.0000000000015
 51
270.0000000000006
  0
ARC
  5
1F1
330
1AE
100
AcDbEntity
  8
VER
100
AcDbCircle
 10
-112.7355084524972
 20
-10.50000000000001
 30
0.0
 40
1.500000000000025
100
AcDbArc
 50
89.99999999999947
 51
124.9999999999985
  0
ARC
  5
1F2
330
1AE
100
AcDbEntity
  8
VER
100
AcDbCircle
 10
112.7355084524972
 20
10.50000000000004
 30
0.0
 40
1.500000000000025
100
AcDbArc
 50
269.9999999999994
 51
304.9999999999985
  0
ARC
  5
1F3
330
1AE
100
AcDbEntity
  8
VER
100
AcDbCircle
 10
112.7355084524972
 20
-10.50000000000004
 30
0.0
 40
1.500000000000021
100
AcDbArc
 50
55.00000000000151
 51
90.00000000000054
  0
LINE
  5
1F4
330
1AE
100
AcDbEntity
  8
VER
100
AcDbLine
 10
119.6
 20
9.399999999999999
 30
0.0
 11
118.9
 21
9.399999999999999
 31
0.0
  0
LINE
  5
1F5
330
1AE
100
AcDbEntity
  8
VER
100
AcDbLine
 10
118.9
 20
-9.4
 30
0.0
 11
119.6
 21
-9.4
 31
0.0
  0
LINE
  5
1F6
330
1AE
100
AcDbEntity
  8
VER
100
AcDbLine
 10
-118.9
 20
9.399999999999984
 30
0.0
 11
-119.6
 21
9.399999999999984
 31
0.0
  0
LINE
  5
1F7
330
1AE
100
AcDbEntity
  8
VER
100
AcDbLine
 10
-119.6
 20
-9.399999999999983
 30
0.0
 11
-118.9
 21
-9.399999999999983
 31
0.0
  0
LWPOLYLINE
  5
1F8
330
1AE
100
AcDbEntity
  8
VER
100
AcDbPolyline
 90
       20
 70
     0
 43
0.0
 10
72.28771843152754
 20
6.241234997855342
 10
74.0261842919396
 20
5.321013123488327
 10
75.94644761921124
 20
4.299385027660079
 10
77.55560374082617
 20
3.448621829933548
 10
79.20531442541366
 20
2.506671391197257
 10
80.79143969785352
 20
1.38862476209263
 10
81.28785478574216
 20
0.9307887809186857
 10
81.66892150888454
 20
0.3603077197311261
 10
81.7389602373221
 20
0.0432504546181468
 10
81.69690144632848
 20
-0.2800530644375444
 10
81.50262336222728
 20
-0.6654765508155476
 10
81.13966248880388
 20
-1.084834840319022
 10
80.719070945406
 20
-1.446642544216413
 10
79.55891399761413
 20
-2.266865736168914
 10
78.35564984118437
 20
-2.983009991930345
 10
77.16073332515634
 20
-3.641215471412631
 10
75.52941670768715
 20
-4.524264891681065
 10
73.98394511508559
 20
-5.344262879685119
 10
72.56334396563668
 20
-6.094867055878906
 10
72.28771843152754
 20
-6.241234997855342
  0
LWPOLYLINE
  5
1F9
330
1AE
100
AcDbEntity
  8
VER
100
AcDbPolyline
 90
       20
 70
     0
 43
0.0
 10
-72.28771843152754
 20
-6.241234997855342
 10
-74.0261842919396
 20
-5.32101312348833
 10
-75.94644761921126
 20
-4.299385027660079
 10
-77.55560374082619
 20
-3.448621829933544
 10
-79.20531442541368
 20
-2.506671391197261
 10
-80.79143969785353
 20
-1.388624762092637
 10
-81.28785478574216
 20
-0.9307887809186683
 10
-81.66892150888457
 20
-0.3603077197311295
 10
-81.7389602373221
 20
-0.0432504546181434
 10
-81.69690144632852
 20
0.2800530644375375
 10
-81.50262336222733
 20
0.6654765508155198
 10
-81.13966248880394
 20
1.084834840318988
 10
-80.71907094540606
 20
1.446642544216371
 10
-79.55891399761424
 20
2.266865736168851
 10
-78.35564984118457
 20
2.983009991930255
 10
-77.16073332515657
 20
3.64121547141252
 10
-75.52941670768739
 20
4.524264891680965
 10
-73.9839451150858
 20
5.344262879685018
 10
-72.56334396563686
 20
6.094867055878816
 10
-72.28771843152755
 20
6.241234997855353
  0
LINE
  5
1FA
330
1AE
100
AcDbEntity
  8
VER
100
AcDbLine
 10
-119.6
 20
-9.399999999999983
 30
0.0
 11
-119.6
 21
9.399999999999984
 31
0.0
  0
LINE
  5
1FB
330
1AE
100
AcDbEntity
  8
VER
100
AcDbLine
 10
-119.6
 20
9.399999999999984
 30
0.0
 11
-120.0
 21
9.799999999999969
 31
0.0
  0
LINE
  5
1FC
330
1AE
100
AcDbEntity
  8
VER
100
AcDbLine
 10
-120.0
 20
-9.799999999999967
 30
0.0
 11
-119.6
 21
-9.399999999999983
 31
0.0
  0
LINE
  5
1FD
330
1AE
100
AcDbEntity
  8
VER
100
AcDbLine
 10
-118.9
 20
-9.399999999999983
 30
0.0
 11
-118.9
 21
9.399999999999984
 31
0.0
  0
LINE
  5
1FE
330
1AE
100
AcDbEntity
  8
VER
100
AcDbLine
 10
-118.9
 20
-9.399999999999983
 30
0.0
 11
-118.5
 21
-9.799999999999967
 31
0.0
  0
LINE
  5
1FF
330
1AE
100
AcDbEntity
  8
VER
100
AcDbLine
 10
-118.5
 20
9.799999999999969
 30
0.0
 11
-118.9
 21
9.399999999999984
 31
0.0
  0
LINE
  5
200
330
1AE
100
AcDbEntity
  8
VER
100
AcDbLine
 10
118.9
 20
-9.4
 30
0.0
 11
118.9
 21
9.399999999999999
 31
0.0
  0
LINE
  5
201
330
1AE
100
AcDbEntity
  8
VER
100
AcDbLine
 10
118.9
 20
9.399999999999999
 30
0.0
 11
118.5
 21
9.799999999999995
 31
0.0
  0
LINE
  5
202
330
1AE
100
AcDbEntity
  8
VER
100
AcDbLine
 10
118.5
 20
-9.799999999999997
 30
0.0
 11
118.9
 21
-9.4
 31
0.0
  0
LINE
  5
203
330
1AE
100
AcDbEntity
  8
VER
100
AcDbLine
 10
119.6
 20
-9.4
 30
0.0
 11
119.6
 21
9.399999999999999
 31
0.0
  0
LINE
  5
204
330
1AE
100
AcDbEntity
  8
VER
100
AcDbLine
 10
119.6
 20
-9.4
 30
0.0
 11
120.0
 21
-9.799999999999997
 31
0.0
  0
LINE
  5
205
330
1AE
100
AcDbEntity
  8
VER
100
AcDbLine
 10
120.0
 20
9.799999999999995
 30
0.0
 11
119.6
 21
9.399999999999999
 31
0.0
  0
LWPOLYLINE
  5
206
330
1AE
100
AcDbEntity
  8
VER
100
AcDbPolyline
 90
        3
 70
     0
 43
0.0
 10
25.42392843728504
 20
7.70069527174061
 10
24.16659344642402
 20
7.354160275974436
 10
22.92726945602982
 20
6.867002429797032
  0
LWPOLYLINE
  5
207
330
1AE
100
AcDbEntity
  8
VER
100
AcDbPolyline
 90
        3
 70
     0
 43
0.0
 10
22.92726945602982
 20
-6.86700242980345
 10
24.15795608562983
 20
-7.351319700904542
 10
25.42392843728503
 20
-7.700695271740613
  0
LWPOLYLINE
  5
208
330
1AE
100
AcDbEntity
  8
VER
100
AcDbPolyline
 90
       10
 70
     0
 43
0.0
 10
22.92726945602982
 20
-6.86700242980345
 10
21.94370506727836
 20
-6.400951899916532
 10
20.90970683252401
 20
-5.894488933412187
 10
19.80321359051559
 20
-5.334723740701077
 10
18.66399713914775
 20
-4.737205097212225
 10
16.37492689438727
 20
-3.448140316924232
 10
15.2014171972578
 20
-2.712214664273675
 10
14.07748995800923
 20
-1.884844986108938
 10
13.49046023192719
 20
-1.345267164544646
 10
12.998
 20
-0.6889715476142977
  0
LWPOLYLINE
  5
209
330
1AE
100
AcDbEntity
  8
VER
100
AcDbPolyline
 90
       10
 70
     0
 43
0.0
 10
12.998
 20
0.6889715476195435
 10
13.42908731845851
 20
1.283699027943997
 10
13.96687596249339
 20
1.792147764654625
 10
15.13848568732107
 20
2.679649385636726
 10
16.37668282502155
 20
3.459189106813379
 10
17.62688026362022
 20
4.170899626944335
 10
19.2160065184018
 20
5.031027046365801
 10
20.75959997637237
 20
5.820907546901774
 10
22.21931174019769
 20
6.533125811787565
 10
22.92726945602982
 20
6.867002429797032
  0
LWPOLYLINE
  5
20A
330
1AE
100
AcDbEntity
  8
VER
100
AcDbPolyline
 90
        3
 70
     0
 43
0.0
 10
-22.92726945602985
 20
6.867002429797042
 10
-24.15795608562905
 20
7.351319700904281
 10
-25.42392843728503
 20
7.70069527174061
  0
LWPOLYLINE
  5
20B
330
1AE
100
AcDbEntity
  8
VER
100
AcDbPolyline
 90
       10
 70
     0
 43
0.0
 10
-22.92726945602985
 20
6.867002429797042
 10
-21.94370506727797
 20
6.400951899913018
 10
-20.90970683252317
 20
5.894488933411754
 10
-19.80321359051516
 20
5.334723740700844
 10
-18.66399713914776
 20
4.737205097212225
 10
-16.37492689438728
 20
3.448140316924225
 10
-15.2014171972578
 20
2.712214664273675
 10
-14.07748995800922
 20
1.884844986108948
 10
-13.49046023193045
 20
1.345267164548063
 10
-12.99799999999999
 20
0.6889715476290637
  0
LWPOLYLINE
  5
20C
330
1AE
100
AcDbEntity
  8
VER
100
AcDbPolyline
 90
       10
 70
     0
 43
0.0
 10
-12.99799999999999
 20
-0.6889715476291538
 10
-13.42908731845959
 20
-1.283699027947977
 10
-13.96687596249313
 20
-1.792147764654427
 10
-15.13848568732063
 20
-2.679649385636442
 10
-16.37668282502096
 20
-3.459189106813025
 10
-17.62688026361947
 20
-4.170899626943916
 10
-19.21600651840111
 20
-5.031027046365426
 10
-20.75959997637174
 20
-5.820907546901451
 10
-22.21931174019713
 20
-6.533125811787291
 10
-22.92726945602985
 20
-6.867002429797028
  0
LWPOLYLINE
  5
20D
330
1AE
100
AcDbEntity
  8
VER
100
AcDbPolyline
 90
        3
 70
     0
 43
0.0
 10
-25.42392843728503
 20
-7.700695271740603
 10
-24.16659344642403
 20
-7.354160275974429
 10
-22.92726945602985
 20
-6.867002429797028
  0
LWPOLYLINE
  5
20E
330
1AE
100
AcDbEntity
  8
VER
100
AcDbPolyline
 90
        7
 70
     0
 43
0.0
 10
-78.87239481387115
 20
-2.690930080020679
 10
-78.16755420937689
 20
-3.127582860536823
 10
-76.93583520247275
 20
-3.822705220823775
 10
-75.10196515593287
 20
-4.839978814879086
 10
-73.35942935897636
 20
-5.790523283094484
 10
-71.7535159019751
 20
-6.670498177859758
 10
-71.62972130929317
 20
-6.739136299525429
  0
LWPOLYLINE
  5
20F
330
1AE
100
AcDbEntity
  8
VER
100
AcDbPolyline
 90
        7
 70
     0
 43
0.0
 10
-71.62972130929317
 20
6.739136299525439
 10
-73.37730022593607
 20
5.779177866369615
 10
-75.28125786736466
 20
4.739355690844837
 10
-76.6202485489779
 20
4.021655522938684
 10
-78.0020019928562
 20
3.262061797184294
 10
-79.3718375136867
 20
2.415022051649535
 10
-79.71960916811284
 20
2.146454846013349
  0
LWPOLYLINE
  5
210
330
1AE
100
AcDbEntity
  8
VER
100
AcDbPolyline
 90
        7
 70
     0
 43
0.0
 10
78.87239481387199
 20
2.690930080020214
 10
78.16755420937697
 20
3.127582860536791
 10
76.93583520247283
 20
3.822705220823744
 10
75.10196515593296
 20
4.839978814879058
 10
73.35942935897641
 20
5.79052328309445
 10
71.75351590197516
 20
6.670498177859727
 10
71.62972130929317
 20
6.739136299525429
  0
LWPOLYLINE
  5
211
330
1AE
100
AcDbEntity
  8
VER
100
AcDbPolyline
 90
        7
 70
     0
 43
0.0
 10
71.62972130929317
 20
-6.739136299525439
 10
73.37730022593607
 20
-5.779177866369622
 10
75.28125786736466
 20
-4.73935569084485
 10
76.6202485489779
 20
-4.021655522938695
 10
78.00200199285624
 20
-3.262061797184315
 10
79.37183751368673
 20
-2.415022051649559
 10
79.71960916811423
 20
-2.146454846012447
  0
LWPOLYLINE
  5
212
330
1AE
100
AcDbEntity
  8
VER
100
AcDbPolyline
 90
        7
 70
     0
 43
0.0
 10
-6.999999999999997
 20
-3.754778600396337
 10
-7.169547298857992
 20
-2.527995936102315
 10
-7.255460927303925
 20
-1.192469313089452
 10
-7.276803322697138
 20
0.1369506638517516
 10
-7.242318613701218
 20
1.499309387822948
 10
-7.158053379224323
 20
2.643615697216266
 10
-6.999999999999996
 20
3.754778600396337
  0
LWPOLYLINE
  5
213
330
1AE
100
AcDbEntity
  8
VER
100
AcDbPolyline
 90
        7
 70
     0
 43
0.0
 10
7.000000000000003
 20
3.754778600396337
 10
7.169547298858018
 20
2.527995936102111
 10
7.255460927303948
 20
1.192469313088994
 10
7.276803322697142
 20
-0.13695066385222
 10
7.242318613701199
 20
-1.49930938782342
 10
7.158053379224305
 20
-2.643615697216502
 10
7.000000000000003
 20
-3.754778600396337
  0
LINE
  5
214
330
1AE
100
AcDbEntity
  8
VER
100
AcDbLine
 10
-113.5958731070238
 20
-9.271271933566487
 30
0.0
 11
-113.5958731070238
 21
9.271271933566485
 31
0.0
  0
LINE
  5
215
330
1AE
100
AcDbEntity
  8
VER
100
AcDbLine
 10
-113.5958731070238
 20
9.271271933566485
 30
0.0
 11
-116.6117082763787
 21
11.38298245314677
 31
0.0
  0
LINE
  5
216
330
1AE
100
AcDbEntity
  8
VER
100
AcDbLine
 10
-116.6117082763787
 20
-11.38298245314677
 30
0.0
 11
-113.5958731070238
 21
-9.271271933566487
 31
0.0
  0
LINE
  5
217
330
1AE
100
AcDbEntity
  8
VER
100
AcDbLine
 10
113.5958731070238
 20
-9.271271933566515
 30
0.0
 11
113.5958731070238
 21
9.27127193356652
 31
0.0
  0
LINE
  5
218
330
1AE
100
AcDbEntity
  8
VER
100
AcDbLine
 10
113.5958731070238
 20
-9.271271933566515
 30
0.0
 11
116.6117082763787
 21
-11.38298245314681
 31
0.0
  0
LINE
  5
219
330
1AE
100
AcDbEntity
  8
VER
100
AcDbLine
 10
116.6117082763787
 20
11.38298245314681
 30
0.0
 11
113.5958731070238
 21
9.27127193356652
 31
0.0
  0
LINE
  5
21A
330
1AE
100
AcDbEntity
  8
VER
100
AcDbLine
 10
-116.6117082763787
 20
-11.38298245314677
 30
0.0
 11
-116.6117082763787
 21
11.38298245314677
 31
0.0
  0
LINE
  5
21B
330
1AE
100
AcDbEntity
  8
VER
100
AcDbLine
 10
-118.5
 20
-10.39999999999999
 30
0.0
 11
-118.5
 21
10.39999999999999
 31
0.0
  0
ARC
  5
21C
330
1AE
100
AcDbEntity
  8
VER
100
AcDbCircle
 10
-117.3
 20
10.39999999999998
 30
0.0
 40
1.200000000000013
100
AcDbArc
 50
54.9999999999992
 51
179.9999999999997
  0
ARC
  5
21D
330
1AE
100
AcDbEntity
  8
VER
100
AcDbCircle
 10
-117.3
 20
-10.39999999999998
 30
0.0
 40
1.200000000000003
100
AcDbArc
 50
180.0000000000002
 51
305.0000000000007
  0
LINE
  5
21E
330
1AE
100
AcDbEntity
  8
VER
100
AcDbLine
 10
118.5
 20
-10.4
 30
0.0
 11
118.5
 21
10.4
 31
0.0
  0
LINE
  5
21F
330
1AE
100
AcDbEntity
  8
VER
100
AcDbLine
 10
116.6117082763787
 20
-11.38298245314681
 30
0.0
 11
116.6117082763787
 21
11.38298245314681
 31
0.0
  0
ARC
  5
220
330
1AE
100
AcDbEntity
  8
VER
100
AcDbCircle
 10
117.3
 20
10.39999999999999
 30
0.0
 40
1.200000000000017
100
AcDbArc
 50
0.0000000000005089
 51
125.0000000000002
  0
ARC
  5
221
330
1AE
100
AcDbEntity
  8
VER
100
AcDbCircle
 10
117.3
 20
-10.39999999999998
 30
0.0
 40
1.200000000000031
100
AcDbArc
 50
235.0000000000006
 51
359.9999999999991
  0
LWPOLYLINE
  5
222
330
1AE
100
AcDbEntity
  8
VER
100
AcDbPolyline
 90
       11
 70
     0
 43
0.0
 10
-23.92019640165026
 20
-7.736162059207328
 10
-22.81414544942994
 20
-7.181913864882688
 10
-21.64940479798443
 20
-6.586511339697308
 10
-20.40115830372274
 20
-5.934036516347413
 10
-19.11475370202534
 20
-5.242150200403854
 10
-17.82956657148362
 20
-4.525295345844733
 10
-16.53559684092304
 20
-3.763555806143373
 10
-15.2132155396463
 20
-2.921842565104103
 10
-13.95389202838408
 20
-1.971359500725727
 10
-13.44473598086762
 20
-1.495195859884588
 10
-12.99799999999999
 20
-0.9448665557163609
  0
LWPOLYLINE
  5
223
330
1AE
100
AcDbEntity
  8
VER
100
AcDbPolyline
 90
       10
 70
     0
 43
0.0
 10
-12.99799999999999
 20
0.9448665557400954
 10
-13.40453798486115
 20
1.454747585910847
 10
-13.8781591359575
 20
1.905964885636231
 10
-14.955267680368
 20
2.73848091195604
 10
-17.10556197783835
 20
4.104944435638746
 10
-19.30467291206706
 20
5.345722803223582
 10
-20.50684266044914
 20
5.989907438868035
 10
-21.67455018074532
 20
6.599495659977333
 10
-22.82615859992213
 20
7.187989580010711
 10
-23.92019640164911
 20
7.736162059206762
  0
LWPOLYLINE
  5
224
330
1AE
100
AcDbEntity
  8
VER
100
AcDbPolyline
 90
        3
 70
     0
 43
0.0
 10
-25.97513267589077
 20
8.535489919188546
 10
-24.93970997147632
 20
8.183371326783922
 10
-23.92019640164911
 20
7.736162059206762
  0
LWPOLYLINE
  5
225
330
1AE
100
AcDbEntity
  8
VER
100
AcDbPolyline
 90
        3
 70
     0
 43
0.0
 10
-23.92019640165026
 20
-7.736162059207328
 10
-24.9349236262281
 20
-8.18152387538924
 10
-25.97513267589077
 20
-8.53548991918855
  0
LWPOLYLINE
  5
226
330
1AE
100
AcDbEntity
  8
VER
100
AcDbPolyline
 90
        3
 70
     0
 43
0.0
 10
23.92019640163283
 20
7.736162059198699
 10
24.9349236262191
 20
8.181523875385773
 10
25.97513267589077
 20
8.535489919188558
  0
LWPOLYLINE
  5
227
330
1AE
100
AcDbEntity
  8
VER
100
AcDbPolyline
 90
       11
 70
     0
 43
0.0
 10
23.92019640163283
 20
7.736162059198699
 10
22.81414544941588
 20
7.181913864875586
 10
21.64940479797433
 20
6.586511339692101
 10
20.40115830371749
 20
5.934036516344648
 10
19.11475370202531
 20
5.242150200403861
 10
17.8295665714836
 20
4.525295345844733
 10
16.53559684092302
 20
3.763555806143369
 10
15.21321553964628
 20
2.921842565104096
 10
13.95389202838406
 20
1.971359500725717
 10
13.44473598087143
 20
1.49519585988855
 10
12.998
 20
0.9448665557332397
  0
LWPOLYLINE
  5
228
330
1AE
100
AcDbEntity
  8
VER
100
AcDbPolyline
 90
       10
 70
     0
 43
0.0
 10
12.998
 20
-0.9448665556973795
 10
13.40453798485031
 20
-1.454747585884295
 10
13.87815913594152
 20
-1.905964885622276
 10
14.95526768036783
 20
-2.738480911955933
 10
17.10556197783802
 20
-4.104944435638584
 10
19.3046729120666
 20
-5.345722803223349
 10
20.50684266044431
 20
-5.989907438865498
 10
21.67455018073642
 20
-6.599495659972757
 10
22.82615859990925
 20
-7.18798958000421
 10
23.92019640163281
 20
-7.736162059198685
  0
LWPOLYLINE
  5
229
330
1AE
100
AcDbEntity
  8
VER
100
AcDbPolyline
 90
        3
 70
     0
 43
0.0
 10
25.97513267589077
 20
-8.535489919188555
 10
24.93970997146803
 20
-8.183371326780733
 10
23.92019640163281
 20
-7.736162059198685
  0
LINE
  5
22A
330
1AE
100
AcDbEntity
  8
VER
100
AcDbLine
 10
67.19665271966528
 20
8.442474272114364
 30
0.0
 11
30.37179549618885
 21
8.440971508067067
 31
0.0
  0
LWPOLYLINE
  5
22B
330
1AE
100
AcDbEntity
  8
VER
100
AcDbPolyline
 90
        5
 70
     0
 43
0.0
 10
71.77500648022807
 20
6.536514257515162
 10
70.67262879202286
 20
7.183677851365464
 10
69.551198718416
 20
7.744193365807221
 10
68.38434263744287
 20
8.180912765715975
 10
67.19665271966528
 20
8.442474272114364
  0
LINE
  5
22C
330
1AE
100
AcDbEntity
  8
VER
100
AcDbLine
 10
71.77500648022807
 20
6.536514257515162
 30
0.0
 11
72.28771843152754
 21
6.241234997855342
 31
0.0
  0
ELLIPSE
  5
22D
330
1AE
100
AcDbEntity
  8
VER
100
AcDbEllipse
 10
74.63473286151601
 20
-0.0000000000000515
 30
0.0
 11
-1.561424668912885E-15
 21
-8.500000000000052
 31
0.0
210
0.0
220
0.0
230
1.0
 40
0.4067366430757995
 41
5.536969300598242
 42
10.17099396735071
  0
LINE
  5
22E
330
1AE
100
AcDbEntity
  8
VER
100
AcDbLine
 10
72.28771843152754
 20
-6.241234997855342
 30
0.0
 11
71.77500648022807
 21
-6.536514257523093
 31
0.0
  0
LWPOLYLINE
  5
22F
330
1AE
100
AcDbEntity
  8
VER
100
AcDbPolyline
 90
        5
 70
     0
 43
0.0
 10
67.19665271966528
 20
-8.442474272114364
 10
68.35889277352051
 20
-8.188579031656513
 10
69.50127342991226
 20
-7.766169639432534
 10
70.64814518332506
 20
-7.197090037104688
 10
71.77500648022807
 20
-6.536514257523093
  0
LINE
  5
230
330
1AE
100
AcDbEntity
  8
VER
100
AcDbLine
 10
30.37179549618885
 20
-8.440971508067067
 30
0.0
 11
67.19665271966528
 21
-8.442474272114364
 31
0.0
  0
ELLIPSE
  5
231
330
1AE
100
AcDbEntity
  8
VER
100
AcDbEllipse
 10
-74.63473286151601
 20
0.0000000000000515
 30
0.0
 11
5.204748896376282E-16
 21
8.500000000000052
 31
0.0
210
0.0
220
0.0
230
1.0
 40
0.4067366430757995
 41
5.536969300598248
 42
10.17099396735071
  0
LINE
  5
232
330
1AE
100
AcDbEntity
  8
VER
100
AcDbLine
 10
-72.28771843152755
 20
6.241234997855353
 30
0.0
 11
-71.77500648022809
 21
6.536514257523093
 31
0.0
  0
LWPOLYLINE
  5
233
330
1AE
100
AcDbEntity
  8
VER
100
AcDbPolyline
 90
        5
 70
     0
 43
0.0
 10
-67.19665271966528
 20
8.442474272114364
 10
-68.35889277352051
 20
8.188579031656506
 10
-69.50127342991227
 20
7.766169639432531
 10
-70.64814518332507
 20
7.197090037104688
 10
-71.77500648022809
 20
6.536514257523093
  0
LINE
  5
234
330
1AE
100
AcDbEntity
  8
VER
100
AcDbLine
 10
-30.37179549618885
 20
8.440971508067067
 30
0.0
 11
-67.19665271966528
 21
8.442474272114364
 31
0.0
  0
LINE
  5
235
330
1AE
100
AcDbEntity
  8
VER
100
AcDbLine
 10
-67.19665271966528
 20
-8.442474272114364
 30
0.0
 11
-30.37179549618885
 21
-8.440971508067067
 31
0.0
  0
LWPOLYLINE
  5
236
330
1AE
100
AcDbEntity
  8
VER
100
AcDbPolyline
 90
        5
 70
     0
 43
0.0
 10
-71.77500648022809
 20
-6.536514257533512
 10
-70.67262879202165
 20
-7.183677851374768
 10
-69.55119871841374
 20
-7.744193365808231
 10
-68.3843426374417
 20
-8.180912765716325
 10
-67.19665271966528
 20
-8.442474272114364
  0
LINE
  5
237
330
1AE
100
AcDbEntity
  8
VER
100
AcDbLine
 10
-71.77500648022809
 20
-6.536514257533512
 30
0.0
 11
-72.28771843152754
 21
-6.241234997855342
 31
0.0
  0
LWPOLYLINE
  5
238
330
1AE
100
AcDbEntity
  8
VER
100
AcDbPolyline
 90
        3
 70
     0
 43
0.0
 10
-30.37179549618885
 20
8.440971508067067
 10
-30.34597213040492
 20
8.496006805827555
 10
-30.33622596728398
 20
8.499979697415261
  0
LWPOLYLINE
  5
239
330
1AE
100
AcDbEntity
  8
VER
100
AcDbPolyline
 90
        3
 70
     0
 43
0.0
 10
-30.33622596728397
 20
-8.499979697415261
 10
-30.36209851183773
 20
-8.469253891229412
 10
-30.37179549618885
 20
-8.440971508067067
  0
LWPOLYLINE
  5
23A
330
1AE
100
AcDbEntity
  8
VER
100
AcDbPolyline
 90
        3
 70
     0
 43
0.0
 10
30.33622596728394
 20
8.499979697415258
 10
30.3620985118377
 20
8.4692538912295
 10
30.37179549618885
 20
8.440971508067067
  0
LWPOLYLINE
  5
23B
330
1AE
100
AcDbEntity
  8
VER
100
AcDbPolyline
 90
        3
 70
     0
 43
0.0
 10
30.37179549618885
 20
-8.440971508067067
 10
30.34597213040493
 20
-8.496006805827555
 10
30.33622596728373
 20
-8.499979697415245
  0
LINE
  5
23C
330
1AE
100
AcDbEntity
  8
VER
100
AcDbLine
 10
-29.43046621511362
 20
8.443125996700038
 30
0.0
 11
-30.37179549618884
 21
8.436410315410738
 31
0.0
  0
LWPOLYLINE
  5
23D
330
1AE
100
AcDbEntity
  8
VER
100
AcDbPolyline
 90
        3
 70
     0
 43
0.0
 10
-25.42392843728503
 20
7.70069527174061
 10
-27.41856260760367
 20
8.139327141351966
 10
-29.43046621511362
 20
8.443125996700038
  0
ELLIPSE
  5
23E
330
1AE
100
AcDbEntity
  8
VER
100
AcDbEllipse
 10
-24.19316467061418
 20
-0.0000000000001226
 30
0.0
 11
1.373212888267679E-14
 21
8.499999999999877
 31
0.0
210
0.0
220
0.0
230
1.0
 40
0.3420201433256722
 41
2.704447932788494
 42
6.720330027980877
  0
LWPOLYLINE
  5
23F
330
1AE
100
AcDbEntity
  8
VER
100
AcDbPolyline
 90
        4
 70
     0
 43
0.0
 10
-29.43046621511362
 20
-8.443125996699948
 10
-27.99593661331892
 20
-8.247294679013772
 10
-26.56617464344266
 20
-7.959734626996559
 10
-25.42392843728503
 20
-7.700695271740603
  0
LINE
  5
240
330
1AE
100
AcDbEntity
  8
VER
100
AcDbLine
 10
-30.37179549618884
 20
-8.43641031541074
 30
0.0
 11
-29.43046621511362
 21
-8.443125996699948
 31
0.0
  0
ELLIPSE
  5
241
330
1AE
100
AcDbEntity
  8
VER
100
AcDbEllipse
 10
-30.33557760307864
 20
-0.0000000000003197
 30
0.0
 11
-1.073398256830236E-12
 21
8.499999999999682
 31
0.0
210
0.0
220
0.0
230
1.0
 40
0.0348994967024932
 41
3.019195873199914
 42
3.139407000217439
  0
LINE
  5
242
330
1AE
100
AcDbEntity
  8
VER
100
AcDbLine
 10
-100.0
 20
-8.5
 30
0.0
 11
-29.998
 21
-8.499992564991603
 31
0.0
  0
LINE
  5
243
330
1AE
100
AcDbEntity
  8
VER
100
AcDbLine
 10
-29.998
 20
8.499992564991606
 30
0.0
 11
-100.0
 21
8.5
 31
0.0
  0
ELLIPSE
  5
244
330
1AE
100
AcDbEntity
  8
VER
100
AcDbEllipse
 10
-30.33557760307767
 20
0.0000000000000284
 30
0.0
 11
1.099884651176777E-13
 21
8.499999999999975
 31
0.0
210
0.0
220
0.0
230
1.0
 40
0.0348994967024991
 41
0.0021856533723881
 42
0.1223967803898769
  0
LINE
  5
245
330
1AE
100
AcDbEntity
  8
VER
100
AcDbLine
 10
29.92355541947886
 20
8.5
 30
0.0
 11
-29.88513206274953
 21
8.5
 31
0.0
  0
LWPOLYLINE
  5
246
330
1AE
100
AcDbEntity
  8
VER
100
AcDbPolyline
 90
        4
 70
     0
 43
0.0
 10
29.43046621511363
 20
8.443125996700031
 10
27.99593661331892
 20
8.247294679013772
 10
26.56617464344266
 20
7.959734626996562
 10
25.42392843728504
 20
7.70069527174061
  0
LINE
  5
247
330
1AE
100
AcDbEntity
  8
VER
100
AcDbLine
 10
30.37179549618885
 20
8.436410315410738
 30
0.0
 11
29.43046621511363
 21
8.443125996700031
 31
0.0
  0
ELLIPSE
  5
248
330
1AE
100
AcDbEntity
  8
VER
100
AcDbEllipse
 10
30.33557760307671
 20
0.0000000000000124
 30
0.0
 11
-8.622063133583332E-13
 21
-8.499999999999989
 31
0.0
210
0.0
220
0.0
230
1.0
 40
0.034899496702507
 41
3.019195873199952
 42
3.139407000217593
  0
LINE
  5
249
330
1AE
100
AcDbEntity
  8
VER
100
AcDbLine
 10
100.0
 20
8.5
 30
0.0
 11
29.998
 21
8.4999925649916
 31
0.0
  0
LINE
  5
24A
330
1AE
100
AcDbEntity
  8
VER
100
AcDbLine
 10
29.998
 20
-8.499992564991604
 30
0.0
 11
100.0
 21
-8.5
 31
0.0
  0
ELLIPSE
  5
24B
330
1AE
100
AcDbEntity
  8
VER
100
AcDbEllipse
 10
30.33557760307779
 20
-0.000000000008205
 30
0.0
 11
-2.129478885573364E-13
 21
-8.499999999991765
 31
0.0
210
0.0
220
0.0
230
1.0
 40
0.0348994967024931
 41
0.0021856533715159
 42
0.1223967803899778
  0
LINE
  5
24C
330
1AE
100
AcDbEntity
  8
VER
100
AcDbLine
 10
29.43046621511363
 20
-8.443125996700035
 30
0.0
 11
30.37179549618885
 21
-8.43641031541074
 31
0.0
  0
LWPOLYLINE
  5
24D
330
1AE
100
AcDbEntity
  8
VER
100
AcDbPolyline
 90
        3
 70
     0
 43
0.0
 10
25.42392843728503
 20
-7.700695271740613
 10
27.41856260760368
 20
-8.13932714135197
 10
29.43046621511363
 20
-8.443125996700035
  0
ELLIPSE
  5
24E
330
1AE
100
AcDbEntity
  8
VER
100
AcDbEllipse
 10
24.19316467061416
 20
0.0000000000000355
 30
0.0
 11
-5.440804064107011E-14
 21
-8.499999999999966
 31
0.0
210
0.0
220
0.0
230
1.0
 40
0.3420201433256719
 41
2.704447932788502
 42
6.720330027980902
  0
LINE
  5
24F
330
1AE
100
AcDbEntity
  8
VER
100
AcDbLine
 10
-29.92355541947864
 20
-8.5
 30
0.0
 11
29.8851320627497
 21
-8.5
 31
0.0
  0
LWPOLYLINE
  5
250
330
1AE
100
AcDbEntity
  8
VER
100
AcDbPolyline
 90
       10
 70
     0
 43
0.0
 10
7.000000000000002
 20
6.469031020021027
 10
7.275734844660809
 20
5.274826148530021
 10
7.415462159925966
 20
3.948601562758836
 10
7.473829895940345
 20
2.533816103492889
 10
7.491224371937103
 20
1.060654396270972
 10
7.49420228336508
 20
-0.584479816707905
 10
7.479423884565461
 20
-2.213650910489657
 10
7.424741960884214
 20
-3.810196181757687
 10
7.273030894702339
 20
-5.293650313626102
 10
7.000000000000002
 20
-6.469031020021027
  0
ELLIPSE
  5
251
330
1AE
100
AcDbEntity
  8
VER
100
AcDbEllipse
 10
12.17638090205042
 20
-0.0000000000000062
 30
0.0
 11
-1.836970198721031E-15
 21
-10.00000000000001
 31
0.0
210
0.0
220
0.0
230
1.0
 40
0.2588190451025207
 41
3.141592653589793
 42
6.283185307179588
  0
LWPOLYLINE
  5
252
330
1AE
100
AcDbEntity
  8
VER
100
AcDbPolyline
 90
       10
 70
     0
 43
0.0
 10
-6.999999999999997
 20
-6.469031020021027
 10
-7.275734844660803
 20
-5.274826148530021
 10
-7.415462159925961
 20
-3.948601562758836
 10
-7.47382989594034
 20
-2.533816103492886
 10
-7.491224371937098
 20
-1.060654396270972
 10
-7.494202283365076
 20
0.5844798167079015
 10
-7.479423884565455
 20
2.213650910489657
 10
-7.424741960884209
 20
3.810196181757683
 10
-7.273030894702334
 20
5.293650313626102
 10
-6.999999999999996
 20
6.469031020021027
  0
ELLIPSE
  5
253
330
1AE
100
AcDbEntity
  8
VER
100
AcDbEllipse
 10
-12.17638090205041
 20
0.0000000000000098
 30
0.0
 11
6.123233995736770E-16
 21
10.00000000000001
 31
0.0
210
0.0
220
0.0
230
1.0
 40
0.2588190451025207
 41
3.141592653589793
 42
6.283185307179588
  0
LWPOLYLINE
  5
254
330
1AE
100
AcDbEntity
  8
VER
100
AcDbPolyline
 90
       18
 70
     0
 43
0.0
 10
7.000000000000003
 20
-6.469031020021027
 10
6.655387293051563
 20
-7.273488690032029
 10
6.171845729157059
 20
-7.956895647660399
 10
5.530647285659721
 20
-8.50787921227736
 10
4.740344984942481
 20
-8.927096576245363
 10
3.872855279991976
 20
-9.209683396906634
 10
2.909957832119281
 20
-9.402140391442597
 10
1.841069055102971
 20
-9.524374752358852
 10
0.7257286443447316
 20
-9.584234041552746
 10
-0.4676205865582815
 20
-9.590633326645477
 10
-1.648087558014472
 20
-9.538881002384576
 10
-2.797832401238256
 20
-9.418698138027553
 10
-3.865635878352399
 20
-9.211844019993082
 10
-4.789734267745282
 20
-8.905463807855186
 10
-5.578506118927866
 20
-8.476665050825101
 10
-6.179205102130979
 20
-7.947114342432244
 10
-6.642773081286475
 20
-7.29818141612518
 10
-6.999999999999997
 20
-6.469031020021027
  0
LWPOLYLINE
  5
255
330
1AE
100
AcDbEntity
  8
VER
100
AcDbPolyline
 90
       18
 70
     0
 43
0.0
 10
-6.999999999999997
 20
6.469031020021027
 10
-6.655387293051557
 20
7.273488690032027
 10
-6.171845729157056
 20
7.956895647660396
 10
-5.53064728565972
 20
8.507879212277352
 10
-4.74034498494248
 20
8.92709657624536
 10
-3.872855279991974
 20
9.209683396906636
 10
-2.90995783211928
 20
9.402140391442597
 10
-1.841069055102968
 20
9.52437475235885
 10
-0.7257286443447281
 20
9.584234041552744
 10
0.4676205865582851
 20
9.590633326645476
 10
1.648087558014476
 20
9.538881002384578
 10
2.79783240123826
 20
9.418698138027551
 10
3.865635878352402
 20
9.21184401999308
 10
4.789734267745285
 20
8.905463807855188
 10
5.578506118927869
 20
8.476665050825103
 10
6.179205102130983
 20
7.947114342432247
 10
6.642773081286481
 20
7.298181416125184
 10
7.000000000000004
 20
6.469031020021027
  0
LWPOLYLINE
  5
256
330
1AE
100
AcDbEntity
  8
VER
100
AcDbPolyline
 90
        4
 70
     0
 43
0.0
 10
-30.42417665042646
 20
9.68245836551854
 10
-30.39437543667097
 20
9.863503045092783
 10
-30.36413660779269
 20
9.969480510747896
 10
-30.33622596728398
 20
9.999982742808688
  0
LINE
  5
257
330
1AE
100
AcDbEntity
  8
VER
100
AcDbLine
 10
-30.42417665042647
 20
9.682458365518558
 30
0.0
 11
-66.5
 21
9.682458365518544
 31
0.0
  0
LINE
  5
258
330
1AE
100
AcDbEntity
  8
VER
100
AcDbLine
 10
-66.5
 20
-9.682458365518546
 30
0.0
 11
-30.42417665042647
 21
-9.682458365518533
 31
0.0
  0
LWPOLYLINE
  5
259
330
1AE
100
AcDbEntity
  8
VER
100
AcDbPolyline
 90
        4
 70
     0
 43
0.0
 10
-30.33622596728399
 20
-9.999982742808688
 10
-30.3666638395101
 20
-9.96354897217177
 10
-30.39687499860055
 20
-9.851286577701266
 10
-30.42417665042646
 20
-9.68245836551854
  0
LWPOLYLINE
  5
25A
330
1AE
100
AcDbEntity
  8
VER
100
AcDbPolyline
 90
        4
 70
     0
 43
0.0
 10
30.33622596728402
 20
9.99998274280869
 10
30.36666383951014
 20
9.963548972171731
 10
30.39687499860058
 20
9.85128657770119
 10
30.42417665042648
 20
9.68245836551854
  0
LWPOLYLINE
  5
25B
330
1AE
100
AcDbEntity
  8
VER
100
AcDbPolyline
 90
        4
 70
     0
 43
0.0
 10
30.42417665042648
 20
-9.68245836551854
 10
30.39437543667098
 20
-9.863503045092783
 10
30.36413660779271
 20
-9.969480510747896
 10
30.336225967284
 20
-9.999982742808688
  0
LINE
  5
25C
330
1AE
100
AcDbEntity
  8
VER
100
AcDbLine
 10
30.42417665042648
 20
-9.682458365518523
 30
0.0
 11
66.5
 21
-9.68245836551854
 31
0.0
  0
LINE
  5
25D
330
1AE
100
AcDbEntity
  8
VER
100
AcDbLine
 10
66.5
 20
9.682458365518544
 30
0.0
 11
30.42417665042648
 21
9.682458365518558
 31
0.0
  0
LWPOLYLINE
  5
25E
330
1AE
100
AcDbEntity
  8
VER
100
AcDbPolyline
 90
        5
 70
     0
 43
0.0
 10
66.5
 20
9.682458365518544
 10
67.55760962579683
 20
9.282830140938954
 10
68.5919347374897
 20
8.754776436771825
 10
69.6204399371377
 20
8.1117987080742
 10
70.62891333774945
 20
7.395299735392491
  0
LWPOLYLINE
  5
25F
330
1AE
100
AcDbEntity
  8
VER
100
AcDbPolyline
 90
        4
 70
     0
 43
0.0
 10
70.62891333776238
 20
-7.395299735382912
 10
68.62518293165773
 20
-8.735718293142382
 10
67.57462347673224
 20
-9.275185159198424
 10
66.5
 20
-9.68245836551854
  0
LINE
  5
260
330
1AE
100
AcDbEntity
  8
VER
100
AcDbLine
 10
70.62891333776238
 20
-7.395299735382912
 30
0.0
 11
71.62972130929317
 21
-6.739136299525439
 31
0.0
  0
ELLIPSE
  5
261
330
1AE
100
AcDbEntity
  8
VER
100
AcDbEllipse
 10
74.63473286151613
 20
0.0000000000000071
 30
0.0
 11
1.313897927562977E-13
 21
-9.999999999999998
 31
0.0
210
0.0
220
0.0
230
1.0
 40
0.4067366430758029
 41
3.141592653589792
 42
3.972895698133385
  0
LWPOLYLINE
  5
262
330
1AE
100
AcDbEntity
  8
VER
100
AcDbPolyline
 90
        3
 70
     0
 43
0.0
 10
71.62972130929317
 20
6.739136299525429
 10
71.28178704253497
 20
6.94554724226313
 10
70.62891333774945
 20
7.395299735392491
  0
ELLIPSE
  5
263
330
1AE
100
AcDbEntity
  8
VER
100
AcDbEllipse
 10
74.63473286151594
 20
0.0000000000000657
 30
0.0
 11
-1.836970198721041E-15
 21
-10.00000000000006
 31
0.0
210
0.0
220
0.0
230
1.0
 40
0.4067366430757973
 41
5.451882262636003
 42
6.2831853071796
  0
LWPOLYLINE
  5
264
330
1AE
100
AcDbEntity
  8
VER
100
AcDbPolyline
 90
        5
 70
     0
 43
0.0
 10
-66.5
 20
-9.682458365518546
 10
-67.55760962579683
 20
-9.282830140938957
 10
-68.5919347374897
 20
-8.754776436771824
 10
-69.62043993713772
 20
-8.1117987080742
 10
-70.62891333774947
 20
-7.395299735392484
  0
LWPOLYLINE
  5
265
330
1AE
100
AcDbEntity
  8
VER
100
AcDbPolyline
 90
        4
 70
     0
 43
0.0
 10
-70.62891333776219
 20
7.395299735383068
 10
-68.62518293165762
 20
8.735718293142451
 10
-67.57462347673219
 20
9.27518515919845
 10
-66.5
 20
9.682458365518544
  0
LINE
  5
266
330
1AE
100
AcDbEntity
  8
VER
100
AcDbLine
 10
-70.62891333776219
 20
7.395299735383068
 30
0.0
 11
-71.62972130929317
 21
6.739136299525439
 31
0.0
  0
ELLIPSE
  5
267
330
1AE
100
AcDbEntity
  8
VER
100
AcDbEllipse
 10
-74.63473286151613
 20
0.0000000000000053
 30
0.0
 11
-1.281735474569446E-13
 21
10.00000000000001
 31
0.0
210
0.0
220
0.0
230
1.0
 40
0.4067366430758024
 41
3.141592653589793
 42
3.972895698133386
  0
LWPOLYLINE
  5
268
330
1AE
100
AcDbEntity
  8
VER
100
AcDbPolyline
 90
        3
 70
     0
 43
0.0
 10
-71.62972130929317
 20
-6.739136299525429
 10
-71.28178704253497
 20
-6.94554724226313
 10
-70.62891333774947
 20
-7.395299735392484
  0
ELLIPSE
  5
269
330
1AE
100
AcDbEntity
  8
VER
100
AcDbEllipse
 10
-74.63473286151594
 20
-0.0000000000000702
 30
0.0
 11
6.123233995736810E-16
 21
10.00000000000007
 31
0.0
210
0.0
220
0.0
230
1.0
 40
0.4067366430757971
 41
5.451882262636006
 42
6.2831853071796
  0
ELLIPSE
  5
26A
330
1AE
100
AcDbEntity
  8
VER
100
AcDbEllipse
 10
-30.3355776030773
 20
0.0000000000003944
 30
0.0
 11
2.493022809156186E-13
 21
10.0000000000004
 31
0.0
210
0.0
220
0.0
230
1.0
 40
0.0348994967025039
 41
2.88491430775756
 42
3.139734848633658
  0
LINE
  5
26B
330
1AE
100
AcDbEntity
  8
VER
100
AcDbLine
 10
-29.998
 20
-9.677629354725374
 30
0.0
 11
-30.42417665042646
 21
-9.672385779787426
 31
0.0
  0
LWPOLYLINE
  5
26C
330
1AE
100
AcDbEntity
  8
VER
100
AcDbPolyline
 90
        3
 70
     0
 43
0.0
 10
-25.97513267589077
 20
-8.53548991918855
 10
-27.97948520114021
 20
-9.14888438291346
 10
-29.998
 20
-9.677629354725374
  0
ELLIPSE
  5
26D
330
1AE
100
AcDbEntity
  8
VER
100
AcDbEllipse
 10
-24.19316467061418
 20
0.0000000000000249
 30
0.0
 11
1.393499969507559E-14
 21
10.00000000000003
 31
0.0
210
0.0
220
0.0
230
1.0
 40
0.3420201433256695
 41
2.593555803361897
 42
3.14159265358979
  0
LWPOLYLINE
  5
26E
330
1AE
100
AcDbEntity
  8
VER
100
AcDbPolyline
 90
        3
 70
     0
 43
0.0
 10
-29.998
 20
9.677629354725374
 10
-27.9814083103158
 20
9.149457566219342
 10
-25.97513267589077
 20
8.535489919188546
  0
LINE
  5
26F
330
1AE
100
AcDbEntity
  8
VER
100
AcDbLine
 10
-30.42417665042646
 20
9.672385779787428
 30
0.0
 11
-29.998
 21
9.677629354725374
 31
0.0
  0
ELLIPSE
  5
270
330
1AE
100
AcDbEntity
  8
VER
100
AcDbEllipse
 10
-30.33557760307751
 20
0.0000000000001794
 30
0.0
 11
-2.825347524067988E-14
 21
9.999999999999819
 31
0.0
210
0.0
220
0.0
230
1.0
 40
0.034899496702502
 41
0.0018578049561278
 42
0.2566783458322649
  0
ELLIPSE
  5
271
330
1AE
100
AcDbEntity
  8
VER
100
AcDbEllipse
 10
-24.19316467061417
 20
0.0000000000000107
 30
0.0
 11
-6.049014748177258E-15
 21
9.999999999999993
 31
0.0
210
0.0
220
0.0
230
1.0
 40
0.3420201433256692
 41
0.0000000000000065
 42
0.5480368502279007
  0
ELLIPSE
  5
272
330
1AE
100
AcDbEntity
  8
VER
100
AcDbEllipse
 10
30.33557760307775
 20
-0.0000000000005187
 30
0.0
 11
1.580351453473098E-13
 21
-10.00000000000052
 31
0.0
210
0.0
220
0.0
230
1.0
 40
0.034899496702496
 41
2.884914307757641
 42
3.139734848633692
  0
LINE
  5
273
330
1AE
100
AcDbEntity
  8
VER
100
AcDbLine
 10
29.998
 20
9.677629354725374
 30
0.0
 11
30.42417665042647
 21
9.672385779787428
 31
0.0
  0
LWPOLYLINE
  5
274
330
1AE
100
AcDbEntity
  8
VER
100
AcDbPolyline
 90
        3
 70
     0
 43
0.0
 10
25.97513267589077
 20
8.535489919188558
 10
27.97948520114021
 20
9.148884382913462
 10
29.998
 20
9.677629354725374
  0
ELLIPSE
  5
275
330
1AE
100
AcDbEntity
  8
VER
100
AcDbEllipse
 10
24.19316467061415
 20
-0.0000000000000142
 30
0.0
 11
-8.177302797173245E-14
 21
-10.00000000000002
 31
0.0
210
0.0
220
0.0
230
1.0
 40
0.3420201433256712
 41
2.593555803361908
 42
3.141592653589798
  0
LWPOLYLINE
  5
276
330
1AE
100
AcDbEntity
  8
VER
100
AcDbPolyline
 90
        3
 70
     0
 43
0.0
 10
29.99800000000001
 20
-9.677629354725374
 10
27.98140831031581
 20
-9.14945756621934
 10
25.97513267589077
 20
-8.535489919188555
  0
LINE
  5
277
330
1AE
100
AcDbEntity
  8
VER
100
AcDbLine
 10
30.42417665042647
 20
-9.672385779787426
 30
0.0
 11
29.99800000000001
 21
-9.677629354725374
 31
0.0
  0
ELLIPSE
  5
278
330
1AE
100
AcDbEntity
  8
VER
100
AcDbEllipse
 10
30.33557760307731
 20
0.0000000000001119
 30
0.0
 11
2.557347715143181E-13
 21
-10.00000000000011
 31
0.0
210
0.0
220
0.0
230
1.0
 40
0.0348994967025046
 41
0.0018578049561064
 42
0.2566783458322072
  0
ELLIPSE
  5
279
330
1AE
100
AcDbEntity
  8
VER
100
AcDbEllipse
 10
24.19316467061414
 20
-0.0000000000000355
 30
0.0
 11
6.033551918028754E-14
 21
-9.999999999999966
 31
0.0
210
0.0
220
0.0
230
1.0
 40
0.3420201433256708
 41
0.0000000000000011
 42
0.5480368502278957
  0
ARC
  5
27A
330
1AE
100
AcDbEntity
  8
GEW
100
AcDbCircle
 10
0.0000000000000138
 20
103.0
 30
0.0
 40
12.05849999999999
100
AcDbArc
 50
75.00000000000001
 51
14.99999999999996
  0
CIRCLE
  5
27B
330
1AE
100
AcDbEntity
  8
VER
100
AcDbCircle
 10
-0.0000000000000022
 20
103.0000000000001
 30
0.0
 40
11.90000000000011
  0
ELLIPSE
  5
27C
330
1AE
100
AcDbEntity
  8
VER
100
AcDbEllipse
 10
12.17638090205043
 20
0.000000000000004
 30
0.0
 11
-1.561424668912874E-15
 21
-8.499999999999995
 31
0.0
210
0.0
220
0.0
230
1.0
 40
0.2588190451025198
 41
0.0
 42
6.283185307179586
  0
ELLIPSE
  5
27D
330
1AE
100
AcDbEntity
  8
VER
100
AcDbEllipse
 10
-12.17638090205042
 20
-0.0000000000000044
 30
0.0
 11
5.204748896376249E-16
 21
8.499999999999996
 31
0.0
210
0.0
220
0.0
230
1.0
 40
0.2588190451025197
 41
0.0
 42
6.283185307179586
  0
LINE
  5
27E
330
1AE
100
AcDbEntity
  8
MITTE
100
AcDbLine
 10
-13.88205000000001
 20
103.0
 30
0.0
 11
13.88205000000002
 21
103.0
 31
0.0
  0
LINE
  5
27F
330
1AE
100
AcDbEntity
  8
MITTE
100
AcDbLine
 10
0.0000000000000029
 20
76.75000000000001
 30
0.0
 11
0.0000000000000029
 21
116.88205
 31
0.0
  0
LINE
  5
280
330
1AE
100
AcDbEntity
  8
MITTE
100
AcDbLine
 10
8.250000000000004
 20
78.00000000000001
 30
0.0
 11
-8.249999999999996
 21
78.00000000000001
 31
0.0
  0
LINE
  5
281
330
1AE
100
AcDbEntity
  8
MITTE
100
AcDbLine
 10
8.250000000000004
 20
68.72949016875162
 30
0.0
 11
-8.249999999999996
 21
68.72949016875162
 31
0.0
  0
LINE
  5
282
330
1AE
100
AcDbEntity
  8
MITTE
100
AcDbLine
 10
0.0000000000000029
 20
73.82949016875156
 30
0.0
 11
0.0000000000000029
 21
-38.37050983124844
 31
0.0
  0
LINE
  5
283
330
1AE
100
AcDbEntity
  8
MITTE
100
AcDbLine
 10
-6.999999999999997
 20
11.0
 30
0.0
 11
-6.999999999999997
 21
-11.0
 31
0.0
  0
LINE
  5
284
330
1AE
100
AcDbEntity
  8
MITTE
100
AcDbLine
 10
-80.769465723032
 20
0.0
 30
0.0
 11
-124.769465723032
 21
0.0
 31
0.0
  0
LINE
  5
285
330
1AE
100
AcDbEntity
  8
MITTE
100
AcDbLine
 10
7.000000000000003
 20
-11.0
 30
0.0
 11
7.000000000000003
 21
11.0
 31
0.0
  0
LINE
  5
286
330
1AE
100
AcDbEntity
  8
MITTE
100
AcDbLine
 10
80.769465723032
 20
0.0
 30
0.0
 11
124.769465723032
 21
0.0
 31
0.0
  0
LINE
  5
287
330
1AE
100
AcDbEntity
  8
MITTE
100
AcDbLine
 10
-17.35276180410082
 20
16.5
 30
0.0
 11
-17.35276180410082
 21
-16.5
 31
0.0
  0
LINE
  5
288
330
1AE
100
AcDbEntity
  8
MITTE
100
AcDbLine
 10
-31.03356753712758
 20
16.5
 30
0.0
 11
-31.03356753712758
 21
-16.5
 31
0.0
  0
LINE
  5
289
330
1AE
100
AcDbEntity
  8
MITTE
100
AcDbLine
 10
-66.5
 20
16.5
 30
0.0
 11
-66.5
 21
-16.5
 31
0.0
  0
LINE
  5
28A
330
1AE
100
AcDbEntity
  8
MITTE
100
AcDbLine
 10
-82.76946572303207
 20
16.5
 30
0.0
 11
-82.76946572303207
 21
-16.5
 31
0.0
  0
LINE
  5
28B
330
1AE
100
AcDbEntity
  8
MITTE
100
AcDbLine
 10
17.35276180410082
 20
-16.5
 30
0.0
 11
17.35276180410082
 21
16.5
 31
0.0
  0
LINE
  5
28C
330
1AE
100
AcDbEntity
  8
MITTE
100
AcDbLine
 10
31.03356753712759
 20
-16.5
 30
0.0
 11
31.03356753712759
 21
16.5
 31
0.0
  0
LINE
  5
28D
330
1AE
100
AcDbEntity
  8
MITTE
100
AcDbLine
 10
66.5
 20
-16.5
 30
0.0
 11
66.5
 21
16.5
 31
0.0
  0
LINE
  5
28E
330
1AE
100
AcDbEntity
  8
MITTE
100
AcDbLine
 10
82.76946572303207
 20
-16.5
 30
0.0
 11
82.76946572303207
 21
16.5
 31
0.0
  0
LINE
  5
28F
330
1AE
100
AcDbEntity
  8
MITTE
100
AcDbLine
 10
-68.32509999999999
 20
0.0
 30
0.0
 11
-28.17289999999999
 21
0.0
 31
0.0
  0
LINE
  5
290
330
1AE
100
AcDbEntity
  8
MITTE
100
AcDbLine
 10
28.17290000000002
 20
0.0
 30
0.0
 11
68.32509999999999
 21
0.0
 31
0.0
  0
LINE
  5
291
330
1AE
100
AcDbEntity
  8
MITTE
100
AcDbLine
 10
-7.699999999999998
 20
0.0
 30
0.0
 11
7.700000000000003
 21
0.0
 31
0.0
  0
LINE
  5
292
330
1AE
100
AcDbEntity
  8
050
100
AcDbLine
 10
7.500000000000003
 20
10.0
 30
0.0
 11
7.500000000000003
 21
25.00000000000001
 31
0.0
  0
LINE
  5
293
330
1AE
100
AcDbEntity
  8
050
100
AcDbLine
 10
7.500000000000003
 20
-15.70560754536663
 30
0.0
 11
7.500000000000003
 21
-10.0
 31
0.0
  0
LINE
  5
294
330
1AE
100
AcDbEntity
  8
050
100
AcDbLine
 10
-7.499999999999997
 20
-10.0
 30
0.0
 11
-7.499999999999997
 21
-15.70560754536663
 31
0.0
  0
LINE
  5
295
330
1AE
100
AcDbEntity
  8
050
100
AcDbLine
 10
-7.499999999999997
 20
24.99999999999999
 30
0.0
 11
-7.499999999999997
 21
10.0
 31
0.0
  0
LWPOLYLINE
  5
296
330
1AE
100
AcDbEntity
  8
050
100
AcDbPolyline
 90
       37
 70
     0
 43
0.0
 10
7.500000000000003
 20
-15.70560754536663
 10
7.471460235688094
 20
-16.4315794851275
 10
7.386058147591563
 20
-17.15202634007295
 10
7.244443697168016
 20
-17.86146507461913
 10
7.047694655894317
 20
-18.55449643162534
 10
6.797308402774878
 20
-19.22584602400098
 10
6.495190528383295
 20
-19.8704044759761
 10
6.143640332167444
 20
-20.48326630853614
 10
5.745333323392342
 20
-21.05976727307922
 10
5.303300858899115
 20
-21.59551984916438
 10
4.820907072649054
 20
-22.08644663619135
 10
4.301823272632856
 20
-22.52881138488116
 10
3.750000000000011
 20
-22.91924743238915
 10
3.169636963055258
 20
-23.25478332464204
 10
2.565151074942529
 20
-23.53286543089767
 10
1.94114283826892
 20
-23.75137737841689
 10
1.302361332501993
 20
-23.90865615933794
 10
0.6536680706074527
 20
-24.0035047871705
 10
0.0000000000000172
 20
-24.03520140658558
 10
-0.6536680706074184
 20
-24.0035047871705
 10
-1.302361332501959
 20
-23.90865615933794
 10
-1.941142838268887
 20
-23.7513773784169
 10
-2.565151074942496
 20
-23.53286543089769
 10
-3.169636963055226
 20
-23.25478332464205
 10
-3.749999999999981
 20
-22.91924743238916
 10
-4.301823272632826
 20
-22.52881138488118
 10
-4.820907072649026
 20
-22.08644663619137
 10
-5.30330085889909
 20
-21.5955198491644
 10
-5.745333323392318
 20
-21.05976727307925
 10
-6.143640332167423
 20
-20.48326630853616
 10
-6.495190528383275
 20
-19.87040447597612
 10
-6.797308402774862
 20
-19.22584602400101
 10
-7.047694655894301
 20
-18.55449643162537
 10
-7.244443697168003
 20
-17.86146507461916
 10
-7.386058147591553
 20
-17.15202634007298
 10
-7.471460235688086
 20
-16.43157948512753
 10
-7.499999999999997
 20
-15.70560754536666
  0
LINE
  5
297
330
1AE
100
AcDbEntity
  8
050
100
AcDbLine
 10
7.500000000000003
 20
68.72949016875157
 30
0.0
 11
-7.499999999999997
 21
68.72949016875157
 31
0.0
  0
LINE
  5
298
330
1AE
100
AcDbEntity
  8
050
100
AcDbLine
 10
-7.499999999999997
 20
92.0
 30
0.0
 11
-7.499999999999998
 21
45.0
 31
0.0
  0
LINE
  5
299
330
1AE
100
AcDbEntity
  8
050
100
AcDbLine
 10
7.500000000000003
 20
44.99999999999999
 30
0.0
 11
7.500000000000003
 21
92.0
 31
0.0
  0
LINE
  5
29A
330
1AE
100
AcDbEntity
  8
050
100
AcDbLine
 10
7.500000000000003
 20
78.00000000000001
 30
0.0
 11
-7.499999999999997
 21
78.00000000000001
 31
0.0
  0
ELLIPSE
  5
29B
330
1AE
100
AcDbEntity
  8
050
100
AcDbEllipse
 10
0.0000000000000018
 20
73.36474508437584
 30
0.0
 11
-7.500000000000012
 21
9.184850993605164E-16
 31
0.0
210
0.0
220
0.0
230
1.0
 40
0.3090169943749492
 41
0.0000000000000188
 42
3.141592653589775
  0
CIRCLE
  5
29C
330
1AE
100
AcDbEntity
  8
050
100
AcDbCircle
 10
0.0000000000000029
 20
103.0
 30
0.0
 40
6.500000000000005
  0
CIRCLE
  5
29D
330
1AE
100
AcDbEntity
  8
050
100
AcDbCircle
 10
0.0000000000000029
 20
103.0
 30
0.0
 40
7.000000000000006
  0
LINE
  5
29E
330
1AE
100
AcDbEntity
  8
050
100
AcDbLine
 10
-8.660254037844386
 20
92.0
 30
0.0
 11
-7.334496642578823
 21
92.0
 31
0.0
  0
LINE
  5
29F
330
1AE
100
AcDbEntity
  8
050
100
AcDbLine
 10
7.334496642578828
 20
92.0
 30
0.0
 11
8.66025403784439
 21
92.0
 31
0.0
  0
ARC
  5
2A0
330
1AE
100
AcDbEntity
  8
050
100
AcDbCircle
 10
0.0000000000000062
 20
103.0
 30
0.0
 40
14.00000000000001
100
AcDbArc
 50
31.00271913387409
 51
148.9972808661259
  0
ARC
  5
2A1
330
1AE
100
AcDbEntity
  8
050
100
AcDbCircle
 10
-0.0000000000001243
 20
103.0000000000001
 30
0.0
 40
14.00000000000017
100
AcDbArc
 50
308.2132107017383
 51
328.9972808661258
  0
LINE
  5
2A2
330
1AE
100
AcDbEntity
  8
050
100
AcDbLine
 10
12.0
 20
108.5493099571028
 30
0.0
 11
12.0
 21
110.211102550928
 31
0.0
  0
LINE
  5
2A3
330
1AE
100
AcDbEntity
  8
050
100
AcDbLine
 10
12.0
 20
95.78889744907201
 30
0.0
 11
12.0
 21
97.45069004289721
 31
0.0
  0
LINE
  5
2A4
330
1AE
100
AcDbEntity
  8
050
100
AcDbLine
 10
-12.0
 20
97.45069004289721
 30
0.0
 11
-11.99999999999999
 21
95.78889744907201
 31
0.0
  0
LINE
  5
2A5
330
1AE
100
AcDbEntity
  8
050
100
AcDbLine
 10
-11.99999999999999
 20
110.211102550928
 30
0.0
 11
-12.0
 21
108.5493099571028
 31
0.0
  0
ARC
  5
2A6
330
1AE
100
AcDbEntity
  8
050
100
AcDbCircle
 10
0.0000000000003766
 20
103.0000000000004
 30
0.0
 40
14.00000000000052
100
AcDbArc
 50
211.0027191338745
 51
231.7867892982615
  0
LWPOLYLINE
  5
2A7
330
1AE
100
AcDbEntity
  8
050
100
AcDbPolyline
 90
       20
 70
     0
 43
0.0
 10
-97.74678008174966
 20
9.999987440209795
 10
-97.75725890854346
 20
9.8832981414479
 10
-97.7677951200477
 20
9.51940693650441
 10
-97.77834374505396
 20
8.881203059777743
 10
-97.78833680606347
 20
7.968920491683747
 10
-97.7969208566762
 20
6.859161869025205
 10
-97.80432623668747
 20
5.519964207355642
 10
-97.80991481140359
 20
4.063793410242371
 10
-97.81383276762072
 20
2.448695418723643
 10
-97.81574052161443
 20
0.8103043420332954
 10
-97.81568730869797
 20
-0.8985860525317114
 10
-97.81367778523918
 20
-2.534487460320048
 10
-97.80966021078643
 20
-4.144518798072673
 10
-97.80398269645295
 20
-5.59352176681175
 10
-97.79649685487668
 20
-6.923206896866697
 10
-97.7878472943886
 20
-8.021968341281038
 10
-97.7778019983638
 20
-8.921414501064055
 10
-97.76721823197116
 20
-9.546052399711098
 10
-97.75580256860977
 20
-9.913842135991672
 10
-97.74678008174966
 20
-9.999987440209798
  0
ARC
  5
2A8
330
1AE
100
AcDbEntity
  8
050
100
AcDbCircle
 10
-100.0000000000001
 20
5.172999999999616
 30
0.0
 40
5.327000000000371
100
AcDbArc
 50
64.99112605015223
 51
89.99999999999893
  0
ARC
  5
2A9
330
1AE
100
AcDbEntity
  8
050
100
AcDbCircle
 10
-100.0
 20
-5.173000000000146
 30
0.0
 40
5.32699999999984
100
AcDbArc
 50
270.0
 51
295.0297621947697
  0
LINE
  5
2AA
330
1AE
100
AcDbEntity
  8
050
100
AcDbLine
 10
-100.0
 20
-10.49999999999999
 30
0.0
 11
-100.0
 21
10.49999999999999
 31
0.0
  0
LINE
  5
2AB
330
1AE
100
AcDbEntity
  8
050
100
AcDbLine
 10
-100.0
 20
10.49999999999999
 30
0.0
 11
-112.7355084524972
 21
10.49999999999999
 31
0.0
  0
LINE
  5
2AC
330
1AE
100
AcDbEntity
  8
050
100
AcDbLine
 10
-112.7355084524972
 20
-10.49999999999999
 30
0.0
 11
-100.0
 21
-10.49999999999999
 31
0.0
  0
LWPOLYLINE
  5
2AD
330
1AE
100
AcDbEntity
  8
050
100
AcDbPolyline
 90
       20
 70
     0
 43
0.0
 10
97.74678008174953
 20
9.999987440209773
 10
97.75725890854336
 20
9.883298141448996
 10
97.76779512004765
 20
9.51940693650441
 10
97.77834374505393
 20
8.881203059777743
 10
97.78833680606344
 20
7.968920491683754
 10
97.79692085667618
 20
6.859161869025212
 10
97.80432623668746
 20
5.519964207355649
 10
97.80991481140357
 20
4.063793410242375
 10
97.81383276762072
 20
2.448695418723647
 10
97.81574052161443
 20
0.8103043420332988
 10
97.81568730869796
 20
-0.8985860525317045
 10
97.81367778523916
 20
-2.534487460320044
 10
97.80966021078642
 20
-4.144518798072667
 10
97.80398269645293
 20
-5.593521766811747
 10
97.79649685487666
 20
-6.923206896866693
 10
97.78784729438857
 20
-8.021968341281035
 10
97.77780199836378
 20
-8.92141450106405
 10
97.76721823197113
 20
-9.546052399711096
 10
97.75580256860974
 20
-9.91384213599167
 10
97.74678008174966
 20
-9.999987440209798
  0
ARC
  5
2AE
330
1AE
100
AcDbEntity
  8
050
100
AcDbCircle
 10
100.0
 20
5.173000000000036
 30
0.0
 40
5.326999999999973
100
AcDbArc
 50
90.0000000000003
 51
115.029274840671
  0
ARC
  5
2AF
330
1AE
100
AcDbEntity
  8
050
100
AcDbCircle
 10
100.0
 20
-5.173000000000137
 30
0.0
 40
5.326999999999886
100
AcDbArc
 50
244.9903154726752
 51
269.9999999999997
  0
LINE
  5
2B0
330
1AE
100
AcDbEntity
  8
050
100
AcDbLine
 10
100.0
 20
-10.50000000000001
 30
0.0
 11
100.0
 21
10.50000000000001
 31
0.0
  0
LINE
  5
2B1
330
1AE
100
AcDbEntity
  8
050
100
AcDbLine
 10
112.7355084524972
 20
10.5
 30
0.0
 11
100.0
 21
10.5
 31
0.0
  0
LINE
  5
2B2
330
1AE
100
AcDbEntity
  8
050
100
AcDbLine
 10
100.0
 20
-10.50000000000001
 30
0.0
 11
112.7355084524972
 21
-10.50000000000001
 31
0.0
  0
LINE
  5
2B3
330
1AE
100
AcDbEntity
  8
050
100
AcDbLine
 10
-82.76946572303201
 20
-10.0
 30
0.0
 11
-82.76946572303201
 21
10.0
 31
0.0
  0
LINE
  5
2B4
330
1AE
100
AcDbEntity
  8
050
100
AcDbLine
 10
82.76946572303201
 20
10.0
 30
0.0
 11
82.76946572303201
 21
-10.0
 31
0.0
  0
CIRCLE
  5
2B5
330
1AE
100
AcDbEntity
  8
050
100
AcDbCircle
 10
0.0000000000000029
 20
103.0
 30
0.0
 40
13.22100000000001
  0
CIRCLE
  5
2B6
330
1AE
100
AcDbEntity
  8
050
100
AcDbCircle
 10
0.0000000000000029
 20
103.0
 30
0.0
 40
12.0585
  0
CIRCLE
  5
2B7
330
1AE
100
AcDbEntity
  8
050
100
AcDbCircle
 10
0.0000000000000029
 20
103.0
 30
0.0
 40
9.000000000000007
  0
CIRCLE
  5
2B8
330
1AE
100
AcDbEntity
  8
050
100
AcDbCircle
 10
0.0000000000000029
 20
103.0
 30
0.0
 40
10.73205080756887
  0
ELLIPSE
  5
2B9
330
1AE
100
AcDbEntity
  8
050
100
AcDbEllipse
 10
12.17638090205042
 20
0.000000000000016
 30
0.0
 11
-1.836970198721032E-15
 21
-10.00000000000001
 31
0.0
210
0.0
220
0.0
230
1.0
 40
0.2588190451025207
 41
0.0
 42
3.141592653589794
  0
ELLIPSE
  5
2BA
330
1AE
100
AcDbEntity
  8
050
100
AcDbEllipse
 10
-12.17638090205041
 20
-0.0000000000000178
 30
0.0
 11
6.123233995736777E-16
 21
10.00000000000002
 31
0.0
210
0.0
220
0.0
230
1.0
 40
0.2588190451025206
 41
6.283185307179586
 42
9.42477796076938
  0
LINE
  5
2BB
330
1AE
100
AcDbEntity
  8
050
100
AcDbLine
 10
-29.88496190957862
 20
-10.0
 30
0.0
 11
29.88513206269374
 21
-10.0
 31
0.0
  0
LINE
  5
2BC
330
1AE
100
AcDbEntity
  8
050
100
AcDbLine
 10
7.000000000000003
 20
-10.0
 30
0.0
 11
7.000000000000003
 21
10.0
 31
0.0
  0
LINE
  5
2BD
330
1AE
100
AcDbEntity
  8
050
100
AcDbLine
 10
-6.999999999999997
 20
-10.0
 30
0.0
 11
-6.999999999999997
 21
10.0
 31
0.0
  0
LINE
  5
2BE
330
1AE
100
AcDbEntity
  8
050
100
AcDbLine
 10
112.7355084524972
 20
-10.5
 30
0.0
 11
112.7355084524972
 21
10.5
 31
0.0
  0
LINE
  5
2BF
330
1AE
100
AcDbEntity
  8
050
100
AcDbLine
 10
112.7355084524972
 20
-10.5
 30
0.0
 11
115.7513436218522
 21
-12.61171051958028
 31
0.0
  0
LINE
  5
2C0
330
1AE
100
AcDbEntity
  8
050
100
AcDbLine
 10
115.7513436218522
 20
12.61171051958028
 30
0.0
 11
112.7355084524972
 21
10.5
 31
0.0
  0
LINE
  5
2C1
330
1AE
100
AcDbEntity
  8
050
100
AcDbLine
 10
-112.7355084524972
 20
-10.49999999999999
 30
0.0
 11
-112.7355084524972
 21
10.49999999999999
 31
0.0
  0
LINE
  5
2C2
330
1AE
100
AcDbEntity
  8
050
100
AcDbLine
 10
-112.7355084524972
 20
10.49999999999999
 30
0.0
 11
-115.7513436218522
 21
12.61171051958027
 31
0.0
  0
LINE
  5
2C3
330
1AE
100
AcDbEntity
  8
050
100
AcDbLine
 10
-115.7513436218522
 20
-12.61171051958027
 30
0.0
 11
-112.7355084524972
 21
-10.49999999999999
 31
0.0
  0
LINE
  5
2C4
330
1AE
100
AcDbEntity
  8
050
100
AcDbLine
 10
120.0
 20
-10.4
 30
0.0
 11
120.0
 21
10.4
 31
0.0
  0
LINE
  5
2C5
330
1AE
100
AcDbEntity
  8
050
100
AcDbLine
 10
115.7513436218522
 20
-12.61171051958028
 30
0.0
 11
115.7513436218522
 21
12.61171051958029
 31
0.0
  0
ARC
  5
2C6
330
1AE
100
AcDbEntity
  8
050
100
AcDbCircle
 10
117.3
 20
10.40000000000002
 30
0.0
 40
2.699999999999989
100
AcDbArc
 50
359.9999999999996
 51
125.0000000000005
  0
ARC
  5
2C7
330
1AE
100
AcDbEntity
  8
050
100
AcDbCircle
 10
117.3
 20
-10.40000000000002
 30
0.0
 40
2.699999999999993
100
AcDbArc
 50
234.9999999999995
 51
0.0000000000004523
  0
LINE
  5
2C8
330
1AE
100
AcDbEntity
  8
050
100
AcDbLine
 10
-115.7513436218522
 20
-12.61171051958027
 30
0.0
 11
-115.7513436218522
 21
12.61171051958027
 31
0.0
  0
LINE
  5
2C9
330
1AE
100
AcDbEntity
  8
050
100
AcDbLine
 10
-120.0
 20
-10.39999999999998
 30
0.0
 11
-120.0
 21
10.39999999999999
 31
0.0
  0
ARC
  5
2CA
330
1AE
100
AcDbEntity
  8
050
100
AcDbCircle
 10
-117.3
 20
10.4
 30
0.0
 40
2.699999999999996
100
AcDbArc
 50
54.99999999999992
 51
180.0000000000003
  0
ARC
  5
2CB
330
1AE
100
AcDbEntity
  8
050
100
AcDbCircle
 10
-117.3
 20
-10.4
 30
0.0
 40
2.700000000000003
100
AcDbArc
 50
179.9999999999997
 51
305.0000000000001
  0
LINE
  5
2CC
330
1AE
100
AcDbEntity
  8
050
100
AcDbLine
 10
97.7468873633201
 20
10.0
 30
0.0
 11
29.99800000000001
 21
9.99999368024363
 31
0.0
  0
LINE
  5
2CD
330
1AE
100
AcDbEntity
  8
050
100
AcDbLine
 10
29.99800000000001
 20
-9.99999368024363
 30
0.0
 11
97.7468874885176
 21
-10.0
 31
0.0
  0
LINE
  5
2CE
330
1AE
100
AcDbEntity
  8
050
100
AcDbLine
 10
66.5
 20
-9.999999999999998
 30
0.0
 11
66.5
 21
10.0
 31
0.0
  0
ELLIPSE
  5
2CF
330
1AE
100
AcDbEntity
  8
050
100
AcDbEllipse
 10
74.63473286151604
 20
0.0000000000000071
 30
0.0
 11
-1.836970198721028E-15
 21
-9.999999999999991
 31
0.0
210
0.0
220
0.0
230
1.0
 40
0.4067366430758018
 41
6.283185307179576
 42
9.42477796076939
  0
LINE
  5
2D0
330
1AE
100
AcDbEntity
  8
050
100
AcDbLine
 10
-97.7468874885177
 20
-10.0
 30
0.0
 11
-29.99799999999999
 21
-9.99999368024363
 31
0.0
  0
LINE
  5
2D1
330
1AE
100
AcDbEntity
  8
050
100
AcDbLine
 10
-29.99799999999999
 20
9.99999368024363
 30
0.0
 11
-97.74688736332016
 21
10.0
 31
0.0
  0
LINE
  5
2D2
330
1AE
100
AcDbEntity
  8
050
100
AcDbLine
 10
-66.5
 20
-9.999999999999998
 30
0.0
 11
-66.5
 21
10.0
 31
0.0
  0
ELLIPSE
  5
2D3
330
1AE
100
AcDbEntity
  8
050
100
AcDbEllipse
 10
-74.63473286151604
 20
-0.0000000000000036
 30
0.0
 11
6.123233995736759E-16
 21
9.999999999999989
 31
0.0
210
0.0
220
0.0
230
1.0
 40
0.4067366430758018
 41
6.283185307179576
 42
9.424777960769386
  0
LINE
  5
2D4
330
1AE
100
AcDbEntity
  8
050
100
AcDbLine
 10
-29.99799999999999
 20
-9.99999368024363
 30
0.0
 11
-29.99799999999999
 21
9.99999368024363
 31
0.0
  0
ELLIPSE
  5
2D5
330
1AE
100
AcDbEntity
  8
050
100
AcDbEllipse
 10
-30.33557760307757
 20
0.0000000000000002
 30
0.0
 11
6.123233995736796E-16
 21
10.00000000000005
 31
0.0
210
0.0
220
0.0
230
1.0
 40
0.0348994967025009
 41
4.455893628648434
 42
4.968884332120944
  0
LINE
  5
2D6
330
1AE
100
AcDbEntity
  8
050
100
AcDbLine
 10
29.88496190957856
 20
10.0
 30
0.0
 11
-29.88513206269372
 21
10.0
 31
0.0
  0
ELLIPSE
  5
2D7
330
1AE
100
AcDbEntity
  8
050
100
AcDbEllipse
 10
-24.19316467061421
 20
-0.0000000000000018
 30
0.0
 11
6.123233995736773E-16
 21
10.00000000000001
 31
0.0
210
0.0
220
0.0
230
1.0
 40
0.3420201433256685
 41
3.141592653589794
 42
6.283185307179585
  0
LINE
  5
2D8
330
1AE
100
AcDbEntity
  8
050
100
AcDbLine
 10
29.99800000000001
 20
9.99999368024363
 30
0.0
 11
29.99800000000001
 21
-9.99999368024363
 31
0.0
  0
ELLIPSE
  5
2D9
330
1AE
100
AcDbEntity
  8
050
100
AcDbEllipse
 10
30.33557760307758
 20
-0.0000000000000002
 30
0.0
 11
-1.836970198721039E-15
 21
-10.00000000000005
 31
0.0
210
0.0
220
0.0
230
1.0
 40
0.0348994967025009
 41
4.455893628648436
 42
4.968884332120945
  0
ELLIPSE
  5
2DA
330
1AE
100
AcDbEntity
  8
050
100
AcDbEllipse
 10
24.19316467061421
 20
0.0000000000000071
 30
0.0
 11
-1.836970198721031E-15
 21
-10.00000000000001
 31
0.0
210
0.0
220
0.0
230
1.0
 40
0.342020143325669
 41
3.141592653589794
 42
6.283185307179588
  0
ENDBLK
  5
1B1
330
1AE
100
AcDbEntity
  8
0
100
AcDbBlockEnd
  0
ENDSEC
  0
SECTION
  2
ENTITIES
  0
ATTDEF
  5
6F
330
1F
100
AcDbEntity
  8
AM_6
100
AcDbText
 10
179.769465723032
 20
117.0
 30
0.0
 40
0.5
  1
Geberit Mapress Carbon Steel set of connector T-pieces for inlet and return flow, with union connector for Euro cone
100
AcDbAttributeDefinition
  3

  2
NN
 70
     8
280
     0
  0
ATTDEF
  5
70
330
1F
100
AcDbEntity
  8
AM_6
100
AcDbText
 10
179.769465723032
 20
116.5
 30
0.0
 40
0.5
  1

100
AcDbAttributeDefinition
  3

  2
NT
 70
     8
280
     0
  0
ATTDEF
  5
71
330
1F
100
AcDbEntity
  8
AM_6
100
AcDbText
 10
179.769465723032
 20
116.0
 30
0.0
 40
0.5
  1
24046
100
AcDbAttributeDefinition
  3

  2
NB
 70
     8
280
     0
  0
ATTDEF
  5
72
330
1F
100
AcDbEntity
  8
AM_6
100
AcDbText
 10
179.769465723032
 20
115.5
 30
0.0
 40
0.5
  1
$ARTNRT.
100
AcDbAttributeDefinition
  3

  2
NBSYN
 70
     8
280
     0
  0
ATTDEF
  5
73
330
1F
100
AcDbEntity
  8
AM_6
100
AcDbText
 10
179.769465723032
 20
115.0
 30
0.0
 40
0.5
  1
24046
100
AcDbAttributeDefinition
  3

  2
LINA
 70
     8
280
     0
  0
ATTDEF
  5
74
330
1F
100
AcDbEntity
  8
AM_6
100
AcDbText
 10
179.769465723032
 20
114.5
 30
0.0
 40
0.5
  1
GEBERIT
100
AcDbAttributeDefinition
  3

  2
CATALOG
 70
     8
280
     0
  0
ATTDEF
  5
75
330
1F
100
AcDbEntity
  8
AM_6
100
AcDbText
 10
179.769465723032
 20
114.0
 30
0.0
 40
0.5
  1
24046
100
AcDbAttributeDefinition
  3

  2
ARTNRT
 70
     8
280
     0
  0
ATTDEF
  5
76
330
1F
100
AcDbEntity
  8
AM_6
100
AcDbText
 10
179.769465723032
 20
113.5
 30
0.0
 40
0.5
  1
5
100
AcDbAttributeDefinition
  3

  2
AD
 70
     8
280
     0
  0
ATTDEF
  5
77
330
1F
100
AcDbEntity
  8
AM_6
100
AcDbText
 10
179.769465723032
 20
113.0
 30
0.0
 40
0.5
  1
18.0
100
AcDbAttributeDefinition
  3

  2
D
 70
     8
280
     0
  0
ATTDEF
  5
78
330
1F
100
AcDbEntity
  8
AM_6
100
AcDbText
 10
179.769465723032
 20
112.5
 30
0.0
 40
0.5
  1
15.0
100
AcDbAttributeDefinition
  3

  2
D1
 70
     8
280
     0
  0
ATTDEF
  5
79
330
1F
100
AcDbEntity
  8
AM_6
100
AcDbText
 10
179.769465723032
 20
112.0
 30
0.0
 40
0.5
  1
15 / 12
100
AcDbAttributeDefinition
  3

  2
DN
 70
     8
280
     0
  0
ATTDEF
  5
7A
330
1F
100
AcDbEntity
  8
AM_6
100
AcDbText
 10
179.769465723032
 20
111.5
 30
0.0
 40
0.5
  1
2.9
100
AcDbAttributeDefinition
  3

  2
L
 70
     8
280
     0
  0
ATTDEF
  5
7B
330
1F
100
AcDbEntity
  8
AM_6
100
AcDbText
 10
179.769465723032
 20
111.0
 30
0.0
 40
0.5
  1
12.7
100
AcDbAttributeDefinition
  3

  2
L1
 70
     8
280
     0
  0
ATTDEF
  5
7C
330
1F
100
AcDbEntity
  8
AM_6
100
AcDbText
 10
179.769465723032
 20
110.5
 30
0.0
 40
0.5
  1
6.8
100
AcDbAttributeDefinition
  3

  2
LL1
 70
     8
280
     0
  0
ATTDEF
  5
7D
330
1F
100
AcDbEntity
  8
AM_6
100
AcDbText
 10
179.769465723032
 20
110.0
 30
0.0
 40
0.5
  1
10.0
100
AcDbAttributeDefinition
  3

  2
Z
 70
     8
280
     0
  0
ATTDEF
  5
7E
330
1F
100
AcDbEntity
  8
AM_6
100
AcDbText
 10
179.769465723032
 20
109.5
 30
0.0
 40
0.5
  1
1.7
100
AcDbAttributeDefinition
  3

  2
Z1
 70
     8
280
     0
  0
ATTDEF
  5
7F
330
1F
100
AcDbEntity
  8
AM_6
100
AcDbText
 10
179.769465723032
 20
109.0
 30
0.0
 40
0.5
  1
geberit
100
AcDbAttributeDefinition
  3

  2
COMPANY
 70
     8
280
     0
  0
INSERT
  5
81
330
1F
100
AcDbEntity
  8
0
100
AcDbBlockReference
  2
1_24046_2_0_in_24046_0
 10
0.0
 20
0.0
 30
0.0
  0
INSERT
  5
1AF
330
1F
100
AcDbEntity
  8
0
100
AcDbBlockReference
  2
2_24046_1_0_in_24046_0
 10
0.0
 20
0.0
 30
0.0
  0
POINT
  5
2DC
330
1F
100
AcDbEntity
  8
2d ConnectionPoints
100
AcDbPoint
 10
0.0
 20
24.0
 30
0.0
  0
POINT
  5
2DD
330
1F
100
AcDbEntity
  8
2d ConnectionPoints
100
AcDbPoint
 10
0.0
 20
24.0
 30
0.0
  0
POINT
  5
2DE
330
1F
100
AcDbEntity
  8
2d ConnectionPoints
100
AcDbPoint
 10
0.0
 20
24.0
 30
0.0
  0
POINT
  5
2DF
330
1F
100
AcDbEntity
  8
2d ConnectionPoints
100
AcDbPoint
 10
-50.0
 20
59.0
 30
0.0
  0
ENDSEC
  0
SECTION
  2
OBJECTS
  0
DICTIONARY
  5
C
330
0
100
AcDbDictionary
281
     1
  3
ACAD_DETAILVIEWSTYLE
350
2E7
  3
ACAD_GROUP
350
D
  3
ACAD_LAYOUT
350
1A
  3
ACAD_MATERIAL
350
43
  3
ACAD_MLEADERSTYLE
350
6B
  3
ACAD_MLINESTYLE
350
17
  3
ACAD_PLOTSETTINGS
350
19
  3
ACAD_PLOTSTYLENAME
350
E
  3
ACAD_SCALELIST
350
47
  3
ACAD_SECTIONVIEWSTYLE
350
2E8
  3
ACAD_TABLESTYLE
350
69
  3
ACAD_VISUALSTYLE
350
2A
  3
ACDB_RECOMPOSE_DATA
350
2E4
  3
AcDbVariableDictionary
350
2E0
  0
SUN
  5
6D
330
29
100
AcDbSun
 90
        1
290
     0
 63
     7
421
 16777215
 40
1.0
291
     1
 91
  2455826
 92
 54000000
292
     0
 70
     2
 71
   256
280
     1
  0
DICTIONARY
  5
2E7
102
{ACAD_REACTORS
330
C
102
}
330
C
100
AcDbDictionary
281
     1
  0
DICTIONARY
  5
D
102
{ACAD_REACTORS
330
C
102
}
330
C
100
AcDbDictionary
281
     1
  0
DICTIONARY
  5
1A
102
{ACAD_REACTORS
330
C
102
}
330
C
100
AcDbDictionary
281
     1
  3
Layout1
350
1E
  3
Layout2
350
26
  3
Model
350
22
  0
DICTIONARY
  5
43
102
{ACAD_REACTORS
330
C
102
}
330
C
100
AcDbDictionary
281
     1
  3
ByBlock
350
45
  3
ByLayer
350
44
  3
Global
350
46
  0
DICTIONARY
  5
6B
102
{ACAD_REACTORS
330
C
102
}
330
C
100
AcDbDictionary
281
     1
  3
Standard
350
6C
  0
DICTIONARY
  5
17
102
{ACAD_REACTORS
330
C
102
}
330
C
100
AcDbDictionary
281
     1
  3
Standard
350
18
  0
DICTIONARY
  5
19
102
{ACAD_REACTORS
330
C
102
}
330
C
100
AcDbDictionary
281
     1
  0
ACDBDICTIONARYWDFLT
  5
E
102
{ACAD_REACTORS
330
C
102
}
330
C
100
AcDbDictionary
281
     1
  3
Normal
350
F
100
AcDbDictionaryWithDefault
340
F
  0
DICTIONARY
  5
47
102
{ACAD_REACTORS
330
C
102
}
330
C
100
AcDbDictionary
281
     1
  3
A0
350
48
  3
A1
350
49
  3
A2
350
4A
  3
A3
350
4B
  3
A4
350
4C
  3
A5
350
4D
  3
A6
350
4E
  3
A7
350
4F
  3
A8
350
50
  3
A9
350
51
  3
B0
350
52
  3
B1
350
53
  3
B2
350
54
  3
B3
350
55
  3
B4
350
56
  3
B5
350
57
  3
B6
350
58
  3
B7
350
59
  3
B8
350
5A
  3
B9
350
5B
  3
C0
350
5C
  3
C1
350
5D
  3
C2
350
5E
  3
C3
350
5F
  3
C4
350
60
  3
C5
350
61
  3
C6
350
62
  3
C7
350
63
  3
C8
350
64
  3
C9
350
65
  3
D0
350
66
  3
D1
350
67
  3
D2
350
68
  0
DICTIONARY
  5
2E8
102
{ACAD_REACTORS
330
C
102
}
330
C
100
AcDbDictionary
281
     1
  0
DICTIONARY
  5
69
102
{ACAD_REACTORS
330
C
102
}
330
C
100
AcDbDictionary
281
     1
  3
Standard
350
6A
  0
DICTIONARY
  5
2A
102
{ACAD_REACTORS
330
C
102
}
330
C
100
AcDbDictionary
281
     1
  3
2dWireframe
350
2F
  3
Basic
350
32
  3
Brighten
350
36
  3
ColorChange
350
3A
  3
Conceptual
350
34
  3
Dim
350
35
  3
EdgeColorOff
350
3D
  3
Facepattern
350
39
  3
Flat
350
2B
  3
FlatWithEdges
350
2C
  3
Gouraud
350
2D
  3
GouraudWithEdges
350
2E
  3
Hidden
350
31
  3
JitterOff
350
3B
  3
Linepattern
350
38
  3
OverhangOff
350
3C
  3
Realistic
350
33
  3
Shaded
350
42
  3
Shaded with edges
350
41
  3
Shades of Gray
350
3E
  3
Sketchy
350
3F
  3
Thicken
350
37
  3
Wireframe
350
30
  3
X-Ray
350
40
  0
XRECORD
  5
2E4
102
{ACAD_REACTORS
330
C
102
}
330
C
100
AcDbXrecord
280
     1
 90
        1
330
6A
  0
DICTIONARY
  5
2E0
102
{ACAD_REACTORS
330
C
102
}
330
C
100
AcDbDictionary
281
     1
  3
CANNOSCALE
350
2E1
  3
CMLEADERSTYLE
350
2E6
  3
CTABLESTYLE
350
2E5
  3
SECTIONTHICKNESSINC
350
2E9
  0
LAYOUT
  5
1E
102
{ACAD_REACTORS
330
1A
102
}
330
1A
100
AcDbPlotSettings
  1

  2
none_device
  4

  6

 40
0.0
 41
0.0
 42
0.0
 43
0.0
 44
0.0
 45
0.0
 46
0.0
 47
0.0
 48
0.0
 49
0.0
140
0.0
141
0.0
142
1.0
143
1.0
 70
   688
 72
     1
 73
     0
 74
     5
  7

 75
    16
 76
     0
 77
     2
 78
   300
147
1.0
148
0.0
149
0.0
100
AcDbLayout
  1
Layout1
 70
     1
 71
     1
 10
0.0
 20
0.0
 11
420.0
 21
297.0
 12
0.0
 22
0.0
 32
0.0
 14
1.000000000000000E+20
 24
1.000000000000000E+20
 34
1.000000000000000E+20
 15
-1.000000000000000E+20
 25
-1.000000000000000E+20
 35
-1.000000000000000E+20
146
0.0
 13
0.0
 23
0.0
 33
0.0
 16
1.0
 26
0.0
 36
0.0
 17
0.0
 27
1.0
 37
0.0
 76
     0
330
1B
  0
LAYOUT
  5
26
102
{ACAD_REACTORS
330
1A
102
}
330
1A
100
AcDbPlotSettings
  1

  2
none_device
  4

  6

 40
0.0
 41
0.0
 42
0.0
 43
0.0
 44
0.0
 45
0.0
 46
0.0
 47
0.0
 48
0.0
 49
0.0
140
0.0
141
0.0
142
1.0
143
1.0
 70
   688
 72
     1
 73
     0
 74
     5
  7

 75
    16
 76
     0
 77
     2
 78
   300
147
1.0
148
0.0
149
0.0
100
AcDbLayout
  1
Layout2
 70
     1
 71
     2
 10
0.0
 20
0.0
 11
0.0
 21
0.0
 12
0.0
 22
0.0
 32
0.0
 14
0.0
 24
0.0
 34
0.0
 15
0.0
 25
0.0
 35
0.0
146
0.0
 13
0.0
 23
0.0
 33
0.0
 16
1.0
 26
0.0
 36
0.0
 17
0.0
 27
1.0
 37
0.0
 76
     0
330
23
  0
LAYOUT
  5
22
102
{ACAD_REACTORS
330
1A
102
}
330
1A
100
AcDbPlotSettings
  1

  2
none_device
  4
Letter_(8.50_x_11.00_Inches)
  6

 40
6.35
 41
6.35
 42
6.35000508
 43
6.35000508
 44
215.9
 45
279.4
 46
0.0
 47
0.0
 48
0.0
 49
0.0
140
0.0
141
0.0
142
1.0
143
1.0
 70
  1712
 72
     1
 73
     0
 74
     0
  7

 75
     0
 76
     0
 77
     2
 78
   300
147
1.0
148
0.0
149
0.0
100
AcDbLayout
  1
Model
 70
     1
 71
     0
 10
0.0
 20
0.0
 11
420.0
 21
297.0
 12
0.0
 22
0.0
 32
0.0
 14
1.000000000000000E+20
 24
1.000000000000000E+20
 34
1.000000000000000E+20
 15
-1.000000000000000E+20
 25
-1.000000000000000E+20
 35
-1.000000000000000E+20
146
0.0
 13
0.0
 23
0.0
 33
0.0
 16
1.0
 26
0.0
 36
0.0
 17
0.0
 27
1.0
 37
0.0
 76
     0
330
1F
331
29
  0
MATERIAL
  5
45
102
{ACAD_REACTORS
330
43
102
}
330
43
100
AcDbMaterial
  1
ByBlock
 72
     1
 94
      127
  0
MATERIAL
  5
44
102
{ACAD_REACTORS
330
43
102
}
330
43
100
AcDbMaterial
  1
ByLayer
 72
     1
 94
      127
  0
MATERIAL
  5
46
102
{ACAD_REACTORS
330
43
102
}
330
43
100
AcDbMaterial
  1
Global
 72
     1
 94
      127
  0
MLEADERSTYLE
  5
6C
102
{ACAD_REACTORS
330
6B
102
}
330
6B
100
AcDbMLeaderStyle
179
     2
170
     2
171
     1
172
     0
 90
        2
 40
0.0
 41
0.0
173
     1
 91
-1056964608
340
14
 92
       -2
290
     1
 42
2.0
291
     1
 43
8.0
  3
Standard
341
0
 44
4.0
300

342
11
174
     1
178
     6
175
     1
176
     0
 93
-1056964608
 45
4.0
292
     0
297
     0
 46
4.0
343
0
 94
-1056964608
 47
1.0
 49
1.0
140
1.0
293
     1
141
0.0
294
     1
177
     0
142
1.0
295
     0
296
     0
143
3.75
271
     0
272
     9
273
     9
298
     0
  0
MLINESTYLE
  5
18
102
{ACAD_REACTORS
330
17
102
}
330
17
100
AcDbMlineStyle
  2
Standard
 70
     0
  3

 62
   256
 51
90.0
 52
90.0
 71
     2
 49
0.5
 62
   256
  6
BYLAYER
 49
-0.5
 62
   256
  6
BYLAYER
  0
ACDBPLACEHOLDER
  5
F
102
{ACAD_REACTORS
330
E
102
}
330
E
  0
SCALE
  5
48
102
{ACAD_REACTORS
330
47
102
}
330
47
100
AcDbScale
 70
     0
300
1:1
140
1.0
141
1.0
290
     1
  0
SCALE
  5
49
102
{ACAD_REACTORS
330
47
102
}
330
47
100
AcDbScale
 70
     0
300
1:2
140
1.0
141
2.0
290
     0
  0
SCALE
  5
4A
102
{ACAD_REACTORS
330
47
102
}
330
47
100
AcDbScale
 70
     0
300
1:4
140
1.0
141
4.0
290
     0
  0
SCALE
  5
4B
102
{ACAD_REACTORS
330
47
102
}
330
47
100
AcDbScale
 70
     0
300
1:5
140
1.0
141
5.0
290
     0
  0
SCALE
  5
4C
102
{ACAD_REACTORS
330
47
102
}
330
47
100
AcDbScale
 70
     0
300
1:8
140
1.0
141
8.0
290
     0
  0
SCALE
  5
4D
102
{ACAD_REACTORS
330
47
102
}
330
47
100
AcDbScale
 70
     0
300
1:10
140
1.0
141
10.0
290
     0
  0
SCALE
  5
4E
102
{ACAD_REACTORS
330
47
102
}
330
47
100
AcDbScale
 70
     0
300
1:16
140
1.0
141
16.0
290
     0
  0
SCALE
  5
4F
102
{ACAD_REACTORS
330
47
102
}
330
47
100
AcDbScale
 70
     0
300
1:20
140
1.0
141
20.0
290
     0
  0
SCALE
  5
50
102
{ACAD_REACTORS
330
47
102
}
330
47
100
AcDbScale
 70
     0
300
1:30
140
1.0
141
30.0
290
     0
  0
SCALE
  5
51
102
{ACAD_REACTORS
330
47
102
}
330
47
100
AcDbScale
 70
     0
300
1:40
140
1.0
141
40.0
290
     0
  0
SCALE
  5
52
102
{ACAD_REACTORS
330
47
102
}
330
47
100
AcDbScale
 70
     0
300
1:50
140
1.0
141
50.0
290
     0
  0
SCALE
  5
53
102
{ACAD_REACTORS
330
47
102
}
330
47
100
AcDbScale
 70
     0
300
1:100
140
1.0
141
100.0
290
     0
  0
SCALE
  5
54
102
{ACAD_REACTORS
330
47
102
}
330
47
100
AcDbScale
 70
     0
300
2:1
140
2.0
141
1.0
290
     0
  0
SCALE
  5
55
102
{ACAD_REACTORS
330
47
102
}
330
47
100
AcDbScale
 70
     0
300
4:1
140
4.0
141
1.0
290
     0
  0
SCALE
  5
56
102
{ACAD_REACTORS
330
47
102
}
330
47
100
AcDbScale
 70
     0
300
8:1
140
8.0
141
1.0
290
     0
  0
SCALE
  5
57
102
{ACAD_REACTORS
330
47
102
}
330
47
100
AcDbScale
 70
     0
300
10:1
140
10.0
141
1.0
290
     0
  0
SCALE
  5
58
102
{ACAD_REACTORS
330
47
102
}
330
47
100
AcDbScale
 70
     0
300
100:1
140
100.0
141
1.0
290
     0
  0
SCALE
  5
59
102
{ACAD_REACTORS
330
47
102
}
330
47
100
AcDbScale
 70
     0
300
1/128" = 1'-0"
140
0.0078125
141
12.0
290
     0
  0
SCALE
  5
5A
102
{ACAD_REACTORS
330
47
102
}
330
47
100
AcDbScale
 70
     0
300
1/64" = 1'-0"
140
0.015625
141
12.0
290
     0
  0
SCALE
  5
5B
102
{ACAD_REACTORS
330
47
102
}
330
47
100
AcDbScale
 70
     0
300
1/32" = 1'-0"
140
0.03125
141
12.0
290
     0
  0
SCALE
  5
5C
102
{ACAD_REACTORS
330
47
102
}
330
47
100
AcDbScale
 70
     0
300
1/16" = 1'-0"
140
0.0625
141
12.0
290
     0
  0
SCALE
  5
5D
102
{ACAD_REACTORS
330
47
102
}
330
47
100
AcDbScale
 70
     0
300
3/32" = 1'-0"
140
0.09375
141
12.0
290
     0
  0
SCALE
  5
5E
102
{ACAD_REACTORS
330
47
102
}
330
47
100
AcDbScale
 70
     0
300
1/8" = 1'-0"
140
0.125
141
12.0
290
     0
  0
SCALE
  5
5F
102
{ACAD_REACTORS
330
47
102
}
330
47
100
AcDbScale
 70
     0
300
3/16" = 1'-0"
140
0.1875
141
12.0
290
     0
  0
SCALE
  5
60
102
{ACAD_REACTORS
330
47
102
}
330
47
100
AcDbScale
 70
     0
300
1/4" = 1'-0"
140
0.25
141
12.0
290
     0
  0
SCALE
  5
61
102
{ACAD_REACTORS
330
47
102
}
330
47
100
AcDbScale
 70
     0
300
3/8" = 1'-0"
140
0.375
141
12.0
290
     0
  0
SCALE
  5
62
102
{ACAD_REACTORS
330
47
102
}
330
47
100
AcDbScale
 70
     0
300
1/2" = 1'-0"
140
0.5
141
12.0
290
     0
  0
SCALE
  5
63
102
{ACAD_REACTORS
330
47
102
}
330
47
100
AcDbScale
 70
     0
300
3/4" = 1'-0"
140
0.75
141
12.0
290
     0
  0
SCALE
  5
64
102
{ACAD_REACTORS
330
47
102
}
330
47
100
AcDbScale
 70
     0
300
1" = 1'-0"
140
1.0
141
12.0
290
     0
  0
SCALE
  5
65
102
{ACAD_REACTORS
330
47
102
}
330
47
100
AcDbScale
 70
     0
300
1-1/2" = 1'-0"
140
1.5
141
12.0
290
     0
  0
SCALE
  5
66
102
{ACAD_REACTORS
330
47
102
}
330
47
100
AcDbScale
 70
     0
300
3" = 1'-0"
140
3.0
141
12.0
290
     0
  0
SCALE
  5
67
102
{ACAD_REACTORS
330
47
102
}
330
47
100
AcDbScale
 70
     0
300
6" = 1'-0"
140
6.0
141
12.0
290
     0
  0
SCALE
  5
68
102
{ACAD_REACTORS
330
47
102
}
330
47
100
AcDbScale
 70
     0
300
1'-0" = 1'-0"
140
12.0
141
12.0
290
     0
  0
TABLESTYLE
  5
6A
102
{ACAD_REACTORS
330
69
102
}
102
{ACAD_XDICTIONARY
360
2E2
102
}
330
69
100
AcDbTableStyle
  3
Standard
 70
     0
 71
     0
 40
0.06
 41
0.06
280
     0
281
     0
  7
Standard
140
4.5
170
     2
 62
     0
 63
   257
283
     0
 90
        4
 91
        0
  1

274
    -2
284
     1
 64
     0
275
    -2
285
     1
 65
     0
276
    -2
286
     1
 66
     0
277
    -2
287
     1
 67
     0
278
    -2
288
     1
 68
     0
279
    -2
289
     1
 69
     0
  7
Standard
140
6.0
170
     5
 62
     0
 63
   257
283
     0
 90
        4
 91
        0
  1

274
    -2
284
     1
 64
     0
275
    -2
285
     1
 65
     0
276
    -2
286
     1
 66
     0
277
    -2
287
     1
 67
     0
278
    -2
288
     1
 68
     0
279
    -2
289
     1
 69
     0
  7
Standard
140
4.5
170
     5
 62
     0
 63
   257
283
     0
 90
        4
 91
        0
  1

274
    -2
284
     1
 64
     0
275
    -2
285
     1
 65
     0
276
    -2
286
     1
 66
     0
277
    -2
287
     1
 67
     0
278
    -2
288
     1
 68
     0
279
    -2
289
     1
 69
     0
  0
VISUALSTYLE
  5
2F
102
{ACAD_REACTORS
330
2A
102
}
330
2A
100
AcDbVisualStyle
  2
2dWireframe
 70
     4
177
     3
291
     0
 70
    58
 90
        0
176
     1
 90
        2
176
     1
 90
        0
176
     1
 90
        0
176
     1
 40
0.6
176
     1
 40
30.0
176
     1
 62
     7
420
 16777215
176
     1
 90
        1
176
     1
 90
        4
176
     1
 62
     7
176
     1
 62
   257
176
     1
 90
        1
176
     1
 90
        1
176
     1
 40
1.0
176
     1
 90
        0
176
     1
 62
   257
176
     1
 40
1.0
176
     1
 90
        1
176
     1
 90
        6
176
     1
 90
        2
176
     1
 62
     7
176
     1
 90
        5
176
     1
 90
        0
176
     1
 90
        0
176
     1
290
     0
176
     1
 90
        1
176
     1
 40
0.0
176
     1
 90
        0
176
     1
290
     1
176
     1
290
     1
176
     1
290
     0
176
     1
290
     0
176
     1
290
     0
176
     1
290
     0
176
     1
290
     0
176
     1
290
     0
176
     1
290
     0
176
     1
 90
       50
176
     1
 40
0.0
176
     1
 40
1.0
176
     1
 90
        0
176
     1
 62
    18
420
        0
176
     1
 90
       50
176
     1
 90
        3
176
     1
 62
     5
420
      255
176
     1
290
     0
176
     1
 90
       50
176
     1
 90
       50
176
     1
 90
       50
176
     1
290
     0
176
     1
 90
       50
176
     1
 62
   256
176
     0
 40
1.0
176
     0
 90
        2
176
     1
  1
strokes_ogs.tif
176
     1
290
     0
176
     1
 40
1.0
176
     1
 40
1.0
176
     1
  0
VISUALSTYLE
  5
32
102
{ACAD_REACTORS
330
2A
102
}
330
2A
100
AcDbVisualStyle
  2
Basic
 70
     7
177
     3
291
     1
 70
    58
 90
        1
176
     1
 90
        0
176
     1
 90
        1
176
     1
 90
        0
176
     1
 40
0.6
176
     1
 40
30.0
176
     1
 62
     7
420
 16777215
176
     1
 90
        0
176
     1
 90
        4
176
     1
 62
     7
176
     1
 62
   257
176
     1
 90
        1
176
     1
 90
        1
176
     1
 40
1.0
176
     1
 90
        8
176
     1
 62
     7
176
     1
 40
1.0
176
     1
 90
        1
176
     1
 90
        6
176
     1
 90
        2
176
     1
 62
     7
176
     1
 90
        5
176
     1
 90
        0
176
     1
 90
        0
176
     1
290
     0
176
     1
 90
        1
176
     1
 40
0.0
176
     1
 90
        0
176
     1
290
     0
176
     1
290
     1
176
     1
290
     1
176
     1
290
     0
176
     1
290
     0
176
     1
290
     0
176
     1
290
     0
176
     1
290
     0
176
     1
290
     0
176
     1
 90
       50
176
     1
 40
0.0
176
     1
 40
1.0
176
     1
 90
        0
176
     1
 62
    18
420
        0
176
     1
 90
       50
176
     1
 90
        3
176
     1
 62
     5
420
      255
176
     1
290
     0
176
     1
 90
       50
176
     1
 90
       50
176
     1
 90
       50
176
     1
290
     0
176
     1
 90
       50
176
     1
 62
   256
176
     0
 40
1.0
176
     0
 90
        2
176
     1
  1
strokes_ogs.tif
176
     1
290
     0
176
     1
 40
1.0
176
     1
 40
1.0
176
     1
  0
VISUALSTYLE
  5
36
102
{ACAD_REACTORS
330
2A
102
}
330
2A
100
AcDbVisualStyle
  2
Brighten
 70
    12
177
     3
291
     1
 70
    58
 90
        2
176
     1
 90
        2
176
     1
 90
        0
176
     1
 90
        0
176
     1
 40
0.6
176
     1
 40
30.0
176
     1
 62
     7
420
 16777215
176
     1
 90
        1
176
     1
 90
        4
176
     1
 62
     7
176
     1
 62
   257
176
     1
 90
        1
176
     1
 90
        1
176
     1
 40
1.0
176
     1
 90
        8
176
     1
 62
     7
176
     1
 40
1.0
176
     1
 90
        1
176
     1
 90
        6
176
     1
 90
        2
176
     1
 62
     7
176
     1
 90
        5
176
     1
 90
        0
176
     1
 90
        0
176
     1
290
     0
176
     1
 90
        1
176
     1
 40
50.0
176
     1
 90
        0
176
     1
290
     0
176
     1
290
     1
176
     1
290
     1
176
     1
290
     0
176
     1
290
     0
176
     1
290
     0
176
     1
290
     0
176
     1
290
     0
176
     1
290
     0
176
     1
 90
       50
176
     1
 40
0.0
176
     1
 40
1.0
176
     1
 90
        0
176
     1
 62
    18
420
        0
176
     1
 90
       50
176
     1
 90
        3
176
     1
 62
     5
420
      255
176
     1
290
     0
176
     1
 90
       50
176
     1
 90
       50
176
     1
 90
       50
176
     1
290
     0
176
     1
 90
       50
176
     1
 62
   256
176
     0
 40
1.0
176
     0
 90
        2
176
     1
  1
strokes_ogs.tif
176
     1
290
     0
176
     1
 40
1.0
176
     1
 40
1.0
176
     1
  0
VISUALSTYLE
  5
3A
102
{ACAD_REACTORS
330
2A
102
}
330
2A
100
AcDbVisualStyle
  2
ColorChange
 70
    16
177
     3
291
     1
 70
    58
 90
        2
176
     1
 90
        2
176
     1
 90
        3
176
     1
 90
        0
176
     1
 40
0.6
176
     1
 40
30.0
176
     1
 62
     8
420
  8421504
176
     1
 90
        1
176
     1
 90
        4
176
     1
 62
     7
176
     1
 62
   257
176
     1
 90
        1
176
     1
 90
        1
176
     1
 40
1.0
176
     1
 90
        8
176
     1
 62
     8
420
  8421504
176
     1
 40
1.0
176
     1
 90
        1
176
     1
 90
        6
176
     1
 90
        2
176
     1
 62
     7
176
     1
 90
        5
176
     1
 90
        0
176
     1
 90
        0
176
     1
290
     0
176
     1
 90
        1
176
     1
 40
0.0
176
     1
 90
        0
176
     1
290
     0
176
     1
290
     1
176
     1
290
     1
176
     1
290
     0
176
     1
290
     0
176
     1
290
     0
176
     1
290
     0
176
     1
290
     0
176
     1
290
     0
176
     1
 90
       50
176
     1
 40
0.0
176
     1
 40
1.0
176
     1
 90
        0
176
     1
 62
    18
420
        0
176
     1
 90
       50
176
     1
 90
        3
176
     1
 62
     5
420
      255
176
     1
290
     0
176
     1
 90
       50
176
     1
 90
       50
176
     1
 90
       50
176
     1
290
     0
176
     1
 90
       50
176
     1
 62
   256
176
     0
 40
1.0
176
     0
 90
        2
176
     1
  1
strokes_ogs.tif
176
     1
290
     0
176
     1
 40
1.0
176
     1
 40
1.0
176
     1
  0
VISUALSTYLE
  5
34
102
{ACAD_REACTORS
330
2A
102
}
330
2A
100
AcDbVisualStyle
  2
Conceptual
 70
     9
177
     3
291
     0
 70
    58
 90
        3
176
     1
 90
        2
176
     1
 90
        0
176
     1
 90
        0
176
     1
 40
0.6
176
     1
 40
30.0
176
     1
 62
     7
420
 16777215
176
     1
 90
        2
176
     1
 90
        2
176
     1
 62
     7
176
     1
 62
   257
176
     1
 90
        1
176
     1
 90
        1
176
     1
 40
179.0
176
     1
 90
        8
176
     1
 62
     7
176
     1
 40
1.0
176
     1
 90
        1
176
     1
 90
        6
176
     1
 90
        2
176
     1
 62
     7
176
     1
 90
        3
176
     1
 90
        0
176
     1
 90
        0
176
     1
290
     0
176
     1
 90
        1
176
     1
 40
0.0
176
     1
 90
        0
176
     1
290
     0
176
     1
290
     1
176
     1
290
     1
176
     1
290
     0
176
     1
290
     0
176
     1
290
     0
176
     1
290
     0
176
     1
290
     0
176
     1
290
     0
176
     1
 90
       50
176
     1
 40
0.0
176
     1
 40
1.0
176
     1
 90
        0
176
     1
 62
    18
420
        0
176
     1
 90
       50
176
     1
 90
        3
176
     1
 62
     5
420
      255
176
     1
290
     0
176
     1
 90
       50
176
     1
 90
       50
176
     1
 90
       50
176
     1
290
     0
176
     1
 90
       50
176
     1
 62
   256
176
     0
 40
1.0
176
     0
 90
        2
176
     1
  1
strokes_ogs.tif
176
     1
290
     0
176
     1
 40
1.0
176
     1
 40
1.0
176
     1
  0
VISUALSTYLE
  5
35
102
{ACAD_REACTORS
330
2A
102
}
330
2A
100
AcDbVisualStyle
  2
Dim
 70
    11
177
     3
291
     1
 70
    58
 90
        2
176
     1
 90
        2
176
     1
 90
        0
176
     1
 90
        0
176
     1
 40
0.6
176
     1
 40
30.0
176
     1
 62
     7
420
 16777215
176
     1
 90
        1
176
     1
 90
        4
176
     1
 62
     7
176
     1
 62
   257
176
     1
 90
        1
176
     1
 90
        1
176
     1
 40
1.0
176
     1
 90
        8
176
     1
 62
     7
176
     1
 40
1.0
176
     1
 90
        1
176
     1
 90
        6
176
     1
 90
        2
176
     1
 62
     7
176
     1
 90
        5
176
     1
 90
        0
176
     1
 90
        0
176
     1
290
     0
176
     1
 90
        1
176
     1
 40
-50.0
176
     1
 90
        0
176
     1
290
     0
176
     1
290
     1
176
     1
290
     1
176
     1
290
     0
176
     1
290
     0
176
     1
290
     0
176
     1
290
     0
176
     1
290
     0
176
     1
290
     0
176
     1
 90
       50
176
     1
 40
0.0
176
     1
 40
1.0
176
     1
 90
        0
176
     1
 62
    18
420
        0
176
     1
 90
       50
176
     1
 90
        3
176
     1
 62
     5
420
      255
176
     1
290
     0
176
     1
 90
       50
176
     1
 90
       50
176
     1
 90
       50
176
     1
290
     0
176
     1
 90
       50
176
     1
 62
   256
176
     0
 40
1.0
176
     0
 90
        2
176
     1
  1
strokes_ogs.tif
176
     1
290
     0
176
     1
 40
1.0
176
     1
 40
1.0
176
     1
  0
VISUALSTYLE
  5
3D
102
{ACAD_REACTORS
330
2A
102
}
330
2A
100
AcDbVisualStyle
  2
EdgeColorOff
 70
    22
177
     3
291
     1
 70
    58
 90
        2
176
     0
 90
        2
176
     0
 90
        0
176
     0
 90
        0
176
     0
 40
0.6
176
     0
 40
30.0
176
     0
 62
     7
420
 16777215
176
     0
 90
        1
176
     0
 90
        4
176
     0
 62
     7
176
     0
 62
   257
176
     0
 90
        1
176
     0
 90
        1
176
     0
 40
1.0
176
     0
 90
        8
176
     2
 62
     7
176
     0
 40
1.0
176
     0
 90
        1
176
     0
 90
        6
176
     0
 90
        2
176
     0
 62
     7
176
     0
 90
        5
176
     0
 90
        0
176
     0
 90
        0
176
     0
290
     0
176
     0
 90
        1
176
     0
 40
0.0
176
     0
 90
        0
176
     0
290
     0
176
     0
290
     1
176
     0
290
     1
176
     0
290
     0
176
     0
290
     0
176
     0
290
     0
176
     0
290
     0
176
     0
290
     0
176
     0
290
     0
176
     0
 90
       50
176
     0
 40
0.0
176
     0
 40
1.0
176
     0
 90
        0
176
     0
 62
    18
420
        0
176
     0
 90
       50
176
     0
 90
        3
176
     0
 62
     5
420
      255
176
     0
290
     0
176
     0
 90
       50
176
     0
 90
       50
176
     0
 90
       50
176
     0
290
     0
176
     0
 90
       50
176
     0
 62
   256
176
     0
 40
1.0
176
     0
 90
        2
176
     0
  1
strokes_ogs.tif
176
     0
290
     0
176
     0
 40
1.0
176
     0
 40
1.0
176
     0
  0
VISUALSTYLE
  5
39
102
{ACAD_REACTORS
330
2A
102
}
330
2A
100
AcDbVisualStyle
  2
Facepattern
 70
    15
177
     3
291
     1
 70
    58
 90
        2
176
     1
 90
        2
176
     1
 90
        0
176
     1
 90
        0
176
     1
 40
0.6
176
     1
 40
30.0
176
     1
 62
     7
420
 16777215
176
     1
 90
        1
176
     1
 90
        4
176
     1
 62
     7
176
     1
 62
   257
176
     1
 90
        1
176
     1
 90
        1
176
     1
 40
1.0
176
     1
 90
        8
176
     1
 62
     7
176
     1
 40
1.0
176
     1
 90
        1
176
     1
 90
        6
176
     1
 90
        2
176
     1
 62
     7
176
     1
 90
        5
176
     1
 90
        0
176
     1
 90
        0
176
     1
290
     0
176
     1
 90
        1
176
     1
 40
0.0
176
     1
 90
        0
176
     1
290
     0
176
     1
290
     1
176
     1
290
     1
176
     1
290
     0
176
     1
290
     0
176
     1
290
     0
176
     1
290
     0
176
     1
290
     0
176
     1
290
     0
176
     1
 90
       50
176
     1
 40
0.0
176
     1
 40
1.0
176
     1
 90
        0
176
     1
 62
    18
420
        0
176
     1
 90
       50
176
     1
 90
        3
176
     1
 62
     5
420
      255
176
     1
290
     0
176
     1
 90
       50
176
     1
 90
       50
176
     1
 90
       50
176
     1
290
     0
176
     1
 90
       50
176
     1
 62
   256
176
     0
 40
1.0
176
     0
 90
        2
176
     1
  1
strokes_ogs.tif
176
     1
290
     0
176
     1
 40
1.0
176
     1
 40
1.0
176
     1
  0
VISUALSTYLE
  5
2B
102
{ACAD_REACTORS
330
2A
102
}
330
2A
100
AcDbVisualStyle
  2
Flat
 70
     0
177
     3
291
     1
 70
    58
 90
        2
176
     1
 90
        1
176
     1
 90
        1
176
     1
 90
        2
176
     1
 40
0.6
176
     1
 40
30.0
176
     1
 62
     7
420
 16777215
176
     1
 90
        0
176
     1
 90
        0
176
     1
 62
     7
176
     1
 62
   257
176
     1
 90
        1
176
     1
 90
        1
176
     1
 40
1.0
176
     1
 90
        8
176
     1
 62
     7
176
     1
 40
1.0
176
     1
 90
        1
176
     1
 90
        6
176
     1
 90
        2
176
     1
 62
     7
176
     1
 90
        5
176
     1
 90
        0
176
     1
 90
        0
176
     1
290
     0
176
     1
 90
       13
176
     1
 40
0.0
176
     1
 90
        0
176
     1
290
     0
176
     1
290
     1
176
     1
290
     1
176
     1
290
     0
176
     1
290
     0
176
     1
290
     0
176
     1
290
     0
176
     1
290
     0
176
     1
290
     0
176
     1
 90
       50
176
     1
 40
0.0
176
     1
 40
1.0
176
     1
 90
        0
176
     1
 62
    18
420
        0
176
     1
 90
       50
176
     1
 90
        3
176
     1
 62
     5
420
      255
176
     1
290
     0
176
     1
 90
       50
176
     1
 90
       50
176
     1
 90
       50
176
     1
290
     0
176
     1
 90
       50
176
     1
 62
   256
176
     0
 40
1.0
176
     0
 90
        2
176
     1
  1
strokes_ogs.tif
176
     1
290
     0
176
     1
 40
1.0
176
     1
 40
1.0
176
     1
  0
VISUALSTYLE
  5
2C
102
{ACAD_REACTORS
330
2A
102
}
330
2A
100
AcDbVisualStyle
  2
FlatWithEdges
 70
     1
177
     3
291
     1
 70
    58
 90
        2
176
     1
 90
        1
176
     1
 90
        1
176
     1
 90
        2
176
     1
 40
0.6
176
     1
 40
30.0
176
     1
 62
     7
420
 16777215
176
     1
 90
        1
176
     1
 90
        0
176
     1
 62
     7
176
     1
 62
   257
176
     1
 90
        1
176
     1
 90
        1
176
     1
 40
1.0
176
     1
 90
        0
176
     1
 62
   257
176
     1
 40
1.0
176
     1
 90
        1
176
     1
 90
        6
176
     1
 90
        2
176
     1
 62
     7
176
     1
 90
        5
176
     1
 90
        0
176
     1
 90
        0
176
     1
290
     0
176
     1
 90
       13
176
     1
 40
0.0
176
     1
 90
        0
176
     1
290
     0
176
     1
290
     1
176
     1
290
     1
176
     1
290
     0
176
     1
290
     0
176
     1
290
     0
176
     1
290
     0
176
     1
290
     0
176
     1
290
     0
176
     1
 90
       50
176
     1
 40
0.0
176
     1
 40
1.0
176
     1
 90
        0
176
     1
 62
    18
420
        0
176
     1
 90
       50
176
     1
 90
        3
176
     1
 62
     5
420
      255
176
     1
290
     0
176
     1
 90
       50
176
     1
 90
       50
176
     1
 90
       50
176
     1
290
     0
176
     1
 90
       50
176
     1
 62
   256
176
     0
 40
1.0
176
     0
 90
        2
176
     1
  1
strokes_ogs.tif
176
     1
290
     0
176
     1
 40
1.0
176
     1
 40
1.0
176
     1
  0
VISUALSTYLE
  5
2D
102
{ACAD_REACTORS
330
2A
102
}
330
2A
100
AcDbVisualStyle
  2
Gouraud
 70
     2
177
     3
291
     1
 70
    58
 90
        2
176
     1
 90
        2
176
     1
 90
        1
176
     1
 90
        2
176
     1
 40
0.6
176
     1
 40
30.0
176
     1
 62
     7
420
 16777215
176
     1
 90
        0
176
     1
 90
        0
176
     1
 62
     7
176
     1
 62
   257
176
     1
 90
        1
176
     1
 90
        1
176
     1
 40
1.0
176
     1
 90
        0
176
     1
 62
     7
176
     1
 40
1.0
176
     1
 90
        1
176
     1
 90
        6
176
     1
 90
        2
176
     1
 62
     7
176
     1
 90
        5
176
     1
 90
        0
176
     1
 90
        0
176
     1
290
     0
176
     1
 90
       13
176
     1
 40
0.0
176
     1
 90
        0
176
     1
290
     0
176
     1
290
     1
176
     1
290
     1
176
     1
290
     0
176
     1
290
     0
176
     1
290
     0
176
     1
290
     0
176
     1
290
     0
176
     1
290
     0
176
     1
 90
       50
176
     1
 40
0.0
176
     1
 40
1.0
176
     1
 90
        0
176
     1
 62
    18
420
        0
176
     1
 90
       50
176
     1
 90
        3
176
     1
 62
     5
420
      255
176
     1
290
     0
176
     1
 90
       50
176
     1
 90
       50
176
     1
 90
       50
176
     1
290
     0
176
     1
 90
       50
176
     1
 62
   256
176
     0
 40
1.0
176
     0
 90
        2
176
     1
  1
strokes_ogs.tif
176
     1
290
     0
176
     1
 40
1.0
176
     1
 40
1.0
176
     1
  0
VISUALSTYLE
  5
2E
102
{ACAD_REACTORS
330
2A
102
}
330
2A
100
AcDbVisualStyle
  2
GouraudWithEdges
 70
     3
177
     3
291
     1
 70
    58
 90
        2
176
     1
 90
        2
176
     1
 90
        1
176
     1
 90
        2
176
     1
 40
0.6
176
     1
 40
30.0
176
     1
 62
     7
420
 16777215
176
     1
 90
        1
176
     1
 90
        0
176
     1
 62
     7
176
     1
 62
   257
176
     1
 90
        1
176
     1
 90
        1
176
     1
 40
1.0
176
     1
 90
        0
176
     1
 62
   257
176
     1
 40
1.0
176
     1
 90
        1
176
     1
 90
        6
176
     1
 90
        2
176
     1
 62
     7
176
     1
 90
        5
176
     1
 90
        0
176
     1
 90
        0
176
     1
290
     0
176
     1
 90
       13
176
     1
 40
0.0
176
     1
 90
        0
176
     1
290
     0
176
     1
290
     1
176
     1
290
     1
176
     1
290
     0
176
     1
290
     0
176
     1
290
     0
176
     1
290
     0
176
     1
290
     0
176
     1
290
     0
176
     1
 90
       50
176
     1
 40
0.0
176
     1
 40
1.0
176
     1
 90
        0
176
     1
 62
    18
420
        0
176
     1
 90
       50
176
     1
 90
        3
176
     1
 62
     5
420
      255
176
     1
290
     0
176
     1
 90
       50
176
     1
 90
       50
176
     1
 90
       50
176
     1
290
     0
176
     1
 90
       50
176
     1
 62
   256
176
     0
 40
1.0
176
     0
 90
        2
176
     1
  1
strokes_ogs.tif
176
     1
290
     0
176
     1
 40
1.0
176
     1
 40
1.0
176
     1
  0
VISUALSTYLE
  5
31
102
{ACAD_REACTORS
330
2A
102
}
330
2A
100
AcDbVisualStyle
  2
Hidden
 70
     6
177
     3
291
     0
 70
    58
 90
        1
176
     1
 90
        2
176
     1
 90
        2
176
     1
 90
        0
176
     1
 40
0.6
176
     1
 40
30.0
176
     1
 62
     7
420
 16777215
176
     1
 90
        2
176
     1
 90
        2
176
     1
 62
     7
176
     1
 62
   257
176
     1
 90
        2
176
     1
 90
        1
176
     1
 40
40.0
176
     1
 90
        0
176
     1
 62
   257
176
     1
 40
1.0
176
     1
 90
        1
176
     1
 90
        6
176
     1
 90
        2
176
     1
 62
     7
176
     1
 90
        3
176
     1
 90
        0
176
     1
 90
        0
176
     1
290
     0
176
     1
 90
        1
176
     1
 40
0.0
176
     1
 90
        0
176
     1
290
     0
176
     1
290
     1
176
     1
290
     1
176
     1
290
     0
176
     1
290
     0
176
     1
290
     0
176
     1
290
     0
176
     1
290
     0
176
     1
290
     0
176
     1
 90
       50
176
     1
 40
0.0
176
     1
 40
1.0
176
     1
 90
        0
176
     1
 62
    18
420
        0
176
     1
 90
       50
176
     1
 90
        3
176
     1
 62
     5
420
      255
176
     1
290
     0
176
     1
 90
       50
176
     1
 90
       50
176
     1
 90
       50
176
     1
290
     0
176
     1
 90
       50
176
     1
 62
   256
176
     0
 40
1.0
176
     0
 90
        2
176
     1
  1
strokes_ogs.tif
176
     1
290
     0
176
     1
 40
1.0
176
     1
 40
1.0
176
     1
  0
VISUALSTYLE
  5
3B
102
{ACAD_REACTORS
330
2A
102
}
330
2A
100
AcDbVisualStyle
  2
JitterOff
 70
    20
177
     3
291
     1
 70
    58
 90
        2
176
     0
 90
        2
176
     0
 90
        0
176
     0
 90
        0
176
     0
 40
0.6
176
     0
 40
30.0
176
     0
 62
     7
420
 16777215
176
     0
 90
        1
176
     0
 90
        4
176
     0
 62
     7
176
     0
 62
   257
176
     0
 90
        1
176
     0
 90
        1
176
     0
 40
1.0
176
     0
 90
       10
176
     2
 62
     7
176
     0
 40
1.0
176
     0
 90
        1
176
     0
 90
        6
176
     0
 90
        2
176
     0
 62
     7
176
     0
 90
        5
176
     0
 90
        0
176
     0
 90
        0
176
     0
290
     0
176
     0
 90
        1
176
     0
 40
0.0
176
     0
 90
        0
176
     0
290
     0
176
     0
290
     1
176
     0
290
     1
176
     0
290
     0
176
     0
290
     0
176
     0
290
     0
176
     0
290
     0
176
     0
290
     0
176
     0
290
     0
176
     0
 90
       50
176
     0
 40
0.0
176
     0
 40
1.0
176
     0
 90
        0
176
     0
 62
    18
420
        0
176
     0
 90
       50
176
     0
 90
        3
176
     0
 62
     5
420
      255
176
     0
290
     0
176
     0
 90
       50
176
     0
 90
       50
176
     0
 90
       50
176
     0
290
     0
176
     0
 90
       50
176
     0
 62
   256
176
     0
 40
1.0
176
     0
 90
        2
176
     0
  1
strokes_ogs.tif
176
     0
290
     0
176
     0
 40
1.0
176
     0
 40
1.0
176
     0
  0
VISUALSTYLE
  5
38
102
{ACAD_REACTORS
330
2A
102
}
330
2A
100
AcDbVisualStyle
  2
Linepattern
 70
    14
177
     3
291
     1
 70
    58
 90
        2
176
     1
 90
        2
176
     1
 90
        0
176
     1
 90
        0
176
     1
 40
0.6
176
     1
 40
30.0
176
     1
 62
     7
420
 16777215
176
     1
 90
        1
176
     1
 90
        4
176
     1
 62
     7
176
     1
 62
   257
176
     1
 90
        7
176
     1
 90
        7
176
     1
 40
1.0
176
     1
 90
        8
176
     1
 62
     7
176
     1
 40
1.0
176
     1
 90
        1
176
     1
 90
        6
176
     1
 90
        2
176
     1
 62
     7
176
     1
 90
        5
176
     1
 90
        0
176
     1
 90
        0
176
     1
290
     0
176
     1
 90
        1
176
     1
 40
0.0
176
     1
 90
        0
176
     1
290
     0
176
     1
290
     1
176
     1
290
     1
176
     1
290
     0
176
     1
290
     0
176
     1
290
     0
176
     1
290
     0
176
     1
290
     0
176
     1
290
     0
176
     1
 90
       50
176
     1
 40
0.0
176
     1
 40
1.0
176
     1
 90
        0
176
     1
 62
    18
420
        0
176
     1
 90
       50
176
     1
 90
        3
176
     1
 62
     5
420
      255
176
     1
290
     0
176
     1
 90
       50
176
     1
 90
       50
176
     1
 90
       50
176
     1
290
     0
176
     1
 90
       50
176
     1
 62
   256
176
     0
 40
1.0
176
     0
 90
        2
176
     1
  1
strokes_ogs.tif
176
     1
290
     0
176
     1
 40
1.0
176
     1
 40
1.0
176
     1
  0
VISUALSTYLE
  5
3C
102
{ACAD_REACTORS
330
2A
102
}
330
2A
100
AcDbVisualStyle
  2
OverhangOff
 70
    21
177
     3
291
     1
 70
    58
 90
        2
176
     0
 90
        2
176
     0
 90
        0
176
     0
 90
        0
176
     0
 40
0.6
176
     0
 40
30.0
176
     0
 62
     7
420
 16777215
176
     0
 90
        1
176
     0
 90
        4
176
     0
 62
     7
176
     0
 62
   257
176
     0
 90
        1
176
     0
 90
        1
176
     0
 40
1.0
176
     0
 90
        9
176
     2
 62
     7
176
     0
 40
1.0
176
     0
 90
        1
176
     0
 90
        6
176
     0
 90
        2
176
     0
 62
     7
176
     0
 90
        5
176
     0
 90
        0
176
     0
 90
        0
176
     0
290
     0
176
     0
 90
        1
176
     0
 40
0.0
176
     0
 90
        0
176
     0
290
     0
176
     0
290
     1
176
     0
290
     1
176
     0
290
     0
176
     0
290
     0
176
     0
290
     0
176
     0
290
     0
176
     0
290
     0
176
     0
290
     0
176
     0
 90
       50
176
     0
 40
0.0
176
     0
 40
1.0
176
     0
 90
        0
176
     0
 62
    18
420
        0
176
     0
 90
       50
176
     0
 90
        3
176
     0
 62
     5
420
      255
176
     0
290
     0
176
     0
 90
       50
176
     0
 90
       50
176
     0
 90
       50
176
     0
290
     0
176
     0
 90
       50
176
     0
 62
   256
176
     0
 40
1.0
176
     0
 90
        2
176
     0
  1
strokes_ogs.tif
176
     0
290
     0
176
     0
 40
1.0
176
     0
 40
1.0
176
     0
  0
VISUALSTYLE
  5
33
102
{ACAD_REACTORS
330
2A
102
}
330
2A
100
AcDbVisualStyle
  2
Realistic
 70
     8
177
     3
291
     0
 70
    58
 90
        2
176
     1
 90
        3
176
     1
 90
        0
176
     1
 90
        2
176
     1
 40
0.6
176
     1
 40
30.0
176
     1
 62
     7
420
 16777215
176
     1
 90
        0
176
     1
 90
        0
176
     1
 62
     7
176
     1
 62
   257
176
     1
 90
        1
176
     1
 90
        1
176
     1
 40
1.0
176
     1
 90
        8
176
     1
 62
   257
176
     1
 40
1.0
176
     1
 90
        1
176
     1
 90
        6
176
     1
 90
        2
176
     1
 62
     7
176
     1
 90
        3
176
     1
 90
        0
176
     1
 90
        0
176
     1
290
     0
176
     1
 90
       13
176
     1
 40
0.0
176
     1
 90
        0
176
     1
290
     0
176
     1
290
     1
176
     1
290
     1
176
     1
290
     0
176
     1
290
     0
176
     1
290
     0
176
     1
290
     0
176
     1
290
     0
176
     1
290
     0
176
     1
 90
       50
176
     1
 40
0.0
176
     1
 40
1.0
176
     1
 90
        0
176
     1
 62
    18
420
        0
176
     1
 90
       50
176
     1
 90
        3
176
     1
 62
     5
420
      255
176
     1
290
     0
176
     1
 90
       50
176
     1
 90
       50
176
     1
 90
       50
176
     1
290
     0
176
     1
 90
       50
176
     1
 62
   256
176
     0
 40
1.0
176
     0
 90
        2
176
     1
  1
strokes_ogs.tif
176
     1
290
     0
176
     1
 40
1.0
176
     1
 40
1.0
176
     1
  0
VISUALSTYLE
  5
42
102
{ACAD_REACTORS
330
2A
102
}
330
2A
100
AcDbVisualStyle
  2
Shaded
 70
    27
177
     3
291
     0
 70
    58
 90
        2
176
     1
 90
        2
176
     1
 90
        1
176
     1
 90
        2
176
     1
 40
0.6
176
     1
 40
30.0
176
     1
 62
     7
420
 16777215
176
     1
 90
        0
176
     1
 90
        4
176
     1
 62
     7
176
     1
 62
   257
176
     1
 90
        1
176
     1
 90
        1
176
     1
 40
1.0
176
     1
 90
        8
176
     1
 62
   257
176
     1
 40
1.0
176
     1
 90
        1
176
     1
 90
        6
176
     1
 90
        2
176
     1
 62
     8
420
  7895160
176
     1
 90
        3
176
     1
 90
        0
176
     1
 90
        0
176
     1
290
     0
176
     1
 90
        5
176
     1
 40
0.0
176
     1
 90
        0
176
     1
290
     0
176
     1
290
     1
176
     1
290
     1
176
     1
290
     0
176
     1
290
     0
176
     1
290
     0
176
     1
290
     0
176
     1
290
     0
176
     1
290
     0
176
     1
 90
       50
176
     1
 40
0.0
176
     1
 40
1.0
176
     1
 90
        0
176
     1
 62
    18
420
        0
176
     1
 90
       50
176
     1
 90
        3
176
     1
 62
     5
420
      255
176
     1
290
     0
176
     1
 90
       50
176
     1
 90
       50
176
     1
 90
       50
176
     1
290
     0
176
     1
 90
       50
176
     1
 62
   256
176
     0
 40
1.0
176
     0
 90
        2
176
     1
  1
strokes_ogs.tif
176
     1
290
     0
176
     1
 40
1.0
176
     1
 40
1.0
176
     1
  0
VISUALSTYLE
  5
41
102
{ACAD_REACTORS
330
2A
102
}
330
2A
100
AcDbVisualStyle
  2
Shaded with edges
 70
    26
177
     3
291
     0
 70
    58
 90
        2
176
     1
 90
        2
176
     1
 90
        1
176
     1
 90
        2
176
     1
 40
0.6
176
     1
 40
30.0
176
     1
 62
     7
420
 16777215
176
     1
 90
        1
176
     1
 90
       10
176
     1
 62
     7
176
     1
 62
   257
176
     1
 90
        2
176
     1
 90
        1
176
     1
 40
1.0
176
     1
 90
        8
176
     1
 62
   257
176
     1
 40
1.0
176
     1
 90
        1
176
     1
 90
        6
176
     1
 90
        2
176
     1
 62
     7
176
     1
 90
        3
176
     1
 90
        0
176
     1
 90
        0
176
     1
290
     0
176
     1
 90
        5
176
     1
 40
0.0
176
     1
 90
        0
176
     1
290
     0
176
     1
290
     1
176
     1
290
     1
176
     1
290
     0
176
     1
290
     0
176
     1
290
     0
176
     1
290
     0
176
     1
290
     0
176
     1
290
     0
176
     1
 90
       50
176
     1
 40
0.0
176
     1
 40
1.0
176
     1
 90
        0
176
     1
 62
    18
420
        0
176
     1
 90
       50
176
     1
 90
        3
176
     1
 62
     5
420
      255
176
     1
290
     0
176
     1
 90
       50
176
     1
 90
       50
176
     1
 90
       50
176
     1
290
     0
176
     1
 90
       50
176
     1
 62
   256
176
     0
 40
1.0
176
     0
 90
        2
176
     1
  1
strokes_ogs.tif
176
     1
290
     0
176
     1
 40
1.0
176
     1
 40
1.0
176
     1
  0
VISUALSTYLE
  5
3E
102
{ACAD_REACTORS
330
2A
102
}
330
2A
100
AcDbVisualStyle
  2
Shades of Gray
 70
    23
177
     3
291
     0
 70
    58
 90
        2
176
     1
 90
        2
176
     1
 90
        3
176
     1
 90
        0
176
     1
 40
0.6
176
     1
 40
30.0
176
     1
 62
     7
420
 16777215
176
     1
 90
        2
176
     1
 90
        2
176
     1
 62
     7
176
     1
 62
     7
176
     1
 90
        1
176
     1
 90
        1
176
     1
 40
40.0
176
     1
 90
        8
176
     1
 62
     7
176
     1
 40
1.0
176
     1
 90
        1
176
     1
 90
        6
176
     1
 90
        2
176
     1
 62
     7
176
     1
 90
        3
176
     1
 90
        0
176
     1
 90
        0
176
     1
290
     0
176
     1
 90
        1
176
     1
 40
0.0
176
     1
 90
        0
176
     1
290
     0
176
     1
290
     1
176
     1
290
     1
176
     1
290
     0
176
     1
290
     0
176
     1
290
     0
176
     1
290
     0
176
     1
290
     0
176
     1
290
     0
176
     1
 90
       50
176
     1
 40
0.0
176
     1
 40
1.0
176
     1
 90
        0
176
     1
 62
    18
420
        0
176
     1
 90
       50
176
     1
 90
        3
176
     1
 62
     5
420
      255
176
     1
290
     0
176
     1
 90
       50
176
     1
 90
       50
176
     1
 90
       50
176
     1
290
     0
176
     1
 90
       50
176
     1
 62
   256
176
     0
 40
1.0
176
     0
 90
        2
176
     1
  1
strokes_ogs.tif
176
     1
290
     0
176
     1
 40
1.0
176
     1
 40
1.0
176
     1
  0
VISUALSTYLE
  5
3F
102
{ACAD_REACTORS
330
2A
102
}
330
2A
100
AcDbVisualStyle
  2
Sketchy
 70
    24
177
     3
291
     0
 70
    58
 90
        1
176
     1
 90
        2
176
     1
 90
        2
176
     1
 90
        0
176
     1
 40
0.6
176
     1
 40
30.0
176
     1
 62
     7
420
 16777215
176
     1
 90
        2
176
     1
 90
        2
176
     1
 62
     7
176
     1
 62
     7
176
     1
 90
        1
176
     1
 90
        1
176
     1
 40
40.0
176
     1
 90
       11
176
     1
 62
     7
176
     1
 40
1.0
176
     1
 90
        1
176
     1
 90
        6
176
     1
 90
        2
176
     1
 62
     7
176
     1
 90
        6
176
     1
 90
        0
176
     1
 90
        0
176
     1
290
     0
176
     1
 90
        1
176
     1
 40
0.0
176
     1
 90
        0
176
     1
290
     0
176
     1
290
     1
176
     1
290
     1
176
     1
290
     0
176
     1
290
     0
176
     1
290
     0
176
     1
290
     0
176
     1
290
     0
176
     1
290
     0
176
     1
 90
       50
176
     1
 40
0.0
176
     1
 40
1.0
176
     1
 90
        0
176
     1
 62
    18
420
        0
176
     1
 90
       50
176
     1
 90
        3
176
     1
 62
     5
420
      255
176
     1
290
     0
176
     1
 90
       50
176
     1
 90
       50
176
     1
 90
       50
176
     1
290
     0
176
     1
 90
       50
176
     1
 62
   256
176
     0
 40
1.0
176
     0
 90
        2
176
     1
  1
strokes_ogs.tif
176
     1
290
     0
176
     1
 40
1.0
176
     1
 40
1.0
176
     1
  0
VISUALSTYLE
  5
37
102
{ACAD_REACTORS
330
2A
102
}
330
2A
100
AcDbVisualStyle
  2
Thicken
 70
    13
177
     3
291
     1
 70
    58
 90
        2
176
     1
 90
        2
176
     1
 90
        0
176
     1
 90
        0
176
     1
 40
0.6
176
     1
 40
30.0
176
     1
 62
     7
420
 16777215
176
     1
 90
        1
176
     1
 90
        4
176
     1
 62
     7
176
     1
 62
   257
176
     1
 90
        1
176
     1
 90
        1
176
     1
 40
1.0
176
     1
 90
       12
176
     1
 62
     7
176
     1
 40
1.0
176
     1
 90
        1
176
     1
 90
        6
176
     1
 90
        2
176
     1
 62
     7
176
     1
 90
        5
176
     1
 90
        0
176
     1
 90
        0
176
     1
290
     0
176
     1
 90
        1
176
     1
 40
0.0
176
     1
 90
        0
176
     1
290
     0
176
     1
290
     1
176
     1
290
     1
176
     1
290
     0
176
     1
290
     0
176
     1
290
     0
176
     1
290
     0
176
     1
290
     0
176
     1
290
     0
176
     1
 90
       50
176
     1
 40
0.0
176
     1
 40
1.0
176
     1
 90
        0
176
     1
 62
    18
420
        0
176
     1
 90
       50
176
     1
 90
        3
176
     1
 62
     5
420
      255
176
     1
290
     0
176
     1
 90
       50
176
     1
 90
       50
176
     1
 90
       50
176
     1
290
     0
176
     1
 90
       50
176
     1
 62
   256
176
     0
 40
1.0
176
     0
 90
        2
176
     1
  1
strokes_ogs.tif
176
     1
290
     0
176
     1
 40
1.0
176
     1
 40
1.0
176
     1
  0
VISUALSTYLE
  5
30
102
{ACAD_REACTORS
330
2A
102
}
330
2A
100
AcDbVisualStyle
  2
Wireframe
 70
     5
177
     3
291
     0
 70
    58
 90
        0
176
     1
 90
        2
176
     1
 90
        0
176
     1
 90
        0
176
     1
 40
0.6
176
     1
 40
30.0
176
     1
 62
     7
420
 16777215
176
     1
 90
        1
176
     1
 90
        4
176
     1
 62
     7
176
     1
 62
   257
176
     1
 90
        1
176
     1
 90
        1
176
     1
 40
1.0
176
     1
 90
        0
176
     1
 62
   257
176
     1
 40
1.0
176
     1
 90
        1
176
     1
 90
        6
176
     1
 90
        2
176
     1
 62
     7
176
     1
 90
        3
176
     1
 90
        0
176
     1
 90
        0
176
     1
290
     0
176
     1
 90
        1
176
     1
 40
0.0
176
     1
 90
        0
176
     1
290
     0
176
     1
290
     1
176
     1
290
     1
176
     1
290
     0
176
     1
290
     0
176
     1
290
     0
176
     1
290
     0
176
     1
290
     0
176
     1
290
     0
176
     1
 90
       50
176
     1
 40
0.0
176
     1
 40
1.0
176
     1
 90
        0
176
     1
 62
    18
420
        0
176
     1
 90
       50
176
     1
 90
        3
176
     1
 62
     5
420
      255
176
     1
290
     0
176
     1
 90
       50
176
     1
 90
       50
176
     1
 90
       50
176
     1
290
     0
176
     1
 90
       50
176
     1
 62
   256
176
     0
 40
1.0
176
     0
 90
        2
176
     1
  1
strokes_ogs.tif
176
     1
290
     0
176
     1
 40
1.0
176
     1
 40
1.0
176
     1
  0
VISUALSTYLE
  5
40
102
{ACAD_REACTORS
330
2A
102
}
330
2A
100
AcDbVisualStyle
  2
X-Ray
 70
    25
177
     3
291
     0
 70
    58
 90
        2
176
     1
 90
        2
176
     1
 90
        1
176
     1
 90
        1
176
     1
 40
0.5
176
     1
 40
30.0
176
     1
 62
     7
420
 16777215
176
     1
 90
        1
176
     1
 90
        0
176
     1
 62
     7
176
     1
 62
   257
176
     1
 90
        1
176
     1
 90
        1
176
     1
 40
1.0
176
     1
 90
        8
176
     1
 62
     7
176
     1
 40
1.0
176
     1
 90
        1
176
     1
 90
        6
176
     1
 90
        2
176
     1
 62
     7
176
     1
 90
        3
176
     1
 90
        0
176
     1
 90
        0
176
     1
290
     0
176
     1
 90
       13
176
     1
 40
0.0
176
     1
 90
        0
176
     1
290
     0
176
     1
290
     1
176
     1
290
     1
176
     1
290
     0
176
     1
290
     0
176
     1
290
     0
176
     1
290
     0
176
     1
290
     0
176
     1
290
     0
176
     1
 90
       50
176
     1
 40
0.0
176
     1
 40
1.0
176
     1
 90
        0
176
     1
 62
    18
420
        0
176
     1
 90
       50
176
     1
 90
        3
176
     1
 62
     5
420
      255
176
     1
290
     0
176
     1
 90
       50
176
     1
 90
       50
176
     1
 90
       50
176
     1
290
     0
176
     1
 90
       50
176
     1
 62
   256
176
     0
 40
1.0
176
     0
 90
        2
176
     1
  1
strokes_ogs.tif
176
     1
290
     0
176
     1
 40
1.0
176
     1
 40
1.0
176
     1
  0
DICTIONARYVAR
  5
2E1
102
{ACAD_REACTORS
330
2E0
102
}
330
2E0
100
DictionaryVariables
280
     0
  1
1:1
  0
DICTIONARYVAR
  5
2E6
102
{ACAD_REACTORS
330
2E0
102
}
330
2E0
100
DictionaryVariables
280
     0
  1
Standard
  0
DICTIONARYVAR
  5
2E5
102
{ACAD_REACTORS
330
2E0
102
}
330
2E0
100
DictionaryVariables
280
     0
  1
Standard
  0
DICTIONARYVAR
  5
2E9
102
{ACAD_REACTORS
330
2E0
102
}
330
2E0
100
DictionaryVariables
280
     0
  1
6.000000
  0
DICTIONARY
  5
2E2
330
6A
100
AcDbDictionary
280
     1
281
     1
  3
ACAD_ROUNDTRIP_2008_TABLESTYLE_CELLSTYLEMAP
360
2E3
  0
CELLSTYLEMAP
  5
2E3
102
{ACAD_REACTORS
330
2E2
102
}
330
2E2
100
AcDbCellStyleMap
 90
        3
300
CELLSTYLE
  1
TABLEFORMAT_BEGIN
 90
        5
170
     1
 91
        0
 92
    32768
 62
   257
 93
        1
300
CONTENTFORMAT
  1
CONTENTFORMAT_BEGIN
 90
        0
 91
        0
 92
        4
 93
        0
300

 40
0.0
140
1.0
 94
        5
 62
     0
340
11
144
6.0
309
CONTENTFORMAT_END
171
     1
301
MARGIN
  1
CELLMARGIN_BEGIN
 40
1.5
 40
1.5
 40
1.5
 40
1.5
 40
1.5
 40
1.5
309
CELLMARGIN_END
 94
        6
 95
        1
302
GRIDFORMAT
  1
GRIDFORMAT_BEGIN
 90
        0
 91
        1
 62
     0
 92
       -2
340
14
 93
        0
 40
0.045
309
GRIDFORMAT_END
 95
        2
302
GRIDFORMAT
  1
GRIDFORMAT_BEGIN
 90
        0
 91
        1
 62
     0
 92
       -2
340
14
 93
        0
 40
0.045
309
GRIDFORMAT_END
 95
        4
302
GRIDFORMAT
  1
GRIDFORMAT_BEGIN
 90
        0
 91
        1
 62
     0
 92
       -2
340
14
 93
        0
 40
0.045
309
GRIDFORMAT_END
 95
        8
302
GRIDFORMAT
  1
GRIDFORMAT_BEGIN
 90
        0
 91
        1
 62
     0
 92
       -2
340
14
 93
        0
 40
0.045
309
GRIDFORMAT_END
 95
       16
302
GRIDFORMAT
  1
GRIDFORMAT_BEGIN
 90
        0
 91
        1
 62
     0
 92
       -2
340
14
 93
        0
 40
0.045
309
GRIDFORMAT_END
 95
       32
302
GRIDFORMAT
  1
GRIDFORMAT_BEGIN
 90
        0
 91
        1
 62
     0
 92
       -2
340
14
 93
        0
 40
0.045
309
GRIDFORMAT_END
309
TABLEFORMAT_END
  1
CELLSTYLE_BEGIN
 90
        1
 91
        1
300
_TITLE
309
CELLSTYLE_END
300
CELLSTYLE
  1
TABLEFORMAT_BEGIN
 90
        5
170
     1
 91
        0
 92
        0
 62
   257
 93
        1
300
CONTENTFORMAT
  1
CONTENTFORMAT_BEGIN
 90
        0
 91
        0
 92
        4
 93
        0
300

 40
0.0
140
1.0
 94
        5
 62
     0
340
11
144
4.5
309
CONTENTFORMAT_END
171
     1
301
MARGIN
  1
CELLMARGIN_BEGIN
 40
1.5
 40
1.5
 40
1.5
 40
1.5
 40
1.5
 40
1.5
309
CELLMARGIN_END
 94
        6
 95
        1
302
GRIDFORMAT
  1
GRIDFORMAT_BEGIN
 90
        0
 91
        1
 62
     0
 92
       -2
340
14
 93
        0
 40
0.045
309
GRIDFORMAT_END
 95
        2
302
GRIDFORMAT
  1
GRIDFORMAT_BEGIN
 90
        0
 91
        1
 62
     0
 92
       -2
340
14
 93
        0
 40
0.045
309
GRIDFORMAT_END
 95
        4
302
GRIDFORMAT
  1
GRIDFORMAT_BEGIN
 90
        0
 91
        1
 62
     0
 92
       -2
340
14
 93
        0
 40
0.045
309
GRIDFORMAT_END
 95
        8
302
GRIDFORMAT
  1
GRIDFORMAT_BEGIN
 90
        0
 91
        1
 62
     0
 92
       -2
340
14
 93
        0
 40
0.045
309
GRIDFORMAT_END
 95
       16
302
GRIDFORMAT
  1
GRIDFORMAT_BEGIN
 90
        0
 91
        1
 62
     0
 92
       -2
340
14
 93
        0
 40
0.045
309
GRIDFORMAT_END
 95
       32
302
GRIDFORMAT
  1
GRIDFORMAT_BEGIN
 90
        0
 91
        1
 62
     0
 92
       -2
340
14
 93
        0
 40
0.045
309
GRIDFORMAT_END
309
TABLEFORMAT_END
  1
CELLSTYLE_BEGIN
 90
        2
 91
        1
300
_HEADER
309
CELLSTYLE_END
300
CELLSTYLE
  1
TABLEFORMAT_BEGIN
 90
        5
170
     1
 91
        0
 92
        0
 62
   257
 93
        1
300
CONTENTFORMAT
  1
CONTENTFORMAT_BEGIN
 90
        0
 91
        0
 92
        4
 93
        0
300

 40
0.0
140
1.0
 94
        2
 62
     0
340
11
144
4.5
309
CONTENTFORMAT_END
171
     1
301
MARGIN
  1
CELLMARGIN_BEGIN
 40
1.5
 40
1.5
 40
1.5
 40
1.5
 40
1.5
 40
1.5
309
CELLMARGIN_END
 94
        6
 95
        1
302
GRIDFORMAT
  1
GRIDFORMAT_BEGIN
 90
        0
 91
        1
 62
     0
 92
       -2
340
14
 93
        0
 40
0.045
309
GRIDFORMAT_END
 95
        2
302
GRIDFORMAT
  1
GRIDFORMAT_BEGIN
 90
        0
 91
        1
 62
     0
 92
       -2
340
14
 93
        0
 40
0.045
309
GRIDFORMAT_END
 95
        4
302
GRIDFORMAT
  1
GRIDFORMAT_BEGIN
 90
        0
 91
        1
 62
     0
 92
       -2
340
14
 93
        0
 40
0.045
309
GRIDFORMAT_END
 95
        8
302
GRIDFORMAT
  1
GRIDFORMAT_BEGIN
 90
        0
 91
        1
 62
     0
 92
       -2
340
14
 93
        0
 40
0.045
309
GRIDFORMAT_END
 95
       16
302
GRIDFORMAT
  1
GRIDFORMAT_BEGIN
 90
        0
 91
        1
 62
     0
 92
       -2
340
14
 93
        0
 40
0.045
309
GRIDFORMAT_END
 95
       32
302
GRIDFORMAT
  1
GRIDFORMAT_BEGIN
 90
        0
 91
        1
 62
     0
 92
       -2
340
14
 93
        0
 40
0.045
309
GRIDFORMAT_END
309
TABLEFORMAT_END
  1
CELLSTYLE_BEGIN
 90
        3
 91
        2
300
_DATA
309
CELLSTYLE_END
  0
ENDSEC
  0
EOF
