  0
SECTION
  2
HEADER
  9
$ACADVER
  1
AC1015
  9
$ACADMAINTVER
 70
    18
  9
$DWGCODEPAGE
  3
ANSI_1252
  9
$INSBASE
 10
0.0
 20
0.0
 30
0.0
  9
$EXTMIN
 10
-57.00436131167726
 20
-43.97746086164556
 30
-0.0015258207003583
  9
$EXTMAX
 10
57.02250816442802
 20
51.24073895374386
 30
0.0000000349246037
  9
$LIMMIN
 10
0.0
 20
0.0
  9
$LIMMAX
 10
1189.0
 20
840.9999999999998
  9
$ORTHOMODE
 70
     0
  9
$REGENMODE
 70
     1
  9
$FILLMODE
 70
     1
  9
$QTEXTMODE
 70
     0
  9
$MIRRTEXT
 70
     0
  9
$LTSCALE
 40
1.0
  9
$ATTMODE
 70
     1
  9
$TEXTSIZE
 40
0.2
  9
$TRACEWID
 40
0.05
  9
$TEXTSTYLE
  7
STANDARD
  9
$CLAYER
  8
0
  9
$CELTYPE
  6
ByLayer
  9
$CECOLOR
 62
   256
  9
$CELTSCALE
 40
1.0
  9
$DISPSILH
 70
     0
  9
$DIMSCALE
 40
1.0
  9
$DIMASZ
 40
180.0
  9
$DIMEXO
 40
0.0625
  9
$DIMDLI
 40
0.38
  9
$DIMRND
 40
0.0
  9
$DIMDLE
 40
0.0
  9
$DIMEXE
 40
0.18
  9
$DIMTP
 40
0.0
  9
$DIMTM
 40
0.0
  9
$DIMTXT
 40
34.99999940395355
  9
$DIMCEN
 40
0.09
  9
$DIMTSZ
 40
0.0
  9
$DIMTOL
 70
     0
  9
$DIMLIM
 70
     0
  9
$DIMTIH
 70
     1
  9
$DIMTOH
 70
     1
  9
$DIMSE1
 70
     0
  9
$DIMSE2
 70
     0
  9
$DIMTAD
 70
     0
  9
$DIMZIN
 70
     0
  9
$DIMBLK
  1

  9
$DIMASO
 70
     1
  9
$DIMSHO
 70
     1
  9
$DIMPOST
  1

  9
$DIMAPOST
  1

  9
$DIMALT
 70
     0
  9
$DIMALTD
 70
     2
  9
$DIMALTF
 40
25.4
  9
$DIMLFAC
 40
1.0
  9
$DIMTOFL
 70
     0
  9
$DIMTVP
 40
0.0
  9
$DIMTIX
 70
     0
  9
$DIMSOXD
 70
     0
  9
$DIMSAH
 70
     0
  9
$DIMBLK1
  1

  9
$DIMBLK2
  1

  9
$DIMSTYLE
  2
STANDARD
  9
$DIMCLRD
 70
     0
  9
$DIMCLRE
 70
     0
  9
$DIMCLRT
 70
     0
  9
$DIMTFAC
 40
1.0
  9
$DIMGAP
 40
0.09
  9
$DIMJUST
 70
     0
  9
$DIMSD1
 70
     0
  9
$DIMSD2
 70
     0
  9
$DIMTOLJ
 70
     1
  9
$DIMTZIN
 70
     0
  9
$DIMALTZ
 70
     0
  9
$DIMALTTZ
 70
     0
  9
$DIMUPT
 70
     0
  9
$DIMDEC
 70
     4
  9
$DIMTDEC
 70
     4
  9
$DIMALTU
 70
     2
  9
$DIMALTTD
 70
     2
  9
$DIMTXSTY
  7
STANDARD
  9
$DIMAUNIT
 70
     0
  9
$DIMADEC
 70
     0
  9
$DIMALTRND
 40
0.0
  9
$DIMAZIN
 70
     0
  9
$DIMDSEP
 70
    46
  9
$DIMATFIT
 70
     3
  9
$DIMFRAC
 70
     0
  9
$DIMLDRBLK
  1

  9
$DIMLUNIT
 70
     2
  9
$DIMLWD
 70
    -2
  9
$DIMLWE
 70
    -2
  9
$DIMTMOVE
 70
     0
  9
$LUNITS
 70
     2
  9
$LUPREC
 70
     4
  9
$SKETCHINC
 40
0.1
  9
$FILLETRAD
 40
0.0
  9
$AUNITS
 70
     0
  9
$AUPREC
 70
     0
  9
$MENU
  1
.
  9
$ELEVATION
 40
0.0
  9
$PELEVATION
 40
0.0
  9
$THICKNESS
 40
0.0
  9
$LIMCHECK
 70
     0
  9
$CHAMFERA
 40
0.0
  9
$CHAMFERB
 40
0.0
  9
$CHAMFERC
 40
0.0
  9
$CHAMFERD
 40
0.0
  9
$SKPOLY
 70
     0
  9
$TDCREATE
 40
2454871.539305995
  9
$TDUCREATE
 40
2454871.455972662
  9
$TDUPDATE
 40
2456188.548177188
  9
$TDUUPDATE
 40
2456188.464843855
  9
$TDINDWG
 40
0.0122286111
  9
$TDUSRTIMER
 40
0.0122286111
  9
$USRTIMER
 70
     1
  9
$ANGBASE
 50
0.0
  9
$ANGDIR
 70
     0
  9
$PDMODE
 70
     0
  9
$PDSIZE
 40
0.0
  9
$PLINEWID
 40
0.0
  9
$SPLFRAME
 70
     0
  9
$SPLINETYPE
 70
     6
  9
$SPLINESEGS
 70
     8
  9
$HANDSEED
  5
333
  9
$SURFTAB1
 70
     6
  9
$SURFTAB2
 70
     6
  9
$SURFTYPE
 70
     6
  9
$SURFU
 70
     6
  9
$SURFV
 70
     6
  9
$UCSBASE
  2

  9
$UCSNAME
  2

  9
$UCSORG
 10
0.0
 20
0.0
 30
0.0
  9
$UCSXDIR
 10
1.0
 20
0.0
 30
0.0
  9
$UCSYDIR
 10
0.0
 20
1.0
 30
0.0
  9
$UCSORTHOREF
  2

  9
$UCSORTHOVIEW
 70
     0
  9
$UCSORGTOP
 10
0.0
 20
0.0
 30
0.0
  9
$UCSORGBOTTOM
 10
0.0
 20
0.0
 30
0.0
  9
$UCSORGLEFT
 10
0.0
 20
0.0
 30
0.0
  9
$UCSORGRIGHT
 10
0.0
 20
0.0
 30
0.0
  9
$UCSORGFRONT
 10
0.0
 20
0.0
 30
0.0
  9
$UCSORGBACK
 10
0.0
 20
0.0
 30
0.0
  9
$PUCSBASE
  2

  9
$PUCSNAME
  2

  9
$PUCSORG
 10
0.0
 20
0.0
 30
0.0
  9
$PUCSXDIR
 10
1.0
 20
0.0
 30
0.0
  9
$PUCSYDIR
 10
0.0
 20
1.0
 30
0.0
  9
$PUCSORTHOREF
  2

  9
$PUCSORTHOVIEW
 70
     0
  9
$PUCSORGTOP
 10
0.0
 20
0.0
 30
0.0
  9
$PUCSORGBOTTOM
 10
0.0
 20
0.0
 30
0.0
  9
$PUCSORGLEFT
 10
0.0
 20
0.0
 30
0.0
  9
$PUCSORGRIGHT
 10
0.0
 20
0.0
 30
0.0
  9
$PUCSORGFRONT
 10
0.0
 20
0.0
 30
0.0
  9
$PUCSORGBACK
 10
0.0
 20
0.0
 30
0.0
  9
$USERI1
 70
     0
  9
$USERI2
 70
     0
  9
$USERI3
 70
     0
  9
$USERI4
 70
     0
  9
$USERI5
 70
     0
  9
$USERR1
 40
0.0
  9
$USERR2
 40
0.0
  9
$USERR3
 40
0.0
  9
$USERR4
 40
0.0
  9
$USERR5
 40
0.0
  9
$WORLDVIEW
 70
     1
  9
$SHADEDGE
 70
     3
  9
$SHADEDIF
 70
    70
  9
$TILEMODE
 70
     1
  9
$MAXACTVP
 70
    64
  9
$PINSBASE
 10
0.0
 20
0.0
 30
0.0
  9
$PLIMCHECK
 70
     0
  9
$PEXTMIN
 10
0.0
 20
0.0
 30
0.0
  9
$PEXTMAX
 10
1189.0
 20
840.9999999999998
 30
0.0
  9
$PLIMMIN
 10
0.0
 20
0.0
  9
$PLIMMAX
 10
1189.0
 20
840.9999999999998
  9
$UNITMODE
 70
     0
  9
$VISRETAIN
 70
     1
  9
$PLINEGEN
 70
     0
  9
$PSLTSCALE
 70
     1
  9
$TREEDEPTH
 70
  3020
  9
$CMLSTYLE
  2
Standard
  9
$CMLJUST
 70
     0
  9
$CMLSCALE
 40
1.0
  9
$PROXYGRAPHICS
 70
     1
  9
$MEASUREMENT
 70
     1
  9
$CELWEIGHT
370
    -1
  9
$ENDCAPS
280
     0
  9
$JOINSTYLE
280
     0
  9
$LWDISPLAY
290
     0
  9
$INSUNITS
 70
     4
  9
$HYPERLINKBASE
  1

  9
$STYLESHEET
  1

  9
$XEDIT
290
     1
  9
$CEPSNTYPE
380
     0
  9
$PSTYLEMODE
290
     1
  9
$FINGERPRINTGUID
  2
{A0182228-5E6E-4BB0-8819-5B4A269A0D01}
  9
$VERSIONGUID
  2
{5051EA2A-2C5A-4BCD-BDAC-13EDDC342BEB}
  9
$EXTNAMES
290
     1
  9
$PSVPSCALE
 40
0.0
  9
$OLESTARTUP
290
     0
  0
ENDSEC
  0
SECTION
  2
CLASSES
  0
CLASS
  1
ACDBDICTIONARYWDFLT
  2
AcDbDictionaryWithDefault
  3
ObjectDBX Classes
 90
        0
280
     0
281
     0
  0
CLASS
  1
MATERIAL
  2
AcDbMaterial
  3
ObjectDBX Classes
 90
     1153
280
     0
281
     0
  0
CLASS
  1
VISUALSTYLE
  2
AcDbVisualStyle
  3
ObjectDBX Classes
 90
     4095
280
     0
281
     0
  0
CLASS
  1
SCALE
  2
AcDbScale
  3
ObjectDBX Classes
 90
     1153
280
     0
281
     0
  0
CLASS
  1
TABLESTYLE
  2
AcDbTableStyle
  3
ObjectDBX Classes
 90
     4095
280
     0
281
     0
  0
CLASS
  1
MLEADERSTYLE
  2
AcDbMLeaderStyle
  3
ACDB_MLEADERSTYLE_CLASS
 90
     4095
280
     0
281
     0
  0
CLASS
  1
SORTENTSTABLE
  2
AcDbSortentsTable
  3
ObjectDBX Classes
 90
        0
280
     0
281
     0
  0
CLASS
  1
CELLSTYLEMAP
  2
AcDbCellStyleMap
  3
ObjectDBX Classes
 90
     1152
280
     0
281
     0
  0
CLASS
  1
DICTIONARYVAR
  2
AcDbDictionaryVar
  3
ObjectDBX Classes
 90
        0
280
     0
281
     0
  0
CLASS
  1
ACME_DOCUMENT
  2
AcMeDbDoc
  3
AcMeServices
 90
     1024
280
     0
281
     0
  0
CLASS
  1
AMGSETTINGSOBJ
  2
AmgSettingsObj
  3
"AcadM|Product Description: AutoCAD Mechanical|Company: Autodesk, Inc."
 90
     1024
280
     0
281
     0
  0
CLASS
  1
ACMESCOPE
  2
AcMeScope
  3
AcMeServices
 90
     1024
280
     0
281
     0
  0
CLASS
  1
ACMECOMMANDHISTORY
  2
AcMeCommandHistory
  3
AcMeServices
 90
     1024
280
     0
281
     0
  0
CLASS
  1
ACIMSYSVARMAN
  2
AcImSysVarManager
  3
AcMeServices
 90
     1024
280
     0
281
     0
  0
CLASS
  1
ACIMINTSYSVAR
  2
AcImIntSysVar
  3
AcMeServices
 90
     1024
280
     0
281
     0
  0
CLASS
  1
ACMEDRAWINGMAN
  2
AcMeDrawingMan
  3
AcMeServices
 90
    33792
280
     0
281
     0
  0
CLASS
  1
ACMEVIEW
  2
AcMeView
  3
AcMeServices
 90
    33792
280
     0
281
     0
  0
CLASS
  1
ACDBENTITYCACHE
  2
AcMeEntityCache
  3
AcMeServices
 90
     1024
280
     0
281
     0
  0
CLASS
  1
GSMANAGER
  2
AcMeGSManager
  3
AcMeServices
 90
    33792
280
     1
281
     0
  0
CLASS
  1
AMDTINTERNALREACTOR
  2
AmdtInternalReactor
  3
AcMeServices
 90
     1024
280
     0
281
     0
  0
CLASS
  1
ACMESTATEMGR
  2
AcMeStateMgr
  3
AcMeServices
 90
     1024
280
     0
281
     0
  0
CLASS
  1
ACGREFMASTER
  2
AcGrefMaster
  3
AcAttribServices
 90
     1024
280
     0
281
     0
  0
CLASS
  1
AM_DRAWING_MGR
  2
AcDmDwgMgr
  3
AcMechDwgViewMgmt
 90
     1024
280
     0
281
     0
  0
CLASS
  1
AM_DWG_DOCUMENT
  2
AcDmDwgDocument
  3
AcMechDwgViewMgmt
 90
     1024
280
     0
281
     0
  0
CLASS
  1
AM_DWG_SHEET
  2
AcDmSheet
  3
AcMechDwgViewMgmt
 90
     1024
280
     0
281
     0
  0
CLASS
  1
AM_VIEWDIMPARMAP
  2
AcDmViewDimParMap
  3
AcMechDwgViewMgmt
 90
     1024
280
     0
281
     0
  0
CLASS
  1
ACIMREALSYSVAR
  2
AcImRealSysVar
  3
AcMeServices
 90
     1024
280
     0
281
     0
  0
CLASS
  1
AM_DWGMGR_NAME
  2
AcDmDwgMgrName
  3
AcMechDwgViewMgmt
 90
     1024
280
     0
281
     0
  0
CLASS
  1
ACME_DATABASE
  2
AcMeDbDatabase
  3
AcMeServices
 90
     1024
280
     0
281
     0
  0
CLASS
  1
ACRFINSADJUSTERMGR
  2
AcRfInsAdjusterMgr
  3
AcMeServices
 90
     1024
280
     0
281
     0
  0
CLASS
  1
ACGREFACADMASTER
  2
AcGrefacadMaster
  3
AcGrefServices
 90
     1024
280
     0
281
     0
  0
CLASS
  1
AMDTMENUSTATEMGR
  2
AmdtMenuStateMgr
  3
McadcomServices
 90
     1024
280
     0
281
     0
  0
CLASS
  1
AMDTMCOMMENUSTATE
  2
AmdtMcomMenuState
  3
McadcomServices
 90
     1024
280
     0
281
     0
  0
CLASS
  1
AMIMASTER
  2
AmiMaster
  3
AmiServices
 90
     1024
280
     0
281
     0
  0
CLASS
  1
MAPIAMMOUDLE
  2
MApiAmModule
  3
MApiAmServices
 90
     1024
280
     0
281
     0
  0
CLASS
  1
ACIMSTRSYSVAR
  2
AcImStrSysVar
  3
AcMeServices
 90
     1024
280
     0
281
     0
  0
CLASS
  1
AMDTADMENUSTATE
  2
AmdtAdMenuState
  3
DesignerServices
 90
    33792
280
     1
281
     0
  0
CLASS
  1
ADAPPL
  2
AcAdAppl
  3
DesignerAssemblies
 90
    33792
280
     0
281
     0
  0
CLASS
  1
DEPMGR
  2
AcAdDepMgr
  3
DesignerAssemblies
 90
    33792
280
     0
281
     0
  0
CLASS
  1
PARAMMGR
  2
AcAdParamMgr
  3
DesignerAssemblies
 90
    33792
280
     0
281
     0
  0
CLASS
  1
PARAMSCOPE
  2
AcAdParamScope
  3
DesignerAssemblies
 90
    33792
280
     0
281
     0
  0
CLASS
  1
NAMEDAPPL
  2
AcAdNamedAppl
  3
DesignerAssemblies
 90
    33792
280
     0
281
     0
  0
CLASS
  1
AMDTDMMENUSTATE
  2
AmdtDmMenuState
  3
AcMechDwgViewMgmt
 90
     1024
280
     0
281
     0
  0
CLASS
  1
AMDTAMMENUSTATE
  2
AmdtAmMenuState
  3
DesignerAssemblies
 90
     1024
280
     0
281
     0
  0
CLASS
  1
ACAMPROJECT
  2
AcAmProject
  3
DesignerAssemblies
 90
     1024
280
     0
281
     0
  0
CLASS
  1
ACAMGRCOMPDEF
  2
AcAmGrCompDef
  3
DesignerAssemblies
 90
     1024
280
     0
281
     0
  0
CLASS
  1
ACCMCONTEXT
  2
AcCmContext
  3
DesignerAssemblies
 90
    33792
280
     0
281
     0
  0
CLASS
  1
ACAMCOMPDEF
  2
AcAmCompDef
  3
DesignerAssemblies
 90
     1024
280
     0
281
     0
  0
CLASS
  1
ACAMCOMPDEFMGR
  2
AcAmCompDefMgr
  3
DesignerAssemblies
 90
     1024
280
     0
281
     0
  0
CLASS
  1
AMCONTEXTMGR
  2
AcAmContextMgr
  3
DesignerAssemblies
 90
     1024
280
     0
281
     0
  0
CLASS
  1
ACAMCONTEXTMODELER
  2
AcAmContextModeler
  3
DesignerAssemblies
 90
     1024
280
     0
281
     0
  0
CLASS
  1
ACMDATADICTIONARY
  2
AcmDataDictionary
  3
"AcmSymBB|Product Description: AutoCAD Mechanical|Company: Autodesk, Inc."
 90
     1024
280
     0
281
     0
  0
CLASS
  1
CATALOGSTATE
  2
AcAmCatalogState
  3
DesignerAssemblies
 90
    33792
280
     0
281
     0
  0
CLASS
  1
ACAMGRCOMPDEFSET
  2
AcAmGrCompDefSet
  3
DesignerAssemblies
 90
     1024
280
     0
281
     0
  0
CLASS
  1
AMDTBROWSERDBTAB
  2
AmdtBrowserDbTab
  3
McadcomServices
 90
     1024
280
     0
281
     0
  0
CLASS
  1
CBROWSERAPPOBJECT
  2
CBrowserAppObject
  3
McadcomServices
 90
     1024
280
     0
281
     0
  0
CLASS
  1
DM_PLACEHOLDER
  2
AcDmSelsetPlaceholder
  3
AcMechDwgViewMgmt
 90
     1024
280
     0
281
     0
  0
CLASS
  1
EXACXREFPANELOBJECT
  2
ExAcXREFPanelObject
  3
EXAC_ESW
 90
     1025
280
     0
281
     0
  0
CLASS
  1
NPOCOLLECTION
  2
AcDbImpNonPersistentObjectsCollection
  3
ObjectDBX Classes
 90
     1153
280
     0
281
     0
  0
CLASS
  1
ACMSTANDARDANSI
  2
AcmStandardANSI
  3
"Amdt_StdImp|Product Description: AutoCAD Mechanical|Company: Autodesk, Inc."
 90
     1024
280
     0
281
     0
  0
CLASS
  1
ACMSURFSTANDARDANSI
  2
AcmSurfTextStdANSI
  3
"Amdt_StdImp|Product Description: AutoCAD Mechanical|Company: Autodesk, Inc."
 90
     1024
280
     0
281
     0
  0
CLASS
  1
ACMFCFSTANDARDANSI
  2
AcmFCFStdANSI
  3
"Amdt_StdImp|Product Description: AutoCAD Mechanical|Company: Autodesk, Inc."
 90
     1024
280
     0
281
     0
  0
CLASS
  1
ACMWELDSTANDARDANSI
  2
AcmWeldingStdANSI
  3
"Amdt_StdImp|Product Description: AutoCAD Mechanical|Company: Autodesk, Inc."
 90
     1024
280
     0
281
     0
  0
CLASS
  1
ACMIDSTANDARDANSI
  2
AcmIdStdANSI
  3
"Amdt_StdImp|Product Description: AutoCAD Mechanical|Company: Autodesk, Inc."
 90
     1024
280
     0
281
     0
  0
CLASS
  1
ACMDATUMSTANDARDANSI
  2
AcmDatumStdANSI
  3
"Amdt_StdImp|Product Description: AutoCAD Mechanical|Company: Autodesk, Inc."
 90
     1024
280
     0
281
     0
  0
CLASS
  1
ACMBOMSTANDARDANSI
  2
AcmBOMStdANSI
  3
"Amdt_StdImp|Product Description: AutoCAD Mechanical|Company: Autodesk, Inc."
 90
     1024
280
     0
281
     0
  0
CLASS
  1
ACMDETAILSTANDARDANSI
  2
AmdtDetailSymStdANSI
  3
"Amdt_StdImp|Product Description: AutoCAD Mechanical|Company: Autodesk, Inc."
 90
     1024
280
     0
281
     0
  0
CLASS
  1
ACMSECTIONSTANDARDANSI
  2
AmdtSectionSymStdANSI
  3
"Amdt_StdImp|Product Description: AutoCAD Mechanical|Company: Autodesk, Inc."
 90
     1024
280
     0
281
     0
  0
CLASS
  1
ACMCENTERLINESTANDARDANSI
  2
AmdtCenterLineStdANSI
  3
"Amdt_StdImp|Product Description: AutoCAD Mechanical|Company: Autodesk, Inc."
 90
     1024
280
     0
281
     0
  0
CLASS
  1
ACMTHREADLINESTANDARDANSI
  2
AmdtThreadLineStdANSI
  3
"Amdt_StdImp|Product Description: AutoCAD Mechanical|Company: Autodesk, Inc."
 90
     1024
280
     0
281
     0
  0
CLASS
  1
ACMNOTESTANDARDANSI
  2
AmdtNoteStdANSI
  3
"Amdt_StdImp|Product Description: AutoCAD Mechanical|Company: Autodesk, Inc."
 90
     1024
280
     0
281
     0
  0
CLASS
  1
ACMTAPERSTANDARDANSI
  2
AcmTaperStdANSI
  3
"Amdt_StdImp|Product Description: AutoCAD Mechanical|Company: Autodesk, Inc."
 90
     1024
280
     0
281
     0
  0
CLASS
  1
ACMANOOTATIONVIEWSTANDARDANSI
  2
AmdtAnViewStdANSI
  3
"Amdt_StdImp|Product Description: AutoCAD Mechanical|Company: Autodesk, Inc."
 90
     1024
280
     0
281
     0
  0
CLASS
  1
ACAMGLAYSTD
  2
AcAmgLayStd
  3
"AmgLay|Product Description: AutoCAD Mechanical|Company: Autodesk, Inc."
 90
     1024
280
     0
281
     0
  0
CLASS
  1
ACAMGDIMSTD
  2
AcAmgDimStd
  3
"AmgDim|Product Description: AutoCAD Mechanical|Company: Autodesk, Inc."
 90
     1024
280
     0
281
     0
  0
CLASS
  1
AMGOBJPROPCFG
  2
AmgObjPropCfg
  3
"AmgLay|Product Description: AutoCAD Mechanical|Company: Autodesk, Inc."
 90
     1025
280
     0
281
     0
  0
CLASS
  1
ACAMGHOLECHARTSTDANSI
  2
AcAmgHoleChartStdANSI
  3
AmgDim|Product Description: AutoCAD Mechanical|Company: Autodesk, Inc.
 90
     1024
280
     0
281
     0
  0
CLASS
  1
ACAMGTITLESTD
  2
AcAmgTitleStd
  3
"AmgTitle|Product Description: AutoCAD Mechanical|Company: Autodesk, Inc."
 90
     4095
280
     0
281
     0
  0
CLASS
  1
AMDTNOTETEMPLATEDB
  2
AmdtNoteTemplateDB
  3
AcmSymBB|Product Description: AutoCAD Mechanical|Company: Autodesk, Inc.
 90
     1024
280
     0
281
     0
  0
CLASS
  1
ACAMGFILTERDAT
  2
AcAmgFilterDat
  3
"AcadM|Product Description: AutoCAD Mechanical|Company: Autodesk, Inc."
 90
    33792
280
     0
281
     0
  0
CLASS
  1
CAMSSTRUCTBTNSTATE
  2
StructBtnState
  3
DesignerAssemblies
 90
    33792
280
     0
281
     0
  0
CLASS
  1
ACDBPLACEHOLDER
  2
AcDbPlaceHolder
  3
ObjectDBX Classes
 90
        0
280
     0
281
     0
  0
CLASS
  1
LAYOUT
  2
AcDbLayout
  3
ObjectDBX Classes
 90
        0
280
     0
281
     0
  0
CLASS
  1
SOLID_BACKGROUND
  2
AcDbSolidBackground
  3
SCENEOE
 90
    36863
280
     0
281
     0
  0
ENDSEC
  0
SECTION
  2
TABLES
  0
TABLE
  2
VPORT
  5
28
102
{ACAD_XDICTIONARY
360
2C
102
}
330
0
100
AcDbSymbolTable
 70
     1
  0
VPORT
  5
29
330
28
100
AcDbSymbolTableRecord
100
AcDbViewportTableRecord
  2
*ACTIVE
 70
     0
 10
0.0
 20
0.0
 11
1.0
 21
1.0
 12
0.0090734263753802
 22
3.631639046049144
 13
0.0
 23
0.0
 14
1.0
 24
1.0
 15
0.0
 25
0.0
 16
0.0
 26
0.0
 36
1.0
 17
0.0
 27
0.0
 37
0.0
 40
106.6581461346729
 41
2.386702849389416
 42
50.0
 43
0.0
 44
0.0
 50
0.0
 51
0.0
 71
     0
 72
   100
 73
     1
 74
     1
 75
     0
 76
     0
 77
     0
 78
     0
281
     0
 65
     1
110
0.0
120
0.0
130
0.0
111
1.0
121
0.0
131
0.0
112
0.0
122
1.0
132
0.0
 79
     0
146
0.0
  0
ENDTAB
  0
TABLE
  2
LTYPE
  5
23
330
0
100
AcDbSymbolTable
 70
    12
  0
LTYPE
  5
24
330
23
100
AcDbSymbolTableRecord
100
AcDbLinetypeTableRecord
  2
ByBlock
 70
     0
  3

 72
    65
 73
     0
 40
0.0
  0
LTYPE
  5
25
330
23
100
AcDbSymbolTableRecord
100
AcDbLinetypeTableRecord
  2
ByLayer
 70
     0
  3

 72
    65
 73
     0
 40
0.0
  0
LTYPE
  5
1B
330
23
100
AcDbSymbolTableRecord
100
AcDbLinetypeTableRecord
  2
CONTINUOUS
 70
     0
  3
Solid line
 72
    65
 73
     0
 40
0.0
  0
LTYPE
  5
23D
330
23
100
AcDbSymbolTableRecord
100
AcDbLinetypeTableRecord
  2
HIDDEN
 70
     0
  3
Verdeckt
 72
    65
 73
     2
 40
0.375
 49
0.25
 74
     0
 49
-0.125
 74
     0
  0
LTYPE
  5
23F
330
23
100
AcDbSymbolTableRecord
100
AcDbLinetypeTableRecord
  2
PHANTOM2
 70
     0
  3
Phantom (.5x) ___ _ _ ___ _ _ ___ _ _ ___ _ _
 72
    65
 73
     6
 40
1.25
 49
0.625
 74
     0
 49
-0.125
 74
     0
 49
0.125
 74
     0
 49
-0.125
 74
     0
 49
0.125
 74
     0
 49
-0.125
 74
     0
  0
LTYPE
  5
23E
330
23
100
AcDbSymbolTableRecord
100
AcDbLinetypeTableRecord
  2
CENTER
 70
     0
  3
Mitte ____ _ ____ _ ____ _ ____ _ ____ _ ____
 72
    65
 73
     4
 40
2.0
 49
1.25
 74
     0
 49
-0.25
 74
     0
 49
0.25
 74
     0
 49
-0.25
 74
     0
  0
LTYPE
  5
240
330
23
100
AcDbSymbolTableRecord
100
AcDbLinetypeTableRecord
  2
Amconstr
 70
     0
  3
_______________________
 72
    65
 73
     2
 40
9999.0
 49
9999.0
 74
     0
 49
0.0
 74
     0
  0
LTYPE
  5
241
330
23
100
AcDbSymbolTableRecord
100
AcDbLinetypeTableRecord
  2
CENTER2
 70
     0
  3
Center (.5x) ___ _ ___ _ ___ _ ___ _ ___ _ ___
 72
    65
 73
     4
 40
1.125
 49
0.75
 74
     0
 49
-0.125
 74
     0
 49
0.125
 74
     0
 49
-0.125
 74
     0
  0
LTYPE
  5
242
330
23
100
AcDbSymbolTableRecord
100
AcDbLinetypeTableRecord
  2
HIDDEN2
 70
     0
  3
Hidden (.5x) _ _ _ _ _ _ _ _ _ _ _ _ _ _ _ _ _
 72
    65
 73
     2
 40
0.1875
 49
0.125
 74
     0
 49
-0.0625
 74
     0
  0
LTYPE
  5
243
330
23
100
AcDbSymbolTableRecord
100
AcDbLinetypeTableRecord
  2
Amzigzag2
 70
     0
  3
/\/-/\/-/\/-/\/-/\/-/\/
 72
    65
 73
     2
 40
0.4401
 49
0.0001
 74
     4
 75
   136
340
244
 46
0.0016
 50
0.0
 44
0.0
 45
0.0
 49
-0.4400000000000001
 74
     0
  0
LTYPE
  5
254
330
23
100
AcDbSymbolTableRecord
100
AcDbLinetypeTableRecord
  2
ACANSTGB
 70
     0
  3
__ . . __ . .
 72
    65
 73
     6
 40
0.35433070866
 49
0.15748031496
 74
     0
 49
-0.03937007874
 74
     0
 49
0.03937007874
 74
     0
 49
-0.03937007874
 74
     0
 49
0.03937007874
 74
     0
 49
-0.03937007874
 74
     0
  0
LTYPE
  5
255
330
23
100
AcDbSymbolTableRecord
100
AcDbLinetypeTableRecord
  2
ACANSTGL
 70
     0
  3
_ _ _ _ _
 72
    65
 73
     2
 40
0.11811023622
 49
0.07874015748
 74
     0
 49
-0.03937007874
 74
     0
  0
LTYPE
  5
7C
330
23
100
AcDbSymbolTableRecord
100
AcDbLinetypeTableRecord
  2
DASHDOT
 70
     0
  3
Dash dot __ . __ . __ . __ . __ . __ . __ . __
 72
    65
 73
     4
 40
1.0
 49
0.5
 74
     0
 49
-0.25
 74
     0
 49
0.0
 74
     0
 49
-0.25
 74
     0
  0
LTYPE
  5
134
330
23
100
AcDbSymbolTableRecord
100
AcDbLinetypeTableRecord
  2
DASHED
 70
     0
  3
Dashed __ __ __ __ __ __ __ __ __ __ __ __ __ _
 72
    65
 73
     2
 40
0.75
 49
0.5
 74
     0
 49
-0.25
 74
     0
  0
ENDTAB
  0
TABLE
  2
LAYER
  5
E
102
{ACAD_XDICTIONARY
360
1C
102
}
330
0
100
AcDbSymbolTable
 70
     8
  0
LAYER
  5
F
330
E
100
AcDbSymbolTableRecord
100
AcDbLayerTableRecord
  2
0
 70
     0
 62
     7
  6
CONTINUOUS
370
    -3
390
10
  0
LAYER
  5
81
330
E
100
AcDbSymbolTableRecord
100
AcDbLayerTableRecord
  2
GEB-KONTUR-A
 70
     0
 62
     5
  6
CONTINUOUS
370
    -3
390
10
  0
LAYER
  5
7B
330
E
100
AcDbSymbolTableRecord
100
AcDbLayerTableRecord
  2
GEB-SYMMETRIE
 70
     0
 62
     3
  6
DASHDOT
370
    -3
390
10
1001
AcAecLayerStandard
1000

1000

  0
LAYER
  5
133
330
E
100
AcDbSymbolTableRecord
100
AcDbLayerTableRecord
  2
GEB-VERDECKT
 70
     0
 62
     2
  6
DASHED
370
    -3
390
10
1001
AcAecLayerStandard
1000

1000

  0
LAYER
  5
76
330
E
100
AcDbSymbolTableRecord
100
AcDbLayerTableRecord
  2
Arbeitspunkt(DIN)
 70
     0
 62
     7
  6
CONTINUOUS
370
    25
390
10
  0
LAYER
  5
239
330
E
100
AcDbSymbolTableRecord
100
AcDbLayerTableRecord
  2
GEB-ART-NR
 70
     0
 62
     1
  6
CONTINUOUS
370
    18
390
10
  0
LAYER
  5
72
330
E
100
AcDbSymbolTableRecord
100
AcDbLayerTableRecord
  2
GEB-BEZUG
 70
     0
 62
     2
  6
CONTINUOUS
370
    25
390
10
  0
LAYER
  5
236
330
E
100
AcDbSymbolTableRecord
100
AcDbLayerTableRecord
  2
GEB-TEXT
 70
     0
 62
     5
  6
CONTINUOUS
370
    18
390
10
  0
ENDTAB
  0
TABLE
  2
STYLE
  5
20
330
0
100
AcDbSymbolTable
 70
     3
  0
STYLE
  5
21
330
20
100
AcDbSymbolTableRecord
100
AcDbTextStyleTableRecord
  2
STANDARD
 70
     0
 40
0.0
 41
1.0
 50
0.0
 71
     0
 42
0.2
  3
arial.ttf
  4

1001
ACAD
1000
Arial
1071
       34
  0
STYLE
  5
244
330
20
100
AcDbSymbolTableRecord
100
AcDbTextStyleTableRecord
  2

 70
     1
 40
0.0
 41
1.0
 50
0.0
 71
     0
 42
0.2
  3
genltshp.shx
  4

  0
STYLE
  5
250
330
20
100
AcDbSymbolTableRecord
100
AcDbTextStyleTableRecord
  2
ACANSGDT
 70
     0
 40
0.0
 41
1.0
 50
0.0
 71
     0
 42
0.2
  3
amgdt.shx
  4

  0
ENDTAB
  0
TABLE
  2
VIEW
  5
26
330
0
100
AcDbSymbolTable
 70
     0
  0
ENDTAB
  0
TABLE
  2
UCS
  5
27
330
0
100
AcDbSymbolTable
 70
     0
  0
ENDTAB
  0
TABLE
  2
APPID
  5
2D
330
0
100
AcDbSymbolTable
 70
    14
  0
APPID
  5
1F
330
2D
100
AcDbSymbolTableRecord
100
AcDbRegAppTableRecord
  2
ACAD
 70
     0
  0
APPID
  5
7D
330
2D
100
AcDbSymbolTableRecord
100
AcDbRegAppTableRecord
  2
AcAecLayerStandard
 70
     0
  0
APPID
  5
293
330
2D
100
AcDbSymbolTableRecord
100
AcDbRegAppTableRecord
  2
ACATTRIBSERVICES
 70
     0
  0
APPID
  5
2BE
330
2D
100
AcDbSymbolTableRecord
100
AcDbRegAppTableRecord
  2
MCAD_NO_VIS
 70
     0
  0
APPID
  5
2BF
330
2D
100
AcDbSymbolTableRecord
100
AcDbRegAppTableRecord
  2
ACAD_TEMP_GRAPHIC
 70
     0
  0
APPID
  5
2C3
330
2D
100
AcDbSymbolTableRecord
100
AcDbRegAppTableRecord
  2
AD_DRAW
 70
     0
  0
APPID
  5
2DC
330
2D
100
AcDbSymbolTableRecord
100
AcDbRegAppTableRecord
  2
DESIGNERASSEMBLIES
 70
     0
  0
APPID
  5
2E1
330
2D
100
AcDbSymbolTableRecord
100
AcDbRegAppTableRecord
  2
ACADM_DIM_EDIT
 70
     0
  0
APPID
  5
2E2
330
2D
100
AcDbSymbolTableRecord
100
AcDbRegAppTableRecord
  2
AMDT_DM_ADJ
 70
     0
  0
APPID
  5
302
330
2D
100
AcDbSymbolTableRecord
100
AcDbRegAppTableRecord
  2
ACAD_DSTYLE_DIMARC_LENGTH_SYMBOL
 70
     0
  0
APPID
  5
303
330
2D
100
AcDbSymbolTableRecord
100
AcDbRegAppTableRecord
  2
ACAD_DSTYLE_DIM_LINETYPE
 70
     0
  0
APPID
  5
304
330
2D
100
AcDbSymbolTableRecord
100
AcDbRegAppTableRecord
  2
ACAD_DSTYLE_DIM_EXT1_LINETYPE
 70
     0
  0
APPID
  5
305
330
2D
100
AcDbSymbolTableRecord
100
AcDbRegAppTableRecord
  2
ACAD_DSTYLE_DIM_EXT2_LINETYPE
 70
     0
  0
APPID
  5
332
330
2D
100
AcDbSymbolTableRecord
100
AcDbRegAppTableRecord
  2
ACAD_MLEADERVER
 70
     0
  0
ENDTAB
  0
TABLE
  2
DIMSTYLE
  5
2E
330
0
100
AcDbSymbolTable
 70
     7
100
AcDbDimStyleTable
 71
     1
340
2F
  0
DIMSTYLE
105
2F
330
2E
100
AcDbSymbolTableRecord
100
AcDbDimStyleTableRecord
  2
STANDARD
 70
     0
279
     2
340
21
  0
DIMSTYLE
105
266
102
{ACAD_REACTORS
330
24D
102
}
330
2E
100
AcDbSymbolTableRecord
100
AcDbDimStyleTableRecord
  2
AM_ANSI
 70
     0
  4
mm
 41
0.12
 42
0.05
 43
0.5
 44
0.1
 47
0.1
 48
0.1
 78
     7
 79
     2
140
0.12
141
0.0
146
0.71
147
0.06
176
   256
177
   256
178
     2
274
     4
284
     7
340
21
371
    -1
372
    -1
1001
ACAD_DSTYLE_DIMARC_LENGTH_SYMBOL
1070
   379
1070
     1
1001
ACAD_DSTYLE_DIM_LINETYPE
1070
   380
1005
24
1001
ACAD_DSTYLE_DIM_EXT1_LINETYPE
1070
   381
1005
24
1001
ACAD_DSTYLE_DIM_EXT2_LINETYPE
1070
   382
1005
24
  0
DIMSTYLE
105
267
330
2E
100
AcDbSymbolTableRecord
100
AcDbDimStyleTableRecord
  2
AM_ANSI$3
 70
     0
  4
mm
 41
0.12
 42
0.05
 43
0.5
 44
0.1
 47
0.1
 48
0.1
 78
     7
 79
     2
140
0.12
141
0.0
146
0.71
147
0.06
176
   256
177
   256
178
     2
274
     4
284
     7
288
     1
289
     0
340
21
371
    -1
372
    -1
1001
ACAD_DSTYLE_DIMARC_LENGTH_SYMBOL
1070
   379
1070
     1
1001
ACAD_DSTYLE_DIM_LINETYPE
1070
   380
1005
24
1001
ACAD_DSTYLE_DIM_EXT1_LINETYPE
1070
   381
1005
24
1001
ACAD_DSTYLE_DIM_EXT2_LINETYPE
1070
   382
1005
24
  0
DIMSTYLE
105
268
330
2E
100
AcDbSymbolTableRecord
100
AcDbDimStyleTableRecord
  2
AM_ANSI$4
 70
     0
  4
mm
 41
0.12
 42
0.05
 43
0.5
 44
0.1
 47
0.1
 48
0.1
 78
     7
 79
     2
140
0.12
141
0.0
146
0.71
147
0.06
176
   256
177
   256
178
     2
274
     4
284
     7
288
     1
289
     0
340
21
371
    -1
372
    -1
1001
ACAD_DSTYLE_DIMARC_LENGTH_SYMBOL
1070
   379
1070
     1
1001
ACAD_DSTYLE_DIM_LINETYPE
1070
   380
1005
24
1001
ACAD_DSTYLE_DIM_EXT1_LINETYPE
1070
   381
1005
24
1001
ACAD_DSTYLE_DIM_EXT2_LINETYPE
1070
   382
1005
24
  0
DIMSTYLE
105
269
330
2E
100
AcDbSymbolTableRecord
100
AcDbDimStyleTableRecord
  2
AM_ANSI$7
 70
     0
  4
mm
 41
0.12
 42
0.05
 43
0.5
 44
0.1
 47
0.1
 48
0.1
 78
     7
 79
     2
140
0.12
141
0.0
146
0.71
147
0.06
176
   256
177
   256
178
     2
274
     4
284
     7
340
21
371
    -1
372
    -1
1001
ACAD_DSTYLE_DIMARC_LENGTH_SYMBOL
1070
   379
1070
     1
1001
ACAD_DSTYLE_DIM_LINETYPE
1070
   380
1005
24
1001
ACAD_DSTYLE_DIM_EXT1_LINETYPE
1070
   381
1005
24
1001
ACAD_DSTYLE_DIM_EXT2_LINETYPE
1070
   382
1005
24
  0
DIMSTYLE
105
26A
330
2E
100
AcDbSymbolTableRecord
100
AcDbDimStyleTableRecord
  2
AM_ANSI$SF
 70
     0
  4
mm
 41
0.12
 42
0.05
 43
0.5
 44
0.1
 47
0.1
 48
0.1
 75
     1
 76
     1
 78
     7
 79
     2
140
0.12
141
0.0
146
0.71
147
0.06
176
   256
177
   256
178
     2
274
     4
284
     7
340
21
371
    -1
372
    -1
1001
ACAD_DSTYLE_DIMARC_LENGTH_SYMBOL
1070
   379
1070
     1
1001
ACAD_DSTYLE_DIM_LINETYPE
1070
   380
1005
24
1001
ACAD_DSTYLE_DIM_EXT1_LINETYPE
1070
   381
1005
24
1001
ACAD_DSTYLE_DIM_EXT2_LINETYPE
1070
   382
1005
24
  0
DIMSTYLE
105
26B
330
2E
100
AcDbSymbolTableRecord
100
AcDbDimStyleTableRecord
  2
AM_ANSI$SH
 70
     0
  4
mm
 41
0.12
 42
0.05
 43
0.5
 44
0.1
 47
0.1
 48
0.1
 75
     1
 76
     1
 78
     7
 79
     2
140
0.12
141
0.0
146
0.71
147
0.06
173
     1
176
   256
177
   256
178
     2
274
     4
284
     7
340
21
343
26C
371
    -1
372
    -1
1001
ACAD_DSTYLE_DIMARC_LENGTH_SYMBOL
1070
   379
1070
     1
1001
ACAD_DSTYLE_DIM_LINETYPE
1070
   380
1005
24
1001
ACAD_DSTYLE_DIM_EXT1_LINETYPE
1070
   381
1005
24
1001
ACAD_DSTYLE_DIM_EXT2_LINETYPE
1070
   382
1005
24
  0
ENDTAB
  0
TABLE
  2
BLOCK_RECORD
  5
1
330
0
100
AcDbSymbolTable
 70
     3
  0
BLOCK_RECORD
  5
2
102
{ACAD_XDICTIONARY
360
3
102
}
330
1
100
AcDbSymbolTableRecord
100
AcDbBlockTableRecord
  2
*Model_Space
340
7
  0
BLOCK_RECORD
  5
A
330
1
100
AcDbSymbolTableRecord
100
AcDbBlockTableRecord
  2
*Paper_Space
340
D
  0
BLOCK_RECORD
  5
26C
330
1
100
AcDbSymbolTableRecord
100
AcDbBlockTableRecord
  2
GENAXEH
340
0
  0
BLOCK_RECORD
  5
6F
330
1
100
AcDbSymbolTableRecord
100
AcDbBlockTableRecord
  2
Einfügepunkt
340
0
102
{BLKREFS
331
6E
102
}
  0
ENDTAB
  0
ENDSEC
  0
SECTION
  2
BLOCKS
  0
BLOCK
  5
5
330
2
100
AcDbEntity
  8
0
100
AcDbBlockBegin
  2
*Model_Space
 70
     0
 10
0.0
 20
0.0
 30
0.0
  3
*Model_Space
  1

  0
ENDBLK
  5
6
330
2
100
AcDbEntity
  8
0
100
AcDbBlockEnd
  0
BLOCK
  5
B
330
A
100
AcDbEntity
 67
     1
  8
0
100
AcDbBlockBegin
  2
*Paper_Space
 70
     0
 10
0.0
 20
0.0
 30
0.0
  3
*Paper_Space
  1

  0
ENDBLK
  5
C
330
A
100
AcDbEntity
 67
     1
  8
0
100
AcDbBlockEnd
  0
BLOCK
  5
26D
330
26C
100
AcDbEntity
  8
0
100
AcDbBlockBegin
  2
GENAXEH
 70
     0
 10
0.0
 20
0.0
 30
0.0
  3
GENAXEH
  1

  0
LINE
  5
26E
330
26C
100
AcDbEntity
  8
0
100
AcDbLine
 10
-1.0
 20
0.0
 30
0.0
 11
1.0
 21
0.0
 31
0.0
  0
ENDBLK
  5
26F
330
26C
100
AcDbEntity
  8
0
100
AcDbBlockEnd
  0
BLOCK
  5
70
330
6F
100
AcDbEntity
  8
0
100
AcDbBlockBegin
  2
Einfügepunkt
 70
     0
 10
0.0
 20
0.0
 30
0.0
  3
Einfügepunkt
  1

  0
LINE
  5
71
330
6F
100
AcDbEntity
  8
GEB-BEZUG
100
AcDbLine
 10
-0.7071067811865817
 20
-0.7071067811865106
 30
0.0
 11
0.7071067811864751
 21
0.7071067811865817
 31
0.0
  0
LINE
  5
73
330
6F
100
AcDbEntity
  8
GEB-BEZUG
100
AcDbLine
 10
-0.7071067811865106
 20
0.7071067811865817
 30
0.0
 11
0.7071067811865462
 21
-0.7071067811865106
 31
0.0
  0
ENDBLK
  5
74
330
6F
100
AcDbEntity
  8
0
100
AcDbBlockEnd
  0
ENDSEC
  0
SECTION
  2
ENTITIES
  0
INSERT
  5
6E
330
2
100
AcDbEntity
  8
0
 48
25.0
100
AcDbBlockReference
  2
Einfügepunkt
 10
0.0
 20
0.0
 30
0.0
  0
LINE
  5
75
330
2
100
AcDbEntity
  8
Arbeitspunkt(DIN)
 48
25.0
100
AcDbLine
 10
0.0000000000019327
 20
-0.0000000000371756
 30
0.0
 11
0.0000000000019327
 21
-2.500000000037175
 31
0.0
  0
LINE
  5
77
330
2
100
AcDbEntity
  8
Arbeitspunkt(DIN)
 48
25.0
100
AcDbLine
 10
0.0000000000019327
 20
-0.0000000000371756
 30
0.0
 11
0.0000000000019327
 21
2.499999999962824
 31
0.0
  0
LINE
  5
78
330
2
100
AcDbEntity
  8
Arbeitspunkt(DIN)
 48
25.0
100
AcDbLine
 10
0.0000000000019327
 20
-0.0000000000371756
 30
0.0
 11
-2.499999999998067
 21
-0.0000000000371756
 31
0.0
  0
LINE
  5
79
330
2
100
AcDbEntity
  8
Arbeitspunkt(DIN)
 48
25.0
100
AcDbLine
 10
0.0000000000019327
 20
-0.0000000000371756
 30
0.0
 11
2.500000000001932
 21
-0.0000000000371756
 31
0.0
  0
LINE
  5
7A
330
2
100
AcDbEntity
  8
GEB-SYMMETRIE
 48
25.0
100
AcDbLine
 10
-46.57382678926746
 20
-0.0000000000371756
 30
0.0
 11
-49.07382678926746
 21
-0.0000000000371756
 31
0.0
  0
LINE
  5
7E
330
2
100
AcDbEntity
  8
GEB-SYMMETRIE
 48
25.0
100
AcDbLine
 10
-24.49999999999813
 20
-0.0000000000371756
 30
0.0
 11
-26.99999999999813
 21
-0.0000000000371756
 31
0.0
  0
LINE
  5
7F
330
2
100
AcDbEntity
  8
GEB-SYMMETRIE
 48
25.0
100
AcDbLine
 10
-26.99999999999813
 20
-0.0000000000371756
 30
0.0
 11
-46.57382678926746
 21
-0.0000000000371756
 31
0.0
  0
POLYLINE
  5
80
330
2
100
AcDbEntity
  8
GEB-KONTUR-A
 48
25.0
100
AcDb2dPolyline
 66
     1
 10
0.0
 20
0.0
 30
0.0
 70
   128
  0
VERTEX
  5
82
330
80
100
AcDbEntity
  8
GEB-KONTUR-A
 48
25.0
100
AcDbVertex
100
AcDb2dVertex
 10
0.0000000000019327
 20
27.35640664096934
 30
0.0
  0
VERTEX
  5
83
330
80
100
AcDbEntity
  8
GEB-KONTUR-A
 48
25.0
100
AcDbVertex
100
AcDb2dVertex
 10
-0.4873112961630568
 20
27.0838012218104
 30
0.0
  0
VERTEX
  5
84
330
80
100
AcDbEntity
  8
GEB-KONTUR-A
 48
25.0
100
AcDbVertex
100
AcDb2dVertex
 10
-0.9605596959571585
 20
26.8364639997111
 30
0.0
  0
VERTEX
  5
85
330
80
100
AcDbEntity
  8
GEB-KONTUR-A
 48
25.0
100
AcDbVertex
100
AcDb2dVertex
 10
-1.421237885950063
 20
26.61310095783335
 30
0.0
  0
VERTEX
  5
86
330
80
100
AcDbEntity
  8
GEB-KONTUR-A
 48
25.0
100
AcDbVertex
100
AcDb2dVertex
 10
-1.870726794002507
 20
26.41257245536906
 30
0.0
  0
VERTEX
  5
87
330
80
100
AcDbEntity
  8
GEB-KONTUR-A
 48
25.0
100
AcDbVertex
100
AcDb2dVertex
 10
-2.310310304162953
 20
26.23388190265757
 30
0.0
  0
VERTEX
  5
88
330
80
100
AcDbEntity
  8
GEB-KONTUR-A
 48
25.0
100
AcDbVertex
100
AcDb2dVertex
 10
-2.741189897058461
 20
26.07615966793162
 30
0.0
  0
VERTEX
  5
89
330
80
100
AcDbEntity
  8
GEB-KONTUR-A
 48
25.0
100
AcDbVertex
100
AcDb2dVertex
 10
-3.164495229719136
 20
25.93865413662058
 30
0.0
  0
VERTEX
  5
8A
330
80
100
AcDbEntity
  8
GEB-KONTUR-A
 48
25.0
100
AcDbVertex
100
AcDb2dVertex
 10
-3.581295907495473
 20
25.82072157856089
 30
0.0
  0
VERTEX
  5
8B
330
80
100
AcDbEntity
  8
GEB-KONTUR-A
 48
25.0
100
AcDbVertex
100
AcDb2dVertex
 10
-3.992609977720235
 20
25.7218172072993
 30
0.0
  0
VERTEX
  5
8C
330
80
100
AcDbEntity
  8
GEB-KONTUR-A
 48
25.0
100
AcDbVertex
100
AcDb2dVertex
 10
-4.399413466451619
 20
25.64149219986064
 30
0.0
  0
VERTEX
  5
8D
330
80
100
AcDbEntity
  8
GEB-KONTUR-A
 48
25.0
100
AcDbVertex
100
AcDb2dVertex
 10
-4.802648425100301
 20
25.57938475605113
 30
0.0
  0
VERTEX
  5
8E
330
80
100
AcDbEntity
  8
GEB-KONTUR-A
 48
25.0
100
AcDbVertex
100
AcDb2dVertex
 10
-5.203229784963582
 20
25.53521711822611
 30
0.0
  0
VERTEX
  5
8F
330
80
100
AcDbEntity
  8
GEB-KONTUR-A
 48
25.0
100
AcDbVertex
100
AcDb2dVertex
 10
-5.602052807805989
 20
25.50879437919718
 30
0.0
  0
VERTEX
  5
90
330
80
100
AcDbEntity
  8
GEB-KONTUR-A
 48
25.0
100
AcDbVertex
100
AcDb2dVertex
 10
-6.000000238416646
 20
25.49999971386057
 30
0.0
  0
VERTEX
  5
91
330
80
100
AcDbEntity
  8
GEB-KONTUR-A
 48
25.0
100
AcDbVertex
100
AcDb2dVertex
 10
-6.397947072980855
 20
25.50879437919718
 30
0.0
  0
VERTEX
  5
92
330
80
100
AcDbEntity
  8
GEB-KONTUR-A
 48
25.0
100
AcDbVertex
100
AcDb2dVertex
 10
-6.796770095823262
 20
25.53521711822611
 30
0.0
  0
VERTEX
  5
93
330
80
100
AcDbEntity
  8
GEB-KONTUR-A
 48
25.0
100
AcDbVertex
100
AcDb2dVertex
 10
-7.197351455686543
 20
25.57938475605113
 30
0.0
  0
VERTEX
  5
94
330
80
100
AcDbEntity
  8
GEB-KONTUR-A
 48
25.0
100
AcDbVertex
100
AcDb2dVertex
 10
-7.600586414335225
 20
25.64149219986064
 30
0.0
  0
VERTEX
  5
95
330
80
100
AcDbEntity
  8
GEB-KONTUR-A
 48
25.0
100
AcDbVertex
100
AcDb2dVertex
 10
-8.007389903066609
 20
25.7218172072993
 30
0.0
  0
VERTEX
  5
96
330
80
100
AcDbEntity
  8
GEB-KONTUR-A
 48
25.0
100
AcDbVertex
100
AcDb2dVertex
 10
-8.418704271314595
 20
25.82072157856089
 30
0.0
  0
VERTEX
  5
97
330
80
100
AcDbEntity
  8
GEB-KONTUR-A
 48
25.0
100
AcDbVertex
100
AcDb2dVertex
 10
-8.835504651067708
 20
25.93865413662058
 30
0.0
  0
VERTEX
  5
98
330
80
100
AcDbEntity
  8
GEB-KONTUR-A
 48
25.0
100
AcDbVertex
100
AcDb2dVertex
 10
-9.258810281751607
 20
26.07615966793162
 30
0.0
  0
VERTEX
  5
99
330
80
100
AcDbEntity
  8
GEB-KONTUR-A
 48
25.0
100
AcDbVertex
100
AcDb2dVertex
 10
-9.689689874647115
 20
26.23388190265757
 30
0.0
  0
VERTEX
  5
9A
330
80
100
AcDbEntity
  8
GEB-KONTUR-A
 48
25.0
100
AcDbVertex
100
AcDb2dVertex
 10
-10.12927293777272
 20
26.41257245536906
 30
0.0
  0
VERTEX
  5
9B
330
80
100
AcDbEntity
  8
GEB-KONTUR-A
 48
25.0
100
AcDbVertex
100
AcDb2dVertex
 10
-10.57876229286
 20
26.61310095783335
 30
0.0
  0
VERTEX
  5
9C
330
80
100
AcDbEntity
  8
GEB-KONTUR-A
 48
25.0
100
AcDbVertex
100
AcDb2dVertex
 10
-11.03944063186452
 20
26.8364639997111
 30
0.0
  0
VERTEX
  5
9D
330
80
100
AcDbEntity
  8
GEB-KONTUR-A
 48
25.0
100
AcDbVertex
100
AcDb2dVertex
 10
-11.51268839835927
 20
27.0838012218104
 30
0.0
  0
VERTEX
  5
9E
330
80
100
AcDbEntity
  8
GEB-KONTUR-A
 48
25.0
100
AcDbVertex
100
AcDb2dVertex
 10
-12.00000047683522
 20
27.35640664096934
 30
0.0
  0
SEQEND
  5
9F
330
80
100
AcDbEntity
  8
GEB-KONTUR-A
 48
25.0
  0
POLYLINE
  5
A0
330
2
100
AcDbEntity
  8
GEB-KONTUR-A
 48
25.0
100
AcDb2dPolyline
 66
     1
 10
0.0
 20
0.0
 30
0.0
 70
   128
  0
VERTEX
  5
A1
330
A0
100
AcDbEntity
  8
GEB-KONTUR-A
 48
25.0
100
AcDbVertex
100
AcDb2dVertex
 10
-12.00000047683522
 20
49.34359331127257
 30
0.0
  0
VERTEX
  5
A2
330
A0
100
AcDbEntity
  8
GEB-KONTUR-A
 48
25.0
100
AcDbVertex
100
AcDb2dVertex
 10
-11.7238891124706
 20
49.50022239681334
 30
0.0
  0
VERTEX
  5
A3
330
A0
100
AcDbEntity
  8
GEB-KONTUR-A
 48
25.0
100
AcDbVertex
100
AcDb2dVertex
 10
-11.45162820815847
 20
49.64909572597594
 30
0.0
  0
VERTEX
  5
A4
330
A0
100
AcDbEntity
  8
GEB-KONTUR-A
 48
25.0
100
AcDbVertex
100
AcDb2dVertex
 10
-11.18297100066945
 20
49.79039211269469
 30
0.0
  0
VERTEX
  5
A5
330
A0
100
AcDbEntity
  8
GEB-KONTUR-A
 48
25.0
100
AcDbVertex
100
AcDb2dVertex
 10
-10.91768026351735
 20
49.92427844997497
 30
0.0
  0
VERTEX
  5
A6
330
A0
100
AcDbEntity
  8
GEB-KONTUR-A
 48
25.0
100
AcDbVertex
100
AcDb2dVertex
 10
-10.65552711486623
 20
50.05090970989318
 30
0.0
  0
VERTEX
  5
A7
330
A0
100
AcDbEntity
  8
GEB-KONTUR-A
 48
25.0
100
AcDbVertex
100
AcDb2dVertex
 10
-10.39628982543752
 20
50.170426559411
 30
0.0
  0
VERTEX
  5
A8
330
A0
100
AcDbEntity
  8
GEB-KONTUR-A
 48
25.0
100
AcDbVertex
100
AcDb2dVertex
 10
-10.13974905013845
 20
50.28295536037536
 30
0.0
  0
VERTEX
  5
A9
330
A0
100
AcDbEntity
  8
GEB-KONTUR-A
 48
25.0
100
AcDbVertex
100
AcDb2dVertex
 10
-9.885696768758748
 20
50.38861770626159
 30
0.0
  0
VERTEX
  5
AA
330
A0
100
AcDbEntity
  8
GEB-KONTUR-A
 48
25.0
100
AcDbVertex
100
AcDb2dVertex
 10
-9.633925557134602
 20
50.48751611705871
 30
0.0
  0
VERTEX
  5
AB
330
A0
100
AcDbEntity
  8
GEB-KONTUR-A
 48
25.0
100
AcDbVertex
100
AcDb2dVertex
 10
-9.384233355520223
 20
50.57975072856994
 30
0.0
  0
VERTEX
  5
AC
330
A0
100
AcDbEntity
  8
GEB-KONTUR-A
 48
25.0
100
AcDbVertex
100
AcDb2dVertex
 10
-9.136422872541402
 20
50.66540021892638
 30
0.0
  0
VERTEX
  5
AD
330
A0
100
AcDbEntity
  8
GEB-KONTUR-A
 48
25.0
100
AcDbVertex
100
AcDb2dVertex
 10
-8.890299201009725
 20
50.74454088207335
 30
0.0
  0
VERTEX
  5
AE
330
A0
100
AcDbEntity
  8
GEB-KONTUR-A
 48
25.0
100
AcDbVertex
100
AcDb2dVertex
 10
-8.645671010015462
 20
50.817239475213
 30
0.0
  0
VERTEX
  5
AF
330
A0
100
AcDbEntity
  8
GEB-KONTUR-A
 48
25.0
100
AcDbVertex
100
AcDb2dVertex
 10
-8.402349352834676
 20
50.88354606624694
 30
0.0
  0
VERTEX
  5
B0
330
A0
100
AcDbEntity
  8
GEB-KONTUR-A
 48
25.0
100
AcDbVertex
100
AcDb2dVertex
 10
-8.160145878789876
 20
50.94350595470519
 30
0.0
  0
VERTEX
  5
B1
330
A0
100
AcDbEntity
  8
GEB-KONTUR-A
 48
25.0
100
AcDbVertex
100
AcDb2dVertex
 10
-7.918874621389363
 20
50.99715490337462
 30
0.0
  0
VERTEX
  5
B2
330
A0
100
AcDbEntity
  8
GEB-KONTUR-A
 48
25.0
100
AcDbVertex
100
AcDb2dVertex
 10
-7.678350806234334
 20
51.04451436992736
 30
0.0
  0
VERTEX
  5
B3
330
A0
100
AcDbEntity
  8
GEB-KONTUR-A
 48
25.0
100
AcDbVertex
100
AcDb2dVertex
 10
-7.438389658925984
 20
51.08560342784972
 30
0.0
  0
VERTEX
  5
B4
330
A0
100
AcDbEntity
  8
GEB-KONTUR-A
 48
25.0
100
AcDbVertex
100
AcDb2dVertex
 10
-7.198805212972615
 20
51.12042207714171
 30
0.0
  0
VERTEX
  5
B5
330
A0
100
AcDbEntity
  8
GEB-KONTUR-A
 48
25.0
100
AcDbVertex
100
AcDb2dVertex
 10
-6.959412693975423
 20
51.14897031780333
 30
0.0
  0
VERTEX
  5
B6
330
A0
100
AcDbEntity
  8
GEB-KONTUR-A
 48
25.0
100
AcDbVertex
100
AcDb2dVertex
 10
-6.720024943349812
 20
51.17123146053405
 30
0.0
  0
VERTEX
  5
B7
330
A0
100
AcDbEntity
  8
GEB-KONTUR-A
 48
25.0
100
AcDbVertex
100
AcDb2dVertex
 10
-6.480454206464742
 20
51.18718166347594
 30
0.0
  0
VERTEX
  5
B8
330
A0
100
AcDbEntity
  8
GEB-KONTUR-A
 48
25.0
100
AcDbVertex
100
AcDb2dVertex
 10
-6.240510344503377
 20
51.19678754802794
 30
0.0
  0
VERTEX
  5
B9
330
A0
100
AcDbEntity
  8
GEB-KONTUR-A
 48
25.0
100
AcDbVertex
100
AcDb2dVertex
 10
-6.000000238416646
 20
51.19999904628844
 30
0.0
  0
SEQEND
  5
BA
330
A0
100
AcDbEntity
  8
GEB-KONTUR-A
 48
25.0
  0
POLYLINE
  5
BB
330
2
100
AcDbEntity
  8
GEB-KONTUR-A
 48
25.0
100
AcDb2dPolyline
 66
     1
 10
0.0
 20
0.0
 30
0.0
 70
   128
  0
VERTEX
  5
BC
330
BB
100
AcDbEntity
  8
GEB-KONTUR-A
 48
25.0
100
AcDbVertex
100
AcDb2dVertex
 10
-6.000000238416646
 20
51.19999904628844
 30
0.0
  0
VERTEX
  5
BD
330
BB
100
AcDbEntity
  8
GEB-KONTUR-A
 48
25.0
100
AcDbVertex
100
AcDb2dVertex
 10
-5.759490132329915
 20
51.19678754802794
 30
0.0
  0
VERTEX
  5
BE
330
BB
100
AcDbEntity
  8
GEB-KONTUR-A
 48
25.0
100
AcDbVertex
100
AcDb2dVertex
 10
-5.519545674322102
 20
51.18718166347594
 30
0.0
  0
VERTEX
  5
BF
330
BB
100
AcDbEntity
  8
GEB-KONTUR-A
 48
25.0
100
AcDbVertex
100
AcDb2dVertex
 10
-5.279974937437032
 20
51.17123146053405
 30
0.0
  0
VERTEX
  5
C0
330
BB
100
AcDbEntity
  8
GEB-KONTUR-A
 48
25.0
100
AcDbVertex
100
AcDb2dVertex
 10
-5.040587782857869
 20
51.14897031780333
 30
0.0
  0
VERTEX
  5
C1
330
BB
100
AcDbEntity
  8
GEB-KONTUR-A
 48
25.0
100
AcDbVertex
100
AcDb2dVertex
 10
-4.801194965837453
 20
51.12042207714171
 30
0.0
  0
VERTEX
  5
C2
330
BB
100
AcDbEntity
  8
GEB-KONTUR-A
 48
25.0
100
AcDbVertex
100
AcDb2dVertex
 10
-4.561610519884084
 20
51.08560342784972
 30
0.0
  0
VERTEX
  5
C3
330
BB
100
AcDbEntity
  8
GEB-KONTUR-A
 48
25.0
100
AcDbVertex
100
AcDb2dVertex
 10
-4.321648776529286
 20
51.04451436992736
 30
0.0
  0
VERTEX
  5
C4
330
BB
100
AcDbEntity
  8
GEB-KONTUR-A
 48
25.0
100
AcDbVertex
100
AcDb2dVertex
 10
-4.081124961374257
 20
50.99715490337462
 30
0.0
  0
VERTEX
  5
C5
330
BB
100
AcDbEntity
  8
GEB-KONTUR-A
 48
25.0
100
AcDbVertex
100
AcDb2dVertex
 10
-3.839854300020192
 20
50.94350595470519
 30
0.0
  0
VERTEX
  5
C6
330
BB
100
AcDbEntity
  8
GEB-KONTUR-A
 48
25.0
100
AcDbVertex
100
AcDb2dVertex
 10
-3.597650825975392
 20
50.88354606624694
 30
0.0
  0
VERTEX
  5
C7
330
BB
100
AcDbEntity
  8
GEB-KONTUR-A
 48
25.0
100
AcDbVertex
100
AcDb2dVertex
 10
-3.354328870771382
 20
50.817239475213
 30
0.0
  0
VERTEX
  5
C8
330
BB
100
AcDbEntity
  8
GEB-KONTUR-A
 48
25.0
100
AcDbVertex
100
AcDb2dVertex
 10
-3.109700977800343
 20
50.74454088207335
 30
0.0
  0
VERTEX
  5
C9
330
BB
100
AcDbEntity
  8
GEB-KONTUR-A
 48
25.0
100
AcDbVertex
100
AcDb2dVertex
 10
-2.863577306268666
 20
50.66540021892638
 30
0.0
  0
VERTEX
  5
CA
330
BB
100
AcDbEntity
  8
GEB-KONTUR-A
 48
25.0
100
AcDbVertex
100
AcDb2dVertex
 10
-2.615766823289845
 20
50.57975072856994
 30
0.0
  0
VERTEX
  5
CB
330
BB
100
AcDbEntity
  8
GEB-KONTUR-A
 48
25.0
100
AcDbVertex
100
AcDb2dVertex
 10
-2.366074621675466
 20
50.48751611705871
 30
0.0
  0
VERTEX
  5
CC
330
BB
100
AcDbEntity
  8
GEB-KONTUR-A
 48
25.0
100
AcDbVertex
100
AcDb2dVertex
 10
-2.114303112028096
 20
50.38861770626159
 30
0.0
  0
VERTEX
  5
CD
330
BB
100
AcDbEntity
  8
GEB-KONTUR-A
 48
25.0
100
AcDbVertex
100
AcDb2dVertex
 10
-1.860250383613561
 20
50.28295536037536
 30
0.0
  0
VERTEX
  5
CE
330
BB
100
AcDbEntity
  8
GEB-KONTUR-A
 48
25.0
100
AcDbVertex
100
AcDb2dVertex
 10
-1.60371050238416
 20
50.170426559411
 30
0.0
  0
VERTEX
  5
CF
330
BB
100
AcDbEntity
  8
GEB-KONTUR-A
 48
25.0
100
AcDbVertex
100
AcDb2dVertex
 10
-1.344472467897389
 20
50.05090970989318
 30
0.0
  0
VERTEX
  5
D0
330
BB
100
AcDbEntity
  8
GEB-KONTUR-A
 48
25.0
100
AcDbVertex
100
AcDb2dVertex
 10
-1.08231961726949
 20
49.92427844997497
 30
0.0
  0
VERTEX
  5
D1
330
BB
100
AcDbEntity
  8
GEB-KONTUR-A
 48
25.0
100
AcDbVertex
100
AcDb2dVertex
 10
-0.8170293271522268
 20
49.79039211269469
 30
0.0
  0
VERTEX
  5
D2
330
BB
100
AcDbEntity
  8
GEB-KONTUR-A
 48
25.0
100
AcDbVertex
100
AcDb2dVertex
 10
-0.5483719706516013
 20
49.64909572597594
 30
0.0
  0
VERTEX
  5
D3
330
BB
100
AcDbEntity
  8
GEB-KONTUR-A
 48
25.0
100
AcDbVertex
100
AcDb2dVertex
 10
-0.2761106006781802
 20
49.50022239681334
 30
0.0
  0
VERTEX
  5
D4
330
BB
100
AcDbEntity
  8
GEB-KONTUR-A
 48
25.0
100
AcDbVertex
100
AcDb2dVertex
 10
0.0000000000019327
 20
49.34359331127257
 30
0.0
  0
SEQEND
  5
D5
330
BB
100
AcDbEntity
  8
GEB-KONTUR-A
 48
25.0
  0
LINE
  5
D6
330
2
100
AcDbEntity
  8
GEB-KONTUR-A
 48
25.0
100
AcDbLine
 10
12.00000047683909
 20
25.49999971386057
 30
0.0
 11
12.00000047683909
 21
27.35640664096934
 31
0.0
  0
LINE
  5
D7
330
2
100
AcDbEntity
  8
GEB-KONTUR-A
 48
25.0
100
AcDbLine
 10
12.00000047683909
 20
49.34359331127257
 30
0.0
 11
12.00000047683909
 21
51.19999904628844
 31
0.0
  0
LINE
  5
D8
330
2
100
AcDbEntity
  8
GEB-KONTUR-A
 48
25.0
100
AcDbLine
 10
-11.99999999999806
 20
27.35640646051377
 30
0.0
 11
-11.99999999999806
 21
49.34359353941181
 31
0.0
  0
LINE
  5
D9
330
2
100
AcDbEntity
  8
GEB-KONTUR-A
 48
25.0
100
AcDbLine
 10
-12.00000047683522
 20
27.35640664096934
 30
0.0
 11
-12.00000047683522
 21
25.49999971386057
 31
0.0
  0
LINE
  5
DA
330
2
100
AcDbEntity
  8
GEB-KONTUR-A
 48
25.0
100
AcDbLine
 10
-12.00000047683522
 20
51.19999904628844
 30
0.0
 11
-12.00000047683522
 21
49.34359331127257
 31
0.0
  0
LINE
  5
DB
330
2
100
AcDbEntity
  8
GEB-KONTUR-A
 48
25.0
100
AcDbLine
 10
12.00000000000187
 20
27.35640646051377
 30
0.0
 11
12.00000000000187
 21
49.34359353941181
 31
0.0
  0
POLYLINE
  5
DC
330
2
100
AcDbEntity
  8
GEB-KONTUR-A
 48
25.0
100
AcDb2dPolyline
 66
     1
 10
0.0
 20
0.0
 30
0.0
 70
   128
  0
VERTEX
  5
DD
330
DC
100
AcDbEntity
  8
GEB-KONTUR-A
 48
25.0
100
AcDbVertex
100
AcDb2dVertex
 10
12.00000047683909
 20
27.35640664096934
 30
0.0
  0
VERTEX
  5
DE
330
DC
100
AcDbEntity
  8
GEB-KONTUR-A
 48
25.0
100
AcDbVertex
100
AcDb2dVertex
 10
11.51268839836314
 20
27.0838012218104
 30
0.0
  0
VERTEX
  5
DF
330
DC
100
AcDbEntity
  8
GEB-KONTUR-A
 48
25.0
100
AcDbVertex
100
AcDb2dVertex
 10
11.03944063186839
 20
26.8364639997111
 30
0.0
  0
VERTEX
  5
E0
330
DC
100
AcDbEntity
  8
GEB-KONTUR-A
 48
25.0
100
AcDbVertex
100
AcDb2dVertex
 10
10.57876229286387
 20
26.61310095783335
 30
0.0
  0
VERTEX
  5
E1
330
DC
100
AcDbEntity
  8
GEB-KONTUR-A
 48
25.0
100
AcDbVertex
100
AcDb2dVertex
 10
10.12927293777659
 20
26.41257245536906
 30
0.0
  0
VERTEX
  5
E2
330
DC
100
AcDbEntity
  8
GEB-KONTUR-A
 48
25.0
100
AcDbVertex
100
AcDb2dVertex
 10
9.68968987465098
 20
26.23388190265757
 30
0.0
  0
VERTEX
  5
E3
330
DC
100
AcDbEntity
  8
GEB-KONTUR-A
 48
25.0
100
AcDbVertex
100
AcDb2dVertex
 10
9.258810281755472
 20
26.07615966793162
 30
0.0
  0
VERTEX
  5
E4
330
DC
100
AcDbEntity
  8
GEB-KONTUR-A
 48
25.0
100
AcDbVertex
100
AcDb2dVertex
 10
8.835504651071573
 20
25.93865413662058
 30
0.0
  0
VERTEX
  5
E5
330
DC
100
AcDbEntity
  8
GEB-KONTUR-A
 48
25.0
100
AcDbVertex
100
AcDb2dVertex
 10
8.41870427131846
 20
25.82072157856089
 30
0.0
  0
VERTEX
  5
E6
330
DC
100
AcDbEntity
  8
GEB-KONTUR-A
 48
25.0
100
AcDbVertex
100
AcDb2dVertex
 10
8.007389903070475
 20
25.7218172072993
 30
0.0
  0
VERTEX
  5
E7
330
DC
100
AcDbEntity
  8
GEB-KONTUR-A
 48
25.0
100
AcDbVertex
100
AcDb2dVertex
 10
7.60058641433909
 20
25.64149219986064
 30
0.0
  0
VERTEX
  5
E8
330
DC
100
AcDbEntity
  8
GEB-KONTUR-A
 48
25.0
100
AcDbVertex
100
AcDb2dVertex
 10
7.197351455690409
 20
25.57938475605113
 30
0.0
  0
VERTEX
  5
E9
330
DC
100
AcDbEntity
  8
GEB-KONTUR-A
 48
25.0
100
AcDbVertex
100
AcDb2dVertex
 10
6.796770095827127
 20
25.53521711822611
 30
0.0
  0
VERTEX
  5
EA
330
DC
100
AcDbEntity
  8
GEB-KONTUR-A
 48
25.0
100
AcDbVertex
100
AcDb2dVertex
 10
6.39794707298472
 20
25.50879437919718
 30
0.0
  0
VERTEX
  5
EB
330
DC
100
AcDbEntity
  8
GEB-KONTUR-A
 48
25.0
100
AcDbVertex
100
AcDb2dVertex
 10
6.000000238420511
 20
25.49999971386057
 30
0.0
  0
VERTEX
  5
EC
330
DC
100
AcDbEntity
  8
GEB-KONTUR-A
 48
25.0
100
AcDbVertex
100
AcDb2dVertex
 10
5.602052807809855
 20
25.50879437919718
 30
0.0
  0
VERTEX
  5
ED
330
DC
100
AcDbEntity
  8
GEB-KONTUR-A
 48
25.0
100
AcDbVertex
100
AcDb2dVertex
 10
5.203229784967447
 20
25.53521711822611
 30
0.0
  0
VERTEX
  5
EE
330
DC
100
AcDbEntity
  8
GEB-KONTUR-A
 48
25.0
100
AcDbVertex
100
AcDb2dVertex
 10
4.802648425104166
 20
25.57938475605113
 30
0.0
  0
VERTEX
  5
EF
330
DC
100
AcDbEntity
  8
GEB-KONTUR-A
 48
25.0
100
AcDbVertex
100
AcDb2dVertex
 10
4.399413466455484
 20
25.64149219986064
 30
0.0
  0
VERTEX
  5
F0
330
DC
100
AcDbEntity
  8
GEB-KONTUR-A
 48
25.0
100
AcDbVertex
100
AcDb2dVertex
 10
3.9926099777241
 20
25.7218172072993
 30
0.0
  0
VERTEX
  5
F1
330
DC
100
AcDbEntity
  8
GEB-KONTUR-A
 48
25.0
100
AcDbVertex
100
AcDb2dVertex
 10
3.581295907499338
 20
25.82072157856089
 30
0.0
  0
VERTEX
  5
F2
330
DC
100
AcDbEntity
  8
GEB-KONTUR-A
 48
25.0
100
AcDbVertex
100
AcDb2dVertex
 10
3.164495229723002
 20
25.93865413662058
 30
0.0
  0
VERTEX
  5
F3
330
DC
100
AcDbEntity
  8
GEB-KONTUR-A
 48
25.0
100
AcDbVertex
100
AcDb2dVertex
 10
2.741189897062326
 20
26.07615966793162
 30
0.0
  0
VERTEX
  5
F4
330
DC
100
AcDbEntity
  8
GEB-KONTUR-A
 48
25.0
100
AcDbVertex
100
AcDb2dVertex
 10
2.310310304166819
 20
26.23388190265757
 30
0.0
  0
VERTEX
  5
F5
330
DC
100
AcDbEntity
  8
GEB-KONTUR-A
 48
25.0
100
AcDbVertex
100
AcDb2dVertex
 10
1.870726794006372
 20
26.41257245536906
 30
0.0
  0
VERTEX
  5
F6
330
DC
100
AcDbEntity
  8
GEB-KONTUR-A
 48
25.0
100
AcDbVertex
100
AcDb2dVertex
 10
1.421237885953928
 20
26.61310095783335
 30
0.0
  0
VERTEX
  5
F7
330
DC
100
AcDbEntity
  8
GEB-KONTUR-A
 48
25.0
100
AcDbVertex
100
AcDb2dVertex
 10
0.9605596959610238
 20
26.8364639997111
 30
0.0
  0
VERTEX
  5
F8
330
DC
100
AcDbEntity
  8
GEB-KONTUR-A
 48
25.0
100
AcDbVertex
100
AcDb2dVertex
 10
0.4873112961669222
 20
27.0838012218104
 30
0.0
  0
VERTEX
  5
F9
330
DC
100
AcDbEntity
  8
GEB-KONTUR-A
 48
25.0
100
AcDbVertex
100
AcDb2dVertex
 10
0.0000000000019327
 20
27.35640664096934
 30
0.0
  0
SEQEND
  5
FA
330
DC
100
AcDbEntity
  8
GEB-KONTUR-A
 48
25.0
  0
LINE
  5
FB
330
2
100
AcDbEntity
  8
GEB-KONTUR-A
 48
25.0
100
AcDbLine
 10
0.0000000000019327
 20
27.35640646051377
 30
0.0
 11
0.0000000000019327
 21
49.34359353941181
 31
0.0
  0
POLYLINE
  5
FC
330
2
100
AcDbEntity
  8
GEB-KONTUR-A
 48
25.0
100
AcDb2dPolyline
 66
     1
 10
0.0
 20
0.0
 30
0.0
 70
   128
  0
VERTEX
  5
FD
330
FC
100
AcDbEntity
  8
GEB-KONTUR-A
 48
25.0
100
AcDbVertex
100
AcDb2dVertex
 10
0.0000000000019327
 20
49.34359331127257
 30
0.0
  0
VERTEX
  5
FE
330
FC
100
AcDbEntity
  8
GEB-KONTUR-A
 48
25.0
100
AcDbVertex
100
AcDb2dVertex
 10
0.2761106006820455
 20
49.50022239681334
 30
0.0
  0
VERTEX
  5
FF
330
FC
100
AcDbEntity
  8
GEB-KONTUR-A
 48
25.0
100
AcDbVertex
100
AcDb2dVertex
 10
0.5483719706554667
 20
49.64909572597594
 30
0.0
  0
VERTEX
  5
100
330
FC
100
AcDbEntity
  8
GEB-KONTUR-A
 48
25.0
100
AcDbVertex
100
AcDb2dVertex
 10
0.8170293271560922
 20
49.79039211269469
 30
0.0
  0
VERTEX
  5
101
330
FC
100
AcDbEntity
  8
GEB-KONTUR-A
 48
25.0
100
AcDbVertex
100
AcDb2dVertex
 10
1.082319617273356
 20
49.92427844997497
 30
0.0
  0
VERTEX
  5
102
330
FC
100
AcDbEntity
  8
GEB-KONTUR-A
 48
25.0
100
AcDbVertex
100
AcDb2dVertex
 10
1.344472467901255
 20
50.05090970989318
 30
0.0
  0
VERTEX
  5
103
330
FC
100
AcDbEntity
  8
GEB-KONTUR-A
 48
25.0
100
AcDbVertex
100
AcDb2dVertex
 10
1.603710502388025
 20
50.170426559411
 30
0.0
  0
VERTEX
  5
104
330
FC
100
AcDbEntity
  8
GEB-KONTUR-A
 48
25.0
100
AcDbVertex
100
AcDb2dVertex
 10
1.860250383617426
 20
50.28295536037536
 30
0.0
  0
VERTEX
  5
105
330
FC
100
AcDbEntity
  8
GEB-KONTUR-A
 48
25.0
100
AcDbVertex
100
AcDb2dVertex
 10
2.114303112031961
 20
50.38861770626159
 30
0.0
  0
VERTEX
  5
106
330
FC
100
AcDbEntity
  8
GEB-KONTUR-A
 48
25.0
100
AcDbVertex
100
AcDb2dVertex
 10
2.366074621679331
 20
50.48751611705871
 30
0.0
  0
VERTEX
  5
107
330
FC
100
AcDbEntity
  8
GEB-KONTUR-A
 48
25.0
100
AcDbVertex
100
AcDb2dVertex
 10
2.615766823293711
 20
50.57975072856994
 30
0.0
  0
VERTEX
  5
108
330
FC
100
AcDbEntity
  8
GEB-KONTUR-A
 48
25.0
100
AcDbVertex
100
AcDb2dVertex
 10
2.863577306272532
 20
50.66540021892638
 30
0.0
  0
VERTEX
  5
109
330
FC
100
AcDbEntity
  8
GEB-KONTUR-A
 48
25.0
100
AcDbVertex
100
AcDb2dVertex
 10
3.109700977804209
 20
50.74454088207335
 30
0.0
  0
VERTEX
  5
10A
330
FC
100
AcDbEntity
  8
GEB-KONTUR-A
 48
25.0
100
AcDbVertex
100
AcDb2dVertex
 10
3.354328870775248
 20
50.817239475213
 30
0.0
  0
VERTEX
  5
10B
330
FC
100
AcDbEntity
  8
GEB-KONTUR-A
 48
25.0
100
AcDbVertex
100
AcDb2dVertex
 10
3.597650825979258
 20
50.88354606624694
 30
0.0
  0
VERTEX
  5
10C
330
FC
100
AcDbEntity
  8
GEB-KONTUR-A
 48
25.0
100
AcDbVertex
100
AcDb2dVertex
 10
3.839854300024057
 20
50.94350595470519
 30
0.0
  0
VERTEX
  5
10D
330
FC
100
AcDbEntity
  8
GEB-KONTUR-A
 48
25.0
100
AcDbVertex
100
AcDb2dVertex
 10
4.081124961378122
 20
50.99715490337462
 30
0.0
  0
VERTEX
  5
10E
330
FC
100
AcDbEntity
  8
GEB-KONTUR-A
 48
25.0
100
AcDbVertex
100
AcDb2dVertex
 10
4.321648776533152
 20
51.04451436992736
 30
0.0
  0
VERTEX
  5
10F
330
FC
100
AcDbEntity
  8
GEB-KONTUR-A
 48
25.0
100
AcDbVertex
100
AcDb2dVertex
 10
4.561610519887949
 20
51.08560342784972
 30
0.0
  0
VERTEX
  5
110
330
FC
100
AcDbEntity
  8
GEB-KONTUR-A
 48
25.0
100
AcDbVertex
100
AcDb2dVertex
 10
4.801194965841318
 20
51.12042207714171
 30
0.0
  0
VERTEX
  5
111
330
FC
100
AcDbEntity
  8
GEB-KONTUR-A
 48
25.0
100
AcDbVertex
100
AcDb2dVertex
 10
5.040587782861734
 20
51.14897031780333
 30
0.0
  0
VERTEX
  5
112
330
FC
100
AcDbEntity
  8
GEB-KONTUR-A
 48
25.0
100
AcDbVertex
100
AcDb2dVertex
 10
5.279974937440897
 20
51.17123146053405
 30
0.0
  0
VERTEX
  5
113
330
FC
100
AcDbEntity
  8
GEB-KONTUR-A
 48
25.0
100
AcDbVertex
100
AcDb2dVertex
 10
5.519545674325968
 20
51.18718166347594
 30
0.0
  0
VERTEX
  5
114
330
FC
100
AcDbEntity
  8
GEB-KONTUR-A
 48
25.0
100
AcDbVertex
100
AcDb2dVertex
 10
5.75949013233378
 20
51.19678754802794
 30
0.0
  0
VERTEX
  5
115
330
FC
100
AcDbEntity
  8
GEB-KONTUR-A
 48
25.0
100
AcDbVertex
100
AcDb2dVertex
 10
6.000000238420511
 20
51.19999904628844
 30
0.0
  0
SEQEND
  5
116
330
FC
100
AcDbEntity
  8
GEB-KONTUR-A
 48
25.0
  0
POLYLINE
  5
117
330
2
100
AcDbEntity
  8
GEB-KONTUR-A
 48
25.0
100
AcDb2dPolyline
 66
     1
 10
0.0
 20
0.0
 30
0.0
 70
   128
  0
VERTEX
  5
118
330
117
100
AcDbEntity
  8
GEB-KONTUR-A
 48
25.0
100
AcDbVertex
100
AcDb2dVertex
 10
6.000000238420511
 20
51.19999904628844
 30
0.0
  0
VERTEX
  5
119
330
117
100
AcDbEntity
  8
GEB-KONTUR-A
 48
25.0
100
AcDbVertex
100
AcDb2dVertex
 10
6.240510344507242
 20
51.19678754802794
 30
0.0
  0
VERTEX
  5
11A
330
117
100
AcDbEntity
  8
GEB-KONTUR-A
 48
25.0
100
AcDbVertex
100
AcDb2dVertex
 10
6.480454206468607
 20
51.18718166347594
 30
0.0
  0
VERTEX
  5
11B
330
117
100
AcDbEntity
  8
GEB-KONTUR-A
 48
25.0
100
AcDbVertex
100
AcDb2dVertex
 10
6.720024943353678
 20
51.17123146053405
 30
0.0
  0
VERTEX
  5
11C
330
117
100
AcDbEntity
  8
GEB-KONTUR-A
 48
25.0
100
AcDbVertex
100
AcDb2dVertex
 10
6.959412693979288
 20
51.14897031780333
 30
0.0
  0
VERTEX
  5
11D
330
117
100
AcDbEntity
  8
GEB-KONTUR-A
 48
25.0
100
AcDbVertex
100
AcDb2dVertex
 10
7.198805212976481
 20
51.12042207714171
 30
0.0
  0
VERTEX
  5
11E
330
117
100
AcDbEntity
  8
GEB-KONTUR-A
 48
25.0
100
AcDbVertex
100
AcDb2dVertex
 10
7.43838965892985
 20
51.08560342784972
 30
0.0
  0
VERTEX
  5
11F
330
117
100
AcDbEntity
  8
GEB-KONTUR-A
 48
25.0
100
AcDbVertex
100
AcDb2dVertex
 10
7.678350806238199
 20
51.04451436992736
 30
0.0
  0
VERTEX
  5
120
330
117
100
AcDbEntity
  8
GEB-KONTUR-A
 48
25.0
100
AcDbVertex
100
AcDb2dVertex
 10
7.918874621393229
 20
50.99715490337462
 30
0.0
  0
VERTEX
  5
121
330
117
100
AcDbEntity
  8
GEB-KONTUR-A
 48
25.0
100
AcDbVertex
100
AcDb2dVertex
 10
8.160145878793741
 20
50.94350595470519
 30
0.0
  0
VERTEX
  5
122
330
117
100
AcDbEntity
  8
GEB-KONTUR-A
 48
25.0
100
AcDbVertex
100
AcDb2dVertex
 10
8.402349352838541
 20
50.88354606624694
 30
0.0
  0
VERTEX
  5
123
330
117
100
AcDbEntity
  8
GEB-KONTUR-A
 48
25.0
100
AcDbVertex
100
AcDb2dVertex
 10
8.645671010019327
 20
50.817239475213
 30
0.0
  0
VERTEX
  5
124
330
117
100
AcDbEntity
  8
GEB-KONTUR-A
 48
25.0
100
AcDbVertex
100
AcDb2dVertex
 10
8.89029920101359
 20
50.74454088207335
 30
0.0
  0
VERTEX
  5
125
330
117
100
AcDbEntity
  8
GEB-KONTUR-A
 48
25.0
100
AcDbVertex
100
AcDb2dVertex
 10
9.136422872545267
 20
50.66540021892638
 30
0.0
  0
VERTEX
  5
126
330
117
100
AcDbEntity
  8
GEB-KONTUR-A
 48
25.0
100
AcDbVertex
100
AcDb2dVertex
 10
9.384233355524088
 20
50.57975072856994
 30
0.0
  0
VERTEX
  5
127
330
117
100
AcDbEntity
  8
GEB-KONTUR-A
 48
25.0
100
AcDbVertex
100
AcDb2dVertex
 10
9.633925557138468
 20
50.48751611705871
 30
0.0
  0
VERTEX
  5
128
330
117
100
AcDbEntity
  8
GEB-KONTUR-A
 48
25.0
100
AcDbVertex
100
AcDb2dVertex
 10
9.885696768762613
 20
50.38861770626159
 30
0.0
  0
VERTEX
  5
129
330
117
100
AcDbEntity
  8
GEB-KONTUR-A
 48
25.0
100
AcDbVertex
100
AcDb2dVertex
 10
10.13974905014231
 20
50.28295536037536
 30
0.0
  0
VERTEX
  5
12A
330
117
100
AcDbEntity
  8
GEB-KONTUR-A
 48
25.0
100
AcDbVertex
100
AcDb2dVertex
 10
10.39628982544138
 20
50.170426559411
 30
0.0
  0
VERTEX
  5
12B
330
117
100
AcDbEntity
  8
GEB-KONTUR-A
 48
25.0
100
AcDbVertex
100
AcDb2dVertex
 10
10.6555271148701
 20
50.05090970989318
 30
0.0
  0
VERTEX
  5
12C
330
117
100
AcDbEntity
  8
GEB-KONTUR-A
 48
25.0
100
AcDbVertex
100
AcDb2dVertex
 10
10.91768026352122
 20
49.92427844997497
 30
0.0
  0
VERTEX
  5
12D
330
117
100
AcDbEntity
  8
GEB-KONTUR-A
 48
25.0
100
AcDbVertex
100
AcDb2dVertex
 10
11.18297100067332
 20
49.79039211269469
 30
0.0
  0
VERTEX
  5
12E
330
117
100
AcDbEntity
  8
GEB-KONTUR-A
 48
25.0
100
AcDbVertex
100
AcDb2dVertex
 10
11.45162820816233
 20
49.64909572597594
 30
0.0
  0
VERTEX
  5
12F
330
117
100
AcDbEntity
  8
GEB-KONTUR-A
 48
25.0
100
AcDbVertex
100
AcDb2dVertex
 10
11.72388911247447
 20
49.50022239681334
 30
0.0
  0
VERTEX
  5
130
330
117
100
AcDbEntity
  8
GEB-KONTUR-A
 48
25.0
100
AcDbVertex
100
AcDb2dVertex
 10
12.00000047683909
 20
49.34359331127257
 30
0.0
  0
SEQEND
  5
131
330
117
100
AcDbEntity
  8
GEB-KONTUR-A
 48
25.0
  0
LINE
  5
132
330
2
100
AcDbEntity
  8
GEB-VERDECKT
 48
25.0
100
AcDbLine
 10
-8.999999999998067
 20
33.01042847465965
 30
0.0
 11
-8.999999999998067
 21
20.19999999996287
 31
0.0
  0
LINE
  5
135
330
2
100
AcDbEntity
  8
GEB-VERDECKT
 48
25.0
100
AcDbLine
 10
9.000000000001932
 20
33.01042847465965
 30
0.0
 11
9.000000000001932
 21
20.19999999996287
 31
0.0
  0
LINE
  5
136
330
2
100
AcDbEntity
  8
GEB-KONTUR-A
 48
25.0
100
AcDbLine
 10
-11.49999999999806
 20
24.99999999996282
 30
0.0
 11
-11.49999999999806
 21
23.69999999996287
 31
0.0
  0
LINE
  5
137
330
2
100
AcDbEntity
  8
GEB-KONTUR-A
 48
25.0
100
AcDbLine
 10
11.50000000000193
 20
24.99999999996282
 30
0.0
 11
11.50000000000193
 21
23.69999999996287
 31
0.0
  0
LINE
  5
138
330
2
100
AcDbEntity
  8
GEB-KONTUR-A
 48
25.0
100
AcDbLine
 10
11.50000000000193
 20
24.99999999996282
 30
0.0
 11
12.00000000000187
 21
25.49999999996283
 31
0.0
  0
LINE
  5
139
330
2
100
AcDbEntity
  8
GEB-KONTUR-A
 48
25.0
100
AcDbLine
 10
-11.49999999999806
 20
24.99999999996282
 30
0.0
 11
-11.99999999999806
 21
25.49999999996283
 31
0.0
  0
LINE
  5
13A
330
2
100
AcDbEntity
  8
GEB-KONTUR-A
 48
25.0
100
AcDbLine
 10
-11.49999999999806
 20
24.99999999996282
 30
0.0
 11
11.50000000000193
 21
24.99999999996282
 31
0.0
  0
LINE
  5
13B
330
2
100
AcDbEntity
  8
GEB-KONTUR-A
 48
25.0
100
AcDbLine
 10
6.000000000001932
 20
51.19999999996287
 30
0.0
 11
12.00000000000187
 21
51.19999999996287
 31
0.0
  0
LINE
  5
13C
330
2
100
AcDbEntity
  8
GEB-KONTUR-A
 48
25.0
100
AcDbLine
 10
-5.999999999998067
 20
51.19999999996287
 30
0.0
 11
6.000000000001932
 21
51.19999999996287
 31
0.0
  0
LINE
  5
13D
330
2
100
AcDbEntity
  8
GEB-KONTUR-A
 48
25.0
100
AcDbLine
 10
-11.99999999999806
 20
51.19999999996287
 30
0.0
 11
-5.999999999998067
 21
51.19999999996287
 31
0.0
  0
LINE
  5
13E
330
2
100
AcDbEntity
  8
GEB-VERDECKT
 48
25.0
100
AcDbLine
 10
9.000000000001932
 20
33.01042847465965
 30
0.0
 11
9.315500000001918
 21
33.19999999996287
 31
0.0
  0
LINE
  5
13F
330
2
100
AcDbEntity
  8
GEB-VERDECKT
 48
25.0
100
AcDbLine
 10
-8.999999999998067
 20
33.01042847465965
 30
0.0
 11
-9.315499999998053
 21
33.19999999996287
 31
0.0
  0
LINE
  5
140
330
2
100
AcDbEntity
  8
GEB-VERDECKT
 48
25.0
100
AcDbLine
 10
9.315500000001918
 20
33.19999999996287
 30
0.0
 11
9.315500000001918
 21
48.69999999996287
 31
0.0
  0
LINE
  5
141
330
2
100
AcDbEntity
  8
GEB-VERDECKT
 48
25.0
100
AcDbLine
 10
-9.315499999998053
 20
33.19999999996287
 30
0.0
 11
-9.315499999998053
 21
48.69999999996287
 31
0.0
  0
LINE
  5
142
330
2
100
AcDbEntity
  8
GEB-VERDECKT
 48
25.0
100
AcDbLine
 10
9.000000000001932
 20
33.01042847465965
 30
0.0
 11
-8.999999999998067
 21
33.01042847465965
 31
0.0
  0
LINE
  5
143
330
2
100
AcDbEntity
  8
GEB-VERDECKT
 48
25.0
100
AcDbLine
 10
9.315500000001918
 20
33.19999999996287
 30
0.0
 11
-9.315499999998053
 21
33.19999999996287
 31
0.0
  0
LINE
  5
144
330
2
100
AcDbEntity
  8
GEB-VERDECKT
 48
25.0
100
AcDbLine
 10
9.315500000001918
 20
48.69999999996287
 30
0.0
 11
11.81550000000186
 21
51.19999999996287
 31
0.0
  0
LINE
  5
145
330
2
100
AcDbEntity
  8
GEB-VERDECKT
 48
25.0
100
AcDbLine
 10
-9.315499999998053
 20
48.69999999996287
 30
0.0
 11
-11.81549999999805
 21
51.19999999996287
 31
0.0
  0
LINE
  5
146
330
2
100
AcDbEntity
  8
GEB-VERDECKT
 48
25.0
100
AcDbLine
 10
-9.315499999998053
 20
48.69999999996287
 30
0.0
 11
9.315500000001918
 21
48.69999999996287
 31
0.0
  0
LINE
  5
147
330
2
100
AcDbEntity
  8
GEB-KONTUR-A
 48
25.0
100
AcDbLine
 10
11.50000000000193
 20
23.69999999996287
 30
0.0
 11
-11.49999999999806
 21
23.69999999996287
 31
0.0
  0
LINE
  5
148
330
2
100
AcDbEntity
  8
GEB-VERDECKT
 48
25.0
100
AcDbLine
 10
9.150000000001909
 20
20.19999999996287
 30
0.0
 11
10.15000000000191
 21
21.19999999996287
 31
0.0
  0
LINE
  5
149
330
2
100
AcDbEntity
  8
GEB-VERDECKT
 48
25.0
100
AcDbLine
 10
-9.149999999998044
 20
20.19999999996287
 30
0.0
 11
-10.14999999999804
 21
21.19999999996287
 31
0.0
  0
LINE
  5
14A
330
2
100
AcDbEntity
  8
GEB-VERDECKT
 48
25.0
100
AcDbLine
 10
-10.14999999999804
 20
23.69999999996287
 30
0.0
 11
-10.14999999999804
 21
21.19999999996287
 31
0.0
  0
LINE
  5
14B
330
2
100
AcDbEntity
  8
GEB-VERDECKT
 48
25.0
100
AcDbLine
 10
10.15000000000191
 20
23.69999999996287
 30
0.0
 11
10.15000000000191
 21
21.19999999996287
 31
0.0
  0
LINE
  5
14C
330
2
100
AcDbEntity
  8
GEB-VERDECKT
 48
25.0
100
AcDbLine
 10
-9.149999999998044
 20
20.19999999996287
 30
0.0
 11
9.150000000001909
 21
20.19999999996287
 31
0.0
  0
LINE
  5
14D
330
2
100
AcDbEntity
  8
GEB-VERDECKT
 48
25.0
100
AcDbLine
 10
-10.14999999999804
 20
21.19999999996287
 30
0.0
 11
10.15000000000191
 21
21.19999999996287
 31
0.0
  0
ARC
  5
14E
330
2
100
AcDbEntity
  8
GEB-KONTUR-A
 48
25.0
100
AcDbCircle
 10
-53.49999999999806
 20
-23.15000000003715
 30
0.0
 40
3.499999999999991
100
AcDbArc
 50
180.0
 51
303.9999999999973
  0
ARC
  5
14F
330
2
100
AcDbEntity
  8
GEB-KONTUR-A
 48
25.0
100
AcDbCircle
 10
-53.49999999999813
 20
23.1499999999628
 30
0.0
 40
3.499999999999995
100
AcDbArc
 50
55.99999999999998
 51
180.0
  0
LINE
  5
150
330
2
100
AcDbEntity
  8
GEB-KONTUR-A
 48
25.0
100
AcDbLine
 10
-46.57382678926757
 20
22.69999999996276
 30
0.0
 11
-51.5428248378505
 21
26.05163150390547
 31
0.0
  0
LINE
  5
151
330
2
100
AcDbEntity
  8
GEB-KONTUR-A
 48
25.0
100
AcDbLine
 10
-46.57382678926751
 20
-22.70000000003722
 30
0.0
 11
-51.54282483785045
 21
-26.05163150397982
 31
0.0
  0
LINE
  5
152
330
2
100
AcDbEntity
  8
GEB-KONTUR-A
 48
25.0
100
AcDbLine
 10
-26.9999999999983
 20
22.69999999996276
 30
0.0
 11
-46.57382678926757
 21
22.69999999996276
 31
0.0
  0
LINE
  5
153
330
2
100
AcDbEntity
  8
GEB-KONTUR-A
 48
25.0
100
AcDbLine
 10
-26.99999999999824
 20
-22.70000000003722
 30
0.0
 11
-46.57382678926746
 21
-22.70000000003722
 31
0.0
  0
ARC
  5
154
330
2
100
AcDbEntity
  8
GEB-KONTUR-A
 48
25.0
100
AcDbCircle
 10
-26.99999999999824
 20
-17.70535714289428
 30
0.0
 40
4.994642857142825
100
AcDbArc
 50
270.0
 51
300.7002729848515
  0
ARC
  5
155
330
2
100
AcDbEntity
  8
GEB-KONTUR-A
 48
25.0
100
AcDbCircle
 10
-26.9999999999983
 20
17.70535714281993
 30
0.0
 40
4.994642857142829
100
AcDbArc
 50
59.29972701515181
 51
90.0
  0
LINE
  5
156
330
2
100
AcDbEntity
  8
GEB-KONTUR-A
 48
25.0
100
AcDbLine
 10
-56.99999999999812
 20
23.1499999999628
 30
0.0
 11
-56.99999999999807
 21
-23.15000000003715
 31
0.0
  0
LINE
  5
157
330
2
100
AcDbEntity
  8
GEB-KONTUR-A
 48
25.0
100
AcDbLine
 10
-46.57382678926757
 20
22.69999999996276
 30
0.0
 11
-46.57382678926746
 21
-22.70000000003722
 31
0.0
  0
LINE
  5
158
330
2
100
AcDbEntity
  8
GEB-KONTUR-A
 48
25.0
100
AcDbLine
 10
-24.44999999999834
 20
21.99999999996271
 30
0.0
 11
-24.44999999999828
 21
-22.00000000003718
 31
0.0
  0
LINE
  5
159
330
2
100
AcDbEntity
  8
GEB-VERDECKT
 48
25.0
100
AcDbLine
 10
-56.59999999999809
 20
21.64999999996269
 30
0.0
 11
-56.99999999999812
 21
22.04999999996267
 31
0.0
  0
LINE
  5
15A
330
2
100
AcDbEntity
  8
GEB-VERDECKT
 48
25.0
100
AcDbLine
 10
-56.59999999999803
 20
-21.65000000003715
 30
0.0
 11
-56.99999999999807
 21
-22.05000000003713
 31
0.0
  0
LINE
  5
15B
330
2
100
AcDbEntity
  8
GEB-VERDECKT
 48
25.0
100
AcDbLine
 10
-24.44999999999834
 20
20.49999999996282
 30
0.0
 11
-26.9999999999983
 21
20.49999999996282
 31
0.0
  0
LINE
  5
15C
330
2
100
AcDbEntity
  8
GEB-VERDECKT
 48
25.0
100
AcDbLine
 10
-24.44999999999828
 20
-20.50000000003718
 30
0.0
 11
-26.89999999999827
 21
-20.50000000003718
 31
0.0
  0
LINE
  5
15D
330
2
100
AcDbEntity
  8
GEB-VERDECKT
 48
25.0
100
AcDbLine
 10
-26.9999999999983
 20
21.14999999996269
 30
0.0
 11
-46.41028415834336
 21
21.14999999996269
 31
0.0
  0
LINE
  5
15E
330
2
100
AcDbEntity
  8
GEB-VERDECKT
 48
25.0
100
AcDbLine
 10
-26.99999999999824
 20
-21.15000000003715
 30
0.0
 11
-46.4102841583433
 21
-21.15000000003715
 31
0.0
  0
ARC
  5
15F
330
2
100
AcDbEntity
  8
GEB-VERDECKT
 48
25.0
100
AcDbCircle
 10
-46.4102841583433
 20
-22.65000000003715
 30
0.0
 40
1.499999999999996
100
AcDbArc
 50
90.0
 51
124.0
  0
ARC
  5
160
330
2
100
AcDbEntity
  8
GEB-VERDECKT
 48
25.0
100
AcDbCircle
 10
-46.41028415834336
 20
22.6499999999628
 30
0.0
 40
1.499999999999998
100
AcDbArc
 50
236.0
 51
270.0
  0
LINE
  5
161
330
2
100
AcDbEntity
  8
GEB-VERDECKT
 48
25.0
100
AcDbLine
 10
-47.24907351354949
 20
21.40644364113018
 30
0.0
 11
-52.35365454788314
 21
24.84952702370061
 31
0.0
  0
LINE
  5
162
330
2
100
AcDbEntity
  8
GEB-VERDECKT
 48
25.0
100
AcDbLine
 10
-47.24907351354938
 20
-21.40644364120465
 30
0.0
 11
-52.35365454788302
 21
-24.84952702377507
 31
0.0
  0
ARC
  5
163
330
2
100
AcDbEntity
  8
GEB-VERDECKT
 48
25.0
100
AcDbCircle
 10
-53.49999999999806
 20
-23.15000000003715
 30
0.0
 40
2.049999999999994
100
AcDbArc
 50
180.0
 51
303.9999999999973
  0
ARC
  5
164
330
2
100
AcDbEntity
  8
GEB-VERDECKT
 48
25.0
100
AcDbCircle
 10
-53.49999999999813
 20
23.1499999999628
 30
0.0
 40
2.049999999999996
100
AcDbArc
 50
56.00000000000268
 51
180.0
  0
LINE
  5
165
330
2
100
AcDbEntity
  8
GEB-VERDECKT
 48
25.0
100
AcDbLine
 10
-55.94999999999806
 20
-21.65000000003715
 30
0.0
 11
-55.54999999999802
 21
-22.05000000003713
 31
0.0
  0
LINE
  5
166
330
2
100
AcDbEntity
  8
GEB-VERDECKT
 48
25.0
100
AcDbLine
 10
-55.94999999999811
 20
21.6499999999628
 30
0.0
 11
-55.54999999999814
 21
22.04999999996278
 31
0.0
  0
LINE
  5
167
330
2
100
AcDbEntity
  8
GEB-VERDECKT
 48
25.0
100
AcDbLine
 10
-55.94999999999811
 20
21.6499999999628
 30
0.0
 11
-56.59999999999809
 21
21.64999999996269
 31
0.0
  0
LINE
  5
168
330
2
100
AcDbEntity
  8
GEB-VERDECKT
 48
25.0
100
AcDbLine
 10
-55.94999999999806
 20
-21.65000000003715
 30
0.0
 11
-56.59999999999803
 21
-21.65000000003715
 31
0.0
  0
LINE
  5
169
330
2
100
AcDbEntity
  8
GEB-VERDECKT
 48
25.0
100
AcDbLine
 10
-55.54999999999814
 20
23.1499999999628
 30
0.0
 11
-55.54999999999802
 21
-23.15000000003715
 31
0.0
  0
LINE
  5
16A
330
2
100
AcDbEntity
  8
GEB-VERDECKT
 48
25.0
100
AcDbLine
 10
-56.59999999999809
 20
21.6499999999628
 30
0.0
 11
-56.59999999999803
 21
-21.65000000003715
 31
0.0
  0
LINE
  5
16B
330
2
100
AcDbEntity
  8
GEB-VERDECKT
 48
25.0
100
AcDbLine
 10
-55.94999999999811
 20
21.6499999999628
 30
0.0
 11
-55.94999999999806
 21
-21.65000000003715
 31
0.0
  0
LINE
  5
16C
330
2
100
AcDbEntity
  8
GEB-VERDECKT
 48
25.0
100
AcDbLine
 10
-26.9999999999983
 20
2.643749999962778
 30
0.0
 11
-26.89999999999833
 21
2.643749999962778
 31
0.0
  0
LINE
  5
16D
330
2
100
AcDbEntity
  8
GEB-VERDECKT
 48
25.0
100
AcDbLine
 10
-26.89999999999827
 20
-20.48104973967452
 30
0.0
 11
-26.99999999999824
 21
-20.48104973967452
 31
0.0
  0
LINE
  5
16E
330
2
100
AcDbEntity
  8
GEB-VERDECKT
 48
25.0
100
AcDbLine
 10
-26.9999999999983
 20
-2.492551403719744
 30
0.0
 11
-26.89999999999827
 21
-2.492551403719744
 31
0.0
  0
LINE
  5
16F
330
2
100
AcDbEntity
  8
GEB-VERDECKT
 48
25.0
100
AcDbLine
 10
-26.89999999999827
 20
-20.48104973967452
 30
0.0
 11
-26.89999999999827
 21
-2.492551403719744
 31
0.0
  0
LINE
  5
170
330
2
100
AcDbEntity
  8
GEB-VERDECKT
 48
25.0
100
AcDbLine
 10
-26.89999999999827
 20
2.643749999962778
 30
0.0
 11
-26.89999999999827
 21
-2.492551403719744
 31
0.0
  0
LINE
  5
171
330
2
100
AcDbEntity
  8
GEB-VERDECKT
 48
25.0
100
AcDbLine
 10
-26.89999999999822
 20
-20.48104973967452
 30
0.0
 11
-26.89999999999822
 21
-20.50000000003718
 31
0.0
  0
ARC
  5
172
330
2
100
AcDbEntity
  8
GEB-KONTUR-A
 48
25.0
100
AcDbCircle
 10
53.50000000000239
 20
23.1499999999628
 30
0.0
 40
3.49999999999998
100
AcDbArc
 50
0.0
 51
123.9999999999973
  0
ARC
  5
173
330
2
100
AcDbEntity
  8
GEB-KONTUR-A
 48
25.0
100
AcDbCircle
 10
53.50000000000159
 20
-23.15000000003704
 30
0.0
 40
3.499999999999983
100
AcDbArc
 50
236.0
 51
0.0
  0
LINE
  5
174
330
2
100
AcDbEntity
  8
GEB-KONTUR-A
 48
25.0
100
AcDbLine
 10
46.57382678927098
 20
-22.70000000003699
 30
0.0
 11
51.54282483785391
 21
-26.05163150397959
 31
0.0
  0
LINE
  5
175
330
2
100
AcDbEntity
  8
GEB-KONTUR-A
 48
25.0
100
AcDbLine
 10
46.57382678927177
 20
22.69999999996287
 30
0.0
 11
51.54282483785483
 21
26.05163150390547
 31
0.0
  0
LINE
  5
176
330
2
100
AcDbEntity
  8
GEB-KONTUR-A
 48
25.0
100
AcDbLine
 10
27.00000000000171
 20
-22.70000000003654
 30
0.0
 11
46.57382678927098
 21
-22.70000000003688
 31
0.0
  0
LINE
  5
177
330
2
100
AcDbEntity
  8
GEB-KONTUR-A
 48
25.0
100
AcDbLine
 10
27.0000000000025
 20
22.69999999996321
 30
0.0
 11
46.57382678927177
 21
22.69999999996287
 31
0.0
  0
ARC
  5
178
330
2
100
AcDbEntity
  8
GEB-KONTUR-A
 48
25.0
100
AcDbCircle
 10
27.00000000000244
 20
17.70535714282039
 30
0.0
 40
4.994642857142808
100
AcDbArc
 50
89.99999999999674
 51
120.7002729848454
  0
ARC
  5
179
330
2
100
AcDbEntity
  8
GEB-KONTUR-A
 48
25.0
100
AcDbCircle
 10
27.00000000000182
 20
-17.70535714289383
 30
0.0
 40
4.994642857142811
100
AcDbArc
 50
239.2997270151485
 51
270.0
  0
LINE
  5
17A
330
2
100
AcDbEntity
  8
GEB-KONTUR-A
 48
25.0
100
AcDbLine
 10
57.00000000000153
 20
-23.15000000003715
 30
0.0
 11
57.00000000000239
 21
23.14999999996269
 31
0.0
  0
LINE
  5
17B
330
2
100
AcDbEntity
  8
GEB-KONTUR-A
 48
25.0
100
AcDbLine
 10
46.57382678927098
 20
-22.70000000003699
 30
0.0
 11
46.57382678927183
 21
22.69999999996287
 31
0.0
  0
LINE
  5
17C
330
2
100
AcDbEntity
  8
GEB-KONTUR-A
 48
25.0
100
AcDbLine
 10
24.45000000000175
 20
-22.00000000003649
 30
0.0
 11
24.45000000000249
 21
21.99999999996328
 31
0.0
  0
LINE
  5
17D
330
2
100
AcDbEntity
  8
GEB-VERDECKT
 48
25.0
100
AcDbLine
 10
56.60000000000161
 20
-21.65000000003704
 30
0.0
 11
57.00000000000159
 21
-22.05000000003701
 31
0.0
  0
LINE
  5
17E
330
2
100
AcDbEntity
  8
GEB-VERDECKT
 48
25.0
100
AcDbLine
 10
56.6000000000023
 20
21.64999999996269
 30
0.0
 11
57.00000000000227
 21
22.04999999996267
 31
0.0
  0
LINE
  5
17F
330
2
100
AcDbEntity
  8
GEB-VERDECKT
 48
25.0
100
AcDbLine
 10
24.45000000000175
 20
-20.50000000003649
 30
0.0
 11
26.90000000000174
 21
-20.50000000003661
 31
0.0
  0
LINE
  5
180
330
2
100
AcDbEntity
  8
GEB-VERDECKT
 48
25.0
100
AcDbLine
 10
24.45000000000249
 20
20.49999999996328
 30
0.0
 11
27.0000000000025
 21
20.49999999996316
 31
0.0
  0
LINE
  5
181
330
2
100
AcDbEntity
  8
GEB-VERDECKT
 48
25.0
100
AcDbLine
 10
27.00000000000171
 20
-21.15000000003659
 30
0.0
 11
46.41028415834682
 21
-21.15000000003693
 31
0.0
  0
LINE
  5
182
330
2
100
AcDbEntity
  8
GEB-VERDECKT
 48
25.0
100
AcDbLine
 10
27.0000000000025
 20
21.14999999996314
 30
0.0
 11
46.41028415834751
 21
21.14999999996292
 31
0.0
  0
ARC
  5
183
330
2
100
AcDbEntity
  8
GEB-VERDECKT
 48
25.0
100
AcDbCircle
 10
46.41028415834751
 20
22.64999999996291
 30
0.0
 40
1.499999999999991
100
AcDbArc
 50
269.9999999999968
 51
303.9999999999973
  0
ARC
  5
184
330
2
100
AcDbEntity
  8
GEB-VERDECKT
 48
25.0
100
AcDbCircle
 10
46.41028415834677
 20
-22.65000000003693
 30
0.0
 40
1.499999999999992
100
AcDbArc
 50
56.00000000000268
 51
90.0
  0
LINE
  5
185
330
2
100
AcDbEntity
  8
GEB-VERDECKT
 48
25.0
100
AcDbLine
 10
47.2490735135529
 20
-21.40644364120442
 30
0.0
 11
52.35365454788649
 21
-24.84952702377484
 31
0.0
  0
LINE
  5
186
330
2
100
AcDbEntity
  8
GEB-VERDECKT
 48
25.0
100
AcDbLine
 10
47.24907351355364
 20
21.40644364113029
 30
0.0
 11
52.35365454788734
 21
24.84952702370049
 31
0.0
  0
ARC
  5
187
330
2
100
AcDbEntity
  8
GEB-VERDECKT
 48
25.0
100
AcDbCircle
 10
53.50000000000239
 20
23.1499999999628
 30
0.0
 40
2.049999999999988
100
AcDbArc
 50
0.0
 51
123.9999999999973
  0
ARC
  5
188
330
2
100
AcDbEntity
  8
GEB-VERDECKT
 48
25.0
100
AcDbCircle
 10
53.50000000000159
 20
-23.15000000003704
 30
0.0
 40
2.049999999999989
100
AcDbArc
 50
236.0000000000027
 51
0.0
  0
LINE
  5
189
330
2
100
AcDbEntity
  8
GEB-VERDECKT
 48
25.0
100
AcDbLine
 10
55.95000000000232
 20
21.64999999996269
 30
0.0
 11
55.55000000000234
 21
22.04999999996267
 31
0.0
  0
LINE
  5
18A
330
2
100
AcDbEntity
  8
GEB-VERDECKT
 48
25.0
100
AcDbLine
 10
55.95000000000152
 20
-21.65000000003704
 30
0.0
 11
55.55000000000155
 21
-22.05000000003713
 31
0.0
  0
LINE
  5
18B
330
2
100
AcDbEntity
  8
GEB-VERDECKT
 48
25.0
100
AcDbLine
 10
55.95000000000152
 20
-21.65000000003704
 30
0.0
 11
56.60000000000161
 21
-21.65000000003704
 31
0.0
  0
LINE
  5
18C
330
2
100
AcDbEntity
  8
GEB-VERDECKT
 48
25.0
100
AcDbLine
 10
55.95000000000232
 20
21.64999999996269
 30
0.0
 11
56.6000000000023
 21
21.64999999996269
 31
0.0
  0
LINE
  5
18D
330
2
100
AcDbEntity
  8
GEB-VERDECKT
 48
25.0
100
AcDbLine
 10
55.55000000000155
 20
-23.15000000003715
 30
0.0
 11
55.5500000000024
 21
23.14999999996269
 31
0.0
  0
LINE
  5
18E
330
2
100
AcDbEntity
  8
GEB-VERDECKT
 48
25.0
100
AcDbLine
 10
56.60000000000161
 20
-21.65000000003704
 30
0.0
 11
56.6000000000023
 21
21.64999999996269
 31
0.0
  0
LINE
  5
18F
330
2
100
AcDbEntity
  8
GEB-VERDECKT
 48
25.0
100
AcDbLine
 10
55.95000000000164
 20
-21.65000000003704
 30
0.0
 11
55.95000000000232
 21
21.64999999996269
 31
0.0
  0
LINE
  5
190
330
2
100
AcDbEntity
  8
GEB-VERDECKT
 48
25.0
100
AcDbLine
 10
27.00000000000216
 20
2.643749999963347
 30
0.0
 11
26.9000000000022
 21
2.643749999963347
 31
0.0
  0
LINE
  5
191
330
2
100
AcDbEntity
  8
GEB-VERDECKT
 48
25.0
100
AcDbLine
 10
27.00000000000211
 20
-2.492551403719289
 30
0.0
 11
26.90000000000214
 21
-2.492551403719289
 31
0.0
  0
LINE
  5
192
330
2
100
AcDbEntity
  8
GEB-VERDECKT
 48
25.0
100
AcDbLine
 10
27.00000000000182
 20
-20.48104973967395
 30
0.0
 11
26.90000000000174
 21
-20.48104973967395
 31
0.0
  0
LINE
  5
193
330
2
100
AcDbEntity
  8
GEB-VERDECKT
 48
25.0
100
AcDbLine
 10
26.90000000000202
 20
-2.492551403719289
 30
0.0
 11
26.9000000000022
 21
2.643749999963347
 31
0.0
  0
LINE
  5
194
330
2
100
AcDbEntity
  8
GEB-VERDECKT
 48
25.0
100
AcDbLine
 10
26.90000000000214
 20
-2.492551403719289
 30
0.0
 11
26.90000000000174
 21
-20.48104973967395
 31
0.0
  0
LINE
  5
195
330
2
100
AcDbEntity
  8
GEB-VERDECKT
 48
25.0
100
AcDbLine
 10
26.90000000000174
 20
-20.50000000003649
 30
0.0
 11
26.90000000000174
 21
-20.48104973967395
 31
0.0
  0
LINE
  5
196
330
2
100
AcDbEntity
  8
GEB-KONTUR-A
 48
25.0
100
AcDbLine
 10
-24.44999999999817
 20
-22.00000000003718
 30
0.0
 11
24.45000000000283
 21
-22.00000000003718
 31
0.0
  0
LINE
  5
197
330
2
100
AcDbEntity
  8
GEB-KONTUR-A
 48
25.0
100
AcDbLine
 10
11.50000000000193
 20
21.99999999996283
 30
0.0
 11
24.45000000000113
 21
21.99999999996283
 31
0.0
  0
LINE
  5
198
330
2
100
AcDbEntity
  8
GEB-KONTUR-A
 48
25.0
100
AcDbLine
 10
-24.44999999999817
 20
21.99999999996283
 30
0.0
 11
-11.49999999999806
 21
21.99999999996283
 31
0.0
  0
LINE
  5
199
330
2
100
AcDbEntity
  8
GEB-VERDECKT
 48
25.0
100
AcDbLine
 10
-26.99999999999813
 20
-20.50000000003718
 30
0.0
 11
27.00000000000188
 21
-20.50000000003718
 31
0.0
  0
LINE
  5
19A
330
2
100
AcDbEntity
  8
GEB-VERDECKT
 48
25.0
100
AcDbLine
 10
10.00000000000193
 20
20.49999999996282
 30
0.0
 11
27.00000000000193
 21
20.49999999996282
 31
0.0
  0
LINE
  5
19B
330
2
100
AcDbEntity
  8
GEB-VERDECKT
 48
25.0
100
AcDbLine
 10
-26.99999999999813
 20
20.49999999996282
 30
0.0
 11
-9.999999999998067
 21
20.49999999996282
 31
0.0
  0
LINE
  5
19C
330
2
100
AcDbEntity
  8
GEB-VERDECKT
 48
25.0
100
AcDbLine
 10
24.45000000000283
 20
-22.00000000003718
 30
0.0
 11
27.00000000000193
 21
-22.00000000003718
 31
0.0
  0
LINE
  5
19D
330
2
100
AcDbEntity
  8
GEB-VERDECKT
 48
25.0
100
AcDbLine
 10
-26.99999999999813
 20
-22.00000000003718
 30
0.0
 11
-24.44999999999817
 21
-22.00000000003718
 31
0.0
  0
LINE
  5
19E
330
2
100
AcDbEntity
  8
GEB-VERDECKT
 48
25.0
100
AcDbLine
 10
24.45000000000113
 20
21.99999999996283
 30
0.0
 11
27.00000000000193
 21
21.99999999996283
 31
0.0
  0
LINE
  5
19F
330
2
100
AcDbEntity
  8
GEB-VERDECKT
 48
25.0
100
AcDbLine
 10
-26.99999999999813
 20
21.99999999996283
 30
0.0
 11
-24.44999999999817
 21
21.99999999996283
 31
0.0
  0
LINE
  5
1A0
330
2
100
AcDbEntity
  8
GEB-VERDECKT
 48
25.0
100
AcDbLine
 10
-26.99999999999813
 20
-22.00000000003718
 30
0.0
 11
-26.99999999999813
 21
21.99999999996283
 31
0.0
  0
LINE
  5
1A1
330
2
100
AcDbEntity
  8
GEB-VERDECKT
 48
25.0
100
AcDbLine
 10
27.00000000000193
 20
-22.00000000003718
 30
0.0
 11
27.00000000000193
 21
21.99999999996283
 31
0.0
  0
LINE
  5
1A2
330
2
100
AcDbEntity
  8
GEB-KONTUR-A
 48
25.0
100
AcDbLine
 10
-11.49999999999806
 20
23.69999999996275
 30
0.0
 11
-11.49999999999806
 21
21.99999999996283
 31
0.0
  0
LINE
  5
1A3
330
2
100
AcDbEntity
  8
GEB-KONTUR-A
 48
25.0
100
AcDbLine
 10
11.50000000000193
 20
23.69999999996275
 30
0.0
 11
11.50000000000193
 21
21.99999999996283
 31
0.0
  0
LINE
  5
1A4
330
2
100
AcDbEntity
  8
GEB-KONTUR-A
 48
25.0
100
AcDbLine
 10
-11.49999999999806
 20
23.69999999996275
 30
0.0
 11
11.50000000000193
 21
23.69999999996275
 31
0.0
  0
POLYLINE
  5
1A5
330
2
100
AcDbEntity
  8
GEB-KONTUR-A
 48
25.0
100
AcDb2dPolyline
 66
     1
 10
0.0
 20
0.0
 30
0.0
 70
   128
  0
VERTEX
  5
1A6
330
1A5
100
AcDbEntity
  8
GEB-KONTUR-A
 48
25.0
100
AcDbVertex
100
AcDb2dVertex
 10
11.49999976158335
 20
22.00000047679998
 30
0.0
  0
VERTEX
  5
1A7
330
1A5
100
AcDbEntity
  8
GEB-KONTUR-A
 48
25.0
100
AcDbVertex
100
AcDb2dVertex
 10
11.48914933204844
 20
21.99419975277044
 30
0.0
  0
VERTEX
  5
1A8
330
1A5
100
AcDbEntity
  8
GEB-KONTUR-A
 48
25.0
100
AcDbVertex
100
AcDb2dVertex
 10
11.45664572715952
 20
21.97696447368719
 30
0.0
  0
VERTEX
  5
1A9
330
1A5
100
AcDbEntity
  8
GEB-KONTUR-A
 48
25.0
100
AcDbVertex
100
AcDb2dVertex
 10
11.40256643295481
 20
21.94855213161566
 30
0.0
  0
VERTEX
  5
1AA
330
1A5
100
AcDbEntity
  8
GEB-KONTUR-A
 48
25.0
100
AcDbVertex
100
AcDb2dVertex
 10
11.32698535919383
 20
21.90921545024969
 30
0.0
  0
VERTEX
  5
1AB
330
1A5
100
AcDbEntity
  8
GEB-KONTUR-A
 48
25.0
100
AcDbVertex
100
AcDb2dVertex
 10
11.22997879982188
 20
21.85920953746893
 30
0.0
  0
VERTEX
  5
1AC
330
1A5
100
AcDbEntity
  8
GEB-KONTUR-A
 48
25.0
100
AcDbVertex
100
AcDb2dVertex
 10
11.11161947250559
 20
21.79878950115301
 30
0.0
  0
VERTEX
  5
1AD
330
1A5
100
AcDbEntity
  8
GEB-KONTUR-A
 48
25.0
100
AcDbVertex
100
AcDb2dVertex
 10
10.97198486328318
 20
21.72820806499578
 30
0.0
  0
VERTEX
  5
1AE
330
1A5
100
AcDbEntity
  8
GEB-KONTUR-A
 48
25.0
100
AcDbVertex
100
AcDb2dVertex
 10
10.81114888191416
 20
21.64772272106268
 30
0.0
  0
VERTEX
  5
1AF
330
1A5
100
AcDbEntity
  8
GEB-KONTUR-A
 48
25.0
100
AcDbVertex
100
AcDb2dVertex
 10
10.62918663025095
 20
21.55758619304754
 30
0.0
  0
VERTEX
  5
1B0
330
1A5
100
AcDbEntity
  8
GEB-KONTUR-A
 48
25.0
100
AcDbVertex
100
AcDb2dVertex
 10
10.42636156082346
 20
21.45832777019598
 30
0.0
  0
VERTEX
  5
1B1
330
1A5
100
AcDbEntity
  8
GEB-KONTUR-A
 48
25.0
100
AcDbVertex
100
AcDb2dVertex
 10
10.20377993583872
 20
21.35112047191717
 30
0.0
  0
VERTEX
  5
1B2
330
1A5
100
AcDbEntity
  8
GEB-KONTUR-A
 48
25.0
100
AcDbVertex
100
AcDb2dVertex
 10
9.96276915073588
 20
21.23707056041815
 30
0.0
  0
VERTEX
  5
1B3
330
1A5
100
AcDbEntity
  8
GEB-KONTUR-A
 48
25.0
100
AcDbVertex
100
AcDb2dVertex
 10
9.704656004907633
 20
21.11728191372015
 30
0.0
  0
VERTEX
  5
1B4
330
1A5
100
AcDbEntity
  8
GEB-KONTUR-A
 48
25.0
100
AcDbVertex
100
AcDb2dVertex
 10
9.430768489839579
 20
20.99285602565863
 30
0.0
  0
VERTEX
  5
1B5
330
1A5
100
AcDbEntity
  8
GEB-KONTUR-A
 48
25.0
100
AcDbVertex
100
AcDb2dVertex
 10
9.142434597017313
 20
20.86489915844061
 30
0.0
  0
VERTEX
  5
1B6
330
1A5
100
AcDbEntity
  8
GEB-KONTUR-A
 48
25.0
100
AcDbVertex
100
AcDb2dVertex
 10
8.840981125833536
 20
20.73451042171575
 30
0.0
  0
VERTEX
  5
1B7
330
1A5
100
AcDbEntity
  8
GEB-KONTUR-A
 48
25.0
100
AcDbVertex
100
AcDb2dVertex
 10
8.527736067773844
 20
20.60279846187689
 30
0.0
  0
VERTEX
  5
1B8
330
1A5
100
AcDbEntity
  8
GEB-KONTUR-A
 48
25.0
100
AcDbVertex
100
AcDb2dVertex
 10
8.204026818277384
 20
20.47086238857366
 30
0.0
  0
VERTEX
  5
1B9
330
1A5
100
AcDbEntity
  8
GEB-KONTUR-A
 48
25.0
100
AcDbVertex
100
AcDb2dVertex
 10
7.868023514749552
 20
20.33855199810125
 30
0.0
  0
VERTEX
  5
1BA
330
1A5
100
AcDbEntity
  8
GEB-KONTUR-A
 48
25.0
100
AcDbVertex
100
AcDb2dVertex
 10
7.513931393625284
 20
20.204288959466
 30
0.0
  0
VERTEX
  5
1BB
330
1A5
100
AcDbEntity
  8
GEB-KONTUR-A
 48
25.0
100
AcDbVertex
100
AcDb2dVertex
 10
7.142516374589945
 20
20.06922721859075
 30
0.0
  0
VERTEX
  5
1BC
330
1A5
100
AcDbEntity
  8
GEB-KONTUR-A
 48
25.0
100
AcDbVertex
100
AcDb2dVertex
 10
6.754792332651163
 20
19.93462800975897
 30
0.0
  0
VERTEX
  5
1BD
330
1A5
100
AcDbEntity
  8
GEB-KONTUR-A
 48
25.0
100
AcDbVertex
100
AcDb2dVertex
 10
6.351771950723673
 20
19.8017477988825
 30
0.0
  0
VERTEX
  5
1BE
330
1A5
100
AcDbEntity
  8
GEB-KONTUR-A
 48
25.0
100
AcDbVertex
100
AcDb2dVertex
 10
5.934468507768656
 20
19.67184305187322
 30
0.0
  0
VERTEX
  5
1BF
330
1A5
100
AcDbEntity
  8
GEB-KONTUR-A
 48
25.0
100
AcDbVertex
100
AcDb2dVertex
 10
5.503895878793741
 20
19.54617142673589
 30
0.0
  0
VERTEX
  5
1C0
330
1A5
100
AcDbEntity
  8
GEB-KONTUR-A
 48
25.0
100
AcDbVertex
100
AcDb2dVertex
 10
5.061067342760111
 20
19.42598938938238
 30
0.0
  0
VERTEX
  5
1C1
330
1A5
100
AcDbEntity
  8
GEB-KONTUR-A
 48
25.0
100
AcDbVertex
100
AcDb2dVertex
 10
4.60699647665217
 20
19.31255698200323
 30
0.0
  0
VERTEX
  5
1C2
330
1A5
100
AcDbEntity
  8
GEB-KONTUR-A
 48
25.0
100
AcDbVertex
100
AcDb2dVertex
 10
4.142724871637369
 20
19.20712590213873
 30
0.0
  0
VERTEX
  5
1C3
330
1A5
100
AcDbEntity
  8
GEB-KONTUR-A
 48
25.0
100
AcDbVertex
100
AcDb2dVertex
 10
3.669612705709482
 20
19.11077141758062
 30
0.0
  0
VERTEX
  5
1C4
330
1A5
100
AcDbEntity
  8
GEB-KONTUR-A
 48
25.0
100
AcDbVertex
100
AcDb2dVertex
 10
3.18921208381846
 20
19.02438879009344
 30
0.0
  0
VERTEX
  5
1C5
330
1A5
100
AcDbEntity
  8
GEB-KONTUR-A
 48
25.0
100
AcDbVertex
100
AcDb2dVertex
 10
2.703077495100046
 20
18.94886374469854
 30
0.0
  0
VERTEX
  5
1C6
330
1A5
100
AcDbEntity
  8
GEB-KONTUR-A
 48
25.0
100
AcDbVertex
100
AcDb2dVertex
 10
2.212763428689981
 20
18.88508319851019
 30
0.0
  0
VERTEX
  5
1C7
330
1A5
100
AcDbEntity
  8
GEB-KONTUR-A
 48
25.0
100
AcDbVertex
100
AcDb2dVertex
 10
1.719863861801172
 20
18.83381605144598
 30
0.0
  0
VERTEX
  5
1C8
330
1A5
100
AcDbEntity
  8
GEB-KONTUR-A
 48
25.0
100
AcDbVertex
100
AcDb2dVertex
 10
1.226136684419657
 20
18.79527568813421
 30
0.0
  0
VERTEX
  5
1C9
330
1A5
100
AcDbEntity
  8
GEB-KONTUR-A
 48
25.0
100
AcDbVertex
100
AcDb2dVertex
 10
0.733380317689921
 20
18.76952171321966
 30
0.0
  0
VERTEX
  5
1CA
330
1A5
100
AcDbEntity
  8
GEB-KONTUR-A
 48
25.0
100
AcDbVertex
100
AcDb2dVertex
 10
0.2433931268770948
 20
18.75661492344
 30
0.0
  0
VERTEX
  5
1CB
330
1A5
100
AcDbEntity
  8
GEB-KONTUR-A
 48
25.0
100
AcDbVertex
100
AcDb2dVertex
 10
-0.2433931268732294
 20
18.75661492344
 30
0.0
  0
VERTEX
  5
1CC
330
1A5
100
AcDbEntity
  8
GEB-KONTUR-A
 48
25.0
100
AcDbVertex
100
AcDb2dVertex
 10
-0.7333803176860556
 20
18.76952171321966
 30
0.0
  0
VERTEX
  5
1CD
330
1A5
100
AcDbEntity
  8
GEB-KONTUR-A
 48
25.0
100
AcDbVertex
100
AcDb2dVertex
 10
-1.226136684415791
 20
18.79527568813421
 30
0.0
  0
VERTEX
  5
1CE
330
1A5
100
AcDbEntity
  8
GEB-KONTUR-A
 48
25.0
100
AcDbVertex
100
AcDb2dVertex
 10
-1.719863861797307
 20
18.83381605144598
 30
0.0
  0
VERTEX
  5
1CF
330
1A5
100
AcDbEntity
  8
GEB-KONTUR-A
 48
25.0
100
AcDbVertex
100
AcDb2dVertex
 10
-2.212763428686116
 20
18.88508319851019
 30
0.0
  0
VERTEX
  5
1D0
330
1A5
100
AcDbEntity
  8
GEB-KONTUR-A
 48
25.0
100
AcDbVertex
100
AcDb2dVertex
 10
-2.703077495096181
 20
18.94886374469854
 30
0.0
  0
VERTEX
  5
1D1
330
1A5
100
AcDbEntity
  8
GEB-KONTUR-A
 48
25.0
100
AcDbVertex
100
AcDb2dVertex
 10
-3.189212083814595
 20
19.02438879009344
 30
0.0
  0
VERTEX
  5
1D2
330
1A5
100
AcDbEntity
  8
GEB-KONTUR-A
 48
25.0
100
AcDbVertex
100
AcDb2dVertex
 10
-3.669612705705617
 20
19.11077141758062
 30
0.0
  0
VERTEX
  5
1D3
330
1A5
100
AcDbEntity
  8
GEB-KONTUR-A
 48
25.0
100
AcDbVertex
100
AcDb2dVertex
 10
-4.142724871633504
 20
19.20712590213873
 30
0.0
  0
VERTEX
  5
1D4
330
1A5
100
AcDbEntity
  8
GEB-KONTUR-A
 48
25.0
100
AcDbVertex
100
AcDb2dVertex
 10
-4.606996476648305
 20
19.31255698200323
 30
0.0
  0
VERTEX
  5
1D5
330
1A5
100
AcDbEntity
  8
GEB-KONTUR-A
 48
25.0
100
AcDbVertex
100
AcDb2dVertex
 10
-5.061067342756246
 20
19.42598938938238
 30
0.0
  0
VERTEX
  5
1D6
330
1A5
100
AcDbEntity
  8
GEB-KONTUR-A
 48
25.0
100
AcDbVertex
100
AcDb2dVertex
 10
-5.503895878789876
 20
19.54617142673589
 30
0.0
  0
VERTEX
  5
1D7
330
1A5
100
AcDbEntity
  8
GEB-KONTUR-A
 48
25.0
100
AcDbVertex
100
AcDb2dVertex
 10
-5.93446850776479
 20
19.67184305187322
 30
0.0
  0
VERTEX
  5
1D8
330
1A5
100
AcDbEntity
  8
GEB-KONTUR-A
 48
25.0
100
AcDbVertex
100
AcDb2dVertex
 10
-6.351771950719808
 20
19.8017477988825
 30
0.0
  0
VERTEX
  5
1D9
330
1A5
100
AcDbEntity
  8
GEB-KONTUR-A
 48
25.0
100
AcDbVertex
100
AcDb2dVertex
 10
-6.754792332647298
 20
19.93462800975897
 30
0.0
  0
VERTEX
  5
1DA
330
1A5
100
AcDbEntity
  8
GEB-KONTUR-A
 48
25.0
100
AcDbVertex
100
AcDb2dVertex
 10
-7.14251637458608
 20
20.06922721859075
 30
0.0
  0
VERTEX
  5
1DB
330
1A5
100
AcDbEntity
  8
GEB-KONTUR-A
 48
25.0
100
AcDbVertex
100
AcDb2dVertex
 10
-7.513931393621419
 20
20.204288959466
 30
0.0
  0
VERTEX
  5
1DC
330
1A5
100
AcDbEntity
  8
GEB-KONTUR-A
 48
25.0
100
AcDbVertex
100
AcDb2dVertex
 10
-7.868023514745686
 20
20.33855199810125
 30
0.0
  0
VERTEX
  5
1DD
330
1A5
100
AcDbEntity
  8
GEB-KONTUR-A
 48
25.0
100
AcDbVertex
100
AcDb2dVertex
 10
-8.204026818273518
 20
20.47086238857366
 30
0.0
  0
VERTEX
  5
1DE
330
1A5
100
AcDbEntity
  8
GEB-KONTUR-A
 48
25.0
100
AcDbVertex
100
AcDb2dVertex
 10
-8.527736067769978
 20
20.60279846187689
 30
0.0
  0
VERTEX
  5
1DF
330
1A5
100
AcDbEntity
  8
GEB-KONTUR-A
 48
25.0
100
AcDbVertex
100
AcDb2dVertex
 10
-8.840981125829671
 20
20.73451042171575
 30
0.0
  0
VERTEX
  5
1E0
330
1A5
100
AcDbEntity
  8
GEB-KONTUR-A
 48
25.0
100
AcDbVertex
100
AcDb2dVertex
 10
-9.142434597013448
 20
20.86489915844061
 30
0.0
  0
VERTEX
  5
1E1
330
1A5
100
AcDbEntity
  8
GEB-KONTUR-A
 48
25.0
100
AcDbVertex
100
AcDb2dVertex
 10
-9.430768489835713
 20
20.99285602565863
 30
0.0
  0
VERTEX
  5
1E2
330
1A5
100
AcDbEntity
  8
GEB-KONTUR-A
 48
25.0
100
AcDbVertex
100
AcDb2dVertex
 10
-9.704656004903768
 20
21.11728191372015
 30
0.0
  0
VERTEX
  5
1E3
330
1A5
100
AcDbEntity
  8
GEB-KONTUR-A
 48
25.0
100
AcDbVertex
100
AcDb2dVertex
 10
-9.962769150732015
 20
21.23707056041815
 30
0.0
  0
VERTEX
  5
1E4
330
1A5
100
AcDbEntity
  8
GEB-KONTUR-A
 48
25.0
100
AcDbVertex
100
AcDb2dVertex
 10
-10.20377993583486
 20
21.35112047191717
 30
0.0
  0
VERTEX
  5
1E5
330
1A5
100
AcDbEntity
  8
GEB-KONTUR-A
 48
25.0
100
AcDbVertex
100
AcDb2dVertex
 10
-10.4263615608196
 20
21.45832777019598
 30
0.0
  0
VERTEX
  5
1E6
330
1A5
100
AcDbEntity
  8
GEB-KONTUR-A
 48
25.0
100
AcDbVertex
100
AcDb2dVertex
 10
-10.62918663024709
 20
21.55758619304754
 30
0.0
  0
VERTEX
  5
1E7
330
1A5
100
AcDbEntity
  8
GEB-KONTUR-A
 48
25.0
100
AcDbVertex
100
AcDb2dVertex
 10
-10.8111488819103
 20
21.64772272106268
 30
0.0
  0
VERTEX
  5
1E8
330
1A5
100
AcDbEntity
  8
GEB-KONTUR-A
 48
25.0
100
AcDbVertex
100
AcDb2dVertex
 10
-10.97198486327932
 20
21.72820806499578
 30
0.0
  0
VERTEX
  5
1E9
330
1A5
100
AcDbEntity
  8
GEB-KONTUR-A
 48
25.0
100
AcDbVertex
100
AcDb2dVertex
 10
-11.11161947250173
 20
21.79878950115301
 30
0.0
  0
VERTEX
  5
1EA
330
1A5
100
AcDbEntity
  8
GEB-KONTUR-A
 48
25.0
100
AcDbVertex
100
AcDb2dVertex
 10
-11.22997879981801
 20
21.85920953746893
 30
0.0
  0
VERTEX
  5
1EB
330
1A5
100
AcDbEntity
  8
GEB-KONTUR-A
 48
25.0
100
AcDbVertex
100
AcDb2dVertex
 10
-11.32698535918996
 20
21.90921545024969
 30
0.0
  0
VERTEX
  5
1EC
330
1A5
100
AcDbEntity
  8
GEB-KONTUR-A
 48
25.0
100
AcDbVertex
100
AcDb2dVertex
 10
-11.40256643295095
 20
21.94855213161566
 30
0.0
  0
VERTEX
  5
1ED
330
1A5
100
AcDbEntity
  8
GEB-KONTUR-A
 48
25.0
100
AcDbVertex
100
AcDb2dVertex
 10
-11.45664572715566
 20
21.97696447368719
 30
0.0
  0
VERTEX
  5
1EE
330
1A5
100
AcDbEntity
  8
GEB-KONTUR-A
 48
25.0
100
AcDbVertex
100
AcDb2dVertex
 10
-11.48914933204457
 20
21.99419975277044
 30
0.0
  0
VERTEX
  5
1EF
330
1A5
100
AcDbEntity
  8
GEB-KONTUR-A
 48
25.0
100
AcDbVertex
100
AcDb2dVertex
 10
-11.49999976157949
 20
22.00000047679998
 30
0.0
  0
SEQEND
  5
1F0
330
1A5
100
AcDbEntity
  8
GEB-KONTUR-A
 48
25.0
  0
LINE
  5
1F1
330
2
100
AcDbEntity
  8
GEB-VERDECKT
 48
25.0
100
AcDbLine
 10
-9.999999999998067
 20
23.69999999996275
 30
0.0
 11
-9.999999999998067
 21
20.49999999996282
 31
0.0
  0
LINE
  5
1F2
330
2
100
AcDbEntity
  8
GEB-VERDECKT
 48
25.0
100
AcDbLine
 10
10.00000000000193
 20
23.69999999996275
 30
0.0
 11
10.00000000000193
 21
20.49999999996282
 31
0.0
  0
POLYLINE
  5
1F3
330
2
100
AcDbEntity
  8
GEB-VERDECKT
 48
25.0
100
AcDb2dPolyline
 66
     1
 10
0.0
 20
0.0
 30
0.0
 70
   128
  0
VERTEX
  5
1F4
330
1F3
100
AcDbEntity
  8
GEB-VERDECKT
 48
25.0
100
AcDbVertex
100
AcDb2dVertex
 10
-9.999999999998067
 20
20.49999952312567
 30
0.0
  0
VERTEX
  5
1F5
330
1F3
100
AcDbEntity
  8
GEB-VERDECKT
 48
25.0
100
AcDbVertex
100
AcDb2dVertex
 10
-9.987410306928609
 20
20.49371957775213
 30
0.0
  0
VERTEX
  5
1F6
330
1F3
100
AcDbEntity
  8
GEB-VERDECKT
 48
25.0
100
AcDbVertex
100
AcDb2dVertex
 10
-9.949689507482503
 20
20.47508716579534
 30
0.0
  0
VERTEX
  5
1F7
330
1F3
100
AcDbEntity
  8
GEB-VERDECKT
 48
25.0
100
AcDbVertex
100
AcDb2dVertex
 10
-9.88691151141927
 20
20.4444217681513
 30
0.0
  0
VERTEX
  5
1F8
330
1F3
100
AcDbEntity
  8
GEB-VERDECKT
 48
25.0
100
AcDbVertex
100
AcDb2dVertex
 10
-9.799150228498433
 20
20.40204524990179
 30
0.0
  0
VERTEX
  5
1F9
330
1F3
100
AcDbEntity
  8
GEB-VERDECKT
 48
25.0
100
AcDbVertex
100
AcDb2dVertex
 10
-9.686477780340169
 20
20.34826993938543
 30
0.0
  0
VERTEX
  5
1FA
330
1F3
100
AcDbEntity
  8
GEB-VERDECKT
 48
25.0
100
AcDbVertex
100
AcDb2dVertex
 10
-9.548968672750447
 20
20.28341770168402
 30
0.0
  0
VERTEX
  5
1FB
330
1F3
100
AcDbEntity
  8
GEB-VERDECKT
 48
25.0
100
AcDbVertex
100
AcDb2dVertex
 10
-9.386696219442342
 20
20.20780563350775
 30
0.0
  0
VERTEX
  5
1FC
330
1F3
100
AcDbEntity
  8
GEB-VERDECKT
 48
25.0
100
AcDbVertex
100
AcDb2dVertex
 10
-9.199735522268269
 20
20.1217579841242
 30
0.0
  0
VERTEX
  5
1FD
330
1F3
100
AcDbEntity
  8
GEB-VERDECKT
 48
25.0
100
AcDbVertex
100
AcDb2dVertex
 10
-8.988638520238851
 20
20.02616167064764
 30
0.0
  0
VERTEX
  5
1FE
330
1F3
100
AcDbEntity
  8
GEB-VERDECKT
 48
25.0
100
AcDbVertex
100
AcDb2dVertex
 10
-8.755044341085408
 20
19.92248177524664
 30
0.0
  0
VERTEX
  5
1FF
330
1F3
100
AcDbEntity
  8
GEB-VERDECKT
 48
25.0
100
AcDbVertex
100
AcDb2dVertex
 10
-8.500734567640279
 20
19.81211900707342
 30
0.0
  0
VERTEX
  5
200
330
1F3
100
AcDbEntity
  8
GEB-VERDECKT
 48
25.0
100
AcDbVertex
100
AcDb2dVertex
 10
-8.22749316692159
 20
19.69646692272283
 30
0.0
  0
VERTEX
  5
201
330
1F3
100
AcDbEntity
  8
GEB-VERDECKT
 48
25.0
100
AcDbVertex
100
AcDb2dVertex
 10
-7.937102317808125
 20
19.5769250392542
 30
0.0
  0
VERTEX
  5
202
330
1F3
100
AcDbEntity
  8
GEB-VERDECKT
 48
25.0
100
AcDbVertex
100
AcDb2dVertex
 10
-7.631344795225118
 20
19.45488929744817
 30
0.0
  0
VERTEX
  5
203
330
1F3
100
AcDbEntity
  8
GEB-VERDECKT
 48
25.0
100
AcDbVertex
100
AcDb2dVertex
 10
-7.312003970144246
 20
19.33175563808538
 30
0.0
  0
VERTEX
  5
204
330
1F3
100
AcDbEntity
  8
GEB-VERDECKT
 48
25.0
100
AcDbVertex
100
AcDb2dVertex
 10
-6.98042809963033
 20
19.20876264568426
 30
0.0
  0
VERTEX
  5
205
330
1F3
100
AcDbEntity
  8
GEB-VERDECKT
 48
25.0
100
AcDbVertex
100
AcDb2dVertex
 10
-6.629947423933003
 20
19.08427357669927
 30
0.0
  0
VERTEX
  5
206
330
1F3
100
AcDbEntity
  8
GEB-VERDECKT
 48
25.0
100
AcDbVertex
100
AcDb2dVertex
 10
-6.258800029752705
 20
18.95866394039251
 30
0.0
  0
VERTEX
  5
207
330
1F3
100
AcDbEntity
  8
GEB-VERDECKT
 48
25.0
100
AcDbVertex
100
AcDb2dVertex
 10
-5.868388414381001
 20
18.83350133892156
 30
0.0
  0
VERTEX
  5
208
330
1F3
100
AcDbEntity
  8
GEB-VERDECKT
 48
25.0
100
AcDbVertex
100
AcDb2dVertex
 10
-5.460116267202351
 20
18.71035575862982
 30
0.0
  0
VERTEX
  5
209
330
1F3
100
AcDbEntity
  8
GEB-VERDECKT
 48
25.0
100
AcDbVertex
100
AcDb2dVertex
 10
-5.035386681554768
 20
18.59079360958196
 30
0.0
  0
VERTEX
  5
20A
330
1F3
100
AcDbEntity
  8
GEB-VERDECKT
 48
25.0
100
AcDbVertex
100
AcDb2dVertex
 10
-4.595603048799489
 20
18.47638487812139
 30
0.0
  0
VERTEX
  5
20B
330
1F3
100
AcDbEntity
  8
GEB-VERDECKT
 48
25.0
100
AcDbVertex
100
AcDb2dVertex
 10
-4.142168462274526
 20
18.36869835849859
 30
0.0
  0
VERTEX
  5
20C
330
1F3
100
AcDbEntity
  8
GEB-VERDECKT
 48
25.0
100
AcDbVertex
100
AcDb2dVertex
 10
-3.676477074621175
 20
18.26936602588751
 30
0.0
  0
VERTEX
  5
20D
330
1F3
100
AcDbEntity
  8
GEB-VERDECKT
 48
25.0
100
AcDbVertex
100
AcDb2dVertex
 10
-3.200122416017507
 20
18.18028450008489
 30
0.0
  0
VERTEX
  5
20E
330
1F3
100
AcDbEntity
  8
GEB-VERDECKT
 48
25.0
100
AcDbVertex
100
AcDb2dVertex
 10
-2.715313136575673
 20
18.10224294658758
 30
0.0
  0
VERTEX
  5
20F
330
1F3
100
AcDbEntity
  8
GEB-VERDECKT
 48
25.0
100
AcDbVertex
100
AcDb2dVertex
 10
-2.224337756631825
 20
18.03580760952093
 30
0.0
  0
VERTEX
  5
210
330
1F3
100
AcDbEntity
  8
GEB-VERDECKT
 48
25.0
100
AcDbVertex
100
AcDb2dVertex
 10
-1.729484647510503
 20
17.98153758045294
 30
0.0
  0
VERTEX
  5
211
330
1F3
100
AcDbEntity
  8
GEB-VERDECKT
 48
25.0
100
AcDbVertex
100
AcDb2dVertex
 10
-1.233042106030438
 20
17.93999791141607
 30
0.0
  0
VERTEX
  5
212
330
1F3
100
AcDbEntity
  8
GEB-VERDECKT
 48
25.0
100
AcDbVertex
100
AcDb2dVertex
 10
-0.7372986525277839
 20
17.91174888607122
 30
0.0
  0
VERTEX
  5
213
330
1F3
100
AcDbEntity
  8
GEB-VERDECKT
 48
25.0
100
AcDbVertex
100
AcDb2dVertex
 10
-0.2445426024477229
 20
17.89735555645086
 30
0.0
  0
VERTEX
  5
214
330
1F3
100
AcDbEntity
  8
GEB-VERDECKT
 48
25.0
100
AcDbVertex
100
AcDb2dVertex
 10
0.2445426024515882
 20
17.89735555645086
 30
0.0
  0
VERTEX
  5
215
330
1F3
100
AcDbEntity
  8
GEB-VERDECKT
 48
25.0
100
AcDbVertex
100
AcDb2dVertex
 10
0.7372986525316492
 20
17.91174888607122
 30
0.0
  0
VERTEX
  5
216
330
1F3
100
AcDbEntity
  8
GEB-VERDECKT
 48
25.0
100
AcDbVertex
100
AcDb2dVertex
 10
1.233042106034304
 20
17.93999791141607
 30
0.0
  0
VERTEX
  5
217
330
1F3
100
AcDbEntity
  8
GEB-VERDECKT
 48
25.0
100
AcDbVertex
100
AcDb2dVertex
 10
1.729484647514368
 20
17.98153758045294
 30
0.0
  0
VERTEX
  5
218
330
1F3
100
AcDbEntity
  8
GEB-VERDECKT
 48
25.0
100
AcDbVertex
100
AcDb2dVertex
 10
2.224337756635691
 20
18.03580760952093
 30
0.0
  0
VERTEX
  5
219
330
1F3
100
AcDbEntity
  8
GEB-VERDECKT
 48
25.0
100
AcDbVertex
100
AcDb2dVertex
 10
2.715313136579538
 20
18.10224294658758
 30
0.0
  0
VERTEX
  5
21A
330
1F3
100
AcDbEntity
  8
GEB-VERDECKT
 48
25.0
100
AcDbVertex
100
AcDb2dVertex
 10
3.200122416021372
 20
18.18028450008489
 30
0.0
  0
VERTEX
  5
21B
330
1F3
100
AcDbEntity
  8
GEB-VERDECKT
 48
25.0
100
AcDbVertex
100
AcDb2dVertex
 10
3.67647707462504
 20
18.26936602588751
 30
0.0
  0
VERTEX
  5
21C
330
1F3
100
AcDbEntity
  8
GEB-VERDECKT
 48
25.0
100
AcDbVertex
100
AcDb2dVertex
 10
4.142168462278391
 20
18.36869835849859
 30
0.0
  0
VERTEX
  5
21D
330
1F3
100
AcDbEntity
  8
GEB-VERDECKT
 48
25.0
100
AcDbVertex
100
AcDb2dVertex
 10
4.595603048803354
 20
18.47638487812139
 30
0.0
  0
VERTEX
  5
21E
330
1F3
100
AcDbEntity
  8
GEB-VERDECKT
 48
25.0
100
AcDbVertex
100
AcDb2dVertex
 10
5.035386681558634
 20
18.59079360958196
 30
0.0
  0
VERTEX
  5
21F
330
1F3
100
AcDbEntity
  8
GEB-VERDECKT
 48
25.0
100
AcDbVertex
100
AcDb2dVertex
 10
5.460116267206217
 20
18.71035575862982
 30
0.0
  0
VERTEX
  5
220
330
1F3
100
AcDbEntity
  8
GEB-VERDECKT
 48
25.0
100
AcDbVertex
100
AcDb2dVertex
 10
5.868388414384867
 20
18.83350133892156
 30
0.0
  0
VERTEX
  5
221
330
1F3
100
AcDbEntity
  8
GEB-VERDECKT
 48
25.0
100
AcDbVertex
100
AcDb2dVertex
 10
6.258800029756571
 20
18.95866394039251
 30
0.0
  0
VERTEX
  5
222
330
1F3
100
AcDbEntity
  8
GEB-VERDECKT
 48
25.0
100
AcDbVertex
100
AcDb2dVertex
 10
6.629947423936869
 20
19.08427357669927
 30
0.0
  0
VERTEX
  5
223
330
1F3
100
AcDbEntity
  8
GEB-VERDECKT
 48
25.0
100
AcDbVertex
100
AcDb2dVertex
 10
6.980428099634195
 20
19.20876264568426
 30
0.0
  0
VERTEX
  5
224
330
1F3
100
AcDbEntity
  8
GEB-VERDECKT
 48
25.0
100
AcDbVertex
100
AcDb2dVertex
 10
7.312003970148111
 20
19.33175563808538
 30
0.0
  0
VERTEX
  5
225
330
1F3
100
AcDbEntity
  8
GEB-VERDECKT
 48
25.0
100
AcDbVertex
100
AcDb2dVertex
 10
7.631344795228983
 20
19.45488929744817
 30
0.0
  0
VERTEX
  5
226
330
1F3
100
AcDbEntity
  8
GEB-VERDECKT
 48
25.0
100
AcDbVertex
100
AcDb2dVertex
 10
7.937102317811991
 20
19.5769250392542
 30
0.0
  0
VERTEX
  5
227
330
1F3
100
AcDbEntity
  8
GEB-VERDECKT
 48
25.0
100
AcDbVertex
100
AcDb2dVertex
 10
8.227493166925455
 20
19.69646692272283
 30
0.0
  0
VERTEX
  5
228
330
1F3
100
AcDbEntity
  8
GEB-VERDECKT
 48
25.0
100
AcDbVertex
100
AcDb2dVertex
 10
8.500734567644144
 20
19.81211900707342
 30
0.0
  0
VERTEX
  5
229
330
1F3
100
AcDbEntity
  8
GEB-VERDECKT
 48
25.0
100
AcDbVertex
100
AcDb2dVertex
 10
8.755044341089273
 20
19.92248177524664
 30
0.0
  0
VERTEX
  5
22A
330
1F3
100
AcDbEntity
  8
GEB-VERDECKT
 48
25.0
100
AcDbVertex
100
AcDb2dVertex
 10
8.988638520242716
 20
20.02616167064764
 30
0.0
  0
VERTEX
  5
22B
330
1F3
100
AcDbEntity
  8
GEB-VERDECKT
 48
25.0
100
AcDbVertex
100
AcDb2dVertex
 10
9.199735522272135
 20
20.1217579841242
 30
0.0
  0
VERTEX
  5
22C
330
1F3
100
AcDbEntity
  8
GEB-VERDECKT
 48
25.0
100
AcDbVertex
100
AcDb2dVertex
 10
9.386696219446207
 20
20.20780563350775
 30
0.0
  0
VERTEX
  5
22D
330
1F3
100
AcDbEntity
  8
GEB-VERDECKT
 48
25.0
100
AcDbVertex
100
AcDb2dVertex
 10
9.548968672754313
 20
20.28341770168402
 30
0.0
  0
VERTEX
  5
22E
330
1F3
100
AcDbEntity
  8
GEB-VERDECKT
 48
25.0
100
AcDbVertex
100
AcDb2dVertex
 10
9.686477780344034
 20
20.34826993938543
 30
0.0
  0
VERTEX
  5
22F
330
1F3
100
AcDbEntity
  8
GEB-VERDECKT
 48
25.0
100
AcDbVertex
100
AcDb2dVertex
 10
9.799150228502298
 20
20.40204524990179
 30
0.0
  0
VERTEX
  5
230
330
1F3
100
AcDbEntity
  8
GEB-VERDECKT
 48
25.0
100
AcDbVertex
100
AcDb2dVertex
 10
9.886911511423136
 20
20.4444217681513
 30
0.0
  0
VERTEX
  5
231
330
1F3
100
AcDbEntity
  8
GEB-VERDECKT
 48
25.0
100
AcDbVertex
100
AcDb2dVertex
 10
9.949689507486368
 20
20.47508716579534
 30
0.0
  0
VERTEX
  5
232
330
1F3
100
AcDbEntity
  8
GEB-VERDECKT
 48
25.0
100
AcDbVertex
100
AcDb2dVertex
 10
9.987410306932474
 20
20.49371957775213
 30
0.0
  0
VERTEX
  5
233
330
1F3
100
AcDbEntity
  8
GEB-VERDECKT
 48
25.0
100
AcDbVertex
100
AcDb2dVertex
 10
10.00000000000193
 20
20.49999952312567
 30
0.0
  0
SEQEND
  5
234
330
1F3
100
AcDbEntity
  8
GEB-VERDECKT
 48
25.0
  0
TEXT
  5
235
330
2
100
AcDbEntity
  8
GEB-TEXT
100
AcDbText
 10
-42.92752387448624
 20
-36.55163150397982
 30
0.0
 40
3.5
  1
T-STÜCK IG CST D42-RP1/2-42 VERZ
 72
     1
 11
0.00000000000216
 21
-36.55163150397982
 31
0.0
100
AcDbText
  0
TEXT
  5
237
330
2
100
AcDbEntity
  8
GEB-TEXT
100
AcDbText
 10
-18.07060027284913
 20
-31.05163150397982
 30
0.0
 40
3.5
  1
Geberit Mapress
 72
     1
 11
0.00000000000216
 21
-31.05163150397982
 31
0.0
100
AcDbText
  0
TEXT
  5
238
330
2
100
AcDbEntity
  8
GEB-ART-NR
100
AcDbText
 10
-22.30271024223317
 20
-42.89441275826004
 30
0.0
 40
3.5
  1
GEB-ART-NR 21316
 72
     1
 11
0.3864098123370922
 21
-42.89441275826004
 31
0.0
100
AcDbText
  0
ENDSEC
  0
SECTION
  2
OBJECTS
  0
DICTIONARY
  5
9
330
0
100
AcDbDictionary
281
     1
  3
ACAD_2007HEADERVARS_RT
350
2EF
  3
ACAD_COLOR
350
44
  3
ACAD_GROUP
350
31
  3
ACAD_LAYOUT
350
8
  3
ACAD_MATERIAL
350
13
  3
ACAD_MLEADERSTYLE
350
47
  3
ACAD_MLINESTYLE
350
32
  3
ACAD_PLOTSETTINGS
350
33
  3
ACAD_PLOTSTYLENAME
350
11
  3
ACAD_SCALELIST
350
45
  3
ACAD_TABLESTYLE
350
46
  3
ACAD_VISUALSTYLE
350
2B
  3
ACDB_RECOMPOSE_DATA
350
2EE
  3
AcDbVariableDictionary
350
298
  3
AcmDictionary
350
24B
  3
AcmSystemVariableManager
350
306
  3
AMG
350
23C
  0
DICTIONARY
  5
2C
330
28
100
AcDbDictionary
280
     1
281
     1
  0
DICTIONARY
  5
1C
330
E
100
AcDbDictionary
280
     1
281
     1
  3
ACAD_LAYERFILTERS
360
1D
  3
ACLYDICTIONARY
360
1E
  0
DICTIONARY
  5
3
330
2
100
AcDbDictionary
280
     1
281
     1
  3
ACAD_SORTENTS
360
23A
  0
DICTIONARY
  5
2EF
102
{ACAD_REACTORS
330
9
102
}
330
9
100
AcDbDictionary
281
     1
  3
DIMARCSYM
350
2F0
  3
DIMLTEX1
350
2F2
  3
DIMLTEX2
350
2F3
  3
DIMLTYPE
350
2F1
  0
DICTIONARY
  5
44
102
{ACAD_REACTORS
330
9
102
}
330
9
100
AcDbDictionary
281
     1
  0
DICTIONARY
  5
31
102
{ACAD_REACTORS
330
9
102
}
330
9
100
AcDbDictionary
281
     1
  0
DICTIONARY
  5
8
102
{ACAD_REACTORS
330
9
102
}
330
9
100
AcDbDictionary
281
     1
  3
Layout1
350
D
  3
Model
350
7
  0
DICTIONARY
  5
13
102
{ACAD_REACTORS
330
9
102
}
330
9
100
AcDbDictionary
281
     1
  3
ByBlock
350
3C
  3
ByLayer
350
34
  3
Global
350
12
  0
DICTIONARY
  5
47
102
{ACAD_REACTORS
330
9
102
}
330
9
100
AcDbDictionary
281
     1
  3
Standard
350
2B6
  0
DICTIONARY
  5
32
102
{ACAD_REACTORS
330
9
102
}
330
9
100
AcDbDictionary
281
     1
  3
Standard
350
48
  0
DICTIONARY
  5
33
102
{ACAD_REACTORS
330
9
102
}
330
9
100
AcDbDictionary
281
     1
  0
ACDBDICTIONARYWDFLT
  5
11
102
{ACAD_REACTORS
330
9
102
}
330
9
100
AcDbDictionary
281
     1
  3
Normal
350
10
100
AcDbDictionaryWithDefault
340
10
  0
DICTIONARY
  5
45
102
{ACAD_REACTORS
330
9
102
}
330
9
100
AcDbDictionary
281
     1
  3
A0
350
4D
  3
A1
350
4E
  3
A2
350
4F
  3
A3
350
50
  3
A4
350
51
  3
A5
350
52
  3
A6
350
53
  3
A7
350
54
  3
A8
350
55
  3
A9
350
56
  3
B0
350
57
  3
B1
350
58
  3
B2
350
59
  3
B3
350
5A
  3
B4
350
5B
  3
B5
350
5C
  3
B6
350
5D
  3
B7
350
5E
  3
B8
350
5F
  3
B9
350
60
  3
C0
350
61
  3
C1
350
62
  3
C2
350
63
  3
C3
350
64
  3
C4
350
65
  3
C5
350
66
  3
C6
350
67
  3
C7
350
68
  3
C8
350
69
  3
C9
350
6A
  3
D0
350
6B
  3
D1
350
6C
  3
D2
350
6D
  0
DICTIONARY
  5
46
102
{ACAD_REACTORS
330
9
102
}
330
9
100
AcDbDictionary
281
     1
  3
Standard
350
49
  0
DICTIONARY
  5
2B
102
{ACAD_REACTORS
330
9
102
}
330
9
100
AcDbDictionary
281
     1
  3
2dWireframe
350
2A
  3
Basic
350
2A5
  3
Brighten
350
2A9
  3
ColorChange
350
2AD
  3
Conceptual
350
2A7
  3
Dim
350
2A8
  3
EdgeColorOff
350
2B5
  3
Facepattern
350
2AC
  3
Flat
350
2A1
  3
FlatWithEdges
350
2A2
  3
Gouraud
350
2A3
  3
GouraudWithEdges
350
2A4
  3
Hidden
350
2A6
  3
JitterOff
350
2B3
  3
Linepattern
350
2AB
  3
OverhangOff
350
2B4
  3
Realistic
350
4B
  3
Shaded
350
2B2
  3
Shaded with edges
350
2B1
  3
Shades of Gray
350
2AE
  3
Sketchy
350
2AF
  3
Thicken
350
2AA
  3
Wireframe
350
4C
  3
X-Ray
350
2B0
  0
XRECORD
  5
2EE
102
{ACAD_REACTORS
330
9
102
}
330
9
100
AcDbXrecord
280
     1
 90
        1
330
49
  0
DICTIONARY
  5
298
102
{ACAD_REACTORS
330
9
102
}
330
9
100
AcDbDictionary
281
     1
  3
CANNOSCALE
350
29C
  3
CMLEADERSTYLE
350
29A
  3
CTABLESTYLE
350
299
  3
DIMASSOC
350
2EB
  3
HIDETEXT
350
2EA
  3
INDEXCTL
350
2E9
  3
LAYEREVAL
350
29E
  3
LAYERNOTIFY
350
29F
  3
LIGHTINGUNITS
350
29D
  3
MSLTSCALE
350
29B
  3
SORTENTS
350
2E8
  3
XCLIPFRAME
350
2EC
  0
DICTIONARY
  5
24B
102
{ACAD_REACTORS
330
9
102
}
330
9
100
AcDbDictionary
281
     1
  3
AcmStdDictionary
350
24C
  0
DICTIONARY
  5
23C
102
{ACAD_REACTORS
330
9
102
}
330
9
100
AcDbDictionary
281
     1
  3
AcMgSettings
350
246
  0
DICTIONARY
  5
1D
102
{ACAD_REACTORS
330
1C
102
}
330
1C
100
AcDbDictionary
281
     1
  0
DICTIONARY
  5
1E
102
{ACAD_REACTORS
330
1C
102
}
330
1C
100
AcDbDictionary
281
     1
1001
ACAD
1000
<All
  0
SORTENTSTABLE
  5
23A
102
{ACAD_REACTORS
330
3
102
}
330
3
100
AcDbSortentsTable
330
2
331
1A2
  5
7E
331
167
  5
160
331
19E
  5
BB
331
163
  5
164
331
19A
  5
D9
331
75
  5
1F2
331
15F
  5
168
331
196
  5
FB
331
15B
  5
16C
331
192
  5
135
331
157
  5
170
331
18E
  5
139
331
153
  5
174
331
D9
  5
19A
331
18A
  5
13D
331
14F
  5
178
331
186
  5
141
331
14B
  5
17C
331
182
  5
145
331
147
  5
180
331
17E
  5
149
331
143
  5
184
331
17A
  5
14D
331
13F
  5
188
331
13B
  5
18C
331
176
  5
151
331
FC
  5
195
331
7E
  5
1A2
331
172
  5
155
331
137
  5
190
331
16E
  5
159
331
7A
  5
1A3
331
16A
  5
15D
331
1A5
  5
78
331
166
  5
161
331
1A1
  5
7F
331
162
  5
165
331
19D
  5
D6
331
199
  5
DA
331
15E
  5
169
331
15A
  5
16D
331
195
  5
FC
331
156
  5
171
331
117
  5
194
331
DC
  5
197
331
191
  5
136
331
D8
  5
19B
331
152
  5
175
331
18D
  5
13A
331
189
  5
13E
331
14E
  5
179
331
14A
  5
17D
331
185
  5
142
331
146
  5
181
331
181
  5
146
331
142
  5
185
331
17D
  5
14A
331
1F3
  5
6E
331
179
  5
14E
331
13E
  5
189
331
13A
  5
18D
331
FB
  5
196
331
175
  5
152
331
136
  5
191
331
171
  5
156
331
132
  5
193
331
79
  5
1A4
331
16D
  5
15A
331
169
  5
15E
331
1A4
  5
79
331
1A0
  5
80
331
165
  5
162
331
19C
  5
D7
331
161
  5
166
331
77
  5
1F1
331
198
  5
DB
331
15D
  5
16A
331
A0
  5
19F
331
194
  5
117
331
159
  5
16E
331
190
  5
137
331
155
  5
172
331
DB
  5
198
331
18C
  5
13B
331
151
  5
176
331
188
  5
13F
331
D7
  5
19C
331
14D
  5
17A
331
184
  5
143
331
149
  5
17E
331
180
  5
147
331
145
  5
182
331
235
  5
238
331
17C
  5
14B
331
141
  5
186
331
1F2
  5
75
331
178
  5
14F
331
13D
  5
18A
331
80
  5
1A0
331
174
  5
153
331
139
  5
18E
331
170
  5
157
331
135
  5
192
331
BB
  5
19E
331
16C
  5
15B
331
78
  5
1A5
331
168
  5
15F
331
1A3
  5
7A
331
19F
  5
A0
331
164
  5
163
331
19B
  5
D8
331
160
  5
167
331
197
  5
DC
331
15C
  5
16B
331
193
  5
132
331
158
  5
16F
331
6E
  5
1F3
331
18F
  5
138
331
154
  5
173
331
DA
  5
199
331
18B
  5
13C
331
150
  5
177
331
D6
  5
19D
331
187
  5
140
331
14C
  5
17B
331
183
  5
144
331
148
  5
17F
331
238
  5
235
331
17F
  5
148
331
144
  5
183
331
17B
  5
14C
331
140
  5
187
331
1F1
  5
77
331
177
  5
150
331
13C
  5
18B
331
7F
  5
1A1
331
173
  5
154
331
138
  5
18F
331
16F
  5
158
331
16B
  5
15C
  0
XRECORD
  5
2F0
102
{ACAD_REACTORS
330
2EF
102
}
330
2EF
100
AcDbXrecord
280
     1
 70
     1
  0
XRECORD
  5
2F2
102
{ACAD_REACTORS
330
2EF
102
}
330
2EF
100
AcDbXrecord
280
     1
340
24
  0
XRECORD
  5
2F3
102
{ACAD_REACTORS
330
2EF
102
}
330
2EF
100
AcDbXrecord
280
     1
340
24
  0
XRECORD
  5
2F1
102
{ACAD_REACTORS
330
2EF
102
}
330
2EF
100
AcDbXrecord
280
     1
340
24
  0
LAYOUT
  5
D
102
{ACAD_XDICTIONARY
360
2F6
102
}
102
{ACAD_REACTORS
330
8
102
}
330
8
100
AcDbPlotSettings
  1

  2
\\le-server\HP LaserJet 2100
  4

  6

 40
0.0
 41
0.0
 42
0.0
 43
0.0
 44
0.0
 45
0.0
 46
0.0
 47
0.0
 48
0.0
 49
0.0
140
0.0
141
0.0
142
1.0
143
1.0
 70
   688
 72
     0
 73
     0
 74
     5
  7

 75
    16
147
1.0
148
0.0
149
0.0
100
AcDbLayout
  1
Layout1
 70
     1
 71
     1
 10
0.0
 20
0.0
 11
1189.0
 21
840.9999999999998
 12
0.0
 22
0.0
 32
0.0
 14
0.0
 24
0.0
 34
0.0
 15
1189.0
 25
840.9999999999998
 35
0.0
146
0.0
 13
0.0
 23
0.0
 33
0.0
 16
1.0
 26
0.0
 36
0.0
 17
0.0
 27
1.0
 37
0.0
 76
     0
330
A
  0
LAYOUT
  5
7
102
{ACAD_XDICTIONARY
360
2F4
102
}
102
{ACAD_REACTORS
330
8
102
}
330
8
100
AcDbPlotSettings
  1

  2
\\le-server\HP LaserJet 2100
  4

  6

 40
0.0
 41
0.0
 42
0.0
 43
0.0
 44
0.0
 45
0.0
 46
0.0
 47
0.0
 48
0.0
 49
0.0
140
0.0
141
0.0
142
1.0
143
1.0
 70
  1712
 72
     0
 73
     0
 74
     0
  7

 75
     0
147
1.0
148
0.0
149
0.0
100
AcDbLayout
  1
Model
 70
     1
 71
     0
 10
0.0
 20
0.0
 11
12.0
 21
9.0
 12
0.0
 22
0.0
 32
0.0
 14
0.0
 24
0.0
 34
0.0
 15
0.0
 25
0.0
 35
0.0
146
0.0
 13
0.0
 23
0.0
 33
0.0
 16
1.0
 26
0.0
 36
0.0
 17
0.0
 27
1.0
 37
0.0
 76
     0
330
2
331
29
  0
MATERIAL
  5
3C
102
{ACAD_XDICTIONARY
360
3D
102
}
102
{ACAD_REACTORS
330
13
102
}
330
13
100
AcDbMaterial
  1
ByBlock
 72
     0
 43
0.0208333333333333
 43
0.0
 43
0.0
 43
0.0
 43
0.0
 43
0.0208333333333333
 43
0.0
 43
0.0
 43
0.0
 43
0.0
 43
1.0
 43
0.0
 43
0.0
 43
0.0
 43
0.0
 43
1.0
 77
     0
 47
0.0208333333333333
 47
0.0
 47
0.0
 47
0.0
 47
0.0
 47
0.0208333333333333
 47
0.0
 47
0.0
 47
0.0
 47
0.0
 47
1.0
 47
0.0
 47
0.0
 47
0.0
 47
0.0
 47
1.0
171
     0
 49
0.0208333333333333
 49
0.0
 49
0.0
 49
0.0
 49
0.0
 49
0.0208333333333333
 49
0.0
 49
0.0
 49
0.0
 49
0.0
 49
1.0
 49
0.0
 49
0.0
 49
0.0
 49
0.0
 49
1.0
175
     0
142
0.0208333333333333
142
0.0
142
0.0
142
0.0
142
0.0
142
0.0208333333333333
142
0.0
142
0.0
142
0.0
142
0.0
142
1.0
142
0.0
142
0.0
142
0.0
142
0.0
142
1.0
179
     0
144
0.0208333333333333
144
0.0
144
0.0
144
0.0
144
0.0
144
0.0208333333333333
144
0.0
144
0.0
144
0.0
144
0.0
144
1.0
144
0.0
144
0.0
144
0.0
144
0.0
144
1.0
147
0.0208333333333333
147
0.0
147
0.0
147
0.0
147
0.0
147
0.0208333333333333
147
0.0
147
0.0
147
0.0
147
0.0
147
1.0
147
0.0
147
0.0
147
0.0
147
0.0
147
1.0
  0
MATERIAL
  5
34
102
{ACAD_XDICTIONARY
360
35
102
}
102
{ACAD_REACTORS
330
13
102
}
330
13
100
AcDbMaterial
  1
ByLayer
 72
     0
 43
0.0208333333333333
 43
0.0
 43
0.0
 43
0.0
 43
0.0
 43
0.0208333333333333
 43
0.0
 43
0.0
 43
0.0
 43
0.0
 43
1.0
 43
0.0
 43
0.0
 43
0.0
 43
0.0
 43
1.0
 77
     0
 47
0.0208333333333333
 47
0.0
 47
0.0
 47
0.0
 47
0.0
 47
0.0208333333333333
 47
0.0
 47
0.0
 47
0.0
 47
0.0
 47
1.0
 47
0.0
 47
0.0
 47
0.0
 47
0.0
 47
1.0
171
     0
 49
0.0208333333333333
 49
0.0
 49
0.0
 49
0.0
 49
0.0
 49
0.0208333333333333
 49
0.0
 49
0.0
 49
0.0
 49
0.0
 49
1.0
 49
0.0
 49
0.0
 49
0.0
 49
0.0
 49
1.0
175
     0
142
0.0208333333333333
142
0.0
142
0.0
142
0.0
142
0.0
142
0.0208333333333333
142
0.0
142
0.0
142
0.0
142
0.0
142
1.0
142
0.0
142
0.0
142
0.0
142
0.0
142
1.0
179
     0
144
0.0208333333333333
144
0.0
144
0.0
144
0.0
144
0.0
144
0.0208333333333333
144
0.0
144
0.0
144
0.0
144
0.0
144
1.0
144
0.0
144
0.0
144
0.0
144
0.0
144
1.0
147
0.0208333333333333
147
0.0
147
0.0
147
0.0
147
0.0
147
0.0208333333333333
147
0.0
147
0.0
147
0.0
147
0.0
147
1.0
147
0.0
147
0.0
147
0.0
147
0.0
147
1.0
  0
MATERIAL
  5
12
102
{ACAD_XDICTIONARY
360
14
102
}
102
{ACAD_REACTORS
330
13
102
}
330
13
100
AcDbMaterial
  1
Global
 72
     0
 43
0.0208333333333333
 43
0.0
 43
0.0
 43
0.0
 43
0.0
 43
0.0208333333333333
 43
0.0
 43
0.0
 43
0.0
 43
0.0
 43
1.0
 43
0.0
 43
0.0
 43
0.0
 43
0.0
 43
1.0
 77
     0
 47
0.0208333333333333
 47
0.0
 47
0.0
 47
0.0
 47
0.0
 47
0.0208333333333333
 47
0.0
 47
0.0
 47
0.0
 47
0.0
 47
1.0
 47
0.0
 47
0.0
 47
0.0
 47
0.0
 47
1.0
171
     0
 49
0.0208333333333333
 49
0.0
 49
0.0
 49
0.0
 49
0.0
 49
0.0208333333333333
 49
0.0
 49
0.0
 49
0.0
 49
0.0
 49
1.0
 49
0.0
 49
0.0
 49
0.0
 49
0.0
 49
1.0
175
     0
142
0.0208333333333333
142
0.0
142
0.0
142
0.0
142
0.0
142
0.0208333333333333
142
0.0
142
0.0
142
0.0
142
0.0
142
1.0
142
0.0
142
0.0
142
0.0
142
0.0
142
1.0
179
     0
144
0.0208333333333333
144
0.0
144
0.0
144
0.0
144
0.0
144
0.0208333333333333
144
0.0
144
0.0
144
0.0
144
0.0
144
1.0
144
0.0
144
0.0
144
0.0
144
0.0
144
1.0
147
0.0208333333333333
147
0.0
147
0.0
147
0.0
147
0.0
147
0.0208333333333333
147
0.0
147
0.0
147
0.0
147
0.0
147
1.0
147
0.0
147
0.0
147
0.0
147
0.0
147
1.0
  0
MLEADERSTYLE
  5
2B6
102
{ACAD_REACTORS
330
47
102
}
330
47
100
AcDbMLeaderStyle
170
     2
171
     1
172
     0
 90
        2
 40
0.0
 41
0.0
173
     1
 91
-1056964608
340
24
 92
       -2
290
     1
 42
2.0
291
     1
 43
0.36
  3
Standard
 44
4.0
300

342
21
174
     1
178
     6
175
     1
176
     0
 93
-1056964608
 45
4.0
292
     0
297
     0
 46
4.0
 94
-1056964608
 47
1.0
 49
1.0
140
1.0
293
     1
141
0.0
294
     1
177
     0
142
1.0
295
     0
296
     0
143
0.125
1001
ACAD_MLEADERVER
1070
     2
  0
MLINESTYLE
  5
48
102
{ACAD_REACTORS
330
32
102
}
330
32
100
AcDbMlineStyle
  2
STANDARD
 70
     0
  3

 62
   256
 51
90.0
 52
90.0
 71
     2
 49
0.5
 62
   256
  6
BYLAYER
 49
-0.5
 62
   256
  6
BYLAYER
  0
ACDBPLACEHOLDER
  5
10
102
{ACAD_REACTORS
330
11
102
}
330
11
  0
SCALE
  5
4D
102
{ACAD_REACTORS
330
45
102
}
330
45
100
AcDbScale
 70
     0
300
1:1
140
1.0
141
1.0
290
     1
  0
SCALE
  5
4E
102
{ACAD_REACTORS
330
45
102
}
330
45
100
AcDbScale
 70
     0
300
1:2
140
1.0
141
2.0
290
     0
  0
SCALE
  5
4F
102
{ACAD_REACTORS
330
45
102
}
330
45
100
AcDbScale
 70
     0
300
1:4
140
1.0
141
4.0
290
     0
  0
SCALE
  5
50
102
{ACAD_REACTORS
330
45
102
}
330
45
100
AcDbScale
 70
     0
300
1:5
140
1.0
141
5.0
290
     0
  0
SCALE
  5
51
102
{ACAD_REACTORS
330
45
102
}
330
45
100
AcDbScale
 70
     0
300
1:8
140
1.0
141
8.0
290
     0
  0
SCALE
  5
52
102
{ACAD_REACTORS
330
45
102
}
330
45
100
AcDbScale
 70
     0
300
1:10
140
1.0
141
10.0
290
     0
  0
SCALE
  5
53
102
{ACAD_REACTORS
330
45
102
}
330
45
100
AcDbScale
 70
     0
300
1:16
140
1.0
141
16.0
290
     0
  0
SCALE
  5
54
102
{ACAD_REACTORS
330
45
102
}
330
45
100
AcDbScale
 70
     0
300
1:20
140
1.0
141
20.0
290
     0
  0
SCALE
  5
55
102
{ACAD_REACTORS
330
45
102
}
330
45
100
AcDbScale
 70
     0
300
1:30
140
1.0
141
30.0
290
     0
  0
SCALE
  5
56
102
{ACAD_REACTORS
330
45
102
}
330
45
100
AcDbScale
 70
     0
300
1:40
140
1.0
141
40.0
290
     0
  0
SCALE
  5
57
102
{ACAD_REACTORS
330
45
102
}
330
45
100
AcDbScale
 70
     0
300
1:50
140
1.0
141
50.0
290
     0
  0
SCALE
  5
58
102
{ACAD_REACTORS
330
45
102
}
330
45
100
AcDbScale
 70
     0
300
1:100
140
1.0
141
100.0
290
     0
  0
SCALE
  5
59
102
{ACAD_REACTORS
330
45
102
}
330
45
100
AcDbScale
 70
     0
300
2:1
140
2.0
141
1.0
290
     0
  0
SCALE
  5
5A
102
{ACAD_REACTORS
330
45
102
}
330
45
100
AcDbScale
 70
     0
300
4:1
140
4.0
141
1.0
290
     0
  0
SCALE
  5
5B
102
{ACAD_REACTORS
330
45
102
}
330
45
100
AcDbScale
 70
     0
300
8:1
140
8.0
141
1.0
290
     0
  0
SCALE
  5
5C
102
{ACAD_REACTORS
330
45
102
}
330
45
100
AcDbScale
 70
     0
300
10:1
140
10.0
141
1.0
290
     0
  0
SCALE
  5
5D
102
{ACAD_REACTORS
330
45
102
}
330
45
100
AcDbScale
 70
     0
300
100:1
140
100.0
141
1.0
290
     0
  0
SCALE
  5
5E
102
{ACAD_REACTORS
330
45
102
}
330
45
100
AcDbScale
 70
     0
300
1/128" = 1'-0"
140
0.0078125
141
12.0
290
     0
  0
SCALE
  5
5F
102
{ACAD_REACTORS
330
45
102
}
330
45
100
AcDbScale
 70
     0
300
1/64" = 1'-0"
140
0.015625
141
12.0
290
     0
  0
SCALE
  5
60
102
{ACAD_REACTORS
330
45
102
}
330
45
100
AcDbScale
 70
     0
300
1/32" = 1'-0"
140
0.03125
141
12.0
290
     0
  0
SCALE
  5
61
102
{ACAD_REACTORS
330
45
102
}
330
45
100
AcDbScale
 70
     0
300
1/16" = 1'-0"
140
0.0625
141
12.0
290
     0
  0
SCALE
  5
62
102
{ACAD_REACTORS
330
45
102
}
330
45
100
AcDbScale
 70
     0
300
3/32" = 1'-0"
140
0.09375
141
12.0
290
     0
  0
SCALE
  5
63
102
{ACAD_REACTORS
330
45
102
}
330
45
100
AcDbScale
 70
     0
300
1/8" = 1'-0"
140
0.125
141
12.0
290
     0
  0
SCALE
  5
64
102
{ACAD_REACTORS
330
45
102
}
330
45
100
AcDbScale
 70
     0
300
3/16" = 1'-0"
140
0.1875
141
12.0
290
     0
  0
SCALE
  5
65
102
{ACAD_REACTORS
330
45
102
}
330
45
100
AcDbScale
 70
     0
300
1/4" = 1'-0"
140
0.25
141
12.0
290
     0
  0
SCALE
  5
66
102
{ACAD_REACTORS
330
45
102
}
330
45
100
AcDbScale
 70
     0
300
3/8" = 1'-0"
140
0.375
141
12.0
290
     0
  0
SCALE
  5
67
102
{ACAD_REACTORS
330
45
102
}
330
45
100
AcDbScale
 70
     0
300
1/2" = 1'-0"
140
0.5
141
12.0
290
     0
  0
SCALE
  5
68
102
{ACAD_REACTORS
330
45
102
}
330
45
100
AcDbScale
 70
     0
300
3/4" = 1'-0"
140
0.75
141
12.0
290
     0
  0
SCALE
  5
69
102
{ACAD_REACTORS
330
45
102
}
330
45
100
AcDbScale
 70
     0
300
1" = 1'-0"
140
1.0
141
12.0
290
     0
  0
SCALE
  5
6A
102
{ACAD_REACTORS
330
45
102
}
330
45
100
AcDbScale
 70
     0
300
1-1/2" = 1'-0"
140
1.5
141
12.0
290
     0
  0
SCALE
  5
6B
102
{ACAD_REACTORS
330
45
102
}
330
45
100
AcDbScale
 70
     0
300
3" = 1'-0"
140
3.0
141
12.0
290
     0
  0
SCALE
  5
6C
102
{ACAD_REACTORS
330
45
102
}
330
45
100
AcDbScale
 70
     0
300
6" = 1'-0"
140
6.0
141
12.0
290
     0
  0
SCALE
  5
6D
102
{ACAD_REACTORS
330
45
102
}
330
45
100
AcDbScale
 70
     0
300
1'-0" = 1'-0"
140
12.0
141
12.0
290
     0
  0
TABLESTYLE
  5
49
102
{ACAD_XDICTIONARY
360
4A
102
}
102
{ACAD_REACTORS
330
46
102
}
330
46
100
AcDbTableStyle
  3
Standard
 70
     0
 71
     0
 40
0.06
 41
0.06
280
     0
281
     0
  7
STANDARD
140
0.18
170
     2
 62
     0
 63
     7
283
     0
274
    -2
284
     1
 64
     0
275
    -2
285
     1
 65
     0
276
    -2
286
     1
 66
     0
277
    -2
287
     1
 67
     0
278
    -2
288
     1
 68
     0
279
    -2
289
     1
 69
     0
  7
STANDARD
140
0.25
170
     5
 62
     0
 63
     7
283
     0
274
    -2
284
     1
 64
     0
275
    -2
285
     1
 65
     0
276
    -2
286
     1
 66
     0
277
    -2
287
     1
 67
     0
278
    -2
288
     1
 68
     0
279
    -2
289
     1
 69
     0
  7
STANDARD
140
0.18
170
     5
 62
     0
 63
     7
283
     0
274
    -2
284
     1
 64
     0
275
    -2
285
     1
 65
     0
276
    -2
286
     1
 66
     0
277
    -2
287
     1
 67
     0
278
    -2
288
     1
 68
     0
279
    -2
289
     1
 69
     0
  0
VISUALSTYLE
  5
2A
102
{ACAD_XDICTIONARY
360
2F9
102
}
102
{ACAD_REACTORS
330
2B
102
}
330
2B
100
AcDbVisualStyle
  2
2dWireframe
 70
     4
 71
     0
 72
     2
 73
     0
 90
        0
 40
-0.6
 41
-30.0
 62
     5
 63
     7
 74
     1
 91
        4
 64
     7
 65
   257
 75
     1
175
     1
 42
1.0
 92
        0
 66
   257
 43
1.0
 76
     1
 77
     6
 78
     2
 67
     7
 79
     5
170
     0
171
     0
290
     0
174
     0
 93
        1
 44
0.0
173
     0
291
     0
 45
0.0
1001
ACAD
1000
AcDbSavedByObjectVersion
1070
     0
  0
VISUALSTYLE
  5
2A5
102
{ACAD_XDICTIONARY
360
310
102
}
102
{ACAD_REACTORS
330
2B
102
}
330
2B
100
AcDbVisualStyle
  2
Basic
 70
     7
 71
     1
 72
     0
 73
     1
 90
        0
 40
-0.6
 41
-30.0
 62
     5
 63
     7
 74
     0
 91
        4
 64
     7
 65
   257
 75
     1
175
     1
 42
1.0
 92
        8
 66
     7
 43
1.0
 76
     1
 77
     6
 78
     2
 67
     7
 79
     5
170
     0
171
     0
290
     0
174
     0
 93
        1
 44
0.0
173
     0
291
     1
 45
0.0
1001
ACAD
1000
AcDbSavedByObjectVersion
1070
     0
  0
VISUALSTYLE
  5
2A9
102
{ACAD_XDICTIONARY
360
318
102
}
102
{ACAD_REACTORS
330
2B
102
}
330
2B
100
AcDbVisualStyle
  2
Brighten
 70
    12
 71
     2
 72
     2
 73
     0
 90
        0
 40
-0.6
 41
-30.0
 62
     5
 63
     7
 74
     1
 91
        4
 64
     7
 65
   257
 75
     1
175
     1
 42
1.0
 92
        8
 66
     7
 43
1.0
 76
     1
 77
     6
 78
     2
 67
     7
 79
     5
170
     0
171
     0
290
     0
174
     0
 93
        1
 44
50.0
173
     0
291
     1
 45
0.0
1001
ACAD
1000
AcDbSavedByObjectVersion
1070
     0
  0
VISUALSTYLE
  5
2AD
102
{ACAD_XDICTIONARY
360
320
102
}
102
{ACAD_REACTORS
330
2B
102
}
330
2B
100
AcDbVisualStyle
  2
ColorChange
 70
    16
 71
     2
 72
     2
 73
     3
 90
        0
 40
-0.6
 41
-30.0
 62
     5
 63
     8
 74
     1
 91
        4
 64
     7
 65
   257
 75
     1
175
     1
 42
1.0
 92
        8
 66
     8
 43
1.0
 76
     1
 77
     6
 78
     2
 67
     7
 79
     5
170
     0
171
     0
290
     0
174
     0
 93
        1
 44
0.0
173
     0
291
     1
 45
0.0
1001
ACAD
1000
AcDbSavedByObjectVersion
1070
     0
  0
VISUALSTYLE
  5
2A7
102
{ACAD_XDICTIONARY
360
314
102
}
102
{ACAD_REACTORS
330
2B
102
}
330
2B
100
AcDbVisualStyle
  2
Conceptual
 70
     9
 71
     3
 72
     2
 73
     0
 90
        0
 40
-0.6
 41
-30.0
 62
     5
 63
     7
 74
     2
 91
        2
 64
     7
 65
   257
 75
     1
175
     1
 42
179.0
 92
        8
 66
     7
 43
1.0
 76
     1
 77
     6
 78
     2
 67
     7
 79
     3
170
     0
171
     0
290
     0
174
     0
 93
        1
 44
0.0
173
     0
291
     0
 45
0.0
1001
ACAD
1000
AcDbSavedByObjectVersion
1070
     0
  0
VISUALSTYLE
  5
2A8
102
{ACAD_XDICTIONARY
360
316
102
}
102
{ACAD_REACTORS
330
2B
102
}
330
2B
100
AcDbVisualStyle
  2
Dim
 70
    11
 71
     2
 72
     2
 73
     0
 90
        0
 40
-0.6
 41
-30.0
 62
     5
 63
     7
 74
     1
 91
        4
 64
     7
 65
   257
 75
     1
175
     1
 42
1.0
 92
        8
 66
     7
 43
1.0
 76
     1
 77
     6
 78
     2
 67
     7
 79
     5
170
     0
171
     0
290
     0
174
     0
 93
        1
 44
-50.0
173
     0
291
     1
 45
0.0
1001
ACAD
1000
AcDbSavedByObjectVersion
1070
     0
  0
VISUALSTYLE
  5
2B5
102
{ACAD_XDICTIONARY
360
330
102
}
102
{ACAD_REACTORS
330
2B
102
}
330
2B
100
AcDbVisualStyle
  2
EdgeColorOff
 70
    22
 71
     2
 72
     2
 73
     0
 90
        0
 40
-0.6
 41
-30.0
 62
     5
 63
     7
 74
     1
 91
        4
 64
     7
 65
   257
 75
     1
175
     1
 42
1.0
 92
        8
 66
     7
 43
1.0
 76
     1
 77
     6
 78
     2
 67
     7
 79
     5
170
     0
171
     0
290
     0
174
     0
 93
        1
 44
0.0
173
     0
291
     1
 45
0.0
1001
ACAD
1000
AcDbSavedByObjectVersion
1070
     0
  0
VISUALSTYLE
  5
2AC
102
{ACAD_XDICTIONARY
360
31E
102
}
102
{ACAD_REACTORS
330
2B
102
}
330
2B
100
AcDbVisualStyle
  2
Facepattern
 70
    15
 71
     2
 72
     2
 73
     0
 90
        0
 40
-0.6
 41
-30.0
 62
     5
 63
     7
 74
     1
 91
        4
 64
     7
 65
   257
 75
     1
175
     1
 42
1.0
 92
        8
 66
     7
 43
1.0
 76
     1
 77
     6
 78
     2
 67
     7
 79
     5
170
     0
171
     0
290
     0
174
     0
 93
        1
 44
0.0
173
     0
291
     1
 45
0.0
1001
ACAD
1000
AcDbSavedByObjectVersion
1070
     0
  0
VISUALSTYLE
  5
2A1
102
{ACAD_XDICTIONARY
360
308
102
}
102
{ACAD_REACTORS
330
2B
102
}
330
2B
100
AcDbVisualStyle
  2
Flat
 70
     0
 71
     2
 72
     1
 73
     1
 90
        2
 40
-0.6
 41
30.0
 62
     5
 63
     7
 74
     0
 91
        0
 64
     7
 65
   257
 75
     1
175
     1
 42
1.0
 92
        8
 66
     7
 43
1.0
 76
     1
 77
     6
 78
     2
 67
     7
 79
     5
170
     0
171
     0
290
     0
174
     0
 93
       13
 44
0.0
173
     0
291
     1
 45
0.0
1001
ACAD
1000
AcDbSavedByObjectVersion
1070
     0
  0
VISUALSTYLE
  5
2A2
102
{ACAD_XDICTIONARY
360
30A
102
}
102
{ACAD_REACTORS
330
2B
102
}
330
2B
100
AcDbVisualStyle
  2
FlatWithEdges
 70
     1
 71
     2
 72
     1
 73
     1
 90
        2
 40
-0.6
 41
30.0
 62
     5
 63
     7
 74
     1
 91
        0
 64
     7
 65
   257
 75
     1
175
     1
 42
1.0
 92
        0
 66
   257
 43
1.0
 76
     1
 77
     6
 78
     2
 67
     7
 79
     5
170
     0
171
     0
290
     0
174
     0
 93
       13
 44
0.0
173
     0
291
     1
 45
0.0
1001
ACAD
1000
AcDbSavedByObjectVersion
1070
     0
  0
VISUALSTYLE
  5
2A3
102
{ACAD_XDICTIONARY
360
30C
102
}
102
{ACAD_REACTORS
330
2B
102
}
330
2B
100
AcDbVisualStyle
  2
Gouraud
 70
     2
 71
     2
 72
     2
 73
     1
 90
        2
 40
-0.6
 41
30.0
 62
     5
 63
     7
 74
     0
 91
        0
 64
     7
 65
   257
 75
     1
175
     1
 42
1.0
 92
        0
 66
     7
 43
1.0
 76
     1
 77
     6
 78
     2
 67
     7
 79
     5
170
     0
171
     0
290
     0
174
     0
 93
       13
 44
0.0
173
     0
291
     1
 45
0.0
1001
ACAD
1000
AcDbSavedByObjectVersion
1070
     0
  0
VISUALSTYLE
  5
2A4
102
{ACAD_XDICTIONARY
360
30E
102
}
102
{ACAD_REACTORS
330
2B
102
}
330
2B
100
AcDbVisualStyle
  2
GouraudWithEdges
 70
     3
 71
     2
 72
     2
 73
     1
 90
        2
 40
-0.6
 41
30.0
 62
     5
 63
     7
 74
     1
 91
        0
 64
     7
 65
   257
 75
     1
175
     1
 42
1.0
 92
        0
 66
   257
 43
1.0
 76
     1
 77
     6
 78
     2
 67
     7
 79
     5
170
     0
171
     0
290
     0
174
     0
 93
       13
 44
0.0
173
     0
291
     1
 45
0.0
1001
ACAD
1000
AcDbSavedByObjectVersion
1070
     0
  0
VISUALSTYLE
  5
2A6
102
{ACAD_XDICTIONARY
360
312
102
}
102
{ACAD_REACTORS
330
2B
102
}
330
2B
100
AcDbVisualStyle
  2
Hidden
 70
     6
 71
     1
 72
     2
 73
     2
 90
        0
 40
-0.6
 41
-30.0
 62
     5
 63
     7
 74
     2
 91
        2
 64
     7
 65
   257
 75
     2
175
     1
 42
40.0
 92
        0
 66
   257
 43
1.0
 76
     1
 77
     6
 78
     2
 67
     7
 79
     3
170
     0
171
     0
290
     0
174
     0
 93
        1
 44
0.0
173
     0
291
     0
 45
0.0
1001
ACAD
1000
AcDbSavedByObjectVersion
1070
     0
  0
VISUALSTYLE
  5
2B3
102
{ACAD_XDICTIONARY
360
32C
102
}
102
{ACAD_REACTORS
330
2B
102
}
330
2B
100
AcDbVisualStyle
  2
JitterOff
 70
    20
 71
     2
 72
     2
 73
     0
 90
        0
 40
-0.6
 41
-30.0
 62
     5
 63
     7
 74
     1
 91
        4
 64
     7
 65
   257
 75
     1
175
     1
 42
1.0
 92
       10
 66
     7
 43
1.0
 76
     1
 77
     6
 78
     2
 67
     7
 79
     5
170
     0
171
     0
290
     0
174
     0
 93
        1
 44
0.0
173
     0
291
     1
 45
0.0
1001
ACAD
1000
AcDbSavedByObjectVersion
1070
     0
  0
VISUALSTYLE
  5
2AB
102
{ACAD_XDICTIONARY
360
31C
102
}
102
{ACAD_REACTORS
330
2B
102
}
330
2B
100
AcDbVisualStyle
  2
Linepattern
 70
    14
 71
     2
 72
     2
 73
     0
 90
        0
 40
-0.6
 41
-30.0
 62
     5
 63
     7
 74
     1
 91
        4
 64
     7
 65
   257
 75
     7
175
     7
 42
1.0
 92
        8
 66
     7
 43
1.0
 76
     1
 77
     6
 78
     2
 67
     7
 79
     5
170
     0
171
     0
290
     0
174
     0
 93
        1
 44
0.0
173
     0
291
     1
 45
0.0
1001
ACAD
1000
AcDbSavedByObjectVersion
1070
     0
  0
VISUALSTYLE
  5
2B4
102
{ACAD_XDICTIONARY
360
32E
102
}
102
{ACAD_REACTORS
330
2B
102
}
330
2B
100
AcDbVisualStyle
  2
OverhangOff
 70
    21
 71
     2
 72
     2
 73
     0
 90
        0
 40
-0.6
 41
-30.0
 62
     5
 63
     7
 74
     1
 91
        4
 64
     7
 65
   257
 75
     1
175
     1
 42
1.0
 92
        9
 66
     7
 43
1.0
 76
     1
 77
     6
 78
     2
 67
     7
 79
     5
170
     0
171
     0
290
     0
174
     0
 93
        1
 44
0.0
173
     0
291
     1
 45
0.0
1001
ACAD
1000
AcDbSavedByObjectVersion
1070
     0
  0
VISUALSTYLE
  5
4B
102
{ACAD_XDICTIONARY
360
2FE
102
}
102
{ACAD_REACTORS
330
2B
102
}
330
2B
100
AcDbVisualStyle
  2
Realistic
 70
     8
 71
     2
 72
     2
 73
     0
 90
        0
 40
-0.6
 41
-30.0
 62
     5
 63
     7
 74
     1
 91
        0
 64
     7
 65
   257
 75
     1
175
     1
 42
1.0
 92
        8
 66
     8
 43
1.0
 76
     1
 77
     6
 78
     2
 67
     7
 79
     5
170
     0
171
     0
290
     0
174
     0
 93
       13
 44
0.0
173
     0
291
     0
 45
0.0
1001
ACAD
1000
AcDbSavedByObjectVersion
1070
     0
  0
VISUALSTYLE
  5
2B2
102
{ACAD_XDICTIONARY
360
32A
102
}
102
{ACAD_REACTORS
330
2B
102
}
330
2B
100
AcDbVisualStyle
  2
Shaded
 70
    27
 71
     2
 72
     2
 73
     1
 90
        2
 40
-0.6
 41
30.0
 62
     5
 63
     7
 74
     0
 91
        4
 64
     7
 65
   257
 75
     1
175
     1
 42
1.0
 92
        8
 66
   257
 43
1.0
 76
     1
 77
     6
 78
     2
 67
     8
 79
     3
170
     0
171
     0
290
     0
174
     0
 93
        5
 44
0.0
173
     0
291
     0
 45
0.0
1001
ACAD
1000
AcDbSavedByObjectVersion
1070
     0
  0
VISUALSTYLE
  5
2B1
102
{ACAD_XDICTIONARY
360
328
102
}
102
{ACAD_REACTORS
330
2B
102
}
330
2B
100
AcDbVisualStyle
  2
Shaded with edges
 70
    26
 71
     2
 72
     2
 73
     1
 90
        2
 40
-0.6
 41
30.0
 62
     5
 63
     7
 74
     1
 91
       10
 64
     7
 65
   257
 75
     2
175
     1
 42
1.0
 92
        8
 66
   257
 43
1.0
 76
     1
 77
     6
 78
     2
 67
     7
 79
     3
170
     0
171
     0
290
     0
174
     0
 93
        5
 44
0.0
173
     0
291
     0
 45
0.0
1001
ACAD
1000
AcDbSavedByObjectVersion
1070
     0
  0
VISUALSTYLE
  5
2AE
102
{ACAD_XDICTIONARY
360
322
102
}
102
{ACAD_REACTORS
330
2B
102
}
330
2B
100
AcDbVisualStyle
  2
Shades of Gray
 70
    23
 71
     2
 72
     2
 73
     3
 90
        0
 40
-0.6
 41
-30.0
 62
     5
 63
     7
 74
     2
 91
        2
 64
     7
 65
     7
 75
     1
175
     1
 42
40.0
 92
        8
 66
     7
 43
1.0
 76
     1
 77
     6
 78
     2
 67
     7
 79
     3
170
     0
171
     0
290
     0
174
     0
 93
        1
 44
0.0
173
     0
291
     0
 45
0.0
1001
ACAD
1000
AcDbSavedByObjectVersion
1070
     0
  0
VISUALSTYLE
  5
2AF
102
{ACAD_XDICTIONARY
360
324
102
}
102
{ACAD_REACTORS
330
2B
102
}
330
2B
100
AcDbVisualStyle
  2
Sketchy
 70
    24
 71
     1
 72
     2
 73
     2
 90
        0
 40
-0.6
 41
-30.0
 62
     5
 63
     7
 74
     2
 91
        2
 64
     7
 65
     7
 75
     1
175
     1
 42
40.0
 92
       11
 66
     7
 43
1.0
 76
     1
 77
     6
 78
     2
 67
     7
 79
     6
170
     0
171
     0
290
     0
174
     0
 93
        1
 44
0.0
173
     0
291
     0
 45
0.0
1001
ACAD
1000
AcDbSavedByObjectVersion
1070
     0
  0
VISUALSTYLE
  5
2AA
102
{ACAD_XDICTIONARY
360
31A
102
}
102
{ACAD_REACTORS
330
2B
102
}
330
2B
100
AcDbVisualStyle
  2
Thicken
 70
    13
 71
     2
 72
     2
 73
     0
 90
        0
 40
-0.6
 41
-30.0
 62
     5
 63
     7
 74
     1
 91
        4
 64
     7
 65
   257
 75
     1
175
     1
 42
1.0
 92
       12
 66
     7
 43
1.0
 76
     1
 77
     6
 78
     2
 67
     7
 79
     5
170
     0
171
     0
290
     0
174
     0
 93
        1
 44
0.0
173
     0
291
     1
 45
0.0
1001
ACAD
1000
AcDbSavedByObjectVersion
1070
     0
  0
VISUALSTYLE
  5
4C
102
{ACAD_XDICTIONARY
360
300
102
}
102
{ACAD_REACTORS
330
2B
102
}
330
2B
100
AcDbVisualStyle
  2
Wireframe
 70
     5
 71
     0
 72
     2
 73
     0
 90
        0
 40
-0.6
 41
-30.0
 62
     5
 63
     7
 74
     1
 91
        4
 64
     7
 65
   257
 75
     1
175
     1
 42
1.0
 92
        0
 66
   257
 43
1.0
 76
     1
 77
     6
 78
     2
 67
     7
 79
     3
170
     0
171
     0
290
     0
174
     0
 93
        1
 44
0.0
173
     0
291
     0
 45
0.0
1001
ACAD
1000
AcDbSavedByObjectVersion
1070
     0
  0
VISUALSTYLE
  5
2B0
102
{ACAD_XDICTIONARY
360
326
102
}
102
{ACAD_REACTORS
330
2B
102
}
330
2B
100
AcDbVisualStyle
  2
X-Ray
 70
    25
 71
     2
 72
     2
 73
     1
 90
        1
 40
0.5
 41
-30.0
 62
     5
 63
     7
 74
     1
 91
        0
 64
     7
 65
   257
 75
     1
175
     1
 42
1.0
 92
        8
 66
     7
 43
1.0
 76
     1
 77
     6
 78
     2
 67
     7
 79
     3
170
     0
171
     0
290
     0
174
     0
 93
       13
 44
0.0
173
     0
291
     0
 45
0.0
1001
ACAD
1000
AcDbSavedByObjectVersion
1070
     0
  0
DICTIONARYVAR
  5
29C
102
{ACAD_REACTORS
330
298
102
}
330
298
100
DictionaryVariables
280
     0
  1
1:1
  0
DICTIONARYVAR
  5
29A
102
{ACAD_REACTORS
330
298
102
}
330
298
100
DictionaryVariables
280
     0
  1
STANDARD
  0
DICTIONARYVAR
  5
299
102
{ACAD_REACTORS
330
298
102
}
330
298
100
DictionaryVariables
280
     0
  1
STANDARD
  0
DICTIONARYVAR
  5
2EB
102
{ACAD_REACTORS
330
298
102
}
330
298
100
DictionaryVariables
280
     0
  1
1
  0
DICTIONARYVAR
  5
2EA
102
{ACAD_REACTORS
330
298
102
}
330
298
100
DictionaryVariables
280
     0
  1
1
  0
DICTIONARYVAR
  5
2E9
102
{ACAD_REACTORS
330
298
102
}
330
298
100
DictionaryVariables
280
     0
  1
0
  0
DICTIONARYVAR
  5
29E
102
{ACAD_REACTORS
330
298
102
}
330
298
100
DictionaryVariables
280
     0
  1
1
  0
DICTIONARYVAR
  5
29F
102
{ACAD_REACTORS
330
298
102
}
330
298
100
DictionaryVariables
280
     0
  1
15
  0
DICTIONARYVAR
  5
29D
102
{ACAD_REACTORS
330
298
102
}
330
298
100
DictionaryVariables
280
     0
  1
0
  0
DICTIONARYVAR
  5
29B
102
{ACAD_REACTORS
330
298
102
}
330
298
100
DictionaryVariables
280
     0
  1
0
  0
DICTIONARYVAR
  5
2E8
102
{ACAD_REACTORS
330
298
102
}
330
298
100
DictionaryVariables
280
     0
  1
127
  0
DICTIONARYVAR
  5
2EC
102
{ACAD_REACTORS
330
298
102
}
330
298
100
DictionaryVariables
280
     0
  1
2
  0
DICTIONARY
  5
24C
102
{ACAD_REACTORS
330
24B
102
}
330
24B
100
AcDbDictionary
281
     1
  0
DICTIONARY
  5
246
102
{ACAD_REACTORS
330
23C
102
}
330
23C
100
AcDbDictionary
281
     1
  3
DWGSETTINGS
350
245
  3
TRANSSETTINGS
350
247
  0
DICTIONARY
  5
2F6
330
D
100
AcDbDictionary
280
     1
281
     1
  3
ACAD_XREC_ROUNDTRIP
360
2F7
  0
DICTIONARY
  5
2F4
330
7
100
AcDbDictionary
280
     1
281
     1
  3
ACAD_XREC_ROUNDTRIP
360
2F5
  0
DICTIONARY
  5
3D
330
3C
100
AcDbDictionary
280
     1
281
     1
  3
ACAD_XREC_ROUNDTRIP
360
2FC
  3
BUMPTILE
360
3E
  3
DIFFUSETILE
360
3F
  3
OPACITYTILE
360
40
  3
REFLECTIONTILE
360
41
  3
REFRACTIONTILE
360
42
  3
SPECULARTILE
360
43
  0
DICTIONARY
  5
35
330
34
100
AcDbDictionary
280
     1
281
     1
  3
ACAD_XREC_ROUNDTRIP
360
2FB
  3
BUMPTILE
360
36
  3
DIFFUSETILE
360
37
  3
OPACITYTILE
360
38
  3
REFLECTIONTILE
360
39
  3
REFRACTIONTILE
360
3A
  3
SPECULARTILE
360
3B
  0
DICTIONARY
  5
14
330
12
100
AcDbDictionary
280
     1
281
     1
  3
ACAD_XREC_ROUNDTRIP
360
2F8
  3
BUMPTILE
360
15
  3
DIFFUSETILE
360
16
  3
OPACITYTILE
360
17
  3
REFLECTIONTILE
360
18
  3
REFRACTIONTILE
360
19
  3
SPECULARTILE
360
1A
  0
DICTIONARY
  5
4A
330
49
100
AcDbDictionary
280
     1
281
     1
  3
ACAD_ROUNDTRIP_2008_TABLESTYLE_CELLSTYLEMAP
360
2ED
  3
ACAD_XREC_ROUNDTRIP
360
2FD
  0
DICTIONARY
  5
2F9
330
2A
100
AcDbDictionary
280
     1
281
     1
  3
ACAD_XREC_ROUNDTRIP
360
2FA
  0
DICTIONARY
  5
310
330
2A5
100
AcDbDictionary
280
     1
281
     1
  3
ACAD_XREC_ROUNDTRIP
360
311
  0
DICTIONARY
  5
318
330
2A9
100
AcDbDictionary
280
     1
281
     1
  3
ACAD_XREC_ROUNDTRIP
360
319
  0
DICTIONARY
  5
320
330
2AD
100
AcDbDictionary
280
     1
281
     1
  3
ACAD_XREC_ROUNDTRIP
360
321
  0
DICTIONARY
  5
314
330
2A7
100
AcDbDictionary
280
     1
281
     1
  3
ACAD_XREC_ROUNDTRIP
360
315
  0
DICTIONARY
  5
316
330
2A8
100
AcDbDictionary
280
     1
281
     1
  3
ACAD_XREC_ROUNDTRIP
360
317
  0
DICTIONARY
  5
330
330
2B5
100
AcDbDictionary
280
     1
281
     1
  3
ACAD_XREC_ROUNDTRIP
360
331
  0
DICTIONARY
  5
31E
330
2AC
100
AcDbDictionary
280
     1
281
     1
  3
ACAD_XREC_ROUNDTRIP
360
31F
  0
DICTIONARY
  5
308
330
2A1
100
AcDbDictionary
280
     1
281
     1
  3
ACAD_XREC_ROUNDTRIP
360
309
  0
DICTIONARY
  5
30A
330
2A2
100
AcDbDictionary
280
     1
281
     1
  3
ACAD_XREC_ROUNDTRIP
360
30B
  0
DICTIONARY
  5
30C
330
2A3
100
AcDbDictionary
280
     1
281
     1
  3
ACAD_XREC_ROUNDTRIP
360
30D
  0
DICTIONARY
  5
30E
330
2A4
100
AcDbDictionary
280
     1
281
     1
  3
ACAD_XREC_ROUNDTRIP
360
30F
  0
DICTIONARY
  5
312
330
2A6
100
AcDbDictionary
280
     1
281
     1
  3
ACAD_XREC_ROUNDTRIP
360
313
  0
DICTIONARY
  5
32C
330
2B3
100
AcDbDictionary
280
     1
281
     1
  3
ACAD_XREC_ROUNDTRIP
360
32D
  0
DICTIONARY
  5
31C
330
2AB
100
AcDbDictionary
280
     1
281
     1
  3
ACAD_XREC_ROUNDTRIP
360
31D
  0
DICTIONARY
  5
32E
330
2B4
100
AcDbDictionary
280
     1
281
     1
  3
ACAD_XREC_ROUNDTRIP
360
32F
  0
DICTIONARY
  5
2FE
330
4B
100
AcDbDictionary
280
     1
281
     1
  3
ACAD_XREC_ROUNDTRIP
360
2FF
  0
DICTIONARY
  5
32A
330
2B2
100
AcDbDictionary
280
     1
281
     1
  3
ACAD_XREC_ROUNDTRIP
360
32B
  0
DICTIONARY
  5
328
330
2B1
100
AcDbDictionary
280
     1
281
     1
  3
ACAD_XREC_ROUNDTRIP
360
329
  0
DICTIONARY
  5
322
330
2AE
100
AcDbDictionary
280
     1
281
     1
  3
ACAD_XREC_ROUNDTRIP
360
323
  0
DICTIONARY
  5
324
330
2AF
100
AcDbDictionary
280
     1
281
     1
  3
ACAD_XREC_ROUNDTRIP
360
325
  0
DICTIONARY
  5
31A
330
2AA
100
AcDbDictionary
280
     1
281
     1
  3
ACAD_XREC_ROUNDTRIP
360
31B
  0
DICTIONARY
  5
300
330
4C
100
AcDbDictionary
280
     1
281
     1
  3
ACAD_XREC_ROUNDTRIP
360
301
  0
DICTIONARY
  5
326
330
2B0
100
AcDbDictionary
280
     1
281
     1
  3
ACAD_XREC_ROUNDTRIP
360
327
  0
XRECORD
  5
2F7
102
{ACAD_REACTORS
330
2F6
102
}
330
2F6
100
AcDbXrecord
280
     1
102
SHADEPLOT
 70
     0
102
SHADEPLOTRESLEVEL
 70
     2
102
SHADEPLOTCUSTOMDPI
 70
   300
  0
XRECORD
  5
2F5
102
{ACAD_REACTORS
330
2F4
102
}
330
2F4
100
AcDbXrecord
280
     1
102
SHADEPLOT
 70
     0
102
SHADEPLOTRESLEVEL
 70
     2
102
SHADEPLOTCUSTOMDPI
 70
   300
  0
XRECORD
  5
2FC
102
{ACAD_REACTORS
330
3D
102
}
330
3D
100
AcDbXrecord
280
     1
102
MATERIAL
148
0.0
149
0.0
149
0.0
 93
        0
 94
      127
282
     0
 72
     0
 77
     0
171
     0
175
     0
179
     0
273
     0
  0
XRECORD
  5
3E
102
{ACAD_REACTORS
330
3D
102
}
330
3D
100
AcDbXrecord
280
     1
270
     1
271
     1
  0
XRECORD
  5
3F
102
{ACAD_REACTORS
330
3D
102
}
330
3D
100
AcDbXrecord
280
     1
270
     1
271
     1
  0
XRECORD
  5
40
102
{ACAD_REACTORS
330
3D
102
}
330
3D
100
AcDbXrecord
280
     1
270
     1
271
     1
  0
XRECORD
  5
41
102
{ACAD_REACTORS
330
3D
102
}
330
3D
100
AcDbXrecord
280
     1
270
     1
271
     1
  0
XRECORD
  5
42
102
{ACAD_REACTORS
330
3D
102
}
330
3D
100
AcDbXrecord
280
     1
270
     1
271
     1
  0
XRECORD
  5
43
102
{ACAD_REACTORS
330
3D
102
}
330
3D
100
AcDbXrecord
280
     1
270
     1
271
     1
  0
XRECORD
  5
2FB
102
{ACAD_REACTORS
330
35
102
}
330
35
100
AcDbXrecord
280
     1
102
MATERIAL
148
0.0
149
0.0
149
0.0
 93
        0
 94
      127
282
     0
 72
     0
 77
     0
171
     0
175
     0
179
     0
273
     0
  0
XRECORD
  5
36
102
{ACAD_REACTORS
330
35
102
}
330
35
100
AcDbXrecord
280
     1
270
     1
271
     1
  0
XRECORD
  5
37
102
{ACAD_REACTORS
330
35
102
}
330
35
100
AcDbXrecord
280
     1
270
     1
271
     1
  0
XRECORD
  5
38
102
{ACAD_REACTORS
330
35
102
}
330
35
100
AcDbXrecord
280
     1
270
     1
271
     1
  0
XRECORD
  5
39
102
{ACAD_REACTORS
330
35
102
}
330
35
100
AcDbXrecord
280
     1
270
     1
271
     1
  0
XRECORD
  5
3A
102
{ACAD_REACTORS
330
35
102
}
330
35
100
AcDbXrecord
280
     1
270
     1
271
     1
  0
XRECORD
  5
3B
102
{ACAD_REACTORS
330
35
102
}
330
35
100
AcDbXrecord
280
     1
270
     1
271
     1
  0
XRECORD
  5
2F8
102
{ACAD_REACTORS
330
14
102
}
330
14
100
AcDbXrecord
280
     1
102
MATERIAL
148
0.0
149
0.0
149
0.0
 93
        0
 94
      127
282
     0
 72
     0
 77
     0
171
     0
175
     0
179
     0
273
     0
  0
XRECORD
  5
15
102
{ACAD_REACTORS
330
14
102
}
330
14
100
AcDbXrecord
280
     1
270
     1
271
     1
  0
XRECORD
  5
16
102
{ACAD_REACTORS
330
14
102
}
330
14
100
AcDbXrecord
280
     1
270
     1
271
     1
  0
XRECORD
  5
17
102
{ACAD_REACTORS
330
14
102
}
330
14
100
AcDbXrecord
280
     1
270
     1
271
     1
  0
XRECORD
  5
18
102
{ACAD_REACTORS
330
14
102
}
330
14
100
AcDbXrecord
280
     1
270
     1
271
     1
  0
XRECORD
  5
19
102
{ACAD_REACTORS
330
14
102
}
330
14
100
AcDbXrecord
280
     1
270
     1
271
     1
  0
XRECORD
  5
1A
102
{ACAD_REACTORS
330
14
102
}
330
14
100
AcDbXrecord
280
     1
270
     1
271
     1
  0
CELLSTYLEMAP
  5
2ED
102
{ACAD_REACTORS
330
4A
102
}
330
4A
100
AcDbCellStyleMap
 90
        3
300
CELLSTYLE
  1
TABLEFORMAT_BEGIN
 90
        5
170
     1
 91
        0
 92
    32768
 62
   257
 93
        1
300
CONTENTFORMAT
  1
CONTENTFORMAT_BEGIN
 90
        0
 91
        0
 92
      512
 93
        0
300

 40
0.0
140
1.0
 94
        5
 62
     0
340
21
144
0.25
309
CONTENTFORMAT_END
171
     0
 94
        0
309
TABLEFORMAT_END
  1
CELLSTYLE_BEGIN
 90
        1
 91
        1
300
_TITLE
309
CELLSTYLE_END
300
CELLSTYLE
  1
TABLEFORMAT_BEGIN
 90
        5
170
     1
 91
        0
 92
        0
 62
   257
 93
        1
300
CONTENTFORMAT
  1
CONTENTFORMAT_BEGIN
 90
        0
 91
        0
 92
      512
 93
        0
300

 40
0.0
140
1.0
 94
        5
 62
     0
340
21
144
0.18
309
CONTENTFORMAT_END
171
     0
 94
        0
309
TABLEFORMAT_END
  1
CELLSTYLE_BEGIN
 90
        2
 91
        1
300
_HEADER
309
CELLSTYLE_END
300
CELLSTYLE
  1
TABLEFORMAT_BEGIN
 90
        5
170
     1
 91
        0
 92
        0
 62
   257
 93
        1
300
CONTENTFORMAT
  1
CONTENTFORMAT_BEGIN
 90
        0
 91
        0
 92
      512
 93
        0
300

 40
0.0
140
1.0
 94
        2
 62
     0
340
21
144
0.18
309
CONTENTFORMAT_END
171
     0
 94
        0
309
TABLEFORMAT_END
  1
CELLSTYLE_BEGIN
 90
        3
 91
        2
300
_DATA
309
CELLSTYLE_END
  0
XRECORD
  5
2FD
102
{ACAD_REACTORS
330
4A
102
}
330
4A
100
AcDbXrecord
280
     1
102
ACAD_ROUNDTRIP_PRE2007_TABLESTYLE
 90
      512
 91
        0
  1

 92
      512
 93
        0
  2

 94
      512
 95
        0
  3

  0
XRECORD
  5
2FA
102
{ACAD_REACTORS
330
2F9
102
}
330
2F9
100
AcDbXrecord
280
     1
102
RTVSPropertyOp0
 70
     1
102
RTVSPropertyOp1
 70
     1
102
RTVSPropertyOp2
 70
     1
102
RTVSPropertyOp3
 70
     1
102
RTVSPropertyOp4
 70
     1
102
RTVSPropertyOp5
 70
     1
102
RTVSPropertyOp6
 70
     1
102
RTVSPropertyOp7
 70
     1
102
RTVSPropertyOp8
 70
     1
102
RTVSPropertyOp9
 70
     1
102
RTVSPropertyOp10
 70
     1
102
RTVSPropertyOp11
 70
     1
102
RTVSPropertyOp12
 70
     1
102
RTVSPropertyOp13
 70
     1
102
RTVSPropertyOp14
 70
     1
102
RTVSPropertyOp15
 70
     1
102
RTVSPropertyOp16
 70
     1
102
RTVSPropertyOp17
 70
     1
102
RTVSPropertyOp18
 70
     1
102
RTVSPropertyOp19
 70
     1
102
RTVSPropertyOp20
 70
     1
102
RTVSPropertyOp21
 70
     1
102
RTVSPropertyOp22
 70
     1
102
RTVSPropertyOp23
 70
     1
102
RTVSPropertyOp24
 70
     1
102
RTVSPropertyOp25
 70
     1
102
RTVSPropertyOp26
 70
     1
102
RTVSPropertyOp27
 70
     1
102
RTVSPropertyOp28
 70
     1
102
RTVSPropertyOp29
 70
     1
102
RTVSPropertyOp30
 70
     1
102
RTVSPropertyOp31
 70
     1
102
RTVSPropertyOp32
 70
     1
  0
XRECORD
  5
311
102
{ACAD_REACTORS
330
310
102
}
330
310
100
AcDbXrecord
280
     1
102
RTVSPropertyOp0
 70
     1
102
RTVSPropertyOp1
 70
     1
102
RTVSPropertyOp2
 70
     1
102
RTVSPropertyOp3
 70
     1
102
RTVSPropertyOp4
 70
     1
102
RTVSPropertyOp5
 70
     1
102
RTVSPropertyOp6
 70
     1
102
RTVSPropertyOp7
 70
     1
102
RTVSPropertyOp8
 70
     1
102
RTVSPropertyOp9
 70
     1
102
RTVSPropertyOp10
 70
     1
102
RTVSPropertyOp11
 70
     1
102
RTVSPropertyOp12
 70
     1
102
RTVSPropertyOp13
 70
     1
102
RTVSPropertyOp14
 70
     1
102
RTVSPropertyOp15
 70
     1
102
RTVSPropertyOp16
 70
     1
102
RTVSPropertyOp17
 70
     1
102
RTVSPropertyOp18
 70
     1
102
RTVSPropertyOp19
 70
     1
102
RTVSPropertyOp20
 70
     1
102
RTVSPropertyOp21
 70
     1
102
RTVSPropertyOp22
 70
     1
102
RTVSPropertyOp23
 70
     1
102
RTVSPropertyOp24
 70
     1
102
RTVSPropertyOp25
 70
     1
102
RTVSPropertyOp26
 70
     1
102
RTVSPropertyOp27
 70
     1
102
RTVSPropertyOp28
 70
     1
102
RTVSPropertyOp29
 70
     1
102
RTVSPropertyOp30
 70
     1
102
RTVSPropertyOp31
 70
     1
102
RTVSPropertyOp32
 70
     1
  0
XRECORD
  5
319
102
{ACAD_REACTORS
330
318
102
}
330
318
100
AcDbXrecord
280
     1
102
RTVSPropertyOp0
 70
     1
102
RTVSPropertyOp1
 70
     1
102
RTVSPropertyOp2
 70
     1
102
RTVSPropertyOp3
 70
     1
102
RTVSPropertyOp4
 70
     1
102
RTVSPropertyOp5
 70
     1
102
RTVSPropertyOp6
 70
     1
102
RTVSPropertyOp7
 70
     1
102
RTVSPropertyOp8
 70
     1
102
RTVSPropertyOp9
 70
     1
102
RTVSPropertyOp10
 70
     1
102
RTVSPropertyOp11
 70
     1
102
RTVSPropertyOp12
 70
     1
102
RTVSPropertyOp13
 70
     1
102
RTVSPropertyOp14
 70
     1
102
RTVSPropertyOp15
 70
     1
102
RTVSPropertyOp16
 70
     1
102
RTVSPropertyOp17
 70
     1
102
RTVSPropertyOp18
 70
     1
102
RTVSPropertyOp19
 70
     1
102
RTVSPropertyOp20
 70
     1
102
RTVSPropertyOp21
 70
     1
102
RTVSPropertyOp22
 70
     1
102
RTVSPropertyOp23
 70
     1
102
RTVSPropertyOp24
 70
     1
102
RTVSPropertyOp25
 70
     1
102
RTVSPropertyOp26
 70
     1
102
RTVSPropertyOp27
 70
     1
102
RTVSPropertyOp28
 70
     1
102
RTVSPropertyOp29
 70
     1
102
RTVSPropertyOp30
 70
     1
102
RTVSPropertyOp31
 70
     1
102
RTVSPropertyOp32
 70
     1
  0
XRECORD
  5
321
102
{ACAD_REACTORS
330
320
102
}
330
320
100
AcDbXrecord
280
     1
102
RTVSPropertyOp0
 70
     1
102
RTVSPropertyOp1
 70
     1
102
RTVSPropertyOp2
 70
     1
102
RTVSPropertyOp3
 70
     1
102
RTVSPropertyOp4
 70
     1
102
RTVSPropertyOp5
 70
     1
102
RTVSPropertyOp6
 70
     1
102
RTVSPropertyOp7
 70
     1
102
RTVSPropertyOp8
 70
     1
102
RTVSPropertyOp9
 70
     1
102
RTVSPropertyOp10
 70
     1
102
RTVSPropertyOp11
 70
     1
102
RTVSPropertyOp12
 70
     1
102
RTVSPropertyOp13
 70
     1
102
RTVSPropertyOp14
 70
     1
102
RTVSPropertyOp15
 70
     1
102
RTVSPropertyOp16
 70
     1
102
RTVSPropertyOp17
 70
     1
102
RTVSPropertyOp18
 70
     1
102
RTVSPropertyOp19
 70
     1
102
RTVSPropertyOp20
 70
     1
102
RTVSPropertyOp21
 70
     1
102
RTVSPropertyOp22
 70
     1
102
RTVSPropertyOp23
 70
     1
102
RTVSPropertyOp24
 70
     1
102
RTVSPropertyOp25
 70
     1
102
RTVSPropertyOp26
 70
     1
102
RTVSPropertyOp27
 70
     1
102
RTVSPropertyOp28
 70
     1
102
RTVSPropertyOp29
 70
     1
102
RTVSPropertyOp30
 70
     1
102
RTVSPropertyOp31
 70
     1
102
RTVSPropertyOp32
 70
     1
  0
XRECORD
  5
315
102
{ACAD_REACTORS
330
314
102
}
330
314
100
AcDbXrecord
280
     1
102
RTVSPropertyOp0
 70
     1
102
RTVSPropertyOp1
 70
     1
102
RTVSPropertyOp2
 70
     1
102
RTVSPropertyOp3
 70
     1
102
RTVSPropertyOp4
 70
     1
102
RTVSPropertyOp5
 70
     1
102
RTVSPropertyOp6
 70
     1
102
RTVSPropertyOp7
 70
     1
102
RTVSPropertyOp8
 70
     1
102
RTVSPropertyOp9
 70
     1
102
RTVSPropertyOp10
 70
     1
102
RTVSPropertyOp11
 70
     1
102
RTVSPropertyOp12
 70
     1
102
RTVSPropertyOp13
 70
     1
102
RTVSPropertyOp14
 70
     1
102
RTVSPropertyOp15
 70
     1
102
RTVSPropertyOp16
 70
     1
102
RTVSPropertyOp17
 70
     1
102
RTVSPropertyOp18
 70
     1
102
RTVSPropertyOp19
 70
     1
102
RTVSPropertyOp20
 70
     1
102
RTVSPropertyOp21
 70
     1
102
RTVSPropertyOp22
 70
     1
102
RTVSPropertyOp23
 70
     1
102
RTVSPropertyOp24
 70
     1
102
RTVSPropertyOp25
 70
     1
102
RTVSPropertyOp26
 70
     1
102
RTVSPropertyOp27
 70
     1
102
RTVSPropertyOp28
 70
     1
102
RTVSPropertyOp29
 70
     1
102
RTVSPropertyOp30
 70
     1
102
RTVSPropertyOp31
 70
     1
102
RTVSPropertyOp32
 70
     1
  0
XRECORD
  5
317
102
{ACAD_REACTORS
330
316
102
}
330
316
100
AcDbXrecord
280
     1
102
RTVSPropertyOp0
 70
     1
102
RTVSPropertyOp1
 70
     1
102
RTVSPropertyOp2
 70
     1
102
RTVSPropertyOp3
 70
     1
102
RTVSPropertyOp4
 70
     1
102
RTVSPropertyOp5
 70
     1
102
RTVSPropertyOp6
 70
     1
102
RTVSPropertyOp7
 70
     1
102
RTVSPropertyOp8
 70
     1
102
RTVSPropertyOp9
 70
     1
102
RTVSPropertyOp10
 70
     1
102
RTVSPropertyOp11
 70
     1
102
RTVSPropertyOp12
 70
     1
102
RTVSPropertyOp13
 70
     1
102
RTVSPropertyOp14
 70
     1
102
RTVSPropertyOp15
 70
     1
102
RTVSPropertyOp16
 70
     1
102
RTVSPropertyOp17
 70
     1
102
RTVSPropertyOp18
 70
     1
102
RTVSPropertyOp19
 70
     1
102
RTVSPropertyOp20
 70
     1
102
RTVSPropertyOp21
 70
     1
102
RTVSPropertyOp22
 70
     1
102
RTVSPropertyOp23
 70
     1
102
RTVSPropertyOp24
 70
     1
102
RTVSPropertyOp25
 70
     1
102
RTVSPropertyOp26
 70
     1
102
RTVSPropertyOp27
 70
     1
102
RTVSPropertyOp28
 70
     1
102
RTVSPropertyOp29
 70
     1
102
RTVSPropertyOp30
 70
     1
102
RTVSPropertyOp31
 70
     1
102
RTVSPropertyOp32
 70
     1
  0
XRECORD
  5
331
102
{ACAD_REACTORS
330
330
102
}
330
330
100
AcDbXrecord
280
     1
102
RTVSPropertyOp0
 70
     0
102
RTVSPropertyOp1
 70
     0
102
RTVSPropertyOp2
 70
     0
102
RTVSPropertyOp3
 70
     0
102
RTVSPropertyOp4
 70
     0
102
RTVSPropertyOp5
 70
     0
102
RTVSPropertyOp6
 70
     0
102
RTVSPropertyOp7
 70
     0
102
RTVSPropertyOp8
 70
     0
102
RTVSPropertyOp9
 70
     0
102
RTVSPropertyOp10
 70
     0
102
RTVSPropertyOp11
 70
     0
102
RTVSPropertyOp12
 70
     0
102
RTVSPropertyOp13
 70
     0
102
RTVSPropertyOp14
 70
     2
102
RTVSPropertyOp15
 70
     0
102
RTVSPropertyOp16
 70
     0
102
RTVSPropertyOp17
 70
     0
102
RTVSPropertyOp18
 70
     0
102
RTVSPropertyOp19
 70
     0
102
RTVSPropertyOp20
 70
     0
102
RTVSPropertyOp21
 70
     0
102
RTVSPropertyOp22
 70
     0
102
RTVSPropertyOp23
 70
     0
102
RTVSPropertyOp24
 70
     0
102
RTVSPropertyOp25
 70
     0
102
RTVSPropertyOp26
 70
     0
102
RTVSPropertyOp27
 70
     0
102
RTVSPropertyOp28
 70
     0
102
RTVSPropertyOp29
 70
     0
102
RTVSPropertyOp30
 70
     0
102
RTVSPropertyOp31
 70
     0
102
RTVSPropertyOp32
 70
     0
  0
XRECORD
  5
31F
102
{ACAD_REACTORS
330
31E
102
}
330
31E
100
AcDbXrecord
280
     1
102
RTVSPropertyOp0
 70
     1
102
RTVSPropertyOp1
 70
     1
102
RTVSPropertyOp2
 70
     1
102
RTVSPropertyOp3
 70
     1
102
RTVSPropertyOp4
 70
     1
102
RTVSPropertyOp5
 70
     1
102
RTVSPropertyOp6
 70
     1
102
RTVSPropertyOp7
 70
     1
102
RTVSPropertyOp8
 70
     1
102
RTVSPropertyOp9
 70
     1
102
RTVSPropertyOp10
 70
     1
102
RTVSPropertyOp11
 70
     1
102
RTVSPropertyOp12
 70
     1
102
RTVSPropertyOp13
 70
     1
102
RTVSPropertyOp14
 70
     1
102
RTVSPropertyOp15
 70
     1
102
RTVSPropertyOp16
 70
     1
102
RTVSPropertyOp17
 70
     1
102
RTVSPropertyOp18
 70
     1
102
RTVSPropertyOp19
 70
     1
102
RTVSPropertyOp20
 70
     1
102
RTVSPropertyOp21
 70
     1
102
RTVSPropertyOp22
 70
     1
102
RTVSPropertyOp23
 70
     1
102
RTVSPropertyOp24
 70
     1
102
RTVSPropertyOp25
 70
     1
102
RTVSPropertyOp26
 70
     1
102
RTVSPropertyOp27
 70
     1
102
RTVSPropertyOp28
 70
     1
102
RTVSPropertyOp29
 70
     1
102
RTVSPropertyOp30
 70
     1
102
RTVSPropertyOp31
 70
     1
102
RTVSPropertyOp32
 70
     1
  0
XRECORD
  5
309
102
{ACAD_REACTORS
330
308
102
}
330
308
100
AcDbXrecord
280
     1
102
RTVSPropertyOp0
 70
     1
102
RTVSPropertyOp1
 70
     1
102
RTVSPropertyOp2
 70
     1
102
RTVSPropertyOp3
 70
     1
102
RTVSPropertyOp4
 70
     1
102
RTVSPropertyOp5
 70
     1
102
RTVSPropertyOp6
 70
     1
102
RTVSPropertyOp7
 70
     1
102
RTVSPropertyOp8
 70
     1
102
RTVSPropertyOp9
 70
     1
102
RTVSPropertyOp10
 70
     1
102
RTVSPropertyOp11
 70
     1
102
RTVSPropertyOp12
 70
     1
102
RTVSPropertyOp13
 70
     1
102
RTVSPropertyOp14
 70
     1
102
RTVSPropertyOp15
 70
     1
102
RTVSPropertyOp16
 70
     1
102
RTVSPropertyOp17
 70
     1
102
RTVSPropertyOp18
 70
     1
102
RTVSPropertyOp19
 70
     1
102
RTVSPropertyOp20
 70
     1
102
RTVSPropertyOp21
 70
     1
102
RTVSPropertyOp22
 70
     1
102
RTVSPropertyOp23
 70
     1
102
RTVSPropertyOp24
 70
     1
102
RTVSPropertyOp25
 70
     1
102
RTVSPropertyOp26
 70
     1
102
RTVSPropertyOp27
 70
     1
102
RTVSPropertyOp28
 70
     1
102
RTVSPropertyOp29
 70
     1
102
RTVSPropertyOp30
 70
     1
102
RTVSPropertyOp31
 70
     1
102
RTVSPropertyOp32
 70
     1
  0
XRECORD
  5
30B
102
{ACAD_REACTORS
330
30A
102
}
330
30A
100
AcDbXrecord
280
     1
102
RTVSPropertyOp0
 70
     1
102
RTVSPropertyOp1
 70
     1
102
RTVSPropertyOp2
 70
     1
102
RTVSPropertyOp3
 70
     1
102
RTVSPropertyOp4
 70
     1
102
RTVSPropertyOp5
 70
     1
102
RTVSPropertyOp6
 70
     1
102
RTVSPropertyOp7
 70
     1
102
RTVSPropertyOp8
 70
     1
102
RTVSPropertyOp9
 70
     1
102
RTVSPropertyOp10
 70
     1
102
RTVSPropertyOp11
 70
     1
102
RTVSPropertyOp12
 70
     1
102
RTVSPropertyOp13
 70
     1
102
RTVSPropertyOp14
 70
     1
102
RTVSPropertyOp15
 70
     1
102
RTVSPropertyOp16
 70
     1
102
RTVSPropertyOp17
 70
     1
102
RTVSPropertyOp18
 70
     1
102
RTVSPropertyOp19
 70
     1
102
RTVSPropertyOp20
 70
     1
102
RTVSPropertyOp21
 70
     1
102
RTVSPropertyOp22
 70
     1
102
RTVSPropertyOp23
 70
     1
102
RTVSPropertyOp24
 70
     1
102
RTVSPropertyOp25
 70
     1
102
RTVSPropertyOp26
 70
     1
102
RTVSPropertyOp27
 70
     1
102
RTVSPropertyOp28
 70
     1
102
RTVSPropertyOp29
 70
     1
102
RTVSPropertyOp30
 70
     1
102
RTVSPropertyOp31
 70
     1
102
RTVSPropertyOp32
 70
     1
  0
XRECORD
  5
30D
102
{ACAD_REACTORS
330
30C
102
}
330
30C
100
AcDbXrecord
280
     1
102
RTVSPropertyOp0
 70
     1
102
RTVSPropertyOp1
 70
     1
102
RTVSPropertyOp2
 70
     1
102
RTVSPropertyOp3
 70
     1
102
RTVSPropertyOp4
 70
     1
102
RTVSPropertyOp5
 70
     1
102
RTVSPropertyOp6
 70
     1
102
RTVSPropertyOp7
 70
     1
102
RTVSPropertyOp8
 70
     1
102
RTVSPropertyOp9
 70
     1
102
RTVSPropertyOp10
 70
     1
102
RTVSPropertyOp11
 70
     1
102
RTVSPropertyOp12
 70
     1
102
RTVSPropertyOp13
 70
     1
102
RTVSPropertyOp14
 70
     1
102
RTVSPropertyOp15
 70
     1
102
RTVSPropertyOp16
 70
     1
102
RTVSPropertyOp17
 70
     1
102
RTVSPropertyOp18
 70
     1
102
RTVSPropertyOp19
 70
     1
102
RTVSPropertyOp20
 70
     1
102
RTVSPropertyOp21
 70
     1
102
RTVSPropertyOp22
 70
     1
102
RTVSPropertyOp23
 70
     1
102
RTVSPropertyOp24
 70
     1
102
RTVSPropertyOp25
 70
     1
102
RTVSPropertyOp26
 70
     1
102
RTVSPropertyOp27
 70
     1
102
RTVSPropertyOp28
 70
     1
102
RTVSPropertyOp29
 70
     1
102
RTVSPropertyOp30
 70
     1
102
RTVSPropertyOp31
 70
     1
102
RTVSPropertyOp32
 70
     1
  0
XRECORD
  5
30F
102
{ACAD_REACTORS
330
30E
102
}
330
30E
100
AcDbXrecord
280
     1
102
RTVSPropertyOp0
 70
     1
102
RTVSPropertyOp1
 70
     1
102
RTVSPropertyOp2
 70
     1
102
RTVSPropertyOp3
 70
     1
102
RTVSPropertyOp4
 70
     1
102
RTVSPropertyOp5
 70
     1
102
RTVSPropertyOp6
 70
     1
102
RTVSPropertyOp7
 70
     1
102
RTVSPropertyOp8
 70
     1
102
RTVSPropertyOp9
 70
     1
102
RTVSPropertyOp10
 70
     1
102
RTVSPropertyOp11
 70
     1
102
RTVSPropertyOp12
 70
     1
102
RTVSPropertyOp13
 70
     1
102
RTVSPropertyOp14
 70
     1
102
RTVSPropertyOp15
 70
     1
102
RTVSPropertyOp16
 70
     1
102
RTVSPropertyOp17
 70
     1
102
RTVSPropertyOp18
 70
     1
102
RTVSPropertyOp19
 70
     1
102
RTVSPropertyOp20
 70
     1
102
RTVSPropertyOp21
 70
     1
102
RTVSPropertyOp22
 70
     1
102
RTVSPropertyOp23
 70
     1
102
RTVSPropertyOp24
 70
     1
102
RTVSPropertyOp25
 70
     1
102
RTVSPropertyOp26
 70
     1
102
RTVSPropertyOp27
 70
     1
102
RTVSPropertyOp28
 70
     1
102
RTVSPropertyOp29
 70
     1
102
RTVSPropertyOp30
 70
     1
102
RTVSPropertyOp31
 70
     1
102
RTVSPropertyOp32
 70
     1
  0
XRECORD
  5
313
102
{ACAD_REACTORS
330
312
102
}
330
312
100
AcDbXrecord
280
     1
102
RTVSPropertyOp0
 70
     1
102
RTVSPropertyOp1
 70
     1
102
RTVSPropertyOp2
 70
     1
102
RTVSPropertyOp3
 70
     1
102
RTVSPropertyOp4
 70
     1
102
RTVSPropertyOp5
 70
     1
102
RTVSPropertyOp6
 70
     1
102
RTVSPropertyOp7
 70
     1
102
RTVSPropertyOp8
 70
     1
102
RTVSPropertyOp9
 70
     1
102
RTVSPropertyOp10
 70
     1
102
RTVSPropertyOp11
 70
     1
102
RTVSPropertyOp12
 70
     1
102
RTVSPropertyOp13
 70
     1
102
RTVSPropertyOp14
 70
     1
102
RTVSPropertyOp15
 70
     1
102
RTVSPropertyOp16
 70
     1
102
RTVSPropertyOp17
 70
     1
102
RTVSPropertyOp18
 70
     1
102
RTVSPropertyOp19
 70
     1
102
RTVSPropertyOp20
 70
     1
102
RTVSPropertyOp21
 70
     1
102
RTVSPropertyOp22
 70
     1
102
RTVSPropertyOp23
 70
     1
102
RTVSPropertyOp24
 70
     1
102
RTVSPropertyOp25
 70
     1
102
RTVSPropertyOp26
 70
     1
102
RTVSPropertyOp27
 70
     1
102
RTVSPropertyOp28
 70
     1
102
RTVSPropertyOp29
 70
     1
102
RTVSPropertyOp30
 70
     1
102
RTVSPropertyOp31
 70
     1
102
RTVSPropertyOp32
 70
     1
  0
XRECORD
  5
32D
102
{ACAD_REACTORS
330
32C
102
}
330
32C
100
AcDbXrecord
280
     1
102
RTVSPropertyOp0
 70
     0
102
RTVSPropertyOp1
 70
     0
102
RTVSPropertyOp2
 70
     0
102
RTVSPropertyOp3
 70
     0
102
RTVSPropertyOp4
 70
     0
102
RTVSPropertyOp5
 70
     0
102
RTVSPropertyOp6
 70
     0
102
RTVSPropertyOp7
 70
     0
102
RTVSPropertyOp8
 70
     0
102
RTVSPropertyOp9
 70
     0
102
RTVSPropertyOp10
 70
     0
102
RTVSPropertyOp11
 70
     0
102
RTVSPropertyOp12
 70
     0
102
RTVSPropertyOp13
 70
     0
102
RTVSPropertyOp14
 70
     2
102
RTVSPropertyOp15
 70
     0
102
RTVSPropertyOp16
 70
     0
102
RTVSPropertyOp17
 70
     0
102
RTVSPropertyOp18
 70
     0
102
RTVSPropertyOp19
 70
     0
102
RTVSPropertyOp20
 70
     0
102
RTVSPropertyOp21
 70
     0
102
RTVSPropertyOp22
 70
     0
102
RTVSPropertyOp23
 70
     0
102
RTVSPropertyOp24
 70
     0
102
RTVSPropertyOp25
 70
     0
102
RTVSPropertyOp26
 70
     0
102
RTVSPropertyOp27
 70
     0
102
RTVSPropertyOp28
 70
     0
102
RTVSPropertyOp29
 70
     0
102
RTVSPropertyOp30
 70
     0
102
RTVSPropertyOp31
 70
     0
102
RTVSPropertyOp32
 70
     0
  0
XRECORD
  5
31D
102
{ACAD_REACTORS
330
31C
102
}
330
31C
100
AcDbXrecord
280
     1
102
RTVSPropertyOp0
 70
     1
102
RTVSPropertyOp1
 70
     1
102
RTVSPropertyOp2
 70
     1
102
RTVSPropertyOp3
 70
     1
102
RTVSPropertyOp4
 70
     1
102
RTVSPropertyOp5
 70
     1
102
RTVSPropertyOp6
 70
     1
102
RTVSPropertyOp7
 70
     1
102
RTVSPropertyOp8
 70
     1
102
RTVSPropertyOp9
 70
     1
102
RTVSPropertyOp10
 70
     1
102
RTVSPropertyOp11
 70
     1
102
RTVSPropertyOp12
 70
     1
102
RTVSPropertyOp13
 70
     1
102
RTVSPropertyOp14
 70
     1
102
RTVSPropertyOp15
 70
     1
102
RTVSPropertyOp16
 70
     1
102
RTVSPropertyOp17
 70
     1
102
RTVSPropertyOp18
 70
     1
102
RTVSPropertyOp19
 70
     1
102
RTVSPropertyOp20
 70
     1
102
RTVSPropertyOp21
 70
     1
102
RTVSPropertyOp22
 70
     1
102
RTVSPropertyOp23
 70
     1
102
RTVSPropertyOp24
 70
     1
102
RTVSPropertyOp25
 70
     1
102
RTVSPropertyOp26
 70
     1
102
RTVSPropertyOp27
 70
     1
102
RTVSPropertyOp28
 70
     1
102
RTVSPropertyOp29
 70
     1
102
RTVSPropertyOp30
 70
     1
102
RTVSPropertyOp31
 70
     1
102
RTVSPropertyOp32
 70
     1
  0
XRECORD
  5
32F
102
{ACAD_REACTORS
330
32E
102
}
330
32E
100
AcDbXrecord
280
     1
102
RTVSPropertyOp0
 70
     0
102
RTVSPropertyOp1
 70
     0
102
RTVSPropertyOp2
 70
     0
102
RTVSPropertyOp3
 70
     0
102
RTVSPropertyOp4
 70
     0
102
RTVSPropertyOp5
 70
     0
102
RTVSPropertyOp6
 70
     0
102
RTVSPropertyOp7
 70
     0
102
RTVSPropertyOp8
 70
     0
102
RTVSPropertyOp9
 70
     0
102
RTVSPropertyOp10
 70
     0
102
RTVSPropertyOp11
 70
     0
102
RTVSPropertyOp12
 70
     0
102
RTVSPropertyOp13
 70
     0
102
RTVSPropertyOp14
 70
     2
102
RTVSPropertyOp15
 70
     0
102
RTVSPropertyOp16
 70
     0
102
RTVSPropertyOp17
 70
     0
102
RTVSPropertyOp18
 70
     0
102
RTVSPropertyOp19
 70
     0
102
RTVSPropertyOp20
 70
     0
102
RTVSPropertyOp21
 70
     0
102
RTVSPropertyOp22
 70
     0
102
RTVSPropertyOp23
 70
     0
102
RTVSPropertyOp24
 70
     0
102
RTVSPropertyOp25
 70
     0
102
RTVSPropertyOp26
 70
     0
102
RTVSPropertyOp27
 70
     0
102
RTVSPropertyOp28
 70
     0
102
RTVSPropertyOp29
 70
     0
102
RTVSPropertyOp30
 70
     0
102
RTVSPropertyOp31
 70
     0
102
RTVSPropertyOp32
 70
     0
  0
XRECORD
  5
2FF
102
{ACAD_REACTORS
330
2FE
102
}
330
2FE
100
AcDbXrecord
280
     1
102
RTVSPropertyOp0
 70
     1
102
RTVSPropertyOp1
 70
     1
102
RTVSPropertyOp2
 70
     1
102
RTVSPropertyOp3
 70
     1
102
RTVSPropertyOp4
 70
     1
102
RTVSPropertyOp5
 70
     1
102
RTVSPropertyOp6
 70
     1
102
RTVSPropertyOp7
 70
     1
102
RTVSPropertyOp8
 70
     1
102
RTVSPropertyOp9
 70
     1
102
RTVSPropertyOp10
 70
     1
102
RTVSPropertyOp11
 70
     1
102
RTVSPropertyOp12
 70
     1
102
RTVSPropertyOp13
 70
     1
102
RTVSPropertyOp14
 70
     1
102
RTVSPropertyOp15
 70
     1
102
RTVSPropertyOp16
 70
     1
102
RTVSPropertyOp17
 70
     1
102
RTVSPropertyOp18
 70
     1
102
RTVSPropertyOp19
 70
     1
102
RTVSPropertyOp20
 70
     1
102
RTVSPropertyOp21
 70
     1
102
RTVSPropertyOp22
 70
     1
102
RTVSPropertyOp23
 70
     1
102
RTVSPropertyOp24
 70
     1
102
RTVSPropertyOp25
 70
     1
102
RTVSPropertyOp26
 70
     1
102
RTVSPropertyOp27
 70
     1
102
RTVSPropertyOp28
 70
     1
102
RTVSPropertyOp29
 70
     1
102
RTVSPropertyOp30
 70
     1
102
RTVSPropertyOp31
 70
     1
102
RTVSPropertyOp32
 70
     1
  0
XRECORD
  5
32B
102
{ACAD_REACTORS
330
32A
102
}
330
32A
100
AcDbXrecord
280
     1
102
RTVSPropertyOp0
 70
     1
102
RTVSPropertyOp1
 70
     1
102
RTVSPropertyOp2
 70
     1
102
RTVSPropertyOp3
 70
     1
102
RTVSPropertyOp4
 70
     1
102
RTVSPropertyOp5
 70
     1
102
RTVSPropertyOp6
 70
     1
102
RTVSPropertyOp7
 70
     1
102
RTVSPropertyOp8
 70
     1
102
RTVSPropertyOp9
 70
     1
102
RTVSPropertyOp10
 70
     1
102
RTVSPropertyOp11
 70
     1
102
RTVSPropertyOp12
 70
     1
102
RTVSPropertyOp13
 70
     1
102
RTVSPropertyOp14
 70
     1
102
RTVSPropertyOp15
 70
     1
102
RTVSPropertyOp16
 70
     1
102
RTVSPropertyOp17
 70
     1
102
RTVSPropertyOp18
 70
     1
102
RTVSPropertyOp19
 70
     1
102
RTVSPropertyOp20
 70
     1
102
RTVSPropertyOp21
 70
     1
102
RTVSPropertyOp22
 70
     1
102
RTVSPropertyOp23
 70
     1
102
RTVSPropertyOp24
 70
     1
102
RTVSPropertyOp25
 70
     1
102
RTVSPropertyOp26
 70
     1
102
RTVSPropertyOp27
 70
     1
102
RTVSPropertyOp28
 70
     1
102
RTVSPropertyOp29
 70
     1
102
RTVSPropertyOp30
 70
     1
102
RTVSPropertyOp31
 70
     1
102
RTVSPropertyOp32
 70
     1
  0
XRECORD
  5
329
102
{ACAD_REACTORS
330
328
102
}
330
328
100
AcDbXrecord
280
     1
102
RTVSPropertyOp0
 70
     1
102
RTVSPropertyOp1
 70
     1
102
RTVSPropertyOp2
 70
     1
102
RTVSPropertyOp3
 70
     1
102
RTVSPropertyOp4
 70
     1
102
RTVSPropertyOp5
 70
     1
102
RTVSPropertyOp6
 70
     1
102
RTVSPropertyOp7
 70
     1
102
RTVSPropertyOp8
 70
     1
102
RTVSPropertyOp9
 70
     1
102
RTVSPropertyOp10
 70
     1
102
RTVSPropertyOp11
 70
     1
102
RTVSPropertyOp12
 70
     1
102
RTVSPropertyOp13
 70
     1
102
RTVSPropertyOp14
 70
     1
102
RTVSPropertyOp15
 70
     1
102
RTVSPropertyOp16
 70
     1
102
RTVSPropertyOp17
 70
     1
102
RTVSPropertyOp18
 70
     1
102
RTVSPropertyOp19
 70
     1
102
RTVSPropertyOp20
 70
     1
102
RTVSPropertyOp21
 70
     1
102
RTVSPropertyOp22
 70
     1
102
RTVSPropertyOp23
 70
     1
102
RTVSPropertyOp24
 70
     1
102
RTVSPropertyOp25
 70
     1
102
RTVSPropertyOp26
 70
     1
102
RTVSPropertyOp27
 70
     1
102
RTVSPropertyOp28
 70
     1
102
RTVSPropertyOp29
 70
     1
102
RTVSPropertyOp30
 70
     1
102
RTVSPropertyOp31
 70
     1
102
RTVSPropertyOp32
 70
     1
  0
XRECORD
  5
323
102
{ACAD_REACTORS
330
322
102
}
330
322
100
AcDbXrecord
280
     1
102
RTVSPropertyOp0
 70
     1
102
RTVSPropertyOp1
 70
     1
102
RTVSPropertyOp2
 70
     1
102
RTVSPropertyOp3
 70
     1
102
RTVSPropertyOp4
 70
     1
102
RTVSPropertyOp5
 70
     1
102
RTVSPropertyOp6
 70
     1
102
RTVSPropertyOp7
 70
     1
102
RTVSPropertyOp8
 70
     1
102
RTVSPropertyOp9
 70
     1
102
RTVSPropertyOp10
 70
     1
102
RTVSPropertyOp11
 70
     1
102
RTVSPropertyOp12
 70
     1
102
RTVSPropertyOp13
 70
     1
102
RTVSPropertyOp14
 70
     1
102
RTVSPropertyOp15
 70
     1
102
RTVSPropertyOp16
 70
     1
102
RTVSPropertyOp17
 70
     1
102
RTVSPropertyOp18
 70
     1
102
RTVSPropertyOp19
 70
     1
102
RTVSPropertyOp20
 70
     1
102
RTVSPropertyOp21
 70
     1
102
RTVSPropertyOp22
 70
     1
102
RTVSPropertyOp23
 70
     1
102
RTVSPropertyOp24
 70
     1
102
RTVSPropertyOp25
 70
     1
102
RTVSPropertyOp26
 70
     1
102
RTVSPropertyOp27
 70
     1
102
RTVSPropertyOp28
 70
     1
102
RTVSPropertyOp29
 70
     1
102
RTVSPropertyOp30
 70
     1
102
RTVSPropertyOp31
 70
     1
102
RTVSPropertyOp32
 70
     1
  0
XRECORD
  5
325
102
{ACAD_REACTORS
330
324
102
}
330
324
100
AcDbXrecord
280
     1
102
RTVSPropertyOp0
 70
     1
102
RTVSPropertyOp1
 70
     1
102
RTVSPropertyOp2
 70
     1
102
RTVSPropertyOp3
 70
     1
102
RTVSPropertyOp4
 70
     1
102
RTVSPropertyOp5
 70
     1
102
RTVSPropertyOp6
 70
     1
102
RTVSPropertyOp7
 70
     1
102
RTVSPropertyOp8
 70
     1
102
RTVSPropertyOp9
 70
     1
102
RTVSPropertyOp10
 70
     1
102
RTVSPropertyOp11
 70
     1
102
RTVSPropertyOp12
 70
     1
102
RTVSPropertyOp13
 70
     1
102
RTVSPropertyOp14
 70
     1
102
RTVSPropertyOp15
 70
     1
102
RTVSPropertyOp16
 70
     1
102
RTVSPropertyOp17
 70
     1
102
RTVSPropertyOp18
 70
     1
102
RTVSPropertyOp19
 70
     1
102
RTVSPropertyOp20
 70
     1
102
RTVSPropertyOp21
 70
     1
102
RTVSPropertyOp22
 70
     1
102
RTVSPropertyOp23
 70
     1
102
RTVSPropertyOp24
 70
     1
102
RTVSPropertyOp25
 70
     1
102
RTVSPropertyOp26
 70
     1
102
RTVSPropertyOp27
 70
     1
102
RTVSPropertyOp28
 70
     1
102
RTVSPropertyOp29
 70
     1
102
RTVSPropertyOp30
 70
     1
102
RTVSPropertyOp31
 70
     1
102
RTVSPropertyOp32
 70
     1
  0
XRECORD
  5
31B
102
{ACAD_REACTORS
330
31A
102
}
330
31A
100
AcDbXrecord
280
     1
102
RTVSPropertyOp0
 70
     1
102
RTVSPropertyOp1
 70
     1
102
RTVSPropertyOp2
 70
     1
102
RTVSPropertyOp3
 70
     1
102
RTVSPropertyOp4
 70
     1
102
RTVSPropertyOp5
 70
     1
102
RTVSPropertyOp6
 70
     1
102
RTVSPropertyOp7
 70
     1
102
RTVSPropertyOp8
 70
     1
102
RTVSPropertyOp9
 70
     1
102
RTVSPropertyOp10
 70
     1
102
RTVSPropertyOp11
 70
     1
102
RTVSPropertyOp12
 70
     1
102
RTVSPropertyOp13
 70
     1
102
RTVSPropertyOp14
 70
     1
102
RTVSPropertyOp15
 70
     1
102
RTVSPropertyOp16
 70
     1
102
RTVSPropertyOp17
 70
     1
102
RTVSPropertyOp18
 70
     1
102
RTVSPropertyOp19
 70
     1
102
RTVSPropertyOp20
 70
     1
102
RTVSPropertyOp21
 70
     1
102
RTVSPropertyOp22
 70
     1
102
RTVSPropertyOp23
 70
     1
102
RTVSPropertyOp24
 70
     1
102
RTVSPropertyOp25
 70
     1
102
RTVSPropertyOp26
 70
     1
102
RTVSPropertyOp27
 70
     1
102
RTVSPropertyOp28
 70
     1
102
RTVSPropertyOp29
 70
     1
102
RTVSPropertyOp30
 70
     1
102
RTVSPropertyOp31
 70
     1
102
RTVSPropertyOp32
 70
     1
  0
XRECORD
  5
301
102
{ACAD_REACTORS
330
300
102
}
330
300
100
AcDbXrecord
280
     1
102
RTVSPropertyOp0
 70
     1
102
RTVSPropertyOp1
 70
     1
102
RTVSPropertyOp2
 70
     1
102
RTVSPropertyOp3
 70
     1
102
RTVSPropertyOp4
 70
     1
102
RTVSPropertyOp5
 70
     1
102
RTVSPropertyOp6
 70
     1
102
RTVSPropertyOp7
 70
     1
102
RTVSPropertyOp8
 70
     1
102
RTVSPropertyOp9
 70
     1
102
RTVSPropertyOp10
 70
     1
102
RTVSPropertyOp11
 70
     1
102
RTVSPropertyOp12
 70
     1
102
RTVSPropertyOp13
 70
     1
102
RTVSPropertyOp14
 70
     1
102
RTVSPropertyOp15
 70
     1
102
RTVSPropertyOp16
 70
     1
102
RTVSPropertyOp17
 70
     1
102
RTVSPropertyOp18
 70
     1
102
RTVSPropertyOp19
 70
     1
102
RTVSPropertyOp20
 70
     1
102
RTVSPropertyOp21
 70
     1
102
RTVSPropertyOp22
 70
     1
102
RTVSPropertyOp23
 70
     1
102
RTVSPropertyOp24
 70
     1
102
RTVSPropertyOp25
 70
     1
102
RTVSPropertyOp26
 70
     1
102
RTVSPropertyOp27
 70
     1
102
RTVSPropertyOp28
 70
     1
102
RTVSPropertyOp29
 70
     1
102
RTVSPropertyOp30
 70
     1
102
RTVSPropertyOp31
 70
     1
102
RTVSPropertyOp32
 70
     1
  0
XRECORD
  5
327
102
{ACAD_REACTORS
330
326
102
}
330
326
100
AcDbXrecord
280
     1
102
RTVSPropertyOp0
 70
     1
102
RTVSPropertyOp1
 70
     1
102
RTVSPropertyOp2
 70
     1
102
RTVSPropertyOp3
 70
     1
102
RTVSPropertyOp4
 70
     1
102
RTVSPropertyOp5
 70
     1
102
RTVSPropertyOp6
 70
     1
102
RTVSPropertyOp7
 70
     1
102
RTVSPropertyOp8
 70
     1
102
RTVSPropertyOp9
 70
     1
102
RTVSPropertyOp10
 70
     1
102
RTVSPropertyOp11
 70
     1
102
RTVSPropertyOp12
 70
     1
102
RTVSPropertyOp13
 70
     1
102
RTVSPropertyOp14
 70
     1
102
RTVSPropertyOp15
 70
     1
102
RTVSPropertyOp16
 70
     1
102
RTVSPropertyOp17
 70
     1
102
RTVSPropertyOp18
 70
     1
102
RTVSPropertyOp19
 70
     1
102
RTVSPropertyOp20
 70
     1
102
RTVSPropertyOp21
 70
     1
102
RTVSPropertyOp22
 70
     1
102
RTVSPropertyOp23
 70
     1
102
RTVSPropertyOp24
 70
     1
102
RTVSPropertyOp25
 70
     1
102
RTVSPropertyOp26
 70
     1
102
RTVSPropertyOp27
 70
     1
102
RTVSPropertyOp28
 70
     1
102
RTVSPropertyOp29
 70
     1
102
RTVSPropertyOp30
 70
     1
102
RTVSPropertyOp31
 70
     1
102
RTVSPropertyOp32
 70
     1
  0
ENDSEC
  0
EOF
