  0
SECTION
  2
HEADER
  9
$ACADVER
  1
AC1018
  9
$ACADMAINTVER
 70
     0
  9
$DWGCODEPAGE
  3
ANSI_1252
  9
$COMMENTS
  1
File was created by Cadenas
  9
$CUSTOMPROPERTYTAG
  1
NB
  9
$CUSTOMPROPERTY
  1
150300
  9
$CUSTOMPROPERTYTAG
  1
NN
  9
$CUSTOMPROPERTY
  1
RTFset BD 52-12, split
  9
$CUSTOMPROPERTYTAG
  1
NT
  9
$CUSTOMPROPERTY
  1

  9
$CUSTOMPROPERTYTAG
  1
NBSYN
  9
$CUSTOMPROPERTY
  1
$ARTNRTX.
  9
$CUSTOMPROPERTYTAG
  1
LINA
  9
$CUSTOMPROPERTY
  1
150300
  9
$CUSTOMPROPERTYTAG
  1
CATALOG
  9
$CUSTOMPROPERTY
  1
GEBERIT
  9
$CUSTOMPROPERTYTAG
  1
ARTNRT
  9
$CUSTOMPROPERTY
  1
150.300.KJ.1
  9
$CUSTOMPROPERTYTAG
  1
COMPANY
  9
$CUSTOMPROPERTY
  1
geberit
  9
$INSBASE
 10
0.0
 20
0.0
 30
0.0
  9
$EXTMIN
 10
1.000000000000000E+20
 20
1.000000000000000E+20
 30
1.000000000000000E+20
  9
$EXTMAX
 10
-1.000000000000000E+20
 20
-1.000000000000000E+20
 30
-1.000000000000000E+20
  9
$LIMMIN
 10
0.0
 20
0.0
  9
$LIMMAX
 10
420.0
 20
297.0
  9
$ORTHOMODE
 70
     0
  9
$REGENMODE
 70
     1
  9
$FILLMODE
 70
     1
  9
$QTEXTMODE
 70
     0
  9
$MIRRTEXT
 70
     1
  9
$LTSCALE
 40
1.0
  9
$ATTMODE
 70
     1
  9
$TEXTSIZE
 40
2.5
  9
$TRACEWID
 40
1.0
  9
$TEXTSTYLE
  7
Standard
  9
$CLAYER
  8
0
  9
$CELTYPE
  6
ByLayer
  9
$CECOLOR
 62
   256
  9
$CELTSCALE
 40
1.0
  9
$DISPSILH
 70
     0
  9
$DIMSCALE
 40
1.0
  9
$DIMASZ
 40
2.5
  9
$DIMEXO
 40
0.625
  9
$DIMDLI
 40
3.75
  9
$DIMRND
 40
0.0
  9
$DIMDLE
 40
0.0
  9
$DIMEXE
 40
1.25
  9
$DIMTP
 40
0.0
  9
$DIMTM
 40
0.0
  9
$DIMTXT
 40
2.5
  9
$DIMCEN
 40
2.5
  9
$DIMTSZ
 40
0.0
  9
$DIMTOL
 70
     0
  9
$DIMLIM
 70
     0
  9
$DIMTIH
 70
     0
  9
$DIMTOH
 70
     0
  9
$DIMSE1
 70
     0
  9
$DIMSE2
 70
     0
  9
$DIMTAD
 70
     1
  9
$DIMZIN
 70
     8
  9
$DIMBLK
  1

  9
$DIMASO
 70
     1
  9
$DIMSHO
 70
     1
  9
$DIMPOST
  1

  9
$DIMAPOST
  1

  9
$DIMALT
 70
     0
  9
$DIMALTD
 70
     3
  9
$DIMALTF
 40
0.03937007874016
  9
$DIMLFAC
 40
1.0
  9
$DIMTOFL
 70
     1
  9
$DIMTVP
 40
0.0
  9
$DIMTIX
 70
     0
  9
$DIMSOXD
 70
     0
  9
$DIMSAH
 70
     0
  9
$DIMBLK1
  1

  9
$DIMBLK2
  1

  9
$DIMSTYLE
  2
ISO-25
  9
$DIMCLRD
 70
     0
  9
$DIMCLRE
 70
     0
  9
$DIMCLRT
 70
     0
  9
$DIMTFAC
 40
1.0
  9
$DIMGAP
 40
0.625
  9
$DIMJUST
 70
     0
  9
$DIMSD1
 70
     0
  9
$DIMSD2
 70
     0
  9
$DIMTOLJ
 70
     0
  9
$DIMTZIN
 70
     8
  9
$DIMALTZ
 70
     0
  9
$DIMALTTZ
 70
     0
  9
$DIMUPT
 70
     0
  9
$DIMDEC
 70
     2
  9
$DIMTDEC
 70
     2
  9
$DIMALTU
 70
     2
  9
$DIMALTTD
 70
     3
  9
$DIMTXSTY
  7
Standard
  9
$DIMAUNIT
 70
     0
  9
$DIMADEC
 70
     0
  9
$DIMALTRND
 40
0.0
  9
$DIMAZIN
 70
     0
  9
$DIMDSEP
 70
    44
  9
$DIMATFIT
 70
     3
  9
$DIMFRAC
 70
     0
  9
$DIMLDRBLK
  1

  9
$DIMLUNIT
 70
     2
  9
$DIMLWD
 70
    -2
  9
$DIMLWE
 70
    -2
  9
$DIMTMOVE
 70
     0
  9
$LUNITS
 70
     2
  9
$LUPREC
 70
     4
  9
$SKETCHINC
 40
1.0
  9
$FILLETRAD
 40
10.0
  9
$AUNITS
 70
     0
  9
$AUPREC
 70
     0
  9
$MENU
  1
.
  9
$ELEVATION
 40
0.0
  9
$PELEVATION
 40
0.0
  9
$THICKNESS
 40
0.0
  9
$LIMCHECK
 70
     0
  9
$CHAMFERA
 40
0.0
  9
$CHAMFERB
 40
0.0
  9
$CHAMFERC
 40
0.0
  9
$CHAMFERD
 40
0.0
  9
$SKPOLY
 70
     0
  9
$TDCREATE
 40
2459415.659004456
  9
$TDUCREATE
 40
2459415.575671123
  9
$TDUPDATE
 40
2459415.659004838
  9
$TDUUPDATE
 40
2459415.575671505
  9
$TDINDWG
 40
0.0000000116
  9
$TDUSRTIMER
 40
0.0000000116
  9
$USRTIMER
 70
     1
  9
$ANGBASE
 50
0.0
  9
$ANGDIR
 70
     0
  9
$PDMODE
 70
     0
  9
$PDSIZE
 40
0.0
  9
$PLINEWID
 40
0.0
  9
$SPLFRAME
 70
     0
  9
$SPLINETYPE
 70
     6
  9
$SPLINESEGS
 70
     8
  9
$HANDSEED
  5
48F
  9
$SURFTAB1
 70
     6
  9
$SURFTAB2
 70
     6
  9
$SURFTYPE
 70
     6
  9
$SURFU
 70
     6
  9
$SURFV
 70
     6
  9
$UCSBASE
  2

  9
$UCSNAME
  2

  9
$UCSORG
 10
0.0
 20
0.0
 30
0.0
  9
$UCSXDIR
 10
1.0
 20
0.0
 30
0.0
  9
$UCSYDIR
 10
0.0
 20
1.0
 30
0.0
  9
$UCSORTHOREF
  2

  9
$UCSORTHOVIEW
 70
     0
  9
$UCSORGTOP
 10
0.0
 20
0.0
 30
0.0
  9
$UCSORGBOTTOM
 10
0.0
 20
0.0
 30
0.0
  9
$UCSORGLEFT
 10
0.0
 20
0.0
 30
0.0
  9
$UCSORGRIGHT
 10
0.0
 20
0.0
 30
0.0
  9
$UCSORGFRONT
 10
0.0
 20
0.0
 30
0.0
  9
$UCSORGBACK
 10
0.0
 20
0.0
 30
0.0
  9
$PUCSBASE
  2

  9
$PUCSNAME
  2

  9
$PUCSORG
 10
0.0
 20
0.0
 30
0.0
  9
$PUCSXDIR
 10
1.0
 20
0.0
 30
0.0
  9
$PUCSYDIR
 10
0.0
 20
1.0
 30
0.0
  9
$PUCSORTHOREF
  2

  9
$PUCSORTHOVIEW
 70
     0
  9
$PUCSORGTOP
 10
0.0
 20
0.0
 30
0.0
  9
$PUCSORGBOTTOM
 10
0.0
 20
0.0
 30
0.0
  9
$PUCSORGLEFT
 10
0.0
 20
0.0
 30
0.0
  9
$PUCSORGRIGHT
 10
0.0
 20
0.0
 30
0.0
  9
$PUCSORGFRONT
 10
0.0
 20
0.0
 30
0.0
  9
$PUCSORGBACK
 10
0.0
 20
0.0
 30
0.0
  9
$USERI1
 70
     0
  9
$USERI2
 70
     0
  9
$USERI3
 70
     0
  9
$USERI4
 70
     0
  9
$USERI5
 70
     0
  9
$USERR1
 40
0.0
  9
$USERR2
 40
0.0
  9
$USERR3
 40
0.0
  9
$USERR4
 40
0.0
  9
$USERR5
 40
0.0
  9
$WORLDVIEW
 70
     1
  9
$SHADEDGE
 70
     3
  9
$SHADEDIF
 70
    70
  9
$TILEMODE
 70
     1
  9
$MAXACTVP
 70
    64
  9
$PINSBASE
 10
0.0
 20
0.0
 30
0.0
  9
$PLIMCHECK
 70
     0
  9
$PEXTMIN
 10
1.000000000000000E+20
 20
1.000000000000000E+20
 30
1.000000000000000E+20
  9
$PEXTMAX
 10
-1.000000000000000E+20
 20
-1.000000000000000E+20
 30
-1.000000000000000E+20
  9
$PLIMMIN
 10
0.0
 20
0.0
  9
$PLIMMAX
 10
420.0
 20
297.0
  9
$UNITMODE
 70
     0
  9
$VISRETAIN
 70
     1
  9
$PLINEGEN
 70
     0
  9
$PSLTSCALE
 70
     1
  9
$TREEDEPTH
 70
  3020
  9
$CMLSTYLE
  2
Standard
  9
$CMLJUST
 70
     0
  9
$CMLSCALE
 40
20.0
  9
$PROXYGRAPHICS
 70
     1
  9
$MEASUREMENT
 70
     1
  9
$CELWEIGHT
370
    -1
  9
$ENDCAPS
280
     0
  9
$JOINSTYLE
280
     0
  9
$LWDISPLAY
290
     0
  9
$INSUNITS
 70
     4
  9
$HYPERLINKBASE
  1

  9
$STYLESHEET
  1

  9
$XEDIT
290
     1
  9
$CEPSNTYPE
380
     0
  9
$PSTYLEMODE
290
     1
  9
$FINGERPRINTGUID
  2
{A32D3AB1-C2CF-4CA5-A41F-D7694077588F}
  9
$VERSIONGUID
  2
{FAEB1C32-E019-11D5-929B-00C0DF256EC4}
  9
$EXTNAMES
290
     1
  9
$PSVPSCALE
 40
0.0
  9
$OLESTARTUP
290
     0
  9
$SORTENTS
280
   127
  9
$INDEXCTL
280
     0
  9
$HIDETEXT
280
     1
  9
$XCLIPFRAME
290
     0
  9
$HALOGAP
280
     0
  9
$OBSCOLOR
 70
   257
  9
$OBSLTYPE
280
     0
  9
$INTERSECTIONDISPLAY
280
     0
  9
$INTERSECTIONCOLOR
 70
   257
  9
$DIMASSOC
280
     2
  9
$PROJECTNAME
  1

  0
ENDSEC
  0
SECTION
  2
CLASSES
  0
CLASS
  1
ACDBDICTIONARYWDFLT
  2
AcDbDictionaryWithDefault
  3
ObjectDBX Classes
 90
        0
 91
        4
280
     0
281
     0
  0
CLASS
  1
VISUALSTYLE
  2
AcDbVisualStyle
  3
ObjectDBX Classes
 90
     4095
 91
        4
280
     0
281
     0
  0
CLASS
  1
MATERIAL
  2
AcDbMaterial
  3
ObjectDBX Classes
 90
     1153
 91
        4
280
     0
281
     0
  0
CLASS
  1
SCALE
  2
AcDbScale
  3
ObjectDBX Classes
 90
     1153
 91
        4
280
     0
281
     0
  0
CLASS
  1
TABLESTYLE
  2
AcDbTableStyle
  3
ObjectDBX Classes
 90
     4095
 91
        4
280
     0
281
     0
  0
CLASS
  1
MLEADERSTYLE
  2
AcDbMLeaderStyle
  3
ACDB_MLEADERSTYLE_CLASS
 90
     4095
 91
        4
280
     0
281
     0
  0
CLASS
  1
SUN
  2
AcDbSun
  3
SCENEOE
 90
     1153
 91
        4
280
     0
281
     0
  0
CLASS
  1
DICTIONARYVAR
  2
AcDbDictionaryVar
  3
ObjectDBX Classes
 90
        0
 91
        4
280
     0
281
     0
  0
CLASS
  1
CELLSTYLEMAP
  2
AcDbCellStyleMap
  3
ObjectDBX Classes
 90
     1152
 91
        4
280
     0
281
     0
  0
ENDSEC
  0
SECTION
  2
TABLES
  0
TABLE
  2
VPORT
  5
8
102
{ACAD_XDICTIONARY
360
447
102
}
330
0
100
AcDbSymbolTable
 70
     1
  0
VPORT
  5
29
330
8
100
AcDbSymbolTableRecord
100
AcDbViewportTableRecord
  2
*Active
 70
     0
 10
0.0
 20
0.0
 11
1.0
 21
1.0
 12
-27.75000000000006
 22
34.57348305151396
 13
0.0
 23
0.0
 14
10.0
 24
10.0
 15
10.0
 25
10.0
 16
0.0
 26
0.0
 36
1.0
 17
0.0
 27
0.0
 37
0.0
 40
228.8082014250885
 41
0.6441639726286442
 42
50.0
 43
0.0
 44
0.0
 50
0.0
 51
0.0
 71
     0
 72
   100
 73
     1
 74
     3
 75
     0
 76
     0
 77
     0
 78
     0
281
     0
 65
     1
110
0.0
120
0.0
130
0.0
111
1.0
121
0.0
131
0.0
112
0.0
122
1.0
132
0.0
 79
     0
146
0.0
  0
ENDTAB
  0
TABLE
  2
LTYPE
  5
5
330
0
100
AcDbSymbolTable
 70
     3
  0
LTYPE
  5
14
330
5
100
AcDbSymbolTableRecord
100
AcDbLinetypeTableRecord
  2
ByBlock
 70
     0
  3

 72
    65
 73
     0
 40
0.0
  0
LTYPE
  5
15
330
5
100
AcDbSymbolTableRecord
100
AcDbLinetypeTableRecord
  2
ByLayer
 70
     0
  3

 72
    65
 73
     0
 40
0.0
  0
LTYPE
  5
16
330
5
100
AcDbSymbolTableRecord
100
AcDbLinetypeTableRecord
  2
Continuous
 70
     0
  3
Solid line
 72
    65
 73
     0
 40
0.0
  0
LTYPE
  5
87
330
5
100
AcDbSymbolTableRecord
100
AcDbLinetypeTableRecord
  2
Dashed
 70
     0
  3

 72
    65
 73
     2
 40
2.0
 49
1.0
 74
     0
 49
-1.0
 74
     0
  0
LTYPE
  5
3A5
330
5
100
AcDbSymbolTableRecord
100
AcDbLinetypeTableRecord
  2
Center
 70
     0
  3

 72
    65
 73
     4
 40
1.5
 49
0.45
 74
     0
 49
-0.5
 74
     0
 49
0.05
 74
     0
 49
-0.5
 74
     0
  0
ENDTAB
  0
TABLE
  2
LAYER
  5
2
330
0
100
AcDbSymbolTable
 70
     6
  0
LAYER
  5
10
330
2
100
AcDbSymbolTableRecord
100
AcDbLayerTableRecord
  2
0
 70
     0
 62
     7
  6
Continuous
370
    -3
390
F
  0
LAYER
  5
6E
330
2
100
AcDbSymbolTableRecord
100
AcDbLayerTableRecord
  2
ATTR
 70
     0
 62
    -2
  6
Continuous
370
    35
390
F
  0
LAYER
  5
88
330
2
100
AcDbSymbolTableRecord
100
AcDbLayerTableRecord
  2
VER
 70
     0
 62
    -6
  6
Dashed
370
    25
390
F
  0
LAYER
  5
BA
330
2
100
AcDbSymbolTableRecord
100
AcDbLayerTableRecord
  2
050
 70
     0
 62
     7
  6
Continuous
370
    50
390
F
  0
LAYER
  5
3A6
330
2
100
AcDbSymbolTableRecord
100
AcDbLayerTableRecord
  2
MITTE
 70
     0
 62
     7
  6
Center
370
    25
390
F
  0
LAYER
  5
437
330
2
100
AcDbSymbolTableRecord
100
AcDbLayerTableRecord
  2
2d ConnectionPoints
 70
     0
 62
    -7
  6
Continuous
370
    50
390
F
  0
ENDTAB
  0
TABLE
  2
STYLE
  5
3
330
0
100
AcDbSymbolTable
 70
     1
  0
STYLE
  5
11
330
3
100
AcDbSymbolTableRecord
100
AcDbTextStyleTableRecord
  2
Standard
 70
     0
 40
0.0
 41
1.0
 50
0.0
 71
     0
 42
2.5
  3
txt
  4

  0
ENDTAB
  0
TABLE
  2
VIEW
  5
6
330
0
100
AcDbSymbolTable
 70
     0
  0
ENDTAB
  0
TABLE
  2
UCS
  5
7
330
0
100
AcDbSymbolTable
 70
     0
  0
ENDTAB
  0
TABLE
  2
APPID
  5
9
330
0
100
AcDbSymbolTable
 70
     2
  0
APPID
  5
12
330
9
100
AcDbSymbolTableRecord
100
AcDbRegAppTableRecord
  2
ACAD
 70
     0
  0
APPID
  5
486
330
9
100
AcDbSymbolTableRecord
100
AcDbRegAppTableRecord
  2
ACAD_MLEADERVER
 70
     0
  0
ENDTAB
  0
TABLE
  2
DIMSTYLE
  5
A
330
0
100
AcDbSymbolTable
 70
     1
100
AcDbDimStyleTable
  0
DIMSTYLE
105
27
330
A
100
AcDbSymbolTableRecord
100
AcDbDimStyleTableRecord
  2
ISO-25
 70
     0
 41
2.5
 42
0.625
 43
3.75
 44
1.25
 73
     0
 74
     0
 77
     1
 78
     8
140
2.5
141
2.5
143
0.03937007874016
147
0.625
171
     3
172
     1
178
     0
271
     2
272
     2
274
     3
278
    44
283
     0
284
     8
340
11
  0
ENDTAB
  0
TABLE
  2
BLOCK_RECORD
  5
1
330
0
100
AcDbSymbolTable
 70
     6
  0
BLOCK_RECORD
  5
1F
330
1
100
AcDbSymbolTableRecord
100
AcDbBlockTableRecord
  2
*Model_Space
340
22
  0
BLOCK_RECORD
  5
1B
330
1
100
AcDbSymbolTableRecord
100
AcDbBlockTableRecord
  2
*Paper_Space
340
1E
  0
BLOCK_RECORD
  5
23
330
1
100
AcDbSymbolTableRecord
100
AcDbBlockTableRecord
  2
*Paper_Space0
340
26
  0
BLOCK_RECORD
  5
79
330
1
100
AcDbSymbolTableRecord
100
AcDbBlockTableRecord
  2
1_893_735_scheibe_0_in_150300_0
340
0
102
{BLKREFS
331
7A
102
}
  0
BLOCK_RECORD
  5
BF
330
1
100
AcDbSymbolTableRecord
100
AcDbBlockTableRecord
  2
2_893_735_mitnehmer_0_in_150300_0
340
0
102
{BLKREFS
331
C0
102
}
  0
BLOCK_RECORD
  5
197
330
1
100
AcDbSymbolTableRecord
100
AcDbBlockTableRecord
  2
3_893_735_metallrosette_0_in_150300_0
340
0
102
{BLKREFS
331
198
102
}
  0
BLOCK_RECORD
  5
205
330
1
100
AcDbSymbolTableRecord
100
AcDbBlockTableRecord
  2
4_893_743_0_in_150300_0
340
0
102
{BLKREFS
331
206
102
}
  0
BLOCK_RECORD
  5
2E0
330
1
100
AcDbSymbolTableRecord
100
AcDbBlockTableRecord
  2
5_893_741_0_in_150300_0
340
0
102
{BLKREFS
331
2E1
102
}
  0
ENDTAB
  0
ENDSEC
  0
SECTION
  2
BLOCKS
  0
BLOCK
  5
20
330
1F
100
AcDbEntity
  8
0
100
AcDbBlockBegin
  2
*Model_Space
 70
     0
 10
0.0
 20
0.0
 30
0.0
  3
*Model_Space
  1

  0
ENDBLK
  5
21
330
1F
100
AcDbEntity
  8
0
100
AcDbBlockEnd
  0
BLOCK
  5
1C
330
1B
100
AcDbEntity
 67
     1
  8
0
100
AcDbBlockBegin
  2
*Paper_Space
 70
     0
 10
0.0
 20
0.0
 30
0.0
  3
*Paper_Space
  1

  0
ENDBLK
  5
1D
330
1B
100
AcDbEntity
 67
     1
  8
0
100
AcDbBlockEnd
  0
BLOCK
  5
24
330
23
100
AcDbEntity
  8
0
100
AcDbBlockBegin
  2
*Paper_Space0
 70
     0
 10
0.0
 20
0.0
 30
0.0
  3
*Paper_Space0
  1

  0
ENDBLK
  5
25
330
23
100
AcDbEntity
  8
0
100
AcDbBlockEnd
  0
BLOCK
  5
7B
330
79
100
AcDbEntity
  8
0
100
AcDbBlockBegin
  2
1_893_735_scheibe_0_in_150300_0
 70
     2
 10
0.0
 20
0.0
 30
0.0
  3
1_893_735_scheibe_0_in_150300_0
  1

  0
ATTDEF
  5
7D
330
79
100
AcDbEntity
  8
ATTR
100
AcDbText
 10
-69.76500000000021
 20
143.825
 30
0.0
 40
0.5
  1
893.735_scheibe
100
AcDbAttributeDefinition
  3

  2
NB
 70
     8
  0
ATTDEF
  5
7E
330
79
100
AcDbEntity
  8
ATTR
100
AcDbText
 10
-69.76500000000021
 20
143.325
 30
0.0
 40
0.5
  1
893.735 Scheibe
100
AcDbAttributeDefinition
  3

  2
NN
 70
     8
  0
ATTDEF
  5
7F
330
79
100
AcDbEntity
  8
ATTR
100
AcDbText
 10
-69.76500000000021
 20
142.825
 30
0.0
 40
0.5
  1

100
AcDbAttributeDefinition
  3

  2
NT
 70
     8
  0
ATTDEF
  5
80
330
79
100
AcDbEntity
  8
ATTR
100
AcDbText
 10
-69.76500000000021
 20
142.325
 30
0.0
 40
0.5
  1
$ARTNRT._scheibe
100
AcDbAttributeDefinition
  3

  2
NBSYN
 70
     8
  0
ATTDEF
  5
81
330
79
100
AcDbEntity
  8
ATTR
100
AcDbText
 10
-69.76500000000021
 20
141.825
 30
0.0
 40
0.5
  1
893.735_scheibe
100
AcDbAttributeDefinition
  3

  2
LINA
 70
     8
  0
ATTDEF
  5
82
330
79
100
AcDbEntity
  8
ATTR
100
AcDbText
 10
-69.76500000000021
 20
141.325
 30
0.0
 40
0.5
  1
GEBERIT
100
AcDbAttributeDefinition
  3

  2
CATALOG
 70
     8
  0
ATTDEF
  5
83
330
79
100
AcDbEntity
  8
ATTR
100
AcDbText
 10
-69.76500000000021
 20
140.825
 30
0.0
 40
0.5
  1
893.735
100
AcDbAttributeDefinition
  3

  2
ARTNRT
 70
     8
  0
ATTDEF
  5
84
330
79
100
AcDbEntity
  8
ATTR
100
AcDbText
 10
-69.76500000000021
 20
140.325
 30
0.0
 40
0.5
  1
geberit
100
AcDbAttributeDefinition
  3

  2
COMPANY
 70
     8
  0
ATTDEF
  5
85
330
79
100
AcDbEntity
  8
ATTR
100
AcDbText
 10
-69.76500000000021
 20
139.825
 30
0.0
 40
0.5
  1
{$CADENAS_DATA\23d-libs\geberit\waste_fitting\fur_badewannen\common_parts_893\893_735_parts\893_735_scheibe.prj},179 {VTYP=3D},{NB=893.735_scheibe},{LINA=893.735_scheibe},{NN=893.735 Scheibe},{DATE=18.06.2021 09:34:54},{GEOMDATE=18.06.2021 09:34:00},{VERS
100
AcDbAttributeDefinition
  3

  2
PSOL_0
 70
     9
  0
ATTDEF
  5
86
330
79
100
AcDbEntity
  8
ATTR
100
AcDbText
 10
-69.76500000000021
 20
139.325
 30
0.0
 40
0.5
  1
ION=},{LINEID=10},{WBVAR=},{WBNUMERIC=}  {NB=893.735_scheibe},{LINA=893.735_scheibe},{KT=DUMMY},{ARTNRT=893.735}
100
AcDbAttributeDefinition
  3

  2
PSOL_1
 70
     9
  0
LWPOLYLINE
  5
89
330
79
100
AcDbEntity
  8
VER
100
AcDbPolyline
 90
        4
 70
     0
 43
0.0
 10
-77.98899999999985
 20
82.93602218861915
 10
-78.0006814627286
 20
82.73521248776719
 10
-78.01111551581799
 20
82.6431525759003
 10
-78.01330406086564
 20
82.63930899287426
  0
LINE
  5
8A
330
79
100
AcDbEntity
  8
VER
100
AcDbLine
 10
-77.989
 20
82.93602218861204
 30
0.0
 11
-77.989
 21
84.83326724160679
 31
0.0
  0
LINE
  5
8B
330
79
100
AcDbEntity
  8
VER
100
AcDbLine
 10
-77.989
 20
115.1667327583932
 30
0.0
 11
-77.989
 21
117.063977811388
 31
0.0
  0
LWPOLYLINE
  5
8C
330
79
100
AcDbEntity
  8
VER
100
AcDbPolyline
 90
        3
 70
     0
 43
0.0
 10
-77.98899999999993
 20
117.063977811388
 10
-78.00068146272855
 20
117.2647875122375
 10
-78.01111551581789
 20
117.3568474241007
  0
LINE
  5
8D
330
79
100
AcDbEntity
  8
VER
100
AcDbLine
 10
-78.01283500746199
 20
117.3606832832096
 30
0.0
 11
-85.049
 21
117.4835
 31
0.0
  0
LINE
  5
8E
330
79
100
AcDbEntity
  8
VER
100
AcDbLine
 10
-85.049
 20
115.0435
 30
0.0
 11
-77.989
 21
115.1667327583932
 31
0.0
  0
LWPOLYLINE
  5
8F
330
79
100
AcDbEntity
  8
VER
100
AcDbPolyline
 90
        9
 70
     0
 43
0.0
 10
-78.01330406086537
 20
117.3606910071257
 10
-78.01892232642838
 20
117.3255674155328
 10
-78.02322100825748
 20
117.1745664751481
 10
-78.02353088164969
 20
116.9210024869913
 10
-78.01982099173493
 20
116.5934999682114
 10
-78.01250985620072
 20
116.2288881796451
 10
-78.00241807498433
 20
115.86813746026
 10
-77.99067931295397
 20
115.5518685954254
 10
-77.9889999999999
 20
115.5137442692872
  0
LWPOLYLINE
  5
90
330
79
100
AcDbEntity
  8
VER
100
AcDbPolyline
 90
        8
 70
     0
 43
0.0
 10
-77.98899999999996
 20
84.48625573071283
 10
-78.00068146272856
 20
84.18457254420512
 10
-78.01111551581789
 20
83.82780556776389
 10
-78.0189223264284
 20
83.46071542005542
 10
-78.0232210082575
 20
83.12480818159362
 10
-78.02353088164972
 20
82.85791514157336
 10
-78.01982099173486
 20
82.68999210435904
 10
-78.01331060661904
 20
82.63930865618211
  0
LINE
  5
91
330
79
100
AcDbEntity
  8
VER
100
AcDbLine
 10
-77.989
 20
84.83326724160679
 30
0.0
 11
-85.049
 21
84.9565
 31
0.0
  0
LINE
  5
92
330
79
100
AcDbEntity
  8
VER
100
AcDbLine
 10
-85.049
 20
82.51650000000001
 30
0.0
 11
-78.01309843324306
 21
82.6393121186763
 31
0.0
  0
LWPOLYLINE
  5
93
330
79
100
AcDbEntity
  8
VER
100
AcDbPolyline
 90
        5
 70
     0
 43
0.0
 10
-78.01331060661904
 20
82.63930865618211
 10
-78.01250985620078
 20
82.63986846449171
 10
-78.00241807498428
 20
82.7132206371709
 10
-77.99067931295403
 20
82.90190822843701
 10
-77.98899999999983
 20
82.93602218861204
  0
LINE
  5
94
330
79
100
AcDbEntity
  8
VER
100
AcDbLine
 10
-84.04899999999999
 20
85.15103534186973
 30
0.0
 11
-85.0409191955963
 21
85.13879248518715
 31
0.0
  0
LINE
  5
95
330
79
100
AcDbEntity
  8
VER
100
AcDbLine
 10
-85.0409191955963
 20
82.33420751481285
 30
0.0
 11
-84.04899999999999
 21
82.32196465813028
 31
0.0
  0
LINE
  5
96
330
79
100
AcDbEntity
  8
VER
100
AcDbLine
 10
-85.049
 20
81.7535
 30
0.0
 11
-85.040919195597
 21
81.75335894903448
 31
0.0
  0
LINE
  5
97
330
79
100
AcDbEntity
  8
VER
100
AcDbLine
 10
-84.04899999999999
 20
81.73604493507179
 30
0.0
 11
-78.03906909377602
 21
81.63114120088954
 31
0.0
  0
LINE
  5
98
330
79
100
AcDbEntity
  8
VER
100
AcDbLine
 10
-77.94220442329234
 20
85.843549578223
 30
0.0
 11
-85.049
 21
85.71950000000001
 31
0.0
  0
LINE
  5
99
330
79
100
AcDbEntity
  8
VER
100
AcDbLine
 10
-85.049
 20
81.7535
 30
0.0
 11
-85.049
 21
85.71950000000001
 31
0.0
  0
LWPOLYLINE
  5
9A
330
79
100
AcDbEntity
  8
VER
100
AcDbPolyline
 90
        4
 70
     0
 43
0.0
 10
-77.94119552230921
 20
85.84356645145454
 10
-77.93098916099476
 20
85.78441965844391
 10
-77.92238426190771
 20
85.50492444728293
 10
-77.92085690276215
 20
85.22667252885314
  0
LINE
  5
9B
330
79
100
AcDbEntity
  8
VER
100
AcDbLine
 10
-84.04899999999999
 20
117.6780353418697
 30
0.0
 11
-85.0409191955963
 21
117.6657924851872
 31
0.0
  0
LINE
  5
9C
330
79
100
AcDbEntity
  8
VER
100
AcDbLine
 10
-85.0409191955963
 20
114.8612075148128
 30
0.0
 11
-84.04899999999999
 21
114.8489646581303
 31
0.0
  0
LINE
  5
9D
330
79
100
AcDbEntity
  8
VER
100
AcDbLine
 10
-85.049
 20
114.2805
 30
0.0
 11
-85.04091919559467
 21
114.2803589490344
 31
0.0
  0
LINE
  5
9E
330
79
100
AcDbEntity
  8
VER
100
AcDbLine
 10
-84.04899999999999
 20
114.2630449350718
 30
0.0
 11
-77.94219269225324
 21
114.156450217011
 31
0.0
  0
LINE
  5
9F
330
79
100
AcDbEntity
  8
VER
100
AcDbLine
 10
-78.03888312008074
 20
118.3688620452934
 30
0.0
 11
-85.049
 21
118.2465
 31
0.0
  0
LINE
  5
A0
330
79
100
AcDbEntity
  8
VER
100
AcDbLine
 10
-85.049
 20
114.2805
 30
0.0
 11
-85.049
 21
118.2465
 31
0.0
  0
ELLIPSE
  5
A1
330
79
100
AcDbEntity
  8
VER
100
AcDbEllipse
 10
-84.44900000000003
 20
85.06939628253667
 30
0.0
 11
0.5999999999999659
 21
0.0
 31
0.0
210
0.0
220
0.0
230
1.0
 40
0.7071067811865271
 41
1.570796326794802
 42
2.977285942894238
  0
ELLIPSE
  5
A2
330
79
100
AcDbEntity
  8
VER
100
AcDbEllipse
 10
-84.44899999999998
 20
82.40360371746335
 30
0.0
 11
-0.6000000000000227
 21
1.392906215527132E-14
 31
0.0
210
0.0
220
0.0
230
1.0
 40
0.7071067811865311
 41
0.1643067106956373
 42
1.570796326794937
  0
ARC
  5
A3
330
79
100
AcDbEntity
  8
VER
100
AcDbCircle
 10
-84.44900000000003
 20
81.85149999999996
 30
0.0
 40
0.5999999999999549
100
AcDbArc
 50
189.4140810685192
 51
270.0000000000055
  0
LINE
  5
A4
330
79
100
AcDbEntity
  8
VER
100
AcDbLine
 10
-85.040919195597
 20
81.75335894903448
 30
0.0
 11
-85.0409191955963
 21
85.13879248518715
 31
0.0
  0
ELLIPSE
  5
A5
330
79
100
AcDbEntity
  8
VER
100
AcDbEllipse
 10
-84.44900000000001
 20
117.5963962825366
 30
0.0
 11
0.5999999999999659
 21
-1.453544801503888E-14
 31
0.0
210
0.0
220
0.0
230
1.0
 40
0.7071067811865982
 41
1.570796326795008
 42
2.977285942894222
  0
ELLIPSE
  5
A6
330
79
100
AcDbEntity
  8
VER
100
AcDbEllipse
 10
-84.44900000000001
 20
114.9306037174633
 30
0.0
 11
-0.5999999999999801
 21
7.347880794883876E-17
 31
0.0
210
0.0
220
0.0
230
1.0
 40
0.707106781186534
 41
0.1643067106955831
 42
1.570796326794802
  0
ARC
  5
A7
330
79
100
AcDbEntity
  8
VER
100
AcDbCircle
 10
-84.44900000000004
 20
114.3785
 30
0.0
 40
0.5999999999999569
100
AcDbArc
 50
189.4140810685618
 51
269.9999999999972
  0
LINE
  5
A8
330
79
100
AcDbEntity
  8
VER
100
AcDbLine
 10
-85.04091919559467
 20
114.2803589490344
 30
0.0
 11
-85.0409191955963
 21
117.6657924851872
 31
0.0
  0
LINE
  5
A9
330
79
100
AcDbEntity
  8
VER
100
AcDbLine
 10
-84.44899999999997
 20
85.49366035124856
 30
0.0
 11
-84.04899999999999
 21
85.50353743641331
 31
0.0
  0
LINE
  5
AA
330
79
100
AcDbEntity
  8
VER
100
AcDbLine
 10
-84.44899999999997
 20
81.97933964875142
 30
0.0
 11
-84.04899999999999
 21
81.9694625635867
 31
0.0
  0
LINE
  5
AB
330
79
100
AcDbEntity
  8
VER
100
AcDbLine
 10
-84.44899999999997
 20
81.25150000000001
 30
0.0
 11
-84.04899999999999
 21
81.2375316922033
 31
0.0
  0
LINE
  5
AC
330
79
100
AcDbEntity
  8
VER
100
AcDbLine
 10
-84.04899999999999
 20
81.2375316922033
 30
0.0
 11
-84.04899999999999
 21
85.50353743641331
 31
0.0
  0
LINE
  5
AD
330
79
100
AcDbEntity
  8
VER
100
AcDbLine
 10
-84.44899999999997
 20
81.25150000000001
 30
0.0
 11
-84.44899999999997
 21
85.49366035124856
 31
0.0
  0
LINE
  5
AE
330
79
100
AcDbEntity
  8
VER
100
AcDbLine
 10
-84.44900000000007
 20
118.0206603512486
 30
0.0
 11
-84.04899999999999
 21
118.0305374364133
 31
0.0
  0
LINE
  5
AF
330
79
100
AcDbEntity
  8
VER
100
AcDbLine
 10
-84.44900000000007
 20
114.5063396487514
 30
0.0
 11
-84.04899999999999
 21
114.4964625635867
 31
0.0
  0
LINE
  5
B0
330
79
100
AcDbEntity
  8
VER
100
AcDbLine
 10
-84.44900000000007
 20
113.7785
 30
0.0
 11
-84.04899999999999
 21
113.7645316922033
 31
0.0
  0
LINE
  5
B1
330
79
100
AcDbEntity
  8
VER
100
AcDbLine
 10
-84.04899999999999
 20
113.7645316922033
 30
0.0
 11
-84.04899999999999
 21
118.0305374364133
 31
0.0
  0
LINE
  5
B2
330
79
100
AcDbEntity
  8
VER
100
AcDbLine
 10
-84.44900000000007
 20
113.7785
 30
0.0
 11
-84.44900000000007
 21
118.0206603512486
 31
0.0
  0
LWPOLYLINE
  5
B3
330
79
100
AcDbEntity
  8
VER
100
AcDbPolyline
 90
        4
 70
     0
 43
0.0
 10
-77.92085690276215
 20
114.7733274711469
 10
-77.92475629003216
 20
114.3644406546641
 10
-77.93601355105696
 20
114.1693911515515
 10
-77.94111958436031
 20
114.1564320218834
  0
ARC
  5
B4
330
79
100
AcDbEntity
  8
VER
100
AcDbCircle
 10
-777.6090000003485
 20
100.0
 30
0.0
 40
700.0000000003483
100
AcDbArc
 50
357.7493217552681
 51
2.250678244731871
  0
ARC
  5
B5
330
79
100
AcDbEntity
  8
VER
100
AcDbCircle
 10
-76.32410755129655
 20
143.5931159182121
 30
0.0
 40
0.1999999999999774
100
AcDbArc
 50
36.8185149576154
 51
89.00000000004862
  0
ARC
  5
B6
330
79
100
AcDbEntity
  8
VER
100
AcDbCircle
 10
-76.3241075512966
 20
56.4068840817879
 30
0.0
 40
0.199999999999985
100
AcDbArc
 50
270.9999999999677
 51
323.1814850424041
  0
LINE
  5
B7
330
79
100
AcDbEntity
  8
VER
100
AcDbLine
 10
-76.32061707000926
 20
143.7930854572434
 30
0.0
 11
-78.149
 21
143.825
 31
0.0
  0
LINE
  5
B8
330
79
100
AcDbEntity
  8
VER
100
AcDbLine
 10
-78.149
 20
56.175
 30
0.0
 11
-76.32061707000926
 21
56.20691454275664
 31
0.0
  0
LINE
  5
B9
330
79
100
AcDbEntity
  8
VER
100
AcDbLine
 10
-76.32061707000926
 20
56.20691454275664
 30
0.0
 11
-76.32061707000926
 21
143.7930854572434
 31
0.0
  0
ARC
  5
BB
330
79
100
AcDbEntity
  8
050
100
AcDbCircle
 10
-774.765000000094
 20
100.0
 30
0.0
 40
700.0000000000938
100
AcDbArc
 50
356.4285227568481
 51
3.571477243151931
  0
ARC
  5
BC
330
79
100
AcDbEntity
  8
050
100
AcDbCircle
 10
-76.32410755129675
 20
143.593115918212
 30
0.0
 40
0.2000000000001448
100
AcDbArc
 50
3.571477243158803
 51
36.81851495759428
  0
ARC
  5
BD
330
79
100
AcDbEntity
  8
050
100
AcDbCircle
 10
-76.32410755129636
 20
56.40688408178782
 30
0.0
 40
0.1999999999997571
100
AcDbArc
 50
323.1814850423805
 51
356.4285227568769
  0
LINE
  5
BE
330
79
100
AcDbEntity
  8
050
100
AcDbLine
 10
-76.12449597871904
 20
56.39442534617256
 30
0.0
 11
-76.12449597871904
 21
143.6055746538275
 31
0.0
  0
ENDBLK
  5
7C
330
79
100
AcDbEntity
  8
0
100
AcDbBlockEnd
  0
BLOCK
  5
C1
330
BF
100
AcDbEntity
  8
0
100
AcDbBlockBegin
  2
2_893_735_mitnehmer_0_in_150300_0
 70
     2
 10
0.0
 20
0.0
 30
0.0
  3
2_893_735_mitnehmer_0_in_150300_0
  1

  0
ATTDEF
  5
C3
330
BF
100
AcDbEntity
  8
ATTR
100
AcDbText
 10
-73.14899999999986
 20
131.25
 30
0.0
 40
0.5
  1
893.735_mitnehmer
100
AcDbAttributeDefinition
  3

  2
NB
 70
     8
  0
ATTDEF
  5
C4
330
BF
100
AcDbEntity
  8
ATTR
100
AcDbText
 10
-73.14899999999986
 20
130.75
 30
0.0
 40
0.5
  1
893.735 Mitnehmer
100
AcDbAttributeDefinition
  3

  2
NN
 70
     8
  0
ATTDEF
  5
C5
330
BF
100
AcDbEntity
  8
ATTR
100
AcDbText
 10
-73.14899999999986
 20
130.25
 30
0.0
 40
0.5
  1

100
AcDbAttributeDefinition
  3

  2
NT
 70
     8
  0
ATTDEF
  5
C6
330
BF
100
AcDbEntity
  8
ATTR
100
AcDbText
 10
-73.14899999999986
 20
129.75
 30
0.0
 40
0.5
  1
$ARTNRT._mitnehmer
100
AcDbAttributeDefinition
  3

  2
NBSYN
 70
     8
  0
ATTDEF
  5
C7
330
BF
100
AcDbEntity
  8
ATTR
100
AcDbText
 10
-73.14899999999986
 20
129.25
 30
0.0
 40
0.5
  1
893.735_mitnehmer
100
AcDbAttributeDefinition
  3

  2
LINA
 70
     8
  0
ATTDEF
  5
C8
330
BF
100
AcDbEntity
  8
ATTR
100
AcDbText
 10
-73.14899999999986
 20
128.75
 30
0.0
 40
0.5
  1
GEBERIT
100
AcDbAttributeDefinition
  3

  2
CATALOG
 70
     8
  0
ATTDEF
  5
C9
330
BF
100
AcDbEntity
  8
ATTR
100
AcDbText
 10
-73.14899999999986
 20
128.25
 30
0.0
 40
0.5
  1
893.735
100
AcDbAttributeDefinition
  3

  2
ARTNRT
 70
     8
  0
ATTDEF
  5
CA
330
BF
100
AcDbEntity
  8
ATTR
100
AcDbText
 10
-73.14899999999986
 20
127.75
 30
0.0
 40
0.5
  1
geberit
100
AcDbAttributeDefinition
  3

  2
COMPANY
 70
     8
  0
ATTDEF
  5
CB
330
BF
100
AcDbEntity
  8
ATTR
100
AcDbText
 10
-73.14899999999986
 20
127.25
 30
0.0
 40
0.5
  1
{$CADENAS_DATA\23d-libs\geberit\waste_fitting\fur_badewannen\common_parts_893\893_735_parts\893_735_mitnehmer.prj},185 {VTYP=3D},{NB=893.735_mitnehmer},{LINA=893.735_mitnehmer},{NN=893.735 Mitnehmer},{DATE=19.07.2021 12:56:56},{GEOMDATE=19.07.2021 12:56:0
100
AcDbAttributeDefinition
  3

  2
PSOL_0
 70
     9
  0
ATTDEF
  5
CC
330
BF
100
AcDbEntity
  8
ATTR
100
AcDbText
 10
-73.14899999999986
 20
126.75
 30
0.0
 40
0.5
  1
0},{VERSION=},{LINEID=10},{WBVAR=},{WBNUMERIC=}  {NB=893.735_mitnehmer},{LINA=893.735_mitnehmer},{KT=DUMMY},{ARTNRT=893.735}
100
AcDbAttributeDefinition
  3

  2
PSOL_1
 70
     9
  0
LINE
  5
CD
330
BF
100
AcDbEntity
  8
VER
100
AcDbLine
 10
-78.149
 20
87.2031223290588
 30
0.0
 11
-80.149
 21
87.2031223290588
 31
0.0
  0
LINE
  5
CE
330
BF
100
AcDbEntity
  8
VER
100
AcDbLine
 10
-78.149
 20
87.23899999999999
 30
0.0
 11
-80.149
 21
87.23899999999999
 31
0.0
  0
LINE
  5
CF
330
BF
100
AcDbEntity
  8
VER
100
AcDbLine
 10
-78.149
 20
80.2708776709412
 30
0.0
 11
-80.09674982395137
 21
80.2708776709412
 31
0.0
  0
LINE
  5
D0
330
BF
100
AcDbEntity
  8
VER
100
AcDbLine
 10
-80.1102441483165
 20
80.235
 30
0.0
 11
-78.149
 21
80.235
 31
0.0
  0
LINE
  5
D1
330
BF
100
AcDbEntity
  8
VER
100
AcDbLine
 10
-78.149
 20
80.8340412069972
 30
0.0
 11
-81.99097478165434
 21
81.54482490429
 31
0.0
  0
LINE
  5
D2
330
BF
100
AcDbEntity
  8
VER
100
AcDbLine
 10
-80.31845711169962
 20
86.24024399278204
 30
0.0
 11
-78.149
 21
86.63903022550171
 31
0.0
  0
LINE
  5
D3
330
BF
100
AcDbEntity
  8
VER
100
AcDbLine
 10
-78.149
 20
84.28999462412435
 30
0.0
 11
-81.99096211697123
 21
84.35677100112562
 31
0.0
  0
LINE
  5
D4
330
BF
100
AcDbEntity
  8
VER
100
AcDbLine
 10
-80.4766770278258
 20
83.14380768129537
 30
0.0
 11
-78.149
 21
83.1840219954548
 31
0.0
  0
LINE
  5
D5
330
BF
100
AcDbEntity
  8
VER
100
AcDbLine
 10
-78.149
 20
83.23700000000001
 30
0.0
 11
-80.151930352521
 21
83.23700000000001
 31
0.0
  0
LINE
  5
D6
330
BF
100
AcDbEntity
  8
VER
100
AcDbLine
 10
-78.149
 20
84.23700000000001
 30
0.0
 11
-80.15119138110086
 21
84.23700000000001
 31
0.0
  0
LINE
  5
D7
330
BF
100
AcDbEntity
  8
VER
100
AcDbLine
 10
-78.149
 20
106.855
 30
0.0
 11
-96.14900000000002
 21
106.855
 31
0.0
  0
LINE
  5
D8
330
BF
100
AcDbEntity
  8
VER
100
AcDbLine
 10
-96.14900000000002
 20
105.95
 30
0.0
 11
-78.149
 21
105.95
 31
0.0
  0
LINE
  5
D9
330
BF
100
AcDbEntity
  8
VER
100
AcDbLine
 10
-80.149
 20
125.3646583063916
 30
0.0
 11
-78.149
 21
125.3646583063916
 31
0.0
  0
LINE
  5
DA
330
BF
100
AcDbEntity
  8
VER
100
AcDbLine
 10
-78.149
 20
125.554
 30
0.0
 11
-80.149
 21
125.554
 31
0.0
  0
LINE
  5
DB
330
BF
100
AcDbEntity
  8
VER
100
AcDbLine
 10
-80.649
 20
128.3519678437253
 30
0.0
 11
-80.649
 21
130.3486868510641
 31
0.0
  0
LINE
  5
DC
330
BF
100
AcDbEntity
  8
VER
100
AcDbLine
 10
-80.649
 20
69.65131314893587
 30
0.0
 11
-80.649
 21
71.64803215627468
 31
0.0
  0
LINE
  5
DD
330
BF
100
AcDbEntity
  8
VER
100
AcDbLine
 10
-80.149
 20
74.63534169360841
 30
0.0
 11
-78.149
 21
74.63534169360841
 31
0.0
  0
LINE
  5
DE
330
BF
100
AcDbEntity
  8
VER
100
AcDbLine
 10
-80.149
 20
74.44600000000001
 30
0.0
 11
-78.149
 21
74.44600000000001
 31
0.0
  0
LINE
  5
DF
330
BF
100
AcDbEntity
  8
VER
100
AcDbLine
 10
-80.149
 20
125.7995691218058
 30
0.0
 11
-85.549
 21
126.4626057506815
 31
0.0
  0
LINE
  5
E0
330
BF
100
AcDbEntity
  8
VER
100
AcDbLine
 10
-80.149
 20
124.3105691218058
 30
0.0
 11
-85.37337386868103
 21
124.9520415732644
 31
0.0
  0
ARC
  5
E1
330
BF
100
AcDbEntity
  8
VER
100
AcDbCircle
 10
-85.34900000000009
 20
125.1505508035926
 30
0.0
 40
0.1999999999999176
100
AcDbArc
 50
179.9999999999756
 51
263.0000000000228
  0
LINE
  5
E2
330
BF
100
AcDbEntity
  8
VER
100
AcDbLine
 10
-85.37337386868103
 20
124.9520415732644
 30
0.0
 11
-85.37337386868103
 21
124.7568405430482
 31
0.0
  0
LINE
  5
E3
330
BF
100
AcDbEntity
  8
VER
100
AcDbLine
 10
-80.149
 20
125.6108286057057
 30
0.0
 11
-85.549
 21
126.2786277822112
 31
0.0
  0
LINE
  5
E4
330
BF
100
AcDbEntity
  8
VER
100
AcDbLine
 10
-85.549
 20
126.4626057506815
 30
0.0
 11
-85.54900000001611
 21
124.9569024665318
 31
0.0
  0
LWPOLYLINE
  5
E5
330
BF
100
AcDbEntity
  8
VER
100
AcDbPolyline
 90
        6
 70
     0
 43
0.0
 10
-85.54900000001611
 20
124.9569024665318
 10
-85.54704410178431
 20
124.9287835036925
 10
-85.52638603601487
 20
124.8638022797493
 10
-85.48538609521566
 20
124.8094772900333
 10
-85.42896982817264
 20
124.7721532997235
 10
-85.37337386868103
 20
124.7568405430482
  0
LINE
  5
E6
330
BF
100
AcDbEntity
  8
VER
100
AcDbLine
 10
-85.37337386868103
 20
124.7568405430482
 30
0.0
 11
-80.149
 21
124.1101751554421
 31
0.0
  0
LINE
  5
E7
330
BF
100
AcDbEntity
  8
VER
100
AcDbLine
 10
-85.549
 20
73.72137221778883
 30
0.0
 11
-80.149
 21
74.38917139429427
 31
0.0
  0
LINE
  5
E8
330
BF
100
AcDbEntity
  8
VER
100
AcDbLine
 10
-85.54900000000002
 20
75.0430975334659
 30
0.0
 11
-85.549
 21
73.53739424931851
 31
0.0
  0
LINE
  5
E9
330
BF
100
AcDbEntity
  8
VER
100
AcDbLine
 10
-85.549
 20
73.53739424931851
 30
0.0
 11
-80.149
 21
74.2004308781942
 31
0.0
  0
LWPOLYLINE
  5
EA
330
BF
100
AcDbEntity
  8
VER
100
AcDbPolyline
 90
        7
 70
     0
 43
0.0
 10
-85.37337386868103
 20
75.2431594569518
 10
-85.40469497930658
 20
75.23668831725232
 10
-85.44262754124553
 20
75.22120976860768
 10
-85.49585691266412
 20
75.17992514577685
 10
-85.53244794629155
 20
75.12338480894245
 10
-85.54848246359755
 20
75.05758785642436
 10
-85.54900000000002
 20
75.0430975334659
  0
ARC
  5
EB
330
BF
100
AcDbEntity
  8
VER
100
AcDbCircle
 10
-85.349
 20
74.84944919640732
 30
0.0
 40
0.2000000000000048
100
AcDbArc
 50
96.99999999999844
 51
179.9999999999959
  0
LINE
  5
EC
330
BF
100
AcDbEntity
  8
VER
100
AcDbLine
 10
-80.149
 20
75.88982484455791
 30
0.0
 11
-85.37337386868103
 21
75.2431594569518
 31
0.0
  0
LINE
  5
ED
330
BF
100
AcDbEntity
  8
VER
100
AcDbLine
 10
-85.37337386868103
 20
75.2431594569518
 30
0.0
 11
-85.37337386868103
 21
75.04795842673559
 31
0.0
  0
LINE
  5
EE
330
BF
100
AcDbEntity
  8
VER
100
AcDbLine
 10
-85.37337386868103
 20
75.04795842673559
 30
0.0
 11
-80.149
 21
75.6894308781942
 31
0.0
  0
LINE
  5
EF
330
BF
100
AcDbEntity
  8
VER
100
AcDbLine
 10
-96.14900000000002
 20
106.055
 30
0.0
 11
-78.149
 21
106.055
 31
0.0
  0
LINE
  5
F0
330
BF
100
AcDbEntity
  8
VER
100
AcDbLine
 10
-96.14900000000002
 20
93.94500000000001
 30
0.0
 11
-78.149
 21
93.94500000000001
 31
0.0
  0
ARC
  5
F1
330
BF
100
AcDbEntity
  8
VER
100
AcDbCircle
 10
-90.7230000000001
 20
88.23799999999983
 30
0.0
 40
0.3000000000001119
100
AcDbArc
 50
4.963640520336698
 51
116.1371430784989
  0
LINE
  5
F2
330
BF
100
AcDbEntity
  8
VER
100
AcDbLine
 10
-80.149
 20
90.0
 30
0.0
 11
-78.149
 21
90.0
 31
0.0
  0
LINE
  5
F3
330
BF
100
AcDbEntity
  8
VER
100
AcDbLine
 10
-96.14900000000002
 20
95.77000259875541
 30
0.0
 11
-78.149
 21
95.77000259875541
 31
0.0
  0
LINE
  5
F4
330
BF
100
AcDbEntity
  8
VER
100
AcDbLine
 10
-90.42412505823216
 20
89.06056970598239
 30
0.0
 11
-90.42412505823216
 21
88.26395706422676
 31
0.0
  0
LINE
  5
F5
330
BF
100
AcDbEntity
  8
VER
100
AcDbLine
 10
-90.42412505823216
 20
88.26395706422676
 30
0.0
 11
-90.349
 21
87.39895179212425
 31
0.0
  0
LINE
  5
F6
330
BF
100
AcDbEntity
  8
VER
100
AcDbLine
 10
-90.349
 20
88.25848365146513
 30
0.0
 11
-90.349
 21
87.39895179212425
 31
0.0
  0
LINE
  5
F7
330
BF
100
AcDbEntity
  8
VER
100
AcDbLine
 10
-90.349
 20
87.39895179212425
 30
0.0
 11
-80.149
 21
87.22091012985645
 31
0.0
  0
LINE
  5
F8
330
BF
100
AcDbEntity
  8
VER
100
AcDbLine
 10
-90.85515637224721
 20
89.28623506294974
 30
0.0
 11
-90.85515637224721
 21
88.50732265644476
 31
0.0
  0
LINE
  5
F9
330
BF
100
AcDbEntity
  8
VER
100
AcDbLine
 10
-93.449
 20
87.00976633972589
 30
0.0
 11
-90.85515637224721
 21
88.50732265644476
 31
0.0
  0
LINE
  5
FA
330
BF
100
AcDbEntity
  8
VER
100
AcDbLine
 10
-93.449
 20
87.89760989583226
 30
0.0
 11
-93.449
 21
87.00976633972589
 31
0.0
  0
ARC
  5
FB
330
BF
100
AcDbEntity
  8
VER
100
AcDbCircle
 10
-93.34900000000012
 20
86.83656125896907
 30
0.0
 40
0.199999999999878
100
AcDbArc
 50
119.9999999999807
 51
180.0000000000204
  0
LINE
  5
FC
330
BF
100
AcDbEntity
  8
VER
100
AcDbLine
 10
-78.149
 20
90.86555844941796
 30
0.0
 11
-80.149
 21
90.86555844941796
 31
0.0
  0
LINE
  5
FD
330
BF
100
AcDbEntity
  8
VER
100
AcDbLine
 10
-78.149
 20
91.02250142853707
 30
0.0
 11
-80.149
 21
91.02250142853707
 31
0.0
  0
LINE
  5
FE
330
BF
100
AcDbEntity
  8
VER
100
AcDbLine
 10
-78.149
 20
91.05317647139317
 30
0.0
 11
-80.149
 21
91.05317647139317
 31
0.0
  0
LINE
  5
FF
330
BF
100
AcDbEntity
  8
VER
100
AcDbLine
 10
-96.14900000000002
 20
108.024
 30
0.0
 11
-80.149
 21
108.024
 31
0.0
  0
LINE
  5
100
330
BF
100
AcDbEntity
  8
VER
100
AcDbLine
 10
-96.14900000000002
 20
91.976
 30
0.0
 11
-80.149
 21
91.976
 31
0.0
  0
LINE
  5
101
330
BF
100
AcDbEntity
  8
VER
100
AcDbLine
 10
-93.549
 20
87.73700531605655
 30
0.0
 11
-93.549
 21
85.68234745251769
 31
0.0
  0
ARC
  5
102
330
BF
100
AcDbEntity
  8
VER
100
AcDbCircle
 10
-93.34899999999996
 20
85.68234745251775
 30
0.0
 40
0.2000000000000455
100
AcDbArc
 50
180.0000000000163
 51
268.9999999999879
  0
LINE
  5
103
330
BF
100
AcDbEntity
  8
VER
100
AcDbLine
 10
-90.349
 20
88.25848365146513
 30
0.0
 11
-80.149
 21
88.09339360709806
 31
0.0
  0
LINE
  5
104
330
BF
100
AcDbEntity
  8
VER
100
AcDbLine
 10
-90.42412505823216
 20
89.06056970598239
 30
0.0
 11
-90.349
 21
88.25848365146513
 31
0.0
  0
LWPOLYLINE
  5
105
330
BF
100
AcDbEntity
  8
VER
100
AcDbPolyline
 90
        3
 70
     0
 43
0.0
 10
-90.44671653083023
 20
89.14490544133767
 10
-90.44027479706868
 20
89.12953494899116
 10
-90.42412505823216
 20
89.06056970598239
  0
LWPOLYLINE
  5
106
330
BF
100
AcDbEntity
  8
VER
100
AcDbPolyline
 90
        6
 70
     0
 43
0.0
 10
-90.85515637224721
 20
89.28623506294974
 10
-90.75878909978498
 20
89.31269467282235
 10
-90.65818673076386
 20
89.30811162521593
 10
-90.56489292628498
 20
89.27291254098317
 10
-90.48942007105487
 20
89.21106460746428
 10
-90.44671653083023
 20
89.14490544133767
  0
LINE
  5
107
330
BF
100
AcDbEntity
  8
VER
100
AcDbLine
 10
-93.449
 20
87.89760989583226
 30
0.0
 11
-90.85515637224721
 21
89.28623506294974
 31
0.0
  0
LWPOLYLINE
  5
108
330
BF
100
AcDbEntity
  8
VER
100
AcDbPolyline
 90
        5
 70
     0
 43
0.0
 10
-93.549
 20
87.73700531605655
 10
-93.5399995414394
 20
87.79201225365951
 10
-93.509593238747
 20
87.84753815607492
 10
-93.4610791384565
 20
87.89059979907528
 10
-93.449
 20
87.89760989583226
  0
LWPOLYLINE
  5
109
330
BF
100
AcDbEntity
  8
VER
100
AcDbPolyline
 90
        6
 70
     0
 43
0.0
 10
-93.35249048128746
 20
86.48134705397536
 10
-93.41829430960654
 20
86.49280534890352
 10
-93.4764857084665
 20
86.52387729829444
 10
-93.52030601271026
 20
86.5710575000452
 10
-93.54481533497272
 20
86.62902951073349
 10
-93.549
 20
86.6667666232806
  0
LINE
  5
10A
330
BF
100
AcDbEntity
  8
VER
100
AcDbLine
 10
-93.35249048128746
 20
86.48134705397536
 30
0.0
 11
-93.35249048128746
 21
85.48237791348642
 31
0.0
  0
LINE
  5
10B
330
BF
100
AcDbEntity
  8
VER
100
AcDbLine
 10
-80.149
 20
86.2676486921577
 30
0.0
 11
-93.35249048128746
 21
86.48134705397536
 31
0.0
  0
LINE
  5
10C
330
BF
100
AcDbEntity
  8
VER
100
AcDbLine
 10
-93.35249048128746
 20
85.48237791348642
 30
0.0
 11
-80.149
 21
85.25191012985644
 31
0.0
  0
LINE
  5
10D
330
BF
100
AcDbEntity
  8
VER
100
AcDbLine
 10
-78.149
 20
88.45844913275097
 30
0.0
 11
-80.149
 21
88.45844913275097
 31
0.0
  0
LINE
  5
10E
330
BF
100
AcDbEntity
  8
VER
100
AcDbLine
 10
-80.149
 20
87.22200000000001
 30
0.0
 11
-78.149
 21
87.22200000000001
 31
0.0
  0
LINE
  5
10F
330
BF
100
AcDbEntity
  8
VER
100
AcDbLine
 10
-78.149
 20
88.8418019403402
 30
0.0
 11
-80.149
 21
88.8418019403402
 31
0.0
  0
LINE
  5
110
330
BF
100
AcDbEntity
  8
VER
100
AcDbLine
 10
-96.14900000000002
 20
98.1749974012446
 30
0.0
 11
-78.149
 21
98.1749974012446
 31
0.0
  0
LINE
  5
111
330
BF
100
AcDbEntity
  8
VER
100
AcDbLine
 10
-78.149
 20
108.7374474249447
 30
0.0
 11
-80.149
 21
108.7374474249447
 31
0.0
  0
LINE
  5
112
330
BF
100
AcDbEntity
  8
VER
100
AcDbLine
 10
-96.14900000000002
 20
100.0
 30
0.0
 11
-78.149
 21
100.0
 31
0.0
  0
LINE
  5
113
330
BF
100
AcDbEntity
  8
VER
100
AcDbLine
 10
-78.149
 20
110.5197138259869
 30
0.0
 11
-80.149
 21
110.5197138259869
 31
0.0
  0
LINE
  5
114
330
BF
100
AcDbEntity
  8
VER
100
AcDbLine
 10
-78.149
 20
110.457431960892
 30
0.0
 11
-80.149
 21
110.457431960892
 31
0.0
  0
LINE
  5
115
330
BF
100
AcDbEntity
  8
VER
100
AcDbLine
 10
-78.149
 20
110.5727335182943
 30
0.0
 11
-80.149
 21
110.5727335182943
 31
0.0
  0
LWPOLYLINE
  5
116
330
BF
100
AcDbEntity
  8
VER
100
AcDbPolyline
 90
        7
 70
     0
 43
0.0
 10
-80.149
 20
127.8489244968105
 10
-80.1510361085365
 20
127.8942806548581
 10
-80.19448364559297
 20
128.0585683421241
 10
-80.28988526152767
 20
128.1989566872252
 10
-80.42594076831585
 20
128.2991402423143
 10
-80.52487786103032
 20
128.3362229449966
 10
-80.649
 20
128.3519678437253
  0
LINE
  5
117
330
BF
100
AcDbEntity
  8
VER
100
AcDbLine
 10
-80.649
 20
128.5214849825817
 30
0.0
 11
-80.6516179819157
 21
128.5214781287055
 31
0.0
  0
LWPOLYLINE
  5
118
330
BF
100
AcDbEntity
  8
VER
100
AcDbPolyline
 90
        7
 70
     0
 43
0.0
 10
-80.649
 20
71.64803215627468
 10
-80.63667255720516
 20
71.64818505397184
 10
-80.47281228151236
 20
71.68029476320011
 10
-80.32874053548787
 20
71.76475756399752
 10
-80.22013655474062
 20
71.89244453020677
 10
-80.15926461622593
 20
72.04966009306135
 10
-80.149
 20
72.15107550318949
  0
LINE
  5
119
330
BF
100
AcDbEntity
  8
VER
100
AcDbLine
 10
-80.6516179819157
 20
71.47852187129456
 30
0.0
 11
-80.649
 21
71.47851501741827
 31
0.0
  0
ELLIPSE
  5
11A
330
BF
100
AcDbEntity
  8
VER
100
AcDbEllipse
 10
-80.64899999999999
 20
127.0666760356469
 30
0.0
 11
-0.5000000000000284
 21
-5.678218652085387E-14
 31
0.0
210
0.0
220
0.0
230
1.0
 40
0.965925826289068
 41
3.141592653589734
 42
4.717624968140582
  0
ELLIPSE
  5
11B
330
BF
100
AcDbEntity
  8
VER
100
AcDbEllipse
 10
-80.64900000000009
 20
72.93332396435306
 30
0.0
 11
0.5000000000000853
 21
8.526512829121202E-14
 31
0.0
210
0.0
220
0.0
230
1.0
 40
0.9659258262890719
 41
4.707152992628721
 42
6.283185307179352
  0
LINE
  5
11C
330
BF
100
AcDbEntity
  8
VER
100
AcDbLine
 10
-96.14900000000002
 20
92.914097756922
 30
0.0
 11
-80.149
 21
92.914097756922
 31
0.0
  0
LINE
  5
11D
330
BF
100
AcDbEntity
  8
VER
100
AcDbLine
 10
-96.14900000000002
 20
108.024
 30
0.0
 11
-96.14900000000002
 21
91.976
 31
0.0
  0
LINE
  5
11E
330
BF
100
AcDbEntity
  8
VER
100
AcDbLine
 10
-96.14900000000002
 20
107.085902243078
 30
0.0
 11
-80.149
 21
107.085902243078
 31
0.0
  0
LINE
  5
11F
330
BF
100
AcDbEntity
  8
VER
100
AcDbLine
 10
-96.14900000000002
 20
100.938097756922
 30
0.0
 11
-80.149
 21
100.938097756922
 31
0.0
  0
LINE
  5
120
330
BF
100
AcDbEntity
  8
VER
100
AcDbLine
 10
-96.14900000000002
 20
99.06190224307801
 30
0.0
 11
-80.149
 21
99.06190224307801
 31
0.0
  0
LINE
  5
121
330
BF
100
AcDbEntity
  8
VER
100
AcDbLine
 10
-93.449
 20
110.1391879830625
 30
0.0
 11
-90.85515637224721
 21
108.9590003685459
 31
0.0
  0
LINE
  5
122
330
BF
100
AcDbEntity
  8
VER
100
AcDbLine
 10
-90.349
 20
109.8324826391119
 30
0.0
 11
-80.149
 21
109.9727920896824
 31
0.0
  0
LINE
  5
123
330
BF
100
AcDbEntity
  8
VER
100
AcDbLine
 10
-90.42412505823216
 20
109.1507925442752
 30
0.0
 11
-90.349
 21
109.8324826391119
 31
0.0
  0
LINE
  5
124
330
BF
100
AcDbEntity
  8
VER
100
AcDbLine
 10
-78.149
 20
108.3036397886864
 30
0.0
 11
-80.149
 21
108.3036397886864
 31
0.0
  0
LINE
  5
125
330
BF
100
AcDbEntity
  8
VER
100
AcDbLine
 10
-78.149
 20
100.3969941256374
 30
0.0
 11
-80.149
 21
100.3969941256374
 31
0.0
  0
LINE
  5
126
330
BF
100
AcDbEntity
  8
VER
100
AcDbLine
 10
-78.149
 20
100.6738587584037
 30
0.0
 11
-80.149
 21
100.6738587584037
 31
0.0
  0
LINE
  5
127
330
BF
100
AcDbEntity
  8
VER
100
AcDbLine
 10
-80.149
 20
100.3940745462598
 30
0.0
 11
-78.149
 21
100.3940745462598
 31
0.0
  0
LINE
  5
128
330
BF
100
AcDbEntity
  8
VER
100
AcDbLine
 10
-90.85515637224721
 20
108.9590003685459
 30
0.0
 11
-90.85515637224721
 21
101.755225757987
 31
0.0
  0
LINE
  5
129
330
BF
100
AcDbEntity
  8
VER
100
AcDbLine
 10
-90.42412505823216
 20
109.1507925442752
 30
0.0
 11
-90.42412505823216
 21
101.7890988146424
 31
0.0
  0
LWPOLYLINE
  5
12A
330
BF
100
AcDbEntity
  8
VER
100
AcDbPolyline
 90
        7
 70
     0
 43
0.0
 10
-90.85515637224721
 20
108.9590003685459
 10
-90.75878903691087
 20
108.9365124356287
 10
-90.65818661317874
 20
108.9404075777062
 10
-90.56489275730672
 20
108.9703232145093
 10
-90.48941990204757
 20
109.0228876331195
 10
-90.44027469664834
 20
109.0921794545767
 10
-90.42412505823216
 20
109.1507925442752
  0
LINE
  5
12B
330
BF
100
AcDbEntity
  8
VER
100
AcDbLine
 10
-90.349
 20
109.8324826391119
 30
0.0
 11
-90.349
 21
101.9094943704718
 31
0.0
  0
LINE
  5
12C
330
BF
100
AcDbEntity
  8
VER
100
AcDbLine
 10
-78.149
 20
100.7007660987678
 30
0.0
 11
-80.149
 21
100.7007660987678
 31
0.0
  0
LINE
  5
12D
330
BF
100
AcDbEntity
  8
VER
100
AcDbLine
 10
-78.149
 20
101.0218370592058
 30
0.0
 11
-80.149
 21
101.0218370592058
 31
0.0
  0
LWPOLYLINE
  5
12E
330
BF
100
AcDbEntity
  8
VER
100
AcDbPolyline
 90
        5
 70
     0
 43
0.0
 10
-93.549
 20
110.2756852574532
 10
-93.5399995501014
 20
110.2289350740488
 10
-93.50959328029214
 20
110.1817438246289
 10
-93.46107922374972
 20
110.1451458853826
 10
-93.449
 20
110.1391879830625
  0
LINE
  5
12F
330
BF
100
AcDbEntity
  8
VER
100
AcDbLine
 10
-93.449
 20
110.1391879830625
 30
0.0
 11
-93.449
 21
101.9636626179995
 31
0.0
  0
LWPOLYLINE
  5
130
330
BF
100
AcDbEntity
  8
VER
100
AcDbPolyline
 90
        6
 70
     0
 43
0.0
 10
-93.35249048128746
 20
111.3428649114688
 10
-93.41829433036352
 20
111.3331265394069
 10
-93.47648574779909
 20
111.3067185753766
 10
-93.52030605192468
 20
111.2666202563421
 10
-93.54481535159131
 20
111.2173500295971
 10
-93.549
 20
111.185277448905
  0
LINE
  5
131
330
BF
100
AcDbEntity
  8
VER
100
AcDbLine
 10
-93.549
 20
111.185277448905
 30
0.0
 11
-93.549
 21
101.9877698534502
 31
0.0
  0
LINE
  5
132
330
BF
100
AcDbEntity
  8
VER
100
AcDbLine
 10
-80.149
 20
116.7630371633853
 30
0.0
 11
-83.849
 21
116.8261968615648
 31
0.0
  0
LINE
  5
133
330
BF
100
AcDbEntity
  8
VER
100
AcDbLine
 10
-83.849
 20
115.6997855340182
 30
0.0
 11
-80.149
 21
115.762950307035
 31
0.0
  0
LINE
  5
134
330
BF
100
AcDbEntity
  8
VER
100
AcDbLine
 10
-80.149
 20
111.5244864261059
 30
0.0
 11
-93.35249048128746
 21
111.3428649114688
 31
0.0
  0
LINE
  5
135
330
BF
100
AcDbEntity
  8
VER
100
AcDbLine
 10
-93.35249048128746
 20
111.3428649114688
 30
0.0
 11
-93.35249048128746
 21
102.176247972279
 31
0.0
  0
LWPOLYLINE
  5
136
330
BF
100
AcDbEntity
  8
VER
100
AcDbPolyline
 90
        7
 70
     0
 43
0.0
 10
-93.549
 20
102.1484159319572
 10
-93.54724808821129
 20
102.1520922618886
 10
-93.52732744877487
 20
102.1610188276272
 10
-93.4872991133631
 20
102.1685243280366
 10
-93.43167827832227
 20
102.1737623541095
 10
-93.36673832859485
 20
102.1761425128332
 10
-93.35249048128746
 20
102.176247972279
  0
LWPOLYLINE
  5
137
330
BF
100
AcDbEntity
  8
VER
100
AcDbPolyline
 90
        5
 70
     0
 43
0.0
 10
-93.449
 20
101.9636626179995
 10
-93.50054447608136
 20
101.969604307071
 10
-93.53520259118433
 20
101.9776098723708
 10
-93.54886865712939
 20
101.9867611852733
 10
-93.549
 20
101.9877698534502
  0
LINE
  5
138
330
BF
100
AcDbEntity
  8
VER
100
AcDbLine
 10
-90.85515637224721
 20
101.755225757987
 30
0.0
 11
-93.449
 21
101.9636626179995
 31
0.0
  0
LWPOLYLINE
  5
139
330
BF
100
AcDbEntity
  8
VER
100
AcDbPolyline
 90
        7
 70
     0
 43
0.0
 10
-90.42412505823216
 20
101.7890988146424
 10
-90.44857909006835
 20
101.7758402190287
 10
-90.50417750840803
 20
101.764147457945
 10
-90.58444923428232
 20
101.7556757520518
 10
-90.68033711678156
 20
101.7513802782544
 10
-90.78102809368329
 20
101.7517444683893
 10
-90.85515637224721
 20
101.755225757987
  0
LINE
  5
13A
330
BF
100
AcDbEntity
  8
VER
100
AcDbLine
 10
-90.349
 20
101.9094943704718
 30
0.0
 11
-90.42412505823216
 21
101.7890988146424
 31
0.0
  0
LINE
  5
13B
330
BF
100
AcDbEntity
  8
VER
100
AcDbLine
 10
-80.149
 20
101.9342748879312
 30
0.0
 11
-90.349
 21
101.9094943704718
 31
0.0
  0
LINE
  5
13C
330
BF
100
AcDbEntity
  8
VER
100
AcDbLine
 10
-93.35249048128746
 20
102.176247972279
 30
0.0
 11
-80.149
 21
102.2083247451447
 31
0.0
  0
LINE
  5
13D
330
BF
100
AcDbEntity
  8
VER
100
AcDbLine
 10
-83.849
 20
86.53024688782025
 30
0.0
 11
-80.149
 21
87.20259338089419
 31
0.0
  0
LINE
  5
13E
330
BF
100
AcDbEntity
  8
VER
100
AcDbLine
 10
-80.149
 20
112.7974066191058
 30
0.0
 11
-83.849
 21
113.4697531121798
 31
0.0
  0
LINE
  5
13F
330
BF
100
AcDbEntity
  8
VER
100
AcDbLine
 10
-83.849
 20
119.0571764407811
 30
0.0
 11
-80.15119138110083
 21
119.7291223290588
 31
0.0
  0
LINE
  5
140
330
BF
100
AcDbEntity
  8
VER
100
AcDbLine
 10
-80.15193035252099
 20
80.2708776709412
 30
0.0
 11
-80.149
 21
80.2708776709412
 31
0.0
  0
LINE
  5
141
330
BF
100
AcDbEntity
  8
VER
100
AcDbLine
 10
-80.15154639168547
 20
80.23543237613691
 30
0.0
 11
-80.15119138110086
 21
80.2708776709412
 31
0.0
  0
LINE
  5
142
330
BF
100
AcDbEntity
  8
VER
100
AcDbLine
 10
-80.15119138110083
 20
119.7291223290588
 30
0.0
 11
-80.15154639168546
 21
119.7645676238631
 31
0.0
  0
LINE
  5
143
330
BF
100
AcDbEntity
  8
VER
100
AcDbLine
 10
-80.151930352521
 20
119.7291223290588
 30
0.0
 11
-80.149
 21
119.7291223290588
 31
0.0
  0
LINE
  5
144
330
BF
100
AcDbEntity
  8
VER
100
AcDbLine
 10
-80.15162772127495
 20
119.7645676244773
 30
0.0
 11
-80.15193035252099
 21
119.7291223290588
 31
0.0
  0
LINE
  5
145
330
BF
100
AcDbEntity
  8
VER
100
AcDbLine
 10
-80.151930352521
 20
119.7291223290588
 30
0.0
 11
-83.849
 21
119.0573637971319
 31
0.0
  0
LINE
  5
146
330
BF
100
AcDbEntity
  8
VER
100
AcDbLine
 10
-83.849
 20
113.4695657250099
 30
0.0
 11
-80.149
 21
112.7972732501638
 31
0.0
  0
LINE
  5
147
330
BF
100
AcDbEntity
  8
VER
100
AcDbLine
 10
-83.849
 20
113.4695657250099
 30
0.0
 11
-83.849
 21
115.6998728625049
 31
0.0
  0
LINE
  5
148
330
BF
100
AcDbEntity
  8
VER
100
AcDbLine
 10
-83.849
 20
116.8261095359735
 30
0.0
 11
-83.849
 21
119.0573637971319
 31
0.0
  0
LINE
  5
149
330
BF
100
AcDbEntity
  8
VER
100
AcDbLine
 10
-80.149
 20
115.675574150375
 30
0.0
 11
-83.849
 21
115.6100523130237
 31
0.0
  0
LINE
  5
14A
330
BF
100
AcDbEntity
  8
VER
100
AcDbLine
 10
-80.149
 20
118.7987490073816
 30
0.0
 11
-83.849
 21
118.1014323260434
 31
0.0
  0
LINE
  5
14B
330
BF
100
AcDbEntity
  8
VER
100
AcDbLine
 10
-80.149
 20
116.8504931351939
 30
0.0
 11
-83.849
 21
116.9160048274938
 31
0.0
  0
LINE
  5
14C
330
BF
100
AcDbEntity
  8
VER
100
AcDbLine
 10
-80.149
 20
113.7283992408172
 30
0.0
 11
-83.849
 21
114.4258463033455
 31
0.0
  0
LINE
  5
14D
330
BF
100
AcDbEntity
  8
VER
100
AcDbLine
 10
-83.849
 20
114.4255110733187
 30
0.0
 11
-80.149
 21
113.7281832041692
 31
0.0
  0
LINE
  5
14E
330
BF
100
AcDbEntity
  8
VER
100
AcDbLine
 10
-80.149
 20
113.6611069092423
 30
0.0
 11
-78.149
 21
113.3086744768099
 31
0.0
  0
LINE
  5
14F
330
BF
100
AcDbEntity
  8
VER
100
AcDbLine
 10
-78.149
 20
119.2182374577713
 30
0.0
 11
-80.149
 21
118.8658050253389
 31
0.0
  0
LINE
  5
150
330
BF
100
AcDbEntity
  8
VER
100
AcDbLine
 10
-80.149
 20
83.14959444305869
 30
0.0
 11
-83.849
 21
83.08408380181744
 31
0.0
  0
LINE
  5
151
330
BF
100
AcDbEntity
  8
VER
100
AcDbLine
 10
-80.21585580694727
 20
86.25923444637834
 30
0.0
 11
-80.149
 21
86.27160075918285
 31
0.0
  0
LINE
  5
152
330
BF
100
AcDbEntity
  8
VER
100
AcDbLine
 10
-83.849
 20
85.57415369665455
 30
0.0
 11
-83.13104882395899
 21
85.71216769398734
 31
0.0
  0
LINE
  5
153
330
BF
100
AcDbEntity
  8
VER
100
AcDbLine
 10
-80.149
 20
84.32451343113652
 30
0.0
 11
-83.849
 21
84.39003632126783
 31
0.0
  0
LINE
  5
154
330
BF
100
AcDbEntity
  8
VER
100
AcDbLine
 10
-80.149
 20
81.20146699457726
 30
0.0
 11
-83.849
 21
81.8989028509711
 31
0.0
  0
LINE
  5
155
330
BF
100
AcDbEntity
  8
VER
100
AcDbLine
 10
-83.849
 20
81.89856767395658
 30
0.0
 11
-80.149
 21
81.20125099261844
 31
0.0
  0
LINE
  5
156
330
BF
100
AcDbEntity
  8
VER
100
AcDbLine
 10
-80.149
 20
86.27181679583076
 30
0.0
 11
-83.849
 21
85.57448892668133
 31
0.0
  0
LINE
  5
157
330
BF
100
AcDbEntity
  8
VER
100
AcDbLine
 10
-80.149
 20
81.13419497466111
 30
0.0
 11
-78.149
 21
80.78176254222868
 31
0.0
  0
LINE
  5
158
330
BF
100
AcDbEntity
  8
VER
100
AcDbLine
 10
-78.149
 20
86.69132552319014
 30
0.0
 11
-80.149
 21
86.33889309075772
 31
0.0
  0
LINE
  5
159
330
BF
100
AcDbEntity
  8
VER
100
AcDbLine
 10
-83.849
 20
116.8261095359735
 30
0.0
 11
-80.15193035252099
 21
116.763
 31
0.0
  0
LINE
  5
15A
330
BF
100
AcDbEntity
  8
VER
100
AcDbLine
 10
-80.15193035252099
 20
116.763
 30
0.0
 11
-80.149
 21
116.763
 31
0.0
  0
LINE
  5
15B
330
BF
100
AcDbEntity
  8
VER
100
AcDbLine
 10
-80.15119138110086
 20
115.763
 30
0.0
 11
-83.849
 21
115.6998728625049
 31
0.0
  0
LINE
  5
15C
330
BF
100
AcDbEntity
  8
VER
100
AcDbLine
 10
-80.15119138110086
 20
115.763
 30
0.0
 11
-80.149
 21
115.763
 31
0.0
  0
LINE
  5
15D
330
BF
100
AcDbEntity
  8
VER
100
AcDbLine
 10
-80.15193035252099
 20
116.763
 30
0.0
 11
-80.15119138110086
 21
115.763
 31
0.0
  0
LINE
  5
15E
330
BF
100
AcDbEntity
  8
VER
100
AcDbLine
 10
-83.849
 20
84.30012713749515
 30
0.0
 11
-83.849
 21
86.53043427499013
 31
0.0
  0
LINE
  5
15F
330
BF
100
AcDbEntity
  8
VER
100
AcDbLine
 10
-80.29903082536619
 20
84.23950741744073
 30
0.0
 11
-80.15119138110086
 21
84.23700000000001
 31
0.0
  0
LINE
  5
160
330
BF
100
AcDbEntity
  8
VER
100
AcDbLine
 10
-83.849
 20
84.30012713749515
 30
0.0
 11
-80.149
 21
84.23704969296502
 31
0.0
  0
LINE
  5
161
330
BF
100
AcDbEntity
  8
VER
100
AcDbLine
 10
-80.15119138110086
 20
84.23700000000001
 30
0.0
 11
-80.151930352521
 21
83.23700000000001
 31
0.0
  0
LINE
  5
162
330
BF
100
AcDbEntity
  8
VER
100
AcDbLine
 10
-83.849
 20
80.94263620286813
 30
0.0
 11
-83.849
 21
83.17389046402653
 31
0.0
  0
LINE
  5
163
330
BF
100
AcDbEntity
  8
VER
100
AcDbLine
 10
-83.849
 20
80.94263620286813
 30
0.0
 11
-80.15193035252099
 21
80.2708776709412
 31
0.0
  0
LINE
  5
164
330
BF
100
AcDbEntity
  8
VER
100
AcDbLine
 10
-80.15193035252099
 20
80.2708776709412
 30
0.0
 11
-80.15162772127498
 21
80.23543237552269
 31
0.0
  0
LINE
  5
165
330
BF
100
AcDbEntity
  8
VER
100
AcDbLine
 10
-80.15119138110086
 20
80.2708776709412
 30
0.0
 11
-83.849
 21
80.9428235592189
 31
0.0
  0
LINE
  5
166
330
BF
100
AcDbEntity
  8
VER
100
AcDbLine
 10
-80.29903120798923
 20
83.23441840389455
 30
0.0
 11
-80.149
 21
83.23696283661467
 31
0.0
  0
LINE
  5
167
330
BF
100
AcDbEntity
  8
VER
100
AcDbLine
 10
-83.849
 20
83.17380313843519
 30
0.0
 11
-80.151930352521
 21
83.23700000000001
 31
0.0
  0
LINE
  5
168
330
BF
100
AcDbEntity
  8
VER
100
AcDbLine
 10
-80.149
 20
87.20272674983622
 30
0.0
 11
-83.849
 21
86.53043427499013
 31
0.0
  0
LINE
  5
169
330
BF
100
AcDbEntity
  8
VER
100
AcDbLine
 10
-85.37337386868103
 20
103.115
 30
0.0
 11
-85.37337386868103
 21
96.885
 31
0.0
  0
LINE
  5
16A
330
BF
100
AcDbEntity
  8
VER
100
AcDbLine
 10
-85.549
 20
103.0552817561673
 30
0.0
 11
-85.549
 21
96.94474251507634
 31
0.0
  0
LINE
  5
16B
330
BF
100
AcDbEntity
  8
VER
100
AcDbLine
 10
-85.549
 20
103.115
 30
0.0
 11
-80.149
 21
103.115
 31
0.0
  0
LINE
  5
16C
330
BF
100
AcDbEntity
  8
VER
100
AcDbLine
 10
-80.149
 20
96.885
 30
0.0
 11
-85.549
 21
96.885
 31
0.0
  0
LINE
  5
16D
330
BF
100
AcDbEntity
  8
VER
100
AcDbLine
 10
-78.149
 20
107.1175237403193
 30
0.0
 11
-80.149
 21
107.1175237403193
 31
0.0
  0
LINE
  5
16E
330
BF
100
AcDbEntity
  8
VER
100
AcDbLine
 10
-78.14938715591266
 20
126.5629602229494
 30
0.0
 11
-80.149
 21
126.5629602229494
 31
0.0
  0
LINE
  5
16F
330
BF
100
AcDbEntity
  8
VER
100
AcDbLine
 10
-78.149
 20
92.88247625968069
 30
0.0
 11
-80.149
 21
92.88247625968069
 31
0.0
  0
LINE
  5
170
330
BF
100
AcDbEntity
  8
VER
100
AcDbLine
 10
-78.14938715591266
 20
73.43703977705063
 30
0.0
 11
-80.149
 21
73.43703977705063
 31
0.0
  0
ELLIPSE
  5
171
330
BF
100
AcDbEntity
  8
VER
100
AcDbEllipse
 10
-80.649
 20
92.74750601445359
 30
0.0
 11
-0.5
 21
1.427208705515937E-14
 31
0.0
210
0.0
220
0.0
230
1.0
 40
0.2588190451025127
 41
1.565560339038931
 42
3.141592653589794
  0
ELLIPSE
  5
172
330
BF
100
AcDbEntity
  8
VER
100
AcDbEllipse
 10
-80.649
 20
107.2524939855464
 30
0.0
 11
0.5
 21
1.421085471520200E-14
 31
0.0
210
0.0
220
0.0
230
1.0
 40
0.2588190451025696
 41
0.0
 42
1.576032314550863
  0
LINE
  5
173
330
BF
100
AcDbEntity
  8
VER
100
AcDbLine
 10
-80.149
 20
72.15107550318949
 30
0.0
 11
-80.149
 21
127.8489244968105
 31
0.0
  0
LINE
  5
174
330
BF
100
AcDbEntity
  8
VER
100
AcDbLine
 10
-80.6516179819157
 20
92.61809826581604
 30
0.0
 11
-88.149
 21
92.62825861098122
 31
0.0
  0
LINE
  5
175
330
BF
100
AcDbEntity
  8
VER
100
AcDbLine
 10
-88.149
 20
107.3717413890188
 30
0.0
 11
-80.6516179819157
 21
107.381901734184
 31
0.0
  0
LINE
  5
176
330
BF
100
AcDbEntity
  8
VER
100
AcDbLine
 10
-80.6516179819157
 20
127.5496323284554
 30
0.0
 11
-80.6516179819157
 21
128.5214781287055
 31
0.0
  0
LINE
  5
177
330
BF
100
AcDbEntity
  8
VER
100
AcDbLine
 10
-80.6516179819157
 20
127.5496323284554
 30
0.0
 11
-88.149
 21
127.5117134040765
 31
0.0
  0
LINE
  5
178
330
BF
100
AcDbEntity
  8
VER
100
AcDbLine
 10
-80.6516179819157
 20
92.61809826581604
 30
0.0
 11
-80.6516179819157
 21
107.381901734184
 31
0.0
  0
LINE
  5
179
330
BF
100
AcDbEntity
  8
VER
100
AcDbLine
 10
-88.149
 20
72.48828659592348
 30
0.0
 11
-80.6516179819157
 21
72.45036767154461
 31
0.0
  0
LINE
  5
17A
330
BF
100
AcDbEntity
  8
VER
100
AcDbLine
 10
-92.01100000000001
 20
71.53800000000001
 30
0.0
 11
-80.6516179819157
 21
71.47852187129456
 31
0.0
  0
LINE
  5
17B
330
BF
100
AcDbEntity
  8
VER
100
AcDbLine
 10
-80.6516179819157
 20
128.5214781287055
 30
0.0
 11
-92.01100000000001
 21
128.462
 31
0.0
  0
LINE
  5
17C
330
BF
100
AcDbEntity
  8
VER
100
AcDbLine
 10
-80.6516179819157
 20
71.47852187129456
 30
0.0
 11
-80.6516179819157
 21
72.45036767154461
 31
0.0
  0
LINE
  5
17D
330
BF
100
AcDbEntity
  8
VER
100
AcDbLine
 10
-88.149
 20
107.3717413890188
 30
0.0
 11
-88.149
 21
129.3525125885442
 31
0.0
  0
LINE
  5
17E
330
BF
100
AcDbEntity
  8
VER
100
AcDbLine
 10
-88.149
 20
70.64748741145584
 30
0.0
 11
-88.149
 21
92.62825861098122
 31
0.0
  0
LINE
  5
17F
330
BF
100
AcDbEntity
  8
VER
100
AcDbLine
 10
-92.01100000000001
 20
128.462
 30
0.0
 11
-92.949
 21
129.4
 31
0.0
  0
LINE
  5
180
330
BF
100
AcDbEntity
  8
VER
100
AcDbLine
 10
-92.949
 20
70.6
 30
0.0
 11
-92.01100000000001
 21
71.53800000000001
 31
0.0
  0
LINE
  5
181
330
BF
100
AcDbEntity
  8
VER
100
AcDbLine
 10
-92.01100000000001
 20
71.53800000000001
 30
0.0
 11
-92.01100000000001
 21
128.462
 31
0.0
  0
LINE
  5
182
330
BF
100
AcDbEntity
  8
VER
100
AcDbLine
 10
-78.149
 20
69.82372776651015
 30
0.0
 11
-80.649
 21
69.81056859455693
 31
0.0
  0
LINE
  5
183
330
BF
100
AcDbEntity
  8
VER
100
AcDbLine
 10
-78.14899999999986
 20
70.698063631645
 30
0.0
 11
-88.149
 21
70.64748741145584
 31
0.0
  0
LINE
  5
184
330
BF
100
AcDbEntity
  8
VER
100
AcDbLine
 10
-88.149
 20
92.13501795607523
 30
0.0
 11
-78.14899999999986
 21
92.14856981343114
 31
0.0
  0
LINE
  5
185
330
BF
100
AcDbEntity
  8
VER
100
AcDbLine
 10
-80.649
 20
96.89500000000001
 30
0.0
 11
-78.149
 21
96.89500000000001
 31
0.0
  0
LINE
  5
186
330
BF
100
AcDbEntity
  8
VER
100
AcDbLine
 10
-80.649
 20
103.105
 30
0.0
 11
-80.649
 21
96.89500000000001
 31
0.0
  0
LINE
  5
187
330
BF
100
AcDbEntity
  8
VER
100
AcDbLine
 10
-78.149
 20
103.105
 30
0.0
 11
-80.649
 21
103.105
 31
0.0
  0
LINE
  5
188
330
BF
100
AcDbEntity
  8
VER
100
AcDbLine
 10
-78.14899999999986
 20
107.8514301865689
 30
0.0
 11
-88.149
 21
107.8649820439248
 31
0.0
  0
LINE
  5
189
330
BF
100
AcDbEntity
  8
VER
100
AcDbLine
 10
-88.149
 20
129.3525125885442
 30
0.0
 11
-78.14899999999986
 21
129.301936368355
 31
0.0
  0
LINE
  5
18A
330
BF
100
AcDbEntity
  8
VER
100
AcDbLine
 10
-80.649
 20
130.1894314054431
 30
0.0
 11
-78.149
 21
130.1762722334899
 31
0.0
  0
LINE
  5
18B
330
BF
100
AcDbEntity
  8
VER
100
AcDbLine
 10
-80.649
 20
130.3486868510641
 30
0.0
 11
-90.449
 21
130.4
 31
0.0
  0
LINE
  5
18C
330
BF
100
AcDbEntity
  8
VER
100
AcDbLine
 10
-90.449
 20
69.60000000000001
 30
0.0
 11
-80.649
 21
69.65131314893587
 31
0.0
  0
LINE
  5
18D
330
BF
100
AcDbEntity
  8
VER
100
AcDbLine
 10
-92.949
 20
69.82634113020958
 30
0.0
 11
-91.468
 21
68.75033164623365
 31
0.0
  0
LINE
  5
18E
330
BF
100
AcDbEntity
  8
VER
100
AcDbLine
 10
-91.468
 20
131.2496683537664
 30
0.0
 11
-92.949
 21
130.1736588697904
 31
0.0
  0
LINE
  5
18F
330
BF
100
AcDbEntity
  8
VER
100
AcDbLine
 10
-92.949
 20
69.82634113020958
 30
0.0
 11
-92.949
 21
130.1736588697904
 31
0.0
  0
LINE
  5
190
330
BF
100
AcDbEntity
  8
VER
100
AcDbLine
 10
-90.449
 20
131.2325449350718
 30
0.0
 11
-91.449
 21
131.25
 31
0.0
  0
LINE
  5
191
330
BF
100
AcDbEntity
  8
VER
100
AcDbLine
 10
-91.449
 20
68.75
 30
0.0
 11
-90.449
 21
68.76745506492821
 31
0.0
  0
LINE
  5
192
330
BF
100
AcDbEntity
  8
VER
100
AcDbLine
 10
-90.449
 20
68.76745506492821
 30
0.0
 11
-90.449
 21
131.2325449350718
 31
0.0
  0
LINE
  5
193
330
BF
100
AcDbEntity
  8
VER
100
AcDbLine
 10
-91.468
 20
68.75033164623365
 30
0.0
 11
-91.449
 21
68.75
 31
0.0
  0
LINE
  5
194
330
BF
100
AcDbEntity
  8
VER
100
AcDbLine
 10
-91.449
 20
131.25
 30
0.0
 11
-91.468
 21
131.2496683537664
 31
0.0
  0
LINE
  5
195
330
BF
100
AcDbEntity
  8
VER
100
AcDbLine
 10
-91.468
 20
68.75033164623365
 30
0.0
 11
-91.468
 21
131.2496683537664
 31
0.0
  0
LINE
  5
196
330
BF
100
AcDbEntity
  8
VER
100
AcDbLine
 10
-91.449
 20
68.75
 30
0.0
 11
-91.449
 21
131.25
 31
0.0
  0
ENDBLK
  5
C2
330
BF
100
AcDbEntity
  8
0
100
AcDbBlockEnd
  0
BLOCK
  5
199
330
197
100
AcDbEntity
  8
0
100
AcDbBlockBegin
  2
3_893_735_metallrosette_0_in_150300_0
 70
     2
 10
0.0
 20
0.0
 30
0.0
  3
3_893_735_metallrosette_0_in_150300_0
  1

  0
ATTDEF
  5
19B
330
197
100
AcDbEntity
  8
ATTR
100
AcDbText
 10
-71.164
 20
146.0
 30
0.0
 40
0.5
  1
893.735_metallrosette
100
AcDbAttributeDefinition
  3

  2
NB
 70
     8
  0
ATTDEF
  5
19C
330
197
100
AcDbEntity
  8
ATTR
100
AcDbText
 10
-71.164
 20
145.5
 30
0.0
 40
0.5
  1
893.735 Metallrosette
100
AcDbAttributeDefinition
  3

  2
NN
 70
     8
  0
ATTDEF
  5
19D
330
197
100
AcDbEntity
  8
ATTR
100
AcDbText
 10
-71.164
 20
145.0
 30
0.0
 40
0.5
  1

100
AcDbAttributeDefinition
  3

  2
NT
 70
     8
  0
ATTDEF
  5
19E
330
197
100
AcDbEntity
  8
ATTR
100
AcDbText
 10
-71.164
 20
144.5
 30
0.0
 40
0.5
  1
$ARTNRT._metallrosette
100
AcDbAttributeDefinition
  3

  2
NBSYN
 70
     8
  0
ATTDEF
  5
19F
330
197
100
AcDbEntity
  8
ATTR
100
AcDbText
 10
-71.164
 20
144.0
 30
0.0
 40
0.5
  1
893.735_metallrosette
100
AcDbAttributeDefinition
  3

  2
LINA
 70
     8
  0
ATTDEF
  5
1A0
330
197
100
AcDbEntity
  8
ATTR
100
AcDbText
 10
-71.164
 20
143.5
 30
0.0
 40
0.5
  1
GEBERIT
100
AcDbAttributeDefinition
  3

  2
CATALOG
 70
     8
  0
ATTDEF
  5
1A1
330
197
100
AcDbEntity
  8
ATTR
100
AcDbText
 10
-71.164
 20
143.0
 30
0.0
 40
0.5
  1
893.735
100
AcDbAttributeDefinition
  3

  2
ARTNRT
 70
     8
  0
ATTDEF
  5
1A2
330
197
100
AcDbEntity
  8
ATTR
100
AcDbText
 10
-71.164
 20
142.5
 30
0.0
 40
0.5
  1
geberit
100
AcDbAttributeDefinition
  3

  2
COMPANY
 70
     8
  0
ATTDEF
  5
1A3
330
197
100
AcDbEntity
  8
ATTR
100
AcDbText
 10
-71.164
 20
142.0
 30
0.0
 40
0.5
  1
{$CADENAS_DATA\23d-libs\geberit\waste_fitting\fur_badewannen\common_parts_893\893_735_parts\893_735_metallrosette.prj},197 {VTYP=3D},{NB=893.735_metallrosette},{LINA=893.735_metallrosette},{NN=893.735 Metallrosette},{DATE=18.06.2021 06:30:38},{GEOMDATE=18
100
AcDbAttributeDefinition
  3

  2
PSOL_0
 70
     9
  0
ATTDEF
  5
1A4
330
197
100
AcDbEntity
  8
ATTR
100
AcDbText
 10
-71.164
 20
141.5
 30
0.0
 40
0.5
  1
.06.2021 06:30:00},{VERSION=},{LINEID=10},{WBVAR=},{WBNUMERIC=}  {NB=893.735_metallrosette},{LINA=893.735_metallrosette},{KT=DUMMY},{ARTNRT=893.735}
100
AcDbAttributeDefinition
  3

  2
PSOL_1
 70
     9
  0
LINE
  5
1A5
330
197
100
AcDbEntity
  8
VER
100
AcDbLine
 10
-80.29899999999999
 20
128.4000552833554
 30
0.0
 11
-87.85214153523488
 21
128.3209560787394
 31
0.0
  0
LINE
  5
1A6
330
197
100
AcDbEntity
  8
VER
100
AcDbLine
 10
-87.85214153523488
 20
128.1557015223185
 30
0.0
 11
-87.85214153523488
 21
128.3209560787394
 31
0.0
  0
ARC
  5
1A7
330
197
100
AcDbEntity
  8
VER
100
AcDbCircle
 10
-87.84900000000005
 20
128.0209725279298
 30
0.0
 40
0.2999999999999458
100
AcDbArc
 50
90.59999999999212
 51
180.0000000000109
  0
LINE
  5
1A8
330
197
100
AcDbEntity
  8
VER
100
AcDbLine
 10
-85.649
 20
126.5510281663311
 30
0.0
 11
-85.649
 21
125.8198949455648
 31
0.0
  0
LINE
  5
1A9
330
197
100
AcDbEntity
  8
VER
100
AcDbLine
 10
-87.85214153523488
 20
128.1557015223185
 30
0.0
 11
-80.29899999999999
 21
128.2352636803279
 31
0.0
  0
LWPOLYLINE
  5
1AA
330
197
100
AcDbEntity
  8
VER
100
AcDbPolyline
 90
        7
 70
     0
 43
0.0
 10
-88.149
 20
127.8539382567527
 10
-88.13495964118484
 20
127.9451836869889
 10
-88.08839573710844
 20
128.0358183597848
 10
-88.01459565775718
 20
128.1055811062931
 10
-87.95809826135095
 20
128.135056844375
 10
-87.86000545628228
 20
128.1555149480866
 10
-87.85214153523488
 20
128.1557015223185
  0
LWPOLYLINE
  5
1AB
330
197
100
AcDbEntity
  8
VER
100
AcDbPolyline
 90
        5
 70
     0
 43
0.0
 10
-86.53980892971954
 20
125.8198949455648
 10
-86.56107614366596
 20
125.8206549837384
 10
-86.6582790729238
 20
125.8444476940338
 10
-86.71199904481833
 20
125.8746096491815
 10
-86.73264521262611
 20
125.8905698634769
  0
ARC
  5
1AC
330
197
100
AcDbEntity
  8
VER
100
AcDbCircle
 10
-86.5398089297202
 20
126.2999999999998
 30
0.0
 40
0.2999999999998272
100
AcDbArc
 50
229.9999999999839
 51
270.0000000000109
  0
LINE
  5
1AD
330
197
100
AcDbEntity
  8
VER
100
AcDbLine
 10
-86.73264521262611
 20
125.8905698634769
 30
0.0
 11
-86.73264521262611
 21
126.0701866670643
 31
0.0
  0
LINE
  5
1AE
330
197
100
AcDbEntity
  8
VER
100
AcDbLine
 10
-86.73264521262611
 20
125.8905698634769
 30
0.0
 11
-88.04183628290598
 21
126.9964215866791
 31
0.0
  0
LINE
  5
1AF
330
197
100
AcDbEntity
  8
VER
100
AcDbLine
 10
-86.73264521262611
 20
126.0701866670643
 30
0.0
 11
-88.04183628290596
 21
127.1687284112767
 31
0.0
  0
LINE
  5
1B0
330
197
100
AcDbEntity
  8
VER
100
AcDbLine
 10
-78.299
 20
126.4521711585269
 30
0.0
 11
-85.649
 21
126.3746861912954
 31
0.0
  0
LINE
  5
1B1
330
197
100
AcDbEntity
  8
VER
100
AcDbLine
 10
-78.29899999999999
 20
126.628
 30
0.0
 11
-85.649
 21
126.5510281663311
 31
0.0
  0
LINE
  5
1B2
330
197
100
AcDbEntity
  8
VER
100
AcDbLine
 10
-88.04183628290598
 20
126.9964215866791
 30
0.0
 11
-88.04183628290596
 21
127.1687284112767
 31
0.0
  0
LWPOLYLINE
  5
1B3
330
197
100
AcDbEntity
  8
VER
100
AcDbPolyline
 90
        4
 70
     0
 43
0.0
 10
-88.04183628290598
 20
126.9964215866791
 10
-88.09554872022004
 20
127.0556897483346
 10
-88.13817459945525
 20
127.1473239870819
 10
-88.149
 20
127.2276893016898
  0
ARC
  5
1B4
330
197
100
AcDbEntity
  8
VER
100
AcDbCircle
 10
-87.849
 20
127.3985417442124
 30
0.0
 40
0.2999999999999972
100
AcDbArc
 50
179.9999999999973
 51
230.0000000000003
  0
LINE
  5
1B5
330
197
100
AcDbEntity
  8
VER
100
AcDbLine
 10
-86.53980892971954
 20
125.8198949455648
 30
0.0
 11
-86.53980892972014
 21
126.0
 31
0.0
  0
LINE
  5
1B6
330
197
100
AcDbEntity
  8
VER
100
AcDbLine
 10
-85.649
 20
125.8198949455648
 30
0.0
 11
-86.53980892971954
 21
125.8198949455648
 31
0.0
  0
LINE
  5
1B7
330
197
100
AcDbEntity
  8
VER
100
AcDbLine
 10
-85.649
 20
126.0
 30
0.0
 11
-86.53980892971954
 21
126.0
 31
0.0
  0
LINE
  5
1B8
330
197
100
AcDbEntity
  8
VER
100
AcDbLine
 10
-85.649
 20
73.44897183366889
 30
0.0
 11
-78.29899999999999
 21
73.372
 31
0.0
  0
LINE
  5
1B9
330
197
100
AcDbEntity
  8
VER
100
AcDbLine
 10
-85.649
 20
73.44897183366889
 30
0.0
 11
-85.649
 21
74.18010505443526
 31
0.0
  0
LINE
  5
1BA
330
197
100
AcDbEntity
  8
VER
100
AcDbLine
 10
-87.85214153523488
 20
71.6790439212606
 30
0.0
 11
-80.29899999999999
 21
71.5999447166446
 31
0.0
  0
ARC
  5
1BB
330
197
100
AcDbEntity
  8
VER
100
AcDbCircle
 10
-87.84900000000002
 20
72.60145825578759
 30
0.0
 40
0.299999999999987
100
AcDbArc
 50
129.9999999999976
 51
180.0
  0
ARC
  5
1BC
330
197
100
AcDbEntity
  8
VER
100
AcDbCircle
 10
-87.84899999999998
 20
71.97902747207029
 30
0.0
 40
0.3000000000000256
100
AcDbArc
 50
180.0000000000054
 51
269.3999999999945
  0
LINE
  5
1BD
330
197
100
AcDbEntity
  8
VER
100
AcDbLine
 10
-87.85214153523488
 20
71.6790439212606
 30
0.0
 11
-87.85214153523488
 21
71.84429847768153
 31
0.0
  0
ARC
  5
1BE
330
197
100
AcDbEntity
  8
VER
100
AcDbCircle
 10
-86.53980892971998
 20
73.69999999999958
 30
0.0
 40
0.3000000000004377
100
AcDbArc
 50
90.00000000002986
 51
129.9999999999705
  0
LINE
  5
1BF
330
197
100
AcDbEntity
  8
VER
100
AcDbLine
 10
-86.53980892972027
 20
74.00000000000001
 30
0.0
 11
-85.649
 21
74.00000000000001
 31
0.0
  0
LINE
  5
1C0
330
197
100
AcDbEntity
  8
VER
100
AcDbLine
 10
-86.53980892972014
 20
74.00000000000001
 30
0.0
 11
-86.53980892972014
 21
74.18010505443526
 31
0.0
  0
LINE
  5
1C1
330
197
100
AcDbEntity
  8
VER
100
AcDbLine
 10
-88.04183628290596
 20
72.83127158872328
 30
0.0
 11
-86.73264521262611
 21
73.92981333293571
 31
0.0
  0
LINE
  5
1C2
330
197
100
AcDbEntity
  8
VER
100
AcDbLine
 10
-88.04183628290596
 20
72.83127158872328
 30
0.0
 11
-88.04183628290596
 21
73.00357841332088
 31
0.0
  0
LINE
  5
1C3
330
197
100
AcDbEntity
  8
VER
100
AcDbLine
 10
-86.73264521262611
 20
73.92981333293571
 30
0.0
 11
-86.73264521262611
 21
74.10943013652313
 31
0.0
  0
LINE
  5
1C4
330
197
100
AcDbEntity
  8
VER
100
AcDbLine
 10
-85.649
 20
73.6253138087046
 30
0.0
 11
-78.29899999999999
 21
73.54782884147315
 31
0.0
  0
LINE
  5
1C5
330
197
100
AcDbEntity
  8
VER
100
AcDbLine
 10
-85.649
 20
74.18010505443526
 30
0.0
 11
-86.53980892972014
 21
74.18010505443526
 31
0.0
  0
LWPOLYLINE
  5
1C6
330
197
100
AcDbEntity
  8
VER
100
AcDbPolyline
 90
        4
 70
     0
 43
0.0
 10
-86.73264521262611
 20
74.10943013652313
 10
-86.68187343675649
 20
74.14408623801975
 10
-86.58701847772284
 20
74.1763411300793
 10
-86.53980892972014
 20
74.18010505443526
  0
LINE
  5
1C7
330
197
100
AcDbEntity
  8
VER
100
AcDbLine
 10
-88.04183628290596
 20
73.00357841332088
 30
0.0
 11
-86.73264521262611
 21
74.10943013652313
 31
0.0
  0
LWPOLYLINE
  5
1C8
330
197
100
AcDbEntity
  8
VER
100
AcDbPolyline
 90
        5
 70
     0
 43
0.0
 10
-88.149
 20
72.77231069831026
 10
-88.1489172236106
 20
72.77940184175455
 10
-88.12946654323964
 20
72.87946398040978
 10
-88.07793786598624
 20
72.96741084582165
 10
-88.04183628290596
 20
73.00357841332088
  0
LWPOLYLINE
  5
1C9
330
197
100
AcDbEntity
  8
VER
100
AcDbPolyline
 90
        7
 70
     0
 43
0.0
 10
-87.85214153523488
 20
71.84429847768153
 10
-87.90786437613188
 20
71.85014787306368
 10
-88.00134995979782
 20
71.88608961554156
 10
-88.0779051989287
 20
71.95099354001545
 10
-88.1290749728539
 20
72.03791134143687
 10
-88.14887634737579
 20
72.13739754599347
 10
-88.149
 20
72.14606174324727
  0
LINE
  5
1CA
330
197
100
AcDbEntity
  8
VER
100
AcDbLine
 10
-80.29899999999999
 20
71.76473631967212
 30
0.0
 11
-87.85214153523488
 21
71.84429847768153
 31
0.0
  0
LINE
  5
1CB
330
197
100
AcDbEntity
  8
VER
100
AcDbLine
 10
-78.299
 20
130.3615234783372
 30
0.0
 11
-80.29899999999999
 21
130.3615234783372
 31
0.0
  0
LINE
  5
1CC
330
197
100
AcDbEntity
  8
VER
100
AcDbLine
 10
-78.299
 20
130.0633743116105
 30
0.0
 11
-80.29899999999999
 21
130.0633743116105
 31
0.0
  0
LINE
  5
1CD
330
197
100
AcDbEntity
  8
VER
100
AcDbLine
 10
-78.299
 20
130.3633743116105
 30
0.0
 11
-80.29899999999999
 21
130.3633743116105
 31
0.0
  0
LINE
  5
1CE
330
197
100
AcDbEntity
  8
VER
100
AcDbLine
 10
-78.299
 20
69.63847652166282
 30
0.0
 11
-80.29899999999999
 21
69.63847652166282
 31
0.0
  0
LINE
  5
1CF
330
197
100
AcDbEntity
  8
VER
100
AcDbLine
 10
-78.299
 20
69.93662568838954
 30
0.0
 11
-80.29899999999999
 21
69.93662568838954
 31
0.0
  0
LINE
  5
1D0
330
197
100
AcDbEntity
  8
VER
100
AcDbLine
 10
-80.29899999999999
 20
69.63662568838953
 30
0.0
 11
-78.299
 21
69.63662568838953
 31
0.0
  0
LINE
  5
1D1
330
197
100
AcDbEntity
  8
VER
100
AcDbLine
 10
-86.53980892971954
 20
96.94500000000001
 30
0.0
 11
-86.53980892972014
 21
103.055
 31
0.0
  0
LINE
  5
1D2
330
197
100
AcDbEntity
  8
VER
100
AcDbLine
 10
-86.73264521262611
 20
96.94500000000001
 30
0.0
 11
-86.73264521262611
 21
103.055
 31
0.0
  0
LINE
  5
1D3
330
197
100
AcDbEntity
  8
VER
100
AcDbLine
 10
-85.649
 20
96.94500000000001
 30
0.0
 11
-85.649
 21
103.055
 31
0.0
  0
LINE
  5
1D4
330
197
100
AcDbEntity
  8
VER
100
AcDbLine
 10
-88.04183628290598
 20
96.94500000000001
 30
0.0
 11
-88.04183628292324
 21
103.055
 31
0.0
  0
LINE
  5
1D5
330
197
100
AcDbEntity
  8
VER
100
AcDbLine
 10
-88.149
 20
96.94500000000001
 30
0.0
 11
-78.299
 21
96.94500000000001
 31
0.0
  0
LINE
  5
1D6
330
197
100
AcDbEntity
  8
VER
100
AcDbLine
 10
-87.85214153523488
 20
96.94500000000001
 30
0.0
 11
-87.85214153523488
 21
103.055
 31
0.0
  0
LINE
  5
1D7
330
197
100
AcDbEntity
  8
VER
100
AcDbLine
 10
-78.299
 20
103.3882727272727
 30
0.0
 11
-80.29899999999999
 21
103.3882727272727
 31
0.0
  0
LINE
  5
1D8
330
197
100
AcDbEntity
  8
VER
100
AcDbLine
 10
-78.299
 20
103.055
 30
0.0
 11
-88.149
 21
103.055
 31
0.0
  0
LINE
  5
1D9
330
197
100
AcDbEntity
  8
VER
100
AcDbLine
 10
-78.299
 20
96.61172727272728
 30
0.0
 11
-80.29899999999999
 21
96.61172727272728
 31
0.0
  0
LINE
  5
1DA
330
197
100
AcDbEntity
  8
VER
100
AcDbLine
 10
-78.299
 20
59.26000000052272
 30
0.0
 11
-78.299
 21
140.74
 31
0.0
  0
ARC
  5
1DB
330
197
100
AcDbEntity
  8
VER
100
AcDbCircle
 10
-77.99899999999998
 20
140.74
 30
0.0
 40
0.3000000000000253
100
AcDbArc
 50
133.7645434161464
 51
179.9999999999946
  0
ARC
  5
1DC
330
197
100
AcDbEntity
  8
VER
100
AcDbCircle
 10
-77.99899999999998
 20
59.26000000000003
 30
0.0
 40
0.3000000000000256
100
AcDbArc
 50
180.0000000000054
 51
226.2354565838536
  0
ARC
  5
1DD
330
197
100
AcDbEntity
  8
VER
100
AcDbCircle
 10
-78.34900000000016
 20
141.0970000000001
 30
0.0
 40
0.2000000000001619
100
AcDbArc
 50
315.4350472540011
 51
359.9999999999837
  0
ARC
  5
1DE
330
197
100
AcDbEntity
  8
VER
100
AcDbCircle
 10
-78.34900000000012
 20
58.90299999999996
 30
0.0
 40
0.2000000000001165
100
AcDbArc
 50
0.0000000000122133
 51
44.56495274600316
  0
LINE
  5
1DF
330
197
100
AcDbEntity
  8
VER
100
AcDbLine
 10
-78.20650891745186
 20
59.04334347649343
 30
0.0
 11
-78.20650891745186
 21
140.9566565235066
 31
0.0
  0
LINE
  5
1E0
330
197
100
AcDbEntity
  8
VER
100
AcDbLine
 10
-80.29899999999999
 20
57.70400000021177
 30
0.0
 11
-80.29899999999999
 21
142.296
 31
0.0
  0
ARC
  5
1E1
330
197
100
AcDbEntity
  8
VER
100
AcDbCircle
 10
-80.0990000000001
 20
142.2960000000001
 30
0.0
 40
0.1999999999998614
100
AcDbArc
 50
106.6657785619561
 51
180.0000000000326
  0
ARC
  5
1E2
330
197
100
AcDbEntity
  8
VER
100
AcDbCircle
 10
-80.09899999999999
 20
57.70399999999999
 30
0.0
 40
0.2000000000000028
100
AcDbArc
 50
179.9999999999959
 51
253.3342214380214
  0
ARC
  5
1E3
330
197
100
AcDbEntity
  8
VER
100
AcDbCircle
 10
-80.19899999999997
 20
142.683
 30
0.0
 40
0.1999999999999937
100
AcDbArc
 50
282.3106278940813
 51
0.0
  0
ARC
  5
1E4
330
197
100
AcDbEntity
  8
VER
100
AcDbCircle
 10
-80.19899999999996
 20
57.31700000000003
 30
0.0
 40
0.1999999999999602
100
AcDbArc
 50
359.9999999999939
 51
77.68937210592092
  0
LINE
  5
1E5
330
197
100
AcDbEntity
  8
VER
100
AcDbLine
 10
-80.1563576767006
 20
57.51240120844977
 30
0.0
 11
-80.1563576767006
 21
142.4875987915502
 31
0.0
  0
LINE
  5
1E6
330
197
100
AcDbEntity
  8
VER
100
AcDbLine
 10
-76.36609435682325
 20
144.0090222649937
 30
0.0
 11
-77.94690564317676
 21
144.0255770872243
 31
0.0
  0
LINE
  5
1E7
330
197
100
AcDbEntity
  8
VER
100
AcDbLine
 10
-77.94690564317676
 20
55.97442291277566
 30
0.0
 11
-76.36609435682325
 21
55.99097773500628
 31
0.0
  0
LINE
  5
1E8
330
197
100
AcDbEntity
  8
VER
100
AcDbLine
 10
-78.149
 20
56.1744119466557
 30
0.0
 11
-78.149
 21
143.8255880533513
 31
0.0
  0
ARC
  5
1E9
330
197
100
AcDbEntity
  8
VER
100
AcDbCircle
 10
-77.94900000000004
 20
143.8255880533513
 30
0.0
 40
0.1999999999999644
100
AcDbArc
 50
89.3999999999916
 51
180.0000000000081
  0
ARC
  5
1EA
330
197
100
AcDbEntity
  8
VER
100
AcDbCircle
 10
-77.94900000000003
 20
56.17441194664873
 30
0.0
 40
0.1999999999999744
100
AcDbArc
 50
179.9999999999919
 51
270.6000000000043
  0
LINE
  5
1EB
330
197
100
AcDbEntity
  8
VER
100
AcDbLine
 10
-77.94690564317676
 20
55.97442291277566
 30
0.0
 11
-77.94690564317676
 21
144.0255770872243
 31
0.0
  0
LINE
  5
1EC
330
197
100
AcDbEntity
  8
VER
100
AcDbLine
 10
-79.999
 20
56.15084914044174
 30
0.0
 11
-79.999
 21
143.8491508595764
 31
0.0
  0
ARC
  5
1ED
330
197
100
AcDbEntity
  8
VER
100
AcDbCircle
 10
-80.19900000000001
 20
143.8491508595764
 30
0.0
 40
0.2000000000000171
100
AcDbArc
 50
0.0
 51
89.39999999999586
  0
ARC
  5
1EE
330
197
100
AcDbEntity
  8
VER
100
AcDbCircle
 10
-80.199
 20
56.15084914042357
 30
0.0
 40
0.1999999999999854
100
AcDbArc
 50
270.6000000000002
 51
0.0000000000061067
  0
LINE
  5
1EF
330
197
100
AcDbEntity
  8
VER
100
AcDbLine
 10
-80.19690564317675
 20
144.0491398934495
 30
0.0
 11
-84.85214153523488
 21
144.097891191786
 31
0.0
  0
LINE
  5
1F0
330
197
100
AcDbEntity
  8
VER
100
AcDbLine
 10
-84.85214153523488
 20
55.90210880821404
 30
0.0
 11
-80.19690564317675
 21
55.95086010655048
 31
0.0
  0
LINE
  5
1F1
330
197
100
AcDbEntity
  8
VER
100
AcDbLine
 10
-80.19690564317675
 20
55.95086010655048
 30
0.0
 11
-80.19690564317675
 21
144.0491398934495
 31
0.0
  0
ARC
  5
1F2
330
197
100
AcDbEntity
  8
VER
100
AcDbCircle
 10
-76.36399999999999
 20
144.2090112988668
 30
0.0
 40
0.1999999999999927
100
AcDbArc
 50
269.3999999999958
 51
359.9999999999919
  0
ARC
  5
1F3
330
197
100
AcDbEntity
  8
VER
100
AcDbCircle
 10
-76.36400000000002
 20
55.79098870113318
 30
0.0
 40
0.2000000000000028
100
AcDbArc
 50
0.0
 51
90.59999999999607
  0
LINE
  5
1F4
330
197
100
AcDbEntity
  8
VER
100
AcDbLine
 10
-76.36609435682325
 20
55.99097773500628
 30
0.0
 11
-76.36609435682325
 21
144.0090222649937
 31
0.0
  0
ARC
  5
1F5
330
197
100
AcDbEntity
  8
VER
100
AcDbCircle
 10
-84.84899999999995
 20
144.3978747425957
 30
0.0
 40
0.300000000000054
100
AcDbArc
 50
180.0000000000109
 51
269.3999999999891
  0
ARC
  5
1F6
330
197
100
AcDbEntity
  8
VER
100
AcDbCircle
 10
-84.849
 20
55.60212525740438
 30
0.0
 40
0.300000000000003
100
AcDbArc
 50
90.60000000000014
 51
180.0000000000014
  0
LINE
  5
1F7
330
197
100
AcDbEntity
  8
VER
100
AcDbLine
 10
-84.85214153523488
 20
55.90210880821404
 30
0.0
 11
-84.85214153523488
 21
144.097891191786
 31
0.0
  0
LINE
  5
1F8
330
197
100
AcDbEntity
  8
VER
100
AcDbLine
 10
-85.128013669614
 20
145.9997802236283
 30
0.0
 11
-85.149
 21
146.0
 31
0.0
  0
LINE
  5
1F9
330
197
100
AcDbEntity
  8
VER
100
AcDbLine
 10
-85.149
 20
54.00000000000001
 30
0.0
 11
-85.128013669614
 21
54.00021977637168
 31
0.0
  0
LINE
  5
1FA
330
197
100
AcDbEntity
  8
050
100
AcDbLine
 10
-76.16400000000002
 20
55.77237063854283
 30
0.0
 11
-76.16400000000002
 21
144.2276293621983
 31
0.0
  0
ARC
  5
1FB
330
197
100
AcDbEntity
  8
050
100
AcDbCircle
 10
-76.36399999996873
 20
144.2276293622007
 30
0.0
 40
0.1999999999687105
100
AcDbArc
 50
359.9999999993161
 51
3.623530292245483
  0
ARC
  5
1FC
330
197
100
AcDbEntity
  8
050
100
AcDbCircle
 10
-76.36399999996964
 20
55.77237063779936
 30
0.0
 40
0.1999999999696202
100
AcDbArc
 50
356.3764697077568
 51
0.0000000006696976
  0
LINE
  5
1FD
330
197
100
AcDbEntity
  8
050
100
AcDbLine
 10
-76.16439982852238
 20
55.75973055363166
 30
0.0
 11
-76.16439982852236
 21
144.2402694391809
 31
0.0
  0
ARC
  5
1FE
330
197
100
AcDbEntity
  8
050
100
AcDbCircle
 10
-76.97510097065164
 20
145.1643588752436
 30
0.0
 40
0.7500000000000182
100
AcDbArc
 50
3.703296094971589
 51
89.40000000000856
  0
ARC
  5
1FF
330
197
100
AcDbEntity
  8
050
100
AcDbCircle
 10
-76.97510097065161
 20
54.83564112475639
 30
0.0
 40
0.7499999999999919
100
AcDbArc
 50
270.5999999999893
 51
356.2967039050321
  0
LINE
  5
200
330
197
100
AcDbEntity
  8
050
100
AcDbLine
 10
-76.2266670424829
 20
54.78719883779683
 30
0.0
 11
-76.2266670424829
 21
145.2128011622032
 31
0.0
  0
LINE
  5
201
330
197
100
AcDbEntity
  8
050
100
AcDbLine
 10
-76.96724713256457
 20
145.9143177522677
 30
0.0
 11
-85.128013669614
 21
145.9997802236283
 31
0.0
  0
LINE
  5
202
330
197
100
AcDbEntity
  8
050
100
AcDbLine
 10
-85.128013669614
 20
54.00021977637168
 30
0.0
 11
-76.96724713256457
 21
54.08568224773227
 31
0.0
  0
LINE
  5
203
330
197
100
AcDbEntity
  8
050
100
AcDbLine
 10
-85.149
 20
54.00000000000001
 30
0.0
 11
-85.149
 21
146.0
 31
0.0
  0
LINE
  5
204
330
197
100
AcDbEntity
  8
050
100
AcDbLine
 10
-76.96724713256457
 20
54.08568224773227
 30
0.0
 11
-76.96724713256457
 21
145.9143177522677
 31
0.0
  0
ENDBLK
  5
19A
330
197
100
AcDbEntity
  8
0
100
AcDbBlockEnd
  0
BLOCK
  5
207
330
205
100
AcDbEntity
  8
0
100
AcDbBlockBegin
  2
4_893_743_0_in_150300_0
 70
     2
 10
0.0
 20
0.0
 30
0.0
  3
4_893_743_0_in_150300_0
  1

  0
ATTDEF
  5
209
330
205
100
AcDbEntity
  8
ATTR
100
AcDbText
 10
-75.99999999957637
 20
146.131
 30
0.0
 40
0.5
  1
893.743
100
AcDbAttributeDefinition
  3

  2
NB
 70
     8
  0
ATTDEF
  5
20A
330
205
100
AcDbEntity
  8
ATTR
100
AcDbText
 10
-75.99999999957637
 20
145.631
 30
0.0
 40
0.5
  1
893.743
100
AcDbAttributeDefinition
  3

  2
NN
 70
     8
  0
ATTDEF
  5
20B
330
205
100
AcDbEntity
  8
ATTR
100
AcDbText
 10
-75.99999999957637
 20
145.131
 30
0.0
 40
0.5
  1

100
AcDbAttributeDefinition
  3

  2
NT
 70
     8
  0
ATTDEF
  5
20C
330
205
100
AcDbEntity
  8
ATTR
100
AcDbText
 10
-75.99999999957637
 20
144.631
 30
0.0
 40
0.5
  1
$ARTNRT.
100
AcDbAttributeDefinition
  3

  2
NBSYN
 70
     8
  0
ATTDEF
  5
20D
330
205
100
AcDbEntity
  8
ATTR
100
AcDbText
 10
-75.99999999957637
 20
144.131
 30
0.0
 40
0.5
  1
893.743
100
AcDbAttributeDefinition
  3

  2
LINA
 70
     8
  0
ATTDEF
  5
20E
330
205
100
AcDbEntity
  8
ATTR
100
AcDbText
 10
-75.99999999957637
 20
143.631
 30
0.0
 40
0.5
  1
GEBERIT
100
AcDbAttributeDefinition
  3

  2
CATALOG
 70
     8
  0
ATTDEF
  5
20F
330
205
100
AcDbEntity
  8
ATTR
100
AcDbText
 10
-75.99999999957637
 20
143.131
 30
0.0
 40
0.5
  1
893.743
100
AcDbAttributeDefinition
  3

  2
ARTNRT
 70
     8
  0
ATTDEF
  5
210
330
205
100
AcDbEntity
  8
ATTR
100
AcDbText
 10
-75.99999999957637
 20
142.631
 30
0.0
 40
0.5
  1
geberit
100
AcDbAttributeDefinition
  3

  2
COMPANY
 70
     8
  0
ATTDEF
  5
211
330
205
100
AcDbEntity
  8
ATTR
100
AcDbText
 10
-75.99999999957637
 20
142.131
 30
0.0
 40
0.5
  1
{$CADENAS_DATA\23d-libs\geberit\waste_fitting\fur_badewannen\common_parts_893\893_743.prj},155 {VTYP=3D},{NB=893.743},{LINA=893.743},{NN=893.743},{DATE=19.07.2021 13:04:56},{GEOMDATE=19.07.2021 13:04:00},{VERSION=},{LINEID=10},{WBVAR=},{WBNUMERIC=}  {NB=8
100
AcDbAttributeDefinition
  3

  2
PSOL_0
 70
     9
  0
ATTDEF
  5
212
330
205
100
AcDbEntity
  8
ATTR
100
AcDbText
 10
-75.99999999957637
 20
141.631
 30
0.0
 40
0.5
  1
93.743},{LINA=893.743},{KT=DUMMY},{ARTNRT=893.743}
100
AcDbAttributeDefinition
  3

  2
PSOL_1
 70
     9
  0
LINE
  5
213
330
205
100
AcDbEntity
  8
VER
100
AcDbLine
 10
-87.11644808641289
 20
102.785
 30
0.0
 11
-87.11644808641039
 21
97.21499999999999
 31
0.0
  0
LINE
  5
214
330
205
100
AcDbEntity
  8
VER
100
AcDbLine
 10
-87.19825469290032
 20
91.976
 30
0.0
 11
-87.19825469290032
 21
55.99871913878603
 31
0.0
  0
LINE
  5
215
330
205
100
AcDbEntity
  8
VER
100
AcDbLine
 10
-87.19825469290032
 20
105.95
 30
0.0
 11
-87.19825469290032
 21
92.13630639255359
 31
0.0
  0
LINE
  5
216
330
205
100
AcDbEntity
  8
VER
100
AcDbLine
 10
-87.19825469290032
 20
107.8636936074464
 30
0.0
 11
-87.19825469290032
 21
106.055
 31
0.0
  0
LINE
  5
217
330
205
100
AcDbEntity
  8
VER
100
AcDbLine
 10
-87.19825469290032
 20
144.001280861214
 30
0.0
 11
-87.19825469290032
 21
108.024
 31
0.0
  0
LINE
  5
218
330
205
100
AcDbEntity
  8
VER
100
AcDbLine
 10
-87.0
 20
91.976
 30
0.0
 11
-87.00000000000001
 21
56.19871152339886
 31
0.0
  0
LINE
  5
219
330
205
100
AcDbEntity
  8
VER
100
AcDbLine
 10
-87.0
 20
97.215
 30
0.0
 11
-87.0
 21
92.13657506448541
 31
0.0
  0
LINE
  5
21A
330
205
100
AcDbEntity
  8
VER
100
AcDbLine
 10
-87.0
 20
105.95
 30
0.0
 11
-87.0
 21
102.785
 31
0.0
  0
LINE
  5
21B
330
205
100
AcDbEntity
  8
VER
100
AcDbLine
 10
-87.0
 20
107.8634249355146
 30
0.0
 11
-87.0
 21
106.055
 31
0.0
  0
LINE
  5
21C
330
205
100
AcDbEntity
  8
VER
100
AcDbLine
 10
-87.00000000000001
 20
143.8012884766011
 30
0.0
 11
-87.0
 21
108.024
 31
0.0
  0
LINE
  5
21D
330
205
100
AcDbEntity
  8
VER
100
AcDbLine
 10
-87.11644808641039
 20
97.21499999999999
 30
0.0
 11
-81.0
 21
97.215
 31
0.0
  0
LINE
  5
21E
330
205
100
AcDbEntity
  8
VER
100
AcDbLine
 10
-86.80523538966158
 20
91.976
 30
0.0
 11
-86.80523538966158
 21
58.17998456139566
 31
0.0
  0
LINE
  5
21F
330
205
100
AcDbEntity
  8
VER
100
AcDbLine
 10
-86.80523538966158
 20
97.215
 30
0.0
 11
-86.80523538966158
 21
92.13683900670715
 31
0.0
  0
LINE
  5
220
330
205
100
AcDbEntity
  8
VER
100
AcDbLine
 10
-86.80523538966158
 20
105.95
 30
0.0
 11
-86.8052353896617
 21
102.785
 31
0.0
  0
LINE
  5
221
330
205
100
AcDbEntity
  8
VER
100
AcDbLine
 10
-86.80523538966158
 20
107.8631609932929
 30
0.0
 11
-86.80523538966158
 21
106.055
 31
0.0
  0
LINE
  5
222
330
205
100
AcDbEntity
  8
VER
100
AcDbLine
 10
-86.80523538966158
 20
141.8200154386043
 30
0.0
 11
-86.80523538966158
 21
108.024
 31
0.0
  0
LINE
  5
223
330
205
100
AcDbEntity
  8
VER
100
AcDbLine
 10
-81.0
 20
102.785
 30
0.0
 11
-87.11644808641289
 21
102.785
 31
0.0
  0
LINE
  5
224
330
205
100
AcDbEntity
  8
VER
100
AcDbLine
 10
-100.0
 20
69.25567339546446
 30
0.0
 11
-94.0
 21
68.53399796126408
 31
0.0
  0
LINE
  5
225
330
205
100
AcDbEntity
  8
VER
100
AcDbLine
 10
-100.0
 20
130.7443266045356
 30
0.0
 11
-94.00000000000001
 21
131.4660020387359
 31
0.0
  0
LINE
  5
226
330
205
100
AcDbEntity
  8
VER
100
AcDbLine
 10
-98.5
 20
73.79901052451163
 30
0.0
 11
-94.0
 21
73.912151086765
 31
0.0
  0
LINE
  5
227
330
205
100
AcDbEntity
  8
VER
100
AcDbLine
 10
-93.99999999999268
 20
68.33758054250404
 30
0.0
 11
-98.5
 21
68.74592342641816
 31
0.0
  0
LINE
  5
228
330
205
100
AcDbEntity
  8
VER
100
AcDbLine
 10
-98.5
 20
126.2009894754884
 30
0.0
 11
-94.0
 21
126.087848913235
 31
0.0
  0
LINE
  5
229
330
205
100
AcDbEntity
  8
VER
100
AcDbLine
 10
-98.5
 20
131.2540765735818
 30
0.0
 11
-94.00000000000666
 21
131.662419457921
 31
0.0
  0
LINE
  5
22A
330
205
100
AcDbEntity
  8
VER
100
AcDbLine
 10
-94.0
 20
124.8597766851964
 30
0.0
 11
-81.0
 21
124.5715267729526
 31
0.0
  0
LINE
  5
22B
330
205
100
AcDbEntity
  8
VER
100
AcDbLine
 10
-94.0
 20
75.14022331480363
 30
0.0
 11
-80.99999999999999
 21
75.4284732270474
 31
0.0
  0
LINE
  5
22C
330
205
100
AcDbEntity
  8
VER
100
AcDbLine
 10
-81.0
 20
69.56325012357753
 30
0.0
 11
-86.80523538966158
 21
69.47942037211213
 31
0.0
  0
LWPOLYLINE
  5
22D
330
205
100
AcDbEntity
  8
VER
100
AcDbPolyline
 90
        6
 70
     0
 43
0.0
 10
-86.80523538966158
 20
69.47942037211213
 10
-86.86978319012253
 20
69.46887510442015
 10
-86.9265159497965
 20
69.44044833406893
 10
-86.96980705421763
 20
69.39705425438147
 10
-86.9950947253481
 20
69.34246773652566
 10
-87.00000000000132
 20
69.30337087248004
  0
LWPOLYLINE
  5
22E
330
205
100
AcDbEntity
  8
VER
100
AcDbPolyline
 90
        6
 70
     0
 43
0.0
 10
-87.19825469290032
 20
67.54571596175875
 10
-87.13340152027286
 20
67.55526777381255
 10
-87.0760041057933
 20
67.58285136577821
 10
-87.03186754756251
 20
67.62558613100052
 10
-87.00562670913743
 20
67.67965107590588
 10
-86.99999999999639
 20
67.7213915301701
  0
LINE
  5
22F
330
205
100
AcDbEntity
  8
VER
100
AcDbLine
 10
-87.19825469290032
 20
67.54571596175873
 30
0.0
 11
-99.80174530709968
 21
67.55822557452028
 31
0.0
  0
LWPOLYLINE
  5
230
330
205
100
AcDbEntity
  8
VER
100
AcDbPolyline
 90
        6
 70
     0
 43
0.0
 10
-99.80174530709968
 20
67.55822557452026
 10
-99.8665660162448
 20
67.54867896302635
 10
-99.923935056634
 20
67.52111125126261
 10
-99.96807335056316
 20
67.4783920840607
 10
-99.99434862792383
 20
67.42431259634809
 10
-100.0
 20
67.38246857363231
  0
LINE
  5
231
330
205
100
AcDbEntity
  8
VER
100
AcDbLine
 10
-81.0
 20
78.02521141744059
 30
0.0
 11
-100.0
 21
78.13953462108357
 31
0.0
  0
LINE
  5
232
330
205
100
AcDbEntity
  8
VER
100
AcDbLine
 10
-95.5
 20
124.18426471957
 30
0.0
 11
-98.3
 21
124.18426471957
 31
0.0
  0
LINE
  5
233
330
205
100
AcDbEntity
  8
VER
100
AcDbLine
 10
-98.3
 20
124.1561141912912
 30
0.0
 11
-95.5
 21
124.1561141912912
 31
0.0
  0
LINE
  5
234
330
205
100
AcDbEntity
  8
VER
100
AcDbLine
 10
-95.5
 20
75.81573528043
 30
0.0
 11
-98.3
 21
75.81573528043
 31
0.0
  0
LINE
  5
235
330
205
100
AcDbEntity
  8
VER
100
AcDbLine
 10
-95.5
 20
75.84388580870875
 30
0.0
 11
-98.3
 21
75.84388580870875
 31
0.0
  0
LINE
  5
236
330
205
100
AcDbEntity
  8
VER
100
AcDbLine
 10
-80.99999999957637
 20
77.70785691401896
 30
0.0
 11
-89.9
 21
77.15453486980071
 31
0.0
  0
LINE
  5
237
330
205
100
AcDbEntity
  8
VER
100
AcDbLine
 10
-95.5
 20
75.37179706849616
 30
0.0
 11
-98.3
 21
75.37179706849616
 31
0.0
  0
LINE
  5
238
330
205
100
AcDbEntity
  8
VER
100
AcDbLine
 10
-95.5
 20
124.6282029315038
 30
0.0
 11
-98.3
 21
124.6282029315038
 31
0.0
  0
LINE
  5
239
330
205
100
AcDbEntity
  8
VER
100
AcDbLine
 10
-100.0
 20
123.4745623148552
 30
0.0
 11
-98.3
 21
124.1559231161709
 31
0.0
  0
LINE
  5
23A
330
205
100
AcDbEntity
  8
VER
100
AcDbLine
 10
-98.3
 20
75.84407688382913
 30
0.0
 11
-100.0
 21
76.52543768514478
 31
0.0
  0
LINE
  5
23B
330
205
100
AcDbEntity
  8
VER
100
AcDbLine
 10
-100.0
 20
123.8394670092419
 30
0.0
 11
-98.30000000000001
 21
124.6623021059888
 31
0.0
  0
LINE
  5
23C
330
205
100
AcDbEntity
  8
VER
100
AcDbLine
 10
-100.0
 20
76.1605329907581
 30
0.0
 11
-98.3
 21
75.33769789401119
 31
0.0
  0
LINE
  5
23D
330
205
100
AcDbEntity
  8
VER
100
AcDbLine
 10
-95.5
 20
124.6623021059888
 30
0.0
 11
-98.3
 21
124.6623021059888
 31
0.0
  0
LINE
  5
23E
330
205
100
AcDbEntity
  8
VER
100
AcDbLine
 10
-95.5
 20
75.33769789401119
 30
0.0
 11
-98.3
 21
75.33769789401119
 31
0.0
  0
LINE
  5
23F
330
205
100
AcDbEntity
  8
VER
100
AcDbLine
 10
-100.0
 20
58.47096665182754
 30
0.0
 11
-94.0
 21
58.63290389702317
 31
0.0
  0
LINE
  5
240
330
205
100
AcDbEntity
  8
VER
100
AcDbLine
 10
-100.0
 20
66.35246665182754
 30
0.0
 11
-94.0
 21
66.33290389702317
 31
0.0
  0
LINE
  5
241
330
205
100
AcDbEntity
  8
VER
100
AcDbLine
 10
-100.0
 20
141.5290333481724
 30
0.0
 11
-94.0
 21
141.3670961029768
 31
0.0
  0
LINE
  5
242
330
205
100
AcDbEntity
  8
VER
100
AcDbLine
 10
-100.0
 20
133.6475333481725
 30
0.0
 11
-94.0
 21
133.6670961029768
 31
0.0
  0
LINE
  5
243
330
205
100
AcDbEntity
  8
VER
100
AcDbLine
 10
-94.0
 20
60.97907955543753
 30
0.0
 11
-81.0
 21
60.58781695723618
 31
0.0
  0
LINE
  5
244
330
205
100
AcDbEntity
  8
VER
100
AcDbLine
 10
-94.0
 20
68.38157955543753
 30
0.0
 11
-81.0
 21
68.17181695723617
 31
0.0
  0
LINE
  5
245
330
205
100
AcDbEntity
  8
VER
100
AcDbLine
 10
-94.0
 20
139.0209204445625
 30
0.0
 11
-81.00000000000001
 21
139.4033767636131
 31
0.0
  0
LINE
  5
246
330
205
100
AcDbEntity
  8
VER
100
AcDbLine
 10
-94.0
 20
131.6184204445625
 30
0.0
 11
-81.0
 21
131.819376763613
 31
0.0
  0
LINE
  5
247
330
205
100
AcDbEntity
  8
VER
100
AcDbLine
 10
-98.5
 20
61.40642342641816
 30
0.0
 11
-94.00000000000666
 21
60.93508054207914
 31
0.0
  0
LINE
  5
248
330
205
100
AcDbEntity
  8
VER
100
AcDbLine
 10
-100.0
 20
61.37417339546446
 30
0.0
 11
-94.0
 21
60.8339979612641
 31
0.0
  0
LINE
  5
249
330
205
100
AcDbEntity
  8
VER
100
AcDbLine
 10
-100.0
 20
138.6258266045356
 30
0.0
 11
-94.0
 21
139.1660020387359
 31
0.0
  0
LINE
  5
24A
330
205
100
AcDbEntity
  8
VER
100
AcDbLine
 10
-93.99999999999268
 20
139.064919458019
 30
0.0
 11
-98.5
 21
138.5935765735819
 31
0.0
  0
LINE
  5
24B
330
205
100
AcDbEntity
  8
VER
100
AcDbLine
 10
-100.0
 20
126.7796744565031
 30
0.0
 11
-98.3
 21
126.1824715409815
 31
0.0
  0
LINE
  5
24C
330
205
100
AcDbEntity
  8
VER
100
AcDbLine
 10
-98.3
 20
123.8661086558031
 30
0.0
 11
-98.3
 21
129.3421632113701
 31
0.0
  0
LINE
  5
24D
330
205
100
AcDbEntity
  8
VER
100
AcDbLine
 10
-95.5
 20
126.1824715409815
 30
0.0
 11
-98.3
 21
126.1824715409815
 31
0.0
  0
LINE
  5
24E
330
205
100
AcDbEntity
  8
VER
100
AcDbLine
 10
-95.5
 20
73.81752845901852
 30
0.0
 11
-98.3
 21
73.81752845901852
 31
0.0
  0
LINE
  5
24F
330
205
100
AcDbEntity
  8
VER
100
AcDbLine
 10
-100.0
 20
73.22032554349681
 30
0.0
 11
-98.3
 21
73.81752845901852
 31
0.0
  0
LINE
  5
250
330
205
100
AcDbEntity
  8
VER
100
AcDbLine
 10
-98.3
 20
70.65780045211996
 30
0.0
 11
-98.3
 21
76.13392898247446
 31
0.0
  0
LINE
  5
251
330
205
100
AcDbEntity
  8
VER
100
AcDbLine
 10
-98.5
 20
138.5935765735819
 30
0.0
 11
-98.5
 21
126.2009894754884
 31
0.0
  0
LINE
  5
252
330
205
100
AcDbEntity
  8
VER
100
AcDbLine
 10
-98.5
 20
73.79901052451163
 30
0.0
 11
-98.5
 21
61.40642342641816
 31
0.0
  0
LINE
  5
253
330
205
100
AcDbEntity
  8
VER
100
AcDbLine
 10
-98.5
 20
66.45951052451163
 30
0.0
 11
-94.0
 21
66.50965108676499
 31
0.0
  0
LINE
  5
254
330
205
100
AcDbEntity
  8
VER
100
AcDbLine
 10
-98.5
 20
133.5404894754884
 30
0.0
 11
-94.0
 21
133.490348913235
 31
0.0
  0
LINE
  5
255
330
205
100
AcDbEntity
  8
VER
100
AcDbLine
 10
-95.5
 20
69.83769789401116
 30
0.0
 11
-98.3
 21
69.83769789401116
 31
0.0
  0
LINE
  5
256
330
205
100
AcDbEntity
  8
VER
100
AcDbLine
 10
-95.5
 20
130.1623021059888
 30
0.0
 11
-98.3
 21
130.1623021059888
 31
0.0
  0
LINE
  5
257
330
205
100
AcDbEntity
  8
VER
100
AcDbLine
 10
-95.5
 20
68.81052845901851
 30
0.0
 11
-98.3
 21
68.81052845901851
 31
0.0
  0
LINE
  5
258
330
205
100
AcDbEntity
  8
VER
100
AcDbLine
 10
-95.5
 20
131.1894715409815
 30
0.0
 11
-98.3
 21
131.1894715409815
 31
0.0
  0
LINE
  5
259
330
205
100
AcDbEntity
  8
VER
100
AcDbLine
 10
-94.0
 20
75.14022331480363
 30
0.0
 11
-94.0
 21
58.63290389702316
 31
0.0
  0
LINE
  5
25A
330
205
100
AcDbEntity
  8
VER
100
AcDbLine
 10
-94.0
 20
141.3670961029768
 30
0.0
 11
-94.0
 21
124.8597766851964
 31
0.0
  0
LINE
  5
25B
330
205
100
AcDbEntity
  8
VER
100
AcDbLine
 10
-95.5
 20
131.3549709179914
 30
0.0
 11
-98.3
 21
131.3549709179914
 31
0.0
  0
LINE
  5
25C
330
205
100
AcDbEntity
  8
VER
100
AcDbLine
 10
-95.5
 20
130.8103104376718
 30
0.0
 11
-98.3
 21
130.8103104376718
 31
0.0
  0
LINE
  5
25D
330
205
100
AcDbEntity
  8
VER
100
AcDbLine
 10
-95.5
 20
131.3561141912913
 30
0.0
 11
-98.30000000000001
 21
131.3561141912913
 31
0.0
  0
LINE
  5
25E
330
205
100
AcDbEntity
  8
VER
100
AcDbLine
 10
-95.5
 20
131.3561141912913
 30
0.0
 11
-95.5
 21
123.8641028581943
 31
0.0
  0
LINE
  5
25F
330
205
100
AcDbEntity
  8
VER
100
AcDbLine
 10
-95.5
 20
69.18968956232824
 30
0.0
 11
-98.3
 21
69.18968956232824
 31
0.0
  0
LINE
  5
260
330
205
100
AcDbEntity
  8
VER
100
AcDbLine
 10
-95.5
 20
76.13593487696495
 30
0.0
 11
-95.5
 21
68.64388580870873
 31
0.0
  0
LINE
  5
261
330
205
100
AcDbEntity
  8
VER
100
AcDbLine
 10
-95.5
 20
68.64502908200856
 30
0.0
 11
-98.3
 21
68.64502908200856
 31
0.0
  0
LINE
  5
262
330
205
100
AcDbEntity
  8
VER
100
AcDbLine
 10
-98.3
 20
68.64388580870873
 30
0.0
 11
-95.5
 21
68.64388580870873
 31
0.0
  0
LINE
  5
263
330
205
100
AcDbEntity
  8
VER
100
AcDbLine
 10
-94.0
 20
132.2622766851964
 30
0.0
 11
-81.00000000000001
 21
132.1555267729526
 31
0.0
  0
LINE
  5
264
330
205
100
AcDbEntity
  8
VER
100
AcDbLine
 10
-94.0
 20
67.73772331480363
 30
0.0
 11
-81.0
 21
67.8444732270474
 31
0.0
  0
LINE
  5
265
330
205
100
AcDbEntity
  8
VER
100
AcDbLine
 10
-100.0
 20
129.8194670092419
 30
0.0
 11
-98.3
 21
130.1623021059888
 31
0.0
  0
LINE
  5
266
330
205
100
AcDbEntity
  8
VER
100
AcDbLine
 10
-100.0
 20
131.7866744565032
 30
0.0
 11
-98.3
 21
131.1894715409815
 31
0.0
  0
LINE
  5
267
330
205
100
AcDbEntity
  8
VER
100
AcDbLine
 10
-98.3
 20
131.3549709179914
 30
0.0
 11
-98.3
 21
129.3660710180588
 31
0.0
  0
LINE
  5
268
330
205
100
AcDbEntity
  8
VER
100
AcDbLine
 10
-98.3
 20
131.3121879867471
 30
0.0
 11
-100.0
 21
131.9645280601874
 31
0.0
  0
LINE
  5
269
330
205
100
AcDbEntity
  8
VER
100
AcDbLine
 10
-100.0
 20
68.21332554349677
 30
0.0
 11
-98.3
 21
68.81052845901851
 31
0.0
  0
LINE
  5
26A
330
205
100
AcDbEntity
  8
VER
100
AcDbLine
 10
-100.0
 20
70.1805329907581
 30
0.0
 11
-98.3
 21
69.83769789401116
 31
0.0
  0
LINE
  5
26B
330
205
100
AcDbEntity
  8
VER
100
AcDbLine
 10
-98.3
 20
70.63389134462955
 30
0.0
 11
-98.3
 21
68.64502908200856
 31
0.0
  0
LINE
  5
26C
330
205
100
AcDbEntity
  8
VER
100
AcDbLine
 10
-100.0
 20
68.03547193981261
 30
0.0
 11
-98.3
 21
68.68781201325288
 31
0.0
  0
LINE
  5
26D
330
205
100
AcDbEntity
  8
VER
100
AcDbLine
 10
-89.9
 20
78.14071987673032
 30
0.0
 11
-89.9
 21
70.07997918244575
 31
0.0
  0
LINE
  5
26E
330
205
100
AcDbEntity
  8
VER
100
AcDbLine
 10
-89.44500000000001
 20
78.14071987673032
 30
0.0
 11
-89.9
 21
78.14071987673032
 31
0.0
  0
LINE
  5
26F
330
205
100
AcDbEntity
  8
VER
100
AcDbLine
 10
-88.2
 20
70.06016035006068
 30
0.0
 11
-88.2
 21
72.7311403532132
 31
0.0
  0
LINE
  5
270
330
205
100
AcDbEntity
  8
VER
100
AcDbLine
 10
-89.44500000000001
 20
71.54034703565114
 30
0.0
 11
-89.9
 21
71.54034703565114
 31
0.0
  0
LINE
  5
271
330
205
100
AcDbEntity
  8
VER
100
AcDbLine
 10
-89.44500000000001
 20
78.14071987673032
 30
0.0
 11
-89.44500000000001
 21
71.54034703565114
 31
0.0
  0
LINE
  5
272
330
205
100
AcDbEntity
  8
VER
100
AcDbLine
 10
-88.2
 20
70.85369191234581
 30
0.0
 11
-89.44500000000001
 21
71.54034703565114
 31
0.0
  0
LINE
  5
273
330
205
100
AcDbEntity
  8
VER
100
AcDbLine
 10
-88.2
 20
77.61331405392521
 30
0.0
 11
-88.2
 21
72.76814755782927
 31
0.0
  0
LINE
  5
274
330
205
100
AcDbEntity
  8
VER
100
AcDbLine
 10
-88.2
 20
77.61331405392521
 30
0.0
 11
-89.44500000000001
 21
78.14071987673032
 31
0.0
  0
LINE
  5
275
330
205
100
AcDbEntity
  8
VER
100
AcDbLine
 10
-88.2
 20
122.3866859460748
 30
0.0
 11
-89.44500000000001
 21
121.8592801232697
 31
0.0
  0
LINE
  5
276
330
205
100
AcDbEntity
  8
VER
100
AcDbLine
 10
-88.2
 20
127.2303390869739
 30
0.0
 11
-88.2
 21
122.3866859460748
 31
0.0
  0
LINE
  5
277
330
205
100
AcDbEntity
  8
VER
100
AcDbLine
 10
-88.2
 20
129.9398396499393
 30
0.0
 11
-88.2
 21
127.2642199029796
 31
0.0
  0
LINE
  5
278
330
205
100
AcDbEntity
  8
VER
100
AcDbLine
 10
-88.2
 20
129.1463080876542
 30
0.0
 11
-89.44500000000001
 21
128.4596529643489
 31
0.0
  0
LINE
  5
279
330
205
100
AcDbEntity
  8
VER
100
AcDbLine
 10
-89.9
 20
129.9200208175543
 30
0.0
 11
-89.9
 21
121.8592801232697
 31
0.0
  0
LINE
  5
27A
330
205
100
AcDbEntity
  8
VER
100
AcDbLine
 10
-89.44500000000001
 20
121.8592801232697
 30
0.0
 11
-89.9
 21
121.8592801232697
 31
0.0
  0
LINE
  5
27B
330
205
100
AcDbEntity
  8
VER
100
AcDbLine
 10
-89.44500000000001
 20
128.4596529643489
 30
0.0
 11
-89.44500000000001
 21
121.8592801232697
 31
0.0
  0
LINE
  5
27C
330
205
100
AcDbEntity
  8
VER
100
AcDbLine
 10
-89.44500000000001
 20
128.4596529643489
 30
0.0
 11
-89.9
 21
128.4596529643489
 31
0.0
  0
LINE
  5
27D
330
205
100
AcDbEntity
  8
VER
100
AcDbLine
 10
-89.9
 20
129.9200208175542
 30
0.0
 11
-81.00000000000001
 21
130.3456884472382
 31
0.0
  0
LINE
  5
27E
330
205
100
AcDbEntity
  8
VER
100
AcDbLine
 10
-88.2
 20
129.9398396499393
 30
0.0
 11
-89.9
 21
129.900211860578
 31
0.0
  0
LINE
  5
27F
330
205
100
AcDbEntity
  8
VER
100
AcDbLine
 10
-88.2
 20
122.9961813861062
 30
0.0
 11
-89.9
 21
122.9657440877526
 31
0.0
  0
LINE
  5
280
330
205
100
AcDbEntity
  8
VER
100
AcDbLine
 10
-89.9
 20
122.9200208175542
 30
0.0
 11
-81.00000000000001
 21
122.5671884472381
 31
0.0
  0
LINE
  5
281
330
205
100
AcDbEntity
  8
VER
100
AcDbLine
 10
-89.9
 20
70.07997918244575
 30
0.0
 11
-81.00000000000001
 21
69.65431155276187
 31
0.0
  0
LINE
  5
282
330
205
100
AcDbEntity
  8
VER
100
AcDbLine
 10
-88.2
 20
77.00381861389384
 30
0.0
 11
-89.9
 21
77.03425591224742
 31
0.0
  0
LINE
  5
283
330
205
100
AcDbEntity
  8
VER
100
AcDbLine
 10
-88.2
 20
70.06016035006068
 30
0.0
 11
-89.9
 21
70.09978813942203
 31
0.0
  0
LINE
  5
284
330
205
100
AcDbEntity
  8
VER
100
AcDbLine
 10
-89.9
 20
77.07997918244574
 30
0.0
 11
-81.0
 21
77.43281155276188
 31
0.0
  0
LINE
  5
285
330
205
100
AcDbEntity
  8
VER
100
AcDbLine
 10
-89.9
 20
122.8454763175668
 30
0.0
 11
-81.0
 21
122.2921593031943
 31
0.0
  0
LINE
  5
286
330
205
100
AcDbEntity
  8
VER
100
AcDbLine
 10
-98.3
 20
129.3660710180588
 30
0.0
 11
-100.0
 21
129.5296234696646
 31
0.0
  0
LINE
  5
287
330
205
100
AcDbEntity
  8
VER
100
AcDbLine
 10
-98.3
 20
129.3660710180588
 30
0.0
 11
-95.5
 21
129.3640651234967
 31
0.0
  0
LINE
  5
288
330
205
100
AcDbEntity
  8
VER
100
AcDbLine
 10
-95.5
 20
123.8641028581943
 30
0.0
 11
-98.3
 21
123.8661086558031
 31
0.0
  0
LINE
  5
289
330
205
100
AcDbEntity
  8
VER
100
AcDbLine
 10
-100.0
 20
123.5496490378167
 30
0.0
 11
-98.3
 21
123.8661086558047
 31
0.0
  0
LWPOLYLINE
  5
28A
330
205
100
AcDbEntity
  8
VER
100
AcDbPolyline
 90
        6
 70
     0
 43
0.0
 10
-100.0
 20
132.6175314263682
 10
-99.98831696523361
 20
132.5578606294038
 10
-99.9543559571071
 20
132.5050654825344
 10
-99.90243410571952
 20
132.4659365676233
 10
-99.83969802501223
 20
132.4449675185962
 10
-99.80174530709972
 20
132.4417744254795
  0
LINE
  5
28B
330
205
100
AcDbEntity
  8
VER
100
AcDbLine
 10
-99.80174530709968
 20
132.4417744254797
 30
0.0
 11
-87.19825469290032
 21
132.4542840382413
 31
0.0
  0
LWPOLYLINE
  5
28C
330
205
100
AcDbEntity
  8
VER
100
AcDbPolyline
 90
        6
 70
     0
 43
0.0
 10
-87.00000000000001
 20
132.2786084698295
 10
-87.0116733389315
 20
132.3382346204935
 10
-87.04560843005092
 20
132.390990545547
 10
-87.09748797420016
 20
132.43009472816
 10
-87.16020118915723
 20
132.4510747927688
 10
-87.19825469290029
 20
132.4542840382415
  0
LWPOLYLINE
  5
28D
330
205
100
AcDbEntity
  8
VER
100
AcDbPolyline
 90
        6
 70
     0
 43
0.0
 10
-87.0
 20
130.6966291275201
 10
-86.98828254697354
 20
130.6367621601817
 10
-86.95420517463666
 20
130.5837941419643
 10
-86.90213779962748
 20
130.5446022351504
 10
-86.83934702208838
 20
130.5236926952765
 10
-86.80523538966159
 20
130.5205796278877
  0
LINE
  5
28E
330
205
100
AcDbEntity
  8
VER
100
AcDbLine
 10
-86.80523538966159
 20
130.5205796278878
 30
0.0
 11
-81.0
 21
130.4367498764225
 31
0.0
  0
LINE
  5
28F
330
205
100
AcDbEntity
  8
VER
100
AcDbLine
 10
-100.0
 20
121.8605652416096
 30
0.0
 11
-81.0
 21
121.974853074789
 31
0.0
  0
LINE
  5
290
330
205
100
AcDbEntity
  8
VER
100
AcDbLine
 10
-80.99999999957637
 20
130.07064309054
 30
0.0
 11
-89.9
 21
129.8454651304736
 31
0.0
  0
LINE
  5
291
330
205
100
AcDbEntity
  8
VER
100
AcDbLine
 10
-100.0
 20
130.0807122043463
 30
0.0
 11
-82.33291550611165
 21
130.0332976033289
 31
0.0
  0
LINE
  5
292
330
205
100
AcDbEntity
  8
VER
100
AcDbLine
 10
-89.9
 20
70.15452368242269
 30
0.0
 11
-81.0
 21
69.92934069680653
 31
0.0
  0
LINE
  5
293
330
205
100
AcDbEntity
  8
VER
100
AcDbLine
 10
-100.0
 20
77.71096973664196
 30
0.0
 11
-82.33291634282789
 21
77.62860967824724
 31
0.0
  0
LINE
  5
294
330
205
100
AcDbEntity
  8
VER
100
AcDbLine
 10
-98.3
 20
76.13392898247446
 30
0.0
 11
-100.0
 21
76.45037653071735
 31
0.0
  0
LINE
  5
295
330
205
100
AcDbEntity
  8
VER
100
AcDbLine
 10
-98.3
 20
76.13392898247447
 30
0.0
 11
-95.5
 21
76.13593487696495
 31
0.0
  0
LINE
  5
296
330
205
100
AcDbEntity
  8
VER
100
AcDbLine
 10
-95.5
 20
70.63589714207566
 30
0.0
 11
-98.3
 21
70.63389134462955
 31
0.0
  0
LINE
  5
297
330
205
100
AcDbEntity
  8
VER
100
AcDbLine
 10
-100.0
 20
70.47035096254616
 30
0.0
 11
-98.3
 21
70.63389134462946
 31
0.0
  0
LINE
  5
298
330
205
100
AcDbEntity
  8
VER
100
AcDbLine
 10
-89.44500000000001
 20
106.6003728410792
 30
0.0
 11
-89.9
 21
106.6003728410792
 31
0.0
  0
LINE
  5
299
330
205
100
AcDbEntity
  8
VER
100
AcDbLine
 10
-89.44500000000001
 20
93.39962715892084
 30
0.0
 11
-89.9
 21
93.39962715892084
 31
0.0
  0
LINE
  5
29A
330
205
100
AcDbEntity
  8
VER
100
AcDbLine
 10
-89.44500000000001
 20
93.39962715892084
 30
0.0
 11
-89.44500000000001
 21
106.6003728410792
 31
0.0
  0
LINE
  5
29B
330
205
100
AcDbEntity
  8
VER
100
AcDbLine
 10
-88.2
 20
106.7596221415794
 30
0.0
 11
-89.44500000000001
 21
106.6003728410792
 31
0.0
  0
LINE
  5
29C
330
205
100
AcDbEntity
  8
VER
100
AcDbLine
 10
-88.2
 20
93.24037785842059
 30
0.0
 11
-89.44500000000001
 21
93.39962715892084
 31
0.0
  0
LINE
  5
29D
330
205
100
AcDbEntity
  8
VER
100
AcDbLine
 10
-89.9
 20
106.9344677728254
 30
0.0
 11
-89.9
 21
93.06553222717459
 31
0.0
  0
LINE
  5
29E
330
205
100
AcDbEntity
  8
VER
100
AcDbLine
 10
-88.2
 20
93.05634173616686
 30
0.0
 11
-89.9
 21
93.0655322271746
 31
0.0
  0
LINE
  5
29F
330
205
100
AcDbEntity
  8
VER
100
AcDbLine
 10
-88.2
 20
106.9436582638332
 30
0.0
 11
-89.9
 21
106.9344677728254
 31
0.0
  0
LINE
  5
2A0
330
205
100
AcDbEntity
  8
VER
100
AcDbLine
 10
-89.9
 20
107.0
 30
0.0
 11
-81.00000000000001
 21
107.7785
 31
0.0
  0
LINE
  5
2A1
330
205
100
AcDbEntity
  8
VER
100
AcDbLine
 10
-89.9
 20
93.00000000000001
 30
0.0
 11
-81.00000000000001
 21
92.22149999999998
 31
0.0
  0
LINE
  5
2A2
330
205
100
AcDbEntity
  8
VER
100
AcDbLine
 10
-88.2
 20
93.05634173616686
 30
0.0
 11
-88.2
 21
106.9436582638332
 31
0.0
  0
LINE
  5
2A3
330
205
100
AcDbEntity
  8
VER
100
AcDbLine
 10
-95.5
 20
94.5
 30
0.0
 11
-98.3
 21
94.5
 31
0.0
  0
LINE
  5
2A4
330
205
100
AcDbEntity
  8
VER
100
AcDbLine
 10
-95.5
 20
105.5
 30
0.0
 11
-98.3
 21
105.5
 31
0.0
  0
LINE
  5
2A5
330
205
100
AcDbEntity
  8
VER
100
AcDbLine
 10
-95.5
 20
106.9000000000001
 30
0.0
 11
-95.5
 21
93.10000000000001
 31
0.0
  0
LINE
  5
2A6
330
205
100
AcDbEntity
  8
VER
100
AcDbLine
 10
-95.5
 20
93.27323201351241
 30
0.0
 11
-98.3
 21
93.27323201351241
 31
0.0
  0
LINE
  5
2A7
330
205
100
AcDbEntity
  8
VER
100
AcDbLine
 10
-95.5
 20
93.37395428189824
 30
0.0
 11
-98.3
 21
93.37395428189824
 31
0.0
  0
LINE
  5
2A8
330
205
100
AcDbEntity
  8
VER
100
AcDbLine
 10
-98.3
 20
93.10000000000001
 30
0.0
 11
-95.5
 21
93.10000000000001
 31
0.0
  0
LINE
  5
2A9
330
205
100
AcDbEntity
  8
VER
100
AcDbLine
 10
-95.5
 20
106.7267679864876
 30
0.0
 11
-98.3
 21
106.7267679864876
 31
0.0
  0
LINE
  5
2AA
330
205
100
AcDbEntity
  8
VER
100
AcDbLine
 10
-95.5
 20
106.6260457181018
 30
0.0
 11
-98.3
 21
106.6260457181018
 31
0.0
  0
LINE
  5
2AB
330
205
100
AcDbEntity
  8
VER
100
AcDbLine
 10
-95.5
 20
106.9000000000001
 30
0.0
 11
-98.3
 21
106.9000000000001
 31
0.0
  0
LINE
  5
2AC
330
205
100
AcDbEntity
  8
VER
100
AcDbLine
 10
-95.5
 20
105.007
 30
0.0
 11
-100.0
 21
105.0070000000002
 31
0.0
  0
LINE
  5
2AD
330
205
100
AcDbEntity
  8
VER
100
AcDbLine
 10
-95.5
 20
94.993
 30
0.0
 11
-100.0
 21
94.99299999999997
 31
0.0
  0
LINE
  5
2AE
330
205
100
AcDbEntity
  8
VER
100
AcDbLine
 10
-100.0
 20
105.98
 30
0.0
 11
-98.3
 21
105.5
 31
0.0
  0
LINE
  5
2AF
330
205
100
AcDbEntity
  8
VER
100
AcDbLine
 10
-98.3
 20
106.900081087073
 30
0.0
 11
-100.0
 21
107.5810920191356
 31
0.0
  0
LINE
  5
2B0
330
205
100
AcDbEntity
  8
VER
100
AcDbLine
 10
-100.0
 20
94.02000000000001
 30
0.0
 11
-98.3
 21
94.5
 31
0.0
  0
LINE
  5
2B1
330
205
100
AcDbEntity
  8
VER
100
AcDbLine
 10
-98.3
 20
106.8999817841929
 30
0.0
 11
-98.3
 21
93.10001821580718
 31
0.0
  0
LINE
  5
2B2
330
205
100
AcDbEntity
  8
VER
100
AcDbLine
 10
-100.0
 20
92.41890798086447
 30
0.0
 11
-98.3
 21
93.09991891292711
 31
0.0
  0
LINE
  5
2B3
330
205
100
AcDbEntity
  8
VER
100
AcDbLine
 10
-100.0
 20
109.6659999999999
 30
0.0
 11
-81.0
 21
109.4265
 31
0.0
  0
LINE
  5
2B4
330
205
100
AcDbEntity
  8
VER
100
AcDbLine
 10
-81.0
 20
139.8632498764225
 30
0.0
 11
-86.80523538966159
 21
140.020256147668
 31
0.0
  0
LINE
  5
2B5
330
205
100
AcDbEntity
  8
VER
100
AcDbLine
 10
-81.0
 20
141.668
 30
0.0
 11
-86.80523538966158
 21
141.8200154386043
 31
0.0
  0
LINE
  5
2B6
330
205
100
AcDbEntity
  8
VER
100
AcDbLine
 10
-81.00000000000001
 20
90.57350000000004
 30
0.0
 11
-100.0
 21
90.334
 31
0.0
  0
LINE
  5
2B7
330
205
100
AcDbEntity
  8
VER
100
AcDbLine
 10
-86.80523538966158
 20
59.979743852332
 30
0.0
 11
-81.0
 21
60.13675012357755
 31
0.0
  0
LINE
  5
2B8
330
205
100
AcDbEntity
  8
VER
100
AcDbLine
 10
-86.80523538966158
 20
58.17998456139566
 30
0.0
 11
-81.0
 21
58.33200000000001
 31
0.0
  0
LWPOLYLINE
  5
2B9
330
205
100
AcDbEntity
  8
VER
100
AcDbPolyline
 90
        6
 70
     0
 43
0.0
 10
-87.0
 20
59.80123929353255
 10
-86.98828254697354
 20
59.86125396244993
 10
-86.95420517463664
 20
59.91465153491328
 10
-86.90213779962745
 20
59.9544997646912
 10
-86.83934702208835
 20
59.97620079883984
 10
-86.80523538966159
 20
59.97974385233209
  0
ARC
  5
2BA
330
205
100
AcDbEntity
  8
VER
100
AcDbCircle
 10
-86.80000000000001
 20
57.98005309640056
 30
0.0
 40
0.1999999999999915
100
AcDbArc
 50
91.49999999999707
 51
180.000000000002
  0
LWPOLYLINE
  5
2BB
330
205
100
AcDbEntity
  8
VER
100
AcDbPolyline
 90
        6
 70
     0
 43
0.0
 10
-86.80523538966158
 20
140.020256147668
 10
-86.86978319012255
 20
140.0316150573712
 10
-86.9265159497965
 20
140.0607569590878
 10
-86.96980705421764
 20
140.1046967345388
 10
-86.99509472534808
 20
140.1596020101439
 10
-87.00000000000132
 20
140.1987607064674
  0
ARC
  5
2BC
330
205
100
AcDbEntity
  8
VER
100
AcDbCircle
 10
-86.80000000000001
 20
142.0199469035994
 30
0.0
 40
0.1999999999999886
100
AcDbArc
 50
180.0
 51
268.5000000000029
  0
LINE
  5
2BD
330
205
100
AcDbEntity
  8
VER
100
AcDbLine
 10
-98.5
 20
107.3395
 30
0.0
 11
-81.0
 21
107.584
 31
0.0
  0
LINE
  5
2BE
330
205
100
AcDbEntity
  8
VER
100
AcDbLine
 10
-98.5
 20
92.66050000000001
 30
0.0
 11
-81.0
 21
92.41600000000001
 31
0.0
  0
LINE
  5
2BF
330
205
100
AcDbEntity
  8
VER
100
AcDbLine
 10
-98.5
 20
107.3395
 30
0.0
 11
-98.5
 21
92.66050000000001
 31
0.0
  0
LWPOLYLINE
  5
2C0
330
205
100
AcDbEntity
  8
VER
100
AcDbPolyline
 90
        6
 70
     0
 43
0.0
 10
-87.00000000000001
 20
58.2192599512231
 10
-87.0116733389315
 20
58.15948665505001
 10
-87.04560843005089
 20
58.10630296924258
 10
-87.09748797420015
 20
58.06654483132308
 10
-87.16020118915722
 20
58.04477425013626
 10
-87.19825469290029
 20
58.04108533023479
  0
ARC
  5
2C1
330
205
100
AcDbEntity
  8
VER
100
AcDbCircle
 10
-87.19999999999997
 20
56.19871152339883
 30
0.0
 40
0.199999999999964
100
AcDbArc
 50
270.4999999999941
 51
0.0000000000101778
  0
LWPOLYLINE
  5
2C2
330
205
100
AcDbEntity
  8
VER
100
AcDbPolyline
 90
        6
 70
     0
 43
0.0
 10
-87.19825469290032
 20
141.9589146697649
 10
-87.13340152027286
 20
141.9485453664035
 10
-87.07600410579329
 20
141.9202382649238
 10
-87.03186754756251
 20
141.8769471467701
 10
-87.00562670913743
 20
141.8225514291909
 10
-86.99999999999638
 20
141.7807400487773
  0
ARC
  5
2C3
330
205
100
AcDbEntity
  8
VER
100
AcDbCircle
 10
-87.19999999999999
 20
143.8012884766012
 30
0.0
 40
0.1999999999999744
100
AcDbArc
 50
359.9999999999837
 51
89.5000000000018
  0
LINE
  5
2C4
330
205
100
AcDbEntity
  8
VER
100
AcDbLine
 10
-87.19825469290032
 20
141.9589146697649
 30
0.0
 11
-99.80174530709968
 21
142.1052753729034
 31
0.0
  0
LINE
  5
2C5
330
205
100
AcDbEntity
  8
VER
100
AcDbLine
 10
-87.19825469290032
 20
144.001280861214
 30
0.0
 11
-99.80174530709968
 21
144.1112698575062
 31
0.0
  0
LINE
  5
2C6
330
205
100
AcDbEntity
  8
VER
100
AcDbLine
 10
-99.80174530709968
 20
57.89472462709651
 30
0.0
 11
-87.19825469290032
 21
58.04108533023508
 31
0.0
  0
LINE
  5
2C7
330
205
100
AcDbEntity
  8
VER
100
AcDbLine
 10
-99.80174530709968
 20
55.88873014249385
 30
0.0
 11
-87.19825469290032
 21
55.99871913878603
 31
0.0
  0
LWPOLYLINE
  5
2C8
330
205
100
AcDbEntity
  8
VER
100
AcDbPolyline
 90
        6
 70
     0
 43
0.0
 10
-99.80174530709968
 20
142.1052753729034
 10
-99.8665660162448
 20
142.1156390664943
 10
-99.92393505663401
 20
142.1439299301092
 10
-99.96807335056317
 20
142.1872054721214
 10
-99.99434862792383
 20
142.2416161666197
 10
-100.0
 20
142.2835314263677
  0
LINE
  5
2C9
330
205
100
AcDbEntity
  8
VER
100
AcDbLine
 10
-99.80174530709968
 20
55.88873014249385
 30
0.0
 11
-99.80174530709968
 21
144.1112698575062
 31
0.0
  0
ARC
  5
2CA
330
205
100
AcDbEntity
  8
VER
100
AcDbCircle
 10
-99.80000000000004
 20
144.3112622421189
 30
0.0
 40
0.1999999999999602
100
AcDbArc
 50
179.9999999999756
 51
269.5000000000099
  0
LINE
  5
2CB
330
205
100
AcDbEntity
  8
VER
100
AcDbLine
 10
-100.0
 20
92.20831810057851
 30
0.0
 11
-82.33291543214453
 21
92.33809265886794
 31
0.0
  0
LWPOLYLINE
  5
2CC
330
205
100
AcDbEntity
  8
VER
100
AcDbPolyline
 90
        6
 70
     0
 43
0.0
 10
-100.0
 20
57.71646857363192
 10
-99.98831696523362
 20
57.77628663832387
 10
-99.95435595710711
 20
57.82950987263784
 10
-99.90243410571954
 20
57.86929327614935
 10
-99.83969802501224
 20
57.89105312998322
 10
-99.80174530709975
 20
57.89472462709689
  0
ARC
  5
2CD
330
205
100
AcDbEntity
  8
VER
100
AcDbCircle
 10
-99.80000000000003
 20
55.68873775788103
 30
0.0
 40
0.1999999999999853
100
AcDbArc
 50
90.49999999999402
 51
180.0000000000102
  0
LINE
  5
2CE
330
205
100
AcDbEntity
  8
VER
100
AcDbLine
 10
-100.0
 20
107.8815
 30
0.0
 11
-94.0
 21
107.7
 31
0.0
  0
LINE
  5
2CF
330
205
100
AcDbEntity
  8
VER
100
AcDbLine
 10
-100.0
 20
92.11850000000001
 30
0.0
 11
-94.0
 21
92.30000000000001
 31
0.0
  0
LINE
  5
2D0
330
205
100
AcDbEntity
  8
VER
100
AcDbLine
 10
-81.0
 20
56.53024287882883
 30
0.0
 11
-81.0
 21
143.4697571211712
 31
0.0
  0
ARC
  5
2D1
330
205
100
AcDbEntity
  8
VER
100
AcDbCircle
 10
-81.2
 20
143.4697571211712
 30
0.0
 40
0.2000000000000028
100
AcDbArc
 50
0.0000000000081422
 51
89.06199999999986
  0
ARC
  5
2D2
330
205
100
AcDbEntity
  8
VER
100
AcDbCircle
 10
-81.20000000000003
 20
56.53024287882885
 30
0.0
 40
0.200000000000031
100
AcDbArc
 50
270.9380000000082
 51
359.9999999999939
  0
LINE
  5
2D3
330
205
100
AcDbEntity
  8
VER
100
AcDbLine
 10
-81.19672590857921
 20
143.6697303201889
 30
0.0
 11
-85.0
 21
143.732
 31
0.0
  0
LINE
  5
2D4
330
205
100
AcDbEntity
  8
VER
100
AcDbLine
 10
-85.0
 20
56.26800000000001
 30
0.0
 11
-81.19672590857921
 21
56.33026967981113
 31
0.0
  0
LINE
  5
2D5
330
205
100
AcDbEntity
  8
VER
100
AcDbLine
 10
-81.19672590857921
 20
56.33026967981113
 30
0.0
 11
-81.19672590857921
 21
143.6697303201889
 31
0.0
  0
LINE
  5
2D6
330
205
100
AcDbEntity
  8
VER
100
AcDbLine
 10
-94.0
 20
107.7
 30
0.0
 11
-94.0
 21
92.30000000000003
 31
0.0
  0
LINE
  5
2D7
330
205
100
AcDbEntity
  8
VER
100
AcDbLine
 10
-85.0
 20
54.14859969845063
 30
0.0
 11
-85.0
 21
145.8514003003078
 31
0.0
  0
ARC
  5
2D8
330
205
100
AcDbEntity
  8
VER
100
AcDbCircle
 10
-85.15
 20
145.8514003015494
 30
0.0
 40
0.1500000000000057
100
AcDbArc
 50
0.0
 51
81.57147435568253
  0
ARC
  5
2D9
330
205
100
AcDbEntity
  8
VER
100
AcDbCircle
 10
-85.15
 20
54.14859969845064
 30
0.0
 40
0.1500000000000011
100
AcDbArc
 50
278.4285256443175
 51
359.9999999999972
  0
ARC
  5
2DA
330
205
100
AcDbEntity
  8
050
100
AcDbCircle
 10
-85.15000000000074
 20
145.8514003015399
 30
0.0
 40
0.1500000000094716
100
AcDbArc
 50
81.5714743559332
 51
89.49999999974581
  0
ARC
  5
2DB
330
205
100
AcDbEntity
  8
050
100
AcDbCircle
 10
-85.14999999999984
 20
54.14859969844861
 30
0.0
 40
0.1499999999979716
100
AcDbArc
 50
270.499999999945
 51
278.4285256443665
  0
LINE
  5
2DC
330
205
100
AcDbEntity
  8
050
100
AcDbLine
 10
-100.0
 20
53.86900000000001
 30
0.0
 11
-100.0
 21
146.131
 31
0.0
  0
LINE
  5
2DD
330
205
100
AcDbEntity
  8
050
100
AcDbLine
 10
-85.14869101967524
 20
53.99860540999101
 30
0.0
 11
-85.14869101967524
 21
146.001394590009
 31
0.0
  0
LINE
  5
2DE
330
205
100
AcDbEntity
  8
050
100
AcDbLine
 10
-85.14869101967524
 20
146.001394590009
 30
0.0
 11
-100.0
 21
146.131
 31
0.0
  0
LINE
  5
2DF
330
205
100
AcDbEntity
  8
050
100
AcDbLine
 10
-100.0
 20
53.86900000000001
 30
0.0
 11
-85.14869101967524
 21
53.99860540999101
 31
0.0
  0
ENDBLK
  5
208
330
205
100
AcDbEntity
  8
0
100
AcDbBlockEnd
  0
BLOCK
  5
2E2
330
2E0
100
AcDbEntity
  8
0
100
AcDbBlockBegin
  2
5_893_741_0_in_150300_0
 70
     2
 10
0.0
 20
0.0
 30
0.0
  3
5_893_741_0_in_150300_0
  1

  0
ATTDEF
  5
2E4
330
2E0
100
AcDbEntity
  8
ATTR
100
AcDbText
 10
41.00000000000001
 20
7.935399999999938
 30
0.0
 40
0.5
  1
893.741
100
AcDbAttributeDefinition
  3

  2
NB
 70
     8
  0
ATTDEF
  5
2E5
330
2E0
100
AcDbEntity
  8
ATTR
100
AcDbText
 10
41.00000000000001
 20
7.435399999999938
 30
0.0
 40
0.5
  1
893.741
100
AcDbAttributeDefinition
  3

  2
NN
 70
     8
  0
ATTDEF
  5
2E6
330
2E0
100
AcDbEntity
  8
ATTR
100
AcDbText
 10
41.00000000000001
 20
6.935399999999938
 30
0.0
 40
0.5
  1

100
AcDbAttributeDefinition
  3

  2
NT
 70
     8
  0
ATTDEF
  5
2E7
330
2E0
100
AcDbEntity
  8
ATTR
100
AcDbText
 10
41.00000000000001
 20
6.435399999999938
 30
0.0
 40
0.5
  1
$ARTNRT.
100
AcDbAttributeDefinition
  3

  2
NBSYN
 70
     8
  0
ATTDEF
  5
2E8
330
2E0
100
AcDbEntity
  8
ATTR
100
AcDbText
 10
41.00000000000001
 20
5.935399999999938
 30
0.0
 40
0.5
  1
893.741
100
AcDbAttributeDefinition
  3

  2
LINA
 70
     8
  0
ATTDEF
  5
2E9
330
2E0
100
AcDbEntity
  8
ATTR
100
AcDbText
 10
41.00000000000001
 20
5.435399999999938
 30
0.0
 40
0.5
  1
GEBERIT
100
AcDbAttributeDefinition
  3

  2
CATALOG
 70
     8
  0
ATTDEF
  5
2EA
330
2E0
100
AcDbEntity
  8
ATTR
100
AcDbText
 10
41.00000000000001
 20
4.935399999999938
 30
0.0
 40
0.5
  1
893.741
100
AcDbAttributeDefinition
  3

  2
ARTNRT
 70
     8
  0
ATTDEF
  5
2EB
330
2E0
100
AcDbEntity
  8
ATTR
100
AcDbText
 10
41.00000000000001
 20
4.435399999999938
 30
0.0
 40
0.5
  1
geberit
100
AcDbAttributeDefinition
  3

  2
COMPANY
 70
     8
  0
ATTDEF
  5
2EC
330
2E0
100
AcDbEntity
  8
ATTR
100
AcDbText
 10
41.00000000000001
 20
3.935399999999938
 30
0.0
 40
0.5
  1
{$CADENAS_DATA\23d-libs\geberit\waste_fitting\fur_badewannen\common_parts_893\893_741.prj},155 {VTYP=3D},{NB=893.741},{LINA=893.741},{NN=893.741},{DATE=19.07.2021 10:05:11},{GEOMDATE=19.07.2021 09:31:00},{VERSION=},{LINEID=10},{WBVAR=},{WBNUMERIC=}  {NB=8
100
AcDbAttributeDefinition
  3

  2
PSOL_0
 70
     9
  0
ATTDEF
  5
2ED
330
2E0
100
AcDbEntity
  8
ATTR
100
AcDbText
 10
41.00000000000001
 20
3.435399999999938
 30
0.0
 40
0.5
  1
93.741},{LINA=893.741},{KT=DUMMY},{ARTNRT=893.741}
100
AcDbAttributeDefinition
  3

  2
PSOL_1
 70
     9
  0
LINE
  5
2EE
330
2E0
100
AcDbEntity
  8
VER
100
AcDbLine
 10
-13.50896163002721
 20
-0.6000000000000033
 30
0.0
 11
-12.9142135623731
 21
-4.397029953438839
 31
0.0
  0
LINE
  5
2EF
330
2E0
100
AcDbEntity
  8
VER
100
AcDbLine
 10
-10.0857864376269
 20
-4.397029953438839
 30
0.0
 11
-9.491038369972792
 21
-0.6000000000000033
 31
0.0
  0
LINE
  5
2F0
330
2E0
100
AcDbEntity
  8
VER
100
AcDbLine
 10
-3.16227766016838
 20
-72.7
 30
0.0
 11
3.16227766016838
 21
-72.7
 31
0.0
  0
LINE
  5
2F1
330
2E0
100
AcDbEntity
  8
VER
100
AcDbLine
 10
-12.2952696104307
 20
-0.6000000000000033
 30
0.0
 11
-12.4
 21
-6.600000000000009
 31
0.0
  0
LINE
  5
2F2
330
2E0
100
AcDbEntity
  8
VER
100
AcDbLine
 10
-10.6
 20
-6.600000000000009
 30
0.0
 11
-10.7047303895693
 21
-0.6000000000000033
 31
0.0
  0
LINE
  5
2F3
330
2E0
100
AcDbEntity
  8
VER
100
AcDbLine
 10
-11.0
 20
-4.397029953438839
 30
0.0
 11
-10.0857864376269
 21
-4.397029953438839
 31
0.0
  0
LINE
  5
2F4
330
2E0
100
AcDbEntity
  8
VER
100
AcDbLine
 10
-12.9142135623731
 20
-4.397029953438839
 30
0.0
 11
-12.0
 21
-4.397029953438839
 31
0.0
  0
LINE
  5
2F5
330
2E0
100
AcDbEntity
  8
VER
100
AcDbLine
 10
-10.0857864376269
 20
-5.499999999999991
 30
0.0
 11
-10.0857864376269
 21
-4.397029953438839
 31
0.0
  0
LINE
  5
2F6
330
2E0
100
AcDbEntity
  8
VER
100
AcDbLine
 10
-12.9142135623731
 20
-4.397029953438839
 30
0.0
 11
-12.9142135623731
 21
-5.499999999999991
 31
0.0
  0
LINE
  5
2F7
330
2E0
100
AcDbEntity
  8
VER
100
AcDbLine
 10
-9.999999999999998
 20
-5.600000000000008
 30
0.0
 11
-9.999999999999998
 21
-0.6000000000000033
 31
0.0
  0
LINE
  5
2F8
330
2E0
100
AcDbEntity
  8
VER
100
AcDbLine
 10
-13.0
 20
-0.6000000000000033
 30
0.0
 11
-13.0
 21
-6.600000000000009
 31
0.0
  0
LINE
  5
2F9
330
2E0
100
AcDbEntity
  8
VER
100
AcDbLine
 10
-13.0
 20
-6.600000000000009
 30
0.0
 11
-9.999999999999998
 21
-6.600000000000009
 31
0.0
  0
LINE
  5
2FA
330
2E0
100
AcDbEntity
  8
VER
100
AcDbLine
 10
-11.5
 20
-6.599684299533711
 30
0.0
 11
-11.5
 21
-5.600000000000008
 31
0.0
  0
LINE
  5
2FB
330
2E0
100
AcDbEntity
  8
VER
100
AcDbLine
 10
-11.5
 20
-6.599684299533711
 30
0.0
 11
-9.999999999999998
 21
-6.599684299533711
 31
0.0
  0
ARC
  5
2FC
330
2E0
100
AcDbEntity
  8
VER
100
AcDbCircle
 10
-10.01776515689531
 20
-6.099999999999995
 30
0.0
 40
0.5000000000000155
100
AcDbArc
 50
272.0361655886365
 51
357.9999999999993
  0
LINE
  5
2FD
330
2E0
100
AcDbEntity
  8
VER
100
AcDbLine
 10
-9.518069743385745
 20
-6.117449748351253
 30
0.0
 11
-9.5
 21
-5.600000000000008
 31
0.0
  0
LINE
  5
2FE
330
2E0
100
AcDbEntity
  8
VER
100
AcDbLine
 10
-9.5
 20
-5.600000000000008
 30
0.0
 11
-11.5
 21
-5.600000000000008
 31
0.0
  0
LINE
  5
2FF
330
2E0
100
AcDbEntity
  8
VER
100
AcDbLine
 10
-9.518069743385745
 20
-6.117449748351253
 30
0.0
 11
-11.5
 21
-6.117449748351253
 31
0.0
  0
LWPOLYLINE
  5
300
330
2E0
100
AcDbEntity
  8
VER
100
AcDbPolyline
 90
        6
 70
     0
 43
0.0
 10
-5.310129376801042
 20
-1.091273796781367
 10
-5.336884075437689
 20
-0.92747706882855
 10
-5.409084739506669
 20
-0.7829408372070634
 10
-5.518904602253311
 20
-0.6734229465437946
 10
-5.654869938955969
 20
-0.6111569493212621
 10
-5.746507468558332
 20
-0.6000000000000033
  0
ARC
  5
301
330
2E0
100
AcDbEntity
  8
VER
100
AcDbCircle
 10
-6.247662761361586
 20
-1.100000000000034
 30
0.0
 40
0.500000000000031
100
AcDbArc
 50
1.000000000002833
 51
89.99999999999655
  0
LWPOLYLINE
  5
302
330
2E0
100
AcDbEntity
  8
VER
100
AcDbPolyline
 90
        6
 70
     0
 43
0.0
 10
5.310129376801042
 20
-1.091273796781367
 10
5.336884075437689
 20
-0.92747706882855
 10
5.409084739506668
 20
-0.7829408372070634
 10
5.518904602253311
 20
-0.6734229465437946
 10
5.654869938955969
 20
-0.6111569493212621
 10
5.746507468558332
 20
-0.6000000000000033
  0
ARC
  5
303
330
2E0
100
AcDbEntity
  8
VER
100
AcDbCircle
 10
6.247662761361588
 20
-1.100000000000036
 30
0.0
 40
0.5000000000000323
100
AcDbArc
 50
90.00000000000365
 51
178.999999999997
  0
LINE
  5
304
330
2E0
100
AcDbEntity
  8
VER
100
AcDbLine
 10
-13.61017718669009
 20
-5.499999999999991
 30
0.0
 11
-14.32218693291521
 21
-0.8554448705593853
 31
0.0
  0
LINE
  5
305
330
2E0
100
AcDbEntity
  8
VER
100
AcDbLine
 10
-13.61017718669009
 20
-5.499999999999991
 30
0.0
 11
-12.0
 21
-5.499999999999991
 31
0.0
  0
LINE
  5
306
330
2E0
100
AcDbEntity
  8
VER
100
AcDbLine
 10
-11.0
 20
-5.499999999999991
 30
0.0
 11
-11.0
 21
-0.6000000000000033
 31
0.0
  0
LINE
  5
307
330
2E0
100
AcDbEntity
  8
VER
100
AcDbLine
 10
-11.0
 20
-5.499999999999991
 30
0.0
 11
-9.389822813309905
 21
-5.499999999999991
 31
0.0
  0
LINE
  5
308
330
2E0
100
AcDbEntity
  8
VER
100
AcDbLine
 10
-8.677813067084786
 20
-0.8554448705593853
 30
0.0
 11
-9.389822813309905
 21
-5.499999999999991
 31
0.0
  0
LINE
  5
309
330
2E0
100
AcDbEntity
  8
VER
100
AcDbLine
 10
-12.0
 20
-5.499999999999991
 30
0.0
 11
-12.0
 21
-0.5999999999891648
 31
0.0
  0
LWPOLYLINE
  5
30A
330
2E0
100
AcDbEntity
  8
VER
100
AcDbPolyline
 90
        6
 70
     0
 43
0.0
 10
-14.6230376789759
 20
-0.6000000000000033
 10
-14.5512011434764
 20
-0.6085013905608172
 10
-14.45623080707343
 20
-0.6491832634448746
 10
-14.38052509986838
 20
-0.7189536157329729
 10
-14.34660261216892
 20
-0.7748054066552962
 10
-14.32218693291521
 20
-0.8554448705593853
  0
LINE
  5
30B
330
2E0
100
AcDbEntity
  8
VER
100
AcDbLine
 10
-14.32218693291521
 20
-0.8554448705593853
 30
0.0
 11
-12.0
 21
-0.8554448705593576
 31
0.0
  0
LINE
  5
30C
330
2E0
100
AcDbEntity
  8
VER
100
AcDbLine
 10
-11.0
 20
-0.8554448705593853
 30
0.0
 11
-8.677813067084786
 21
-0.8554448705593853
 31
0.0
  0
LWPOLYLINE
  5
30D
330
2E0
100
AcDbEntity
  8
VER
100
AcDbPolyline
 90
        6
 70
     0
 43
0.0
 10
-8.677813067084786
 20
-0.8554448705593853
 10
-8.650439578917862
 20
-0.7686467642250561
 10
-8.592071997224437
 20
-0.6879446920853988
 10
-8.509549380302705
 20
-0.6300389425431124
 10
-8.449719978135704
 20
-0.608724022216553
 10
-8.3769623210241
 20
-0.6000000000000033
  0
ELLIPSE
  5
30E
330
2E0
100
AcDbEntity
  8
VER
100
AcDbEllipse
 10
6.537636773330073
 20
-8.300000000000008
 30
0.0
 11
2.756383769036440E-15
 21
1.500000000000007
 31
0.0
210
0.0
220
0.0
230
1.0
 40
0.8660254037844382
 41
0.0000000000000083
 42
1.570796326794885
  0
LINE
  5
30F
330
2E0
100
AcDbEntity
  8
VER
100
AcDbLine
 10
4.992456640032315
 20
-8.299999999999988
 30
0.0
 11
5.238598667653407
 21
-8.299999999999988
 31
0.0
  0
LINE
  5
310
330
2E0
100
AcDbEntity
  8
VER
100
AcDbLine
 10
4.450197418876952
 20
-8.299999999999988
 30
0.0
 11
4.734740695274499
 21
-8.299999999999988
 31
0.0
  0
ELLIPSE
  5
311
330
2E0
100
AcDbEntity
  8
VER
100
AcDbEllipse
 10
-6.537636773330073
 20
-8.300000000000008
 30
0.0
 11
-2.239619841776788E-15
 21
1.500000000000007
 31
0.0
210
0.0
220
0.0
230
1.0
 40
0.8660254037844382
 41
4.712388980384701
 42
6.283185307179577
  0
LINE
  5
312
330
2E0
100
AcDbEntity
  8
VER
100
AcDbLine
 10
-4.734740695274513
 20
-8.299999999999988
 30
0.0
 11
-4.450197418876953
 21
-8.299999999999988
 31
0.0
  0
LINE
  5
313
330
2E0
100
AcDbEntity
  8
VER
100
AcDbLine
 10
-5.238598667653407
 20
-8.299999999999988
 30
0.0
 11
-4.992456640032307
 21
-8.299999999999974
 31
0.0
  0
LINE
  5
314
330
2E0
100
AcDbEntity
  8
VER
100
AcDbLine
 10
5.200197418876952
 20
-8.299999999999988
 30
0.0
 11
5.310129376801042
 21
-1.091273796781367
 31
0.0
  0
LINE
  5
315
330
2E0
100
AcDbEntity
  8
VER
100
AcDbLine
 10
-5.200197418876952
 20
-8.299999999999988
 30
0.0
 11
-5.310129376801042
 21
-1.091273796781367
 31
0.0
  0
LINE
  5
316
330
2E0
100
AcDbEntity
  8
VER
100
AcDbLine
 10
5.310129376801042
 20
-1.091273796781367
 30
0.0
 11
5.74773891378336
 21
-1.091273796781367
 31
0.0
  0
LWPOLYLINE
  5
317
330
2E0
100
AcDbEntity
  8
VER
100
AcDbPolyline
 90
       14
 70
     0
 43
0.0
 10
4.992456640032315
 20
-8.299999999999988
 10
4.995073285259759
 20
-8.276118514190827
 10
4.993852862813725
 20
-8.251729689219777
 10
4.987929235569148
 20
-8.22551163239084
 10
4.973542070430737
 20
-8.194818136932833
 10
4.940784740299776
 20
-8.160177176453232
 10
4.872968543856862
 20
-8.13840611017326
 10
4.796974808833074
 20
-8.160655696352158
 10
4.772284826648639
 20
-8.180679319609737
 10
4.745298398009893
 20
-8.219128082035802
 10
4.736575973346054
 20
-8.243229134489175
 10
4.732527091735109
 20
-8.271366873084954
 10
4.734118910769611
 20
-8.296469438852705
 10
4.734740695274499
 20
-8.299999999999988
  0
LWPOLYLINE
  5
318
330
2E0
100
AcDbEntity
  8
VER
100
AcDbPolyline
 90
       14
 70
     0
 43
0.0
 10
-4.734740695274513
 20
-8.299999999999988
 10
-4.732453348418547
 20
-8.27611851419513
 10
-4.734690060293906
 20
-8.251729689223774
 10
-4.742473514831089
 20
-8.225511632395378
 10
-4.760050491411596
 20
-8.194818136938217
 10
-4.797724662861416
 20
-8.160177176458658
 10
-4.869348897023655
 20
-8.138406110173454
 10
-4.941457131696414
 20
-8.160655696340266
 10
-4.963145534459064
 20
-8.180679319596388
 10
-4.985677710291136
 20
-8.219128082026323
 10
-4.992482788960276
 20
-8.243229134479336
 10
-4.995143630756302
 20
-8.271366873075948
 10
-4.993085621139731
 20
-8.296469438845836
 10
-4.992456640032307
 20
-8.299999999999974
  0
LINE
  5
319
330
2E0
100
AcDbEntity
  8
VER
100
AcDbLine
 10
5.611472001029361
 20
-8.898000000000003
 30
0.0
 11
5.74773891378336
 21
-1.091273796781367
 31
0.0
  0
LINE
  5
31A
330
2E0
100
AcDbEntity
  8
VER
100
AcDbLine
 10
-5.74773891378336
 20
-1.091273796781367
 30
0.0
 11
-5.611472001029361
 21
-8.898000000000003
 31
0.0
  0
LINE
  5
31B
330
2E0
100
AcDbEntity
  8
VER
100
AcDbLine
 10
-5.74773891378336
 20
-1.091273796781367
 30
0.0
 11
-5.310129376801042
 21
-1.091273796781367
 31
0.0
  0
LINE
  5
31C
330
2E0
100
AcDbEntity
  8
VER
100
AcDbLine
 10
-4.56012937680104
 20
-1.091273796781367
 30
0.0
 11
-0.75
 21
-1.091273796781964
 31
0.0
  0
LINE
  5
31D
330
2E0
100
AcDbEntity
  8
VER
100
AcDbLine
 10
0.75
 20
-1.091273796781964
 30
0.0
 11
4.560129376801041
 21
-1.091273796781367
 31
0.0
  0
LINE
  5
31E
330
2E0
100
AcDbEntity
  8
VER
100
AcDbLine
 10
-0.75
 20
-7.559231553141005
 30
0.0
 11
-0.75
 21
-8.299999999999988
 31
0.0
  0
LINE
  5
31F
330
2E0
100
AcDbEntity
  8
VER
100
AcDbLine
 10
0.75
 20
-7.559231553141005
 30
0.0
 11
0.75
 21
-8.299999999999988
 31
0.0
  0
LWPOLYLINE
  5
320
330
2E0
100
AcDbEntity
  8
VER
100
AcDbPolyline
 90
       14
 70
     0
 43
0.0
 10
0.2577159447578165
 20
-8.299999999999988
 10
0.2626199368410745
 20
-8.27611851419513
 10
0.2591628025203409
 20
-8.251729689223774
 10
0.2454557207395321
 20
-8.225511632395378
 10
0.213491579022548
 20
-8.194818136938203
 10
0.1430600774460081
 20
-8.160177176458644
 10
0.003619646847106
 20
-8.138406110173454
 10
-0.1444823228448791
 20
-8.16065569634028
 10
-0.1908607077972801
 20
-8.1806793195964
 10
-0.2403793122767486
 20
-8.219128082026309
 10
-0.2559068156116899
 20
-8.243229134479336
 10
-0.2626165390208795
 20
-8.271366873075934
 10
-0.2589667103712295
 20
-8.296469438845836
 10
-0.2577159447578165
 20
-8.299999999999988
  0
LINE
  5
321
330
2E0
100
AcDbEntity
  8
VER
100
AcDbLine
 10
0.2577159447578165
 20
-8.299999999999988
 30
0.0
 11
0.75
 21
-8.299999999999988
 31
0.0
  0
LINE
  5
322
330
2E0
100
AcDbEntity
  8
VER
100
AcDbLine
 10
-0.75
 20
-8.299999999999988
 30
0.0
 11
-0.2577159447578165
 21
-8.299999999999988
 31
0.0
  0
LINE
  5
323
330
2E0
100
AcDbEntity
  8
VER
100
AcDbLine
 10
-14.15748747152515
 20
-1.582547593562716
 30
0.0
 11
-14.2454195925225
 21
-7.393091296554105
 31
0.0
  0
LINE
  5
324
330
2E0
100
AcDbEntity
  8
VER
100
AcDbLine
 10
-15.93230830326636
 20
-1.582547593562716
 30
0.0
 11
-16.03373172087031
 21
-7.393091296554105
 31
0.0
  0
LINE
  5
325
330
2E0
100
AcDbEntity
  8
VER
100
AcDbLine
 10
14.15748747152515
 20
-1.582547593562716
 30
0.0
 11
14.2454195925225
 21
-7.393091296554105
 31
0.0
  0
LINE
  5
326
330
2E0
100
AcDbEntity
  8
VER
100
AcDbLine
 10
16.03373172087031
 20
-7.393091296554105
 30
0.0
 11
15.93230830326636
 21
-1.582547593562716
 31
0.0
  0
LWPOLYLINE
  5
327
330
2E0
100
AcDbEntity
  8
VER
100
AcDbPolyline
 90
        7
 70
     0
 43
0.0
 10
-13.29056850702155
 20
-0.6000000000000033
 10
-13.40497840541827
 20
-0.608742813940466
 10
-13.68339815026219
 20
-0.7085123338636118
 10
-13.91737605224058
 20
-0.9090512216343716
 10
-14.08042249979763
 20
-1.187505157122681
 10
-14.1542747266899
 20
-1.512244572333496
 10
-14.15748747152515
 20
-1.582547593562716
  0
LINE
  5
328
330
2E0
100
AcDbEntity
  8
VER
100
AcDbLine
 10
-14.93246060810996
 20
-0.6000000000000033
 30
0.0
 11
-0.75
 21
-0.5999999999911354
 31
0.0
  0
ARC
  5
329
330
2E0
100
AcDbEntity
  8
VER
100
AcDbCircle
 10
-14.93246060810996
 20
-1.600000000000013
 30
0.0
 40
1.00000000000001
100
AcDbArc
 50
90.00000000000009
 51
178.9999999999993
  0
LINE
  5
32A
330
2E0
100
AcDbEntity
  8
VER
100
AcDbLine
 10
-15.93230830326636
 20
-1.582547593562716
 30
0.0
 11
-14.15748747152515
 21
-1.582547593562716
 31
0.0
  0
LWPOLYLINE
  5
32B
330
2E0
100
AcDbEntity
  8
VER
100
AcDbPolyline
 90
        7
 70
     0
 43
0.0
 10
13.29056850702155
 20
-0.6000000000000033
 10
13.40497840541827
 20
-0.608742813940466
 10
13.68339815026219
 20
-0.7085123338636118
 10
13.91737605224058
 20
-0.9090512216343716
 10
14.08042249979763
 20
-1.187505157122681
 10
14.1542747266899
 20
-1.512244572333496
 10
14.15748747152515
 20
-1.582547593562716
  0
LINE
  5
32C
330
2E0
100
AcDbEntity
  8
VER
100
AcDbLine
 10
0.75
 20
-0.5999999999911354
 30
0.0
 11
14.93246060810996
 21
-0.6000000000000033
 31
0.0
  0
LINE
  5
32D
330
2E0
100
AcDbEntity
  8
VER
100
AcDbLine
 10
14.15748747152515
 20
-1.582547593562716
 30
0.0
 11
15.93230830326636
 21
-1.582547593562716
 31
0.0
  0
ARC
  5
32E
330
2E0
100
AcDbEntity
  8
VER
100
AcDbCircle
 10
14.93246060810996
 20
-1.600000000000013
 30
0.0
 40
1.00000000000001
100
AcDbArc
 50
1.000000000000709
 51
89.9999999999999
  0
LWPOLYLINE
  5
32F
330
2E0
100
AcDbEntity
  8
VER
100
AcDbPolyline
 90
        4
 70
     0
 43
0.0
 10
14.28796168347783
 20
-7.52086108802362
 10
14.28364125014162
 20
-7.514902228318146
 10
14.25529705928338
 20
-7.4562259169198
 10
14.2454195925225
 20
-7.393091296554105
  0
LINE
  5
330
330
2E0
100
AcDbEntity
  8
VER
100
AcDbLine
 10
14.2454195925225
 20
-7.393091296554105
 30
0.0
 11
16.03373172087031
 21
-7.393091296554105
 31
0.0
  0
ARC
  5
331
330
2E0
100
AcDbEntity
  8
VER
100
AcDbCircle
 10
16.23370125990157
 20
-7.38960081526666
 30
0.0
 40
0.1999999999999761
100
AcDbArc
 50
180.9999999999967
 51
238.011418740523
  0
LWPOLYLINE
  5
332
330
2E0
100
AcDbEntity
  8
VER
100
AcDbPolyline
 90
        4
 70
     0
 43
0.0
 10
-14.28796168347783
 20
-7.52086108802362
 10
-14.2836412501243
 20
-7.514902228293291
 10
-14.25529705927417
 20
-7.456225916889755
 10
-14.2454195925225
 20
-7.393091296554105
  0
ARC
  5
333
330
2E0
100
AcDbEntity
  8
VER
100
AcDbCircle
 10
-16.23370125990157
 20
-7.389600815266659
 30
0.0
 40
0.1999999999999766
100
AcDbArc
 50
301.9885812594769
 51
359.0000000000031
  0
LINE
  5
334
330
2E0
100
AcDbEntity
  8
VER
100
AcDbLine
 10
-16.03373172087031
 20
-7.393091296554105
 30
0.0
 11
-14.2454195925225
 21
-7.393091296554105
 31
0.0
  0
LWPOLYLINE
  5
335
330
2E0
100
AcDbEntity
  8
VER
100
AcDbPolyline
 90
        6
 70
     0
 43
0.0
 10
4.771919235434648
 20
-0.8554448705593576
 10
4.756189271686875
 20
-0.7606848957409373
 10
4.725663900894393
 20
-0.6814717015670019
 10
4.683470841075842
 20
-0.6260750915445257
 10
4.633856886071493
 20
-0.6009949486423805
 10
4.621493862404273
 20
-0.6000000000000033
  0
LINE
  5
336
330
2E0
100
AcDbEntity
  8
VER
100
AcDbLine
 10
4.771919235434648
 20
-0.8554448705593576
 30
0.0
 11
5.127924108547177
 21
-5.499999999999991
 31
0.0
  0
LWPOLYLINE
  5
337
330
2E0
100
AcDbEntity
  8
VER
100
AcDbPolyline
 90
        4
 70
     0
 43
0.0
 10
-13.96704225502598
 20
-7.559231553141005
 10
-13.97776618082364
 20
-7.558200449742064
 10
-14.15039232046728
 20
-7.539209084688414
 10
-14.28796168347783
 20
-7.52086108802362
  0
ELLIPSE
  5
338
330
2E0
100
AcDbEntity
  8
VER
100
AcDbEllipse
 10
-12.04815641761047
 20
-11.79999999999992
 30
0.0
 11
-1.745740669421538E-14
 21
4.999999999999918
 31
0.0
210
0.0
220
0.0
230
1.0
 40
0.86602540378444
 41
6.283185307179576
 42
6.826832587784611
  0
LWPOLYLINE
  5
339
330
2E0
100
AcDbEntity
  8
VER
100
AcDbPolyline
 90
        4
 70
     0
 43
0.0
 10
14.28796168347783
 20
-7.52086108802362
 10
14.15039232046661
 20
-7.539209084688498
 10
13.97776618082279
 20
-7.558200449742037
 10
13.96704225502598
 20
-7.559231553141005
  0
ELLIPSE
  5
33A
330
2E0
100
AcDbEntity
  8
VER
100
AcDbEllipse
 10
12.04815641761048
 20
-11.79999999999989
 30
0.0
 11
3.694352151241617E-14
 21
4.999999999999887
 31
0.0
210
0.0
220
0.0
230
1.0
 40
0.8660254037844395
 41
5.739538026574561
 42
6.283185307179601
  0
LINE
  5
33B
330
2E0
100
AcDbEntity
  8
VER
100
AcDbLine
 10
-13.40748747152515
 20
-1.582547593562716
 30
0.0
 11
-13.4954195925225
 21
-7.393091296554105
 31
0.0
  0
ELLIPSE
  5
33C
330
2E0
100
AcDbEntity
  8
VER
100
AcDbEllipse
 10
-11.29815641761047
 20
-11.80000000000002
 30
0.0
 11
9.187945896788128E-15
 21
5.00000000000002
 31
0.0
210
0.0
220
0.0
230
1.0
 40
0.8660254037844387
 41
6.283185307179584
 42
6.826832587784606
  0
ELLIPSE
  5
33D
330
2E0
100
AcDbEntity
  8
VER
100
AcDbEllipse
 10
-5.787636773330075
 20
-8.30000000000001
 30
0.0
 11
-9.073522122265947E-16
 21
1.500000000000009
 31
0.0
210
0.0
220
0.0
230
1.0
 40
0.8660254037844388
 41
4.712388980384703
 42
6.283185307179579
  0
LINE
  5
33E
330
2E0
100
AcDbEntity
  8
VER
100
AcDbLine
 10
-4.450197418876953
 20
-8.299999999999988
 30
0.0
 11
-4.56012937680104
 21
-1.091273796781367
 31
0.0
  0
LWPOLYLINE
  5
33F
330
2E0
100
AcDbEntity
  8
VER
100
AcDbPolyline
 90
        6
 70
     0
 43
0.0
 10
-4.56012937680104
 20
-1.091273796781367
 10
-4.586884075437689
 20
-0.92747706882855
 10
-4.659084739506667
 20
-0.7829408372070634
 10
-4.76890460225331
 20
-0.6734229465437946
 10
-4.904869938955969
 20
-0.6111569493212621
 10
-4.996507468558331
 20
-0.6000000000000033
  0
LINE
  5
340
330
2E0
100
AcDbEntity
  8
VER
100
AcDbLine
 10
13.40748747152515
 20
-1.582547593562716
 30
0.0
 11
13.4954195925225
 21
-7.393091296554105
 31
0.0
  0
LINE
  5
341
330
2E0
100
AcDbEntity
  8
VER
100
AcDbLine
 10
4.450197418876952
 20
-8.299999999999988
 30
0.0
 11
4.560129376801041
 21
-1.091273796781367
 31
0.0
  0
ELLIPSE
  5
342
330
2E0
100
AcDbEntity
  8
VER
100
AcDbEllipse
 10
5.787636773330073
 20
-8.30000000000001
 30
0.0
 11
3.422517583811541E-15
 21
1.500000000000009
 31
0.0
210
0.0
220
0.0
230
1.0
 40
0.8660254037844382
 41
0.0000000000000081
 42
1.570796326794884
  0
ELLIPSE
  5
343
330
2E0
100
AcDbEntity
  8
VER
100
AcDbEllipse
 10
11.29815641761047
 20
-11.79999999999987
 30
0.0
 11
1.695950706916375E-14
 21
4.999999999999871
 31
0.0
210
0.0
220
0.0
230
1.0
 40
0.8660254037844388
 41
5.739538026573945
 42
6.283185307179598
  0
LWPOLYLINE
  5
344
330
2E0
100
AcDbEntity
  8
VER
100
AcDbPolyline
 90
        4
 70
     0
 43
0.0
 10
4.732326331894008
 20
-0.7020631461553684
 10
4.768904602253252
 20
-0.6734229465438363
 10
4.904869938955907
 20
-0.611156949321276
 10
4.99650746855833
 20
-0.6000000000000033
  0
LWPOLYLINE
  5
345
330
2E0
100
AcDbEntity
  8
VER
100
AcDbPolyline
 90
        4
 70
     0
 43
0.0
 10
4.560129376801041
 20
-1.091273796781367
 10
4.586884075437666
 20
-0.9274770688286194
 10
4.659084739506627
 20
-0.7829408372071189
 10
4.732326331894008
 20
-0.7020631461553684
  0
LINE
  5
346
330
2E0
100
AcDbEntity
  8
VER
100
AcDbLine
 10
7.327467050159998
 20
-5.499999999999991
 30
0.0
 11
7.944085578133008
 21
-0.8554448705593576
 31
0.0
  0
LWPOLYLINE
  5
347
330
2E0
100
AcDbEntity
  8
VER
100
AcDbPolyline
 90
        6
 70
     0
 43
0.0
 10
8.204629966969117
 20
-0.6000000000000033
 10
8.137158346387452
 20
-0.6100248551739879
 10
8.055645556300451
 20
-0.652641044476418
 10
7.991373447757856
 20
-0.7239211039613697
 10
7.952003846626907
 20
-0.8148749862368632
 10
7.944085578133008
 20
-0.8554448705593576
  0
LINE
  5
348
330
2E0
100
AcDbEntity
  8
VER
100
AcDbLine
 10
7.239811806831755
 20
-0.6000000000000033
 30
0.0
 11
6.72474487139159
 21
-4.397029953438839
 31
0.0
  0
LINE
  5
349
330
2E0
100
AcDbEntity
  8
VER
100
AcDbLine
 10
5.475905920705676
 20
-4.397029953438825
 30
0.0
 11
5.17853188687862
 21
-0.6000000000000033
 31
0.0
  0
LINE
  5
34A
330
2E0
100
AcDbEntity
  8
VER
100
AcDbLine
 10
4.312506483094179
 20
-0.6000000000000033
 30
0.0
 11
4.609880516921235
 21
-4.397029953438825
 31
0.0
  0
LINE
  5
34B
330
2E0
100
AcDbEntity
  8
VER
100
AcDbLine
 10
3.679751988064814
 20
-0.6000000000000033
 30
0.0
 11
4.249999999999995
 21
-4.397029953438825
 31
0.0
  0
LINE
  5
34C
330
2E0
100
AcDbEntity
  8
VER
100
AcDbLine
 10
4.954730389569301
 20
-0.6000000000000033
 30
0.0
 11
4.849999999999996
 21
-6.600000000000009
 31
0.0
  0
LINE
  5
34D
330
2E0
100
AcDbEntity
  8
VER
100
AcDbLine
 10
6.649999999999999
 20
-6.600000000000009
 30
0.0
 11
6.545269610430694
 21
-0.6000000000000033
 31
0.0
  0
LINE
  5
34E
330
2E0
100
AcDbEntity
  8
VER
100
AcDbLine
 10
4.261898704762736
 20
-5.499999999999991
 30
0.0
 11
3.905893831650208
 21
-0.8554448705593576
 31
0.0
  0
LINE
  5
34F
330
2E0
100
AcDbEntity
  8
VER
100
AcDbLine
 10
2.883863387010827
 20
-0.8554448705593576
 30
0.0
 11
3.581394973899733
 21
-5.499999999999991
 31
0.0
  0
LWPOLYLINE
  5
350
330
2E0
100
AcDbEntity
  8
VER
100
AcDbPolyline
 90
        6
 70
     0
 43
0.0
 10
3.755468458619834
 20
-0.6000000000000033
 10
3.793001344528651
 20
-0.6092951097346477
 10
3.840264068872933
 20
-0.6510064757240946
 10
3.877723130879736
 20
-0.721582770927362
 10
3.900902334230522
 20
-0.8121286491832996
 10
3.905893831650208
 20
-0.8554448705593576
  0
ARC
  5
351
330
2E0
100
AcDbEntity
  8
VER
100
AcDbCircle
 10
2.587190435024075
 20
-0.8999999999999992
 30
0.0
 40
0.3000000000000101
100
AcDbArc
 50
8.541000000003622
 51
89.99999999999618
  0
LINE
  5
352
330
2E0
100
AcDbEntity
  8
VER
100
AcDbLine
 10
2.883863387010827
 20
-0.8554448705593576
 30
0.0
 11
8.616136612989168
 21
-0.8554448705593576
 31
0.0
  0
LINE
  5
353
330
2E0
100
AcDbEntity
  8
VER
100
AcDbLine
 10
4.275255128608405
 20
-4.397029953438825
 30
0.0
 11
3.76018819316824
 21
-0.6000000000000033
 31
0.0
  0
LWPOLYLINE
  5
354
330
2E0
100
AcDbEntity
  8
VER
100
AcDbPolyline
 90
        6
 70
     0
 43
0.0
 10
3.055914421866988
 20
-0.8554448705593576
 10
3.028669325454615
 20
-0.7606848957409096
 10
2.975797832322158
 20
-0.681471701566988
 10
2.902717308989621
 20
-0.6260750915445118
 10
2.816783418157659
 20
-0.6009949486423805
 10
2.795370033030879
 20
-0.6000000000000033
  0
LINE
  5
355
330
2E0
100
AcDbEntity
  8
VER
100
AcDbLine
 10
3.055914421866988
 20
-0.8554448705593576
 30
0.0
 11
3.672532949839997
 21
-5.499999999999991
 31
0.0
  0
LINE
  5
356
330
2E0
100
AcDbEntity
  8
VER
100
AcDbLine
 10
7.224744871391589
 20
-4.397029953438825
 30
0.0
 11
7.739811806831755
 21
-0.6000000000000033
 31
0.0
  0
LINE
  5
357
330
2E0
100
AcDbEntity
  8
VER
100
AcDbLine
 10
7.25
 20
-4.397029953438825
 30
0.0
 11
7.82024801193518
 21
-0.6000000000000033
 31
0.0
  0
LINE
  5
358
330
2E0
100
AcDbEntity
  8
VER
100
AcDbLine
 10
6.024094079294335
 20
-5.499999999999991
 30
0.0
 11
6.024094079294335
 21
-4.397029953438839
 31
0.0
  0
LINE
  5
359
330
2E0
100
AcDbEntity
  8
VER
100
AcDbLine
 10
4.775255128608408
 20
-4.397029953438825
 30
0.0
 11
6.72474487139159
 21
-4.397029953438839
 31
0.0
  0
LINE
  5
35A
330
2E0
100
AcDbEntity
  8
VER
100
AcDbLine
 10
4.775255128608408
 20
-4.397029953438825
 30
0.0
 11
4.775255128608408
 21
-5.499999999999991
 31
0.0
  0
LINE
  5
35B
330
2E0
100
AcDbEntity
  8
VER
100
AcDbLine
 10
5.475905920705676
 20
-5.499999999999991
 30
0.0
 11
5.475905920705676
 21
-4.397029953438825
 31
0.0
  0
LINE
  5
35C
330
2E0
100
AcDbEntity
  8
VER
100
AcDbLine
 10
6.72474487139159
 20
-4.397029953438839
 30
0.0
 11
6.72474487139159
 21
-5.499999999999991
 31
0.0
  0
LINE
  5
35D
330
2E0
100
AcDbEntity
  8
VER
100
AcDbLine
 10
7.224744871391589
 20
-5.499999999999991
 30
0.0
 11
7.224744871391589
 21
-4.397029953438825
 31
0.0
  0
LINE
  5
35E
330
2E0
100
AcDbEntity
  8
VER
100
AcDbLine
 10
6.890119483078772
 20
-4.397029953438825
 30
0.0
 11
7.249999999999999
 21
-4.397029953438825
 31
0.0
  0
LINE
  5
35F
330
2E0
100
AcDbEntity
  8
VER
100
AcDbLine
 10
4.275255128608405
 20
-5.499999999999991
 30
0.0
 11
4.275255128608405
 21
-4.397029953438825
 31
0.0
  0
LINE
  5
360
330
2E0
100
AcDbEntity
  8
VER
100
AcDbLine
 10
4.609880516921235
 20
-4.397029953438825
 30
0.0
 11
4.609880516921233
 21
-5.499999999999991
 31
0.0
  0
LINE
  5
361
330
2E0
100
AcDbEntity
  8
VER
100
AcDbLine
 10
4.609880516921235
 20
-4.397029953438825
 30
0.0
 11
4.249999999999995
 21
-4.397029953438825
 31
0.0
  0
LINE
  5
362
330
2E0
100
AcDbEntity
  8
VER
100
AcDbLine
 10
7.249999999999999
 20
-6.600000000000009
 30
0.0
 11
7.249999999999999
 21
-5.499999999999991
 31
0.0
  0
LINE
  5
363
330
2E0
100
AcDbEntity
  8
VER
100
AcDbLine
 10
7.249999999999999
 20
-4.397029953438825
 30
0.0
 11
7.249999999999999
 21
-0.6000000000000033
 31
0.0
  0
LINE
  5
364
330
2E0
100
AcDbEntity
  8
VER
100
AcDbLine
 10
4.249999999999995
 20
-0.6000000000000033
 30
0.0
 11
4.249999999999995
 21
-4.397029953438825
 31
0.0
  0
LINE
  5
365
330
2E0
100
AcDbEntity
  8
VER
100
AcDbLine
 10
4.249999999999995
 20
-5.499999999999991
 30
0.0
 11
4.249999999999995
 21
-5.600000000000008
 31
0.0
  0
LINE
  5
366
330
2E0
100
AcDbEntity
  8
VER
100
AcDbLine
 10
4.249999999999995
 20
-6.600000000000009
 30
0.0
 11
7.249999999999999
 21
-6.600000000000009
 31
0.0
  0
LINE
  5
367
330
2E0
100
AcDbEntity
  8
VER
100
AcDbLine
 10
5.749999999999997
 20
-6.599684299533711
 30
0.0
 11
5.749999999999997
 21
-5.600000000000008
 31
0.0
  0
ARC
  5
368
330
2E0
100
AcDbEntity
  8
VER
100
AcDbCircle
 10
4.267765156895305
 20
-6.099999999999993
 30
0.0
 40
0.5000000000000168
100
AcDbArc
 50
182.000000000001
 51
267.9638344113631
  0
LINE
  5
369
330
2E0
100
AcDbEntity
  8
VER
100
AcDbLine
 10
4.249999999999994
 20
-6.599684299533711
 30
0.0
 11
5.749999999999997
 21
-6.599684299533711
 31
0.0
  0
LINE
  5
36A
330
2E0
100
AcDbEntity
  8
VER
100
AcDbLine
 10
5.749999999999997
 20
-5.600000000000008
 30
0.0
 11
3.749999999999996
 21
-5.600000000000008
 31
0.0
  0
LINE
  5
36B
330
2E0
100
AcDbEntity
  8
VER
100
AcDbLine
 10
5.749999999999997
 20
-6.117449748351253
 30
0.0
 11
3.768069743385741
 21
-6.117449748351253
 31
0.0
  0
LINE
  5
36C
330
2E0
100
AcDbEntity
  8
VER
100
AcDbLine
 10
3.749999999999996
 20
-5.600000000000008
 30
0.0
 11
3.768069743385741
 21
-6.117449748351253
 31
0.0
  0
LINE
  5
36D
330
2E0
100
AcDbEntity
  8
VER
100
AcDbLine
 10
4.260188193168242
 20
-0.6000000000000033
 30
0.0
 11
4.775255128608408
 21
-4.397029953438825
 31
0.0
  0
LINE
  5
36E
330
2E0
100
AcDbEntity
  8
VER
100
AcDbLine
 10
6.024094079294335
 20
-4.397029953438839
 30
0.0
 11
6.321468113121392
 21
-0.6000000000000033
 31
0.0
  0
LINE
  5
36F
330
2E0
100
AcDbEntity
  8
VER
100
AcDbLine
 10
3.581394973899733
 20
-5.499999999999991
 30
0.0
 11
7.918605026100261
 21
-5.499999999999991
 31
0.0
  0
LINE
  5
370
330
2E0
100
AcDbEntity
  8
VER
100
AcDbLine
 10
8.44408557813301
 20
-0.8554448705593576
 30
0.0
 11
7.827467050159999
 21
-5.499999999999991
 31
0.0
  0
LINE
  5
371
330
2E0
100
AcDbEntity
  8
VER
100
AcDbLine
 10
7.918605026100261
 20
-5.499999999999991
 30
0.0
 11
8.616136612989168
 21
-0.8554448705593576
 31
0.0
  0
LINE
  5
372
330
2E0
100
AcDbEntity
  8
VER
100
AcDbLine
 10
7.187493516905827
 20
-0.6000000000000033
 30
0.0
 11
6.890119483078772
 21
-4.397029953438825
 31
0.0
  0
LINE
  5
373
330
2E0
100
AcDbEntity
  8
VER
100
AcDbLine
 10
6.890119483078772
 20
-4.397029953438825
 30
0.0
 11
6.890119483078772
 21
-5.499999999999991
 31
0.0
  0
LINE
  5
374
330
2E0
100
AcDbEntity
  8
VER
100
AcDbLine
 10
7.238101295237271
 20
-5.499999999999991
 30
0.0
 11
7.5941061683498
 21
-0.8554448705593576
 31
0.0
  0
LWPOLYLINE
  5
375
330
2E0
100
AcDbEntity
  8
VER
100
AcDbPolyline
 90
        6
 70
     0
 43
0.0
 10
7.744531541380174
 20
-0.6000000000000033
 10
7.706998655471363
 20
-0.6092951097346339
 10
7.65973593112708
 20
-0.6510064757240808
 10
7.622276869120275
 20
-0.7215827709273481
 10
7.599097665769487
 20
-0.8121286491832858
 10
7.5941061683498
 20
-0.8554448705593576
  0
LWPOLYLINE
  5
376
330
2E0
100
AcDbEntity
  8
VER
100
AcDbPolyline
 90
        6
 70
     0
 43
0.0
 10
8.44408557813301
 20
-0.8554448705593576
 10
8.47133067454524
 20
-0.7606848957412149
 10
8.524202167677625
 20
-0.6814717015672239
 10
8.5972826910101
 20
-0.6260750915446645
 10
8.683216581842027
 20
-0.6009949486424082
 10
8.704629966969117
 20
-0.6000000000000033
  0
ARC
  5
377
330
2E0
100
AcDbEntity
  8
VER
100
AcDbCircle
 10
8.91280956497592
 20
-0.9
 30
0.0
 40
0.3000000000000106
100
AcDbArc
 50
90.00000000000375
 51
171.4589999999962
  0
LINE
  5
378
330
2E0
100
AcDbEntity
  8
VER
100
AcDbLine
 10
6.728080764565363
 20
-0.8554448705593576
 30
0.0
 11
6.372075891452835
 21
-5.499999999999991
 31
0.0
  0
LINE
  5
379
330
2E0
100
AcDbEntity
  8
VER
100
AcDbLine
 10
4.172532949839998
 20
-5.499999999999991
 30
0.0
 11
3.555914421866988
 21
-0.8554448705593576
 31
0.0
  0
LWPOLYLINE
  5
37A
330
2E0
100
AcDbEntity
  8
VER
100
AcDbPolyline
 90
        6
 70
     0
 43
0.0
 10
6.728080764565363
 20
-0.8554448705593576
 10
6.743810728313144
 20
-0.7606848957409096
 10
6.774336099105625
 20
-0.681471701566988
 10
6.816529158924184
 20
-0.6260750915445257
 10
6.866143113928529
 20
-0.6009949486423805
 10
6.878506137595736
 20
-0.6000000000000033
  0
LWPOLYLINE
  5
37B
330
2E0
100
AcDbEntity
  8
VER
100
AcDbPolyline
 90
        6
 70
     0
 43
0.0
 10
3.29537003303088
 20
-0.6000000000000033
 10
3.362841653612541
 20
-0.6100248551739879
 10
3.444354443699543
 20
-0.6526410444764041
 10
3.50862655224214
 20
-0.7239211039613697
 10
3.547996153373091
 20
-0.8148749862368632
 10
3.555914421866988
 20
-0.8554448705593576
  0
LINE
  5
37C
330
2E0
100
AcDbEntity
  8
VER
100
AcDbLine
 10
0.75
 20
-1.582547593562716
 30
0.0
 11
13.40748747152515
 21
-1.582547593562716
 31
0.0
  0
LWPOLYLINE
  5
37D
330
2E0
100
AcDbEntity
  8
VER
100
AcDbPolyline
 90
        7
 70
     0
 43
0.0
 10
12.54056850702155
 20
-0.6000000000000033
 10
12.65497840541827
 20
-0.608742813940466
 10
12.93339815026219
 20
-0.7085123338636118
 10
13.16737605224058
 20
-0.9090512216343716
 10
13.33042249979763
 20
-1.187505157122681
 10
13.4042747266899
 20
-1.512244572333496
 10
13.40748747152515
 20
-1.582547593562716
  0
LINE
  5
37E
330
2E0
100
AcDbEntity
  8
VER
100
AcDbLine
 10
-13.40748747152515
 20
-1.582547593562716
 30
0.0
 11
-0.75
 21
-1.582547593562716
 31
0.0
  0
LWPOLYLINE
  5
37F
330
2E0
100
AcDbEntity
  8
VER
100
AcDbPolyline
 90
        7
 70
     0
 43
0.0
 10
-12.54056850702155
 20
-0.6000000000000033
 10
-12.65497840541827
 20
-0.608742813940466
 10
-12.93339815026219
 20
-0.7085123338636118
 10
-13.16737605224058
 20
-0.9090512216343716
 10
-13.33042249979763
 20
-1.187505157122681
 10
-13.4042747266899
 20
-1.512244572333496
 10
-13.40748747152515
 20
-1.582547593562716
  0
LINE
  5
380
330
2E0
100
AcDbEntity
  8
VER
100
AcDbLine
 10
-13.53796168347782
 20
-7.520861088023606
 30
0.0
 11
-13.96704225502598
 21
-7.559231553141005
 31
0.0
  0
LWPOLYLINE
  5
381
330
2E0
100
AcDbEntity
  8
VER
100
AcDbPolyline
 90
        4
 70
     0
 43
0.0
 10
-13.53796168347782
 20
-7.520861088023606
 10
-13.51524711620093
 20
-7.482529239234537
 10
-13.49723398726211
 20
-7.418666121468965
 10
-13.4954195925225
 20
-7.393091296554105
  0
LINE
  5
382
330
2E0
100
AcDbEntity
  8
VER
100
AcDbLine
 10
-13.4954195925225
 20
-7.393091296554105
 30
0.0
 11
-0.75
 21
-7.393091296554105
 31
0.0
  0
LINE
  5
383
330
2E0
100
AcDbEntity
  8
VER
100
AcDbLine
 10
-0.75
 20
-7.520861088012184
 30
0.0
 11
-0.75
 21
-0.5999999999911354
 31
0.0
  0
LINE
  5
384
330
2E0
100
AcDbEntity
  8
VER
100
AcDbLine
 10
-14.04903381735624
 20
-7.589600815266648
 30
0.0
 11
-0.0176480744255979
 21
-7.589600815266648
 31
0.0
  0
LWPOLYLINE
  5
385
330
2E0
100
AcDbEntity
  8
VER
100
AcDbPolyline
 90
        4
 70
     0
 43
0.0
 10
13.53796168348009
 20
-7.520861088025202
 10
13.53526429049843
 20
-7.5171962407517
 10
13.50616348647333
 20
-7.458989726393972
 10
13.4954195925225
 20
-7.393091296554105
  0
LINE
  5
386
330
2E0
100
AcDbEntity
  8
VER
100
AcDbLine
 10
13.96704225502598
 20
-7.559231553141005
 30
0.0
 11
13.53796168348009
 21
-7.520861088025202
 31
0.0
  0
LINE
  5
387
330
2E0
100
AcDbEntity
  8
VER
100
AcDbLine
 10
0.75
 20
-7.520861088012184
 30
0.0
 11
0.75
 21
-0.5999999999911354
 31
0.0
  0
LINE
  5
388
330
2E0
100
AcDbEntity
  8
VER
100
AcDbLine
 10
0.75
 20
-7.393091296554105
 30
0.0
 11
13.4954195925225
 21
-7.393091296554105
 31
0.0
  0
LINE
  5
389
330
2E0
100
AcDbEntity
  8
VER
100
AcDbLine
 10
0.016664663377047
 20
-7.589600815266648
 30
0.0
 11
14.03667722236311
 21
-7.589600815266648
 31
0.0
  0
LINE
  5
38A
330
2E0
100
AcDbEntity
  8
VER
100
AcDbLine
 10
0.75
 20
-7.520861088012184
 30
0.0
 11
0.0
 21
-7.559231553141005
 31
0.0
  0
LINE
  5
38B
330
2E0
100
AcDbEntity
  8
VER
100
AcDbLine
 10
0.0
 20
-7.559231553141005
 30
0.0
 11
-0.75
 21
-7.520861088012184
 31
0.0
  0
LINE
  5
38C
330
2E0
100
AcDbEntity
  8
VER
100
AcDbLine
 10
-16.12775121144384
 20
-7.559231553141005
 30
0.0
 11
16.12775121144384
 21
-7.559231553141005
 31
0.0
  0
ARC
  5
38D
330
2E0
100
AcDbEntity
  8
VER
100
AcDbCircle
 10
13.4789999999997
 20
-11.80000000000036
 30
0.0
 40
5.000000000000457
100
AcDbArc
 50
36.62238341212473
 51
58.01141874051943
  0
ARC
  5
38E
330
2E0
100
AcDbEntity
  8
VER
100
AcDbCircle
 10
-13.47899999999966
 20
-11.80000000000042
 30
0.0
 40
5.000000000000525
100
AcDbArc
 50
121.9885812594806
 51
143.377616587875
  0
ARC
  5
38F
330
2E0
100
AcDbEntity
  8
VER
100
AcDbCircle
 10
17.6524393490262
 20
-8.697999999999965
 30
0.0
 40
0.2000000000000386
100
AcDbArc
 50
216.6223834121281
 51
269.9999999999939
  0
ARC
  5
390
330
2E0
100
AcDbEntity
  8
VER
100
AcDbCircle
 10
-17.6524393490262
 20
-8.697999999999965
 30
0.0
 40
0.2000000000000384
100
AcDbArc
 50
270.0000000000061
 51
323.3776165878718
  0
LINE
  5
391
330
2E0
100
AcDbEntity
  8
VER
100
AcDbLine
 10
-17.49192245098671
 20
-8.817307692307693
 30
0.0
 11
17.49192245098671
 21
-8.817307692307693
 31
0.0
  0
ARC
  5
392
330
2E0
100
AcDbEntity
  8
VER
100
AcDbCircle
 10
18.30000000000033
 20
-6.699999999989547
 30
0.0
 40
0.1000000000104499
100
AcDbArc
 50
267.067031730084
 51
269.9999999998249
  0
ARC
  5
393
330
2E0
100
AcDbEntity
  8
VER
100
AcDbCircle
 10
-18.30000000000033
 20
-6.699999999989547
 30
0.0
 40
0.1000000000104535
100
AcDbArc
 50
270.0000000001751
 51
272.932968269916
  0
ARC
  5
394
330
2E0
100
AcDbEntity
  8
VER
100
AcDbCircle
 10
18.29999999999996
 20
-3.70000000000454
 30
0.0
 40
0.1000000000045342
100
AcDbArc
 50
89.99999999997557
 51
92.93296826988387
  0
ARC
  5
395
330
2E0
100
AcDbEntity
  8
VER
100
AcDbCircle
 10
-18.29999999999996
 20
-3.70000000000454
 30
0.0
 40
0.1000000000045338
100
AcDbArc
 50
87.06703173011611
 51
90.00000000002441
  0
LINE
  5
396
330
2E0
100
AcDbEntity
  8
VER
100
AcDbLine
 10
-18.29488324003577
 20
-6.799869008042872
 30
0.0
 11
-18.29743994328382
 21
-6.800000000000001
 31
0.0
  0
LINE
  5
397
330
2E0
100
AcDbEntity
  8
VER
100
AcDbLine
 10
18.29743994328382
 20
-6.800000000000001
 30
0.0
 11
18.29488324003577
 21
-6.799869008042872
 31
0.0
  0
LINE
  5
398
330
2E0
100
AcDbEntity
  8
VER
100
AcDbLine
 10
18.29488324003577
 20
-3.60013099195712
 30
0.0
 11
18.29743994328354
 21
-3.600000000000006
 31
0.0
  0
LINE
  5
399
330
2E0
100
AcDbEntity
  8
VER
100
AcDbLine
 10
-18.29743994328354
 20
-3.600000000000006
 30
0.0
 11
-18.29488324003577
 21
-3.60013099195712
 31
0.0
  0
LINE
  5
39A
330
2E0
100
AcDbEntity
  8
VER
100
AcDbLine
 10
33.783
 20
1.930000000000001
 30
0.0
 11
33.783
 21
2.718454419549501
 31
0.0
  0
LINE
  5
39B
330
2E0
100
AcDbEntity
  8
VER
100
AcDbLine
 10
-33.783
 20
2.718454419549501
 30
0.0
 11
-33.783
 21
1.930000000000001
 31
0.0
  0
ARC
  5
39C
330
2E0
100
AcDbEntity
  8
VER
100
AcDbCircle
 10
33.58299999999999
 20
2.718454419549519
 30
0.0
 40
0.2000000000000099
100
AcDbArc
 50
359.9999999999951
 51
52.21571614638503
  0
ARC
  5
39D
330
2E0
100
AcDbEntity
  8
VER
100
AcDbCircle
 10
-33.58299999999999
 20
2.718454419549519
 30
0.0
 40
0.2000000000000097
100
AcDbArc
 50
127.784283853615
 51
180.0000000000049
  0
LINE
  5
39E
330
2E0
100
AcDbEntity
  8
VER
100
AcDbLine
 10
-33.783
 20
2.718454419549501
 30
0.0
 11
33.783
 21
2.718454419549501
 31
0.0
  0
LINE
  5
39F
330
2E0
100
AcDbEntity
  8
VER
100
AcDbLine
 10
34.0
 20
1.930000000000001
 30
0.0
 11
34.0
 21
2.676519039976247
 31
0.0
  0
LINE
  5
3A0
330
2E0
100
AcDbEntity
  8
VER
100
AcDbLine
 10
-34.0
 20
2.676519039976247
 30
0.0
 11
-34.0
 21
1.930000000000001
 31
0.0
  0
LINE
  5
3A1
330
2E0
100
AcDbEntity
  8
VER
100
AcDbLine
 10
-34.0
 20
1.930000000000001
 30
0.0
 11
34.0
 21
1.930000000000001
 31
0.0
  0
ARC
  5
3A2
330
2E0
100
AcDbEntity
  8
VER
100
AcDbCircle
 10
34.2
 20
2.676519039976243
 30
0.0
 40
0.2000000000000095
100
AcDbArc
 50
90.0
 51
179.999999999999
  0
ARC
  5
3A3
330
2E0
100
AcDbEntity
  8
VER
100
AcDbCircle
 10
-34.2
 20
2.676519039976243
 30
0.0
 40
0.2000000000000099
100
AcDbArc
 50
0.0000000000010178
 51
90.0
  0
LINE
  5
3A4
330
2E0
100
AcDbEntity
  8
VER
100
AcDbLine
 10
-33.99999999999999
 20
2.676519039976247
 30
0.0
 11
33.99999999999999
 21
2.676519039976247
 31
0.0
  0
LINE
  5
3A7
330
2E0
100
AcDbEntity
  8
MITTE
100
AcDbLine
 10
0.0
 20
-77.5874
 30
0.0
 11
0.0
 21
7.935399999999938
 31
0.0
  0
LINE
  5
3A8
330
2E0
100
AcDbEntity
  8
MITTE
100
AcDbLine
 10
-11.5
 20
-6.900000000000009
 30
0.0
 11
-11.5
 21
-0.0837749567752968
 31
0.0
  0
LINE
  5
3A9
330
2E0
100
AcDbEntity
  8
MITTE
100
AcDbLine
 10
5.750000000000001
 20
-6.900000000000009
 30
0.0
 11
5.750000000000001
 21
-0.0837749567752968
 31
0.0
  0
LINE
  5
3AA
330
2E0
100
AcDbEntity
  8
050
100
AcDbLine
 10
2.0
 20
-71.2
 30
0.0
 11
2.0
 21
-59.7
 31
0.0
  0
LINE
  5
3AB
330
2E0
100
AcDbEntity
  8
050
100
AcDbLine
 10
-2.0
 20
-59.7
 30
0.0
 11
-2.0
 21
-71.2
 31
0.0
  0
LINE
  5
3AC
330
2E0
100
AcDbEntity
  8
050
100
AcDbLine
 10
-3.16227766016838
 20
-73.7
 30
0.0
 11
-3.16227766016838
 21
-72.7
 31
0.0
  0
LINE
  5
3AD
330
2E0
100
AcDbEntity
  8
050
100
AcDbLine
 10
-3.16227766016838
 20
-73.7
 30
0.0
 11
3.16227766016838
 21
-73.7
 31
0.0
  0
LINE
  5
3AE
330
2E0
100
AcDbEntity
  8
050
100
AcDbLine
 10
3.16227766016838
 20
-72.7
 30
0.0
 11
3.16227766016838
 21
-73.7
 31
0.0
  0
LINE
  5
3AF
330
2E0
100
AcDbEntity
  8
050
100
AcDbLine
 10
3.16227766016838
 20
-72.7
 30
0.0
 11
3.25
 21
-72.7
 31
0.0
  0
LINE
  5
3B0
330
2E0
100
AcDbEntity
  8
050
100
AcDbLine
 10
3.25
 20
-72.7
 30
0.0
 11
3.25
 21
-71.2
 31
0.0
  0
LINE
  5
3B1
330
2E0
100
AcDbEntity
  8
050
100
AcDbLine
 10
-3.25
 20
-71.2
 30
0.0
 11
-3.25
 21
-72.7
 31
0.0
  0
LINE
  5
3B2
330
2E0
100
AcDbEntity
  8
050
100
AcDbLine
 10
-3.25
 20
-71.2
 30
0.0
 11
3.25
 21
-71.2
 31
0.0
  0
LINE
  5
3B3
330
2E0
100
AcDbEntity
  8
050
100
AcDbLine
 10
-3.25
 20
-72.7
 30
0.0
 11
-3.16227766016838
 21
-72.7
 31
0.0
  0
LINE
  5
3B4
330
2E0
100
AcDbEntity
  8
050
100
AcDbLine
 10
3.600000000000001
 20
-56.7
 30
0.0
 11
3.9
 21
-56.40000000000001
 31
0.0
  0
LINE
  5
3B5
330
2E0
100
AcDbEntity
  8
050
100
AcDbLine
 10
-3.9
 20
-56.40000000000001
 30
0.0
 11
-3.600000000000001
 21
-56.7
 31
0.0
  0
LINE
  5
3B6
330
2E0
100
AcDbEntity
  8
050
100
AcDbLine
 10
-3.600000000000001
 20
-56.7
 30
0.0
 11
3.600000000000001
 21
-56.7
 31
0.0
  0
LINE
  5
3B7
330
2E0
100
AcDbEntity
  8
050
100
AcDbLine
 10
3.9
 20
-56.40000000000001
 30
0.0
 11
3.9
 21
-10.3
 31
0.0
  0
LINE
  5
3B8
330
2E0
100
AcDbEntity
  8
050
100
AcDbLine
 10
-3.9
 20
-10.3
 30
0.0
 11
-3.9
 21
-56.40000000000001
 31
0.0
  0
LINE
  5
3B9
330
2E0
100
AcDbEntity
  8
050
100
AcDbLine
 10
-3.9
 20
-56.40000000000001
 30
0.0
 11
3.9
 21
-56.40000000000001
 31
0.0
  0
LINE
  5
3BA
330
2E0
100
AcDbEntity
  8
050
100
AcDbLine
 10
3.310000000000002
 20
-59.7
 30
0.0
 11
3.5
 21
-59.6664978736654
 31
0.0
  0
LINE
  5
3BB
330
2E0
100
AcDbEntity
  8
050
100
AcDbLine
 10
-3.5
 20
-59.6664978736654
 30
0.0
 11
-3.310000000000002
 21
-59.7
 31
0.0
  0
LINE
  5
3BC
330
2E0
100
AcDbEntity
  8
050
100
AcDbLine
 10
-3.310000000000002
 20
-59.7
 30
0.0
 11
3.310000000000002
 21
-59.7
 31
0.0
  0
LINE
  5
3BD
330
2E0
100
AcDbEntity
  8
050
100
AcDbLine
 10
-3.5
 20
-59.66649786931344
 30
0.0
 11
-3.5
 21
-56.73350213087225
 31
0.0
  0
LINE
  5
3BE
330
2E0
100
AcDbEntity
  8
050
100
AcDbLine
 10
-3.310000000000002
 20
-56.7
 30
0.0
 11
-3.5
 21
-56.73350212633461
 31
0.0
  0
LINE
  5
3BF
330
2E0
100
AcDbEntity
  8
050
100
AcDbLine
 10
3.5
 20
-56.73350212633461
 30
0.0
 11
3.310000000000002
 21
-56.7
 31
0.0
  0
LINE
  5
3C0
330
2E0
100
AcDbEntity
  8
050
100
AcDbLine
 10
3.5
 20
-56.73350213068657
 30
0.0
 11
3.5
 21
-59.66649786912775
 31
0.0
  0
LWPOLYLINE
  5
3C1
330
2E0
100
AcDbEntity
  8
050
100
AcDbPolyline
 90
        3
 70
     0
 43
0.0
 10
0.0
 20
-59.57102529770304
 10
1.742710631099217
 20
-59.66649608907439
 10
3.5
 20
-59.57102529770304
  0
LWPOLYLINE
  5
3C2
330
2E0
100
AcDbEntity
  8
050
100
AcDbPolyline
 90
        3
 70
     0
 43
0.0
 10
3.5
 20
-56.82897470229696
 10
1.757289368900784
 20
-56.73350391092561
 10
0.0
 20
-56.82897470229696
  0
LWPOLYLINE
  5
3C3
330
2E0
100
AcDbEntity
  8
050
100
AcDbPolyline
 90
        3
 70
     0
 43
0.0
 10
-3.5
 20
-59.57102529770304
 10
-1.757289368900783
 20
-59.66649608907439
 10
0.0
 20
-59.57102529770304
  0
LINE
  5
3C4
330
2E0
100
AcDbEntity
  8
050
100
AcDbLine
 10
0.0
 20
-56.82897470229696
 30
0.0
 11
0.0
 21
-59.57102529770304
 31
0.0
  0
LWPOLYLINE
  5
3C5
330
2E0
100
AcDbEntity
  8
050
100
AcDbPolyline
 90
        3
 70
     0
 43
0.0
 10
0.0
 20
-56.82897470229696
 10
-1.742710631099216
 20
-56.73350391092561
 10
-3.5
 20
-56.82897470229696
  0
LINE
  5
3C6
330
2E0
100
AcDbEntity
  8
050
100
AcDbLine
 10
5.587
 20
-10.3
 30
0.0
 11
5.611472001029361
 21
-8.898000000000003
 31
0.0
  0
LINE
  5
3C7
330
2E0
100
AcDbEntity
  8
050
100
AcDbLine
 10
-5.611472001029361
 20
-8.898000000000003
 30
0.0
 11
-5.587
 21
-10.3
 31
0.0
  0
LINE
  5
3C8
330
2E0
100
AcDbEntity
  8
050
100
AcDbLine
 10
-5.587
 20
-10.3
 30
0.0
 11
5.587
 21
-10.3
 31
0.0
  0
LINE
  5
3C9
330
2E0
100
AcDbEntity
  8
050
100
AcDbLine
 10
17.55
 20
-1.617000000000007
 30
0.0
 11
17.55
 21
-0.8060000000000012
 31
0.0
  0
LINE
  5
3CA
330
2E0
100
AcDbEntity
  8
050
100
AcDbLine
 10
-17.55
 20
-0.8060000000000012
 30
0.0
 11
-17.55
 21
-1.617000000000007
 31
0.0
  0
ARC
  5
3CB
330
2E0
100
AcDbEntity
  8
050
100
AcDbCircle
 10
17.95000000000001
 20
-0.8060000000000109
 30
0.0
 40
0.4000000000000073
100
AcDbArc
 50
90.00000000000102
 51
179.9999999999986
  0
ARC
  5
3CC
330
2E0
100
AcDbEntity
  8
050
100
AcDbCircle
 10
-17.95000000000001
 20
-0.8060000000000108
 30
0.0
 40
0.4000000000000057
100
AcDbArc
 50
0.0000000000013835
 51
89.99999999999899
  0
LINE
  5
3CD
330
2E0
100
AcDbEntity
  8
050
100
AcDbLine
 10
-17.55
 20
-0.8060000000000012
 30
0.0
 11
17.55
 21
-0.8060000000000012
 31
0.0
  0
ARC
  5
3CE
330
2E0
100
AcDbEntity
  8
050
100
AcDbCircle
 10
18.20000000000019
 20
-4.406999999999996
 30
0.0
 40
0.1999999999999983
100
AcDbArc
 50
90.00001186009504
 51
265.9836925323827
  0
ARC
  5
3CF
330
2E0
100
AcDbEntity
  8
050
100
AcDbCircle
 10
-18.20000000000019
 20
-4.406999999999996
 30
0.0
 40
0.1999999999999983
100
AcDbArc
 50
274.0163074676173
 51
89.99998813990497
  0
ARC
  5
3D0
330
2E0
100
AcDbEntity
  8
050
100
AcDbCircle
 10
18.20000000000019
 20
-5.992999999999995
 30
0.0
 40
0.1999999999999981
100
AcDbArc
 50
94.0163074676204
 51
270.000011859986
  0
ARC
  5
3D1
330
2E0
100
AcDbEntity
  8
050
100
AcDbCircle
 10
-18.20000000000019
 20
-5.992999999999995
 30
0.0
 40
0.1999999999999991
100
AcDbArc
 50
269.9999881400139
 51
85.98369253237962
  0
LINE
  5
3D2
330
2E0
100
AcDbEntity
  8
050
100
AcDbLine
 10
-18.10915728752538
 20
-8.898000000000003
 30
0.0
 11
18.10915728752538
 21
-8.898000000000003
 31
0.0
  0
ARC
  5
3D3
330
2E0
100
AcDbEntity
  8
050
100
AcDbCircle
 10
18.10915728752538
 20
-8.69799999999992
 30
0.0
 40
0.2000000000000828
100
AcDbArc
 50
270.000000000002
 51
314.9999999999831
  0
ARC
  5
3D4
330
2E0
100
AcDbEntity
  8
050
100
AcDbCircle
 10
-18.10915728752538
 20
-8.69799999999992
 30
0.0
 40
0.2000000000000838
100
AcDbArc
 50
225.0000000000169
 51
269.999999999998
  0
LINE
  5
3D5
330
2E0
100
AcDbEntity
  8
050
100
AcDbLine
 10
-18.20000004139935
 20
-6.19299999999999
 30
0.0
 11
18.20000004139935
 21
-6.19299999999999
 31
0.0
  0
ARC
  5
3D6
330
2E0
100
AcDbEntity
  8
050
100
AcDbCircle
 10
18.20000000000001
 20
-6.392999999999974
 30
0.0
 40
0.1999999999999886
100
AcDbArc
 50
359.9999999999936
 51
89.99998813996095
  0
ARC
  5
3D7
330
2E0
100
AcDbEntity
  8
050
100
AcDbCircle
 10
-18.20000000000001
 20
-6.392999999999974
 30
0.0
 40
0.1999999999999885
100
AcDbArc
 50
90.00001186003905
 51
180.0000000000064
  0
LINE
  5
3D8
330
2E0
100
AcDbEntity
  8
050
100
AcDbLine
 10
-18.30000000000002
 20
-6.800000000000001
 30
0.0
 11
18.30000000000002
 21
-6.800000000000001
 31
0.0
  0
ARC
  5
3D9
330
2E0
100
AcDbEntity
  8
050
100
AcDbCircle
 10
18.3
 20
-6.700000000000004
 30
0.0
 40
0.099999999999997
100
AcDbArc
 50
270.0000000000102
 51
0.0000000000035622
  0
ARC
  5
3DA
330
2E0
100
AcDbEntity
  8
050
100
AcDbCircle
 10
-18.3
 20
-6.700000000000004
 30
0.0
 40
0.0999999999999979
100
AcDbArc
 50
179.9999999999964
 51
269.9999999999898
  0
LINE
  5
3DB
330
2E0
100
AcDbEntity
  8
050
100
AcDbLine
 10
18.4
 20
-6.699999999999998
 30
0.0
 11
18.4
 21
-6.392999999999996
 31
0.0
  0
LINE
  5
3DC
330
2E0
100
AcDbEntity
  8
050
100
AcDbLine
 10
-18.4
 20
-6.392999999999996
 30
0.0
 11
-18.4
 21
-6.699999999999998
 31
0.0
  0
LINE
  5
3DD
330
2E0
100
AcDbEntity
  8
050
100
AcDbLine
 10
-18.4
 20
-6.392999999999996
 30
0.0
 11
18.4
 21
-6.392999999999996
 31
0.0
  0
LINE
  5
3DE
330
2E0
100
AcDbEntity
  8
050
100
AcDbLine
 10
-18.4
 20
-6.699999999999998
 30
0.0
 11
18.4
 21
-6.699999999999998
 31
0.0
  0
LINE
  5
3DF
330
2E0
100
AcDbEntity
  8
050
100
AcDbLine
 10
18.3
 20
-3.600000000000006
 30
0.0
 11
-18.3
 21
-3.600000000000006
 31
0.0
  0
ARC
  5
3E0
330
2E0
100
AcDbEntity
  8
050
100
AcDbCircle
 10
18.3
 20
-3.700000000000012
 30
0.0
 40
0.100000000000005
100
AcDbArc
 50
0.0000000000096689
 51
90.0
  0
ARC
  5
3E1
330
2E0
100
AcDbEntity
  8
050
100
AcDbCircle
 10
-18.3
 20
-3.700000000000011
 30
0.0
 40
0.1000000000000054
100
AcDbArc
 50
90.0
 51
179.9999999999906
  0
LINE
  5
3E2
330
2E0
100
AcDbEntity
  8
050
100
AcDbLine
 10
-18.19999995860065
 20
-4.207000000000003
 30
0.0
 11
18.19999995860065
 21
-4.207000000000003
 31
0.0
  0
ARC
  5
3E3
330
2E0
100
AcDbEntity
  8
050
100
AcDbCircle
 10
18.20000000000003
 20
-4.007000000000023
 30
0.0
 40
0.1999999999999841
100
AcDbArc
 50
269.9999881399519
 51
0.0000000000073789
  0
ARC
  5
3E4
330
2E0
100
AcDbEntity
  8
050
100
AcDbCircle
 10
-18.20000000000003
 20
-4.007000000000023
 30
0.0
 40
0.1999999999999851
100
AcDbArc
 50
179.9999999999926
 51
270.0000118600481
  0
LINE
  5
3E5
330
2E0
100
AcDbEntity
  8
050
100
AcDbLine
 10
18.40000000000001
 20
-4.006999999999997
 30
0.0
 11
18.40000000000001
 21
-3.699999999999995
 31
0.0
  0
LINE
  5
3E6
330
2E0
100
AcDbEntity
  8
050
100
AcDbLine
 10
-18.40000000000001
 20
-3.699999999999995
 30
0.0
 11
-18.40000000000001
 21
-4.006999999999997
 31
0.0
  0
LINE
  5
3E7
330
2E0
100
AcDbEntity
  8
050
100
AcDbLine
 10
-18.40000000000001
 20
-3.699999999999995
 30
0.0
 11
18.40000000000001
 21
-3.699999999999995
 31
0.0
  0
LINE
  5
3E8
330
2E0
100
AcDbEntity
  8
050
100
AcDbLine
 10
-18.40000000000002
 20
-4.006999999999997
 30
0.0
 11
18.40000000000002
 21
-4.006999999999997
 31
0.0
  0
ARC
  5
3E9
330
2E0
100
AcDbEntity
  8
050
100
AcDbCircle
 10
18.55
 20
-1.61700000000001
 30
0.0
 40
0.9999999999999964
100
AcDbArc
 50
179.9999999999998
 51
268.9879852757923
  0
ARC
  5
3EA
330
2E0
100
AcDbEntity
  8
050
100
AcDbCircle
 10
-18.55
 20
-1.617000000000011
 30
0.0
 40
0.999999999999998
100
AcDbArc
 50
271.0120147242077
 51
0.0000000000001908
  0
LINE
  5
3EB
330
2E0
100
AcDbEntity
  8
050
100
AcDbLine
 10
-17.55000000000001
 20
-1.617000000000007
 30
0.0
 11
17.55000000000001
 21
-1.617000000000007
 31
0.0
  0
LINE
  5
3EC
330
2E0
100
AcDbEntity
  8
050
100
AcDbLine
 10
-18.29743994328382
 20
-6.800000000000001
 30
0.0
 11
-18.70058379982114
 21
-6.820654959785593
 31
0.0
  0
LINE
  5
3ED
330
2E0
100
AcDbEntity
  8
050
100
AcDbLine
 10
18.70058379982114
 20
-6.820654959785593
 30
0.0
 11
18.29743994328382
 21
-6.800000000000001
 31
0.0
  0
LINE
  5
3EE
330
2E0
100
AcDbEntity
  8
050
100
AcDbLine
 10
-18.29488324003577
 20
-6.799869008042872
 30
0.0
 11
18.29488324003577
 21
-6.799869008042872
 31
0.0
  0
LINE
  5
3EF
330
2E0
100
AcDbEntity
  8
050
100
AcDbLine
 10
18.2505786437627
 20
-8.839421356237331
 30
0.0
 11
19.0312586714815
 21
-8.05874132851854
 31
0.0
  0
LINE
  5
3F0
330
2E0
100
AcDbEntity
  8
050
100
AcDbLine
 10
-19.0312586714815
 20
-8.05874132851854
 30
0.0
 11
-18.2505786437627
 21
-8.839421356237331
 31
0.0
  0
LINE
  5
3F1
330
2E0
100
AcDbEntity
  8
050
100
AcDbLine
 10
-18.2505786437627
 20
-8.839421356237331
 30
0.0
 11
18.2505786437627
 21
-8.839421356237331
 31
0.0
  0
ARC
  5
3F2
330
2E0
100
AcDbEntity
  8
050
100
AcDbCircle
 10
18.88983731524401
 20
-7.917319972281152
 30
0.0
 40
0.2000000000001836
100
AcDbArc
 50
315.0000000000207
 51
351.5785882927071
  0
ARC
  5
3F3
330
2E0
100
AcDbEntity
  8
050
100
AcDbCircle
 10
-18.88983731524401
 20
-7.917319972281152
 30
0.0
 40
0.2000000000001841
100
AcDbArc
 50
188.4214117072929
 51
224.9999999999793
  0
LINE
  5
3F4
330
2E0
100
AcDbEntity
  8
050
100
AcDbLine
 10
-19.0312586714815
 20
-8.05874132851854
 30
0.0
 11
19.0312586714815
 21
-8.05874132851854
 31
0.0
  0
LINE
  5
3F5
330
2E0
100
AcDbEntity
  8
050
100
AcDbLine
 10
19.08768084963581
 20
-7.946610515113847
 30
0.0
 11
19.16960883597907
 21
-7.393226357081561
 31
0.0
  0
LINE
  5
3F6
330
2E0
100
AcDbEntity
  8
050
100
AcDbLine
 10
-19.16960883597907
 20
-7.393226357081561
 30
0.0
 11
-19.08768084963581
 21
-7.946610515113847
 31
0.0
  0
LINE
  5
3F7
330
2E0
100
AcDbEntity
  8
050
100
AcDbLine
 10
-19.08768084963581
 20
-7.946610515113847
 30
0.0
 11
19.08768084963581
 21
-7.946610515113847
 31
0.0
  0
ARC
  5
3F8
330
2E0
100
AcDbEntity
  8
050
100
AcDbCircle
 10
18.67499999999998
 20
-7.320000000000009
 30
0.0
 40
0.5000000000000252
100
AcDbArc
 50
351.5785882927214
 51
87.067031729962
  0
ARC
  5
3F9
330
2E0
100
AcDbEntity
  8
050
100
AcDbCircle
 10
-18.67499999999998
 20
-7.320000000000005
 30
0.0
 40
0.5000000000000212
100
AcDbArc
 50
92.93296827003765
 51
188.4214117072792
  0
LINE
  5
3FA
330
2E0
100
AcDbEntity
  8
050
100
AcDbLine
 10
-19.16960883597907
 20
-7.393226357081561
 30
0.0
 11
19.16960883597907
 21
-7.393226357081561
 31
0.0
  0
LINE
  5
3FB
330
2E0
100
AcDbEntity
  8
050
100
AcDbLine
 10
-18.70058379982114
 20
-6.820654959785593
 30
0.0
 11
18.70058379982114
 21
-6.820654959785593
 31
0.0
  0
LINE
  5
3FC
330
2E0
100
AcDbEntity
  8
050
100
AcDbLine
 10
-18.53233792938962
 20
-2.616844013464986
 30
0.0
 11
-19.50706482824415
 21
-2.634062394614014
 31
0.0
  0
LINE
  5
3FD
330
2E0
100
AcDbEntity
  8
050
100
AcDbLine
 10
19.50706482824415
 20
-2.634062394614014
 30
0.0
 11
18.53233792938962
 21
-2.616844013464986
 31
0.0
  0
LINE
  5
3FE
330
2E0
100
AcDbEntity
  8
050
100
AcDbLine
 10
-18.53233792938962
 20
-2.616844013464986
 30
0.0
 11
18.53233792938962
 21
-2.616844013464986
 31
0.0
  0
LINE
  5
3FF
330
2E0
100
AcDbEntity
  8
050
100
AcDbLine
 10
18.18599192068021
 20
-5.79349116883264
 30
0.0
 11
19.53502019829948
 21
-5.698772077918413
 31
0.0
  0
LINE
  5
400
330
2E0
100
AcDbEntity
  8
050
100
AcDbLine
 10
-19.53502019829948
 20
-5.698772077918413
 30
0.0
 11
-18.18599192068021
 21
-5.79349116883264
 31
0.0
  0
LINE
  5
401
330
2E0
100
AcDbEntity
  8
050
100
AcDbLine
 10
-18.18599192068021
 20
-5.79349116883264
 30
0.0
 11
18.18599192068021
 21
-5.79349116883264
 31
0.0
  0
LINE
  5
402
330
2E0
100
AcDbEntity
  8
050
100
AcDbLine
 10
-18.18599192068022
 20
-4.606508831167353
 30
0.0
 11
-19.53502019829948
 21
-4.70122792208158
 31
0.0
  0
LINE
  5
403
330
2E0
100
AcDbEntity
  8
050
100
AcDbLine
 10
19.53502019829948
 20
-4.70122792208158
 30
0.0
 11
18.18599192068022
 21
-4.606508831167353
 31
0.0
  0
LINE
  5
404
330
2E0
100
AcDbEntity
  8
050
100
AcDbLine
 10
-18.18599192068022
 20
-4.606508831167353
 30
0.0
 11
18.18599192068022
 21
-4.606508831167353
 31
0.0
  0
LINE
  5
405
330
2E0
100
AcDbEntity
  8
050
100
AcDbLine
 10
18.29743994328354
 20
-3.600000000000006
 30
0.0
 11
19.66611440986726
 21
-3.529876356520259
 31
0.0
  0
LINE
  5
406
330
2E0
100
AcDbEntity
  8
050
100
AcDbLine
 10
-19.66611440986726
 20
-3.529876356520259
 30
0.0
 11
-18.29743994328354
 21
-3.600000000000006
 31
0.0
  0
LINE
  5
407
330
2E0
100
AcDbEntity
  8
050
100
AcDbLine
 10
-18.29488324003577
 20
-3.60013099195712
 30
0.0
 11
18.29488324003577
 21
-3.60013099195712
 31
0.0
  0
ARC
  5
408
330
2E0
100
AcDbEntity
  8
050
100
AcDbCircle
 10
19.49999999999999
 20
-3.166000000000011
 30
0.0
 40
0.4000000000000032
100
AcDbArc
 50
294.5373301084239
 51
0.0000000000013358
  0
ARC
  5
409
330
2E0
100
AcDbEntity
  8
050
100
AcDbCircle
 10
-19.49999999999999
 20
-3.166000000000011
 30
0.0
 40
0.4000000000000057
100
AcDbArc
 50
179.9999999999987
 51
245.462669891576
  0
LINE
  5
40A
330
2E0
100
AcDbEntity
  8
050
100
AcDbLine
 10
-19.66611440986726
 20
-3.529876356520259
 30
0.0
 11
19.66611440986726
 21
-3.529876356520259
 31
0.0
  0
LINE
  5
40B
330
2E0
100
AcDbEntity
  8
050
100
AcDbLine
 10
19.9
 20
-3.166000000000002
 30
0.0
 11
19.9
 21
-3.034000000000009
 31
0.0
  0
LINE
  5
40C
330
2E0
100
AcDbEntity
  8
050
100
AcDbLine
 10
-19.9
 20
-3.034000000000009
 30
0.0
 11
-19.9
 21
-3.166000000000002
 31
0.0
  0
LINE
  5
40D
330
2E0
100
AcDbEntity
  8
050
100
AcDbLine
 10
-19.9
 20
-3.166000000000002
 30
0.0
 11
19.9
 21
-3.166000000000002
 31
0.0
  0
ARC
  5
40E
330
2E0
100
AcDbEntity
  8
050
100
AcDbCircle
 10
19.50000000000002
 20
-3.033999999999988
 30
0.0
 40
0.3999999999999808
100
AcDbArc
 50
359.9999999999971
 51
88.98798527579478
  0
ARC
  5
40F
330
2E0
100
AcDbEntity
  8
050
100
AcDbCircle
 10
-19.50000000000002
 20
-3.033999999999988
 30
0.0
 40
0.3999999999999825
100
AcDbArc
 50
91.01201472420523
 51
180.0000000000029
  0
LINE
  5
410
330
2E0
100
AcDbEntity
  8
050
100
AcDbLine
 10
-19.9
 20
-3.034000000000009
 30
0.0
 11
19.9
 21
-3.034000000000009
 31
0.0
  0
LINE
  5
411
330
2E0
100
AcDbEntity
  8
050
100
AcDbLine
 10
-19.50706482824415
 20
-2.634062394614014
 30
0.0
 11
19.50706482824415
 21
-2.634062394614014
 31
0.0
  0
ARC
  5
412
330
2E0
100
AcDbEntity
  8
050
100
AcDbCircle
 10
19.49999999999985
 20
-5.199999999999998
 30
0.0
 40
0.4999999999999991
100
AcDbArc
 50
274.0163074675815
 51
85.98369253241803
  0
ARC
  5
413
330
2E0
100
AcDbEntity
  8
050
100
AcDbCircle
 10
-19.49999999999985
 20
-5.199999999999998
 30
0.0
 40
0.5000000000000011
100
AcDbArc
 50
94.01630746758198
 51
265.9836925324184
  0
LINE
  5
414
330
2E0
100
AcDbEntity
  8
050
100
AcDbLine
 10
-19.53502019829948
 20
-5.698772077918413
 30
0.0
 11
19.53502019829948
 21
-5.698772077918413
 31
0.0
  0
LINE
  5
415
330
2E0
100
AcDbEntity
  8
050
100
AcDbLine
 10
-19.53502019829948
 20
-4.70122792208158
 30
0.0
 11
19.53502019829948
 21
-4.70122792208158
 31
0.0
  0
LINE
  5
416
330
2E0
100
AcDbEntity
  8
050
100
AcDbLine
 10
-31.66244343832998
 20
-0.4060000000000036
 30
0.0
 11
31.66244343832998
 21
-0.4060000000000036
 31
0.0
  0
ARC
  5
417
330
2E0
100
AcDbEntity
  8
050
100
AcDbCircle
 10
31.66244343833012
 20
0.5939999999991662
 30
0.0
 40
0.9999999999991698
100
AcDbArc
 50
269.999999999992
 51
294.0000000000119
  0
ARC
  5
418
330
2E0
100
AcDbEntity
  8
050
100
AcDbCircle
 10
-31.66244343833011
 20
0.5939999999992436
 30
0.0
 40
0.9999999999992467
100
AcDbArc
 50
245.9999999999895
 51
270.0000000000075
  0
ARC
  5
419
330
2E0
100
AcDbEntity
  8
050
100
AcDbCircle
 10
-0.0000000000015774
 20
-495.952000000041
 30
0.0
 40
500.0000000000409
100
AcDbArc
 50
86.1472288736855
 51
93.85277112631452
  0
ARC
  5
41A
330
2E0
100
AcDbEntity
  8
050
100
AcDbCircle
 10
33.58300000000004
 20
2.718454419549557
 30
0.0
 40
0.1999999999999487
100
AcDbArc
 50
52.21571614638952
 51
86.1472288736964
  0
ARC
  5
41B
330
2E0
100
AcDbEntity
  8
050
100
AcDbCircle
 10
-33.58300000000004
 20
2.718454419549557
 30
0.0
 40
0.1999999999999535
100
AcDbArc
 50
93.85277112630361
 51
127.7842838536105
  0
LINE
  5
41C
330
2E0
100
AcDbEntity
  8
050
100
AcDbLine
 10
-33.59643857543017
 20
2.918002420517721
 30
0.0
 11
33.59643857543017
 21
2.918002420517721
 31
0.0
  0
LINE
  5
41D
330
2E0
100
AcDbEntity
  8
050
100
AcDbLine
 10
34.2
 20
2.876519039976253
 30
0.0
 11
-34.2
 21
2.876519039976253
 31
0.0
  0
ARC
  5
41E
330
2E0
100
AcDbEntity
  8
050
100
AcDbCircle
 10
34.19999999999993
 20
2.676519039973996
 30
0.0
 40
0.2000000000022536
100
AcDbArc
 50
86.07633440296254
 51
89.99999999997965
  0
ARC
  5
41F
330
2E0
100
AcDbEntity
  8
050
100
AcDbCircle
 10
-34.19999999999993
 20
2.676519039973996
 30
0.0
 40
0.2000000000022566
100
AcDbArc
 50
90.00000000002036
 51
93.92366559703744
  0
LINE
  5
420
330
2E0
100
AcDbEntity
  8
050
100
AcDbLine
 10
-34.21368547418978
 20
2.876050260080296
 30
0.0
 11
34.21368547418663
 21
2.876050260080296
 31
0.0
  0
ARC
  5
421
330
2E0
100
AcDbEntity
  8
050
100
AcDbCircle
 10
35.43199929714947
 20
2.590489087747463
 30
0.0
 40
0.2000000000000141
100
AcDbArc
 50
42.17386485669225
 51
85.93478038294856
  0
ARC
  5
422
330
2E0
100
AcDbEntity
  8
050
100
AcDbCircle
 10
-35.43199929714947
 20
2.590489087747463
 30
0.0
 40
0.2000000000000114
100
AcDbArc
 50
94.06521961705144
 51
137.8261351433078
  0
LINE
  5
423
330
2E0
100
AcDbEntity
  8
050
100
AcDbLine
 10
-35.44617768765477
 20
2.789985887828777
 30
0.0
 11
35.44617768765477
 21
2.789985887828777
 31
0.0
  0
LINE
  5
424
330
2E0
100
AcDbEntity
  8
050
100
AcDbLine
 10
32.06918008140578
 20
-0.3195454576425949
 30
0.0
 11
35.77202099292275
 21
1.329065533298757
 31
0.0
  0
LINE
  5
425
330
2E0
100
AcDbEntity
  8
050
100
AcDbLine
 10
-35.77202099292275
 20
1.329065533298757
 30
0.0
 11
-32.06918008140578
 21
-0.3195454576425949
 31
0.0
  0
LINE
  5
426
330
2E0
100
AcDbEntity
  8
050
100
AcDbLine
 10
-32.06918008140578
 20
-0.3195454576425949
 30
0.0
 11
32.06918008140578
 21
-0.3195454576425949
 31
0.0
  0
ARC
  5
427
330
2E0
100
AcDbEntity
  8
050
100
AcDbCircle
 10
35.65000000000006
 20
1.603129170591504
 30
0.0
 40
0.2999999999999506
100
AcDbArc
 50
293.9999999999943
 51
0.0000000000086935
  0
ARC
  5
428
330
2E0
100
AcDbEntity
  8
050
100
AcDbCircle
 10
-35.65000000000006
 20
1.603129170591504
 30
0.0
 40
0.2999999999999474
100
AcDbArc
 50
179.9999999999913
 51
246.0000000000058
  0
LINE
  5
429
330
2E0
100
AcDbEntity
  8
050
100
AcDbLine
 10
-35.77202099292275
 20
1.329065533298757
 30
0.0
 11
35.77202099292275
 21
1.329065533298757
 31
0.0
  0
LINE
  5
42A
330
2E0
100
AcDbEntity
  8
050
100
AcDbLine
 10
35.95
 20
1.60312917059155
 30
0.0
 11
35.95
 21
1.799999999999996
 31
0.0
  0
LINE
  5
42B
330
2E0
100
AcDbEntity
  8
050
100
AcDbLine
 10
-35.95
 20
1.799999999999996
 30
0.0
 11
-35.95
 21
1.60312917059155
 31
0.0
  0
LINE
  5
42C
330
2E0
100
AcDbEntity
  8
050
100
AcDbLine
 10
-35.95
 20
1.60312917059155
 30
0.0
 11
35.95
 21
1.60312917059155
 31
0.0
  0
ARC
  5
42D
330
2E0
100
AcDbEntity
  8
050
100
AcDbCircle
 10
34.09800000000018
 20
1.382000000000093
 30
0.0
 40
1.999999999999795
100
AcDbArc
 50
18.99349110149589
 51
42.173880224618
  0
ARC
  5
42E
330
2E0
100
AcDbEntity
  8
050
100
AcDbCircle
 10
-34.09800000000024
 20
1.382000000000136
 30
0.0
 40
1.999999999999728
100
AcDbArc
 50
137.8261197753819
 51
161.0065088985048
  0
LINE
  5
42F
330
2E0
100
AcDbEntity
  8
050
100
AcDbLine
 10
-35.58022148129472
 20
2.724765608879104
 30
0.0
 11
35.58022148129472
 21
2.724765608879104
 31
0.0
  0
ARC
  5
430
330
2E0
100
AcDbEntity
  8
050
100
AcDbCircle
 10
35.80000000000011
 20
1.967829326681449
 30
0.0
 40
0.1999999999998963
100
AcDbArc
 50
359.9999999999885
 51
18.99349262017635
  0
ARC
  5
431
330
2E0
100
AcDbEntity
  8
050
100
AcDbCircle
 10
-35.80000000000011
 20
1.967829326681449
 30
0.0
 40
0.1999999999998971
100
AcDbArc
 50
161.0065073798237
 51
180.0000000000116
  0
LINE
  5
432
330
2E0
100
AcDbEntity
  8
050
100
AcDbLine
 10
-35.98911110919409
 20
2.032921479659985
 30
0.0
 11
35.98911110919409
 21
2.032921479659985
 31
0.0
  0
LINE
  5
433
330
2E0
100
AcDbEntity
  8
050
100
AcDbLine
 10
36.00000000000001
 20
1.799999999999996
 30
0.0
 11
36.00000000000001
 21
1.967829326681408
 31
0.0
  0
LINE
  5
434
330
2E0
100
AcDbEntity
  8
050
100
AcDbLine
 10
-36.00000000000001
 20
1.967829326681408
 30
0.0
 11
-36.00000000000001
 21
1.799999999999996
 31
0.0
  0
LINE
  5
435
330
2E0
100
AcDbEntity
  8
050
100
AcDbLine
 10
-36.00000000000001
 20
1.967829326681408
 30
0.0
 11
36.00000000000001
 21
1.967829326681408
 31
0.0
  0
LINE
  5
436
330
2E0
100
AcDbEntity
  8
050
100
AcDbLine
 10
-36.00000000000001
 20
1.799999999999996
 30
0.0
 11
36.00000000000001
 21
1.799999999999996
 31
0.0
  0
ENDBLK
  5
2E3
330
2E0
100
AcDbEntity
  8
0
100
AcDbBlockEnd
  0
ENDSEC
  0
SECTION
  2
ENTITIES
  0
ATTDEF
  5
6F
330
1F
100
AcDbEntity
  8
ATTR
100
AcDbText
 10
41.00000000000001
 20
146.131
 30
0.0
 40
0.5
  1
150300
100
AcDbAttributeDefinition
  3

  2
NB
 70
     8
  0
ATTDEF
  5
70
330
1F
100
AcDbEntity
  8
ATTR
100
AcDbText
 10
41.00000000000001
 20
145.631
 30
0.0
 40
0.5
  1
RTFset BD 52-12, split
100
AcDbAttributeDefinition
  3

  2
NN
 70
     8
  0
ATTDEF
  5
71
330
1F
100
AcDbEntity
  8
ATTR
100
AcDbText
 10
41.00000000000001
 20
145.131
 30
0.0
 40
0.5
  1

100
AcDbAttributeDefinition
  3

  2
NT
 70
     8
  0
ATTDEF
  5
72
330
1F
100
AcDbEntity
  8
ATTR
100
AcDbText
 10
41.00000000000001
 20
144.631
 30
0.0
 40
0.5
  1
$ARTNRTX.
100
AcDbAttributeDefinition
  3

  2
NBSYN
 70
     8
  0
ATTDEF
  5
73
330
1F
100
AcDbEntity
  8
ATTR
100
AcDbText
 10
41.00000000000001
 20
144.131
 30
0.0
 40
0.5
  1
150300
100
AcDbAttributeDefinition
  3

  2
LINA
 70
     8
  0
ATTDEF
  5
74
330
1F
100
AcDbEntity
  8
ATTR
100
AcDbText
 10
41.00000000000001
 20
143.631
 30
0.0
 40
0.5
  1
GEBERIT
100
AcDbAttributeDefinition
  3

  2
CATALOG
 70
     8
  0
ATTDEF
  5
75
330
1F
100
AcDbEntity
  8
ATTR
100
AcDbText
 10
41.00000000000001
 20
143.131
 30
0.0
 40
0.5
  1
150.300.KJ.1
100
AcDbAttributeDefinition
  3

  2
ARTNRT
 70
     8
  0
ATTDEF
  5
76
330
1F
100
AcDbEntity
  8
ATTR
100
AcDbText
 10
41.00000000000001
 20
142.631
 30
0.0
 40
0.5
  1
geberit
100
AcDbAttributeDefinition
  3

  2
COMPANY
 70
     8
  0
ATTDEF
  5
77
330
1F
100
AcDbEntity
  8
ATTR
100
AcDbText
 10
41.00000000000001
 20
142.131
 30
0.0
 40
0.5
  1
{$CADENAS_DATA\23d-libs\geberit\waste_fitting\fur_badewannen\zubehor\275_waste_bd_asmtab.prj},182 {VTYP=3D},{STYP=ASSTAB},{NB=150300},{LINA=150300},{NN=RTFset BD 52-12, split},{DATE=19.07.2021 11:12:09},{GEOMDATE=19.07.2021 09:38:02},{VERSION=},{LINEID=10
100
AcDbAttributeDefinition
  3

  2
PSOL_0
 70
     9
  0
ATTDEF
  5
78
330
1F
100
AcDbEntity
  8
ATTR
100
AcDbText
 10
41.00000000000001
 20
141.631
 30
0.0
 40
0.5
  1
},{WBVAR=},{WBNUMERIC=}  {NB=150300},{LINA=150300},{KT=DUMMY},{ARTNRT=150.300.KJ.1},{ARTNRTX=150300},{PPATH=parts/275_waste_bd_asmtpl.prj}
100
AcDbAttributeDefinition
  3

  2
PSOL_1
 70
     9
  0
INSERT
  5
7A
330
1F
100
AcDbEntity
  8
0
100
AcDbBlockReference
  2
1_893_735_scheibe_0_in_150300_0
 10
0.0
 20
0.0
 30
0.0
  0
INSERT
  5
C0
330
1F
100
AcDbEntity
  8
0
100
AcDbBlockReference
  2
2_893_735_mitnehmer_0_in_150300_0
 10
0.0
 20
0.0
 30
0.0
  0
INSERT
  5
198
330
1F
100
AcDbEntity
  8
0
100
AcDbBlockReference
  2
3_893_735_metallrosette_0_in_150300_0
 10
0.0
 20
0.0
 30
0.0
  0
INSERT
  5
206
330
1F
100
AcDbEntity
  8
0
100
AcDbBlockReference
  2
4_893_743_0_in_150300_0
 10
0.0
 20
0.0
 30
0.0
  0
INSERT
  5
2E1
330
1F
100
AcDbEntity
  8
0
100
AcDbBlockReference
  2
5_893_741_0_in_150300_0
 10
0.0
 20
0.0
 30
0.0
  0
POINT
  5
438
102
{ACAD_XDICTIONARY
360
439
102
}
330
1F
100
AcDbEntity
  8
2d ConnectionPoints
100
AcDbPoint
 10
-85.149
 20
100.0
 30
0.0
  0
POINT
  5
43B
102
{ACAD_XDICTIONARY
360
43C
102
}
330
1F
100
AcDbEntity
  8
2d ConnectionPoints
100
AcDbPoint
 10
-85.149
 20
100.0
 30
0.0
  0
POINT
  5
43E
102
{ACAD_XDICTIONARY
360
43F
102
}
330
1F
100
AcDbEntity
  8
2d ConnectionPoints
100
AcDbPoint
 10
-100.0
 20
100.0
 30
0.0
  0
POINT
  5
441
102
{ACAD_XDICTIONARY
360
442
102
}
330
1F
100
AcDbEntity
  8
2d ConnectionPoints
100
AcDbPoint
 10
0.0
 20
-73.7
 30
0.0
  0
POINT
  5
444
102
{ACAD_XDICTIONARY
360
445
102
}
330
1F
100
AcDbEntity
  8
2d ConnectionPoints
100
AcDbPoint
 10
0.0
 20
26.29999999999998
 30
0.0
  0
ENDSEC
  0
SECTION
  2
OBJECTS
  0
DICTIONARY
  5
C
330
0
100
AcDbDictionary
281
     1
  3
ACAD_DETAILVIEWSTYLE
350
48C
  3
ACAD_GROUP
350
D
  3
ACAD_LAYOUT
350
1A
  3
ACAD_MATERIAL
350
43
  3
ACAD_MLEADERSTYLE
350
6B
  3
ACAD_MLINESTYLE
350
17
  3
ACAD_PLOTSETTINGS
350
19
  3
ACAD_PLOTSTYLENAME
350
E
  3
ACAD_SCALELIST
350
47
  3
ACAD_SECTIONVIEWSTYLE
350
48D
  3
ACAD_TABLESTYLE
350
69
  3
ACAD_VISUALSTYLE
350
2A
  3
ACDB_RECOMPOSE_DATA
350
489
  3
AcDbVariableDictionary
350
449
  0
DICTIONARY
  5
447
330
8
100
AcDbDictionary
280
     1
281
     1
  3
ACAD_XREC_ROUNDTRIP
360
448
  0
DICTIONARY
  5
439
330
438
100
AcDbDictionary
280
     1
281
     1
  3
ELECTRICDATA
360
43A
  0
DICTIONARY
  5
43C
330
43B
100
AcDbDictionary
280
     1
281
     1
  3
ELECTRICDATA
360
43D
  0
DICTIONARY
  5
43F
330
43E
100
AcDbDictionary
280
     1
281
     1
  3
ELECTRICDATA
360
440
  0
DICTIONARY
  5
442
330
441
100
AcDbDictionary
280
     1
281
     1
  3
ELECTRICDATA
360
443
  0
DICTIONARY
  5
445
330
444
100
AcDbDictionary
280
     1
281
     1
  3
ELECTRICDATA
360
446
  0
DICTIONARY
  5
48C
102
{ACAD_REACTORS
330
C
102
}
330
C
100
AcDbDictionary
281
     1
  0
DICTIONARY
  5
D
102
{ACAD_REACTORS
330
C
102
}
330
C
100
AcDbDictionary
281
     1
  0
DICTIONARY
  5
1A
102
{ACAD_REACTORS
330
C
102
}
330
C
100
AcDbDictionary
281
     1
  3
Layout1
350
1E
  3
Layout2
350
26
  3
Model
350
22
  0
DICTIONARY
  5
43
102
{ACAD_REACTORS
330
C
102
}
330
C
100
AcDbDictionary
281
     1
  3
ByBlock
350
45
  3
ByLayer
350
44
  3
Global
350
46
  0
DICTIONARY
  5
6B
102
{ACAD_REACTORS
330
C
102
}
330
C
100
AcDbDictionary
281
     1
  3
Standard
350
6C
  0
DICTIONARY
  5
17
102
{ACAD_REACTORS
330
C
102
}
330
C
100
AcDbDictionary
281
     1
  3
Standard
350
18
  0
DICTIONARY
  5
19
102
{ACAD_REACTORS
330
C
102
}
330
C
100
AcDbDictionary
281
     1
  0
ACDBDICTIONARYWDFLT
  5
E
102
{ACAD_REACTORS
330
C
102
}
330
C
100
AcDbDictionary
281
     1
  3
Normal
350
F
100
AcDbDictionaryWithDefault
340
F
  0
DICTIONARY
  5
47
102
{ACAD_REACTORS
330
C
102
}
330
C
100
AcDbDictionary
281
     1
  3
A0
350
48
  3
A1
350
49
  3
A2
350
4A
  3
A3
350
4B
  3
A4
350
4C
  3
A5
350
4D
  3
A6
350
4E
  3
A7
350
4F
  3
A8
350
50
  3
A9
350
51
  3
B0
350
52
  3
B1
350
53
  3
B2
350
54
  3
B3
350
55
  3
B4
350
56
  3
B5
350
57
  3
B6
350
58
  3
B7
350
59
  3
B8
350
5A
  3
B9
350
5B
  3
C0
350
5C
  3
C1
350
5D
  3
C2
350
5E
  3
C3
350
5F
  3
C4
350
60
  3
C5
350
61
  3
C6
350
62
  3
C7
350
63
  3
C8
350
64
  3
C9
350
65
  3
D0
350
66
  3
D1
350
67
  3
D2
350
68
  0
DICTIONARY
  5
48D
102
{ACAD_REACTORS
330
C
102
}
330
C
100
AcDbDictionary
281
     1
  0
DICTIONARY
  5
69
102
{ACAD_REACTORS
330
C
102
}
330
C
100
AcDbDictionary
281
     1
  3
Standard
350
6A
  0
DICTIONARY
  5
2A
102
{ACAD_REACTORS
330
C
102
}
330
C
100
AcDbDictionary
281
     1
  3
2dWireframe
350
2F
  3
Basic
350
32
  3
Brighten
350
36
  3
ColorChange
350
3A
  3
Conceptual
350
34
  3
Dim
350
35
  3
EdgeColorOff
350
3D
  3
Facepattern
350
39
  3
Flat
350
2B
  3
FlatWithEdges
350
2C
  3
Gouraud
350
2D
  3
GouraudWithEdges
350
2E
  3
Hidden
350
31
  3
JitterOff
350
3B
  3
Linepattern
350
38
  3
OverhangOff
350
3C
  3
Realistic
350
33
  3
Shaded
350
42
  3
Shaded with edges
350
41
  3
Shades of Gray
350
3E
  3
Sketchy
350
3F
  3
Thicken
350
37
  3
Wireframe
350
30
  3
X-Ray
350
40
  0
XRECORD
  5
489
102
{ACAD_REACTORS
330
C
102
}
330
C
100
AcDbXrecord
280
     1
 90
        1
330
6A
  0
DICTIONARY
  5
449
102
{ACAD_REACTORS
330
C
102
}
330
C
100
AcDbDictionary
281
     1
  3
CANNOSCALE
350
44A
  3
CMLEADERSTYLE
350
48B
  3
CTABLESTYLE
350
48A
  3
MSLTSCALE
350
44B
  3
SECTIONTHICKNESSINC
350
48E
  3
XCLIPFRAME
350
44C
  0
XRECORD
  5
448
102
{ACAD_REACTORS
330
447
102
}
330
447
100
AcDbXrecord
280
     1
102
VTR_0.000_0.000_1.000_1.000_VISUALSTYLE
340
2F
102
VTR_0.000_0.000_1.000_1.000_GRIDDISPLAY
 70
     3
102
VTR_0.000_0.000_1.000_1.000_GRIDMAJOR
 70
     5
102
VTR_0.000_0.000_1.000_1.000_DEFAULTLIGHTING
280
     1
102
VTR_0.000_0.000_1.000_1.000_DEFAULTLIGHTINGTYPE
 70
     1
102
VTR_0.000_0.000_1.000_1.000_BRIGHTNESS
141
0.0
102
VTR_0.000_0.000_1.000_1.000_CONTRAST
142
0.0
  0
XRECORD
  5
43A
102
{ACAD_REACTORS
330
439
102
}
330
439
100
AcDbXrecord
280
     1
  1
NAME
  1
IP
  0
XRECORD
  5
43D
102
{ACAD_REACTORS
330
43C
102
}
330
43C
100
AcDbXrecord
280
     1
  1
NAME
  1
IP
  0
XRECORD
  5
440
102
{ACAD_REACTORS
330
43F
102
}
330
43F
100
AcDbXrecord
280
     1
  1
NAME
  1
IP
  0
XRECORD
  5
443
102
{ACAD_REACTORS
330
442
102
}
330
442
100
AcDbXrecord
280
     1
  1
NAME
  1
IP
  0
XRECORD
  5
446
102
{ACAD_REACTORS
330
445
102
}
330
445
100
AcDbXrecord
280
     1
  1
NAME
  1
IP_1
  0
LAYOUT
  5
1E
102
{ACAD_REACTORS
330
1A
102
}
330
1A
100
AcDbPlotSettings
  1

  2
none_device
  4

  6

 40
0.0
 41
0.0
 42
0.0
 43
0.0
 44
0.0
 45
0.0
 46
0.0
 47
0.0
 48
0.0
 49
0.0
140
0.0
141
0.0
142
1.0
143
1.0
 70
   688
 72
     1
 73
     0
 74
     5
  7

 75
    16
 76
     0
 77
     2
 78
   300
147
1.0
148
0.0
149
0.0
100
AcDbLayout
  1
Layout1
 70
     1
 71
     1
 10
0.0
 20
0.0
 11
420.0
 21
297.0
 12
0.0
 22
0.0
 32
0.0
 14
1.000000000000000E+20
 24
1.000000000000000E+20
 34
1.000000000000000E+20
 15
-1.000000000000000E+20
 25
-1.000000000000000E+20
 35
-1.000000000000000E+20
146
0.0
 13
0.0
 23
0.0
 33
0.0
 16
1.0
 26
0.0
 36
0.0
 17
0.0
 27
1.0
 37
0.0
 76
     0
330
1B
  0
LAYOUT
  5
26
102
{ACAD_REACTORS
330
1A
102
}
330
1A
100
AcDbPlotSettings
  1

  2
none_device
  4

  6

 40
0.0
 41
0.0
 42
0.0
 43
0.0
 44
0.0
 45
0.0
 46
0.0
 47
0.0
 48
0.0
 49
0.0
140
0.0
141
0.0
142
1.0
143
1.0
 70
   688
 72
     1
 73
     0
 74
     5
  7

 75
    16
 76
     0
 77
     2
 78
   300
147
1.0
148
0.0
149
0.0
100
AcDbLayout
  1
Layout2
 70
     1
 71
     2
 10
0.0
 20
0.0
 11
0.0
 21
0.0
 12
0.0
 22
0.0
 32
0.0
 14
0.0
 24
0.0
 34
0.0
 15
0.0
 25
0.0
 35
0.0
146
0.0
 13
0.0
 23
0.0
 33
0.0
 16
1.0
 26
0.0
 36
0.0
 17
0.0
 27
1.0
 37
0.0
 76
     0
330
23
  0
LAYOUT
  5
22
102
{ACAD_REACTORS
330
1A
102
}
330
1A
100
AcDbPlotSettings
  1

  2
none_device
  4
Letter_(8.50_x_11.00_Inches)
  6

 40
6.35
 41
6.35
 42
6.35000508
 43
6.35000508
 44
215.9
 45
279.4
 46
0.0
 47
0.0
 48
0.0
 49
0.0
140
0.0
141
0.0
142
1.0
143
1.0
 70
  1712
 72
     1
 73
     0
 74
     0
  7

 75
     0
 76
     0
 77
     2
 78
   300
147
1.0
148
0.0
149
0.0
100
AcDbLayout
  1
Model
 70
     1
 71
     0
 10
0.0
 20
0.0
 11
420.0
 21
297.0
 12
0.0
 22
0.0
 32
0.0
 14
1.000000000000000E+20
 24
1.000000000000000E+20
 34
1.000000000000000E+20
 15
-1.000000000000000E+20
 25
-1.000000000000000E+20
 35
-1.000000000000000E+20
146
0.0
 13
0.0
 23
0.0
 33
0.0
 16
1.0
 26
0.0
 36
0.0
 17
0.0
 27
1.0
 37
0.0
 76
     0
330
1F
331
29
  0
MATERIAL
  5
45
102
{ACAD_REACTORS
330
43
102
}
102
{ACAD_XDICTIONARY
360
47F
102
}
330
43
100
AcDbMaterial
  1
ByBlock
  0
MATERIAL
  5
44
102
{ACAD_REACTORS
330
43
102
}
102
{ACAD_XDICTIONARY
360
47D
102
}
330
43
100
AcDbMaterial
  1
ByLayer
  0
MATERIAL
  5
46
102
{ACAD_REACTORS
330
43
102
}
102
{ACAD_XDICTIONARY
360
481
102
}
330
43
100
AcDbMaterial
  1
Global
  0
MLEADERSTYLE
  5
6C
102
{ACAD_REACTORS
330
6B
102
}
102
{ACAD_XDICTIONARY
360
487
102
}
330
6B
100
AcDbMLeaderStyle
170
     2
171
     1
172
     0
 90
        2
 40
0.0
 41
0.0
173
     1
 91
-1056964608
340
14
 92
       -2
290
     1
 42
2.0
291
     1
 43
8.0
  3
Standard
341
0
 44
4.0
300

342
11
174
     1
178
     6
175
     1
176
     0
 93
-1056964608
 45
4.0
292
     0
297
     0
 46
4.0
343
0
 94
-1056964608
 47
1.0
 49
1.0
140
1.0
293
     1
141
0.0
294
     1
177
     0
142
1.0
295
     0
296
     0
143
3.75
1001
ACAD_MLEADERVER
1070
     2
  0
MLINESTYLE
  5
18
102
{ACAD_REACTORS
330
17
102
}
330
17
100
AcDbMlineStyle
  2
Standard
 70
     0
  3

 62
   256
 51
90.0
 52
90.0
 71
     2
 49
0.5
 62
   256
  6
BYLAYER
 49
-0.5
 62
   256
  6
BYLAYER
  0
ACDBPLACEHOLDER
  5
F
102
{ACAD_REACTORS
330
E
102
}
330
E
  0
SCALE
  5
48
102
{ACAD_REACTORS
330
47
102
}
330
47
100
AcDbScale
 70
     0
300
1:1
140
1.0
141
1.0
290
     1
  0
SCALE
  5
49
102
{ACAD_REACTORS
330
47
102
}
330
47
100
AcDbScale
 70
     0
300
1:2
140
1.0
141
2.0
290
     0
  0
SCALE
  5
4A
102
{ACAD_REACTORS
330
47
102
}
330
47
100
AcDbScale
 70
     0
300
1:4
140
1.0
141
4.0
290
     0
  0
SCALE
  5
4B
102
{ACAD_REACTORS
330
47
102
}
330
47
100
AcDbScale
 70
     0
300
1:5
140
1.0
141
5.0
290
     0
  0
SCALE
  5
4C
102
{ACAD_REACTORS
330
47
102
}
330
47
100
AcDbScale
 70
     0
300
1:8
140
1.0
141
8.0
290
     0
  0
SCALE
  5
4D
102
{ACAD_REACTORS
330
47
102
}
330
47
100
AcDbScale
 70
     0
300
1:10
140
1.0
141
10.0
290
     0
  0
SCALE
  5
4E
102
{ACAD_REACTORS
330
47
102
}
330
47
100
AcDbScale
 70
     0
300
1:16
140
1.0
141
16.0
290
     0
  0
SCALE
  5
4F
102
{ACAD_REACTORS
330
47
102
}
330
47
100
AcDbScale
 70
     0
300
1:20
140
1.0
141
20.0
290
     0
  0
SCALE
  5
50
102
{ACAD_REACTORS
330
47
102
}
330
47
100
AcDbScale
 70
     0
300
1:30
140
1.0
141
30.0
290
     0
  0
SCALE
  5
51
102
{ACAD_REACTORS
330
47
102
}
330
47
100
AcDbScale
 70
     0
300
1:40
140
1.0
141
40.0
290
     0
  0
SCALE
  5
52
102
{ACAD_REACTORS
330
47
102
}
330
47
100
AcDbScale
 70
     0
300
1:50
140
1.0
141
50.0
290
     0
  0
SCALE
  5
53
102
{ACAD_REACTORS
330
47
102
}
330
47
100
AcDbScale
 70
     0
300
1:100
140
1.0
141
100.0
290
     0
  0
SCALE
  5
54
102
{ACAD_REACTORS
330
47
102
}
330
47
100
AcDbScale
 70
     0
300
2:1
140
2.0
141
1.0
290
     0
  0
SCALE
  5
55
102
{ACAD_REACTORS
330
47
102
}
330
47
100
AcDbScale
 70
     0
300
4:1
140
4.0
141
1.0
290
     0
  0
SCALE
  5
56
102
{ACAD_REACTORS
330
47
102
}
330
47
100
AcDbScale
 70
     0
300
8:1
140
8.0
141
1.0
290
     0
  0
SCALE
  5
57
102
{ACAD_REACTORS
330
47
102
}
330
47
100
AcDbScale
 70
     0
300
10:1
140
10.0
141
1.0
290
     0
  0
SCALE
  5
58
102
{ACAD_REACTORS
330
47
102
}
330
47
100
AcDbScale
 70
     0
300
100:1
140
100.0
141
1.0
290
     0
  0
SCALE
  5
59
102
{ACAD_REACTORS
330
47
102
}
330
47
100
AcDbScale
 70
     0
300
1/128" = 1'-0"
140
0.0078125
141
12.0
290
     0
  0
SCALE
  5
5A
102
{ACAD_REACTORS
330
47
102
}
330
47
100
AcDbScale
 70
     0
300
1/64" = 1'-0"
140
0.015625
141
12.0
290
     0
  0
SCALE
  5
5B
102
{ACAD_REACTORS
330
47
102
}
330
47
100
AcDbScale
 70
     0
300
1/32" = 1'-0"
140
0.03125
141
12.0
290
     0
  0
SCALE
  5
5C
102
{ACAD_REACTORS
330
47
102
}
330
47
100
AcDbScale
 70
     0
300
1/16" = 1'-0"
140
0.0625
141
12.0
290
     0
  0
SCALE
  5
5D
102
{ACAD_REACTORS
330
47
102
}
330
47
100
AcDbScale
 70
     0
300
3/32" = 1'-0"
140
0.09375
141
12.0
290
     0
  0
SCALE
  5
5E
102
{ACAD_REACTORS
330
47
102
}
330
47
100
AcDbScale
 70
     0
300
1/8" = 1'-0"
140
0.125
141
12.0
290
     0
  0
SCALE
  5
5F
102
{ACAD_REACTORS
330
47
102
}
330
47
100
AcDbScale
 70
     0
300
3/16" = 1'-0"
140
0.1875
141
12.0
290
     0
  0
SCALE
  5
60
102
{ACAD_REACTORS
330
47
102
}
330
47
100
AcDbScale
 70
     0
300
1/4" = 1'-0"
140
0.25
141
12.0
290
     0
  0
SCALE
  5
61
102
{ACAD_REACTORS
330
47
102
}
330
47
100
AcDbScale
 70
     0
300
3/8" = 1'-0"
140
0.375
141
12.0
290
     0
  0
SCALE
  5
62
102
{ACAD_REACTORS
330
47
102
}
330
47
100
AcDbScale
 70
     0
300
1/2" = 1'-0"
140
0.5
141
12.0
290
     0
  0
SCALE
  5
63
102
{ACAD_REACTORS
330
47
102
}
330
47
100
AcDbScale
 70
     0
300
3/4" = 1'-0"
140
0.75
141
12.0
290
     0
  0
SCALE
  5
64
102
{ACAD_REACTORS
330
47
102
}
330
47
100
AcDbScale
 70
     0
300
1" = 1'-0"
140
1.0
141
12.0
290
     0
  0
SCALE
  5
65
102
{ACAD_REACTORS
330
47
102
}
330
47
100
AcDbScale
 70
     0
300
1-1/2" = 1'-0"
140
1.5
141
12.0
290
     0
  0
SCALE
  5
66
102
{ACAD_REACTORS
330
47
102
}
330
47
100
AcDbScale
 70
     0
300
3" = 1'-0"
140
3.0
141
12.0
290
     0
  0
SCALE
  5
67
102
{ACAD_REACTORS
330
47
102
}
330
47
100
AcDbScale
 70
     0
300
6" = 1'-0"
140
6.0
141
12.0
290
     0
  0
SCALE
  5
68
102
{ACAD_REACTORS
330
47
102
}
330
47
100
AcDbScale
 70
     0
300
1'-0" = 1'-0"
140
12.0
141
12.0
290
     0
  0
TABLESTYLE
  5
6A
102
{ACAD_REACTORS
330
69
102
}
102
{ACAD_XDICTIONARY
360
483
102
}
330
69
100
AcDbTableStyle
  3
Standard
 70
     0
 71
     0
 40
0.06
 41
0.06
280
     0
281
     0
  7
Standard
140
4.5
170
     2
 62
     0
 63
   257
283
     0
274
    -2
284
     1
 64
     0
275
    -2
285
     1
 65
     0
276
    -2
286
     1
 66
     0
277
    -2
287
     1
 67
     0
278
    -2
288
     1
 68
     0
279
    -2
289
     1
 69
     0
  7
Standard
140
6.0
170
     5
 62
     0
 63
   257
283
     0
274
    -2
284
     1
 64
     0
275
    -2
285
     1
 65
     0
276
    -2
286
     1
 66
     0
277
    -2
287
     1
 67
     0
278
    -2
288
     1
 68
     0
279
    -2
289
     1
 69
     0
  7
Standard
140
4.5
170
     5
 62
     0
 63
   257
283
     0
274
    -2
284
     1
 64
     0
275
    -2
285
     1
 65
     0
276
    -2
286
     1
 66
     0
277
    -2
287
     1
 67
     0
278
    -2
288
     1
 68
     0
279
    -2
289
     1
 69
     0
  0
VISUALSTYLE
  5
2F
102
{ACAD_REACTORS
330
2A
102
}
102
{ACAD_XDICTIONARY
360
455
102
}
330
2A
100
AcDbVisualStyle
  2
2dWireframe
 70
     4
 71
     0
 72
     2
 73
     0
 90
        0
 40
0.6
 41
30.0
 62
     5
 63
     7
421
 16777215
 74
     1
 91
        4
 64
     7
 65
   257
 75
     1
175
     1
 42
1.0
 92
        0
 66
   257
 43
1.0
 76
     1
 77
     6
 78
     2
 67
     7
 79
     5
170
     0
171
     0
290
     0
174
     0
 93
        1
 44
0.0
173
     0
291
     0
 45
0.0
1001
ACAD
1000
AcDbSavedByObjectVersion
1070
     0
  0
VISUALSTYLE
  5
32
102
{ACAD_REACTORS
330
2A
102
}
102
{ACAD_XDICTIONARY
360
45B
102
}
330
2A
100
AcDbVisualStyle
  2
Basic
 70
     7
 71
     1
 72
     0
 73
     1
 90
        0
 40
0.6
 41
30.0
 62
     5
 63
     7
421
 16777215
 74
     0
 91
        4
 64
     7
 65
   257
 75
     1
175
     1
 42
1.0
 92
        8
 66
     7
 43
1.0
 76
     1
 77
     6
 78
     2
 67
     7
 79
     5
170
     0
171
     0
290
     0
174
     0
 93
        1
 44
0.0
173
     0
291
     1
 45
0.0
1001
ACAD
1000
AcDbSavedByObjectVersion
1070
     0
  0
VISUALSTYLE
  5
36
102
{ACAD_REACTORS
330
2A
102
}
102
{ACAD_XDICTIONARY
360
463
102
}
330
2A
100
AcDbVisualStyle
  2
Brighten
 70
    12
 71
     2
 72
     2
 73
     0
 90
        0
 40
0.6
 41
30.0
 62
     5
 63
     7
421
 16777215
 74
     1
 91
        4
 64
     7
 65
   257
 75
     1
175
     1
 42
1.0
 92
        8
 66
     7
 43
1.0
 76
     1
 77
     6
 78
     2
 67
     7
 79
     5
170
     0
171
     0
290
     0
174
     0
 93
        1
 44
50.0
173
     0
291
     1
 45
0.0
1001
ACAD
1000
AcDbSavedByObjectVersion
1070
     0
  0
VISUALSTYLE
  5
3A
102
{ACAD_REACTORS
330
2A
102
}
102
{ACAD_XDICTIONARY
360
46B
102
}
330
2A
100
AcDbVisualStyle
  2
ColorChange
 70
    16
 71
     2
 72
     2
 73
     3
 90
        0
 40
0.6
 41
30.0
 62
     5
 63
     8
421
  8421504
 74
     1
 91
        4
 64
     7
 65
   257
 75
     1
175
     1
 42
1.0
 92
        8
 66
     8
424
  8421504
 43
1.0
 76
     1
 77
     6
 78
     2
 67
     7
 79
     5
170
     0
171
     0
290
     0
174
     0
 93
        1
 44
0.0
173
     0
291
     1
 45
0.0
1001
ACAD
1000
AcDbSavedByObjectVersion
1070
     0
  0
VISUALSTYLE
  5
34
102
{ACAD_REACTORS
330
2A
102
}
102
{ACAD_XDICTIONARY
360
45F
102
}
330
2A
100
AcDbVisualStyle
  2
Conceptual
 70
     9
 71
     3
 72
     2
 73
     0
 90
        0
 40
0.6
 41
30.0
 62
     5
 63
     7
421
 16777215
 74
     2
 91
        2
 64
     7
 65
   257
 75
     1
175
     1
 42
179.0
 92
        8
 66
     7
 43
1.0
 76
     1
 77
     6
 78
     2
 67
     7
 79
     3
170
     0
171
     0
290
     0
174
     0
 93
        1
 44
0.0
173
     0
291
     0
 45
0.0
1001
ACAD
1000
AcDbSavedByObjectVersion
1070
     0
  0
VISUALSTYLE
  5
35
102
{ACAD_REACTORS
330
2A
102
}
102
{ACAD_XDICTIONARY
360
461
102
}
330
2A
100
AcDbVisualStyle
  2
Dim
 70
    11
 71
     2
 72
     2
 73
     0
 90
        0
 40
0.6
 41
30.0
 62
     5
 63
     7
421
 16777215
 74
     1
 91
        4
 64
     7
 65
   257
 75
     1
175
     1
 42
1.0
 92
        8
 66
     7
 43
1.0
 76
     1
 77
     6
 78
     2
 67
     7
 79
     5
170
     0
171
     0
290
     0
174
     0
 93
        1
 44
-50.0
173
     0
291
     1
 45
0.0
1001
ACAD
1000
AcDbSavedByObjectVersion
1070
     0
  0
VISUALSTYLE
  5
3D
102
{ACAD_REACTORS
330
2A
102
}
102
{ACAD_XDICTIONARY
360
471
102
}
330
2A
100
AcDbVisualStyle
  2
EdgeColorOff
 70
    22
 71
     2
 72
     2
 73
     0
 90
        0
 40
0.6
 41
30.0
 62
     5
 63
     7
421
 16777215
 74
     1
 91
        4
 64
     7
 65
   257
 75
     1
175
     1
 42
1.0
 92
        8
 66
     7
 43
1.0
 76
     1
 77
     6
 78
     2
 67
     7
 79
     5
170
     0
171
     0
290
     0
174
     0
 93
        1
 44
0.0
173
     0
291
     1
 45
0.0
1001
ACAD
1000
AcDbSavedByObjectVersion
1070
     0
  0
VISUALSTYLE
  5
39
102
{ACAD_REACTORS
330
2A
102
}
102
{ACAD_XDICTIONARY
360
469
102
}
330
2A
100
AcDbVisualStyle
  2
Facepattern
 70
    15
 71
     2
 72
     2
 73
     0
 90
        0
 40
0.6
 41
30.0
 62
     5
 63
     7
421
 16777215
 74
     1
 91
        4
 64
     7
 65
   257
 75
     1
175
     1
 42
1.0
 92
        8
 66
     7
 43
1.0
 76
     1
 77
     6
 78
     2
 67
     7
 79
     5
170
     0
171
     0
290
     0
174
     0
 93
        1
 44
0.0
173
     0
291
     1
 45
0.0
1001
ACAD
1000
AcDbSavedByObjectVersion
1070
     0
  0
VISUALSTYLE
  5
2B
102
{ACAD_REACTORS
330
2A
102
}
102
{ACAD_XDICTIONARY
360
44D
102
}
330
2A
100
AcDbVisualStyle
  2
Flat
 70
     0
 71
     2
 72
     1
 73
     1
 90
        2
 40
0.6
 41
30.0
 62
     5
 63
     7
421
 16777215
 74
     0
 91
        0
 64
     7
 65
   257
 75
     1
175
     1
 42
1.0
 92
        8
 66
     7
 43
1.0
 76
     1
 77
     6
 78
     2
 67
     7
 79
     5
170
     0
171
     0
290
     0
174
     0
 93
       13
 44
0.0
173
     0
291
     1
 45
0.0
1001
ACAD
1000
AcDbSavedByObjectVersion
1070
     0
  0
VISUALSTYLE
  5
2C
102
{ACAD_REACTORS
330
2A
102
}
102
{ACAD_XDICTIONARY
360
44F
102
}
330
2A
100
AcDbVisualStyle
  2
FlatWithEdges
 70
     1
 71
     2
 72
     1
 73
     1
 90
        2
 40
0.6
 41
30.0
 62
     5
 63
     7
421
 16777215
 74
     1
 91
        0
 64
     7
 65
   257
 75
     1
175
     1
 42
1.0
 92
        0
 66
   257
 43
1.0
 76
     1
 77
     6
 78
     2
 67
     7
 79
     5
170
     0
171
     0
290
     0
174
     0
 93
       13
 44
0.0
173
     0
291
     1
 45
0.0
1001
ACAD
1000
AcDbSavedByObjectVersion
1070
     0
  0
VISUALSTYLE
  5
2D
102
{ACAD_REACTORS
330
2A
102
}
102
{ACAD_XDICTIONARY
360
451
102
}
330
2A
100
AcDbVisualStyle
  2
Gouraud
 70
     2
 71
     2
 72
     2
 73
     1
 90
        2
 40
0.6
 41
30.0
 62
     5
 63
     7
421
 16777215
 74
     0
 91
        0
 64
     7
 65
   257
 75
     1
175
     1
 42
1.0
 92
        0
 66
     7
 43
1.0
 76
     1
 77
     6
 78
     2
 67
     7
 79
     5
170
     0
171
     0
290
     0
174
     0
 93
       13
 44
0.0
173
     0
291
     1
 45
0.0
1001
ACAD
1000
AcDbSavedByObjectVersion
1070
     0
  0
VISUALSTYLE
  5
2E
102
{ACAD_REACTORS
330
2A
102
}
102
{ACAD_XDICTIONARY
360
453
102
}
330
2A
100
AcDbVisualStyle
  2
GouraudWithEdges
 70
     3
 71
     2
 72
     2
 73
     1
 90
        2
 40
0.6
 41
30.0
 62
     5
 63
     7
421
 16777215
 74
     1
 91
        0
 64
     7
 65
   257
 75
     1
175
     1
 42
1.0
 92
        0
 66
   257
 43
1.0
 76
     1
 77
     6
 78
     2
 67
     7
 79
     5
170
     0
171
     0
290
     0
174
     0
 93
       13
 44
0.0
173
     0
291
     1
 45
0.0
1001
ACAD
1000
AcDbSavedByObjectVersion
1070
     0
  0
VISUALSTYLE
  5
31
102
{ACAD_REACTORS
330
2A
102
}
102
{ACAD_XDICTIONARY
360
459
102
}
330
2A
100
AcDbVisualStyle
  2
Hidden
 70
     6
 71
     1
 72
     2
 73
     2
 90
        0
 40
0.6
 41
30.0
 62
     5
 63
     7
421
 16777215
 74
     2
 91
        2
 64
     7
 65
   257
 75
     2
175
     1
 42
40.0
 92
        0
 66
   257
 43
1.0
 76
     1
 77
     6
 78
     2
 67
     7
 79
     3
170
     0
171
     0
290
     0
174
     0
 93
        1
 44
0.0
173
     0
291
     0
 45
0.0
1001
ACAD
1000
AcDbSavedByObjectVersion
1070
     0
  0
VISUALSTYLE
  5
3B
102
{ACAD_REACTORS
330
2A
102
}
102
{ACAD_XDICTIONARY
360
46D
102
}
330
2A
100
AcDbVisualStyle
  2
JitterOff
 70
    20
 71
     2
 72
     2
 73
     0
 90
        0
 40
0.6
 41
30.0
 62
     5
 63
     7
421
 16777215
 74
     1
 91
        4
 64
     7
 65
   257
 75
     1
175
     1
 42
1.0
 92
       10
 66
     7
 43
1.0
 76
     1
 77
     6
 78
     2
 67
     7
 79
     5
170
     0
171
     0
290
     0
174
     0
 93
        1
 44
0.0
173
     0
291
     1
 45
0.0
1001
ACAD
1000
AcDbSavedByObjectVersion
1070
     0
  0
VISUALSTYLE
  5
38
102
{ACAD_REACTORS
330
2A
102
}
102
{ACAD_XDICTIONARY
360
467
102
}
330
2A
100
AcDbVisualStyle
  2
Linepattern
 70
    14
 71
     2
 72
     2
 73
     0
 90
        0
 40
0.6
 41
30.0
 62
     5
 63
     7
421
 16777215
 74
     1
 91
        4
 64
     7
 65
   257
 75
     7
175
     7
 42
1.0
 92
        8
 66
     7
 43
1.0
 76
     1
 77
     6
 78
     2
 67
     7
 79
     5
170
     0
171
     0
290
     0
174
     0
 93
        1
 44
0.0
173
     0
291
     1
 45
0.0
1001
ACAD
1000
AcDbSavedByObjectVersion
1070
     0
  0
VISUALSTYLE
  5
3C
102
{ACAD_REACTORS
330
2A
102
}
102
{ACAD_XDICTIONARY
360
46F
102
}
330
2A
100
AcDbVisualStyle
  2
OverhangOff
 70
    21
 71
     2
 72
     2
 73
     0
 90
        0
 40
0.6
 41
30.0
 62
     5
 63
     7
421
 16777215
 74
     1
 91
        4
 64
     7
 65
   257
 75
     1
175
     1
 42
1.0
 92
        9
 66
     7
 43
1.0
 76
     1
 77
     6
 78
     2
 67
     7
 79
     5
170
     0
171
     0
290
     0
174
     0
 93
        1
 44
0.0
173
     0
291
     1
 45
0.0
1001
ACAD
1000
AcDbSavedByObjectVersion
1070
     0
  0
VISUALSTYLE
  5
33
102
{ACAD_REACTORS
330
2A
102
}
102
{ACAD_XDICTIONARY
360
45D
102
}
330
2A
100
AcDbVisualStyle
  2
Realistic
 70
     8
 71
     2
 72
     3
 73
     0
 90
        2
 40
0.6
 41
30.0
 62
     5
 63
     7
421
 16777215
 74
     0
 91
        0
 64
     7
 65
   257
 75
     1
175
     1
 42
1.0
 92
        8
 66
   257
 43
1.0
 76
     1
 77
     6
 78
     2
 67
     7
 79
     3
170
     0
171
     0
290
     0
174
     0
 93
       13
 44
0.0
173
     0
291
     0
 45
0.0
1001
ACAD
1000
AcDbSavedByObjectVersion
1070
     0
  0
VISUALSTYLE
  5
42
102
{ACAD_REACTORS
330
2A
102
}
102
{ACAD_XDICTIONARY
360
47B
102
}
330
2A
100
AcDbVisualStyle
  2
Shaded
 70
    27
 71
     2
 72
     2
 73
     1
 90
        2
 40
0.6
 41
30.0
 62
     5
 63
     7
421
 16777215
 74
     0
 91
        4
 64
     7
 65
   257
 75
     1
175
     1
 42
1.0
 92
        8
 66
   257
 43
1.0
 76
     1
 77
     6
 78
     2
 67
     8
425
  7895160
 79
     3
170
     0
171
     0
290
     0
174
     0
 93
        5
 44
0.0
173
     0
291
     0
 45
0.0
1001
ACAD
1000
AcDbSavedByObjectVersion
1070
     0
  0
VISUALSTYLE
  5
41
102
{ACAD_REACTORS
330
2A
102
}
102
{ACAD_XDICTIONARY
360
479
102
}
330
2A
100
AcDbVisualStyle
  2
Shaded with edges
 70
    26
 71
     2
 72
     2
 73
     1
 90
        2
 40
0.6
 41
30.0
 62
     5
 63
     7
421
 16777215
 74
     1
 91
       10
 64
     7
 65
   257
 75
     2
175
     1
 42
1.0
 92
        8
 66
   257
 43
1.0
 76
     1
 77
     6
 78
     2
 67
     7
 79
     3
170
     0
171
     0
290
     0
174
     0
 93
        5
 44
0.0
173
     0
291
     0
 45
0.0
1001
ACAD
1000
AcDbSavedByObjectVersion
1070
     0
  0
VISUALSTYLE
  5
3E
102
{ACAD_REACTORS
330
2A
102
}
102
{ACAD_XDICTIONARY
360
473
102
}
330
2A
100
AcDbVisualStyle
  2
Shades of Gray
 70
    23
 71
     2
 72
     2
 73
     3
 90
        0
 40
0.6
 41
30.0
 62
     5
 63
     7
421
 16777215
 74
     2
 91
        2
 64
     7
 65
     7
 75
     1
175
     1
 42
40.0
 92
        8
 66
     7
 43
1.0
 76
     1
 77
     6
 78
     2
 67
     7
 79
     3
170
     0
171
     0
290
     0
174
     0
 93
        1
 44
0.0
173
     0
291
     0
 45
0.0
1001
ACAD
1000
AcDbSavedByObjectVersion
1070
     0
  0
VISUALSTYLE
  5
3F
102
{ACAD_REACTORS
330
2A
102
}
102
{ACAD_XDICTIONARY
360
475
102
}
330
2A
100
AcDbVisualStyle
  2
Sketchy
 70
    24
 71
     1
 72
     2
 73
     2
 90
        0
 40
0.6
 41
30.0
 62
     5
 63
     7
421
 16777215
 74
     2
 91
        2
 64
     7
 65
     7
 75
     1
175
     1
 42
40.0
 92
       11
 66
     7
 43
1.0
 76
     1
 77
     6
 78
     2
 67
     7
 79
     6
170
     0
171
     0
290
     0
174
     0
 93
        1
 44
0.0
173
     0
291
     0
 45
0.0
1001
ACAD
1000
AcDbSavedByObjectVersion
1070
     0
  0
VISUALSTYLE
  5
37
102
{ACAD_REACTORS
330
2A
102
}
102
{ACAD_XDICTIONARY
360
465
102
}
330
2A
100
AcDbVisualStyle
  2
Thicken
 70
    13
 71
     2
 72
     2
 73
     0
 90
        0
 40
0.6
 41
30.0
 62
     5
 63
     7
421
 16777215
 74
     1
 91
        4
 64
     7
 65
   257
 75
     1
175
     1
 42
1.0
 92
       12
 66
     7
 43
1.0
 76
     1
 77
     6
 78
     2
 67
     7
 79
     5
170
     0
171
     0
290
     0
174
     0
 93
        1
 44
0.0
173
     0
291
     1
 45
0.0
1001
ACAD
1000
AcDbSavedByObjectVersion
1070
     0
  0
VISUALSTYLE
  5
30
102
{ACAD_REACTORS
330
2A
102
}
102
{ACAD_XDICTIONARY
360
457
102
}
330
2A
100
AcDbVisualStyle
  2
Wireframe
 70
     5
 71
     0
 72
     2
 73
     0
 90
        0
 40
0.6
 41
30.0
 62
     5
 63
     7
421
 16777215
 74
     1
 91
        4
 64
     7
 65
   257
 75
     1
175
     1
 42
1.0
 92
        0
 66
   257
 43
1.0
 76
     1
 77
     6
 78
     2
 67
     7
 79
     3
170
     0
171
     0
290
     0
174
     0
 93
        1
 44
0.0
173
     0
291
     0
 45
0.0
1001
ACAD
1000
AcDbSavedByObjectVersion
1070
     0
  0
VISUALSTYLE
  5
40
102
{ACAD_REACTORS
330
2A
102
}
102
{ACAD_XDICTIONARY
360
477
102
}
330
2A
100
AcDbVisualStyle
  2
X-Ray
 70
    25
 71
     2
 72
     2
 73
     1
 90
        1
 40
0.5
 41
30.0
 62
     5
 63
     7
421
 16777215
 74
     1
 91
        0
 64
     7
 65
   257
 75
     1
175
     1
 42
1.0
 92
        8
 66
     7
 43
1.0
 76
     1
 77
     6
 78
     2
 67
     7
 79
     3
170
     0
171
     0
290
     0
174
     0
 93
       13
 44
0.0
173
     0
291
     0
 45
0.0
1001
ACAD
1000
AcDbSavedByObjectVersion
1070
     0
  0
DICTIONARYVAR
  5
44A
102
{ACAD_REACTORS
330
449
102
}
330
449
100
DictionaryVariables
280
     0
  1
1:1
  0
DICTIONARYVAR
  5
48B
102
{ACAD_REACTORS
330
449
102
}
330
449
100
DictionaryVariables
280
     0
  1
Standard
  0
DICTIONARYVAR
  5
48A
102
{ACAD_REACTORS
330
449
102
}
330
449
100
DictionaryVariables
280
     0
  1
Standard
  0
DICTIONARYVAR
  5
44B
102
{ACAD_REACTORS
330
449
102
}
330
449
100
DictionaryVariables
280
     0
  1
1
  0
DICTIONARYVAR
  5
48E
102
{ACAD_REACTORS
330
449
102
}
330
449
100
DictionaryVariables
280
     0
  1
6.000000
  0
DICTIONARYVAR
  5
44C
102
{ACAD_REACTORS
330
449
102
}
330
449
100
DictionaryVariables
280
     0
  1
2
  0
DICTIONARY
  5
47F
330
45
100
AcDbDictionary
280
     1
281
     1
  3
ACAD_XREC_ROUNDTRIP
360
480
  0
DICTIONARY
  5
47D
330
44
100
AcDbDictionary
280
     1
281
     1
  3
ACAD_XREC_ROUNDTRIP
360
47E
  0
DICTIONARY
  5
481
330
46
100
AcDbDictionary
280
     1
281
     1
  3
ACAD_XREC_ROUNDTRIP
360
482
  0
DICTIONARY
  5
487
330
6C
100
AcDbDictionary
280
     1
281
     1
  3
ACAD_XREC_ROUNDTRIP
360
488
  0
DICTIONARY
  5
483
330
6A
100
AcDbDictionary
280
     1
281
     1
  3
ACAD_ROUNDTRIP_2008_TABLESTYLE_CELLSTYLEMAP
360
485
  3
ACAD_XREC_ROUNDTRIP
360
484
  0
DICTIONARY
  5
455
330
2F
100
AcDbDictionary
280
     1
281
     1
  3
ACAD_XREC_ROUNDTRIP
360
456
  0
DICTIONARY
  5
45B
330
32
100
AcDbDictionary
280
     1
281
     1
  3
ACAD_XREC_ROUNDTRIP
360
45C
  0
DICTIONARY
  5
463
330
36
100
AcDbDictionary
280
     1
281
     1
  3
ACAD_XREC_ROUNDTRIP
360
464
  0
DICTIONARY
  5
46B
330
3A
100
AcDbDictionary
280
     1
281
     1
  3
ACAD_XREC_ROUNDTRIP
360
46C
  0
DICTIONARY
  5
45F
330
34
100
AcDbDictionary
280
     1
281
     1
  3
ACAD_XREC_ROUNDTRIP
360
460
  0
DICTIONARY
  5
461
330
35
100
AcDbDictionary
280
     1
281
     1
  3
ACAD_XREC_ROUNDTRIP
360
462
  0
DICTIONARY
  5
471
330
3D
100
AcDbDictionary
280
     1
281
     1
  3
ACAD_XREC_ROUNDTRIP
360
472
  0
DICTIONARY
  5
469
330
39
100
AcDbDictionary
280
     1
281
     1
  3
ACAD_XREC_ROUNDTRIP
360
46A
  0
DICTIONARY
  5
44D
330
2B
100
AcDbDictionary
280
     1
281
     1
  3
ACAD_XREC_ROUNDTRIP
360
44E
  0
DICTIONARY
  5
44F
330
2C
100
AcDbDictionary
280
     1
281
     1
  3
ACAD_XREC_ROUNDTRIP
360
450
  0
DICTIONARY
  5
451
330
2D
100
AcDbDictionary
280
     1
281
     1
  3
ACAD_XREC_ROUNDTRIP
360
452
  0
DICTIONARY
  5
453
330
2E
100
AcDbDictionary
280
     1
281
     1
  3
ACAD_XREC_ROUNDTRIP
360
454
  0
DICTIONARY
  5
459
330
31
100
AcDbDictionary
280
     1
281
     1
  3
ACAD_XREC_ROUNDTRIP
360
45A
  0
DICTIONARY
  5
46D
330
3B
100
AcDbDictionary
280
     1
281
     1
  3
ACAD_XREC_ROUNDTRIP
360
46E
  0
DICTIONARY
  5
467
330
38
100
AcDbDictionary
280
     1
281
     1
  3
ACAD_XREC_ROUNDTRIP
360
468
  0
DICTIONARY
  5
46F
330
3C
100
AcDbDictionary
280
     1
281
     1
  3
ACAD_XREC_ROUNDTRIP
360
470
  0
DICTIONARY
  5
45D
330
33
100
AcDbDictionary
280
     1
281
     1
  3
ACAD_XREC_ROUNDTRIP
360
45E
  0
DICTIONARY
  5
47B
330
42
100
AcDbDictionary
280
     1
281
     1
  3
ACAD_XREC_ROUNDTRIP
360
47C
  0
DICTIONARY
  5
479
330
41
100
AcDbDictionary
280
     1
281
     1
  3
ACAD_XREC_ROUNDTRIP
360
47A
  0
DICTIONARY
  5
473
330
3E
100
AcDbDictionary
280
     1
281
     1
  3
ACAD_XREC_ROUNDTRIP
360
474
  0
DICTIONARY
  5
475
330
3F
100
AcDbDictionary
280
     1
281
     1
  3
ACAD_XREC_ROUNDTRIP
360
476
  0
DICTIONARY
  5
465
330
37
100
AcDbDictionary
280
     1
281
     1
  3
ACAD_XREC_ROUNDTRIP
360
466
  0
DICTIONARY
  5
457
330
30
100
AcDbDictionary
280
     1
281
     1
  3
ACAD_XREC_ROUNDTRIP
360
458
  0
DICTIONARY
  5
477
330
40
100
AcDbDictionary
280
     1
281
     1
  3
ACAD_XREC_ROUNDTRIP
360
478
  0
XRECORD
  5
480
102
{ACAD_REACTORS
330
47F
102
}
330
47F
100
AcDbXrecord
280
     1
102
MATERIAL
148
0.0
149
0.0
149
0.0
 93
        0
 94
      127
282
     0
 72
     1
 77
     1
171
     1
175
     1
179
     1
273
     0
  0
XRECORD
  5
47E
102
{ACAD_REACTORS
330
47D
102
}
330
47D
100
AcDbXrecord
280
     1
102
MATERIAL
148
0.0
149
0.0
149
0.0
 93
        0
 94
      127
282
     0
 72
     1
 77
     1
171
     1
175
     1
179
     1
273
     0
  0
XRECORD
  5
482
102
{ACAD_REACTORS
330
481
102
}
330
481
100
AcDbXrecord
280
     1
102
MATERIAL
148
0.0
149
0.0
149
0.0
 93
        0
 94
      127
282
     0
 72
     1
 77
     1
171
     1
175
     1
179
     1
273
     0
  0
XRECORD
  5
488
102
{ACAD_REACTORS
330
487
102
}
330
487
100
AcDbXrecord
280
     1
102
ACAD_ROUNDTRIP_2010_MLEADER_STYLE
  0
CELLSTYLEMAP
  5
485
102
{ACAD_REACTORS
330
483
102
}
330
483
100
AcDbCellStyleMap
 90
        3
300
CELLSTYLE
  1
TABLEFORMAT_BEGIN
 90
        5
170
     1
 91
        0
 92
    32768
 62
   257
 93
        1
300
CONTENTFORMAT
  1
CONTENTFORMAT_BEGIN
 90
        0
 91
        0
 92
        4
 93
        0
300

 40
0.0
140
1.0
 94
        5
 62
     0
340
11
144
6.0
309
CONTENTFORMAT_END
171
     1
301
MARGIN
  1
CELLMARGIN_BEGIN
 40
1.5
 40
1.5
 40
1.5
 40
1.5
 40
1.5
 40
1.5
309
CELLMARGIN_END
 94
        6
 95
        1
302
GRIDFORMAT
  1
GRIDFORMAT_BEGIN
 90
        0
 91
        1
 62
     0
 92
       -2
340
14
 93
        0
 40
0.045
309
GRIDFORMAT_END
 95
        2
302
GRIDFORMAT
  1
GRIDFORMAT_BEGIN
 90
        0
 91
        1
 62
     0
 92
       -2
340
14
 93
        0
 40
0.045
309
GRIDFORMAT_END
 95
        4
302
GRIDFORMAT
  1
GRIDFORMAT_BEGIN
 90
        0
 91
        1
 62
     0
 92
       -2
340
14
 93
        0
 40
0.045
309
GRIDFORMAT_END
 95
        8
302
GRIDFORMAT
  1
GRIDFORMAT_BEGIN
 90
        0
 91
        1
 62
     0
 92
       -2
340
14
 93
        0
 40
0.045
309
GRIDFORMAT_END
 95
       16
302
GRIDFORMAT
  1
GRIDFORMAT_BEGIN
 90
        0
 91
        1
 62
     0
 92
       -2
340
14
 93
        0
 40
0.045
309
GRIDFORMAT_END
 95
       32
302
GRIDFORMAT
  1
GRIDFORMAT_BEGIN
 90
        0
 91
        1
 62
     0
 92
       -2
340
14
 93
        0
 40
0.045
309
GRIDFORMAT_END
309
TABLEFORMAT_END
  1
CELLSTYLE_BEGIN
 90
        1
 91
        1
300
_TITLE
309
CELLSTYLE_END
300
CELLSTYLE
  1
TABLEFORMAT_BEGIN
 90
        5
170
     1
 91
        0
 92
        0
 62
   257
 93
        1
300
CONTENTFORMAT
  1
CONTENTFORMAT_BEGIN
 90
        0
 91
        0
 92
        4
 93
        0
300

 40
0.0
140
1.0
 94
        5
 62
     0
340
11
144
4.5
309
CONTENTFORMAT_END
171
     1
301
MARGIN
  1
CELLMARGIN_BEGIN
 40
1.5
 40
1.5
 40
1.5
 40
1.5
 40
1.5
 40
1.5
309
CELLMARGIN_END
 94
        6
 95
        1
302
GRIDFORMAT
  1
GRIDFORMAT_BEGIN
 90
        0
 91
        1
 62
     0
 92
       -2
340
14
 93
        0
 40
0.045
309
GRIDFORMAT_END
 95
        2
302
GRIDFORMAT
  1
GRIDFORMAT_BEGIN
 90
        0
 91
        1
 62
     0
 92
       -2
340
14
 93
        0
 40
0.045
309
GRIDFORMAT_END
 95
        4
302
GRIDFORMAT
  1
GRIDFORMAT_BEGIN
 90
        0
 91
        1
 62
     0
 92
       -2
340
14
 93
        0
 40
0.045
309
GRIDFORMAT_END
 95
        8
302
GRIDFORMAT
  1
GRIDFORMAT_BEGIN
 90
        0
 91
        1
 62
     0
 92
       -2
340
14
 93
        0
 40
0.045
309
GRIDFORMAT_END
 95
       16
302
GRIDFORMAT
  1
GRIDFORMAT_BEGIN
 90
        0
 91
        1
 62
     0
 92
       -2
340
14
 93
        0
 40
0.045
309
GRIDFORMAT_END
 95
       32
302
GRIDFORMAT
  1
GRIDFORMAT_BEGIN
 90
        0
 91
        1
 62
     0
 92
       -2
340
14
 93
        0
 40
0.045
309
GRIDFORMAT_END
309
TABLEFORMAT_END
  1
CELLSTYLE_BEGIN
 90
        2
 91
        1
300
_HEADER
309
CELLSTYLE_END
300
CELLSTYLE
  1
TABLEFORMAT_BEGIN
 90
        5
170
     1
 91
        0
 92
        0
 62
   257
 93
        1
300
CONTENTFORMAT
  1
CONTENTFORMAT_BEGIN
 90
        0
 91
        0
 92
        4
 93
        0
300

 40
0.0
140
1.0
 94
        2
 62
     0
340
11
144
4.5
309
CONTENTFORMAT_END
171
     1
301
MARGIN
  1
CELLMARGIN_BEGIN
 40
1.5
 40
1.5
 40
1.5
 40
1.5
 40
1.5
 40
1.5
309
CELLMARGIN_END
 94
        6
 95
        1
302
GRIDFORMAT
  1
GRIDFORMAT_BEGIN
 90
        0
 91
        1
 62
     0
 92
       -2
340
14
 93
        0
 40
0.045
309
GRIDFORMAT_END
 95
        2
302
GRIDFORMAT
  1
GRIDFORMAT_BEGIN
 90
        0
 91
        1
 62
     0
 92
       -2
340
14
 93
        0
 40
0.045
309
GRIDFORMAT_END
 95
        4
302
GRIDFORMAT
  1
GRIDFORMAT_BEGIN
 90
        0
 91
        1
 62
     0
 92
       -2
340
14
 93
        0
 40
0.045
309
GRIDFORMAT_END
 95
        8
302
GRIDFORMAT
  1
GRIDFORMAT_BEGIN
 90
        0
 91
        1
 62
     0
 92
       -2
340
14
 93
        0
 40
0.045
309
GRIDFORMAT_END
 95
       16
302
GRIDFORMAT
  1
GRIDFORMAT_BEGIN
 90
        0
 91
        1
 62
     0
 92
       -2
340
14
 93
        0
 40
0.045
309
GRIDFORMAT_END
 95
       32
302
GRIDFORMAT
  1
GRIDFORMAT_BEGIN
 90
        0
 91
        1
 62
     0
 92
       -2
340
14
 93
        0
 40
0.045
309
GRIDFORMAT_END
309
TABLEFORMAT_END
  1
CELLSTYLE_BEGIN
 90
        3
 91
        2
300
_DATA
309
CELLSTYLE_END
  0
XRECORD
  5
484
102
{ACAD_REACTORS
330
483
102
}
330
483
100
AcDbXrecord
280
     1
102
ACAD_ROUNDTRIP_PRE2007_TABLESTYLE
 90
        4
 91
        0
  1

 92
        4
 93
        0
  2

 94
        4
 95
        0
  3

  0
XRECORD
  5
456
102
{ACAD_REACTORS
330
455
102
}
330
455
100
AcDbXrecord
280
     1
102
RTVSPropertyOp0
 70
     1
102
RTVSPropertyOp1
 70
     1
102
RTVSPropertyOp2
 70
     1
102
RTVSPropertyOp3
 70
     1
102
RTVSPropertyOp4
 70
     1
102
RTVSPropertyOp5
 70
     1
102
RTVSPropertyOp6
 70
     1
102
RTVSPropertyOp7
 70
     1
102
RTVSPropertyOp8
 70
     1
102
RTVSPropertyOp9
 70
     1
102
RTVSPropertyOp10
 70
     1
102
RTVSPropertyOp11
 70
     1
102
RTVSPropertyOp12
 70
     1
102
RTVSPropertyOp13
 70
     1
102
RTVSPropertyOp14
 70
     1
102
RTVSPropertyOp15
 70
     1
102
RTVSPropertyOp16
 70
     1
102
RTVSPropertyOp17
 70
     1
102
RTVSPropertyOp18
 70
     1
102
RTVSPropertyOp19
 70
     1
102
RTVSPropertyOp20
 70
     1
102
RTVSPropertyOp21
 70
     1
102
RTVSPropertyOp22
 70
     1
102
RTVSPropertyOp23
 70
     1
102
RTVSPropertyOp24
 70
     1
102
RTVSPropertyOp25
 70
     1
102
RTVSPropertyOp26
 70
     1
102
RTVSPropertyOp27
 70
     1
102
RTVSPropertyOp28
 70
     1
102
RTVSPropertyOp29
 70
     1
102
RTVSPropertyOp30
 70
     1
102
RTVSPropertyOp31
 70
     1
102
RTVSPropertyOp32
 70
     1
102
RTVSPropertyOp33
 70
     1
102
RTVSPropertyOp34
 70
     1
102
RTVSPropertyOp35
 70
     1
102
RTVSPropertyOp36
 70
     1
102
RTVSPropertyOp37
 70
     1
102
RTVSPropertyOp38
 70
     1
102
RTVSPropertyOp39
 70
     1
102
RTVSPropertyOp40
 70
     1
102
RTVSPropertyOp41
 70
     1
102
RTVSPropertyOp42
 70
     1
102
RTVSPropertyOp43
 70
     1
102
RTVSPropertyOp44
 70
     1
102
RTVSPropertyOp45
 70
     1
102
RTVSPropertyOp46
 70
     1
102
RTVSPropertyOp47
 70
     1
102
RTVSPropertyOp48
 70
     1
102
RTVSPropertyOp49
 70
     1
102
RTVSPropertyOp50
 70
     1
102
RTVSPropertyOp51
 70
     0
102
RTVSPropertyOp52
 70
     0
102
RTVSPropertyOp53
 70
     1
102
RTVSPropertyOp54
 70
     1
102
RTVSPropertyOp55
 70
     1
102
RTVSPropertyOp56
 70
     1
102
RTVSPropertyOp57
 70
     1
102
RTVSPost2010Prop28
280
     1
102
RTVSPost2010PropOp28
 70
     1
102
RTVSPost2010Prop29
280
     1
102
RTVSPost2010PropOp29
 70
     1
102
RTVSPost2010Prop30
280
     0
102
RTVSPost2010PropOp30
 70
     1
102
RTVSPost2010Prop31
280
     0
102
RTVSPost2010PropOp31
 70
     1
102
RTVSPost2010Prop32
280
     0
102
RTVSPost2010PropOp32
 70
     1
102
RTVSPost2010Prop33
280
     0
102
RTVSPost2010PropOp33
 70
     1
102
RTVSPost2010Prop34
280
     0
102
RTVSPost2010PropOp34
 70
     1
102
RTVSPost2010Prop35
280
     0
102
RTVSPost2010PropOp35
 70
     1
102
RTVSPost2010Prop36
280
     0
102
RTVSPost2010PropOp36
 70
     1
102
RTVSPost2010Prop37
 90
       50
102
RTVSPost2010PropOp37
 70
     1
102
RTVSPost2010Prop38
140
0.0
102
RTVSPost2010PropOp38
 70
     1
102
RTVSPost2010Prop39
140
1.0
102
RTVSPost2010PropOp39
 70
     1
102
RTVSPost2010Prop40
 90
        0
102
RTVSPost2010PropOp40
 70
     1
102
RTVSPost2010Prop41ColorIndex
 90
       18
102
RTVSPost2010Prop41ColorRGB
 90
        0
102
RTVSPost2010PropOp41
 70
     1
102
RTVSPost2010Prop42
 90
       50
102
RTVSPost2010PropOp42
 70
     1
102
RTVSPost2010Prop43
 90
        3
102
RTVSPost2010PropOp43
 70
     1
102
RTVSPost2010Prop44ColorIndex
 90
        5
102
RTVSPost2010Prop44ColorRGB
 90
      255
102
RTVSPost2010PropOp44
 70
     1
102
RTVSPost2010Prop45
280
     0
102
RTVSPost2010PropOp45
 70
     1
102
RTVSPost2010Prop46
 90
       50
102
RTVSPost2010PropOp46
 70
     1
102
RTVSPost2010Prop47
 90
       50
102
RTVSPost2010PropOp47
 70
     1
102
RTVSPost2010Prop48
 90
       50
102
RTVSPost2010PropOp48
 70
     1
102
RTVSPost2010Prop49
280
     0
102
RTVSPost2010PropOp49
 70
     1
102
RTVSPost2010Prop50
 90
       50
102
RTVSPost2010PropOp50
 70
     1
102
RTVSPost2010Prop51ColorIndex
 90
      256
102
RTVSPost2010Prop51ColorRGB
 90
-16777216
102
RTVSPost2010PropOp51
 70
     0
102
RTVSPost2010Prop52
140
1.0
102
RTVSPost2010PropOp52
 70
     0
102
RTVSPost2010Prop53
 90
        2
102
RTVSPost2010PropOp53
 70
     1
102
RTVSPost2010Prop54
  1
strokes_ogs.tif
102
RTVSPost2010PropOp54
 70
     1
102
RTVSPost2010Prop55
280
     0
102
RTVSPost2010PropOp55
 70
     1
102
RTVSPost2010Prop56
140
1.0
102
RTVSPost2010PropOp56
 70
     1
102
RTVSPost2010Prop57
140
1.0
102
RTVSPost2010PropOp57
 70
     1
  0
XRECORD
  5
45C
102
{ACAD_REACTORS
330
45B
102
}
330
45B
100
AcDbXrecord
280
     1
102
RTVSPropertyOp0
 70
     1
102
RTVSPropertyOp1
 70
     1
102
RTVSPropertyOp2
 70
     1
102
RTVSPropertyOp3
 70
     1
102
RTVSPropertyOp4
 70
     1
102
RTVSPropertyOp5
 70
     1
102
RTVSPropertyOp6
 70
     1
102
RTVSPropertyOp7
 70
     1
102
RTVSPropertyOp8
 70
     1
102
RTVSPropertyOp9
 70
     1
102
RTVSPropertyOp10
 70
     1
102
RTVSPropertyOp11
 70
     1
102
RTVSPropertyOp12
 70
     1
102
RTVSPropertyOp13
 70
     1
102
RTVSPropertyOp14
 70
     1
102
RTVSPropertyOp15
 70
     1
102
RTVSPropertyOp16
 70
     1
102
RTVSPropertyOp17
 70
     1
102
RTVSPropertyOp18
 70
     1
102
RTVSPropertyOp19
 70
     1
102
RTVSPropertyOp20
 70
     1
102
RTVSPropertyOp21
 70
     1
102
RTVSPropertyOp22
 70
     1
102
RTVSPropertyOp23
 70
     1
102
RTVSPropertyOp24
 70
     1
102
RTVSPropertyOp25
 70
     1
102
RTVSPropertyOp26
 70
     1
102
RTVSPropertyOp27
 70
     1
102
RTVSPropertyOp28
 70
     1
102
RTVSPropertyOp29
 70
     1
102
RTVSPropertyOp30
 70
     1
102
RTVSPropertyOp31
 70
     1
102
RTVSPropertyOp32
 70
     1
102
RTVSPropertyOp33
 70
     1
102
RTVSPropertyOp34
 70
     1
102
RTVSPropertyOp35
 70
     1
102
RTVSPropertyOp36
 70
     1
102
RTVSPropertyOp37
 70
     1
102
RTVSPropertyOp38
 70
     1
102
RTVSPropertyOp39
 70
     1
102
RTVSPropertyOp40
 70
     1
102
RTVSPropertyOp41
 70
     1
102
RTVSPropertyOp42
 70
     1
102
RTVSPropertyOp43
 70
     1
102
RTVSPropertyOp44
 70
     1
102
RTVSPropertyOp45
 70
     1
102
RTVSPropertyOp46
 70
     1
102
RTVSPropertyOp47
 70
     1
102
RTVSPropertyOp48
 70
     1
102
RTVSPropertyOp49
 70
     1
102
RTVSPropertyOp50
 70
     1
102
RTVSPropertyOp51
 70
     0
102
RTVSPropertyOp52
 70
     0
102
RTVSPropertyOp53
 70
     1
102
RTVSPropertyOp54
 70
     1
102
RTVSPropertyOp55
 70
     1
102
RTVSPropertyOp56
 70
     1
102
RTVSPropertyOp57
 70
     1
102
RTVSPost2010Prop28
280
     0
102
RTVSPost2010PropOp28
 70
     1
102
RTVSPost2010Prop29
280
     1
102
RTVSPost2010PropOp29
 70
     1
102
RTVSPost2010Prop30
280
     1
102
RTVSPost2010PropOp30
 70
     1
102
RTVSPost2010Prop31
280
     0
102
RTVSPost2010PropOp31
 70
     1
102
RTVSPost2010Prop32
280
     0
102
RTVSPost2010PropOp32
 70
     1
102
RTVSPost2010Prop33
280
     0
102
RTVSPost2010PropOp33
 70
     1
102
RTVSPost2010Prop34
280
     0
102
RTVSPost2010PropOp34
 70
     1
102
RTVSPost2010Prop35
280
     0
102
RTVSPost2010PropOp35
 70
     1
102
RTVSPost2010Prop36
280
     0
102
RTVSPost2010PropOp36
 70
     1
102
RTVSPost2010Prop37
 90
       50
102
RTVSPost2010PropOp37
 70
     1
102
RTVSPost2010Prop38
140
0.0
102
RTVSPost2010PropOp38
 70
     1
102
RTVSPost2010Prop39
140
1.0
102
RTVSPost2010PropOp39
 70
     1
102
RTVSPost2010Prop40
 90
        0
102
RTVSPost2010PropOp40
 70
     1
102
RTVSPost2010Prop41ColorIndex
 90
       18
102
RTVSPost2010Prop41ColorRGB
 90
        0
102
RTVSPost2010PropOp41
 70
     1
102
RTVSPost2010Prop42
 90
       50
102
RTVSPost2010PropOp42
 70
     1
102
RTVSPost2010Prop43
 90
        3
102
RTVSPost2010PropOp43
 70
     1
102
RTVSPost2010Prop44ColorIndex
 90
        5
102
RTVSPost2010Prop44ColorRGB
 90
      255
102
RTVSPost2010PropOp44
 70
     1
102
RTVSPost2010Prop45
280
     0
102
RTVSPost2010PropOp45
 70
     1
102
RTVSPost2010Prop46
 90
       50
102
RTVSPost2010PropOp46
 70
     1
102
RTVSPost2010Prop47
 90
       50
102
RTVSPost2010PropOp47
 70
     1
102
RTVSPost2010Prop48
 90
       50
102
RTVSPost2010PropOp48
 70
     1
102
RTVSPost2010Prop49
280
     0
102
RTVSPost2010PropOp49
 70
     1
102
RTVSPost2010Prop50
 90
       50
102
RTVSPost2010PropOp50
 70
     1
102
RTVSPost2010Prop51ColorIndex
 90
      256
102
RTVSPost2010Prop51ColorRGB
 90
-16777216
102
RTVSPost2010PropOp51
 70
     0
102
RTVSPost2010Prop52
140
1.0
102
RTVSPost2010PropOp52
 70
     0
102
RTVSPost2010Prop53
 90
        2
102
RTVSPost2010PropOp53
 70
     1
102
RTVSPost2010Prop54
  1
strokes_ogs.tif
102
RTVSPost2010PropOp54
 70
     1
102
RTVSPost2010Prop55
280
     0
102
RTVSPost2010PropOp55
 70
     1
102
RTVSPost2010Prop56
140
1.0
102
RTVSPost2010PropOp56
 70
     1
102
RTVSPost2010Prop57
140
1.0
102
RTVSPost2010PropOp57
 70
     1
  0
XRECORD
  5
464
102
{ACAD_REACTORS
330
463
102
}
330
463
100
AcDbXrecord
280
     1
102
RTVSPropertyOp0
 70
     1
102
RTVSPropertyOp1
 70
     1
102
RTVSPropertyOp2
 70
     1
102
RTVSPropertyOp3
 70
     1
102
RTVSPropertyOp4
 70
     1
102
RTVSPropertyOp5
 70
     1
102
RTVSPropertyOp6
 70
     1
102
RTVSPropertyOp7
 70
     1
102
RTVSPropertyOp8
 70
     1
102
RTVSPropertyOp9
 70
     1
102
RTVSPropertyOp10
 70
     1
102
RTVSPropertyOp11
 70
     1
102
RTVSPropertyOp12
 70
     1
102
RTVSPropertyOp13
 70
     1
102
RTVSPropertyOp14
 70
     1
102
RTVSPropertyOp15
 70
     1
102
RTVSPropertyOp16
 70
     1
102
RTVSPropertyOp17
 70
     1
102
RTVSPropertyOp18
 70
     1
102
RTVSPropertyOp19
 70
     1
102
RTVSPropertyOp20
 70
     1
102
RTVSPropertyOp21
 70
     1
102
RTVSPropertyOp22
 70
     1
102
RTVSPropertyOp23
 70
     1
102
RTVSPropertyOp24
 70
     1
102
RTVSPropertyOp25
 70
     1
102
RTVSPropertyOp26
 70
     1
102
RTVSPropertyOp27
 70
     1
102
RTVSPropertyOp28
 70
     1
102
RTVSPropertyOp29
 70
     1
102
RTVSPropertyOp30
 70
     1
102
RTVSPropertyOp31
 70
     1
102
RTVSPropertyOp32
 70
     1
102
RTVSPropertyOp33
 70
     1
102
RTVSPropertyOp34
 70
     1
102
RTVSPropertyOp35
 70
     1
102
RTVSPropertyOp36
 70
     1
102
RTVSPropertyOp37
 70
     1
102
RTVSPropertyOp38
 70
     1
102
RTVSPropertyOp39
 70
     1
102
RTVSPropertyOp40
 70
     1
102
RTVSPropertyOp41
 70
     1
102
RTVSPropertyOp42
 70
     1
102
RTVSPropertyOp43
 70
     1
102
RTVSPropertyOp44
 70
     1
102
RTVSPropertyOp45
 70
     1
102
RTVSPropertyOp46
 70
     1
102
RTVSPropertyOp47
 70
     1
102
RTVSPropertyOp48
 70
     1
102
RTVSPropertyOp49
 70
     1
102
RTVSPropertyOp50
 70
     1
102
RTVSPropertyOp51
 70
     0
102
RTVSPropertyOp52
 70
     0
102
RTVSPropertyOp53
 70
     1
102
RTVSPropertyOp54
 70
     1
102
RTVSPropertyOp55
 70
     1
102
RTVSPropertyOp56
 70
     1
102
RTVSPropertyOp57
 70
     1
102
RTVSPost2010Prop28
280
     0
102
RTVSPost2010PropOp28
 70
     1
102
RTVSPost2010Prop29
280
     1
102
RTVSPost2010PropOp29
 70
     1
102
RTVSPost2010Prop30
280
     1
102
RTVSPost2010PropOp30
 70
     1
102
RTVSPost2010Prop31
280
     0
102
RTVSPost2010PropOp31
 70
     1
102
RTVSPost2010Prop32
280
     0
102
RTVSPost2010PropOp32
 70
     1
102
RTVSPost2010Prop33
280
     0
102
RTVSPost2010PropOp33
 70
     1
102
RTVSPost2010Prop34
280
     0
102
RTVSPost2010PropOp34
 70
     1
102
RTVSPost2010Prop35
280
     0
102
RTVSPost2010PropOp35
 70
     1
102
RTVSPost2010Prop36
280
     0
102
RTVSPost2010PropOp36
 70
     1
102
RTVSPost2010Prop37
 90
       50
102
RTVSPost2010PropOp37
 70
     1
102
RTVSPost2010Prop38
140
0.0
102
RTVSPost2010PropOp38
 70
     1
102
RTVSPost2010Prop39
140
1.0
102
RTVSPost2010PropOp39
 70
     1
102
RTVSPost2010Prop40
 90
        0
102
RTVSPost2010PropOp40
 70
     1
102
RTVSPost2010Prop41ColorIndex
 90
       18
102
RTVSPost2010Prop41ColorRGB
 90
        0
102
RTVSPost2010PropOp41
 70
     1
102
RTVSPost2010Prop42
 90
       50
102
RTVSPost2010PropOp42
 70
     1
102
RTVSPost2010Prop43
 90
        3
102
RTVSPost2010PropOp43
 70
     1
102
RTVSPost2010Prop44ColorIndex
 90
        5
102
RTVSPost2010Prop44ColorRGB
 90
      255
102
RTVSPost2010PropOp44
 70
     1
102
RTVSPost2010Prop45
280
     0
102
RTVSPost2010PropOp45
 70
     1
102
RTVSPost2010Prop46
 90
       50
102
RTVSPost2010PropOp46
 70
     1
102
RTVSPost2010Prop47
 90
       50
102
RTVSPost2010PropOp47
 70
     1
102
RTVSPost2010Prop48
 90
       50
102
RTVSPost2010PropOp48
 70
     1
102
RTVSPost2010Prop49
280
     0
102
RTVSPost2010PropOp49
 70
     1
102
RTVSPost2010Prop50
 90
       50
102
RTVSPost2010PropOp50
 70
     1
102
RTVSPost2010Prop51ColorIndex
 90
      256
102
RTVSPost2010Prop51ColorRGB
 90
-16777216
102
RTVSPost2010PropOp51
 70
     0
102
RTVSPost2010Prop52
140
1.0
102
RTVSPost2010PropOp52
 70
     0
102
RTVSPost2010Prop53
 90
        2
102
RTVSPost2010PropOp53
 70
     1
102
RTVSPost2010Prop54
  1
strokes_ogs.tif
102
RTVSPost2010PropOp54
 70
     1
102
RTVSPost2010Prop55
280
     0
102
RTVSPost2010PropOp55
 70
     1
102
RTVSPost2010Prop56
140
1.0
102
RTVSPost2010PropOp56
 70
     1
102
RTVSPost2010Prop57
140
1.0
102
RTVSPost2010PropOp57
 70
     1
  0
XRECORD
  5
46C
102
{ACAD_REACTORS
330
46B
102
}
330
46B
100
AcDbXrecord
280
     1
102
RTVSPropertyOp0
 70
     1
102
RTVSPropertyOp1
 70
     1
102
RTVSPropertyOp2
 70
     1
102
RTVSPropertyOp3
 70
     1
102
RTVSPropertyOp4
 70
     1
102
RTVSPropertyOp5
 70
     1
102
RTVSPropertyOp6
 70
     1
102
RTVSPropertyOp7
 70
     1
102
RTVSPropertyOp8
 70
     1
102
RTVSPropertyOp9
 70
     1
102
RTVSPropertyOp10
 70
     1
102
RTVSPropertyOp11
 70
     1
102
RTVSPropertyOp12
 70
     1
102
RTVSPropertyOp13
 70
     1
102
RTVSPropertyOp14
 70
     1
102
RTVSPropertyOp15
 70
     1
102
RTVSPropertyOp16
 70
     1
102
RTVSPropertyOp17
 70
     1
102
RTVSPropertyOp18
 70
     1
102
RTVSPropertyOp19
 70
     1
102
RTVSPropertyOp20
 70
     1
102
RTVSPropertyOp21
 70
     1
102
RTVSPropertyOp22
 70
     1
102
RTVSPropertyOp23
 70
     1
102
RTVSPropertyOp24
 70
     1
102
RTVSPropertyOp25
 70
     1
102
RTVSPropertyOp26
 70
     1
102
RTVSPropertyOp27
 70
     1
102
RTVSPropertyOp28
 70
     1
102
RTVSPropertyOp29
 70
     1
102
RTVSPropertyOp30
 70
     1
102
RTVSPropertyOp31
 70
     1
102
RTVSPropertyOp32
 70
     1
102
RTVSPropertyOp33
 70
     1
102
RTVSPropertyOp34
 70
     1
102
RTVSPropertyOp35
 70
     1
102
RTVSPropertyOp36
 70
     1
102
RTVSPropertyOp37
 70
     1
102
RTVSPropertyOp38
 70
     1
102
RTVSPropertyOp39
 70
     1
102
RTVSPropertyOp40
 70
     1
102
RTVSPropertyOp41
 70
     1
102
RTVSPropertyOp42
 70
     1
102
RTVSPropertyOp43
 70
     1
102
RTVSPropertyOp44
 70
     1
102
RTVSPropertyOp45
 70
     1
102
RTVSPropertyOp46
 70
     1
102
RTVSPropertyOp47
 70
     1
102
RTVSPropertyOp48
 70
     1
102
RTVSPropertyOp49
 70
     1
102
RTVSPropertyOp50
 70
     1
102
RTVSPropertyOp51
 70
     0
102
RTVSPropertyOp52
 70
     0
102
RTVSPropertyOp53
 70
     1
102
RTVSPropertyOp54
 70
     1
102
RTVSPropertyOp55
 70
     1
102
RTVSPropertyOp56
 70
     1
102
RTVSPropertyOp57
 70
     1
102
RTVSPost2010Prop28
280
     0
102
RTVSPost2010PropOp28
 70
     1
102
RTVSPost2010Prop29
280
     1
102
RTVSPost2010PropOp29
 70
     1
102
RTVSPost2010Prop30
280
     1
102
RTVSPost2010PropOp30
 70
     1
102
RTVSPost2010Prop31
280
     0
102
RTVSPost2010PropOp31
 70
     1
102
RTVSPost2010Prop32
280
     0
102
RTVSPost2010PropOp32
 70
     1
102
RTVSPost2010Prop33
280
     0
102
RTVSPost2010PropOp33
 70
     1
102
RTVSPost2010Prop34
280
     0
102
RTVSPost2010PropOp34
 70
     1
102
RTVSPost2010Prop35
280
     0
102
RTVSPost2010PropOp35
 70
     1
102
RTVSPost2010Prop36
280
     0
102
RTVSPost2010PropOp36
 70
     1
102
RTVSPost2010Prop37
 90
       50
102
RTVSPost2010PropOp37
 70
     1
102
RTVSPost2010Prop38
140
0.0
102
RTVSPost2010PropOp38
 70
     1
102
RTVSPost2010Prop39
140
1.0
102
RTVSPost2010PropOp39
 70
     1
102
RTVSPost2010Prop40
 90
        0
102
RTVSPost2010PropOp40
 70
     1
102
RTVSPost2010Prop41ColorIndex
 90
       18
102
RTVSPost2010Prop41ColorRGB
 90
        0
102
RTVSPost2010PropOp41
 70
     1
102
RTVSPost2010Prop42
 90
       50
102
RTVSPost2010PropOp42
 70
     1
102
RTVSPost2010Prop43
 90
        3
102
RTVSPost2010PropOp43
 70
     1
102
RTVSPost2010Prop44ColorIndex
 90
        5
102
RTVSPost2010Prop44ColorRGB
 90
      255
102
RTVSPost2010PropOp44
 70
     1
102
RTVSPost2010Prop45
280
     0
102
RTVSPost2010PropOp45
 70
     1
102
RTVSPost2010Prop46
 90
       50
102
RTVSPost2010PropOp46
 70
     1
102
RTVSPost2010Prop47
 90
       50
102
RTVSPost2010PropOp47
 70
     1
102
RTVSPost2010Prop48
 90
       50
102
RTVSPost2010PropOp48
 70
     1
102
RTVSPost2010Prop49
280
     0
102
RTVSPost2010PropOp49
 70
     1
102
RTVSPost2010Prop50
 90
       50
102
RTVSPost2010PropOp50
 70
     1
102
RTVSPost2010Prop51ColorIndex
 90
      256
102
RTVSPost2010Prop51ColorRGB
 90
-16777216
102
RTVSPost2010PropOp51
 70
     0
102
RTVSPost2010Prop52
140
1.0
102
RTVSPost2010PropOp52
 70
     0
102
RTVSPost2010Prop53
 90
        2
102
RTVSPost2010PropOp53
 70
     1
102
RTVSPost2010Prop54
  1
strokes_ogs.tif
102
RTVSPost2010PropOp54
 70
     1
102
RTVSPost2010Prop55
280
     0
102
RTVSPost2010PropOp55
 70
     1
102
RTVSPost2010Prop56
140
1.0
102
RTVSPost2010PropOp56
 70
     1
102
RTVSPost2010Prop57
140
1.0
102
RTVSPost2010PropOp57
 70
     1
  0
XRECORD
  5
460
102
{ACAD_REACTORS
330
45F
102
}
330
45F
100
AcDbXrecord
280
     1
102
RTVSPropertyOp0
 70
     1
102
RTVSPropertyOp1
 70
     1
102
RTVSPropertyOp2
 70
     1
102
RTVSPropertyOp3
 70
     1
102
RTVSPropertyOp4
 70
     1
102
RTVSPropertyOp5
 70
     1
102
RTVSPropertyOp6
 70
     1
102
RTVSPropertyOp7
 70
     1
102
RTVSPropertyOp8
 70
     1
102
RTVSPropertyOp9
 70
     1
102
RTVSPropertyOp10
 70
     1
102
RTVSPropertyOp11
 70
     1
102
RTVSPropertyOp12
 70
     1
102
RTVSPropertyOp13
 70
     1
102
RTVSPropertyOp14
 70
     1
102
RTVSPropertyOp15
 70
     1
102
RTVSPropertyOp16
 70
     1
102
RTVSPropertyOp17
 70
     1
102
RTVSPropertyOp18
 70
     1
102
RTVSPropertyOp19
 70
     1
102
RTVSPropertyOp20
 70
     1
102
RTVSPropertyOp21
 70
     1
102
RTVSPropertyOp22
 70
     1
102
RTVSPropertyOp23
 70
     1
102
RTVSPropertyOp24
 70
     1
102
RTVSPropertyOp25
 70
     1
102
RTVSPropertyOp26
 70
     1
102
RTVSPropertyOp27
 70
     1
102
RTVSPropertyOp28
 70
     1
102
RTVSPropertyOp29
 70
     1
102
RTVSPropertyOp30
 70
     1
102
RTVSPropertyOp31
 70
     1
102
RTVSPropertyOp32
 70
     1
102
RTVSPropertyOp33
 70
     1
102
RTVSPropertyOp34
 70
     1
102
RTVSPropertyOp35
 70
     1
102
RTVSPropertyOp36
 70
     1
102
RTVSPropertyOp37
 70
     1
102
RTVSPropertyOp38
 70
     1
102
RTVSPropertyOp39
 70
     1
102
RTVSPropertyOp40
 70
     1
102
RTVSPropertyOp41
 70
     1
102
RTVSPropertyOp42
 70
     1
102
RTVSPropertyOp43
 70
     1
102
RTVSPropertyOp44
 70
     1
102
RTVSPropertyOp45
 70
     1
102
RTVSPropertyOp46
 70
     1
102
RTVSPropertyOp47
 70
     1
102
RTVSPropertyOp48
 70
     1
102
RTVSPropertyOp49
 70
     1
102
RTVSPropertyOp50
 70
     1
102
RTVSPropertyOp51
 70
     0
102
RTVSPropertyOp52
 70
     0
102
RTVSPropertyOp53
 70
     1
102
RTVSPropertyOp54
 70
     1
102
RTVSPropertyOp55
 70
     1
102
RTVSPropertyOp56
 70
     1
102
RTVSPropertyOp57
 70
     1
102
RTVSPost2010Prop28
280
     0
102
RTVSPost2010PropOp28
 70
     1
102
RTVSPost2010Prop29
280
     1
102
RTVSPost2010PropOp29
 70
     1
102
RTVSPost2010Prop30
280
     1
102
RTVSPost2010PropOp30
 70
     1
102
RTVSPost2010Prop31
280
     0
102
RTVSPost2010PropOp31
 70
     1
102
RTVSPost2010Prop32
280
     0
102
RTVSPost2010PropOp32
 70
     1
102
RTVSPost2010Prop33
280
     0
102
RTVSPost2010PropOp33
 70
     1
102
RTVSPost2010Prop34
280
     0
102
RTVSPost2010PropOp34
 70
     1
102
RTVSPost2010Prop35
280
     0
102
RTVSPost2010PropOp35
 70
     1
102
RTVSPost2010Prop36
280
     0
102
RTVSPost2010PropOp36
 70
     1
102
RTVSPost2010Prop37
 90
       50
102
RTVSPost2010PropOp37
 70
     1
102
RTVSPost2010Prop38
140
0.0
102
RTVSPost2010PropOp38
 70
     1
102
RTVSPost2010Prop39
140
1.0
102
RTVSPost2010PropOp39
 70
     1
102
RTVSPost2010Prop40
 90
        0
102
RTVSPost2010PropOp40
 70
     1
102
RTVSPost2010Prop41ColorIndex
 90
       18
102
RTVSPost2010Prop41ColorRGB
 90
        0
102
RTVSPost2010PropOp41
 70
     1
102
RTVSPost2010Prop42
 90
       50
102
RTVSPost2010PropOp42
 70
     1
102
RTVSPost2010Prop43
 90
        3
102
RTVSPost2010PropOp43
 70
     1
102
RTVSPost2010Prop44ColorIndex
 90
        5
102
RTVSPost2010Prop44ColorRGB
 90
      255
102
RTVSPost2010PropOp44
 70
     1
102
RTVSPost2010Prop45
280
     0
102
RTVSPost2010PropOp45
 70
     1
102
RTVSPost2010Prop46
 90
       50
102
RTVSPost2010PropOp46
 70
     1
102
RTVSPost2010Prop47
 90
       50
102
RTVSPost2010PropOp47
 70
     1
102
RTVSPost2010Prop48
 90
       50
102
RTVSPost2010PropOp48
 70
     1
102
RTVSPost2010Prop49
280
     0
102
RTVSPost2010PropOp49
 70
     1
102
RTVSPost2010Prop50
 90
       50
102
RTVSPost2010PropOp50
 70
     1
102
RTVSPost2010Prop51ColorIndex
 90
      256
102
RTVSPost2010Prop51ColorRGB
 90
-16777216
102
RTVSPost2010PropOp51
 70
     0
102
RTVSPost2010Prop52
140
1.0
102
RTVSPost2010PropOp52
 70
     0
102
RTVSPost2010Prop53
 90
        2
102
RTVSPost2010PropOp53
 70
     1
102
RTVSPost2010Prop54
  1
strokes_ogs.tif
102
RTVSPost2010PropOp54
 70
     1
102
RTVSPost2010Prop55
280
     0
102
RTVSPost2010PropOp55
 70
     1
102
RTVSPost2010Prop56
140
1.0
102
RTVSPost2010PropOp56
 70
     1
102
RTVSPost2010Prop57
140
1.0
102
RTVSPost2010PropOp57
 70
     1
  0
XRECORD
  5
462
102
{ACAD_REACTORS
330
461
102
}
330
461
100
AcDbXrecord
280
     1
102
RTVSPropertyOp0
 70
     1
102
RTVSPropertyOp1
 70
     1
102
RTVSPropertyOp2
 70
     1
102
RTVSPropertyOp3
 70
     1
102
RTVSPropertyOp4
 70
     1
102
RTVSPropertyOp5
 70
     1
102
RTVSPropertyOp6
 70
     1
102
RTVSPropertyOp7
 70
     1
102
RTVSPropertyOp8
 70
     1
102
RTVSPropertyOp9
 70
     1
102
RTVSPropertyOp10
 70
     1
102
RTVSPropertyOp11
 70
     1
102
RTVSPropertyOp12
 70
     1
102
RTVSPropertyOp13
 70
     1
102
RTVSPropertyOp14
 70
     1
102
RTVSPropertyOp15
 70
     1
102
RTVSPropertyOp16
 70
     1
102
RTVSPropertyOp17
 70
     1
102
RTVSPropertyOp18
 70
     1
102
RTVSPropertyOp19
 70
     1
102
RTVSPropertyOp20
 70
     1
102
RTVSPropertyOp21
 70
     1
102
RTVSPropertyOp22
 70
     1
102
RTVSPropertyOp23
 70
     1
102
RTVSPropertyOp24
 70
     1
102
RTVSPropertyOp25
 70
     1
102
RTVSPropertyOp26
 70
     1
102
RTVSPropertyOp27
 70
     1
102
RTVSPropertyOp28
 70
     1
102
RTVSPropertyOp29
 70
     1
102
RTVSPropertyOp30
 70
     1
102
RTVSPropertyOp31
 70
     1
102
RTVSPropertyOp32
 70
     1
102
RTVSPropertyOp33
 70
     1
102
RTVSPropertyOp34
 70
     1
102
RTVSPropertyOp35
 70
     1
102
RTVSPropertyOp36
 70
     1
102
RTVSPropertyOp37
 70
     1
102
RTVSPropertyOp38
 70
     1
102
RTVSPropertyOp39
 70
     1
102
RTVSPropertyOp40
 70
     1
102
RTVSPropertyOp41
 70
     1
102
RTVSPropertyOp42
 70
     1
102
RTVSPropertyOp43
 70
     1
102
RTVSPropertyOp44
 70
     1
102
RTVSPropertyOp45
 70
     1
102
RTVSPropertyOp46
 70
     1
102
RTVSPropertyOp47
 70
     1
102
RTVSPropertyOp48
 70
     1
102
RTVSPropertyOp49
 70
     1
102
RTVSPropertyOp50
 70
     1
102
RTVSPropertyOp51
 70
     0
102
RTVSPropertyOp52
 70
     0
102
RTVSPropertyOp53
 70
     1
102
RTVSPropertyOp54
 70
     1
102
RTVSPropertyOp55
 70
     1
102
RTVSPropertyOp56
 70
     1
102
RTVSPropertyOp57
 70
     1
102
RTVSPost2010Prop28
280
     0
102
RTVSPost2010PropOp28
 70
     1
102
RTVSPost2010Prop29
280
     1
102
RTVSPost2010PropOp29
 70
     1
102
RTVSPost2010Prop30
280
     1
102
RTVSPost2010PropOp30
 70
     1
102
RTVSPost2010Prop31
280
     0
102
RTVSPost2010PropOp31
 70
     1
102
RTVSPost2010Prop32
280
     0
102
RTVSPost2010PropOp32
 70
     1
102
RTVSPost2010Prop33
280
     0
102
RTVSPost2010PropOp33
 70
     1
102
RTVSPost2010Prop34
280
     0
102
RTVSPost2010PropOp34
 70
     1
102
RTVSPost2010Prop35
280
     0
102
RTVSPost2010PropOp35
 70
     1
102
RTVSPost2010Prop36
280
     0
102
RTVSPost2010PropOp36
 70
     1
102
RTVSPost2010Prop37
 90
       50
102
RTVSPost2010PropOp37
 70
     1
102
RTVSPost2010Prop38
140
0.0
102
RTVSPost2010PropOp38
 70
     1
102
RTVSPost2010Prop39
140
1.0
102
RTVSPost2010PropOp39
 70
     1
102
RTVSPost2010Prop40
 90
        0
102
RTVSPost2010PropOp40
 70
     1
102
RTVSPost2010Prop41ColorIndex
 90
       18
102
RTVSPost2010Prop41ColorRGB
 90
        0
102
RTVSPost2010PropOp41
 70
     1
102
RTVSPost2010Prop42
 90
       50
102
RTVSPost2010PropOp42
 70
     1
102
RTVSPost2010Prop43
 90
        3
102
RTVSPost2010PropOp43
 70
     1
102
RTVSPost2010Prop44ColorIndex
 90
        5
102
RTVSPost2010Prop44ColorRGB
 90
      255
102
RTVSPost2010PropOp44
 70
     1
102
RTVSPost2010Prop45
280
     0
102
RTVSPost2010PropOp45
 70
     1
102
RTVSPost2010Prop46
 90
       50
102
RTVSPost2010PropOp46
 70
     1
102
RTVSPost2010Prop47
 90
       50
102
RTVSPost2010PropOp47
 70
     1
102
RTVSPost2010Prop48
 90
       50
102
RTVSPost2010PropOp48
 70
     1
102
RTVSPost2010Prop49
280
     0
102
RTVSPost2010PropOp49
 70
     1
102
RTVSPost2010Prop50
 90
       50
102
RTVSPost2010PropOp50
 70
     1
102
RTVSPost2010Prop51ColorIndex
 90
      256
102
RTVSPost2010Prop51ColorRGB
 90
-16777216
102
RTVSPost2010PropOp51
 70
     0
102
RTVSPost2010Prop52
140
1.0
102
RTVSPost2010PropOp52
 70
     0
102
RTVSPost2010Prop53
 90
        2
102
RTVSPost2010PropOp53
 70
     1
102
RTVSPost2010Prop54
  1
strokes_ogs.tif
102
RTVSPost2010PropOp54
 70
     1
102
RTVSPost2010Prop55
280
     0
102
RTVSPost2010PropOp55
 70
     1
102
RTVSPost2010Prop56
140
1.0
102
RTVSPost2010PropOp56
 70
     1
102
RTVSPost2010Prop57
140
1.0
102
RTVSPost2010PropOp57
 70
     1
  0
XRECORD
  5
472
102
{ACAD_REACTORS
330
471
102
}
330
471
100
AcDbXrecord
280
     1
102
RTVSPropertyOp0
 70
     0
102
RTVSPropertyOp1
 70
     0
102
RTVSPropertyOp2
 70
     0
102
RTVSPropertyOp3
 70
     0
102
RTVSPropertyOp4
 70
     0
102
RTVSPropertyOp5
 70
     0
102
RTVSPropertyOp6
 70
     0
102
RTVSPropertyOp7
 70
     0
102
RTVSPropertyOp8
 70
     0
102
RTVSPropertyOp9
 70
     0
102
RTVSPropertyOp10
 70
     0
102
RTVSPropertyOp11
 70
     0
102
RTVSPropertyOp12
 70
     0
102
RTVSPropertyOp13
 70
     0
102
RTVSPropertyOp14
 70
     2
102
RTVSPropertyOp15
 70
     0
102
RTVSPropertyOp16
 70
     0
102
RTVSPropertyOp17
 70
     0
102
RTVSPropertyOp18
 70
     0
102
RTVSPropertyOp19
 70
     0
102
RTVSPropertyOp20
 70
     0
102
RTVSPropertyOp21
 70
     0
102
RTVSPropertyOp22
 70
     0
102
RTVSPropertyOp23
 70
     0
102
RTVSPropertyOp24
 70
     0
102
RTVSPropertyOp25
 70
     0
102
RTVSPropertyOp26
 70
     0
102
RTVSPropertyOp27
 70
     0
102
RTVSPropertyOp28
 70
     0
102
RTVSPropertyOp29
 70
     0
102
RTVSPropertyOp30
 70
     0
102
RTVSPropertyOp31
 70
     0
102
RTVSPropertyOp32
 70
     0
102
RTVSPropertyOp33
 70
     0
102
RTVSPropertyOp34
 70
     0
102
RTVSPropertyOp35
 70
     0
102
RTVSPropertyOp36
 70
     0
102
RTVSPropertyOp37
 70
     0
102
RTVSPropertyOp38
 70
     0
102
RTVSPropertyOp39
 70
     0
102
RTVSPropertyOp40
 70
     0
102
RTVSPropertyOp41
 70
     0
102
RTVSPropertyOp42
 70
     0
102
RTVSPropertyOp43
 70
     0
102
RTVSPropertyOp44
 70
     0
102
RTVSPropertyOp45
 70
     0
102
RTVSPropertyOp46
 70
     0
102
RTVSPropertyOp47
 70
     0
102
RTVSPropertyOp48
 70
     0
102
RTVSPropertyOp49
 70
     0
102
RTVSPropertyOp50
 70
     0
102
RTVSPropertyOp51
 70
     0
102
RTVSPropertyOp52
 70
     0
102
RTVSPropertyOp53
 70
     0
102
RTVSPropertyOp54
 70
     0
102
RTVSPropertyOp55
 70
     0
102
RTVSPropertyOp56
 70
     0
102
RTVSPropertyOp57
 70
     0
102
RTVSPost2010Prop28
280
     0
102
RTVSPost2010PropOp28
 70
     0
102
RTVSPost2010Prop29
280
     1
102
RTVSPost2010PropOp29
 70
     0
102
RTVSPost2010Prop30
280
     1
102
RTVSPost2010PropOp30
 70
     0
102
RTVSPost2010Prop31
280
     0
102
RTVSPost2010PropOp31
 70
     0
102
RTVSPost2010Prop32
280
     0
102
RTVSPost2010PropOp32
 70
     0
102
RTVSPost2010Prop33
280
     0
102
RTVSPost2010PropOp33
 70
     0
102
RTVSPost2010Prop34
280
     0
102
RTVSPost2010PropOp34
 70
     0
102
RTVSPost2010Prop35
280
     0
102
RTVSPost2010PropOp35
 70
     0
102
RTVSPost2010Prop36
280
     0
102
RTVSPost2010PropOp36
 70
     0
102
RTVSPost2010Prop37
 90
       50
102
RTVSPost2010PropOp37
 70
     0
102
RTVSPost2010Prop38
140
0.0
102
RTVSPost2010PropOp38
 70
     0
102
RTVSPost2010Prop39
140
1.0
102
RTVSPost2010PropOp39
 70
     0
102
RTVSPost2010Prop40
 90
        0
102
RTVSPost2010PropOp40
 70
     0
102
RTVSPost2010Prop41ColorIndex
 90
       18
102
RTVSPost2010Prop41ColorRGB
 90
        0
102
RTVSPost2010PropOp41
 70
     0
102
RTVSPost2010Prop42
 90
       50
102
RTVSPost2010PropOp42
 70
     0
102
RTVSPost2010Prop43
 90
        3
102
RTVSPost2010PropOp43
 70
     0
102
RTVSPost2010Prop44ColorIndex
 90
        5
102
RTVSPost2010Prop44ColorRGB
 90
      255
102
RTVSPost2010PropOp44
 70
     0
102
RTVSPost2010Prop45
280
     0
102
RTVSPost2010PropOp45
 70
     0
102
RTVSPost2010Prop46
 90
       50
102
RTVSPost2010PropOp46
 70
     0
102
RTVSPost2010Prop47
 90
       50
102
RTVSPost2010PropOp47
 70
     0
102
RTVSPost2010Prop48
 90
       50
102
RTVSPost2010PropOp48
 70
     0
102
RTVSPost2010Prop49
280
     0
102
RTVSPost2010PropOp49
 70
     0
102
RTVSPost2010Prop50
 90
       50
102
RTVSPost2010PropOp50
 70
     0
102
RTVSPost2010Prop51ColorIndex
 90
      256
102
RTVSPost2010Prop51ColorRGB
 90
-16777216
102
RTVSPost2010PropOp51
 70
     0
102
RTVSPost2010Prop52
140
1.0
102
RTVSPost2010PropOp52
 70
     0
102
RTVSPost2010Prop53
 90
        2
102
RTVSPost2010PropOp53
 70
     0
102
RTVSPost2010Prop54
  1
strokes_ogs.tif
102
RTVSPost2010PropOp54
 70
     0
102
RTVSPost2010Prop55
280
     0
102
RTVSPost2010PropOp55
 70
     0
102
RTVSPost2010Prop56
140
1.0
102
RTVSPost2010PropOp56
 70
     0
102
RTVSPost2010Prop57
140
1.0
102
RTVSPost2010PropOp57
 70
     0
  0
XRECORD
  5
46A
102
{ACAD_REACTORS
330
469
102
}
330
469
100
AcDbXrecord
280
     1
102
RTVSPropertyOp0
 70
     1
102
RTVSPropertyOp1
 70
     1
102
RTVSPropertyOp2
 70
     1
102
RTVSPropertyOp3
 70
     1
102
RTVSPropertyOp4
 70
     1
102
RTVSPropertyOp5
 70
     1
102
RTVSPropertyOp6
 70
     1
102
RTVSPropertyOp7
 70
     1
102
RTVSPropertyOp8
 70
     1
102
RTVSPropertyOp9
 70
     1
102
RTVSPropertyOp10
 70
     1
102
RTVSPropertyOp11
 70
     1
102
RTVSPropertyOp12
 70
     1
102
RTVSPropertyOp13
 70
     1
102
RTVSPropertyOp14
 70
     1
102
RTVSPropertyOp15
 70
     1
102
RTVSPropertyOp16
 70
     1
102
RTVSPropertyOp17
 70
     1
102
RTVSPropertyOp18
 70
     1
102
RTVSPropertyOp19
 70
     1
102
RTVSPropertyOp20
 70
     1
102
RTVSPropertyOp21
 70
     1
102
RTVSPropertyOp22
 70
     1
102
RTVSPropertyOp23
 70
     1
102
RTVSPropertyOp24
 70
     1
102
RTVSPropertyOp25
 70
     1
102
RTVSPropertyOp26
 70
     1
102
RTVSPropertyOp27
 70
     1
102
RTVSPropertyOp28
 70
     1
102
RTVSPropertyOp29
 70
     1
102
RTVSPropertyOp30
 70
     1
102
RTVSPropertyOp31
 70
     1
102
RTVSPropertyOp32
 70
     1
102
RTVSPropertyOp33
 70
     1
102
RTVSPropertyOp34
 70
     1
102
RTVSPropertyOp35
 70
     1
102
RTVSPropertyOp36
 70
     1
102
RTVSPropertyOp37
 70
     1
102
RTVSPropertyOp38
 70
     1
102
RTVSPropertyOp39
 70
     1
102
RTVSPropertyOp40
 70
     1
102
RTVSPropertyOp41
 70
     1
102
RTVSPropertyOp42
 70
     1
102
RTVSPropertyOp43
 70
     1
102
RTVSPropertyOp44
 70
     1
102
RTVSPropertyOp45
 70
     1
102
RTVSPropertyOp46
 70
     1
102
RTVSPropertyOp47
 70
     1
102
RTVSPropertyOp48
 70
     1
102
RTVSPropertyOp49
 70
     1
102
RTVSPropertyOp50
 70
     1
102
RTVSPropertyOp51
 70
     0
102
RTVSPropertyOp52
 70
     0
102
RTVSPropertyOp53
 70
     1
102
RTVSPropertyOp54
 70
     1
102
RTVSPropertyOp55
 70
     1
102
RTVSPropertyOp56
 70
     1
102
RTVSPropertyOp57
 70
     1
102
RTVSPost2010Prop28
280
     0
102
RTVSPost2010PropOp28
 70
     1
102
RTVSPost2010Prop29
280
     1
102
RTVSPost2010PropOp29
 70
     1
102
RTVSPost2010Prop30
280
     1
102
RTVSPost2010PropOp30
 70
     1
102
RTVSPost2010Prop31
280
     0
102
RTVSPost2010PropOp31
 70
     1
102
RTVSPost2010Prop32
280
     0
102
RTVSPost2010PropOp32
 70
     1
102
RTVSPost2010Prop33
280
     0
102
RTVSPost2010PropOp33
 70
     1
102
RTVSPost2010Prop34
280
     0
102
RTVSPost2010PropOp34
 70
     1
102
RTVSPost2010Prop35
280
     0
102
RTVSPost2010PropOp35
 70
     1
102
RTVSPost2010Prop36
280
     0
102
RTVSPost2010PropOp36
 70
     1
102
RTVSPost2010Prop37
 90
       50
102
RTVSPost2010PropOp37
 70
     1
102
RTVSPost2010Prop38
140
0.0
102
RTVSPost2010PropOp38
 70
     1
102
RTVSPost2010Prop39
140
1.0
102
RTVSPost2010PropOp39
 70
     1
102
RTVSPost2010Prop40
 90
        0
102
RTVSPost2010PropOp40
 70
     1
102
RTVSPost2010Prop41ColorIndex
 90
       18
102
RTVSPost2010Prop41ColorRGB
 90
        0
102
RTVSPost2010PropOp41
 70
     1
102
RTVSPost2010Prop42
 90
       50
102
RTVSPost2010PropOp42
 70
     1
102
RTVSPost2010Prop43
 90
        3
102
RTVSPost2010PropOp43
 70
     1
102
RTVSPost2010Prop44ColorIndex
 90
        5
102
RTVSPost2010Prop44ColorRGB
 90
      255
102
RTVSPost2010PropOp44
 70
     1
102
RTVSPost2010Prop45
280
     0
102
RTVSPost2010PropOp45
 70
     1
102
RTVSPost2010Prop46
 90
       50
102
RTVSPost2010PropOp46
 70
     1
102
RTVSPost2010Prop47
 90
       50
102
RTVSPost2010PropOp47
 70
     1
102
RTVSPost2010Prop48
 90
       50
102
RTVSPost2010PropOp48
 70
     1
102
RTVSPost2010Prop49
280
     0
102
RTVSPost2010PropOp49
 70
     1
102
RTVSPost2010Prop50
 90
       50
102
RTVSPost2010PropOp50
 70
     1
102
RTVSPost2010Prop51ColorIndex
 90
      256
102
RTVSPost2010Prop51ColorRGB
 90
-16777216
102
RTVSPost2010PropOp51
 70
     0
102
RTVSPost2010Prop52
140
1.0
102
RTVSPost2010PropOp52
 70
     0
102
RTVSPost2010Prop53
 90
        2
102
RTVSPost2010PropOp53
 70
     1
102
RTVSPost2010Prop54
  1
strokes_ogs.tif
102
RTVSPost2010PropOp54
 70
     1
102
RTVSPost2010Prop55
280
     0
102
RTVSPost2010PropOp55
 70
     1
102
RTVSPost2010Prop56
140
1.0
102
RTVSPost2010PropOp56
 70
     1
102
RTVSPost2010Prop57
140
1.0
102
RTVSPost2010PropOp57
 70
     1
  0
XRECORD
  5
44E
102
{ACAD_REACTORS
330
44D
102
}
330
44D
100
AcDbXrecord
280
     1
102
RTVSPropertyOp0
 70
     1
102
RTVSPropertyOp1
 70
     1
102
RTVSPropertyOp2
 70
     1
102
RTVSPropertyOp3
 70
     1
102
RTVSPropertyOp4
 70
     1
102
RTVSPropertyOp5
 70
     1
102
RTVSPropertyOp6
 70
     1
102
RTVSPropertyOp7
 70
     1
102
RTVSPropertyOp8
 70
     1
102
RTVSPropertyOp9
 70
     1
102
RTVSPropertyOp10
 70
     1
102
RTVSPropertyOp11
 70
     1
102
RTVSPropertyOp12
 70
     1
102
RTVSPropertyOp13
 70
     1
102
RTVSPropertyOp14
 70
     1
102
RTVSPropertyOp15
 70
     1
102
RTVSPropertyOp16
 70
     1
102
RTVSPropertyOp17
 70
     1
102
RTVSPropertyOp18
 70
     1
102
RTVSPropertyOp19
 70
     1
102
RTVSPropertyOp20
 70
     1
102
RTVSPropertyOp21
 70
     1
102
RTVSPropertyOp22
 70
     1
102
RTVSPropertyOp23
 70
     1
102
RTVSPropertyOp24
 70
     1
102
RTVSPropertyOp25
 70
     1
102
RTVSPropertyOp26
 70
     1
102
RTVSPropertyOp27
 70
     1
102
RTVSPropertyOp28
 70
     1
102
RTVSPropertyOp29
 70
     1
102
RTVSPropertyOp30
 70
     1
102
RTVSPropertyOp31
 70
     1
102
RTVSPropertyOp32
 70
     1
102
RTVSPropertyOp33
 70
     1
102
RTVSPropertyOp34
 70
     1
102
RTVSPropertyOp35
 70
     1
102
RTVSPropertyOp36
 70
     1
102
RTVSPropertyOp37
 70
     1
102
RTVSPropertyOp38
 70
     1
102
RTVSPropertyOp39
 70
     1
102
RTVSPropertyOp40
 70
     1
102
RTVSPropertyOp41
 70
     1
102
RTVSPropertyOp42
 70
     1
102
RTVSPropertyOp43
 70
     1
102
RTVSPropertyOp44
 70
     1
102
RTVSPropertyOp45
 70
     1
102
RTVSPropertyOp46
 70
     1
102
RTVSPropertyOp47
 70
     1
102
RTVSPropertyOp48
 70
     1
102
RTVSPropertyOp49
 70
     1
102
RTVSPropertyOp50
 70
     1
102
RTVSPropertyOp51
 70
     0
102
RTVSPropertyOp52
 70
     0
102
RTVSPropertyOp53
 70
     1
102
RTVSPropertyOp54
 70
     1
102
RTVSPropertyOp55
 70
     1
102
RTVSPropertyOp56
 70
     1
102
RTVSPropertyOp57
 70
     1
102
RTVSPost2010Prop28
280
     0
102
RTVSPost2010PropOp28
 70
     1
102
RTVSPost2010Prop29
280
     1
102
RTVSPost2010PropOp29
 70
     1
102
RTVSPost2010Prop30
280
     1
102
RTVSPost2010PropOp30
 70
     1
102
RTVSPost2010Prop31
280
     0
102
RTVSPost2010PropOp31
 70
     1
102
RTVSPost2010Prop32
280
     0
102
RTVSPost2010PropOp32
 70
     1
102
RTVSPost2010Prop33
280
     0
102
RTVSPost2010PropOp33
 70
     1
102
RTVSPost2010Prop34
280
     0
102
RTVSPost2010PropOp34
 70
     1
102
RTVSPost2010Prop35
280
     0
102
RTVSPost2010PropOp35
 70
     1
102
RTVSPost2010Prop36
280
     0
102
RTVSPost2010PropOp36
 70
     1
102
RTVSPost2010Prop37
 90
       50
102
RTVSPost2010PropOp37
 70
     1
102
RTVSPost2010Prop38
140
0.0
102
RTVSPost2010PropOp38
 70
     1
102
RTVSPost2010Prop39
140
1.0
102
RTVSPost2010PropOp39
 70
     1
102
RTVSPost2010Prop40
 90
        0
102
RTVSPost2010PropOp40
 70
     1
102
RTVSPost2010Prop41ColorIndex
 90
       18
102
RTVSPost2010Prop41ColorRGB
 90
        0
102
RTVSPost2010PropOp41
 70
     1
102
RTVSPost2010Prop42
 90
       50
102
RTVSPost2010PropOp42
 70
     1
102
RTVSPost2010Prop43
 90
        3
102
RTVSPost2010PropOp43
 70
     1
102
RTVSPost2010Prop44ColorIndex
 90
        5
102
RTVSPost2010Prop44ColorRGB
 90
      255
102
RTVSPost2010PropOp44
 70
     1
102
RTVSPost2010Prop45
280
     0
102
RTVSPost2010PropOp45
 70
     1
102
RTVSPost2010Prop46
 90
       50
102
RTVSPost2010PropOp46
 70
     1
102
RTVSPost2010Prop47
 90
       50
102
RTVSPost2010PropOp47
 70
     1
102
RTVSPost2010Prop48
 90
       50
102
RTVSPost2010PropOp48
 70
     1
102
RTVSPost2010Prop49
280
     0
102
RTVSPost2010PropOp49
 70
     1
102
RTVSPost2010Prop50
 90
       50
102
RTVSPost2010PropOp50
 70
     1
102
RTVSPost2010Prop51ColorIndex
 90
      256
102
RTVSPost2010Prop51ColorRGB
 90
-16777216
102
RTVSPost2010PropOp51
 70
     0
102
RTVSPost2010Prop52
140
1.0
102
RTVSPost2010PropOp52
 70
     0
102
RTVSPost2010Prop53
 90
        2
102
RTVSPost2010PropOp53
 70
     1
102
RTVSPost2010Prop54
  1
strokes_ogs.tif
102
RTVSPost2010PropOp54
 70
     1
102
RTVSPost2010Prop55
280
     0
102
RTVSPost2010PropOp55
 70
     1
102
RTVSPost2010Prop56
140
1.0
102
RTVSPost2010PropOp56
 70
     1
102
RTVSPost2010Prop57
140
1.0
102
RTVSPost2010PropOp57
 70
     1
  0
XRECORD
  5
450
102
{ACAD_REACTORS
330
44F
102
}
330
44F
100
AcDbXrecord
280
     1
102
RTVSPropertyOp0
 70
     1
102
RTVSPropertyOp1
 70
     1
102
RTVSPropertyOp2
 70
     1
102
RTVSPropertyOp3
 70
     1
102
RTVSPropertyOp4
 70
     1
102
RTVSPropertyOp5
 70
     1
102
RTVSPropertyOp6
 70
     1
102
RTVSPropertyOp7
 70
     1
102
RTVSPropertyOp8
 70
     1
102
RTVSPropertyOp9
 70
     1
102
RTVSPropertyOp10
 70
     1
102
RTVSPropertyOp11
 70
     1
102
RTVSPropertyOp12
 70
     1
102
RTVSPropertyOp13
 70
     1
102
RTVSPropertyOp14
 70
     1
102
RTVSPropertyOp15
 70
     1
102
RTVSPropertyOp16
 70
     1
102
RTVSPropertyOp17
 70
     1
102
RTVSPropertyOp18
 70
     1
102
RTVSPropertyOp19
 70
     1
102
RTVSPropertyOp20
 70
     1
102
RTVSPropertyOp21
 70
     1
102
RTVSPropertyOp22
 70
     1
102
RTVSPropertyOp23
 70
     1
102
RTVSPropertyOp24
 70
     1
102
RTVSPropertyOp25
 70
     1
102
RTVSPropertyOp26
 70
     1
102
RTVSPropertyOp27
 70
     1
102
RTVSPropertyOp28
 70
     1
102
RTVSPropertyOp29
 70
     1
102
RTVSPropertyOp30
 70
     1
102
RTVSPropertyOp31
 70
     1
102
RTVSPropertyOp32
 70
     1
102
RTVSPropertyOp33
 70
     1
102
RTVSPropertyOp34
 70
     1
102
RTVSPropertyOp35
 70
     1
102
RTVSPropertyOp36
 70
     1
102
RTVSPropertyOp37
 70
     1
102
RTVSPropertyOp38
 70
     1
102
RTVSPropertyOp39
 70
     1
102
RTVSPropertyOp40
 70
     1
102
RTVSPropertyOp41
 70
     1
102
RTVSPropertyOp42
 70
     1
102
RTVSPropertyOp43
 70
     1
102
RTVSPropertyOp44
 70
     1
102
RTVSPropertyOp45
 70
     1
102
RTVSPropertyOp46
 70
     1
102
RTVSPropertyOp47
 70
     1
102
RTVSPropertyOp48
 70
     1
102
RTVSPropertyOp49
 70
     1
102
RTVSPropertyOp50
 70
     1
102
RTVSPropertyOp51
 70
     0
102
RTVSPropertyOp52
 70
     0
102
RTVSPropertyOp53
 70
     1
102
RTVSPropertyOp54
 70
     1
102
RTVSPropertyOp55
 70
     1
102
RTVSPropertyOp56
 70
     1
102
RTVSPropertyOp57
 70
     1
102
RTVSPost2010Prop28
280
     0
102
RTVSPost2010PropOp28
 70
     1
102
RTVSPost2010Prop29
280
     1
102
RTVSPost2010PropOp29
 70
     1
102
RTVSPost2010Prop30
280
     1
102
RTVSPost2010PropOp30
 70
     1
102
RTVSPost2010Prop31
280
     0
102
RTVSPost2010PropOp31
 70
     1
102
RTVSPost2010Prop32
280
     0
102
RTVSPost2010PropOp32
 70
     1
102
RTVSPost2010Prop33
280
     0
102
RTVSPost2010PropOp33
 70
     1
102
RTVSPost2010Prop34
280
     0
102
RTVSPost2010PropOp34
 70
     1
102
RTVSPost2010Prop35
280
     0
102
RTVSPost2010PropOp35
 70
     1
102
RTVSPost2010Prop36
280
     0
102
RTVSPost2010PropOp36
 70
     1
102
RTVSPost2010Prop37
 90
       50
102
RTVSPost2010PropOp37
 70
     1
102
RTVSPost2010Prop38
140
0.0
102
RTVSPost2010PropOp38
 70
     1
102
RTVSPost2010Prop39
140
1.0
102
RTVSPost2010PropOp39
 70
     1
102
RTVSPost2010Prop40
 90
        0
102
RTVSPost2010PropOp40
 70
     1
102
RTVSPost2010Prop41ColorIndex
 90
       18
102
RTVSPost2010Prop41ColorRGB
 90
        0
102
RTVSPost2010PropOp41
 70
     1
102
RTVSPost2010Prop42
 90
       50
102
RTVSPost2010PropOp42
 70
     1
102
RTVSPost2010Prop43
 90
        3
102
RTVSPost2010PropOp43
 70
     1
102
RTVSPost2010Prop44ColorIndex
 90
        5
102
RTVSPost2010Prop44ColorRGB
 90
      255
102
RTVSPost2010PropOp44
 70
     1
102
RTVSPost2010Prop45
280
     0
102
RTVSPost2010PropOp45
 70
     1
102
RTVSPost2010Prop46
 90
       50
102
RTVSPost2010PropOp46
 70
     1
102
RTVSPost2010Prop47
 90
       50
102
RTVSPost2010PropOp47
 70
     1
102
RTVSPost2010Prop48
 90
       50
102
RTVSPost2010PropOp48
 70
     1
102
RTVSPost2010Prop49
280
     0
102
RTVSPost2010PropOp49
 70
     1
102
RTVSPost2010Prop50
 90
       50
102
RTVSPost2010PropOp50
 70
     1
102
RTVSPost2010Prop51ColorIndex
 90
      256
102
RTVSPost2010Prop51ColorRGB
 90
-16777216
102
RTVSPost2010PropOp51
 70
     0
102
RTVSPost2010Prop52
140
1.0
102
RTVSPost2010PropOp52
 70
     0
102
RTVSPost2010Prop53
 90
        2
102
RTVSPost2010PropOp53
 70
     1
102
RTVSPost2010Prop54
  1
strokes_ogs.tif
102
RTVSPost2010PropOp54
 70
     1
102
RTVSPost2010Prop55
280
     0
102
RTVSPost2010PropOp55
 70
     1
102
RTVSPost2010Prop56
140
1.0
102
RTVSPost2010PropOp56
 70
     1
102
RTVSPost2010Prop57
140
1.0
102
RTVSPost2010PropOp57
 70
     1
  0
XRECORD
  5
452
102
{ACAD_REACTORS
330
451
102
}
330
451
100
AcDbXrecord
280
     1
102
RTVSPropertyOp0
 70
     1
102
RTVSPropertyOp1
 70
     1
102
RTVSPropertyOp2
 70
     1
102
RTVSPropertyOp3
 70
     1
102
RTVSPropertyOp4
 70
     1
102
RTVSPropertyOp5
 70
     1
102
RTVSPropertyOp6
 70
     1
102
RTVSPropertyOp7
 70
     1
102
RTVSPropertyOp8
 70
     1
102
RTVSPropertyOp9
 70
     1
102
RTVSPropertyOp10
 70
     1
102
RTVSPropertyOp11
 70
     1
102
RTVSPropertyOp12
 70
     1
102
RTVSPropertyOp13
 70
     1
102
RTVSPropertyOp14
 70
     1
102
RTVSPropertyOp15
 70
     1
102
RTVSPropertyOp16
 70
     1
102
RTVSPropertyOp17
 70
     1
102
RTVSPropertyOp18
 70
     1
102
RTVSPropertyOp19
 70
     1
102
RTVSPropertyOp20
 70
     1
102
RTVSPropertyOp21
 70
     1
102
RTVSPropertyOp22
 70
     1
102
RTVSPropertyOp23
 70
     1
102
RTVSPropertyOp24
 70
     1
102
RTVSPropertyOp25
 70
     1
102
RTVSPropertyOp26
 70
     1
102
RTVSPropertyOp27
 70
     1
102
RTVSPropertyOp28
 70
     1
102
RTVSPropertyOp29
 70
     1
102
RTVSPropertyOp30
 70
     1
102
RTVSPropertyOp31
 70
     1
102
RTVSPropertyOp32
 70
     1
102
RTVSPropertyOp33
 70
     1
102
RTVSPropertyOp34
 70
     1
102
RTVSPropertyOp35
 70
     1
102
RTVSPropertyOp36
 70
     1
102
RTVSPropertyOp37
 70
     1
102
RTVSPropertyOp38
 70
     1
102
RTVSPropertyOp39
 70
     1
102
RTVSPropertyOp40
 70
     1
102
RTVSPropertyOp41
 70
     1
102
RTVSPropertyOp42
 70
     1
102
RTVSPropertyOp43
 70
     1
102
RTVSPropertyOp44
 70
     1
102
RTVSPropertyOp45
 70
     1
102
RTVSPropertyOp46
 70
     1
102
RTVSPropertyOp47
 70
     1
102
RTVSPropertyOp48
 70
     1
102
RTVSPropertyOp49
 70
     1
102
RTVSPropertyOp50
 70
     1
102
RTVSPropertyOp51
 70
     0
102
RTVSPropertyOp52
 70
     0
102
RTVSPropertyOp53
 70
     1
102
RTVSPropertyOp54
 70
     1
102
RTVSPropertyOp55
 70
     1
102
RTVSPropertyOp56
 70
     1
102
RTVSPropertyOp57
 70
     1
102
RTVSPost2010Prop28
280
     0
102
RTVSPost2010PropOp28
 70
     1
102
RTVSPost2010Prop29
280
     1
102
RTVSPost2010PropOp29
 70
     1
102
RTVSPost2010Prop30
280
     1
102
RTVSPost2010PropOp30
 70
     1
102
RTVSPost2010Prop31
280
     0
102
RTVSPost2010PropOp31
 70
     1
102
RTVSPost2010Prop32
280
     0
102
RTVSPost2010PropOp32
 70
     1
102
RTVSPost2010Prop33
280
     0
102
RTVSPost2010PropOp33
 70
     1
102
RTVSPost2010Prop34
280
     0
102
RTVSPost2010PropOp34
 70
     1
102
RTVSPost2010Prop35
280
     0
102
RTVSPost2010PropOp35
 70
     1
102
RTVSPost2010Prop36
280
     0
102
RTVSPost2010PropOp36
 70
     1
102
RTVSPost2010Prop37
 90
       50
102
RTVSPost2010PropOp37
 70
     1
102
RTVSPost2010Prop38
140
0.0
102
RTVSPost2010PropOp38
 70
     1
102
RTVSPost2010Prop39
140
1.0
102
RTVSPost2010PropOp39
 70
     1
102
RTVSPost2010Prop40
 90
        0
102
RTVSPost2010PropOp40
 70
     1
102
RTVSPost2010Prop41ColorIndex
 90
       18
102
RTVSPost2010Prop41ColorRGB
 90
        0
102
RTVSPost2010PropOp41
 70
     1
102
RTVSPost2010Prop42
 90
       50
102
RTVSPost2010PropOp42
 70
     1
102
RTVSPost2010Prop43
 90
        3
102
RTVSPost2010PropOp43
 70
     1
102
RTVSPost2010Prop44ColorIndex
 90
        5
102
RTVSPost2010Prop44ColorRGB
 90
      255
102
RTVSPost2010PropOp44
 70
     1
102
RTVSPost2010Prop45
280
     0
102
RTVSPost2010PropOp45
 70
     1
102
RTVSPost2010Prop46
 90
       50
102
RTVSPost2010PropOp46
 70
     1
102
RTVSPost2010Prop47
 90
       50
102
RTVSPost2010PropOp47
 70
     1
102
RTVSPost2010Prop48
 90
       50
102
RTVSPost2010PropOp48
 70
     1
102
RTVSPost2010Prop49
280
     0
102
RTVSPost2010PropOp49
 70
     1
102
RTVSPost2010Prop50
 90
       50
102
RTVSPost2010PropOp50
 70
     1
102
RTVSPost2010Prop51ColorIndex
 90
      256
102
RTVSPost2010Prop51ColorRGB
 90
-16777216
102
RTVSPost2010PropOp51
 70
     0
102
RTVSPost2010Prop52
140
1.0
102
RTVSPost2010PropOp52
 70
     0
102
RTVSPost2010Prop53
 90
        2
102
RTVSPost2010PropOp53
 70
     1
102
RTVSPost2010Prop54
  1
strokes_ogs.tif
102
RTVSPost2010PropOp54
 70
     1
102
RTVSPost2010Prop55
280
     0
102
RTVSPost2010PropOp55
 70
     1
102
RTVSPost2010Prop56
140
1.0
102
RTVSPost2010PropOp56
 70
     1
102
RTVSPost2010Prop57
140
1.0
102
RTVSPost2010PropOp57
 70
     1
  0
XRECORD
  5
454
102
{ACAD_REACTORS
330
453
102
}
330
453
100
AcDbXrecord
280
     1
102
RTVSPropertyOp0
 70
     1
102
RTVSPropertyOp1
 70
     1
102
RTVSPropertyOp2
 70
     1
102
RTVSPropertyOp3
 70
     1
102
RTVSPropertyOp4
 70
     1
102
RTVSPropertyOp5
 70
     1
102
RTVSPropertyOp6
 70
     1
102
RTVSPropertyOp7
 70
     1
102
RTVSPropertyOp8
 70
     1
102
RTVSPropertyOp9
 70
     1
102
RTVSPropertyOp10
 70
     1
102
RTVSPropertyOp11
 70
     1
102
RTVSPropertyOp12
 70
     1
102
RTVSPropertyOp13
 70
     1
102
RTVSPropertyOp14
 70
     1
102
RTVSPropertyOp15
 70
     1
102
RTVSPropertyOp16
 70
     1
102
RTVSPropertyOp17
 70
     1
102
RTVSPropertyOp18
 70
     1
102
RTVSPropertyOp19
 70
     1
102
RTVSPropertyOp20
 70
     1
102
RTVSPropertyOp21
 70
     1
102
RTVSPropertyOp22
 70
     1
102
RTVSPropertyOp23
 70
     1
102
RTVSPropertyOp24
 70
     1
102
RTVSPropertyOp25
 70
     1
102
RTVSPropertyOp26
 70
     1
102
RTVSPropertyOp27
 70
     1
102
RTVSPropertyOp28
 70
     1
102
RTVSPropertyOp29
 70
     1
102
RTVSPropertyOp30
 70
     1
102
RTVSPropertyOp31
 70
     1
102
RTVSPropertyOp32
 70
     1
102
RTVSPropertyOp33
 70
     1
102
RTVSPropertyOp34
 70
     1
102
RTVSPropertyOp35
 70
     1
102
RTVSPropertyOp36
 70
     1
102
RTVSPropertyOp37
 70
     1
102
RTVSPropertyOp38
 70
     1
102
RTVSPropertyOp39
 70
     1
102
RTVSPropertyOp40
 70
     1
102
RTVSPropertyOp41
 70
     1
102
RTVSPropertyOp42
 70
     1
102
RTVSPropertyOp43
 70
     1
102
RTVSPropertyOp44
 70
     1
102
RTVSPropertyOp45
 70
     1
102
RTVSPropertyOp46
 70
     1
102
RTVSPropertyOp47
 70
     1
102
RTVSPropertyOp48
 70
     1
102
RTVSPropertyOp49
 70
     1
102
RTVSPropertyOp50
 70
     1
102
RTVSPropertyOp51
 70
     0
102
RTVSPropertyOp52
 70
     0
102
RTVSPropertyOp53
 70
     1
102
RTVSPropertyOp54
 70
     1
102
RTVSPropertyOp55
 70
     1
102
RTVSPropertyOp56
 70
     1
102
RTVSPropertyOp57
 70
     1
102
RTVSPost2010Prop28
280
     0
102
RTVSPost2010PropOp28
 70
     1
102
RTVSPost2010Prop29
280
     1
102
RTVSPost2010PropOp29
 70
     1
102
RTVSPost2010Prop30
280
     1
102
RTVSPost2010PropOp30
 70
     1
102
RTVSPost2010Prop31
280
     0
102
RTVSPost2010PropOp31
 70
     1
102
RTVSPost2010Prop32
280
     0
102
RTVSPost2010PropOp32
 70
     1
102
RTVSPost2010Prop33
280
     0
102
RTVSPost2010PropOp33
 70
     1
102
RTVSPost2010Prop34
280
     0
102
RTVSPost2010PropOp34
 70
     1
102
RTVSPost2010Prop35
280
     0
102
RTVSPost2010PropOp35
 70
     1
102
RTVSPost2010Prop36
280
     0
102
RTVSPost2010PropOp36
 70
     1
102
RTVSPost2010Prop37
 90
       50
102
RTVSPost2010PropOp37
 70
     1
102
RTVSPost2010Prop38
140
0.0
102
RTVSPost2010PropOp38
 70
     1
102
RTVSPost2010Prop39
140
1.0
102
RTVSPost2010PropOp39
 70
     1
102
RTVSPost2010Prop40
 90
        0
102
RTVSPost2010PropOp40
 70
     1
102
RTVSPost2010Prop41ColorIndex
 90
       18
102
RTVSPost2010Prop41ColorRGB
 90
        0
102
RTVSPost2010PropOp41
 70
     1
102
RTVSPost2010Prop42
 90
       50
102
RTVSPost2010PropOp42
 70
     1
102
RTVSPost2010Prop43
 90
        3
102
RTVSPost2010PropOp43
 70
     1
102
RTVSPost2010Prop44ColorIndex
 90
        5
102
RTVSPost2010Prop44ColorRGB
 90
      255
102
RTVSPost2010PropOp44
 70
     1
102
RTVSPost2010Prop45
280
     0
102
RTVSPost2010PropOp45
 70
     1
102
RTVSPost2010Prop46
 90
       50
102
RTVSPost2010PropOp46
 70
     1
102
RTVSPost2010Prop47
 90
       50
102
RTVSPost2010PropOp47
 70
     1
102
RTVSPost2010Prop48
 90
       50
102
RTVSPost2010PropOp48
 70
     1
102
RTVSPost2010Prop49
280
     0
102
RTVSPost2010PropOp49
 70
     1
102
RTVSPost2010Prop50
 90
       50
102
RTVSPost2010PropOp50
 70
     1
102
RTVSPost2010Prop51ColorIndex
 90
      256
102
RTVSPost2010Prop51ColorRGB
 90
-16777216
102
RTVSPost2010PropOp51
 70
     0
102
RTVSPost2010Prop52
140
1.0
102
RTVSPost2010PropOp52
 70
     0
102
RTVSPost2010Prop53
 90
        2
102
RTVSPost2010PropOp53
 70
     1
102
RTVSPost2010Prop54
  1
strokes_ogs.tif
102
RTVSPost2010PropOp54
 70
     1
102
RTVSPost2010Prop55
280
     0
102
RTVSPost2010PropOp55
 70
     1
102
RTVSPost2010Prop56
140
1.0
102
RTVSPost2010PropOp56
 70
     1
102
RTVSPost2010Prop57
140
1.0
102
RTVSPost2010PropOp57
 70
     1
  0
XRECORD
  5
45A
102
{ACAD_REACTORS
330
459
102
}
330
459
100
AcDbXrecord
280
     1
102
RTVSPropertyOp0
 70
     1
102
RTVSPropertyOp1
 70
     1
102
RTVSPropertyOp2
 70
     1
102
RTVSPropertyOp3
 70
     1
102
RTVSPropertyOp4
 70
     1
102
RTVSPropertyOp5
 70
     1
102
RTVSPropertyOp6
 70
     1
102
RTVSPropertyOp7
 70
     1
102
RTVSPropertyOp8
 70
     1
102
RTVSPropertyOp9
 70
     1
102
RTVSPropertyOp10
 70
     1
102
RTVSPropertyOp11
 70
     1
102
RTVSPropertyOp12
 70
     1
102
RTVSPropertyOp13
 70
     1
102
RTVSPropertyOp14
 70
     1
102
RTVSPropertyOp15
 70
     1
102
RTVSPropertyOp16
 70
     1
102
RTVSPropertyOp17
 70
     1
102
RTVSPropertyOp18
 70
     1
102
RTVSPropertyOp19
 70
     1
102
RTVSPropertyOp20
 70
     1
102
RTVSPropertyOp21
 70
     1
102
RTVSPropertyOp22
 70
     1
102
RTVSPropertyOp23
 70
     1
102
RTVSPropertyOp24
 70
     1
102
RTVSPropertyOp25
 70
     1
102
RTVSPropertyOp26
 70
     1
102
RTVSPropertyOp27
 70
     1
102
RTVSPropertyOp28
 70
     1
102
RTVSPropertyOp29
 70
     1
102
RTVSPropertyOp30
 70
     1
102
RTVSPropertyOp31
 70
     1
102
RTVSPropertyOp32
 70
     1
102
RTVSPropertyOp33
 70
     1
102
RTVSPropertyOp34
 70
     1
102
RTVSPropertyOp35
 70
     1
102
RTVSPropertyOp36
 70
     1
102
RTVSPropertyOp37
 70
     1
102
RTVSPropertyOp38
 70
     1
102
RTVSPropertyOp39
 70
     1
102
RTVSPropertyOp40
 70
     1
102
RTVSPropertyOp41
 70
     1
102
RTVSPropertyOp42
 70
     1
102
RTVSPropertyOp43
 70
     1
102
RTVSPropertyOp44
 70
     1
102
RTVSPropertyOp45
 70
     1
102
RTVSPropertyOp46
 70
     1
102
RTVSPropertyOp47
 70
     1
102
RTVSPropertyOp48
 70
     1
102
RTVSPropertyOp49
 70
     1
102
RTVSPropertyOp50
 70
     1
102
RTVSPropertyOp51
 70
     0
102
RTVSPropertyOp52
 70
     0
102
RTVSPropertyOp53
 70
     1
102
RTVSPropertyOp54
 70
     1
102
RTVSPropertyOp55
 70
     1
102
RTVSPropertyOp56
 70
     1
102
RTVSPropertyOp57
 70
     1
102
RTVSPost2010Prop28
280
     0
102
RTVSPost2010PropOp28
 70
     1
102
RTVSPost2010Prop29
280
     1
102
RTVSPost2010PropOp29
 70
     1
102
RTVSPost2010Prop30
280
     1
102
RTVSPost2010PropOp30
 70
     1
102
RTVSPost2010Prop31
280
     0
102
RTVSPost2010PropOp31
 70
     1
102
RTVSPost2010Prop32
280
     0
102
RTVSPost2010PropOp32
 70
     1
102
RTVSPost2010Prop33
280
     0
102
RTVSPost2010PropOp33
 70
     1
102
RTVSPost2010Prop34
280
     0
102
RTVSPost2010PropOp34
 70
     1
102
RTVSPost2010Prop35
280
     0
102
RTVSPost2010PropOp35
 70
     1
102
RTVSPost2010Prop36
280
     0
102
RTVSPost2010PropOp36
 70
     1
102
RTVSPost2010Prop37
 90
       50
102
RTVSPost2010PropOp37
 70
     1
102
RTVSPost2010Prop38
140
0.0
102
RTVSPost2010PropOp38
 70
     1
102
RTVSPost2010Prop39
140
1.0
102
RTVSPost2010PropOp39
 70
     1
102
RTVSPost2010Prop40
 90
        0
102
RTVSPost2010PropOp40
 70
     1
102
RTVSPost2010Prop41ColorIndex
 90
       18
102
RTVSPost2010Prop41ColorRGB
 90
        0
102
RTVSPost2010PropOp41
 70
     1
102
RTVSPost2010Prop42
 90
       50
102
RTVSPost2010PropOp42
 70
     1
102
RTVSPost2010Prop43
 90
        3
102
RTVSPost2010PropOp43
 70
     1
102
RTVSPost2010Prop44ColorIndex
 90
        5
102
RTVSPost2010Prop44ColorRGB
 90
      255
102
RTVSPost2010PropOp44
 70
     1
102
RTVSPost2010Prop45
280
     0
102
RTVSPost2010PropOp45
 70
     1
102
RTVSPost2010Prop46
 90
       50
102
RTVSPost2010PropOp46
 70
     1
102
RTVSPost2010Prop47
 90
       50
102
RTVSPost2010PropOp47
 70
     1
102
RTVSPost2010Prop48
 90
       50
102
RTVSPost2010PropOp48
 70
     1
102
RTVSPost2010Prop49
280
     0
102
RTVSPost2010PropOp49
 70
     1
102
RTVSPost2010Prop50
 90
       50
102
RTVSPost2010PropOp50
 70
     1
102
RTVSPost2010Prop51ColorIndex
 90
      256
102
RTVSPost2010Prop51ColorRGB
 90
-16777216
102
RTVSPost2010PropOp51
 70
     0
102
RTVSPost2010Prop52
140
1.0
102
RTVSPost2010PropOp52
 70
     0
102
RTVSPost2010Prop53
 90
        2
102
RTVSPost2010PropOp53
 70
     1
102
RTVSPost2010Prop54
  1
strokes_ogs.tif
102
RTVSPost2010PropOp54
 70
     1
102
RTVSPost2010Prop55
280
     0
102
RTVSPost2010PropOp55
 70
     1
102
RTVSPost2010Prop56
140
1.0
102
RTVSPost2010PropOp56
 70
     1
102
RTVSPost2010Prop57
140
1.0
102
RTVSPost2010PropOp57
 70
     1
  0
XRECORD
  5
46E
102
{ACAD_REACTORS
330
46D
102
}
330
46D
100
AcDbXrecord
280
     1
102
RTVSPropertyOp0
 70
     0
102
RTVSPropertyOp1
 70
     0
102
RTVSPropertyOp2
 70
     0
102
RTVSPropertyOp3
 70
     0
102
RTVSPropertyOp4
 70
     0
102
RTVSPropertyOp5
 70
     0
102
RTVSPropertyOp6
 70
     0
102
RTVSPropertyOp7
 70
     0
102
RTVSPropertyOp8
 70
     0
102
RTVSPropertyOp9
 70
     0
102
RTVSPropertyOp10
 70
     0
102
RTVSPropertyOp11
 70
     0
102
RTVSPropertyOp12
 70
     0
102
RTVSPropertyOp13
 70
     0
102
RTVSPropertyOp14
 70
     2
102
RTVSPropertyOp15
 70
     0
102
RTVSPropertyOp16
 70
     0
102
RTVSPropertyOp17
 70
     0
102
RTVSPropertyOp18
 70
     0
102
RTVSPropertyOp19
 70
     0
102
RTVSPropertyOp20
 70
     0
102
RTVSPropertyOp21
 70
     0
102
RTVSPropertyOp22
 70
     0
102
RTVSPropertyOp23
 70
     0
102
RTVSPropertyOp24
 70
     0
102
RTVSPropertyOp25
 70
     0
102
RTVSPropertyOp26
 70
     0
102
RTVSPropertyOp27
 70
     0
102
RTVSPropertyOp28
 70
     0
102
RTVSPropertyOp29
 70
     0
102
RTVSPropertyOp30
 70
     0
102
RTVSPropertyOp31
 70
     0
102
RTVSPropertyOp32
 70
     0
102
RTVSPropertyOp33
 70
     0
102
RTVSPropertyOp34
 70
     0
102
RTVSPropertyOp35
 70
     0
102
RTVSPropertyOp36
 70
     0
102
RTVSPropertyOp37
 70
     0
102
RTVSPropertyOp38
 70
     0
102
RTVSPropertyOp39
 70
     0
102
RTVSPropertyOp40
 70
     0
102
RTVSPropertyOp41
 70
     0
102
RTVSPropertyOp42
 70
     0
102
RTVSPropertyOp43
 70
     0
102
RTVSPropertyOp44
 70
     0
102
RTVSPropertyOp45
 70
     0
102
RTVSPropertyOp46
 70
     0
102
RTVSPropertyOp47
 70
     0
102
RTVSPropertyOp48
 70
     0
102
RTVSPropertyOp49
 70
     0
102
RTVSPropertyOp50
 70
     0
102
RTVSPropertyOp51
 70
     0
102
RTVSPropertyOp52
 70
     0
102
RTVSPropertyOp53
 70
     0
102
RTVSPropertyOp54
 70
     0
102
RTVSPropertyOp55
 70
     0
102
RTVSPropertyOp56
 70
     0
102
RTVSPropertyOp57
 70
     0
102
RTVSPost2010Prop28
280
     0
102
RTVSPost2010PropOp28
 70
     0
102
RTVSPost2010Prop29
280
     1
102
RTVSPost2010PropOp29
 70
     0
102
RTVSPost2010Prop30
280
     1
102
RTVSPost2010PropOp30
 70
     0
102
RTVSPost2010Prop31
280
     0
102
RTVSPost2010PropOp31
 70
     0
102
RTVSPost2010Prop32
280
     0
102
RTVSPost2010PropOp32
 70
     0
102
RTVSPost2010Prop33
280
     0
102
RTVSPost2010PropOp33
 70
     0
102
RTVSPost2010Prop34
280
     0
102
RTVSPost2010PropOp34
 70
     0
102
RTVSPost2010Prop35
280
     0
102
RTVSPost2010PropOp35
 70
     0
102
RTVSPost2010Prop36
280
     0
102
RTVSPost2010PropOp36
 70
     0
102
RTVSPost2010Prop37
 90
       50
102
RTVSPost2010PropOp37
 70
     0
102
RTVSPost2010Prop38
140
0.0
102
RTVSPost2010PropOp38
 70
     0
102
RTVSPost2010Prop39
140
1.0
102
RTVSPost2010PropOp39
 70
     0
102
RTVSPost2010Prop40
 90
        0
102
RTVSPost2010PropOp40
 70
     0
102
RTVSPost2010Prop41ColorIndex
 90
       18
102
RTVSPost2010Prop41ColorRGB
 90
        0
102
RTVSPost2010PropOp41
 70
     0
102
RTVSPost2010Prop42
 90
       50
102
RTVSPost2010PropOp42
 70
     0
102
RTVSPost2010Prop43
 90
        3
102
RTVSPost2010PropOp43
 70
     0
102
RTVSPost2010Prop44ColorIndex
 90
        5
102
RTVSPost2010Prop44ColorRGB
 90
      255
102
RTVSPost2010PropOp44
 70
     0
102
RTVSPost2010Prop45
280
     0
102
RTVSPost2010PropOp45
 70
     0
102
RTVSPost2010Prop46
 90
       50
102
RTVSPost2010PropOp46
 70
     0
102
RTVSPost2010Prop47
 90
       50
102
RTVSPost2010PropOp47
 70
     0
102
RTVSPost2010Prop48
 90
       50
102
RTVSPost2010PropOp48
 70
     0
102
RTVSPost2010Prop49
280
     0
102
RTVSPost2010PropOp49
 70
     0
102
RTVSPost2010Prop50
 90
       50
102
RTVSPost2010PropOp50
 70
     0
102
RTVSPost2010Prop51ColorIndex
 90
      256
102
RTVSPost2010Prop51ColorRGB
 90
-16777216
102
RTVSPost2010PropOp51
 70
     0
102
RTVSPost2010Prop52
140
1.0
102
RTVSPost2010PropOp52
 70
     0
102
RTVSPost2010Prop53
 90
        2
102
RTVSPost2010PropOp53
 70
     0
102
RTVSPost2010Prop54
  1
strokes_ogs.tif
102
RTVSPost2010PropOp54
 70
     0
102
RTVSPost2010Prop55
280
     0
102
RTVSPost2010PropOp55
 70
     0
102
RTVSPost2010Prop56
140
1.0
102
RTVSPost2010PropOp56
 70
     0
102
RTVSPost2010Prop57
140
1.0
102
RTVSPost2010PropOp57
 70
     0
  0
XRECORD
  5
468
102
{ACAD_REACTORS
330
467
102
}
330
467
100
AcDbXrecord
280
     1
102
RTVSPropertyOp0
 70
     1
102
RTVSPropertyOp1
 70
     1
102
RTVSPropertyOp2
 70
     1
102
RTVSPropertyOp3
 70
     1
102
RTVSPropertyOp4
 70
     1
102
RTVSPropertyOp5
 70
     1
102
RTVSPropertyOp6
 70
     1
102
RTVSPropertyOp7
 70
     1
102
RTVSPropertyOp8
 70
     1
102
RTVSPropertyOp9
 70
     1
102
RTVSPropertyOp10
 70
     1
102
RTVSPropertyOp11
 70
     1
102
RTVSPropertyOp12
 70
     1
102
RTVSPropertyOp13
 70
     1
102
RTVSPropertyOp14
 70
     1
102
RTVSPropertyOp15
 70
     1
102
RTVSPropertyOp16
 70
     1
102
RTVSPropertyOp17
 70
     1
102
RTVSPropertyOp18
 70
     1
102
RTVSPropertyOp19
 70
     1
102
RTVSPropertyOp20
 70
     1
102
RTVSPropertyOp21
 70
     1
102
RTVSPropertyOp22
 70
     1
102
RTVSPropertyOp23
 70
     1
102
RTVSPropertyOp24
 70
     1
102
RTVSPropertyOp25
 70
     1
102
RTVSPropertyOp26
 70
     1
102
RTVSPropertyOp27
 70
     1
102
RTVSPropertyOp28
 70
     1
102
RTVSPropertyOp29
 70
     1
102
RTVSPropertyOp30
 70
     1
102
RTVSPropertyOp31
 70
     1
102
RTVSPropertyOp32
 70
     1
102
RTVSPropertyOp33
 70
     1
102
RTVSPropertyOp34
 70
     1
102
RTVSPropertyOp35
 70
     1
102
RTVSPropertyOp36
 70
     1
102
RTVSPropertyOp37
 70
     1
102
RTVSPropertyOp38
 70
     1
102
RTVSPropertyOp39
 70
     1
102
RTVSPropertyOp40
 70
     1
102
RTVSPropertyOp41
 70
     1
102
RTVSPropertyOp42
 70
     1
102
RTVSPropertyOp43
 70
     1
102
RTVSPropertyOp44
 70
     1
102
RTVSPropertyOp45
 70
     1
102
RTVSPropertyOp46
 70
     1
102
RTVSPropertyOp47
 70
     1
102
RTVSPropertyOp48
 70
     1
102
RTVSPropertyOp49
 70
     1
102
RTVSPropertyOp50
 70
     1
102
RTVSPropertyOp51
 70
     0
102
RTVSPropertyOp52
 70
     0
102
RTVSPropertyOp53
 70
     1
102
RTVSPropertyOp54
 70
     1
102
RTVSPropertyOp55
 70
     1
102
RTVSPropertyOp56
 70
     1
102
RTVSPropertyOp57
 70
     1
102
RTVSPost2010Prop28
280
     0
102
RTVSPost2010PropOp28
 70
     1
102
RTVSPost2010Prop29
280
     1
102
RTVSPost2010PropOp29
 70
     1
102
RTVSPost2010Prop30
280
     1
102
RTVSPost2010PropOp30
 70
     1
102
RTVSPost2010Prop31
280
     0
102
RTVSPost2010PropOp31
 70
     1
102
RTVSPost2010Prop32
280
     0
102
RTVSPost2010PropOp32
 70
     1
102
RTVSPost2010Prop33
280
     0
102
RTVSPost2010PropOp33
 70
     1
102
RTVSPost2010Prop34
280
     0
102
RTVSPost2010PropOp34
 70
     1
102
RTVSPost2010Prop35
280
     0
102
RTVSPost2010PropOp35
 70
     1
102
RTVSPost2010Prop36
280
     0
102
RTVSPost2010PropOp36
 70
     1
102
RTVSPost2010Prop37
 90
       50
102
RTVSPost2010PropOp37
 70
     1
102
RTVSPost2010Prop38
140
0.0
102
RTVSPost2010PropOp38
 70
     1
102
RTVSPost2010Prop39
140
1.0
102
RTVSPost2010PropOp39
 70
     1
102
RTVSPost2010Prop40
 90
        0
102
RTVSPost2010PropOp40
 70
     1
102
RTVSPost2010Prop41ColorIndex
 90
       18
102
RTVSPost2010Prop41ColorRGB
 90
        0
102
RTVSPost2010PropOp41
 70
     1
102
RTVSPost2010Prop42
 90
       50
102
RTVSPost2010PropOp42
 70
     1
102
RTVSPost2010Prop43
 90
        3
102
RTVSPost2010PropOp43
 70
     1
102
RTVSPost2010Prop44ColorIndex
 90
        5
102
RTVSPost2010Prop44ColorRGB
 90
      255
102
RTVSPost2010PropOp44
 70
     1
102
RTVSPost2010Prop45
280
     0
102
RTVSPost2010PropOp45
 70
     1
102
RTVSPost2010Prop46
 90
       50
102
RTVSPost2010PropOp46
 70
     1
102
RTVSPost2010Prop47
 90
       50
102
RTVSPost2010PropOp47
 70
     1
102
RTVSPost2010Prop48
 90
       50
102
RTVSPost2010PropOp48
 70
     1
102
RTVSPost2010Prop49
280
     0
102
RTVSPost2010PropOp49
 70
     1
102
RTVSPost2010Prop50
 90
       50
102
RTVSPost2010PropOp50
 70
     1
102
RTVSPost2010Prop51ColorIndex
 90
      256
102
RTVSPost2010Prop51ColorRGB
 90
-16777216
102
RTVSPost2010PropOp51
 70
     0
102
RTVSPost2010Prop52
140
1.0
102
RTVSPost2010PropOp52
 70
     0
102
RTVSPost2010Prop53
 90
        2
102
RTVSPost2010PropOp53
 70
     1
102
RTVSPost2010Prop54
  1
strokes_ogs.tif
102
RTVSPost2010PropOp54
 70
     1
102
RTVSPost2010Prop55
280
     0
102
RTVSPost2010PropOp55
 70
     1
102
RTVSPost2010Prop56
140
1.0
102
RTVSPost2010PropOp56
 70
     1
102
RTVSPost2010Prop57
140
1.0
102
RTVSPost2010PropOp57
 70
     1
  0
XRECORD
  5
470
102
{ACAD_REACTORS
330
46F
102
}
330
46F
100
AcDbXrecord
280
     1
102
RTVSPropertyOp0
 70
     0
102
RTVSPropertyOp1
 70
     0
102
RTVSPropertyOp2
 70
     0
102
RTVSPropertyOp3
 70
     0
102
RTVSPropertyOp4
 70
     0
102
RTVSPropertyOp5
 70
     0
102
RTVSPropertyOp6
 70
     0
102
RTVSPropertyOp7
 70
     0
102
RTVSPropertyOp8
 70
     0
102
RTVSPropertyOp9
 70
     0
102
RTVSPropertyOp10
 70
     0
102
RTVSPropertyOp11
 70
     0
102
RTVSPropertyOp12
 70
     0
102
RTVSPropertyOp13
 70
     0
102
RTVSPropertyOp14
 70
     2
102
RTVSPropertyOp15
 70
     0
102
RTVSPropertyOp16
 70
     0
102
RTVSPropertyOp17
 70
     0
102
RTVSPropertyOp18
 70
     0
102
RTVSPropertyOp19
 70
     0
102
RTVSPropertyOp20
 70
     0
102
RTVSPropertyOp21
 70
     0
102
RTVSPropertyOp22
 70
     0
102
RTVSPropertyOp23
 70
     0
102
RTVSPropertyOp24
 70
     0
102
RTVSPropertyOp25
 70
     0
102
RTVSPropertyOp26
 70
     0
102
RTVSPropertyOp27
 70
     0
102
RTVSPropertyOp28
 70
     0
102
RTVSPropertyOp29
 70
     0
102
RTVSPropertyOp30
 70
     0
102
RTVSPropertyOp31
 70
     0
102
RTVSPropertyOp32
 70
     0
102
RTVSPropertyOp33
 70
     0
102
RTVSPropertyOp34
 70
     0
102
RTVSPropertyOp35
 70
     0
102
RTVSPropertyOp36
 70
     0
102
RTVSPropertyOp37
 70
     0
102
RTVSPropertyOp38
 70
     0
102
RTVSPropertyOp39
 70
     0
102
RTVSPropertyOp40
 70
     0
102
RTVSPropertyOp41
 70
     0
102
RTVSPropertyOp42
 70
     0
102
RTVSPropertyOp43
 70
     0
102
RTVSPropertyOp44
 70
     0
102
RTVSPropertyOp45
 70
     0
102
RTVSPropertyOp46
 70
     0
102
RTVSPropertyOp47
 70
     0
102
RTVSPropertyOp48
 70
     0
102
RTVSPropertyOp49
 70
     0
102
RTVSPropertyOp50
 70
     0
102
RTVSPropertyOp51
 70
     0
102
RTVSPropertyOp52
 70
     0
102
RTVSPropertyOp53
 70
     0
102
RTVSPropertyOp54
 70
     0
102
RTVSPropertyOp55
 70
     0
102
RTVSPropertyOp56
 70
     0
102
RTVSPropertyOp57
 70
     0
102
RTVSPost2010Prop28
280
     0
102
RTVSPost2010PropOp28
 70
     0
102
RTVSPost2010Prop29
280
     1
102
RTVSPost2010PropOp29
 70
     0
102
RTVSPost2010Prop30
280
     1
102
RTVSPost2010PropOp30
 70
     0
102
RTVSPost2010Prop31
280
     0
102
RTVSPost2010PropOp31
 70
     0
102
RTVSPost2010Prop32
280
     0
102
RTVSPost2010PropOp32
 70
     0
102
RTVSPost2010Prop33
280
     0
102
RTVSPost2010PropOp33
 70
     0
102
RTVSPost2010Prop34
280
     0
102
RTVSPost2010PropOp34
 70
     0
102
RTVSPost2010Prop35
280
     0
102
RTVSPost2010PropOp35
 70
     0
102
RTVSPost2010Prop36
280
     0
102
RTVSPost2010PropOp36
 70
     0
102
RTVSPost2010Prop37
 90
       50
102
RTVSPost2010PropOp37
 70
     0
102
RTVSPost2010Prop38
140
0.0
102
RTVSPost2010PropOp38
 70
     0
102
RTVSPost2010Prop39
140
1.0
102
RTVSPost2010PropOp39
 70
     0
102
RTVSPost2010Prop40
 90
        0
102
RTVSPost2010PropOp40
 70
     0
102
RTVSPost2010Prop41ColorIndex
 90
       18
102
RTVSPost2010Prop41ColorRGB
 90
        0
102
RTVSPost2010PropOp41
 70
     0
102
RTVSPost2010Prop42
 90
       50
102
RTVSPost2010PropOp42
 70
     0
102
RTVSPost2010Prop43
 90
        3
102
RTVSPost2010PropOp43
 70
     0
102
RTVSPost2010Prop44ColorIndex
 90
        5
102
RTVSPost2010Prop44ColorRGB
 90
      255
102
RTVSPost2010PropOp44
 70
     0
102
RTVSPost2010Prop45
280
     0
102
RTVSPost2010PropOp45
 70
     0
102
RTVSPost2010Prop46
 90
       50
102
RTVSPost2010PropOp46
 70
     0
102
RTVSPost2010Prop47
 90
       50
102
RTVSPost2010PropOp47
 70
     0
102
RTVSPost2010Prop48
 90
       50
102
RTVSPost2010PropOp48
 70
     0
102
RTVSPost2010Prop49
280
     0
102
RTVSPost2010PropOp49
 70
     0
102
RTVSPost2010Prop50
 90
       50
102
RTVSPost2010PropOp50
 70
     0
102
RTVSPost2010Prop51ColorIndex
 90
      256
102
RTVSPost2010Prop51ColorRGB
 90
-16777216
102
RTVSPost2010PropOp51
 70
     0
102
RTVSPost2010Prop52
140
1.0
102
RTVSPost2010PropOp52
 70
     0
102
RTVSPost2010Prop53
 90
        2
102
RTVSPost2010PropOp53
 70
     0
102
RTVSPost2010Prop54
  1
strokes_ogs.tif
102
RTVSPost2010PropOp54
 70
     0
102
RTVSPost2010Prop55
280
     0
102
RTVSPost2010PropOp55
 70
     0
102
RTVSPost2010Prop56
140
1.0
102
RTVSPost2010PropOp56
 70
     0
102
RTVSPost2010Prop57
140
1.0
102
RTVSPost2010PropOp57
 70
     0
  0
XRECORD
  5
45E
102
{ACAD_REACTORS
330
45D
102
}
330
45D
100
AcDbXrecord
280
     1
102
RTVSPropertyOp0
 70
     1
102
RTVSPropertyOp1
 70
     1
102
RTVSPropertyOp2
 70
     1
102
RTVSPropertyOp3
 70
     1
102
RTVSPropertyOp4
 70
     1
102
RTVSPropertyOp5
 70
     1
102
RTVSPropertyOp6
 70
     1
102
RTVSPropertyOp7
 70
     1
102
RTVSPropertyOp8
 70
     1
102
RTVSPropertyOp9
 70
     1
102
RTVSPropertyOp10
 70
     1
102
RTVSPropertyOp11
 70
     1
102
RTVSPropertyOp12
 70
     1
102
RTVSPropertyOp13
 70
     1
102
RTVSPropertyOp14
 70
     1
102
RTVSPropertyOp15
 70
     1
102
RTVSPropertyOp16
 70
     1
102
RTVSPropertyOp17
 70
     1
102
RTVSPropertyOp18
 70
     1
102
RTVSPropertyOp19
 70
     1
102
RTVSPropertyOp20
 70
     1
102
RTVSPropertyOp21
 70
     1
102
RTVSPropertyOp22
 70
     1
102
RTVSPropertyOp23
 70
     1
102
RTVSPropertyOp24
 70
     1
102
RTVSPropertyOp25
 70
     1
102
RTVSPropertyOp26
 70
     1
102
RTVSPropertyOp27
 70
     1
102
RTVSPropertyOp28
 70
     1
102
RTVSPropertyOp29
 70
     1
102
RTVSPropertyOp30
 70
     1
102
RTVSPropertyOp31
 70
     1
102
RTVSPropertyOp32
 70
     1
102
RTVSPropertyOp33
 70
     1
102
RTVSPropertyOp34
 70
     1
102
RTVSPropertyOp35
 70
     1
102
RTVSPropertyOp36
 70
     1
102
RTVSPropertyOp37
 70
     1
102
RTVSPropertyOp38
 70
     1
102
RTVSPropertyOp39
 70
     1
102
RTVSPropertyOp40
 70
     1
102
RTVSPropertyOp41
 70
     1
102
RTVSPropertyOp42
 70
     1
102
RTVSPropertyOp43
 70
     1
102
RTVSPropertyOp44
 70
     1
102
RTVSPropertyOp45
 70
     1
102
RTVSPropertyOp46
 70
     1
102
RTVSPropertyOp47
 70
     1
102
RTVSPropertyOp48
 70
     1
102
RTVSPropertyOp49
 70
     1
102
RTVSPropertyOp50
 70
     1
102
RTVSPropertyOp51
 70
     0
102
RTVSPropertyOp52
 70
     0
102
RTVSPropertyOp53
 70
     1
102
RTVSPropertyOp54
 70
     1
102
RTVSPropertyOp55
 70
     1
102
RTVSPropertyOp56
 70
     1
102
RTVSPropertyOp57
 70
     1
102
RTVSPost2010Prop28
280
     0
102
RTVSPost2010PropOp28
 70
     1
102
RTVSPost2010Prop29
280
     1
102
RTVSPost2010PropOp29
 70
     1
102
RTVSPost2010Prop30
280
     1
102
RTVSPost2010PropOp30
 70
     1
102
RTVSPost2010Prop31
280
     0
102
RTVSPost2010PropOp31
 70
     1
102
RTVSPost2010Prop32
280
     0
102
RTVSPost2010PropOp32
 70
     1
102
RTVSPost2010Prop33
280
     0
102
RTVSPost2010PropOp33
 70
     1
102
RTVSPost2010Prop34
280
     0
102
RTVSPost2010PropOp34
 70
     1
102
RTVSPost2010Prop35
280
     0
102
RTVSPost2010PropOp35
 70
     1
102
RTVSPost2010Prop36
280
     0
102
RTVSPost2010PropOp36
 70
     1
102
RTVSPost2010Prop37
 90
       50
102
RTVSPost2010PropOp37
 70
     1
102
RTVSPost2010Prop38
140
0.0
102
RTVSPost2010PropOp38
 70
     1
102
RTVSPost2010Prop39
140
1.0
102
RTVSPost2010PropOp39
 70
     1
102
RTVSPost2010Prop40
 90
        0
102
RTVSPost2010PropOp40
 70
     1
102
RTVSPost2010Prop41ColorIndex
 90
       18
102
RTVSPost2010Prop41ColorRGB
 90
        0
102
RTVSPost2010PropOp41
 70
     1
102
RTVSPost2010Prop42
 90
       50
102
RTVSPost2010PropOp42
 70
     1
102
RTVSPost2010Prop43
 90
        3
102
RTVSPost2010PropOp43
 70
     1
102
RTVSPost2010Prop44ColorIndex
 90
        5
102
RTVSPost2010Prop44ColorRGB
 90
      255
102
RTVSPost2010PropOp44
 70
     1
102
RTVSPost2010Prop45
280
     0
102
RTVSPost2010PropOp45
 70
     1
102
RTVSPost2010Prop46
 90
       50
102
RTVSPost2010PropOp46
 70
     1
102
RTVSPost2010Prop47
 90
       50
102
RTVSPost2010PropOp47
 70
     1
102
RTVSPost2010Prop48
 90
       50
102
RTVSPost2010PropOp48
 70
     1
102
RTVSPost2010Prop49
280
     0
102
RTVSPost2010PropOp49
 70
     1
102
RTVSPost2010Prop50
 90
       50
102
RTVSPost2010PropOp50
 70
     1
102
RTVSPost2010Prop51ColorIndex
 90
      256
102
RTVSPost2010Prop51ColorRGB
 90
-16777216
102
RTVSPost2010PropOp51
 70
     0
102
RTVSPost2010Prop52
140
1.0
102
RTVSPost2010PropOp52
 70
     0
102
RTVSPost2010Prop53
 90
        2
102
RTVSPost2010PropOp53
 70
     1
102
RTVSPost2010Prop54
  1
strokes_ogs.tif
102
RTVSPost2010PropOp54
 70
     1
102
RTVSPost2010Prop55
280
     0
102
RTVSPost2010PropOp55
 70
     1
102
RTVSPost2010Prop56
140
1.0
102
RTVSPost2010PropOp56
 70
     1
102
RTVSPost2010Prop57
140
1.0
102
RTVSPost2010PropOp57
 70
     1
  0
XRECORD
  5
47C
102
{ACAD_REACTORS
330
47B
102
}
330
47B
100
AcDbXrecord
280
     1
102
RTVSPropertyOp0
 70
     1
102
RTVSPropertyOp1
 70
     1
102
RTVSPropertyOp2
 70
     1
102
RTVSPropertyOp3
 70
     1
102
RTVSPropertyOp4
 70
     1
102
RTVSPropertyOp5
 70
     1
102
RTVSPropertyOp6
 70
     1
102
RTVSPropertyOp7
 70
     1
102
RTVSPropertyOp8
 70
     1
102
RTVSPropertyOp9
 70
     1
102
RTVSPropertyOp10
 70
     1
102
RTVSPropertyOp11
 70
     1
102
RTVSPropertyOp12
 70
     1
102
RTVSPropertyOp13
 70
     1
102
RTVSPropertyOp14
 70
     1
102
RTVSPropertyOp15
 70
     1
102
RTVSPropertyOp16
 70
     1
102
RTVSPropertyOp17
 70
     1
102
RTVSPropertyOp18
 70
     1
102
RTVSPropertyOp19
 70
     1
102
RTVSPropertyOp20
 70
     1
102
RTVSPropertyOp21
 70
     1
102
RTVSPropertyOp22
 70
     1
102
RTVSPropertyOp23
 70
     1
102
RTVSPropertyOp24
 70
     1
102
RTVSPropertyOp25
 70
     1
102
RTVSPropertyOp26
 70
     1
102
RTVSPropertyOp27
 70
     1
102
RTVSPropertyOp28
 70
     1
102
RTVSPropertyOp29
 70
     1
102
RTVSPropertyOp30
 70
     1
102
RTVSPropertyOp31
 70
     1
102
RTVSPropertyOp32
 70
     1
102
RTVSPropertyOp33
 70
     1
102
RTVSPropertyOp34
 70
     1
102
RTVSPropertyOp35
 70
     1
102
RTVSPropertyOp36
 70
     1
102
RTVSPropertyOp37
 70
     1
102
RTVSPropertyOp38
 70
     1
102
RTVSPropertyOp39
 70
     1
102
RTVSPropertyOp40
 70
     1
102
RTVSPropertyOp41
 70
     1
102
RTVSPropertyOp42
 70
     1
102
RTVSPropertyOp43
 70
     1
102
RTVSPropertyOp44
 70
     1
102
RTVSPropertyOp45
 70
     1
102
RTVSPropertyOp46
 70
     1
102
RTVSPropertyOp47
 70
     1
102
RTVSPropertyOp48
 70
     1
102
RTVSPropertyOp49
 70
     1
102
RTVSPropertyOp50
 70
     1
102
RTVSPropertyOp51
 70
     0
102
RTVSPropertyOp52
 70
     0
102
RTVSPropertyOp53
 70
     1
102
RTVSPropertyOp54
 70
     1
102
RTVSPropertyOp55
 70
     1
102
RTVSPropertyOp56
 70
     1
102
RTVSPropertyOp57
 70
     1
102
RTVSPost2010Prop28
280
     0
102
RTVSPost2010PropOp28
 70
     1
102
RTVSPost2010Prop29
280
     1
102
RTVSPost2010PropOp29
 70
     1
102
RTVSPost2010Prop30
280
     1
102
RTVSPost2010PropOp30
 70
     1
102
RTVSPost2010Prop31
280
     0
102
RTVSPost2010PropOp31
 70
     1
102
RTVSPost2010Prop32
280
     0
102
RTVSPost2010PropOp32
 70
     1
102
RTVSPost2010Prop33
280
     0
102
RTVSPost2010PropOp33
 70
     1
102
RTVSPost2010Prop34
280
     0
102
RTVSPost2010PropOp34
 70
     1
102
RTVSPost2010Prop35
280
     0
102
RTVSPost2010PropOp35
 70
     1
102
RTVSPost2010Prop36
280
     0
102
RTVSPost2010PropOp36
 70
     1
102
RTVSPost2010Prop37
 90
       50
102
RTVSPost2010PropOp37
 70
     1
102
RTVSPost2010Prop38
140
0.0
102
RTVSPost2010PropOp38
 70
     1
102
RTVSPost2010Prop39
140
1.0
102
RTVSPost2010PropOp39
 70
     1
102
RTVSPost2010Prop40
 90
        0
102
RTVSPost2010PropOp40
 70
     1
102
RTVSPost2010Prop41ColorIndex
 90
       18
102
RTVSPost2010Prop41ColorRGB
 90
        0
102
RTVSPost2010PropOp41
 70
     1
102
RTVSPost2010Prop42
 90
       50
102
RTVSPost2010PropOp42
 70
     1
102
RTVSPost2010Prop43
 90
        3
102
RTVSPost2010PropOp43
 70
     1
102
RTVSPost2010Prop44ColorIndex
 90
        5
102
RTVSPost2010Prop44ColorRGB
 90
      255
102
RTVSPost2010PropOp44
 70
     1
102
RTVSPost2010Prop45
280
     0
102
RTVSPost2010PropOp45
 70
     1
102
RTVSPost2010Prop46
 90
       50
102
RTVSPost2010PropOp46
 70
     1
102
RTVSPost2010Prop47
 90
       50
102
RTVSPost2010PropOp47
 70
     1
102
RTVSPost2010Prop48
 90
       50
102
RTVSPost2010PropOp48
 70
     1
102
RTVSPost2010Prop49
280
     0
102
RTVSPost2010PropOp49
 70
     1
102
RTVSPost2010Prop50
 90
       50
102
RTVSPost2010PropOp50
 70
     1
102
RTVSPost2010Prop51ColorIndex
 90
      256
102
RTVSPost2010Prop51ColorRGB
 90
-16777216
102
RTVSPost2010PropOp51
 70
     0
102
RTVSPost2010Prop52
140
1.0
102
RTVSPost2010PropOp52
 70
     0
102
RTVSPost2010Prop53
 90
        2
102
RTVSPost2010PropOp53
 70
     1
102
RTVSPost2010Prop54
  1
strokes_ogs.tif
102
RTVSPost2010PropOp54
 70
     1
102
RTVSPost2010Prop55
280
     0
102
RTVSPost2010PropOp55
 70
     1
102
RTVSPost2010Prop56
140
1.0
102
RTVSPost2010PropOp56
 70
     1
102
RTVSPost2010Prop57
140
1.0
102
RTVSPost2010PropOp57
 70
     1
  0
XRECORD
  5
47A
102
{ACAD_REACTORS
330
479
102
}
330
479
100
AcDbXrecord
280
     1
102
RTVSPropertyOp0
 70
     1
102
RTVSPropertyOp1
 70
     1
102
RTVSPropertyOp2
 70
     1
102
RTVSPropertyOp3
 70
     1
102
RTVSPropertyOp4
 70
     1
102
RTVSPropertyOp5
 70
     1
102
RTVSPropertyOp6
 70
     1
102
RTVSPropertyOp7
 70
     1
102
RTVSPropertyOp8
 70
     1
102
RTVSPropertyOp9
 70
     1
102
RTVSPropertyOp10
 70
     1
102
RTVSPropertyOp11
 70
     1
102
RTVSPropertyOp12
 70
     1
102
RTVSPropertyOp13
 70
     1
102
RTVSPropertyOp14
 70
     1
102
RTVSPropertyOp15
 70
     1
102
RTVSPropertyOp16
 70
     1
102
RTVSPropertyOp17
 70
     1
102
RTVSPropertyOp18
 70
     1
102
RTVSPropertyOp19
 70
     1
102
RTVSPropertyOp20
 70
     1
102
RTVSPropertyOp21
 70
     1
102
RTVSPropertyOp22
 70
     1
102
RTVSPropertyOp23
 70
     1
102
RTVSPropertyOp24
 70
     1
102
RTVSPropertyOp25
 70
     1
102
RTVSPropertyOp26
 70
     1
102
RTVSPropertyOp27
 70
     1
102
RTVSPropertyOp28
 70
     1
102
RTVSPropertyOp29
 70
     1
102
RTVSPropertyOp30
 70
     1
102
RTVSPropertyOp31
 70
     1
102
RTVSPropertyOp32
 70
     1
102
RTVSPropertyOp33
 70
     1
102
RTVSPropertyOp34
 70
     1
102
RTVSPropertyOp35
 70
     1
102
RTVSPropertyOp36
 70
     1
102
RTVSPropertyOp37
 70
     1
102
RTVSPropertyOp38
 70
     1
102
RTVSPropertyOp39
 70
     1
102
RTVSPropertyOp40
 70
     1
102
RTVSPropertyOp41
 70
     1
102
RTVSPropertyOp42
 70
     1
102
RTVSPropertyOp43
 70
     1
102
RTVSPropertyOp44
 70
     1
102
RTVSPropertyOp45
 70
     1
102
RTVSPropertyOp46
 70
     1
102
RTVSPropertyOp47
 70
     1
102
RTVSPropertyOp48
 70
     1
102
RTVSPropertyOp49
 70
     1
102
RTVSPropertyOp50
 70
     1
102
RTVSPropertyOp51
 70
     0
102
RTVSPropertyOp52
 70
     0
102
RTVSPropertyOp53
 70
     1
102
RTVSPropertyOp54
 70
     1
102
RTVSPropertyOp55
 70
     1
102
RTVSPropertyOp56
 70
     1
102
RTVSPropertyOp57
 70
     1
102
RTVSPost2010Prop28
280
     0
102
RTVSPost2010PropOp28
 70
     1
102
RTVSPost2010Prop29
280
     1
102
RTVSPost2010PropOp29
 70
     1
102
RTVSPost2010Prop30
280
     1
102
RTVSPost2010PropOp30
 70
     1
102
RTVSPost2010Prop31
280
     0
102
RTVSPost2010PropOp31
 70
     1
102
RTVSPost2010Prop32
280
     0
102
RTVSPost2010PropOp32
 70
     1
102
RTVSPost2010Prop33
280
     0
102
RTVSPost2010PropOp33
 70
     1
102
RTVSPost2010Prop34
280
     0
102
RTVSPost2010PropOp34
 70
     1
102
RTVSPost2010Prop35
280
     0
102
RTVSPost2010PropOp35
 70
     1
102
RTVSPost2010Prop36
280
     0
102
RTVSPost2010PropOp36
 70
     1
102
RTVSPost2010Prop37
 90
       50
102
RTVSPost2010PropOp37
 70
     1
102
RTVSPost2010Prop38
140
0.0
102
RTVSPost2010PropOp38
 70
     1
102
RTVSPost2010Prop39
140
1.0
102
RTVSPost2010PropOp39
 70
     1
102
RTVSPost2010Prop40
 90
        0
102
RTVSPost2010PropOp40
 70
     1
102
RTVSPost2010Prop41ColorIndex
 90
       18
102
RTVSPost2010Prop41ColorRGB
 90
        0
102
RTVSPost2010PropOp41
 70
     1
102
RTVSPost2010Prop42
 90
       50
102
RTVSPost2010PropOp42
 70
     1
102
RTVSPost2010Prop43
 90
        3
102
RTVSPost2010PropOp43
 70
     1
102
RTVSPost2010Prop44ColorIndex
 90
        5
102
RTVSPost2010Prop44ColorRGB
 90
      255
102
RTVSPost2010PropOp44
 70
     1
102
RTVSPost2010Prop45
280
     0
102
RTVSPost2010PropOp45
 70
     1
102
RTVSPost2010Prop46
 90
       50
102
RTVSPost2010PropOp46
 70
     1
102
RTVSPost2010Prop47
 90
       50
102
RTVSPost2010PropOp47
 70
     1
102
RTVSPost2010Prop48
 90
       50
102
RTVSPost2010PropOp48
 70
     1
102
RTVSPost2010Prop49
280
     0
102
RTVSPost2010PropOp49
 70
     1
102
RTVSPost2010Prop50
 90
       50
102
RTVSPost2010PropOp50
 70
     1
102
RTVSPost2010Prop51ColorIndex
 90
      256
102
RTVSPost2010Prop51ColorRGB
 90
-16777216
102
RTVSPost2010PropOp51
 70
     0
102
RTVSPost2010Prop52
140
1.0
102
RTVSPost2010PropOp52
 70
     0
102
RTVSPost2010Prop53
 90
        2
102
RTVSPost2010PropOp53
 70
     1
102
RTVSPost2010Prop54
  1
strokes_ogs.tif
102
RTVSPost2010PropOp54
 70
     1
102
RTVSPost2010Prop55
280
     0
102
RTVSPost2010PropOp55
 70
     1
102
RTVSPost2010Prop56
140
1.0
102
RTVSPost2010PropOp56
 70
     1
102
RTVSPost2010Prop57
140
1.0
102
RTVSPost2010PropOp57
 70
     1
  0
XRECORD
  5
474
102
{ACAD_REACTORS
330
473
102
}
330
473
100
AcDbXrecord
280
     1
102
RTVSPropertyOp0
 70
     1
102
RTVSPropertyOp1
 70
     1
102
RTVSPropertyOp2
 70
     1
102
RTVSPropertyOp3
 70
     1
102
RTVSPropertyOp4
 70
     1
102
RTVSPropertyOp5
 70
     1
102
RTVSPropertyOp6
 70
     1
102
RTVSPropertyOp7
 70
     1
102
RTVSPropertyOp8
 70
     1
102
RTVSPropertyOp9
 70
     1
102
RTVSPropertyOp10
 70
     1
102
RTVSPropertyOp11
 70
     1
102
RTVSPropertyOp12
 70
     1
102
RTVSPropertyOp13
 70
     1
102
RTVSPropertyOp14
 70
     1
102
RTVSPropertyOp15
 70
     1
102
RTVSPropertyOp16
 70
     1
102
RTVSPropertyOp17
 70
     1
102
RTVSPropertyOp18
 70
     1
102
RTVSPropertyOp19
 70
     1
102
RTVSPropertyOp20
 70
     1
102
RTVSPropertyOp21
 70
     1
102
RTVSPropertyOp22
 70
     1
102
RTVSPropertyOp23
 70
     1
102
RTVSPropertyOp24
 70
     1
102
RTVSPropertyOp25
 70
     1
102
RTVSPropertyOp26
 70
     1
102
RTVSPropertyOp27
 70
     1
102
RTVSPropertyOp28
 70
     1
102
RTVSPropertyOp29
 70
     1
102
RTVSPropertyOp30
 70
     1
102
RTVSPropertyOp31
 70
     1
102
RTVSPropertyOp32
 70
     1
102
RTVSPropertyOp33
 70
     1
102
RTVSPropertyOp34
 70
     1
102
RTVSPropertyOp35
 70
     1
102
RTVSPropertyOp36
 70
     1
102
RTVSPropertyOp37
 70
     1
102
RTVSPropertyOp38
 70
     1
102
RTVSPropertyOp39
 70
     1
102
RTVSPropertyOp40
 70
     1
102
RTVSPropertyOp41
 70
     1
102
RTVSPropertyOp42
 70
     1
102
RTVSPropertyOp43
 70
     1
102
RTVSPropertyOp44
 70
     1
102
RTVSPropertyOp45
 70
     1
102
RTVSPropertyOp46
 70
     1
102
RTVSPropertyOp47
 70
     1
102
RTVSPropertyOp48
 70
     1
102
RTVSPropertyOp49
 70
     1
102
RTVSPropertyOp50
 70
     1
102
RTVSPropertyOp51
 70
     0
102
RTVSPropertyOp52
 70
     0
102
RTVSPropertyOp53
 70
     1
102
RTVSPropertyOp54
 70
     1
102
RTVSPropertyOp55
 70
     1
102
RTVSPropertyOp56
 70
     1
102
RTVSPropertyOp57
 70
     1
102
RTVSPost2010Prop28
280
     0
102
RTVSPost2010PropOp28
 70
     1
102
RTVSPost2010Prop29
280
     1
102
RTVSPost2010PropOp29
 70
     1
102
RTVSPost2010Prop30
280
     1
102
RTVSPost2010PropOp30
 70
     1
102
RTVSPost2010Prop31
280
     0
102
RTVSPost2010PropOp31
 70
     1
102
RTVSPost2010Prop32
280
     0
102
RTVSPost2010PropOp32
 70
     1
102
RTVSPost2010Prop33
280
     0
102
RTVSPost2010PropOp33
 70
     1
102
RTVSPost2010Prop34
280
     0
102
RTVSPost2010PropOp34
 70
     1
102
RTVSPost2010Prop35
280
     0
102
RTVSPost2010PropOp35
 70
     1
102
RTVSPost2010Prop36
280
     0
102
RTVSPost2010PropOp36
 70
     1
102
RTVSPost2010Prop37
 90
       50
102
RTVSPost2010PropOp37
 70
     1
102
RTVSPost2010Prop38
140
0.0
102
RTVSPost2010PropOp38
 70
     1
102
RTVSPost2010Prop39
140
1.0
102
RTVSPost2010PropOp39
 70
     1
102
RTVSPost2010Prop40
 90
        0
102
RTVSPost2010PropOp40
 70
     1
102
RTVSPost2010Prop41ColorIndex
 90
       18
102
RTVSPost2010Prop41ColorRGB
 90
        0
102
RTVSPost2010PropOp41
 70
     1
102
RTVSPost2010Prop42
 90
       50
102
RTVSPost2010PropOp42
 70
     1
102
RTVSPost2010Prop43
 90
        3
102
RTVSPost2010PropOp43
 70
     1
102
RTVSPost2010Prop44ColorIndex
 90
        5
102
RTVSPost2010Prop44ColorRGB
 90
      255
102
RTVSPost2010PropOp44
 70
     1
102
RTVSPost2010Prop45
280
     0
102
RTVSPost2010PropOp45
 70
     1
102
RTVSPost2010Prop46
 90
       50
102
RTVSPost2010PropOp46
 70
     1
102
RTVSPost2010Prop47
 90
       50
102
RTVSPost2010PropOp47
 70
     1
102
RTVSPost2010Prop48
 90
       50
102
RTVSPost2010PropOp48
 70
     1
102
RTVSPost2010Prop49
280
     0
102
RTVSPost2010PropOp49
 70
     1
102
RTVSPost2010Prop50
 90
       50
102
RTVSPost2010PropOp50
 70
     1
102
RTVSPost2010Prop51ColorIndex
 90
      256
102
RTVSPost2010Prop51ColorRGB
 90
-16777216
102
RTVSPost2010PropOp51
 70
     0
102
RTVSPost2010Prop52
140
1.0
102
RTVSPost2010PropOp52
 70
     0
102
RTVSPost2010Prop53
 90
        2
102
RTVSPost2010PropOp53
 70
     1
102
RTVSPost2010Prop54
  1
strokes_ogs.tif
102
RTVSPost2010PropOp54
 70
     1
102
RTVSPost2010Prop55
280
     0
102
RTVSPost2010PropOp55
 70
     1
102
RTVSPost2010Prop56
140
1.0
102
RTVSPost2010PropOp56
 70
     1
102
RTVSPost2010Prop57
140
1.0
102
RTVSPost2010PropOp57
 70
     1
  0
XRECORD
  5
476
102
{ACAD_REACTORS
330
475
102
}
330
475
100
AcDbXrecord
280
     1
102
RTVSPropertyOp0
 70
     1
102
RTVSPropertyOp1
 70
     1
102
RTVSPropertyOp2
 70
     1
102
RTVSPropertyOp3
 70
     1
102
RTVSPropertyOp4
 70
     1
102
RTVSPropertyOp5
 70
     1
102
RTVSPropertyOp6
 70
     1
102
RTVSPropertyOp7
 70
     1
102
RTVSPropertyOp8
 70
     1
102
RTVSPropertyOp9
 70
     1
102
RTVSPropertyOp10
 70
     1
102
RTVSPropertyOp11
 70
     1
102
RTVSPropertyOp12
 70
     1
102
RTVSPropertyOp13
 70
     1
102
RTVSPropertyOp14
 70
     1
102
RTVSPropertyOp15
 70
     1
102
RTVSPropertyOp16
 70
     1
102
RTVSPropertyOp17
 70
     1
102
RTVSPropertyOp18
 70
     1
102
RTVSPropertyOp19
 70
     1
102
RTVSPropertyOp20
 70
     1
102
RTVSPropertyOp21
 70
     1
102
RTVSPropertyOp22
 70
     1
102
RTVSPropertyOp23
 70
     1
102
RTVSPropertyOp24
 70
     1
102
RTVSPropertyOp25
 70
     1
102
RTVSPropertyOp26
 70
     1
102
RTVSPropertyOp27
 70
     1
102
RTVSPropertyOp28
 70
     1
102
RTVSPropertyOp29
 70
     1
102
RTVSPropertyOp30
 70
     1
102
RTVSPropertyOp31
 70
     1
102
RTVSPropertyOp32
 70
     1
102
RTVSPropertyOp33
 70
     1
102
RTVSPropertyOp34
 70
     1
102
RTVSPropertyOp35
 70
     1
102
RTVSPropertyOp36
 70
     1
102
RTVSPropertyOp37
 70
     1
102
RTVSPropertyOp38
 70
     1
102
RTVSPropertyOp39
 70
     1
102
RTVSPropertyOp40
 70
     1
102
RTVSPropertyOp41
 70
     1
102
RTVSPropertyOp42
 70
     1
102
RTVSPropertyOp43
 70
     1
102
RTVSPropertyOp44
 70
     1
102
RTVSPropertyOp45
 70
     1
102
RTVSPropertyOp46
 70
     1
102
RTVSPropertyOp47
 70
     1
102
RTVSPropertyOp48
 70
     1
102
RTVSPropertyOp49
 70
     1
102
RTVSPropertyOp50
 70
     1
102
RTVSPropertyOp51
 70
     0
102
RTVSPropertyOp52
 70
     0
102
RTVSPropertyOp53
 70
     1
102
RTVSPropertyOp54
 70
     1
102
RTVSPropertyOp55
 70
     1
102
RTVSPropertyOp56
 70
     1
102
RTVSPropertyOp57
 70
     1
102
RTVSPost2010Prop28
280
     0
102
RTVSPost2010PropOp28
 70
     1
102
RTVSPost2010Prop29
280
     1
102
RTVSPost2010PropOp29
 70
     1
102
RTVSPost2010Prop30
280
     1
102
RTVSPost2010PropOp30
 70
     1
102
RTVSPost2010Prop31
280
     0
102
RTVSPost2010PropOp31
 70
     1
102
RTVSPost2010Prop32
280
     0
102
RTVSPost2010PropOp32
 70
     1
102
RTVSPost2010Prop33
280
     0
102
RTVSPost2010PropOp33
 70
     1
102
RTVSPost2010Prop34
280
     0
102
RTVSPost2010PropOp34
 70
     1
102
RTVSPost2010Prop35
280
     0
102
RTVSPost2010PropOp35
 70
     1
102
RTVSPost2010Prop36
280
     0
102
RTVSPost2010PropOp36
 70
     1
102
RTVSPost2010Prop37
 90
       50
102
RTVSPost2010PropOp37
 70
     1
102
RTVSPost2010Prop38
140
0.0
102
RTVSPost2010PropOp38
 70
     1
102
RTVSPost2010Prop39
140
1.0
102
RTVSPost2010PropOp39
 70
     1
102
RTVSPost2010Prop40
 90
        0
102
RTVSPost2010PropOp40
 70
     1
102
RTVSPost2010Prop41ColorIndex
 90
       18
102
RTVSPost2010Prop41ColorRGB
 90
        0
102
RTVSPost2010PropOp41
 70
     1
102
RTVSPost2010Prop42
 90
       50
102
RTVSPost2010PropOp42
 70
     1
102
RTVSPost2010Prop43
 90
        3
102
RTVSPost2010PropOp43
 70
     1
102
RTVSPost2010Prop44ColorIndex
 90
        5
102
RTVSPost2010Prop44ColorRGB
 90
      255
102
RTVSPost2010PropOp44
 70
     1
102
RTVSPost2010Prop45
280
     0
102
RTVSPost2010PropOp45
 70
     1
102
RTVSPost2010Prop46
 90
       50
102
RTVSPost2010PropOp46
 70
     1
102
RTVSPost2010Prop47
 90
       50
102
RTVSPost2010PropOp47
 70
     1
102
RTVSPost2010Prop48
 90
       50
102
RTVSPost2010PropOp48
 70
     1
102
RTVSPost2010Prop49
280
     0
102
RTVSPost2010PropOp49
 70
     1
102
RTVSPost2010Prop50
 90
       50
102
RTVSPost2010PropOp50
 70
     1
102
RTVSPost2010Prop51ColorIndex
 90
      256
102
RTVSPost2010Prop51ColorRGB
 90
-16777216
102
RTVSPost2010PropOp51
 70
     0
102
RTVSPost2010Prop52
140
1.0
102
RTVSPost2010PropOp52
 70
     0
102
RTVSPost2010Prop53
 90
        2
102
RTVSPost2010PropOp53
 70
     1
102
RTVSPost2010Prop54
  1
strokes_ogs.tif
102
RTVSPost2010PropOp54
 70
     1
102
RTVSPost2010Prop55
280
     0
102
RTVSPost2010PropOp55
 70
     1
102
RTVSPost2010Prop56
140
1.0
102
RTVSPost2010PropOp56
 70
     1
102
RTVSPost2010Prop57
140
1.0
102
RTVSPost2010PropOp57
 70
     1
  0
XRECORD
  5
466
102
{ACAD_REACTORS
330
465
102
}
330
465
100
AcDbXrecord
280
     1
102
RTVSPropertyOp0
 70
     1
102
RTVSPropertyOp1
 70
     1
102
RTVSPropertyOp2
 70
     1
102
RTVSPropertyOp3
 70
     1
102
RTVSPropertyOp4
 70
     1
102
RTVSPropertyOp5
 70
     1
102
RTVSPropertyOp6
 70
     1
102
RTVSPropertyOp7
 70
     1
102
RTVSPropertyOp8
 70
     1
102
RTVSPropertyOp9
 70
     1
102
RTVSPropertyOp10
 70
     1
102
RTVSPropertyOp11
 70
     1
102
RTVSPropertyOp12
 70
     1
102
RTVSPropertyOp13
 70
     1
102
RTVSPropertyOp14
 70
     1
102
RTVSPropertyOp15
 70
     1
102
RTVSPropertyOp16
 70
     1
102
RTVSPropertyOp17
 70
     1
102
RTVSPropertyOp18
 70
     1
102
RTVSPropertyOp19
 70
     1
102
RTVSPropertyOp20
 70
     1
102
RTVSPropertyOp21
 70
     1
102
RTVSPropertyOp22
 70
     1
102
RTVSPropertyOp23
 70
     1
102
RTVSPropertyOp24
 70
     1
102
RTVSPropertyOp25
 70
     1
102
RTVSPropertyOp26
 70
     1
102
RTVSPropertyOp27
 70
     1
102
RTVSPropertyOp28
 70
     1
102
RTVSPropertyOp29
 70
     1
102
RTVSPropertyOp30
 70
     1
102
RTVSPropertyOp31
 70
     1
102
RTVSPropertyOp32
 70
     1
102
RTVSPropertyOp33
 70
     1
102
RTVSPropertyOp34
 70
     1
102
RTVSPropertyOp35
 70
     1
102
RTVSPropertyOp36
 70
     1
102
RTVSPropertyOp37
 70
     1
102
RTVSPropertyOp38
 70
     1
102
RTVSPropertyOp39
 70
     1
102
RTVSPropertyOp40
 70
     1
102
RTVSPropertyOp41
 70
     1
102
RTVSPropertyOp42
 70
     1
102
RTVSPropertyOp43
 70
     1
102
RTVSPropertyOp44
 70
     1
102
RTVSPropertyOp45
 70
     1
102
RTVSPropertyOp46
 70
     1
102
RTVSPropertyOp47
 70
     1
102
RTVSPropertyOp48
 70
     1
102
RTVSPropertyOp49
 70
     1
102
RTVSPropertyOp50
 70
     1
102
RTVSPropertyOp51
 70
     0
102
RTVSPropertyOp52
 70
     0
102
RTVSPropertyOp53
 70
     1
102
RTVSPropertyOp54
 70
     1
102
RTVSPropertyOp55
 70
     1
102
RTVSPropertyOp56
 70
     1
102
RTVSPropertyOp57
 70
     1
102
RTVSPost2010Prop28
280
     0
102
RTVSPost2010PropOp28
 70
     1
102
RTVSPost2010Prop29
280
     1
102
RTVSPost2010PropOp29
 70
     1
102
RTVSPost2010Prop30
280
     1
102
RTVSPost2010PropOp30
 70
     1
102
RTVSPost2010Prop31
280
     0
102
RTVSPost2010PropOp31
 70
     1
102
RTVSPost2010Prop32
280
     0
102
RTVSPost2010PropOp32
 70
     1
102
RTVSPost2010Prop33
280
     0
102
RTVSPost2010PropOp33
 70
     1
102
RTVSPost2010Prop34
280
     0
102
RTVSPost2010PropOp34
 70
     1
102
RTVSPost2010Prop35
280
     0
102
RTVSPost2010PropOp35
 70
     1
102
RTVSPost2010Prop36
280
     0
102
RTVSPost2010PropOp36
 70
     1
102
RTVSPost2010Prop37
 90
       50
102
RTVSPost2010PropOp37
 70
     1
102
RTVSPost2010Prop38
140
0.0
102
RTVSPost2010PropOp38
 70
     1
102
RTVSPost2010Prop39
140
1.0
102
RTVSPost2010PropOp39
 70
     1
102
RTVSPost2010Prop40
 90
        0
102
RTVSPost2010PropOp40
 70
     1
102
RTVSPost2010Prop41ColorIndex
 90
       18
102
RTVSPost2010Prop41ColorRGB
 90
        0
102
RTVSPost2010PropOp41
 70
     1
102
RTVSPost2010Prop42
 90
       50
102
RTVSPost2010PropOp42
 70
     1
102
RTVSPost2010Prop43
 90
        3
102
RTVSPost2010PropOp43
 70
     1
102
RTVSPost2010Prop44ColorIndex
 90
        5
102
RTVSPost2010Prop44ColorRGB
 90
      255
102
RTVSPost2010PropOp44
 70
     1
102
RTVSPost2010Prop45
280
     0
102
RTVSPost2010PropOp45
 70
     1
102
RTVSPost2010Prop46
 90
       50
102
RTVSPost2010PropOp46
 70
     1
102
RTVSPost2010Prop47
 90
       50
102
RTVSPost2010PropOp47
 70
     1
102
RTVSPost2010Prop48
 90
       50
102
RTVSPost2010PropOp48
 70
     1
102
RTVSPost2010Prop49
280
     0
102
RTVSPost2010PropOp49
 70
     1
102
RTVSPost2010Prop50
 90
       50
102
RTVSPost2010PropOp50
 70
     1
102
RTVSPost2010Prop51ColorIndex
 90
      256
102
RTVSPost2010Prop51ColorRGB
 90
-16777216
102
RTVSPost2010PropOp51
 70
     0
102
RTVSPost2010Prop52
140
1.0
102
RTVSPost2010PropOp52
 70
     0
102
RTVSPost2010Prop53
 90
        2
102
RTVSPost2010PropOp53
 70
     1
102
RTVSPost2010Prop54
  1
strokes_ogs.tif
102
RTVSPost2010PropOp54
 70
     1
102
RTVSPost2010Prop55
280
     0
102
RTVSPost2010PropOp55
 70
     1
102
RTVSPost2010Prop56
140
1.0
102
RTVSPost2010PropOp56
 70
     1
102
RTVSPost2010Prop57
140
1.0
102
RTVSPost2010PropOp57
 70
     1
  0
XRECORD
  5
458
102
{ACAD_REACTORS
330
457
102
}
330
457
100
AcDbXrecord
280
     1
102
RTVSPropertyOp0
 70
     1
102
RTVSPropertyOp1
 70
     1
102
RTVSPropertyOp2
 70
     1
102
RTVSPropertyOp3
 70
     1
102
RTVSPropertyOp4
 70
     1
102
RTVSPropertyOp5
 70
     1
102
RTVSPropertyOp6
 70
     1
102
RTVSPropertyOp7
 70
     1
102
RTVSPropertyOp8
 70
     1
102
RTVSPropertyOp9
 70
     1
102
RTVSPropertyOp10
 70
     1
102
RTVSPropertyOp11
 70
     1
102
RTVSPropertyOp12
 70
     1
102
RTVSPropertyOp13
 70
     1
102
RTVSPropertyOp14
 70
     1
102
RTVSPropertyOp15
 70
     1
102
RTVSPropertyOp16
 70
     1
102
RTVSPropertyOp17
 70
     1
102
RTVSPropertyOp18
 70
     1
102
RTVSPropertyOp19
 70
     1
102
RTVSPropertyOp20
 70
     1
102
RTVSPropertyOp21
 70
     1
102
RTVSPropertyOp22
 70
     1
102
RTVSPropertyOp23
 70
     1
102
RTVSPropertyOp24
 70
     1
102
RTVSPropertyOp25
 70
     1
102
RTVSPropertyOp26
 70
     1
102
RTVSPropertyOp27
 70
     1
102
RTVSPropertyOp28
 70
     1
102
RTVSPropertyOp29
 70
     1
102
RTVSPropertyOp30
 70
     1
102
RTVSPropertyOp31
 70
     1
102
RTVSPropertyOp32
 70
     1
102
RTVSPropertyOp33
 70
     1
102
RTVSPropertyOp34
 70
     1
102
RTVSPropertyOp35
 70
     1
102
RTVSPropertyOp36
 70
     1
102
RTVSPropertyOp37
 70
     1
102
RTVSPropertyOp38
 70
     1
102
RTVSPropertyOp39
 70
     1
102
RTVSPropertyOp40
 70
     1
102
RTVSPropertyOp41
 70
     1
102
RTVSPropertyOp42
 70
     1
102
RTVSPropertyOp43
 70
     1
102
RTVSPropertyOp44
 70
     1
102
RTVSPropertyOp45
 70
     1
102
RTVSPropertyOp46
 70
     1
102
RTVSPropertyOp47
 70
     1
102
RTVSPropertyOp48
 70
     1
102
RTVSPropertyOp49
 70
     1
102
RTVSPropertyOp50
 70
     1
102
RTVSPropertyOp51
 70
     0
102
RTVSPropertyOp52
 70
     0
102
RTVSPropertyOp53
 70
     1
102
RTVSPropertyOp54
 70
     1
102
RTVSPropertyOp55
 70
     1
102
RTVSPropertyOp56
 70
     1
102
RTVSPropertyOp57
 70
     1
102
RTVSPost2010Prop28
280
     0
102
RTVSPost2010PropOp28
 70
     1
102
RTVSPost2010Prop29
280
     1
102
RTVSPost2010PropOp29
 70
     1
102
RTVSPost2010Prop30
280
     1
102
RTVSPost2010PropOp30
 70
     1
102
RTVSPost2010Prop31
280
     0
102
RTVSPost2010PropOp31
 70
     1
102
RTVSPost2010Prop32
280
     0
102
RTVSPost2010PropOp32
 70
     1
102
RTVSPost2010Prop33
280
     0
102
RTVSPost2010PropOp33
 70
     1
102
RTVSPost2010Prop34
280
     0
102
RTVSPost2010PropOp34
 70
     1
102
RTVSPost2010Prop35
280
     0
102
RTVSPost2010PropOp35
 70
     1
102
RTVSPost2010Prop36
280
     0
102
RTVSPost2010PropOp36
 70
     1
102
RTVSPost2010Prop37
 90
       50
102
RTVSPost2010PropOp37
 70
     1
102
RTVSPost2010Prop38
140
0.0
102
RTVSPost2010PropOp38
 70
     1
102
RTVSPost2010Prop39
140
1.0
102
RTVSPost2010PropOp39
 70
     1
102
RTVSPost2010Prop40
 90
        0
102
RTVSPost2010PropOp40
 70
     1
102
RTVSPost2010Prop41ColorIndex
 90
       18
102
RTVSPost2010Prop41ColorRGB
 90
        0
102
RTVSPost2010PropOp41
 70
     1
102
RTVSPost2010Prop42
 90
       50
102
RTVSPost2010PropOp42
 70
     1
102
RTVSPost2010Prop43
 90
        3
102
RTVSPost2010PropOp43
 70
     1
102
RTVSPost2010Prop44ColorIndex
 90
        5
102
RTVSPost2010Prop44ColorRGB
 90
      255
102
RTVSPost2010PropOp44
 70
     1
102
RTVSPost2010Prop45
280
     0
102
RTVSPost2010PropOp45
 70
     1
102
RTVSPost2010Prop46
 90
       50
102
RTVSPost2010PropOp46
 70
     1
102
RTVSPost2010Prop47
 90
       50
102
RTVSPost2010PropOp47
 70
     1
102
RTVSPost2010Prop48
 90
       50
102
RTVSPost2010PropOp48
 70
     1
102
RTVSPost2010Prop49
280
     0
102
RTVSPost2010PropOp49
 70
     1
102
RTVSPost2010Prop50
 90
       50
102
RTVSPost2010PropOp50
 70
     1
102
RTVSPost2010Prop51ColorIndex
 90
      256
102
RTVSPost2010Prop51ColorRGB
 90
-16777216
102
RTVSPost2010PropOp51
 70
     0
102
RTVSPost2010Prop52
140
1.0
102
RTVSPost2010PropOp52
 70
     0
102
RTVSPost2010Prop53
 90
        2
102
RTVSPost2010PropOp53
 70
     1
102
RTVSPost2010Prop54
  1
strokes_ogs.tif
102
RTVSPost2010PropOp54
 70
     1
102
RTVSPost2010Prop55
280
     0
102
RTVSPost2010PropOp55
 70
     1
102
RTVSPost2010Prop56
140
1.0
102
RTVSPost2010PropOp56
 70
     1
102
RTVSPost2010Prop57
140
1.0
102
RTVSPost2010PropOp57
 70
     1
  0
XRECORD
  5
478
102
{ACAD_REACTORS
330
477
102
}
330
477
100
AcDbXrecord
280
     1
102
RTVSPropertyOp0
 70
     1
102
RTVSPropertyOp1
 70
     1
102
RTVSPropertyOp2
 70
     1
102
RTVSPropertyOp3
 70
     1
102
RTVSPropertyOp4
 70
     1
102
RTVSPropertyOp5
 70
     1
102
RTVSPropertyOp6
 70
     1
102
RTVSPropertyOp7
 70
     1
102
RTVSPropertyOp8
 70
     1
102
RTVSPropertyOp9
 70
     1
102
RTVSPropertyOp10
 70
     1
102
RTVSPropertyOp11
 70
     1
102
RTVSPropertyOp12
 70
     1
102
RTVSPropertyOp13
 70
     1
102
RTVSPropertyOp14
 70
     1
102
RTVSPropertyOp15
 70
     1
102
RTVSPropertyOp16
 70
     1
102
RTVSPropertyOp17
 70
     1
102
RTVSPropertyOp18
 70
     1
102
RTVSPropertyOp19
 70
     1
102
RTVSPropertyOp20
 70
     1
102
RTVSPropertyOp21
 70
     1
102
RTVSPropertyOp22
 70
     1
102
RTVSPropertyOp23
 70
     1
102
RTVSPropertyOp24
 70
     1
102
RTVSPropertyOp25
 70
     1
102
RTVSPropertyOp26
 70
     1
102
RTVSPropertyOp27
 70
     1
102
RTVSPropertyOp28
 70
     1
102
RTVSPropertyOp29
 70
     1
102
RTVSPropertyOp30
 70
     1
102
RTVSPropertyOp31
 70
     1
102
RTVSPropertyOp32
 70
     1
102
RTVSPropertyOp33
 70
     1
102
RTVSPropertyOp34
 70
     1
102
RTVSPropertyOp35
 70
     1
102
RTVSPropertyOp36
 70
     1
102
RTVSPropertyOp37
 70
     1
102
RTVSPropertyOp38
 70
     1
102
RTVSPropertyOp39
 70
     1
102
RTVSPropertyOp40
 70
     1
102
RTVSPropertyOp41
 70
     1
102
RTVSPropertyOp42
 70
     1
102
RTVSPropertyOp43
 70
     1
102
RTVSPropertyOp44
 70
     1
102
RTVSPropertyOp45
 70
     1
102
RTVSPropertyOp46
 70
     1
102
RTVSPropertyOp47
 70
     1
102
RTVSPropertyOp48
 70
     1
102
RTVSPropertyOp49
 70
     1
102
RTVSPropertyOp50
 70
     1
102
RTVSPropertyOp51
 70
     0
102
RTVSPropertyOp52
 70
     0
102
RTVSPropertyOp53
 70
     1
102
RTVSPropertyOp54
 70
     1
102
RTVSPropertyOp55
 70
     1
102
RTVSPropertyOp56
 70
     1
102
RTVSPropertyOp57
 70
     1
102
RTVSPost2010Prop28
280
     0
102
RTVSPost2010PropOp28
 70
     1
102
RTVSPost2010Prop29
280
     1
102
RTVSPost2010PropOp29
 70
     1
102
RTVSPost2010Prop30
280
     1
102
RTVSPost2010PropOp30
 70
     1
102
RTVSPost2010Prop31
280
     0
102
RTVSPost2010PropOp31
 70
     1
102
RTVSPost2010Prop32
280
     0
102
RTVSPost2010PropOp32
 70
     1
102
RTVSPost2010Prop33
280
     0
102
RTVSPost2010PropOp33
 70
     1
102
RTVSPost2010Prop34
280
     0
102
RTVSPost2010PropOp34
 70
     1
102
RTVSPost2010Prop35
280
     0
102
RTVSPost2010PropOp35
 70
     1
102
RTVSPost2010Prop36
280
     0
102
RTVSPost2010PropOp36
 70
     1
102
RTVSPost2010Prop37
 90
       50
102
RTVSPost2010PropOp37
 70
     1
102
RTVSPost2010Prop38
140
0.0
102
RTVSPost2010PropOp38
 70
     1
102
RTVSPost2010Prop39
140
1.0
102
RTVSPost2010PropOp39
 70
     1
102
RTVSPost2010Prop40
 90
        0
102
RTVSPost2010PropOp40
 70
     1
102
RTVSPost2010Prop41ColorIndex
 90
       18
102
RTVSPost2010Prop41ColorRGB
 90
        0
102
RTVSPost2010PropOp41
 70
     1
102
RTVSPost2010Prop42
 90
       50
102
RTVSPost2010PropOp42
 70
     1
102
RTVSPost2010Prop43
 90
        3
102
RTVSPost2010PropOp43
 70
     1
102
RTVSPost2010Prop44ColorIndex
 90
        5
102
RTVSPost2010Prop44ColorRGB
 90
      255
102
RTVSPost2010PropOp44
 70
     1
102
RTVSPost2010Prop45
280
     0
102
RTVSPost2010PropOp45
 70
     1
102
RTVSPost2010Prop46
 90
       50
102
RTVSPost2010PropOp46
 70
     1
102
RTVSPost2010Prop47
 90
       50
102
RTVSPost2010PropOp47
 70
     1
102
RTVSPost2010Prop48
 90
       50
102
RTVSPost2010PropOp48
 70
     1
102
RTVSPost2010Prop49
280
     0
102
RTVSPost2010PropOp49
 70
     1
102
RTVSPost2010Prop50
 90
       50
102
RTVSPost2010PropOp50
 70
     1
102
RTVSPost2010Prop51ColorIndex
 90
      256
102
RTVSPost2010Prop51ColorRGB
 90
-16777216
102
RTVSPost2010PropOp51
 70
     0
102
RTVSPost2010Prop52
140
1.0
102
RTVSPost2010PropOp52
 70
     0
102
RTVSPost2010Prop53
 90
        2
102
RTVSPost2010PropOp53
 70
     1
102
RTVSPost2010Prop54
  1
strokes_ogs.tif
102
RTVSPost2010PropOp54
 70
     1
102
RTVSPost2010Prop55
280
     0
102
RTVSPost2010PropOp55
 70
     1
102
RTVSPost2010Prop56
140
1.0
102
RTVSPost2010PropOp56
 70
     1
102
RTVSPost2010Prop57
140
1.0
102
RTVSPost2010PropOp57
 70
     1
  0
ENDSEC
  0
EOF
