  0
SECTION
  2
HEADER
  9
$ACADVER
  1
AC1015
  9
$ACADMAINTVER
 70
    18
  9
$DWGCODEPAGE
  3
ANSI_1252
  9
$INSBASE
 10
0.0
 20
0.0
 30
0.0
  9
$EXTMIN
 10
-249.5891241091176
 20
-20.42956349536507
 30
-0.0015258207003583
  9
$EXTMAX
 10
249.5165574607863
 20
980.0031759480514
 30
0.0000000349246037
  9
$LIMMIN
 10
0.0
 20
0.0
  9
$LIMMAX
 10
1189.0
 20
840.9999999999998
  9
$ORTHOMODE
 70
     0
  9
$REGENMODE
 70
     1
  9
$FILLMODE
 70
     1
  9
$QTEXTMODE
 70
     0
  9
$MIRRTEXT
 70
     0
  9
$LTSCALE
 40
1.0
  9
$ATTMODE
 70
     1
  9
$TEXTSIZE
 40
0.2
  9
$TRACEWID
 40
0.05
  9
$TEXTSTYLE
  7
STANDARD
  9
$CLAYER
  8
0
  9
$CELTYPE
  6
ByLayer
  9
$CECOLOR
 62
   256
  9
$CELTSCALE
 40
1.0
  9
$DISPSILH
 70
     0
  9
$DIMSCALE
 40
1.0
  9
$DIMASZ
 40
1800.0
  9
$DIMEXO
 40
0.0625
  9
$DIMDLI
 40
0.38
  9
$DIMRND
 40
0.0
  9
$DIMDLE
 40
0.0
  9
$DIMEXE
 40
0.18
  9
$DIMTP
 40
0.0
  9
$DIMTM
 40
0.0
  9
$DIMTXT
 40
349.9999940395354
  9
$DIMCEN
 40
0.09
  9
$DIMTSZ
 40
0.0
  9
$DIMTOL
 70
     0
  9
$DIMLIM
 70
     0
  9
$DIMTIH
 70
     1
  9
$DIMTOH
 70
     1
  9
$DIMSE1
 70
     0
  9
$DIMSE2
 70
     0
  9
$DIMTAD
 70
     0
  9
$DIMZIN
 70
     0
  9
$DIMBLK
  1

  9
$DIMASO
 70
     1
  9
$DIMSHO
 70
     1
  9
$DIMPOST
  1

  9
$DIMAPOST
  1

  9
$DIMALT
 70
     0
  9
$DIMALTD
 70
     2
  9
$DIMALTF
 40
25.4
  9
$DIMLFAC
 40
1.0
  9
$DIMTOFL
 70
     0
  9
$DIMTVP
 40
0.0
  9
$DIMTIX
 70
     0
  9
$DIMSOXD
 70
     0
  9
$DIMSAH
 70
     0
  9
$DIMBLK1
  1

  9
$DIMBLK2
  1

  9
$DIMSTYLE
  2
STANDARD
  9
$DIMCLRD
 70
     0
  9
$DIMCLRE
 70
     0
  9
$DIMCLRT
 70
     0
  9
$DIMTFAC
 40
1.0
  9
$DIMGAP
 40
0.09
  9
$DIMJUST
 70
     0
  9
$DIMSD1
 70
     0
  9
$DIMSD2
 70
     0
  9
$DIMTOLJ
 70
     1
  9
$DIMTZIN
 70
     0
  9
$DIMALTZ
 70
     0
  9
$DIMALTTZ
 70
     0
  9
$DIMUPT
 70
     0
  9
$DIMDEC
 70
     4
  9
$DIMTDEC
 70
     4
  9
$DIMALTU
 70
     2
  9
$DIMALTTD
 70
     2
  9
$DIMTXSTY
  7
STANDARD
  9
$DIMAUNIT
 70
     0
  9
$DIMADEC
 70
     0
  9
$DIMALTRND
 40
0.0
  9
$DIMAZIN
 70
     0
  9
$DIMDSEP
 70
    46
  9
$DIMATFIT
 70
     3
  9
$DIMFRAC
 70
     0
  9
$DIMLDRBLK
  1

  9
$DIMLUNIT
 70
     2
  9
$DIMLWD
 70
    -2
  9
$DIMLWE
 70
    -2
  9
$DIMTMOVE
 70
     0
  9
$LUNITS
 70
     2
  9
$LUPREC
 70
     4
  9
$SKETCHINC
 40
0.1
  9
$FILLETRAD
 40
0.0
  9
$AUNITS
 70
     0
  9
$AUPREC
 70
     0
  9
$MENU
  1
.
  9
$ELEVATION
 40
0.0
  9
$PELEVATION
 40
0.0
  9
$THICKNESS
 40
0.0
  9
$LIMCHECK
 70
     0
  9
$CHAMFERA
 40
0.0
  9
$CHAMFERB
 40
0.0
  9
$CHAMFERC
 40
0.0
  9
$CHAMFERD
 40
0.0
  9
$SKPOLY
 70
     0
  9
$TDCREATE
 40
2454871.497639329
  9
$TDUCREATE
 40
2454871.455972662
  9
$TDUPDATE
 40
2456373.358011470
  9
$TDUUPDATE
 40
2456373.316344803
  9
$TDINDWG
 40
0.0131901157
  9
$TDUSRTIMER
 40
0.0131901157
  9
$USRTIMER
 70
     1
  9
$ANGBASE
 50
0.0
  9
$ANGDIR
 70
     0
  9
$PDMODE
 70
     0
  9
$PDSIZE
 40
0.0
  9
$PLINEWID
 40
0.0
  9
$SPLFRAME
 70
     0
  9
$SPLINETYPE
 70
     6
  9
$SPLINESEGS
 70
     8
  9
$HANDSEED
  5
226
  9
$SURFTAB1
 70
     6
  9
$SURFTAB2
 70
     6
  9
$SURFTYPE
 70
     6
  9
$SURFU
 70
     6
  9
$SURFV
 70
     6
  9
$UCSBASE
  2

  9
$UCSNAME
  2

  9
$UCSORG
 10
0.0
 20
0.0
 30
0.0
  9
$UCSXDIR
 10
1.0
 20
0.0
 30
0.0
  9
$UCSYDIR
 10
0.0
 20
1.0
 30
0.0
  9
$UCSORTHOREF
  2

  9
$UCSORTHOVIEW
 70
     0
  9
$UCSORGTOP
 10
0.0
 20
0.0
 30
0.0
  9
$UCSORGBOTTOM
 10
0.0
 20
0.0
 30
0.0
  9
$UCSORGLEFT
 10
0.0
 20
0.0
 30
0.0
  9
$UCSORGRIGHT
 10
0.0
 20
0.0
 30
0.0
  9
$UCSORGFRONT
 10
0.0
 20
0.0
 30
0.0
  9
$UCSORGBACK
 10
0.0
 20
0.0
 30
0.0
  9
$PUCSBASE
  2

  9
$PUCSNAME
  2

  9
$PUCSORG
 10
0.0
 20
0.0
 30
0.0
  9
$PUCSXDIR
 10
1.0
 20
0.0
 30
0.0
  9
$PUCSYDIR
 10
0.0
 20
1.0
 30
0.0
  9
$PUCSORTHOREF
  2

  9
$PUCSORTHOVIEW
 70
     0
  9
$PUCSORGTOP
 10
0.0
 20
0.0
 30
0.0
  9
$PUCSORGBOTTOM
 10
0.0
 20
0.0
 30
0.0
  9
$PUCSORGLEFT
 10
0.0
 20
0.0
 30
0.0
  9
$PUCSORGRIGHT
 10
0.0
 20
0.0
 30
0.0
  9
$PUCSORGFRONT
 10
0.0
 20
0.0
 30
0.0
  9
$PUCSORGBACK
 10
0.0
 20
0.0
 30
0.0
  9
$USERI1
 70
     0
  9
$USERI2
 70
     0
  9
$USERI3
 70
     0
  9
$USERI4
 70
     0
  9
$USERI5
 70
     0
  9
$USERR1
 40
0.0
  9
$USERR2
 40
0.0
  9
$USERR3
 40
0.0
  9
$USERR4
 40
0.0
  9
$USERR5
 40
0.0
  9
$WORLDVIEW
 70
     1
  9
$SHADEDGE
 70
     3
  9
$SHADEDIF
 70
    70
  9
$TILEMODE
 70
     1
  9
$MAXACTVP
 70
    64
  9
$PINSBASE
 10
0.0
 20
0.0
 30
0.0
  9
$PLIMCHECK
 70
     0
  9
$PEXTMIN
 10
0.0
 20
0.0
 30
0.0
  9
$PEXTMAX
 10
1189.0
 20
840.9999999999998
 30
0.0
  9
$PLIMMIN
 10
0.0
 20
0.0
  9
$PLIMMAX
 10
1189.0
 20
840.9999999999998
  9
$UNITMODE
 70
     0
  9
$VISRETAIN
 70
     1
  9
$PLINEGEN
 70
     0
  9
$PSLTSCALE
 70
     1
  9
$TREEDEPTH
 70
  3020
  9
$CMLSTYLE
  2
Standard
  9
$CMLJUST
 70
     0
  9
$CMLSCALE
 40
1.0
  9
$PROXYGRAPHICS
 70
     1
  9
$MEASUREMENT
 70
     1
  9
$CELWEIGHT
370
    -1
  9
$ENDCAPS
280
     0
  9
$JOINSTYLE
280
     0
  9
$LWDISPLAY
290
     0
  9
$INSUNITS
 70
     4
  9
$HYPERLINKBASE
  1

  9
$STYLESHEET
  1

  9
$XEDIT
290
     1
  9
$CEPSNTYPE
380
     0
  9
$PSTYLEMODE
290
     1
  9
$FINGERPRINTGUID
  2
{6FBE5534-7B3C-43EA-B339-E960E8550A75}
  9
$VERSIONGUID
  2
{962C8530-0BEE-46DE-9868-E034EB86F9F4}
  9
$EXTNAMES
290
     1
  9
$PSVPSCALE
 40
0.0
  9
$OLESTARTUP
290
     0
  0
ENDSEC
  0
SECTION
  2
CLASSES
  0
CLASS
  1
ACDBDICTIONARYWDFLT
  2
AcDbDictionaryWithDefault
  3
ObjectDBX Classes
 90
        0
280
     0
281
     0
  0
CLASS
  1
MATERIAL
  2
AcDbMaterial
  3
ObjectDBX Classes
 90
     1153
280
     0
281
     0
  0
CLASS
  1
VISUALSTYLE
  2
AcDbVisualStyle
  3
ObjectDBX Classes
 90
     4095
280
     0
281
     0
  0
CLASS
  1
SCALE
  2
AcDbScale
  3
ObjectDBX Classes
 90
     1153
280
     0
281
     0
  0
CLASS
  1
TABLESTYLE
  2
AcDbTableStyle
  3
ObjectDBX Classes
 90
     4095
280
     0
281
     0
  0
CLASS
  1
MLEADERSTYLE
  2
AcDbMLeaderStyle
  3
ACDB_MLEADERSTYLE_CLASS
 90
     4095
280
     0
281
     0
  0
CLASS
  1
SORTENTSTABLE
  2
AcDbSortentsTable
  3
ObjectDBX Classes
 90
        0
280
     0
281
     0
  0
CLASS
  1
CELLSTYLEMAP
  2
AcDbCellStyleMap
  3
ObjectDBX Classes
 90
     1152
280
     0
281
     0
  0
CLASS
  1
DICTIONARYVAR
  2
AcDbDictionaryVar
  3
ObjectDBX Classes
 90
        0
280
     0
281
     0
  0
CLASS
  1
ACME_DOCUMENT
  2
AcMeDbDoc
  3
AcMeServices
 90
    33792
280
     1
281
     0
  0
CLASS
  1
AMGSETTINGSOBJ
  2
AmgSettingsObj
  3
"AcadM|Product Description: AutoCAD Mechanical|Company: Autodesk, Inc."
 90
    33792
280
     1
281
     0
  0
CLASS
  1
ACMESCOPE
  2
AcMeScope
  3
AcMeServices
 90
    33792
280
     1
281
     0
  0
CLASS
  1
ACMECOMMANDHISTORY
  2
AcMeCommandHistory
  3
AcMeServices
 90
    33792
280
     1
281
     0
  0
CLASS
  1
ACIMSYSVARMAN
  2
AcImSysVarManager
  3
AcMeServices
 90
    33792
280
     1
281
     0
  0
CLASS
  1
ACIMINTSYSVAR
  2
AcImIntSysVar
  3
AcMeServices
 90
    33792
280
     1
281
     0
  0
CLASS
  1
ACMEDRAWINGMAN
  2
AcMeDrawingMan
  3
AcMeServices
 90
    33792
280
     1
281
     0
  0
CLASS
  1
ACMEVIEW
  2
AcMeView
  3
AcMeServices
 90
    33792
280
     1
281
     0
  0
CLASS
  1
ACDBENTITYCACHE
  2
AcMeEntityCache
  3
AcMeServices
 90
    33792
280
     1
281
     0
  0
CLASS
  1
GSMANAGER
  2
AcMeGSManager
  3
AcMeServices
 90
    33792
280
     1
281
     0
  0
CLASS
  1
AMDTINTERNALREACTOR
  2
AmdtInternalReactor
  3
AcMeServices
 90
    33792
280
     1
281
     0
  0
CLASS
  1
ACMESTATEMGR
  2
AcMeStateMgr
  3
AcMeServices
 90
    33792
280
     1
281
     0
  0
CLASS
  1
ACGREFMASTER
  2
AcGrefMaster
  3
AcAttribServices
 90
    33792
280
     1
281
     0
  0
CLASS
  1
AM_DRAWING_MGR
  2
AcDmDwgMgr
  3
AcMechDwgViewMgmt
 90
    33792
280
     1
281
     0
  0
CLASS
  1
AM_DWG_DOCUMENT
  2
AcDmDwgDocument
  3
AcMechDwgViewMgmt
 90
    33792
280
     1
281
     0
  0
CLASS
  1
AM_DWG_SHEET
  2
AcDmSheet
  3
AcMechDwgViewMgmt
 90
    33792
280
     1
281
     0
  0
CLASS
  1
AM_VIEWDIMPARMAP
  2
AcDmViewDimParMap
  3
AcMechDwgViewMgmt
 90
    33792
280
     1
281
     0
  0
CLASS
  1
ACIMREALSYSVAR
  2
AcImRealSysVar
  3
AcMeServices
 90
    33792
280
     1
281
     0
  0
CLASS
  1
AM_DWGMGR_NAME
  2
AcDmDwgMgrName
  3
AcMechDwgViewMgmt
 90
    33792
280
     1
281
     0
  0
CLASS
  1
ACME_DATABASE
  2
AcMeDbDatabase
  3
AcMeServices
 90
    33792
280
     1
281
     0
  0
CLASS
  1
ACRFINSADJUSTERMGR
  2
AcRfInsAdjusterMgr
  3
AcMeServices
 90
    33792
280
     1
281
     0
  0
CLASS
  1
ACGREFACADMASTER
  2
AcGrefacadMaster
  3
AcGrefServices
 90
    33792
280
     1
281
     0
  0
CLASS
  1
AMDTMENUSTATEMGR
  2
AmdtMenuStateMgr
  3
McadcomServices
 90
    33792
280
     1
281
     0
  0
CLASS
  1
AMDTMCOMMENUSTATE
  2
AmdtMcomMenuState
  3
McadcomServices
 90
    33792
280
     1
281
     0
  0
CLASS
  1
AMIMASTER
  2
AmiMaster
  3
AmiServices
 90
    33792
280
     1
281
     0
  0
CLASS
  1
MAPIAMMOUDLE
  2
MApiAmModule
  3
MApiAmServices
 90
    33792
280
     1
281
     0
  0
CLASS
  1
ACIMSTRSYSVAR
  2
AcImStrSysVar
  3
AcMeServices
 90
    33792
280
     1
281
     0
  0
CLASS
  1
AMDTADMENUSTATE
  2
AmdtAdMenuState
  3
DesignerServices
 90
    33792
280
     1
281
     0
  0
CLASS
  1
ADAPPL
  2
AcAdAppl
  3
DesignerServices
 90
    33792
280
     1
281
     0
  0
CLASS
  1
DEPMGR
  2
AcAdDepMgr
  3
DesignerServices
 90
    33792
280
     1
281
     0
  0
CLASS
  1
PARAMMGR
  2
AcAdParamMgr
  3
DesignerServices
 90
    33792
280
     1
281
     0
  0
CLASS
  1
PARAMSCOPE
  2
AcAdParamScope
  3
DesignerServices
 90
    33792
280
     1
281
     0
  0
CLASS
  1
NAMEDAPPL
  2
AcAdNamedAppl
  3
DesignerServices
 90
    33792
280
     1
281
     0
  0
CLASS
  1
AMDTDMMENUSTATE
  2
AmdtDmMenuState
  3
AcMechDwgViewMgmt
 90
    33792
280
     1
281
     0
  0
CLASS
  1
AMDTAMMENUSTATE
  2
AmdtAmMenuState
  3
DesignerAssemblies
 90
    33792
280
     1
281
     0
  0
CLASS
  1
ACAMPROJECT
  2
AcAmProject
  3
DesignerAssemblies
 90
    33792
280
     1
281
     0
  0
CLASS
  1
ACAMGRCOMPDEF
  2
AcAmGrCompDef
  3
DesignerAssemblies
 90
    33792
280
     1
281
     0
  0
CLASS
  1
ACCMCONTEXT
  2
AcCmContext
  3
DesignerAssemblies
 90
    33792
280
     1
281
     0
  0
CLASS
  1
ACAMCOMPDEF
  2
AcAmCompDef
  3
DesignerAssemblies
 90
    33792
280
     1
281
     0
  0
CLASS
  1
ACAMCOMPDEFMGR
  2
AcAmCompDefMgr
  3
DesignerAssemblies
 90
    33792
280
     1
281
     0
  0
CLASS
  1
AMCONTEXTMGR
  2
AcAmContextMgr
  3
DesignerAssemblies
 90
    33792
280
     1
281
     0
  0
CLASS
  1
ACAMCONTEXTMODELER
  2
AcAmContextModeler
  3
DesignerAssemblies
 90
    33792
280
     1
281
     0
  0
CLASS
  1
ACMDATADICTIONARY
  2
AcmDataDictionary
  3
"AcmSymBB|Product Description: AutoCAD Mechanical|Company: Autodesk, Inc."
 90
    33792
280
     1
281
     0
  0
CLASS
  1
CATALOGSTATE
  2
AcAmCatalogState
  3
DesignerAssemblies
 90
    33792
280
     1
281
     0
  0
CLASS
  1
ACAMGRCOMPDEFSET
  2
AcAmGrCompDefSet
  3
DesignerAssemblies
 90
    33792
280
     1
281
     0
  0
CLASS
  1
AMDTBROWSERDBTAB
  2
AmdtBrowserDbTab
  3
McadcomServices
 90
    33792
280
     1
281
     0
  0
CLASS
  1
CBROWSERAPPOBJECT
  2
CBrowserAppObject
  3
McadcomServices
 90
    33792
280
     1
281
     0
  0
CLASS
  1
DM_PLACEHOLDER
  2
AcDmSelsetPlaceholder
  3
AcMechDwgViewMgmt
 90
    33792
280
     1
281
     0
  0
CLASS
  1
EXACXREFPANELOBJECT
  2
ExAcXREFPanelObject
  3
EXAC_ESW
 90
    33793
280
     1
281
     0
  0
CLASS
  1
NPOCOLLECTION
  2
AcDbImpNonPersistentObjectsCollection
  3
ObjectDBX Classes
 90
    33921
280
     0
281
     0
  0
CLASS
  1
ACMSTANDARDANSI
  2
AcmStandardANSI
  3
"Amdt_StdImp|Product Description: AutoCAD Mechanical|Company: Autodesk, Inc."
 90
    33792
280
     1
281
     0
  0
CLASS
  1
ACMSURFSTANDARDANSI
  2
AcmSurfTextStdANSI
  3
"Amdt_StdImp|Product Description: AutoCAD Mechanical|Company: Autodesk, Inc."
 90
    33792
280
     1
281
     0
  0
CLASS
  1
ACMFCFSTANDARDANSI
  2
AcmFCFStdANSI
  3
"Amdt_StdImp|Product Description: AutoCAD Mechanical|Company: Autodesk, Inc."
 90
    33792
280
     1
281
     0
  0
CLASS
  1
ACMWELDSTANDARDANSI
  2
AcmWeldingStdANSI
  3
"Amdt_StdImp|Product Description: AutoCAD Mechanical|Company: Autodesk, Inc."
 90
    33792
280
     1
281
     0
  0
CLASS
  1
ACMIDSTANDARDANSI
  2
AcmIdStdANSI
  3
"Amdt_StdImp|Product Description: AutoCAD Mechanical|Company: Autodesk, Inc."
 90
    33792
280
     1
281
     0
  0
CLASS
  1
ACMDATUMSTANDARDANSI
  2
AcmDatumStdANSI
  3
"Amdt_StdImp|Product Description: AutoCAD Mechanical|Company: Autodesk, Inc."
 90
    33792
280
     1
281
     0
  0
CLASS
  1
ACMBOMSTANDARDANSI
  2
AcmBOMStdANSI
  3
"Amdt_StdImp|Product Description: AutoCAD Mechanical|Company: Autodesk, Inc."
 90
    33792
280
     1
281
     0
  0
CLASS
  1
ACMDETAILSTANDARDANSI
  2
AmdtDetailSymStdANSI
  3
"Amdt_StdImp|Product Description: AutoCAD Mechanical|Company: Autodesk, Inc."
 90
    33792
280
     1
281
     0
  0
CLASS
  1
ACMSECTIONSTANDARDANSI
  2
AmdtSectionSymStdANSI
  3
"Amdt_StdImp|Product Description: AutoCAD Mechanical|Company: Autodesk, Inc."
 90
    33792
280
     1
281
     0
  0
CLASS
  1
ACMCENTERLINESTANDARDANSI
  2
AmdtCenterLineStdANSI
  3
"Amdt_StdImp|Product Description: AutoCAD Mechanical|Company: Autodesk, Inc."
 90
    33792
280
     1
281
     0
  0
CLASS
  1
ACMTHREADLINESTANDARDANSI
  2
AmdtThreadLineStdANSI
  3
"Amdt_StdImp|Product Description: AutoCAD Mechanical|Company: Autodesk, Inc."
 90
    33792
280
     1
281
     0
  0
CLASS
  1
ACMNOTESTANDARDANSI
  2
AmdtNoteStdANSI
  3
"Amdt_StdImp|Product Description: AutoCAD Mechanical|Company: Autodesk, Inc."
 90
    33792
280
     1
281
     0
  0
CLASS
  1
ACMTAPERSTANDARDANSI
  2
AcmTaperStdANSI
  3
"Amdt_StdImp|Product Description: AutoCAD Mechanical|Company: Autodesk, Inc."
 90
    33792
280
     1
281
     0
  0
CLASS
  1
ACMANOOTATIONVIEWSTANDARDANSI
  2
AmdtAnViewStdANSI
  3
"Amdt_StdImp|Product Description: AutoCAD Mechanical|Company: Autodesk, Inc."
 90
    33792
280
     1
281
     0
  0
CLASS
  1
ACAMGLAYSTD
  2
AcAmgLayStd
  3
"AmgLay|Product Description: AutoCAD Mechanical|Company: Autodesk, Inc."
 90
    33792
280
     1
281
     0
  0
CLASS
  1
ACAMGDIMSTD
  2
AcAmgDimStd
  3
"AmgDim|Product Description: AutoCAD Mechanical|Company: Autodesk, Inc."
 90
    33792
280
     1
281
     0
  0
CLASS
  1
AMGOBJPROPCFG
  2
AmgObjPropCfg
  3
"AmgLay|Product Description: AutoCAD Mechanical|Company: Autodesk, Inc."
 90
    33793
280
     1
281
     0
  0
CLASS
  1
ACAMGHOLECHARTSTDANSI
  2
AcAmgHoleChartStdANSI
  3
AmgDim|Product Description: AutoCAD Mechanical|Company: Autodesk, Inc.
 90
    33792
280
     1
281
     0
  0
CLASS
  1
ACAMGTITLESTD
  2
AcAmgTitleStd
  3
"AmgTitle|Product Description: AutoCAD Mechanical|Company: Autodesk, Inc."
 90
    36863
280
     1
281
     0
  0
CLASS
  1
AMDTNOTETEMPLATEDB
  2
AmdtNoteTemplateDB
  3
AcmSymBB|Product Description: AutoCAD Mechanical|Company: Autodesk, Inc.
 90
    33792
280
     1
281
     0
  0
CLASS
  1
ACAMGFILTERDAT
  2
AcAmgFilterDat
  3
"AcadM|Product Description: AutoCAD Mechanical|Company: Autodesk, Inc."
 90
    33792
280
     1
281
     0
  0
CLASS
  1
CAMSSTRUCTBTNSTATE
  2
StructBtnState
  3
DesignerAssemblies
 90
    33792
280
     1
281
     0
  0
CLASS
  1
ACDBPLACEHOLDER
  2
AcDbPlaceHolder
  3
ObjectDBX Classes
 90
        0
280
     0
281
     0
  0
CLASS
  1
LAYOUT
  2
AcDbLayout
  3
ObjectDBX Classes
 90
        0
280
     0
281
     0
  0
CLASS
  1
SOLID_BACKGROUND
  2
AcDbSolidBackground
  3
SCENEOE
 90
    36863
280
     0
281
     0
  0
ENDSEC
  0
SECTION
  2
TABLES
  0
TABLE
  2
VPORT
  5
29
102
{ACAD_XDICTIONARY
360
2E
102
}
330
0
100
AcDbSymbolTable
 70
     1
  0
VPORT
  5
2A
330
29
100
AcDbSymbolTableRecord
100
AcDbViewportTableRecord
  2
*ACTIVE
 70
     0
 10
0.0
 20
0.0
 11
1.0
 21
1.0
 12
-0.0362833241656517
 22
479.7868062263431
 13
0.0
 23
0.0
 14
1.0
 24
1.0
 15
0.0
 25
0.0
 16
0.0
 26
0.0
 36
1.0
 17
0.0
 27
0.0
 37
0.0
 40
1130.326628210102
 41
3.467605633802816
 42
50.0
 43
0.0
 44
0.0
 50
0.0
 51
0.0
 71
     0
 72
   100
 73
     1
 74
     1
 75
     0
 76
     0
 77
     0
 78
     0
281
     0
 65
     1
110
0.0
120
0.0
130
0.0
111
1.0
121
0.0
131
0.0
112
0.0
122
1.0
132
0.0
 79
     0
146
0.0
1001
ACAD_NAV_VCDISPLAY
1070
     3
  0
ENDTAB
  0
TABLE
  2
LTYPE
  5
24
330
0
100
AcDbSymbolTable
 70
     1
  0
LTYPE
  5
25
330
24
100
AcDbSymbolTableRecord
100
AcDbLinetypeTableRecord
  2
ByBlock
 70
     0
  3

 72
    65
 73
     0
 40
0.0
  0
LTYPE
  5
26
330
24
100
AcDbSymbolTableRecord
100
AcDbLinetypeTableRecord
  2
ByLayer
 70
     0
  3

 72
    65
 73
     0
 40
0.0
  0
LTYPE
  5
14
330
24
100
AcDbSymbolTableRecord
100
AcDbLinetypeTableRecord
  2
CONTINUOUS
 70
     0
  3
Solid line
 72
    65
 73
     0
 40
0.0
  0
ENDTAB
  0
TABLE
  2
LAYER
  5
1C
102
{ACAD_XDICTIONARY
360
1D
102
}
330
0
100
AcDbSymbolTable
 70
     6
  0
LAYER
  5
6
330
1C
100
AcDbSymbolTableRecord
100
AcDbLayerTableRecord
  2
0
 70
     0
 62
     7
  6
CONTINUOUS
370
    -3
390
7
  0
LAYER
  5
7E
330
1C
100
AcDbSymbolTableRecord
100
AcDbLayerTableRecord
  2
GEB-KONTUR-A
 70
     0
 62
     5
  6
CONTINUOUS
370
    -3
390
7
  0
LAYER
  5
1BC
330
1C
100
AcDbSymbolTableRecord
100
AcDbLayerTableRecord
  2
GEB-ART-NR
 70
     0
 62
     1
  6
CONTINUOUS
370
    18
390
7
  0
LAYER
  5
75
330
1C
100
AcDbSymbolTableRecord
100
AcDbLayerTableRecord
  2
GEB-BEZUG
 70
     0
 62
     2
  6
CONTINUOUS
370
    25
390
7
  0
LAYER
  5
1B9
330
1C
100
AcDbSymbolTableRecord
100
AcDbLayerTableRecord
  2
GEB-TEXT
 70
     0
 62
     5
  6
CONTINUOUS
370
    18
390
7
  0
LAYER
  5
79
330
1C
100
AcDbSymbolTableRecord
100
AcDbLayerTableRecord
  2
Arbeitspunkt(DIN)
 70
     0
 62
     7
  6
CONTINUOUS
370
    25
390
7
  0
ENDTAB
  0
TABLE
  2
STYLE
  5
21
330
0
100
AcDbSymbolTable
 70
     1
  0
STYLE
  5
22
330
21
100
AcDbSymbolTableRecord
100
AcDbTextStyleTableRecord
  2
STANDARD
 70
     0
 40
0.0
 41
1.0
 50
0.0
 71
     0
 42
0.2
  3
arial.ttf
  4

1001
ACAD
1000
Arial
1071
       34
  0
ENDTAB
  0
TABLE
  2
VIEW
  5
27
330
0
100
AcDbSymbolTable
 70
     0
  0
ENDTAB
  0
TABLE
  2
UCS
  5
28
330
0
100
AcDbSymbolTable
 70
     0
  0
ENDTAB
  0
TABLE
  2
APPID
  5
2F
330
0
100
AcDbSymbolTable
 70
     3
  0
APPID
  5
20
330
2F
100
AcDbSymbolTableRecord
100
AcDbRegAppTableRecord
  2
ACAD
 70
     0
  0
APPID
  5
2D
330
2F
100
AcDbSymbolTableRecord
100
AcDbRegAppTableRecord
  2
ACAD_NAV_VCDISPLAY
 70
     0
  0
APPID
  5
225
330
2F
100
AcDbSymbolTableRecord
100
AcDbRegAppTableRecord
  2
ACAD_MLEADERVER
 70
     0
  0
ENDTAB
  0
TABLE
  2
DIMSTYLE
  5
30
330
0
100
AcDbSymbolTable
 70
     1
100
AcDbDimStyleTable
 71
     1
340
31
  0
DIMSTYLE
105
31
330
30
100
AcDbSymbolTableRecord
100
AcDbDimStyleTableRecord
  2
STANDARD
 70
     0
279
     2
340
22
  0
ENDTAB
  0
TABLE
  2
BLOCK_RECORD
  5
1
330
0
100
AcDbSymbolTable
 70
     1
  0
BLOCK_RECORD
  5
2
102
{ACAD_XDICTIONARY
360
3
102
}
330
1
100
AcDbSymbolTableRecord
100
AcDbBlockTableRecord
  2
*Model_Space
340
16
  0
BLOCK_RECORD
  5
18
330
1
100
AcDbSymbolTableRecord
100
AcDbBlockTableRecord
  2
*Paper_Space
340
1B
  0
BLOCK_RECORD
  5
72
330
1
100
AcDbSymbolTableRecord
100
AcDbBlockTableRecord
  2
Einfügepunkt
340
0
102
{BLKREFS
331
71
102
}
  0
ENDTAB
  0
ENDSEC
  0
SECTION
  2
BLOCKS
  0
BLOCK
  5
5
330
2
100
AcDbEntity
  8
0
100
AcDbBlockBegin
  2
*Model_Space
 70
     0
 10
0.0
 20
0.0
 30
0.0
  3
*Model_Space
  1

  0
ENDBLK
  5
15
330
2
100
AcDbEntity
  8
0
100
AcDbBlockEnd
  0
BLOCK
  5
19
330
18
100
AcDbEntity
 67
     1
  8
0
100
AcDbBlockBegin
  2
*Paper_Space
 70
     0
 10
0.0
 20
0.0
 30
0.0
  3
*Paper_Space
  1

  0
ENDBLK
  5
1A
330
18
100
AcDbEntity
 67
     1
  8
0
100
AcDbBlockEnd
  0
BLOCK
  5
73
330
72
100
AcDbEntity
  8
0
100
AcDbBlockBegin
  2
Einfügepunkt
 70
     0
 10
0.0
 20
0.0
 30
0.0
  3
Einfügepunkt
  1

  0
LINE
  5
74
330
72
100
AcDbEntity
  8
GEB-BEZUG
100
AcDbLine
 10
-7.071067811865816
 20
-7.071067811865106
 30
0.0
 11
7.07106781186475
 21
7.071067811865816
 31
0.0
  0
LINE
  5
76
330
72
100
AcDbEntity
  8
GEB-BEZUG
100
AcDbLine
 10
-7.071067811865106
 20
7.071067811865816
 30
0.0
 11
7.071067811865461
 21
-7.071067811865106
 31
0.0
  0
ENDBLK
  5
77
330
72
100
AcDbEntity
  8
0
100
AcDbBlockEnd
  0
ENDSEC
  0
SECTION
  2
ENTITIES
  0
INSERT
  5
71
330
2
100
AcDbEntity
  8
0
 48
25.0
100
AcDbBlockReference
  2
Einfügepunkt
 10
0.0
 20
0.0
 30
0.0
  0
LINE
  5
78
330
2
100
AcDbEntity
  8
Arbeitspunkt(DIN)
 48
25.0
100
AcDbLine
 10
0.0
 20
0.0
 30
0.0
 11
0.0
 21
-2.5
 31
0.0
  0
LINE
  5
7A
330
2
100
AcDbEntity
  8
Arbeitspunkt(DIN)
 48
25.0
100
AcDbLine
 10
0.0
 20
0.0
 30
0.0
 11
0.0
 21
2.5
 31
0.0
  0
LINE
  5
7B
330
2
100
AcDbEntity
  8
Arbeitspunkt(DIN)
 48
25.0
100
AcDbLine
 10
0.0
 20
0.0
 30
0.0
 11
-2.5
 21
0.0
 31
0.0
  0
LINE
  5
7C
330
2
100
AcDbEntity
  8
Arbeitspunkt(DIN)
 48
25.0
100
AcDbLine
 10
0.0
 20
0.0
 30
0.0
 11
2.5
 21
0.0
 31
0.0
  0
LINE
  5
7D
330
2
100
AcDbEntity
  8
GEB-KONTUR-A
 48
25.0
100
AcDbLine
 10
25.0
 20
28.00000000000011
 30
0.0
 11
25.0
 21
106.9999999999999
 31
0.0
  0
LINE
  5
7F
330
2
100
AcDbEntity
  8
GEB-KONTUR-A
 48
25.0
100
AcDbLine
 10
-25.0
 20
28.00000000000011
 30
0.0
 11
-25.0
 21
106.9999999999999
 31
0.0
  0
LINE
  5
80
330
2
100
AcDbEntity
  8
GEB-KONTUR-A
 48
25.0
100
AcDbLine
 10
-25.0
 20
146.9565627563936
 30
0.0
 11
-25.0
 21
131.9999999999998
 31
0.0
  0
LINE
  5
81
330
2
100
AcDbEntity
  8
GEB-KONTUR-A
 48
25.0
100
AcDbLine
 10
-25.0
 20
169.9999999999996
 30
0.0
 11
-25.0
 21
159.8019609728138
 31
0.0
  0
LINE
  5
82
330
2
100
AcDbEntity
  8
GEB-KONTUR-A
 48
25.0
100
AcDbLine
 10
25.0
 20
159.801960972814
 30
0.0
 11
25.0
 21
169.9999999999999
 31
0.0
  0
LINE
  5
83
330
2
100
AcDbEntity
  8
GEB-KONTUR-A
 48
25.0
100
AcDbLine
 10
25.0
 20
131.9999999999999
 30
0.0
 11
25.0
 21
146.9565627563939
 31
0.0
  0
LINE
  5
84
330
2
100
AcDbEntity
  8
GEB-KONTUR-A
 48
25.0
100
AcDbLine
 10
-25.0
 20
28.00000000000011
 30
0.0
 11
25.0
 21
28.00000000000011
 31
0.0
  0
CIRCLE
  5
85
330
2
100
AcDbEntity
  8
GEB-KONTUR-A
 48
25.0
100
AcDbCircle
 10
0.0000000000001137
 20
169.9999999999999
 30
0.0
 40
25.0
  0
CIRCLE
  5
86
330
2
100
AcDbEntity
  8
GEB-KONTUR-A
 48
25.0
100
AcDbCircle
 10
0.0000000000001137
 20
169.9999999999999
 30
0.0
 40
22.0
  0
CIRCLE
  5
87
330
2
100
AcDbEntity
  8
GEB-KONTUR-A
 48
25.0
100
AcDbCircle
 10
180.0000000000006
 20
159.4999999999994
 30
0.0
 40
13.5
  0
LINE
  5
88
330
2
100
AcDbEntity
  8
GEB-KONTUR-A
 48
25.0
100
AcDbLine
 10
202.1195346457999
 20
151.9683210999626
 30
0.0
 11
190.7000000000001
 21
148.9084660136814
 31
0.0
  0
ARC
  5
89
330
2
100
AcDbEntity
  8
GEB-KONTUR-A
 48
25.0
100
AcDbCircle
 10
200.8254394202873
 20
156.797950231408
 30
0.0
 40
4.999999999999978
100
AcDbArc
 50
285.0000000000008
 51
339.2139513149956
  0
ARC
  5
8A
330
2
100
AcDbEntity
  8
GEB-KONTUR-A
 48
25.0
100
AcDbCircle
 10
180.0
 20
159.4999999999994
 30
0.0
 40
26.0
100
AcDbArc
 50
11.25471261823442
 51
187.3926878054026
  0
ARC
  5
8B
330
2
100
AcDbEntity
  8
GEB-KONTUR-A
 48
25.0
100
AcDbCircle
 10
159.1745605797127
 20
156.797950231408
 30
0.0
 40
4.999999999999973
100
AcDbArc
 50
187.3926878054026
 51
254.9999999999993
  0
LINE
  5
8C
330
2
100
AcDbEntity
  8
GEB-KONTUR-A
 48
25.0
100
AcDbLine
 10
169.3000000000001
 20
148.9084660136814
 30
0.0
 11
157.8804653542001
 21
151.9683210999627
 31
0.0
  0
CIRCLE
  5
8D
330
2
100
AcDbEntity
  8
GEB-KONTUR-A
 48
25.0
100
AcDbCircle
 10
160.0
 20
159.4999999999994
 30
0.0
 40
3.5
  0
CIRCLE
  5
8E
330
2
100
AcDbEntity
  8
GEB-KONTUR-A
 48
25.0
100
AcDbCircle
 10
200.0
 20
159.4999999999994
 30
0.0
 40
3.5
  0
CIRCLE
  5
8F
330
2
100
AcDbEntity
  8
GEB-KONTUR-A
 48
25.0
100
AcDbCircle
 10
180.0
 20
179.4999999999994
 30
0.0
 40
3.5
  0
CIRCLE
  5
90
330
2
100
AcDbEntity
  8
GEB-KONTUR-A
 48
25.0
100
AcDbCircle
 10
180.0000000000006
 20
159.4999999999994
 30
0.0
 40
9.315500000000003
  0
LINE
  5
91
330
2
100
AcDbEntity
  8
GEB-KONTUR-A
 48
25.0
100
AcDbLine
 10
170.0
 20
139.4999999999994
 30
0.0
 11
170.0
 21
132.0
 31
0.0
  0
LINE
  5
92
330
2
100
AcDbEntity
  8
GEB-KONTUR-A
 48
25.0
100
AcDbLine
 10
190.0
 20
139.4999999999994
 30
0.0
 11
190.0
 21
132.0
 31
0.0
  0
LINE
  5
93
330
2
100
AcDbEntity
  8
GEB-KONTUR-A
 48
25.0
100
AcDbLine
 10
166.5000000000001
 20
141.6999999999994
 30
0.0
 11
166.5000000000001
 21
139.4999999999994
 31
0.0
  0
LINE
  5
94
330
2
100
AcDbEntity
  8
GEB-KONTUR-A
 48
25.0
100
AcDbLine
 10
193.5000000000001
 20
141.6999999999994
 30
0.0
 11
193.5000000000001
 21
139.4999999999994
 31
0.0
  0
LINE
  5
95
330
2
100
AcDbEntity
  8
GEB-KONTUR-A
 48
25.0
100
AcDbLine
 10
169.3000000000001
 20
143.3165807537303
 30
0.0
 11
166.5000000000001
 21
141.6999999999994
 31
0.0
  0
LINE
  5
96
330
2
100
AcDbEntity
  8
GEB-KONTUR-A
 48
25.0
100
AcDbLine
 10
190.7000000000001
 20
143.3165807537303
 30
0.0
 11
193.5000000000001
 21
141.6999999999994
 31
0.0
  0
LINE
  5
97
330
2
100
AcDbEntity
  8
GEB-KONTUR-A
 48
25.0
100
AcDbLine
 10
169.3000000000001
 20
151.2683537490973
 30
0.0
 11
169.3000000000001
 21
143.3165807537303
 31
0.0
  0
LINE
  5
98
330
2
100
AcDbEntity
  8
GEB-KONTUR-A
 48
25.0
100
AcDbLine
 10
190.7000000000001
 20
151.2683537490961
 30
0.0
 11
190.7000000000001
 21
143.3165807537303
 31
0.0
  0
LINE
  5
99
330
2
100
AcDbEntity
  8
GEB-KONTUR-A
 48
25.0
100
AcDbLine
 10
166.5000000000001
 20
139.4999999999994
 30
0.0
 11
193.5000000000001
 21
139.4999999999994
 31
0.0
  0
LINE
  5
9A
330
2
100
AcDbEntity
  8
GEB-KONTUR-A
 48
25.0
100
AcDbLine
 10
166.5000000000001
 20
141.6999999999994
 30
0.0
 11
193.5000000000001
 21
141.6999999999994
 31
0.0
  0
LINE
  5
9B
330
2
100
AcDbEntity
  8
GEB-KONTUR-A
 48
25.0
100
AcDbLine
 10
174.9532662877561
 20
159.4999999999994
 30
0.0
 11
185.0467337122442
 21
159.4999999999994
 31
0.0
  0
SPLINE
  5
9C
330
2
100
AcDbEntity
  8
GEB-KONTUR-A
 48
25.0
100
AcDbSpline
210
0.0
220
0.0
230
1.0
 70
     8
 71
     3
 72
    30
 73
    26
 74
     0
 42
0.0000000001
 43
0.0000000001
 40
-1.843484145447361
 40
-1.843484145447361
 40
-1.843484145447361
 40
-1.843484145447361
 40
-1.620789439777083
 40
-1.620789439777083
 40
-1.398094734106805
 40
-1.398094734106805
 40
-1.273165492988613
 40
-1.273165492988613
 40
-1.148236251870422
 40
-1.148236251870422
 40
-1.034989162297051
 40
-1.034989162297051
 40
-0.921742072723681
 40
-0.921742072723681
 40
-0.8084949831503106
 40
-0.8084949831503106
 40
-0.6952478935769402
 40
-0.6952478935769402
 40
-0.5703186524587487
 40
-0.5703186524587487
 40
-0.4453894113405572
 40
-0.4453894113405572
 40
-0.2226947056702784
 40
-0.2226947056702784
 40
0.0
 40
0.0
 40
0.0
 40
0.0
 10
174.9532662877561
 20
159.4999999999994
 30
0.0
 10
174.9532662877561
 20
158.7576843144319
 30
0.0
 10
175.0451178055517
 20
157.95341805493
 30
0.0
 10
175.4369650578144
 20
156.409671653082
 30
0.0
 10
175.7362986617321
 20
155.6696866160359
 30
0.0
 10
176.303101807478
 20
154.6836889685759
 30
0.0
 10
176.5556866759039
 20
154.3137942000518
 30
0.0
 10
177.1353064936908
 20
153.6400039426493
 30
0.0
 10
177.4630726613105
 20
153.3365794618009
 30
0.0
 10
178.0998156249061
 20
152.8816918336508
 30
0.0
 10
178.4576860627754
 20
152.6835155096826
 30
0.0
 10
179.2187587087387
 20
152.4160314220627
 30
0.0
 10
179.6225097014222
 20
152.3480633270552
 30
0.0
 10
180.3774902985781
 20
152.3480633270552
 30
0.0
 10
180.7812412912617
 20
152.4160314220627
 30
0.0
 10
181.5423139372249
 20
152.6835155096826
 30
0.0
 10
181.9001843750942
 20
152.8816918336508
 30
0.0
 10
182.5369273386898
 20
153.3365794618009
 30
0.0
 10
182.8646935063096
 20
153.6400039426493
 30
0.0
 10
183.4443133240964
 20
154.3137942000518
 30
0.0
 10
183.6968981925223
 20
154.6836889685759
 30
0.0
 10
184.2637013382682
 20
155.6696866160359
 30
0.0
 10
184.563034942186
 20
156.409671653082
 30
0.0
 10
184.9548821944487
 20
157.95341805493
 30
0.0
 10
185.0467337122443
 20
158.7576843144319
 30
0.0
 10
185.0467337122443
 20
159.4999999999994
 30
0.0
  0
LINE
  5
9D
330
2
100
AcDbEntity
  8
GEB-KONTUR-A
 48
25.0
100
AcDbLine
 10
169.3000000000001
 20
143.3165807537303
 30
0.0
 11
190.7000000000001
 21
143.3165807537303
 31
0.0
  0
CIRCLE
  5
9E
330
2
100
AcDbEntity
  8
GEB-KONTUR-A
 48
25.0
100
AcDbCircle
 10
-179.9999999999995
 20
159.4999999999999
 30
0.0
 40
13.5
  0
LINE
  5
9F
330
2
100
AcDbEntity
  8
GEB-KONTUR-A
 48
25.0
100
AcDbLine
 10
-157.8804653542001
 20
151.968321099963
 30
0.0
 11
-169.3
 21
148.9084660136818
 31
0.0
  0
ARC
  5
A0
330
2
100
AcDbEntity
  8
GEB-KONTUR-A
 48
25.0
100
AcDbCircle
 10
-159.1745605797127
 20
156.7979502314084
 30
0.0
 40
4.999999999999983
100
AcDbArc
 50
285.0000000000008
 51
352.6073121945973
  0
ARC
  5
A1
330
2
100
AcDbEntity
  8
GEB-KONTUR-A
 48
25.0
100
AcDbCircle
 10
-180.0000000000001
 20
159.4999999999999
 30
0.0
 40
26.0
100
AcDbArc
 50
352.6073121945973
 51
168.7452873817655
  0
ARC
  5
A2
330
2
100
AcDbEntity
  8
GEB-KONTUR-A
 48
25.0
100
AcDbCircle
 10
-200.8254394202873
 20
156.7979502314084
 30
0.0
 40
4.999999999999989
100
AcDbArc
 50
200.7860486850021
 51
254.9999999999993
  0
LINE
  5
A3
330
2
100
AcDbEntity
  8
GEB-KONTUR-A
 48
25.0
100
AcDbLine
 10
-190.6999999999999
 20
148.9084660136818
 30
0.0
 11
-202.1195346458
 21
151.9683210999632
 31
0.0
  0
CIRCLE
  5
A4
330
2
100
AcDbEntity
  8
GEB-KONTUR-A
 48
25.0
100
AcDbCircle
 10
-200.0000000000001
 20
159.4999999999999
 30
0.0
 40
3.5
  0
CIRCLE
  5
A5
330
2
100
AcDbEntity
  8
GEB-KONTUR-A
 48
25.0
100
AcDbCircle
 10
-160.0000000000001
 20
159.4999999999999
 30
0.0
 40
3.5
  0
CIRCLE
  5
A6
330
2
100
AcDbEntity
  8
GEB-KONTUR-A
 48
25.0
100
AcDbCircle
 10
-180.0000000000001
 20
179.4999999999999
 30
0.0
 40
3.5
  0
CIRCLE
  5
A7
330
2
100
AcDbEntity
  8
GEB-KONTUR-A
 48
25.0
100
AcDbCircle
 10
-179.9999999999995
 20
159.4999999999999
 30
0.0
 40
9.3155
  0
LINE
  5
A8
330
2
100
AcDbEntity
  8
GEB-KONTUR-A
 48
25.0
100
AcDbLine
 10
-189.9999999999998
 20
139.4999999999999
 30
0.0
 11
-189.9999999999998
 21
132.0
 31
0.0
  0
LINE
  5
A9
330
2
100
AcDbEntity
  8
GEB-KONTUR-A
 48
25.0
100
AcDbLine
 10
-169.9999999999999
 20
139.4999999999999
 30
0.0
 11
-169.9999999999999
 21
132.0
 31
0.0
  0
LINE
  5
AA
330
2
100
AcDbEntity
  8
GEB-KONTUR-A
 48
25.0
100
AcDbLine
 10
-193.5
 20
141.6999999999999
 30
0.0
 11
-193.5
 21
139.4999999999999
 31
0.0
  0
LINE
  5
AB
330
2
100
AcDbEntity
  8
GEB-KONTUR-A
 48
25.0
100
AcDbLine
 10
-166.5
 20
141.6999999999999
 30
0.0
 11
-166.5
 21
139.4999999999999
 31
0.0
  0
LINE
  5
AC
330
2
100
AcDbEntity
  8
GEB-KONTUR-A
 48
25.0
100
AcDbLine
 10
-190.7
 20
143.3165807537308
 30
0.0
 11
-193.5
 21
141.6999999999999
 31
0.0
  0
LINE
  5
AD
330
2
100
AcDbEntity
  8
GEB-KONTUR-A
 48
25.0
100
AcDbLine
 10
-169.3
 20
143.3165807537308
 30
0.0
 11
-166.5
 21
141.6999999999999
 31
0.0
  0
LINE
  5
AE
330
2
100
AcDbEntity
  8
GEB-KONTUR-A
 48
25.0
100
AcDbLine
 10
-190.7
 20
151.2683537490977
 30
0.0
 11
-190.7
 21
143.3165807537308
 31
0.0
  0
LINE
  5
AF
330
2
100
AcDbEntity
  8
GEB-KONTUR-A
 48
25.0
100
AcDbLine
 10
-169.3
 20
151.2683537490966
 30
0.0
 11
-169.3
 21
143.3165807537308
 31
0.0
  0
LINE
  5
B0
330
2
100
AcDbEntity
  8
GEB-KONTUR-A
 48
25.0
100
AcDbLine
 10
-193.4999999999999
 20
139.4999999999999
 30
0.0
 11
-166.5
 21
139.4999999999999
 31
0.0
  0
LINE
  5
B1
330
2
100
AcDbEntity
  8
GEB-KONTUR-A
 48
25.0
100
AcDbLine
 10
-193.4999999999999
 20
141.6999999999999
 30
0.0
 11
-166.5
 21
141.6999999999999
 31
0.0
  0
LINE
  5
B2
330
2
100
AcDbEntity
  8
GEB-KONTUR-A
 48
25.0
100
AcDbLine
 10
-185.0467337122439
 20
159.4999999999999
 30
0.0
 11
-174.9532662877558
 21
159.4999999999999
 31
0.0
  0
SPLINE
  5
B3
330
2
100
AcDbEntity
  8
GEB-KONTUR-A
 48
25.0
100
AcDbSpline
210
0.0
220
0.0
230
1.0
 70
     8
 71
     3
 72
    30
 73
    26
 74
     0
 42
0.0000000001
 43
0.0000000001
 40
-1.843484145447361
 40
-1.843484145447361
 40
-1.843484145447361
 40
-1.843484145447361
 40
-1.620789439777083
 40
-1.620789439777083
 40
-1.398094734106805
 40
-1.398094734106805
 40
-1.273165492988613
 40
-1.273165492988613
 40
-1.148236251870422
 40
-1.148236251870422
 40
-1.034989162297051
 40
-1.034989162297051
 40
-0.921742072723681
 40
-0.921742072723681
 40
-0.8084949831503106
 40
-0.8084949831503106
 40
-0.6952478935769402
 40
-0.6952478935769402
 40
-0.5703186524587487
 40
-0.5703186524587487
 40
-0.4453894113405572
 40
-0.4453894113405572
 40
-0.2226947056702784
 40
-0.2226947056702784
 40
0.0
 40
0.0
 40
0.0
 40
0.0
 10
-185.0467337122439
 20
159.4999999999999
 30
0.0
 10
-185.0467337122439
 20
158.7576843144324
 30
0.0
 10
-184.9548821944482
 20
157.9534180549304
 30
0.0
 10
-184.5630349421857
 20
156.4096716530824
 30
0.0
 10
-184.2637013382679
 20
155.6696866160364
 30
0.0
 10
-183.696898192522
 20
154.6836889685762
 30
0.0
 10
-183.444313324096
 20
154.3137942000522
 30
0.0
 10
-182.8646935063093
 20
153.6400039426497
 30
0.0
 10
-182.5369273386895
 20
153.3365794618014
 30
0.0
 10
-181.9001843750939
 20
152.8816918336513
 30
0.0
 10
-181.5423139372246
 20
152.683515509683
 30
0.0
 10
-180.7812412912614
 20
152.4160314220631
 30
0.0
 10
-180.3774902985777
 20
152.3480633270555
 30
0.0
 10
-179.622509701422
 20
152.3480633270555
 30
0.0
 10
-179.2187587087384
 20
152.4160314220631
 30
0.0
 10
-178.4576860627751
 20
152.683515509683
 30
0.0
 10
-178.0998156249059
 20
152.8816918336513
 30
0.0
 10
-177.4630726613102
 20
153.3365794618014
 30
0.0
 10
-177.1353064936904
 20
153.6400039426497
 30
0.0
 10
-176.5556866759036
 20
154.3137942000522
 30
0.0
 10
-176.3031018074778
 20
154.6836889685762
 30
0.0
 10
-175.7362986617319
 20
155.6696866160364
 30
0.0
 10
-175.4369650578141
 20
156.4096716530824
 30
0.0
 10
-175.0451178055514
 20
157.9534180549304
 30
0.0
 10
-174.9532662877558
 20
158.7576843144324
 30
0.0
 10
-174.9532662877558
 20
159.4999999999999
 30
0.0
  0
LINE
  5
B4
330
2
100
AcDbEntity
  8
GEB-KONTUR-A
 48
25.0
100
AcDbLine
 10
-190.6999999999999
 20
143.3165807537308
 30
0.0
 11
-169.3
 21
143.3165807537308
 31
0.0
  0
CIRCLE
  5
B5
330
2
100
AcDbEntity
  8
GEB-KONTUR-A
 48
25.0
100
AcDbCircle
 10
180.0
 20
219.4999999999994
 30
0.0
 40
2.850000000000001
  0
LINE
  5
B6
330
2
100
AcDbEntity
  8
GEB-KONTUR-A
 48
25.0
100
AcDbLine
 10
195.0
 20
184.319347291981
 30
0.0
 11
195.0
 21
189.4999999999994
 31
0.0
  0
LINE
  5
B7
330
2
100
AcDbEntity
  8
GEB-KONTUR-A
 48
25.0
100
AcDbLine
 10
165.0
 20
189.4999999999994
 30
0.0
 11
165.0
 21
184.3193472919812
 31
0.0
  0
LINE
  5
B8
330
2
100
AcDbEntity
  8
GEB-KONTUR-A
 48
25.0
100
AcDbLine
 10
165.0000000000001
 20
189.4999999999994
 30
0.0
 11
165.0
 21
194.4999999999994
 31
0.0
  0
LINE
  5
B9
330
2
100
AcDbEntity
  8
GEB-KONTUR-A
 48
25.0
100
AcDbLine
 10
195.0
 20
194.4999999999992
 30
0.0
 11
195.0000000000001
 21
189.4999999999992
 31
0.0
  0
LINE
  5
BA
330
2
100
AcDbEntity
  8
GEB-KONTUR-A
 48
25.0
100
AcDbLine
 10
194.9999999999999
 20
217.2613872124749
 30
0.0
 11
195.0
 21
222.7386127875249
 31
0.0
  0
LINE
  5
BB
330
2
100
AcDbEntity
  8
GEB-KONTUR-A
 48
25.0
100
AcDbLine
 10
165.0
 20
223.3999999999995
 30
0.0
 11
165.0
 21
215.7499999999999
 31
0.0
  0
ARC
  5
BC
330
2
100
AcDbEntity
  8
GEB-KONTUR-A
 48
25.0
100
AcDbCircle
 10
180.0
 20
159.4999999999992
 30
0.0
 40
29.00000000000002
100
AcDbArc
 50
28.44071767902479
 51
58.85261007848974
  0
ARC
  5
BD
330
2
100
AcDbEntity
  8
GEB-KONTUR-A
 48
25.0
100
AcDbCircle
 10
180.0
 20
159.4999999999994
 30
0.0
 40
29.00000000000004
100
AcDbArc
 50
290.1712713464625
 51
331.5592823209752
  0
ARC
  5
BE
330
2
100
AcDbEntity
  8
GEB-KONTUR-A
 48
25.0
100
AcDbCircle
 10
180.0
 20
159.4999999999992
 30
0.0
 40
29.0
100
AcDbArc
 50
121.1473899215102
 51
249.8287286535375
  0
CIRCLE
  5
BF
330
2
100
AcDbEntity
  8
GEB-KONTUR-A
 48
25.0
100
AcDbCircle
 10
165.857864376269
 20
145.3578643762686
 30
0.0
 40
2.850000000000001
  0
CIRCLE
  5
C0
330
2
100
AcDbEntity
  8
GEB-KONTUR-A
 48
25.0
100
AcDbCircle
 10
160.0
 20
159.4999999999994
 30
0.0
 40
2.850000000000001
  0
CIRCLE
  5
C1
330
2
100
AcDbEntity
  8
GEB-KONTUR-A
 48
25.0
100
AcDbCircle
 10
180.0
 20
179.4999999999994
 30
0.0
 40
2.850000000000001
  0
CIRCLE
  5
C2
330
2
100
AcDbEntity
  8
GEB-KONTUR-A
 48
25.0
100
AcDbCircle
 10
200.0
 20
159.4999999999994
 30
0.0
 40
2.850000000000001
  0
CIRCLE
  5
C3
330
2
100
AcDbEntity
  8
GEB-KONTUR-A
 48
25.0
100
AcDbCircle
 10
194.1421356237309
 20
145.3578643762686
 30
0.0
 40
2.850000000000001
  0
CIRCLE
  5
C4
330
2
100
AcDbEntity
  8
GEB-KONTUR-A
 48
25.0
100
AcDbCircle
 10
-180.0000000000001
 20
219.5000000000001
 30
0.0
 40
2.850000000000001
  0
LINE
  5
C5
330
2
100
AcDbEntity
  8
GEB-KONTUR-A
 48
25.0
100
AcDbLine
 10
-164.9999999999999
 20
184.3193472919816
 30
0.0
 11
-164.9999999999999
 21
189.4999999999999
 31
0.0
  0
LINE
  5
C6
330
2
100
AcDbEntity
  8
GEB-KONTUR-A
 48
25.0
100
AcDbLine
 10
-194.9999999999999
 20
189.5000000000001
 30
0.0
 11
-195.0000000000001
 21
184.3193472919816
 31
0.0
  0
LINE
  5
C7
330
2
100
AcDbEntity
  8
GEB-KONTUR-A
 48
25.0
100
AcDbLine
 10
-194.9999999999999
 20
189.5000000000001
 30
0.0
 11
-194.9999999999999
 21
194.5000000000001
 31
0.0
  0
LINE
  5
C8
330
2
100
AcDbEntity
  8
GEB-KONTUR-A
 48
25.0
100
AcDbLine
 10
-165.0000000000001
 20
194.4999999999999
 30
0.0
 11
-165.0000000000001
 21
189.4999999999999
 31
0.0
  0
LINE
  5
C9
330
2
100
AcDbEntity
  8
GEB-KONTUR-A
 48
25.0
100
AcDbLine
 10
-165.0000000000001
 20
215.7500000000001
 30
0.0
 11
-165.0000000000001
 21
223.7999999999999
 31
0.0
  0
LINE
  5
CA
330
2
100
AcDbEntity
  8
GEB-KONTUR-A
 48
25.0
100
AcDbLine
 10
-195.0000000000001
 20
222.7386127875267
 30
0.0
 11
-195.0000000000001
 21
217.2613872124736
 31
0.0
  0
ARC
  5
CB
330
2
100
AcDbEntity
  8
GEB-KONTUR-A
 48
25.0
100
AcDbCircle
 10
-180.0000000000001
 20
159.4999999999999
 30
0.0
 40
29.0
100
AcDbArc
 50
290.1712713464625
 51
58.85261007848974
  0
ARC
  5
CC
330
2
100
AcDbEntity
  8
GEB-KONTUR-A
 48
25.0
100
AcDbCircle
 10
-180.0000000000001
 20
159.5000000000001
 30
0.0
 40
29.00000000000003
100
AcDbArc
 50
208.4407176790248
 51
249.8287286535375
  0
ARC
  5
CD
330
2
100
AcDbEntity
  8
GEB-KONTUR-A
 48
25.0
100
AcDbCircle
 10
-180.0000000000001
 20
159.5000000000001
 30
0.0
 40
28.99999999999984
100
AcDbArc
 50
121.1473899215102
 51
151.5592823209752
  0
CIRCLE
  5
CE
330
2
100
AcDbEntity
  8
GEB-KONTUR-A
 48
25.0
100
AcDbCircle
 10
-194.1421356237309
 20
145.357864376269
 30
0.0
 40
2.850000000000001
  0
CIRCLE
  5
CF
330
2
100
AcDbEntity
  8
GEB-KONTUR-A
 48
25.0
100
AcDbCircle
 10
-200.0000000000001
 20
159.5000000000001
 30
0.0
 40
2.850000000000001
  0
CIRCLE
  5
D0
330
2
100
AcDbEntity
  8
GEB-KONTUR-A
 48
25.0
100
AcDbCircle
 10
-180.0000000000001
 20
179.5000000000001
 30
0.0
 40
2.850000000000001
  0
CIRCLE
  5
D1
330
2
100
AcDbEntity
  8
GEB-KONTUR-A
 48
25.0
100
AcDbCircle
 10
-160.0000000000001
 20
159.5000000000001
 30
0.0
 40
2.850000000000001
  0
CIRCLE
  5
D2
330
2
100
AcDbEntity
  8
GEB-KONTUR-A
 48
25.0
100
AcDbCircle
 10
-165.8578643762691
 20
145.357864376269
 30
0.0
 40
2.850000000000001
  0
LINE
  5
D3
330
2
100
AcDbEntity
  8
GEB-KONTUR-A
 48
25.0
100
AcDbLine
 10
-205.4999999999998
 20
131.8729833462073
 30
0.0
 11
-205.4999999999998
 21
179.9999999999996
 31
0.0
  0
LINE
  5
D4
330
2
100
AcDbEntity
  8
GEB-KONTUR-A
 48
25.0
100
AcDbLine
 10
-205.4999999999998
 20
103.0
 30
0.0
 11
-205.4999999999998
 21
107.1270166537925
 31
0.0
  0
LINE
  5
D5
330
2
100
AcDbEntity
  8
GEB-KONTUR-A
 48
25.0
100
AcDbLine
 10
-205.4999999999998
 20
103.0
 30
0.0
 11
-209.4999999999997
 21
103.0
 31
0.0
  0
LINE
  5
D6
330
2
100
AcDbEntity
  8
GEB-KONTUR-A
 48
25.0
100
AcDbLine
 10
-209.4999999999997
 20
179.9999999999996
 30
0.0
 11
-209.4999999999997
 21
103.0
 31
0.0
  0
LINE
  5
D7
330
2
100
AcDbEntity
  8
GEB-KONTUR-A
 48
25.0
100
AcDbLine
 10
-205.4999999999999
 20
196.9999999999996
 30
0.0
 11
-205.4999999999998
 21
179.9999999999996
 31
0.0
  0
LINE
  5
D8
330
2
100
AcDbEntity
  8
GEB-KONTUR-A
 48
25.0
100
AcDbLine
 10
-209.4999999999997
 20
179.9999999999996
 30
0.0
 11
-209.4999999999997
 21
184.0926763859357
 31
0.0
  0
LINE
  5
D9
330
2
100
AcDbEntity
  8
GEB-KONTUR-A
 48
25.0
100
AcDbLine
 10
-205.4999999999999
 20
196.9999999999996
 30
0.0
 11
-209.4999999999999
 21
196.9999999999996
 31
0.0
  0
LINE
  5
DA
330
2
100
AcDbEntity
  8
GEB-KONTUR-A
 48
25.0
100
AcDbLine
 10
209.4999999999997
 20
103.0000000000001
 30
0.0
 11
209.4999999999997
 21
180.0000000000001
 31
0.0
  0
LINE
  5
DB
330
2
100
AcDbEntity
  8
GEB-KONTUR-A
 48
25.0
100
AcDbLine
 10
209.4999999999997
 20
103.0000000000001
 30
0.0
 11
205.4999999999998
 21
103.0000000000001
 31
0.0
  0
LINE
  5
DC
330
2
100
AcDbEntity
  8
GEB-KONTUR-A
 48
25.0
100
AcDbLine
 10
205.4999999999998
 20
107.1270166537925
 30
0.0
 11
205.4999999999998
 21
103.0000000000001
 31
0.0
  0
LINE
  5
DD
330
2
100
AcDbEntity
  8
GEB-KONTUR-A
 48
25.0
100
AcDbLine
 10
205.4999999999998
 20
180.0000000000001
 30
0.0
 11
205.4999999999998
 21
131.8729833462073
 31
0.0
  0
LINE
  5
DE
330
2
100
AcDbEntity
  8
GEB-KONTUR-A
 48
25.0
100
AcDbLine
 10
209.4999999999997
 20
184.092676385936
 30
0.0
 11
209.4999999999997
 21
180.0000000000001
 31
0.0
  0
LINE
  5
DF
330
2
100
AcDbEntity
  8
GEB-KONTUR-A
 48
25.0
100
AcDbLine
 10
205.4999999999998
 20
180.0000000000001
 30
0.0
 11
205.4999999999996
 21
197.0000000000001
 31
0.0
  0
LINE
  5
E0
330
2
100
AcDbEntity
  8
GEB-KONTUR-A
 48
25.0
100
AcDbLine
 10
209.4999999999996
 20
197.0000000000001
 30
0.0
 11
205.4999999999995
 21
197.0000000000001
 31
0.0
  0
LINE
  5
E1
330
2
100
AcDbEntity
  8
GEB-KONTUR-A
 48
25.0
100
AcDbLine
 10
205.4999999999997
 20
132.0000000000001
 30
0.0
 11
-205.4999999999998
 21
131.9999999999999
 31
0.0
  0
LINE
  5
E2
330
2
100
AcDbEntity
  8
GEB-KONTUR-A
 48
25.0
100
AcDbLine
 10
205.4999999999997
 20
131.8729833462074
 30
0.0
 11
205.4999999999997
 21
128.0000000000001
 31
0.0
  0
LINE
  5
E3
330
2
100
AcDbEntity
  8
GEB-KONTUR-A
 48
25.0
100
AcDbLine
 10
205.4999999999998
 20
111.0000000000001
 30
0.0
 11
205.4999999999998
 21
128.0000000000001
 31
0.0
  0
LINE
  5
E4
330
2
100
AcDbEntity
  8
GEB-KONTUR-A
 48
25.0
100
AcDbLine
 10
205.4999999999997
 20
107.0000000000001
 30
0.0
 11
-205.4999999999998
 21
106.9999999999999
 31
0.0
  0
LINE
  5
E5
330
2
100
AcDbEntity
  8
GEB-KONTUR-A
 48
25.0
100
AcDbLine
 10
205.4999999999997
 20
111.0000000000001
 30
0.0
 11
205.4999999999997
 21
107.1270166537926
 31
0.0
  0
LINE
  5
E6
330
2
100
AcDbEntity
  8
GEB-KONTUR-A
 48
25.0
100
AcDbLine
 10
-205.4999999999998
 20
128.0
 30
0.0
 11
-205.4999999999998
 21
131.8729833462073
 31
0.0
  0
LINE
  5
E7
330
2
100
AcDbEntity
  8
GEB-KONTUR-A
 48
25.0
100
AcDbLine
 10
-205.4999999999998
 20
128.0
 30
0.0
 11
-205.4999999999998
 21
110.9999999999999
 31
0.0
  0
LINE
  5
E8
330
2
100
AcDbEntity
  8
GEB-KONTUR-A
 48
25.0
100
AcDbLine
 10
-205.4999999999998
 20
107.1270166537925
 30
0.0
 11
-205.4999999999998
 21
110.9999999999999
 31
0.0
  0
LINE
  5
E9
330
2
100
AcDbEntity
  8
GEB-KONTUR-A
 48
25.0
100
AcDbLine
 10
12.49999999999988
 20
242.5000000000001
 30
0.0
 11
200.9999999999994
 21
242.5000000000001
 31
0.0
  0
LINE
  5
EA
330
2
100
AcDbEntity
  8
GEB-KONTUR-A
 48
25.0
100
AcDbLine
 10
-201.0000000000006
 20
242.5000000000001
 30
0.0
 11
-12.50000000000011
 21
242.5000000000001
 31
0.0
  0
LINE
  5
EB
330
2
100
AcDbEntity
  8
GEB-KONTUR-A
 48
25.0
100
AcDbLine
 10
200.9999999999994
 20
240.4999999999999
 30
0.0
 11
200.9999999999994
 21
242.5000000000001
 31
0.0
  0
LINE
  5
EC
330
2
100
AcDbEntity
  8
GEB-KONTUR-A
 48
25.0
100
AcDbLine
 10
-201.0000000000006
 20
242.5000000000001
 30
0.0
 11
-201.0000000000006
 21
240.4999999999999
 31
0.0
  0
LINE
  5
ED
330
2
100
AcDbEntity
  8
GEB-KONTUR-A
 48
25.0
100
AcDbLine
 10
200.9999999999993
 20
197.9999999999999
 30
0.0
 11
200.9999999999993
 21
238.4999999999999
 31
0.0
  0
LINE
  5
EE
330
2
100
AcDbEntity
  8
GEB-KONTUR-A
 48
25.0
100
AcDbLine
 10
200.9999999999993
 20
197.9999999999999
 30
0.0
 11
28.49999999999932
 21
197.9999999999999
 31
0.0
  0
LINE
  5
EF
330
2
100
AcDbEntity
  8
GEB-KONTUR-A
 48
25.0
100
AcDbLine
 10
-28.50000000000079
 20
197.9999999999999
 30
0.0
 11
-201.0000000000008
 21
197.9999999999999
 31
0.0
  0
LINE
  5
F0
330
2
100
AcDbEntity
  8
GEB-KONTUR-A
 48
25.0
100
AcDbLine
 10
-201.0000000000008
 20
238.4999999999999
 30
0.0
 11
-201.0000000000008
 21
197.9999999999999
 31
0.0
  0
LINE
  5
F1
330
2
100
AcDbEntity
  8
GEB-KONTUR-A
 48
25.0
100
AcDbLine
 10
200.9999999999993
 20
238.4999999999999
 30
0.0
 11
200.9999999999993
 21
240.4999999999999
 31
0.0
  0
LINE
  5
F2
330
2
100
AcDbEntity
  8
GEB-KONTUR-A
 48
25.0
100
AcDbLine
 10
-201.0000000000008
 20
240.4999999999999
 30
0.0
 11
-201.0000000000008
 21
238.4999999999999
 31
0.0
  0
LINE
  5
F3
330
2
100
AcDbEntity
  8
GEB-KONTUR-A
 48
25.0
100
AcDbLine
 10
-12.50000000000011
 20
240.4999999999999
 30
0.0
 11
-201.0000000000006
 21
240.4999999999999
 31
0.0
  0
LINE
  5
F4
330
2
100
AcDbEntity
  8
GEB-KONTUR-A
 48
25.0
100
AcDbLine
 10
200.9999999999994
 20
240.4999999999999
 30
0.0
 11
12.49999999999988
 21
240.4999999999999
 31
0.0
  0
LINE
  5
F5
330
2
100
AcDbEntity
  8
GEB-KONTUR-A
 48
25.0
100
AcDbLine
 10
-28.50000000000079
 20
197.9999999999999
 30
0.0
 11
-28.50000000000079
 21
238.4999999999999
 31
0.0
  0
LINE
  5
F6
330
2
100
AcDbEntity
  8
GEB-KONTUR-A
 48
25.0
100
AcDbLine
 10
-28.50000000000079
 20
238.4999999999999
 30
0.0
 11
-28.50000000000079
 21
240.4999999999999
 31
0.0
  0
LINE
  5
F7
330
2
100
AcDbEntity
  8
GEB-KONTUR-A
 48
25.0
100
AcDbLine
 10
28.49999999999932
 20
238.4999999999999
 30
0.0
 11
28.49999999999932
 21
197.9999999999999
 31
0.0
  0
LINE
  5
F8
330
2
100
AcDbEntity
  8
GEB-KONTUR-A
 48
25.0
100
AcDbLine
 10
28.49999999999932
 20
240.4999999999999
 30
0.0
 11
28.49999999999932
 21
238.4999999999999
 31
0.0
  0
LINE
  5
F9
330
2
100
AcDbEntity
  8
GEB-KONTUR-A
 48
25.0
100
AcDbLine
 10
-40.25000000000068
 20
215.7499999999999
 30
0.0
 11
-191.7500000000005
 21
215.7500000000001
 31
0.0
  0
ARC
  5
FA
330
2
100
AcDbEntity
  8
GEB-KONTUR-A
 48
25.0
100
AcDbCircle
 10
-40.25000000000068
 20
220.0000000000001
 30
0.0
 40
4.249999999999996
100
AcDbArc
 50
270.0
 51
90.0
  0
LINE
  5
FB
330
2
100
AcDbEntity
  8
GEB-KONTUR-A
 48
25.0
100
AcDbLine
 10
-191.7500000000005
 20
224.2499999999999
 30
0.0
 11
-40.25000000000068
 21
224.2499999999999
 31
0.0
  0
ARC
  5
FC
330
2
100
AcDbEntity
  8
GEB-KONTUR-A
 48
25.0
100
AcDbCircle
 10
-191.7500000000005
 20
220.0000000000001
 30
0.0
 40
4.250000000000002
100
AcDbArc
 50
90.0
 51
270.0
  0
LINE
  5
FD
330
2
100
AcDbEntity
  8
GEB-KONTUR-A
 48
25.0
100
AcDbLine
 10
191.7499999999993
 20
215.7499999999999
 30
0.0
 11
40.24999999999931
 21
215.7499999999999
 31
0.0
  0
ARC
  5
FE
330
2
100
AcDbEntity
  8
GEB-KONTUR-A
 48
25.0
100
AcDbCircle
 10
191.7499999999993
 20
219.9999999999999
 30
0.0
 40
4.250000000000003
100
AcDbArc
 50
270.0
 51
90.0
  0
LINE
  5
FF
330
2
100
AcDbEntity
  8
GEB-KONTUR-A
 48
25.0
100
AcDbLine
 10
40.24999999999931
 20
224.2499999999999
 30
0.0
 11
191.7499999999993
 21
224.2499999999999
 31
0.0
  0
ARC
  5
100
330
2
100
AcDbEntity
  8
GEB-KONTUR-A
 48
25.0
100
AcDbCircle
 10
40.24999999999931
 20
220.0000000000001
 30
0.0
 40
4.249999999999996
100
AcDbArc
 50
90.0
 51
270.0
  0
ARC
  5
101
330
2
100
AcDbEntity
  8
GEB-KONTUR-A
 48
25.0
100
AcDbCircle
 10
-35.49999999998238
 20
222.0999999999909
 30
0.0
 40
4.000000000019952
100
AcDbArc
 50
150.6879253591843
 51
154.8493365874529
  0
LINE
  5
102
330
2
100
AcDbEntity
  8
GEB-KONTUR-A
 48
25.0
100
AcDbLine
 10
-193.6532866310682
 20
223.7999999999999
 30
0.0
 11
-39.12077339804671
 21
223.7999999999999
 31
0.0
  0
LINE
  5
103
330
2
100
AcDbEntity
  8
GEB-KONTUR-A
 48
25.0
100
AcDbLine
 10
-28.00000000000034
 20
242.4999999999999
 30
0.0
 11
-28.00000000000034
 21
244.4999999999999
 31
0.0
  0
LINE
  5
104
330
2
100
AcDbEntity
  8
GEB-KONTUR-A
 48
25.0
100
AcDbLine
 10
-33.00000000000034
 20
244.4999999999999
 30
0.0
 11
-33.00000000000034
 21
242.4999999999999
 31
0.0
  0
LINE
  5
105
330
2
100
AcDbEntity
  8
GEB-KONTUR-A
 48
25.0
100
AcDbLine
 10
-28.00000000000034
 20
244.4999999999999
 30
0.0
 11
-33.00000000000034
 21
244.4999999999999
 31
0.0
  0
LINE
  5
106
330
2
100
AcDbEntity
  8
GEB-KONTUR-A
 48
25.0
100
AcDbLine
 10
-209.4999999999997
 20
244.4999999999999
 30
0.0
 11
-33.00000000000034
 21
244.4999999999997
 31
0.0
  0
LINE
  5
107
330
2
100
AcDbEntity
  8
GEB-KONTUR-A
 48
25.0
100
AcDbLine
 10
-203.5000000000003
 20
242.4999999999999
 30
0.0
 11
-33.00000000000023
 21
242.4999999999999
 31
0.0
  0
LINE
  5
108
330
2
100
AcDbEntity
  8
GEB-KONTUR-A
 48
25.0
100
AcDbLine
 10
-28.00000000000034
 20
196.4999999999996
 30
0.0
 11
-28.00000000000034
 21
198.4999999999999
 31
0.0
  0
LINE
  5
109
330
2
100
AcDbEntity
  8
GEB-KONTUR-A
 48
25.0
100
AcDbLine
 10
-28.00000000000046
 20
198.4999999999999
 30
0.0
 11
-28.00000000000046
 21
240.4999999999999
 31
0.0
  0
LINE
  5
10A
330
2
100
AcDbEntity
  8
GEB-KONTUR-A
 48
25.0
100
AcDbLine
 10
-203.5000000000003
 20
196.4999999999999
 30
0.0
 11
-33.00000000000023
 21
196.4999999999996
 31
0.0
  0
LINE
  5
10B
330
2
100
AcDbEntity
  8
GEB-KONTUR-A
 48
25.0
100
AcDbLine
 10
-205.4999999999998
 20
194.4999999999999
 30
0.0
 11
-33.00000000000023
 21
194.4999999999996
 31
0.0
  0
LINE
  5
10C
330
2
100
AcDbEntity
  8
GEB-KONTUR-A
 48
25.0
100
AcDbLine
 10
-33.00000000000023
 20
196.4999999999996
 30
0.0
 11
-33.00000000000023
 21
194.4999999999999
 31
0.0
  0
LINE
  5
10D
330
2
100
AcDbEntity
  8
GEB-KONTUR-A
 48
25.0
100
AcDbLine
 10
-28.00000000000034
 20
196.4999999999996
 30
0.0
 11
-33.00000000000023
 21
196.4999999999996
 31
0.0
  0
LINE
  5
10E
330
2
100
AcDbEntity
  8
GEB-KONTUR-A
 48
25.0
100
AcDbLine
 10
-28.00000000000034
 20
194.4999999999999
 30
0.0
 11
-28.00000000000034
 21
196.4999999999996
 31
0.0
  0
LINE
  5
10F
330
2
100
AcDbEntity
  8
GEB-KONTUR-A
 48
25.0
100
AcDbLine
 10
-33.00000000000023
 20
194.4999999999999
 30
0.0
 11
-28.00000000000034
 21
194.4999999999999
 31
0.0
  0
LINE
  5
110
330
2
100
AcDbEntity
  8
GEB-KONTUR-A
 48
25.0
100
AcDbLine
 10
-209.4999999999997
 20
242.4999999999999
 30
0.0
 11
-203.5000000000001
 21
242.4999999999999
 31
0.0
  0
LINE
  5
111
330
2
100
AcDbEntity
  8
GEB-KONTUR-A
 48
25.0
100
AcDbLine
 10
-203.5000000000001
 20
242.4999999999999
 30
0.0
 11
-203.5000000000001
 21
240.4999999999999
 31
0.0
  0
LINE
  5
112
330
2
100
AcDbEntity
  8
GEB-KONTUR-A
 48
25.0
100
AcDbLine
 10
-203.5000000000001
 20
198.4999999999999
 30
0.0
 11
-203.5000000000001
 21
196.4999999999999
 31
0.0
  0
LINE
  5
113
330
2
100
AcDbEntity
  8
GEB-KONTUR-A
 48
25.0
100
AcDbLine
 10
-203.5000000000001
 20
196.4999999999999
 30
0.0
 11
-205.4999999999998
 21
196.4999999999999
 31
0.0
  0
LINE
  5
114
330
2
100
AcDbEntity
  8
GEB-KONTUR-A
 48
25.0
100
AcDbLine
 10
-209.4999999999997
 20
198.4999999999999
 30
0.0
 11
-203.5000000000001
 21
198.4999999999999
 31
0.0
  0
LINE
  5
115
330
2
100
AcDbEntity
  8
GEB-KONTUR-A
 48
25.0
100
AcDbLine
 10
-203.5000000000001
 20
240.4999999999999
 30
0.0
 11
-209.4999999999997
 21
240.4999999999999
 31
0.0
  0
LINE
  5
116
330
2
100
AcDbEntity
  8
GEB-KONTUR-A
 48
25.0
100
AcDbLine
 10
39.12077339804546
 20
223.3999999999995
 30
0.0
 11
194.3000000000001
 21
223.3999999999993
 31
0.0
  0
ARC
  5
117
330
2
100
AcDbEntity
  8
GEB-KONTUR-A
 48
25.0
100
AcDbCircle
 10
35.49999999999216
 20
221.6999999999958
 30
0.0
 40
4.000000000007782
100
AcDbArc
 50
25.15066341254705
 51
34.8905720842361
  0
LINE
  5
118
330
2
100
AcDbEntity
  8
GEB-KONTUR-A
 48
25.0
100
AcDbLine
 10
27.99999999999921
 20
196.4999999999996
 30
0.0
 11
27.99999999999921
 21
194.4999999999996
 31
0.0
  0
LINE
  5
119
330
2
100
AcDbEntity
  8
GEB-KONTUR-A
 48
25.0
100
AcDbLine
 10
32.99999999999921
 20
196.4999999999996
 30
0.0
 11
27.99999999999921
 21
196.4999999999996
 31
0.0
  0
LINE
  5
11A
330
2
100
AcDbEntity
  8
GEB-KONTUR-A
 48
25.0
100
AcDbLine
 10
32.99999999999921
 20
194.4999999999996
 30
0.0
 11
32.99999999999921
 21
196.4999999999996
 31
0.0
  0
LINE
  5
11B
330
2
100
AcDbEntity
  8
GEB-KONTUR-A
 48
25.0
100
AcDbLine
 10
27.99999999999921
 20
194.4999999999996
 30
0.0
 11
32.99999999999921
 21
194.4999999999996
 31
0.0
  0
LINE
  5
11C
330
2
100
AcDbEntity
  8
GEB-KONTUR-A
 48
25.0
100
AcDbLine
 10
205.4999999999996
 20
194.4999999999992
 30
0.0
 11
32.99999999999921
 21
194.4999999999996
 31
0.0
  0
LINE
  5
11D
330
2
100
AcDbEntity
  8
GEB-KONTUR-A
 48
25.0
100
AcDbLine
 10
203.4999999999992
 20
196.4999999999994
 30
0.0
 11
32.99999999999921
 21
196.4999999999996
 31
0.0
  0
LINE
  5
11E
330
2
100
AcDbEntity
  8
GEB-KONTUR-A
 48
25.0
100
AcDbLine
 10
27.99999999999921
 20
240.4999999999997
 30
0.0
 11
27.99999999999909
 21
198.4999999999994
 31
0.0
  0
LINE
  5
11F
330
2
100
AcDbEntity
  8
GEB-KONTUR-A
 48
25.0
100
AcDbLine
 10
27.99999999999909
 20
198.4999999999994
 30
0.0
 11
27.99999999999909
 21
196.4999999999994
 31
0.0
  0
LINE
  5
120
330
2
100
AcDbEntity
  8
GEB-KONTUR-A
 48
25.0
100
AcDbLine
 10
203.4999999999993
 20
242.4999999999994
 30
0.0
 11
32.99999999999932
 21
242.4999999999997
 31
0.0
  0
LINE
  5
121
330
2
100
AcDbEntity
  8
GEB-KONTUR-A
 48
25.0
100
AcDbLine
 10
209.4999999999996
 20
244.4999999999992
 30
0.0
 11
32.99999999999932
 21
244.4999999999997
 31
0.0
  0
LINE
  5
122
330
2
100
AcDbEntity
  8
GEB-KONTUR-A
 48
25.0
100
AcDbLine
 10
32.99999999999932
 20
242.4999999999997
 30
0.0
 11
32.99999999999932
 21
244.4999999999997
 31
0.0
  0
LINE
  5
123
330
2
100
AcDbEntity
  8
GEB-KONTUR-A
 48
25.0
100
AcDbLine
 10
27.99999999999921
 20
244.4999999999997
 30
0.0
 11
27.99999999999921
 21
242.4999999999997
 31
0.0
  0
LINE
  5
124
330
2
100
AcDbEntity
  8
GEB-KONTUR-A
 48
25.0
100
AcDbLine
 10
32.99999999999932
 20
244.4999999999997
 30
0.0
 11
27.99999999999921
 21
244.4999999999997
 31
0.0
  0
LINE
  5
125
330
2
100
AcDbEntity
  8
GEB-KONTUR-A
 48
25.0
100
AcDbLine
 10
205.4999999999996
 20
196.4999999999994
 30
0.0
 11
203.4999999999994
 21
196.4999999999994
 31
0.0
  0
LINE
  5
126
330
2
100
AcDbEntity
  8
GEB-KONTUR-A
 48
25.0
100
AcDbLine
 10
203.4999999999994
 20
196.4999999999994
 30
0.0
 11
203.4999999999994
 21
198.4999999999994
 31
0.0
  0
LINE
  5
127
330
2
100
AcDbEntity
  8
GEB-KONTUR-A
 48
25.0
100
AcDbLine
 10
203.4999999999995
 20
240.4999999999994
 30
0.0
 11
203.4999999999995
 21
242.4999999999994
 31
0.0
  0
LINE
  5
128
330
2
100
AcDbEntity
  8
GEB-KONTUR-A
 48
25.0
100
AcDbLine
 10
203.4999999999995
 20
242.4999999999994
 30
0.0
 11
209.4999999999996
 21
242.4999999999992
 31
0.0
  0
LINE
  5
129
330
2
100
AcDbEntity
  8
GEB-KONTUR-A
 48
25.0
100
AcDbLine
 10
209.4999999999997
 20
240.4999999999994
 30
0.0
 11
203.4999999999995
 21
240.4999999999994
 31
0.0
  0
LINE
  5
12A
330
2
100
AcDbEntity
  8
GEB-KONTUR-A
 48
25.0
100
AcDbLine
 10
203.4999999999994
 20
198.4999999999994
 30
0.0
 11
209.4999999999996
 21
198.4999999999994
 31
0.0
  0
LINE
  5
12B
330
2
100
AcDbEntity
  8
GEB-KONTUR-A
 48
25.0
100
AcDbLine
 10
-11.0
 20
297.0000000000001
 30
0.0
 11
11.0
 21
297.0000000000001
 31
0.0
  0
LINE
  5
12C
330
2
100
AcDbEntity
  8
GEB-KONTUR-A
 48
25.0
100
AcDbLine
 10
11.0
 20
343.0000000000003
 30
0.0
 11
-11.0
 21
343.0000000000003
 31
0.0
  0
LINE
  5
12D
330
2
100
AcDbEntity
  8
GEB-KONTUR-A
 48
25.0
100
AcDbLine
 10
-11.0
 20
297.0000000000001
 30
0.0
 11
-16.0
 21
297.0000000000001
 31
0.0
  0
LINE
  5
12E
330
2
100
AcDbEntity
  8
GEB-KONTUR-A
 48
25.0
100
AcDbLine
 10
-16.0
 20
304.0000000000001
 30
0.0
 11
-16.0
 21
297.0000000000001
 31
0.0
  0
LINE
  5
12F
330
2
100
AcDbEntity
  8
GEB-KONTUR-A
 48
25.0
100
AcDbLine
 10
-16.0
 20
343.0000000000001
 30
0.0
 11
-16.0
 21
336.0000000000001
 31
0.0
  0
LINE
  5
130
330
2
100
AcDbEntity
  8
GEB-KONTUR-A
 48
25.0
100
AcDbLine
 10
16.0
 20
297.0000000000001
 30
0.0
 11
11.0
 21
297.0000000000001
 31
0.0
  0
LINE
  5
131
330
2
100
AcDbEntity
  8
GEB-KONTUR-A
 48
25.0
100
AcDbLine
 10
11.0
 20
343.0000000000003
 30
0.0
 11
16.0
 21
343.0000000000003
 31
0.0
  0
LINE
  5
132
330
2
100
AcDbEntity
  8
GEB-KONTUR-A
 48
25.0
100
AcDbLine
 10
-16.0
 20
343.0000000000003
 30
0.0
 11
-11.0
 21
343.0000000000003
 31
0.0
  0
LINE
  5
133
330
2
100
AcDbEntity
  8
GEB-KONTUR-A
 48
25.0
100
AcDbLine
 10
16.0
 20
336.0000000000001
 30
0.0
 11
16.0
 21
343.0000000000003
 31
0.0
  0
LINE
  5
134
330
2
100
AcDbEntity
  8
GEB-KONTUR-A
 48
25.0
100
AcDbLine
 10
16.0
 20
297.0000000000001
 30
0.0
 11
16.0
 21
304.0000000000001
 31
0.0
  0
CIRCLE
  5
135
330
2
100
AcDbEntity
  8
GEB-KONTUR-A
 48
25.0
100
AcDbCircle
 10
0.0
 20
320.0000000000001
 30
0.0
 40
3.400000000000008
  0
LINE
  5
136
330
2
100
AcDbEntity
  8
GEB-KONTUR-A
 48
25.0
100
AcDbLine
 10
-206.0000000000004
 20
409.0000000000001
 30
0.0
 11
-209.535898384862
 21
409.0000000000001
 31
0.0
  0
LINE
  5
137
330
2
100
AcDbEntity
  8
GEB-KONTUR-A
 48
25.0
100
AcDbLine
 10
-206.0000000000004
 20
304.5000000000001
 30
0.0
 11
-206.0000000000004
 21
298.9999999999999
 31
0.0
  0
LINE
  5
138
330
2
100
AcDbEntity
  8
GEB-KONTUR-A
 48
25.0
100
AcDbLine
 10
-206.0000000000004
 20
409.0000000000001
 30
0.0
 11
-206.0000000000004
 21
335.4999999999999
 31
0.0
  0
LINE
  5
139
330
2
100
AcDbEntity
  8
GEB-KONTUR-A
 48
25.0
100
AcDbLine
 10
-209.5358983848622
 20
298.9999999999999
 30
0.0
 11
-206.0000000000004
 21
298.9999999999999
 31
0.0
  0
LINE
  5
13A
330
2
100
AcDbEntity
  8
GEB-KONTUR-A
 48
25.0
100
AcDbLine
 10
206.0000000000004
 20
299.0000000000003
 30
0.0
 11
209.5358983848626
 21
299.0000000000003
 31
0.0
  0
LINE
  5
13B
330
2
100
AcDbEntity
  8
GEB-KONTUR-A
 48
25.0
100
AcDbLine
 10
206.0000000000004
 20
335.5000000000003
 30
0.0
 11
206.0000000000004
 21
409.0000000000006
 31
0.0
  0
LINE
  5
13C
330
2
100
AcDbEntity
  8
GEB-KONTUR-A
 48
25.0
100
AcDbLine
 10
206.0000000000004
 20
299.0000000000003
 30
0.0
 11
206.0000000000004
 21
304.5000000000001
 31
0.0
  0
LINE
  5
13D
330
2
100
AcDbEntity
  8
GEB-KONTUR-A
 48
25.0
100
AcDbLine
 10
209.5358983848627
 20
409.0000000000006
 30
0.0
 11
206.0000000000004
 21
409.0000000000006
 31
0.0
  0
ARC
  5
13E
330
2
100
AcDbEntity
  8
GEB-KONTUR-A
 48
25.0
100
AcDbCircle
 10
0.0
 20
320.0000000000001
 30
0.0
 40
10.50000000000002
100
AcDbArc
 50
295.2087652967551
 51
64.79123470324485
  0
SPLINE
  5
13F
330
2
100
AcDbEntity
  8
GEB-KONTUR-A
 48
25.0
100
AcDbSpline
210
0.0
220
0.0
230
1.0
 70
     8
 71
     3
 72
    14
 73
    10
 74
     0
 42
0.0000000001
 43
0.0000000001
 40
1.197808910274808
 40
1.197808910274808
 40
1.197808910274808
 40
1.197808910274808
 40
1.286467389132703
 40
1.286467389132703
 40
1.638347832378612
 40
1.638347832378612
 40
1.990228275624522
 40
1.990228275624522
 40
2.078886754482417
 40
2.078886754482417
 40
2.078886754482417
 40
2.078886754482417
 10
4.472135954999544
 20
310.5000000000001
 30
0.0
 10
4.188805415411252
 20
310.3666218217642
 30
0.0
 10
3.898233107045257
 20
310.2453708435945
 30
0.0
 10
2.429624925973371
 20
309.7089078046112
 30
0.0
 10
1.172934810819697
 20
309.5000000000001
 30
0.0
 10
-1.172934810819697
 20
309.5000000000001
 30
0.0
 10
-2.429624925973371
 20
309.7089078046112
 30
0.0
 10
-3.898233107045257
 20
310.2453708435945
 30
0.0
 10
-4.188805415411252
 20
310.3666218217642
 30
0.0
 10
-4.472135954999657
 20
310.5000000000001
 30
0.0
  0
ARC
  5
140
330
2
100
AcDbEntity
  8
GEB-KONTUR-A
 48
25.0
100
AcDbCircle
 10
0.0
 20
320.0000000000001
 30
0.0
 40
10.50000000000002
100
AcDbArc
 50
115.2087652967551
 51
244.7912347032449
  0
SPLINE
  5
141
330
2
100
AcDbEntity
  8
GEB-KONTUR-A
 48
25.0
100
AcDbSpline
210
0.0
220
0.0
230
1.0
 70
     8
 71
     3
 72
    14
 73
    10
 74
     0
 42
0.0000000001
 43
0.0000000001
 40
1.197808910274807
 40
1.197808910274807
 40
1.197808910274807
 40
1.197808910274807
 40
1.286467389132704
 40
1.286467389132704
 40
1.638347832378614
 40
1.638347832378614
 40
1.990228275624524
 40
1.990228275624524
 40
2.078886754482422
 40
2.078886754482422
 40
2.078886754482422
 40
2.078886754482422
 10
-4.472135954999657
 20
329.5000000000001
 30
0.0
 10
-4.188805415411366
 20
329.6333781782361
 30
0.0
 10
-3.898233107045257
 20
329.7546291564057
 30
0.0
 10
-2.429624925973371
 20
330.2910921953893
 30
0.0
 10
-1.172934810819697
 20
330.5000000000001
 30
0.0
 10
1.172934810819697
 20
330.5000000000001
 30
0.0
 10
2.429624925973371
 20
330.2910921953893
 30
0.0
 10
3.898233107045257
 20
329.7546291564057
 30
0.0
 10
4.188805415411366
 20
329.6333781782361
 30
0.0
 10
4.472135954999544
 20
329.5000000000001
 30
0.0
  0
LINE
  5
142
330
2
100
AcDbEntity
  8
GEB-KONTUR-A
 48
25.0
100
AcDbLine
 10
206.0000000000003
 20
310.5000000000003
 30
0.0
 11
206.0000000000003
 21
304.5000000000006
 31
0.0
  0
LINE
  5
143
330
2
100
AcDbEntity
  8
GEB-KONTUR-A
 48
25.0
100
AcDbLine
 10
206.0000000000003
 20
304.0000000000004
 30
0.0
 11
-206.0000000000004
 21
303.9999999999999
 31
0.0
  0
LINE
  5
144
330
2
100
AcDbEntity
  8
GEB-KONTUR-A
 48
25.0
100
AcDbLine
 10
-206.0000000000004
 20
329.5000000000001
 30
0.0
 11
-206.0000000000004
 21
310.4999999999999
 31
0.0
  0
LINE
  5
145
330
2
100
AcDbEntity
  8
GEB-KONTUR-A
 48
25.0
100
AcDbLine
 10
-206.0000000000004
 20
304.5000000000001
 30
0.0
 11
-206.0000000000004
 21
310.4999999999999
 31
0.0
  0
LINE
  5
146
330
2
100
AcDbEntity
  8
GEB-KONTUR-A
 48
25.0
100
AcDbLine
 10
206.0000000000003
 20
310.5000000000003
 30
0.0
 11
206.0000000000003
 21
329.5000000000006
 31
0.0
  0
LINE
  5
147
330
2
100
AcDbEntity
  8
GEB-KONTUR-A
 48
25.0
100
AcDbLine
 10
-206.0000000000004
 20
329.4999999999999
 30
0.0
 11
-206.0000000000004
 21
335.4999999999999
 31
0.0
  0
LINE
  5
148
330
2
100
AcDbEntity
  8
GEB-KONTUR-A
 48
25.0
100
AcDbLine
 10
206.0000000000003
 20
335.5000000000003
 30
0.0
 11
206.0000000000003
 21
329.5000000000003
 31
0.0
  0
LINE
  5
149
330
2
100
AcDbEntity
  8
GEB-KONTUR-A
 48
25.0
100
AcDbLine
 10
206.0000000000003
 20
336.0000000000003
 30
0.0
 11
-206.0000000000004
 21
335.9999999999999
 31
0.0
  0
CIRCLE
  5
14A
330
2
100
AcDbEntity
  8
GEB-KONTUR-A
 48
25.0
100
AcDbCircle
 10
-115.0000000000002
 20
320.0000000000001
 30
0.0
 40
5.625000000000009
  0
CIRCLE
  5
14B
330
2
100
AcDbEntity
  8
GEB-KONTUR-A
 48
25.0
100
AcDbCircle
 10
-90.00000000000023
 20
320.0000000000001
 30
0.0
 40
5.625000000000009
  0
CIRCLE
  5
14C
330
2
100
AcDbEntity
  8
GEB-KONTUR-A
 48
25.0
100
AcDbCircle
 10
90.00000000000005
 20
320.0000000000003
 30
0.0
 40
5.625000000000009
  0
CIRCLE
  5
14D
330
2
100
AcDbEntity
  8
GEB-KONTUR-A
 48
25.0
100
AcDbCircle
 10
115.0000000000002
 20
320.0000000000003
 30
0.0
 40
5.625000000000009
  0
ARC
  5
14E
330
2
100
AcDbEntity
  8
GEB-KONTUR-A
 48
25.0
100
AcDbCircle
 10
-35.79680931689063
 20
177.5933027115483
 30
0.0
 40
4.593302711548661
100
AcDbArc
 50
270.0
 51
348.0160319165416
  0
LINE
  5
14F
330
2
100
AcDbEntity
  8
GEB-KONTUR-A
 48
25.0
100
AcDbLine
 10
-35.79680931689063
 20
172.9999999999996
 30
0.0
 11
-45.00000000000011
 21
172.9999999999996
 31
0.0
  0
LINE
  5
150
330
2
100
AcDbEntity
  8
GEB-KONTUR-A
 48
25.0
100
AcDbLine
 10
-45.00000000000011
 20
172.9999999999996
 30
0.0
 11
-45.00000000000011
 21
174.4999999999996
 31
0.0
  0
LINE
  5
151
330
2
100
AcDbEntity
  8
GEB-KONTUR-A
 48
25.0
100
AcDbLine
 10
-45.00000000000011
 20
174.4999999999996
 30
0.0
 11
-35.79680931689074
 21
174.4999999999996
 31
0.0
  0
ARC
  5
152
330
2
100
AcDbEntity
  8
GEB-KONTUR-A
 48
25.0
100
AcDbCircle
 10
-35.79680931689074
 20
177.5933027115483
 30
0.0
 40
3.093302711548667
100
AcDbArc
 50
270.0
 51
348.0238060913337
  0
ARC
  5
153
330
2
100
AcDbEntity
  8
GEB-KONTUR-A
 48
25.0
100
AcDbCircle
 10
-35.79680931689063
 20
162.406697288451
 30
0.0
 40
4.593302711548662
100
AcDbArc
 50
11.98396808345837
 51
90.0
  0
LINE
  5
154
330
2
100
AcDbEntity
  8
GEB-KONTUR-A
 48
25.0
100
AcDbLine
 10
-35.79680931689063
 20
166.9999999999996
 30
0.0
 11
-45.00000000000011
 21
166.9999999999996
 31
0.0
  0
LINE
  5
155
330
2
100
AcDbEntity
  8
GEB-KONTUR-A
 48
25.0
100
AcDbLine
 10
-45.00000000000011
 20
166.9999999999996
 30
0.0
 11
-45.00000000000011
 21
165.4999999999996
 31
0.0
  0
LINE
  5
156
330
2
100
AcDbEntity
  8
GEB-KONTUR-A
 48
25.0
100
AcDbLine
 10
-45.00000000000011
 20
165.4999999999996
 30
0.0
 11
-35.79680931689074
 21
165.4999999999996
 31
0.0
  0
ARC
  5
157
330
2
100
AcDbEntity
  8
GEB-KONTUR-A
 48
25.0
100
AcDbCircle
 10
-35.79680931689074
 20
162.406697288451
 30
0.0
 40
3.093302711548667
100
AcDbArc
 50
11.97619390866631
 51
90.0
  0
LINE
  5
158
330
2
100
AcDbEntity
  8
GEB-KONTUR-A
 48
25.0
100
AcDbLine
 10
-36.00000000000012
 20
152.4999999999995
 30
0.0
 11
-36.00000000000012
 21
165.4999999999996
 31
0.0
  0
LINE
  5
159
330
2
100
AcDbEntity
  8
GEB-KONTUR-A
 48
25.0
100
AcDbLine
 10
-42.00000000000011
 20
152.4999999999995
 30
0.0
 11
-42.00000000000011
 21
165.4999999999996
 31
0.0
  0
LINE
  5
15A
330
2
100
AcDbEntity
  8
GEB-KONTUR-A
 48
25.0
100
AcDbLine
 10
-36.00000000000012
 20
174.4999999999996
 30
0.0
 11
-36.00000000000012
 21
187.4999999999996
 31
0.0
  0
LINE
  5
15B
330
2
100
AcDbEntity
  8
GEB-KONTUR-A
 48
25.0
100
AcDbLine
 10
-42.00000000000011
 20
174.4999999999996
 30
0.0
 11
-42.00000000000011
 21
187.4999999999996
 31
0.0
  0
LINE
  5
15C
330
2
100
AcDbEntity
  8
GEB-KONTUR-A
 48
25.0
100
AcDbLine
 10
-36.00000000000012
 20
166.9999999999996
 30
0.0
 11
-36.00000000000012
 21
172.9999999999996
 31
0.0
  0
LINE
  5
15D
330
2
100
AcDbEntity
  8
GEB-KONTUR-A
 48
25.0
100
AcDbLine
 10
-42.00000000000011
 20
166.9999999999996
 30
0.0
 11
-42.00000000000011
 21
172.9999999999996
 31
0.0
  0
LINE
  5
15E
330
2
100
AcDbEntity
  8
GEB-KONTUR-A
 48
25.0
100
AcDbLine
 10
-36.0
 20
152.4999999999995
 30
0.0
 11
-42.00000000000011
 21
152.4999999999995
 31
0.0
  0
LINE
  5
15F
330
2
100
AcDbEntity
  8
GEB-KONTUR-A
 48
25.0
100
AcDbLine
 10
-34.00000000000011
 20
187.4999999999996
 30
0.0
 11
-34.00000000000011
 21
190.4999999999996
 31
0.0
  0
LINE
  5
160
330
2
100
AcDbEntity
  8
GEB-KONTUR-A
 48
25.0
100
AcDbLine
 10
-44.00000000000011
 20
187.4999999999996
 30
0.0
 11
-44.00000000000011
 21
190.4999999999996
 31
0.0
  0
LINE
  5
161
330
2
100
AcDbEntity
  8
GEB-KONTUR-A
 48
25.0
100
AcDbLine
 10
-44.00000000000011
 20
187.4999999999996
 30
0.0
 11
-34.00000000000011
 21
187.4999999999996
 31
0.0
  0
ARC
  5
162
330
2
100
AcDbEntity
  8
GEB-KONTUR-A
 48
25.0
100
AcDbCircle
 10
-37.92325518826476
 20
182.5581379706615
 30
0.0
 40
10.00000000000003
100
AcDbArc
 50
96.18127687825818
 51
127.4215420944414
  0
ARC
  5
163
330
2
100
AcDbEntity
  8
GEB-KONTUR-A
 48
25.0
100
AcDbCircle
 10
-40.07674481173546
 20
182.5581379706615
 30
0.0
 40
10.00000000000003
100
AcDbArc
 50
52.57845790555858
 51
83.81872312174181
  0
LINE
  5
164
330
2
100
AcDbEntity
  8
GEB-KONTUR-A
 48
25.0
100
AcDbLine
 10
-44.00000000000011
 20
190.4999999999996
 30
0.0
 11
-34.00000000000011
 21
190.4999999999996
 31
0.0
  0
ARC
  5
165
330
2
100
AcDbEntity
  8
GEB-KONTUR-A
 48
25.0
100
AcDbCircle
 10
0.0
 20
169.9999999999996
 30
0.0
 40
34.00000000000011
100
AcDbArc
 50
90.0
 51
168.0234560017371
  0
ARC
  5
166
330
2
100
AcDbEntity
  8
GEB-KONTUR-A
 48
25.0
100
AcDbCircle
 10
0.0
 20
169.9999999999996
 30
0.0
 40
27.00000000000007
100
AcDbArc
 50
191.9704628121502
 51
168.0295371878497
  0
LINE
  5
167
330
2
100
AcDbEntity
  8
GEB-KONTUR-A
 48
25.0
100
AcDbLine
 10
-33.2599095757198
 20
177.0553819893006
 30
0.0
 11
-26.41287564806237
 21
175.5999999999998
 31
0.0
  0
LINE
  5
168
330
2
100
AcDbEntity
  8
GEB-KONTUR-A
 48
25.0
100
AcDbLine
 10
-26.41287564806237
 20
164.3999999999997
 30
0.0
 11
-33.2599095757198
 21
162.9446180106989
 31
0.0
  0
ARC
  5
169
330
2
100
AcDbEntity
  8
GEB-KONTUR-A
 48
25.0
100
AcDbCircle
 10
0.0
 20
169.9999999999996
 30
0.0
 40
34.00000000000009
100
AcDbArc
 50
191.9765439982629
 51
90.0
  0
LINE
  5
16A
330
2
100
AcDbEntity
  8
GEB-KONTUR-A
 48
25.0
100
AcDbLine
 10
8.5
 20
207.9999999999999
 30
0.0
 11
8.5
 21
210.9999999999999
 31
0.0
  0
LINE
  5
16B
330
2
100
AcDbEntity
  8
GEB-KONTUR-A
 48
25.0
100
AcDbLine
 10
8.5
 20
205.9999999999999
 30
0.0
 11
8.5
 21
207.9999999999999
 31
0.0
  0
LINE
  5
16C
330
2
100
AcDbEntity
  8
GEB-KONTUR-A
 48
25.0
100
AcDbLine
 10
8.5
 20
203.9999999999996
 30
0.0
 11
0.0
 21
203.9999999999996
 31
0.0
  0
LINE
  5
16D
330
2
100
AcDbEntity
  8
GEB-KONTUR-A
 48
25.0
100
AcDbLine
 10
0.0
 20
203.9999999999996
 30
0.0
 11
-8.5
 21
203.9999999999996
 31
0.0
  0
LINE
  5
16E
330
2
100
AcDbEntity
  8
GEB-KONTUR-A
 48
25.0
100
AcDbLine
 10
-8.5
 20
205.9999999999999
 30
0.0
 11
8.5
 21
205.9999999999999
 31
0.0
  0
LINE
  5
16F
330
2
100
AcDbEntity
  8
GEB-KONTUR-A
 48
25.0
100
AcDbLine
 10
8.5
 20
203.9999999999996
 30
0.0
 11
8.5
 21
205.9999999999999
 31
0.0
  0
LINE
  5
170
330
2
100
AcDbEntity
  8
GEB-KONTUR-A
 48
25.0
100
AcDbLine
 10
-8.5
 20
210.9999999999999
 30
0.0
 11
-8.5
 21
207.9999999999999
 31
0.0
  0
LINE
  5
171
330
2
100
AcDbEntity
  8
GEB-KONTUR-A
 48
25.0
100
AcDbLine
 10
-8.5
 20
207.9999999999999
 30
0.0
 11
-8.5
 21
205.9999999999999
 31
0.0
  0
LINE
  5
172
330
2
100
AcDbEntity
  8
GEB-KONTUR-A
 48
25.0
100
AcDbLine
 10
-8.5
 20
205.9999999999999
 30
0.0
 11
-8.5
 21
203.9999999999996
 31
0.0
  0
LINE
  5
173
330
2
100
AcDbEntity
  8
GEB-KONTUR-A
 48
25.0
100
AcDbLine
 10
8.5
 20
495.0000000000005
 30
0.0
 11
-8.5
 21
495.0000000000005
 31
0.0
  0
LINE
  5
174
330
2
100
AcDbEntity
  8
GEB-KONTUR-A
 48
25.0
100
AcDbLine
 10
8.5
 20
495.0000000000005
 30
0.0
 11
12.5
 21
495.0000000000005
 31
0.0
  0
LINE
  5
175
330
2
100
AcDbEntity
  8
GEB-KONTUR-A
 48
25.0
100
AcDbLine
 10
12.5
 20
343.0000000000006
 30
0.0
 11
12.5
 21
495.0000000000005
 31
0.0
  0
LINE
  5
176
330
2
100
AcDbEntity
  8
GEB-KONTUR-A
 48
25.0
100
AcDbLine
 10
12.5
 20
210.9999999999999
 30
0.0
 11
12.5
 21
297.0000000000005
 31
0.0
  0
LINE
  5
177
330
2
100
AcDbEntity
  8
GEB-KONTUR-A
 48
25.0
100
AcDbLine
 10
-12.5
 20
343.0000000000003
 30
0.0
 11
-12.5
 21
495.0000000000005
 31
0.0
  0
LINE
  5
178
330
2
100
AcDbEntity
  8
GEB-KONTUR-A
 48
25.0
100
AcDbLine
 10
-12.5
 20
210.9999999999999
 30
0.0
 11
-12.5
 21
297.0000000000005
 31
0.0
  0
LINE
  5
179
330
2
100
AcDbEntity
  8
GEB-KONTUR-A
 48
25.0
100
AcDbLine
 10
-12.5
 20
495.0000000000005
 30
0.0
 11
-8.5
 21
495.0000000000005
 31
0.0
  0
LINE
  5
17A
330
2
100
AcDbEntity
  8
GEB-KONTUR-A
 48
25.0
100
AcDbLine
 10
12.5
 20
210.9999999999999
 30
0.0
 11
8.5
 21
210.9999999999999
 31
0.0
  0
LINE
  5
17B
330
2
100
AcDbEntity
  8
GEB-KONTUR-A
 48
25.0
100
AcDbLine
 10
-8.5
 20
210.9999999999999
 30
0.0
 11
-12.5
 21
210.9999999999999
 31
0.0
  0
LINE
  5
17C
330
2
100
AcDbEntity
  8
GEB-KONTUR-A
 48
25.0
100
AcDbLine
 10
249.4999999999997
 20
0.0
 30
0.0
 11
249.4999999999997
 21
8.0
 31
0.0
  0
LINE
  5
17D
330
2
100
AcDbEntity
  8
GEB-KONTUR-A
 48
25.0
100
AcDbLine
 10
249.4999999999996
 20
0.0
 30
0.0
 11
246.9999999999997
 21
0.0
 31
0.0
  0
LINE
  5
17E
330
2
100
AcDbEntity
  8
GEB-KONTUR-A
 48
25.0
100
AcDbLine
 10
178.9999999999998
 20
0.0
 30
0.0
 11
246.9999999999997
 21
0.0
 31
0.0
  0
LINE
  5
17F
330
2
100
AcDbEntity
  8
GEB-KONTUR-A
 48
25.0
100
AcDbLine
 10
178.9999999999998
 20
0.0
 30
0.0
 11
176.4999999999997
 21
0.0
 31
0.0
  0
LINE
  5
180
330
2
100
AcDbEntity
  8
GEB-KONTUR-A
 48
25.0
100
AcDbLine
 10
176.4999999999997
 20
0.0
 30
0.0
 11
176.4999999999997
 21
8.0
 31
0.0
  0
LINE
  5
181
330
2
100
AcDbEntity
  8
GEB-KONTUR-A
 48
25.0
100
AcDbLine
 10
249.4999999999996
 20
8.0
 30
0.0
 11
246.9999999999997
 21
8.0
 31
0.0
  0
LINE
  5
182
330
2
100
AcDbEntity
  8
GEB-KONTUR-A
 48
25.0
100
AcDbLine
 10
178.9999999999998
 20
8.0
 30
0.0
 11
246.9999999999997
 21
8.0
 31
0.0
  0
LINE
  5
183
330
2
100
AcDbEntity
  8
GEB-KONTUR-A
 48
25.0
100
AcDbLine
 10
178.9999999999998
 20
8.0
 30
0.0
 11
176.4999999999997
 21
8.0
 31
0.0
  0
LINE
  5
184
330
2
100
AcDbEntity
  8
GEB-KONTUR-A
 48
25.0
100
AcDbLine
 10
247.4999999999997
 20
8.0
 30
0.0
 11
247.4999999999997
 21
70.00000000000148
 31
0.0
  0
LINE
  5
185
330
2
100
AcDbEntity
  8
GEB-KONTUR-A
 48
25.0
100
AcDbLine
 10
212.4999999999997
 20
8.0
 30
0.0
 11
212.4999999999997
 21
70.00000000000148
 31
0.0
  0
LINE
  5
186
330
2
100
AcDbEntity
  8
GEB-KONTUR-A
 48
25.0
100
AcDbLine
 10
-247.4999999999998
 20
8.0
 30
0.0
 11
-247.4999999999998
 21
70.00000000000159
 31
0.0
  0
LINE
  5
187
330
2
100
AcDbEntity
  8
GEB-KONTUR-A
 48
25.0
100
AcDbLine
 10
-212.4999999999998
 20
8.0
 30
0.0
 11
-212.4999999999998
 21
70.00000000000159
 31
0.0
  0
LINE
  5
188
330
2
100
AcDbEntity
  8
GEB-KONTUR-A
 48
25.0
100
AcDbLine
 10
-249.4999999999999
 20
0.0
 30
0.0
 11
-246.9999999999999
 21
0.0
 31
0.0
  0
LINE
  5
189
330
2
100
AcDbEntity
  8
GEB-KONTUR-A
 48
25.0
100
AcDbLine
 10
-249.4999999999999
 20
0.0
 30
0.0
 11
-249.4999999999999
 21
8.0
 31
0.0
  0
LINE
  5
18A
330
2
100
AcDbEntity
  8
GEB-KONTUR-A
 48
25.0
100
AcDbLine
 10
-178.9999999999996
 20
0.0
 30
0.0
 11
-246.9999999999999
 21
0.0
 31
0.0
  0
LINE
  5
18B
330
2
100
AcDbEntity
  8
GEB-KONTUR-A
 48
25.0
100
AcDbLine
 10
-178.9999999999996
 20
0.0
 30
0.0
 11
-176.4999999999996
 21
0.0
 31
0.0
  0
LINE
  5
18C
330
2
100
AcDbEntity
  8
GEB-KONTUR-A
 48
25.0
100
AcDbLine
 10
-176.4999999999996
 20
0.0
 30
0.0
 11
-176.4999999999996
 21
8.0
 31
0.0
  0
LINE
  5
18D
330
2
100
AcDbEntity
  8
GEB-KONTUR-A
 48
25.0
100
AcDbLine
 10
-178.9999999999996
 20
8.0
 30
0.0
 11
-176.4999999999996
 21
8.0
 31
0.0
  0
LINE
  5
18E
330
2
100
AcDbEntity
  8
GEB-KONTUR-A
 48
25.0
100
AcDbLine
 10
-178.9999999999996
 20
8.0
 30
0.0
 11
-246.9999999999999
 21
8.0
 31
0.0
  0
LINE
  5
18F
330
2
100
AcDbEntity
  8
GEB-KONTUR-A
 48
25.0
100
AcDbLine
 10
-249.4999999999999
 20
8.0
 30
0.0
 11
-246.9999999999999
 21
8.0
 31
0.0
  0
CIRCLE
  5
190
330
2
100
AcDbEntity
  8
GEB-KONTUR-A
 48
25.0
100
AcDbCircle
 10
229.4999999999998
 20
960.0000000000015
 30
0.0
 40
10.0
  0
CIRCLE
  5
191
330
2
100
AcDbEntity
  8
GEB-KONTUR-A
 48
25.0
100
AcDbCircle
 10
229.4999999999995
 20
960.0000000000015
 30
0.0
 40
6.5
  0
LINE
  5
192
330
2
100
AcDbEntity
  8
GEB-KONTUR-A
 48
25.0
100
AcDbLine
 10
212.9999999999998
 20
70.00000000000148
 30
0.0
 11
245.9999999999998
 21
70.00000000000148
 31
0.0
  0
LINE
  5
193
330
2
100
AcDbEntity
  8
GEB-KONTUR-A
 48
25.0
100
AcDbLine
 10
212.9999999999998
 20
978.0000000000013
 30
0.0
 11
245.9999999999998
 21
978.0000000000013
 31
0.0
  0
LINE
  5
194
330
2
100
AcDbEntity
  8
GEB-KONTUR-A
 48
25.0
100
AcDbLine
 10
212.9999999999998
 20
70.00000000000148
 30
0.0
 11
209.4999999999998
 21
70.00000000000148
 31
0.0
  0
LINE
  5
195
330
2
100
AcDbEntity
  8
GEB-KONTUR-A
 48
25.0
100
AcDbLine
 10
209.4999999999998
 20
409.0000000000001
 30
0.0
 11
209.4999999999998
 21
950.0000000000001
 31
0.0
  0
LINE
  5
196
330
2
100
AcDbEntity
  8
GEB-KONTUR-A
 48
25.0
100
AcDbLine
 10
209.4999999999998
 20
184.092676385936
 30
0.0
 11
209.4999999999998
 21
299.0000000000001
 31
0.0
  0
LINE
  5
197
330
2
100
AcDbEntity
  8
GEB-KONTUR-A
 48
25.0
100
AcDbLine
 10
209.4999999999998
 20
70.00000000000148
 30
0.0
 11
209.4999999999998
 21
103.0000000000001
 31
0.0
  0
LINE
  5
198
330
2
100
AcDbEntity
  8
GEB-KONTUR-A
 48
25.0
100
AcDbLine
 10
249.4999999999998
 20
70.00000000000148
 30
0.0
 11
245.9999999999998
 21
70.00000000000148
 31
0.0
  0
LINE
  5
199
330
2
100
AcDbEntity
  8
GEB-KONTUR-A
 48
25.0
100
AcDbLine
 10
249.4999999999998
 20
70.00000000000148
 30
0.0
 11
249.4999999999998
 21
978.0000000000013
 31
0.0
  0
CIRCLE
  5
19A
330
2
100
AcDbEntity
  8
GEB-KONTUR-A
 48
25.0
100
AcDbCircle
 10
-229.4999999999995
 20
960.0000000000003
 30
0.0
 40
9.999999999999982
  0
CIRCLE
  5
19B
330
2
100
AcDbEntity
  8
GEB-KONTUR-A
 48
25.0
100
AcDbCircle
 10
-229.4999999999999
 20
960.0000000000003
 30
0.0
 40
6.499999999999989
  0
LINE
  5
19C
330
2
100
AcDbEntity
  8
GEB-KONTUR-A
 48
25.0
100
AcDbLine
 10
-212.9999999999999
 20
70.0000000000017
 30
0.0
 11
-245.9999999999998
 21
70.0000000000017
 31
0.0
  0
LINE
  5
19D
330
2
100
AcDbEntity
  8
GEB-KONTUR-A
 48
25.0
100
AcDbLine
 10
-212.9999999999995
 20
978.0000000000001
 30
0.0
 11
-245.9999999999994
 21
978.0000000000001
 31
0.0
  0
LINE
  5
19E
330
2
100
AcDbEntity
  8
GEB-KONTUR-A
 48
25.0
100
AcDbLine
 10
-209.4999999999997
 20
408.9999999999996
 30
0.0
 11
-209.4999999999995
 21
949.9999999999987
 31
0.0
  0
LINE
  5
19F
330
2
100
AcDbEntity
  8
GEB-KONTUR-A
 48
25.0
100
AcDbLine
 10
-209.4999999999999
 20
184.092676385936
 30
0.0
 11
-209.4999999999999
 21
298.9999999999997
 31
0.0
  0
LINE
  5
1A0
330
2
100
AcDbEntity
  8
GEB-KONTUR-A
 48
25.0
100
AcDbLine
 10
-209.4999999999999
 20
70.0000000000017
 30
0.0
 11
-209.4999999999999
 21
103.0
 31
0.0
  0
LINE
  5
1A1
330
2
100
AcDbEntity
  8
GEB-KONTUR-A
 48
25.0
100
AcDbLine
 10
-212.9999999999999
 20
70.0000000000017
 30
0.0
 11
-209.5
 21
70.0000000000017
 31
0.0
  0
LINE
  5
1A2
330
2
100
AcDbEntity
  8
GEB-KONTUR-A
 48
25.0
100
AcDbLine
 10
-249.4999999999996
 20
70.0000000000017
 30
0.0
 11
-245.9999999999998
 21
70.0000000000017
 31
0.0
  0
LINE
  5
1A3
330
2
100
AcDbEntity
  8
GEB-KONTUR-A
 48
25.0
100
AcDbLine
 10
-249.4999999999996
 20
70.0000000000017
 30
0.0
 11
-249.4999999999994
 21
978.0000000000001
 31
0.0
  0
LINE
  5
1A4
330
2
100
AcDbEntity
  8
GEB-KONTUR-A
 48
25.0
100
AcDbLine
 10
-210.4999999999998
 20
978.0000000000001
 30
0.0
 11
-210.4999999999998
 21
950.0000000000001
 31
0.0
  0
LINE
  5
1A5
330
2
100
AcDbEntity
  8
GEB-KONTUR-A
 48
25.0
100
AcDbLine
 10
210.4999999999998
 20
950.0000000000001
 30
0.0
 11
210.4999999999998
 21
978.0000000000001
 31
0.0
  0
LINE
  5
1A6
330
2
100
AcDbEntity
  8
GEB-KONTUR-A
 48
25.0
100
AcDbLine
 10
140.9999999999997
 20
956.0999999999999
 30
0.0
 11
140.9999999999997
 21
950.0000000000001
 31
0.0
  0
LINE
  5
1A7
330
2
100
AcDbEntity
  8
GEB-KONTUR-A
 48
25.0
100
AcDbLine
 10
113.9999999999998
 20
956.0999999999999
 30
0.0
 11
140.9999999999997
 21
956.0999999999999
 31
0.0
  0
LINE
  5
1A8
330
2
100
AcDbEntity
  8
GEB-KONTUR-A
 48
25.0
100
AcDbLine
 10
113.9999999999998
 20
950.0000000000001
 30
0.0
 11
113.9999999999998
 21
956.0999999999999
 31
0.0
  0
LINE
  5
1A9
330
2
100
AcDbEntity
  8
GEB-KONTUR-A
 48
25.0
100
AcDbLine
 10
-113.9999999999999
 20
956.0999999999999
 30
0.0
 11
-113.9999999999999
 21
950.0000000000001
 31
0.0
  0
LINE
  5
1AA
330
2
100
AcDbEntity
  8
GEB-KONTUR-A
 48
25.0
100
AcDbLine
 10
-140.9999999999999
 20
956.0999999999999
 30
0.0
 11
-113.9999999999999
 21
956.0999999999999
 31
0.0
  0
LINE
  5
1AB
330
2
100
AcDbEntity
  8
GEB-KONTUR-A
 48
25.0
100
AcDbLine
 10
-140.9999999999999
 20
950.0000000000001
 30
0.0
 11
-140.9999999999999
 21
956.0999999999999
 31
0.0
  0
LINE
  5
1AC
330
2
100
AcDbEntity
  8
GEB-KONTUR-A
 48
25.0
100
AcDbLine
 10
113.9999999999997
 20
951.9999999999999
 30
0.0
 11
140.9999999999997
 21
951.9999999999999
 31
0.0
  0
LINE
  5
1AD
330
2
100
AcDbEntity
  8
GEB-KONTUR-A
 48
25.0
100
AcDbLine
 10
-140.9999999999999
 20
951.9999999999999
 30
0.0
 11
-113.9999999999999
 21
951.9999999999999
 31
0.0
  0
LINE
  5
1AE
330
2
100
AcDbEntity
  8
GEB-KONTUR-A
 48
25.0
100
AcDbLine
 10
-113.9999999999999
 20
950.0000000000001
 30
0.0
 11
-140.9999999999999
 21
950.0000000000001
 31
0.0
  0
LINE
  5
1AF
330
2
100
AcDbEntity
  8
GEB-KONTUR-A
 48
25.0
100
AcDbLine
 10
140.9999999999997
 20
950.0000000000001
 30
0.0
 11
113.9999999999997
 21
950.0000000000001
 31
0.0
  0
LINE
  5
1B0
330
2
100
AcDbEntity
  8
GEB-KONTUR-A
 48
25.0
100
AcDbLine
 10
-249.4999999999996
 20
980.0
 30
0.0
 11
-249.4999999999996
 21
978.0000000000001
 31
0.0
  0
LINE
  5
1B1
330
2
100
AcDbEntity
  8
GEB-KONTUR-A
 48
25.0
100
AcDbLine
 10
-249.4999999999996
 20
980.0
 30
0.0
 11
249.4999999999996
 21
980.0
 31
0.0
  0
LINE
  5
1B2
330
2
100
AcDbEntity
  8
GEB-KONTUR-A
 48
25.0
100
AcDbLine
 10
249.4999999999996
 20
978.0000000000001
 30
0.0
 11
249.4999999999996
 21
980.0
 31
0.0
  0
LINE
  5
1B3
330
2
100
AcDbEntity
  8
GEB-KONTUR-A
 48
25.0
100
AcDbLine
 10
-210.4999999999998
 20
950.0000000000001
 30
0.0
 11
-140.9999999999999
 21
950.0000000000001
 31
0.0
  0
LINE
  5
1B4
330
2
100
AcDbEntity
  8
GEB-KONTUR-A
 48
25.0
100
AcDbLine
 10
-113.9999999999999
 20
950.0000000000001
 30
0.0
 11
113.9999999999998
 21
950.0000000000001
 31
0.0
  0
LINE
  5
1B5
330
2
100
AcDbEntity
  8
GEB-KONTUR-A
 48
25.0
100
AcDbLine
 10
140.9999999999997
 20
950.0000000000001
 30
0.0
 11
210.4999999999998
 21
950.0000000000001
 31
0.0
  0
LINE
  5
1B6
330
2
100
AcDbEntity
  8
GEB-KONTUR-A
 48
25.0
100
AcDbLine
 10
-249.4999999999996
 20
978.0000000000001
 30
0.0
 11
-210.4999999999998
 21
978.0000000000001
 31
0.0
  0
LINE
  5
1B7
330
2
100
AcDbEntity
  8
GEB-KONTUR-A
 48
25.0
100
AcDbLine
 10
210.4999999999998
 20
978.0000000000001
 30
0.0
 11
249.4999999999996
 21
978.0000000000001
 31
0.0
  0
TEXT
  5
1B8
330
2
100
AcDbEntity
  8
GEB-TEXT
100
AcDbText
 10
-20.10470668485687
 20
-13.0
 30
0.0
 40
3.5
  1
DF BI H98 WA DE
 72
     1
 11
-0.0000000000001137
 21
-13.0
 31
0.0
100
AcDbText
  0
TEXT
  5
1BA
330
2
100
AcDbEntity
  8
GEB-TEXT
100
AcDbText
 10
-18.61613233287869
 20
-7.5
 30
0.0
 40
3.5
  1
Geberit Silent Db
 72
     1
 11
-0.0000000000001137
 21
-7.5
 31
0.0
100
AcDbText
  0
TEXT
  5
1BB
330
2
100
AcDbEntity
  8
GEB-ART-NR
100
AcDbText
 10
-24.17544479964571
 20
-19.34278125428022
 30
0.0
 40
3.5
  1
GEB-ART-NR 111.535
 72
     1
 11
0.552556564610768
 21
-19.34278125428022
 31
0.0
100
AcDbText
  0
ENDSEC
  0
SECTION
  2
OBJECTS
  0
DICTIONARY
  5
9
330
0
100
AcDbDictionary
281
     1
  3
ACAD_2007HEADERVARS_RT
350
1E8
  3
ACAD_COLOR
350
47
  3
ACAD_GROUP
350
33
  3
ACAD_LAYOUT
350
17
  3
ACAD_MATERIAL
350
B
  3
ACAD_MLEADERSTYLE
350
4A
  3
ACAD_MLINESTYLE
350
34
  3
ACAD_PLOTSETTINGS
350
35
  3
ACAD_PLOTSTYLENAME
350
8
  3
ACAD_SCALELIST
350
48
  3
ACAD_TABLESTYLE
350
49
  3
ACAD_VISUALSTYLE
350
2C
  3
ACDB_RECOMPOSE_DATA
350
1E7
  3
AcDbVariableDictionary
350
1BF
  0
DICTIONARY
  5
2E
330
29
100
AcDbDictionary
280
     1
281
     1
  0
DICTIONARY
  5
1D
330
1C
100
AcDbDictionary
280
     1
281
     1
  3
ACAD_LAYERFILTERS
360
1E
  3
ACLYDICTIONARY
360
1F
  0
DICTIONARY
  5
3
330
2
100
AcDbDictionary
280
     1
281
     1
  3
ACAD_SORTENTS
360
1BD
  0
DICTIONARY
  5
1E8
102
{ACAD_REACTORS
330
9
102
}
330
9
100
AcDbDictionary
281
     1
  3
DIMARCSYM
350
1E9
  3
DIMLTEX1
350
1EB
  3
DIMLTEX2
350
1EC
  3
DIMLTYPE
350
1EA
  0
DICTIONARY
  5
47
102
{ACAD_REACTORS
330
9
102
}
330
9
100
AcDbDictionary
281
     1
  0
DICTIONARY
  5
33
102
{ACAD_REACTORS
330
9
102
}
330
9
100
AcDbDictionary
281
     1
  0
DICTIONARY
  5
17
102
{ACAD_REACTORS
330
9
102
}
330
9
100
AcDbDictionary
281
     1
  3
Layout1
350
1B
  3
Model
350
16
  0
DICTIONARY
  5
B
102
{ACAD_REACTORS
330
9
102
}
330
9
100
AcDbDictionary
281
     1
  3
ByBlock
350
3F
  3
ByLayer
350
36
  3
Global
350
A
  0
DICTIONARY
  5
4A
102
{ACAD_REACTORS
330
9
102
}
330
9
100
AcDbDictionary
281
     1
  3
Standard
350
1DD
  0
DICTIONARY
  5
34
102
{ACAD_REACTORS
330
9
102
}
330
9
100
AcDbDictionary
281
     1
  3
Standard
350
4B
  0
DICTIONARY
  5
35
102
{ACAD_REACTORS
330
9
102
}
330
9
100
AcDbDictionary
281
     1
  0
ACDBDICTIONARYWDFLT
  5
8
102
{ACAD_REACTORS
330
9
102
}
330
9
100
AcDbDictionary
281
     1
  3
Normal
350
7
100
AcDbDictionaryWithDefault
340
7
  0
DICTIONARY
  5
48
102
{ACAD_REACTORS
330
9
102
}
330
9
100
AcDbDictionary
281
     1
  3
A0
350
50
  3
A1
350
51
  3
A2
350
52
  3
A3
350
53
  3
A4
350
54
  3
A5
350
55
  3
A6
350
56
  3
A7
350
57
  3
A8
350
58
  3
A9
350
59
  3
B0
350
5A
  3
B1
350
5B
  3
B2
350
5C
  3
B3
350
5D
  3
B4
350
5E
  3
B5
350
5F
  3
B6
350
60
  3
B7
350
61
  3
B8
350
62
  3
B9
350
63
  3
C0
350
64
  3
C1
350
65
  3
C2
350
66
  3
C3
350
67
  3
C4
350
68
  3
C5
350
69
  3
C6
350
6A
  3
C7
350
6B
  3
C8
350
6C
  3
C9
350
6D
  3
D0
350
6E
  3
D1
350
6F
  3
D2
350
70
  0
DICTIONARY
  5
49
102
{ACAD_REACTORS
330
9
102
}
330
9
100
AcDbDictionary
281
     1
  3
Standard
350
4C
  0
DICTIONARY
  5
2C
102
{ACAD_REACTORS
330
9
102
}
330
9
100
AcDbDictionary
281
     1
  3
2dWireframe
350
2B
  3
Basic
350
1CC
  3
Brighten
350
1D0
  3
ColorChange
350
1D4
  3
Conceptual
350
1CE
  3
Dim
350
1CF
  3
EdgeColorOff
350
1DC
  3
Facepattern
350
1D3
  3
Flat
350
1C8
  3
FlatWithEdges
350
1C9
  3
Gouraud
350
1CA
  3
GouraudWithEdges
350
1CB
  3
Hidden
350
1CD
  3
JitterOff
350
1DA
  3
Linepattern
350
1D2
  3
OverhangOff
350
1DB
  3
Realistic
350
4E
  3
Shaded
350
1D9
  3
Shaded with edges
350
1D8
  3
Shades of Gray
350
1D5
  3
Sketchy
350
1D6
  3
Thicken
350
1D1
  3
Wireframe
350
4F
  3
X-Ray
350
1D7
  0
XRECORD
  5
1E7
102
{ACAD_REACTORS
330
9
102
}
330
9
100
AcDbXrecord
280
     1
 90
        1
330
4C
  0
DICTIONARY
  5
1BF
102
{ACAD_REACTORS
330
9
102
}
330
9
100
AcDbDictionary
281
     1
  3
CANNOSCALE
350
1C3
  3
CMLEADERSTYLE
350
1C1
  3
CTABLESTYLE
350
1C0
  3
DIMASSOC
350
1E4
  3
HIDETEXT
350
1E3
  3
INDEXCTL
350
1E2
  3
LAYEREVAL
350
1C5
  3
LAYERNOTIFY
350
1C6
  3
LIGHTINGUNITS
350
1C4
  3
MSLTSCALE
350
1C2
  3
SORTENTS
350
1E1
  3
XCLIPFRAME
350
1E5
  0
DICTIONARY
  5
1E
102
{ACAD_REACTORS
330
1D
102
}
330
1D
100
AcDbDictionary
281
     1
  0
DICTIONARY
  5
1F
102
{ACAD_REACTORS
330
1D
102
}
330
1D
100
AcDbDictionary
281
     1
1001
ACAD
1000
<All
  0
SORTENTSTABLE
  5
1BD
102
{ACAD_REACTORS
330
3
102
}
330
3
100
AcDbSortentsTable
330
2
331
1A5
  5
8B
331
1A1
  5
8F
331
19D
  5
93
331
199
  5
97
331
B4
  5
17C
331
12E
  5
102
331
B0
  5
180
331
12A
  5
106
331
EF
  5
141
331
EB
  5
145
331
165
  5
CB
331
126
  5
10A
331
AC
  5
184
331
A8
  5
188
331
122
  5
10E
331
161
  5
CF
331
195
  5
9B
331
191
  5
9F
331
18D
  5
A3
331
189
  5
A7
331
E7
  5
149
331
E3
  5
14D
331
A4
  5
18C
331
15D
  5
D3
331
11E
  5
112
331
A0
  5
190
331
159
  5
D7
331
11A
  5
116
331
DF
  5
151
331
DB
  5
155
331
155
  5
DB
331
116
  5
11A
331
9C
  5
194
331
98
  5
198
331
112
  5
11E
331
151
  5
DF
331
185
  5
AB
331
181
  5
AF
331
17D
  5
B3
331
1B8
  5
1BB
331
179
  5
B7
331
D7
  5
159
331
D3
  5
15D
331
94
  5
19C
331
10E
  5
122
331
14D
  5
E3
331
90
  5
1A0
331
149
  5
E7
331
10A
  5
126
331
CF
  5
161
331
CB
  5
165
331
145
  5
EB
331
106
  5
12A
331
8C
  5
1A4
331
141
  5
EF
331
102
  5
12E
331
88
  5
1A8
331
1B4
  5
7B
331
175
  5
BB
331
1B0
  5
80
331
171
  5
BF
331
16D
  5
C3
331
1AC
  5
84
331
1A8
  5
88
331
169
  5
C7
331
C7
  5
169
331
C3
  5
16D
331
84
  5
1AC
331
FE
  5
132
331
13D
  5
F3
331
80
  5
1B0
331
139
  5
F7
331
FA
  5
136
331
BF
  5
171
331
7C
  5
1B3
331
135
  5
FB
331
F6
  5
13A
331
BB
  5
175
331
131
  5
FF
331
F2
  5
13E
331
78
  5
1B6
331
1A4
  5
8C
331
1A0
  5
90
331
19C
  5
94
331
198
  5
98
331
B7
  5
179
331
B3
  5
17D
331
12D
  5
103
331
AF
  5
181
331
129
  5
107
331
EE
  5
142
331
EA
  5
146
331
164
  5
CC
331
125
  5
10B
331
AB
  5
185
331
121
  5
10F
331
160
  5
D0
331
194
  5
9C
331
190
  5
A0
331
18C
  5
A4
331
188
  5
A8
331
E6
  5
14A
331
A7
  5
189
331
E2
  5
14E
331
A3
  5
18D
331
15C
  5
D4
331
11D
  5
113
331
9F
  5
191
331
158
  5
D8
331
119
  5
117
331
DE
  5
152
331
DA
  5
156
331
154
  5
DC
331
115
  5
11B
331
9B
  5
195
331
111
  5
11F
331
150
  5
E0
331
184
  5
AC
331
180
  5
B0
331
17C
  5
B4
331
1BB
  5
1B8
331
178
  5
B8
331
D6
  5
15A
331
97
  5
199
331
D2
  5
15E
331
93
  5
19D
331
14C
  5
E4
331
10D
  5
123
331
8F
  5
1A1
331
148
  5
E8
331
109
  5
127
331
CE
  5
162
331
CA
  5
166
331
144
  5
EC
331
105
  5
12B
331
8B
  5
1A5
331
101
  5
12F
331
140
  5
F0
331
1B7
  5
71
331
1B3
  5
7C
331
174
  5
BC
331
1AF
  5
81
331
170
  5
C0
331
16C
  5
C4
331
1AB
  5
85
331
168
  5
C8
331
C6
  5
16A
331
87
  5
1A9
331
C2
  5
16E
331
83
  5
1AD
331
FD
  5
133
331
13C
  5
F4
331
7F
  5
1B1
331
138
  5
F8
331
F9
  5
137
331
BE
  5
172
331
BA
  5
176
331
134
  5
FC
331
F5
  5
13B
331
7B
  5
1B4
331
130
  5
100
331
F1
  5
13F
331
1A7
  5
89
331
1A3
  5
8D
331
19F
  5
91
331
19B
  5
95
331
B6
  5
17A
331
B2
  5
17E
331
12C
  5
104
331
ED
  5
143
331
167
  5
C9
331
128
  5
108
331
AE
  5
182
331
E9
  5
147
331
163
  5
CD
331
124
  5
10C
331
AA
  5
186
331
120
  5
110
331
197
  5
99
331
193
  5
9D
331
18F
  5
A1
331
18B
  5
A5
331
E5
  5
14B
331
A6
  5
18A
331
15F
  5
D1
331
A2
  5
18E
331
15B
  5
D5
331
11C
  5
114
331
E1
  5
14F
331
9E
  5
192
331
157
  5
D9
331
DD
  5
153
331
D9
  5
157
331
153
  5
DD
331
114
  5
11C
331
9A
  5
196
331
110
  5
120
331
187
  5
A9
331
183
  5
AD
331
17F
  5
B1
331
17B
  5
B5
331
D5
  5
15B
331
96
  5
19A
331
14F
  5
E1
331
D1
  5
15F
331
92
  5
19E
331
14B
  5
E5
331
10C
  5
124
331
8E
  5
1A2
331
147
  5
E9
331
108
  5
128
331
CD
  5
163
331
C9
  5
167
331
143
  5
ED
331
104
  5
12C
331
8A
  5
1A6
331
100
  5
130
331
1B6
  5
78
331
177
  5
B9
331
1B2
  5
7D
331
173
  5
BD
331
1AE
  5
82
331
16F
  5
C1
331
16B
  5
C5
331
1AA
  5
86
331
C5
  5
16B
331
86
  5
1AA
331
13F
  5
F1
331
C1
  5
16F
331
82
  5
1AE
331
13B
  5
F5
331
FC
  5
134
331
137
  5
F9
331
F8
  5
138
331
BD
  5
173
331
B9
  5
177
331
133
  5
FD
331
F4
  5
13C
331
7A
  5
1B5
331
F0
  5
140
331
1A6
  5
8A
331
1A2
  5
8E
331
19E
  5
92
331
71
  5
1B7
331
19A
  5
96
331
B5
  5
17B
331
12F
  5
101
331
B1
  5
17F
331
12B
  5
105
331
EC
  5
144
331
166
  5
CA
331
127
  5
109
331
AD
  5
183
331
E8
  5
148
331
A9
  5
187
331
123
  5
10D
331
162
  5
CE
331
196
  5
9A
331
192
  5
9E
331
18E
  5
A2
331
18A
  5
A6
331
E4
  5
14C
331
A5
  5
18B
331
11F
  5
111
331
15E
  5
D2
331
A1
  5
18F
331
15A
  5
D6
331
11B
  5
115
331
E0
  5
150
331
DC
  5
154
331
156
  5
DA
331
117
  5
119
331
9D
  5
193
331
D8
  5
158
331
152
  5
DE
331
113
  5
11D
331
99
  5
197
331
186
  5
AA
331
182
  5
AE
331
17E
  5
B2
331
17A
  5
B6
331
D4
  5
15C
331
95
  5
19B
331
10F
  5
121
331
14E
  5
E2
331
91
  5
19F
331
14A
  5
E6
331
10B
  5
125
331
D0
  5
160
331
8D
  5
1A3
331
146
  5
EA
331
107
  5
129
331
CC
  5
164
331
C8
  5
168
331
142
  5
EE
331
103
  5
12D
331
89
  5
1A7
331
1B5
  5
7A
331
176
  5
BA
331
1B1
  5
7F
331
172
  5
BE
331
16E
  5
C2
331
1AD
  5
83
331
16A
  5
C6
331
1A9
  5
87
331
C4
  5
16C
331
85
  5
1AB
331
FF
  5
131
331
13E
  5
F2
331
C0
  5
170
331
81
  5
1AF
331
13A
  5
F6
331
FB
  5
135
331
7D
  5
1B2
331
136
  5
FA
331
F7
  5
139
331
BC
  5
174
331
132
  5
FE
331
F3
  5
13D
331
B8
  5
178
  0
XRECORD
  5
1E9
102
{ACAD_REACTORS
330
1E8
102
}
330
1E8
100
AcDbXrecord
280
     1
 70
     1
  0
XRECORD
  5
1EB
102
{ACAD_REACTORS
330
1E8
102
}
330
1E8
100
AcDbXrecord
280
     1
340
25
  0
XRECORD
  5
1EC
102
{ACAD_REACTORS
330
1E8
102
}
330
1E8
100
AcDbXrecord
280
     1
340
25
  0
XRECORD
  5
1EA
102
{ACAD_REACTORS
330
1E8
102
}
330
1E8
100
AcDbXrecord
280
     1
340
25
  0
LAYOUT
  5
1B
102
{ACAD_XDICTIONARY
360
1F0
102
}
102
{ACAD_REACTORS
330
17
102
}
330
17
100
AcDbPlotSettings
  1

  2
\\le-server\HP LaserJet 2100
  4

  6

 40
0.0
 41
0.0
 42
0.0
 43
0.0
 44
0.0
 45
0.0
 46
0.0
 47
0.0
 48
0.0
 49
0.0
140
0.0
141
0.0
142
1.0
143
1.0
 70
   688
 72
     0
 73
     0
 74
     5
  7

 75
    16
147
1.0
148
0.0
149
0.0
100
AcDbLayout
  1
Layout1
 70
     1
 71
     1
 10
0.0
 20
0.0
 11
1189.0
 21
840.9999999999998
 12
0.0
 22
0.0
 32
0.0
 14
0.0
 24
0.0
 34
0.0
 15
1189.0
 25
840.9999999999998
 35
0.0
146
0.0
 13
0.0
 23
0.0
 33
0.0
 16
1.0
 26
0.0
 36
0.0
 17
0.0
 27
1.0
 37
0.0
 76
     0
330
18
  0
LAYOUT
  5
16
102
{ACAD_XDICTIONARY
360
1EE
102
}
102
{ACAD_REACTORS
330
17
102
}
330
17
100
AcDbPlotSettings
  1

  2
\\le-server\HP LaserJet 2100
  4

  6

 40
0.0
 41
0.0
 42
0.0
 43
0.0
 44
0.0
 45
0.0
 46
0.0
 47
0.0
 48
0.0
 49
0.0
140
0.0
141
0.0
142
1.0
143
1.0
 70
  1712
 72
     0
 73
     0
 74
     0
  7

 75
     0
147
1.0
148
0.0
149
0.0
100
AcDbLayout
  1
Model
 70
     1
 71
     0
 10
0.0
 20
0.0
 11
12.0
 21
9.0
 12
0.0
 22
0.0
 32
0.0
 14
0.0
 24
0.0
 34
0.0
 15
0.0
 25
0.0
 35
0.0
146
0.0
 13
0.0
 23
0.0
 33
0.0
 16
1.0
 26
0.0
 36
0.0
 17
0.0
 27
1.0
 37
0.0
 76
     0
330
2
331
2A
  0
MATERIAL
  5
3F
102
{ACAD_XDICTIONARY
360
40
102
}
102
{ACAD_REACTORS
330
B
102
}
330
B
100
AcDbMaterial
  1
ByBlock
 72
     0
 43
0.0208333333333333
 43
0.0
 43
0.0
 43
0.0
 43
0.0
 43
0.0208333333333333
 43
0.0
 43
0.0
 43
0.0
 43
0.0
 43
1.0
 43
0.0
 43
0.0
 43
0.0
 43
0.0
 43
1.0
 77
     0
 47
0.0208333333333333
 47
0.0
 47
0.0
 47
0.0
 47
0.0
 47
0.0208333333333333
 47
0.0
 47
0.0
 47
0.0
 47
0.0
 47
1.0
 47
0.0
 47
0.0
 47
0.0
 47
0.0
 47
1.0
171
     0
 49
0.0208333333333333
 49
0.0
 49
0.0
 49
0.0
 49
0.0
 49
0.0208333333333333
 49
0.0
 49
0.0
 49
0.0
 49
0.0
 49
1.0
 49
0.0
 49
0.0
 49
0.0
 49
0.0
 49
1.0
175
     0
142
0.0208333333333333
142
0.0
142
0.0
142
0.0
142
0.0
142
0.0208333333333333
142
0.0
142
0.0
142
0.0
142
0.0
142
1.0
142
0.0
142
0.0
142
0.0
142
0.0
142
1.0
179
     0
144
0.0208333333333333
144
0.0
144
0.0
144
0.0
144
0.0
144
0.0208333333333333
144
0.0
144
0.0
144
0.0
144
0.0
144
1.0
144
0.0
144
0.0
144
0.0
144
0.0
144
1.0
147
0.0208333333333333
147
0.0
147
0.0
147
0.0
147
0.0
147
0.0208333333333333
147
0.0
147
0.0
147
0.0
147
0.0
147
1.0
147
0.0
147
0.0
147
0.0
147
0.0
147
1.0
  0
MATERIAL
  5
36
102
{ACAD_XDICTIONARY
360
37
102
}
102
{ACAD_REACTORS
330
B
102
}
330
B
100
AcDbMaterial
  1
ByLayer
 72
     0
 43
0.0208333333333333
 43
0.0
 43
0.0
 43
0.0
 43
0.0
 43
0.0208333333333333
 43
0.0
 43
0.0
 43
0.0
 43
0.0
 43
1.0
 43
0.0
 43
0.0
 43
0.0
 43
0.0
 43
1.0
 77
     0
 47
0.0208333333333333
 47
0.0
 47
0.0
 47
0.0
 47
0.0
 47
0.0208333333333333
 47
0.0
 47
0.0
 47
0.0
 47
0.0
 47
1.0
 47
0.0
 47
0.0
 47
0.0
 47
0.0
 47
1.0
171
     0
 49
0.0208333333333333
 49
0.0
 49
0.0
 49
0.0
 49
0.0
 49
0.0208333333333333
 49
0.0
 49
0.0
 49
0.0
 49
0.0
 49
1.0
 49
0.0
 49
0.0
 49
0.0
 49
0.0
 49
1.0
175
     0
142
0.0208333333333333
142
0.0
142
0.0
142
0.0
142
0.0
142
0.0208333333333333
142
0.0
142
0.0
142
0.0
142
0.0
142
1.0
142
0.0
142
0.0
142
0.0
142
0.0
142
1.0
179
     0
144
0.0208333333333333
144
0.0
144
0.0
144
0.0
144
0.0
144
0.0208333333333333
144
0.0
144
0.0
144
0.0
144
0.0
144
1.0
144
0.0
144
0.0
144
0.0
144
0.0
144
1.0
147
0.0208333333333333
147
0.0
147
0.0
147
0.0
147
0.0
147
0.0208333333333333
147
0.0
147
0.0
147
0.0
147
0.0
147
1.0
147
0.0
147
0.0
147
0.0
147
0.0
147
1.0
  0
MATERIAL
  5
A
102
{ACAD_XDICTIONARY
360
C
102
}
102
{ACAD_REACTORS
330
B
102
}
330
B
100
AcDbMaterial
  1
Global
 72
     0
 43
0.0208333333333333
 43
0.0
 43
0.0
 43
0.0
 43
0.0
 43
0.0208333333333333
 43
0.0
 43
0.0
 43
0.0
 43
0.0
 43
1.0
 43
0.0
 43
0.0
 43
0.0
 43
0.0
 43
1.0
 77
     0
 47
0.0208333333333333
 47
0.0
 47
0.0
 47
0.0
 47
0.0
 47
0.0208333333333333
 47
0.0
 47
0.0
 47
0.0
 47
0.0
 47
1.0
 47
0.0
 47
0.0
 47
0.0
 47
0.0
 47
1.0
171
     0
 49
0.0208333333333333
 49
0.0
 49
0.0
 49
0.0
 49
0.0
 49
0.0208333333333333
 49
0.0
 49
0.0
 49
0.0
 49
0.0
 49
1.0
 49
0.0
 49
0.0
 49
0.0
 49
0.0
 49
1.0
175
     0
142
0.0208333333333333
142
0.0
142
0.0
142
0.0
142
0.0
142
0.0208333333333333
142
0.0
142
0.0
142
0.0
142
0.0
142
1.0
142
0.0
142
0.0
142
0.0
142
0.0
142
1.0
179
     0
144
0.0208333333333333
144
0.0
144
0.0
144
0.0
144
0.0
144
0.0208333333333333
144
0.0
144
0.0
144
0.0
144
0.0
144
1.0
144
0.0
144
0.0
144
0.0
144
0.0
144
1.0
147
0.0208333333333333
147
0.0
147
0.0
147
0.0
147
0.0
147
0.0208333333333333
147
0.0
147
0.0
147
0.0
147
0.0
147
1.0
147
0.0
147
0.0
147
0.0
147
0.0
147
1.0
  0
MLEADERSTYLE
  5
1DD
102
{ACAD_REACTORS
330
4A
102
}
330
4A
100
AcDbMLeaderStyle
170
     2
171
     1
172
     0
 90
        2
 40
0.0
 41
0.0
173
     1
 91
-1056964608
340
25
 92
       -2
290
     1
 42
2.0
291
     1
 43
0.36
  3
Standard
 44
4.0
300

342
22
174
     1
178
     6
175
     1
176
     0
 93
-1056964608
 45
4.0
292
     0
297
     0
 46
4.0
 94
-1056964608
 47
1.0
 49
1.0
140
1.0
293
     1
141
0.0
294
     1
177
     0
142
1.0
295
     0
296
     0
143
0.125
1001
ACAD_MLEADERVER
1070
     2
  0
MLINESTYLE
  5
4B
102
{ACAD_REACTORS
330
34
102
}
330
34
100
AcDbMlineStyle
  2
STANDARD
 70
     0
  3

 62
   256
 51
90.0
 52
90.0
 71
     2
 49
0.5
 62
   256
  6
BYLAYER
 49
-0.5
 62
   256
  6
BYLAYER
  0
ACDBPLACEHOLDER
  5
7
102
{ACAD_REACTORS
330
8
102
}
330
8
  0
SCALE
  5
50
102
{ACAD_REACTORS
330
48
102
}
330
48
100
AcDbScale
 70
     0
300
1:1
140
1.0
141
1.0
290
     1
  0
SCALE
  5
51
102
{ACAD_REACTORS
330
48
102
}
330
48
100
AcDbScale
 70
     0
300
1:2
140
1.0
141
2.0
290
     0
  0
SCALE
  5
52
102
{ACAD_REACTORS
330
48
102
}
330
48
100
AcDbScale
 70
     0
300
1:4
140
1.0
141
4.0
290
     0
  0
SCALE
  5
53
102
{ACAD_REACTORS
330
48
102
}
330
48
100
AcDbScale
 70
     0
300
1:5
140
1.0
141
5.0
290
     0
  0
SCALE
  5
54
102
{ACAD_REACTORS
330
48
102
}
330
48
100
AcDbScale
 70
     0
300
1:8
140
1.0
141
8.0
290
     0
  0
SCALE
  5
55
102
{ACAD_REACTORS
330
48
102
}
330
48
100
AcDbScale
 70
     0
300
1:10
140
1.0
141
10.0
290
     0
  0
SCALE
  5
56
102
{ACAD_REACTORS
330
48
102
}
330
48
100
AcDbScale
 70
     0
300
1:16
140
1.0
141
16.0
290
     0
  0
SCALE
  5
57
102
{ACAD_REACTORS
330
48
102
}
330
48
100
AcDbScale
 70
     0
300
1:20
140
1.0
141
20.0
290
     0
  0
SCALE
  5
58
102
{ACAD_REACTORS
330
48
102
}
330
48
100
AcDbScale
 70
     0
300
1:30
140
1.0
141
30.0
290
     0
  0
SCALE
  5
59
102
{ACAD_REACTORS
330
48
102
}
330
48
100
AcDbScale
 70
     0
300
1:40
140
1.0
141
40.0
290
     0
  0
SCALE
  5
5A
102
{ACAD_REACTORS
330
48
102
}
330
48
100
AcDbScale
 70
     0
300
1:50
140
1.0
141
50.0
290
     0
  0
SCALE
  5
5B
102
{ACAD_REACTORS
330
48
102
}
330
48
100
AcDbScale
 70
     0
300
1:100
140
1.0
141
100.0
290
     0
  0
SCALE
  5
5C
102
{ACAD_REACTORS
330
48
102
}
330
48
100
AcDbScale
 70
     0
300
2:1
140
2.0
141
1.0
290
     0
  0
SCALE
  5
5D
102
{ACAD_REACTORS
330
48
102
}
330
48
100
AcDbScale
 70
     0
300
4:1
140
4.0
141
1.0
290
     0
  0
SCALE
  5
5E
102
{ACAD_REACTORS
330
48
102
}
330
48
100
AcDbScale
 70
     0
300
8:1
140
8.0
141
1.0
290
     0
  0
SCALE
  5
5F
102
{ACAD_REACTORS
330
48
102
}
330
48
100
AcDbScale
 70
     0
300
10:1
140
10.0
141
1.0
290
     0
  0
SCALE
  5
60
102
{ACAD_REACTORS
330
48
102
}
330
48
100
AcDbScale
 70
     0
300
100:1
140
100.0
141
1.0
290
     0
  0
SCALE
  5
61
102
{ACAD_REACTORS
330
48
102
}
330
48
100
AcDbScale
 70
     0
300
1/128" = 1'-0"
140
0.0078125
141
12.0
290
     0
  0
SCALE
  5
62
102
{ACAD_REACTORS
330
48
102
}
330
48
100
AcDbScale
 70
     0
300
1/64" = 1'-0"
140
0.015625
141
12.0
290
     0
  0
SCALE
  5
63
102
{ACAD_REACTORS
330
48
102
}
330
48
100
AcDbScale
 70
     0
300
1/32" = 1'-0"
140
0.03125
141
12.0
290
     0
  0
SCALE
  5
64
102
{ACAD_REACTORS
330
48
102
}
330
48
100
AcDbScale
 70
     0
300
1/16" = 1'-0"
140
0.0625
141
12.0
290
     0
  0
SCALE
  5
65
102
{ACAD_REACTORS
330
48
102
}
330
48
100
AcDbScale
 70
     0
300
3/32" = 1'-0"
140
0.09375
141
12.0
290
     0
  0
SCALE
  5
66
102
{ACAD_REACTORS
330
48
102
}
330
48
100
AcDbScale
 70
     0
300
1/8" = 1'-0"
140
0.125
141
12.0
290
     0
  0
SCALE
  5
67
102
{ACAD_REACTORS
330
48
102
}
330
48
100
AcDbScale
 70
     0
300
3/16" = 1'-0"
140
0.1875
141
12.0
290
     0
  0
SCALE
  5
68
102
{ACAD_REACTORS
330
48
102
}
330
48
100
AcDbScale
 70
     0
300
1/4" = 1'-0"
140
0.25
141
12.0
290
     0
  0
SCALE
  5
69
102
{ACAD_REACTORS
330
48
102
}
330
48
100
AcDbScale
 70
     0
300
3/8" = 1'-0"
140
0.375
141
12.0
290
     0
  0
SCALE
  5
6A
102
{ACAD_REACTORS
330
48
102
}
330
48
100
AcDbScale
 70
     0
300
1/2" = 1'-0"
140
0.5
141
12.0
290
     0
  0
SCALE
  5
6B
102
{ACAD_REACTORS
330
48
102
}
330
48
100
AcDbScale
 70
     0
300
3/4" = 1'-0"
140
0.75
141
12.0
290
     0
  0
SCALE
  5
6C
102
{ACAD_REACTORS
330
48
102
}
330
48
100
AcDbScale
 70
     0
300
1" = 1'-0"
140
1.0
141
12.0
290
     0
  0
SCALE
  5
6D
102
{ACAD_REACTORS
330
48
102
}
330
48
100
AcDbScale
 70
     0
300
1-1/2" = 1'-0"
140
1.5
141
12.0
290
     0
  0
SCALE
  5
6E
102
{ACAD_REACTORS
330
48
102
}
330
48
100
AcDbScale
 70
     0
300
3" = 1'-0"
140
3.0
141
12.0
290
     0
  0
SCALE
  5
6F
102
{ACAD_REACTORS
330
48
102
}
330
48
100
AcDbScale
 70
     0
300
6" = 1'-0"
140
6.0
141
12.0
290
     0
  0
SCALE
  5
70
102
{ACAD_REACTORS
330
48
102
}
330
48
100
AcDbScale
 70
     0
300
1'-0" = 1'-0"
140
12.0
141
12.0
290
     0
  0
TABLESTYLE
  5
4C
102
{ACAD_XDICTIONARY
360
4D
102
}
102
{ACAD_REACTORS
330
49
102
}
330
49
100
AcDbTableStyle
  3
Standard
 70
     0
 71
     0
 40
0.06
 41
0.06
280
     0
281
     0
  7
STANDARD
140
0.18
170
     2
 62
     0
 63
     7
283
     0
274
    -2
284
     1
 64
     0
275
    -2
285
     1
 65
     0
276
    -2
286
     1
 66
     0
277
    -2
287
     1
 67
     0
278
    -2
288
     1
 68
     0
279
    -2
289
     1
 69
     0
  7
STANDARD
140
0.25
170
     5
 62
     0
 63
     7
283
     0
274
    -2
284
     1
 64
     0
275
    -2
285
     1
 65
     0
276
    -2
286
     1
 66
     0
277
    -2
287
     1
 67
     0
278
    -2
288
     1
 68
     0
279
    -2
289
     1
 69
     0
  7
STANDARD
140
0.18
170
     5
 62
     0
 63
     7
283
     0
274
    -2
284
     1
 64
     0
275
    -2
285
     1
 65
     0
276
    -2
286
     1
 66
     0
277
    -2
287
     1
 67
     0
278
    -2
288
     1
 68
     0
279
    -2
289
     1
 69
     0
  0
VISUALSTYLE
  5
2B
102
{ACAD_XDICTIONARY
360
1F2
102
}
102
{ACAD_REACTORS
330
2C
102
}
330
2C
100
AcDbVisualStyle
  2
2dWireframe
 70
     4
 71
     0
 72
     2
 73
     0
 90
        0
 40
-0.6
 41
-30.0
 62
     5
 63
     7
 74
     1
 91
        4
 64
     7
 65
   257
 75
     1
175
     1
 42
1.0
 92
        0
 66
   257
 43
1.0
 76
     1
 77
     6
 78
     2
 67
     7
 79
     5
170
     0
171
     0
290
     0
174
     0
 93
        1
 44
0.0
173
     0
291
     0
 45
0.0
1001
ACAD
1000
AcDbSavedByObjectVersion
1070
     0
  0
VISUALSTYLE
  5
1CC
102
{ACAD_XDICTIONARY
360
203
102
}
102
{ACAD_REACTORS
330
2C
102
}
330
2C
100
AcDbVisualStyle
  2
Basic
 70
     7
 71
     1
 72
     0
 73
     1
 90
        0
 40
-0.6
 41
-30.0
 62
     5
 63
     7
 74
     0
 91
        4
 64
     7
 65
   257
 75
     1
175
     1
 42
1.0
 92
        8
 66
     7
 43
1.0
 76
     1
 77
     6
 78
     2
 67
     7
 79
     5
170
     0
171
     0
290
     0
174
     0
 93
        1
 44
0.0
173
     0
291
     1
 45
0.0
1001
ACAD
1000
AcDbSavedByObjectVersion
1070
     0
  0
VISUALSTYLE
  5
1D0
102
{ACAD_XDICTIONARY
360
20B
102
}
102
{ACAD_REACTORS
330
2C
102
}
330
2C
100
AcDbVisualStyle
  2
Brighten
 70
    12
 71
     2
 72
     2
 73
     0
 90
        0
 40
-0.6
 41
-30.0
 62
     5
 63
     7
 74
     1
 91
        4
 64
     7
 65
   257
 75
     1
175
     1
 42
1.0
 92
        8
 66
     7
 43
1.0
 76
     1
 77
     6
 78
     2
 67
     7
 79
     5
170
     0
171
     0
290
     0
174
     0
 93
        1
 44
50.0
173
     0
291
     1
 45
0.0
1001
ACAD
1000
AcDbSavedByObjectVersion
1070
     0
  0
VISUALSTYLE
  5
1D4
102
{ACAD_XDICTIONARY
360
213
102
}
102
{ACAD_REACTORS
330
2C
102
}
330
2C
100
AcDbVisualStyle
  2
ColorChange
 70
    16
 71
     2
 72
     2
 73
     3
 90
        0
 40
-0.6
 41
-30.0
 62
     5
 63
     8
 74
     1
 91
        4
 64
     7
 65
   257
 75
     1
175
     1
 42
1.0
 92
        8
 66
     8
 43
1.0
 76
     1
 77
     6
 78
     2
 67
     7
 79
     5
170
     0
171
     0
290
     0
174
     0
 93
        1
 44
0.0
173
     0
291
     1
 45
0.0
1001
ACAD
1000
AcDbSavedByObjectVersion
1070
     0
  0
VISUALSTYLE
  5
1CE
102
{ACAD_XDICTIONARY
360
207
102
}
102
{ACAD_REACTORS
330
2C
102
}
330
2C
100
AcDbVisualStyle
  2
Conceptual
 70
     9
 71
     3
 72
     2
 73
     0
 90
        0
 40
-0.6
 41
-30.0
 62
     5
 63
     7
 74
     2
 91
        2
 64
     7
 65
   257
 75
     1
175
     1
 42
179.0
 92
        8
 66
     7
 43
1.0
 76
     1
 77
     6
 78
     2
 67
     7
 79
     3
170
     0
171
     0
290
     0
174
     0
 93
        1
 44
0.0
173
     0
291
     0
 45
0.0
1001
ACAD
1000
AcDbSavedByObjectVersion
1070
     0
  0
VISUALSTYLE
  5
1CF
102
{ACAD_XDICTIONARY
360
209
102
}
102
{ACAD_REACTORS
330
2C
102
}
330
2C
100
AcDbVisualStyle
  2
Dim
 70
    11
 71
     2
 72
     2
 73
     0
 90
        0
 40
-0.6
 41
-30.0
 62
     5
 63
     7
 74
     1
 91
        4
 64
     7
 65
   257
 75
     1
175
     1
 42
1.0
 92
        8
 66
     7
 43
1.0
 76
     1
 77
     6
 78
     2
 67
     7
 79
     5
170
     0
171
     0
290
     0
174
     0
 93
        1
 44
-50.0
173
     0
291
     1
 45
0.0
1001
ACAD
1000
AcDbSavedByObjectVersion
1070
     0
  0
VISUALSTYLE
  5
1DC
102
{ACAD_XDICTIONARY
360
223
102
}
102
{ACAD_REACTORS
330
2C
102
}
330
2C
100
AcDbVisualStyle
  2
EdgeColorOff
 70
    22
 71
     2
 72
     2
 73
     0
 90
        0
 40
-0.6
 41
-30.0
 62
     5
 63
     7
 74
     1
 91
        4
 64
     7
 65
   257
 75
     1
175
     1
 42
1.0
 92
        8
 66
     7
 43
1.0
 76
     1
 77
     6
 78
     2
 67
     7
 79
     5
170
     0
171
     0
290
     0
174
     0
 93
        1
 44
0.0
173
     0
291
     1
 45
0.0
1001
ACAD
1000
AcDbSavedByObjectVersion
1070
     0
  0
VISUALSTYLE
  5
1D3
102
{ACAD_XDICTIONARY
360
211
102
}
102
{ACAD_REACTORS
330
2C
102
}
330
2C
100
AcDbVisualStyle
  2
Facepattern
 70
    15
 71
     2
 72
     2
 73
     0
 90
        0
 40
-0.6
 41
-30.0
 62
     5
 63
     7
 74
     1
 91
        4
 64
     7
 65
   257
 75
     1
175
     1
 42
1.0
 92
        8
 66
     7
 43
1.0
 76
     1
 77
     6
 78
     2
 67
     7
 79
     5
170
     0
171
     0
290
     0
174
     0
 93
        1
 44
0.0
173
     0
291
     1
 45
0.0
1001
ACAD
1000
AcDbSavedByObjectVersion
1070
     0
  0
VISUALSTYLE
  5
1C8
102
{ACAD_XDICTIONARY
360
1FB
102
}
102
{ACAD_REACTORS
330
2C
102
}
330
2C
100
AcDbVisualStyle
  2
Flat
 70
     0
 71
     2
 72
     1
 73
     1
 90
        2
 40
-0.6
 41
30.0
 62
     5
 63
     7
 74
     0
 91
        0
 64
     7
 65
   257
 75
     1
175
     1
 42
1.0
 92
        8
 66
     7
 43
1.0
 76
     1
 77
     6
 78
     2
 67
     7
 79
     5
170
     0
171
     0
290
     0
174
     0
 93
       13
 44
0.0
173
     0
291
     1
 45
0.0
1001
ACAD
1000
AcDbSavedByObjectVersion
1070
     0
  0
VISUALSTYLE
  5
1C9
102
{ACAD_XDICTIONARY
360
1FD
102
}
102
{ACAD_REACTORS
330
2C
102
}
330
2C
100
AcDbVisualStyle
  2
FlatWithEdges
 70
     1
 71
     2
 72
     1
 73
     1
 90
        2
 40
-0.6
 41
30.0
 62
     5
 63
     7
 74
     1
 91
        0
 64
     7
 65
   257
 75
     1
175
     1
 42
1.0
 92
        0
 66
   257
 43
1.0
 76
     1
 77
     6
 78
     2
 67
     7
 79
     5
170
     0
171
     0
290
     0
174
     0
 93
       13
 44
0.0
173
     0
291
     1
 45
0.0
1001
ACAD
1000
AcDbSavedByObjectVersion
1070
     0
  0
VISUALSTYLE
  5
1CA
102
{ACAD_XDICTIONARY
360
1FF
102
}
102
{ACAD_REACTORS
330
2C
102
}
330
2C
100
AcDbVisualStyle
  2
Gouraud
 70
     2
 71
     2
 72
     2
 73
     1
 90
        2
 40
-0.6
 41
30.0
 62
     5
 63
     7
 74
     0
 91
        0
 64
     7
 65
   257
 75
     1
175
     1
 42
1.0
 92
        0
 66
     7
 43
1.0
 76
     1
 77
     6
 78
     2
 67
     7
 79
     5
170
     0
171
     0
290
     0
174
     0
 93
       13
 44
0.0
173
     0
291
     1
 45
0.0
1001
ACAD
1000
AcDbSavedByObjectVersion
1070
     0
  0
VISUALSTYLE
  5
1CB
102
{ACAD_XDICTIONARY
360
201
102
}
102
{ACAD_REACTORS
330
2C
102
}
330
2C
100
AcDbVisualStyle
  2
GouraudWithEdges
 70
     3
 71
     2
 72
     2
 73
     1
 90
        2
 40
-0.6
 41
30.0
 62
     5
 63
     7
 74
     1
 91
        0
 64
     7
 65
   257
 75
     1
175
     1
 42
1.0
 92
        0
 66
   257
 43
1.0
 76
     1
 77
     6
 78
     2
 67
     7
 79
     5
170
     0
171
     0
290
     0
174
     0
 93
       13
 44
0.0
173
     0
291
     1
 45
0.0
1001
ACAD
1000
AcDbSavedByObjectVersion
1070
     0
  0
VISUALSTYLE
  5
1CD
102
{ACAD_XDICTIONARY
360
205
102
}
102
{ACAD_REACTORS
330
2C
102
}
330
2C
100
AcDbVisualStyle
  2
Hidden
 70
     6
 71
     1
 72
     2
 73
     2
 90
        0
 40
-0.6
 41
-30.0
 62
     5
 63
     7
 74
     2
 91
        2
 64
     7
 65
   257
 75
     2
175
     1
 42
40.0
 92
        0
 66
   257
 43
1.0
 76
     1
 77
     6
 78
     2
 67
     7
 79
     3
170
     0
171
     0
290
     0
174
     0
 93
        1
 44
0.0
173
     0
291
     0
 45
0.0
1001
ACAD
1000
AcDbSavedByObjectVersion
1070
     0
  0
VISUALSTYLE
  5
1DA
102
{ACAD_XDICTIONARY
360
21F
102
}
102
{ACAD_REACTORS
330
2C
102
}
330
2C
100
AcDbVisualStyle
  2
JitterOff
 70
    20
 71
     2
 72
     2
 73
     0
 90
        0
 40
-0.6
 41
-30.0
 62
     5
 63
     7
 74
     1
 91
        4
 64
     7
 65
   257
 75
     1
175
     1
 42
1.0
 92
       10
 66
     7
 43
1.0
 76
     1
 77
     6
 78
     2
 67
     7
 79
     5
170
     0
171
     0
290
     0
174
     0
 93
        1
 44
0.0
173
     0
291
     1
 45
0.0
1001
ACAD
1000
AcDbSavedByObjectVersion
1070
     0
  0
VISUALSTYLE
  5
1D2
102
{ACAD_XDICTIONARY
360
20F
102
}
102
{ACAD_REACTORS
330
2C
102
}
330
2C
100
AcDbVisualStyle
  2
Linepattern
 70
    14
 71
     2
 72
     2
 73
     0
 90
        0
 40
-0.6
 41
-30.0
 62
     5
 63
     7
 74
     1
 91
        4
 64
     7
 65
   257
 75
     7
175
     7
 42
1.0
 92
        8
 66
     7
 43
1.0
 76
     1
 77
     6
 78
     2
 67
     7
 79
     5
170
     0
171
     0
290
     0
174
     0
 93
        1
 44
0.0
173
     0
291
     1
 45
0.0
1001
ACAD
1000
AcDbSavedByObjectVersion
1070
     0
  0
VISUALSTYLE
  5
1DB
102
{ACAD_XDICTIONARY
360
221
102
}
102
{ACAD_REACTORS
330
2C
102
}
330
2C
100
AcDbVisualStyle
  2
OverhangOff
 70
    21
 71
     2
 72
     2
 73
     0
 90
        0
 40
-0.6
 41
-30.0
 62
     5
 63
     7
 74
     1
 91
        4
 64
     7
 65
   257
 75
     1
175
     1
 42
1.0
 92
        9
 66
     7
 43
1.0
 76
     1
 77
     6
 78
     2
 67
     7
 79
     5
170
     0
171
     0
290
     0
174
     0
 93
        1
 44
0.0
173
     0
291
     1
 45
0.0
1001
ACAD
1000
AcDbSavedByObjectVersion
1070
     0
  0
VISUALSTYLE
  5
4E
102
{ACAD_XDICTIONARY
360
1F7
102
}
102
{ACAD_REACTORS
330
2C
102
}
330
2C
100
AcDbVisualStyle
  2
Realistic
 70
     8
 71
     2
 72
     2
 73
     0
 90
        0
 40
-0.6
 41
-30.0
 62
     5
 63
     7
 74
     1
 91
        0
 64
     7
 65
   257
 75
     1
175
     1
 42
1.0
 92
        8
 66
     8
 43
1.0
 76
     1
 77
     6
 78
     2
 67
     7
 79
     5
170
     0
171
     0
290
     0
174
     0
 93
       13
 44
0.0
173
     0
291
     0
 45
0.0
1001
ACAD
1000
AcDbSavedByObjectVersion
1070
     0
  0
VISUALSTYLE
  5
1D9
102
{ACAD_XDICTIONARY
360
21D
102
}
102
{ACAD_REACTORS
330
2C
102
}
330
2C
100
AcDbVisualStyle
  2
Shaded
 70
    27
 71
     2
 72
     2
 73
     1
 90
        2
 40
-0.6
 41
30.0
 62
     5
 63
     7
 74
     0
 91
        4
 64
     7
 65
   257
 75
     1
175
     1
 42
1.0
 92
        8
 66
   257
 43
1.0
 76
     1
 77
     6
 78
     2
 67
     8
 79
     3
170
     0
171
     0
290
     0
174
     0
 93
        5
 44
0.0
173
     0
291
     0
 45
0.0
1001
ACAD
1000
AcDbSavedByObjectVersion
1070
     0
  0
VISUALSTYLE
  5
1D8
102
{ACAD_XDICTIONARY
360
21B
102
}
102
{ACAD_REACTORS
330
2C
102
}
330
2C
100
AcDbVisualStyle
  2
Shaded with edges
 70
    26
 71
     2
 72
     2
 73
     1
 90
        2
 40
-0.6
 41
30.0
 62
     5
 63
     7
 74
     1
 91
       10
 64
     7
 65
   257
 75
     2
175
     1
 42
1.0
 92
        8
 66
   257
 43
1.0
 76
     1
 77
     6
 78
     2
 67
     7
 79
     3
170
     0
171
     0
290
     0
174
     0
 93
        5
 44
0.0
173
     0
291
     0
 45
0.0
1001
ACAD
1000
AcDbSavedByObjectVersion
1070
     0
  0
VISUALSTYLE
  5
1D5
102
{ACAD_XDICTIONARY
360
215
102
}
102
{ACAD_REACTORS
330
2C
102
}
330
2C
100
AcDbVisualStyle
  2
Shades of Gray
 70
    23
 71
     2
 72
     2
 73
     3
 90
        0
 40
-0.6
 41
-30.0
 62
     5
 63
     7
 74
     2
 91
        2
 64
     7
 65
     7
 75
     1
175
     1
 42
40.0
 92
        8
 66
     7
 43
1.0
 76
     1
 77
     6
 78
     2
 67
     7
 79
     3
170
     0
171
     0
290
     0
174
     0
 93
        1
 44
0.0
173
     0
291
     0
 45
0.0
1001
ACAD
1000
AcDbSavedByObjectVersion
1070
     0
  0
VISUALSTYLE
  5
1D6
102
{ACAD_XDICTIONARY
360
217
102
}
102
{ACAD_REACTORS
330
2C
102
}
330
2C
100
AcDbVisualStyle
  2
Sketchy
 70
    24
 71
     1
 72
     2
 73
     2
 90
        0
 40
-0.6
 41
-30.0
 62
     5
 63
     7
 74
     2
 91
        2
 64
     7
 65
     7
 75
     1
175
     1
 42
40.0
 92
       11
 66
     7
 43
1.0
 76
     1
 77
     6
 78
     2
 67
     7
 79
     6
170
     0
171
     0
290
     0
174
     0
 93
        1
 44
0.0
173
     0
291
     0
 45
0.0
1001
ACAD
1000
AcDbSavedByObjectVersion
1070
     0
  0
VISUALSTYLE
  5
1D1
102
{ACAD_XDICTIONARY
360
20D
102
}
102
{ACAD_REACTORS
330
2C
102
}
330
2C
100
AcDbVisualStyle
  2
Thicken
 70
    13
 71
     2
 72
     2
 73
     0
 90
        0
 40
-0.6
 41
-30.0
 62
     5
 63
     7
 74
     1
 91
        4
 64
     7
 65
   257
 75
     1
175
     1
 42
1.0
 92
       12
 66
     7
 43
1.0
 76
     1
 77
     6
 78
     2
 67
     7
 79
     5
170
     0
171
     0
290
     0
174
     0
 93
        1
 44
0.0
173
     0
291
     1
 45
0.0
1001
ACAD
1000
AcDbSavedByObjectVersion
1070
     0
  0
VISUALSTYLE
  5
4F
102
{ACAD_XDICTIONARY
360
1F9
102
}
102
{ACAD_REACTORS
330
2C
102
}
330
2C
100
AcDbVisualStyle
  2
Wireframe
 70
     5
 71
     0
 72
     2
 73
     0
 90
        0
 40
-0.6
 41
-30.0
 62
     5
 63
     7
 74
     1
 91
        4
 64
     7
 65
   257
 75
     1
175
     1
 42
1.0
 92
        0
 66
   257
 43
1.0
 76
     1
 77
     6
 78
     2
 67
     7
 79
     3
170
     0
171
     0
290
     0
174
     0
 93
        1
 44
0.0
173
     0
291
     0
 45
0.0
1001
ACAD
1000
AcDbSavedByObjectVersion
1070
     0
  0
VISUALSTYLE
  5
1D7
102
{ACAD_XDICTIONARY
360
219
102
}
102
{ACAD_REACTORS
330
2C
102
}
330
2C
100
AcDbVisualStyle
  2
X-Ray
 70
    25
 71
     2
 72
     2
 73
     1
 90
        1
 40
0.5
 41
-30.0
 62
     5
 63
     7
 74
     1
 91
        0
 64
     7
 65
   257
 75
     1
175
     1
 42
1.0
 92
        8
 66
     7
 43
1.0
 76
     1
 77
     6
 78
     2
 67
     7
 79
     3
170
     0
171
     0
290
     0
174
     0
 93
       13
 44
0.0
173
     0
291
     0
 45
0.0
1001
ACAD
1000
AcDbSavedByObjectVersion
1070
     0
  0
DICTIONARYVAR
  5
1C3
102
{ACAD_REACTORS
330
1BF
102
}
330
1BF
100
DictionaryVariables
280
     0
  1
1:1
  0
DICTIONARYVAR
  5
1C1
102
{ACAD_REACTORS
330
1BF
102
}
330
1BF
100
DictionaryVariables
280
     0
  1
STANDARD
  0
DICTIONARYVAR
  5
1C0
102
{ACAD_REACTORS
330
1BF
102
}
330
1BF
100
DictionaryVariables
280
     0
  1
STANDARD
  0
DICTIONARYVAR
  5
1E4
102
{ACAD_REACTORS
330
1BF
102
}
330
1BF
100
DictionaryVariables
280
     0
  1
1
  0
DICTIONARYVAR
  5
1E3
102
{ACAD_REACTORS
330
1BF
102
}
330
1BF
100
DictionaryVariables
280
     0
  1
1
  0
DICTIONARYVAR
  5
1E2
102
{ACAD_REACTORS
330
1BF
102
}
330
1BF
100
DictionaryVariables
280
     0
  1
0
  0
DICTIONARYVAR
  5
1C5
102
{ACAD_REACTORS
330
1BF
102
}
330
1BF
100
DictionaryVariables
280
     0
  1
1
  0
DICTIONARYVAR
  5
1C6
102
{ACAD_REACTORS
330
1BF
102
}
330
1BF
100
DictionaryVariables
280
     0
  1
15
  0
DICTIONARYVAR
  5
1C4
102
{ACAD_REACTORS
330
1BF
102
}
330
1BF
100
DictionaryVariables
280
     0
  1
0
  0
DICTIONARYVAR
  5
1C2
102
{ACAD_REACTORS
330
1BF
102
}
330
1BF
100
DictionaryVariables
280
     0
  1
0
  0
DICTIONARYVAR
  5
1E1
102
{ACAD_REACTORS
330
1BF
102
}
330
1BF
100
DictionaryVariables
280
     0
  1
127
  0
DICTIONARYVAR
  5
1E5
102
{ACAD_REACTORS
330
1BF
102
}
330
1BF
100
DictionaryVariables
280
     0
  1
2
  0
DICTIONARY
  5
1F0
330
1B
100
AcDbDictionary
280
     1
281
     1
  3
ACAD_XREC_ROUNDTRIP
360
1F1
  0
DICTIONARY
  5
1EE
330
16
100
AcDbDictionary
280
     1
281
     1
  3
ACAD_XREC_ROUNDTRIP
360
1EF
  0
DICTIONARY
  5
40
330
3F
100
AcDbDictionary
280
     1
281
     1
  3
ACAD_XREC_ROUNDTRIP
360
1F5
  3
BUMPTILE
360
41
  3
DIFFUSETILE
360
42
  3
OPACITYTILE
360
43
  3
REFLECTIONTILE
360
44
  3
REFRACTIONTILE
360
45
  3
SPECULARTILE
360
46
  0
DICTIONARY
  5
37
330
36
100
AcDbDictionary
280
     1
281
     1
  3
ACAD_XREC_ROUNDTRIP
360
1F4
  3
BUMPTILE
360
38
  3
DIFFUSETILE
360
39
  3
FBXASSET
360
3A
  3
OPACITYTILE
360
3B
  3
REFLECTIONTILE
360
3C
  3
REFRACTIONTILE
360
3D
  3
SPECULARTILE
360
3E
  0
DICTIONARY
  5
C
330
A
100
AcDbDictionary
280
     1
281
     1
  3
ACAD_XREC_ROUNDTRIP
360
1ED
  3
BUMPTILE
360
D
  3
DIFFUSETILE
360
E
  3
FBXASSET
360
F
  3
OPACITYTILE
360
10
  3
REFLECTIONTILE
360
11
  3
REFRACTIONTILE
360
12
  3
SPECULARTILE
360
13
  0
DICTIONARY
  5
4D
330
4C
100
AcDbDictionary
280
     1
281
     1
  3
ACAD_ROUNDTRIP_2008_TABLESTYLE_CELLSTYLEMAP
360
1E6
  3
ACAD_XREC_ROUNDTRIP
360
1F6
  0
DICTIONARY
  5
1F2
330
2B
100
AcDbDictionary
280
     1
281
     1
  3
ACAD_XREC_ROUNDTRIP
360
1F3
  0
DICTIONARY
  5
203
330
1CC
100
AcDbDictionary
280
     1
281
     1
  3
ACAD_XREC_ROUNDTRIP
360
204
  0
DICTIONARY
  5
20B
330
1D0
100
AcDbDictionary
280
     1
281
     1
  3
ACAD_XREC_ROUNDTRIP
360
20C
  0
DICTIONARY
  5
213
330
1D4
100
AcDbDictionary
280
     1
281
     1
  3
ACAD_XREC_ROUNDTRIP
360
214
  0
DICTIONARY
  5
207
330
1CE
100
AcDbDictionary
280
     1
281
     1
  3
ACAD_XREC_ROUNDTRIP
360
208
  0
DICTIONARY
  5
209
330
1CF
100
AcDbDictionary
280
     1
281
     1
  3
ACAD_XREC_ROUNDTRIP
360
20A
  0
DICTIONARY
  5
223
330
1DC
100
AcDbDictionary
280
     1
281
     1
  3
ACAD_XREC_ROUNDTRIP
360
224
  0
DICTIONARY
  5
211
330
1D3
100
AcDbDictionary
280
     1
281
     1
  3
ACAD_XREC_ROUNDTRIP
360
212
  0
DICTIONARY
  5
1FB
330
1C8
100
AcDbDictionary
280
     1
281
     1
  3
ACAD_XREC_ROUNDTRIP
360
1FC
  0
DICTIONARY
  5
1FD
330
1C9
100
AcDbDictionary
280
     1
281
     1
  3
ACAD_XREC_ROUNDTRIP
360
1FE
  0
DICTIONARY
  5
1FF
330
1CA
100
AcDbDictionary
280
     1
281
     1
  3
ACAD_XREC_ROUNDTRIP
360
200
  0
DICTIONARY
  5
201
330
1CB
100
AcDbDictionary
280
     1
281
     1
  3
ACAD_XREC_ROUNDTRIP
360
202
  0
DICTIONARY
  5
205
330
1CD
100
AcDbDictionary
280
     1
281
     1
  3
ACAD_XREC_ROUNDTRIP
360
206
  0
DICTIONARY
  5
21F
330
1DA
100
AcDbDictionary
280
     1
281
     1
  3
ACAD_XREC_ROUNDTRIP
360
220
  0
DICTIONARY
  5
20F
330
1D2
100
AcDbDictionary
280
     1
281
     1
  3
ACAD_XREC_ROUNDTRIP
360
210
  0
DICTIONARY
  5
221
330
1DB
100
AcDbDictionary
280
     1
281
     1
  3
ACAD_XREC_ROUNDTRIP
360
222
  0
DICTIONARY
  5
1F7
330
4E
100
AcDbDictionary
280
     1
281
     1
  3
ACAD_XREC_ROUNDTRIP
360
1F8
  0
DICTIONARY
  5
21D
330
1D9
100
AcDbDictionary
280
     1
281
     1
  3
ACAD_XREC_ROUNDTRIP
360
21E
  0
DICTIONARY
  5
21B
330
1D8
100
AcDbDictionary
280
     1
281
     1
  3
ACAD_XREC_ROUNDTRIP
360
21C
  0
DICTIONARY
  5
215
330
1D5
100
AcDbDictionary
280
     1
281
     1
  3
ACAD_XREC_ROUNDTRIP
360
216
  0
DICTIONARY
  5
217
330
1D6
100
AcDbDictionary
280
     1
281
     1
  3
ACAD_XREC_ROUNDTRIP
360
218
  0
DICTIONARY
  5
20D
330
1D1
100
AcDbDictionary
280
     1
281
     1
  3
ACAD_XREC_ROUNDTRIP
360
20E
  0
DICTIONARY
  5
1F9
330
4F
100
AcDbDictionary
280
     1
281
     1
  3
ACAD_XREC_ROUNDTRIP
360
1FA
  0
DICTIONARY
  5
219
330
1D7
100
AcDbDictionary
280
     1
281
     1
  3
ACAD_XREC_ROUNDTRIP
360
21A
  0
XRECORD
  5
1F1
102
{ACAD_REACTORS
330
1F0
102
}
330
1F0
100
AcDbXrecord
280
     1
102
SHADEPLOT
 70
     0
102
SHADEPLOTRESLEVEL
 70
     2
102
SHADEPLOTCUSTOMDPI
 70
   300
  0
XRECORD
  5
1EF
102
{ACAD_REACTORS
330
1EE
102
}
330
1EE
100
AcDbXrecord
280
     1
102
SHADEPLOT
 70
     0
102
SHADEPLOTRESLEVEL
 70
     2
102
SHADEPLOTCUSTOMDPI
 70
   300
  0
XRECORD
  5
1F5
102
{ACAD_REACTORS
330
40
102
}
330
40
100
AcDbXrecord
280
     1
102
MATERIAL
148
0.0
149
0.0
149
0.0
 93
        0
 94
      127
282
     0
 72
     0
 77
     0
171
     0
175
     0
179
     0
273
     0
  0
XRECORD
  5
41
102
{ACAD_REACTORS
330
40
102
}
330
40
100
AcDbXrecord
280
     1
270
     1
271
     1
  0
XRECORD
  5
42
102
{ACAD_REACTORS
330
40
102
}
330
40
100
AcDbXrecord
280
     1
270
     1
271
     1
  0
XRECORD
  5
43
102
{ACAD_REACTORS
330
40
102
}
330
40
100
AcDbXrecord
280
     1
270
     1
271
     1
  0
XRECORD
  5
44
102
{ACAD_REACTORS
330
40
102
}
330
40
100
AcDbXrecord
280
     1
270
     1
271
     1
  0
XRECORD
  5
45
102
{ACAD_REACTORS
330
40
102
}
330
40
100
AcDbXrecord
280
     1
270
     1
271
     1
  0
XRECORD
  5
46
102
{ACAD_REACTORS
330
40
102
}
330
40
100
AcDbXrecord
280
     1
270
     1
271
     1
  0
XRECORD
  5
1F4
102
{ACAD_REACTORS
330
37
102
}
330
37
100
AcDbXrecord
280
     1
102
MATERIAL
148
0.0
149
0.0
149
0.0
 93
        0
 94
      127
282
     0
 72
     0
 77
     0
171
     0
175
     0
179
     0
273
     0
  0
XRECORD
  5
38
102
{ACAD_REACTORS
330
37
102
}
330
37
100
AcDbXrecord
280
     1
270
     1
271
     1
  0
XRECORD
  5
39
102
{ACAD_REACTORS
330
37
102
}
330
37
100
AcDbXrecord
280
     1
270
     1
271
     1
  0
XRECORD
  5
3A
102
{ACAD_REACTORS
330
37
102
}
330
37
100
AcDbXrecord
280
     1
 70
     1
 90
1959938040
 71
     1
  1
5DA30D52-B380-46F1-A046-8B1842494721
311
504B03040A000008000001BA74423DEE336E79000000790000001B0000006175746F6465736B2D64657369676E2D7061636B6167652E786D6C3C3F786D6C2076657273696F6E3D22312E302220656E636F64696E673D227574662D3822203F3E3C666F726D6174733E3C666F726D61743E687474703A2F2F736368656D612E
311
6175746F6465736B2E636F6D2F64657369676E2D7061636B6167652F323030393C2F666F726D61743E3C2F666F726D6174733E504B030414000608080001BA7442D486FD9CA0000000F4000000130000005B436F6E74656E745F54797065735D2E786D6C7D8EC10E82300C865F65E91D8A1E8C310C0EEA1BF002731658846E
311
D98AC1B77784ABF1D8FE5FBFBF75BBCE937A534CCEB38643598122B6FEE978D0B0485F9C41B54DDD7D022595594E1A469170414C76A4D9A4D207E29CF43ECE46F218070CC6BECC4078ACAA135ACF422C856C0E68EA1BF5669944DDD7BCDE7B1F8E415D77AECB980613C2E4AC91FC167A2B244592486606FC29C8FD7F045B9A
311
EF7053A7E60B504B030414000608080001BA74426308189FEB0000007C01000008000000636F72652E786D6C8D905D6EC3201084AF8278ADB0F909A9636122A74E4FD00B20202E4A0C9681AAC72F4E1CA97DEBD3AE86F9D8D188E3F774035F76892EF80E920A4360BD0EC6F9B183395D5003C1518A2584F4CB06815793EDE0
311
2A4329C625E4799374F0C9FA54541F8CDD4415A34D10E85B593A18F5A79D54A5722A8E78AD66A5AF6AB415796E05CED919F038E24CF9CF5D9C5DA024A7F7DDE16DDFA357CE29DAF1A147FDD03468608C9F39EFCFC389887A85A5486E7ADED78B55C91A2829260C618628FEA0AC25FB16B3174C5A8C45BDDAFF407936FF84B2
311
F389D12DEE038B256B09727F90A25EBB28E35E54996B6FF207504B030414000608080001BA744255019EA25F0000007C00000007000000636E782E786D6C4DCB3B0E80201045D1AD90E915ED2CF8AC45050C11660C8261F98AB1B07AC9C97D42D718D865D3E909258CFD00CCE24AC6E326A164D74DC0B4128928FF32603847
311
2BA13128B1252AC747C6BAB984FC68F0B87FE8960A5C09FE86CFB69FBA01504B030414000608080001BA744279FE86FE68010000020300000C0000006662782F636F72652E786D6C8D52ED8E8230107C95A67F2FD002E279A6D4E0E13DC1BD4085CA35424B4A4B7CFC5B3E8CE7C51843529A999DDDD901B6BBB40D1AA4ED95
311
D1198E428A91D4A5A994AE33ECDD29D860B4E3CC1AE3FE9461A4452B333CC298B3DA1ADF2D5069B493DA01AA4D251750F4BD7418950D5C32DC973FB215A1F00E2AFA73D889F22C6A194621D050C759EF2C1840F390F1C4FC74BC3032E39C79AFAA8555154C5327252DE6D1FE6BF5F1B9CE83F7348D83555AE4415E6C364191
311
24E9214DF343B18F1819C59C39D55EDD95560A272BCC631A25014D82987EC7C9365A6F69F246A32DA58C8CE57722DF552F8ABCD22E8917BBB3AC07AF606422FE6D0B1139D48B01FC10CEC81822BCA684EF8386402064278ECD758F3340832C9DB12B602AE36FD4201A2F612A45D3C3C8CC42E7A9016CF6B04FFCA4CFF31EF0
311
0185AEC19A70703D7A374E67F3D4258A4EDA607017A48D6D457333375BBC9DB7410FE5A5698C7D454D9655C9122619FF5EFE0B504B030414000608080001BA7442774ABE4D7D0000009D0000000B0000006662782F636E782E786D6C4DCCD10A83201886E15B91FFDC9566AC408D72781FB12C64A6E13476F9ABD1C18E3E78
311
F87879F7591DDA4D7CDBE005905B09C8F86798AC5F04E434E3065027790C21FDDD00F97135024E06C99718F276D164E631BB74A8B3FE7521D5AC66A41AB056AAC64C3514F7E5A3C26DCF34558432D5DEA190BCF8958E3DC3F20B504B030414000608080001BA74421074EB0F2B01000014020000310000006662782F324634
311
35343133422D464343352D344338322D413044332D3941344632433132344339372F636F72652E786D6C8D515B6EC32010BC0AE22B55850D364E930813A5AE72825E80D8244589C1E251E5F85D6A476AFFF2C3A2D999D9D1AED8DFC71BFAD63E18675BCC0A8A91B6BD1B8CBDB438C533D960B497C23B17FFD030B26AD42DCE
311
3096E2E25D9A16A877366A1B01B56ED00BA842D011A3FE069F1687FE4B8FAA502902235C8B49F55775D1052BA00D3C2942F41000CD43F28B6575E40D67F53B39765D4378B7A9C8817ED4647BE0C7AA6315EFB66FA29C8552A46486456E068863CE46FB674DB2588A68C647FCDE6B15F5007ACA6A426B52D1CFAADEB1F58ED6
311
AF94ED281565A6FF13A5697852948C8D75B5C49D65014B26CAB921C5E0D2E9F608A3EF93F311E579ABA0FB172C6941196B1AC66101331516009E6BBE7886E83C2C78753D019B35B3F19A4B51E61B41F93D20D47C4FF903504B030414000608080001BA7442279759964E01000033030000300000006662782F324634353431
311
33422D464343352D344338322D413044332D3941344632433132344339372F636E782E786D6CD593CD6EC32010845F0571AD6CE3388AAA0813A9873E410FBD62D8A434182C7EAAE6EDBB2424CD25871E7B41D6EC30B3FA84F9EE7BB6E40B4234DE8DB46F1925E094D7C61D469AD3BE79A6642778F03EDDD928717286911699
311
0A7E083E2F55D2B097D92654AD71C72A06883E070511E5729358AFA4C500704D4611E609B4064D6E46FCDA43C055509C4E247D00797D79277EFA049522EF4A8AE05DE910BC9CB5E9CE4489B232C69146F501B36C654E5E433CB65A26D9F6EDB5EBC14EBF49A45CB856E66048291F6939A9A81BB5C8917738143CA680F4AA29
311
9D16A0422E8B354A2684DC9D8D178FE0D9B8B45957AF41F001DDFD6658AF31EC3C133C9919AA4305900934152BD60F0D1B9A157B5B0DDB7EB365C313EBB78CF1AED8059FBCB7F512C640F00B51DE2570898A9E7765FC085FF5116D02B2F6E1F4079008A0B65EE8DC32FE339FEEFCBE1157C0BF40FC00504B03041400060808
311
0001BA74429A2EE6C29A0500007B100000340000006662782F32463435343133422D464343352D344338322D413044332D3941344632433132344339372F6F626A656374732E786D6CAD575D8F9B3814FD2B887D4E0849A69D593154F9E854D1EEB455A356FB305264C030DE3106D9669AD95FBFC76008A4C934BBEA0B6063
311
5FDF7BEEB91F0EDEED73EE3C53A958216E5D7F3C711D2AE2226122BB752B9D8EAE5DE75D18C8A2D0BD65AE23484E6F5D33ED8641268BAAB453094D49C5F5D1ECDDF22F47C55450D7893951EAD655F123CDC99854BA48A87A1A2744937196EEC7FEB85938149B49523E1E092D89A4424353CC0B48711AA5FCE170E27A61E099
311
FF61609E76D5ECFC2AAFB667783E134A1311FF70D89198993F5FBF9F5EDD8CAEE6F3D968FE66EA8F9677CBF5C87F3B9BACDEAC56378BF73738586909495613495337FC006C248B03AFF9150615137A36B54BAC833C499F99F1941B4E1D3FF09A359D75D6C853EAC7851034AEB1021AB57D5674424B2A12F89C5105CD7A084D
311
8643DFE0D8FB3D33637B647FFA3204FA3B7A825ADDDB775FD322FA1B26A84B182415350C6CB0B486365C9D1C108E8A82DB7F4C3939D15432C21DCE2249E48B1B62A9591206033186C9D24483B1C00DE185E6F7902E08A39FF3FC949669C5B9A1B11BD651B043AC50AD6ACDD83F541EB4EF23039DE02BC3866B6B907E29A91B
311
DE3414B93E625303A4937292C1E530D3EC9C4D8F0C5D9938DDACDDF08FBB68BF35B17BFAF052162595DAD007D46A1DD7BE0D4A5627FF22CF990DEE912A0750BE00F98F08F5832AF09B64FBF97E6E4FD19208951632876F9C89339AE03171FCFA69BE7B5F81D76D1E7AEF1C9E70B681EA17E039B4A1EFCB1E9C61F00CC21772
311
664DDBC684236DDC3301800C491C5E600A79388DF66EB841964356C62EC2431F2643DD677C069E158344519FD47B0B607994162F48D080AD6624D468C86F153CF8E98774561F6C979D83F7EA97D075B1DEFEB1AD644A627A6F637A4D53269846893BF0A6AFD000F381454FF4E57B211318FA23DEDB3EDEB93D4A016D83B901
311
3E6B73BA191C4E1E1C10635F56987413FCE40418610A6B4FFE3D5331E59C085A54EDB9AFD60F948D066213EC86C95D8139141690A6F973148328D2B164A501B1AB565DD21C9FB1EEEBE62318E986CB973FC94B3F7B4587DC1B17BC90BBE865D7A4A593507F1B72DB62E01929A07B1D246DFC5BD077094BD34A21099EC0F5DB
311
66D5F79D490B4811ADD4265AE6B01FC145A4256D2B17D55A1254D242EC18EA26E2EEE4017DF980D432A016784E634579BA639C57F92E651CD5689793F20C1CFF5FFFA8CACB1DC98B4AE833B207AAA33A0C751FB0577D273A7E74C36DFD1E2D917B139A9C2183A92527B01AB8F66ABD984DD657D3D172763D41FF74E78F1693
311
F99BD1F5D2BF9E4FE737F3B7D3039A751315066DA9E94734BC84D216549259F77DDD207E6C1270C37BA2D5C387263CDBF7D7CD18BD70E0610FEA65B771913CA3EFA3C9CF051C569E14B4C94B4E732A343131746F3EF817823E63A04C33BFC949462F90F2E9C3F6C818CC5CB0EFB38977FAFD68AF9D5D99803C29443F567924
311
08E3471BB306C97129328B5FEB93EEDD149A766846D631E84C55C159823C9838192D72AA910D2F284232A70AD4EBF7F489BD7B5CB0FBB9E9103589386D3579246892B9425880E455AC87F3CE6F68EA4C5F75EBA2DC8E9FF0B099C275C0995B174DBA663155E30805DAB442B57070A9DFC983B344641CBD76B3A91B77BB0C36
311
8392DC2DB9A47FB2763529DC1A803452A26F404304EFD4CA8441AD9BFD1FFF27C35B751CA2F11955BAB3E530D119531F83106D8CB2B70534314FF6E83D02F575B3FC71BD6680C845B7AC5749D0481D6922B3FAA660F4B32A2DD69F3D7428CEE69353F22A832F2F9734921464AE4C80834560859559120DAAAE7E7FF82C0BDC
311
6473E78E81020FAB22CF0B61070B7B1376B68FB8D7260F480BD45C48D4C374E24F1FEA8B80BD9BEC22A2E89824EA0913F0A9641DC403C78391CD6D1139B3F9D1ADF38C138EB8B9593BB6A4CD21D412A59F550D2C68390475103DE6326962A5BFA07CF52EE0D54BA18244171FFE0B504B030414000608000001BA7442000000
311
000000000000000000350000006662782F32463435343133422D464343352D344338322D413044332D3941344632433132344339372F76657274696365732E62696E504B030414000608080001BA7442F270F1330600000004000000360000006662782F32463435343133422D464343352D344338322D413044332D394134
311
4632433132344339372F747269616E676C65732E62696E636660600000504B030414000608000001BA7442000000000000000000000000370000006662782F32463435343133422D464343352D344338322D413044332D3941344632433132344339372F617474726962757465732E62696E504B030414000608080001BA74
311
42D5987DFC8F00000041010000360000006662782F32463435343133422D464343352D344338322D413044332D3941344632433132344339372F6469726563746F72792E786D6C858F410EC2201045AF4266AF15DDB800BA74E7C21B903225242D6328188F2FA5C4183471359997F9FF81E89FF3C41E1816475E02DF1F80A1
311
1FC8386F25A438EECEC07A250251FC3803E6F58C12560C4AD840E95E91C151A72936F496F35732D860FE635F62C8F2DA16B505C545B74125BAA2FA9E05D7CC053D063734D5C7665FD55B6B8D15D5E9BFEAFD8490FFA45E504B030414000608080001BA7442DEC17B5EFE000000A00100003B0000006662782F324634353431
311
33422D464343352D344338322D413044332D3941344632433132344339372F7265736F75726365732F636F72652E786D6C8D504B6EC32010BD8AC5B6C20613D2C4C2444E9D9EA0174078E2A0C460F1A97AFCE2D895DA5D3733A3F7D13C3D71FA9A1EC527F8609C6D112D092AC06A37183BB628C52B3EA0E22485772EFE92A1
311
C2AA095AB4C0488AD1BB346F907636828D19B56E800D54214044857EE4A34541DF6052A54A312BC2BD9C95BEAB114A5A663AEBA408D1E700C5FA6499487A082E790D41542B2B454A66D83466C83FCDD58047929EDF77C7B7FD11BF725EE31DEF3BDCF58703EE19E317CEBB4B7FA6A25ACC524433FD64D41E548401C99A5086
311
09C335F9A85943F70D612F843684886A91FF31A579F8A729191B59BDC55D6D2167CD419E8414D5D2575ECF32F35EBA95DF504B010214000A000008000001BA74423DEE336E79000000790000001B00000000000000000000000000000000006175746F6465736B2D64657369676E2D7061636B6167652E786D6C504B010214
311
0014000608080001BA7442D486FD9CA0000000F40000001300000000000000000000000000B20000005B436F6E74656E745F54797065735D2E786D6C504B0102140014000608080001BA74426308189FEB0000007C010000080000000000000000000000000083010000636F72652E786D6C504B0102140014000608080001
311
BA744255019EA25F0000007C000000070000000000000000000000000094020000636E782E786D6C504B0102140014000608080001BA744279FE86FE68010000020300000C00000000000000000000000000180300006662782F636F72652E786D6C504B0102140014000608080001BA7442774ABE4D7D0000009D0000000B
311
00000000000000000000000000AA0400006662782F636E782E786D6C504B0102140014000608080001BA74421074EB0F2B010000140200003100000000000000000000000000500500006662782F32463435343133422D464343352D344338322D413044332D3941344632433132344339372F636F72652E786D6C504B0102
311
140014000608080001BA7442279759964E010000330300003000000000000000000000000000CA0600006662782F32463435343133422D464343352D344338322D413044332D3941344632433132344339372F636E782E786D6C504B0102140014000608080001BA74429A2EE6C29A0500007B100000340000000000000000
311
0000000000660800006662782F32463435343133422D464343352D344338322D413044332D3941344632433132344339372F6F626A656374732E786D6C504B0102140014000608000001BA74420000000000000000000000003500000000000000000000000000520E00006662782F32463435343133422D464343352D3443
311
38322D413044332D3941344632433132344339372F76657274696365732E62696E504B0102140014000608080001BA7442F270F13306000000040000003600000000000000000000000000A50E00006662782F32463435343133422D464343352D344338322D413044332D3941344632433132344339372F747269616E676C
311
65732E62696E504B0102140014000608000001BA74420000000000000000000000003700000000000000000000000000FF0E00006662782F32463435343133422D464343352D344338322D413044332D3941344632433132344339372F617474726962757465732E62696E504B0102140014000608080001BA7442D5987DFC
311
8F000000410100003600000000000000000000000000540F00006662782F32463435343133422D464343352D344338322D413044332D3941344632433132344339372F6469726563746F72792E786D6C504B0102140014000608080001BA7442DEC17B5EFE000000A00100003B000000000000000000000000003710000066
311
62782F32463435343133422D464343352D344338322D413044332D3941344632433132344339372F7265736F75726365732F636F72652E786D6C504B0506000000000E000E00800400008E1100000000
310
504B03040A000008000001BA74423DEE336E79000000790000001B0000006175746F6465736B2D64657369676E2D7061636B6167652E786D6C3C3F786D6C2076657273696F6E3D22312E302220656E636F64696E673D227574662D3822203F3E3C666F726D6174733E3C666F726D61743E687474703A2F2F736368656D612E
310
6175746F6465736B2E636F6D2F64657369676E2D7061636B6167652F323030393C2F666F726D61743E3C2F666F726D6174733E504B030414000608080001BA7442D486FD9CA0000000F4000000130000005B436F6E74656E745F54797065735D2E786D6C7D8EC10E82300C865F65E91D8A1E8C310C0EEA1BF002731658846E
310
D98AC1B77784ABF1D8FE5FBFBF75BBCE937A534CCEB38643598122B6FEE978D0B0485F9C41B54DDD7D022595594E1A469170414C76A4D9A4D207E29CF43ECE46F218070CC6BECC4078ACAA135ACF422C856C0E68EA1BF5669944DDD7BCDE7B1F8E415D77AECB980613C2E4AC91FC167A2B244592486606FC29C8FD7F045B9A
310
EF7053A7E60B504B030414000608080001BA7442109FF409EC0000007C01000008000000636F72652E786D6C8D90416EC3201045AF82665B618371EAD4C244A6494ED00B20202E4A0C960D558F5F9C3852BBEB6A467FFE9B197D7EF81E6FE8CBCE8B0BBE035A1040D6EB609C1F3A48F182F7800E82CF21C45F36405E8DB683
310
5506C18739A4699374F0D1FA98551F8CDD44B52C3602D2B7DC74B0E84F3BAA42A5981DCBB59894BEAAC116F4D965382567D0E38833799FBB383B83E8DFFB9A9D7747DCC8DD1ED7B594B897F20D3727464F6749FAFDB1E1E50A0B1EDDF8BCAF67ABA235202A4219260C57E4A3622D7D6D097B21B4258497ABFD0F9426F34F28
310
391F59B5BDFBC01610343F721F085EAE59E4720F2AD73537F103504B030414000608080001BA744255019EA25F0000007C00000007000000636E782E786D6C4DCB3B0E80201045D1AD90E915ED2CF8AC45050C11660C8261F98AB1B07AC9C97D42D718D865D3E909258CFD00CCE24AC6E326A164D74DC0B4128928FF326038
310
472BA13128B1252AC747C6BAB984FC68F0B87FE8960A5C09FE86CFB69FBA01504B030414000608080001BA7442B695A95A69010000020300000C0000006662782F636F72652E786D6C8D525B6E833010BC8AE5DF0A6C1E69D2C838822639412FE08043AD808D8C8D72FC2E8F284D15451592B16676766707D8EEDA366890B6
310
574667380A29465297A652BACEB077E76083D18E336B8CFB55869116ADCCF00863CE6A6B7CB740A5D14E6A07A836955C40D1F7D261543670C9705F7ECB5684C23BA8E82F6127CA8BA865188540431D67BDB36000CD43C613F3F3E9CAC88C73E6BDAA165655304D9D95B498E79F799A1C57FB605DAC36419A16459017C547B0
310
3E24D1E158D07CB35F33328A3973AABDB92BAD144E5698C7344A029A0431FD8A936DF4BEA5C91B8DB6943232963F887C57FD53E4957649BCD89D653DE6111899883FDB42440EF562003F8433328608AF29E1C7A0211008D9895373DBE302D0204B676C0A4C65FC9D1A44E3254CA5687A189959E83C3580CD9EF6895FF479DD
310
033EA0D03558130EAE27EFC6E96C9EBA44D1491B0CEE8AB4B1AD68EEE6668BF7F33EE8A9BC348DB1FF51936555B28449C6BF97FF00504B030414000608080001BA744292A2C27B7E0000009D0000000B0000006662782F636E782E786D6C4DCCD10E82201886E15B61FF39A941C801E088EC3E5CA263223482D6E5A7CD838E
310
BEEDD9B757749FD5A3B74D2F178384E65403B2E11147176609254F9803EA944831E6BF1BA030AC56C2CEA0C49C62791E34DA69283E6FEA5D580EBCB3A66F19D1981BC3316DCF06EB9A5EB1E1174A35BBF59C10A894A87EA56DF7B0FA02504B030414000608080001BA7442885A41492901000013020000310000006662782F
310
46363145373633412D384343382D343732432D413034422D4338353434413644453833332F636F72652E786D6C8D515B6EC32010BC0AE22B55850DC675AC0813A56E7A825E8002495162B07854397EA176A4F62F3F2C9A9D991D58B6BF4D57F0AD7D30CE0E905418026DA553C69E0798E209F510EC39F3CEC53F3408AC98F4
310
000B0C393B7B97E61592CE466D6346AD537A0545083A4220AFF932C020BFF4242A916266844B350B7911675D912AB7338FB3107D0E009621E584FCBD23C76D470FA81FC71EB5DB664407DCBEA2B17F69DB43F776EC2965F522E42C25A356B951398E3919ED1F352962CEA299EEF1A5D7226A057983094598A2067F347447BA
310
1DA6CF98EC306675A1FF13A5593D284AC646DAAC711759809CB07A6970A65CFABCDEC3E8DBEC7C0465DE2668F90439AE722CDA909ED50B33BF3F5B76ED6A19A2F3F97F3797CF4CA6AB6FD772569715E5F2BBBF5CCB3AF90F504B030414000608080001BA7442413096815501000033030000300000006662782F4636314537
310
3633412D384343382D343732432D413034422D4338353434413644453833332F636E782E786D6CBD93C16EC32010447F0571AD6C633B8AA20813A9877E410FBD62D8A434182CC055F3F75D1292E69243A5AA1764CD0E33AB27CC775F93259F10A2F16EA06DCD2801A7BC36EE30D025EDAB0D253BC183F7E9CE468993130C34
310
CB54F043F0CB5C240D7BB9D884AA35EE58C400D12F41414439DF24D62B6931005CB5A008D3085A832637237EED21E02A288E2792DE81BC3CBF113F7E804A91373945F02677089ECFD27467A2445919E340A37A8749D672495E433CD65A2659B7F5B5EBC14E3F49245FB8562EC1905C3ED07C525136AA91236F7028784C01E9
310
15533ACD40859C676B944C08B9391B2F1EC117E3D27A55BC06C10774F7DD7AB3C1B0F34CF06426280E154026D05474ACED2BD6571D7BEDFA6DBBDEB2FE89B55BC67893ED828FDEDB72096320F89928EF12B84445CB9B3C7E84AFF888360159FB70FA054804505A2F746E197FC9A75DF7ABD53FF269CEEF1B7105FC0BC43750
310
4B030414000608080001BA7442B331097C59070000941B0000340000006662782F46363145373633412D384343382D343732432D413034422D4338353434413644453833332F6F626A656374732E786D6CED59DD739B3810FF5718EED9D8D84E9ADC103A49DC743CBDB49DFADAB907CF3032C8441721184924F1FDF5B7FA00
310
033109BEE6DEFA6003425AEDFEF6534BF0FE29A3CE03E682E4ECC2F5BD89EB6016E70961E9855BCAEDE8CC75DE8701CF73D998E63A0C65F8C255C36E18A43C2F0B3B94E02D2AA9EC8CDE5CFDE5881833EC3A3145425CB822BEC319F25029F3048B7B2F411279E9F6C9F33D33B14D36E5A8B8EB102D10C74C02A730CE808A63
310
98F2DB8F13771C0663F53E0CD4BF9D351B346BDE3F6BACA56E7349989088C5CF58EA90990D6269E6CF171FA627E7A393F97C369A9F4EFDD1D5CDD562E4BF9B4DAE4FAFAFCF2F3F9C037B9B3CA756A604179825A0BF9D1BFAC158BDA945B7081CE23ACE19C3B10612A0D2627509122C60AB067C93F6A3AF246ABCD612369EE7
310
EABD65A1313C6B53E99B350C88165D10C46E57495C5D9BF2E59BBF417031C428B9C012B8159283762D3C1CBCC20D27C1D88C86C166AF0B229C0C49CC09A20E251B8E382805A6AA296160165832CA3938907294045A73E675DBB6C0335F779D435C6E4B4A9567B8A176AC08DC0F4BA13923FF60BEE7BE890CF004D29684C933
310
CBA5DC15D80DCF83B11E0C0375994DED4B03A4B3A528151A11F3B623E8B572FDE5C20D3FDD6C9E562A1C1CDEBCE07981B95446A7F4A8F90243B6578592DDD61FA439B5008431A0DA957B50BE01F29F217AEC5901BD71F2347F9ADBB9922326B639CF4037CEC4194DE06FE2F8FA5FDD37EE8271BDB8ADBD3E3CC14D1554673F
310
8F675B068D95E5BF0167183C80C1E77C665FAD6244C19E6F09038094913834872108EDDBCD931B2E217042A0875588863E880CEC3EC06D30B664F65AA9DCCB7A1D0344ED1EB3214A02D8B445021B3D7AFA08D9839378AFA6A6887DF09EBC89B95E2E569F5625DFA218DF5A9F5EE02D614442D63CCC500BF39644F778F798F3
310
04047D8EF7AA897766B71280B6C25C019F5620A887FDCEAD0D625897E62ADC04AFEC0042A85CDDA07F4B448C29450CE765B56F1DDD94A1D61E6F6B06379C1A8867D38E0973FC405455014EB39FD16214F27ECC49A14074C38F46B23A687A3DD27D5F7E068BACE7F7CC5A3208BD0CD13F75D03A8043CBB22BA42D10B5C09B7D
310
388F739AF368B38B4CA473A1960036DADEF2A3451462BD5192A2021EA4FDAE0A29A991364AC8765B0A88AB0758FCB1BC6E9AC3C49BF9274EF3BFE38C7388B6E0BB885BBFEBEC11910CA538DAA2A46FBBE66E356DA149F690E6784B412EF240E42E42329A24383D069AA3889FBF29F594E642108605E4AB83E037D198781048
310
8C362B9695563B4013116558227A0C028A4C0FB83AEDE81A3786D2E1751E6BEB7D49634DA2FF93457004B564CE2202A528E4905719F7BD1388216D740DCA1D7CC1DA2ADA5A0C5A420911EFA2474CD23B790CEA867C0FEE311C494A19E5058AC1AC07907DE62B4AA91DDE3728BE57F9238A4BFA56062230DD4684D2328BE047
310
189C3C86B8761D985E44A141DCC43E893328CA902CF9904D4E4F26CFF631354337043636DA120A613BCA50D1837A2B20EA7AC4A9C1B7D47B94BA29B32242595EB24186E2CDBADE64C977D5AAC80EE457958A503656842DC130204CD659B58AD960EA3AB0821BE940B58B04CA0A6A4E61AF241EBFF6264DB977036EFDF46D37
310
C8A0F0EBD15E33A2CE2B182C8FADC2403C2219DFB9E14A5F4757507F2738D9A7FAAAD66C568080988AE425275645DF9750DED81ACD0D6F9114EB8F26EB56D7EF4B0FBA1FC118D640ED522F5C2AA033CC245295C9ADBAA1DF1084E0160D33BE5439F5182A9749A2AB46446F489F3A5B65446BD38C78C51D6679063FB6262CA6
310
6582D72811F7D1ADA4D18A28D6AD945E462A8C5F14F0CBC755071E181920D25755E0E1C7CE5A3B7AADCAA58344E45D996D182210045BA2A546375EC152AB914ACBF5559D29A0EE0203B32A9EFF3A5934DB11BF4E16A9358C9F3A595CEDFE40BB665FA491CE6365D7471D03EAFCA4A8BCC53140B71D6AAA751631C9DCCA6F9D
310
2982A05845F9C1D55815340CC13E8EFF73D6EECB8266BB0EFFC7656DFF59C5715456694D565DAA0395EBB299C34E1697B3C9E2643ABA9A9D4DA0417BE38F2E27F3D3D1D9957F369FCECFE7EFA6B59E0CF130A88399CE5DF06C825A35AC9E2C06D095153925099CE61327C510F3259CE907B4CF79860524CF66B33BB14DF901
310
AB1F4C9F53A20DC5152777081AC454405A0731CA58B6C79DDFA03529E1A07DE142D3C8BB873F6B95AE0399E7C2855681243116DE06DA4CAAA1A78943CAD5B9DF1283408658AA52A259543FD7AB1436ADF05F4F199206AC5CAD1E06146E0574BF5A1D0ACD9BE5293E4AF08A1D0749B8DD9412AA3523CB7EA016466FB357BF91
310
8D12766FB77E02D77D592CDFD3735A880CFA64F0A21118AA238978AAFBDD8A31CBD2E5E2EB18FA6CCEF28B53D032055D0EA734E2188CB954051558115885A5592009A67AFDFBFA2BCFE1134FE6E8AA687D9D6759CEECC3259CC712F844E4ACEEE0834FB286B201ABB6BA584F27FE74ADDBD9B6C31E6D90C09EAA8760A02A23
310
94081D63038B7CD69AB28DCBB1524267FA72E1D8F0096D006341CFBABBE6F39603DEA33EA4285FD11E5EC9F962477BACA7823570E84587FF02504B030414000608000001BA7442000000000000000000000000350000006662782F46363145373633412D384343382D343732432D413034422D433835343441364445383333
310
2F76657274696365732E62696E504B030414000608080001BA7442F270F1330600000004000000360000006662782F46363145373633412D384343382D343732432D413034422D4338353434413644453833332F747269616E676C65732E62696E636660600000504B030414000608000001BA744200000000000000000000
310
0000370000006662782F46363145373633412D384343382D343732432D413034422D4338353434413644453833332F617474726962757465732E62696E504B030414000608080001BA7442D5987DFC8F00000041010000360000006662782F46363145373633412D384343382D343732432D413034422D4338353434413644
310
453833332F6469726563746F72792E786D6C858F410EC2201045AF4266AF15DDB800BA74E7C21B903225242D6328188F2FA5C4183471359997F9FF81E89FF3C41E1816475E02DF1F80A11FC8386F25A438EECEC07A250251FC3803E6F58C12560C4AD840E95E91C151A72936F496F35732D860FE635F62C8F2DA16B505C545
310
B74125BAA2FA9E05D7CC053D063734D5C7665FD55B6B8D15D5E9BFEAFD8490FFA45E504B030414000608080001BA7442CFF13EB1FF000000A00100003B0000006662782F46363145373633412D384343382D343732432D413034422D4338353434413644453833332F7265736F75726365732F636F72652E786D6C8D50596E
310
833010BD0A9ADFCA6063D22C328E204D4ED00B586642AD041B79A97AFC9A844AED5F7F66466FD13C3D71FC9AEEC527FA609C6D8195140AB4DA0DC68E2DA478253B288E5278E7E22F1914564DD8C2028314A377695E21ED6C441B336ADD802BA842C00885BEE7A385A03F7052A54A312BC2AD9C95BEA9114B56663AEBA408D1
310
E700C5F3C932417A0C2E798D41544F568A94CCB06ACC907F9AAB410FB23B750DBF6C4E64DB6F76A469FA9E747DBF27DB3367E74B4FBBDDDB56548B598A68A69F8CDAA38A3880AC29E3847252D3F79A1FD8EB81F217CA0E948A6A91FF31A579F8A729191B79BDC67DDA024896833C0829AAA5AFBC1E65E6BD742BBF01504B01
310
0214000A000008000001BA74423DEE336E79000000790000001B00000000000000000000000000000000006175746F6465736B2D64657369676E2D7061636B6167652E786D6C504B0102140014000608080001BA7442D486FD9CA0000000F40000001300000000000000000000000000B20000005B436F6E74656E745F5479
310
7065735D2E786D6C504B0102140014000608080001BA7442109FF409EC0000007C010000080000000000000000000000000083010000636F72652E786D6C504B0102140014000608080001BA744255019EA25F0000007C000000070000000000000000000000000095020000636E782E786D6C504B01021400140006080800
310
01BA7442B695A95A69010000020300000C00000000000000000000000000190300006662782F636F72652E786D6C504B0102140014000608080001BA744292A2C27B7E0000009D0000000B00000000000000000000000000AC0400006662782F636E782E786D6C504B0102140014000608080001BA7442885A414929010000
310
130200003100000000000000000000000000530500006662782F46363145373633412D384343382D343732432D413034422D4338353434413644453833332F636F72652E786D6C504B0102140014000608080001BA74424130968155010000330300003000000000000000000000000000CB0600006662782F463631453736
310
33412D384343382D343732432D413034422D4338353434413644453833332F636E782E786D6C504B0102140014000608080001BA7442B331097C59070000941B000034000000000000000000000000006E0800006662782F46363145373633412D384343382D343732432D413034422D4338353434413644453833332F6F62
310
6A656374732E786D6C504B0102140014000608000001BA74420000000000000000000000003500000000000000000000000000191000006662782F46363145373633412D384343382D343732432D413034422D4338353434413644453833332F76657274696365732E62696E504B0102140014000608080001BA7442F270F1
310
33060000000400000036000000000000000000000000006C1000006662782F46363145373633412D384343382D343732432D413034422D4338353434413644453833332F747269616E676C65732E62696E504B0102140014000608000001BA74420000000000000000000000003700000000000000000000000000C6100000
310
6662782F46363145373633412D384343382D343732432D413034422D4338353434413644453833332F617474726962757465732E62696E504B0102140014000608080001BA7442D5987DFC8F0000004101000036000000000000000000000000001B1100006662782F46363145373633412D384343382D343732432D413034
310
422D4338353434413644453833332F6469726563746F72792E786D6C504B0102140014000608080001BA7442CFF13EB1FF000000A00100003B00000000000000000000000000FE1100006662782F46363145373633412D384343382D343732432D413034422D4338353434413644453833332F7265736F75726365732F636F
310
72652E786D6C504B0506000000000E000E0080040000561300000000
  0
XRECORD
  5
3B
102
{ACAD_REACTORS
330
37
102
}
330
37
100
AcDbXrecord
280
     1
270
     1
271
     1
  0
XRECORD
  5
3C
102
{ACAD_REACTORS
330
37
102
}
330
37
100
AcDbXrecord
280
     1
270
     1
271
     1
  0
XRECORD
  5
3D
102
{ACAD_REACTORS
330
37
102
}
330
37
100
AcDbXrecord
280
     1
270
     1
271
     1
  0
XRECORD
  5
3E
102
{ACAD_REACTORS
330
37
102
}
330
37
100
AcDbXrecord
280
     1
270
     1
271
     1
  0
XRECORD
  5
1ED
102
{ACAD_REACTORS
330
C
102
}
330
C
100
AcDbXrecord
280
     1
102
MATERIAL
148
0.0
149
0.0
149
0.0
 93
        0
 94
      127
282
     0
 72
     0
 77
     0
171
     0
175
     0
179
     0
273
     0
  0
XRECORD
  5
D
102
{ACAD_REACTORS
330
C
102
}
330
C
100
AcDbXrecord
280
     1
270
     1
271
     1
  0
XRECORD
  5
E
102
{ACAD_REACTORS
330
C
102
}
330
C
100
AcDbXrecord
280
     1
270
     1
271
     1
  0
XRECORD
  5
F
102
{ACAD_REACTORS
330
C
102
}
330
C
100
AcDbXrecord
280
     1
 70
     1
 90
1959938040
 71
     1
  1
EA40E493-7C01-4DFE-8CA6-87EA37AA3262
311
504B03040A0000080000FDB974423DEE336E79000000790000001B0000006175746F6465736B2D64657369676E2D7061636B6167652E786D6C3C3F786D6C2076657273696F6E3D22312E302220656E636F64696E673D227574662D3822203F3E3C666F726D6174733E3C666F726D61743E687474703A2F2F736368656D612E
311
6175746F6465736B2E636F6D2F64657369676E2D7061636B6167652F323030393C2F666F726D61743E3C2F666F726D6174733E504B0304140006080800FDB97442D486FD9CA0000000F4000000130000005B436F6E74656E745F54797065735D2E786D6C7D8EC10E82300C865F65E91D8A1E8C310C0EEA1BF002731658846E
311
D98AC1B77784ABF1D8FE5FBFBF75BBCE937A534CCEB38643598122B6FEE978D0B0485F9C41B54DDD7D022595594E1A469170414C76A4D9A4D207E29CF43ECE46F218070CC6BECC4078ACAA135ACF422C856C0E68EA1BF5669944DDD7BCDE7B1F8E415D77AECB980613C2E4AC91FC167A2B244592486606FC29C8FD7F045B9A
311
EF7053A7E60B504B0304140006080800FDB974428CDE9444EA0000007C01000008000000636F72652E786D6C8D904D6EC3201085AF62CDB6C206FF24918589A8AD9EA01740401C94182C03558F5F481CA9DD7535A337EF9B193D7AFE5EEEC597DEBC717600526228B4954E193B0F10C3059DA03833BA39177ED9A0B062D103
311
6419189D3717D75D92CE066D4352AD537A1785F73A4021EFA919C0CBAB5E442962480E7F2B57216F62D6257975098ED1A8E279C4A8B4CF5C8CDE80E1E9709C48D721CE3F46D4F2034727DCB5686C8F0D271319DF39A15586190D6679DD979B16412B6035260DC20DAAF167DDF4A4EBBBD31B263DC6B4CAF63F505CD53FA168
311
6C68EAFDDD27E681E5471E0346AB9C452A8FA052CDB9B11F504B0304140006080800FDB9744255019EA25F0000007C00000007000000636E782E786D6C4DCB3B0E80201045D1AD90E915ED2CF8AC45050C11660C8261F98AB1B07AC9C97D42D718D865D3E909258CFD00CCE24AC6E326A164D74DC0B4128928FF326038472B
311
A13128B1252AC747C6BAB984FC68F0B87FE8960A5C09FE86CFB69FBA01504B0304140006080800FDB9744293E196DE67010000020300000C0000006662782F636F72652E786D6C8D52ED8A8330107C9590BF8726F1A32D25A6782DF704F702A9A69E54138989F4F16FFD285E8F528A10C3CCCEEEEC283FDCDA060DCAF6B5D1
311
196621C548E9C294B5AE32ECDD25D8617410DC1AE3FE9461A465AB323CC258F0CA1ADF2D5061B453DA01AA4DA91650F6BD7218150D5C32DC173FAA95A1F40E2AFA6BD8C9E22A2B15B21068A813BC77160CA079C878627139DF389971C1BDAFCB85AD4B98565F6A65B1A0A7CDF6C4D234C8F3AF6390E49B3CD8D134098EC936
311
CED9891D3F73C6C92816DCD5EDDD5D619574AAC422A22C0E681C44F43B8AF72CDDA7BB0FCAF6947232963F887C57BE29F2B57671B4D89D653D16A39189F8B72D44E4502F07F04304276388F09A127E0C1A0281909D3C37F73DAE000DAA70C626C094C6AFD4201BAF602A45D3C3C9CC42E7A9016CF6B44FF4A2CFEB1EF001A5
311
AEC09A74703D7B374EE7F3D4258A4ED9607037A48D6D65B39A9B2DAEE73AE8A9BC308DB1EFA8C9B22A59C224E3DF2B7E01504B0304140006080800FDB974421DBE9E1B7E0000009D0000000B0000006662782F636E782E786D6C4DCCDD0A823018C6F15B19EFF9B2C9CB3E604E2CEB3E24A78CE6266B8B2E3F0D0F3A7AE0C7
311
C35FB79FC593B74D2F174303EC740662C3238E2ECC0D943C5109A4353AC598FF6E40C2B0D8067606A3E714CB7AD068A7A1F8BCA977E179A0A83922474599EC7B8AF5B5A3EACE907617544CDCB8141CA132BAFA95B6DDC3E60B504B0304140006080800FDB974421F8D1B282C01000014020000310000006662782F37323634
311
343634392D313844442D343243412D394631342D4142343931374536383736342F636F72652E786D6C8D515B6EC32010BC0AE22B55850D3671EC0813A54D7B825EC00192A0C460F1A872FC42ED48ED5F7E58343B333BDA65BBFB7803DFCA796D4D0F498121504658A9CDB987319C500BC18E33676DF84383C00CA3EA618621
311
676767E3B440C29AA04C48A8B1522DE0E0BD0A10885BFAF4D08B8B1A8762882131FCB59806711DCEAA20456A271E673EB81400CC43F20BF9A66A286D6887487B38205ABDEF51F74928DABFD18E6C3E9A76D35056CE42CE62D472916B99E2E89356EE59932CE62CE8F1115F3835042521AF30A911AE5185BFAA7A4BD6DB75FB
311
8AC916635666FA3F519CE493A2A84DA8AB25EE2CF3901356CE0DCEA48DC7DB238CBA4FD60590E7ADBC122F90E322C5C25D476B56CED4B480E4D9D0C5D307EBD28257D7636293F56CDC50CECA7CA3547E0F986ABE27FF01504B0304140006080800FDB974429C375CF14E01000033030000300000006662782F373236343436
311
34392D313844442D343243412D394631342D4142343931374536383736342F636E782E786D6CD593CD6E022114855F85B06DE6CF51630C8349177D822EBA65E0AA540626FC34F5ED7B51B46E5C74D90D999C7B38E7E60BC376DF93215FE0837676A05DDD5202563AA5ED61A029EEAB0D253BCEBC73F1C1468915130C34CB94
311
B38377692E9282BD4826A26AB43D15D14370C94B0828E79BC438290C0680AD128A308DA014287237E2D71E3CAE82E27826F108E4EDF583B8F113640CACC9299C35B983B37C96A6071325D28810061AE41126518B149D8270AA9588A2EEEA5BD7939D7E9348BE70AB4C5E935C3ED07C525E36AA91236B70C859881EE915533C
311
CF40B99867A3A58808B9B918AF1ECE92B671BD2C5E8DE03DBABB75BF5C62D865C659D4131487F4202228CA176DD7576D5F2DDAF745BFED56DBD5E6A5EDB66DCB9A6CE76C74CE944B1803DECD443A1BC146CA3BD6E4F1337CC54794F6C8DAF9F31F402280D27AA573CFF8CF7C9ACBFB465C1EFF02FE03504B03041400060808
311
00FDB9744280EBB2779B0500007A100000340000006662782F37323634343634392D313844442D343243412D394631342D4142343931374536383736342F6F626A656374732E786D6CAD575D8F9B3814FD2B887D2609493A1F2B862A93CC5451356DD5A8D53E8C1419308C770C46B69966F6D7EF3118026932CDAEFA1282B9
311
BEBEF7DC733F1CBCDFE5DC79A1523151DCB8FE68E23AB48845C28AECC6AD74EA5DB9CEFB309042E89E98EB1424A737AE5976C32093A22AED52425352717DB07A7FFB97A3625A50D7893951EAC655F113CDC988545A24543D8F12A2C9284B77237FD4080ED56692944F074A4B2269A16129D60B68711AA3FCE1EBC41D87C1D8
311
7C0F03F36BA566A7A5C6B53FC3F359A13429E29F0E3B5033F3E7ABBBE9BB6BEFDD7C3EF3E61753DFBBBDBF5D79FEE56CB2BC582EAF1777D7385869094DD612495337FC006C248B8371F3290C2A56E8D9D48AD8008D257D6126526E3875FC60DCC874DE59278F991F8BA2A0718D15D0A8FDB3AA135AD22241CC1955B0AC87D0
311
64F8EA1B1C7B9F67E6DD1ED95F3E0F81FE8E9EA2D6F6F6D9B754447FC305750E83A4A286810D96D6D186AB933DC29110DC7E63CAC989A69211EE701649225FDD10A246240C066A0C93A5C906E3811B220ACDE7215D9046BFE6F9312BD38A73436337ACB3608B5CA15AD596B17FA8DC5BDF4706362156860D57D621FD5A5237
311
BC6E287275C0A6064827E52443C8E1A6D9399B1E38BA3479BA5EB9E1C7FB68B731B97BFCF0528A924A6DE8036AB5816B9F06256B937F56E4CC06F7C0943D285F81FC27A4FADE14C44DB2DD7C37B7A768490A950A992336CEC4F126F899387EFD6BFEF7FE05E36EF3307AA7F044B00D54BF01CFA10FFD58F6E00C8317105EC8
311
99756D13138EB2F1C00A006448E2708125D4E134DAB9E11A550E5519BB080F7DB80C735FF037185B352814F549BD67012C0FCAE219051AB0D58C84190DF9AD81FB38FD54CEEA83ADD82978DFFD16BA2E569B8F9B4AA624A60F36A757346505D368717BDEF40D1A603EF0E899BEFE103281A33FE3BDE9E39DDBA314D036981B
311
E0B3B6A69B97FDC9830362ECCB842937C12F4E8013A6B1F6F43F301553CE494145D59EFB66FF40DB682036C96E98DC35987D6301699A2F073988261D4B561A10BB6ED515CDD109EFBEAD3F819190E722227C2F14ED4B6F2CB890DBE875DB54A5A3487F1F52DB4230365AC0F63A47DAF4B7986F1396A695420D3C02EBF7F5B2
311
1F3A531550215AAD4DB2CCE13E728B48CBD9562F9AB52468A4A2D832B44DA4DDD103FAFA81A82540ADF094C58AF274CB38AFF26DCA389AD13627E50938FEBFFD5195975B928BAAD027740F4C477318DA3E20AFFA4174FCE4869BFAE9DDA2F42634D98779206C5AC911AC06A1BD5BCC2777F3EB9977B99CF8DE7C757FE75D2D
311
1717DED5E5DD6276B958CCA617D3364E8DF230683B4D3FA1112574B6A092CC86EFDB1AE9636B801B3E10AD1E3F34D9D93EBFAD4718858331F6A05D761B17C90BC63E9AFC5AC15EF2A8A2755E729AD3421393420FE60FFF4A30660C8C69D6D739C9E8195A3E7FD81C38839533F67D31E94E7F1CECB5AB4B93904795E8A72A8F
311
0AC2F8C1C6AC4172541699C5AF8D49F76CFA4CFB6ADE6C6030982AC15982329838191539D5288667F420995305EAF547FAC45E3DCED8FDD20C889A449CB6963C11CCC85C212D40AD2AD6C375E70FCC7466ACBA71D16D47CFF8B195C275C0991B1733BA663155A308FDD94C42B57270A93FC863EE2745C6316A379BBAF76E97
311
C166D0913B9173C627EB5753C1AD03282325C606CC43884E6D4C18D4B6D9EFF17F72BC35C7211A7FA34A77BEEC173A67EA6390A28D53F6B28019E6D91EBD43A2BEED963FAA6506889C75C97A93048D564F1399D51705639F3569B1FA32C680E2AC3F3B25AF32C4F27C4D9EA4207365121C2C022BACCE92685075F9E7E31729
311
7091CD9D7B060A3C2E459E8BC2BE2CEC45D8D93CE15A9B3CA22C50731F518FD3893F7DACEF01F66AB28D88A22392A8672C20A69275100F020F4636974574A0E6432737364138E0E67AE5D8963687524B947E5535B060E228A883EC317749932B7D81F2CDABC0B816850912437CF82F504B0304140006080000FDB974420000
311
00000000000000000000350000006662782F37323634343634392D313844442D343243412D394631342D4142343931374536383736342F76657274696365732E62696E504B0304140006080800FDB97442F270F1330600000004000000360000006662782F37323634343634392D313844442D343243412D394631342D4142
311
343931374536383736342F747269616E676C65732E62696E636660600000504B0304140006080000FDB97442000000000000000000000000370000006662782F37323634343634392D313844442D343243412D394631342D4142343931374536383736342F617474726962757465732E62696E504B0304140006080800FDB9
311
7442D5987DFC8F00000041010000360000006662782F37323634343634392D313844442D343243412D394631342D4142343931374536383736342F6469726563746F72792E786D6C858F410EC2201045AF4266AF15DDB800BA74E7C21B903225242D6328188F2FA5C4183471359997F9FF81E89FF3C41E1816475E02DF1F80
311
A11FC8386F25A438EECEC07A250251FC3803E6F58C12560C4AD840E95E91C151A72936F496F35732D860FE635F62C8F2DA16B505C545B74125BAA2FA9E05D7CC053D063734D5C7665FD55B6B8D15D5E9BFEAFD8490FFA45E504B0304140006080800FDB974429F75BADCFC000000A00100003B0000006662782F3732363434
311
3634392D313844442D343243412D394631342D4142343931374536383736342F7265736F75726365732F636F72652E786D6C8D50596E833010BD0A9ADF0AB0599208194714D413F4029699502BC1465EAA1EBF76A052FBD71F8FE72D9AA7C7AE5FEB23FB44EB94D13DD08240865A9A59E9A587E06FF905B22B67D618FF4B06
311
99162BF69060E06CB1266C07248DF6A87D44B599F1008573E821938FF8E9C1C90F5C4521828F0A772F3621EF62C18216918E3ACE9CB73140B61F492F708BCE042BD1B17267390B41CD8746CDF1A6BA29B4C0C9743A4FB46DF261781BF366380DF985C4756CCEF540273ABE0E9495C9CC9957EB4F466951789C815784D639A9
311
F38ABC577547DBAEBDBC10DA11C2CA24FF630ADBFC4F5350DAD7D51177B739E029C893E0AC4C7DC5F12C33CED42DFF06504B010214000A0000080000FDB974423DEE336E79000000790000001B00000000000000000000000000000000006175746F6465736B2D64657369676E2D7061636B6167652E786D6C504B01021400
311
140006080800FDB97442D486FD9CA0000000F40000001300000000000000000000000000B20000005B436F6E74656E745F54797065735D2E786D6C504B01021400140006080800FDB974428CDE9444EA0000007C010000080000000000000000000000000083010000636F72652E786D6C504B01021400140006080800FDB9
311
744255019EA25F0000007C000000070000000000000000000000000093020000636E782E786D6C504B01021400140006080800FDB9744293E196DE67010000020300000C00000000000000000000000000170300006662782F636F72652E786D6C504B01021400140006080800FDB974421DBE9E1B7E0000009D0000000B00
311
000000000000000000000000A80400006662782F636E782E786D6C504B01021400140006080800FDB974421F8D1B282C0100001402000031000000000000000000000000004F0500006662782F37323634343634392D313844442D343243412D394631342D4142343931374536383736342F636F72652E786D6C504B010214
311
00140006080800FDB974429C375CF14E010000330300003000000000000000000000000000CA0600006662782F37323634343634392D313844442D343243412D394631342D4142343931374536383736342F636E782E786D6C504B01021400140006080800FDB9744280EBB2779B0500007A10000034000000000000000000
311
00000000660800006662782F37323634343634392D313844442D343243412D394631342D4142343931374536383736342F6F626A656374732E786D6C504B01021400140006080000FDB974420000000000000000000000003500000000000000000000000000530E00006662782F37323634343634392D313844442D343243
311
412D394631342D4142343931374536383736342F76657274696365732E62696E504B01021400140006080800FDB97442F270F13306000000040000003600000000000000000000000000A60E00006662782F37323634343634392D313844442D343243412D394631342D4142343931374536383736342F747269616E676C65
311
732E62696E504B01021400140006080000FDB974420000000000000000000000003700000000000000000000000000000F00006662782F37323634343634392D313844442D343243412D394631342D4142343931374536383736342F617474726962757465732E62696E504B01021400140006080800FDB97442D5987DFC8F
311
000000410100003600000000000000000000000000550F00006662782F37323634343634392D313844442D343243412D394631342D4142343931374536383736342F6469726563746F72792E786D6C504B01021400140006080800FDB974429F75BADCFC000000A00100003B00000000000000000000000000381000006662
311
782F37323634343634392D313844442D343243412D394631342D4142343931374536383736342F7265736F75726365732F636F72652E786D6C504B0506000000000E000E00800400008D1100000000
310
504B03040A0000080000FDB974423DEE336E79000000790000001B0000006175746F6465736B2D64657369676E2D7061636B6167652E786D6C3C3F786D6C2076657273696F6E3D22312E302220656E636F64696E673D227574662D3822203F3E3C666F726D6174733E3C666F726D61743E687474703A2F2F736368656D612E
310
6175746F6465736B2E636F6D2F64657369676E2D7061636B6167652F323030393C2F666F726D61743E3C2F666F726D6174733E504B0304140006080800FDB97442D486FD9CA0000000F4000000130000005B436F6E74656E745F54797065735D2E786D6C7D8EC10E82300C865F65E91D8A1E8C310C0EEA1BF002731658846E
310
D98AC1B77784ABF1D8FE5FBFBF75BBCE937A534CCEB38643598122B6FEE978D0B0485F9C41B54DDD7D022595594E1A469170414C76A4D9A4D207E29CF43ECE46F218070CC6BECC4078ACAA135ACF422C856C0E68EA1BF5669944DDD7BCDE7B1F8E415D77AECB980613C2E4AC91FC167A2B244592486606FC29C8FD7F045B9A
310
EF7053A7E60B504B0304140006080800FDB97442848FAE33EC0000007C01000008000000636F72652E786D6C8D90416E83301045AF62CDB632D8181020E3282DC9097A01CB38C44AB011B6AB1EBF262152BBEB6A467FFE9B197D7EF89EEFE84BAFDE38DB03CD08206D951B8D9D7A88E1821B4007C157E7C22F1B202B67DDC3
310
2683E0D3EAE2B24BCAD9A06D48AA75A3DE45E9BD0E80D43D353D7875D5B3CC640CC9E16FD922D54D4E3AA3AF2EC1319A113D8F9831ED3317A35710C7F3477D6A49850746075CB262C06D59D7B824D59936A7A665C7779E6FB0E0C1CCAFFB6AD532E811444128C384E1827C16ACA35557356F847684F07CB3FF81E232FE138A
310
C60656ECEF3E310F82A6471E03C1F32D8B541E41A5BAE5267E00504B0304140006080800FDB9744255019EA25F0000007C00000007000000636E782E786D6C4DCB3B0E80201045D1AD90E915ED2CF8AC45050C11660C8261F98AB1B07AC9C97D42D718D865D3E909258CFD00CCE24AC6E326A164D74DC0B4128928FF326038
310
472BA13128B1252AC747C6BAB984FC68F0B87FE8960A5C09FE86CFB69FBA01504B0304140006080800FDB974426685639C68010000020300000C0000006662782F636F72652E786D6C8D52ED8E8230107C95A67F2FA5E5CBA82935DEA94F702F50A17244684969898F7FCB87E1BC1863484A33B3B33B3BC077B7A646BDB25D
310
657486C38061A4746E8A4A9719F6EE42D618ED04B7C6B83F651869D9A80C0F3016BCB4C6B733941BED9476806A53A819945DA71C46790D970C77F98F6A6420BD838AEE1AB432BFCA5205610034D409DE390B06D0346438B1B89C6F9C4EB8E0DE57C5CC56054CAB2E95B258EC4F5FABE386A5E410870792C4D1816C92D58A24
310
2C3D85EBE37A13EF3F391DC482BBAAB9BBCBAD924E1558442C8C098B49C4BEA3781BA6DB74FDC1C22D639C0EE50F22DF166F8A7CA55D1CCD7627598745084646E2DFB61091439DECC10F159C0E21C26B4CF8316808044276F25CDFF7B802D4ABDC199B005318BF50BDACBD82A90C8D0FA7130B9DC706B0D9D33ED18B3EAF7B
310
C00794BA046BD2C1F5ECDD309D4F53E7285A6549EF6E481BDBC87A3137595CCE65D053796E6A63DF51D379553A874987BF57FC02504B0304140006080800FDB9744209E25B507E0000009D0000000B0000006662782F636E782E786D6C4DCCD10AC2201886E15B91FFDC366B69813AFC47BB8FD1DC909C866974F96DB1838E
310
3E78F87865FB593C79DBF472312860871A880DF738BA302B2879A21720AD9629C6FC77031286C52AD818B49C532CCF9D463B0DC5E755BD0B8F1D458DCC703C52C4DB99366838C513679489BEE70D76E6DA09A8B4AC7EA575B7B0FE02504B0304140006080800FDB97442DE868B5F2C01000014020000310000006662782F37
310
304231413642322D424245352D344241362D423336312D3137464636344243413943372F636F72652E786D6C8D515B6EC32010BC0AE22B55651B6C07A711260A5173825EC00192A0C460F1A872FC42ED48ED5F7E58343B333BDAA5BBC77807DFCA796D4D0F718920504658A9CDA587319C8B0D043B469DB5E10F0D02338CAA
310
8719868C5E9C8DD302096B823221A1C64AB58083F72A4020EEE9D3432FAE6A1CCA2186C4F0B7721AC46DB8A81297A99D788CFAE05200300FC92F641DE2784F785D70FEB92E5ABE27056F082E70773C92961FF61F878E56B390D118B55CE45AA638FAAC957BD5248B190D7A7CC6174E0D4149C86A849B0235458DBEEA668BD7
310
DBF5E61DE12D42B4CAF47FA238C91745519BD0D44BDC59E621C3B49A1B8C4A1B4FF76718F598AC0B20CF5B7925DE204325C22DDEB41DA1D54C4D0B489EA45D3C7DB02E2D78753B2576B3189396D12ADF2895DF03A69AEFC97E00504B0304140006080800FDB97442FA9093E65501000033030000300000006662782F373042
310
31413642322D424245352D344241362D423336312D3137464636344243413943372F636E782E786D6CBD93CD6EC32010845F0571ADFC9F44568489D4439FA0875E316C521A0C16E0AA79FB2E094973C9A152D50BB2668799D527CC765F93219FE0837676A04D595302563AA5ED61A04BDC173D253BCEBC73F1CE468915130C
310
34C994B38377CB9C25057BB19888AAD1F698450FC12D5E424039DD24C6496130006CB1A008D3084A812237237EEDC1E32A288E2712DF81BC3CBF11377E808C81552985B32A757096CEDC7467A2441A11C240837C87499462894E4138964A445136E5B5EBC14E3F49245DB8562E5E93543ED074529E372A9123AB70C859881E
310
E965533CCD40B99867A3A58808B93A1B2F1ECE166DE36695BD1AC17B7477EDA6EF31EC3CE32CEA09B2437A101114E56DDD7445DD156DFDDA76DB66BD5DF74F75B3AD6B56253B67A373265FC218F06E26D2D9083652DEB02A8D1FE1CB3EA2B447D6CE9F7E011201E4D60B9D5BC65FF26936DD6AF58F7CAAF3FB465C1EFF02FE
310
0D504B0304140006080800FDB9744232CF63DE57070000931B0000340000006662782F37304231413642322D424245352D344241362D423336312D3137464636344243413943372F6F626A656374732E786D6CED595B6FA33814FE2B887D0E09497A5B5146697A51B4EACC68B233DA874AC801877A6B0CB24D2FFBEBF7F802
310
011A5AB2D37D9B870430F6F139DFB9FA107C7ACEA8F388B920393B777D6FE23A98C57942587AEE96723B3A759D4F61C0F35C36A6B90E43193E77D5B01B0629CFCBC20E25788B4A2A3BA3D7177F3922C60CBB4E4C9110E7AE88EF71863C54CA3CC1E2C14B90445EBA7DF67CCF4C6C934D392AEE3B440BC43193C0298C33A0E2
310
18A6FCF6E3C41D87C158BD0F03F56F67CD06CD9AF7CF1A6BA9DB5C12262462F12B963A646683589AF9F3CBABE9D1D9E8683E9F8DE6C7537F74717D7139F24F6693E5F17279B6B83A03F636794EAD4C092E304B407F2F6EE80763F5A616DD22B08FEB38670CC71A48804A8BD52548B080AD1AF04DDA8FBE92A8F15A4BD8789E
310
ABF79685C6F0AC4DA56FD630205A744110BB5D2571756DCA976FFE06C1C510A3E4024BE056480EDAB5F070F00A379C0463331A069B9D2E887032243127883A946C38E2A01498AAA684815960C928E7E040CA511268CD99D76DDB02CF7CDF75F671B92D29559EE186DAB122703F2C85E68CFC83F98EFB2632C013485B12264F
310
2D97F2A5C06E78168CF56018A8CB6C6A5F1A209D2D45A9D08898B71D4197CAF557976EF8C7F5E679ADC2C1FECD0B9E17984B65744A8F9A2F30647B5528D96DFD419A530B401803AA5DB903E51B20FF19A2C78E15D01B27CFF3E7B99D2B3962629BF30C74E34C9CD104FE268EAFFFD57DE32E18D78BDBDAEBC313DC544175FA
310
F378B665D05859FE1B7086C123187CCE67F6D53A4614ECF996300048198943731882D0BEDD3CBBE10A0227047A588568E883C8C0EE23DC06634B66A795CABDACD73140D4EE311BA224804D5B24B0D1A3A71BC81E9CC43B353545EC83F7E843CC7571B9FE635DF22D8AF1ADF5E94BBC258C48C89AFB196A61DE92E801BF3CE5
310
3C01415FE3BD6EE29DD9AD04A0AD3057C0A71508EA61B7736B8318D6A5B90A37C13B3B80102A5737E8DF1211634A11C37959ED5B473765A8B5C7DB9AC10DA706E2D9B463C21C3F12555580D3EC66B41885BC1F73522810DDF0C64856074DAF47BAEFABCF6091F5FC9E592B06A19721FAA70E5A7B7068597685B405A21678B3
310
0BE7714E731E6D5E2213E95CA825808DB6B7FC681185586F94A4A8800769BFAB424A6AA48D12B2DD9602E2EA1E167FAC964D73987833FFC869FE779C710ED1167C1771EB779D3D2292A114475B94F46DD7DCADA62D34C91ED21C6F29C8451E897C89908C26094E0F81E620E2671F4A3DA5B910846101F96A2FF84D34261E04
310
12A3CD8A65A5D50ED044441996881E828022D303AE4E3BBAC68DA174789FC7DA7ADFD25893E8FF64111C412D99B38840290A39E45DC67DEF0862481B5D8372075FB0B68AB61683965042C42FD11326E9BD3C047543BE07F7188E24A58CF202C560D603C8BEF215A5D40EEF1B143FA8FC11C525FD280311986E2342699945F0
310
230C4E1E435CBB0E4C6FA2D0206E629FC419146548967CC826C7479357FB989AA11B021B1B6D0985B01D65A8E841BD1510753DE2D4E05BEA3D4ADD945911A12C2FD92043F1665D6FB2E4BB6A556407F2AB4A45281B2BC29660181026EBAC5AC56C30751D58C18D74A07A8904CA0A6A4E61EF241EBFF6264DB977036EFDF463
310
37C8A0F0EBD15E33A2CE2B182C8FADC2403C2119DFBBE15A5F4717507F2738D9A5FAAAD66C568080988AE425275645DF5750DED81ACD0D6F9114773726EB56D7EF2B0FBA1FC118D640ED522F5C29A033CC245295C9ADBAA1DF1084E0160D33BE5239F5102A8B24D15523A2D7A44F9DAD32A2B56946BCE21EB33C831FBB232C
310
A66582EF50221EA25B49A33551AC5B29BD8C5418BF29E0979B75071E181920D25755E0E1A7CE5A3BBA54E5D25E22F2BECC360C1108822DD152A31BAF60A9D548A5E5FAAACE14507781815915CF7F9D2C9AED885F278BD41AC6CF9D2C68BE4174176D1AD93C56667DD029A04E4F8ACA479C0274D7A1A65A271193CBADF8D697
310
22888955901F5C8C5531C310ECE3F83F27EDBE2468B6EBF07F58D2F65F151C072595D664D5A4DA53B8AE9A29EC6A319F5CCDCF66A393E5C41FCD2FAFAF46A7CBC5F1E8F4E46A313B592C66D3E33A131BE26150C7329DBAE0D9C4B46A583D590CA0292B724A1238CC274E8A21E44B38D20FE89EF30C0BC89DCD5E77627BF203
310
563F9A36A7441B8A2B4EEE11F487A980AC0E6294B16C8F3BBF416752C239FBDC859E91F7007FD62A5D0712CFB90B9D0249622CBC0D7499543F4F13878CAB53BF2506710CB1546544B3A87EAE57296C5AD1BF9E32240B58B95A2D0CA8DB0A687EB51A149A37CB537C90E0153B0E9270BB2925146B4696DD402D8CDE66A77E23
310
1B25ECC16EFD0CAEFBB658BEA7E7B41019F4C5E04D2330544712F154B7BB156396A5C5E5D731B4D99CD517A7A0650ABA1C4E69C4311873A9EA29B022B00A4BB340124C75F9FBDD579EC3179ECCD145D1DD32CFB29CD987051CC712F842E4ACEFE17B4F72075503565D7571379DF8D33BDDCDB60DF6688304F6543904035515
310
A144E8181B58E4ABCE94ED5B8E95123AD357978E0D9FD0053016F4AAB96BBE6E39E03DEA3B8AF215EDE1959C6F36B4C77A2A5803875674F82F504B0304140006080000FDB97442000000000000000000000000350000006662782F37304231413642322D424245352D344241362D423336312D313746463634424341394337
310
2F76657274696365732E62696E504B0304140006080800FDB97442F270F1330600000004000000360000006662782F37304231413642322D424245352D344241362D423336312D3137464636344243413943372F747269616E676C65732E62696E636660600000504B0304140006080000FDB9744200000000000000000000
310
0000370000006662782F37304231413642322D424245352D344241362D423336312D3137464636344243413943372F617474726962757465732E62696E504B0304140006080800FDB97442D5987DFC8F00000041010000360000006662782F37304231413642322D424245352D344241362D423336312D3137464636344243
310
413943372F6469726563746F72792E786D6C858F410EC2201045AF4266AF15DDB800BA74E7C21B903225242D6328188F2FA5C4183471359997F9FF81E89FF3C41E1816475E02DF1F80A11FC8386F25A438EECEC07A250251FC3803E6F58C12560C4AD840E95E91C151A72936F496F35732D860FE635F62C8F2DA16B505C545
310
B74125BAA2FA9E05D7CC053D063734D5C7665FD55B6B8D15D5E9BFEAFD8490FFA45E504B0304140006080800FDB97442972480ABFE000000A00100003B0000006662782F37304231413642322D424245352D344241362D423336312D3137464636344243413943372F7265736F75726365732F636F72652E786D6C8D504B6E
310
833010BD0A9A6D65B03141808CA3B4494ED00B586642AD043BF2A7EAF16B122AB5BB6E6646EFA3797A62FFB5DC8A4FF4C1383B022B291468B59B8C9D4748F1423A28F65278E7E22F1914562D38C20A8314B377E9BE41DAD9883666D4BA0937508580110A7DCBC708417FE0A24A956256846B7957FAAA662C5999E9AC932244
310
9F0314CF27EB04E931B8E43506513D59295232D3A63153FE692E063DC8C3F9AD3DF5B42147CE8EA4E1F591F44DDB9286EECEAC3B753D3FBC8A6A354B11CDF293517B5411279035659C504E6AFA5EF381ED865DF742D940A9A856F91F53BA4FFF34256323AFB7B84F5B00C97290072145B5F695D7A3CCBCD76EE537504B0102
310
14000A0000080000FDB974423DEE336E79000000790000001B00000000000000000000000000000000006175746F6465736B2D64657369676E2D7061636B6167652E786D6C504B01021400140006080800FDB97442D486FD9CA0000000F40000001300000000000000000000000000B20000005B436F6E74656E745F547970
310
65735D2E786D6C504B01021400140006080800FDB97442848FAE33EC0000007C010000080000000000000000000000000083010000636F72652E786D6C504B01021400140006080800FDB9744255019EA25F0000007C000000070000000000000000000000000095020000636E782E786D6C504B01021400140006080800FD
310
B974426685639C68010000020300000C00000000000000000000000000190300006662782F636F72652E786D6C504B01021400140006080800FDB9744209E25B507E0000009D0000000B00000000000000000000000000AB0400006662782F636E782E786D6C504B01021400140006080800FDB97442DE868B5F2C01000014
310
0200003100000000000000000000000000520500006662782F37304231413642322D424245352D344241362D423336312D3137464636344243413943372F636F72652E786D6C504B01021400140006080800FDB97442FA9093E655010000330300003000000000000000000000000000CD0600006662782F37304231413642
310
322D424245352D344241362D423336312D3137464636344243413943372F636E782E786D6C504B01021400140006080800FDB9744232CF63DE57070000931B00003400000000000000000000000000700800006662782F37304231413642322D424245352D344241362D423336312D3137464636344243413943372F6F626A
310
656374732E786D6C504B01021400140006080000FDB974420000000000000000000000003500000000000000000000000000191000006662782F37304231413642322D424245352D344241362D423336312D3137464636344243413943372F76657274696365732E62696E504B01021400140006080800FDB97442F270F133
310
060000000400000036000000000000000000000000006C1000006662782F37304231413642322D424245352D344241362D423336312D3137464636344243413943372F747269616E676C65732E62696E504B01021400140006080000FDB974420000000000000000000000003700000000000000000000000000C610000066
310
62782F37304231413642322D424245352D344241362D423336312D3137464636344243413943372F617474726962757465732E62696E504B01021400140006080800FDB97442D5987DFC8F0000004101000036000000000000000000000000001B1100006662782F37304231413642322D424245352D344241362D42333631
310
2D3137464636344243413943372F6469726563746F72792E786D6C504B01021400140006080800FDB97442972480ABFE000000A00100003B00000000000000000000000000FE1100006662782F37304231413642322D424245352D344241362D423336312D3137464636344243413943372F7265736F75726365732F636F72
310
652E786D6C504B0506000000000E000E0080040000551300000000
  0
XRECORD
  5
10
102
{ACAD_REACTORS
330
C
102
}
330
C
100
AcDbXrecord
280
     1
270
     1
271
     1
  0
XRECORD
  5
11
102
{ACAD_REACTORS
330
C
102
}
330
C
100
AcDbXrecord
280
     1
270
     1
271
     1
  0
XRECORD
  5
12
102
{ACAD_REACTORS
330
C
102
}
330
C
100
AcDbXrecord
280
     1
270
     1
271
     1
  0
XRECORD
  5
13
102
{ACAD_REACTORS
330
C
102
}
330
C
100
AcDbXrecord
280
     1
270
     1
271
     1
  0
CELLSTYLEMAP
  5
1E6
102
{ACAD_REACTORS
330
4D
102
}
330
4D
100
AcDbCellStyleMap
 90
        3
300
CELLSTYLE
  1
TABLEFORMAT_BEGIN
 90
        5
170
     1
 91
        0
 92
    32768
 62
   257
 93
        1
300
CONTENTFORMAT
  1
CONTENTFORMAT_BEGIN
 90
        0
 91
        0
 92
      512
 93
        0
300

 40
0.0
140
1.0
 94
        5
 62
     0
340
22
144
0.25
309
CONTENTFORMAT_END
171
     0
 94
        0
309
TABLEFORMAT_END
  1
CELLSTYLE_BEGIN
 90
        1
 91
        1
300
_TITLE
309
CELLSTYLE_END
300
CELLSTYLE
  1
TABLEFORMAT_BEGIN
 90
        5
170
     1
 91
        0
 92
        0
 62
   257
 93
        1
300
CONTENTFORMAT
  1
CONTENTFORMAT_BEGIN
 90
        0
 91
        0
 92
      512
 93
        0
300

 40
0.0
140
1.0
 94
        5
 62
     0
340
22
144
0.18
309
CONTENTFORMAT_END
171
     0
 94
        0
309
TABLEFORMAT_END
  1
CELLSTYLE_BEGIN
 90
        2
 91
        1
300
_HEADER
309
CELLSTYLE_END
300
CELLSTYLE
  1
TABLEFORMAT_BEGIN
 90
        5
170
     1
 91
        0
 92
        0
 62
   257
 93
        1
300
CONTENTFORMAT
  1
CONTENTFORMAT_BEGIN
 90
        0
 91
        0
 92
      512
 93
        0
300

 40
0.0
140
1.0
 94
        2
 62
     0
340
22
144
0.18
309
CONTENTFORMAT_END
171
     0
 94
        0
309
TABLEFORMAT_END
  1
CELLSTYLE_BEGIN
 90
        3
 91
        2
300
_DATA
309
CELLSTYLE_END
  0
XRECORD
  5
1F6
102
{ACAD_REACTORS
330
4D
102
}
330
4D
100
AcDbXrecord
280
     1
102
ACAD_ROUNDTRIP_PRE2007_TABLESTYLE
 90
      512
 91
        0
  1

 92
      512
 93
        0
  2

 94
      512
 95
        0
  3

  0
XRECORD
  5
1F3
102
{ACAD_REACTORS
330
1F2
102
}
330
1F2
100
AcDbXrecord
280
     1
102
RTVSPropertyOp0
 70
     1
102
RTVSPropertyOp1
 70
     1
102
RTVSPropertyOp2
 70
     1
102
RTVSPropertyOp3
 70
     1
102
RTVSPropertyOp4
 70
     1
102
RTVSPropertyOp5
 70
     1
102
RTVSPropertyOp6
 70
     1
102
RTVSPropertyOp7
 70
     1
102
RTVSPropertyOp8
 70
     1
102
RTVSPropertyOp9
 70
     1
102
RTVSPropertyOp10
 70
     1
102
RTVSPropertyOp11
 70
     1
102
RTVSPropertyOp12
 70
     1
102
RTVSPropertyOp13
 70
     1
102
RTVSPropertyOp14
 70
     1
102
RTVSPropertyOp15
 70
     1
102
RTVSPropertyOp16
 70
     1
102
RTVSPropertyOp17
 70
     1
102
RTVSPropertyOp18
 70
     1
102
RTVSPropertyOp19
 70
     1
102
RTVSPropertyOp20
 70
     1
102
RTVSPropertyOp21
 70
     1
102
RTVSPropertyOp22
 70
     1
102
RTVSPropertyOp23
 70
     1
102
RTVSPropertyOp24
 70
     1
102
RTVSPropertyOp25
 70
     1
102
RTVSPropertyOp26
 70
     1
102
RTVSPropertyOp27
 70
     1
102
RTVSPropertyOp28
 70
     1
102
RTVSPropertyOp29
 70
     1
102
RTVSPropertyOp30
 70
     1
102
RTVSPropertyOp31
 70
     1
102
RTVSPropertyOp32
 70
     1
  0
XRECORD
  5
204
102
{ACAD_REACTORS
330
203
102
}
330
203
100
AcDbXrecord
280
     1
102
RTVSPropertyOp0
 70
     1
102
RTVSPropertyOp1
 70
     1
102
RTVSPropertyOp2
 70
     1
102
RTVSPropertyOp3
 70
     1
102
RTVSPropertyOp4
 70
     1
102
RTVSPropertyOp5
 70
     1
102
RTVSPropertyOp6
 70
     1
102
RTVSPropertyOp7
 70
     1
102
RTVSPropertyOp8
 70
     1
102
RTVSPropertyOp9
 70
     1
102
RTVSPropertyOp10
 70
     1
102
RTVSPropertyOp11
 70
     1
102
RTVSPropertyOp12
 70
     1
102
RTVSPropertyOp13
 70
     1
102
RTVSPropertyOp14
 70
     1
102
RTVSPropertyOp15
 70
     1
102
RTVSPropertyOp16
 70
     1
102
RTVSPropertyOp17
 70
     1
102
RTVSPropertyOp18
 70
     1
102
RTVSPropertyOp19
 70
     1
102
RTVSPropertyOp20
 70
     1
102
RTVSPropertyOp21
 70
     1
102
RTVSPropertyOp22
 70
     1
102
RTVSPropertyOp23
 70
     1
102
RTVSPropertyOp24
 70
     1
102
RTVSPropertyOp25
 70
     1
102
RTVSPropertyOp26
 70
     1
102
RTVSPropertyOp27
 70
     1
102
RTVSPropertyOp28
 70
     1
102
RTVSPropertyOp29
 70
     1
102
RTVSPropertyOp30
 70
     1
102
RTVSPropertyOp31
 70
     1
102
RTVSPropertyOp32
 70
     1
  0
XRECORD
  5
20C
102
{ACAD_REACTORS
330
20B
102
}
330
20B
100
AcDbXrecord
280
     1
102
RTVSPropertyOp0
 70
     1
102
RTVSPropertyOp1
 70
     1
102
RTVSPropertyOp2
 70
     1
102
RTVSPropertyOp3
 70
     1
102
RTVSPropertyOp4
 70
     1
102
RTVSPropertyOp5
 70
     1
102
RTVSPropertyOp6
 70
     1
102
RTVSPropertyOp7
 70
     1
102
RTVSPropertyOp8
 70
     1
102
RTVSPropertyOp9
 70
     1
102
RTVSPropertyOp10
 70
     1
102
RTVSPropertyOp11
 70
     1
102
RTVSPropertyOp12
 70
     1
102
RTVSPropertyOp13
 70
     1
102
RTVSPropertyOp14
 70
     1
102
RTVSPropertyOp15
 70
     1
102
RTVSPropertyOp16
 70
     1
102
RTVSPropertyOp17
 70
     1
102
RTVSPropertyOp18
 70
     1
102
RTVSPropertyOp19
 70
     1
102
RTVSPropertyOp20
 70
     1
102
RTVSPropertyOp21
 70
     1
102
RTVSPropertyOp22
 70
     1
102
RTVSPropertyOp23
 70
     1
102
RTVSPropertyOp24
 70
     1
102
RTVSPropertyOp25
 70
     1
102
RTVSPropertyOp26
 70
     1
102
RTVSPropertyOp27
 70
     1
102
RTVSPropertyOp28
 70
     1
102
RTVSPropertyOp29
 70
     1
102
RTVSPropertyOp30
 70
     1
102
RTVSPropertyOp31
 70
     1
102
RTVSPropertyOp32
 70
     1
  0
XRECORD
  5
214
102
{ACAD_REACTORS
330
213
102
}
330
213
100
AcDbXrecord
280
     1
102
RTVSPropertyOp0
 70
     1
102
RTVSPropertyOp1
 70
     1
102
RTVSPropertyOp2
 70
     1
102
RTVSPropertyOp3
 70
     1
102
RTVSPropertyOp4
 70
     1
102
RTVSPropertyOp5
 70
     1
102
RTVSPropertyOp6
 70
     1
102
RTVSPropertyOp7
 70
     1
102
RTVSPropertyOp8
 70
     1
102
RTVSPropertyOp9
 70
     1
102
RTVSPropertyOp10
 70
     1
102
RTVSPropertyOp11
 70
     1
102
RTVSPropertyOp12
 70
     1
102
RTVSPropertyOp13
 70
     1
102
RTVSPropertyOp14
 70
     1
102
RTVSPropertyOp15
 70
     1
102
RTVSPropertyOp16
 70
     1
102
RTVSPropertyOp17
 70
     1
102
RTVSPropertyOp18
 70
     1
102
RTVSPropertyOp19
 70
     1
102
RTVSPropertyOp20
 70
     1
102
RTVSPropertyOp21
 70
     1
102
RTVSPropertyOp22
 70
     1
102
RTVSPropertyOp23
 70
     1
102
RTVSPropertyOp24
 70
     1
102
RTVSPropertyOp25
 70
     1
102
RTVSPropertyOp26
 70
     1
102
RTVSPropertyOp27
 70
     1
102
RTVSPropertyOp28
 70
     1
102
RTVSPropertyOp29
 70
     1
102
RTVSPropertyOp30
 70
     1
102
RTVSPropertyOp31
 70
     1
102
RTVSPropertyOp32
 70
     1
  0
XRECORD
  5
208
102
{ACAD_REACTORS
330
207
102
}
330
207
100
AcDbXrecord
280
     1
102
RTVSPropertyOp0
 70
     1
102
RTVSPropertyOp1
 70
     1
102
RTVSPropertyOp2
 70
     1
102
RTVSPropertyOp3
 70
     1
102
RTVSPropertyOp4
 70
     1
102
RTVSPropertyOp5
 70
     1
102
RTVSPropertyOp6
 70
     1
102
RTVSPropertyOp7
 70
     1
102
RTVSPropertyOp8
 70
     1
102
RTVSPropertyOp9
 70
     1
102
RTVSPropertyOp10
 70
     1
102
RTVSPropertyOp11
 70
     1
102
RTVSPropertyOp12
 70
     1
102
RTVSPropertyOp13
 70
     1
102
RTVSPropertyOp14
 70
     1
102
RTVSPropertyOp15
 70
     1
102
RTVSPropertyOp16
 70
     1
102
RTVSPropertyOp17
 70
     1
102
RTVSPropertyOp18
 70
     1
102
RTVSPropertyOp19
 70
     1
102
RTVSPropertyOp20
 70
     1
102
RTVSPropertyOp21
 70
     1
102
RTVSPropertyOp22
 70
     1
102
RTVSPropertyOp23
 70
     1
102
RTVSPropertyOp24
 70
     1
102
RTVSPropertyOp25
 70
     1
102
RTVSPropertyOp26
 70
     1
102
RTVSPropertyOp27
 70
     1
102
RTVSPropertyOp28
 70
     1
102
RTVSPropertyOp29
 70
     1
102
RTVSPropertyOp30
 70
     1
102
RTVSPropertyOp31
 70
     1
102
RTVSPropertyOp32
 70
     1
  0
XRECORD
  5
20A
102
{ACAD_REACTORS
330
209
102
}
330
209
100
AcDbXrecord
280
     1
102
RTVSPropertyOp0
 70
     1
102
RTVSPropertyOp1
 70
     1
102
RTVSPropertyOp2
 70
     1
102
RTVSPropertyOp3
 70
     1
102
RTVSPropertyOp4
 70
     1
102
RTVSPropertyOp5
 70
     1
102
RTVSPropertyOp6
 70
     1
102
RTVSPropertyOp7
 70
     1
102
RTVSPropertyOp8
 70
     1
102
RTVSPropertyOp9
 70
     1
102
RTVSPropertyOp10
 70
     1
102
RTVSPropertyOp11
 70
     1
102
RTVSPropertyOp12
 70
     1
102
RTVSPropertyOp13
 70
     1
102
RTVSPropertyOp14
 70
     1
102
RTVSPropertyOp15
 70
     1
102
RTVSPropertyOp16
 70
     1
102
RTVSPropertyOp17
 70
     1
102
RTVSPropertyOp18
 70
     1
102
RTVSPropertyOp19
 70
     1
102
RTVSPropertyOp20
 70
     1
102
RTVSPropertyOp21
 70
     1
102
RTVSPropertyOp22
 70
     1
102
RTVSPropertyOp23
 70
     1
102
RTVSPropertyOp24
 70
     1
102
RTVSPropertyOp25
 70
     1
102
RTVSPropertyOp26
 70
     1
102
RTVSPropertyOp27
 70
     1
102
RTVSPropertyOp28
 70
     1
102
RTVSPropertyOp29
 70
     1
102
RTVSPropertyOp30
 70
     1
102
RTVSPropertyOp31
 70
     1
102
RTVSPropertyOp32
 70
     1
  0
XRECORD
  5
224
102
{ACAD_REACTORS
330
223
102
}
330
223
100
AcDbXrecord
280
     1
102
RTVSPropertyOp0
 70
     0
102
RTVSPropertyOp1
 70
     0
102
RTVSPropertyOp2
 70
     0
102
RTVSPropertyOp3
 70
     0
102
RTVSPropertyOp4
 70
     0
102
RTVSPropertyOp5
 70
     0
102
RTVSPropertyOp6
 70
     0
102
RTVSPropertyOp7
 70
     0
102
RTVSPropertyOp8
 70
     0
102
RTVSPropertyOp9
 70
     0
102
RTVSPropertyOp10
 70
     0
102
RTVSPropertyOp11
 70
     0
102
RTVSPropertyOp12
 70
     0
102
RTVSPropertyOp13
 70
     0
102
RTVSPropertyOp14
 70
     2
102
RTVSPropertyOp15
 70
     0
102
RTVSPropertyOp16
 70
     0
102
RTVSPropertyOp17
 70
     0
102
RTVSPropertyOp18
 70
     0
102
RTVSPropertyOp19
 70
     0
102
RTVSPropertyOp20
 70
     0
102
RTVSPropertyOp21
 70
     0
102
RTVSPropertyOp22
 70
     0
102
RTVSPropertyOp23
 70
     0
102
RTVSPropertyOp24
 70
     0
102
RTVSPropertyOp25
 70
     0
102
RTVSPropertyOp26
 70
     0
102
RTVSPropertyOp27
 70
     0
102
RTVSPropertyOp28
 70
     0
102
RTVSPropertyOp29
 70
     0
102
RTVSPropertyOp30
 70
     0
102
RTVSPropertyOp31
 70
     0
102
RTVSPropertyOp32
 70
     0
  0
XRECORD
  5
212
102
{ACAD_REACTORS
330
211
102
}
330
211
100
AcDbXrecord
280
     1
102
RTVSPropertyOp0
 70
     1
102
RTVSPropertyOp1
 70
     1
102
RTVSPropertyOp2
 70
     1
102
RTVSPropertyOp3
 70
     1
102
RTVSPropertyOp4
 70
     1
102
RTVSPropertyOp5
 70
     1
102
RTVSPropertyOp6
 70
     1
102
RTVSPropertyOp7
 70
     1
102
RTVSPropertyOp8
 70
     1
102
RTVSPropertyOp9
 70
     1
102
RTVSPropertyOp10
 70
     1
102
RTVSPropertyOp11
 70
     1
102
RTVSPropertyOp12
 70
     1
102
RTVSPropertyOp13
 70
     1
102
RTVSPropertyOp14
 70
     1
102
RTVSPropertyOp15
 70
     1
102
RTVSPropertyOp16
 70
     1
102
RTVSPropertyOp17
 70
     1
102
RTVSPropertyOp18
 70
     1
102
RTVSPropertyOp19
 70
     1
102
RTVSPropertyOp20
 70
     1
102
RTVSPropertyOp21
 70
     1
102
RTVSPropertyOp22
 70
     1
102
RTVSPropertyOp23
 70
     1
102
RTVSPropertyOp24
 70
     1
102
RTVSPropertyOp25
 70
     1
102
RTVSPropertyOp26
 70
     1
102
RTVSPropertyOp27
 70
     1
102
RTVSPropertyOp28
 70
     1
102
RTVSPropertyOp29
 70
     1
102
RTVSPropertyOp30
 70
     1
102
RTVSPropertyOp31
 70
     1
102
RTVSPropertyOp32
 70
     1
  0
XRECORD
  5
1FC
102
{ACAD_REACTORS
330
1FB
102
}
330
1FB
100
AcDbXrecord
280
     1
102
RTVSPropertyOp0
 70
     1
102
RTVSPropertyOp1
 70
     1
102
RTVSPropertyOp2
 70
     1
102
RTVSPropertyOp3
 70
     1
102
RTVSPropertyOp4
 70
     1
102
RTVSPropertyOp5
 70
     1
102
RTVSPropertyOp6
 70
     1
102
RTVSPropertyOp7
 70
     1
102
RTVSPropertyOp8
 70
     1
102
RTVSPropertyOp9
 70
     1
102
RTVSPropertyOp10
 70
     1
102
RTVSPropertyOp11
 70
     1
102
RTVSPropertyOp12
 70
     1
102
RTVSPropertyOp13
 70
     1
102
RTVSPropertyOp14
 70
     1
102
RTVSPropertyOp15
 70
     1
102
RTVSPropertyOp16
 70
     1
102
RTVSPropertyOp17
 70
     1
102
RTVSPropertyOp18
 70
     1
102
RTVSPropertyOp19
 70
     1
102
RTVSPropertyOp20
 70
     1
102
RTVSPropertyOp21
 70
     1
102
RTVSPropertyOp22
 70
     1
102
RTVSPropertyOp23
 70
     1
102
RTVSPropertyOp24
 70
     1
102
RTVSPropertyOp25
 70
     1
102
RTVSPropertyOp26
 70
     1
102
RTVSPropertyOp27
 70
     1
102
RTVSPropertyOp28
 70
     1
102
RTVSPropertyOp29
 70
     1
102
RTVSPropertyOp30
 70
     1
102
RTVSPropertyOp31
 70
     1
102
RTVSPropertyOp32
 70
     1
  0
XRECORD
  5
1FE
102
{ACAD_REACTORS
330
1FD
102
}
330
1FD
100
AcDbXrecord
280
     1
102
RTVSPropertyOp0
 70
     1
102
RTVSPropertyOp1
 70
     1
102
RTVSPropertyOp2
 70
     1
102
RTVSPropertyOp3
 70
     1
102
RTVSPropertyOp4
 70
     1
102
RTVSPropertyOp5
 70
     1
102
RTVSPropertyOp6
 70
     1
102
RTVSPropertyOp7
 70
     1
102
RTVSPropertyOp8
 70
     1
102
RTVSPropertyOp9
 70
     1
102
RTVSPropertyOp10
 70
     1
102
RTVSPropertyOp11
 70
     1
102
RTVSPropertyOp12
 70
     1
102
RTVSPropertyOp13
 70
     1
102
RTVSPropertyOp14
 70
     1
102
RTVSPropertyOp15
 70
     1
102
RTVSPropertyOp16
 70
     1
102
RTVSPropertyOp17
 70
     1
102
RTVSPropertyOp18
 70
     1
102
RTVSPropertyOp19
 70
     1
102
RTVSPropertyOp20
 70
     1
102
RTVSPropertyOp21
 70
     1
102
RTVSPropertyOp22
 70
     1
102
RTVSPropertyOp23
 70
     1
102
RTVSPropertyOp24
 70
     1
102
RTVSPropertyOp25
 70
     1
102
RTVSPropertyOp26
 70
     1
102
RTVSPropertyOp27
 70
     1
102
RTVSPropertyOp28
 70
     1
102
RTVSPropertyOp29
 70
     1
102
RTVSPropertyOp30
 70
     1
102
RTVSPropertyOp31
 70
     1
102
RTVSPropertyOp32
 70
     1
  0
XRECORD
  5
200
102
{ACAD_REACTORS
330
1FF
102
}
330
1FF
100
AcDbXrecord
280
     1
102
RTVSPropertyOp0
 70
     1
102
RTVSPropertyOp1
 70
     1
102
RTVSPropertyOp2
 70
     1
102
RTVSPropertyOp3
 70
     1
102
RTVSPropertyOp4
 70
     1
102
RTVSPropertyOp5
 70
     1
102
RTVSPropertyOp6
 70
     1
102
RTVSPropertyOp7
 70
     1
102
RTVSPropertyOp8
 70
     1
102
RTVSPropertyOp9
 70
     1
102
RTVSPropertyOp10
 70
     1
102
RTVSPropertyOp11
 70
     1
102
RTVSPropertyOp12
 70
     1
102
RTVSPropertyOp13
 70
     1
102
RTVSPropertyOp14
 70
     1
102
RTVSPropertyOp15
 70
     1
102
RTVSPropertyOp16
 70
     1
102
RTVSPropertyOp17
 70
     1
102
RTVSPropertyOp18
 70
     1
102
RTVSPropertyOp19
 70
     1
102
RTVSPropertyOp20
 70
     1
102
RTVSPropertyOp21
 70
     1
102
RTVSPropertyOp22
 70
     1
102
RTVSPropertyOp23
 70
     1
102
RTVSPropertyOp24
 70
     1
102
RTVSPropertyOp25
 70
     1
102
RTVSPropertyOp26
 70
     1
102
RTVSPropertyOp27
 70
     1
102
RTVSPropertyOp28
 70
     1
102
RTVSPropertyOp29
 70
     1
102
RTVSPropertyOp30
 70
     1
102
RTVSPropertyOp31
 70
     1
102
RTVSPropertyOp32
 70
     1
  0
XRECORD
  5
202
102
{ACAD_REACTORS
330
201
102
}
330
201
100
AcDbXrecord
280
     1
102
RTVSPropertyOp0
 70
     1
102
RTVSPropertyOp1
 70
     1
102
RTVSPropertyOp2
 70
     1
102
RTVSPropertyOp3
 70
     1
102
RTVSPropertyOp4
 70
     1
102
RTVSPropertyOp5
 70
     1
102
RTVSPropertyOp6
 70
     1
102
RTVSPropertyOp7
 70
     1
102
RTVSPropertyOp8
 70
     1
102
RTVSPropertyOp9
 70
     1
102
RTVSPropertyOp10
 70
     1
102
RTVSPropertyOp11
 70
     1
102
RTVSPropertyOp12
 70
     1
102
RTVSPropertyOp13
 70
     1
102
RTVSPropertyOp14
 70
     1
102
RTVSPropertyOp15
 70
     1
102
RTVSPropertyOp16
 70
     1
102
RTVSPropertyOp17
 70
     1
102
RTVSPropertyOp18
 70
     1
102
RTVSPropertyOp19
 70
     1
102
RTVSPropertyOp20
 70
     1
102
RTVSPropertyOp21
 70
     1
102
RTVSPropertyOp22
 70
     1
102
RTVSPropertyOp23
 70
     1
102
RTVSPropertyOp24
 70
     1
102
RTVSPropertyOp25
 70
     1
102
RTVSPropertyOp26
 70
     1
102
RTVSPropertyOp27
 70
     1
102
RTVSPropertyOp28
 70
     1
102
RTVSPropertyOp29
 70
     1
102
RTVSPropertyOp30
 70
     1
102
RTVSPropertyOp31
 70
     1
102
RTVSPropertyOp32
 70
     1
  0
XRECORD
  5
206
102
{ACAD_REACTORS
330
205
102
}
330
205
100
AcDbXrecord
280
     1
102
RTVSPropertyOp0
 70
     1
102
RTVSPropertyOp1
 70
     1
102
RTVSPropertyOp2
 70
     1
102
RTVSPropertyOp3
 70
     1
102
RTVSPropertyOp4
 70
     1
102
RTVSPropertyOp5
 70
     1
102
RTVSPropertyOp6
 70
     1
102
RTVSPropertyOp7
 70
     1
102
RTVSPropertyOp8
 70
     1
102
RTVSPropertyOp9
 70
     1
102
RTVSPropertyOp10
 70
     1
102
RTVSPropertyOp11
 70
     1
102
RTVSPropertyOp12
 70
     1
102
RTVSPropertyOp13
 70
     1
102
RTVSPropertyOp14
 70
     1
102
RTVSPropertyOp15
 70
     1
102
RTVSPropertyOp16
 70
     1
102
RTVSPropertyOp17
 70
     1
102
RTVSPropertyOp18
 70
     1
102
RTVSPropertyOp19
 70
     1
102
RTVSPropertyOp20
 70
     1
102
RTVSPropertyOp21
 70
     1
102
RTVSPropertyOp22
 70
     1
102
RTVSPropertyOp23
 70
     1
102
RTVSPropertyOp24
 70
     1
102
RTVSPropertyOp25
 70
     1
102
RTVSPropertyOp26
 70
     1
102
RTVSPropertyOp27
 70
     1
102
RTVSPropertyOp28
 70
     1
102
RTVSPropertyOp29
 70
     1
102
RTVSPropertyOp30
 70
     1
102
RTVSPropertyOp31
 70
     1
102
RTVSPropertyOp32
 70
     1
  0
XRECORD
  5
220
102
{ACAD_REACTORS
330
21F
102
}
330
21F
100
AcDbXrecord
280
     1
102
RTVSPropertyOp0
 70
     0
102
RTVSPropertyOp1
 70
     0
102
RTVSPropertyOp2
 70
     0
102
RTVSPropertyOp3
 70
     0
102
RTVSPropertyOp4
 70
     0
102
RTVSPropertyOp5
 70
     0
102
RTVSPropertyOp6
 70
     0
102
RTVSPropertyOp7
 70
     0
102
RTVSPropertyOp8
 70
     0
102
RTVSPropertyOp9
 70
     0
102
RTVSPropertyOp10
 70
     0
102
RTVSPropertyOp11
 70
     0
102
RTVSPropertyOp12
 70
     0
102
RTVSPropertyOp13
 70
     0
102
RTVSPropertyOp14
 70
     2
102
RTVSPropertyOp15
 70
     0
102
RTVSPropertyOp16
 70
     0
102
RTVSPropertyOp17
 70
     0
102
RTVSPropertyOp18
 70
     0
102
RTVSPropertyOp19
 70
     0
102
RTVSPropertyOp20
 70
     0
102
RTVSPropertyOp21
 70
     0
102
RTVSPropertyOp22
 70
     0
102
RTVSPropertyOp23
 70
     0
102
RTVSPropertyOp24
 70
     0
102
RTVSPropertyOp25
 70
     0
102
RTVSPropertyOp26
 70
     0
102
RTVSPropertyOp27
 70
     0
102
RTVSPropertyOp28
 70
     0
102
RTVSPropertyOp29
 70
     0
102
RTVSPropertyOp30
 70
     0
102
RTVSPropertyOp31
 70
     0
102
RTVSPropertyOp32
 70
     0
  0
XRECORD
  5
210
102
{ACAD_REACTORS
330
20F
102
}
330
20F
100
AcDbXrecord
280
     1
102
RTVSPropertyOp0
 70
     1
102
RTVSPropertyOp1
 70
     1
102
RTVSPropertyOp2
 70
     1
102
RTVSPropertyOp3
 70
     1
102
RTVSPropertyOp4
 70
     1
102
RTVSPropertyOp5
 70
     1
102
RTVSPropertyOp6
 70
     1
102
RTVSPropertyOp7
 70
     1
102
RTVSPropertyOp8
 70
     1
102
RTVSPropertyOp9
 70
     1
102
RTVSPropertyOp10
 70
     1
102
RTVSPropertyOp11
 70
     1
102
RTVSPropertyOp12
 70
     1
102
RTVSPropertyOp13
 70
     1
102
RTVSPropertyOp14
 70
     1
102
RTVSPropertyOp15
 70
     1
102
RTVSPropertyOp16
 70
     1
102
RTVSPropertyOp17
 70
     1
102
RTVSPropertyOp18
 70
     1
102
RTVSPropertyOp19
 70
     1
102
RTVSPropertyOp20
 70
     1
102
RTVSPropertyOp21
 70
     1
102
RTVSPropertyOp22
 70
     1
102
RTVSPropertyOp23
 70
     1
102
RTVSPropertyOp24
 70
     1
102
RTVSPropertyOp25
 70
     1
102
RTVSPropertyOp26
 70
     1
102
RTVSPropertyOp27
 70
     1
102
RTVSPropertyOp28
 70
     1
102
RTVSPropertyOp29
 70
     1
102
RTVSPropertyOp30
 70
     1
102
RTVSPropertyOp31
 70
     1
102
RTVSPropertyOp32
 70
     1
  0
XRECORD
  5
222
102
{ACAD_REACTORS
330
221
102
}
330
221
100
AcDbXrecord
280
     1
102
RTVSPropertyOp0
 70
     0
102
RTVSPropertyOp1
 70
     0
102
RTVSPropertyOp2
 70
     0
102
RTVSPropertyOp3
 70
     0
102
RTVSPropertyOp4
 70
     0
102
RTVSPropertyOp5
 70
     0
102
RTVSPropertyOp6
 70
     0
102
RTVSPropertyOp7
 70
     0
102
RTVSPropertyOp8
 70
     0
102
RTVSPropertyOp9
 70
     0
102
RTVSPropertyOp10
 70
     0
102
RTVSPropertyOp11
 70
     0
102
RTVSPropertyOp12
 70
     0
102
RTVSPropertyOp13
 70
     0
102
RTVSPropertyOp14
 70
     2
102
RTVSPropertyOp15
 70
     0
102
RTVSPropertyOp16
 70
     0
102
RTVSPropertyOp17
 70
     0
102
RTVSPropertyOp18
 70
     0
102
RTVSPropertyOp19
 70
     0
102
RTVSPropertyOp20
 70
     0
102
RTVSPropertyOp21
 70
     0
102
RTVSPropertyOp22
 70
     0
102
RTVSPropertyOp23
 70
     0
102
RTVSPropertyOp24
 70
     0
102
RTVSPropertyOp25
 70
     0
102
RTVSPropertyOp26
 70
     0
102
RTVSPropertyOp27
 70
     0
102
RTVSPropertyOp28
 70
     0
102
RTVSPropertyOp29
 70
     0
102
RTVSPropertyOp30
 70
     0
102
RTVSPropertyOp31
 70
     0
102
RTVSPropertyOp32
 70
     0
  0
XRECORD
  5
1F8
102
{ACAD_REACTORS
330
1F7
102
}
330
1F7
100
AcDbXrecord
280
     1
102
RTVSPropertyOp0
 70
     1
102
RTVSPropertyOp1
 70
     1
102
RTVSPropertyOp2
 70
     1
102
RTVSPropertyOp3
 70
     1
102
RTVSPropertyOp4
 70
     1
102
RTVSPropertyOp5
 70
     1
102
RTVSPropertyOp6
 70
     1
102
RTVSPropertyOp7
 70
     1
102
RTVSPropertyOp8
 70
     1
102
RTVSPropertyOp9
 70
     1
102
RTVSPropertyOp10
 70
     1
102
RTVSPropertyOp11
 70
     1
102
RTVSPropertyOp12
 70
     1
102
RTVSPropertyOp13
 70
     1
102
RTVSPropertyOp14
 70
     1
102
RTVSPropertyOp15
 70
     1
102
RTVSPropertyOp16
 70
     1
102
RTVSPropertyOp17
 70
     1
102
RTVSPropertyOp18
 70
     1
102
RTVSPropertyOp19
 70
     1
102
RTVSPropertyOp20
 70
     1
102
RTVSPropertyOp21
 70
     1
102
RTVSPropertyOp22
 70
     1
102
RTVSPropertyOp23
 70
     1
102
RTVSPropertyOp24
 70
     1
102
RTVSPropertyOp25
 70
     1
102
RTVSPropertyOp26
 70
     1
102
RTVSPropertyOp27
 70
     1
102
RTVSPropertyOp28
 70
     1
102
RTVSPropertyOp29
 70
     1
102
RTVSPropertyOp30
 70
     1
102
RTVSPropertyOp31
 70
     1
102
RTVSPropertyOp32
 70
     1
  0
XRECORD
  5
21E
102
{ACAD_REACTORS
330
21D
102
}
330
21D
100
AcDbXrecord
280
     1
102
RTVSPropertyOp0
 70
     1
102
RTVSPropertyOp1
 70
     1
102
RTVSPropertyOp2
 70
     1
102
RTVSPropertyOp3
 70
     1
102
RTVSPropertyOp4
 70
     1
102
RTVSPropertyOp5
 70
     1
102
RTVSPropertyOp6
 70
     1
102
RTVSPropertyOp7
 70
     1
102
RTVSPropertyOp8
 70
     1
102
RTVSPropertyOp9
 70
     1
102
RTVSPropertyOp10
 70
     1
102
RTVSPropertyOp11
 70
     1
102
RTVSPropertyOp12
 70
     1
102
RTVSPropertyOp13
 70
     1
102
RTVSPropertyOp14
 70
     1
102
RTVSPropertyOp15
 70
     1
102
RTVSPropertyOp16
 70
     1
102
RTVSPropertyOp17
 70
     1
102
RTVSPropertyOp18
 70
     1
102
RTVSPropertyOp19
 70
     1
102
RTVSPropertyOp20
 70
     1
102
RTVSPropertyOp21
 70
     1
102
RTVSPropertyOp22
 70
     1
102
RTVSPropertyOp23
 70
     1
102
RTVSPropertyOp24
 70
     1
102
RTVSPropertyOp25
 70
     1
102
RTVSPropertyOp26
 70
     1
102
RTVSPropertyOp27
 70
     1
102
RTVSPropertyOp28
 70
     1
102
RTVSPropertyOp29
 70
     1
102
RTVSPropertyOp30
 70
     1
102
RTVSPropertyOp31
 70
     1
102
RTVSPropertyOp32
 70
     1
  0
XRECORD
  5
21C
102
{ACAD_REACTORS
330
21B
102
}
330
21B
100
AcDbXrecord
280
     1
102
RTVSPropertyOp0
 70
     1
102
RTVSPropertyOp1
 70
     1
102
RTVSPropertyOp2
 70
     1
102
RTVSPropertyOp3
 70
     1
102
RTVSPropertyOp4
 70
     1
102
RTVSPropertyOp5
 70
     1
102
RTVSPropertyOp6
 70
     1
102
RTVSPropertyOp7
 70
     1
102
RTVSPropertyOp8
 70
     1
102
RTVSPropertyOp9
 70
     1
102
RTVSPropertyOp10
 70
     1
102
RTVSPropertyOp11
 70
     1
102
RTVSPropertyOp12
 70
     1
102
RTVSPropertyOp13
 70
     1
102
RTVSPropertyOp14
 70
     1
102
RTVSPropertyOp15
 70
     1
102
RTVSPropertyOp16
 70
     1
102
RTVSPropertyOp17
 70
     1
102
RTVSPropertyOp18
 70
     1
102
RTVSPropertyOp19
 70
     1
102
RTVSPropertyOp20
 70
     1
102
RTVSPropertyOp21
 70
     1
102
RTVSPropertyOp22
 70
     1
102
RTVSPropertyOp23
 70
     1
102
RTVSPropertyOp24
 70
     1
102
RTVSPropertyOp25
 70
     1
102
RTVSPropertyOp26
 70
     1
102
RTVSPropertyOp27
 70
     1
102
RTVSPropertyOp28
 70
     1
102
RTVSPropertyOp29
 70
     1
102
RTVSPropertyOp30
 70
     1
102
RTVSPropertyOp31
 70
     1
102
RTVSPropertyOp32
 70
     1
  0
XRECORD
  5
216
102
{ACAD_REACTORS
330
215
102
}
330
215
100
AcDbXrecord
280
     1
102
RTVSPropertyOp0
 70
     1
102
RTVSPropertyOp1
 70
     1
102
RTVSPropertyOp2
 70
     1
102
RTVSPropertyOp3
 70
     1
102
RTVSPropertyOp4
 70
     1
102
RTVSPropertyOp5
 70
     1
102
RTVSPropertyOp6
 70
     1
102
RTVSPropertyOp7
 70
     1
102
RTVSPropertyOp8
 70
     1
102
RTVSPropertyOp9
 70
     1
102
RTVSPropertyOp10
 70
     1
102
RTVSPropertyOp11
 70
     1
102
RTVSPropertyOp12
 70
     1
102
RTVSPropertyOp13
 70
     1
102
RTVSPropertyOp14
 70
     1
102
RTVSPropertyOp15
 70
     1
102
RTVSPropertyOp16
 70
     1
102
RTVSPropertyOp17
 70
     1
102
RTVSPropertyOp18
 70
     1
102
RTVSPropertyOp19
 70
     1
102
RTVSPropertyOp20
 70
     1
102
RTVSPropertyOp21
 70
     1
102
RTVSPropertyOp22
 70
     1
102
RTVSPropertyOp23
 70
     1
102
RTVSPropertyOp24
 70
     1
102
RTVSPropertyOp25
 70
     1
102
RTVSPropertyOp26
 70
     1
102
RTVSPropertyOp27
 70
     1
102
RTVSPropertyOp28
 70
     1
102
RTVSPropertyOp29
 70
     1
102
RTVSPropertyOp30
 70
     1
102
RTVSPropertyOp31
 70
     1
102
RTVSPropertyOp32
 70
     1
  0
XRECORD
  5
218
102
{ACAD_REACTORS
330
217
102
}
330
217
100
AcDbXrecord
280
     1
102
RTVSPropertyOp0
 70
     1
102
RTVSPropertyOp1
 70
     1
102
RTVSPropertyOp2
 70
     1
102
RTVSPropertyOp3
 70
     1
102
RTVSPropertyOp4
 70
     1
102
RTVSPropertyOp5
 70
     1
102
RTVSPropertyOp6
 70
     1
102
RTVSPropertyOp7
 70
     1
102
RTVSPropertyOp8
 70
     1
102
RTVSPropertyOp9
 70
     1
102
RTVSPropertyOp10
 70
     1
102
RTVSPropertyOp11
 70
     1
102
RTVSPropertyOp12
 70
     1
102
RTVSPropertyOp13
 70
     1
102
RTVSPropertyOp14
 70
     1
102
RTVSPropertyOp15
 70
     1
102
RTVSPropertyOp16
 70
     1
102
RTVSPropertyOp17
 70
     1
102
RTVSPropertyOp18
 70
     1
102
RTVSPropertyOp19
 70
     1
102
RTVSPropertyOp20
 70
     1
102
RTVSPropertyOp21
 70
     1
102
RTVSPropertyOp22
 70
     1
102
RTVSPropertyOp23
 70
     1
102
RTVSPropertyOp24
 70
     1
102
RTVSPropertyOp25
 70
     1
102
RTVSPropertyOp26
 70
     1
102
RTVSPropertyOp27
 70
     1
102
RTVSPropertyOp28
 70
     1
102
RTVSPropertyOp29
 70
     1
102
RTVSPropertyOp30
 70
     1
102
RTVSPropertyOp31
 70
     1
102
RTVSPropertyOp32
 70
     1
  0
XRECORD
  5
20E
102
{ACAD_REACTORS
330
20D
102
}
330
20D
100
AcDbXrecord
280
     1
102
RTVSPropertyOp0
 70
     1
102
RTVSPropertyOp1
 70
     1
102
RTVSPropertyOp2
 70
     1
102
RTVSPropertyOp3
 70
     1
102
RTVSPropertyOp4
 70
     1
102
RTVSPropertyOp5
 70
     1
102
RTVSPropertyOp6
 70
     1
102
RTVSPropertyOp7
 70
     1
102
RTVSPropertyOp8
 70
     1
102
RTVSPropertyOp9
 70
     1
102
RTVSPropertyOp10
 70
     1
102
RTVSPropertyOp11
 70
     1
102
RTVSPropertyOp12
 70
     1
102
RTVSPropertyOp13
 70
     1
102
RTVSPropertyOp14
 70
     1
102
RTVSPropertyOp15
 70
     1
102
RTVSPropertyOp16
 70
     1
102
RTVSPropertyOp17
 70
     1
102
RTVSPropertyOp18
 70
     1
102
RTVSPropertyOp19
 70
     1
102
RTVSPropertyOp20
 70
     1
102
RTVSPropertyOp21
 70
     1
102
RTVSPropertyOp22
 70
     1
102
RTVSPropertyOp23
 70
     1
102
RTVSPropertyOp24
 70
     1
102
RTVSPropertyOp25
 70
     1
102
RTVSPropertyOp26
 70
     1
102
RTVSPropertyOp27
 70
     1
102
RTVSPropertyOp28
 70
     1
102
RTVSPropertyOp29
 70
     1
102
RTVSPropertyOp30
 70
     1
102
RTVSPropertyOp31
 70
     1
102
RTVSPropertyOp32
 70
     1
  0
XRECORD
  5
1FA
102
{ACAD_REACTORS
330
1F9
102
}
330
1F9
100
AcDbXrecord
280
     1
102
RTVSPropertyOp0
 70
     1
102
RTVSPropertyOp1
 70
     1
102
RTVSPropertyOp2
 70
     1
102
RTVSPropertyOp3
 70
     1
102
RTVSPropertyOp4
 70
     1
102
RTVSPropertyOp5
 70
     1
102
RTVSPropertyOp6
 70
     1
102
RTVSPropertyOp7
 70
     1
102
RTVSPropertyOp8
 70
     1
102
RTVSPropertyOp9
 70
     1
102
RTVSPropertyOp10
 70
     1
102
RTVSPropertyOp11
 70
     1
102
RTVSPropertyOp12
 70
     1
102
RTVSPropertyOp13
 70
     1
102
RTVSPropertyOp14
 70
     1
102
RTVSPropertyOp15
 70
     1
102
RTVSPropertyOp16
 70
     1
102
RTVSPropertyOp17
 70
     1
102
RTVSPropertyOp18
 70
     1
102
RTVSPropertyOp19
 70
     1
102
RTVSPropertyOp20
 70
     1
102
RTVSPropertyOp21
 70
     1
102
RTVSPropertyOp22
 70
     1
102
RTVSPropertyOp23
 70
     1
102
RTVSPropertyOp24
 70
     1
102
RTVSPropertyOp25
 70
     1
102
RTVSPropertyOp26
 70
     1
102
RTVSPropertyOp27
 70
     1
102
RTVSPropertyOp28
 70
     1
102
RTVSPropertyOp29
 70
     1
102
RTVSPropertyOp30
 70
     1
102
RTVSPropertyOp31
 70
     1
102
RTVSPropertyOp32
 70
     1
  0
XRECORD
  5
21A
102
{ACAD_REACTORS
330
219
102
}
330
219
100
AcDbXrecord
280
     1
102
RTVSPropertyOp0
 70
     1
102
RTVSPropertyOp1
 70
     1
102
RTVSPropertyOp2
 70
     1
102
RTVSPropertyOp3
 70
     1
102
RTVSPropertyOp4
 70
     1
102
RTVSPropertyOp5
 70
     1
102
RTVSPropertyOp6
 70
     1
102
RTVSPropertyOp7
 70
     1
102
RTVSPropertyOp8
 70
     1
102
RTVSPropertyOp9
 70
     1
102
RTVSPropertyOp10
 70
     1
102
RTVSPropertyOp11
 70
     1
102
RTVSPropertyOp12
 70
     1
102
RTVSPropertyOp13
 70
     1
102
RTVSPropertyOp14
 70
     1
102
RTVSPropertyOp15
 70
     1
102
RTVSPropertyOp16
 70
     1
102
RTVSPropertyOp17
 70
     1
102
RTVSPropertyOp18
 70
     1
102
RTVSPropertyOp19
 70
     1
102
RTVSPropertyOp20
 70
     1
102
RTVSPropertyOp21
 70
     1
102
RTVSPropertyOp22
 70
     1
102
RTVSPropertyOp23
 70
     1
102
RTVSPropertyOp24
 70
     1
102
RTVSPropertyOp25
 70
     1
102
RTVSPropertyOp26
 70
     1
102
RTVSPropertyOp27
 70
     1
102
RTVSPropertyOp28
 70
     1
102
RTVSPropertyOp29
 70
     1
102
RTVSPropertyOp30
 70
     1
102
RTVSPropertyOp31
 70
     1
102
RTVSPropertyOp32
 70
     1
  0
ENDSEC
  0
EOF
