  0
SECTION
  2
HEADER
  9
$ACADVER
  1
AC1015
  9
$ACADMAINTVER
 70
    18
  9
$DWGCODEPAGE
  3
ANSI_1252
  9
$INSBASE
 10
0.0
 20
0.0
 30
0.0
  9
$EXTMIN
 10
-249.5891241091176
 20
-27.93665884101847
 30
-0.0015258207003583
  9
$EXTMAX
 10
249.5165574607863
 20
820.0442981983581
 30
0.0000000349246037
  9
$LIMMIN
 10
0.0
 20
0.0
  9
$LIMMAX
 10
1189.0
 20
840.9999999999998
  9
$ORTHOMODE
 70
     0
  9
$REGENMODE
 70
     1
  9
$FILLMODE
 70
     1
  9
$QTEXTMODE
 70
     0
  9
$MIRRTEXT
 70
     0
  9
$LTSCALE
 40
1.0
  9
$ATTMODE
 70
     1
  9
$TEXTSIZE
 40
0.2
  9
$TRACEWID
 40
0.05
  9
$TEXTSTYLE
  7
STANDARD
  9
$CLAYER
  8
0
  9
$CELTYPE
  6
ByLayer
  9
$CECOLOR
 62
   256
  9
$CELTSCALE
 40
1.0
  9
$DISPSILH
 70
     0
  9
$DIMSCALE
 40
1.0
  9
$DIMASZ
 40
1800.0
  9
$DIMEXO
 40
0.0625
  9
$DIMDLI
 40
0.38
  9
$DIMRND
 40
0.0
  9
$DIMDLE
 40
0.0
  9
$DIMEXE
 40
0.18
  9
$DIMTP
 40
0.0
  9
$DIMTM
 40
0.0
  9
$DIMTXT
 40
349.9999940395354
  9
$DIMCEN
 40
0.09
  9
$DIMTSZ
 40
0.0
  9
$DIMTOL
 70
     0
  9
$DIMLIM
 70
     0
  9
$DIMTIH
 70
     1
  9
$DIMTOH
 70
     1
  9
$DIMSE1
 70
     0
  9
$DIMSE2
 70
     0
  9
$DIMTAD
 70
     0
  9
$DIMZIN
 70
     0
  9
$DIMBLK
  1

  9
$DIMASO
 70
     1
  9
$DIMSHO
 70
     1
  9
$DIMPOST
  1

  9
$DIMAPOST
  1

  9
$DIMALT
 70
     0
  9
$DIMALTD
 70
     2
  9
$DIMALTF
 40
25.4
  9
$DIMLFAC
 40
1.0
  9
$DIMTOFL
 70
     0
  9
$DIMTVP
 40
0.0
  9
$DIMTIX
 70
     0
  9
$DIMSOXD
 70
     0
  9
$DIMSAH
 70
     0
  9
$DIMBLK1
  1

  9
$DIMBLK2
  1

  9
$DIMSTYLE
  2
STANDARD
  9
$DIMCLRD
 70
     0
  9
$DIMCLRE
 70
     0
  9
$DIMCLRT
 70
     0
  9
$DIMTFAC
 40
1.0
  9
$DIMGAP
 40
0.09
  9
$DIMJUST
 70
     0
  9
$DIMSD1
 70
     0
  9
$DIMSD2
 70
     0
  9
$DIMTOLJ
 70
     1
  9
$DIMTZIN
 70
     0
  9
$DIMALTZ
 70
     0
  9
$DIMALTTZ
 70
     0
  9
$DIMUPT
 70
     0
  9
$DIMDEC
 70
     4
  9
$DIMTDEC
 70
     4
  9
$DIMALTU
 70
     2
  9
$DIMALTTD
 70
     2
  9
$DIMTXSTY
  7
STANDARD
  9
$DIMAUNIT
 70
     0
  9
$DIMADEC
 70
     0
  9
$DIMALTRND
 40
0.0
  9
$DIMAZIN
 70
     0
  9
$DIMDSEP
 70
    46
  9
$DIMATFIT
 70
     3
  9
$DIMFRAC
 70
     0
  9
$DIMLDRBLK
  1

  9
$DIMLUNIT
 70
     2
  9
$DIMLWD
 70
    -2
  9
$DIMLWE
 70
    -2
  9
$DIMTMOVE
 70
     0
  9
$LUNITS
 70
     2
  9
$LUPREC
 70
     4
  9
$SKETCHINC
 40
0.1
  9
$FILLETRAD
 40
0.0
  9
$AUNITS
 70
     0
  9
$AUPREC
 70
     0
  9
$MENU
  1
.
  9
$ELEVATION
 40
0.0
  9
$PELEVATION
 40
0.0
  9
$THICKNESS
 40
0.0
  9
$LIMCHECK
 70
     0
  9
$CHAMFERA
 40
0.0
  9
$CHAMFERB
 40
0.0
  9
$CHAMFERC
 40
0.0
  9
$CHAMFERD
 40
0.0
  9
$SKPOLY
 70
     0
  9
$TDCREATE
 40
2454871.497639329
  9
$TDUCREATE
 40
2454871.455972662
  9
$TDUPDATE
 40
2456373.356989143
  9
$TDUUPDATE
 40
2456373.315322477
  9
$TDINDWG
 40
0.0132077778
  9
$TDUSRTIMER
 40
0.0132077778
  9
$USRTIMER
 70
     1
  9
$ANGBASE
 50
0.0
  9
$ANGDIR
 70
     0
  9
$PDMODE
 70
     0
  9
$PDSIZE
 40
0.0
  9
$PLINEWID
 40
0.0
  9
$SPLFRAME
 70
     0
  9
$SPLINETYPE
 70
     6
  9
$SPLINESEGS
 70
     8
  9
$HANDSEED
  5
22C
  9
$SURFTAB1
 70
     6
  9
$SURFTAB2
 70
     6
  9
$SURFTYPE
 70
     6
  9
$SURFU
 70
     6
  9
$SURFV
 70
     6
  9
$UCSBASE
  2

  9
$UCSNAME
  2

  9
$UCSORG
 10
0.0
 20
0.0
 30
0.0
  9
$UCSXDIR
 10
1.0
 20
0.0
 30
0.0
  9
$UCSYDIR
 10
0.0
 20
1.0
 30
0.0
  9
$UCSORTHOREF
  2

  9
$UCSORTHOVIEW
 70
     0
  9
$UCSORGTOP
 10
0.0
 20
0.0
 30
0.0
  9
$UCSORGBOTTOM
 10
0.0
 20
0.0
 30
0.0
  9
$UCSORGLEFT
 10
0.0
 20
0.0
 30
0.0
  9
$UCSORGRIGHT
 10
0.0
 20
0.0
 30
0.0
  9
$UCSORGFRONT
 10
0.0
 20
0.0
 30
0.0
  9
$UCSORGBACK
 10
0.0
 20
0.0
 30
0.0
  9
$PUCSBASE
  2

  9
$PUCSNAME
  2

  9
$PUCSORG
 10
0.0
 20
0.0
 30
0.0
  9
$PUCSXDIR
 10
1.0
 20
0.0
 30
0.0
  9
$PUCSYDIR
 10
0.0
 20
1.0
 30
0.0
  9
$PUCSORTHOREF
  2

  9
$PUCSORTHOVIEW
 70
     0
  9
$PUCSORGTOP
 10
0.0
 20
0.0
 30
0.0
  9
$PUCSORGBOTTOM
 10
0.0
 20
0.0
 30
0.0
  9
$PUCSORGLEFT
 10
0.0
 20
0.0
 30
0.0
  9
$PUCSORGRIGHT
 10
0.0
 20
0.0
 30
0.0
  9
$PUCSORGFRONT
 10
0.0
 20
0.0
 30
0.0
  9
$PUCSORGBACK
 10
0.0
 20
0.0
 30
0.0
  9
$USERI1
 70
     0
  9
$USERI2
 70
     0
  9
$USERI3
 70
     0
  9
$USERI4
 70
     0
  9
$USERI5
 70
     0
  9
$USERR1
 40
0.0
  9
$USERR2
 40
0.0
  9
$USERR3
 40
0.0
  9
$USERR4
 40
0.0
  9
$USERR5
 40
0.0
  9
$WORLDVIEW
 70
     1
  9
$SHADEDGE
 70
     3
  9
$SHADEDIF
 70
    70
  9
$TILEMODE
 70
     1
  9
$MAXACTVP
 70
    64
  9
$PINSBASE
 10
0.0
 20
0.0
 30
0.0
  9
$PLIMCHECK
 70
     0
  9
$PEXTMIN
 10
0.0
 20
0.0
 30
0.0
  9
$PEXTMAX
 10
1189.0
 20
840.9999999999998
 30
0.0
  9
$PLIMMIN
 10
0.0
 20
0.0
  9
$PLIMMAX
 10
1189.0
 20
840.9999999999998
  9
$UNITMODE
 70
     0
  9
$VISRETAIN
 70
     1
  9
$PLINEGEN
 70
     0
  9
$PSLTSCALE
 70
     1
  9
$TREEDEPTH
 70
  3020
  9
$CMLSTYLE
  2
Standard
  9
$CMLJUST
 70
     0
  9
$CMLSCALE
 40
1.0
  9
$PROXYGRAPHICS
 70
     1
  9
$MEASUREMENT
 70
     1
  9
$CELWEIGHT
370
    -1
  9
$ENDCAPS
280
     0
  9
$JOINSTYLE
280
     0
  9
$LWDISPLAY
290
     0
  9
$INSUNITS
 70
     4
  9
$HYPERLINKBASE
  1

  9
$STYLESHEET
  1

  9
$XEDIT
290
     1
  9
$CEPSNTYPE
380
     0
  9
$PSTYLEMODE
290
     1
  9
$FINGERPRINTGUID
  2
{719DABD3-9C64-4814-B82F-2EE370E3C03D}
  9
$VERSIONGUID
  2
{4BFAA909-30B9-4CC1-81B0-A722287DF8A1}
  9
$EXTNAMES
290
     1
  9
$PSVPSCALE
 40
0.0
  9
$OLESTARTUP
290
     0
  0
ENDSEC
  0
SECTION
  2
CLASSES
  0
CLASS
  1
ACDBDICTIONARYWDFLT
  2
AcDbDictionaryWithDefault
  3
ObjectDBX Classes
 90
        0
280
     0
281
     0
  0
CLASS
  1
MATERIAL
  2
AcDbMaterial
  3
ObjectDBX Classes
 90
     1153
280
     0
281
     0
  0
CLASS
  1
VISUALSTYLE
  2
AcDbVisualStyle
  3
ObjectDBX Classes
 90
     4095
280
     0
281
     0
  0
CLASS
  1
SCALE
  2
AcDbScale
  3
ObjectDBX Classes
 90
     1153
280
     0
281
     0
  0
CLASS
  1
TABLESTYLE
  2
AcDbTableStyle
  3
ObjectDBX Classes
 90
     4095
280
     0
281
     0
  0
CLASS
  1
MLEADERSTYLE
  2
AcDbMLeaderStyle
  3
ACDB_MLEADERSTYLE_CLASS
 90
     4095
280
     0
281
     0
  0
CLASS
  1
SORTENTSTABLE
  2
AcDbSortentsTable
  3
ObjectDBX Classes
 90
        0
280
     0
281
     0
  0
CLASS
  1
CELLSTYLEMAP
  2
AcDbCellStyleMap
  3
ObjectDBX Classes
 90
     1152
280
     0
281
     0
  0
CLASS
  1
DICTIONARYVAR
  2
AcDbDictionaryVar
  3
ObjectDBX Classes
 90
        0
280
     0
281
     0
  0
CLASS
  1
ACME_DOCUMENT
  2
AcMeDbDoc
  3
AcMeServices
 90
    33792
280
     1
281
     0
  0
CLASS
  1
AMGSETTINGSOBJ
  2
AmgSettingsObj
  3
"AcadM|Product Description: AutoCAD Mechanical|Company: Autodesk, Inc."
 90
    33792
280
     1
281
     0
  0
CLASS
  1
ACMESCOPE
  2
AcMeScope
  3
AcMeServices
 90
    33792
280
     1
281
     0
  0
CLASS
  1
ACMECOMMANDHISTORY
  2
AcMeCommandHistory
  3
AcMeServices
 90
    33792
280
     1
281
     0
  0
CLASS
  1
ACIMSYSVARMAN
  2
AcImSysVarManager
  3
AcMeServices
 90
    33792
280
     1
281
     0
  0
CLASS
  1
ACIMINTSYSVAR
  2
AcImIntSysVar
  3
AcMeServices
 90
    33792
280
     1
281
     0
  0
CLASS
  1
ACMEDRAWINGMAN
  2
AcMeDrawingMan
  3
AcMeServices
 90
    33792
280
     1
281
     0
  0
CLASS
  1
ACMEVIEW
  2
AcMeView
  3
AcMeServices
 90
    33792
280
     1
281
     0
  0
CLASS
  1
ACDBENTITYCACHE
  2
AcMeEntityCache
  3
AcMeServices
 90
    33792
280
     1
281
     0
  0
CLASS
  1
GSMANAGER
  2
AcMeGSManager
  3
AcMeServices
 90
    33792
280
     1
281
     0
  0
CLASS
  1
AMDTINTERNALREACTOR
  2
AmdtInternalReactor
  3
AcMeServices
 90
    33792
280
     1
281
     0
  0
CLASS
  1
ACMESTATEMGR
  2
AcMeStateMgr
  3
AcMeServices
 90
    33792
280
     1
281
     0
  0
CLASS
  1
ACGREFMASTER
  2
AcGrefMaster
  3
AcAttribServices
 90
    33792
280
     1
281
     0
  0
CLASS
  1
AM_DRAWING_MGR
  2
AcDmDwgMgr
  3
AcMechDwgViewMgmt
 90
    33792
280
     1
281
     0
  0
CLASS
  1
AM_DWG_DOCUMENT
  2
AcDmDwgDocument
  3
AcMechDwgViewMgmt
 90
    33792
280
     1
281
     0
  0
CLASS
  1
AM_DWG_SHEET
  2
AcDmSheet
  3
AcMechDwgViewMgmt
 90
    33792
280
     1
281
     0
  0
CLASS
  1
AM_VIEWDIMPARMAP
  2
AcDmViewDimParMap
  3
AcMechDwgViewMgmt
 90
    33792
280
     1
281
     0
  0
CLASS
  1
ACIMREALSYSVAR
  2
AcImRealSysVar
  3
AcMeServices
 90
    33792
280
     1
281
     0
  0
CLASS
  1
AM_DWGMGR_NAME
  2
AcDmDwgMgrName
  3
AcMechDwgViewMgmt
 90
    33792
280
     1
281
     0
  0
CLASS
  1
ACME_DATABASE
  2
AcMeDbDatabase
  3
AcMeServices
 90
    33792
280
     1
281
     0
  0
CLASS
  1
ACRFINSADJUSTERMGR
  2
AcRfInsAdjusterMgr
  3
AcMeServices
 90
    33792
280
     1
281
     0
  0
CLASS
  1
ACGREFACADMASTER
  2
AcGrefacadMaster
  3
AcGrefServices
 90
    33792
280
     1
281
     0
  0
CLASS
  1
AMDTMENUSTATEMGR
  2
AmdtMenuStateMgr
  3
McadcomServices
 90
    33792
280
     1
281
     0
  0
CLASS
  1
AMDTMCOMMENUSTATE
  2
AmdtMcomMenuState
  3
McadcomServices
 90
    33792
280
     1
281
     0
  0
CLASS
  1
AMIMASTER
  2
AmiMaster
  3
AmiServices
 90
    33792
280
     1
281
     0
  0
CLASS
  1
MAPIAMMOUDLE
  2
MApiAmModule
  3
MApiAmServices
 90
    33792
280
     1
281
     0
  0
CLASS
  1
ACIMSTRSYSVAR
  2
AcImStrSysVar
  3
AcMeServices
 90
    33792
280
     1
281
     0
  0
CLASS
  1
AMDTADMENUSTATE
  2
AmdtAdMenuState
  3
DesignerServices
 90
    33792
280
     1
281
     0
  0
CLASS
  1
ADAPPL
  2
AcAdAppl
  3
DesignerServices
 90
    33792
280
     1
281
     0
  0
CLASS
  1
DEPMGR
  2
AcAdDepMgr
  3
DesignerServices
 90
    33792
280
     1
281
     0
  0
CLASS
  1
PARAMMGR
  2
AcAdParamMgr
  3
DesignerServices
 90
    33792
280
     1
281
     0
  0
CLASS
  1
PARAMSCOPE
  2
AcAdParamScope
  3
DesignerServices
 90
    33792
280
     1
281
     0
  0
CLASS
  1
NAMEDAPPL
  2
AcAdNamedAppl
  3
DesignerServices
 90
    33792
280
     1
281
     0
  0
CLASS
  1
AMDTDMMENUSTATE
  2
AmdtDmMenuState
  3
AcMechDwgViewMgmt
 90
    33792
280
     1
281
     0
  0
CLASS
  1
AMDTAMMENUSTATE
  2
AmdtAmMenuState
  3
DesignerAssemblies
 90
    33792
280
     1
281
     0
  0
CLASS
  1
ACAMPROJECT
  2
AcAmProject
  3
DesignerAssemblies
 90
    33792
280
     1
281
     0
  0
CLASS
  1
ACAMGRCOMPDEF
  2
AcAmGrCompDef
  3
DesignerAssemblies
 90
    33792
280
     1
281
     0
  0
CLASS
  1
ACCMCONTEXT
  2
AcCmContext
  3
DesignerAssemblies
 90
    33792
280
     1
281
     0
  0
CLASS
  1
ACAMCOMPDEF
  2
AcAmCompDef
  3
DesignerAssemblies
 90
    33792
280
     1
281
     0
  0
CLASS
  1
ACAMCOMPDEFMGR
  2
AcAmCompDefMgr
  3
DesignerAssemblies
 90
    33792
280
     1
281
     0
  0
CLASS
  1
AMCONTEXTMGR
  2
AcAmContextMgr
  3
DesignerAssemblies
 90
    33792
280
     1
281
     0
  0
CLASS
  1
ACAMCONTEXTMODELER
  2
AcAmContextModeler
  3
DesignerAssemblies
 90
    33792
280
     1
281
     0
  0
CLASS
  1
ACMDATADICTIONARY
  2
AcmDataDictionary
  3
"AcmSymBB|Product Description: AutoCAD Mechanical|Company: Autodesk, Inc."
 90
    33792
280
     1
281
     0
  0
CLASS
  1
CATALOGSTATE
  2
AcAmCatalogState
  3
DesignerAssemblies
 90
    33792
280
     1
281
     0
  0
CLASS
  1
ACAMGRCOMPDEFSET
  2
AcAmGrCompDefSet
  3
DesignerAssemblies
 90
    33792
280
     1
281
     0
  0
CLASS
  1
AMDTBROWSERDBTAB
  2
AmdtBrowserDbTab
  3
McadcomServices
 90
    33792
280
     1
281
     0
  0
CLASS
  1
CBROWSERAPPOBJECT
  2
CBrowserAppObject
  3
McadcomServices
 90
    33792
280
     1
281
     0
  0
CLASS
  1
DM_PLACEHOLDER
  2
AcDmSelsetPlaceholder
  3
AcMechDwgViewMgmt
 90
    33792
280
     1
281
     0
  0
CLASS
  1
EXACXREFPANELOBJECT
  2
ExAcXREFPanelObject
  3
EXAC_ESW
 90
    33793
280
     1
281
     0
  0
CLASS
  1
NPOCOLLECTION
  2
AcDbImpNonPersistentObjectsCollection
  3
ObjectDBX Classes
 90
    33921
280
     0
281
     0
  0
CLASS
  1
ACMSTANDARDANSI
  2
AcmStandardANSI
  3
"Amdt_StdImp|Product Description: AutoCAD Mechanical|Company: Autodesk, Inc."
 90
    33792
280
     1
281
     0
  0
CLASS
  1
ACMSURFSTANDARDANSI
  2
AcmSurfTextStdANSI
  3
"Amdt_StdImp|Product Description: AutoCAD Mechanical|Company: Autodesk, Inc."
 90
    33792
280
     1
281
     0
  0
CLASS
  1
ACMFCFSTANDARDANSI
  2
AcmFCFStdANSI
  3
"Amdt_StdImp|Product Description: AutoCAD Mechanical|Company: Autodesk, Inc."
 90
    33792
280
     1
281
     0
  0
CLASS
  1
ACMWELDSTANDARDANSI
  2
AcmWeldingStdANSI
  3
"Amdt_StdImp|Product Description: AutoCAD Mechanical|Company: Autodesk, Inc."
 90
    33792
280
     1
281
     0
  0
CLASS
  1
ACMIDSTANDARDANSI
  2
AcmIdStdANSI
  3
"Amdt_StdImp|Product Description: AutoCAD Mechanical|Company: Autodesk, Inc."
 90
    33792
280
     1
281
     0
  0
CLASS
  1
ACMDATUMSTANDARDANSI
  2
AcmDatumStdANSI
  3
"Amdt_StdImp|Product Description: AutoCAD Mechanical|Company: Autodesk, Inc."
 90
    33792
280
     1
281
     0
  0
CLASS
  1
ACMBOMSTANDARDANSI
  2
AcmBOMStdANSI
  3
"Amdt_StdImp|Product Description: AutoCAD Mechanical|Company: Autodesk, Inc."
 90
    33792
280
     1
281
     0
  0
CLASS
  1
ACMDETAILSTANDARDANSI
  2
AmdtDetailSymStdANSI
  3
"Amdt_StdImp|Product Description: AutoCAD Mechanical|Company: Autodesk, Inc."
 90
    33792
280
     1
281
     0
  0
CLASS
  1
ACMSECTIONSTANDARDANSI
  2
AmdtSectionSymStdANSI
  3
"Amdt_StdImp|Product Description: AutoCAD Mechanical|Company: Autodesk, Inc."
 90
    33792
280
     1
281
     0
  0
CLASS
  1
ACMCENTERLINESTANDARDANSI
  2
AmdtCenterLineStdANSI
  3
"Amdt_StdImp|Product Description: AutoCAD Mechanical|Company: Autodesk, Inc."
 90
    33792
280
     1
281
     0
  0
CLASS
  1
ACMTHREADLINESTANDARDANSI
  2
AmdtThreadLineStdANSI
  3
"Amdt_StdImp|Product Description: AutoCAD Mechanical|Company: Autodesk, Inc."
 90
    33792
280
     1
281
     0
  0
CLASS
  1
ACMNOTESTANDARDANSI
  2
AmdtNoteStdANSI
  3
"Amdt_StdImp|Product Description: AutoCAD Mechanical|Company: Autodesk, Inc."
 90
    33792
280
     1
281
     0
  0
CLASS
  1
ACMTAPERSTANDARDANSI
  2
AcmTaperStdANSI
  3
"Amdt_StdImp|Product Description: AutoCAD Mechanical|Company: Autodesk, Inc."
 90
    33792
280
     1
281
     0
  0
CLASS
  1
ACMANOOTATIONVIEWSTANDARDANSI
  2
AmdtAnViewStdANSI
  3
"Amdt_StdImp|Product Description: AutoCAD Mechanical|Company: Autodesk, Inc."
 90
    33792
280
     1
281
     0
  0
CLASS
  1
ACAMGLAYSTD
  2
AcAmgLayStd
  3
"AmgLay|Product Description: AutoCAD Mechanical|Company: Autodesk, Inc."
 90
    33792
280
     1
281
     0
  0
CLASS
  1
ACAMGDIMSTD
  2
AcAmgDimStd
  3
"AmgDim|Product Description: AutoCAD Mechanical|Company: Autodesk, Inc."
 90
    33792
280
     1
281
     0
  0
CLASS
  1
AMGOBJPROPCFG
  2
AmgObjPropCfg
  3
"AmgLay|Product Description: AutoCAD Mechanical|Company: Autodesk, Inc."
 90
    33793
280
     1
281
     0
  0
CLASS
  1
ACAMGHOLECHARTSTDANSI
  2
AcAmgHoleChartStdANSI
  3
AmgDim|Product Description: AutoCAD Mechanical|Company: Autodesk, Inc.
 90
    33792
280
     1
281
     0
  0
CLASS
  1
ACAMGTITLESTD
  2
AcAmgTitleStd
  3
"AmgTitle|Product Description: AutoCAD Mechanical|Company: Autodesk, Inc."
 90
    36863
280
     1
281
     0
  0
CLASS
  1
AMDTNOTETEMPLATEDB
  2
AmdtNoteTemplateDB
  3
AcmSymBB|Product Description: AutoCAD Mechanical|Company: Autodesk, Inc.
 90
    33792
280
     1
281
     0
  0
CLASS
  1
ACAMGFILTERDAT
  2
AcAmgFilterDat
  3
"AcadM|Product Description: AutoCAD Mechanical|Company: Autodesk, Inc."
 90
    33792
280
     1
281
     0
  0
CLASS
  1
CAMSSTRUCTBTNSTATE
  2
StructBtnState
  3
DesignerAssemblies
 90
    33792
280
     1
281
     0
  0
CLASS
  1
ACDBPLACEHOLDER
  2
AcDbPlaceHolder
  3
ObjectDBX Classes
 90
        0
280
     0
281
     0
  0
CLASS
  1
LAYOUT
  2
AcDbLayout
  3
ObjectDBX Classes
 90
        0
280
     0
281
     0
  0
CLASS
  1
SOLID_BACKGROUND
  2
AcDbSolidBackground
  3
SCENEOE
 90
    36863
280
     0
281
     0
  0
ENDSEC
  0
SECTION
  2
TABLES
  0
TABLE
  2
VPORT
  5
29
102
{ACAD_XDICTIONARY
360
2E
102
}
330
0
100
AcDbSymbolTable
 70
     1
  0
VPORT
  5
2A
330
29
100
AcDbSymbolTableRecord
100
AcDbViewportTableRecord
  2
*ACTIVE
 70
     0
 10
0.0
 20
0.0
 11
1.0
 21
1.0
 12
-0.0362833241654244
 22
396.0538196786698
 13
0.0
 23
0.0
 14
1.0
 24
1.0
 15
0.0
 25
0.0
 16
0.0
 26
0.0
 36
1.0
 17
0.0
 27
0.0
 37
0.0
 40
963.2951170347809
 41
4.280898876404494
 42
50.0
 43
0.0
 44
0.0
 50
0.0
 51
0.0
 71
     0
 72
   100
 73
     1
 74
     1
 75
     0
 76
     0
 77
     0
 78
     0
281
     0
 65
     1
110
0.0
120
0.0
130
0.0
111
1.0
121
0.0
131
0.0
112
0.0
122
1.0
132
0.0
 79
     0
146
0.0
1001
ACAD_NAV_VCDISPLAY
1070
     3
  0
ENDTAB
  0
TABLE
  2
LTYPE
  5
24
330
0
100
AcDbSymbolTable
 70
     1
  0
LTYPE
  5
25
330
24
100
AcDbSymbolTableRecord
100
AcDbLinetypeTableRecord
  2
ByBlock
 70
     0
  3

 72
    65
 73
     0
 40
0.0
  0
LTYPE
  5
26
330
24
100
AcDbSymbolTableRecord
100
AcDbLinetypeTableRecord
  2
ByLayer
 70
     0
  3

 72
    65
 73
     0
 40
0.0
  0
LTYPE
  5
14
330
24
100
AcDbSymbolTableRecord
100
AcDbLinetypeTableRecord
  2
CONTINUOUS
 70
     0
  3
Solid line
 72
    65
 73
     0
 40
0.0
  0
ENDTAB
  0
TABLE
  2
LAYER
  5
1C
102
{ACAD_XDICTIONARY
360
1D
102
}
330
0
100
AcDbSymbolTable
 70
     6
  0
LAYER
  5
6
330
1C
100
AcDbSymbolTableRecord
100
AcDbLayerTableRecord
  2
0
 70
     0
 62
     7
  6
CONTINUOUS
370
    -3
390
7
  0
LAYER
  5
7E
330
1C
100
AcDbSymbolTableRecord
100
AcDbLayerTableRecord
  2
GEB-KONTUR-A
 70
     0
 62
     5
  6
CONTINUOUS
370
    -3
390
7
  0
LAYER
  5
1C2
330
1C
100
AcDbSymbolTableRecord
100
AcDbLayerTableRecord
  2
GEB-ART-NR
 70
     0
 62
     1
  6
CONTINUOUS
370
    18
390
7
  0
LAYER
  5
75
330
1C
100
AcDbSymbolTableRecord
100
AcDbLayerTableRecord
  2
GEB-BEZUG
 70
     0
 62
     2
  6
CONTINUOUS
370
    25
390
7
  0
LAYER
  5
1BF
330
1C
100
AcDbSymbolTableRecord
100
AcDbLayerTableRecord
  2
GEB-TEXT
 70
     0
 62
     5
  6
CONTINUOUS
370
    18
390
7
  0
LAYER
  5
79
330
1C
100
AcDbSymbolTableRecord
100
AcDbLayerTableRecord
  2
Arbeitspunkt(DIN)
 70
     0
 62
     7
  6
CONTINUOUS
370
    25
390
7
  0
ENDTAB
  0
TABLE
  2
STYLE
  5
21
330
0
100
AcDbSymbolTable
 70
     1
  0
STYLE
  5
22
330
21
100
AcDbSymbolTableRecord
100
AcDbTextStyleTableRecord
  2
STANDARD
 70
     0
 40
0.0
 41
1.0
 50
0.0
 71
     0
 42
0.2
  3
arial.ttf
  4

1001
ACAD
1000
Arial
1071
       34
  0
ENDTAB
  0
TABLE
  2
VIEW
  5
27
330
0
100
AcDbSymbolTable
 70
     0
  0
ENDTAB
  0
TABLE
  2
UCS
  5
28
330
0
100
AcDbSymbolTable
 70
     0
  0
ENDTAB
  0
TABLE
  2
APPID
  5
2F
330
0
100
AcDbSymbolTable
 70
     3
  0
APPID
  5
20
330
2F
100
AcDbSymbolTableRecord
100
AcDbRegAppTableRecord
  2
ACAD
 70
     0
  0
APPID
  5
2D
330
2F
100
AcDbSymbolTableRecord
100
AcDbRegAppTableRecord
  2
ACAD_NAV_VCDISPLAY
 70
     0
  0
APPID
  5
22B
330
2F
100
AcDbSymbolTableRecord
100
AcDbRegAppTableRecord
  2
ACAD_MLEADERVER
 70
     0
  0
ENDTAB
  0
TABLE
  2
DIMSTYLE
  5
30
330
0
100
AcDbSymbolTable
 70
     1
100
AcDbDimStyleTable
 71
     1
340
31
  0
DIMSTYLE
105
31
330
30
100
AcDbSymbolTableRecord
100
AcDbDimStyleTableRecord
  2
STANDARD
 70
     0
279
     2
340
22
  0
ENDTAB
  0
TABLE
  2
BLOCK_RECORD
  5
1
330
0
100
AcDbSymbolTable
 70
     1
  0
BLOCK_RECORD
  5
2
102
{ACAD_XDICTIONARY
360
3
102
}
330
1
100
AcDbSymbolTableRecord
100
AcDbBlockTableRecord
  2
*Model_Space
340
16
  0
BLOCK_RECORD
  5
18
330
1
100
AcDbSymbolTableRecord
100
AcDbBlockTableRecord
  2
*Paper_Space
340
1B
  0
BLOCK_RECORD
  5
72
330
1
100
AcDbSymbolTableRecord
100
AcDbBlockTableRecord
  2
Einfügepunkt
340
0
102
{BLKREFS
331
71
102
}
  0
ENDTAB
  0
ENDSEC
  0
SECTION
  2
BLOCKS
  0
BLOCK
  5
5
330
2
100
AcDbEntity
  8
0
100
AcDbBlockBegin
  2
*Model_Space
 70
     0
 10
0.0
 20
0.0
 30
0.0
  3
*Model_Space
  1

  0
ENDBLK
  5
15
330
2
100
AcDbEntity
  8
0
100
AcDbBlockEnd
  0
BLOCK
  5
19
330
18
100
AcDbEntity
 67
     1
  8
0
100
AcDbBlockBegin
  2
*Paper_Space
 70
     0
 10
0.0
 20
0.0
 30
0.0
  3
*Paper_Space
  1

  0
ENDBLK
  5
1A
330
18
100
AcDbEntity
 67
     1
  8
0
100
AcDbBlockEnd
  0
BLOCK
  5
73
330
72
100
AcDbEntity
  8
0
100
AcDbBlockBegin
  2
Einfügepunkt
 70
     0
 10
0.0
 20
0.0
 30
0.0
  3
Einfügepunkt
  1

  0
LINE
  5
74
330
72
100
AcDbEntity
  8
GEB-BEZUG
100
AcDbLine
 10
-7.071067811865816
 20
-7.071067811865106
 30
0.0
 11
7.07106781186475
 21
7.071067811865816
 31
0.0
  0
LINE
  5
76
330
72
100
AcDbEntity
  8
GEB-BEZUG
100
AcDbLine
 10
-7.071067811865106
 20
7.071067811865816
 30
0.0
 11
7.071067811865461
 21
-7.071067811865106
 31
0.0
  0
ENDBLK
  5
77
330
72
100
AcDbEntity
  8
0
100
AcDbBlockEnd
  0
ENDSEC
  0
SECTION
  2
ENTITIES
  0
INSERT
  5
71
330
2
100
AcDbEntity
  8
0
 48
25.0
100
AcDbBlockReference
  2
Einfügepunkt
 10
0.0
 20
0.0
 30
0.0
  0
LINE
  5
78
330
2
100
AcDbEntity
  8
Arbeitspunkt(DIN)
 48
25.0
100
AcDbLine
 10
0.0
 20
0.0
 30
0.0
 11
0.0
 21
-2.5
 31
0.0
  0
LINE
  5
7A
330
2
100
AcDbEntity
  8
Arbeitspunkt(DIN)
 48
25.0
100
AcDbLine
 10
0.0
 20
0.0
 30
0.0
 11
0.0
 21
2.5
 31
0.0
  0
LINE
  5
7B
330
2
100
AcDbEntity
  8
Arbeitspunkt(DIN)
 48
25.0
100
AcDbLine
 10
0.0
 20
0.0
 30
0.0
 11
-2.5
 21
0.0
 31
0.0
  0
LINE
  5
7C
330
2
100
AcDbEntity
  8
Arbeitspunkt(DIN)
 48
25.0
100
AcDbLine
 10
0.0
 20
0.0
 30
0.0
 11
2.5
 21
0.0
 31
0.0
  0
CIRCLE
  5
7D
330
2
100
AcDbEntity
  8
GEB-KONTUR-A
 48
25.0
100
AcDbCircle
 10
-180.0
 20
159.4999999999997
 30
0.0
 40
13.5
  0
LINE
  5
7F
330
2
100
AcDbEntity
  8
GEB-KONTUR-A
 48
25.0
100
AcDbLine
 10
-157.8804653542001
 20
151.9683210999629
 30
0.0
 11
-169.3
 21
148.9084660136817
 31
0.0
  0
ARC
  5
80
330
2
100
AcDbEntity
  8
GEB-KONTUR-A
 48
25.0
100
AcDbCircle
 10
-159.1745605797127
 20
156.7979502314083
 30
0.0
 40
4.999999999999982
100
AcDbArc
 50
285.0000000000008
 51
352.6073121945977
  0
ARC
  5
81
330
2
100
AcDbEntity
  8
GEB-KONTUR-A
 48
25.0
100
AcDbCircle
 10
-180.0
 20
159.4999999999997
 30
0.0
 40
26.0
100
AcDbArc
 50
352.6073121945977
 51
168.7452873817726
  0
ARC
  5
82
330
2
100
AcDbEntity
  8
GEB-KONTUR-A
 48
25.0
100
AcDbCircle
 10
-200.8254394202873
 20
156.7979502314083
 30
0.0
 40
5.000000000000001
100
AcDbArc
 50
200.786048684996
 51
254.9999999999993
  0
LINE
  5
83
330
2
100
AcDbEntity
  8
GEB-KONTUR-A
 48
25.0
100
AcDbLine
 10
-190.7
 20
148.9084660136817
 30
0.0
 11
-202.1195346457998
 21
151.9683210999629
 31
0.0
  0
CIRCLE
  5
84
330
2
100
AcDbEntity
  8
GEB-KONTUR-A
 48
25.0
100
AcDbCircle
 10
-200.0
 20
159.4999999999997
 30
0.0
 40
3.5
  0
CIRCLE
  5
85
330
2
100
AcDbEntity
  8
GEB-KONTUR-A
 48
25.0
100
AcDbCircle
 10
-160.0
 20
159.4999999999997
 30
0.0
 40
3.5
  0
CIRCLE
  5
86
330
2
100
AcDbEntity
  8
GEB-KONTUR-A
 48
25.0
100
AcDbCircle
 10
-180.0
 20
179.4999999999997
 30
0.0
 40
3.5
  0
CIRCLE
  5
87
330
2
100
AcDbEntity
  8
GEB-KONTUR-A
 48
25.0
100
AcDbCircle
 10
-180.0
 20
159.4999999999997
 30
0.0
 40
9.3155
  0
LINE
  5
88
330
2
100
AcDbEntity
  8
GEB-KONTUR-A
 48
25.0
100
AcDbLine
 10
-190.0
 20
139.4999999999998
 30
0.0
 11
-190.0
 21
132.0000000000001
 31
0.0
  0
LINE
  5
89
330
2
100
AcDbEntity
  8
GEB-KONTUR-A
 48
25.0
100
AcDbLine
 10
-170.0
 20
139.4999999999998
 30
0.0
 11
-170.0
 21
132.0000000000001
 31
0.0
  0
LINE
  5
8A
330
2
100
AcDbEntity
  8
GEB-KONTUR-A
 48
25.0
100
AcDbLine
 10
-193.5
 20
141.6999999999998
 30
0.0
 11
-193.5
 21
139.4999999999998
 31
0.0
  0
LINE
  5
8B
330
2
100
AcDbEntity
  8
GEB-KONTUR-A
 48
25.0
100
AcDbLine
 10
-166.5
 20
141.6999999999998
 30
0.0
 11
-166.5
 21
139.4999999999998
 31
0.0
  0
LINE
  5
8C
330
2
100
AcDbEntity
  8
GEB-KONTUR-A
 48
25.0
100
AcDbLine
 10
-190.7
 20
143.3165807537307
 30
0.0
 11
-193.5
 21
141.6999999999998
 31
0.0
  0
LINE
  5
8D
330
2
100
AcDbEntity
  8
GEB-KONTUR-A
 48
25.0
100
AcDbLine
 10
-169.3
 20
143.3165807537307
 30
0.0
 11
-166.5
 21
141.6999999999998
 31
0.0
  0
LINE
  5
8E
330
2
100
AcDbEntity
  8
GEB-KONTUR-A
 48
25.0
100
AcDbLine
 10
-190.7
 20
151.268353749097
 30
0.0
 11
-190.7
 21
143.3165807537307
 31
0.0
  0
LINE
  5
8F
330
2
100
AcDbEntity
  8
GEB-KONTUR-A
 48
25.0
100
AcDbLine
 10
-169.3
 20
151.268353749097
 30
0.0
 11
-169.3
 21
143.3165807537307
 31
0.0
  0
LINE
  5
90
330
2
100
AcDbEntity
  8
GEB-KONTUR-A
 48
25.0
100
AcDbLine
 10
-193.5
 20
139.4999999999998
 30
0.0
 11
-166.5
 21
139.4999999999998
 31
0.0
  0
LINE
  5
91
330
2
100
AcDbEntity
  8
GEB-KONTUR-A
 48
25.0
100
AcDbLine
 10
-193.5
 20
141.6999999999998
 30
0.0
 11
-166.5
 21
141.6999999999998
 31
0.0
  0
LINE
  5
92
330
2
100
AcDbEntity
  8
GEB-KONTUR-A
 48
25.0
100
AcDbLine
 10
-185.0467337122441
 20
159.4999999999997
 30
0.0
 11
-174.9532662877559
 21
159.4999999999997
 31
0.0
  0
SPLINE
  5
93
330
2
100
AcDbEntity
  8
GEB-KONTUR-A
 48
25.0
100
AcDbSpline
210
0.0
220
0.0
230
1.0
 70
     8
 71
     3
 72
    30
 73
    26
 74
     0
 42
0.0000000001
 43
0.0000000001
 40
-1.843484145447361
 40
-1.843484145447361
 40
-1.843484145447361
 40
-1.843484145447361
 40
-1.620789439777083
 40
-1.620789439777083
 40
-1.398094734106805
 40
-1.398094734106805
 40
-1.273165492988613
 40
-1.273165492988613
 40
-1.148236251870422
 40
-1.148236251870422
 40
-1.034989162297051
 40
-1.034989162297051
 40
-0.921742072723681
 40
-0.921742072723681
 40
-0.8084949831503106
 40
-0.8084949831503106
 40
-0.6952478935769402
 40
-0.6952478935769402
 40
-0.5703186524587487
 40
-0.5703186524587487
 40
-0.4453894113405572
 40
-0.4453894113405572
 40
-0.2226947056702784
 40
-0.2226947056702784
 40
0.0
 40
0.0
 40
0.0
 40
0.0
 10
-185.046733712244
 20
159.4999999999997
 30
0.0
 10
-185.046733712244
 20
158.7576843144322
 30
0.0
 10
-184.9548821944485
 20
157.9534180549304
 30
0.0
 10
-184.5630349421858
 20
156.4096716530823
 30
0.0
 10
-184.263701338268
 20
155.6696866160363
 30
0.0
 10
-183.6968981925221
 20
154.6836889685762
 30
0.0
 10
-183.4443133240962
 20
154.3137942000521
 30
0.0
 10
-182.8646935063094
 20
153.6400039426496
 30
0.0
 10
-182.5369273386897
 20
153.3365794618013
 30
0.0
 10
-181.900184375094
 20
152.8816918336512
 30
0.0
 10
-181.5423139372247
 20
152.6835155096829
 30
0.0
 10
-180.7812412912615
 20
152.416031422063
 30
0.0
 10
-180.3774902985779
 20
152.3480633270555
 30
0.0
 10
-179.6225097014221
 20
152.3480633270555
 30
0.0
 10
-179.2187587087385
 20
152.416031422063
 30
0.0
 10
-178.4576860627752
 20
152.6835155096829
 30
0.0
 10
-178.099815624906
 20
152.8816918336512
 30
0.0
 10
-177.4630726613103
 20
153.3365794618013
 30
0.0
 10
-177.1353064936905
 20
153.6400039426496
 30
0.0
 10
-176.5556866759038
 20
154.3137942000521
 30
0.0
 10
-176.3031018074778
 20
154.6836889685762
 30
0.0
 10
-175.736298661732
 20
155.6696866160363
 30
0.0
 10
-175.4369650578142
 20
156.4096716530823
 30
0.0
 10
-175.0451178055515
 20
157.9534180549304
 30
0.0
 10
-174.9532662877559
 20
158.7576843144322
 30
0.0
 10
-174.9532662877559
 20
159.4999999999997
 30
0.0
  0
LINE
  5
94
330
2
100
AcDbEntity
  8
GEB-KONTUR-A
 48
25.0
100
AcDbLine
 10
-190.7
 20
143.3165807537307
 30
0.0
 11
-169.3
 21
143.3165807537307
 31
0.0
  0
CIRCLE
  5
95
330
2
100
AcDbEntity
  8
GEB-KONTUR-A
 48
25.0
100
AcDbCircle
 10
180.0
 20
159.4999999999995
 30
0.0
 40
13.5
  0
LINE
  5
96
330
2
100
AcDbEntity
  8
GEB-KONTUR-A
 48
25.0
100
AcDbLine
 10
202.1195346458
 20
151.9683210999628
 30
0.0
 11
190.7
 21
148.9084660136814
 31
0.0
  0
ARC
  5
97
330
2
100
AcDbEntity
  8
GEB-KONTUR-A
 48
25.0
100
AcDbCircle
 10
200.8254394202873
 20
156.7979502314082
 30
0.0
 40
4.999999999999991
100
AcDbArc
 50
285.0000000000008
 51
339.2139513150101
  0
ARC
  5
98
330
2
100
AcDbEntity
  8
GEB-KONTUR-A
 48
25.0
100
AcDbCircle
 10
180.0
 20
159.4999999999995
 30
0.0
 40
26.0
100
AcDbArc
 50
11.2547126182274
 51
187.3926878054023
  0
ARC
  5
99
330
2
100
AcDbEntity
  8
GEB-KONTUR-A
 48
25.0
100
AcDbCircle
 10
159.1745605797127
 20
156.7979502314081
 30
0.0
 40
4.999999999999972
100
AcDbArc
 50
187.3926878054023
 51
254.9999999999993
  0
LINE
  5
9A
330
2
100
AcDbEntity
  8
GEB-KONTUR-A
 48
25.0
100
AcDbLine
 10
169.3000000000001
 20
148.9084660136814
 30
0.0
 11
157.8804653542001
 21
151.9683210999627
 31
0.0
  0
CIRCLE
  5
9B
330
2
100
AcDbEntity
  8
GEB-KONTUR-A
 48
25.0
100
AcDbCircle
 10
160.0
 20
159.4999999999995
 30
0.0
 40
3.5
  0
CIRCLE
  5
9C
330
2
100
AcDbEntity
  8
GEB-KONTUR-A
 48
25.0
100
AcDbCircle
 10
200.0
 20
159.4999999999995
 30
0.0
 40
3.5
  0
CIRCLE
  5
9D
330
2
100
AcDbEntity
  8
GEB-KONTUR-A
 48
25.0
100
AcDbCircle
 10
180.0
 20
179.4999999999995
 30
0.0
 40
3.5
  0
CIRCLE
  5
9E
330
2
100
AcDbEntity
  8
GEB-KONTUR-A
 48
25.0
100
AcDbCircle
 10
180.0
 20
159.4999999999995
 30
0.0
 40
9.3155
  0
LINE
  5
9F
330
2
100
AcDbEntity
  8
GEB-KONTUR-A
 48
25.0
100
AcDbLine
 10
170.0
 20
139.4999999999995
 30
0.0
 11
170.0
 21
132.0000000000001
 31
0.0
  0
LINE
  5
A0
330
2
100
AcDbEntity
  8
GEB-KONTUR-A
 48
25.0
100
AcDbLine
 10
190.0
 20
139.4999999999995
 30
0.0
 11
190.0
 21
132.0000000000001
 31
0.0
  0
LINE
  5
A1
330
2
100
AcDbEntity
  8
GEB-KONTUR-A
 48
25.0
100
AcDbLine
 10
166.5
 20
141.6999999999994
 30
0.0
 11
166.5
 21
139.4999999999995
 31
0.0
  0
LINE
  5
A2
330
2
100
AcDbEntity
  8
GEB-KONTUR-A
 48
25.0
100
AcDbLine
 10
193.5
 20
141.6999999999994
 30
0.0
 11
193.5000000000001
 21
139.4999999999995
 31
0.0
  0
LINE
  5
A3
330
2
100
AcDbEntity
  8
GEB-KONTUR-A
 48
25.0
100
AcDbLine
 10
169.3
 20
143.3165807537305
 30
0.0
 11
166.5
 21
141.6999999999994
 31
0.0
  0
LINE
  5
A4
330
2
100
AcDbEntity
  8
GEB-KONTUR-A
 48
25.0
100
AcDbLine
 10
190.7
 20
143.3165807537305
 30
0.0
 11
193.5
 21
141.6999999999994
 31
0.0
  0
LINE
  5
A5
330
2
100
AcDbEntity
  8
GEB-KONTUR-A
 48
25.0
100
AcDbLine
 10
169.3
 20
151.2683537490968
 30
0.0
 11
169.3
 21
143.3165807537305
 31
0.0
  0
LINE
  5
A6
330
2
100
AcDbEntity
  8
GEB-KONTUR-A
 48
25.0
100
AcDbLine
 10
190.7
 20
151.2683537490968
 30
0.0
 11
190.7
 21
143.3165807537305
 31
0.0
  0
LINE
  5
A7
330
2
100
AcDbEntity
  8
GEB-KONTUR-A
 48
25.0
100
AcDbLine
 10
166.5000000000001
 20
139.4999999999995
 30
0.0
 11
193.5
 21
139.4999999999995
 31
0.0
  0
LINE
  5
A8
330
2
100
AcDbEntity
  8
GEB-KONTUR-A
 48
25.0
100
AcDbLine
 10
166.5000000000001
 20
141.6999999999994
 30
0.0
 11
193.5
 21
141.6999999999994
 31
0.0
  0
LINE
  5
A9
330
2
100
AcDbEntity
  8
GEB-KONTUR-A
 48
25.0
100
AcDbLine
 10
174.953266287756
 20
159.4999999999995
 30
0.0
 11
185.0467337122441
 21
159.4999999999995
 31
0.0
  0
SPLINE
  5
AA
330
2
100
AcDbEntity
  8
GEB-KONTUR-A
 48
25.0
100
AcDbSpline
210
0.0
220
0.0
230
1.0
 70
     8
 71
     3
 72
    30
 73
    26
 74
     0
 42
0.0000000001
 43
0.0000000001
 40
-1.843484145447361
 40
-1.843484145447361
 40
-1.843484145447361
 40
-1.843484145447361
 40
-1.620789439777083
 40
-1.620789439777083
 40
-1.398094734106805
 40
-1.398094734106805
 40
-1.273165492988613
 40
-1.273165492988613
 40
-1.148236251870422
 40
-1.148236251870422
 40
-1.034989162297051
 40
-1.034989162297051
 40
-0.921742072723681
 40
-0.921742072723681
 40
-0.8084949831503106
 40
-0.8084949831503106
 40
-0.6952478935769402
 40
-0.6952478935769402
 40
-0.5703186524587487
 40
-0.5703186524587487
 40
-0.4453894113405572
 40
-0.4453894113405572
 40
-0.2226947056702784
 40
-0.2226947056702784
 40
0.0
 40
0.0
 40
0.0
 40
0.0
 10
174.953266287756
 20
159.4999999999995
 30
0.0
 10
174.953266287756
 20
158.757684314432
 30
0.0
 10
175.0451178055516
 20
157.9534180549301
 30
0.0
 10
175.4369650578142
 20
156.409671653082
 30
0.0
 10
175.736298661732
 20
155.6696866160359
 30
0.0
 10
176.3031018074779
 20
154.6836889685759
 30
0.0
 10
176.5556866759038
 20
154.3137942000519
 30
0.0
 10
177.1353064936906
 20
153.6400039426494
 30
0.0
 10
177.4630726613104
 20
153.3365794618009
 30
0.0
 10
178.099815624906
 20
152.8816918336508
 30
0.0
 10
178.4576860627753
 20
152.6835155096827
 30
0.0
 10
179.2187587087386
 20
152.4160314220628
 30
0.0
 10
179.6225097014221
 20
152.3480633270552
 30
0.0
 10
180.377490298578
 20
152.3480633270552
 30
0.0
 10
180.7812412912615
 20
152.4160314220628
 30
0.0
 10
181.5423139372248
 20
152.6835155096827
 30
0.0
 10
181.900184375094
 20
152.8816918336508
 30
0.0
 10
182.5369273386897
 20
153.3365794618009
 30
0.0
 10
182.8646935063095
 20
153.6400039426494
 30
0.0
 10
183.4443133240962
 20
154.3137942000519
 30
0.0
 10
183.6968981925222
 20
154.6836889685759
 30
0.0
 10
184.263701338268
 20
155.6696866160359
 30
0.0
 10
184.5630349421858
 20
156.409671653082
 30
0.0
 10
184.9548821944485
 20
157.9534180549301
 30
0.0
 10
185.0467337122441
 20
158.757684314432
 30
0.0
 10
185.0467337122441
 20
159.4999999999995
 30
0.0
  0
LINE
  5
AB
330
2
100
AcDbEntity
  8
GEB-KONTUR-A
 48
25.0
100
AcDbLine
 10
169.3
 20
143.3165807537305
 30
0.0
 11
190.7
 21
143.3165807537305
 31
0.0
  0
LINE
  5
AC
330
2
100
AcDbEntity
  8
GEB-KONTUR-A
 48
25.0
100
AcDbLine
 10
24.99999999999989
 20
159.8019609728146
 30
0.0
 11
24.99999999999995
 21
170.0000000000002
 31
0.0
  0
LINE
  5
AD
330
2
100
AcDbEntity
  8
GEB-KONTUR-A
 48
25.0
100
AcDbLine
 10
24.99999999999989
 20
132.0000000000001
 30
0.0
 11
24.99999999999989
 21
146.9565627563944
 31
0.0
  0
LINE
  5
AE
330
2
100
AcDbEntity
  8
GEB-KONTUR-A
 48
25.0
100
AcDbLine
 10
-25.00000000000011
 20
146.9565627563944
 30
0.0
 11
-25.00000000000011
 21
132.0000000000001
 31
0.0
  0
LINE
  5
AF
330
2
100
AcDbEntity
  8
GEB-KONTUR-A
 48
25.0
100
AcDbLine
 10
-25.00000000000006
 20
170.0000000000002
 30
0.0
 11
-25.00000000000011
 21
159.8019609728146
 31
0.0
  0
LINE
  5
B0
330
2
100
AcDbEntity
  8
GEB-KONTUR-A
 48
25.0
100
AcDbLine
 10
-25.00000000000011
 20
107.0000000000001
 30
0.0
 11
-25.00000000000011
 21
-10.0
 31
0.0
  0
LINE
  5
B1
330
2
100
AcDbEntity
  8
GEB-KONTUR-A
 48
25.0
100
AcDbLine
 10
24.99999999999989
 20
107.0000000000001
 30
0.0
 11
24.99999999999989
 21
-10.0
 31
0.0
  0
CIRCLE
  5
B2
330
2
100
AcDbEntity
  8
GEB-KONTUR-A
 48
25.0
100
AcDbCircle
 10
0.0
 20
170.0000000000002
 30
0.0
 40
25.0
  0
LINE
  5
B3
330
2
100
AcDbEntity
  8
GEB-KONTUR-A
 48
25.0
100
AcDbLine
 10
24.99999999999989
 20
-10.0
 30
0.0
 11
-25.00000000000011
 21
-10.0
 31
0.0
  0
CIRCLE
  5
B4
330
2
100
AcDbEntity
  8
GEB-KONTUR-A
 48
25.0
100
AcDbCircle
 10
0.0
 20
170.0000000000002
 30
0.0
 40
22.0
  0
LINE
  5
B5
330
2
100
AcDbEntity
  8
GEB-KONTUR-A
 48
25.0
100
AcDbLine
 10
-205.5
 20
131.8729833462074
 30
0.0
 11
-205.5
 21
179.9999999999999
 31
0.0
  0
LINE
  5
B6
330
2
100
AcDbEntity
  8
GEB-KONTUR-A
 48
25.0
100
AcDbLine
 10
-205.5
 20
103.0
 30
0.0
 11
-205.5
 21
107.1270166537926
 31
0.0
  0
LINE
  5
B7
330
2
100
AcDbEntity
  8
GEB-KONTUR-A
 48
25.0
100
AcDbLine
 10
-205.5
 20
103.0
 30
0.0
 11
-209.5
 21
103.0
 31
0.0
  0
LINE
  5
B8
330
2
100
AcDbEntity
  8
GEB-KONTUR-A
 48
25.0
100
AcDbLine
 10
-209.5
 20
179.9999999999999
 30
0.0
 11
-209.5
 21
103.0
 31
0.0
  0
LINE
  5
B9
330
2
100
AcDbEntity
  8
GEB-KONTUR-A
 48
25.0
100
AcDbLine
 10
-205.5
 20
197.0
 30
0.0
 11
-205.5
 21
179.9999999999999
 31
0.0
  0
LINE
  5
BA
330
2
100
AcDbEntity
  8
GEB-KONTUR-A
 48
25.0
100
AcDbLine
 10
-209.5
 20
180.0
 30
0.0
 11
-209.5
 21
184.0926763859361
 31
0.0
  0
LINE
  5
BB
330
2
100
AcDbEntity
  8
GEB-KONTUR-A
 48
25.0
100
AcDbLine
 10
-205.5
 20
197.0
 30
0.0
 11
-209.5
 21
197.0
 31
0.0
  0
LINE
  5
BC
330
2
100
AcDbEntity
  8
GEB-KONTUR-A
 48
25.0
100
AcDbLine
 10
209.5
 20
103.0
 30
0.0
 11
209.5
 21
180.0
 31
0.0
  0
LINE
  5
BD
330
2
100
AcDbEntity
  8
GEB-KONTUR-A
 48
25.0
100
AcDbLine
 10
209.5
 20
103.0
 30
0.0
 11
205.5
 21
103.0
 31
0.0
  0
LINE
  5
BE
330
2
100
AcDbEntity
  8
GEB-KONTUR-A
 48
25.0
100
AcDbLine
 10
205.5
 20
107.1270166537926
 30
0.0
 11
205.5
 21
103.0
 31
0.0
  0
LINE
  5
BF
330
2
100
AcDbEntity
  8
GEB-KONTUR-A
 48
25.0
100
AcDbLine
 10
205.5
 20
180.0
 30
0.0
 11
205.5
 21
131.8729833462074
 31
0.0
  0
LINE
  5
C0
330
2
100
AcDbEntity
  8
GEB-KONTUR-A
 48
25.0
100
AcDbLine
 10
209.5
 20
184.0926763859362
 30
0.0
 11
209.5
 21
180.0
 31
0.0
  0
LINE
  5
C1
330
2
100
AcDbEntity
  8
GEB-KONTUR-A
 48
25.0
100
AcDbLine
 10
205.5
 20
180.0
 30
0.0
 11
205.5
 21
197.0
 31
0.0
  0
LINE
  5
C2
330
2
100
AcDbEntity
  8
GEB-KONTUR-A
 48
25.0
100
AcDbLine
 10
209.5
 20
197.0
 30
0.0
 11
205.5
 21
197.0
 31
0.0
  0
LINE
  5
C3
330
2
100
AcDbEntity
  8
GEB-KONTUR-A
 48
25.0
100
AcDbLine
 10
205.5
 20
132.0000000000001
 30
0.0
 11
-205.5000000000001
 21
132.0000000000001
 31
0.0
  0
LINE
  5
C4
330
2
100
AcDbEntity
  8
GEB-KONTUR-A
 48
25.0
100
AcDbLine
 10
205.5
 20
131.8729833462074
 30
0.0
 11
205.5
 21
128.0
 31
0.0
  0
LINE
  5
C5
330
2
100
AcDbEntity
  8
GEB-KONTUR-A
 48
25.0
100
AcDbLine
 10
205.5
 20
111.0000000000001
 30
0.0
 11
205.5
 21
128.0
 31
0.0
  0
LINE
  5
C6
330
2
100
AcDbEntity
  8
GEB-KONTUR-A
 48
25.0
100
AcDbLine
 10
205.5
 20
107.0000000000001
 30
0.0
 11
-205.5000000000001
 21
107.0000000000001
 31
0.0
  0
LINE
  5
C7
330
2
100
AcDbEntity
  8
GEB-KONTUR-A
 48
25.0
100
AcDbLine
 10
205.5
 20
111.0000000000001
 30
0.0
 11
205.5
 21
107.1270166537928
 31
0.0
  0
LINE
  5
C8
330
2
100
AcDbEntity
  8
GEB-KONTUR-A
 48
25.0
100
AcDbLine
 10
-205.5000000000001
 20
128.0
 30
0.0
 11
-205.5000000000001
 21
131.8729833462074
 31
0.0
  0
LINE
  5
C9
330
2
100
AcDbEntity
  8
GEB-KONTUR-A
 48
25.0
100
AcDbLine
 10
-205.5000000000001
 20
128.0
 30
0.0
 11
-205.5000000000001
 21
111.0000000000001
 31
0.0
  0
LINE
  5
CA
330
2
100
AcDbEntity
  8
GEB-KONTUR-A
 48
25.0
100
AcDbLine
 10
-205.5000000000001
 20
107.1270166537928
 30
0.0
 11
-205.5000000000001
 21
111.0000000000001
 31
0.0
  0
CIRCLE
  5
CB
330
2
100
AcDbEntity
  8
GEB-KONTUR-A
 48
25.0
100
AcDbCircle
 10
-180.0
 20
219.4999999999998
 30
0.0
 40
2.850000000000001
  0
LINE
  5
CC
330
2
100
AcDbEntity
  8
GEB-KONTUR-A
 48
25.0
100
AcDbLine
 10
-165.0
 20
184.3193472919813
 30
0.0
 11
-165.0
 21
189.4999999999997
 31
0.0
  0
LINE
  5
CD
330
2
100
AcDbEntity
  8
GEB-KONTUR-A
 48
25.0
100
AcDbLine
 10
-195.0
 20
189.4999999999997
 30
0.0
 11
-195.0
 21
184.3193472919813
 31
0.0
  0
LINE
  5
CE
330
2
100
AcDbEntity
  8
GEB-KONTUR-A
 48
25.0
100
AcDbLine
 10
-195.0
 20
189.4999999999997
 30
0.0
 11
-195.0
 21
194.4999999999998
 31
0.0
  0
LINE
  5
CF
330
2
100
AcDbEntity
  8
GEB-KONTUR-A
 48
25.0
100
AcDbLine
 10
-165.0
 20
194.4999999999998
 30
0.0
 11
-165.0
 21
189.4999999999997
 31
0.0
  0
LINE
  5
D0
330
2
100
AcDbEntity
  8
GEB-KONTUR-A
 48
25.0
100
AcDbLine
 10
-165.0
 20
215.7499999999998
 30
0.0
 11
-165.0000000000001
 21
223.7999999999997
 31
0.0
  0
LINE
  5
D1
330
2
100
AcDbEntity
  8
GEB-KONTUR-A
 48
25.0
100
AcDbLine
 10
-195.0
 20
222.7386127875254
 30
0.0
 11
-195.0
 21
217.2613872124741
 31
0.0
  0
ARC
  5
D2
330
2
100
AcDbEntity
  8
GEB-KONTUR-A
 48
25.0
100
AcDbCircle
 10
-180.0000000000001
 20
159.4999999999997
 30
0.0
 40
29.00000000000002
100
AcDbArc
 50
290.1712713464656
 51
58.85261007848974
  0
ARC
  5
D3
330
2
100
AcDbEntity
  8
GEB-KONTUR-A
 48
25.0
100
AcDbCircle
 10
-180.0000000000001
 20
159.4999999999996
 30
0.0
 40
28.99999999999998
100
AcDbArc
 50
208.4407176790248
 51
249.8287286535344
  0
ARC
  5
D4
330
2
100
AcDbEntity
  8
GEB-KONTUR-A
 48
25.0
100
AcDbCircle
 10
-180.0000000000001
 20
159.4999999999997
 30
0.0
 40
28.99999999999993
100
AcDbArc
 50
121.1473899215102
 51
151.5592823209752
  0
CIRCLE
  5
D5
330
2
100
AcDbEntity
  8
GEB-KONTUR-A
 48
25.0
100
AcDbCircle
 10
-194.142135623731
 20
145.3578643762689
 30
0.0
 40
2.850000000000001
  0
CIRCLE
  5
D6
330
2
100
AcDbEntity
  8
GEB-KONTUR-A
 48
25.0
100
AcDbCircle
 10
-200.0000000000001
 20
159.4999999999997
 30
0.0
 40
2.850000000000001
  0
CIRCLE
  5
D7
330
2
100
AcDbEntity
  8
GEB-KONTUR-A
 48
25.0
100
AcDbCircle
 10
-180.0
 20
179.4999999999997
 30
0.0
 40
2.850000000000001
  0
CIRCLE
  5
D8
330
2
100
AcDbEntity
  8
GEB-KONTUR-A
 48
25.0
100
AcDbCircle
 10
-160.0000000000001
 20
159.4999999999997
 30
0.0
 40
2.850000000000001
  0
CIRCLE
  5
D9
330
2
100
AcDbEntity
  8
GEB-KONTUR-A
 48
25.0
100
AcDbCircle
 10
-165.8578643762691
 20
145.3578643762689
 30
0.0
 40
2.850000000000001
  0
CIRCLE
  5
DA
330
2
100
AcDbEntity
  8
GEB-KONTUR-A
 48
25.0
100
AcDbCircle
 10
180.0
 20
219.4999999999995
 30
0.0
 40
2.850000000000006
  0
LINE
  5
DB
330
2
100
AcDbEntity
  8
GEB-KONTUR-A
 48
25.0
100
AcDbLine
 10
195.0
 20
184.3193472919812
 30
0.0
 11
195.0
 21
189.4999999999995
 31
0.0
  0
LINE
  5
DC
330
2
100
AcDbEntity
  8
GEB-KONTUR-A
 48
25.0
100
AcDbLine
 10
164.9999999999999
 20
189.4999999999995
 30
0.0
 11
164.9999999999999
 21
184.3193472919812
 31
0.0
  0
LINE
  5
DD
330
2
100
AcDbEntity
  8
GEB-KONTUR-A
 48
25.0
100
AcDbLine
 10
164.9999999999999
 20
189.4999999999995
 30
0.0
 11
164.9999999999999
 21
194.4999999999995
 31
0.0
  0
LINE
  5
DE
330
2
100
AcDbEntity
  8
GEB-KONTUR-A
 48
25.0
100
AcDbLine
 10
195.0
 20
194.4999999999995
 30
0.0
 11
195.0
 21
189.4999999999995
 31
0.0
  0
LINE
  5
DF
330
2
100
AcDbEntity
  8
GEB-KONTUR-A
 48
25.0
100
AcDbLine
 10
195.0
 20
217.2613872124737
 30
0.0
 11
195.0
 21
222.7386127875259
 31
0.0
  0
LINE
  5
E0
330
2
100
AcDbEntity
  8
GEB-KONTUR-A
 48
25.0
100
AcDbLine
 10
165.0
 20
223.3999999999994
 30
0.0
 11
165.0
 21
215.7499999999998
 31
0.0
  0
ARC
  5
E1
330
2
100
AcDbEntity
  8
GEB-KONTUR-A
 48
25.0
100
AcDbCircle
 10
180.0
 20
159.4999999999996
 30
0.0
 40
28.99999999999991
100
AcDbArc
 50
28.44071767902323
 51
58.85261007848974
  0
ARC
  5
E2
330
2
100
AcDbEntity
  8
GEB-KONTUR-A
 48
25.0
100
AcDbCircle
 10
180.0
 20
159.4999999999993
 30
0.0
 40
28.99999999999997
100
AcDbArc
 50
290.1712713464656
 51
331.5592823209768
  0
ARC
  5
E3
330
2
100
AcDbEntity
  8
GEB-KONTUR-A
 48
25.0
100
AcDbCircle
 10
180.0
 20
159.4999999999995
 30
0.0
 40
29.00000000000003
100
AcDbArc
 50
121.1473899215102
 51
249.8287286535344
  0
CIRCLE
  5
E4
330
2
100
AcDbEntity
  8
GEB-KONTUR-A
 48
25.0
100
AcDbCircle
 10
165.857864376269
 20
145.3578643762686
 30
0.0
 40
2.850000000000006
  0
CIRCLE
  5
E5
330
2
100
AcDbEntity
  8
GEB-KONTUR-A
 48
25.0
100
AcDbCircle
 10
159.9999999999999
 20
159.4999999999995
 30
0.0
 40
2.850000000000006
  0
CIRCLE
  5
E6
330
2
100
AcDbEntity
  8
GEB-KONTUR-A
 48
25.0
100
AcDbCircle
 10
179.9999999999999
 20
179.4999999999995
 30
0.0
 40
2.850000000000006
  0
CIRCLE
  5
E7
330
2
100
AcDbEntity
  8
GEB-KONTUR-A
 48
25.0
100
AcDbCircle
 10
200.0
 20
159.4999999999995
 30
0.0
 40
2.850000000000006
  0
CIRCLE
  5
E8
330
2
100
AcDbEntity
  8
GEB-KONTUR-A
 48
25.0
100
AcDbCircle
 10
194.1421356237309
 20
145.3578643762686
 30
0.0
 40
2.850000000000006
  0
ARC
  5
E9
330
2
100
AcDbEntity
  8
GEB-KONTUR-A
 48
25.0
100
AcDbCircle
 10
-35.49999999999761
 20
222.0999999999981
 30
0.0
 40
4.000000000003149
100
AcDbArc
 50
150.6879253591698
 51
154.8493365874529
  0
LINE
  5
EA
330
2
100
AcDbEntity
  8
GEB-KONTUR-A
 48
25.0
100
AcDbLine
 10
-193.6532866310675
 20
223.7999999999997
 30
0.0
 11
-39.12077339804677
 21
223.7999999999995
 31
0.0
  0
LINE
  5
EB
330
2
100
AcDbEntity
  8
GEB-KONTUR-A
 48
25.0
100
AcDbLine
 10
-28.00000000000046
 20
242.4999999999995
 30
0.0
 11
-28.00000000000046
 21
244.4999999999995
 31
0.0
  0
LINE
  5
EC
330
2
100
AcDbEntity
  8
GEB-KONTUR-A
 48
25.0
100
AcDbLine
 10
-33.00000000000046
 20
244.4999999999995
 30
0.0
 11
-33.00000000000046
 21
242.4999999999995
 31
0.0
  0
LINE
  5
ED
330
2
100
AcDbEntity
  8
GEB-KONTUR-A
 48
25.0
100
AcDbLine
 10
-28.00000000000046
 20
244.4999999999995
 30
0.0
 11
-33.00000000000046
 21
244.4999999999995
 31
0.0
  0
LINE
  5
EE
330
2
100
AcDbEntity
  8
GEB-KONTUR-A
 48
25.0
100
AcDbLine
 10
-209.5000000000004
 20
244.4999999999998
 30
0.0
 11
-33.00000000000046
 21
244.4999999999995
 31
0.0
  0
LINE
  5
EF
330
2
100
AcDbEntity
  8
GEB-KONTUR-A
 48
25.0
100
AcDbLine
 10
-203.5000000000005
 20
242.4999999999995
 30
0.0
 11
-33.00000000000046
 21
242.4999999999995
 31
0.0
  0
LINE
  5
F0
330
2
100
AcDbEntity
  8
GEB-KONTUR-A
 48
25.0
100
AcDbLine
 10
-28.00000000000046
 20
196.4999999999995
 30
0.0
 11
-28.00000000000046
 21
198.4999999999995
 31
0.0
  0
LINE
  5
F1
330
2
100
AcDbEntity
  8
GEB-KONTUR-A
 48
25.0
100
AcDbLine
 10
-28.00000000000046
 20
198.4999999999995
 30
0.0
 11
-28.00000000000046
 21
240.4999999999995
 31
0.0
  0
LINE
  5
F2
330
2
100
AcDbEntity
  8
GEB-KONTUR-A
 48
25.0
100
AcDbLine
 10
-203.5000000000005
 20
196.4999999999998
 30
0.0
 11
-33.00000000000046
 21
196.4999999999995
 31
0.0
  0
LINE
  5
F3
330
2
100
AcDbEntity
  8
GEB-KONTUR-A
 48
25.0
100
AcDbLine
 10
-205.5000000000001
 20
194.4999999999998
 30
0.0
 11
-33.00000000000046
 21
194.4999999999998
 31
0.0
  0
LINE
  5
F4
330
2
100
AcDbEntity
  8
GEB-KONTUR-A
 48
25.0
100
AcDbLine
 10
-33.00000000000046
 20
196.4999999999995
 30
0.0
 11
-33.00000000000046
 21
194.4999999999995
 31
0.0
  0
LINE
  5
F5
330
2
100
AcDbEntity
  8
GEB-KONTUR-A
 48
25.0
100
AcDbLine
 10
-28.00000000000046
 20
196.4999999999995
 30
0.0
 11
-33.00000000000046
 21
196.4999999999995
 31
0.0
  0
LINE
  5
F6
330
2
100
AcDbEntity
  8
GEB-KONTUR-A
 48
25.0
100
AcDbLine
 10
-28.00000000000046
 20
194.4999999999998
 30
0.0
 11
-28.00000000000046
 21
196.4999999999995
 31
0.0
  0
LINE
  5
F7
330
2
100
AcDbEntity
  8
GEB-KONTUR-A
 48
25.0
100
AcDbLine
 10
-33.00000000000046
 20
194.4999999999995
 30
0.0
 11
-28.00000000000046
 21
194.4999999999995
 31
0.0
  0
LINE
  5
F8
330
2
100
AcDbEntity
  8
GEB-KONTUR-A
 48
25.0
100
AcDbLine
 10
-209.5000000000004
 20
242.4999999999995
 30
0.0
 11
-203.5000000000005
 21
242.4999999999995
 31
0.0
  0
LINE
  5
F9
330
2
100
AcDbEntity
  8
GEB-KONTUR-A
 48
25.0
100
AcDbLine
 10
-203.5000000000005
 20
242.4999999999995
 30
0.0
 11
-203.5000000000005
 21
240.4999999999995
 31
0.0
  0
LINE
  5
FA
330
2
100
AcDbEntity
  8
GEB-KONTUR-A
 48
25.0
100
AcDbLine
 10
-203.5000000000005
 20
198.4999999999995
 30
0.0
 11
-203.5000000000005
 21
196.4999999999998
 31
0.0
  0
LINE
  5
FB
330
2
100
AcDbEntity
  8
GEB-KONTUR-A
 48
25.0
100
AcDbLine
 10
-203.5000000000005
 20
196.4999999999998
 30
0.0
 11
-205.5
 21
196.4999999999998
 31
0.0
  0
LINE
  5
FC
330
2
100
AcDbEntity
  8
GEB-KONTUR-A
 48
25.0
100
AcDbLine
 10
-209.5000000000004
 20
198.4999999999998
 30
0.0
 11
-203.5000000000005
 21
198.4999999999998
 31
0.0
  0
LINE
  5
FD
330
2
100
AcDbEntity
  8
GEB-KONTUR-A
 48
25.0
100
AcDbLine
 10
-203.5000000000005
 20
240.4999999999995
 30
0.0
 11
-209.5000000000004
 21
240.4999999999995
 31
0.0
  0
LINE
  5
FE
330
2
100
AcDbEntity
  8
GEB-KONTUR-A
 48
25.0
100
AcDbLine
 10
39.12077339804634
 20
223.3999999999999
 30
0.0
 11
194.3000000000004
 21
223.3999999999994
 31
0.0
  0
ARC
  5
FF
330
2
100
AcDbEntity
  8
GEB-KONTUR-A
 48
25.0
100
AcDbCircle
 10
35.49999999999861
 20
221.6999999999991
 30
0.0
 40
4.000000000001577
100
AcDbArc
 50
25.15066341254705
 51
34.89057208424517
  0
LINE
  5
100
330
2
100
AcDbEntity
  8
GEB-KONTUR-A
 48
25.0
100
AcDbLine
 10
28.0
 20
196.4999999999998
 30
0.0
 11
28.0
 21
194.4999999999998
 31
0.0
  0
LINE
  5
101
330
2
100
AcDbEntity
  8
GEB-KONTUR-A
 48
25.0
100
AcDbLine
 10
33.0
 20
196.4999999999998
 30
0.0
 11
28.0
 21
196.4999999999998
 31
0.0
  0
LINE
  5
102
330
2
100
AcDbEntity
  8
GEB-KONTUR-A
 48
25.0
100
AcDbLine
 10
33.0
 20
194.4999999999998
 30
0.0
 11
33.0
 21
196.4999999999998
 31
0.0
  0
LINE
  5
103
330
2
100
AcDbEntity
  8
GEB-KONTUR-A
 48
25.0
100
AcDbLine
 10
28.0
 20
194.4999999999998
 30
0.0
 11
33.0
 21
194.4999999999998
 31
0.0
  0
LINE
  5
104
330
2
100
AcDbEntity
  8
GEB-KONTUR-A
 48
25.0
100
AcDbLine
 10
205.5
 20
194.4999999999995
 30
0.0
 11
33.0
 21
194.4999999999998
 31
0.0
  0
LINE
  5
105
330
2
100
AcDbEntity
  8
GEB-KONTUR-A
 48
25.0
100
AcDbLine
 10
203.5
 20
196.4999999999995
 30
0.0
 11
33.0
 21
196.4999999999998
 31
0.0
  0
LINE
  5
106
330
2
100
AcDbEntity
  8
GEB-KONTUR-A
 48
25.0
100
AcDbLine
 10
28.00000000000006
 20
240.4999999999998
 30
0.0
 11
28.0
 21
198.4999999999998
 31
0.0
  0
LINE
  5
107
330
2
100
AcDbEntity
  8
GEB-KONTUR-A
 48
25.0
100
AcDbLine
 10
28.0
 20
198.4999999999998
 30
0.0
 11
28.0
 21
196.4999999999998
 31
0.0
  0
LINE
  5
108
330
2
100
AcDbEntity
  8
GEB-KONTUR-A
 48
25.0
100
AcDbLine
 10
203.5000000000001
 20
242.4999999999995
 30
0.0
 11
33.00000000000006
 21
242.4999999999998
 31
0.0
  0
LINE
  5
109
330
2
100
AcDbEntity
  8
GEB-KONTUR-A
 48
25.0
100
AcDbLine
 10
209.5
 20
244.4999999999995
 30
0.0
 11
33.00000000000006
 21
244.4999999999998
 31
0.0
  0
LINE
  5
10A
330
2
100
AcDbEntity
  8
GEB-KONTUR-A
 48
25.0
100
AcDbLine
 10
33.00000000000006
 20
242.4999999999998
 30
0.0
 11
33.00000000000006
 21
244.4999999999998
 31
0.0
  0
LINE
  5
10B
330
2
100
AcDbEntity
  8
GEB-KONTUR-A
 48
25.0
100
AcDbLine
 10
28.00000000000006
 20
244.4999999999998
 30
0.0
 11
28.00000000000006
 21
242.4999999999998
 31
0.0
  0
LINE
  5
10C
330
2
100
AcDbEntity
  8
GEB-KONTUR-A
 48
25.0
100
AcDbLine
 10
33.00000000000006
 20
244.4999999999998
 30
0.0
 11
28.00000000000006
 21
244.4999999999998
 31
0.0
  0
LINE
  5
10D
330
2
100
AcDbEntity
  8
GEB-KONTUR-A
 48
25.0
100
AcDbLine
 10
205.4999999999999
 20
196.4999999999995
 30
0.0
 11
203.5
 21
196.4999999999995
 31
0.0
  0
LINE
  5
10E
330
2
100
AcDbEntity
  8
GEB-KONTUR-A
 48
25.0
100
AcDbLine
 10
203.5
 20
196.4999999999995
 30
0.0
 11
203.5
 21
198.4999999999995
 31
0.0
  0
LINE
  5
10F
330
2
100
AcDbEntity
  8
GEB-KONTUR-A
 48
25.0
100
AcDbLine
 10
203.5000000000001
 20
240.4999999999995
 30
0.0
 11
203.5000000000001
 21
242.4999999999995
 31
0.0
  0
LINE
  5
110
330
2
100
AcDbEntity
  8
GEB-KONTUR-A
 48
25.0
100
AcDbLine
 10
203.5000000000001
 20
242.4999999999995
 30
0.0
 11
209.5
 21
242.4999999999995
 31
0.0
  0
LINE
  5
111
330
2
100
AcDbEntity
  8
GEB-KONTUR-A
 48
25.0
100
AcDbLine
 10
209.5
 20
240.4999999999995
 30
0.0
 11
203.5000000000001
 21
240.4999999999995
 31
0.0
  0
LINE
  5
112
330
2
100
AcDbEntity
  8
GEB-KONTUR-A
 48
25.0
100
AcDbLine
 10
203.5
 20
198.4999999999995
 30
0.0
 11
209.5
 21
198.4999999999995
 31
0.0
  0
LINE
  5
113
330
2
100
AcDbEntity
  8
GEB-KONTUR-A
 48
25.0
100
AcDbLine
 10
12.49999999999988
 20
242.5
 30
0.0
 11
200.9999999999999
 21
242.4999999999995
 31
0.0
  0
LINE
  5
114
330
2
100
AcDbEntity
  8
GEB-KONTUR-A
 48
25.0
100
AcDbLine
 10
-200.9999999999998
 20
242.5000000000002
 30
0.0
 11
-12.50000000000005
 21
242.5
 31
0.0
  0
LINE
  5
115
330
2
100
AcDbEntity
  8
GEB-KONTUR-A
 48
25.0
100
AcDbLine
 10
200.9999999999999
 20
240.4999999999995
 30
0.0
 11
200.9999999999999
 21
242.4999999999995
 31
0.0
  0
LINE
  5
116
330
2
100
AcDbEntity
  8
GEB-KONTUR-A
 48
25.0
100
AcDbLine
 10
-200.9999999999998
 20
242.5000000000002
 30
0.0
 11
-200.9999999999998
 21
240.5000000000002
 31
0.0
  0
LINE
  5
117
330
2
100
AcDbEntity
  8
GEB-KONTUR-A
 48
25.0
100
AcDbLine
 10
200.9999999999999
 20
197.9999999999995
 30
0.0
 11
200.9999999999999
 21
238.4999999999995
 31
0.0
  0
LINE
  5
118
330
2
100
AcDbEntity
  8
GEB-KONTUR-A
 48
25.0
100
AcDbLine
 10
200.9999999999999
 20
197.9999999999995
 30
0.0
 11
28.50000000000006
 21
197.9999999999997
 31
0.0
  0
LINE
  5
119
330
2
100
AcDbEntity
  8
GEB-KONTUR-A
 48
25.0
100
AcDbLine
 10
-28.49999999999994
 20
197.9999999999997
 30
0.0
 11
-200.9999999999998
 21
198.0
 31
0.0
  0
LINE
  5
11A
330
2
100
AcDbEntity
  8
GEB-KONTUR-A
 48
25.0
100
AcDbLine
 10
-200.9999999999998
 20
238.5
 30
0.0
 11
-200.9999999999998
 21
198.0
 31
0.0
  0
LINE
  5
11B
330
2
100
AcDbEntity
  8
GEB-KONTUR-A
 48
25.0
100
AcDbLine
 10
200.9999999999999
 20
238.4999999999995
 30
0.0
 11
200.9999999999999
 21
240.4999999999995
 31
0.0
  0
LINE
  5
11C
330
2
100
AcDbEntity
  8
GEB-KONTUR-A
 48
25.0
100
AcDbLine
 10
-200.9999999999998
 20
240.5
 30
0.0
 11
-200.9999999999998
 21
238.5
 31
0.0
  0
LINE
  5
11D
330
2
100
AcDbEntity
  8
GEB-KONTUR-A
 48
25.0
100
AcDbLine
 10
-12.50000000000005
 20
240.4999999999998
 30
0.0
 11
-200.9999999999998
 21
240.5000000000002
 31
0.0
  0
LINE
  5
11E
330
2
100
AcDbEntity
  8
GEB-KONTUR-A
 48
25.0
100
AcDbLine
 10
200.9999999999999
 20
240.4999999999995
 30
0.0
 11
12.49999999999988
 21
240.4999999999998
 31
0.0
  0
LINE
  5
11F
330
2
100
AcDbEntity
  8
GEB-KONTUR-A
 48
25.0
100
AcDbLine
 10
-28.49999999999994
 20
197.9999999999997
 30
0.0
 11
-28.49999999999994
 21
238.4999999999998
 31
0.0
  0
LINE
  5
120
330
2
100
AcDbEntity
  8
GEB-KONTUR-A
 48
25.0
100
AcDbLine
 10
-28.49999999999994
 20
238.4999999999998
 30
0.0
 11
-28.49999999999994
 21
240.4999999999998
 31
0.0
  0
LINE
  5
121
330
2
100
AcDbEntity
  8
GEB-KONTUR-A
 48
25.0
100
AcDbLine
 10
28.50000000000006
 20
238.4999999999998
 30
0.0
 11
28.50000000000006
 21
197.9999999999997
 31
0.0
  0
LINE
  5
122
330
2
100
AcDbEntity
  8
GEB-KONTUR-A
 48
25.0
100
AcDbLine
 10
28.50000000000006
 20
240.4999999999998
 30
0.0
 11
28.50000000000006
 21
238.4999999999998
 31
0.0
  0
LINE
  5
123
330
2
100
AcDbEntity
  8
GEB-KONTUR-A
 48
25.0
100
AcDbLine
 10
-40.24999999999988
 20
215.75
 30
0.0
 11
-191.7499999999997
 21
215.75
 31
0.0
  0
ARC
  5
124
330
2
100
AcDbEntity
  8
GEB-KONTUR-A
 48
25.0
100
AcDbCircle
 10
-40.24999999999988
 20
220.0
 30
0.0
 40
4.249999999999996
100
AcDbArc
 50
270.0
 51
90.0
  0
LINE
  5
125
330
2
100
AcDbEntity
  8
GEB-KONTUR-A
 48
25.0
100
AcDbLine
 10
-191.7499999999997
 20
224.2500000000002
 30
0.0
 11
-40.24999999999988
 21
224.2499999999998
 31
0.0
  0
ARC
  5
126
330
2
100
AcDbEntity
  8
GEB-KONTUR-A
 48
25.0
100
AcDbCircle
 10
-191.7499999999997
 20
220.0
 30
0.0
 40
4.250000000000001
100
AcDbArc
 50
90.0
 51
270.0
  0
LINE
  5
127
330
2
100
AcDbEntity
  8
GEB-KONTUR-A
 48
25.0
100
AcDbLine
 10
191.7499999999999
 20
215.7499999999995
 30
0.0
 11
40.25000000000008
 21
215.7499999999998
 31
0.0
  0
ARC
  5
128
330
2
100
AcDbEntity
  8
GEB-KONTUR-A
 48
25.0
100
AcDbCircle
 10
191.7499999999999
 20
219.9999999999995
 30
0.0
 40
4.250000000000002
100
AcDbArc
 50
270.0
 51
90.0
  0
LINE
  5
129
330
2
100
AcDbEntity
  8
GEB-KONTUR-A
 48
25.0
100
AcDbLine
 10
40.25000000000011
 20
224.2499999999998
 30
0.0
 11
191.7499999999999
 21
224.2499999999996
 31
0.0
  0
ARC
  5
12A
330
2
100
AcDbEntity
  8
GEB-KONTUR-A
 48
25.0
100
AcDbCircle
 10
40.25000000000008
 20
219.9999999999998
 30
0.0
 40
4.249999999999995
100
AcDbArc
 50
90.0
 51
270.0
  0
LINE
  5
12B
330
2
100
AcDbEntity
  8
GEB-KONTUR-A
 48
25.0
100
AcDbLine
 10
-11.0
 20
297.0000000000002
 30
0.0
 11
11.0
 21
297.0000000000002
 31
0.0
  0
LINE
  5
12C
330
2
100
AcDbEntity
  8
GEB-KONTUR-A
 48
25.0
100
AcDbLine
 10
11.0
 20
343.0000000000002
 30
0.0
 11
-11.0
 21
343.0000000000002
 31
0.0
  0
LINE
  5
12D
330
2
100
AcDbEntity
  8
GEB-KONTUR-A
 48
25.0
100
AcDbLine
 10
-11.0
 20
297.0000000000002
 30
0.0
 11
-16.0
 21
297.0000000000002
 31
0.0
  0
LINE
  5
12E
330
2
100
AcDbEntity
  8
GEB-KONTUR-A
 48
25.0
100
AcDbLine
 10
-16.0
 20
304.0000000000002
 30
0.0
 11
-16.0
 21
297.0000000000002
 31
0.0
  0
LINE
  5
12F
330
2
100
AcDbEntity
  8
GEB-KONTUR-A
 48
25.0
100
AcDbLine
 10
-16.0
 20
343.0000000000002
 30
0.0
 11
-16.0
 21
336.0000000000002
 31
0.0
  0
LINE
  5
130
330
2
100
AcDbEntity
  8
GEB-KONTUR-A
 48
25.0
100
AcDbLine
 10
16.0
 20
297.0000000000002
 30
0.0
 11
11.0
 21
297.0000000000002
 31
0.0
  0
LINE
  5
131
330
2
100
AcDbEntity
  8
GEB-KONTUR-A
 48
25.0
100
AcDbLine
 10
11.0
 20
343.0000000000002
 30
0.0
 11
16.0
 21
343.0000000000002
 31
0.0
  0
LINE
  5
132
330
2
100
AcDbEntity
  8
GEB-KONTUR-A
 48
25.0
100
AcDbLine
 10
-16.0
 20
343.0000000000002
 30
0.0
 11
-11.0
 21
343.0000000000002
 31
0.0
  0
LINE
  5
133
330
2
100
AcDbEntity
  8
GEB-KONTUR-A
 48
25.0
100
AcDbLine
 10
16.0
 20
336.0000000000002
 30
0.0
 11
16.0
 21
343.0000000000002
 31
0.0
  0
LINE
  5
134
330
2
100
AcDbEntity
  8
GEB-KONTUR-A
 48
25.0
100
AcDbLine
 10
16.0
 20
297.0000000000002
 30
0.0
 11
16.0
 21
304.0000000000002
 31
0.0
  0
CIRCLE
  5
135
330
2
100
AcDbEntity
  8
GEB-KONTUR-A
 48
25.0
100
AcDbCircle
 10
0.0
 20
320.0000000000002
 30
0.0
 40
3.400000000000002
  0
LINE
  5
136
330
2
100
AcDbEntity
  8
GEB-KONTUR-A
 48
25.0
100
AcDbLine
 10
-206.0
 20
409.0
 30
0.0
 11
-209.5358983848626
 21
409.0
 31
0.0
  0
LINE
  5
137
330
2
100
AcDbEntity
  8
GEB-KONTUR-A
 48
25.0
100
AcDbLine
 10
-205.9999999999999
 20
304.5000000000005
 30
0.0
 11
-205.9999999999999
 21
299.0000000000002
 31
0.0
  0
LINE
  5
138
330
2
100
AcDbEntity
  8
GEB-KONTUR-A
 48
25.0
100
AcDbLine
 10
-206.0
 20
409.0
 30
0.0
 11
-206.0
 21
335.5000000000002
 31
0.0
  0
LINE
  5
139
330
2
100
AcDbEntity
  8
GEB-KONTUR-A
 48
25.0
100
AcDbLine
 10
-209.5358983848628
 20
299.0
 30
0.0
 11
-206.0
 21
299.0000000000002
 31
0.0
  0
LINE
  5
13A
330
2
100
AcDbEntity
  8
GEB-KONTUR-A
 48
25.0
100
AcDbLine
 10
206.0
 20
299.0000000000005
 30
0.0
 11
209.5358983848623
 21
299.0000000000005
 31
0.0
  0
LINE
  5
13B
330
2
100
AcDbEntity
  8
GEB-KONTUR-A
 48
25.0
100
AcDbLine
 10
206.0
 20
335.5000000000002
 30
0.0
 11
206.0
 21
409.0000000000004
 31
0.0
  0
LINE
  5
13C
330
2
100
AcDbEntity
  8
GEB-KONTUR-A
 48
25.0
100
AcDbLine
 10
206.0
 20
299.0000000000005
 30
0.0
 11
206.0
 21
304.5000000000002
 31
0.0
  0
LINE
  5
13D
330
2
100
AcDbEntity
  8
GEB-KONTUR-A
 48
25.0
100
AcDbLine
 10
209.5358983848624
 20
409.0000000000004
 30
0.0
 11
206.0
 21
409.0000000000004
 31
0.0
  0
ARC
  5
13E
330
2
100
AcDbEntity
  8
GEB-KONTUR-A
 48
25.0
100
AcDbCircle
 10
0.0
 20
320.0000000000002
 30
0.0
 40
10.5
100
AcDbArc
 50
295.2087652967581
 51
64.79123470324193
  0
SPLINE
  5
13F
330
2
100
AcDbEntity
  8
GEB-KONTUR-A
 48
25.0
100
AcDbSpline
210
0.0
220
0.0
230
1.0
 70
     8
 71
     3
 72
    14
 73
    10
 74
     0
 42
0.0000000001
 43
0.0000000001
 40
1.197808910274808
 40
1.197808910274808
 40
1.197808910274808
 40
1.197808910274808
 40
1.286467389132703
 40
1.286467389132703
 40
1.638347832378612
 40
1.638347832378612
 40
1.990228275624522
 40
1.990228275624522
 40
2.078886754482417
 40
2.078886754482417
 40
2.078886754482417
 40
2.078886754482417
 10
4.472135954999544
 20
310.5000000000002
 30
0.0
 10
4.188805415411309
 20
310.3666218217643
 30
0.0
 10
3.8982331070452
 20
310.2453708435946
 30
0.0
 10
2.429624925973314
 20
309.708907804611
 30
0.0
 10
1.172934810819697
 20
309.5000000000002
 30
0.0
 10
-1.172934810819697
 20
309.5000000000002
 30
0.0
 10
-2.429624925973314
 20
309.708907804611
 30
0.0
 10
-3.8982331070452
 20
310.2453708435946
 30
0.0
 10
-4.188805415411309
 20
310.3666218217643
 30
0.0
 10
-4.4721359549996
 20
310.5000000000002
 30
0.0
  0
ARC
  5
140
330
2
100
AcDbEntity
  8
GEB-KONTUR-A
 48
25.0
100
AcDbCircle
 10
0.0
 20
320.0000000000002
 30
0.0
 40
10.5
100
AcDbArc
 50
115.208765296758
 51
244.7912347032419
  0
SPLINE
  5
141
330
2
100
AcDbEntity
  8
GEB-KONTUR-A
 48
25.0
100
AcDbSpline
210
0.0
220
0.0
230
1.0
 70
     8
 71
     3
 72
    14
 73
    10
 74
     0
 42
0.0000000001
 43
0.0000000001
 40
1.197808910274807
 40
1.197808910274807
 40
1.197808910274807
 40
1.197808910274807
 40
1.286467389132704
 40
1.286467389132704
 40
1.638347832378614
 40
1.638347832378614
 40
1.990228275624524
 40
1.990228275624524
 40
2.078886754482422
 40
2.078886754482422
 40
2.078886754482422
 40
2.078886754482422
 10
-4.4721359549996
 20
329.5000000000002
 30
0.0
 10
-4.188805415411309
 20
329.6333781782362
 30
0.0
 10
-3.898233107045257
 20
329.7546291564058
 30
0.0
 10
-2.429624925973314
 20
330.2910921953892
 30
0.0
 10
-1.172934810819697
 20
330.5000000000002
 30
0.0
 10
1.172934810819697
 20
330.5000000000002
 30
0.0
 10
2.429624925973314
 20
330.2910921953892
 30
0.0
 10
3.8982331070452
 20
329.7546291564058
 30
0.0
 10
4.188805415411309
 20
329.6333781782362
 30
0.0
 10
4.4721359549996
 20
329.5000000000002
 30
0.0
  0
LINE
  5
142
330
2
100
AcDbEntity
  8
GEB-KONTUR-A
 48
25.0
100
AcDbLine
 10
206.0
 20
310.5000000000004
 30
0.0
 11
206.0
 21
304.5000000000005
 31
0.0
  0
LINE
  5
143
330
2
100
AcDbEntity
  8
GEB-KONTUR-A
 48
25.0
100
AcDbLine
 10
206.0
 20
304.0000000000004
 30
0.0
 11
-206.0
 21
304.0000000000002
 31
0.0
  0
LINE
  5
144
330
2
100
AcDbEntity
  8
GEB-KONTUR-A
 48
25.0
100
AcDbLine
 10
-206.0
 20
329.5
 30
0.0
 11
-206.0
 21
310.5
 31
0.0
  0
LINE
  5
145
330
2
100
AcDbEntity
  8
GEB-KONTUR-A
 48
25.0
100
AcDbLine
 10
-206.0
 20
304.5
 30
0.0
 11
-206.0
 21
310.5
 31
0.0
  0
LINE
  5
146
330
2
100
AcDbEntity
  8
GEB-KONTUR-A
 48
25.0
100
AcDbLine
 10
206.0
 20
310.5000000000004
 30
0.0
 11
206.0
 21
329.5000000000005
 31
0.0
  0
LINE
  5
147
330
2
100
AcDbEntity
  8
GEB-KONTUR-A
 48
25.0
100
AcDbLine
 10
-206.0
 20
329.5
 30
0.0
 11
-206.0
 21
335.5
 31
0.0
  0
LINE
  5
148
330
2
100
AcDbEntity
  8
GEB-KONTUR-A
 48
25.0
100
AcDbLine
 10
206.0
 20
335.5000000000004
 30
0.0
 11
206.0
 21
329.5000000000005
 31
0.0
  0
LINE
  5
149
330
2
100
AcDbEntity
  8
GEB-KONTUR-A
 48
25.0
100
AcDbLine
 10
206.0
 20
336.0000000000005
 30
0.0
 11
-206.0
 21
336.0
 31
0.0
  0
CIRCLE
  5
14A
330
2
100
AcDbEntity
  8
GEB-KONTUR-A
 48
25.0
100
AcDbCircle
 10
-115.0
 20
320.0
 30
0.0
 40
5.624999999999999
  0
CIRCLE
  5
14B
330
2
100
AcDbEntity
  8
GEB-KONTUR-A
 48
25.0
100
AcDbCircle
 10
-90.0
 20
320.0
 30
0.0
 40
5.624999999999999
  0
CIRCLE
  5
14C
330
2
100
AcDbEntity
  8
GEB-KONTUR-A
 48
25.0
100
AcDbCircle
 10
89.99999999999991
 20
320.0000000000002
 30
0.0
 40
5.624999999999999
  0
CIRCLE
  5
14D
330
2
100
AcDbEntity
  8
GEB-KONTUR-A
 48
25.0
100
AcDbCircle
 10
115.0
 20
320.0000000000002
 30
0.0
 40
5.624999999999999
  0
ARC
  5
14E
330
2
100
AcDbEntity
  8
GEB-KONTUR-A
 48
25.0
100
AcDbCircle
 10
-35.79680931689058
 20
177.5933027115488
 30
0.0
 40
4.593302711548652
100
AcDbArc
 50
270.0
 51
348.016031916541
  0
LINE
  5
14F
330
2
100
AcDbEntity
  8
GEB-KONTUR-A
 48
25.0
100
AcDbLine
 10
-35.79680931689058
 20
173.0000000000002
 30
0.0
 11
-45.0
 21
173.0000000000002
 31
0.0
  0
LINE
  5
150
330
2
100
AcDbEntity
  8
GEB-KONTUR-A
 48
25.0
100
AcDbLine
 10
-45.0
 20
173.0000000000002
 30
0.0
 11
-45.0
 21
174.5000000000002
 31
0.0
  0
LINE
  5
151
330
2
100
AcDbEntity
  8
GEB-KONTUR-A
 48
25.0
100
AcDbLine
 10
-45.0
 20
174.5000000000002
 30
0.0
 11
-35.79680931689058
 21
174.5000000000002
 31
0.0
  0
ARC
  5
152
330
2
100
AcDbEntity
  8
GEB-KONTUR-A
 48
25.0
100
AcDbCircle
 10
-35.79680931689058
 20
177.5933027115488
 30
0.0
 40
3.093302711548661
100
AcDbArc
 50
270.0
 51
348.023806091333
  0
ARC
  5
153
330
2
100
AcDbEntity
  8
GEB-KONTUR-A
 48
25.0
100
AcDbCircle
 10
-35.79680931689058
 20
162.4066972884516
 30
0.0
 40
4.593302711548653
100
AcDbArc
 50
11.98396808345904
 51
90.0
  0
LINE
  5
154
330
2
100
AcDbEntity
  8
GEB-KONTUR-A
 48
25.0
100
AcDbLine
 10
-35.79680931689058
 20
167.0000000000002
 30
0.0
 11
-45.0
 21
167.0000000000002
 31
0.0
  0
LINE
  5
155
330
2
100
AcDbEntity
  8
GEB-KONTUR-A
 48
25.0
100
AcDbLine
 10
-45.0
 20
167.0000000000002
 30
0.0
 11
-45.0
 21
165.5000000000002
 31
0.0
  0
LINE
  5
156
330
2
100
AcDbEntity
  8
GEB-KONTUR-A
 48
25.0
100
AcDbLine
 10
-45.0
 20
165.5000000000002
 30
0.0
 11
-35.79680931689058
 21
165.5000000000002
 31
0.0
  0
ARC
  5
157
330
2
100
AcDbEntity
  8
GEB-KONTUR-A
 48
25.0
100
AcDbCircle
 10
-35.79680931689058
 20
162.4066972884516
 30
0.0
 40
3.093302711548661
100
AcDbArc
 50
11.97619390866699
 51
90.0
  0
LINE
  5
158
330
2
100
AcDbEntity
  8
GEB-KONTUR-A
 48
25.0
100
AcDbLine
 10
-36.0
 20
152.5000000000002
 30
0.0
 11
-36.0
 21
165.5000000000002
 31
0.0
  0
LINE
  5
159
330
2
100
AcDbEntity
  8
GEB-KONTUR-A
 48
25.0
100
AcDbLine
 10
-42.0
 20
152.5000000000002
 30
0.0
 11
-42.0
 21
165.5000000000002
 31
0.0
  0
LINE
  5
15A
330
2
100
AcDbEntity
  8
GEB-KONTUR-A
 48
25.0
100
AcDbLine
 10
-36.0
 20
174.5000000000002
 30
0.0
 11
-36.0
 21
187.5000000000002
 31
0.0
  0
LINE
  5
15B
330
2
100
AcDbEntity
  8
GEB-KONTUR-A
 48
25.0
100
AcDbLine
 10
-42.0
 20
174.5000000000002
 30
0.0
 11
-42.0
 21
187.5000000000002
 31
0.0
  0
LINE
  5
15C
330
2
100
AcDbEntity
  8
GEB-KONTUR-A
 48
25.0
100
AcDbLine
 10
-36.0
 20
167.0000000000002
 30
0.0
 11
-36.0
 21
173.0000000000002
 31
0.0
  0
LINE
  5
15D
330
2
100
AcDbEntity
  8
GEB-KONTUR-A
 48
25.0
100
AcDbLine
 10
-42.0
 20
167.0000000000002
 30
0.0
 11
-42.0
 21
173.0000000000002
 31
0.0
  0
LINE
  5
15E
330
2
100
AcDbEntity
  8
GEB-KONTUR-A
 48
25.0
100
AcDbLine
 10
-35.99999999999994
 20
152.5000000000002
 30
0.0
 11
-42.00000000000005
 21
152.5000000000002
 31
0.0
  0
LINE
  5
15F
330
2
100
AcDbEntity
  8
GEB-KONTUR-A
 48
25.0
100
AcDbLine
 10
-34.0
 20
187.5000000000002
 30
0.0
 11
-34.0
 21
190.5000000000002
 31
0.0
  0
LINE
  5
160
330
2
100
AcDbEntity
  8
GEB-KONTUR-A
 48
25.0
100
AcDbLine
 10
-44.0
 20
187.5000000000002
 30
0.0
 11
-44.0
 21
190.5000000000002
 31
0.0
  0
LINE
  5
161
330
2
100
AcDbEntity
  8
GEB-KONTUR-A
 48
25.0
100
AcDbLine
 10
-44.0
 20
187.5000000000002
 30
0.0
 11
-34.0
 21
187.5000000000002
 31
0.0
  0
ARC
  5
162
330
2
100
AcDbEntity
  8
GEB-KONTUR-A
 48
25.0
100
AcDbCircle
 10
-37.92325518826465
 20
182.5581379706617
 30
0.0
 40
10.00000000000001
100
AcDbArc
 50
96.18127687826143
 51
127.421542094444
  0
ARC
  5
163
330
2
100
AcDbEntity
  8
GEB-KONTUR-A
 48
25.0
100
AcDbCircle
 10
-40.0767448117354
 20
182.5581379706617
 30
0.0
 40
10.00000000000001
100
AcDbArc
 50
52.57845790555599
 51
83.81872312173857
  0
LINE
  5
164
330
2
100
AcDbEntity
  8
GEB-KONTUR-A
 48
25.0
100
AcDbLine
 10
-44.0
 20
190.5000000000002
 30
0.0
 11
-34.0
 21
190.5000000000002
 31
0.0
  0
ARC
  5
165
330
2
100
AcDbEntity
  8
GEB-KONTUR-A
 48
25.0
100
AcDbCircle
 10
0.0000000000000568
 20
170.0000000000002
 30
0.0
 40
34.00000000000005
100
AcDbArc
 50
90.0
 51
168.0234560017371
  0
ARC
  5
166
330
2
100
AcDbEntity
  8
GEB-KONTUR-A
 48
25.0
100
AcDbCircle
 10
0.0
 20
170.0000000000002
 30
0.0
 40
27.00000000000002
100
AcDbArc
 50
191.9704628121495
 51
168.0295371878504
  0
LINE
  5
167
330
2
100
AcDbEntity
  8
GEB-KONTUR-A
 48
25.0
100
AcDbLine
 10
-33.25990957571969
 20
177.055381989301
 30
0.0
 11
-26.41287564806225
 21
175.6000000000002
 31
0.0
  0
LINE
  5
168
330
2
100
AcDbEntity
  8
GEB-KONTUR-A
 48
25.0
100
AcDbLine
 10
-26.41287564806225
 20
164.4000000000002
 30
0.0
 11
-33.25990957571969
 21
162.9446180106993
 31
0.0
  0
ARC
  5
169
330
2
100
AcDbEntity
  8
GEB-KONTUR-A
 48
25.0
100
AcDbCircle
 10
0.0
 20
170.0000000000002
 30
0.0
 40
34.00000000000003
100
AcDbArc
 50
191.9765439982629
 51
90.0
  0
LINE
  5
16A
330
2
100
AcDbEntity
  8
GEB-KONTUR-A
 48
25.0
100
AcDbLine
 10
8.5
 20
208.0000000000002
 30
0.0
 11
8.5
 21
211.0000000000002
 31
0.0
  0
LINE
  5
16B
330
2
100
AcDbEntity
  8
GEB-KONTUR-A
 48
25.0
100
AcDbLine
 10
8.5
 20
206.0000000000002
 30
0.0
 11
8.5
 21
208.0000000000002
 31
0.0
  0
LINE
  5
16C
330
2
100
AcDbEntity
  8
GEB-KONTUR-A
 48
25.0
100
AcDbLine
 10
8.500000000000056
 20
204.0000000000002
 30
0.0
 11
0.0
 21
204.0000000000002
 31
0.0
  0
LINE
  5
16D
330
2
100
AcDbEntity
  8
GEB-KONTUR-A
 48
25.0
100
AcDbLine
 10
0.0
 20
204.0000000000002
 30
0.0
 11
-8.5
 21
204.0000000000002
 31
0.0
  0
LINE
  5
16E
330
2
100
AcDbEntity
  8
GEB-KONTUR-A
 48
25.0
100
AcDbLine
 10
-8.5
 20
206.0000000000002
 30
0.0
 11
8.500000000000056
 21
206.0000000000002
 31
0.0
  0
LINE
  5
16F
330
2
100
AcDbEntity
  8
GEB-KONTUR-A
 48
25.0
100
AcDbLine
 10
8.500000000000056
 20
204.0000000000002
 30
0.0
 11
8.500000000000056
 21
206.0000000000002
 31
0.0
  0
LINE
  5
170
330
2
100
AcDbEntity
  8
GEB-KONTUR-A
 48
25.0
100
AcDbLine
 10
-8.5
 20
211.0000000000002
 30
0.0
 11
-8.5
 21
208.0000000000002
 31
0.0
  0
LINE
  5
171
330
2
100
AcDbEntity
  8
GEB-KONTUR-A
 48
25.0
100
AcDbLine
 10
-8.5
 20
208.0000000000002
 30
0.0
 11
-8.5
 21
206.0000000000002
 31
0.0
  0
LINE
  5
172
330
2
100
AcDbEntity
  8
GEB-KONTUR-A
 48
25.0
100
AcDbLine
 10
-8.5
 20
206.0000000000002
 30
0.0
 11
-8.5
 21
204.0000000000002
 31
0.0
  0
LINE
  5
173
330
2
100
AcDbEntity
  8
GEB-KONTUR-A
 48
25.0
100
AcDbLine
 10
8.5
 20
495.0000000000001
 30
0.0
 11
-8.5
 21
495.0000000000001
 31
0.0
  0
LINE
  5
174
330
2
100
AcDbEntity
  8
GEB-KONTUR-A
 48
25.0
100
AcDbLine
 10
8.5
 20
495.0000000000001
 30
0.0
 11
12.5
 21
495.0000000000001
 31
0.0
  0
LINE
  5
175
330
2
100
AcDbEntity
  8
GEB-KONTUR-A
 48
25.0
100
AcDbLine
 10
12.5
 20
343.0000000000002
 30
0.0
 11
12.5
 21
495.0000000000001
 31
0.0
  0
LINE
  5
176
330
2
100
AcDbEntity
  8
GEB-KONTUR-A
 48
25.0
100
AcDbLine
 10
12.5
 20
211.0000000000002
 30
0.0
 11
12.5
 21
297.0000000000002
 31
0.0
  0
LINE
  5
177
330
2
100
AcDbEntity
  8
GEB-KONTUR-A
 48
25.0
100
AcDbLine
 10
-12.5
 20
343.0000000000002
 30
0.0
 11
-12.5
 21
495.0000000000001
 31
0.0
  0
LINE
  5
178
330
2
100
AcDbEntity
  8
GEB-KONTUR-A
 48
25.0
100
AcDbLine
 10
-12.5
 20
211.0000000000002
 30
0.0
 11
-12.5
 21
297.0000000000005
 31
0.0
  0
LINE
  5
179
330
2
100
AcDbEntity
  8
GEB-KONTUR-A
 48
25.0
100
AcDbLine
 10
-12.5
 20
495.0000000000001
 30
0.0
 11
-8.5
 21
495.0000000000001
 31
0.0
  0
LINE
  5
17A
330
2
100
AcDbEntity
  8
GEB-KONTUR-A
 48
25.0
100
AcDbLine
 10
12.5
 20
211.0000000000002
 30
0.0
 11
8.5
 21
211.0000000000002
 31
0.0
  0
LINE
  5
17B
330
2
100
AcDbEntity
  8
GEB-KONTUR-A
 48
25.0
100
AcDbLine
 10
-8.5
 20
211.0000000000002
 30
0.0
 11
-12.5
 21
211.0000000000002
 31
0.0
  0
LINE
  5
17C
330
2
100
AcDbEntity
  8
GEB-KONTUR-A
 48
25.0
100
AcDbLine
 10
249.5
 20
0.0000000000002274
 30
0.0
 11
249.5
 21
8.000000000000227
 31
0.0
  0
LINE
  5
17D
330
2
100
AcDbEntity
  8
GEB-KONTUR-A
 48
25.0
100
AcDbLine
 10
249.5
 20
0.0000000000002274
 30
0.0
 11
247.0000000000001
 21
0.0000000000002274
 31
0.0
  0
LINE
  5
17E
330
2
100
AcDbEntity
  8
GEB-KONTUR-A
 48
25.0
100
AcDbLine
 10
179.0
 20
0.0000000000002274
 30
0.0
 11
247.0000000000001
 21
0.0000000000002274
 31
0.0
  0
LINE
  5
17F
330
2
100
AcDbEntity
  8
GEB-KONTUR-A
 48
25.0
100
AcDbLine
 10
179.0
 20
0.0000000000002274
 30
0.0
 11
176.5
 21
0.0000000000002274
 31
0.0
  0
LINE
  5
180
330
2
100
AcDbEntity
  8
GEB-KONTUR-A
 48
25.0
100
AcDbLine
 10
176.5
 20
0.0000000000002274
 30
0.0
 11
176.5
 21
8.000000000000227
 31
0.0
  0
LINE
  5
181
330
2
100
AcDbEntity
  8
GEB-KONTUR-A
 48
25.0
100
AcDbLine
 10
249.5
 20
8.000000000000227
 30
0.0
 11
247.0000000000001
 21
8.000000000000227
 31
0.0
  0
LINE
  5
182
330
2
100
AcDbEntity
  8
GEB-KONTUR-A
 48
25.0
100
AcDbLine
 10
179.0
 20
8.000000000000227
 30
0.0
 11
247.0000000000001
 21
8.000000000000227
 31
0.0
  0
LINE
  5
183
330
2
100
AcDbEntity
  8
GEB-KONTUR-A
 48
25.0
100
AcDbLine
 10
179.0
 20
8.000000000000227
 30
0.0
 11
176.5
 21
8.000000000000227
 31
0.0
  0
LINE
  5
184
330
2
100
AcDbEntity
  8
GEB-KONTUR-A
 48
25.0
100
AcDbLine
 10
247.5
 20
8.000000000000227
 30
0.0
 11
247.5
 21
70.00000000000023
 31
0.0
  0
LINE
  5
185
330
2
100
AcDbEntity
  8
GEB-KONTUR-A
 48
25.0
100
AcDbLine
 10
212.5
 20
8.000000000000227
 30
0.0
 11
212.5
 21
70.00000000000023
 31
0.0
  0
LINE
  5
186
330
2
100
AcDbEntity
  8
GEB-KONTUR-A
 48
25.0
100
AcDbLine
 10
-247.5000000000004
 20
8.000000000000227
 30
0.0
 11
-247.5000000000004
 21
70.00000000000023
 31
0.0
  0
LINE
  5
187
330
2
100
AcDbEntity
  8
GEB-KONTUR-A
 48
25.0
100
AcDbLine
 10
-212.5000000000004
 20
8.000000000000227
 30
0.0
 11
-212.5000000000004
 21
70.00000000000023
 31
0.0
  0
LINE
  5
188
330
2
100
AcDbEntity
  8
GEB-KONTUR-A
 48
25.0
100
AcDbLine
 10
-249.5000000000004
 20
0.0000000000002274
 30
0.0
 11
-247.0000000000003
 21
0.0000000000002274
 31
0.0
  0
LINE
  5
189
330
2
100
AcDbEntity
  8
GEB-KONTUR-A
 48
25.0
100
AcDbLine
 10
-249.5000000000004
 20
0.0000000000002274
 30
0.0
 11
-249.5000000000004
 21
8.000000000000227
 31
0.0
  0
LINE
  5
18A
330
2
100
AcDbEntity
  8
GEB-KONTUR-A
 48
25.0
100
AcDbLine
 10
-179.0000000000004
 20
0.0000000000002274
 30
0.0
 11
-247.0000000000003
 21
0.0000000000002274
 31
0.0
  0
LINE
  5
18B
330
2
100
AcDbEntity
  8
GEB-KONTUR-A
 48
25.0
100
AcDbLine
 10
-179.0000000000004
 20
0.0000000000002274
 30
0.0
 11
-176.5000000000004
 21
0.0000000000002274
 31
0.0
  0
LINE
  5
18C
330
2
100
AcDbEntity
  8
GEB-KONTUR-A
 48
25.0
100
AcDbLine
 10
-176.5000000000004
 20
0.0000000000002274
 30
0.0
 11
-176.5000000000004
 21
8.000000000000227
 31
0.0
  0
LINE
  5
18D
330
2
100
AcDbEntity
  8
GEB-KONTUR-A
 48
25.0
100
AcDbLine
 10
-179.0000000000004
 20
8.000000000000227
 30
0.0
 11
-176.5000000000004
 21
8.000000000000227
 31
0.0
  0
LINE
  5
18E
330
2
100
AcDbEntity
  8
GEB-KONTUR-A
 48
25.0
100
AcDbLine
 10
-179.0000000000003
 20
8.000000000000227
 30
0.0
 11
-247.0000000000003
 21
8.000000000000227
 31
0.0
  0
LINE
  5
18F
330
2
100
AcDbEntity
  8
GEB-KONTUR-A
 48
25.0
100
AcDbLine
 10
-249.5000000000004
 20
8.000000000000227
 30
0.0
 11
-247.0000000000003
 21
8.000000000000227
 31
0.0
  0
CIRCLE
  5
190
330
2
100
AcDbEntity
  8
GEB-KONTUR-A
 48
25.0
100
AcDbCircle
 10
229.5
 20
800.0000000000001
 30
0.0
 40
12.0
  0
CIRCLE
  5
191
330
2
100
AcDbEntity
  8
GEB-KONTUR-A
 48
25.0
100
AcDbCircle
 10
229.5
 20
800.0000000000001
 30
0.0
 40
6.5
  0
LINE
  5
192
330
2
100
AcDbEntity
  8
GEB-KONTUR-A
 48
25.0
100
AcDbLine
 10
213.0
 20
70.00000000000023
 30
0.0
 11
209.5
 21
70.00000000000023
 31
0.0
  0
LINE
  5
193
330
2
100
AcDbEntity
  8
GEB-KONTUR-A
 48
25.0
100
AcDbLine
 10
213.0
 20
70.00000000000023
 30
0.0
 11
246.0
 21
70.00000000000023
 31
0.0
  0
LINE
  5
194
330
2
100
AcDbEntity
  8
GEB-KONTUR-A
 48
25.0
100
AcDbLine
 10
246.0
 20
818.0000000000003
 30
0.0
 11
213.0
 21
818.0000000000003
 31
0.0
  0
LINE
  5
195
330
2
100
AcDbEntity
  8
GEB-KONTUR-A
 48
25.0
100
AcDbLine
 10
249.5
 20
70.00000000000023
 30
0.0
 11
246.0
 21
70.00000000000023
 31
0.0
  0
LINE
  5
196
330
2
100
AcDbEntity
  8
GEB-KONTUR-A
 48
25.0
100
AcDbLine
 10
249.5
 20
70.00000000000023
 30
0.0
 11
249.5
 21
818.0000000000003
 31
0.0
  0
LINE
  5
197
330
2
100
AcDbEntity
  8
GEB-KONTUR-A
 48
25.0
100
AcDbLine
 10
209.5
 20
409.0000000000004
 30
0.0
 11
209.5
 21
790.0
 31
0.0
  0
LINE
  5
198
330
2
100
AcDbEntity
  8
GEB-KONTUR-A
 48
25.0
100
AcDbLine
 10
209.5
 20
184.0926763859363
 30
0.0
 11
209.5
 21
299.0000000000005
 31
0.0
  0
LINE
  5
199
330
2
100
AcDbEntity
  8
GEB-KONTUR-A
 48
25.0
100
AcDbLine
 10
209.5
 20
70.00000000000023
 30
0.0
 11
209.5
 21
103.0
 31
0.0
  0
LINE
  5
19A
330
2
100
AcDbEntity
  8
GEB-KONTUR-A
 48
25.0
100
AcDbLine
 10
205.5
 20
70.00000000000023
 30
0.0
 11
209.5
 21
70.00000000000023
 31
0.0
  0
LINE
  5
19B
330
2
100
AcDbEntity
  8
GEB-KONTUR-A
 48
25.0
100
AcDbLine
 10
205.5
 20
70.00000000000023
 30
0.0
 11
205.5
 21
92.00000000000022
 31
0.0
  0
LINE
  5
19C
330
2
100
AcDbEntity
  8
GEB-KONTUR-A
 48
25.0
100
AcDbLine
 10
205.5
 20
92.00000000000022
 30
0.0
 11
209.5
 21
92.00000000000022
 31
0.0
  0
LINE
  5
19D
330
2
100
AcDbEntity
  8
GEB-KONTUR-A
 48
25.0
100
AcDbLine
 10
-205.5000000000004
 20
92.00000000000022
 30
0.0
 11
-209.5000000000004
 21
92.00000000000022
 31
0.0
  0
LINE
  5
19E
330
2
100
AcDbEntity
  8
GEB-KONTUR-A
 48
25.0
100
AcDbLine
 10
-205.5000000000004
 20
70.00000000000034
 30
0.0
 11
-205.5000000000004
 21
92.00000000000022
 31
0.0
  0
LINE
  5
19F
330
2
100
AcDbEntity
  8
GEB-KONTUR-A
 48
25.0
100
AcDbLine
 10
-205.5000000000004
 20
70.00000000000034
 30
0.0
 11
-209.5000000000004
 21
70.00000000000034
 31
0.0
  0
LINE
  5
1A0
330
2
100
AcDbEntity
  8
GEB-KONTUR-A
 48
25.0
100
AcDbLine
 10
-213.0000000000004
 20
70.00000000000023
 30
0.0
 11
-209.5000000000004
 21
70.00000000000023
 31
0.0
  0
LINE
  5
1A1
330
2
100
AcDbEntity
  8
GEB-KONTUR-A
 48
25.0
100
AcDbLine
 10
-213.0000000000003
 20
70.00000000000023
 30
0.0
 11
-246.0000000000003
 21
70.00000000000023
 31
0.0
  0
LINE
  5
1A2
330
2
100
AcDbEntity
  8
GEB-KONTUR-A
 48
25.0
100
AcDbLine
 10
-246.0
 20
817.9999999999997
 30
0.0
 11
-212.9999999999999
 21
817.9999999999997
 31
0.0
  0
LINE
  5
1A3
330
2
100
AcDbEntity
  8
GEB-KONTUR-A
 48
25.0
100
AcDbLine
 10
-249.5000000000004
 20
70.00000000000023
 30
0.0
 11
-246.0000000000003
 21
70.00000000000023
 31
0.0
  0
LINE
  5
1A4
330
2
100
AcDbEntity
  8
GEB-KONTUR-A
 48
25.0
100
AcDbLine
 10
-249.5000000000004
 20
70.00000000000023
 30
0.0
 11
-249.5
 21
817.9999999999997
 31
0.0
  0
LINE
  5
1A5
330
2
100
AcDbEntity
  8
GEB-KONTUR-A
 48
25.0
100
AcDbLine
 10
-209.5000000000001
 20
408.9999999999998
 30
0.0
 11
-209.5
 21
789.9999999999997
 31
0.0
  0
LINE
  5
1A6
330
2
100
AcDbEntity
  8
GEB-KONTUR-A
 48
25.0
100
AcDbLine
 10
-209.5000000000003
 20
184.0926763859362
 30
0.0
 11
-209.5000000000002
 21
298.9999999999998
 31
0.0
  0
LINE
  5
1A7
330
2
100
AcDbEntity
  8
GEB-KONTUR-A
 48
25.0
100
AcDbLine
 10
-209.5000000000004
 20
70.00000000000023
 30
0.0
 11
-209.5000000000003
 21
103.0
 31
0.0
  0
CIRCLE
  5
1A8
330
2
100
AcDbEntity
  8
GEB-KONTUR-A
 48
25.0
100
AcDbCircle
 10
-229.5
 20
800.0
 30
0.0
 40
12.00000000000001
  0
CIRCLE
  5
1A9
330
2
100
AcDbEntity
  8
GEB-KONTUR-A
 48
25.0
100
AcDbCircle
 10
-229.5
 20
800.0
 30
0.0
 40
6.500000000000004
  0
LINE
  5
1AA
330
2
100
AcDbEntity
  8
GEB-KONTUR-A
 48
25.0
100
AcDbLine
 10
-210.5
 20
817.9999999999997
 30
0.0
 11
-210.5
 21
790.0
 31
0.0
  0
LINE
  5
1AB
330
2
100
AcDbEntity
  8
GEB-KONTUR-A
 48
25.0
100
AcDbLine
 10
210.5
 20
790.0
 30
0.0
 11
210.5
 21
817.9999999999997
 31
0.0
  0
LINE
  5
1AC
330
2
100
AcDbEntity
  8
GEB-KONTUR-A
 48
25.0
100
AcDbLine
 10
141.0
 20
796.0999999999999
 30
0.0
 11
141.0
 21
790.0
 31
0.0
  0
LINE
  5
1AD
330
2
100
AcDbEntity
  8
GEB-KONTUR-A
 48
25.0
100
AcDbLine
 10
114.0
 20
796.0999999999999
 30
0.0
 11
141.0
 21
796.0999999999999
 31
0.0
  0
LINE
  5
1AE
330
2
100
AcDbEntity
  8
GEB-KONTUR-A
 48
25.0
100
AcDbLine
 10
114.0
 20
790.0
 30
0.0
 11
114.0
 21
796.0999999999999
 31
0.0
  0
LINE
  5
1AF
330
2
100
AcDbEntity
  8
GEB-KONTUR-A
 48
25.0
100
AcDbLine
 10
-114.0
 20
796.0999999999999
 30
0.0
 11
-114.0
 21
790.0
 31
0.0
  0
LINE
  5
1B0
330
2
100
AcDbEntity
  8
GEB-KONTUR-A
 48
25.0
100
AcDbLine
 10
-141.0
 20
796.0999999999999
 30
0.0
 11
-114.0
 21
796.0999999999999
 31
0.0
  0
LINE
  5
1B1
330
2
100
AcDbEntity
  8
GEB-KONTUR-A
 48
25.0
100
AcDbLine
 10
-141.0
 20
790.0
 30
0.0
 11
-141.0
 21
796.0999999999999
 31
0.0
  0
LINE
  5
1B2
330
2
100
AcDbEntity
  8
GEB-KONTUR-A
 48
25.0
100
AcDbLine
 10
114.0
 20
792.0000000000002
 30
0.0
 11
141.0
 21
792.0000000000002
 31
0.0
  0
LINE
  5
1B3
330
2
100
AcDbEntity
  8
GEB-KONTUR-A
 48
25.0
100
AcDbLine
 10
-141.0
 20
792.0000000000002
 30
0.0
 11
-114.0
 21
792.0000000000002
 31
0.0
  0
LINE
  5
1B4
330
2
100
AcDbEntity
  8
GEB-KONTUR-A
 48
25.0
100
AcDbLine
 10
-114.0
 20
790.0
 30
0.0
 11
-141.0
 21
790.0
 31
0.0
  0
LINE
  5
1B5
330
2
100
AcDbEntity
  8
GEB-KONTUR-A
 48
25.0
100
AcDbLine
 10
141.0
 20
790.0
 30
0.0
 11
114.0
 21
790.0
 31
0.0
  0
LINE
  5
1B6
330
2
100
AcDbEntity
  8
GEB-KONTUR-A
 48
25.0
100
AcDbLine
 10
-249.5
 20
820.0
 30
0.0
 11
-249.5
 21
817.9999999999997
 31
0.0
  0
LINE
  5
1B7
330
2
100
AcDbEntity
  8
GEB-KONTUR-A
 48
25.0
100
AcDbLine
 10
-249.5
 20
820.0
 30
0.0
 11
249.5000000000001
 21
820.0
 31
0.0
  0
LINE
  5
1B8
330
2
100
AcDbEntity
  8
GEB-KONTUR-A
 48
25.0
100
AcDbLine
 10
249.5
 20
817.9999999999997
 30
0.0
 11
249.5
 21
820.0
 31
0.0
  0
LINE
  5
1B9
330
2
100
AcDbEntity
  8
GEB-KONTUR-A
 48
25.0
100
AcDbLine
 10
-210.5
 20
790.0
 30
0.0
 11
-141.0
 21
790.0
 31
0.0
  0
LINE
  5
1BA
330
2
100
AcDbEntity
  8
GEB-KONTUR-A
 48
25.0
100
AcDbLine
 10
-114.0
 20
790.0
 30
0.0
 11
113.9999999999999
 21
790.0
 31
0.0
  0
LINE
  5
1BB
330
2
100
AcDbEntity
  8
GEB-KONTUR-A
 48
25.0
100
AcDbLine
 10
141.0
 20
790.0
 30
0.0
 11
210.5
 21
790.0
 31
0.0
  0
LINE
  5
1BC
330
2
100
AcDbEntity
  8
GEB-KONTUR-A
 48
25.0
100
AcDbLine
 10
-249.5
 20
817.9999999999997
 30
0.0
 11
-210.5
 21
817.9999999999997
 31
0.0
  0
LINE
  5
1BD
330
2
100
AcDbEntity
  8
GEB-KONTUR-A
 48
25.0
100
AcDbLine
 10
210.5
 20
817.9999999999997
 30
0.0
 11
249.5
 21
817.9999999999997
 31
0.0
  0
TEXT
  5
1BE
330
2
100
AcDbEntity
  8
GEB-TEXT
100
AcDbText
 10
-20.10470668485687
 20
-20.5
 30
0.0
 40
3.5
  1
DF BI H82 WA DE
 72
     1
 11
-0.0000000000001137
 21
-20.5
 31
0.0
100
AcDbText
  0
TEXT
  5
1C0
330
2
100
AcDbEntity
  8
GEB-TEXT
100
AcDbText
 10
-15.62585266030025
 20
-15.0
 30
0.0
 40
3.5
  1
Geberit Duofix
 72
     1
 11
-0.0000000000001137
 21
-15.0
 31
0.0
100
AcDbText
  0
TEXT
  5
1C1
330
2
100
AcDbEntity
  8
GEB-ART-NR
100
AcDbText
 10
-24.17544479964571
 20
-26.84278125428023
 30
0.0
 40
3.5
  1
GEB-ART-NR 111.515
 72
     1
 11
0.552556564610768
 21
-26.84278125428023
 31
0.0
100
AcDbText
  0
ENDSEC
  0
SECTION
  2
OBJECTS
  0
DICTIONARY
  5
9
330
0
100
AcDbDictionary
281
     1
  3
ACAD_2007HEADERVARS_RT
350
1EE
  3
ACAD_COLOR
350
47
  3
ACAD_GROUP
350
33
  3
ACAD_LAYOUT
350
17
  3
ACAD_MATERIAL
350
B
  3
ACAD_MLEADERSTYLE
350
4A
  3
ACAD_MLINESTYLE
350
34
  3
ACAD_PLOTSETTINGS
350
35
  3
ACAD_PLOTSTYLENAME
350
8
  3
ACAD_SCALELIST
350
48
  3
ACAD_TABLESTYLE
350
49
  3
ACAD_VISUALSTYLE
350
2C
  3
ACDB_RECOMPOSE_DATA
350
1ED
  3
AcDbVariableDictionary
350
1C5
  0
DICTIONARY
  5
2E
330
29
100
AcDbDictionary
280
     1
281
     1
  0
DICTIONARY
  5
1D
330
1C
100
AcDbDictionary
280
     1
281
     1
  3
ACAD_LAYERFILTERS
360
1E
  3
ACLYDICTIONARY
360
1F
  0
DICTIONARY
  5
3
330
2
100
AcDbDictionary
280
     1
281
     1
  3
ACAD_SORTENTS
360
1C3
  0
DICTIONARY
  5
1EE
102
{ACAD_REACTORS
330
9
102
}
330
9
100
AcDbDictionary
281
     1
  3
DIMARCSYM
350
1EF
  3
DIMLTEX1
350
1F1
  3
DIMLTEX2
350
1F2
  3
DIMLTYPE
350
1F0
  0
DICTIONARY
  5
47
102
{ACAD_REACTORS
330
9
102
}
330
9
100
AcDbDictionary
281
     1
  0
DICTIONARY
  5
33
102
{ACAD_REACTORS
330
9
102
}
330
9
100
AcDbDictionary
281
     1
  0
DICTIONARY
  5
17
102
{ACAD_REACTORS
330
9
102
}
330
9
100
AcDbDictionary
281
     1
  3
Layout1
350
1B
  3
Model
350
16
  0
DICTIONARY
  5
B
102
{ACAD_REACTORS
330
9
102
}
330
9
100
AcDbDictionary
281
     1
  3
ByBlock
350
3F
  3
ByLayer
350
36
  3
Global
350
A
  0
DICTIONARY
  5
4A
102
{ACAD_REACTORS
330
9
102
}
330
9
100
AcDbDictionary
281
     1
  3
Standard
350
1E3
  0
DICTIONARY
  5
34
102
{ACAD_REACTORS
330
9
102
}
330
9
100
AcDbDictionary
281
     1
  3
Standard
350
4B
  0
DICTIONARY
  5
35
102
{ACAD_REACTORS
330
9
102
}
330
9
100
AcDbDictionary
281
     1
  0
ACDBDICTIONARYWDFLT
  5
8
102
{ACAD_REACTORS
330
9
102
}
330
9
100
AcDbDictionary
281
     1
  3
Normal
350
7
100
AcDbDictionaryWithDefault
340
7
  0
DICTIONARY
  5
48
102
{ACAD_REACTORS
330
9
102
}
330
9
100
AcDbDictionary
281
     1
  3
A0
350
50
  3
A1
350
51
  3
A2
350
52
  3
A3
350
53
  3
A4
350
54
  3
A5
350
55
  3
A6
350
56
  3
A7
350
57
  3
A8
350
58
  3
A9
350
59
  3
B0
350
5A
  3
B1
350
5B
  3
B2
350
5C
  3
B3
350
5D
  3
B4
350
5E
  3
B5
350
5F
  3
B6
350
60
  3
B7
350
61
  3
B8
350
62
  3
B9
350
63
  3
C0
350
64
  3
C1
350
65
  3
C2
350
66
  3
C3
350
67
  3
C4
350
68
  3
C5
350
69
  3
C6
350
6A
  3
C7
350
6B
  3
C8
350
6C
  3
C9
350
6D
  3
D0
350
6E
  3
D1
350
6F
  3
D2
350
70
  0
DICTIONARY
  5
49
102
{ACAD_REACTORS
330
9
102
}
330
9
100
AcDbDictionary
281
     1
  3
Standard
350
4C
  0
DICTIONARY
  5
2C
102
{ACAD_REACTORS
330
9
102
}
330
9
100
AcDbDictionary
281
     1
  3
2dWireframe
350
2B
  3
Basic
350
1D2
  3
Brighten
350
1D6
  3
ColorChange
350
1DA
  3
Conceptual
350
1D4
  3
Dim
350
1D5
  3
EdgeColorOff
350
1E2
  3
Facepattern
350
1D9
  3
Flat
350
1CE
  3
FlatWithEdges
350
1CF
  3
Gouraud
350
1D0
  3
GouraudWithEdges
350
1D1
  3
Hidden
350
1D3
  3
JitterOff
350
1E0
  3
Linepattern
350
1D8
  3
OverhangOff
350
1E1
  3
Realistic
350
4E
  3
Shaded
350
1DF
  3
Shaded with edges
350
1DE
  3
Shades of Gray
350
1DB
  3
Sketchy
350
1DC
  3
Thicken
350
1D7
  3
Wireframe
350
4F
  3
X-Ray
350
1DD
  0
XRECORD
  5
1ED
102
{ACAD_REACTORS
330
9
102
}
330
9
100
AcDbXrecord
280
     1
 90
        1
330
4C
  0
DICTIONARY
  5
1C5
102
{ACAD_REACTORS
330
9
102
}
330
9
100
AcDbDictionary
281
     1
  3
CANNOSCALE
350
1C9
  3
CMLEADERSTYLE
350
1C7
  3
CTABLESTYLE
350
1C6
  3
DIMASSOC
350
1EA
  3
HIDETEXT
350
1E9
  3
INDEXCTL
350
1E8
  3
LAYEREVAL
350
1CB
  3
LAYERNOTIFY
350
1CC
  3
LIGHTINGUNITS
350
1CA
  3
MSLTSCALE
350
1C8
  3
SORTENTS
350
1E7
  3
XCLIPFRAME
350
1EB
  0
DICTIONARY
  5
1E
102
{ACAD_REACTORS
330
1D
102
}
330
1D
100
AcDbDictionary
281
     1
  0
DICTIONARY
  5
1F
102
{ACAD_REACTORS
330
1D
102
}
330
1D
100
AcDbDictionary
281
     1
1001
ACAD
1000
<All
  0
SORTENTSTABLE
  5
1C3
102
{ACAD_REACTORS
330
3
102
}
330
3
100
AcDbSortentsTable
330
2
331
12F
  5
107
331
B5
  5
181
331
B1
  5
185
331
12B
  5
10B
331
166
  5
D0
331
127
  5
10F
331
AD
  5
189
331
EC
  5
14A
331
162
  5
D4
331
123
  5
113
331
A9
  5
18D
331
E8
  5
14E
331
1A5
  5
91
331
1A1
  5
95
331
19D
  5
99
331
199
  5
9D
331
A5
  5
191
331
11F
  5
117
331
15E
  5
D8
331
E4
  5
152
331
A1
  5
195
331
15A
  5
DC
331
E0
  5
156
331
9D
  5
199
331
156
  5
E0
331
117
  5
11F
331
DC
  5
15A
331
152
  5
E4
331
113
  5
123
331
99
  5
19D
331
D8
  5
15E
331
195
  5
A1
331
191
  5
A5
331
18D
  5
A9
331
189
  5
AD
331
95
  5
1A1
331
10F
  5
127
331
14E
  5
E8
331
D4
  5
162
331
D0
  5
166
331
91
  5
1A5
331
14A
  5
EC
331
10B
  5
12B
331
8D
  5
1A9
331
146
  5
F0
331
107
  5
12F
331
CC
  5
16A
331
142
  5
F4
331
103
  5
133
331
89
  5
1AD
331
C8
  5
16E
331
185
  5
B1
331
181
  5
B5
331
1BC
  5
78
331
17D
  5
B9
331
1B8
  5
7D
331
179
  5
BD
331
85
  5
1B1
331
FF
  5
137
331
13E
  5
F8
331
C4
  5
172
331
C0
  5
176
331
81
  5
1B5
331
13A
  5
FC
331
FB
  5
13B
331
7D
  5
1B8
331
136
  5
100
331
F7
  5
13F
331
BC
  5
17A
331
132
  5
104
331
F3
  5
143
331
B8
  5
17E
331
175
  5
C1
331
1B4
  5
82
331
171
  5
C5
331
1B0
  5
86
331
1AC
  5
8A
331
16D
  5
C9
331
1A8
  5
8E
331
169
  5
CD
331
B4
  5
182
331
12E
  5
108
331
B0
  5
186
331
12A
  5
10C
331
EF
  5
147
331
165
  5
D1
331
126
  5
110
331
AC
  5
18A
331
EB
  5
14B
331
A8
  5
18E
331
122
  5
114
331
161
  5
D5
331
1A4
  5
92
331
1A0
  5
96
331
19C
  5
9A
331
198
  5
9E
331
E7
  5
14F
331
A4
  5
192
331
11E
  5
118
331
15D
  5
D9
331
E3
  5
153
331
A0
  5
196
331
159
  5
DD
331
11A
  5
11C
331
DF
  5
157
331
155
  5
E1
331
116
  5
120
331
9C
  5
19A
331
DB
  5
15B
331
151
  5
E5
331
112
  5
124
331
98
  5
19E
331
194
  5
A2
331
190
  5
A6
331
18C
  5
AA
331
188
  5
AE
331
D7
  5
15F
331
94
  5
1A2
331
10E
  5
128
331
14D
  5
E9
331
D3
  5
163
331
90
  5
1A6
331
149
  5
ED
331
10A
  5
12C
331
CF
  5
167
331
8C
  5
1AA
331
145
  5
F1
331
106
  5
130
331
CB
  5
16B
331
141
  5
F5
331
102
  5
134
331
88
  5
1AE
331
184
  5
B2
331
180
  5
B6
331
1BB
  5
7A
331
17C
  5
BA
331
178
  5
BE
331
C7
  5
16F
331
84
  5
1B2
331
FE
  5
138
331
13D
  5
F9
331
C3
  5
173
331
BF
  5
177
331
80
  5
1B6
331
139
  5
FD
331
FA
  5
13C
331
7C
  5
1B9
331
135
  5
101
331
F6
  5
140
331
BB
  5
17B
331
131
  5
105
331
F2
  5
144
331
78
  5
1BC
331
1B7
  5
7F
331
174
  5
C2
331
1B3
  5
83
331
170
  5
C6
331
1AF
  5
87
331
1AB
  5
8B
331
16C
  5
CA
331
168
  5
CE
331
B7
  5
17F
331
B3
  5
183
331
12D
  5
109
331
AF
  5
187
331
129
  5
10D
331
EE
  5
148
331
164
  5
D2
331
125
  5
111
331
AB
  5
18B
331
EA
  5
14C
331
121
  5
115
331
160
  5
D6
331
1A7
  5
8F
331
1A3
  5
93
331
19F
  5
97
331
19B
  5
9B
331
A7
  5
18F
331
E6
  5
150
331
E2
  5
154
331
A3
  5
193
331
15C
  5
DA
331
11D
  5
119
331
9F
  5
197
331
158
  5
DE
331
119
  5
11D
331
DE
  5
158
331
154
  5
E2
331
115
  5
121
331
9B
  5
19B
331
DA
  5
15C
331
111
  5
125
331
150
  5
E6
331
197
  5
9F
331
193
  5
A3
331
18F
  5
A7
331
18B
  5
AB
331
97
  5
19F
331
D6
  5
160
331
93
  5
1A3
331
10D
  5
129
331
14C
  5
EA
331
D2
  5
164
331
8F
  5
1A7
331
148
  5
EE
331
109
  5
12D
331
CE
  5
168
331
144
  5
F2
331
105
  5
131
331
8B
  5
1AB
331
CA
  5
16C
331
140
  5
F6
331
101
  5
135
331
187
  5
AF
331
183
  5
B3
331
1BE
  5
1C1
331
17F
  5
B7
331
1BA
  5
7B
331
17B
  5
BB
331
87
  5
1AF
331
C6
  5
170
331
83
  5
1B3
331
FD
  5
139
331
13C
  5
FA
331
C2
  5
174
331
7F
  5
1B7
331
138
  5
FE
331
F9
  5
13D
331
BE
  5
178
331
7B
  5
1BA
331
134
  5
102
331
F5
  5
141
331
BA
  5
17C
331
130
  5
106
331
F1
  5
145
331
1B6
  5
80
331
177
  5
BF
331
173
  5
C3
331
1B2
  5
84
331
16F
  5
C7
331
1AE
  5
88
331
1AA
  5
8C
331
16B
  5
CB
331
B6
  5
180
331
B2
  5
184
331
12C
  5
10A
331
71
  5
1BD
331
AE
  5
188
331
167
  5
CF
331
128
  5
10E
331
ED
  5
149
331
163
  5
D3
331
124
  5
112
331
AA
  5
18C
331
E9
  5
14D
331
120
  5
116
331
1A6
  5
90
331
1A2
  5
94
331
19E
  5
98
331
19A
  5
9C
331
A6
  5
190
331
15F
  5
D7
331
E5
  5
151
331
E1
  5
155
331
A2
  5
194
331
15B
  5
DB
331
11C
  5
11A
331
9E
  5
198
331
157
  5
DF
331
118
  5
11E
331
DD
  5
159
331
153
  5
E3
331
114
  5
122
331
9A
  5
19C
331
D9
  5
15D
331
110
  5
126
331
196
  5
A0
331
192
  5
A4
331
18E
  5
A8
331
18A
  5
AC
331
96
  5
1A0
331
14F
  5
E7
331
D5
  5
161
331
D1
  5
165
331
92
  5
1A4
331
14B
  5
EB
331
10C
  5
12A
331
8E
  5
1A8
331
147
  5
EF
331
108
  5
12E
331
CD
  5
169
331
143
  5
F3
331
104
  5
132
331
8A
  5
1AC
331
C9
  5
16D
331
100
  5
136
331
186
  5
B0
331
182
  5
B4
331
1C1
  5
1BE
331
1BD
  5
71
331
17E
  5
B8
331
1B9
  5
7C
331
17A
  5
BC
331
86
  5
1B0
331
13F
  5
F7
331
C5
  5
171
331
82
  5
1B4
331
FC
  5
13A
331
13B
  5
FB
331
C1
  5
175
331
137
  5
FF
331
F8
  5
13E
331
BD
  5
179
331
133
  5
103
331
F4
  5
142
331
7A
  5
1BB
331
B9
  5
17D
331
F0
  5
146
331
1B5
  5
81
331
176
  5
C0
331
172
  5
C4
331
1B1
  5
85
331
1AD
  5
89
331
16E
  5
C8
331
1A9
  5
8D
331
16A
  5
CC
  0
XRECORD
  5
1EF
102
{ACAD_REACTORS
330
1EE
102
}
330
1EE
100
AcDbXrecord
280
     1
 70
     1
  0
XRECORD
  5
1F1
102
{ACAD_REACTORS
330
1EE
102
}
330
1EE
100
AcDbXrecord
280
     1
340
25
  0
XRECORD
  5
1F2
102
{ACAD_REACTORS
330
1EE
102
}
330
1EE
100
AcDbXrecord
280
     1
340
25
  0
XRECORD
  5
1F0
102
{ACAD_REACTORS
330
1EE
102
}
330
1EE
100
AcDbXrecord
280
     1
340
25
  0
LAYOUT
  5
1B
102
{ACAD_XDICTIONARY
360
1F6
102
}
102
{ACAD_REACTORS
330
17
102
}
330
17
100
AcDbPlotSettings
  1

  2
\\le-server\HP LaserJet 2100
  4

  6

 40
0.0
 41
0.0
 42
0.0
 43
0.0
 44
0.0
 45
0.0
 46
0.0
 47
0.0
 48
0.0
 49
0.0
140
0.0
141
0.0
142
1.0
143
1.0
 70
   688
 72
     0
 73
     0
 74
     5
  7

 75
    16
147
1.0
148
0.0
149
0.0
100
AcDbLayout
  1
Layout1
 70
     1
 71
     1
 10
0.0
 20
0.0
 11
1189.0
 21
840.9999999999998
 12
0.0
 22
0.0
 32
0.0
 14
0.0
 24
0.0
 34
0.0
 15
1189.0
 25
840.9999999999998
 35
0.0
146
0.0
 13
0.0
 23
0.0
 33
0.0
 16
1.0
 26
0.0
 36
0.0
 17
0.0
 27
1.0
 37
0.0
 76
     0
330
18
  0
LAYOUT
  5
16
102
{ACAD_XDICTIONARY
360
1F4
102
}
102
{ACAD_REACTORS
330
17
102
}
330
17
100
AcDbPlotSettings
  1

  2
\\le-server\HP LaserJet 2100
  4

  6

 40
0.0
 41
0.0
 42
0.0
 43
0.0
 44
0.0
 45
0.0
 46
0.0
 47
0.0
 48
0.0
 49
0.0
140
0.0
141
0.0
142
1.0
143
1.0
 70
  1712
 72
     0
 73
     0
 74
     0
  7

 75
     0
147
1.0
148
0.0
149
0.0
100
AcDbLayout
  1
Model
 70
     1
 71
     0
 10
0.0
 20
0.0
 11
12.0
 21
9.0
 12
0.0
 22
0.0
 32
0.0
 14
0.0
 24
0.0
 34
0.0
 15
0.0
 25
0.0
 35
0.0
146
0.0
 13
0.0
 23
0.0
 33
0.0
 16
1.0
 26
0.0
 36
0.0
 17
0.0
 27
1.0
 37
0.0
 76
     0
330
2
331
2A
  0
MATERIAL
  5
3F
102
{ACAD_XDICTIONARY
360
40
102
}
102
{ACAD_REACTORS
330
B
102
}
330
B
100
AcDbMaterial
  1
ByBlock
 72
     0
 43
0.0208333333333333
 43
0.0
 43
0.0
 43
0.0
 43
0.0
 43
0.0208333333333333
 43
0.0
 43
0.0
 43
0.0
 43
0.0
 43
1.0
 43
0.0
 43
0.0
 43
0.0
 43
0.0
 43
1.0
 77
     0
 47
0.0208333333333333
 47
0.0
 47
0.0
 47
0.0
 47
0.0
 47
0.0208333333333333
 47
0.0
 47
0.0
 47
0.0
 47
0.0
 47
1.0
 47
0.0
 47
0.0
 47
0.0
 47
0.0
 47
1.0
171
     0
 49
0.0208333333333333
 49
0.0
 49
0.0
 49
0.0
 49
0.0
 49
0.0208333333333333
 49
0.0
 49
0.0
 49
0.0
 49
0.0
 49
1.0
 49
0.0
 49
0.0
 49
0.0
 49
0.0
 49
1.0
175
     0
142
0.0208333333333333
142
0.0
142
0.0
142
0.0
142
0.0
142
0.0208333333333333
142
0.0
142
0.0
142
0.0
142
0.0
142
1.0
142
0.0
142
0.0
142
0.0
142
0.0
142
1.0
179
     0
144
0.0208333333333333
144
0.0
144
0.0
144
0.0
144
0.0
144
0.0208333333333333
144
0.0
144
0.0
144
0.0
144
0.0
144
1.0
144
0.0
144
0.0
144
0.0
144
0.0
144
1.0
147
0.0208333333333333
147
0.0
147
0.0
147
0.0
147
0.0
147
0.0208333333333333
147
0.0
147
0.0
147
0.0
147
0.0
147
1.0
147
0.0
147
0.0
147
0.0
147
0.0
147
1.0
  0
MATERIAL
  5
36
102
{ACAD_XDICTIONARY
360
37
102
}
102
{ACAD_REACTORS
330
B
102
}
330
B
100
AcDbMaterial
  1
ByLayer
 72
     0
 43
0.0208333333333333
 43
0.0
 43
0.0
 43
0.0
 43
0.0
 43
0.0208333333333333
 43
0.0
 43
0.0
 43
0.0
 43
0.0
 43
1.0
 43
0.0
 43
0.0
 43
0.0
 43
0.0
 43
1.0
 77
     0
 47
0.0208333333333333
 47
0.0
 47
0.0
 47
0.0
 47
0.0
 47
0.0208333333333333
 47
0.0
 47
0.0
 47
0.0
 47
0.0
 47
1.0
 47
0.0
 47
0.0
 47
0.0
 47
0.0
 47
1.0
171
     0
 49
0.0208333333333333
 49
0.0
 49
0.0
 49
0.0
 49
0.0
 49
0.0208333333333333
 49
0.0
 49
0.0
 49
0.0
 49
0.0
 49
1.0
 49
0.0
 49
0.0
 49
0.0
 49
0.0
 49
1.0
175
     0
142
0.0208333333333333
142
0.0
142
0.0
142
0.0
142
0.0
142
0.0208333333333333
142
0.0
142
0.0
142
0.0
142
0.0
142
1.0
142
0.0
142
0.0
142
0.0
142
0.0
142
1.0
179
     0
144
0.0208333333333333
144
0.0
144
0.0
144
0.0
144
0.0
144
0.0208333333333333
144
0.0
144
0.0
144
0.0
144
0.0
144
1.0
144
0.0
144
0.0
144
0.0
144
0.0
144
1.0
147
0.0208333333333333
147
0.0
147
0.0
147
0.0
147
0.0
147
0.0208333333333333
147
0.0
147
0.0
147
0.0
147
0.0
147
1.0
147
0.0
147
0.0
147
0.0
147
0.0
147
1.0
  0
MATERIAL
  5
A
102
{ACAD_XDICTIONARY
360
C
102
}
102
{ACAD_REACTORS
330
B
102
}
330
B
100
AcDbMaterial
  1
Global
 72
     0
 43
0.0208333333333333
 43
0.0
 43
0.0
 43
0.0
 43
0.0
 43
0.0208333333333333
 43
0.0
 43
0.0
 43
0.0
 43
0.0
 43
1.0
 43
0.0
 43
0.0
 43
0.0
 43
0.0
 43
1.0
 77
     0
 47
0.0208333333333333
 47
0.0
 47
0.0
 47
0.0
 47
0.0
 47
0.0208333333333333
 47
0.0
 47
0.0
 47
0.0
 47
0.0
 47
1.0
 47
0.0
 47
0.0
 47
0.0
 47
0.0
 47
1.0
171
     0
 49
0.0208333333333333
 49
0.0
 49
0.0
 49
0.0
 49
0.0
 49
0.0208333333333333
 49
0.0
 49
0.0
 49
0.0
 49
0.0
 49
1.0
 49
0.0
 49
0.0
 49
0.0
 49
0.0
 49
1.0
175
     0
142
0.0208333333333333
142
0.0
142
0.0
142
0.0
142
0.0
142
0.0208333333333333
142
0.0
142
0.0
142
0.0
142
0.0
142
1.0
142
0.0
142
0.0
142
0.0
142
0.0
142
1.0
179
     0
144
0.0208333333333333
144
0.0
144
0.0
144
0.0
144
0.0
144
0.0208333333333333
144
0.0
144
0.0
144
0.0
144
0.0
144
1.0
144
0.0
144
0.0
144
0.0
144
0.0
144
1.0
147
0.0208333333333333
147
0.0
147
0.0
147
0.0
147
0.0
147
0.0208333333333333
147
0.0
147
0.0
147
0.0
147
0.0
147
1.0
147
0.0
147
0.0
147
0.0
147
0.0
147
1.0
  0
MLEADERSTYLE
  5
1E3
102
{ACAD_REACTORS
330
4A
102
}
330
4A
100
AcDbMLeaderStyle
170
     2
171
     1
172
     0
 90
        2
 40
0.0
 41
0.0
173
     1
 91
-1056964608
340
25
 92
       -2
290
     1
 42
2.0
291
     1
 43
0.36
  3
Standard
 44
4.0
300

342
22
174
     1
178
     6
175
     1
176
     0
 93
-1056964608
 45
4.0
292
     0
297
     0
 46
4.0
 94
-1056964608
 47
1.0
 49
1.0
140
1.0
293
     1
141
0.0
294
     1
177
     0
142
1.0
295
     0
296
     0
143
0.125
1001
ACAD_MLEADERVER
1070
     2
  0
MLINESTYLE
  5
4B
102
{ACAD_REACTORS
330
34
102
}
330
34
100
AcDbMlineStyle
  2
STANDARD
 70
     0
  3

 62
   256
 51
90.0
 52
90.0
 71
     2
 49
0.5
 62
   256
  6
BYLAYER
 49
-0.5
 62
   256
  6
BYLAYER
  0
ACDBPLACEHOLDER
  5
7
102
{ACAD_REACTORS
330
8
102
}
330
8
  0
SCALE
  5
50
102
{ACAD_REACTORS
330
48
102
}
330
48
100
AcDbScale
 70
     0
300
1:1
140
1.0
141
1.0
290
     1
  0
SCALE
  5
51
102
{ACAD_REACTORS
330
48
102
}
330
48
100
AcDbScale
 70
     0
300
1:2
140
1.0
141
2.0
290
     0
  0
SCALE
  5
52
102
{ACAD_REACTORS
330
48
102
}
330
48
100
AcDbScale
 70
     0
300
1:4
140
1.0
141
4.0
290
     0
  0
SCALE
  5
53
102
{ACAD_REACTORS
330
48
102
}
330
48
100
AcDbScale
 70
     0
300
1:5
140
1.0
141
5.0
290
     0
  0
SCALE
  5
54
102
{ACAD_REACTORS
330
48
102
}
330
48
100
AcDbScale
 70
     0
300
1:8
140
1.0
141
8.0
290
     0
  0
SCALE
  5
55
102
{ACAD_REACTORS
330
48
102
}
330
48
100
AcDbScale
 70
     0
300
1:10
140
1.0
141
10.0
290
     0
  0
SCALE
  5
56
102
{ACAD_REACTORS
330
48
102
}
330
48
100
AcDbScale
 70
     0
300
1:16
140
1.0
141
16.0
290
     0
  0
SCALE
  5
57
102
{ACAD_REACTORS
330
48
102
}
330
48
100
AcDbScale
 70
     0
300
1:20
140
1.0
141
20.0
290
     0
  0
SCALE
  5
58
102
{ACAD_REACTORS
330
48
102
}
330
48
100
AcDbScale
 70
     0
300
1:30
140
1.0
141
30.0
290
     0
  0
SCALE
  5
59
102
{ACAD_REACTORS
330
48
102
}
330
48
100
AcDbScale
 70
     0
300
1:40
140
1.0
141
40.0
290
     0
  0
SCALE
  5
5A
102
{ACAD_REACTORS
330
48
102
}
330
48
100
AcDbScale
 70
     0
300
1:50
140
1.0
141
50.0
290
     0
  0
SCALE
  5
5B
102
{ACAD_REACTORS
330
48
102
}
330
48
100
AcDbScale
 70
     0
300
1:100
140
1.0
141
100.0
290
     0
  0
SCALE
  5
5C
102
{ACAD_REACTORS
330
48
102
}
330
48
100
AcDbScale
 70
     0
300
2:1
140
2.0
141
1.0
290
     0
  0
SCALE
  5
5D
102
{ACAD_REACTORS
330
48
102
}
330
48
100
AcDbScale
 70
     0
300
4:1
140
4.0
141
1.0
290
     0
  0
SCALE
  5
5E
102
{ACAD_REACTORS
330
48
102
}
330
48
100
AcDbScale
 70
     0
300
8:1
140
8.0
141
1.0
290
     0
  0
SCALE
  5
5F
102
{ACAD_REACTORS
330
48
102
}
330
48
100
AcDbScale
 70
     0
300
10:1
140
10.0
141
1.0
290
     0
  0
SCALE
  5
60
102
{ACAD_REACTORS
330
48
102
}
330
48
100
AcDbScale
 70
     0
300
100:1
140
100.0
141
1.0
290
     0
  0
SCALE
  5
61
102
{ACAD_REACTORS
330
48
102
}
330
48
100
AcDbScale
 70
     0
300
1/128" = 1'-0"
140
0.0078125
141
12.0
290
     0
  0
SCALE
  5
62
102
{ACAD_REACTORS
330
48
102
}
330
48
100
AcDbScale
 70
     0
300
1/64" = 1'-0"
140
0.015625
141
12.0
290
     0
  0
SCALE
  5
63
102
{ACAD_REACTORS
330
48
102
}
330
48
100
AcDbScale
 70
     0
300
1/32" = 1'-0"
140
0.03125
141
12.0
290
     0
  0
SCALE
  5
64
102
{ACAD_REACTORS
330
48
102
}
330
48
100
AcDbScale
 70
     0
300
1/16" = 1'-0"
140
0.0625
141
12.0
290
     0
  0
SCALE
  5
65
102
{ACAD_REACTORS
330
48
102
}
330
48
100
AcDbScale
 70
     0
300
3/32" = 1'-0"
140
0.09375
141
12.0
290
     0
  0
SCALE
  5
66
102
{ACAD_REACTORS
330
48
102
}
330
48
100
AcDbScale
 70
     0
300
1/8" = 1'-0"
140
0.125
141
12.0
290
     0
  0
SCALE
  5
67
102
{ACAD_REACTORS
330
48
102
}
330
48
100
AcDbScale
 70
     0
300
3/16" = 1'-0"
140
0.1875
141
12.0
290
     0
  0
SCALE
  5
68
102
{ACAD_REACTORS
330
48
102
}
330
48
100
AcDbScale
 70
     0
300
1/4" = 1'-0"
140
0.25
141
12.0
290
     0
  0
SCALE
  5
69
102
{ACAD_REACTORS
330
48
102
}
330
48
100
AcDbScale
 70
     0
300
3/8" = 1'-0"
140
0.375
141
12.0
290
     0
  0
SCALE
  5
6A
102
{ACAD_REACTORS
330
48
102
}
330
48
100
AcDbScale
 70
     0
300
1/2" = 1'-0"
140
0.5
141
12.0
290
     0
  0
SCALE
  5
6B
102
{ACAD_REACTORS
330
48
102
}
330
48
100
AcDbScale
 70
     0
300
3/4" = 1'-0"
140
0.75
141
12.0
290
     0
  0
SCALE
  5
6C
102
{ACAD_REACTORS
330
48
102
}
330
48
100
AcDbScale
 70
     0
300
1" = 1'-0"
140
1.0
141
12.0
290
     0
  0
SCALE
  5
6D
102
{ACAD_REACTORS
330
48
102
}
330
48
100
AcDbScale
 70
     0
300
1-1/2" = 1'-0"
140
1.5
141
12.0
290
     0
  0
SCALE
  5
6E
102
{ACAD_REACTORS
330
48
102
}
330
48
100
AcDbScale
 70
     0
300
3" = 1'-0"
140
3.0
141
12.0
290
     0
  0
SCALE
  5
6F
102
{ACAD_REACTORS
330
48
102
}
330
48
100
AcDbScale
 70
     0
300
6" = 1'-0"
140
6.0
141
12.0
290
     0
  0
SCALE
  5
70
102
{ACAD_REACTORS
330
48
102
}
330
48
100
AcDbScale
 70
     0
300
1'-0" = 1'-0"
140
12.0
141
12.0
290
     0
  0
TABLESTYLE
  5
4C
102
{ACAD_XDICTIONARY
360
4D
102
}
102
{ACAD_REACTORS
330
49
102
}
330
49
100
AcDbTableStyle
  3
Standard
 70
     0
 71
     0
 40
0.06
 41
0.06
280
     0
281
     0
  7
STANDARD
140
0.18
170
     2
 62
     0
 63
     7
283
     0
274
    -2
284
     1
 64
     0
275
    -2
285
     1
 65
     0
276
    -2
286
     1
 66
     0
277
    -2
287
     1
 67
     0
278
    -2
288
     1
 68
     0
279
    -2
289
     1
 69
     0
  7
STANDARD
140
0.25
170
     5
 62
     0
 63
     7
283
     0
274
    -2
284
     1
 64
     0
275
    -2
285
     1
 65
     0
276
    -2
286
     1
 66
     0
277
    -2
287
     1
 67
     0
278
    -2
288
     1
 68
     0
279
    -2
289
     1
 69
     0
  7
STANDARD
140
0.18
170
     5
 62
     0
 63
     7
283
     0
274
    -2
284
     1
 64
     0
275
    -2
285
     1
 65
     0
276
    -2
286
     1
 66
     0
277
    -2
287
     1
 67
     0
278
    -2
288
     1
 68
     0
279
    -2
289
     1
 69
     0
  0
VISUALSTYLE
  5
2B
102
{ACAD_XDICTIONARY
360
1F8
102
}
102
{ACAD_REACTORS
330
2C
102
}
330
2C
100
AcDbVisualStyle
  2
2dWireframe
 70
     4
 71
     0
 72
     2
 73
     0
 90
        0
 40
-0.6
 41
-30.0
 62
     5
 63
     7
 74
     1
 91
        4
 64
     7
 65
   257
 75
     1
175
     1
 42
1.0
 92
        0
 66
   257
 43
1.0
 76
     1
 77
     6
 78
     2
 67
     7
 79
     5
170
     0
171
     0
290
     0
174
     0
 93
        1
 44
0.0
173
     0
291
     0
 45
0.0
1001
ACAD
1000
AcDbSavedByObjectVersion
1070
     0
  0
VISUALSTYLE
  5
1D2
102
{ACAD_XDICTIONARY
360
209
102
}
102
{ACAD_REACTORS
330
2C
102
}
330
2C
100
AcDbVisualStyle
  2
Basic
 70
     7
 71
     1
 72
     0
 73
     1
 90
        0
 40
-0.6
 41
-30.0
 62
     5
 63
     7
 74
     0
 91
        4
 64
     7
 65
   257
 75
     1
175
     1
 42
1.0
 92
        8
 66
     7
 43
1.0
 76
     1
 77
     6
 78
     2
 67
     7
 79
     5
170
     0
171
     0
290
     0
174
     0
 93
        1
 44
0.0
173
     0
291
     1
 45
0.0
1001
ACAD
1000
AcDbSavedByObjectVersion
1070
     0
  0
VISUALSTYLE
  5
1D6
102
{ACAD_XDICTIONARY
360
211
102
}
102
{ACAD_REACTORS
330
2C
102
}
330
2C
100
AcDbVisualStyle
  2
Brighten
 70
    12
 71
     2
 72
     2
 73
     0
 90
        0
 40
-0.6
 41
-30.0
 62
     5
 63
     7
 74
     1
 91
        4
 64
     7
 65
   257
 75
     1
175
     1
 42
1.0
 92
        8
 66
     7
 43
1.0
 76
     1
 77
     6
 78
     2
 67
     7
 79
     5
170
     0
171
     0
290
     0
174
     0
 93
        1
 44
50.0
173
     0
291
     1
 45
0.0
1001
ACAD
1000
AcDbSavedByObjectVersion
1070
     0
  0
VISUALSTYLE
  5
1DA
102
{ACAD_XDICTIONARY
360
219
102
}
102
{ACAD_REACTORS
330
2C
102
}
330
2C
100
AcDbVisualStyle
  2
ColorChange
 70
    16
 71
     2
 72
     2
 73
     3
 90
        0
 40
-0.6
 41
-30.0
 62
     5
 63
     8
 74
     1
 91
        4
 64
     7
 65
   257
 75
     1
175
     1
 42
1.0
 92
        8
 66
     8
 43
1.0
 76
     1
 77
     6
 78
     2
 67
     7
 79
     5
170
     0
171
     0
290
     0
174
     0
 93
        1
 44
0.0
173
     0
291
     1
 45
0.0
1001
ACAD
1000
AcDbSavedByObjectVersion
1070
     0
  0
VISUALSTYLE
  5
1D4
102
{ACAD_XDICTIONARY
360
20D
102
}
102
{ACAD_REACTORS
330
2C
102
}
330
2C
100
AcDbVisualStyle
  2
Conceptual
 70
     9
 71
     3
 72
     2
 73
     0
 90
        0
 40
-0.6
 41
-30.0
 62
     5
 63
     7
 74
     2
 91
        2
 64
     7
 65
   257
 75
     1
175
     1
 42
179.0
 92
        8
 66
     7
 43
1.0
 76
     1
 77
     6
 78
     2
 67
     7
 79
     3
170
     0
171
     0
290
     0
174
     0
 93
        1
 44
0.0
173
     0
291
     0
 45
0.0
1001
ACAD
1000
AcDbSavedByObjectVersion
1070
     0
  0
VISUALSTYLE
  5
1D5
102
{ACAD_XDICTIONARY
360
20F
102
}
102
{ACAD_REACTORS
330
2C
102
}
330
2C
100
AcDbVisualStyle
  2
Dim
 70
    11
 71
     2
 72
     2
 73
     0
 90
        0
 40
-0.6
 41
-30.0
 62
     5
 63
     7
 74
     1
 91
        4
 64
     7
 65
   257
 75
     1
175
     1
 42
1.0
 92
        8
 66
     7
 43
1.0
 76
     1
 77
     6
 78
     2
 67
     7
 79
     5
170
     0
171
     0
290
     0
174
     0
 93
        1
 44
-50.0
173
     0
291
     1
 45
0.0
1001
ACAD
1000
AcDbSavedByObjectVersion
1070
     0
  0
VISUALSTYLE
  5
1E2
102
{ACAD_XDICTIONARY
360
229
102
}
102
{ACAD_REACTORS
330
2C
102
}
330
2C
100
AcDbVisualStyle
  2
EdgeColorOff
 70
    22
 71
     2
 72
     2
 73
     0
 90
        0
 40
-0.6
 41
-30.0
 62
     5
 63
     7
 74
     1
 91
        4
 64
     7
 65
   257
 75
     1
175
     1
 42
1.0
 92
        8
 66
     7
 43
1.0
 76
     1
 77
     6
 78
     2
 67
     7
 79
     5
170
     0
171
     0
290
     0
174
     0
 93
        1
 44
0.0
173
     0
291
     1
 45
0.0
1001
ACAD
1000
AcDbSavedByObjectVersion
1070
     0
  0
VISUALSTYLE
  5
1D9
102
{ACAD_XDICTIONARY
360
217
102
}
102
{ACAD_REACTORS
330
2C
102
}
330
2C
100
AcDbVisualStyle
  2
Facepattern
 70
    15
 71
     2
 72
     2
 73
     0
 90
        0
 40
-0.6
 41
-30.0
 62
     5
 63
     7
 74
     1
 91
        4
 64
     7
 65
   257
 75
     1
175
     1
 42
1.0
 92
        8
 66
     7
 43
1.0
 76
     1
 77
     6
 78
     2
 67
     7
 79
     5
170
     0
171
     0
290
     0
174
     0
 93
        1
 44
0.0
173
     0
291
     1
 45
0.0
1001
ACAD
1000
AcDbSavedByObjectVersion
1070
     0
  0
VISUALSTYLE
  5
1CE
102
{ACAD_XDICTIONARY
360
201
102
}
102
{ACAD_REACTORS
330
2C
102
}
330
2C
100
AcDbVisualStyle
  2
Flat
 70
     0
 71
     2
 72
     1
 73
     1
 90
        2
 40
-0.6
 41
30.0
 62
     5
 63
     7
 74
     0
 91
        0
 64
     7
 65
   257
 75
     1
175
     1
 42
1.0
 92
        8
 66
     7
 43
1.0
 76
     1
 77
     6
 78
     2
 67
     7
 79
     5
170
     0
171
     0
290
     0
174
     0
 93
       13
 44
0.0
173
     0
291
     1
 45
0.0
1001
ACAD
1000
AcDbSavedByObjectVersion
1070
     0
  0
VISUALSTYLE
  5
1CF
102
{ACAD_XDICTIONARY
360
203
102
}
102
{ACAD_REACTORS
330
2C
102
}
330
2C
100
AcDbVisualStyle
  2
FlatWithEdges
 70
     1
 71
     2
 72
     1
 73
     1
 90
        2
 40
-0.6
 41
30.0
 62
     5
 63
     7
 74
     1
 91
        0
 64
     7
 65
   257
 75
     1
175
     1
 42
1.0
 92
        0
 66
   257
 43
1.0
 76
     1
 77
     6
 78
     2
 67
     7
 79
     5
170
     0
171
     0
290
     0
174
     0
 93
       13
 44
0.0
173
     0
291
     1
 45
0.0
1001
ACAD
1000
AcDbSavedByObjectVersion
1070
     0
  0
VISUALSTYLE
  5
1D0
102
{ACAD_XDICTIONARY
360
205
102
}
102
{ACAD_REACTORS
330
2C
102
}
330
2C
100
AcDbVisualStyle
  2
Gouraud
 70
     2
 71
     2
 72
     2
 73
     1
 90
        2
 40
-0.6
 41
30.0
 62
     5
 63
     7
 74
     0
 91
        0
 64
     7
 65
   257
 75
     1
175
     1
 42
1.0
 92
        0
 66
     7
 43
1.0
 76
     1
 77
     6
 78
     2
 67
     7
 79
     5
170
     0
171
     0
290
     0
174
     0
 93
       13
 44
0.0
173
     0
291
     1
 45
0.0
1001
ACAD
1000
AcDbSavedByObjectVersion
1070
     0
  0
VISUALSTYLE
  5
1D1
102
{ACAD_XDICTIONARY
360
207
102
}
102
{ACAD_REACTORS
330
2C
102
}
330
2C
100
AcDbVisualStyle
  2
GouraudWithEdges
 70
     3
 71
     2
 72
     2
 73
     1
 90
        2
 40
-0.6
 41
30.0
 62
     5
 63
     7
 74
     1
 91
        0
 64
     7
 65
   257
 75
     1
175
     1
 42
1.0
 92
        0
 66
   257
 43
1.0
 76
     1
 77
     6
 78
     2
 67
     7
 79
     5
170
     0
171
     0
290
     0
174
     0
 93
       13
 44
0.0
173
     0
291
     1
 45
0.0
1001
ACAD
1000
AcDbSavedByObjectVersion
1070
     0
  0
VISUALSTYLE
  5
1D3
102
{ACAD_XDICTIONARY
360
20B
102
}
102
{ACAD_REACTORS
330
2C
102
}
330
2C
100
AcDbVisualStyle
  2
Hidden
 70
     6
 71
     1
 72
     2
 73
     2
 90
        0
 40
-0.6
 41
-30.0
 62
     5
 63
     7
 74
     2
 91
        2
 64
     7
 65
   257
 75
     2
175
     1
 42
40.0
 92
        0
 66
   257
 43
1.0
 76
     1
 77
     6
 78
     2
 67
     7
 79
     3
170
     0
171
     0
290
     0
174
     0
 93
        1
 44
0.0
173
     0
291
     0
 45
0.0
1001
ACAD
1000
AcDbSavedByObjectVersion
1070
     0
  0
VISUALSTYLE
  5
1E0
102
{ACAD_XDICTIONARY
360
225
102
}
102
{ACAD_REACTORS
330
2C
102
}
330
2C
100
AcDbVisualStyle
  2
JitterOff
 70
    20
 71
     2
 72
     2
 73
     0
 90
        0
 40
-0.6
 41
-30.0
 62
     5
 63
     7
 74
     1
 91
        4
 64
     7
 65
   257
 75
     1
175
     1
 42
1.0
 92
       10
 66
     7
 43
1.0
 76
     1
 77
     6
 78
     2
 67
     7
 79
     5
170
     0
171
     0
290
     0
174
     0
 93
        1
 44
0.0
173
     0
291
     1
 45
0.0
1001
ACAD
1000
AcDbSavedByObjectVersion
1070
     0
  0
VISUALSTYLE
  5
1D8
102
{ACAD_XDICTIONARY
360
215
102
}
102
{ACAD_REACTORS
330
2C
102
}
330
2C
100
AcDbVisualStyle
  2
Linepattern
 70
    14
 71
     2
 72
     2
 73
     0
 90
        0
 40
-0.6
 41
-30.0
 62
     5
 63
     7
 74
     1
 91
        4
 64
     7
 65
   257
 75
     7
175
     7
 42
1.0
 92
        8
 66
     7
 43
1.0
 76
     1
 77
     6
 78
     2
 67
     7
 79
     5
170
     0
171
     0
290
     0
174
     0
 93
        1
 44
0.0
173
     0
291
     1
 45
0.0
1001
ACAD
1000
AcDbSavedByObjectVersion
1070
     0
  0
VISUALSTYLE
  5
1E1
102
{ACAD_XDICTIONARY
360
227
102
}
102
{ACAD_REACTORS
330
2C
102
}
330
2C
100
AcDbVisualStyle
  2
OverhangOff
 70
    21
 71
     2
 72
     2
 73
     0
 90
        0
 40
-0.6
 41
-30.0
 62
     5
 63
     7
 74
     1
 91
        4
 64
     7
 65
   257
 75
     1
175
     1
 42
1.0
 92
        9
 66
     7
 43
1.0
 76
     1
 77
     6
 78
     2
 67
     7
 79
     5
170
     0
171
     0
290
     0
174
     0
 93
        1
 44
0.0
173
     0
291
     1
 45
0.0
1001
ACAD
1000
AcDbSavedByObjectVersion
1070
     0
  0
VISUALSTYLE
  5
4E
102
{ACAD_XDICTIONARY
360
1FD
102
}
102
{ACAD_REACTORS
330
2C
102
}
330
2C
100
AcDbVisualStyle
  2
Realistic
 70
     8
 71
     2
 72
     2
 73
     0
 90
        0
 40
-0.6
 41
-30.0
 62
     5
 63
     7
 74
     1
 91
        0
 64
     7
 65
   257
 75
     1
175
     1
 42
1.0
 92
        8
 66
     8
 43
1.0
 76
     1
 77
     6
 78
     2
 67
     7
 79
     5
170
     0
171
     0
290
     0
174
     0
 93
       13
 44
0.0
173
     0
291
     0
 45
0.0
1001
ACAD
1000
AcDbSavedByObjectVersion
1070
     0
  0
VISUALSTYLE
  5
1DF
102
{ACAD_XDICTIONARY
360
223
102
}
102
{ACAD_REACTORS
330
2C
102
}
330
2C
100
AcDbVisualStyle
  2
Shaded
 70
    27
 71
     2
 72
     2
 73
     1
 90
        2
 40
-0.6
 41
30.0
 62
     5
 63
     7
 74
     0
 91
        4
 64
     7
 65
   257
 75
     1
175
     1
 42
1.0
 92
        8
 66
   257
 43
1.0
 76
     1
 77
     6
 78
     2
 67
     8
 79
     3
170
     0
171
     0
290
     0
174
     0
 93
        5
 44
0.0
173
     0
291
     0
 45
0.0
1001
ACAD
1000
AcDbSavedByObjectVersion
1070
     0
  0
VISUALSTYLE
  5
1DE
102
{ACAD_XDICTIONARY
360
221
102
}
102
{ACAD_REACTORS
330
2C
102
}
330
2C
100
AcDbVisualStyle
  2
Shaded with edges
 70
    26
 71
     2
 72
     2
 73
     1
 90
        2
 40
-0.6
 41
30.0
 62
     5
 63
     7
 74
     1
 91
       10
 64
     7
 65
   257
 75
     2
175
     1
 42
1.0
 92
        8
 66
   257
 43
1.0
 76
     1
 77
     6
 78
     2
 67
     7
 79
     3
170
     0
171
     0
290
     0
174
     0
 93
        5
 44
0.0
173
     0
291
     0
 45
0.0
1001
ACAD
1000
AcDbSavedByObjectVersion
1070
     0
  0
VISUALSTYLE
  5
1DB
102
{ACAD_XDICTIONARY
360
21B
102
}
102
{ACAD_REACTORS
330
2C
102
}
330
2C
100
AcDbVisualStyle
  2
Shades of Gray
 70
    23
 71
     2
 72
     2
 73
     3
 90
        0
 40
-0.6
 41
-30.0
 62
     5
 63
     7
 74
     2
 91
        2
 64
     7
 65
     7
 75
     1
175
     1
 42
40.0
 92
        8
 66
     7
 43
1.0
 76
     1
 77
     6
 78
     2
 67
     7
 79
     3
170
     0
171
     0
290
     0
174
     0
 93
        1
 44
0.0
173
     0
291
     0
 45
0.0
1001
ACAD
1000
AcDbSavedByObjectVersion
1070
     0
  0
VISUALSTYLE
  5
1DC
102
{ACAD_XDICTIONARY
360
21D
102
}
102
{ACAD_REACTORS
330
2C
102
}
330
2C
100
AcDbVisualStyle
  2
Sketchy
 70
    24
 71
     1
 72
     2
 73
     2
 90
        0
 40
-0.6
 41
-30.0
 62
     5
 63
     7
 74
     2
 91
        2
 64
     7
 65
     7
 75
     1
175
     1
 42
40.0
 92
       11
 66
     7
 43
1.0
 76
     1
 77
     6
 78
     2
 67
     7
 79
     6
170
     0
171
     0
290
     0
174
     0
 93
        1
 44
0.0
173
     0
291
     0
 45
0.0
1001
ACAD
1000
AcDbSavedByObjectVersion
1070
     0
  0
VISUALSTYLE
  5
1D7
102
{ACAD_XDICTIONARY
360
213
102
}
102
{ACAD_REACTORS
330
2C
102
}
330
2C
100
AcDbVisualStyle
  2
Thicken
 70
    13
 71
     2
 72
     2
 73
     0
 90
        0
 40
-0.6
 41
-30.0
 62
     5
 63
     7
 74
     1
 91
        4
 64
     7
 65
   257
 75
     1
175
     1
 42
1.0
 92
       12
 66
     7
 43
1.0
 76
     1
 77
     6
 78
     2
 67
     7
 79
     5
170
     0
171
     0
290
     0
174
     0
 93
        1
 44
0.0
173
     0
291
     1
 45
0.0
1001
ACAD
1000
AcDbSavedByObjectVersion
1070
     0
  0
VISUALSTYLE
  5
4F
102
{ACAD_XDICTIONARY
360
1FF
102
}
102
{ACAD_REACTORS
330
2C
102
}
330
2C
100
AcDbVisualStyle
  2
Wireframe
 70
     5
 71
     0
 72
     2
 73
     0
 90
        0
 40
-0.6
 41
-30.0
 62
     5
 63
     7
 74
     1
 91
        4
 64
     7
 65
   257
 75
     1
175
     1
 42
1.0
 92
        0
 66
   257
 43
1.0
 76
     1
 77
     6
 78
     2
 67
     7
 79
     3
170
     0
171
     0
290
     0
174
     0
 93
        1
 44
0.0
173
     0
291
     0
 45
0.0
1001
ACAD
1000
AcDbSavedByObjectVersion
1070
     0
  0
VISUALSTYLE
  5
1DD
102
{ACAD_XDICTIONARY
360
21F
102
}
102
{ACAD_REACTORS
330
2C
102
}
330
2C
100
AcDbVisualStyle
  2
X-Ray
 70
    25
 71
     2
 72
     2
 73
     1
 90
        1
 40
0.5
 41
-30.0
 62
     5
 63
     7
 74
     1
 91
        0
 64
     7
 65
   257
 75
     1
175
     1
 42
1.0
 92
        8
 66
     7
 43
1.0
 76
     1
 77
     6
 78
     2
 67
     7
 79
     3
170
     0
171
     0
290
     0
174
     0
 93
       13
 44
0.0
173
     0
291
     0
 45
0.0
1001
ACAD
1000
AcDbSavedByObjectVersion
1070
     0
  0
DICTIONARYVAR
  5
1C9
102
{ACAD_REACTORS
330
1C5
102
}
330
1C5
100
DictionaryVariables
280
     0
  1
1:1
  0
DICTIONARYVAR
  5
1C7
102
{ACAD_REACTORS
330
1C5
102
}
330
1C5
100
DictionaryVariables
280
     0
  1
STANDARD
  0
DICTIONARYVAR
  5
1C6
102
{ACAD_REACTORS
330
1C5
102
}
330
1C5
100
DictionaryVariables
280
     0
  1
STANDARD
  0
DICTIONARYVAR
  5
1EA
102
{ACAD_REACTORS
330
1C5
102
}
330
1C5
100
DictionaryVariables
280
     0
  1
1
  0
DICTIONARYVAR
  5
1E9
102
{ACAD_REACTORS
330
1C5
102
}
330
1C5
100
DictionaryVariables
280
     0
  1
1
  0
DICTIONARYVAR
  5
1E8
102
{ACAD_REACTORS
330
1C5
102
}
330
1C5
100
DictionaryVariables
280
     0
  1
0
  0
DICTIONARYVAR
  5
1CB
102
{ACAD_REACTORS
330
1C5
102
}
330
1C5
100
DictionaryVariables
280
     0
  1
1
  0
DICTIONARYVAR
  5
1CC
102
{ACAD_REACTORS
330
1C5
102
}
330
1C5
100
DictionaryVariables
280
     0
  1
15
  0
DICTIONARYVAR
  5
1CA
102
{ACAD_REACTORS
330
1C5
102
}
330
1C5
100
DictionaryVariables
280
     0
  1
0
  0
DICTIONARYVAR
  5
1C8
102
{ACAD_REACTORS
330
1C5
102
}
330
1C5
100
DictionaryVariables
280
     0
  1
0
  0
DICTIONARYVAR
  5
1E7
102
{ACAD_REACTORS
330
1C5
102
}
330
1C5
100
DictionaryVariables
280
     0
  1
127
  0
DICTIONARYVAR
  5
1EB
102
{ACAD_REACTORS
330
1C5
102
}
330
1C5
100
DictionaryVariables
280
     0
  1
2
  0
DICTIONARY
  5
1F6
330
1B
100
AcDbDictionary
280
     1
281
     1
  3
ACAD_XREC_ROUNDTRIP
360
1F7
  0
DICTIONARY
  5
1F4
330
16
100
AcDbDictionary
280
     1
281
     1
  3
ACAD_XREC_ROUNDTRIP
360
1F5
  0
DICTIONARY
  5
40
330
3F
100
AcDbDictionary
280
     1
281
     1
  3
ACAD_XREC_ROUNDTRIP
360
1FB
  3
BUMPTILE
360
41
  3
DIFFUSETILE
360
42
  3
OPACITYTILE
360
43
  3
REFLECTIONTILE
360
44
  3
REFRACTIONTILE
360
45
  3
SPECULARTILE
360
46
  0
DICTIONARY
  5
37
330
36
100
AcDbDictionary
280
     1
281
     1
  3
ACAD_XREC_ROUNDTRIP
360
1FA
  3
BUMPTILE
360
38
  3
DIFFUSETILE
360
39
  3
FBXASSET
360
3A
  3
OPACITYTILE
360
3B
  3
REFLECTIONTILE
360
3C
  3
REFRACTIONTILE
360
3D
  3
SPECULARTILE
360
3E
  0
DICTIONARY
  5
C
330
A
100
AcDbDictionary
280
     1
281
     1
  3
ACAD_XREC_ROUNDTRIP
360
1F3
  3
BUMPTILE
360
D
  3
DIFFUSETILE
360
E
  3
FBXASSET
360
F
  3
OPACITYTILE
360
10
  3
REFLECTIONTILE
360
11
  3
REFRACTIONTILE
360
12
  3
SPECULARTILE
360
13
  0
DICTIONARY
  5
4D
330
4C
100
AcDbDictionary
280
     1
281
     1
  3
ACAD_ROUNDTRIP_2008_TABLESTYLE_CELLSTYLEMAP
360
1EC
  3
ACAD_XREC_ROUNDTRIP
360
1FC
  0
DICTIONARY
  5
1F8
330
2B
100
AcDbDictionary
280
     1
281
     1
  3
ACAD_XREC_ROUNDTRIP
360
1F9
  0
DICTIONARY
  5
209
330
1D2
100
AcDbDictionary
280
     1
281
     1
  3
ACAD_XREC_ROUNDTRIP
360
20A
  0
DICTIONARY
  5
211
330
1D6
100
AcDbDictionary
280
     1
281
     1
  3
ACAD_XREC_ROUNDTRIP
360
212
  0
DICTIONARY
  5
219
330
1DA
100
AcDbDictionary
280
     1
281
     1
  3
ACAD_XREC_ROUNDTRIP
360
21A
  0
DICTIONARY
  5
20D
330
1D4
100
AcDbDictionary
280
     1
281
     1
  3
ACAD_XREC_ROUNDTRIP
360
20E
  0
DICTIONARY
  5
20F
330
1D5
100
AcDbDictionary
280
     1
281
     1
  3
ACAD_XREC_ROUNDTRIP
360
210
  0
DICTIONARY
  5
229
330
1E2
100
AcDbDictionary
280
     1
281
     1
  3
ACAD_XREC_ROUNDTRIP
360
22A
  0
DICTIONARY
  5
217
330
1D9
100
AcDbDictionary
280
     1
281
     1
  3
ACAD_XREC_ROUNDTRIP
360
218
  0
DICTIONARY
  5
201
330
1CE
100
AcDbDictionary
280
     1
281
     1
  3
ACAD_XREC_ROUNDTRIP
360
202
  0
DICTIONARY
  5
203
330
1CF
100
AcDbDictionary
280
     1
281
     1
  3
ACAD_XREC_ROUNDTRIP
360
204
  0
DICTIONARY
  5
205
330
1D0
100
AcDbDictionary
280
     1
281
     1
  3
ACAD_XREC_ROUNDTRIP
360
206
  0
DICTIONARY
  5
207
330
1D1
100
AcDbDictionary
280
     1
281
     1
  3
ACAD_XREC_ROUNDTRIP
360
208
  0
DICTIONARY
  5
20B
330
1D3
100
AcDbDictionary
280
     1
281
     1
  3
ACAD_XREC_ROUNDTRIP
360
20C
  0
DICTIONARY
  5
225
330
1E0
100
AcDbDictionary
280
     1
281
     1
  3
ACAD_XREC_ROUNDTRIP
360
226
  0
DICTIONARY
  5
215
330
1D8
100
AcDbDictionary
280
     1
281
     1
  3
ACAD_XREC_ROUNDTRIP
360
216
  0
DICTIONARY
  5
227
330
1E1
100
AcDbDictionary
280
     1
281
     1
  3
ACAD_XREC_ROUNDTRIP
360
228
  0
DICTIONARY
  5
1FD
330
4E
100
AcDbDictionary
280
     1
281
     1
  3
ACAD_XREC_ROUNDTRIP
360
1FE
  0
DICTIONARY
  5
223
330
1DF
100
AcDbDictionary
280
     1
281
     1
  3
ACAD_XREC_ROUNDTRIP
360
224
  0
DICTIONARY
  5
221
330
1DE
100
AcDbDictionary
280
     1
281
     1
  3
ACAD_XREC_ROUNDTRIP
360
222
  0
DICTIONARY
  5
21B
330
1DB
100
AcDbDictionary
280
     1
281
     1
  3
ACAD_XREC_ROUNDTRIP
360
21C
  0
DICTIONARY
  5
21D
330
1DC
100
AcDbDictionary
280
     1
281
     1
  3
ACAD_XREC_ROUNDTRIP
360
21E
  0
DICTIONARY
  5
213
330
1D7
100
AcDbDictionary
280
     1
281
     1
  3
ACAD_XREC_ROUNDTRIP
360
214
  0
DICTIONARY
  5
1FF
330
4F
100
AcDbDictionary
280
     1
281
     1
  3
ACAD_XREC_ROUNDTRIP
360
200
  0
DICTIONARY
  5
21F
330
1DD
100
AcDbDictionary
280
     1
281
     1
  3
ACAD_XREC_ROUNDTRIP
360
220
  0
XRECORD
  5
1F7
102
{ACAD_REACTORS
330
1F6
102
}
330
1F6
100
AcDbXrecord
280
     1
102
SHADEPLOT
 70
     0
102
SHADEPLOTRESLEVEL
 70
     2
102
SHADEPLOTCUSTOMDPI
 70
   300
  0
XRECORD
  5
1F5
102
{ACAD_REACTORS
330
1F4
102
}
330
1F4
100
AcDbXrecord
280
     1
102
SHADEPLOT
 70
     0
102
SHADEPLOTRESLEVEL
 70
     2
102
SHADEPLOTCUSTOMDPI
 70
   300
  0
XRECORD
  5
1FB
102
{ACAD_REACTORS
330
40
102
}
330
40
100
AcDbXrecord
280
     1
102
MATERIAL
148
0.0
149
0.0
149
0.0
 93
        0
 94
      127
282
     0
 72
     0
 77
     0
171
     0
175
     0
179
     0
273
     0
  0
XRECORD
  5
41
102
{ACAD_REACTORS
330
40
102
}
330
40
100
AcDbXrecord
280
     1
270
     1
271
     1
  0
XRECORD
  5
42
102
{ACAD_REACTORS
330
40
102
}
330
40
100
AcDbXrecord
280
     1
270
     1
271
     1
  0
XRECORD
  5
43
102
{ACAD_REACTORS
330
40
102
}
330
40
100
AcDbXrecord
280
     1
270
     1
271
     1
  0
XRECORD
  5
44
102
{ACAD_REACTORS
330
40
102
}
330
40
100
AcDbXrecord
280
     1
270
     1
271
     1
  0
XRECORD
  5
45
102
{ACAD_REACTORS
330
40
102
}
330
40
100
AcDbXrecord
280
     1
270
     1
271
     1
  0
XRECORD
  5
46
102
{ACAD_REACTORS
330
40
102
}
330
40
100
AcDbXrecord
280
     1
270
     1
271
     1
  0
XRECORD
  5
1FA
102
{ACAD_REACTORS
330
37
102
}
330
37
100
AcDbXrecord
280
     1
102
MATERIAL
148
0.0
149
0.0
149
0.0
 93
        0
 94
      127
282
     0
 72
     0
 77
     0
171
     0
175
     0
179
     0
273
     0
  0
XRECORD
  5
38
102
{ACAD_REACTORS
330
37
102
}
330
37
100
AcDbXrecord
280
     1
270
     1
271
     1
  0
XRECORD
  5
39
102
{ACAD_REACTORS
330
37
102
}
330
37
100
AcDbXrecord
280
     1
270
     1
271
     1
  0
XRECORD
  5
3A
102
{ACAD_REACTORS
330
37
102
}
330
37
100
AcDbXrecord
280
     1
 70
     1
 90
1959938040
 71
     1
  1
518C80F0-CF1B-4D03-8348-4F7FD55A8922
311
504B03040A00000800006B6B70423DEE336E79000000790000001B0000006175746F6465736B2D64657369676E2D7061636B6167652E786D6C3C3F786D6C2076657273696F6E3D22312E302220656E636F64696E673D227574662D3822203F3E3C666F726D6174733E3C666F726D61743E687474703A2F2F736368656D612E
311
6175746F6465736B2E636F6D2F64657369676E2D7061636B6167652F323030393C2F666F726D61743E3C2F666F726D6174733E504B03041400060808006B6B7042D486FD9CA0000000F4000000130000005B436F6E74656E745F54797065735D2E786D6C7D8EC10E82300C865F65E91D8A1E8C310C0EEA1BF002731658846E
311
D98AC1B77784ABF1D8FE5FBFBF75BBCE937A534CCEB38643598122B6FEE978D0B0485F9C41B54DDD7D022595594E1A469170414C76A4D9A4D207E29CF43ECE46F218070CC6BECC4078ACAA135ACF422C856C0E68EA1BF5669944DDD7BCDE7B1F8E415D77AECB980613C2E4AC91FC167A2B244592486606FC29C8FD7F045B9A
311
EF7053A7E60B504B03041400060808006B6B7042F02C44DFEC0000007C01000008000000636F72652E786D6C8D905B6EC3201045B782F8ADB079B8F14398C88D9B15740308888B128365A0EAF28B13476AFFFA35A33BF7CC8C2E3F7ECF37F065D660BDEB21293004C629AFAD9B7A98E20535101C055FBD8FBF6C1038399B1E
311
6E32147C5A7D5A764979178D8B59755E9B5D9421980881BAE5A687417D9A591632C5EC08D76291EA2A2753906797E194AC068F2356E77DF662CD0A453D1CAA733534E8D45623AADEDB11BDB5CD886853D366A0E47C62AFBCDC60C1A39D9FF7D56A64341A0A8A0943982172F820ACA37547D90B261DC6BCDCEC7FA0B4E87F42
311
C9BAC8E8FEEE030B5090FCC87D2078B96591CB3DA85CB7DCC40F504B03041400060808006B6B704255019EA25F0000007C00000007000000636E782E786D6C4DCB3B0E80201045D1AD90E915ED2CF8AC45050C11660C8261F98AB1B07AC9C97D42D718D865D3E909258CFD00CCE24AC6E326A164D74DC0B4128928FF326038
311
472BA13128B1252AC747C6BAB984FC68F0B87FE8960A5C09FE86CFB69FBA01504B03041400060808006B6B7042D96681A868010000020300000C0000006662782F636F72652E786D6C8D525B6E833010BC8AE5DF0ACCAB09898CA334694ED00B38C6A12860233F508EDFE511D154515421196B6667777680EE6E6D837A696C
311
AD5581E330C2482AA1CB5A5505F6EE12E418ED18355ABB5F651829DECA020F3066B432DA773324B472523940952EE50C726BA5C348347029B015DFB2E521F70E2AEC35ECB8B8F24A86710834D4316A9D0103681A329C985DCE374A269C51EFEB7266EB12A6D5975A1ACCD6FB5576CAF67970D864C720FBDC1C838F4D7E0C92
311
7C9DE4FB243E1DD2774A0631A3AE6EEFEE8491DCC912B3248AD3204A8378F515A7DB64BD4DD2B728DE46112543F983C877E53F45BE562E4D66BB93CC6216839191F8B32D44E490E53DF8218C922144788D093F060D8140C88E9F9BFB1E57807A299C361930A5F60BD5F3C64B981AA1F1A16462A1F3D800367BDA2779D1E775
311
0FF8805C55608D3BB89EBD1BA6D369EA1C45274DD0BB1B52DAB4BC59CC4D16977319F4542E74A3CD7FD4645E95CC6192E1EF653F504B03041400060808006B6B704215A8E6867E0000009D0000000B0000006662782F636E782E786D6C4DCCD10A83201886E15B91FFDCA561CD1FD4D862DE472C0B99E9703676F9ABD1C18E
311
3E78F87855F7590279BBFCF2296AE02706C4C57B1A7D9C35AC65A2124867544EA9FCDD80C461711A7606A3E69CD6E741A39B8635944D838F8F03F1CA38B612A9B5FD850AB48222434E6B716BADACCF4D237AA88CAA7EA56DF7B0F902504B03041400060808006B6B704260BDB22C2B01000014020000310000006662782F39
311
423031393638392D464643412D343946342D393039312D3234453646383237353534432F636F72652E786D6C8D515B6EC32010BC0AE22B55850D9838768489DAA83E412F406C92A2C460F1A872FC42ED48ED5F7E58343B333BDAE587FB7403DFCA796D4D074981215066B0A336970EC670460D0407C19DB5E10F0D022327D5
311
C10C43C12FCEC67985066B823221A1C68E6A05A5F72A4030DCD2A7837EF852932C640C89E1AFC52C87ABBCA88214A99D7882FBE05200B00CC92F14ED3B266DDDB4A8EF8F6F88B53D432D6E09A2ECA3EE1BBADB6ED991978B50F018F5B8CAF598E2E8B356EE59932C163CE8E9117F704A0635424131A910AE10A93F49B5A7BB
311
3DAD5E31D963CCCB4CFF278AF3F8A4286A132ABAC65D641E0AC2CBA521F868E3E9F608A3EEB37501E4791BAF861728708129259461C6CB859A16903C6BB67AFA605D5AF0E67A4A6CB25D8C6B2678996F94CAEF0153CDF7143F504B03041400060808006B6B70424B10B4254E01000033030000300000006662782F39423031
311
393638392D464643412D343946342D393039312D3234453646383237353534432F636E782E786D6CD593CD6E022114855F85B06DE607C7D8C6309874D127E8A25B84AB521998F0D3D4B7EF45D1BA71D165376472EEE19C9B2F0CDF7C4F967C4188C6BB91B2B6A7049CF2DAB8FD4873DA352F946C040FDEA73B1B254E4E30D2
311
2253C1F7C1E7B94A1A7632DB84AA35EE58C500D1E7A020A25C6E12EB95B41800AEC928C2B405AD41939B11BF7610701514B727920E40DE5E3F88DF7E824A91772545F0AE74085ECEDA7467A2445919E348A33AC0245B9993D7108FAD9649B6ACBD763DD8E93789940BD7CA1C0C29E5232D271575A31639F20E8782C714905E
311
35A5D30C54C879B646C98490BBB3F1E2113C1B9756CBEA35083EA09BAD86E512C3CE33C19399A03A5400994053B1E8D9D0F443C356EF6C582F9ED78BE1A967EBBEE75DB10BBEF5DED64B1803C1CF447997C0252A18EFCAF811BEEA23DA0464EDC3E90F2011406DBDD0B965FC673EDDF97D23AE807F81F801504B0304140006
311
0808006B6B7042207A56019B0500007B100000340000006662782F39423031393638392D464643412D343946342D393039312D3234453646383237353534432F6F626A656374732E786D6CAD575D8F9B3814FD2B887D06429269332B866A2669AA6877DAAA51AB7D1829326018EF980FD9669AD95FBFC76008A4C934BBEA0B
311
60635FDF7BEEB91F0EDEED736E3D53215959DCD8BE3BB12D5AC465C28AECC6AE55EA2C6CEB5D1888B2548365B655909CDED87ADA0E834C947565A6129A929AABA3D9F5DD5F968C69416D2BE644CA1B5BC68F34272EA9559950F9E4264411374BF7AEEFB60BC7623341AAC723A11511B450D014F305A458AD52FE7838B1BD30
311
F0F4FF30D04FB36A767E95D7D8333E9F15529122FEE1B02331337FBE7A3FBDBA76AEE6F399337F33F59DBBF5DDCAF1DFCE26CB37CBE5F5EDFB6B1C2C958024A389A0A91D7E003682C581D7FE0A839A156A36354B8C833C419F99F6941D4E2D3FF0DA35BD75C6C853EAC76551D0B8C10A6834F619D109AD6891C0E78C4A6836
311
4068321EFA1AC7C1EF991E9B2387D3972130DC3110D4E9DEBD879A96D1DF30415EC22021A966608BA531B4E5EAE480705496DCFC63D2CA89A282116E711609225EEC104BF592301889D14C163A1AB40576082FB4BFC7744118FD9CE7A7B44C6BCE358DEDB089821D62852AD968C6FEA1E2A0FD1019E8045F69362C8C41EAA5
311
A27678DD526471C4A616482BE52483CB61A6DE399B1E19BAD471BA59D9E11FEB68BFD5B17BFAF04A9415154AD307D4EA1CD7BD354A4627FF22CFE90DF6912A0750BE00F98F08F5832AF09B60FBF97E6E4E518214322D450EDF5813CB99E031B1FCE6A9BF075F81D76F1E7BEF1C9E70B686EA17E039B661E8CB019C61F00CC2
311
9762664CDBC684236DDCB30200699258BCC414F2701AEDED70832C87AC8C5D84873E4C86BACFF80C3C230689A23969F02E80E5515ABC204103B6869150A325BF51F0E0A71FD25973B059760EDEAB5F42D7DBD5F68F6D2D5212D37B13D32B9AB2822994B8036F860A8D301F59F4445FBE972281A13FE2BD1DE29D9BA324D0D6
311
986BE0B32EA7EBC1E1E4D10131F665A54E37C14F4E8011BAB00EE4DF331953CE4941CBBA3BF7D5FA81B2D142AC835D33B92F3087C202D2B47F8E6210453A16ACD220F6D5AA4F9AEE19EBBE6E3E82917678F7F227791966AFE8907BE392976217BDECDAB47412EA6F636E1B0C3C2D05746F82A48B7F03FA2E61695A4B24C113
311
B87EDB2C87BED3690129A293DA46CB1CF623B88830A4EDE4A25A0B824A5A163B86BA89B83B79C0503E20350C68049ED358529EEE18E775BE4B194735DAE5A43A03C7FFD73FAAF36A47F2B22ED419D923D5511DC6BA8FD82BBF13153FDAE1B6793B77C8BD094DCE9041D79213588D5C7BE52F968BC97AE22CD7FE9D335F4D66
311
CE62365F38F3F5DBF5EAEAEA76713D9D767E6A350983AED40C231A5E42690B6AC18CFBBE6E103F2609D8E13D51F2E1431B9EDDFBEBC6452F1C78D8837AD96FBC4D9ED1F7D1E4E7020E2B4F0ADAE415A7392D14D13174AF3FF817823E63A44C3BBFC949462F90F2E9C3F6C818CC5CB0EFB38E77FAFD68AF995DEA803C29443D
311
D6795410C68F36662D926E556406BFCE27FDBB2D34DD508F8C63D099CA92B3047930B1325AE654211B5E5084444E25A837ECE91373F7B860F773DB212A1271DA69F248D0247389B000B5EA588DE7ADDFD0D4E9BEEAC646B9759FF03099C2B6C0991B1B4DBA6231956E8402AD5BA14638B834ECE4D1F89322E3E8B5DB4DFDB8
311
DFA5B11995E47EC925FD93B1AB4DE1C600A4910A7D031A2278A751260C1ADDCCFFF83F19DEA9631185CFA856BD2D8789DE98E61884686B94B92DA089793247EF11A8AF9BE5BBCD9A112217DDB25E25412BD5514464CD4D41EB6754BA5D7DF6D0A1589B4F56C5EB0CBEBC5C922328C85CEB00078BC00A23B3220A545DFEFEF0
311
5994B8C9E6D69A81020FCB32CFCBC20C6ECD4DD8DA3EE25E9B3C202D507D21910FD3893F7D682E02E66EB28B88A42E49E41326E053C17A88478E0723DBDB222A50FBA35FE769271C7173B3B24C499B43A821CA30AB6A58D07214D442F4E8CBA48E95E182EAD5BB80D72C850A025D7CF82F504B03041400060800006B6B7042
311
000000000000000000000000350000006662782F39423031393638392D464643412D343946342D393039312D3234453646383237353534432F76657274696365732E62696E504B03041400060808006B6B7042F270F1330600000004000000360000006662782F39423031393638392D464643412D343946342D393039312D
311
3234453646383237353534432F747269616E676C65732E62696E636660600000504B03041400060800006B6B7042000000000000000000000000370000006662782F39423031393638392D464643412D343946342D393039312D3234453646383237353534432F617474726962757465732E62696E504B0304140006080800
311
6B6B7042D5987DFC8F00000041010000360000006662782F39423031393638392D464643412D343946342D393039312D3234453646383237353534432F6469726563746F72792E786D6C858F410EC2201045AF4266AF15DDB800BA74E7C21B903225242D6328188F2FA5C4183471359997F9FF81E89FF3C41E1816475E02DF
311
1F80A11FC8386F25A438EECEC07A250251FC3803E6F58C12560C4AD840E95E91C151A72936F496F35732D860FE635F62C8F2DA16B505C545B74125BAA2FA9E05D7CC053D063734D5C7665FD55B6B8D15D5E9BFEAFD8490FFA45E504B03041400060808006B6B7042004DD0AFFF000000A00100003B0000006662782F394230
311
31393638392D464643412D343946342D393039312D3234453646383237353534432F7265736F75726365732F636F72652E786D6C8D504B6E833010BD0A9A6D65C0360D10194769D29CA017B0CC84580976E44FD5E3D724546A77DDCC8CDE47F3F4C4EE6BBE159FE8837176005AD650A0D56E34761A20C533E9A0D849E19D8B
311
BF64505835E3000B0C524CDEA5FB0A696723DA9851EB465C4115024628F42D1F03047DC159952AC5AC08D7F2AEF4554D58D232D3592745883E07289E4F9609D26370C96B0CA27AB252A464C65563C6FCD39C0D7A90ED7ED39C9A7D4B0E7D7324CD7B7F246F7D7724AC6B59B767F474E0AFA25ACC524433FF64D41E55C41124
311
AB2927352774F341F996B55BC65F6ABAAD6B512DF23FA6741FFF694AC646CED6B84F5B00497390072145B5F495D7A3CCBC976EE537504B010214000A00000800006B6B70423DEE336E79000000790000001B00000000000000000000000000000000006175746F6465736B2D64657369676E2D7061636B6167652E786D6C50
311
4B010214001400060808006B6B7042D486FD9CA0000000F40000001300000000000000000000000000B20000005B436F6E74656E745F54797065735D2E786D6C504B010214001400060808006B6B7042F02C44DFEC0000007C010000080000000000000000000000000083010000636F72652E786D6C504B01021400140006
311
0808006B6B704255019EA25F0000007C000000070000000000000000000000000095020000636E782E786D6C504B010214001400060808006B6B7042D96681A868010000020300000C00000000000000000000000000190300006662782F636F72652E786D6C504B010214001400060808006B6B704215A8E6867E0000009D
311
0000000B00000000000000000000000000AB0400006662782F636E782E786D6C504B010214001400060808006B6B704260BDB22C2B010000140200003100000000000000000000000000520500006662782F39423031393638392D464643412D343946342D393039312D3234453646383237353534432F636F72652E786D6C
311
504B010214001400060808006B6B70424B10B4254E010000330300003000000000000000000000000000CC0600006662782F39423031393638392D464643412D343946342D393039312D3234453646383237353534432F636E782E786D6C504B010214001400060808006B6B7042207A56019B0500007B1000003400000000
311
000000000000000000680800006662782F39423031393638392D464643412D343946342D393039312D3234453646383237353534432F6F626A656374732E786D6C504B010214001400060800006B6B70420000000000000000000000003500000000000000000000000000550E00006662782F39423031393638392D464643
311
412D343946342D393039312D3234453646383237353534432F76657274696365732E62696E504B010214001400060808006B6B7042F270F13306000000040000003600000000000000000000000000A80E00006662782F39423031393638392D464643412D343946342D393039312D3234453646383237353534432F747269
311
616E676C65732E62696E504B010214001400060800006B6B70420000000000000000000000003700000000000000000000000000020F00006662782F39423031393638392D464643412D343946342D393039312D3234453646383237353534432F617474726962757465732E62696E504B010214001400060808006B6B7042
311
D5987DFC8F000000410100003600000000000000000000000000570F00006662782F39423031393638392D464643412D343946342D393039312D3234453646383237353534432F6469726563746F72792E786D6C504B010214001400060808006B6B7042004DD0AFFF000000A00100003B000000000000000000000000003A
311
1000006662782F39423031393638392D464643412D343946342D393039312D3234453646383237353534432F7265736F75726365732F636F72652E786D6C504B0506000000000E000E0080040000921100000000
310
504B03040A00000800006B6B70423DEE336E79000000790000001B0000006175746F6465736B2D64657369676E2D7061636B6167652E786D6C3C3F786D6C2076657273696F6E3D22312E302220656E636F64696E673D227574662D3822203F3E3C666F726D6174733E3C666F726D61743E687474703A2F2F736368656D612E
310
6175746F6465736B2E636F6D2F64657369676E2D7061636B6167652F323030393C2F666F726D61743E3C2F666F726D6174733E504B03041400060808006B6B7042D486FD9CA0000000F4000000130000005B436F6E74656E745F54797065735D2E786D6C7D8EC10E82300C865F65E91D8A1E8C310C0EEA1BF002731658846E
310
D98AC1B77784ABF1D8FE5FBFBF75BBCE937A534CCEB38643598122B6FEE978D0B0485F9C41B54DDD7D022595594E1A469170414C76A4D9A4D207E29CF43ECE46F218070CC6BECC4078ACAA135ACF422C856C0E68EA1BF5669944DDD7BCDE7B1F8E415D77AECB980613C2E4AC91FC167A2B244592486606FC29C8FD7F045B9A
310
EF7053A7E60B504B03041400060808006B6B70423EDBF059E90000007C01000008000000636F72652E786D6C8D905D6EC3201084AF8278ADB05988FC274C94B6CA097A0104C44589C13250F5F8C58923B56F7DDAD5301F3B1A71FC9E6FE8CBAED1053F62A82846D6EB609C9F469CD38574181DA5584348BF6C187935DB116F
310
3296625A435E7649079FAC4F45F5C1D85D5431DA8491BE9565C4517FDA59552AA7E288D76A51FAAA265BC1732B70CECEA0C71167CA7FEEE2EC8A259CCEB4793DB404BA37460E70EE48074D4F78DFBF537A82165A2EEA0D9622B9F9795FAF56256BB0641438A19C40F3017C60EDC0F80B858152516FF63F505ECC3FA1EC7CE2
310
6C8FFBC062C95A82DC1FA4A8B72ECAB81755E6D69BFC01504B03041400060808006B6B704255019EA25F0000007C00000007000000636E782E786D6C4DCB3B0E80201045D1AD90E915ED2CF8AC45050C11660C8261F98AB1B07AC9C97D42D718D865D3E909258CFD00CCE24AC6E326A164D74DC0B4128928FF326038472BA1
310
3128B1252AC747C6BAB984FC68F0B87FE8960A5C09FE86CFB69FBA01504B03041400060808006B6B7042699366EE66010000020300000C0000006662782F636F72652E786D6C8D52ED8E8320107C15C2DF0B02DA54DB204DEF2E7D827B01AAD433553008A68F7FEB47E3F5D234171324333BBBB3A3E2706B1B3468D7D7D6E4
310
98470C236D0A5BD6A6CA71F01792617490C259EB7F95616454AB733CC2588ACAD9D02D50618DD7C6036A6CA91750F5BDF618150D5C72DC17DFBA55910A1E2AFA6BD4A9E2AA2A1DF10868A893A2F70E0CA079C878627939DF049D712942A8CB85AD4B98565F6AEDB0E4C713DBBE6F52C2B38F986CF8292319DFEE48B2DB7D32
310
76E4294F134147B114BE6EEFEE0AA795D7259631E3096109E1DB2F9EECE3741F276F8CEF1913742C7F1085AEFCA728D4C627F1627796F5E0158C4CC49F6D21228F7A35801F2A051D4384D794F063D0100884ECD5B9B9EF710568D085B76E034C69C34A0DAA091AA632343D82CE2C749E1AC0664FFBC42FFABCEE011F50990A
310
AC290FD773F0E374314F5DA2E8B42383BF21635DAB9AD5DC6C713DD7414FE5856DACFB8F9A2EABD2254C3AFEBDF207504B03041400060808006B6B70425318881B7C0000009D0000000B0000006662782F636E782E786D6C4DCCD10A83201805E05791FFDEE54AD2400D84F51EB12C64F63B9C8E3DFE6C74B1AB03DF391C35
310
7EF640DE2EBD7C440DD70B03E2F01E178F9B8692572A818C46A518F3DF0C08CEBBD3703018B5A5589E272D6E9D4BC85583C7C7899DBC09364C3DE55C58CA3B3650CB264EB96D85B47D5B4B018D51CDEFA9E6716CBE504B03041400060808006B6B704261B71B662901000014020000310000006662782F3338453730394636
310
2D343437422D343330392D423046342D3442323738423632373039372F636F72652E786D6C8D515B6EC32010BC0AE22B5585CDABB6136122596A4ED00BB8405294182C1E558E5F5C3B52FB971F16CDCECC8E76C5F13EDDC0B709D17AD7435261088C535E5B77E9614E67D441709422789FFED02070E3647AB8C0508A4BF079
310
DE20E55D322E15D4796D36708CD12408D4AD7C7A18D59799C66ACCA930E2B59A47751D2FA6225569179E1431851200AC4396174AD6BDB7787F6A10E7ED8038C37B34E013477CA06D3734B4345B51AF422972B67A935B5DE2D8B335E15993452C45B2D323BE0A664C46434931610833449A0FC20EB43D50F68AC90163512FF4
310
7FA23CEB2745D9BAC4E8167795452889A8D78614DAE7CFDB238CB9CF3E24B0CCDB45A35EA0C415A68CE2EE8D8B7AA5960514CF866F9E31F95016BCBB7E1636DB8C1B2E45BDDCA894DF0396BADC53FE00504B03041400060808006B6B70422DB77B325601000033030000300000006662782F33384537303946362D34343742
310
2D343330392D423046342D3442323738423632373039372F636E782E786D6CBD93CD6EC32010845F0571ADFC831DB9518489D4439FA0875E316C121A1B2CC055F3F65D1292E69243A5AA1764CD0E33AB4F986FBFA6917C820FC6D99EB2B2A604AC72DAD87D4F97B82BD6946C05F7CEC53B1B25564ED0D32453C1F7DE2D7396
310
34ECE432465447638F59F410DCE2150494D34D323A25470C005B2C28C23480D6A0C9CD885F3BF0B80A8AC389C40390D79777E2860F5031F02AA5085EA50EC1D3999BEE4C94A85186D0D3A00E30C9522ED16908C752CB284B565EBB1EECF49344D2856BE5E20D49E53D4D271579A31239F20A878287E8915E36C5D30C54C879
310
1E8D9211215767E3C523F8626CEC56D96B10BC4777DB74EB35869D678247334176280F3282A6A2A9595BD46DC1BA37D66E9AE74DD33ED56C53D7BC4A76C107E7C67C0963C0BB99286723D84805E3551A3FC2977D441B8FAC9D3FFD022402C8AD173AB78CBFE4C3BA76B5FA473ED5F97D232E8F7F81F806504B030414000608
310
08006B6B70427DDF62F059070000941B0000340000006662782F33384537303946362D343437422D343330392D423046342D3442323738423632373039372F6F626A656374732E786D6CED59DD739B3810FF5718EED9D8C4769BDC103A89DD643CBDB49DFADAB987CC3032C8441721184924F1FDF5B7FA00033109BEE6DEFA
310
6003425AEDFEF6534BF0E129A3CE03E682E4ECDCF5BD89EB6016E70961E9B95BCAEDE8D4753E8401CF73D998E63A0C65F8DC55C36E18A43C2F0B3B94E02D2AA9EC8C5E5DFEE5881833EC3A3145429CBB22BEC319F25029F3048B7B2F411279E9F6C9F33D33B14D36E5A8B8EB102D10C74C02A730CE808A6398F2DB8F13771C
310
0663F53E0CD4BF9D351D346BD63F6BACA56E7349989088C5CF58EA90990E6269EACF961F4FE667A3F96C361DCDDE9DF8A3CBABCBE5C87F3F9D2CDE2D1667171FCF80BD4D9E532B53820BCC12D0DFCE0DFD60ACDED4A25B040E711DE78CE15803095069B1BA040916B05503BE49FBD15712355E6B091BCF33F5DEB2D0189EB6
310
A9F4CD1A06448B2E0862B7AB24AEAE4DF9F2CDDF20B81862945C6009DC0AC941BB161E0E5EE18693606C46C360B3D705114E8624E6045187920D471C940253D59430300B2C19E51C1C48394A02AD39F3BA6D5BE099AFBBCE212EB725A5CA33DC503B5604EE87A5D09C917F30DF73DF44067802694BC2E4A9E552EE0AEC8667
310
C1580F8681BA4C4FEC4B03A4B3A528151A11F3B623E842B9FE6AE9869FAE364F6B150E0E6F5EF0BCC05C2AA3537AD47C8121DBAB42C96EEB0FD29C5A00C21850EDCA3D28DF00F9CF103DF6AC80DE38799A3DCDEC5CC91113DB9C67A01B67E28C26F037717CFDAFEE1B77C1B85EDCD65E1F9EE0A60AAAD39FC7B32D83C6CAF2
310
DF80330C1EC0E0733EB5AFD631A260CF37840140CA481C9AC31084F6EDE6C90D57103821D0C32A44431F4406761FE036185B327BAD54EE65BD8E01A2768FE91025016CDA22818D1E3D5D43F6E024DEABA929621FBCF33731D78BE5FAD3BAE45B14E31BEBD34BBC258C48C89A87196A61DE92E81EEF1E739E80A0CFF15E37F1
310
CEEC5602D056982BE0D30A04F5B0DFB9B5410CEBD25C859BE0951D400895AB1BF46F888831A588E1BCACF6ADA39B32D4DAE36DCDE0862706E2E949C784397E20AAAA00A7D9CF68310A793FE6A45020BAE1B591AC0E9A5E8F74DF579FC122EBF93DB3560C422F43F44F1DB40EE0D0B2EC0A690B442DF0661FCEE39CE63CDAEC
310
2213E95CA825808DB6B7FC681185586F94A4A8800769BFAB424A6AA48D12B2DD9602E2EA01167FAC164D739878537FEE34FF3BCE3883680BBE8BB8F5BBCE1E11C9508AA32D4AFAB66BEE56D3169A640F698EB714E4220F44EE2224A34982D363A0398AF8D99B524F692E04615840BE3A087E138D890781C468B3625969B503
310
3411518625A2C720A0C8F480ABD38EAE7163281D5EE7B1B6DE9734D624FA3F590447504BE62C22508A420E799571DF9B430C69A36B50EEE00BD656D1D662D0124A8878173D6292DEC9635037E47B708FE14852CA282F500C663D80EC335F514AEDF0BE41F1BDCA1F515CD2B7321081E93622949659043FC2E0E431C4B5EBC0
310
F4220A0DE226F6499C41518664C9876CF26E3E79B68FA919BA21B0B1D1965008DB51868A1ED45B0151D7234E0DBEA5DEA3D44D991511CAF2920D32146FDAF5264BBEAB56457620BFAA5484B2B1226C09860161B2CEAA55CC0653D78115DC4807AA5D24505650730A7B25F1F8B53769CABD1B70EBA76FBB4106855F8FF69A11
310
7556C160796C1506E211C9F8CE0DD7FA3ABA84FA3BC1C93ED557B566B30204C454242F39B12AFABE82F2C6D6686E7883A4B8BD3659B7BA7E5F79D0FD08C6B0066A977AE14A019D612691AA4C6ED40DFD862004B76898F195CAA9C750B948125D35227A45FAD4D92A235A9B66C42BEE30CB33F8B15BC2625A26F81625E23EBA
310
91345A13C5BA95D2CB4885F18B027EB95E77E0819101227D55051E7EECACB5A30B552E1D2422EFCA6CC3108120D8122D35BAF10A965A8D545AAEAFEA4C017517189855F1ECD7C9A2D98EF875B248AD61FCD4C9E272F707DA35FB228D741E2BBB3EEA1850E72745E52D8E01BAED5053ADB38849E6567EEB4C1104C52ACA0FAE
310
C6AAA06108F671FC9FB3765F1634DB75F83F2E6BFBCF2A8EA3B24A6BB2EA521DA85C57CD1C36F74F17A793ABC96871E55F8E66CBC974743A9D9D8E6657EFAF96F3F9C5E9D9499D8A0DF130A88399CE5DF06C825A35AC9E2C06D095153925099CE61327C510F3259CE907B4CF79860524CF66B33BB14DF901AB1F4C9F53A20D
310
C5152777081AC454405A0731CA58B6C79DDFA03529E1A07DEE42D3C8BB873F6B95AE0399E7DC855681243116DE06DA4CAAA1A78943CAD5B9DF1283408658AA52A259543FD7AB1436ADF05F4F199206AC5CAD1E06146E0574BF5A1D0ACD9BE5293E4AF08A1D0749B8DD9412AA3523CB7EA016466FB357BF918D12766FB77E02
310
D77D592CDFD3735A880CFA64F0A21118AA238978AAFBDD8A31CBD2C5F2EB18FA6CCEEA8B53D032055D0EA734E2188CB954051558115885A5592009A6BAF8FDF62BCFE1134FE6E8AAE876916759CEECC3059CC712F844E4ACEFE0834F720B6503566D75717B32F14F6E753BDB76D8A30D12D853F5100C54658412A1636C6091
310
CF5A53B67139564AE84C5F2D1D1B3EA10D602CE85977D77CDE72C07BD48714E52BDAC32B395FEC688FF554B0060EBDE8F05F504B03041400060800006B6B7042000000000000000000000000350000006662782F33384537303946362D343437422D343330392D423046342D3442323738423632373039372F766572746963
310
65732E62696E504B03041400060808006B6B7042F270F1330600000004000000360000006662782F33384537303946362D343437422D343330392D423046342D3442323738423632373039372F747269616E676C65732E62696E636660600000504B03041400060800006B6B70420000000000000000000000003700000066
310
62782F33384537303946362D343437422D343330392D423046342D3442323738423632373039372F617474726962757465732E62696E504B03041400060808006B6B7042D5987DFC8F00000041010000360000006662782F33384537303946362D343437422D343330392D423046342D3442323738423632373039372F6469
310
726563746F72792E786D6C858F410EC2201045AF4266AF15DDB800BA74E7C21B903225242D6328188F2FA5C4183471359997F9FF81E89FF3C41E1816475E02DF1F80A11FC8386F25A438EECEC07A250251FC3803E6F58C12560C4AD840E95E91C151A72936F496F35732D860FE635F62C8F2DA16B505C545B74125BAA2FA9E
310
05D7CC053D063734D5C7665FD55B6B8D15D5E9BFEAFD8490FFA45E504B03041400060808006B6B70422D70DEC1FC000000A00100003B0000006662782F33384537303946362D343437422D343330392D423046342D3442323738423632373039372F7265736F75726365732F636F72652E786D6C8D504B6EC32010BD0A625B
310
6183896CC7C24469AB9CA0174030715062B0F8543D7E71EC4AEDAE9B99D1FB689E9E387DCD0FF409215AEF46CC2A8A1138ED8D75D38873BA921EA39314C1FBF44B869153338C7885B11453F079D921ED5D02970AEABC811D543142C2483FCA31E2A86F30AB4AE55414F15E2D4ADFD50415AB0A5D7452C4144A00B43D592796
310
01A2CF414314F5C64A91B335BBC69AF2D35E2D042CD9F942DBD7434B58FFD69003BBF4A467ED91F0E3F19DD233EB58C745BD9AA54876FEC9A803A80406CB86324E2827ACFD607C68BAA1E12F940D948A7A95FF31E5C5FCD394AD4BBCD9E36EB658B296204F428A7AEDABAC679965AFDDCA6F504B010214000A00000800006B
310
6B70423DEE336E79000000790000001B00000000000000000000000000000000006175746F6465736B2D64657369676E2D7061636B6167652E786D6C504B010214001400060808006B6B7042D486FD9CA0000000F40000001300000000000000000000000000B20000005B436F6E74656E745F54797065735D2E786D6C504B
310
010214001400060808006B6B70423EDBF059E90000007C010000080000000000000000000000000083010000636F72652E786D6C504B010214001400060808006B6B704255019EA25F0000007C000000070000000000000000000000000092020000636E782E786D6C504B010214001400060808006B6B7042699366EE6601
310
0000020300000C00000000000000000000000000160300006662782F636F72652E786D6C504B010214001400060808006B6B70425318881B7C0000009D0000000B00000000000000000000000000A60400006662782F636E782E786D6C504B010214001400060808006B6B704261B71B662901000014020000310000000000
310
00000000000000004B0500006662782F33384537303946362D343437422D343330392D423046342D3442323738423632373039372F636F72652E786D6C504B010214001400060808006B6B70422DB77B3256010000330300003000000000000000000000000000C30600006662782F33384537303946362D343437422D3433
310
30392D423046342D3442323738423632373039372F636E782E786D6C504B010214001400060808006B6B70427DDF62F059070000941B00003400000000000000000000000000670800006662782F33384537303946362D343437422D343330392D423046342D3442323738423632373039372F6F626A656374732E786D6C50
310
4B010214001400060800006B6B70420000000000000000000000003500000000000000000000000000121000006662782F33384537303946362D343437422D343330392D423046342D3442323738423632373039372F76657274696365732E62696E504B010214001400060808006B6B7042F270F133060000000400000036
310
00000000000000000000000000651000006662782F33384537303946362D343437422D343330392D423046342D3442323738423632373039372F747269616E676C65732E62696E504B010214001400060800006B6B70420000000000000000000000003700000000000000000000000000BF1000006662782F333845373039
310
46362D343437422D343330392D423046342D3442323738423632373039372F617474726962757465732E62696E504B010214001400060808006B6B7042D5987DFC8F000000410100003600000000000000000000000000141100006662782F33384537303946362D343437422D343330392D423046342D3442323738423632
310
373039372F6469726563746F72792E786D6C504B010214001400060808006B6B70422D70DEC1FC000000A00100003B00000000000000000000000000F71100006662782F33384537303946362D343437422D343330392D423046342D3442323738423632373039372F7265736F75726365732F636F72652E786D6C504B0506
310
000000000E000E00800400004C1300000000
  0
XRECORD
  5
3B
102
{ACAD_REACTORS
330
37
102
}
330
37
100
AcDbXrecord
280
     1
270
     1
271
     1
  0
XRECORD
  5
3C
102
{ACAD_REACTORS
330
37
102
}
330
37
100
AcDbXrecord
280
     1
270
     1
271
     1
  0
XRECORD
  5
3D
102
{ACAD_REACTORS
330
37
102
}
330
37
100
AcDbXrecord
280
     1
270
     1
271
     1
  0
XRECORD
  5
3E
102
{ACAD_REACTORS
330
37
102
}
330
37
100
AcDbXrecord
280
     1
270
     1
271
     1
  0
XRECORD
  5
1F3
102
{ACAD_REACTORS
330
C
102
}
330
C
100
AcDbXrecord
280
     1
102
MATERIAL
148
0.0
149
0.0
149
0.0
 93
        0
 94
      127
282
     0
 72
     0
 77
     0
171
     0
175
     0
179
     0
273
     0
  0
XRECORD
  5
D
102
{ACAD_REACTORS
330
C
102
}
330
C
100
AcDbXrecord
280
     1
270
     1
271
     1
  0
XRECORD
  5
E
102
{ACAD_REACTORS
330
C
102
}
330
C
100
AcDbXrecord
280
     1
270
     1
271
     1
  0
XRECORD
  5
F
102
{ACAD_REACTORS
330
C
102
}
330
C
100
AcDbXrecord
280
     1
 70
     1
 90
1959938040
 71
     1
  1
F9A48CE1-83F5-423E-B97D-213A9DF0B9BA
311
504B03040A0000080000696B70423DEE336E79000000790000001B0000006175746F6465736B2D64657369676E2D7061636B6167652E786D6C3C3F786D6C2076657273696F6E3D22312E302220656E636F64696E673D227574662D3822203F3E3C666F726D6174733E3C666F726D61743E687474703A2F2F736368656D612E
311
6175746F6465736B2E636F6D2F64657369676E2D7061636B6167652F323030393C2F666F726D61743E3C2F666F726D6174733E504B0304140006080800696B7042D486FD9CA0000000F4000000130000005B436F6E74656E745F54797065735D2E786D6C7D8EC10E82300C865F65E91D8A1E8C310C0EEA1BF002731658846E
311
D98AC1B77784ABF1D8FE5FBFBF75BBCE937A534CCEB38643598122B6FEE978D0B0485F9C41B54DDD7D022595594E1A469170414C76A4D9A4D207E29CF43ECE46F218070CC6BECC4078ACAA135ACF422C856C0E68EA1BF5669944DDD7BCDE7B1F8E415D77AECB980613C2E4AC91FC167A2B244592486606FC29C8FD7F045B9A
311
EF7053A7E60B504B0304140006080800696B704281EED823EC0000007C01000008000000636F72652E786D6C8D904D6EC3201085AF82665BE180717F626122C7B14FD00B20200E4A0C9681AAC72F4E1CA9DD7535A337EF9B193D7EF89E6EE8CB2CC17AD7002D0820E394D7D68D0DA478C61F800E822FDEC75F36404E4EA681
311
5506C1C7C5A779939477D1B89855E7B5D94419828980D42D370D047531932C648AD911AEC52CD5558EA6A0CF2EC329598D1E47ACCEFBECD99A05C471E8F6E56B4571DB9E7A5C3156E196551526FDD097A7AE3B0EA4E7BB15163CDAE9795F2D4646A3419484324C18A66F9F94D5E57B4DF72F84D684F0DD6AFF03A559FF134A
311
D645566EEF3EB00082E647EE03C1776B16B9DC83CA75CD4DFC00504B0304140006080800696B704255019EA25F0000007C00000007000000636E782E786D6C4DCB3B0E80201045D1AD90E915ED2CF8AC45050C11660C8261F98AB1B07AC9C97D42D718D865D3E909258CFD00CCE24AC6E326A164D74DC0B4128928FF326038
311
472BA13128B1252AC747C6BAB984FC68F0B87FE8960A5C09FE86CFB69FBA01504B0304140006080800696B7042568F7B8168010000020300000C0000006662782F636F72652E786D6C8D52ED8E8320107C15C2DF8B02EA7DB4419A7ED827B817A04A3D53058360FAF8B77E345E2F4DD3982099D9D99D1DE59B6B53A35ED9AE
311
323AC52CA418299D9BA2D2658ABD3B075F186D04B7C6B83F651869D9A8140F3016BCB4C6B733941BED9476806A53A819945DA71C46790D971477F98F6A6428BD838AEE12B632BFC852852C041AEA04EF9C0503681A329C589C4F574E265C70EFAB6266AB02A655E74A592C76C7FD2A7A4F58B0DD1EB22089E324D8C64912D0
311
EC984587FD7E77A4192783587057353777B955D2A9028B88B238A071C03EBE59BC8E3ED76CF546D99A524E86F23B916F8B1745BED22E8E66BB93ACC382819191F8B72D44E450277BF04304274388F01A13BE0F1A0281909D3CD5B73D2E00F52A77C626C014C62F542F6BAF602A45E3C3C9C442E7B1016CF6B04FF4A4CFF31E
311
F001A52EC19A74703D79374CE7D3D4398A56D9A07757A48D6D64BD989B2C2EE732E8A13C37B5B1AFA8C9BC2A99C324C3DF2B7E01504B0304140006080800696B70422C6AC4A37D0000009D0000000B0000006662782F636E782E786D6C4DCCD10A83201886E15B91FFDCA5D4A8408D98BFF711CB42663A9C8E5DFE6A74B0A3
311
0F1E3E5E317C364FDE36BD5C0C12F88501B1E11E67175609252FB40332289162CC7F372061DAAC8483418935C5F23C69B6CB547CDED5BBF03811AF1A6B36B654379CD386F5483B6D467AAB5BD31AEC0D32844A89EA57DAF708AB2F504B0304140006080800696B704227A24D012C01000014020000310000006662782F4535
311
4445333041372D443431312D343039452D384446412D4333374637464539464530452F636F72652E786D6C8D515B6EC32010BC8AC557AA0A1B82132711268A1AFB04BD0001E2A2C460F1A872FC42ED48ED5F7E58343B333BDAA5C7C7782FBE95F3DA9A16E01281421961A536430B62B8C21D288E8C3A6BC31F1A280C1F550B
311
320C181D9C8DD302096B823221A1C64AB580DC7B154021EEE9D3022FBED4C84B1E4362F85B397171E3832A7199DA89C7A80F2E0528E621F905ACDB9C3B824E0D3CD718C31AED3BB83BF727F8419ABEE9BB7DDFA18E56B390D118B55CE45AA638FAAA957BD5248B190D7A7CC6174EF1A024606B84094404E2ED2726877573C0
311
FB77840F08D12AD3FF89E2245F14456D02592F716799070CD36A6E302A6DBCDC9F61D463B22E1479DECA2BF106182A11AE116A4843AB999A16903CB7F5E2E9837569C1ABDB25B1F16636DED68C56F946A9FC1E30D57C4FF603504B0304140006080800696B70424643E5654E01000033030000300000006662782F45354445
311
333041372D443431312D343039452D384446412D4333374637464539464530452F636E782E786D6CD593BD6E032110845F05D146F783CF72128BC3528A3C418AB418D6313107277EA2F8EDB3D8D871E322651A749A1D66569F38BEF99E2CF982108D7723656D4F0938E5B5711F23CD69D73C51B2113C789F6E6C943839C148
311
8B4C05FF083ECF55D2B093D92654AD71872A06883E070511E5729358AFA4C500704D4611A62D680D9A5C8DF8B58380ABA0B83D92B407F2FAF24EFCF613548ABC2B298277A543F072D6A61B1325CACA18471AD51E26D9CA9CBC867868B54CB265EDA5EBCE4EBF49A45CB854E66048291F6939A9A81BB5C8917738143CA680F4
311
AA291D67A042CEB3354A2684DC9D8C678FE0D9B8B45A56AF41F001DD6C352C9718769A099ECC04D5A102C8049A8A45CF86A61F1AB67A63C37AF1B866CF0F3D5BF73DEF8A5DF0ADF7B65EC218087E26CABB042E51C17857C6F7F0551FD126206B1F8E7F0089006AEB99CE35E33FF3E94EEF1B7105FC0BC40F504B0304140006
311
080800696B704299ECA25C9A0500007A100000340000006662782F45354445333041372D443431312D343039452D384446412D4333374637464539464530452F6F626A656374732E786D6CAD57DB6EDB3810FD1541FBEC8B6CA78D178A0A5F92C228D206355AEC4300839228851B4A14482A75F6EBF750A22CC9B553EFA22F
311
96450D873367CE5CE87FD867DC79A1523191DFB8DE70EC3A348F44CCF2F4C62D7532B8769D0F812F85D01D31D7C949466F5CB3EC067E2A4559D8A59826A4E4FA68F56EF997A3229A53D7893851EAC655D113CDC890945AC4543D0F63A2C9304DF6436F580BF6D5A692144F474A0B2269AE6129D67368716AA3BCFEEBD81D05
311
FEC87C0F7CF36BA5A6E7A546953FFDF359AE34C9A39F0E3B5233F566EBDBC9D57C70359B4D07B377136FB0BC5BAE07DEFBE978F56EB59A2F6EE7385869094DD612491337F8086C248BFC51FD29F04B96EBE9C48AD8008D247D6126526E30713C7F54CB1CBCB34E9E323F12794EA30A2BA051F96755C7B4A0798C9833AA6059
311
07A171FFD53338763E4FCDBB3DB2BB7C1902DD1D1D458DEDCDB36BA908FF860BEA120649450D036B2CADA33557C72DC2A110DC7E63CAC988A69211EE70164A225FDD00A24624F07B6A0C93A5C906E3811B200AF5E73E5D9046BFE6F9292B939273436337A8B260875CA15A5596B17FA86CADEF22039B102BC3866BEB907E2D
311
A81BCC6B8A5C1FB1A906D24938491172B869764E27478EAE4C9E6ED66EF0E92EDC6F4DEE9E3EBC90A2A0521BFA805A4DE09AA741C9DAE45D1439B3C13D32A505E52B90FF8C546F4D41DC24DBCFF6337B8A96245789901962E38C9DC1183F63C7AB7ECDFFCE3F7F74D8DC8FDE393C116C03D56FC0B3EF4337961D3803FF0584
311
17726A5DDB4684A36CDCB31C001992385C6009753809F76EB041954355C62EC2030F2EC3DC17FCF547560D0A457552E79903CBA3B2784181066C152361464D7E6B601BA79FCA5975B0153B07EFD56FA1EB62BDFDB42D6542227A6F737A4D1396338D16D7F2A66B500FF39E47CFF4F58790311CFD19EF6D17EFCC1EA580B6C1
311
DC009F3635DDBCB427F70E88B02F15A6DCF8BF38014E98C6DAD17FCF5444392739156573EE9BFD036DA386D824BB61F2A1C1B48D05A4A9BF1CE5209A74245961403C74AB43D11C9EF1EEDBE6331809792E42C25BA1B02DBD91E042EEC2D75D5D954E22FDBD4F6D0BC1C86801DBAB1C69D2DF62BE8B5992940A35F004ACDF37
311
AB6EE84C55408568B4D6C93283FBC82D222D671BBD68D692A0918A7CC7D0369176270FE8EA07A2960095C273162BCA931DE3BCCC7609E36846BB8C1467E0F8FFF6876556EC4826CA5C9FD1DD331DCDA16F7B8FBCEA07D1D1931B6CABE76089D21BD3B80D734FD8B4921358F5427B375FCCAE57B7DEE07A7A7735984DA6B783
311
E5FCFD7A30F1A68BF9FA6EBC9C2F174D9C6AE581DF749A6E42234AE86C7E29990DDFB70DD2C7D60037B8275A3D7EACB3B3797EDB0C310AFB23EC41BB3C6C5CC42F18FB68FC6B05ADE449459BACE034A3B9262685EECD1FFE9560CCE81953AF6F3292D20BB47CF9B83D72062B17EC7B30E94E7F1CEDB5AB2B93902795E8A732
311
0B73C2F8D1C6B4467258E4A9C5AF89C9E159F799E6D5BCD9C060305582B318653076522A32AA510C2FE84132A30AD4EB8EF4B1BD7A5CB0FBA51E103509396D2C79229891B9425A805A65A4FBEBCE1F98E9CC5875E3A2DB0E9FF1632B85EB8033372E6674CD22AA8621FAB399842AE5E0527790C7DC4FF29463D4AE371DDE0F
311
BB0C36BD8E7C10B9647CB27ED515DC3A803252606CC03C84E854C6047E659BFD1EFD27C71B731CA2F1372CF5C19776E1E04C750C52B476CA5E1630C33CDBA3F748D4B7DDF286954C0F918B2E596F92A0D63AD044A6D545C1D8674D5AAC1F4618509CCD17A7E0658A585EAE692029C85C9A04078BC00AABB3201A545DFDF9F8
311
20052EB29973C74081C795C83291DB9785BD083BDB275C6BE34794056AEE23EA7132F6268FD53DC05E4D762151744862F58C05C454B203C4BDC08391F565D183900DBC8DC1C804E1889B9BB5635BDAAC95EF5655030B268E9C3AC81E739734B9D21528DEBC0A8C2A51982A31C407FF02504B0304140006080000696B704200
311
0000000000000000000000350000006662782F45354445333041372D443431312D343039452D384446412D4333374637464539464530452F76657274696365732E62696E504B0304140006080800696B7042F270F1330600000004000000360000006662782F45354445333041372D443431312D343039452D384446412D43
311
33374637464539464530452F747269616E676C65732E62696E636660600000504B0304140006080000696B7042000000000000000000000000370000006662782F45354445333041372D443431312D343039452D384446412D4333374637464539464530452F617474726962757465732E62696E504B030414000608080069
311
6B7042D5987DFC8F00000041010000360000006662782F45354445333041372D443431312D343039452D384446412D4333374637464539464530452F6469726563746F72792E786D6C858F410EC2201045AF4266AF15DDB800BA74E7C21B903225242D6328188F2FA5C4183471359997F9FF81E89FF3C41E1816475E02DF1F
311
80A11FC8386F25A438EECEC07A250251FC3803E6F58C12560C4AD840E95E91C151A72936F496F35732D860FE635F62C8F2DA16B505C545B74125BAA2FA9E05D7CC053D063734D5C7665FD55B6B8D15D5E9BFEAFD8490FFA45E504B0304140006080800696B70429245F6BBFE000000A00100003B0000006662782F45354445
311
333041372D443431312D343039452D384446412D4333374637464539464530452F7265736F75726365732F636F72652E786D6C8D50596EC32010BD0A9ADF0A1B8CBBC4C244599C13F402084F5C94182296AAC72F4E5CA9FDEBCFCCE82D9AA727B75FF3957C6288D6BB1E78C580A0337EB46EEA21A7337D03B25532789F7EC9
311
80383D630F0B0C4A4EC1E7DB0A19EF12BA5450E7475C411D232620E65A8E1EA2F9C059573AA7A28897EAA6CD454F58F1AAD045A7644CA104208F27CB041530FA1C0C46593F582573B6E3AAB163F969CF1603A8FDE9B0699E5B4677BBE3405B215ABA136D4BD9701A9AE3E1B03FB141D68B59C964E79F8C26A04E38826A1817
311
9409CA5FDEB9E89AD78E6F9E18EF1893F522FF63CAB7F19FA66C5D12CD1AF7618BA07809722794AC97BECABA9759F6D2ADFA06504B010214000A0000080000696B70423DEE336E79000000790000001B00000000000000000000000000000000006175746F6465736B2D64657369676E2D7061636B6167652E786D6C504B01
311
021400140006080800696B7042D486FD9CA0000000F40000001300000000000000000000000000B20000005B436F6E74656E745F54797065735D2E786D6C504B01021400140006080800696B704281EED823EC0000007C010000080000000000000000000000000083010000636F72652E786D6C504B010214001400060808
311
00696B704255019EA25F0000007C000000070000000000000000000000000095020000636E782E786D6C504B01021400140006080800696B7042568F7B8168010000020300000C00000000000000000000000000190300006662782F636F72652E786D6C504B01021400140006080800696B70422C6AC4A37D0000009D0000
311
000B00000000000000000000000000AB0400006662782F636E782E786D6C504B01021400140006080800696B704227A24D012C010000140200003100000000000000000000000000510500006662782F45354445333041372D443431312D343039452D384446412D4333374637464539464530452F636F72652E786D6C504B
311
01021400140006080800696B70424643E5654E010000330300003000000000000000000000000000CC0600006662782F45354445333041372D443431312D343039452D384446412D4333374637464539464530452F636E782E786D6C504B01021400140006080800696B704299ECA25C9A0500007A10000034000000000000
311
00000000000000680800006662782F45354445333041372D443431312D343039452D384446412D4333374637464539464530452F6F626A656374732E786D6C504B01021400140006080000696B70420000000000000000000000003500000000000000000000000000540E00006662782F45354445333041372D443431312D
311
343039452D384446412D4333374637464539464530452F76657274696365732E62696E504B01021400140006080800696B7042F270F13306000000040000003600000000000000000000000000A70E00006662782F45354445333041372D443431312D343039452D384446412D4333374637464539464530452F747269616E
311
676C65732E62696E504B01021400140006080000696B70420000000000000000000000003700000000000000000000000000010F00006662782F45354445333041372D443431312D343039452D384446412D4333374637464539464530452F617474726962757465732E62696E504B01021400140006080800696B7042D598
311
7DFC8F000000410100003600000000000000000000000000560F00006662782F45354445333041372D443431312D343039452D384446412D4333374637464539464530452F6469726563746F72792E786D6C504B01021400140006080800696B70429245F6BBFE000000A00100003B00000000000000000000000000391000
311
006662782F45354445333041372D443431312D343039452D384446412D4333374637464539464530452F7265736F75726365732F636F72652E786D6C504B0506000000000E000E0080040000901100000000
310
504B03040A0000080000696B70423DEE336E79000000790000001B0000006175746F6465736B2D64657369676E2D7061636B6167652E786D6C3C3F786D6C2076657273696F6E3D22312E302220656E636F64696E673D227574662D3822203F3E3C666F726D6174733E3C666F726D61743E687474703A2F2F736368656D612E
310
6175746F6465736B2E636F6D2F64657369676E2D7061636B6167652F323030393C2F666F726D61743E3C2F666F726D6174733E504B0304140006080800696B7042D486FD9CA0000000F4000000130000005B436F6E74656E745F54797065735D2E786D6C7D8EC10E82300C865F65E91D8A1E8C310C0EEA1BF002731658846E
310
D98AC1B77784ABF1D8FE5FBFBF75BBCE937A534CCEB38643598122B6FEE978D0B0485F9C41B54DDD7D022595594E1A469170414C76A4D9A4D207E29CF43ECE46F218070CC6BECC4078ACAA135ACF422C856C0E68EA1BF5669944DDD7BCDE7B1F8E415D77AECB980613C2E4AC91FC167A2B244592486606FC29C8FD7F045B9A
310
EF7053A7E60B504B0304140006080800696B70420653E1AEEB0000007C01000008000000636F72652E786D6C8D90D16EC3200C457F25F2EB44824394B411A15AD5F60BF603086886DA401460DAE78FB4A9B4BDEDC9D6F53DB675F9E17BBA175F6609D6BB01B0A45018A7BCB66E1C20C52BD94171107CF13EFEB241E1E46406
310
5865107C5C7C9A374979178D8B59755E9B4D9421980885BAE76680A03ECD244B996276845B394B7593A329F1D5653825AB8BE711ABF33E7BB56601D13517DCB1634B4EE73D25CDA563E4BD692EA4C5239EDBB63921ED78B5C282473BBDEEABC5C86834889A222394116C3F90F575D7E3FE8D624F29AF56FB1F28CDFA9F50B2
310
2EB27A7BF7890510981F790C04AFD62C72790495EB9A9BF801504B0304140006080800696B704255019EA25F0000007C00000007000000636E782E786D6C4DCB3B0E80201045D1AD90E915ED2CF8AC45050C11660C8261F98AB1B07AC9C97D42D718D865D3E909258CFD00CCE24AC6E326A164D74DC0B4128928FF32603847
310
2BA13128B1252AC747C6BAB984FC68F0B87FE8960A5C09FE86CFB69FBA01504B0304140006080800696B704242F047A867010000020300000C0000006662782F636F72652E786D6C8D52ED8A8330107C9590BF872651D15E892957DA3EC1BD40AAA927D54462227DFC5B3F8AD7A39422C430B3B33B3BCA77B7B64183B27D6D
310
748E59483152BA3065ADAB1C7B77093618ED04B7C6B83F651869D9AA1C8F3016BCB2C6770B5418ED9476806A53AA05947DAF1C464503971CF7C58F6A6528BD838AFE1A76B2B8CA4A852C041AEA04EF9D0503681E329E585CCE374E665C70EFEB7261EB12A6D5975A592CB2E4C436F13E0D0EC74F1A24A72C0EBE92E414A46C
310
CF8E699A1C18CD3819C582BBBABDBB2BAC924E95584494C5018D03967EB3781B655BF6F941D996524EC6F20791EFCA3745BED62E8E16BBB3ACC782819189F8B72D44E4502F07F04304276388F09A127E0C1A0281909D3C37F73DAE000DAA70C626C094C6AFD4201BAF602A45D3C3C9CC42E7A9016CF6B44FF4A2CFEB1EF001
310
A5AEC09A74703D7B374EE7F3D4258A4ED9607037A48D6D65B39A9B2DAEE73AE8A9BC308DB1EFA8C9B22A59C224E3DF2B7E01504B0304140006080800696B7042FF9498A27D0000009D0000000B0000006662782F636E782E786D6C4DCCD10A83201886E15B91FFDCD26566A0C6AA1B896521331DA66397BF1A1DECE883878F
310
57769FCDA1B789BB0D5E012D0820E31F61B67E5590D38205A04ECB1842FABB01F2D366149C0C5AAE31E4D745B359A6ECD2A1CEFAE785A2BAB7BC1115A663CF301364C03D1F6A7CE363CB05250D2335945A96BFD2B167587F01504B0304140006080800696B7042F1FA94252A01000014020000310000006662782F38334139
310
363738332D314442342D343830432D423643352D3236443936383130373430352F636F72652E786D6C8D515B6EC32010BC8AC557AACA36D80EB6234CD42447E8051C20294A0C168F2AC7EF523B52FB971F16CDCECC8E76D9FE31DDB36FE5BCB66640A4C028534658A9CD7540315CF20E657BCE9CB5E10F0D65669CD480128C
310
38BB3A1BE71512D6046502A0C64AB582A3F72AA04CDCE133202FBED43416630CC0F0B7621EC56DBCAA8214D0061E673E3808902D43D28B78577FF4B4EDEA9C9C0E4DDE74F8981FE8719B57F4D4D38EE0B6C15B562E42CE62D472956B0971F4452BF7AA49127316F4F48C2F9C1A8392885798D439860CF493D4BBAADD91FE1D
310
931DC6AC4CF47FA238CB1745519B50576BDC45E61127AC5C1A9C491BCFF76718F598AD0B599AB7F14ABC218E0B4C9A665BF5B080850A0B004FDAAC9E3E58070BDEDCCEC0AE5763DA7056A61B41F93D20D4744FFE03504B0304140006080800696B704220E42A725601000033030000300000006662782F3833413936373833
310
2D314442342D343830432D423643352D3236443936383130373430352F636E782E786D6CBD93CD6EC32010845F0571ADFC431CB9698489D4439FA0875E096C1A1A0C16E0AA79FB2E094973C9A152D50BB2668799D527CC375FA3259F10A2F16EA0AC6E2901A7BC36EE7DA073DA552B4A368207EFD38D8D122747186896A9E0
310
EFC1CF539134ECE46C13AAD6B8431103443F070511E57C9358AFA4C50070D58C228C5BD01A34B91AF16B07015741717B24690FE4E5F98DF8ED07A814799353046F7287E0F92C4D37264A9495310E34AA3D8CB29673F21AE2A1D632C99AD597AE3B3BFD24917CE15239074372F940F34945D9A8468EBCC1A1E03105A4574CE9
310
380115729AAC513221E4E6643C7B049F8D4BFDB2780D820FE8EE16FD6A8561A799E0C98C501C2A804CA0A958B4ACABDAAE62FD2BEBD68BC7357B7A68D9BA6D7993ED826FBDB7E512C640F01351DE2570890AC69B3CBE87AFF888360159FB70FC054804505ACF74AE197FC987F5DD72F98F7C9AD3FB465C01FF02F10D504B03
310
04140006080800696B70425EED11A759070000931B0000340000006662782F38334139363738332D314442342D343830432D423643352D3236443936383130373430352F6F626A656374732E786D6CED595B6FA33814FE2B887D0E09493AD3AC28A33669AB68D599D16467B40F9590030EF5D618649B5EF6D7EFF1050234B4
310
64A7FB360F0960ECE373BE73F521F8F49451E70173417276E6FADEC475308BF384B0F4CC2DE56E74EA3A9FC280E7B96C4C731D86327CE6AA61370C529E97851D4AF00E95547646AF2EFE72448C19769D982221CE5C11DFE10C79A8947982C5BD972089BC74F7E4F99E99D8269B7254DC7588168863268153186740C5314CF9
310
EDC7893B0E83B17A1F06EADFCE9A0D9A35EF9F35D652B7B9244C48C4E2172C75C8CC06B134F3E7ABCBE9C96274329FCF46F30F537F747175B11AF91F6793E587E572717EB900F6B6794EAD4C092E304B407FCF6EE80763F5A616DD227088EB38670CC71A48804A8BD52548B080AD1AF04DDA8FBE92A8F15A4BD8789EABF796
310
85C6F0AC4DA56FD630205A744110BB5D2571756DCA976FFF06C1C510A3E4024BE056480EDAB5F070F00A379C0463331A06DBBD2E887032243127883A946C39E2A01498AAA684815960C928E7E040CA511268CD99D76DDB02CF7CDB750E71B92B29559EE186DAB122703F2C85E68CFC83F99EFB2632C013485B12264F2D97F2
310
B9C06EB808C67A300CD46536B52F0D90CE8EA2546844CCDB8EA04BE5FAEB951BFE71B57DDAA8707078F382E705E652199DD2A3E60B0CD95E154A765B7F90E6D40210C6806A57EE41F906C87F86E8B16705F4C6C9D3FC696EE74A8E98D8E53C03DD3813673481BF89E3EB7F75DFB80BC6F5E2B6F6FAF0043755509DFE3C9E6D
310
19345696FF069C61F000069FF3997DB58911057BBE210C005246E2D01C8620B4EFB64F6EB886C009811E56211AFA2032B0FB00B7C1D892D96BA5722FEB750C10B57BCC86280960D316096CF4E8E91AB20727F15E4D4D11FBE03D7917733D5F6DFED8947C87627C637D7A857784110959F330432DCC5B12DDE3E7C79C2720E8
310
4BBC374DBC33BB9500B415E60AF8B402413DEC776E6D10C3BA3457E1267863071042E5EA06FD1B22624C2962382FAB7DEBE8A60CB5F6785B33B8E1D4403C9B764C98E307A2AA0A709AFD8C16A390F7634E0A05A21B5E1BC9EAA0E9F548F77DFD192CB29EDF336BCD20F43244FFD441EB000E2DCBAE90B640D4026FF7E13CCE
310
69CEA3ED7364229D0BB504B0D1F6961F2DA210EB8D921415F020ED775548498DB4514276BB52405C3DC0E28FF5B2690E136FE69F38CDFF8E33CE21DA82EF226EFDAEB347443294E2688792BEED9ABBD5B48526D9439AE31D05B9C80391CF1192D124C1E931D01C457CF1AED4539A0B41181690AF0E82DF4463E2412031DAAC
310
58565AED004D44946189E8310828323DE0EAB4A36BDC184A87B779ACADF7358D3589FE4F16C111D492398B0894A29043DE64DCF74E2086B4D1352877F0056BAB686B3168092544FC1C3D6292DEC9635037E47B708FE14852CA282F500C663D80EC0B5F514AEDF0BE45F1BDCA1F515CD2F7321081E92E22949659043FC2E0E4
310
31C4B5EBC0F42A0A0DE226F6499C41518664C9876CF2E164F2621F533374436063A31DA110B6A30C153DA8B702A2AE479C1A7C4BBD47A9DB322B2294E5251B6428DEACEB4D967C57AD8AEC407E55A908656345D8120C03C2649D55AB980DA6AE032BB8910E54CF91405941CD29EC8DC4E3D7DEA429F76EC0AD9FBEEF061914
310
7E3DDA6B46D4790583E5B15518884724E33B37DCE8EBE802EAEF0427FB545FD59ACD0A10105391BCE4C4AAE8FB1ACA1B5BA3B9E10D92E2F6DA64DDEAFA7DED41F72318C31AA85DEA856B0574869944AA32B95137F41B8210DCA261C6D72AA71E43E53C4974D588E815E95367AB8C686D9A11AFB8C32CCFE0C76E098B6999E0
310
5B9488FBE846D2684314EB564A2F2315C6AF0AF8E57AD38107460688F4551578F8B1B3D68E2E55B9749088BC2BB32D430482604BB4D4E8C62B586A355269B9BEAA3305D45D606056C5F35F278B663BE2D7C922B586F173270B9A6F11DD479B46368F95591F750AA8D393A2F21EA700DD75A8A9D649C4E4722BBEF5A5086262
310
15E407176355CC3004FB38FECF49BB2F099AED3AFC1F97B4FD1705C75149A5355935A90E14AEEB660ABB5A9CCF4F9797FEE8747675329A4F6797A38BC5C7D568EACFCE17ABABC9C5E2E2BC4653FB6918D4B14CA72E783631AD1A564F160368CA8A9C92040EF389936208F9128EF403BAE73CC3027267B3D79DD89EFC80D50F
310
A6CD29D196E28A933B04FD612A20AB0346652CDBE3CE6FD0999470CE3E73A167E4DDC39FB54AD781C473E642A74092180B6F0B5D26D5CFD3C421E3EAD46F89013E88A52A239A45F573BD4A61D38AFEF5942159C0CAD56A6140DD5640F3ABD5A0D0BC599EE2A304AFD8719084DB6D29A15833B2EC076A61F4367BF51BD92861
310
F776EB2770DDD7C5F23D3DA785C8A02F06AF1A81A13A9288A7BADDAD18B32C9DAFBE8EA1CDE6ACBF38052D53D0E5704A238EC1984B554F81158155589A059260AACBDF6FBFF21CBEF0648E2E8A6E977996E5CC3E9CC3712C812F44CEE60EBEF724B7503560D55517B7D3893FBDD5DD6CDB608FB648604F9543305055114A84
310
8EB18145BEE84CD9BEE55829A1337DBD726CF8842E80B1A017CD5DF375CB01EF51DF5194AF680FAFE47CB5A13DD653C11A38B4A2C37F01504B0304140006080000696B7042000000000000000000000000350000006662782F38334139363738332D314442342D343830432D423643352D3236443936383130373430352F76
310
657274696365732E62696E504B0304140006080800696B7042F270F1330600000004000000360000006662782F38334139363738332D314442342D343830432D423643352D3236443936383130373430352F747269616E676C65732E62696E636660600000504B0304140006080000696B7042000000000000000000000000
310
370000006662782F38334139363738332D314442342D343830432D423643352D3236443936383130373430352F617474726962757465732E62696E504B0304140006080800696B7042D5987DFC8F00000041010000360000006662782F38334139363738332D314442342D343830432D423643352D32364439363831303734
310
30352F6469726563746F72792E786D6C858F410EC2201045AF4266AF15DDB800BA74E7C21B903225242D6328188F2FA5C4183471359997F9FF81E89FF3C41E1816475E02DF1F80A11FC8386F25A438EECEC07A250251FC3803E6F58C12560C4AD840E95E91C151A72936F496F35732D860FE635F62C8F2DA16B505C545B741
310
25BAA2FA9E05D7CC053D063734D5C7665FD55B6B8D15D5E9BFEAFD8490FFA45E504B0304140006080800696B70426EB9BC9FFD000000A00100003B0000006662782F38334139363738332D314442342D343830432D423643352D3236443936383130373430352F7265736F75726365732F636F72652E786D6C8D504B6E8330
310
10BD0A9A6D65B08142828CA3460927E8052C33A156828DFCA97AFC9A40A576D7CDCCE87D344F8F9FBEE647F689CE6B6B7A6039850C8DB2A336530F31DCC801B293E0CEDAF04B06999133F6B0C220F8E46C5C76485913D084841A3BE20E4AEF3140A61EE9E8C1AB0F9C652E63480A7FCF17A9EE72C29CE5894E3AC17D702940
310
B63D59270887DE46A7D0F36263058F518FBB468FE9A7BE697420DA7A6087EAFC4A2ED72325F5D056E4ADAE07D2B033BB364D7D61B4E5C56A163CE8F927A37228038E204ACA2A422BC29A77567565DBB1E30B651DA5BC58E57F4C7119FF698ADA84AADCE36E360F82A5204F42F062ED2BAD679969AFDD8A6F504B010214000A
310
0000080000696B70423DEE336E79000000790000001B00000000000000000000000000000000006175746F6465736B2D64657369676E2D7061636B6167652E786D6C504B01021400140006080800696B7042D486FD9CA0000000F40000001300000000000000000000000000B20000005B436F6E74656E745F54797065735D
310
2E786D6C504B01021400140006080800696B70420653E1AEEB0000007C010000080000000000000000000000000083010000636F72652E786D6C504B01021400140006080800696B704255019EA25F0000007C000000070000000000000000000000000094020000636E782E786D6C504B01021400140006080800696B7042
310
42F047A867010000020300000C00000000000000000000000000180300006662782F636F72652E786D6C504B01021400140006080800696B7042FF9498A27D0000009D0000000B00000000000000000000000000A90400006662782F636E782E786D6C504B01021400140006080800696B7042F1FA94252A01000014020000
310
31000000000000000000000000004F0500006662782F38334139363738332D314442342D343830432D423643352D3236443936383130373430352F636F72652E786D6C504B01021400140006080800696B704220E42A7256010000330300003000000000000000000000000000C80600006662782F38334139363738332D31
310
4442342D343830432D423643352D3236443936383130373430352F636E782E786D6C504B01021400140006080800696B70425EED11A759070000931B000034000000000000000000000000006C0800006662782F38334139363738332D314442342D343830432D423643352D3236443936383130373430352F6F626A656374
310
732E786D6C504B01021400140006080000696B70420000000000000000000000003500000000000000000000000000171000006662782F38334139363738332D314442342D343830432D423643352D3236443936383130373430352F76657274696365732E62696E504B01021400140006080800696B7042F270F133060000
310
000400000036000000000000000000000000006A1000006662782F38334139363738332D314442342D343830432D423643352D3236443936383130373430352F747269616E676C65732E62696E504B01021400140006080000696B70420000000000000000000000003700000000000000000000000000C41000006662782F
310
38334139363738332D314442342D343830432D423643352D3236443936383130373430352F617474726962757465732E62696E504B01021400140006080800696B7042D5987DFC8F000000410100003600000000000000000000000000191100006662782F38334139363738332D314442342D343830432D423643352D3236
310
443936383130373430352F6469726563746F72792E786D6C504B01021400140006080800696B70426EB9BC9FFD000000A00100003B00000000000000000000000000FC1100006662782F38334139363738332D314442342D343830432D423643352D3236443936383130373430352F7265736F75726365732F636F72652E78
310
6D6C504B0506000000000E000E0080040000521300000000
  0
XRECORD
  5
10
102
{ACAD_REACTORS
330
C
102
}
330
C
100
AcDbXrecord
280
     1
270
     1
271
     1
  0
XRECORD
  5
11
102
{ACAD_REACTORS
330
C
102
}
330
C
100
AcDbXrecord
280
     1
270
     1
271
     1
  0
XRECORD
  5
12
102
{ACAD_REACTORS
330
C
102
}
330
C
100
AcDbXrecord
280
     1
270
     1
271
     1
  0
XRECORD
  5
13
102
{ACAD_REACTORS
330
C
102
}
330
C
100
AcDbXrecord
280
     1
270
     1
271
     1
  0
CELLSTYLEMAP
  5
1EC
102
{ACAD_REACTORS
330
4D
102
}
330
4D
100
AcDbCellStyleMap
 90
        3
300
CELLSTYLE
  1
TABLEFORMAT_BEGIN
 90
        5
170
     1
 91
        0
 92
    32768
 62
   257
 93
        1
300
CONTENTFORMAT
  1
CONTENTFORMAT_BEGIN
 90
        0
 91
        0
 92
      512
 93
        0
300

 40
0.0
140
1.0
 94
        5
 62
     0
340
22
144
0.25
309
CONTENTFORMAT_END
171
     0
 94
        0
309
TABLEFORMAT_END
  1
CELLSTYLE_BEGIN
 90
        1
 91
        1
300
_TITLE
309
CELLSTYLE_END
300
CELLSTYLE
  1
TABLEFORMAT_BEGIN
 90
        5
170
     1
 91
        0
 92
        0
 62
   257
 93
        1
300
CONTENTFORMAT
  1
CONTENTFORMAT_BEGIN
 90
        0
 91
        0
 92
      512
 93
        0
300

 40
0.0
140
1.0
 94
        5
 62
     0
340
22
144
0.18
309
CONTENTFORMAT_END
171
     0
 94
        0
309
TABLEFORMAT_END
  1
CELLSTYLE_BEGIN
 90
        2
 91
        1
300
_HEADER
309
CELLSTYLE_END
300
CELLSTYLE
  1
TABLEFORMAT_BEGIN
 90
        5
170
     1
 91
        0
 92
        0
 62
   257
 93
        1
300
CONTENTFORMAT
  1
CONTENTFORMAT_BEGIN
 90
        0
 91
        0
 92
      512
 93
        0
300

 40
0.0
140
1.0
 94
        2
 62
     0
340
22
144
0.18
309
CONTENTFORMAT_END
171
     0
 94
        0
309
TABLEFORMAT_END
  1
CELLSTYLE_BEGIN
 90
        3
 91
        2
300
_DATA
309
CELLSTYLE_END
  0
XRECORD
  5
1FC
102
{ACAD_REACTORS
330
4D
102
}
330
4D
100
AcDbXrecord
280
     1
102
ACAD_ROUNDTRIP_PRE2007_TABLESTYLE
 90
      512
 91
        0
  1

 92
      512
 93
        0
  2

 94
      512
 95
        0
  3

  0
XRECORD
  5
1F9
102
{ACAD_REACTORS
330
1F8
102
}
330
1F8
100
AcDbXrecord
280
     1
102
RTVSPropertyOp0
 70
     1
102
RTVSPropertyOp1
 70
     1
102
RTVSPropertyOp2
 70
     1
102
RTVSPropertyOp3
 70
     1
102
RTVSPropertyOp4
 70
     1
102
RTVSPropertyOp5
 70
     1
102
RTVSPropertyOp6
 70
     1
102
RTVSPropertyOp7
 70
     1
102
RTVSPropertyOp8
 70
     1
102
RTVSPropertyOp9
 70
     1
102
RTVSPropertyOp10
 70
     1
102
RTVSPropertyOp11
 70
     1
102
RTVSPropertyOp12
 70
     1
102
RTVSPropertyOp13
 70
     1
102
RTVSPropertyOp14
 70
     1
102
RTVSPropertyOp15
 70
     1
102
RTVSPropertyOp16
 70
     1
102
RTVSPropertyOp17
 70
     1
102
RTVSPropertyOp18
 70
     1
102
RTVSPropertyOp19
 70
     1
102
RTVSPropertyOp20
 70
     1
102
RTVSPropertyOp21
 70
     1
102
RTVSPropertyOp22
 70
     1
102
RTVSPropertyOp23
 70
     1
102
RTVSPropertyOp24
 70
     1
102
RTVSPropertyOp25
 70
     1
102
RTVSPropertyOp26
 70
     1
102
RTVSPropertyOp27
 70
     1
102
RTVSPropertyOp28
 70
     1
102
RTVSPropertyOp29
 70
     1
102
RTVSPropertyOp30
 70
     1
102
RTVSPropertyOp31
 70
     1
102
RTVSPropertyOp32
 70
     1
  0
XRECORD
  5
20A
102
{ACAD_REACTORS
330
209
102
}
330
209
100
AcDbXrecord
280
     1
102
RTVSPropertyOp0
 70
     1
102
RTVSPropertyOp1
 70
     1
102
RTVSPropertyOp2
 70
     1
102
RTVSPropertyOp3
 70
     1
102
RTVSPropertyOp4
 70
     1
102
RTVSPropertyOp5
 70
     1
102
RTVSPropertyOp6
 70
     1
102
RTVSPropertyOp7
 70
     1
102
RTVSPropertyOp8
 70
     1
102
RTVSPropertyOp9
 70
     1
102
RTVSPropertyOp10
 70
     1
102
RTVSPropertyOp11
 70
     1
102
RTVSPropertyOp12
 70
     1
102
RTVSPropertyOp13
 70
     1
102
RTVSPropertyOp14
 70
     1
102
RTVSPropertyOp15
 70
     1
102
RTVSPropertyOp16
 70
     1
102
RTVSPropertyOp17
 70
     1
102
RTVSPropertyOp18
 70
     1
102
RTVSPropertyOp19
 70
     1
102
RTVSPropertyOp20
 70
     1
102
RTVSPropertyOp21
 70
     1
102
RTVSPropertyOp22
 70
     1
102
RTVSPropertyOp23
 70
     1
102
RTVSPropertyOp24
 70
     1
102
RTVSPropertyOp25
 70
     1
102
RTVSPropertyOp26
 70
     1
102
RTVSPropertyOp27
 70
     1
102
RTVSPropertyOp28
 70
     1
102
RTVSPropertyOp29
 70
     1
102
RTVSPropertyOp30
 70
     1
102
RTVSPropertyOp31
 70
     1
102
RTVSPropertyOp32
 70
     1
  0
XRECORD
  5
212
102
{ACAD_REACTORS
330
211
102
}
330
211
100
AcDbXrecord
280
     1
102
RTVSPropertyOp0
 70
     1
102
RTVSPropertyOp1
 70
     1
102
RTVSPropertyOp2
 70
     1
102
RTVSPropertyOp3
 70
     1
102
RTVSPropertyOp4
 70
     1
102
RTVSPropertyOp5
 70
     1
102
RTVSPropertyOp6
 70
     1
102
RTVSPropertyOp7
 70
     1
102
RTVSPropertyOp8
 70
     1
102
RTVSPropertyOp9
 70
     1
102
RTVSPropertyOp10
 70
     1
102
RTVSPropertyOp11
 70
     1
102
RTVSPropertyOp12
 70
     1
102
RTVSPropertyOp13
 70
     1
102
RTVSPropertyOp14
 70
     1
102
RTVSPropertyOp15
 70
     1
102
RTVSPropertyOp16
 70
     1
102
RTVSPropertyOp17
 70
     1
102
RTVSPropertyOp18
 70
     1
102
RTVSPropertyOp19
 70
     1
102
RTVSPropertyOp20
 70
     1
102
RTVSPropertyOp21
 70
     1
102
RTVSPropertyOp22
 70
     1
102
RTVSPropertyOp23
 70
     1
102
RTVSPropertyOp24
 70
     1
102
RTVSPropertyOp25
 70
     1
102
RTVSPropertyOp26
 70
     1
102
RTVSPropertyOp27
 70
     1
102
RTVSPropertyOp28
 70
     1
102
RTVSPropertyOp29
 70
     1
102
RTVSPropertyOp30
 70
     1
102
RTVSPropertyOp31
 70
     1
102
RTVSPropertyOp32
 70
     1
  0
XRECORD
  5
21A
102
{ACAD_REACTORS
330
219
102
}
330
219
100
AcDbXrecord
280
     1
102
RTVSPropertyOp0
 70
     1
102
RTVSPropertyOp1
 70
     1
102
RTVSPropertyOp2
 70
     1
102
RTVSPropertyOp3
 70
     1
102
RTVSPropertyOp4
 70
     1
102
RTVSPropertyOp5
 70
     1
102
RTVSPropertyOp6
 70
     1
102
RTVSPropertyOp7
 70
     1
102
RTVSPropertyOp8
 70
     1
102
RTVSPropertyOp9
 70
     1
102
RTVSPropertyOp10
 70
     1
102
RTVSPropertyOp11
 70
     1
102
RTVSPropertyOp12
 70
     1
102
RTVSPropertyOp13
 70
     1
102
RTVSPropertyOp14
 70
     1
102
RTVSPropertyOp15
 70
     1
102
RTVSPropertyOp16
 70
     1
102
RTVSPropertyOp17
 70
     1
102
RTVSPropertyOp18
 70
     1
102
RTVSPropertyOp19
 70
     1
102
RTVSPropertyOp20
 70
     1
102
RTVSPropertyOp21
 70
     1
102
RTVSPropertyOp22
 70
     1
102
RTVSPropertyOp23
 70
     1
102
RTVSPropertyOp24
 70
     1
102
RTVSPropertyOp25
 70
     1
102
RTVSPropertyOp26
 70
     1
102
RTVSPropertyOp27
 70
     1
102
RTVSPropertyOp28
 70
     1
102
RTVSPropertyOp29
 70
     1
102
RTVSPropertyOp30
 70
     1
102
RTVSPropertyOp31
 70
     1
102
RTVSPropertyOp32
 70
     1
  0
XRECORD
  5
20E
102
{ACAD_REACTORS
330
20D
102
}
330
20D
100
AcDbXrecord
280
     1
102
RTVSPropertyOp0
 70
     1
102
RTVSPropertyOp1
 70
     1
102
RTVSPropertyOp2
 70
     1
102
RTVSPropertyOp3
 70
     1
102
RTVSPropertyOp4
 70
     1
102
RTVSPropertyOp5
 70
     1
102
RTVSPropertyOp6
 70
     1
102
RTVSPropertyOp7
 70
     1
102
RTVSPropertyOp8
 70
     1
102
RTVSPropertyOp9
 70
     1
102
RTVSPropertyOp10
 70
     1
102
RTVSPropertyOp11
 70
     1
102
RTVSPropertyOp12
 70
     1
102
RTVSPropertyOp13
 70
     1
102
RTVSPropertyOp14
 70
     1
102
RTVSPropertyOp15
 70
     1
102
RTVSPropertyOp16
 70
     1
102
RTVSPropertyOp17
 70
     1
102
RTVSPropertyOp18
 70
     1
102
RTVSPropertyOp19
 70
     1
102
RTVSPropertyOp20
 70
     1
102
RTVSPropertyOp21
 70
     1
102
RTVSPropertyOp22
 70
     1
102
RTVSPropertyOp23
 70
     1
102
RTVSPropertyOp24
 70
     1
102
RTVSPropertyOp25
 70
     1
102
RTVSPropertyOp26
 70
     1
102
RTVSPropertyOp27
 70
     1
102
RTVSPropertyOp28
 70
     1
102
RTVSPropertyOp29
 70
     1
102
RTVSPropertyOp30
 70
     1
102
RTVSPropertyOp31
 70
     1
102
RTVSPropertyOp32
 70
     1
  0
XRECORD
  5
210
102
{ACAD_REACTORS
330
20F
102
}
330
20F
100
AcDbXrecord
280
     1
102
RTVSPropertyOp0
 70
     1
102
RTVSPropertyOp1
 70
     1
102
RTVSPropertyOp2
 70
     1
102
RTVSPropertyOp3
 70
     1
102
RTVSPropertyOp4
 70
     1
102
RTVSPropertyOp5
 70
     1
102
RTVSPropertyOp6
 70
     1
102
RTVSPropertyOp7
 70
     1
102
RTVSPropertyOp8
 70
     1
102
RTVSPropertyOp9
 70
     1
102
RTVSPropertyOp10
 70
     1
102
RTVSPropertyOp11
 70
     1
102
RTVSPropertyOp12
 70
     1
102
RTVSPropertyOp13
 70
     1
102
RTVSPropertyOp14
 70
     1
102
RTVSPropertyOp15
 70
     1
102
RTVSPropertyOp16
 70
     1
102
RTVSPropertyOp17
 70
     1
102
RTVSPropertyOp18
 70
     1
102
RTVSPropertyOp19
 70
     1
102
RTVSPropertyOp20
 70
     1
102
RTVSPropertyOp21
 70
     1
102
RTVSPropertyOp22
 70
     1
102
RTVSPropertyOp23
 70
     1
102
RTVSPropertyOp24
 70
     1
102
RTVSPropertyOp25
 70
     1
102
RTVSPropertyOp26
 70
     1
102
RTVSPropertyOp27
 70
     1
102
RTVSPropertyOp28
 70
     1
102
RTVSPropertyOp29
 70
     1
102
RTVSPropertyOp30
 70
     1
102
RTVSPropertyOp31
 70
     1
102
RTVSPropertyOp32
 70
     1
  0
XRECORD
  5
22A
102
{ACAD_REACTORS
330
229
102
}
330
229
100
AcDbXrecord
280
     1
102
RTVSPropertyOp0
 70
     0
102
RTVSPropertyOp1
 70
     0
102
RTVSPropertyOp2
 70
     0
102
RTVSPropertyOp3
 70
     0
102
RTVSPropertyOp4
 70
     0
102
RTVSPropertyOp5
 70
     0
102
RTVSPropertyOp6
 70
     0
102
RTVSPropertyOp7
 70
     0
102
RTVSPropertyOp8
 70
     0
102
RTVSPropertyOp9
 70
     0
102
RTVSPropertyOp10
 70
     0
102
RTVSPropertyOp11
 70
     0
102
RTVSPropertyOp12
 70
     0
102
RTVSPropertyOp13
 70
     0
102
RTVSPropertyOp14
 70
     2
102
RTVSPropertyOp15
 70
     0
102
RTVSPropertyOp16
 70
     0
102
RTVSPropertyOp17
 70
     0
102
RTVSPropertyOp18
 70
     0
102
RTVSPropertyOp19
 70
     0
102
RTVSPropertyOp20
 70
     0
102
RTVSPropertyOp21
 70
     0
102
RTVSPropertyOp22
 70
     0
102
RTVSPropertyOp23
 70
     0
102
RTVSPropertyOp24
 70
     0
102
RTVSPropertyOp25
 70
     0
102
RTVSPropertyOp26
 70
     0
102
RTVSPropertyOp27
 70
     0
102
RTVSPropertyOp28
 70
     0
102
RTVSPropertyOp29
 70
     0
102
RTVSPropertyOp30
 70
     0
102
RTVSPropertyOp31
 70
     0
102
RTVSPropertyOp32
 70
     0
  0
XRECORD
  5
218
102
{ACAD_REACTORS
330
217
102
}
330
217
100
AcDbXrecord
280
     1
102
RTVSPropertyOp0
 70
     1
102
RTVSPropertyOp1
 70
     1
102
RTVSPropertyOp2
 70
     1
102
RTVSPropertyOp3
 70
     1
102
RTVSPropertyOp4
 70
     1
102
RTVSPropertyOp5
 70
     1
102
RTVSPropertyOp6
 70
     1
102
RTVSPropertyOp7
 70
     1
102
RTVSPropertyOp8
 70
     1
102
RTVSPropertyOp9
 70
     1
102
RTVSPropertyOp10
 70
     1
102
RTVSPropertyOp11
 70
     1
102
RTVSPropertyOp12
 70
     1
102
RTVSPropertyOp13
 70
     1
102
RTVSPropertyOp14
 70
     1
102
RTVSPropertyOp15
 70
     1
102
RTVSPropertyOp16
 70
     1
102
RTVSPropertyOp17
 70
     1
102
RTVSPropertyOp18
 70
     1
102
RTVSPropertyOp19
 70
     1
102
RTVSPropertyOp20
 70
     1
102
RTVSPropertyOp21
 70
     1
102
RTVSPropertyOp22
 70
     1
102
RTVSPropertyOp23
 70
     1
102
RTVSPropertyOp24
 70
     1
102
RTVSPropertyOp25
 70
     1
102
RTVSPropertyOp26
 70
     1
102
RTVSPropertyOp27
 70
     1
102
RTVSPropertyOp28
 70
     1
102
RTVSPropertyOp29
 70
     1
102
RTVSPropertyOp30
 70
     1
102
RTVSPropertyOp31
 70
     1
102
RTVSPropertyOp32
 70
     1
  0
XRECORD
  5
202
102
{ACAD_REACTORS
330
201
102
}
330
201
100
AcDbXrecord
280
     1
102
RTVSPropertyOp0
 70
     1
102
RTVSPropertyOp1
 70
     1
102
RTVSPropertyOp2
 70
     1
102
RTVSPropertyOp3
 70
     1
102
RTVSPropertyOp4
 70
     1
102
RTVSPropertyOp5
 70
     1
102
RTVSPropertyOp6
 70
     1
102
RTVSPropertyOp7
 70
     1
102
RTVSPropertyOp8
 70
     1
102
RTVSPropertyOp9
 70
     1
102
RTVSPropertyOp10
 70
     1
102
RTVSPropertyOp11
 70
     1
102
RTVSPropertyOp12
 70
     1
102
RTVSPropertyOp13
 70
     1
102
RTVSPropertyOp14
 70
     1
102
RTVSPropertyOp15
 70
     1
102
RTVSPropertyOp16
 70
     1
102
RTVSPropertyOp17
 70
     1
102
RTVSPropertyOp18
 70
     1
102
RTVSPropertyOp19
 70
     1
102
RTVSPropertyOp20
 70
     1
102
RTVSPropertyOp21
 70
     1
102
RTVSPropertyOp22
 70
     1
102
RTVSPropertyOp23
 70
     1
102
RTVSPropertyOp24
 70
     1
102
RTVSPropertyOp25
 70
     1
102
RTVSPropertyOp26
 70
     1
102
RTVSPropertyOp27
 70
     1
102
RTVSPropertyOp28
 70
     1
102
RTVSPropertyOp29
 70
     1
102
RTVSPropertyOp30
 70
     1
102
RTVSPropertyOp31
 70
     1
102
RTVSPropertyOp32
 70
     1
  0
XRECORD
  5
204
102
{ACAD_REACTORS
330
203
102
}
330
203
100
AcDbXrecord
280
     1
102
RTVSPropertyOp0
 70
     1
102
RTVSPropertyOp1
 70
     1
102
RTVSPropertyOp2
 70
     1
102
RTVSPropertyOp3
 70
     1
102
RTVSPropertyOp4
 70
     1
102
RTVSPropertyOp5
 70
     1
102
RTVSPropertyOp6
 70
     1
102
RTVSPropertyOp7
 70
     1
102
RTVSPropertyOp8
 70
     1
102
RTVSPropertyOp9
 70
     1
102
RTVSPropertyOp10
 70
     1
102
RTVSPropertyOp11
 70
     1
102
RTVSPropertyOp12
 70
     1
102
RTVSPropertyOp13
 70
     1
102
RTVSPropertyOp14
 70
     1
102
RTVSPropertyOp15
 70
     1
102
RTVSPropertyOp16
 70
     1
102
RTVSPropertyOp17
 70
     1
102
RTVSPropertyOp18
 70
     1
102
RTVSPropertyOp19
 70
     1
102
RTVSPropertyOp20
 70
     1
102
RTVSPropertyOp21
 70
     1
102
RTVSPropertyOp22
 70
     1
102
RTVSPropertyOp23
 70
     1
102
RTVSPropertyOp24
 70
     1
102
RTVSPropertyOp25
 70
     1
102
RTVSPropertyOp26
 70
     1
102
RTVSPropertyOp27
 70
     1
102
RTVSPropertyOp28
 70
     1
102
RTVSPropertyOp29
 70
     1
102
RTVSPropertyOp30
 70
     1
102
RTVSPropertyOp31
 70
     1
102
RTVSPropertyOp32
 70
     1
  0
XRECORD
  5
206
102
{ACAD_REACTORS
330
205
102
}
330
205
100
AcDbXrecord
280
     1
102
RTVSPropertyOp0
 70
     1
102
RTVSPropertyOp1
 70
     1
102
RTVSPropertyOp2
 70
     1
102
RTVSPropertyOp3
 70
     1
102
RTVSPropertyOp4
 70
     1
102
RTVSPropertyOp5
 70
     1
102
RTVSPropertyOp6
 70
     1
102
RTVSPropertyOp7
 70
     1
102
RTVSPropertyOp8
 70
     1
102
RTVSPropertyOp9
 70
     1
102
RTVSPropertyOp10
 70
     1
102
RTVSPropertyOp11
 70
     1
102
RTVSPropertyOp12
 70
     1
102
RTVSPropertyOp13
 70
     1
102
RTVSPropertyOp14
 70
     1
102
RTVSPropertyOp15
 70
     1
102
RTVSPropertyOp16
 70
     1
102
RTVSPropertyOp17
 70
     1
102
RTVSPropertyOp18
 70
     1
102
RTVSPropertyOp19
 70
     1
102
RTVSPropertyOp20
 70
     1
102
RTVSPropertyOp21
 70
     1
102
RTVSPropertyOp22
 70
     1
102
RTVSPropertyOp23
 70
     1
102
RTVSPropertyOp24
 70
     1
102
RTVSPropertyOp25
 70
     1
102
RTVSPropertyOp26
 70
     1
102
RTVSPropertyOp27
 70
     1
102
RTVSPropertyOp28
 70
     1
102
RTVSPropertyOp29
 70
     1
102
RTVSPropertyOp30
 70
     1
102
RTVSPropertyOp31
 70
     1
102
RTVSPropertyOp32
 70
     1
  0
XRECORD
  5
208
102
{ACAD_REACTORS
330
207
102
}
330
207
100
AcDbXrecord
280
     1
102
RTVSPropertyOp0
 70
     1
102
RTVSPropertyOp1
 70
     1
102
RTVSPropertyOp2
 70
     1
102
RTVSPropertyOp3
 70
     1
102
RTVSPropertyOp4
 70
     1
102
RTVSPropertyOp5
 70
     1
102
RTVSPropertyOp6
 70
     1
102
RTVSPropertyOp7
 70
     1
102
RTVSPropertyOp8
 70
     1
102
RTVSPropertyOp9
 70
     1
102
RTVSPropertyOp10
 70
     1
102
RTVSPropertyOp11
 70
     1
102
RTVSPropertyOp12
 70
     1
102
RTVSPropertyOp13
 70
     1
102
RTVSPropertyOp14
 70
     1
102
RTVSPropertyOp15
 70
     1
102
RTVSPropertyOp16
 70
     1
102
RTVSPropertyOp17
 70
     1
102
RTVSPropertyOp18
 70
     1
102
RTVSPropertyOp19
 70
     1
102
RTVSPropertyOp20
 70
     1
102
RTVSPropertyOp21
 70
     1
102
RTVSPropertyOp22
 70
     1
102
RTVSPropertyOp23
 70
     1
102
RTVSPropertyOp24
 70
     1
102
RTVSPropertyOp25
 70
     1
102
RTVSPropertyOp26
 70
     1
102
RTVSPropertyOp27
 70
     1
102
RTVSPropertyOp28
 70
     1
102
RTVSPropertyOp29
 70
     1
102
RTVSPropertyOp30
 70
     1
102
RTVSPropertyOp31
 70
     1
102
RTVSPropertyOp32
 70
     1
  0
XRECORD
  5
20C
102
{ACAD_REACTORS
330
20B
102
}
330
20B
100
AcDbXrecord
280
     1
102
RTVSPropertyOp0
 70
     1
102
RTVSPropertyOp1
 70
     1
102
RTVSPropertyOp2
 70
     1
102
RTVSPropertyOp3
 70
     1
102
RTVSPropertyOp4
 70
     1
102
RTVSPropertyOp5
 70
     1
102
RTVSPropertyOp6
 70
     1
102
RTVSPropertyOp7
 70
     1
102
RTVSPropertyOp8
 70
     1
102
RTVSPropertyOp9
 70
     1
102
RTVSPropertyOp10
 70
     1
102
RTVSPropertyOp11
 70
     1
102
RTVSPropertyOp12
 70
     1
102
RTVSPropertyOp13
 70
     1
102
RTVSPropertyOp14
 70
     1
102
RTVSPropertyOp15
 70
     1
102
RTVSPropertyOp16
 70
     1
102
RTVSPropertyOp17
 70
     1
102
RTVSPropertyOp18
 70
     1
102
RTVSPropertyOp19
 70
     1
102
RTVSPropertyOp20
 70
     1
102
RTVSPropertyOp21
 70
     1
102
RTVSPropertyOp22
 70
     1
102
RTVSPropertyOp23
 70
     1
102
RTVSPropertyOp24
 70
     1
102
RTVSPropertyOp25
 70
     1
102
RTVSPropertyOp26
 70
     1
102
RTVSPropertyOp27
 70
     1
102
RTVSPropertyOp28
 70
     1
102
RTVSPropertyOp29
 70
     1
102
RTVSPropertyOp30
 70
     1
102
RTVSPropertyOp31
 70
     1
102
RTVSPropertyOp32
 70
     1
  0
XRECORD
  5
226
102
{ACAD_REACTORS
330
225
102
}
330
225
100
AcDbXrecord
280
     1
102
RTVSPropertyOp0
 70
     0
102
RTVSPropertyOp1
 70
     0
102
RTVSPropertyOp2
 70
     0
102
RTVSPropertyOp3
 70
     0
102
RTVSPropertyOp4
 70
     0
102
RTVSPropertyOp5
 70
     0
102
RTVSPropertyOp6
 70
     0
102
RTVSPropertyOp7
 70
     0
102
RTVSPropertyOp8
 70
     0
102
RTVSPropertyOp9
 70
     0
102
RTVSPropertyOp10
 70
     0
102
RTVSPropertyOp11
 70
     0
102
RTVSPropertyOp12
 70
     0
102
RTVSPropertyOp13
 70
     0
102
RTVSPropertyOp14
 70
     2
102
RTVSPropertyOp15
 70
     0
102
RTVSPropertyOp16
 70
     0
102
RTVSPropertyOp17
 70
     0
102
RTVSPropertyOp18
 70
     0
102
RTVSPropertyOp19
 70
     0
102
RTVSPropertyOp20
 70
     0
102
RTVSPropertyOp21
 70
     0
102
RTVSPropertyOp22
 70
     0
102
RTVSPropertyOp23
 70
     0
102
RTVSPropertyOp24
 70
     0
102
RTVSPropertyOp25
 70
     0
102
RTVSPropertyOp26
 70
     0
102
RTVSPropertyOp27
 70
     0
102
RTVSPropertyOp28
 70
     0
102
RTVSPropertyOp29
 70
     0
102
RTVSPropertyOp30
 70
     0
102
RTVSPropertyOp31
 70
     0
102
RTVSPropertyOp32
 70
     0
  0
XRECORD
  5
216
102
{ACAD_REACTORS
330
215
102
}
330
215
100
AcDbXrecord
280
     1
102
RTVSPropertyOp0
 70
     1
102
RTVSPropertyOp1
 70
     1
102
RTVSPropertyOp2
 70
     1
102
RTVSPropertyOp3
 70
     1
102
RTVSPropertyOp4
 70
     1
102
RTVSPropertyOp5
 70
     1
102
RTVSPropertyOp6
 70
     1
102
RTVSPropertyOp7
 70
     1
102
RTVSPropertyOp8
 70
     1
102
RTVSPropertyOp9
 70
     1
102
RTVSPropertyOp10
 70
     1
102
RTVSPropertyOp11
 70
     1
102
RTVSPropertyOp12
 70
     1
102
RTVSPropertyOp13
 70
     1
102
RTVSPropertyOp14
 70
     1
102
RTVSPropertyOp15
 70
     1
102
RTVSPropertyOp16
 70
     1
102
RTVSPropertyOp17
 70
     1
102
RTVSPropertyOp18
 70
     1
102
RTVSPropertyOp19
 70
     1
102
RTVSPropertyOp20
 70
     1
102
RTVSPropertyOp21
 70
     1
102
RTVSPropertyOp22
 70
     1
102
RTVSPropertyOp23
 70
     1
102
RTVSPropertyOp24
 70
     1
102
RTVSPropertyOp25
 70
     1
102
RTVSPropertyOp26
 70
     1
102
RTVSPropertyOp27
 70
     1
102
RTVSPropertyOp28
 70
     1
102
RTVSPropertyOp29
 70
     1
102
RTVSPropertyOp30
 70
     1
102
RTVSPropertyOp31
 70
     1
102
RTVSPropertyOp32
 70
     1
  0
XRECORD
  5
228
102
{ACAD_REACTORS
330
227
102
}
330
227
100
AcDbXrecord
280
     1
102
RTVSPropertyOp0
 70
     0
102
RTVSPropertyOp1
 70
     0
102
RTVSPropertyOp2
 70
     0
102
RTVSPropertyOp3
 70
     0
102
RTVSPropertyOp4
 70
     0
102
RTVSPropertyOp5
 70
     0
102
RTVSPropertyOp6
 70
     0
102
RTVSPropertyOp7
 70
     0
102
RTVSPropertyOp8
 70
     0
102
RTVSPropertyOp9
 70
     0
102
RTVSPropertyOp10
 70
     0
102
RTVSPropertyOp11
 70
     0
102
RTVSPropertyOp12
 70
     0
102
RTVSPropertyOp13
 70
     0
102
RTVSPropertyOp14
 70
     2
102
RTVSPropertyOp15
 70
     0
102
RTVSPropertyOp16
 70
     0
102
RTVSPropertyOp17
 70
     0
102
RTVSPropertyOp18
 70
     0
102
RTVSPropertyOp19
 70
     0
102
RTVSPropertyOp20
 70
     0
102
RTVSPropertyOp21
 70
     0
102
RTVSPropertyOp22
 70
     0
102
RTVSPropertyOp23
 70
     0
102
RTVSPropertyOp24
 70
     0
102
RTVSPropertyOp25
 70
     0
102
RTVSPropertyOp26
 70
     0
102
RTVSPropertyOp27
 70
     0
102
RTVSPropertyOp28
 70
     0
102
RTVSPropertyOp29
 70
     0
102
RTVSPropertyOp30
 70
     0
102
RTVSPropertyOp31
 70
     0
102
RTVSPropertyOp32
 70
     0
  0
XRECORD
  5
1FE
102
{ACAD_REACTORS
330
1FD
102
}
330
1FD
100
AcDbXrecord
280
     1
102
RTVSPropertyOp0
 70
     1
102
RTVSPropertyOp1
 70
     1
102
RTVSPropertyOp2
 70
     1
102
RTVSPropertyOp3
 70
     1
102
RTVSPropertyOp4
 70
     1
102
RTVSPropertyOp5
 70
     1
102
RTVSPropertyOp6
 70
     1
102
RTVSPropertyOp7
 70
     1
102
RTVSPropertyOp8
 70
     1
102
RTVSPropertyOp9
 70
     1
102
RTVSPropertyOp10
 70
     1
102
RTVSPropertyOp11
 70
     1
102
RTVSPropertyOp12
 70
     1
102
RTVSPropertyOp13
 70
     1
102
RTVSPropertyOp14
 70
     1
102
RTVSPropertyOp15
 70
     1
102
RTVSPropertyOp16
 70
     1
102
RTVSPropertyOp17
 70
     1
102
RTVSPropertyOp18
 70
     1
102
RTVSPropertyOp19
 70
     1
102
RTVSPropertyOp20
 70
     1
102
RTVSPropertyOp21
 70
     1
102
RTVSPropertyOp22
 70
     1
102
RTVSPropertyOp23
 70
     1
102
RTVSPropertyOp24
 70
     1
102
RTVSPropertyOp25
 70
     1
102
RTVSPropertyOp26
 70
     1
102
RTVSPropertyOp27
 70
     1
102
RTVSPropertyOp28
 70
     1
102
RTVSPropertyOp29
 70
     1
102
RTVSPropertyOp30
 70
     1
102
RTVSPropertyOp31
 70
     1
102
RTVSPropertyOp32
 70
     1
  0
XRECORD
  5
224
102
{ACAD_REACTORS
330
223
102
}
330
223
100
AcDbXrecord
280
     1
102
RTVSPropertyOp0
 70
     1
102
RTVSPropertyOp1
 70
     1
102
RTVSPropertyOp2
 70
     1
102
RTVSPropertyOp3
 70
     1
102
RTVSPropertyOp4
 70
     1
102
RTVSPropertyOp5
 70
     1
102
RTVSPropertyOp6
 70
     1
102
RTVSPropertyOp7
 70
     1
102
RTVSPropertyOp8
 70
     1
102
RTVSPropertyOp9
 70
     1
102
RTVSPropertyOp10
 70
     1
102
RTVSPropertyOp11
 70
     1
102
RTVSPropertyOp12
 70
     1
102
RTVSPropertyOp13
 70
     1
102
RTVSPropertyOp14
 70
     1
102
RTVSPropertyOp15
 70
     1
102
RTVSPropertyOp16
 70
     1
102
RTVSPropertyOp17
 70
     1
102
RTVSPropertyOp18
 70
     1
102
RTVSPropertyOp19
 70
     1
102
RTVSPropertyOp20
 70
     1
102
RTVSPropertyOp21
 70
     1
102
RTVSPropertyOp22
 70
     1
102
RTVSPropertyOp23
 70
     1
102
RTVSPropertyOp24
 70
     1
102
RTVSPropertyOp25
 70
     1
102
RTVSPropertyOp26
 70
     1
102
RTVSPropertyOp27
 70
     1
102
RTVSPropertyOp28
 70
     1
102
RTVSPropertyOp29
 70
     1
102
RTVSPropertyOp30
 70
     1
102
RTVSPropertyOp31
 70
     1
102
RTVSPropertyOp32
 70
     1
  0
XRECORD
  5
222
102
{ACAD_REACTORS
330
221
102
}
330
221
100
AcDbXrecord
280
     1
102
RTVSPropertyOp0
 70
     1
102
RTVSPropertyOp1
 70
     1
102
RTVSPropertyOp2
 70
     1
102
RTVSPropertyOp3
 70
     1
102
RTVSPropertyOp4
 70
     1
102
RTVSPropertyOp5
 70
     1
102
RTVSPropertyOp6
 70
     1
102
RTVSPropertyOp7
 70
     1
102
RTVSPropertyOp8
 70
     1
102
RTVSPropertyOp9
 70
     1
102
RTVSPropertyOp10
 70
     1
102
RTVSPropertyOp11
 70
     1
102
RTVSPropertyOp12
 70
     1
102
RTVSPropertyOp13
 70
     1
102
RTVSPropertyOp14
 70
     1
102
RTVSPropertyOp15
 70
     1
102
RTVSPropertyOp16
 70
     1
102
RTVSPropertyOp17
 70
     1
102
RTVSPropertyOp18
 70
     1
102
RTVSPropertyOp19
 70
     1
102
RTVSPropertyOp20
 70
     1
102
RTVSPropertyOp21
 70
     1
102
RTVSPropertyOp22
 70
     1
102
RTVSPropertyOp23
 70
     1
102
RTVSPropertyOp24
 70
     1
102
RTVSPropertyOp25
 70
     1
102
RTVSPropertyOp26
 70
     1
102
RTVSPropertyOp27
 70
     1
102
RTVSPropertyOp28
 70
     1
102
RTVSPropertyOp29
 70
     1
102
RTVSPropertyOp30
 70
     1
102
RTVSPropertyOp31
 70
     1
102
RTVSPropertyOp32
 70
     1
  0
XRECORD
  5
21C
102
{ACAD_REACTORS
330
21B
102
}
330
21B
100
AcDbXrecord
280
     1
102
RTVSPropertyOp0
 70
     1
102
RTVSPropertyOp1
 70
     1
102
RTVSPropertyOp2
 70
     1
102
RTVSPropertyOp3
 70
     1
102
RTVSPropertyOp4
 70
     1
102
RTVSPropertyOp5
 70
     1
102
RTVSPropertyOp6
 70
     1
102
RTVSPropertyOp7
 70
     1
102
RTVSPropertyOp8
 70
     1
102
RTVSPropertyOp9
 70
     1
102
RTVSPropertyOp10
 70
     1
102
RTVSPropertyOp11
 70
     1
102
RTVSPropertyOp12
 70
     1
102
RTVSPropertyOp13
 70
     1
102
RTVSPropertyOp14
 70
     1
102
RTVSPropertyOp15
 70
     1
102
RTVSPropertyOp16
 70
     1
102
RTVSPropertyOp17
 70
     1
102
RTVSPropertyOp18
 70
     1
102
RTVSPropertyOp19
 70
     1
102
RTVSPropertyOp20
 70
     1
102
RTVSPropertyOp21
 70
     1
102
RTVSPropertyOp22
 70
     1
102
RTVSPropertyOp23
 70
     1
102
RTVSPropertyOp24
 70
     1
102
RTVSPropertyOp25
 70
     1
102
RTVSPropertyOp26
 70
     1
102
RTVSPropertyOp27
 70
     1
102
RTVSPropertyOp28
 70
     1
102
RTVSPropertyOp29
 70
     1
102
RTVSPropertyOp30
 70
     1
102
RTVSPropertyOp31
 70
     1
102
RTVSPropertyOp32
 70
     1
  0
XRECORD
  5
21E
102
{ACAD_REACTORS
330
21D
102
}
330
21D
100
AcDbXrecord
280
     1
102
RTVSPropertyOp0
 70
     1
102
RTVSPropertyOp1
 70
     1
102
RTVSPropertyOp2
 70
     1
102
RTVSPropertyOp3
 70
     1
102
RTVSPropertyOp4
 70
     1
102
RTVSPropertyOp5
 70
     1
102
RTVSPropertyOp6
 70
     1
102
RTVSPropertyOp7
 70
     1
102
RTVSPropertyOp8
 70
     1
102
RTVSPropertyOp9
 70
     1
102
RTVSPropertyOp10
 70
     1
102
RTVSPropertyOp11
 70
     1
102
RTVSPropertyOp12
 70
     1
102
RTVSPropertyOp13
 70
     1
102
RTVSPropertyOp14
 70
     1
102
RTVSPropertyOp15
 70
     1
102
RTVSPropertyOp16
 70
     1
102
RTVSPropertyOp17
 70
     1
102
RTVSPropertyOp18
 70
     1
102
RTVSPropertyOp19
 70
     1
102
RTVSPropertyOp20
 70
     1
102
RTVSPropertyOp21
 70
     1
102
RTVSPropertyOp22
 70
     1
102
RTVSPropertyOp23
 70
     1
102
RTVSPropertyOp24
 70
     1
102
RTVSPropertyOp25
 70
     1
102
RTVSPropertyOp26
 70
     1
102
RTVSPropertyOp27
 70
     1
102
RTVSPropertyOp28
 70
     1
102
RTVSPropertyOp29
 70
     1
102
RTVSPropertyOp30
 70
     1
102
RTVSPropertyOp31
 70
     1
102
RTVSPropertyOp32
 70
     1
  0
XRECORD
  5
214
102
{ACAD_REACTORS
330
213
102
}
330
213
100
AcDbXrecord
280
     1
102
RTVSPropertyOp0
 70
     1
102
RTVSPropertyOp1
 70
     1
102
RTVSPropertyOp2
 70
     1
102
RTVSPropertyOp3
 70
     1
102
RTVSPropertyOp4
 70
     1
102
RTVSPropertyOp5
 70
     1
102
RTVSPropertyOp6
 70
     1
102
RTVSPropertyOp7
 70
     1
102
RTVSPropertyOp8
 70
     1
102
RTVSPropertyOp9
 70
     1
102
RTVSPropertyOp10
 70
     1
102
RTVSPropertyOp11
 70
     1
102
RTVSPropertyOp12
 70
     1
102
RTVSPropertyOp13
 70
     1
102
RTVSPropertyOp14
 70
     1
102
RTVSPropertyOp15
 70
     1
102
RTVSPropertyOp16
 70
     1
102
RTVSPropertyOp17
 70
     1
102
RTVSPropertyOp18
 70
     1
102
RTVSPropertyOp19
 70
     1
102
RTVSPropertyOp20
 70
     1
102
RTVSPropertyOp21
 70
     1
102
RTVSPropertyOp22
 70
     1
102
RTVSPropertyOp23
 70
     1
102
RTVSPropertyOp24
 70
     1
102
RTVSPropertyOp25
 70
     1
102
RTVSPropertyOp26
 70
     1
102
RTVSPropertyOp27
 70
     1
102
RTVSPropertyOp28
 70
     1
102
RTVSPropertyOp29
 70
     1
102
RTVSPropertyOp30
 70
     1
102
RTVSPropertyOp31
 70
     1
102
RTVSPropertyOp32
 70
     1
  0
XRECORD
  5
200
102
{ACAD_REACTORS
330
1FF
102
}
330
1FF
100
AcDbXrecord
280
     1
102
RTVSPropertyOp0
 70
     1
102
RTVSPropertyOp1
 70
     1
102
RTVSPropertyOp2
 70
     1
102
RTVSPropertyOp3
 70
     1
102
RTVSPropertyOp4
 70
     1
102
RTVSPropertyOp5
 70
     1
102
RTVSPropertyOp6
 70
     1
102
RTVSPropertyOp7
 70
     1
102
RTVSPropertyOp8
 70
     1
102
RTVSPropertyOp9
 70
     1
102
RTVSPropertyOp10
 70
     1
102
RTVSPropertyOp11
 70
     1
102
RTVSPropertyOp12
 70
     1
102
RTVSPropertyOp13
 70
     1
102
RTVSPropertyOp14
 70
     1
102
RTVSPropertyOp15
 70
     1
102
RTVSPropertyOp16
 70
     1
102
RTVSPropertyOp17
 70
     1
102
RTVSPropertyOp18
 70
     1
102
RTVSPropertyOp19
 70
     1
102
RTVSPropertyOp20
 70
     1
102
RTVSPropertyOp21
 70
     1
102
RTVSPropertyOp22
 70
     1
102
RTVSPropertyOp23
 70
     1
102
RTVSPropertyOp24
 70
     1
102
RTVSPropertyOp25
 70
     1
102
RTVSPropertyOp26
 70
     1
102
RTVSPropertyOp27
 70
     1
102
RTVSPropertyOp28
 70
     1
102
RTVSPropertyOp29
 70
     1
102
RTVSPropertyOp30
 70
     1
102
RTVSPropertyOp31
 70
     1
102
RTVSPropertyOp32
 70
     1
  0
XRECORD
  5
220
102
{ACAD_REACTORS
330
21F
102
}
330
21F
100
AcDbXrecord
280
     1
102
RTVSPropertyOp0
 70
     1
102
RTVSPropertyOp1
 70
     1
102
RTVSPropertyOp2
 70
     1
102
RTVSPropertyOp3
 70
     1
102
RTVSPropertyOp4
 70
     1
102
RTVSPropertyOp5
 70
     1
102
RTVSPropertyOp6
 70
     1
102
RTVSPropertyOp7
 70
     1
102
RTVSPropertyOp8
 70
     1
102
RTVSPropertyOp9
 70
     1
102
RTVSPropertyOp10
 70
     1
102
RTVSPropertyOp11
 70
     1
102
RTVSPropertyOp12
 70
     1
102
RTVSPropertyOp13
 70
     1
102
RTVSPropertyOp14
 70
     1
102
RTVSPropertyOp15
 70
     1
102
RTVSPropertyOp16
 70
     1
102
RTVSPropertyOp17
 70
     1
102
RTVSPropertyOp18
 70
     1
102
RTVSPropertyOp19
 70
     1
102
RTVSPropertyOp20
 70
     1
102
RTVSPropertyOp21
 70
     1
102
RTVSPropertyOp22
 70
     1
102
RTVSPropertyOp23
 70
     1
102
RTVSPropertyOp24
 70
     1
102
RTVSPropertyOp25
 70
     1
102
RTVSPropertyOp26
 70
     1
102
RTVSPropertyOp27
 70
     1
102
RTVSPropertyOp28
 70
     1
102
RTVSPropertyOp29
 70
     1
102
RTVSPropertyOp30
 70
     1
102
RTVSPropertyOp31
 70
     1
102
RTVSPropertyOp32
 70
     1
  0
ENDSEC
  0
EOF
