  0
SECTION
  2
HEADER
  9
$ACADVER
  1
AC1015
  9
$ACADMAINTVER
 70
    18
  9
$DWGCODEPAGE
  3
ANSI_1252
  9
$INSBASE
 10
0.0
 20
0.0
 30
0.0
  9
$EXTMIN
 10
-38.1359530865866
 20
-32.9413890714543
 30
-0.0015258207003583
  9
$EXTMAX
 10
47.58830405188291
 20
15.05268959520913
 30
0.0000000349246037
  9
$LIMMIN
 10
0.0
 20
0.0
  9
$LIMMAX
 10
1189.0
 20
840.9999999999998
  9
$ORTHOMODE
 70
     0
  9
$REGENMODE
 70
     1
  9
$FILLMODE
 70
     1
  9
$QTEXTMODE
 70
     0
  9
$MIRRTEXT
 70
     0
  9
$LTSCALE
 40
1.0
  9
$ATTMODE
 70
     1
  9
$TEXTSIZE
 40
0.2
  9
$TRACEWID
 40
0.05
  9
$TEXTSTYLE
  7
STANDARD
  9
$CLAYER
  8
0
  9
$CELTYPE
  6
ByLayer
  9
$CECOLOR
 62
   256
  9
$CELTSCALE
 40
1.0
  9
$DISPSILH
 70
     0
  9
$DIMSCALE
 40
1.0
  9
$DIMASZ
 40
180.0
  9
$DIMEXO
 40
0.0625
  9
$DIMDLI
 40
0.38
  9
$DIMRND
 40
0.0
  9
$DIMDLE
 40
0.0
  9
$DIMEXE
 40
0.18
  9
$DIMTP
 40
0.0
  9
$DIMTM
 40
0.0
  9
$DIMTXT
 40
34.99999940395355
  9
$DIMCEN
 40
0.09
  9
$DIMTSZ
 40
0.0
  9
$DIMTOL
 70
     0
  9
$DIMLIM
 70
     0
  9
$DIMTIH
 70
     1
  9
$DIMTOH
 70
     1
  9
$DIMSE1
 70
     0
  9
$DIMSE2
 70
     0
  9
$DIMTAD
 70
     0
  9
$DIMZIN
 70
     0
  9
$DIMBLK
  1

  9
$DIMASO
 70
     1
  9
$DIMSHO
 70
     1
  9
$DIMPOST
  1

  9
$DIMAPOST
  1

  9
$DIMALT
 70
     0
  9
$DIMALTD
 70
     2
  9
$DIMALTF
 40
25.4
  9
$DIMLFAC
 40
1.0
  9
$DIMTOFL
 70
     0
  9
$DIMTVP
 40
0.0
  9
$DIMTIX
 70
     0
  9
$DIMSOXD
 70
     0
  9
$DIMSAH
 70
     0
  9
$DIMBLK1
  1

  9
$DIMBLK2
  1

  9
$DIMSTYLE
  2
STANDARD
  9
$DIMCLRD
 70
     0
  9
$DIMCLRE
 70
     0
  9
$DIMCLRT
 70
     0
  9
$DIMTFAC
 40
1.0
  9
$DIMGAP
 40
0.09
  9
$DIMJUST
 70
     0
  9
$DIMSD1
 70
     0
  9
$DIMSD2
 70
     0
  9
$DIMTOLJ
 70
     1
  9
$DIMTZIN
 70
     0
  9
$DIMALTZ
 70
     0
  9
$DIMALTTZ
 70
     0
  9
$DIMUPT
 70
     0
  9
$DIMDEC
 70
     4
  9
$DIMTDEC
 70
     4
  9
$DIMALTU
 70
     2
  9
$DIMALTTD
 70
     2
  9
$DIMTXSTY
  7
STANDARD
  9
$DIMAUNIT
 70
     0
  9
$DIMADEC
 70
     0
  9
$DIMALTRND
 40
0.0
  9
$DIMAZIN
 70
     0
  9
$DIMDSEP
 70
    46
  9
$DIMATFIT
 70
     3
  9
$DIMFRAC
 70
     0
  9
$DIMLDRBLK
  1

  9
$DIMLUNIT
 70
     2
  9
$DIMLWD
 70
    -2
  9
$DIMLWE
 70
    -2
  9
$DIMTMOVE
 70
     0
  9
$LUNITS
 70
     2
  9
$LUPREC
 70
     4
  9
$SKETCHINC
 40
0.1
  9
$FILLETRAD
 40
0.0
  9
$AUNITS
 70
     0
  9
$AUPREC
 70
     0
  9
$MENU
  1
.
  9
$ELEVATION
 40
0.0
  9
$PELEVATION
 40
0.0
  9
$THICKNESS
 40
0.0
  9
$LIMCHECK
 70
     0
  9
$CHAMFERA
 40
0.0
  9
$CHAMFERB
 40
0.0
  9
$CHAMFERC
 40
0.0
  9
$CHAMFERD
 40
0.0
  9
$SKPOLY
 70
     0
  9
$TDCREATE
 40
2454871.539305995
  9
$TDUCREATE
 40
2454871.455972662
  9
$TDUPDATE
 40
2455720.937469063
  9
$TDUUPDATE
 40
2455720.854135730
  9
$TDINDWG
 40
0.0120379630
  9
$TDUSRTIMER
 40
0.0120379630
  9
$USRTIMER
 70
     1
  9
$ANGBASE
 50
0.0
  9
$ANGDIR
 70
     0
  9
$PDMODE
 70
     0
  9
$PDSIZE
 40
0.0
  9
$PLINEWID
 40
0.0
  9
$SPLFRAME
 70
     0
  9
$SPLINETYPE
 70
     6
  9
$SPLINESEGS
 70
     8
  9
$HANDSEED
  5
2C4
  9
$SURFTAB1
 70
     6
  9
$SURFTAB2
 70
     6
  9
$SURFTYPE
 70
     6
  9
$SURFU
 70
     6
  9
$SURFV
 70
     6
  9
$UCSBASE
  2

  9
$UCSNAME
  2

  9
$UCSORG
 10
0.0
 20
0.0
 30
0.0
  9
$UCSXDIR
 10
1.0
 20
0.0
 30
0.0
  9
$UCSYDIR
 10
0.0
 20
1.0
 30
0.0
  9
$UCSORTHOREF
  2

  9
$UCSORTHOVIEW
 70
     0
  9
$UCSORGTOP
 10
0.0
 20
0.0
 30
0.0
  9
$UCSORGBOTTOM
 10
0.0
 20
0.0
 30
0.0
  9
$UCSORGLEFT
 10
0.0
 20
0.0
 30
0.0
  9
$UCSORGRIGHT
 10
0.0
 20
0.0
 30
0.0
  9
$UCSORGFRONT
 10
0.0
 20
0.0
 30
0.0
  9
$UCSORGBACK
 10
0.0
 20
0.0
 30
0.0
  9
$PUCSBASE
  2

  9
$PUCSNAME
  2

  9
$PUCSORG
 10
0.0
 20
0.0
 30
0.0
  9
$PUCSXDIR
 10
1.0
 20
0.0
 30
0.0
  9
$PUCSYDIR
 10
0.0
 20
1.0
 30
0.0
  9
$PUCSORTHOREF
  2

  9
$PUCSORTHOVIEW
 70
     0
  9
$PUCSORGTOP
 10
0.0
 20
0.0
 30
0.0
  9
$PUCSORGBOTTOM
 10
0.0
 20
0.0
 30
0.0
  9
$PUCSORGLEFT
 10
0.0
 20
0.0
 30
0.0
  9
$PUCSORGRIGHT
 10
0.0
 20
0.0
 30
0.0
  9
$PUCSORGFRONT
 10
0.0
 20
0.0
 30
0.0
  9
$PUCSORGBACK
 10
0.0
 20
0.0
 30
0.0
  9
$USERI1
 70
     0
  9
$USERI2
 70
     0
  9
$USERI3
 70
     0
  9
$USERI4
 70
     0
  9
$USERI5
 70
     0
  9
$USERR1
 40
0.0
  9
$USERR2
 40
0.0
  9
$USERR3
 40
0.0
  9
$USERR4
 40
0.0
  9
$USERR5
 40
0.0
  9
$WORLDVIEW
 70
     1
  9
$SHADEDGE
 70
     3
  9
$SHADEDIF
 70
    70
  9
$TILEMODE
 70
     1
  9
$MAXACTVP
 70
    64
  9
$PINSBASE
 10
0.0
 20
0.0
 30
0.0
  9
$PLIMCHECK
 70
     0
  9
$PEXTMIN
 10
0.0
 20
0.0
 30
0.0
  9
$PEXTMAX
 10
1189.0
 20
840.9999999999998
 30
0.0
  9
$PLIMMIN
 10
0.0
 20
0.0
  9
$PLIMMAX
 10
1189.0
 20
840.9999999999998
  9
$UNITMODE
 70
     0
  9
$VISRETAIN
 70
     1
  9
$PLINEGEN
 70
     0
  9
$PSLTSCALE
 70
     1
  9
$TREEDEPTH
 70
  3020
  9
$CMLSTYLE
  2
Standard
  9
$CMLJUST
 70
     0
  9
$CMLSCALE
 40
1.0
  9
$PROXYGRAPHICS
 70
     1
  9
$MEASUREMENT
 70
     1
  9
$CELWEIGHT
370
    -1
  9
$ENDCAPS
280
     0
  9
$JOINSTYLE
280
     0
  9
$LWDISPLAY
290
     0
  9
$INSUNITS
 70
     4
  9
$HYPERLINKBASE
  1

  9
$STYLESHEET
  1

  9
$XEDIT
290
     1
  9
$CEPSNTYPE
380
     0
  9
$PSTYLEMODE
290
     1
  9
$FINGERPRINTGUID
  2
{E696B6CC-7269-4EB6-855C-FC7C9FE36D1B}
  9
$VERSIONGUID
  2
{B4C78BAE-4D4D-4DE2-A6D1-16816E08DA4B}
  9
$EXTNAMES
290
     1
  9
$PSVPSCALE
 40
0.0
  9
$OLESTARTUP
290
     0
  0
ENDSEC
  0
SECTION
  2
CLASSES
  0
CLASS
  1
ACDBDICTIONARYWDFLT
  2
AcDbDictionaryWithDefault
  3
ObjectDBX Classes
 90
        0
280
     0
281
     0
  0
CLASS
  1
MATERIAL
  2
AcDbMaterial
  3
ObjectDBX Classes
 90
     1153
280
     0
281
     0
  0
CLASS
  1
VISUALSTYLE
  2
AcDbVisualStyle
  3
ObjectDBX Classes
 90
     4095
280
     0
281
     0
  0
CLASS
  1
SCALE
  2
AcDbScale
  3
ObjectDBX Classes
 90
     1153
280
     0
281
     0
  0
CLASS
  1
TABLESTYLE
  2
AcDbTableStyle
  3
ObjectDBX Classes
 90
     4095
280
     0
281
     0
  0
CLASS
  1
MLEADERSTYLE
  2
AcDbMLeaderStyle
  3
ACDB_MLEADERSTYLE_CLASS
 90
     4095
280
     0
281
     0
  0
CLASS
  1
SORTENTSTABLE
  2
AcDbSortentsTable
  3
ObjectDBX Classes
 90
        0
280
     0
281
     0
  0
CLASS
  1
CELLSTYLEMAP
  2
AcDbCellStyleMap
  3
ObjectDBX Classes
 90
     1152
280
     0
281
     0
  0
CLASS
  1
DICTIONARYVAR
  2
AcDbDictionaryVar
  3
ObjectDBX Classes
 90
        0
280
     0
281
     0
  0
CLASS
  1
ACME_DOCUMENT
  2
AcMeDbDoc
  3
AcMeServices
 90
     1024
280
     0
281
     0
  0
CLASS
  1
AMGSETTINGSOBJ
  2
AmgSettingsObj
  3
"AcadM|Product Description: AutoCAD Mechanical|Company: Autodesk, Inc."
 90
     1024
280
     0
281
     0
  0
CLASS
  1
ACMESCOPE
  2
AcMeScope
  3
AcMeServices
 90
     1024
280
     0
281
     0
  0
CLASS
  1
ACMECOMMANDHISTORY
  2
AcMeCommandHistory
  3
AcMeServices
 90
     1024
280
     0
281
     0
  0
CLASS
  1
ACIMSYSVARMAN
  2
AcImSysVarManager
  3
AcMeServices
 90
     1024
280
     0
281
     0
  0
CLASS
  1
ACIMINTSYSVAR
  2
AcImIntSysVar
  3
AcMeServices
 90
     1024
280
     0
281
     0
  0
CLASS
  1
ACMEDRAWINGMAN
  2
AcMeDrawingMan
  3
AcMeServices
 90
    33792
280
     0
281
     0
  0
CLASS
  1
ACMEVIEW
  2
AcMeView
  3
AcMeServices
 90
    33792
280
     0
281
     0
  0
CLASS
  1
ACDBENTITYCACHE
  2
AcMeEntityCache
  3
AcMeServices
 90
     1024
280
     0
281
     0
  0
CLASS
  1
GSMANAGER
  2
AcMeGSManager
  3
AcMeServices
 90
    33792
280
     1
281
     0
  0
CLASS
  1
AMDTINTERNALREACTOR
  2
AmdtInternalReactor
  3
AcMeServices
 90
     1024
280
     0
281
     0
  0
CLASS
  1
ACMESTATEMGR
  2
AcMeStateMgr
  3
AcMeServices
 90
     1024
280
     0
281
     0
  0
CLASS
  1
ACGREFMASTER
  2
AcGrefMaster
  3
AcAttribServices
 90
     1024
280
     0
281
     0
  0
CLASS
  1
AM_DRAWING_MGR
  2
AcDmDwgMgr
  3
AcMechDwgViewMgmt
 90
     1024
280
     0
281
     0
  0
CLASS
  1
AM_DWG_DOCUMENT
  2
AcDmDwgDocument
  3
AcMechDwgViewMgmt
 90
     1024
280
     0
281
     0
  0
CLASS
  1
AM_DWG_SHEET
  2
AcDmSheet
  3
AcMechDwgViewMgmt
 90
     1024
280
     0
281
     0
  0
CLASS
  1
AM_VIEWDIMPARMAP
  2
AcDmViewDimParMap
  3
AcMechDwgViewMgmt
 90
     1024
280
     0
281
     0
  0
CLASS
  1
ACIMREALSYSVAR
  2
AcImRealSysVar
  3
AcMeServices
 90
     1024
280
     0
281
     0
  0
CLASS
  1
AM_DWGMGR_NAME
  2
AcDmDwgMgrName
  3
AcMechDwgViewMgmt
 90
     1024
280
     0
281
     0
  0
CLASS
  1
ACME_DATABASE
  2
AcMeDbDatabase
  3
AcMeServices
 90
     1024
280
     0
281
     0
  0
CLASS
  1
ACRFINSADJUSTERMGR
  2
AcRfInsAdjusterMgr
  3
AcMeServices
 90
     1024
280
     0
281
     0
  0
CLASS
  1
ACGREFACADMASTER
  2
AcGrefacadMaster
  3
AcGrefServices
 90
     1024
280
     0
281
     0
  0
CLASS
  1
AMDTMENUSTATEMGR
  2
AmdtMenuStateMgr
  3
McadcomServices
 90
     1024
280
     0
281
     0
  0
CLASS
  1
AMDTMCOMMENUSTATE
  2
AmdtMcomMenuState
  3
McadcomServices
 90
     1024
280
     0
281
     0
  0
CLASS
  1
AMIMASTER
  2
AmiMaster
  3
AmiServices
 90
     1024
280
     0
281
     0
  0
CLASS
  1
MAPIAMMOUDLE
  2
MApiAmModule
  3
MApiAmServices
 90
     1024
280
     0
281
     0
  0
CLASS
  1
ACIMSTRSYSVAR
  2
AcImStrSysVar
  3
AcMeServices
 90
     1024
280
     0
281
     0
  0
CLASS
  1
AMDTADMENUSTATE
  2
AmdtAdMenuState
  3
DesignerServices
 90
    33792
280
     1
281
     0
  0
CLASS
  1
ADAPPL
  2
AcAdAppl
  3
DesignerAssemblies
 90
    33792
280
     0
281
     0
  0
CLASS
  1
DEPMGR
  2
AcAdDepMgr
  3
DesignerAssemblies
 90
    33792
280
     0
281
     0
  0
CLASS
  1
PARAMMGR
  2
AcAdParamMgr
  3
DesignerAssemblies
 90
    33792
280
     0
281
     0
  0
CLASS
  1
PARAMSCOPE
  2
AcAdParamScope
  3
DesignerAssemblies
 90
    33792
280
     0
281
     0
  0
CLASS
  1
NAMEDAPPL
  2
AcAdNamedAppl
  3
DesignerAssemblies
 90
    33792
280
     0
281
     0
  0
CLASS
  1
AMDTDMMENUSTATE
  2
AmdtDmMenuState
  3
AcMechDwgViewMgmt
 90
     1024
280
     0
281
     0
  0
CLASS
  1
AMDTAMMENUSTATE
  2
AmdtAmMenuState
  3
DesignerAssemblies
 90
     1024
280
     0
281
     0
  0
CLASS
  1
ACAMPROJECT
  2
AcAmProject
  3
DesignerAssemblies
 90
     1024
280
     0
281
     0
  0
CLASS
  1
ACAMGRCOMPDEF
  2
AcAmGrCompDef
  3
DesignerAssemblies
 90
     1024
280
     0
281
     0
  0
CLASS
  1
ACCMCONTEXT
  2
AcCmContext
  3
DesignerAssemblies
 90
    33792
280
     0
281
     0
  0
CLASS
  1
ACAMCOMPDEF
  2
AcAmCompDef
  3
DesignerAssemblies
 90
     1024
280
     0
281
     0
  0
CLASS
  1
ACAMCOMPDEFMGR
  2
AcAmCompDefMgr
  3
DesignerAssemblies
 90
     1024
280
     0
281
     0
  0
CLASS
  1
AMCONTEXTMGR
  2
AcAmContextMgr
  3
DesignerAssemblies
 90
     1024
280
     0
281
     0
  0
CLASS
  1
ACAMCONTEXTMODELER
  2
AcAmContextModeler
  3
DesignerAssemblies
 90
     1024
280
     0
281
     0
  0
CLASS
  1
ACMDATADICTIONARY
  2
AcmDataDictionary
  3
"AcmSymBB|Product Description: AutoCAD Mechanical|Company: Autodesk, Inc."
 90
     1024
280
     0
281
     0
  0
CLASS
  1
CATALOGSTATE
  2
AcAmCatalogState
  3
DesignerAssemblies
 90
    33792
280
     0
281
     0
  0
CLASS
  1
ACAMGRCOMPDEFSET
  2
AcAmGrCompDefSet
  3
DesignerAssemblies
 90
     1024
280
     0
281
     0
  0
CLASS
  1
AMDTBROWSERDBTAB
  2
AmdtBrowserDbTab
  3
McadcomServices
 90
     1024
280
     0
281
     0
  0
CLASS
  1
CBROWSERAPPOBJECT
  2
CBrowserAppObject
  3
McadcomServices
 90
     1024
280
     0
281
     0
  0
CLASS
  1
DM_PLACEHOLDER
  2
AcDmSelsetPlaceholder
  3
AcMechDwgViewMgmt
 90
     1024
280
     0
281
     0
  0
CLASS
  1
EXACXREFPANELOBJECT
  2
ExAcXREFPanelObject
  3
EXAC_ESW
 90
     1025
280
     0
281
     0
  0
CLASS
  1
NPOCOLLECTION
  2
AcDbImpNonPersistentObjectsCollection
  3
ObjectDBX Classes
 90
     1153
280
     0
281
     0
  0
CLASS
  1
ACMSTANDARDANSI
  2
AcmStandardANSI
  3
"Amdt_StdImp|Product Description: AutoCAD Mechanical|Company: Autodesk, Inc."
 90
     1024
280
     0
281
     0
  0
CLASS
  1
ACMSURFSTANDARDANSI
  2
AcmSurfTextStdANSI
  3
"Amdt_StdImp|Product Description: AutoCAD Mechanical|Company: Autodesk, Inc."
 90
     1024
280
     0
281
     0
  0
CLASS
  1
ACMFCFSTANDARDANSI
  2
AcmFCFStdANSI
  3
"Amdt_StdImp|Product Description: AutoCAD Mechanical|Company: Autodesk, Inc."
 90
     1024
280
     0
281
     0
  0
CLASS
  1
ACMWELDSTANDARDANSI
  2
AcmWeldingStdANSI
  3
"Amdt_StdImp|Product Description: AutoCAD Mechanical|Company: Autodesk, Inc."
 90
     1024
280
     0
281
     0
  0
CLASS
  1
ACMIDSTANDARDANSI
  2
AcmIdStdANSI
  3
"Amdt_StdImp|Product Description: AutoCAD Mechanical|Company: Autodesk, Inc."
 90
     1024
280
     0
281
     0
  0
CLASS
  1
ACMDATUMSTANDARDANSI
  2
AcmDatumStdANSI
  3
"Amdt_StdImp|Product Description: AutoCAD Mechanical|Company: Autodesk, Inc."
 90
     1024
280
     0
281
     0
  0
CLASS
  1
ACMBOMSTANDARDANSI
  2
AcmBOMStdANSI
  3
"Amdt_StdImp|Product Description: AutoCAD Mechanical|Company: Autodesk, Inc."
 90
     1024
280
     0
281
     0
  0
CLASS
  1
ACMDETAILSTANDARDANSI
  2
AmdtDetailSymStdANSI
  3
"Amdt_StdImp|Product Description: AutoCAD Mechanical|Company: Autodesk, Inc."
 90
     1024
280
     0
281
     0
  0
CLASS
  1
ACMSECTIONSTANDARDANSI
  2
AmdtSectionSymStdANSI
  3
"Amdt_StdImp|Product Description: AutoCAD Mechanical|Company: Autodesk, Inc."
 90
     1024
280
     0
281
     0
  0
CLASS
  1
ACMCENTERLINESTANDARDANSI
  2
AmdtCenterLineStdANSI
  3
"Amdt_StdImp|Product Description: AutoCAD Mechanical|Company: Autodesk, Inc."
 90
     1024
280
     0
281
     0
  0
CLASS
  1
ACMTHREADLINESTANDARDANSI
  2
AmdtThreadLineStdANSI
  3
"Amdt_StdImp|Product Description: AutoCAD Mechanical|Company: Autodesk, Inc."
 90
     1024
280
     0
281
     0
  0
CLASS
  1
ACMNOTESTANDARDANSI
  2
AmdtNoteStdANSI
  3
"Amdt_StdImp|Product Description: AutoCAD Mechanical|Company: Autodesk, Inc."
 90
     1024
280
     0
281
     0
  0
CLASS
  1
ACMTAPERSTANDARDANSI
  2
AcmTaperStdANSI
  3
"Amdt_StdImp|Product Description: AutoCAD Mechanical|Company: Autodesk, Inc."
 90
     1024
280
     0
281
     0
  0
CLASS
  1
ACMANOOTATIONVIEWSTANDARDANSI
  2
AmdtAnViewStdANSI
  3
"Amdt_StdImp|Product Description: AutoCAD Mechanical|Company: Autodesk, Inc."
 90
     1024
280
     0
281
     0
  0
CLASS
  1
ACAMGLAYSTD
  2
AcAmgLayStd
  3
"AmgLay|Product Description: AutoCAD Mechanical|Company: Autodesk, Inc."
 90
     1024
280
     0
281
     0
  0
CLASS
  1
ACAMGDIMSTD
  2
AcAmgDimStd
  3
"AmgDim|Product Description: AutoCAD Mechanical|Company: Autodesk, Inc."
 90
     1024
280
     0
281
     0
  0
CLASS
  1
AMGOBJPROPCFG
  2
AmgObjPropCfg
  3
"AmgLay|Product Description: AutoCAD Mechanical|Company: Autodesk, Inc."
 90
     1025
280
     0
281
     0
  0
CLASS
  1
ACAMGHOLECHARTSTDANSI
  2
AcAmgHoleChartStdANSI
  3
AmgDim|Product Description: AutoCAD Mechanical|Company: Autodesk, Inc.
 90
     1024
280
     0
281
     0
  0
CLASS
  1
ACAMGTITLESTD
  2
AcAmgTitleStd
  3
"AmgTitle|Product Description: AutoCAD Mechanical|Company: Autodesk, Inc."
 90
     4095
280
     0
281
     0
  0
CLASS
  1
AMDTNOTETEMPLATEDB
  2
AmdtNoteTemplateDB
  3
AcmSymBB|Product Description: AutoCAD Mechanical|Company: Autodesk, Inc.
 90
     1024
280
     0
281
     0
  0
CLASS
  1
ACAMGFILTERDAT
  2
AcAmgFilterDat
  3
"AcadM|Product Description: AutoCAD Mechanical|Company: Autodesk, Inc."
 90
    33792
280
     0
281
     0
  0
CLASS
  1
CAMSSTRUCTBTNSTATE
  2
StructBtnState
  3
DesignerAssemblies
 90
    33792
280
     0
281
     0
  0
CLASS
  1
ACDBPLACEHOLDER
  2
AcDbPlaceHolder
  3
ObjectDBX Classes
 90
        0
280
     0
281
     0
  0
CLASS
  1
LAYOUT
  2
AcDbLayout
  3
ObjectDBX Classes
 90
        0
280
     0
281
     0
  0
ENDSEC
  0
SECTION
  2
TABLES
  0
TABLE
  2
VPORT
  5
28
102
{ACAD_XDICTIONARY
360
2C
102
}
330
0
100
AcDbSymbolTable
 70
     1
  0
VPORT
  5
29
330
28
100
AcDbSymbolTableRecord
100
AcDbViewportTableRecord
  2
*ACTIVE
 70
     0
 10
0.0
 20
0.0
 11
1.0
 21
1.0
 12
4.726175482648159
 22
-8.944349738122582
 13
0.0
 23
0.0
 14
1.0
 24
1.0
 15
0.0
 25
0.0
 16
0.0
 26
0.0
 36
1.0
 17
0.0
 27
0.0
 37
0.0
 40
53.73486698790263
 41
2.068965517241379
 42
50.0
 43
0.0
 44
0.0
 50
0.0
 51
0.0
 71
     0
 72
   100
 73
     1
 74
     1
 75
     0
 76
     0
 77
     0
 78
     0
281
     0
 65
     1
110
0.0
120
0.0
130
0.0
111
1.0
121
0.0
131
0.0
112
0.0
122
1.0
132
0.0
 79
     0
146
0.0
  0
ENDTAB
  0
TABLE
  2
LTYPE
  5
23
330
0
100
AcDbSymbolTable
 70
    12
  0
LTYPE
  5
24
330
23
100
AcDbSymbolTableRecord
100
AcDbLinetypeTableRecord
  2
ByBlock
 70
     0
  3

 72
    65
 73
     0
 40
0.0
  0
LTYPE
  5
25
330
23
100
AcDbSymbolTableRecord
100
AcDbLinetypeTableRecord
  2
ByLayer
 70
     0
  3

 72
    65
 73
     0
 40
0.0
  0
LTYPE
  5
13
330
23
100
AcDbSymbolTableRecord
100
AcDbLinetypeTableRecord
  2
CONTINUOUS
 70
     0
  3
Solid line
 72
    65
 73
     0
 40
0.0
  0
LTYPE
  5
1CE
330
23
100
AcDbSymbolTableRecord
100
AcDbLinetypeTableRecord
  2
HIDDEN
 70
     0
  3
Verdeckt
 72
    65
 73
     2
 40
0.375
 49
0.25
 74
     0
 49
-0.125
 74
     0
  0
LTYPE
  5
1D0
330
23
100
AcDbSymbolTableRecord
100
AcDbLinetypeTableRecord
  2
PHANTOM2
 70
     0
  3
Phantom (.5x) ___ _ _ ___ _ _ ___ _ _ ___ _ _
 72
    65
 73
     6
 40
1.25
 49
0.625
 74
     0
 49
-0.125
 74
     0
 49
0.125
 74
     0
 49
-0.125
 74
     0
 49
0.125
 74
     0
 49
-0.125
 74
     0
  0
LTYPE
  5
1CF
330
23
100
AcDbSymbolTableRecord
100
AcDbLinetypeTableRecord
  2
CENTER
 70
     0
  3
Mitte ____ _ ____ _ ____ _ ____ _ ____ _ ____
 72
    65
 73
     4
 40
2.0
 49
1.25
 74
     0
 49
-0.25
 74
     0
 49
0.25
 74
     0
 49
-0.25
 74
     0
  0
LTYPE
  5
1D1
330
23
100
AcDbSymbolTableRecord
100
AcDbLinetypeTableRecord
  2
Amconstr
 70
     0
  3
_______________________
 72
    65
 73
     2
 40
9999.0
 49
9999.0
 74
     0
 49
0.0
 74
     0
  0
LTYPE
  5
1D2
330
23
100
AcDbSymbolTableRecord
100
AcDbLinetypeTableRecord
  2
CENTER2
 70
     0
  3
Center (.5x) ___ _ ___ _ ___ _ ___ _ ___ _ ___
 72
    65
 73
     4
 40
1.125
 49
0.75
 74
     0
 49
-0.125
 74
     0
 49
0.125
 74
     0
 49
-0.125
 74
     0
  0
LTYPE
  5
1D3
330
23
100
AcDbSymbolTableRecord
100
AcDbLinetypeTableRecord
  2
HIDDEN2
 70
     0
  3
Hidden (.5x) _ _ _ _ _ _ _ _ _ _ _ _ _ _ _ _ _
 72
    65
 73
     2
 40
0.1875
 49
0.125
 74
     0
 49
-0.0625
 74
     0
  0
LTYPE
  5
1D4
330
23
100
AcDbSymbolTableRecord
100
AcDbLinetypeTableRecord
  2
Amzigzag2
 70
     0
  3
/\/-/\/-/\/-/\/-/\/-/\/
 72
    65
 73
     2
 40
0.4401
 49
0.0001
 74
     4
 75
   136
340
1D5
 46
0.0016
 50
0.0
 44
0.0
 45
0.0
 49
-0.4400000000000001
 74
     0
  0
LTYPE
  5
1E5
330
23
100
AcDbSymbolTableRecord
100
AcDbLinetypeTableRecord
  2
ACANSTGB
 70
     0
  3
__ . . __ . .
 72
    65
 73
     6
 40
0.35433070866
 49
0.15748031496
 74
     0
 49
-0.03937007874
 74
     0
 49
0.03937007874
 74
     0
 49
-0.03937007874
 74
     0
 49
0.03937007874
 74
     0
 49
-0.03937007874
 74
     0
  0
LTYPE
  5
1E6
330
23
100
AcDbSymbolTableRecord
100
AcDbLinetypeTableRecord
  2
ACANSTGL
 70
     0
  3
_ _ _ _ _
 72
    65
 73
     2
 40
0.11811023622
 49
0.07874015748
 74
     0
 49
-0.03937007874
 74
     0
  0
LTYPE
  5
80
330
23
100
AcDbSymbolTableRecord
100
AcDbLinetypeTableRecord
  2
DASHDOT
 70
     0
  3
Dash dot __ . __ . __ . __ . __ . __ . __ . __
 72
    65
 73
     4
 40
1.0
 49
0.5
 74
     0
 49
-0.25
 74
     0
 49
0.0
 74
     0
 49
-0.25
 74
     0
  0
LTYPE
  5
87
330
23
100
AcDbSymbolTableRecord
100
AcDbLinetypeTableRecord
  2
DASHED
 70
     0
  3
Dashed __ __ __ __ __ __ __ __ __ __ __ __ __ _
 72
    65
 73
     2
 40
0.75
 49
0.5
 74
     0
 49
-0.25
 74
     0
  0
ENDTAB
  0
TABLE
  2
LAYER
  5
1B
102
{ACAD_XDICTIONARY
360
1C
102
}
330
0
100
AcDbSymbolTable
 70
     8
  0
LAYER
  5
6
330
1B
100
AcDbSymbolTableRecord
100
AcDbLayerTableRecord
  2
0
 70
     0
 62
     7
  6
CONTINUOUS
370
    -3
390
7
  0
LAYER
  5
8A
330
1B
100
AcDbSymbolTableRecord
100
AcDbLayerTableRecord
  2
GEB-KONTUR-A
 70
     0
 62
     5
  6
CONTINUOUS
370
    -3
390
7
  0
LAYER
  5
7F
330
1B
100
AcDbSymbolTableRecord
100
AcDbLayerTableRecord
  2
GEB-SYMMETRIE
 70
     0
 62
     3
  6
DASHDOT
370
    -3
390
7
1001
AcAecLayerStandard
1000

1000

  0
LAYER
  5
86
330
1B
100
AcDbSymbolTableRecord
100
AcDbLayerTableRecord
  2
GEB-VERDECKT
 70
     0
 62
     2
  6
DASHED
370
    -3
390
7
1001
AcAecLayerStandard
1000

1000

  0
LAYER
  5
76
330
1B
100
AcDbSymbolTableRecord
100
AcDbLayerTableRecord
  2
Arbeitspunkt(DIN)
 70
     0
 62
     7
  6
CONTINUOUS
370
    25
390
7
  0
LAYER
  5
1CA
330
1B
100
AcDbSymbolTableRecord
100
AcDbLayerTableRecord
  2
GEB-ART-NR
 70
     0
 62
     1
  6
CONTINUOUS
370
    18
390
7
  0
LAYER
  5
72
330
1B
100
AcDbSymbolTableRecord
100
AcDbLayerTableRecord
  2
GEB-BEZUG
 70
     0
 62
     2
  6
CONTINUOUS
370
    25
390
7
  0
LAYER
  5
1C7
330
1B
100
AcDbSymbolTableRecord
100
AcDbLayerTableRecord
  2
GEB-TEXT
 70
     0
 62
     5
  6
CONTINUOUS
370
    18
390
7
  0
ENDTAB
  0
TABLE
  2
STYLE
  5
20
330
0
100
AcDbSymbolTable
 70
     3
  0
STYLE
  5
21
330
20
100
AcDbSymbolTableRecord
100
AcDbTextStyleTableRecord
  2
STANDARD
 70
     0
 40
0.0
 41
1.0
 50
0.0
 71
     0
 42
0.2
  3
arial.ttf
  4

1001
ACAD
1000
Arial
1071
       34
  0
STYLE
  5
1D5
330
20
100
AcDbSymbolTableRecord
100
AcDbTextStyleTableRecord
  2

 70
     1
 40
0.0
 41
1.0
 50
0.0
 71
     0
 42
0.2
  3
genltshp.shx
  4

  0
STYLE
  5
1E1
330
20
100
AcDbSymbolTableRecord
100
AcDbTextStyleTableRecord
  2
ACANSGDT
 70
     0
 40
0.0
 41
1.0
 50
0.0
 71
     0
 42
0.2
  3
amgdt.shx
  4

  0
ENDTAB
  0
TABLE
  2
VIEW
  5
26
330
0
100
AcDbSymbolTable
 70
     0
  0
ENDTAB
  0
TABLE
  2
UCS
  5
27
330
0
100
AcDbSymbolTable
 70
     0
  0
ENDTAB
  0
TABLE
  2
APPID
  5
2D
330
0
100
AcDbSymbolTable
 70
    14
  0
APPID
  5
1F
330
2D
100
AcDbSymbolTableRecord
100
AcDbRegAppTableRecord
  2
ACAD
 70
     0
  0
APPID
  5
81
330
2D
100
AcDbSymbolTableRecord
100
AcDbRegAppTableRecord
  2
AcAecLayerStandard
 70
     0
  0
APPID
  5
224
330
2D
100
AcDbSymbolTableRecord
100
AcDbRegAppTableRecord
  2
ACATTRIBSERVICES
 70
     0
  0
APPID
  5
24F
330
2D
100
AcDbSymbolTableRecord
100
AcDbRegAppTableRecord
  2
MCAD_NO_VIS
 70
     0
  0
APPID
  5
250
330
2D
100
AcDbSymbolTableRecord
100
AcDbRegAppTableRecord
  2
ACAD_TEMP_GRAPHIC
 70
     0
  0
APPID
  5
254
330
2D
100
AcDbSymbolTableRecord
100
AcDbRegAppTableRecord
  2
AD_DRAW
 70
     0
  0
APPID
  5
26D
330
2D
100
AcDbSymbolTableRecord
100
AcDbRegAppTableRecord
  2
DESIGNERASSEMBLIES
 70
     0
  0
APPID
  5
272
330
2D
100
AcDbSymbolTableRecord
100
AcDbRegAppTableRecord
  2
ACADM_DIM_EDIT
 70
     0
  0
APPID
  5
273
330
2D
100
AcDbSymbolTableRecord
100
AcDbRegAppTableRecord
  2
AMDT_DM_ADJ
 70
     0
  0
APPID
  5
293
330
2D
100
AcDbSymbolTableRecord
100
AcDbRegAppTableRecord
  2
ACAD_DSTYLE_DIMARC_LENGTH_SYMBOL
 70
     0
  0
APPID
  5
294
330
2D
100
AcDbSymbolTableRecord
100
AcDbRegAppTableRecord
  2
ACAD_DSTYLE_DIM_LINETYPE
 70
     0
  0
APPID
  5
295
330
2D
100
AcDbSymbolTableRecord
100
AcDbRegAppTableRecord
  2
ACAD_DSTYLE_DIM_EXT1_LINETYPE
 70
     0
  0
APPID
  5
296
330
2D
100
AcDbSymbolTableRecord
100
AcDbRegAppTableRecord
  2
ACAD_DSTYLE_DIM_EXT2_LINETYPE
 70
     0
  0
APPID
  5
2C3
330
2D
100
AcDbSymbolTableRecord
100
AcDbRegAppTableRecord
  2
ACAD_MLEADERVER
 70
     0
  0
ENDTAB
  0
TABLE
  2
DIMSTYLE
  5
2E
330
0
100
AcDbSymbolTable
 70
     7
100
AcDbDimStyleTable
 71
     1
340
2F
  0
DIMSTYLE
105
2F
330
2E
100
AcDbSymbolTableRecord
100
AcDbDimStyleTableRecord
  2
STANDARD
 70
     0
279
     2
340
21
  0
DIMSTYLE
105
1F7
102
{ACAD_REACTORS
330
1DE
102
}
330
2E
100
AcDbSymbolTableRecord
100
AcDbDimStyleTableRecord
  2
AM_ANSI
 70
     0
  4
mm
 41
0.12
 42
0.05
 43
0.5
 44
0.1
 47
0.1
 48
0.1
 78
     7
 79
     2
140
0.12
141
0.0
146
0.71
147
0.06
176
   256
177
   256
178
     2
274
     4
284
     7
340
21
371
    -1
372
    -1
1001
ACAD_DSTYLE_DIMARC_LENGTH_SYMBOL
1070
   379
1070
     1
1001
ACAD_DSTYLE_DIM_LINETYPE
1070
   380
1005
24
1001
ACAD_DSTYLE_DIM_EXT1_LINETYPE
1070
   381
1005
24
1001
ACAD_DSTYLE_DIM_EXT2_LINETYPE
1070
   382
1005
24
  0
DIMSTYLE
105
1F8
330
2E
100
AcDbSymbolTableRecord
100
AcDbDimStyleTableRecord
  2
AM_ANSI$3
 70
     0
  4
mm
 41
0.12
 42
0.05
 43
0.5
 44
0.1
 47
0.1
 48
0.1
 78
     7
 79
     2
140
0.12
141
0.0
146
0.71
147
0.06
176
   256
177
   256
178
     2
274
     4
284
     7
288
     1
289
     0
340
21
371
    -1
372
    -1
1001
ACAD_DSTYLE_DIMARC_LENGTH_SYMBOL
1070
   379
1070
     1
1001
ACAD_DSTYLE_DIM_LINETYPE
1070
   380
1005
24
1001
ACAD_DSTYLE_DIM_EXT1_LINETYPE
1070
   381
1005
24
1001
ACAD_DSTYLE_DIM_EXT2_LINETYPE
1070
   382
1005
24
  0
DIMSTYLE
105
1F9
330
2E
100
AcDbSymbolTableRecord
100
AcDbDimStyleTableRecord
  2
AM_ANSI$4
 70
     0
  4
mm
 41
0.12
 42
0.05
 43
0.5
 44
0.1
 47
0.1
 48
0.1
 78
     7
 79
     2
140
0.12
141
0.0
146
0.71
147
0.06
176
   256
177
   256
178
     2
274
     4
284
     7
288
     1
289
     0
340
21
371
    -1
372
    -1
1001
ACAD_DSTYLE_DIMARC_LENGTH_SYMBOL
1070
   379
1070
     1
1001
ACAD_DSTYLE_DIM_LINETYPE
1070
   380
1005
24
1001
ACAD_DSTYLE_DIM_EXT1_LINETYPE
1070
   381
1005
24
1001
ACAD_DSTYLE_DIM_EXT2_LINETYPE
1070
   382
1005
24
  0
DIMSTYLE
105
1FA
330
2E
100
AcDbSymbolTableRecord
100
AcDbDimStyleTableRecord
  2
AM_ANSI$7
 70
     0
  4
mm
 41
0.12
 42
0.05
 43
0.5
 44
0.1
 47
0.1
 48
0.1
 78
     7
 79
     2
140
0.12
141
0.0
146
0.71
147
0.06
176
   256
177
   256
178
     2
274
     4
284
     7
340
21
371
    -1
372
    -1
1001
ACAD_DSTYLE_DIMARC_LENGTH_SYMBOL
1070
   379
1070
     1
1001
ACAD_DSTYLE_DIM_LINETYPE
1070
   380
1005
24
1001
ACAD_DSTYLE_DIM_EXT1_LINETYPE
1070
   381
1005
24
1001
ACAD_DSTYLE_DIM_EXT2_LINETYPE
1070
   382
1005
24
  0
DIMSTYLE
105
1FB
330
2E
100
AcDbSymbolTableRecord
100
AcDbDimStyleTableRecord
  2
AM_ANSI$SF
 70
     0
  4
mm
 41
0.12
 42
0.05
 43
0.5
 44
0.1
 47
0.1
 48
0.1
 75
     1
 76
     1
 78
     7
 79
     2
140
0.12
141
0.0
146
0.71
147
0.06
176
   256
177
   256
178
     2
274
     4
284
     7
340
21
371
    -1
372
    -1
1001
ACAD_DSTYLE_DIMARC_LENGTH_SYMBOL
1070
   379
1070
     1
1001
ACAD_DSTYLE_DIM_LINETYPE
1070
   380
1005
24
1001
ACAD_DSTYLE_DIM_EXT1_LINETYPE
1070
   381
1005
24
1001
ACAD_DSTYLE_DIM_EXT2_LINETYPE
1070
   382
1005
24
  0
DIMSTYLE
105
1FC
330
2E
100
AcDbSymbolTableRecord
100
AcDbDimStyleTableRecord
  2
AM_ANSI$SH
 70
     0
  4
mm
 41
0.12
 42
0.05
 43
0.5
 44
0.1
 47
0.1
 48
0.1
 75
     1
 76
     1
 78
     7
 79
     2
140
0.12
141
0.0
146
0.71
147
0.06
173
     1
176
   256
177
   256
178
     2
274
     4
284
     7
340
21
343
1FD
371
    -1
372
    -1
1001
ACAD_DSTYLE_DIMARC_LENGTH_SYMBOL
1070
   379
1070
     1
1001
ACAD_DSTYLE_DIM_LINETYPE
1070
   380
1005
24
1001
ACAD_DSTYLE_DIM_EXT1_LINETYPE
1070
   381
1005
24
1001
ACAD_DSTYLE_DIM_EXT2_LINETYPE
1070
   382
1005
24
  0
ENDTAB
  0
TABLE
  2
BLOCK_RECORD
  5
1
330
0
100
AcDbSymbolTable
 70
     3
  0
BLOCK_RECORD
  5
2
102
{ACAD_XDICTIONARY
360
3
102
}
330
1
100
AcDbSymbolTableRecord
100
AcDbBlockTableRecord
  2
*Model_Space
340
15
  0
BLOCK_RECORD
  5
17
330
1
100
AcDbSymbolTableRecord
100
AcDbBlockTableRecord
  2
*Paper_Space
340
1A
  0
BLOCK_RECORD
  5
1FD
330
1
100
AcDbSymbolTableRecord
100
AcDbBlockTableRecord
  2
GENAXEH
340
0
  0
BLOCK_RECORD
  5
6F
330
1
100
AcDbSymbolTableRecord
100
AcDbBlockTableRecord
  2
Einfügepunkt
340
0
102
{BLKREFS
331
6E
102
}
  0
ENDTAB
  0
ENDSEC
  0
SECTION
  2
BLOCKS
  0
BLOCK
  5
5
330
2
100
AcDbEntity
  8
0
100
AcDbBlockBegin
  2
*Model_Space
 70
     0
 10
0.0
 20
0.0
 30
0.0
  3
*Model_Space
  1

  0
ENDBLK
  5
14
330
2
100
AcDbEntity
  8
0
100
AcDbBlockEnd
  0
BLOCK
  5
18
330
17
100
AcDbEntity
 67
     1
  8
0
100
AcDbBlockBegin
  2
*Paper_Space
 70
     0
 10
0.0
 20
0.0
 30
0.0
  3
*Paper_Space
  1

  0
ENDBLK
  5
19
330
17
100
AcDbEntity
 67
     1
  8
0
100
AcDbBlockEnd
  0
BLOCK
  5
1FE
330
1FD
100
AcDbEntity
  8
0
100
AcDbBlockBegin
  2
GENAXEH
 70
     0
 10
0.0
 20
0.0
 30
0.0
  3
GENAXEH
  1

  0
LINE
  5
1FF
330
1FD
100
AcDbEntity
  8
0
100
AcDbLine
 10
-1.0
 20
0.0
 30
0.0
 11
1.0
 21
0.0
 31
0.0
  0
ENDBLK
  5
200
330
1FD
100
AcDbEntity
  8
0
100
AcDbBlockEnd
  0
BLOCK
  5
70
330
6F
100
AcDbEntity
  8
0
100
AcDbBlockBegin
  2
Einfügepunkt
 70
     0
 10
0.0
 20
0.0
 30
0.0
  3
Einfügepunkt
  1

  0
LINE
  5
71
330
6F
100
AcDbEntity
  8
GEB-BEZUG
100
AcDbLine
 10
-0.7071067811865817
 20
-0.7071067811865106
 30
0.0
 11
0.7071067811864751
 21
0.7071067811865817
 31
0.0
  0
LINE
  5
73
330
6F
100
AcDbEntity
  8
GEB-BEZUG
100
AcDbLine
 10
-0.7071067811865106
 20
0.7071067811865817
 30
0.0
 11
0.7071067811865462
 21
-0.7071067811865106
 31
0.0
  0
ENDBLK
  5
74
330
6F
100
AcDbEntity
  8
0
100
AcDbBlockEnd
  0
ENDSEC
  0
SECTION
  2
ENTITIES
  0
INSERT
  5
6E
330
2
100
AcDbEntity
  8
0
 48
25.0
100
AcDbBlockReference
  2
Einfügepunkt
 10
0.0
 20
0.0
 30
0.0
  0
LINE
  5
75
330
2
100
AcDbEntity
  8
Arbeitspunkt(DIN)
 48
25.0
100
AcDbLine
 10
-0.0000000000000568
 20
0.0
 30
0.0
 11
-0.0000000000000568
 21
-2.5
 31
0.0
  0
LINE
  5
77
330
2
100
AcDbEntity
  8
Arbeitspunkt(DIN)
 48
25.0
100
AcDbLine
 10
-0.0000000000000568
 20
0.0
 30
0.0
 11
-0.0000000000000568
 21
2.5
 31
0.0
  0
LINE
  5
78
330
2
100
AcDbEntity
  8
Arbeitspunkt(DIN)
 48
25.0
100
AcDbLine
 10
-0.0000000000000568
 20
0.0
 30
0.0
 11
-2.500000000000056
 21
0.0
 31
0.0
  0
LINE
  5
79
330
2
100
AcDbEntity
  8
Arbeitspunkt(DIN)
 48
25.0
100
AcDbLine
 10
-0.0000000000000568
 20
0.0
 30
0.0
 11
2.499999999999943
 21
0.0
 31
0.0
  0
LINE
  5
7A
330
2
100
AcDbEntity
  8
Arbeitspunkt(DIN)
 48
25.0
100
AcDbLine
 10
-0.0000000000000568
 20
0.0
 30
0.0
 11
-0.0000000000000568
 21
-2.5
 31
0.0
  0
LINE
  5
7B
330
2
100
AcDbEntity
  8
Arbeitspunkt(DIN)
 48
25.0
100
AcDbLine
 10
-0.0000000000000568
 20
0.0
 30
0.0
 11
-0.0000000000000568
 21
2.5
 31
0.0
  0
LINE
  5
7C
330
2
100
AcDbEntity
  8
Arbeitspunkt(DIN)
 48
25.0
100
AcDbLine
 10
-0.0000000000000568
 20
0.0
 30
0.0
 11
-2.500000000000056
 21
0.0
 31
0.0
  0
LINE
  5
7D
330
2
100
AcDbEntity
  8
Arbeitspunkt(DIN)
 48
25.0
100
AcDbLine
 10
-0.0000000000000568
 20
0.0
 30
0.0
 11
2.499999999999943
 21
0.0
 31
0.0
  0
LINE
  5
7E
330
2
100
AcDbEntity
  8
GEB-SYMMETRIE
 48
25.0
100
AcDbLine
 10
25.89999999999992
 20
-0.0000000000095213
 30
0.0
 11
25.89999999999992
 21
-14.50000000000952
 31
0.0
  0
LINE
  5
82
330
2
100
AcDbEntity
  8
GEB-SYMMETRIE
 48
25.0
100
AcDbLine
 10
25.89999999999992
 20
-0.0000000000095213
 30
0.0
 11
25.89999999999992
 21
14.49999999999048
 31
0.0
  0
LINE
  5
83
330
2
100
AcDbEntity
  8
GEB-SYMMETRIE
 48
25.0
100
AcDbLine
 10
25.89999999999992
 20
-0.0000000000095213
 30
0.0
 11
11.39999999999997
 21
-0.0000000000095213
 31
0.0
  0
LINE
  5
84
330
2
100
AcDbEntity
  8
GEB-SYMMETRIE
 48
25.0
100
AcDbLine
 10
25.89999999999992
 20
-0.0000000000095213
 30
0.0
 11
40.39999999999998
 21
-0.0000000000095213
 31
0.0
  0
LINE
  5
85
330
2
100
AcDbEntity
  8
GEB-VERDECKT
 48
25.0
100
AcDbLine
 10
-6.39999999999992
 20
-12.05849999999967
 30
0.0
 11
4.087356961604541
 21
-12.05849999999967
 31
0.0
  0
LINE
  5
88
330
2
100
AcDbEntity
  8
GEB-VERDECKT
 48
25.0
100
AcDbLine
 10
-6.39999999999992
 20
12.0584999999995
 30
0.0
 11
4.087356961604484
 21
12.0584999999995
 31
0.0
  0
POLYLINE
  5
89
330
2
100
AcDbEntity
  8
GEB-KONTUR-A
 48
25.0
100
AcDb2dPolyline
 66
     1
 10
0.0
 20
0.0
 30
0.0
 70
   128
  0
VERTEX
  5
8B
330
89
100
AcDbEntity
  8
GEB-KONTUR-A
 48
25.0
100
AcDbVertex
100
AcDb2dVertex
 10
-8.560254031419731
 20
-14.9999999999969
 30
0.0
  0
VERTEX
  5
8C
330
89
100
AcDbEntity
  8
GEB-KONTUR-A
 48
25.0
100
AcDbVertex
100
AcDb2dVertex
 10
-8.673291856050468
 20
-14.65486168861076
 30
0.0
  0
VERTEX
  5
8D
330
89
100
AcDbEntity
  8
GEB-KONTUR-A
 48
25.0
100
AcDbVertex
100
AcDb2dVertex
 10
-8.780731463432289
 20
-14.3145346641509
 30
0.0
  0
VERTEX
  5
8E
330
89
100
AcDbEntity
  8
GEB-KONTUR-A
 48
25.0
100
AcDbVertex
100
AcDb2dVertex
 10
-8.882703238725639
 20
-13.97871375083599
 30
0.0
  0
VERTEX
  5
8F
330
89
100
AcDbEntity
  8
GEB-KONTUR-A
 48
25.0
100
AcDbVertex
100
AcDb2dVertex
 10
-8.979327508807159
 20
-13.64710092544229
 30
0.0
  0
VERTEX
  5
90
330
89
100
AcDbEntity
  8
GEB-KONTUR-A
 48
25.0
100
AcDbVertex
100
AcDb2dVertex
 10
-9.070715361833549
 20
-13.31940889358191
 30
0.0
  0
VERTEX
  5
91
330
89
100
AcDbEntity
  8
GEB-KONTUR-A
 48
25.0
100
AcDbVertex
100
AcDb2dVertex
 10
-9.156968498229957
 20
-12.99536228179599
 30
0.0
  0
VERTEX
  5
92
330
89
100
AcDbEntity
  8
GEB-KONTUR-A
 48
25.0
100
AcDbVertex
100
AcDb2dVertex
 10
-9.238180199265457
 20
-12.67468690871851
 30
0.0
  0
VERTEX
  5
93
330
89
100
AcDbEntity
  8
GEB-KONTUR-A
 48
25.0
100
AcDbVertex
100
AcDb2dVertex
 10
-9.314435140788532
 20
-12.35712170600547
 30
0.0
  0
VERTEX
  5
94
330
89
100
AcDbEntity
  8
GEB-KONTUR-A
 48
25.0
100
AcDbVertex
100
AcDb2dVertex
 10
-9.385809877514816
 20
-12.04240679740556
 30
0.0
  0
VERTEX
  5
95
330
89
100
AcDbEntity
  8
GEB-KONTUR-A
 48
25.0
100
AcDbVertex
100
AcDb2dVertex
 10
-9.45237306654451
 20
-11.73029184341078
 30
0.0
  0
VERTEX
  5
96
330
89
100
AcDbEntity
  8
GEB-KONTUR-A
 48
25.0
100
AcDbVertex
100
AcDb2dVertex
 10
-9.514185728132702
 20
-11.42052769660594
 30
0.0
  0
VERTEX
  5
97
330
89
100
AcDbEntity
  8
GEB-KONTUR-A
 48
25.0
100
AcDbVertex
100
AcDb2dVertex
 10
-9.571301357448078
 20
-11.11287355422615
 30
0.0
  0
VERTEX
  5
98
330
89
100
AcDbEntity
  8
GEB-KONTUR-A
 48
25.0
100
AcDbVertex
100
AcDb2dVertex
 10
-9.623766110837436
 20
-10.80708861350652
 30
0.0
  0
VERTEX
  5
99
330
89
100
AcDbEntity
  8
GEB-KONTUR-A
 48
25.0
100
AcDbVertex
100
AcDb2dVertex
 10
-9.671618917584396
 20
-10.50293684005368
 30
0.0
  0
VERTEX
  5
9A
330
89
100
AcDbEntity
  8
GEB-KONTUR-A
 48
25.0
100
AcDbVertex
100
AcDb2dVertex
 10
-9.714891554415203
 20
-10.20018219947442
 30
0.0
  0
VERTEX
  5
9B
330
89
100
AcDbEntity
  8
GEB-KONTUR-A
 48
25.0
100
AcDbVertex
100
AcDb2dVertex
 10
-9.753608785197116
 20
-9.898593425746952
 30
0.0
  0
VERTEX
  5
9C
330
89
100
AcDbEntity
  8
GEB-KONTUR-A
 48
25.0
100
AcDbVertex
100
AcDb2dVertex
 10
-9.787788342311955
 20
-9.597938656803137
 30
0.0
  0
VERTEX
  5
9D
330
89
100
AcDbEntity
  8
GEB-KONTUR-A
 48
25.0
100
AcDbVertex
100
AcDb2dVertex
 10
-9.817440945282555
 20
-9.297986626621224
 30
0.0
  0
VERTEX
  5
9E
330
89
100
AcDbEntity
  8
GEB-KONTUR-A
 48
25.0
100
AcDbVertex
100
AcDb2dVertex
 10
-9.842570314742602
 20
-8.998506665225932
 30
0.0
  0
VERTEX
  5
9F
330
89
100
AcDbEntity
  8
GEB-KONTUR-A
 48
25.0
100
AcDbVertex
100
AcDb2dVertex
 10
-9.863173100259132
 20
-8.699265718456189
 30
0.0
  0
VERTEX
  5
A0
330
89
100
AcDbEntity
  8
GEB-KONTUR-A
 48
25.0
100
AcDbVertex
100
AcDb2dVertex
 10
-9.879238840751327
 20
-8.400031328197314
 30
0.0
  0
VERTEX
  5
A1
330
89
100
AcDbEntity
  8
GEB-KONTUR-A
 48
25.0
100
AcDbVertex
100
AcDb2dVertex
 10
-9.890749846911035
 20
-8.100567460056112
 30
0.0
  0
VERTEX
  5
A2
330
89
100
AcDbEntity
  8
GEB-KONTUR-A
 48
25.0
100
AcDbVertex
100
AcDb2dVertex
 10
-9.897681081003952
 20
-7.800637483592737
 30
0.0
  0
VERTEX
  5
A3
330
89
100
AcDbEntity
  8
GEB-KONTUR-A
 48
25.0
100
AcDbVertex
100
AcDb2dVertex
 10
-9.899999999999977
 20
-7.499999999995907
 30
0.0
  0
SEQEND
  5
A4
330
89
100
AcDbEntity
  8
GEB-KONTUR-A
 48
25.0
  0
POLYLINE
  5
A5
330
2
100
AcDbEntity
  8
GEB-KONTUR-A
 48
25.0
100
AcDb2dPolyline
 66
     1
 10
0.0
 20
0.0
 30
0.0
 70
   128
  0
VERTEX
  5
A6
330
A5
100
AcDbEntity
  8
GEB-KONTUR-A
 48
25.0
100
AcDbVertex
100
AcDb2dVertex
 10
-9.899999999999977
 20
-7.499999999995907
 30
0.0
  0
VERTEX
  5
A7
330
A5
100
AcDbEntity
  8
GEB-KONTUR-A
 48
25.0
100
AcDbVertex
100
AcDb2dVertex
 10
-9.897681081003952
 20
-7.199362516399077
 30
0.0
  0
VERTEX
  5
A8
330
A5
100
AcDbEntity
  8
GEB-KONTUR-A
 48
25.0
100
AcDbVertex
100
AcDb2dVertex
 10
-9.890749846911035
 20
-6.89943253993573
 30
0.0
  0
VERTEX
  5
A9
330
A5
100
AcDbEntity
  8
GEB-KONTUR-A
 48
25.0
100
AcDbVertex
100
AcDb2dVertex
 10
-9.879238840751327
 20
-6.599968671794528
 30
0.0
  0
VERTEX
  5
AA
330
A5
100
AcDbEntity
  8
GEB-KONTUR-A
 48
25.0
100
AcDbVertex
100
AcDb2dVertex
 10
-9.863173100259132
 20
-6.300734281535682
 30
0.0
  0
VERTEX
  5
AB
330
A5
100
AcDbEntity
  8
GEB-KONTUR-A
 48
25.0
100
AcDbVertex
100
AcDb2dVertex
 10
-9.842570314742602
 20
-6.00149333476591
 30
0.0
  0
VERTEX
  5
AC
330
A5
100
AcDbEntity
  8
GEB-KONTUR-A
 48
25.0
100
AcDbVertex
100
AcDb2dVertex
 10
-9.817440945282555
 20
-5.70201337337059
 30
0.0
  0
VERTEX
  5
AD
330
A5
100
AcDbEntity
  8
GEB-KONTUR-A
 48
25.0
100
AcDbVertex
100
AcDb2dVertex
 10
-9.787788342311955
 20
-5.402061343188677
 30
0.0
  0
VERTEX
  5
AE
330
A5
100
AcDbEntity
  8
GEB-KONTUR-A
 48
25.0
100
AcDbVertex
100
AcDb2dVertex
 10
-9.753608785197116
 20
-5.101406574244862
 30
0.0
  0
VERTEX
  5
AF
330
A5
100
AcDbEntity
  8
GEB-KONTUR-A
 48
25.0
100
AcDbVertex
100
AcDb2dVertex
 10
-9.714891554415203
 20
-4.799817800517416
 30
0.0
  0
VERTEX
  5
B0
330
A5
100
AcDbEntity
  8
GEB-KONTUR-A
 48
25.0
100
AcDbVertex
100
AcDb2dVertex
 10
-9.671618917584396
 20
-4.497063457961388
 30
0.0
  0
VERTEX
  5
B1
330
A5
100
AcDbEntity
  8
GEB-KONTUR-A
 48
25.0
100
AcDbVertex
100
AcDb2dVertex
 10
-9.623766110837436
 20
-4.192911088462125
 30
0.0
  0
VERTEX
  5
B2
330
A5
100
AcDbEntity
  8
GEB-KONTUR-A
 48
25.0
100
AcDbVertex
100
AcDb2dVertex
 10
-9.571301357448078
 20
-3.887126147742463
 30
0.0
  0
VERTEX
  5
B3
330
A5
100
AcDbEntity
  8
GEB-KONTUR-A
 48
25.0
100
AcDbVertex
100
AcDb2dVertex
 10
-9.514185728132702
 20
-3.579471707339422
 30
0.0
  0
VERTEX
  5
B4
330
A5
100
AcDbEntity
  8
GEB-KONTUR-A
 48
25.0
100
AcDbVertex
100
AcDb2dVertex
 10
-9.45237306654451
 20
-3.269708454604256
 30
0.0
  0
VERTEX
  5
B5
330
A5
100
AcDbEntity
  8
GEB-KONTUR-A
 48
25.0
100
AcDbVertex
100
AcDb2dVertex
 10
-9.385809877514816
 20
-2.957593202586252
 30
0.0
  0
VERTEX
  5
B6
330
A5
100
AcDbEntity
  8
GEB-KONTUR-A
 48
25.0
100
AcDbVertex
100
AcDb2dVertex
 10
-9.314435140788532
 20
-2.642878890032818
 30
0.0
  0
VERTEX
  5
B7
330
A5
100
AcDbEntity
  8
GEB-KONTUR-A
 48
25.0
100
AcDbVertex
100
AcDb2dVertex
 10
-9.238180199265457
 20
-2.325312942261717
 30
0.0
  0
VERTEX
  5
B8
330
A5
100
AcDbEntity
  8
GEB-KONTUR-A
 48
25.0
100
AcDbVertex
100
AcDb2dVertex
 10
-9.156968498229957
 20
-2.004638165230687
 30
0.0
  0
VERTEX
  5
B9
330
A5
100
AcDbEntity
  8
GEB-KONTUR-A
 48
25.0
100
AcDbVertex
100
AcDb2dVertex
 10
-9.070715361833549
 20
-1.680590510363487
 30
0.0
  0
VERTEX
  5
BA
330
A5
100
AcDbEntity
  8
GEB-KONTUR-A
 48
25.0
100
AcDbVertex
100
AcDb2dVertex
 10
-8.979327508807159
 20
-1.352899521584362
 30
0.0
  0
VERTEX
  5
BB
330
A5
100
AcDbEntity
  8
GEB-KONTUR-A
 48
25.0
100
AcDbVertex
100
AcDb2dVertex
 10
-8.882703238725639
 20
-1.021286621684851
 30
0.0
  0
VERTEX
  5
BC
330
A5
100
AcDbEntity
  8
GEB-KONTUR-A
 48
25.0
100
AcDbVertex
100
AcDb2dVertex
 10
-8.780731463432289
 20
-0.6854649633119152
 30
0.0
  0
VERTEX
  5
BD
330
A5
100
AcDbEntity
  8
GEB-KONTUR-A
 48
25.0
100
AcDbVertex
100
AcDb2dVertex
 10
-8.673291856050525
 20
-0.3451382741281748
 30
0.0
  0
VERTEX
  5
BE
330
A5
100
AcDbEntity
  8
GEB-KONTUR-A
 48
25.0
100
AcDbVertex
100
AcDb2dVertex
 10
-8.560254031419788
 20
0.0000000000050875
 30
0.0
  0
SEQEND
  5
BF
330
A5
100
AcDbEntity
  8
GEB-KONTUR-A
 48
25.0
  0
POLYLINE
  5
C0
330
2
100
AcDbEntity
  8
GEB-KONTUR-A
 48
25.0
100
AcDb2dPolyline
 66
     1
 10
0.0
 20
0.0
 30
0.0
 70
   128
  0
VERTEX
  5
C1
330
C0
100
AcDbEntity
  8
GEB-KONTUR-A
 48
25.0
100
AcDbVertex
100
AcDb2dVertex
 10
4.760253524780182
 20
0.0000000000051159
 30
0.0
  0
VERTEX
  5
C2
330
C0
100
AcDbEntity
  8
GEB-KONTUR-A
 48
25.0
100
AcDbVertex
100
AcDb2dVertex
 10
4.873291349410919
 20
-0.3451382741281748
 30
0.0
  0
VERTEX
  5
C3
330
C0
100
AcDbEntity
  8
GEB-KONTUR-A
 48
25.0
100
AcDbVertex
100
AcDb2dVertex
 10
4.980731105804352
 20
-0.6854649633119152
 30
0.0
  0
VERTEX
  5
C4
330
C0
100
AcDbEntity
  8
GEB-KONTUR-A
 48
25.0
100
AcDbVertex
100
AcDb2dVertex
 10
5.08270273208609
 20
-1.021286621684851
 30
0.0
  0
VERTEX
  5
C5
330
C0
100
AcDbEntity
  8
GEB-KONTUR-A
 48
25.0
100
AcDbVertex
100
AcDb2dVertex
 10
5.179327821731476
 20
-1.352899521584362
 30
0.0
  0
VERTEX
  5
C6
330
C0
100
AcDbEntity
  8
GEB-KONTUR-A
 48
25.0
100
AcDbVertex
100
AcDb2dVertex
 10
5.270714855194
 20
-1.680590510363487
 30
0.0
  0
VERTEX
  5
C7
330
C0
100
AcDbEntity
  8
GEB-KONTUR-A
 48
25.0
100
AcDbVertex
100
AcDb2dVertex
 10
5.356968736648468
 20
-2.004638165230687
 30
0.0
  0
VERTEX
  5
C8
330
C0
100
AcDbEntity
  8
GEB-KONTUR-A
 48
25.0
100
AcDbVertex
100
AcDb2dVertex
 10
5.438180065154938
 20
-2.32531294226166
 30
0.0
  0
VERTEX
  5
C9
330
C0
100
AcDbEntity
  8
GEB-KONTUR-A
 48
25.0
100
AcDbVertex
100
AcDb2dVertex
 10
5.514434671401886
 20
-2.642878890032818
 30
0.0
  0
VERTEX
  5
CA
330
C0
100
AcDbEntity
  8
GEB-KONTUR-A
 48
25.0
100
AcDbVertex
100
AcDb2dVertex
 10
5.585810041427521
 20
-2.957593202586252
 30
0.0
  0
VERTEX
  5
CB
330
C0
100
AcDbEntity
  8
GEB-KONTUR-A
 48
25.0
100
AcDbVertex
100
AcDb2dVertex
 10
5.652372932433991
 20
-3.269708454604256
 30
0.0
  0
VERTEX
  5
CC
330
C0
100
AcDbEntity
  8
GEB-KONTUR-A
 48
25.0
100
AcDbVertex
100
AcDb2dVertex
 10
5.714185333251862
 20
-3.579471707339422
 30
0.0
  0
VERTEX
  5
CD
330
C0
100
AcDbEntity
  8
GEB-KONTUR-A
 48
25.0
100
AcDbVertex
100
AcDb2dVertex
 10
5.771300888061432
 20
-3.887126147742463
 30
0.0
  0
VERTEX
  5
CE
330
C0
100
AcDbEntity
  8
GEB-KONTUR-A
 48
25.0
100
AcDbVertex
100
AcDb2dVertex
 10
5.823766088485626
 20
-4.192911088462096
 30
0.0
  0
VERTEX
  5
CF
330
C0
100
AcDbEntity
  8
GEB-KONTUR-A
 48
25.0
100
AcDbVertex
100
AcDb2dVertex
 10
5.871619081497101
 20
-4.497063457961388
 30
0.0
  0
VERTEX
  5
D0
330
C0
100
AcDbEntity
  8
GEB-KONTUR-A
 48
25.0
100
AcDbVertex
100
AcDb2dVertex
 10
5.914892053604035
 20
-4.799817800517416
 30
0.0
  0
VERTEX
  5
D1
330
C0
100
AcDbEntity
  8
GEB-KONTUR-A
 48
25.0
100
AcDbVertex
100
AcDb2dVertex
 10
5.953608846664337
 20
-5.101406574244862
 30
0.0
  0
VERTEX
  5
D2
330
C0
100
AcDbEntity
  8
GEB-KONTUR-A
 48
25.0
100
AcDbVertex
100
AcDb2dVertex
 10
5.987788534164337
 20
-5.402061343188677
 30
0.0
  0
VERTEX
  5
D3
330
C0
100
AcDbEntity
  8
GEB-KONTUR-A
 48
25.0
100
AcDbVertex
100
AcDb2dVertex
 10
6.017440652847199
 20
-5.70201337337059
 30
0.0
  0
VERTEX
  5
D4
330
C0
100
AcDbEntity
  8
GEB-KONTUR-A
 48
25.0
100
AcDbVertex
100
AcDb2dVertex
 10
6.042569971084503
 20
-6.00149333476591
 30
0.0
  0
VERTEX
  5
D5
330
C0
100
AcDbEntity
  8
GEB-KONTUR-A
 48
25.0
100
AcDbVertex
100
AcDb2dVertex
 10
6.063172912597565
 20
-6.300734281535653
 30
0.0
  0
VERTEX
  5
D6
330
C0
100
AcDbEntity
  8
GEB-KONTUR-A
 48
25.0
100
AcDbVertex
100
AcDb2dVertex
 10
6.079238748550324
 20
-6.599968671794528
 30
0.0
  0
VERTEX
  5
D7
330
C0
100
AcDbEntity
  8
GEB-KONTUR-A
 48
25.0
100
AcDbVertex
100
AcDb2dVertex
 10
6.090749597549347
 20
-6.89943253993573
 30
0.0
  0
VERTEX
  5
D8
330
C0
100
AcDbEntity
  8
GEB-KONTUR-A
 48
25.0
100
AcDbVertex
100
AcDb2dVertex
 10
6.097681617736725
 20
-7.199362516399077
 30
0.0
  0
VERTEX
  5
D9
330
C0
100
AcDbEntity
  8
GEB-KONTUR-A
 48
25.0
100
AcDbVertex
100
AcDb2dVertex
 10
6.100000238418488
 20
-7.499999999995907
 30
0.0
  0
SEQEND
  5
DA
330
C0
100
AcDbEntity
  8
GEB-KONTUR-A
 48
25.0
  0
POLYLINE
  5
DB
330
2
100
AcDbEntity
  8
GEB-KONTUR-A
 48
25.0
100
AcDb2dPolyline
 66
     1
 10
0.0
 20
0.0
 30
0.0
 70
   128
  0
VERTEX
  5
DC
330
DB
100
AcDbEntity
  8
GEB-KONTUR-A
 48
25.0
100
AcDbVertex
100
AcDb2dVertex
 10
6.100000238418488
 20
-7.499999999995907
 30
0.0
  0
VERTEX
  5
DD
330
DB
100
AcDbEntity
  8
GEB-KONTUR-A
 48
25.0
100
AcDbVertex
100
AcDb2dVertex
 10
6.097681617736725
 20
-7.800637483592737
 30
0.0
  0
VERTEX
  5
DE
330
DB
100
AcDbEntity
  8
GEB-KONTUR-A
 48
25.0
100
AcDbVertex
100
AcDb2dVertex
 10
6.090749597549347
 20
-8.100567460056112
 30
0.0
  0
VERTEX
  5
DF
330
DB
100
AcDbEntity
  8
GEB-KONTUR-A
 48
25.0
100
AcDbVertex
100
AcDb2dVertex
 10
6.079238748550324
 20
-8.400031328197314
 30
0.0
  0
VERTEX
  5
E0
330
DB
100
AcDbEntity
  8
GEB-KONTUR-A
 48
25.0
100
AcDbVertex
100
AcDb2dVertex
 10
6.063172912597565
 20
-8.699265718456132
 30
0.0
  0
VERTEX
  5
E1
330
DB
100
AcDbEntity
  8
GEB-KONTUR-A
 48
25.0
100
AcDbVertex
100
AcDb2dVertex
 10
6.042569971084503
 20
-8.998506665225903
 30
0.0
  0
VERTEX
  5
E2
330
DB
100
AcDbEntity
  8
GEB-KONTUR-A
 48
25.0
100
AcDbVertex
100
AcDb2dVertex
 10
6.017440652847199
 20
-9.297986626621224
 30
0.0
  0
VERTEX
  5
E3
330
DB
100
AcDbEntity
  8
GEB-KONTUR-A
 48
25.0
100
AcDbVertex
100
AcDb2dVertex
 10
5.987788534164337
 20
-9.597938656803137
 30
0.0
  0
VERTEX
  5
E4
330
DB
100
AcDbEntity
  8
GEB-KONTUR-A
 48
25.0
100
AcDbVertex
100
AcDb2dVertex
 10
5.953608846664337
 20
-9.898593425746952
 30
0.0
  0
VERTEX
  5
E5
330
DB
100
AcDbEntity
  8
GEB-KONTUR-A
 48
25.0
100
AcDbVertex
100
AcDb2dVertex
 10
5.914892053604035
 20
-10.20018219947442
 30
0.0
  0
VERTEX
  5
E6
330
DB
100
AcDbEntity
  8
GEB-KONTUR-A
 48
25.0
100
AcDbVertex
100
AcDb2dVertex
 10
5.871619081497101
 20
-10.50293684005368
 30
0.0
  0
VERTEX
  5
E7
330
DB
100
AcDbEntity
  8
GEB-KONTUR-A
 48
25.0
100
AcDbVertex
100
AcDb2dVertex
 10
5.823766088485626
 20
-10.80708861350646
 30
0.0
  0
VERTEX
  5
E8
330
DB
100
AcDbEntity
  8
GEB-KONTUR-A
 48
25.0
100
AcDbVertex
100
AcDb2dVertex
 10
5.771300888061432
 20
-11.11287355422613
 30
0.0
  0
VERTEX
  5
E9
330
DB
100
AcDbEntity
  8
GEB-KONTUR-A
 48
25.0
100
AcDbVertex
100
AcDb2dVertex
 10
5.714185333251862
 20
-11.42052769660594
 30
0.0
  0
VERTEX
  5
EA
330
DB
100
AcDbEntity
  8
GEB-KONTUR-A
 48
25.0
100
AcDbVertex
100
AcDb2dVertex
 10
5.652372932433991
 20
-11.73029184341078
 30
0.0
  0
VERTEX
  5
EB
330
DB
100
AcDbEntity
  8
GEB-KONTUR-A
 48
25.0
100
AcDbVertex
100
AcDb2dVertex
 10
5.585810041427521
 20
-12.04240679740556
 30
0.0
  0
VERTEX
  5
EC
330
DB
100
AcDbEntity
  8
GEB-KONTUR-A
 48
25.0
100
AcDbVertex
100
AcDb2dVertex
 10
5.514434671401943
 20
-12.35712170600547
 30
0.0
  0
VERTEX
  5
ED
330
DB
100
AcDbEntity
  8
GEB-KONTUR-A
 48
25.0
100
AcDbVertex
100
AcDb2dVertex
 10
5.438180065154995
 20
-12.67468690871851
 30
0.0
  0
VERTEX
  5
EE
330
DB
100
AcDbEntity
  8
GEB-KONTUR-A
 48
25.0
100
AcDbVertex
100
AcDb2dVertex
 10
5.356968736648525
 20
-12.99536228179599
 30
0.0
  0
VERTEX
  5
EF
330
DB
100
AcDbEntity
  8
GEB-KONTUR-A
 48
25.0
100
AcDbVertex
100
AcDb2dVertex
 10
5.270714855194057
 20
-13.31940889358191
 30
0.0
  0
VERTEX
  5
F0
330
DB
100
AcDbEntity
  8
GEB-KONTUR-A
 48
25.0
100
AcDbVertex
100
AcDb2dVertex
 10
5.179327821731533
 20
-13.64710092544229
 30
0.0
  0
VERTEX
  5
F1
330
DB
100
AcDbEntity
  8
GEB-KONTUR-A
 48
25.0
100
AcDbVertex
100
AcDb2dVertex
 10
5.082702732086147
 20
-13.97871375083599
 30
0.0
  0
VERTEX
  5
F2
330
DB
100
AcDbEntity
  8
GEB-KONTUR-A
 48
25.0
100
AcDbVertex
100
AcDb2dVertex
 10
4.980731105804409
 20
-14.31453466415084
 30
0.0
  0
VERTEX
  5
F3
330
DB
100
AcDbEntity
  8
GEB-KONTUR-A
 48
25.0
100
AcDbVertex
100
AcDb2dVertex
 10
4.873291349410976
 20
-14.65486168861076
 30
0.0
  0
VERTEX
  5
F4
330
DB
100
AcDbEntity
  8
GEB-KONTUR-A
 48
25.0
100
AcDbVertex
100
AcDb2dVertex
 10
4.760253524780239
 20
-14.9999999999969
 30
0.0
  0
SEQEND
  5
F5
330
DB
100
AcDbEntity
  8
GEB-KONTUR-A
 48
25.0
  0
LINE
  5
F6
330
2
100
AcDbEntity
  8
GEB-KONTUR-A
 48
25.0
100
AcDbLine
 10
-9.89999999999992
 20
-14.99999999999946
 30
0.0
 11
-8.560254031419731
 21
-14.9999999999969
 31
0.0
  0
LINE
  5
F7
330
2
100
AcDbEntity
  8
GEB-KONTUR-A
 48
25.0
100
AcDbLine
 10
-8.560254037844345
 20
-14.9999999999969
 30
0.0
 11
4.760254037844333
 21
-14.9999999999969
 31
0.0
  0
LINE
  5
F8
330
2
100
AcDbEntity
  8
GEB-KONTUR-A
 48
25.0
100
AcDbLine
 10
4.760253524780239
 20
-14.9999999999969
 30
0.0
 11
6.100000238418601
 21
-14.99999999999946
 31
0.0
  0
LINE
  5
F9
330
2
100
AcDbEntity
  8
GEB-KONTUR-A
 48
25.0
100
AcDbLine
 10
6.100000238418544
 20
14.99999999999946
 30
0.0
 11
4.760253524780182
 21
15.00000000000202
 31
0.0
  0
LINE
  5
FA
330
2
100
AcDbEntity
  8
GEB-KONTUR-A
 48
25.0
100
AcDbLine
 10
-8.560254031419731
 20
15.00000000000199
 30
0.0
 11
-9.89999999999992
 21
14.99999999999946
 31
0.0
  0
LINE
  5
FB
330
2
100
AcDbEntity
  8
GEB-KONTUR-A
 48
25.0
100
AcDbLine
 10
-8.560254037844401
 20
0.0000000000050875
 30
0.0
 11
4.760254037844276
 21
0.0000000000050875
 31
0.0
  0
POLYLINE
  5
FC
330
2
100
AcDbEntity
  8
GEB-KONTUR-A
 48
25.0
100
AcDb2dPolyline
 66
     1
 10
0.0
 20
0.0
 30
0.0
 70
   128
  0
VERTEX
  5
FD
330
FC
100
AcDbEntity
  8
GEB-KONTUR-A
 48
25.0
100
AcDbVertex
100
AcDb2dVertex
 10
-8.560254031419788
 20
0.0000000000051159
 30
0.0
  0
VERTEX
  5
FE
330
FC
100
AcDbEntity
  8
GEB-KONTUR-A
 48
25.0
100
AcDbVertex
100
AcDb2dVertex
 10
-8.673291856050525
 20
0.3451382741382076
 30
0.0
  0
VERTEX
  5
FF
330
FC
100
AcDbEntity
  8
GEB-KONTUR-A
 48
25.0
100
AcDbVertex
100
AcDb2dVertex
 10
-8.780731463432346
 20
0.6854649633218628
 30
0.0
  0
VERTEX
  5
100
330
FC
100
AcDbEntity
  8
GEB-KONTUR-A
 48
25.0
100
AcDbVertex
100
AcDb2dVertex
 10
-8.882703238725696
 20
1.021286621694656
 30
0.0
  0
VERTEX
  5
101
330
FC
100
AcDbEntity
  8
GEB-KONTUR-A
 48
25.0
100
AcDbVertex
100
AcDb2dVertex
 10
-8.979327508807159
 20
1.352899521594082
 30
0.0
  0
VERTEX
  5
102
330
FC
100
AcDbEntity
  8
GEB-KONTUR-A
 48
25.0
100
AcDbVertex
100
AcDb2dVertex
 10
-9.070715361833549
 20
1.680590510373065
 30
0.0
  0
VERTEX
  5
103
330
FC
100
AcDbEntity
  8
GEB-KONTUR-A
 48
25.0
100
AcDbVertex
100
AcDb2dVertex
 10
-9.156968498229957
 20
2.004638165240208
 30
0.0
  0
VERTEX
  5
104
330
FC
100
AcDbEntity
  8
GEB-KONTUR-A
 48
25.0
100
AcDbVertex
100
AcDb2dVertex
 10
-9.238180199265457
 20
2.325312942271096
 30
0.0
  0
VERTEX
  5
105
330
FC
100
AcDbEntity
  8
GEB-KONTUR-A
 48
25.0
100
AcDbVertex
100
AcDb2dVertex
 10
-9.314435140788532
 20
2.642878890042084
 30
0.0
  0
VERTEX
  5
106
330
FC
100
AcDbEntity
  8
GEB-KONTUR-A
 48
25.0
100
AcDbVertex
100
AcDb2dVertex
 10
-9.385809877514816
 20
2.957593202595404
 30
0.0
  0
VERTEX
  5
107
330
FC
100
AcDbEntity
  8
GEB-KONTUR-A
 48
25.0
100
AcDbVertex
100
AcDb2dVertex
 10
-9.45237306654451
 20
3.269708454613322
 30
0.0
  0
VERTEX
  5
108
330
FC
100
AcDbEntity
  8
GEB-KONTUR-A
 48
25.0
100
AcDbVertex
100
AcDb2dVertex
 10
-9.514185728132702
 20
3.579471707348403
 30
0.0
  0
VERTEX
  5
109
330
FC
100
AcDbEntity
  8
GEB-KONTUR-A
 48
25.0
100
AcDbVertex
100
AcDb2dVertex
 10
-9.571301357448078
 20
3.887126147751331
 30
0.0
  0
VERTEX
  5
10A
330
FC
100
AcDbEntity
  8
GEB-KONTUR-A
 48
25.0
100
AcDbVertex
100
AcDb2dVertex
 10
-9.623766110837436
 20
4.192911088470879
 30
0.0
  0
VERTEX
  5
10B
330
FC
100
AcDbEntity
  8
GEB-KONTUR-A
 48
25.0
100
AcDbVertex
100
AcDb2dVertex
 10
-9.671618917584396
 20
4.49706345797
 30
0.0
  0
VERTEX
  5
10C
330
FC
100
AcDbEntity
  8
GEB-KONTUR-A
 48
25.0
100
AcDbVertex
100
AcDb2dVertex
 10
-9.714891554415203
 20
4.799817800525943
 30
0.0
  0
VERTEX
  5
10D
330
FC
100
AcDbEntity
  8
GEB-KONTUR-A
 48
25.0
100
AcDbVertex
100
AcDb2dVertex
 10
-9.753608785197116
 20
5.101406574253331
 30
0.0
  0
VERTEX
  5
10E
330
FC
100
AcDbEntity
  8
GEB-KONTUR-A
 48
25.0
100
AcDbVertex
100
AcDb2dVertex
 10
-9.787788342311955
 20
5.402061343197033
 30
0.0
  0
VERTEX
  5
10F
330
FC
100
AcDbEntity
  8
GEB-KONTUR-A
 48
25.0
100
AcDbVertex
100
AcDb2dVertex
 10
-9.817440945282555
 20
5.702013373378832
 30
0.0
  0
VERTEX
  5
110
330
FC
100
AcDbEntity
  8
GEB-KONTUR-A
 48
25.0
100
AcDbVertex
100
AcDb2dVertex
 10
-9.842570314742602
 20
6.001493334774039
 30
0.0
  0
VERTEX
  5
111
330
FC
100
AcDbEntity
  8
GEB-KONTUR-A
 48
25.0
100
AcDbVertex
100
AcDb2dVertex
 10
-9.863173100259132
 20
6.300734281543725
 30
0.0
  0
VERTEX
  5
112
330
FC
100
AcDbEntity
  8
GEB-KONTUR-A
 48
25.0
100
AcDbVertex
100
AcDb2dVertex
 10
-9.879238840751327
 20
6.599968671802429
 30
0.0
  0
VERTEX
  5
113
330
FC
100
AcDbEntity
  8
GEB-KONTUR-A
 48
25.0
100
AcDbVertex
100
AcDb2dVertex
 10
-9.890749846911035
 20
6.899432539943546
 30
0.0
  0
VERTEX
  5
114
330
FC
100
AcDbEntity
  8
GEB-KONTUR-A
 48
25.0
100
AcDbVertex
100
AcDb2dVertex
 10
-9.897681081003952
 20
7.199362516406807
 30
0.0
  0
VERTEX
  5
115
330
FC
100
AcDbEntity
  8
GEB-KONTUR-A
 48
25.0
100
AcDbVertex
100
AcDb2dVertex
 10
-9.899999999999977
 20
7.500000000003552
 30
0.0
  0
SEQEND
  5
116
330
FC
100
AcDbEntity
  8
GEB-KONTUR-A
 48
25.0
  0
POLYLINE
  5
117
330
2
100
AcDbEntity
  8
GEB-KONTUR-A
 48
25.0
100
AcDb2dPolyline
 66
     1
 10
0.0
 20
0.0
 30
0.0
 70
   128
  0
VERTEX
  5
118
330
117
100
AcDbEntity
  8
GEB-KONTUR-A
 48
25.0
100
AcDbVertex
100
AcDb2dVertex
 10
-9.899999999999977
 20
7.500000000003552
 30
0.0
  0
VERTEX
  5
119
330
117
100
AcDbEntity
  8
GEB-KONTUR-A
 48
25.0
100
AcDbVertex
100
AcDb2dVertex
 10
-9.897681081003952
 20
7.800637483600297
 30
0.0
  0
VERTEX
  5
11A
330
117
100
AcDbEntity
  8
GEB-KONTUR-A
 48
25.0
100
AcDbVertex
100
AcDb2dVertex
 10
-9.890749846911035
 20
8.10056746006353
 30
0.0
  0
VERTEX
  5
11B
330
117
100
AcDbEntity
  8
GEB-KONTUR-A
 48
25.0
100
AcDbVertex
100
AcDb2dVertex
 10
-9.879238840751327
 20
8.400031328204676
 30
0.0
  0
VERTEX
  5
11C
330
117
100
AcDbEntity
  8
GEB-KONTUR-A
 48
25.0
100
AcDbVertex
100
AcDb2dVertex
 10
-9.863173100259132
 20
8.699265718463379
 30
0.0
  0
VERTEX
  5
11D
330
117
100
AcDbEntity
  8
GEB-KONTUR-A
 48
25.0
100
AcDbVertex
100
AcDb2dVertex
 10
-9.842570314742602
 20
8.998506665233037
 30
0.0
  0
VERTEX
  5
11E
330
117
100
AcDbEntity
  8
GEB-KONTUR-A
 48
25.0
100
AcDbVertex
100
AcDb2dVertex
 10
-9.817440945282555
 20
9.297986626628215
 30
0.0
  0
VERTEX
  5
11F
330
117
100
AcDbEntity
  8
GEB-KONTUR-A
 48
25.0
100
AcDbVertex
100
AcDb2dVertex
 10
-9.787788342311955
 20
9.597938656810072
 30
0.0
  0
VERTEX
  5
120
330
117
100
AcDbEntity
  8
GEB-KONTUR-A
 48
25.0
100
AcDbVertex
100
AcDb2dVertex
 10
-9.753608785197116
 20
9.898593425753773
 30
0.0
  0
VERTEX
  5
121
330
117
100
AcDbEntity
  8
GEB-KONTUR-A
 48
25.0
100
AcDbVertex
100
AcDb2dVertex
 10
-9.714891554415203
 20
10.20018219948113
 30
0.0
  0
VERTEX
  5
122
330
117
100
AcDbEntity
  8
GEB-KONTUR-A
 48
25.0
100
AcDbVertex
100
AcDb2dVertex
 10
-9.671618917584396
 20
10.5029368400603
 30
0.0
  0
VERTEX
  5
123
330
117
100
AcDbEntity
  8
GEB-KONTUR-A
 48
25.0
100
AcDbVertex
100
AcDb2dVertex
 10
-9.623766110837436
 20
10.807088613513
 30
0.0
  0
VERTEX
  5
124
330
117
100
AcDbEntity
  8
GEB-KONTUR-A
 48
25.0
100
AcDbVertex
100
AcDb2dVertex
 10
-9.571301357448078
 20
11.11287355423255
 30
0.0
  0
VERTEX
  5
125
330
117
100
AcDbEntity
  8
GEB-KONTUR-A
 48
25.0
100
AcDbVertex
100
AcDb2dVertex
 10
-9.514185728132702
 20
11.42052769661222
 30
0.0
  0
VERTEX
  5
126
330
117
100
AcDbEntity
  8
GEB-KONTUR-A
 48
25.0
100
AcDbVertex
100
AcDb2dVertex
 10
-9.45237306654451
 20
11.73029184341698
 30
0.0
  0
VERTEX
  5
127
330
117
100
AcDbEntity
  8
GEB-KONTUR-A
 48
25.0
100
AcDbVertex
100
AcDb2dVertex
 10
-9.385809877514816
 20
12.0424067974117
 30
0.0
  0
VERTEX
  5
128
330
117
100
AcDbEntity
  8
GEB-KONTUR-A
 48
25.0
100
AcDbVertex
100
AcDb2dVertex
 10
-9.314435140788532
 20
12.35712170601147
 30
0.0
  0
VERTEX
  5
129
330
117
100
AcDbEntity
  8
GEB-KONTUR-A
 48
25.0
100
AcDbVertex
100
AcDb2dVertex
 10
-9.238180199265457
 20
12.67468690872439
 30
0.0
  0
VERTEX
  5
12A
330
117
100
AcDbEntity
  8
GEB-KONTUR-A
 48
25.0
100
AcDbVertex
100
AcDb2dVertex
 10
-9.156968498229957
 20
12.99536228180173
 30
0.0
  0
VERTEX
  5
12B
330
117
100
AcDbEntity
  8
GEB-KONTUR-A
 48
25.0
100
AcDbVertex
100
AcDb2dVertex
 10
-9.070715361833549
 20
13.31940889358756
 30
0.0
  0
VERTEX
  5
12C
330
117
100
AcDbEntity
  8
GEB-KONTUR-A
 48
25.0
100
AcDbVertex
100
AcDb2dVertex
 10
-8.979327508807159
 20
13.64710092544783
 30
0.0
  0
VERTEX
  5
12D
330
117
100
AcDbEntity
  8
GEB-KONTUR-A
 48
25.0
100
AcDbVertex
100
AcDb2dVertex
 10
-8.882703238725639
 20
13.97871375084142
 30
0.0
  0
VERTEX
  5
12E
330
117
100
AcDbEntity
  8
GEB-KONTUR-A
 48
25.0
100
AcDbVertex
100
AcDb2dVertex
 10
-8.780731463432289
 20
14.31453466415618
 30
0.0
  0
VERTEX
  5
12F
330
117
100
AcDbEntity
  8
GEB-KONTUR-A
 48
25.0
100
AcDbVertex
100
AcDb2dVertex
 10
-8.673291856050468
 20
14.65486168861596
 30
0.0
  0
VERTEX
  5
130
330
117
100
AcDbEntity
  8
GEB-KONTUR-A
 48
25.0
100
AcDbVertex
100
AcDb2dVertex
 10
-8.560254031419731
 20
15.00000000000199
 30
0.0
  0
SEQEND
  5
131
330
117
100
AcDbEntity
  8
GEB-KONTUR-A
 48
25.0
  0
LINE
  5
132
330
2
100
AcDbEntity
  8
GEB-KONTUR-A
 48
25.0
100
AcDbLine
 10
-8.560254037844345
 20
15.00000000000202
 30
0.0
 11
4.760254037844276
 21
15.00000000000202
 31
0.0
  0
POLYLINE
  5
133
330
2
100
AcDbEntity
  8
GEB-KONTUR-A
 48
25.0
100
AcDb2dPolyline
 66
     1
 10
0.0
 20
0.0
 30
0.0
 70
   128
  0
VERTEX
  5
134
330
133
100
AcDbEntity
  8
GEB-KONTUR-A
 48
25.0
100
AcDbVertex
100
AcDb2dVertex
 10
4.760253524780182
 20
15.00000000000202
 30
0.0
  0
VERTEX
  5
135
330
133
100
AcDbEntity
  8
GEB-KONTUR-A
 48
25.0
100
AcDbVertex
100
AcDb2dVertex
 10
4.873291349410919
 20
14.65486168861599
 30
0.0
  0
VERTEX
  5
136
330
133
100
AcDbEntity
  8
GEB-KONTUR-A
 48
25.0
100
AcDbVertex
100
AcDb2dVertex
 10
4.980731105804352
 20
14.31453466415618
 30
0.0
  0
VERTEX
  5
137
330
133
100
AcDbEntity
  8
GEB-KONTUR-A
 48
25.0
100
AcDbVertex
100
AcDb2dVertex
 10
5.08270273208609
 20
13.97871375084142
 30
0.0
  0
VERTEX
  5
138
330
133
100
AcDbEntity
  8
GEB-KONTUR-A
 48
25.0
100
AcDbVertex
100
AcDb2dVertex
 10
5.179327821731476
 20
13.64710092544783
 30
0.0
  0
VERTEX
  5
139
330
133
100
AcDbEntity
  8
GEB-KONTUR-A
 48
25.0
100
AcDbVertex
100
AcDb2dVertex
 10
5.270714855194
 20
13.31940889358756
 30
0.0
  0
VERTEX
  5
13A
330
133
100
AcDbEntity
  8
GEB-KONTUR-A
 48
25.0
100
AcDbVertex
100
AcDb2dVertex
 10
5.356968736648468
 20
12.99536228180173
 30
0.0
  0
VERTEX
  5
13B
330
133
100
AcDbEntity
  8
GEB-KONTUR-A
 48
25.0
100
AcDbVertex
100
AcDb2dVertex
 10
5.438180065154938
 20
12.67468690872439
 30
0.0
  0
VERTEX
  5
13C
330
133
100
AcDbEntity
  8
GEB-KONTUR-A
 48
25.0
100
AcDbVertex
100
AcDb2dVertex
 10
5.514434671401886
 20
12.35712170601147
 30
0.0
  0
VERTEX
  5
13D
330
133
100
AcDbEntity
  8
GEB-KONTUR-A
 48
25.0
100
AcDbVertex
100
AcDb2dVertex
 10
5.585810041427521
 20
12.0424067974117
 30
0.0
  0
VERTEX
  5
13E
330
133
100
AcDbEntity
  8
GEB-KONTUR-A
 48
25.0
100
AcDbVertex
100
AcDb2dVertex
 10
5.652372932433991
 20
11.73029184341698
 30
0.0
  0
VERTEX
  5
13F
330
133
100
AcDbEntity
  8
GEB-KONTUR-A
 48
25.0
100
AcDbVertex
100
AcDb2dVertex
 10
5.714185333251862
 20
11.42052769661222
 30
0.0
  0
VERTEX
  5
140
330
133
100
AcDbEntity
  8
GEB-KONTUR-A
 48
25.0
100
AcDbVertex
100
AcDb2dVertex
 10
5.771300888061432
 20
11.11287355423255
 30
0.0
  0
VERTEX
  5
141
330
133
100
AcDbEntity
  8
GEB-KONTUR-A
 48
25.0
100
AcDbVertex
100
AcDb2dVertex
 10
5.823766088485626
 20
10.807088613513
 30
0.0
  0
VERTEX
  5
142
330
133
100
AcDbEntity
  8
GEB-KONTUR-A
 48
25.0
100
AcDbVertex
100
AcDb2dVertex
 10
5.871619081497101
 20
10.50293684006033
 30
0.0
  0
VERTEX
  5
143
330
133
100
AcDbEntity
  8
GEB-KONTUR-A
 48
25.0
100
AcDbVertex
100
AcDb2dVertex
 10
5.914892053604035
 20
10.20018219948113
 30
0.0
  0
VERTEX
  5
144
330
133
100
AcDbEntity
  8
GEB-KONTUR-A
 48
25.0
100
AcDbVertex
100
AcDb2dVertex
 10
5.953608846664337
 20
9.898593425753773
 30
0.0
  0
VERTEX
  5
145
330
133
100
AcDbEntity
  8
GEB-KONTUR-A
 48
25.0
100
AcDbVertex
100
AcDb2dVertex
 10
5.987788534164337
 20
9.597938656810072
 30
0.0
  0
VERTEX
  5
146
330
133
100
AcDbEntity
  8
GEB-KONTUR-A
 48
25.0
100
AcDbVertex
100
AcDb2dVertex
 10
6.017440652847199
 20
9.297986626628272
 30
0.0
  0
VERTEX
  5
147
330
133
100
AcDbEntity
  8
GEB-KONTUR-A
 48
25.0
100
AcDbVertex
100
AcDb2dVertex
 10
6.042569971084503
 20
8.998506665233037
 30
0.0
  0
VERTEX
  5
148
330
133
100
AcDbEntity
  8
GEB-KONTUR-A
 48
25.0
100
AcDbVertex
100
AcDb2dVertex
 10
6.063172912597565
 20
8.699265718463379
 30
0.0
  0
VERTEX
  5
149
330
133
100
AcDbEntity
  8
GEB-KONTUR-A
 48
25.0
100
AcDbVertex
100
AcDb2dVertex
 10
6.079238748550324
 20
8.400031328204676
 30
0.0
  0
VERTEX
  5
14A
330
133
100
AcDbEntity
  8
GEB-KONTUR-A
 48
25.0
100
AcDbVertex
100
AcDb2dVertex
 10
6.090749597549347
 20
8.10056746006353
 30
0.0
  0
VERTEX
  5
14B
330
133
100
AcDbEntity
  8
GEB-KONTUR-A
 48
25.0
100
AcDbVertex
100
AcDb2dVertex
 10
6.097681617736725
 20
7.800637483600297
 30
0.0
  0
VERTEX
  5
14C
330
133
100
AcDbEntity
  8
GEB-KONTUR-A
 48
25.0
100
AcDbVertex
100
AcDb2dVertex
 10
6.100000238418488
 20
7.500000000003552
 30
0.0
  0
SEQEND
  5
14D
330
133
100
AcDbEntity
  8
GEB-KONTUR-A
 48
25.0
  0
POLYLINE
  5
14E
330
2
100
AcDbEntity
  8
GEB-KONTUR-A
 48
25.0
100
AcDb2dPolyline
 66
     1
 10
0.0
 20
0.0
 30
0.0
 70
   128
  0
VERTEX
  5
14F
330
14E
100
AcDbEntity
  8
GEB-KONTUR-A
 48
25.0
100
AcDbVertex
100
AcDb2dVertex
 10
6.100000238418488
 20
7.500000000003552
 30
0.0
  0
VERTEX
  5
150
330
14E
100
AcDbEntity
  8
GEB-KONTUR-A
 48
25.0
100
AcDbVertex
100
AcDb2dVertex
 10
6.097681617736725
 20
7.199362516406807
 30
0.0
  0
VERTEX
  5
151
330
14E
100
AcDbEntity
  8
GEB-KONTUR-A
 48
25.0
100
AcDbVertex
100
AcDb2dVertex
 10
6.090749597549347
 20
6.899432539943546
 30
0.0
  0
VERTEX
  5
152
330
14E
100
AcDbEntity
  8
GEB-KONTUR-A
 48
25.0
100
AcDbVertex
100
AcDb2dVertex
 10
6.079238748550324
 20
6.599968671802429
 30
0.0
  0
VERTEX
  5
153
330
14E
100
AcDbEntity
  8
GEB-KONTUR-A
 48
25.0
100
AcDbVertex
100
AcDb2dVertex
 10
6.063172912597565
 20
6.300734281543725
 30
0.0
  0
VERTEX
  5
154
330
14E
100
AcDbEntity
  8
GEB-KONTUR-A
 48
25.0
100
AcDbVertex
100
AcDb2dVertex
 10
6.042569971084503
 20
6.001493334774067
 30
0.0
  0
VERTEX
  5
155
330
14E
100
AcDbEntity
  8
GEB-KONTUR-A
 48
25.0
100
AcDbVertex
100
AcDb2dVertex
 10
6.017440652847199
 20
5.702013373378832
 30
0.0
  0
VERTEX
  5
156
330
14E
100
AcDbEntity
  8
GEB-KONTUR-A
 48
25.0
100
AcDbVertex
100
AcDb2dVertex
 10
5.987788534164337
 20
5.402061343197033
 30
0.0
  0
VERTEX
  5
157
330
14E
100
AcDbEntity
  8
GEB-KONTUR-A
 48
25.0
100
AcDbVertex
100
AcDb2dVertex
 10
5.953608846664337
 20
5.101406574253331
 30
0.0
  0
VERTEX
  5
158
330
14E
100
AcDbEntity
  8
GEB-KONTUR-A
 48
25.0
100
AcDbVertex
100
AcDb2dVertex
 10
5.914892053604035
 20
4.799817800525971
 30
0.0
  0
VERTEX
  5
159
330
14E
100
AcDbEntity
  8
GEB-KONTUR-A
 48
25.0
100
AcDbVertex
100
AcDb2dVertex
 10
5.871619081497101
 20
4.49706345797
 30
0.0
  0
VERTEX
  5
15A
330
14E
100
AcDbEntity
  8
GEB-KONTUR-A
 48
25.0
100
AcDbVertex
100
AcDb2dVertex
 10
5.823766088485626
 20
4.192911088470879
 30
0.0
  0
VERTEX
  5
15B
330
14E
100
AcDbEntity
  8
GEB-KONTUR-A
 48
25.0
100
AcDbVertex
100
AcDb2dVertex
 10
5.771300888061432
 20
3.887126147751331
 30
0.0
  0
VERTEX
  5
15C
330
14E
100
AcDbEntity
  8
GEB-KONTUR-A
 48
25.0
100
AcDbVertex
100
AcDb2dVertex
 10
5.714185333251862
 20
3.579471707348432
 30
0.0
  0
VERTEX
  5
15D
330
14E
100
AcDbEntity
  8
GEB-KONTUR-A
 48
25.0
100
AcDbVertex
100
AcDb2dVertex
 10
5.652372932433991
 20
3.269708454613322
 30
0.0
  0
VERTEX
  5
15E
330
14E
100
AcDbEntity
  8
GEB-KONTUR-A
 48
25.0
100
AcDbVertex
100
AcDb2dVertex
 10
5.585810041427521
 20
2.957593202595404
 30
0.0
  0
VERTEX
  5
15F
330
14E
100
AcDbEntity
  8
GEB-KONTUR-A
 48
25.0
100
AcDbVertex
100
AcDb2dVertex
 10
5.514434671401886
 20
2.642878890042084
 30
0.0
  0
VERTEX
  5
160
330
14E
100
AcDbEntity
  8
GEB-KONTUR-A
 48
25.0
100
AcDbVertex
100
AcDb2dVertex
 10
5.438180065154938
 20
2.325312942271096
 30
0.0
  0
VERTEX
  5
161
330
14E
100
AcDbEntity
  8
GEB-KONTUR-A
 48
25.0
100
AcDbVertex
100
AcDb2dVertex
 10
5.356968736648468
 20
2.004638165240208
 30
0.0
  0
VERTEX
  5
162
330
14E
100
AcDbEntity
  8
GEB-KONTUR-A
 48
25.0
100
AcDbVertex
100
AcDb2dVertex
 10
5.270714855194
 20
1.680590510373093
 30
0.0
  0
VERTEX
  5
163
330
14E
100
AcDbEntity
  8
GEB-KONTUR-A
 48
25.0
100
AcDbVertex
100
AcDb2dVertex
 10
5.179327821731476
 20
1.352899521594082
 30
0.0
  0
VERTEX
  5
164
330
14E
100
AcDbEntity
  8
GEB-KONTUR-A
 48
25.0
100
AcDbVertex
100
AcDb2dVertex
 10
5.08270273208609
 20
1.021286621694656
 30
0.0
  0
VERTEX
  5
165
330
14E
100
AcDbEntity
  8
GEB-KONTUR-A
 48
25.0
100
AcDbVertex
100
AcDb2dVertex
 10
4.980731105804352
 20
0.6854649633218628
 30
0.0
  0
VERTEX
  5
166
330
14E
100
AcDbEntity
  8
GEB-KONTUR-A
 48
25.0
100
AcDbVertex
100
AcDb2dVertex
 10
4.873291349410919
 20
0.3451382741382076
 30
0.0
  0
VERTEX
  5
167
330
14E
100
AcDbEntity
  8
GEB-KONTUR-A
 48
25.0
100
AcDbVertex
100
AcDb2dVertex
 10
4.760253524780182
 20
0.0000000000050875
 30
0.0
  0
SEQEND
  5
168
330
14E
100
AcDbEntity
  8
GEB-KONTUR-A
 48
25.0
  0
LINE
  5
169
330
2
100
AcDbEntity
  8
GEB-VERDECKT
 48
25.0
100
AcDbLine
 10
4.087356961604598
 20
-12.05849999999958
 30
0.0
 11
6.099999999999965
 21
-13.22049999999979
 31
0.0
  0
LINE
  5
16A
330
2
100
AcDbEntity
  8
GEB-VERDECKT
 48
25.0
100
AcDbLine
 10
4.087356961604484
 20
12.05849999999955
 30
0.0
 11
6.099999999999965
 21
13.22049999999981
 31
0.0
  0
LINE
  5
16B
330
2
100
AcDbEntity
  8
GEB-VERDECKT
 48
25.0
100
AcDbLine
 10
4.087356961604484
 20
-12.05849999999961
 30
0.0
 11
4.087356961604484
 21
12.0584999999995
 31
0.0
  0
LINE
  5
16C
330
2
100
AcDbEntity
  8
GEB-KONTUR-A
 48
25.0
100
AcDbLine
 10
6.100000000000022
 20
-14.99999999999946
 30
0.0
 11
6.099999999999965
 21
-7.499999999995907
 31
0.0
  0
LINE
  5
16D
330
2
100
AcDbEntity
  8
GEB-KONTUR-A
 48
25.0
100
AcDbLine
 10
6.099999999999965
 20
-7.499999999995907
 30
0.0
 11
6.099999999999909
 21
7.500000000003552
 31
0.0
  0
LINE
  5
16E
330
2
100
AcDbEntity
  8
GEB-KONTUR-A
 48
25.0
100
AcDbLine
 10
6.099999999999909
 20
7.500000000003552
 30
0.0
 11
6.099999999999965
 21
14.99999999999946
 31
0.0
  0
LINE
  5
16F
330
2
100
AcDbEntity
  8
GEB-KONTUR-A
 48
25.0
100
AcDbLine
 10
-9.899999999999977
 20
7.500000000003524
 30
0.0
 11
-9.899999999999977
 21
14.99999999999946
 31
0.0
  0
LINE
  5
170
330
2
100
AcDbEntity
  8
GEB-KONTUR-A
 48
25.0
100
AcDbLine
 10
-9.899999999999977
 20
-7.499999999995907
 30
0.0
 11
-9.899999999999977
 21
7.500000000003552
 31
0.0
  0
LINE
  5
171
330
2
100
AcDbEntity
  8
GEB-KONTUR-A
 48
25.0
100
AcDbLine
 10
-9.89999999999992
 20
-14.99999999999946
 30
0.0
 11
-9.899999999999977
 21
-7.499999999995907
 31
0.0
  0
LINE
  5
172
330
2
100
AcDbEntity
  8
GEB-VERDECKT
 48
25.0
100
AcDbLine
 10
-6.982257746477671
 20
-11.04999999999961
 30
0.0
 11
-6.39999999999992
 21
-12.05849999999961
 31
0.0
  0
LINE
  5
173
330
2
100
AcDbEntity
  8
GEB-VERDECKT
 48
25.0
100
AcDbLine
 10
-6.982257746477728
 20
11.04999999999961
 30
0.0
 11
-6.400000000000034
 21
12.05849999999953
 31
0.0
  0
LINE
  5
174
330
2
100
AcDbEntity
  8
GEB-VERDECKT
 48
25.0
100
AcDbLine
 10
-6.982257746477728
 20
11.04999999999961
 30
0.0
 11
-8.89999999999992
 21
11.04999999999961
 31
0.0
  0
LINE
  5
175
330
2
100
AcDbEntity
  8
GEB-VERDECKT
 48
25.0
100
AcDbLine
 10
-6.982257746477671
 20
-11.04999999999961
 30
0.0
 11
-8.89999999999992
 21
-11.04999999999961
 31
0.0
  0
LINE
  5
176
330
2
100
AcDbEntity
  8
GEB-VERDECKT
 48
25.0
100
AcDbLine
 10
-6.39999999999992
 20
-12.05849999999961
 30
0.0
 11
-6.39999999999992
 21
12.0584999999995
 31
0.0
  0
LINE
  5
177
330
2
100
AcDbEntity
  8
GEB-VERDECKT
 48
25.0
100
AcDbLine
 10
-6.982257746477671
 20
11.04999999999961
 30
0.0
 11
-6.982257746477671
 21
-11.04999999999961
 31
0.0
  0
LINE
  5
178
330
2
100
AcDbEntity
  8
GEB-VERDECKT
 48
25.0
100
AcDbLine
 10
-8.89999999999992
 20
11.04999999999961
 30
0.0
 11
-9.89999999999992
 21
12.04999999999958
 31
0.0
  0
LINE
  5
179
330
2
100
AcDbEntity
  8
GEB-VERDECKT
 48
25.0
100
AcDbLine
 10
-8.89999999999992
 20
-11.04999999999961
 30
0.0
 11
-9.89999999999992
 21
-12.04999999999958
 31
0.0
  0
LINE
  5
17A
330
2
100
AcDbEntity
  8
GEB-VERDECKT
 48
25.0
100
AcDbLine
 10
-8.89999999999992
 20
-11.04999999999961
 30
0.0
 11
-8.89999999999992
 21
11.04999999999961
 31
0.0
  0
ARC
  5
17B
330
2
100
AcDbEntity
  8
GEB-KONTUR-A
 48
25.0
100
AcDbCircle
 10
-14.05356537528536
 20
12.6999999999999
 30
0.0
 40
1.999999999999992
100
AcDbArc
 50
270.0
 51
301.7883306170525
  0
ARC
  5
17C
330
2
100
AcDbEntity
  8
GEB-KONTUR-A
 48
25.0
100
AcDbCircle
 10
-14.05356537528536
 20
-12.69999999999996
 30
0.0
 40
1.999999999999995
100
AcDbArc
 50
58.21166938294752
 51
90.0
  0
LINE
  5
17D
330
2
100
AcDbEntity
  8
GEB-KONTUR-A
 48
25.0
100
AcDbLine
 10
-13.00000000000006
 20
10.99999999999986
 30
0.0
 11
-13.00000000000006
 21
-10.99999999999994
 31
0.0
  0
ARC
  5
17E
330
2
100
AcDbEntity
  8
GEB-KONTUR-A
 48
25.0
100
AcDbCircle
 10
-28.40000000000003
 20
-10.44999999999999
 30
0.0
 40
2.599999999999988
100
AcDbArc
 50
180.0
 51
314.0000000000013
  0
ARC
  5
17F
330
2
100
AcDbEntity
  8
GEB-KONTUR-A
 48
25.0
100
AcDbCircle
 10
-28.40000000000003
 20
10.44999999999987
 30
0.0
 40
2.599999999999993
100
AcDbArc
 50
45.99999999999865
 51
180.0
  0
LINE
  5
180
330
2
100
AcDbEntity
  8
GEB-KONTUR-A
 48
25.0
100
AcDbLine
 10
-24.91603557542078
 20
10.6999999999999
 30
0.0
 11
-26.59388823680661
 21
12.32028348088036
 31
0.0
  0
LINE
  5
181
330
2
100
AcDbEntity
  8
GEB-KONTUR-A
 48
25.0
100
AcDbLine
 10
-24.91603557542078
 20
-10.69999999999996
 30
0.0
 11
-26.59388823680661
 21
-12.32028348088042
 31
0.0
  0
LINE
  5
182
330
2
100
AcDbEntity
  8
GEB-KONTUR-A
 48
25.0
100
AcDbLine
 10
-9.899999999999977
 20
10.99999999999986
 30
0.0
 11
-13.00000000000006
 21
10.99999999999986
 31
0.0
  0
LINE
  5
183
330
2
100
AcDbEntity
  8
GEB-KONTUR-A
 48
25.0
100
AcDbLine
 10
-9.899999999999977
 20
-10.99999999999994
 30
0.0
 11
-13.00000000000006
 21
-10.99999999999997
 31
0.0
  0
LINE
  5
184
330
2
100
AcDbEntity
  8
GEB-KONTUR-A
 48
25.0
100
AcDbLine
 10
-14.05356537528536
 20
10.6999999999999
 30
0.0
 11
-24.91603557542078
 21
10.6999999999999
 31
0.0
  0
LINE
  5
185
330
2
100
AcDbEntity
  8
GEB-KONTUR-A
 48
25.0
100
AcDbLine
 10
-14.05356537528536
 20
-10.69999999999996
 30
0.0
 11
-24.91603557542078
 21
-10.69999999999996
 31
0.0
  0
LINE
  5
186
330
2
100
AcDbEntity
  8
GEB-KONTUR-A
 48
25.0
100
AcDbLine
 10
-31.00000000000006
 20
10.4499999999999
 30
0.0
 11
-31.00000000000006
 21
-10.44999999999999
 31
0.0
  0
LINE
  5
187
330
2
100
AcDbEntity
  8
GEB-KONTUR-A
 48
25.0
100
AcDbLine
 10
-24.91603557542078
 20
10.6999999999999
 30
0.0
 11
-24.91603557542078
 21
-10.69999999999996
 31
0.0
  0
LINE
  5
188
330
2
100
AcDbEntity
  8
GEB-VERDECKT
 48
25.0
100
AcDbLine
 10
-25.95242099962997
 20
9.61591145651414
 30
0.0
 11
-27.41887754571042
 21
11.30287673768757
 31
0.0
  0
LINE
  5
189
330
2
100
AcDbEntity
  8
GEB-VERDECKT
 48
25.0
100
AcDbLine
 10
-25.95242099962997
 20
-9.615911456514226
 30
0.0
 11
-27.41887754571042
 21
-11.30287673768762
 31
0.0
  0
ARC
  5
18A
330
2
100
AcDbEntity
  8
GEB-VERDECKT
 48
25.0
100
AcDbCircle
 10
-28.40000000000003
 20
-10.44999999999999
 30
0.0
 40
1.299999999999994
100
AcDbArc
 50
180.0
 51
319.0000000000008
  0
ARC
  5
18B
330
2
100
AcDbEntity
  8
GEB-VERDECKT
 48
25.0
100
AcDbCircle
 10
-28.40000000000003
 20
10.44999999999987
 30
0.0
 40
1.299999999999996
100
AcDbArc
 50
40.99999999999921
 51
180.0
  0
LINE
  5
18C
330
2
100
AcDbEntity
  8
GEB-VERDECKT
 48
25.0
100
AcDbLine
 10
-29.70000000000005
 20
9.399999999999891
 30
0.0
 11
-31.00000000000006
 21
9.399999999999891
 31
0.0
  0
LINE
  5
18D
330
2
100
AcDbEntity
  8
GEB-VERDECKT
 48
25.0
100
AcDbLine
 10
-29.70000000000005
 20
-9.399999999999977
 30
0.0
 11
-31.00000000000006
 21
-9.399999999999977
 31
0.0
  0
LINE
  5
18E
330
2
100
AcDbEntity
  8
GEB-VERDECKT
 48
25.0
100
AcDbLine
 10
-7.264911064067405
 20
10.99999999999986
 30
0.0
 11
-9.899999999999977
 21
10.99999999999986
 31
0.0
  0
LINE
  5
18F
330
2
100
AcDbEntity
  8
GEB-VERDECKT
 48
25.0
100
AcDbLine
 10
-7.264911064067405
 20
-10.99999999999994
 30
0.0
 11
-9.899999999999977
 21
-10.99999999999994
 31
0.0
  0
LINE
  5
190
330
2
100
AcDbEntity
  8
GEB-VERDECKT
 48
25.0
100
AcDbLine
 10
-11.00000000000005
 20
9.09999999999988
 30
0.0
 11
-24.82035662929582
 21
9.09999999999988
 31
0.0
  0
LINE
  5
191
330
2
100
AcDbEntity
  8
GEB-VERDECKT
 48
25.0
100
AcDbLine
 10
-11.00000000000005
 20
-9.099999999999965
 30
0.0
 11
-24.82035662929576
 21
-9.099999999999965
 31
0.0
  0
ARC
  5
192
330
2
100
AcDbEntity
  8
GEB-VERDECKT
 48
25.0
100
AcDbCircle
 10
-24.82035662929582
 20
-10.59999999999994
 30
0.0
 40
1.499999999999994
100
AcDbArc
 50
90.0
 51
138.9999999999995
  0
ARC
  5
193
330
2
100
AcDbEntity
  8
GEB-VERDECKT
 48
25.0
100
AcDbCircle
 10
-24.82035662929582
 20
10.59999999999988
 30
0.0
 40
1.499999999999996
100
AcDbArc
 50
221.0000000000004
 51
270.0
  0
LINE
  5
194
330
2
100
AcDbEntity
  8
GEB-VERDECKT
 48
25.0
100
AcDbLine
 10
-2.000000000000056
 20
10.99999999999986
 30
0.0
 11
-4.735088935932765
 21
10.99999999999986
 31
0.0
  0
LINE
  5
195
330
2
100
AcDbEntity
  8
GEB-VERDECKT
 48
25.0
100
AcDbLine
 10
-2.000000000000056
 20
-10.99999999999997
 30
0.0
 11
-4.735088935932708
 21
-10.99999999999997
 31
0.0
  0
LINE
  5
196
330
2
100
AcDbEntity
  8
GEB-VERDECKT
 48
25.0
100
AcDbLine
 10
-2.000000000000056
 20
7.999999999999914
 30
0.0
 11
-11.00000000000005
 21
7.999999999999914
 31
0.0
  0
LINE
  5
197
330
2
100
AcDbEntity
  8
GEB-VERDECKT
 48
25.0
100
AcDbLine
 10
-2.000000000000056
 20
-7.999999999999971
 30
0.0
 11
-10.90000000000009
 21
-7.999999999999971
 31
0.0
  0
LINE
  5
198
330
2
100
AcDbEntity
  8
GEB-VERDECKT
 48
25.0
100
AcDbLine
 10
-29.70000000000005
 20
10.4499999999999
 30
0.0
 11
-29.70000000000005
 21
-10.44999999999999
 31
0.0
  0
LINE
  5
199
330
2
100
AcDbEntity
  8
GEB-VERDECKT
 48
25.0
100
AcDbLine
 10
-11.00000000000005
 20
9.09999999999988
 30
0.0
 11
-11.00000000000005
 21
-9.099999999999965
 31
0.0
  0
LINE
  5
19A
330
2
100
AcDbEntity
  8
GEB-VERDECKT
 48
25.0
100
AcDbLine
 10
-2.000000000000056
 20
10.99999999999986
 30
0.0
 11
-2.000000000000056
 21
-10.99999999999994
 31
0.0
  0
ARC
  5
19B
330
2
100
AcDbEntity
  8
GEB-VERDECKT
 48
25.0
100
AcDbCircle
 10
-6.000000000000113
 20
11.29999999999987
 30
0.0
 40
1.299999999999996
100
AcDbArc
 50
193.3423637970879
 51
346.6576362029137
  0
ARC
  5
19C
330
2
100
AcDbEntity
  8
GEB-VERDECKT
 48
25.0
100
AcDbCircle
 10
-6.000000000000056
 20
-11.29999999999995
 30
0.0
 40
1.299999999999996
100
AcDbArc
 50
13.34236379708791
 51
166.6576362029136
  0
LINE
  5
19D
330
2
100
AcDbEntity
  8
GEB-VERDECKT
 48
25.0
100
AcDbLine
 10
-7.264911064067405
 20
10.99999999999986
 30
0.0
 11
-7.264911064067405
 21
-10.99999999999994
 31
0.0
  0
LINE
  5
19E
330
2
100
AcDbEntity
  8
GEB-VERDECKT
 48
25.0
100
AcDbLine
 10
-4.735088935932765
 20
-10.99999999999994
 30
0.0
 11
-4.735088935932765
 21
10.99999999999986
 31
0.0
  0
LINE
  5
19F
330
2
100
AcDbEntity
  8
GEB-VERDECKT
 48
25.0
100
AcDbLine
 10
-11.00000000000005
 20
2.609999999999956
 30
0.0
 11
-10.90000000000009
 21
2.609999999999956
 31
0.0
  0
LINE
  5
1A0
330
2
100
AcDbEntity
  8
GEB-VERDECKT
 48
25.0
100
AcDbLine
 10
-10.90000000000009
 20
-7.97334583158144
 30
0.0
 11
-10.90000000000009
 21
-8.0
 31
0.0
  0
LINE
  5
1A1
330
2
100
AcDbEntity
  8
GEB-VERDECKT
 48
25.0
100
AcDbLine
 10
-10.90000000000009
 20
-2.527121633400184
 30
0.0
 11
-10.90000000000009
 21
2.609999999999956
 31
0.0
  0
LINE
  5
1A2
330
2
100
AcDbEntity
  8
GEB-VERDECKT
 48
25.0
100
AcDbLine
 10
-11.00000000000005
 20
-2.527121633400184
 30
0.0
 11
-10.90000000000009
 21
-2.527121633400184
 31
0.0
  0
LINE
  5
1A3
330
2
100
AcDbEntity
  8
GEB-VERDECKT
 48
25.0
100
AcDbLine
 10
-10.90000000000009
 20
-2.527121633400184
 30
0.0
 11
-10.90000000000009
 21
-7.973345831581383
 31
0.0
  0
LINE
  5
1A4
330
2
100
AcDbEntity
  8
GEB-VERDECKT
 48
25.0
100
AcDbLine
 10
-10.90000000000009
 20
-7.973345831581383
 30
0.0
 11
-11.00000000000005
 21
-7.973345831581383
 31
0.0
  0
LINE
  5
1A5
330
2
100
AcDbEntity
  8
GEB-KONTUR-A
 48
25.0
100
AcDbLine
 10
7.72895577800881
 20
10.5
 30
0.0
 11
6.999999999999943
 21
13.22050000000001
 31
0.0
  0
LINE
  5
1A6
330
2
100
AcDbEntity
  8
GEB-KONTUR-A
 48
25.0
100
AcDbLine
 10
7.72895577800881
 20
-10.5
 30
0.0
 11
6.999999999999943
 21
-13.22050000000001
 31
0.0
  0
LINE
  5
1A7
330
2
100
AcDbEntity
  8
GEB-KONTUR-A
 48
25.0
100
AcDbLine
 10
6.100000000000079
 20
-13.22050000000001
 30
0.0
 11
6.999999999999943
 21
-13.22050000000001
 31
0.0
  0
LINE
  5
1A8
330
2
100
AcDbEntity
  8
GEB-KONTUR-A
 48
25.0
100
AcDbLine
 10
6.100000000000079
 20
13.22050000000001
 30
0.0
 11
6.999999999999943
 21
13.22050000000001
 31
0.0
  0
LINE
  5
1A9
330
2
100
AcDbEntity
  8
GEB-KONTUR-A
 48
25.0
100
AcDbLine
 10
6.999999999999943
 20
-13.22050000000001
 30
0.0
 11
6.999999999999943
 21
13.22050000000001
 31
0.0
  0
LINE
  5
1AA
330
2
100
AcDbEntity
  8
GEB-VERDECKT
 48
25.0
100
AcDbLine
 10
-0.0000000000000568
 20
-7.749999999999971
 30
0.0
 11
25.89999999999992
 21
-7.749999999999971
 31
0.0
  0
LINE
  5
1AB
330
2
100
AcDbEntity
  8
GEB-VERDECKT
 48
25.0
100
AcDbLine
 10
-0.0000000000000568
 20
7.749999999999971
 30
0.0
 11
25.89999999999992
 21
7.750000000000028
 31
0.0
  0
LINE
  5
1AC
330
2
100
AcDbEntity
  8
GEB-VERDECKT
 48
25.0
100
AcDbLine
 10
1.499999999999943
 20
-13.22050000000001
 30
0.0
 11
6.100000000000079
 21
-13.22050000000001
 31
0.0
  0
LINE
  5
1AD
330
2
100
AcDbEntity
  8
GEB-VERDECKT
 48
25.0
100
AcDbLine
 10
1.499999999999943
 20
13.22050000000001
 30
0.0
 11
6.100000000000079
 21
13.22050000000001
 31
0.0
  0
LINE
  5
1AE
330
2
100
AcDbEntity
  8
GEB-VERDECKT
 48
25.0
100
AcDbLine
 10
-0.0000000000000568
 20
-11.72049999999998
 30
0.0
 11
1.499999999999943
 21
-13.22050000000001
 31
0.0
  0
LINE
  5
1AF
330
2
100
AcDbEntity
  8
GEB-VERDECKT
 48
25.0
100
AcDbLine
 10
-0.0000000000000568
 20
11.72049999999998
 30
0.0
 11
1.499999999999943
 21
13.22050000000001
 31
0.0
  0
LINE
  5
1B0
330
2
100
AcDbEntity
  8
GEB-VERDECKT
 48
25.0
100
AcDbLine
 10
-0.0000000000000568
 20
-11.72049999999998
 30
0.0
 11
-0.0000000000000568
 21
11.72049999999998
 31
0.0
  0
LINE
  5
1B1
330
2
100
AcDbEntity
  8
GEB-VERDECKT
 48
25.0
100
AcDbLine
 10
1.499999999999943
 20
-13.22050000000001
 30
0.0
 11
1.499999999999943
 21
13.22050000000001
 31
0.0
  0
LINE
  5
1B2
330
2
100
AcDbEntity
  8
GEB-KONTUR-A
 48
25.0
100
AcDbLine
 10
25.89999999999992
 20
10.5
 30
0.0
 11
7.72895577800881
 21
10.5
 31
0.0
  0
LINE
  5
1B3
330
2
100
AcDbEntity
  8
GEB-KONTUR-A
 48
25.0
100
AcDbLine
 10
25.89999999999992
 20
-10.5
 30
0.0
 11
7.72895577800881
 21
-10.5
 31
0.0
  0
LINE
  5
1B4
330
2
100
AcDbEntity
  8
GEB-KONTUR-A
 48
25.0
100
AcDbLine
 10
7.72895577800881
 20
-10.5
 30
0.0
 11
7.72895577800881
 21
10.5
 31
0.0
  0
ARC
  5
1B5
330
2
100
AcDbEntity
  8
GEB-KONTUR-A
 48
25.0
100
AcDbCircle
 10
25.89999999999992
 20
0.0
 30
0.0
 40
10.5
100
AcDbArc
 50
270.0
 51
90.0
  0
ARC
  5
1B6
330
2
100
AcDbEntity
  8
GEB-VERDECKT
 48
25.0
100
AcDbCircle
 10
25.89999999999992
 20
0.0
 30
0.0
 40
10.5
100
AcDbArc
 50
90.00000000001628
 51
270.0000000000163
  0
CIRCLE
  5
1B7
330
2
100
AcDbEntity
  8
GEB-VERDECKT
 48
25.0
100
AcDbCircle
 10
25.89999999999992
 20
-0.0000000000095213
 30
0.0
 40
12.00000000000001
  0
LINE
  5
1B8
330
2
100
AcDbEntity
  8
GEB-VERDECKT
 48
25.0
100
AcDbLine
 10
17.30811715126037
 20
-10.49999952316739
 30
0.0
 11
12.40000009536737
 21
-5.591883063321063
 31
0.0
  0
LINE
  5
1B9
330
2
100
AcDbEntity
  8
GEB-VERDECKT
 48
25.0
100
AcDbLine
 10
12.40000009536737
 20
-5.591883063321063
 30
0.0
 11
12.40000009536737
 21
5.591883063311627
 31
0.0
  0
LINE
  5
1BA
330
2
100
AcDbEntity
  8
GEB-VERDECKT
 48
25.0
100
AcDbLine
 10
12.40000009536737
 20
5.591883063311627
 30
0.0
 11
17.30811715126032
 21
10.49999952315829
 31
0.0
  0
LINE
  5
1BB
330
2
100
AcDbEntity
  8
GEB-KONTUR-A
 48
25.0
100
AcDbLine
 10
20.30811786651611
 20
-13.50000023842329
 30
0.0
 11
17.30811715126037
 21
-10.49999952316739
 31
0.0
  0
LINE
  5
1BC
330
2
100
AcDbEntity
  8
GEB-KONTUR-A
 48
25.0
100
AcDbLine
 10
17.30811715126032
 20
10.49999952315829
 30
0.0
 11
20.30811786651605
 21
13.50000023841386
 31
0.0
  0
LINE
  5
1BD
330
2
100
AcDbEntity
  8
GEB-KONTUR-A
 48
25.0
100
AcDbLine
 10
20.30811786651605
 20
13.50000023841386
 30
0.0
 11
31.49188280105585
 21
13.50000023841386
 31
0.0
  0
LINE
  5
1BE
330
2
100
AcDbEntity
  8
GEB-KONTUR-A
 48
25.0
100
AcDbLine
 10
31.49188280105585
 20
13.50000023841386
 30
0.0
 11
39.40000057220459
 21
5.591883063311627
 31
0.0
  0
LINE
  5
1BF
330
2
100
AcDbEntity
  8
GEB-KONTUR-A
 48
25.0
100
AcDbLine
 10
39.40000057220459
 20
5.591883063311627
 30
0.0
 11
39.40000057220459
 21
-5.591883063321063
 31
0.0
  0
LINE
  5
1C0
330
2
100
AcDbEntity
  8
GEB-KONTUR-A
 48
25.0
100
AcDbLine
 10
39.40000057220459
 20
-5.591883063321063
 30
0.0
 11
31.49188280105591
 21
-13.50000023842329
 31
0.0
  0
LINE
  5
1C1
330
2
100
AcDbEntity
  8
GEB-KONTUR-A
 48
25.0
100
AcDbLine
 10
31.49188280105591
 20
-13.50000023842329
 30
0.0
 11
20.30811786651611
 21
-13.50000023842329
 31
0.0
  0
ARC
  5
1C2
330
2
100
AcDbEntity
  8
GEB-VERDECKT
 48
25.0
100
AcDbCircle
 10
25.89999999999992
 20
0.0
 30
0.0
 40
7.750000000000004
100
AcDbArc
 50
270.0
 51
90.0
  0
ARC
  5
1C3
330
2
100
AcDbEntity
  8
GEB-VERDECKT
 48
25.0
100
AcDbCircle
 10
25.89999999999992
 20
0.0
 30
0.0
 40
7.750000000000001
100
AcDbArc
 50
90.00000000001628
 51
270.0000000000163
  0
CIRCLE
  5
1C4
330
2
100
AcDbEntity
  8
GEB-VERDECKT
 48
25.0
100
AcDbCircle
 10
25.89999999999992
 20
-0.0000000000066791
 30
0.0
 40
9.315500000000003
  0
CIRCLE
  5
1C5
330
2
100
AcDbEntity
  8
GEB-VERDECKT
 48
25.0
100
AcDbCircle
 10
25.89999999999992
 20
-0.0000000000095213
 30
0.0
 40
10.7155
  0
TEXT
  5
1C6
330
2
100
AcDbEntity
  8
GEB-TEXT
100
AcDbText
 10
-38.09860163710779
 20
-25.49999999999946
 30
0.0
 40
3.5
  1
Ü-WinkelVerschr IG Rg 90G d18-Rp1/2
 72
     1
 11
4.699999999999988
 21
-25.49999999999946
 31
0.0
100
AcDbText
  0
TEXT
  5
1C8
330
2
100
AcDbEntity
  8
GEB-TEXT
100
AcDbText
 10
-13.3706002728513
 20
-19.99999999999946
 30
0.0
 40
3.5
  1
Geberit Mapress
 72
     1
 11
4.699999999999988
 21
-19.99999999999946
 31
0.0
100
AcDbText
  0
TEXT
  5
1C9
330
2
100
AcDbEntity
  8
GEB-ART-NR
100
AcDbText
 10
-17.61874067591026
 20
-31.84278125427969
 30
0.0
 40
3.5
  1
GEB-ART-NR 65392
 72
     1
 11
5.070379378659993
 21
-31.84278125427969
 31
0.0
100
AcDbText
  0
ENDSEC
  0
SECTION
  2
OBJECTS
  0
DICTIONARY
  5
9
330
0
100
AcDbDictionary
281
     1
  3
ACAD_2007HEADERVARS_RT
350
280
  3
ACAD_COLOR
350
44
  3
ACAD_GROUP
350
31
  3
ACAD_LAYOUT
350
16
  3
ACAD_MATERIAL
350
B
  3
ACAD_MLEADERSTYLE
350
47
  3
ACAD_MLINESTYLE
350
32
  3
ACAD_PLOTSETTINGS
350
33
  3
ACAD_PLOTSTYLENAME
350
8
  3
ACAD_SCALELIST
350
45
  3
ACAD_TABLESTYLE
350
46
  3
ACAD_VISUALSTYLE
350
2B
  3
ACDB_RECOMPOSE_DATA
350
27F
  3
AcDbVariableDictionary
350
229
  3
AcmDictionary
350
1DC
  3
AcmSystemVariableManager
350
297
  3
AMG
350
1CD
  0
DICTIONARY
  5
2C
330
28
100
AcDbDictionary
280
     1
281
     1
  0
DICTIONARY
  5
1C
330
1B
100
AcDbDictionary
280
     1
281
     1
  3
ACAD_LAYERFILTERS
360
1D
  3
ACLYDICTIONARY
360
1E
  0
DICTIONARY
  5
3
330
2
100
AcDbDictionary
280
     1
281
     1
  3
ACAD_SORTENTS
360
1CB
  0
DICTIONARY
  5
280
102
{ACAD_REACTORS
330
9
102
}
330
9
100
AcDbDictionary
281
     1
  3
DIMARCSYM
350
281
  3
DIMLTEX1
350
283
  3
DIMLTEX2
350
284
  3
DIMLTYPE
350
282
  0
DICTIONARY
  5
44
102
{ACAD_REACTORS
330
9
102
}
330
9
100
AcDbDictionary
281
     1
  0
DICTIONARY
  5
31
102
{ACAD_REACTORS
330
9
102
}
330
9
100
AcDbDictionary
281
     1
  0
DICTIONARY
  5
16
102
{ACAD_REACTORS
330
9
102
}
330
9
100
AcDbDictionary
281
     1
  3
Layout1
350
1A
  3
Model
350
15
  0
DICTIONARY
  5
B
102
{ACAD_REACTORS
330
9
102
}
330
9
100
AcDbDictionary
281
     1
  3
ByBlock
350
3C
  3
ByLayer
350
34
  3
Global
350
A
  0
DICTIONARY
  5
47
102
{ACAD_REACTORS
330
9
102
}
330
9
100
AcDbDictionary
281
     1
  3
Standard
350
247
  0
DICTIONARY
  5
32
102
{ACAD_REACTORS
330
9
102
}
330
9
100
AcDbDictionary
281
     1
  3
Standard
350
48
  0
DICTIONARY
  5
33
102
{ACAD_REACTORS
330
9
102
}
330
9
100
AcDbDictionary
281
     1
  0
ACDBDICTIONARYWDFLT
  5
8
102
{ACAD_REACTORS
330
9
102
}
330
9
100
AcDbDictionary
281
     1
  3
Normal
350
7
100
AcDbDictionaryWithDefault
340
7
  0
DICTIONARY
  5
45
102
{ACAD_REACTORS
330
9
102
}
330
9
100
AcDbDictionary
281
     1
  3
A0
350
4D
  3
A1
350
4E
  3
A2
350
4F
  3
A3
350
50
  3
A4
350
51
  3
A5
350
52
  3
A6
350
53
  3
A7
350
54
  3
A8
350
55
  3
A9
350
56
  3
B0
350
57
  3
B1
350
58
  3
B2
350
59
  3
B3
350
5A
  3
B4
350
5B
  3
B5
350
5C
  3
B6
350
5D
  3
B7
350
5E
  3
B8
350
5F
  3
B9
350
60
  3
C0
350
61
  3
C1
350
62
  3
C2
350
63
  3
C3
350
64
  3
C4
350
65
  3
C5
350
66
  3
C6
350
67
  3
C7
350
68
  3
C8
350
69
  3
C9
350
6A
  3
D0
350
6B
  3
D1
350
6C
  3
D2
350
6D
  0
DICTIONARY
  5
46
102
{ACAD_REACTORS
330
9
102
}
330
9
100
AcDbDictionary
281
     1
  3
Standard
350
49
  0
DICTIONARY
  5
2B
102
{ACAD_REACTORS
330
9
102
}
330
9
100
AcDbDictionary
281
     1
  3
2dWireframe
350
2A
  3
Basic
350
236
  3
Brighten
350
23A
  3
ColorChange
350
23E
  3
Conceptual
350
238
  3
Dim
350
239
  3
EdgeColorOff
350
246
  3
Facepattern
350
23D
  3
Flat
350
232
  3
FlatWithEdges
350
233
  3
Gouraud
350
234
  3
GouraudWithEdges
350
235
  3
Hidden
350
237
  3
JitterOff
350
244
  3
Linepattern
350
23C
  3
OverhangOff
350
245
  3
Realistic
350
4B
  3
Shaded
350
243
  3
Shaded with edges
350
242
  3
Shades of Gray
350
23F
  3
Sketchy
350
240
  3
Thicken
350
23B
  3
Wireframe
350
4C
  3
X-Ray
350
241
  0
XRECORD
  5
27F
102
{ACAD_REACTORS
330
9
102
}
330
9
100
AcDbXrecord
280
     1
 90
        1
330
49
  0
DICTIONARY
  5
229
102
{ACAD_REACTORS
330
9
102
}
330
9
100
AcDbDictionary
281
     1
  3
CANNOSCALE
350
22D
  3
CMLEADERSTYLE
350
22B
  3
CTABLESTYLE
350
22A
  3
DIMASSOC
350
27C
  3
HIDETEXT
350
27B
  3
INDEXCTL
350
27A
  3
LAYEREVAL
350
22F
  3
LAYERNOTIFY
350
230
  3
LIGHTINGUNITS
350
22E
  3
MSLTSCALE
350
22C
  3
SORTENTS
350
279
  3
XCLIPFRAME
350
27D
  0
DICTIONARY
  5
1DC
102
{ACAD_REACTORS
330
9
102
}
330
9
100
AcDbDictionary
281
     1
  3
AcmStdDictionary
350
1DD
  0
DICTIONARY
  5
1CD
102
{ACAD_REACTORS
330
9
102
}
330
9
100
AcDbDictionary
281
     1
  3
AcMgSettings
350
1D7
  0
DICTIONARY
  5
1D
102
{ACAD_REACTORS
330
1C
102
}
330
1C
100
AcDbDictionary
281
     1
  0
DICTIONARY
  5
1E
102
{ACAD_REACTORS
330
1C
102
}
330
1C
100
AcDbDictionary
281
     1
1001
ACAD
1000
<All
  0
SORTENTSTABLE
  5
1CB
102
{ACAD_REACTORS
330
3
102
}
330
3
100
AcDbSortentsTable
330
2
331
1AB
  5
117
331
1A3
  5
16D
331
16C
  5
1A4
331
7B
  5
1BF
331
1C2
  5
78
331
183
  5
18D
331
18B
  5
185
331
1AA
  5
132
331
1A2
  5
16E
331
16B
  5
1A5
331
7A
  5
1C0
331
1C9
  5
1C6
331
133
  5
1A9
331
18A
  5
186
331
1C1
  5
79
331
182
  5
18E
331
1A9
  5
133
331
16A
  5
1A6
331
1A1
  5
16F
331
79
  5
1C1
331
132
  5
1AA
331
189
  5
187
331
1C0
  5
7A
331
181
  5
18F
331
1A8
  5
14E
331
169
  5
1A7
331
1A0
  5
170
331
78
  5
1C2
331
1BF
  5
7B
331
180
  5
190
331
1B7
  5
88
331
197
  5
179
331
19F
  5
171
331
1BE
  5
7C
331
17F
  5
191
331
177
  5
199
331
1B6
  5
89
331
196
  5
17A
331
19E
  5
172
331
1BD
  5
7D
331
A5
  5
1B5
331
17E
  5
192
331
176
  5
19A
331
1B5
  5
A5
331
85
  5
1B8
331
19D
  5
173
331
195
  5
17B
331
1BC
  5
7E
331
17D
  5
193
331
175
  5
19B
331
1B4
  5
C0
331
84
  5
1B9
331
19C
  5
174
331
194
  5
17C
331
1BB
  5
82
331
17C
  5
194
331
174
  5
19C
331
1B3
  5
DB
331
19B
  5
175
331
193
  5
17D
331
83
  5
1BA
331
1BA
  5
83
331
17B
  5
195
331
1B2
  5
F6
331
173
  5
19D
331
77
  5
1C3
331
19A
  5
176
331
192
  5
17E
331
82
  5
1BB
331
FC
  5
1AC
331
1B9
  5
84
331
17A
  5
196
331
1B1
  5
F7
331
172
  5
19E
331
6E
  5
1C5
331
199
  5
177
331
191
  5
17F
331
FB
  5
1AD
331
C0
  5
1B4
331
89
  5
1B6
331
1B8
  5
85
331
75
  5
1C4
331
179
  5
197
331
1B0
  5
F8
331
171
  5
19F
331
88
  5
1B7
331
198
  5
178
331
FA
  5
1AE
331
190
  5
180
331
178
  5
198
331
1AF
  5
F9
331
1A7
  5
169
331
170
  5
1A0
331
F9
  5
1AF
331
187
  5
189
331
1C6
  5
1C9
331
18F
  5
181
331
1AE
  5
FA
331
16F
  5
1A1
331
1A6
  5
16A
331
7E
  5
1BC
331
F8
  5
1B0
331
18E
  5
182
331
186
  5
18A
331
1C5
  5
6E
331
1AD
  5
FB
331
117
  5
1AB
331
14E
  5
1A8
331
1A5
  5
16B
331
16E
  5
1A2
331
7D
  5
1BD
331
F7
  5
1B1
331
18D
  5
183
331
185
  5
18B
331
1C4
  5
75
331
DB
  5
1B3
331
1AC
  5
FC
331
16D
  5
1A3
331
1A4
  5
16C
331
7C
  5
1BE
331
F6
  5
1B2
331
18C
  5
184
331
1C3
  5
77
331
184
  5
18C
  0
XRECORD
  5
281
102
{ACAD_REACTORS
330
280
102
}
330
280
100
AcDbXrecord
280
     1
 70
     1
  0
XRECORD
  5
283
102
{ACAD_REACTORS
330
280
102
}
330
280
100
AcDbXrecord
280
     1
340
24
  0
XRECORD
  5
284
102
{ACAD_REACTORS
330
280
102
}
330
280
100
AcDbXrecord
280
     1
340
24
  0
XRECORD
  5
282
102
{ACAD_REACTORS
330
280
102
}
330
280
100
AcDbXrecord
280
     1
340
24
  0
LAYOUT
  5
1A
102
{ACAD_XDICTIONARY
360
288
102
}
102
{ACAD_REACTORS
330
16
102
}
330
16
100
AcDbPlotSettings
  1

  2
\\le-server\HP LaserJet 2100
  4

  6

 40
0.0
 41
0.0
 42
0.0
 43
0.0
 44
0.0
 45
0.0
 46
0.0
 47
0.0
 48
0.0
 49
0.0
140
0.0
141
0.0
142
1.0
143
1.0
 70
   688
 72
     0
 73
     0
 74
     5
  7

 75
    16
147
1.0
148
0.0
149
0.0
100
AcDbLayout
  1
Layout1
 70
     1
 71
     1
 10
0.0
 20
0.0
 11
1189.0
 21
840.9999999999998
 12
0.0
 22
0.0
 32
0.0
 14
0.0
 24
0.0
 34
0.0
 15
1189.0
 25
840.9999999999998
 35
0.0
146
0.0
 13
0.0
 23
0.0
 33
0.0
 16
1.0
 26
0.0
 36
0.0
 17
0.0
 27
1.0
 37
0.0
 76
     0
330
17
  0
LAYOUT
  5
15
102
{ACAD_XDICTIONARY
360
286
102
}
102
{ACAD_REACTORS
330
16
102
}
330
16
100
AcDbPlotSettings
  1

  2
\\le-server\HP LaserJet 2100
  4

  6

 40
0.0
 41
0.0
 42
0.0
 43
0.0
 44
0.0
 45
0.0
 46
0.0
 47
0.0
 48
0.0
 49
0.0
140
0.0
141
0.0
142
1.0
143
1.0
 70
  1712
 72
     0
 73
     0
 74
     0
  7

 75
     0
147
1.0
148
0.0
149
0.0
100
AcDbLayout
  1
Model
 70
     1
 71
     0
 10
0.0
 20
0.0
 11
12.0
 21
9.0
 12
0.0
 22
0.0
 32
0.0
 14
0.0
 24
0.0
 34
0.0
 15
0.0
 25
0.0
 35
0.0
146
0.0
 13
0.0
 23
0.0
 33
0.0
 16
1.0
 26
0.0
 36
0.0
 17
0.0
 27
1.0
 37
0.0
 76
     0
330
2
331
29
  0
MATERIAL
  5
3C
102
{ACAD_XDICTIONARY
360
3D
102
}
102
{ACAD_REACTORS
330
B
102
}
330
B
100
AcDbMaterial
  1
ByBlock
 72
     0
 43
0.0208333333333333
 43
0.0
 43
0.0
 43
0.0
 43
0.0
 43
0.0208333333333333
 43
0.0
 43
0.0
 43
0.0
 43
0.0
 43
1.0
 43
0.0
 43
0.0
 43
0.0
 43
0.0
 43
1.0
 77
     0
 47
0.0208333333333333
 47
0.0
 47
0.0
 47
0.0
 47
0.0
 47
0.0208333333333333
 47
0.0
 47
0.0
 47
0.0
 47
0.0
 47
1.0
 47
0.0
 47
0.0
 47
0.0
 47
0.0
 47
1.0
171
     0
 49
0.0208333333333333
 49
0.0
 49
0.0
 49
0.0
 49
0.0
 49
0.0208333333333333
 49
0.0
 49
0.0
 49
0.0
 49
0.0
 49
1.0
 49
0.0
 49
0.0
 49
0.0
 49
0.0
 49
1.0
175
     0
142
0.0208333333333333
142
0.0
142
0.0
142
0.0
142
0.0
142
0.0208333333333333
142
0.0
142
0.0
142
0.0
142
0.0
142
1.0
142
0.0
142
0.0
142
0.0
142
0.0
142
1.0
179
     0
144
0.0208333333333333
144
0.0
144
0.0
144
0.0
144
0.0
144
0.0208333333333333
144
0.0
144
0.0
144
0.0
144
0.0
144
1.0
144
0.0
144
0.0
144
0.0
144
0.0
144
1.0
147
0.0208333333333333
147
0.0
147
0.0
147
0.0
147
0.0
147
0.0208333333333333
147
0.0
147
0.0
147
0.0
147
0.0
147
1.0
147
0.0
147
0.0
147
0.0
147
0.0
147
1.0
  0
MATERIAL
  5
34
102
{ACAD_XDICTIONARY
360
35
102
}
102
{ACAD_REACTORS
330
B
102
}
330
B
100
AcDbMaterial
  1
ByLayer
 72
     0
 43
0.0208333333333333
 43
0.0
 43
0.0
 43
0.0
 43
0.0
 43
0.0208333333333333
 43
0.0
 43
0.0
 43
0.0
 43
0.0
 43
1.0
 43
0.0
 43
0.0
 43
0.0
 43
0.0
 43
1.0
 77
     0
 47
0.0208333333333333
 47
0.0
 47
0.0
 47
0.0
 47
0.0
 47
0.0208333333333333
 47
0.0
 47
0.0
 47
0.0
 47
0.0
 47
1.0
 47
0.0
 47
0.0
 47
0.0
 47
0.0
 47
1.0
171
     0
 49
0.0208333333333333
 49
0.0
 49
0.0
 49
0.0
 49
0.0
 49
0.0208333333333333
 49
0.0
 49
0.0
 49
0.0
 49
0.0
 49
1.0
 49
0.0
 49
0.0
 49
0.0
 49
0.0
 49
1.0
175
     0
142
0.0208333333333333
142
0.0
142
0.0
142
0.0
142
0.0
142
0.0208333333333333
142
0.0
142
0.0
142
0.0
142
0.0
142
1.0
142
0.0
142
0.0
142
0.0
142
0.0
142
1.0
179
     0
144
0.0208333333333333
144
0.0
144
0.0
144
0.0
144
0.0
144
0.0208333333333333
144
0.0
144
0.0
144
0.0
144
0.0
144
1.0
144
0.0
144
0.0
144
0.0
144
0.0
144
1.0
147
0.0208333333333333
147
0.0
147
0.0
147
0.0
147
0.0
147
0.0208333333333333
147
0.0
147
0.0
147
0.0
147
0.0
147
1.0
147
0.0
147
0.0
147
0.0
147
0.0
147
1.0
  0
MATERIAL
  5
A
102
{ACAD_XDICTIONARY
360
C
102
}
102
{ACAD_REACTORS
330
B
102
}
330
B
100
AcDbMaterial
  1
Global
 72
     0
 43
0.0208333333333333
 43
0.0
 43
0.0
 43
0.0
 43
0.0
 43
0.0208333333333333
 43
0.0
 43
0.0
 43
0.0
 43
0.0
 43
1.0
 43
0.0
 43
0.0
 43
0.0
 43
0.0
 43
1.0
 77
     0
 47
0.0208333333333333
 47
0.0
 47
0.0
 47
0.0
 47
0.0
 47
0.0208333333333333
 47
0.0
 47
0.0
 47
0.0
 47
0.0
 47
1.0
 47
0.0
 47
0.0
 47
0.0
 47
0.0
 47
1.0
171
     0
 49
0.0208333333333333
 49
0.0
 49
0.0
 49
0.0
 49
0.0
 49
0.0208333333333333
 49
0.0
 49
0.0
 49
0.0
 49
0.0
 49
1.0
 49
0.0
 49
0.0
 49
0.0
 49
0.0
 49
1.0
175
     0
142
0.0208333333333333
142
0.0
142
0.0
142
0.0
142
0.0
142
0.0208333333333333
142
0.0
142
0.0
142
0.0
142
0.0
142
1.0
142
0.0
142
0.0
142
0.0
142
0.0
142
1.0
179
     0
144
0.0208333333333333
144
0.0
144
0.0
144
0.0
144
0.0
144
0.0208333333333333
144
0.0
144
0.0
144
0.0
144
0.0
144
1.0
144
0.0
144
0.0
144
0.0
144
0.0
144
1.0
147
0.0208333333333333
147
0.0
147
0.0
147
0.0
147
0.0
147
0.0208333333333333
147
0.0
147
0.0
147
0.0
147
0.0
147
1.0
147
0.0
147
0.0
147
0.0
147
0.0
147
1.0
  0
MLEADERSTYLE
  5
247
102
{ACAD_REACTORS
330
47
102
}
330
47
100
AcDbMLeaderStyle
170
     2
171
     1
172
     0
 90
        2
 40
0.0
 41
0.0
173
     1
 91
-1056964608
340
24
 92
       -2
290
     1
 42
2.0
291
     1
 43
0.36
  3
Standard
 44
4.0
300

342
21
174
     1
178
     6
175
     1
176
     0
 93
-1056964608
 45
4.0
292
     0
297
     0
 46
4.0
 94
-1056964608
 47
1.0
 49
1.0
140
1.0
293
     1
141
0.0
294
     1
177
     0
142
1.0
295
     0
296
     0
143
0.125
1001
ACAD_MLEADERVER
1070
     2
  0
MLINESTYLE
  5
48
102
{ACAD_REACTORS
330
32
102
}
330
32
100
AcDbMlineStyle
  2
STANDARD
 70
     0
  3

 62
   256
 51
90.0
 52
90.0
 71
     2
 49
0.5
 62
   256
  6
BYLAYER
 49
-0.5
 62
   256
  6
BYLAYER
  0
ACDBPLACEHOLDER
  5
7
102
{ACAD_REACTORS
330
8
102
}
330
8
  0
SCALE
  5
4D
102
{ACAD_REACTORS
330
45
102
}
330
45
100
AcDbScale
 70
     0
300
1:1
140
1.0
141
1.0
290
     1
  0
SCALE
  5
4E
102
{ACAD_REACTORS
330
45
102
}
330
45
100
AcDbScale
 70
     0
300
1:2
140
1.0
141
2.0
290
     0
  0
SCALE
  5
4F
102
{ACAD_REACTORS
330
45
102
}
330
45
100
AcDbScale
 70
     0
300
1:4
140
1.0
141
4.0
290
     0
  0
SCALE
  5
50
102
{ACAD_REACTORS
330
45
102
}
330
45
100
AcDbScale
 70
     0
300
1:5
140
1.0
141
5.0
290
     0
  0
SCALE
  5
51
102
{ACAD_REACTORS
330
45
102
}
330
45
100
AcDbScale
 70
     0
300
1:8
140
1.0
141
8.0
290
     0
  0
SCALE
  5
52
102
{ACAD_REACTORS
330
45
102
}
330
45
100
AcDbScale
 70
     0
300
1:10
140
1.0
141
10.0
290
     0
  0
SCALE
  5
53
102
{ACAD_REACTORS
330
45
102
}
330
45
100
AcDbScale
 70
     0
300
1:16
140
1.0
141
16.0
290
     0
  0
SCALE
  5
54
102
{ACAD_REACTORS
330
45
102
}
330
45
100
AcDbScale
 70
     0
300
1:20
140
1.0
141
20.0
290
     0
  0
SCALE
  5
55
102
{ACAD_REACTORS
330
45
102
}
330
45
100
AcDbScale
 70
     0
300
1:30
140
1.0
141
30.0
290
     0
  0
SCALE
  5
56
102
{ACAD_REACTORS
330
45
102
}
330
45
100
AcDbScale
 70
     0
300
1:40
140
1.0
141
40.0
290
     0
  0
SCALE
  5
57
102
{ACAD_REACTORS
330
45
102
}
330
45
100
AcDbScale
 70
     0
300
1:50
140
1.0
141
50.0
290
     0
  0
SCALE
  5
58
102
{ACAD_REACTORS
330
45
102
}
330
45
100
AcDbScale
 70
     0
300
1:100
140
1.0
141
100.0
290
     0
  0
SCALE
  5
59
102
{ACAD_REACTORS
330
45
102
}
330
45
100
AcDbScale
 70
     0
300
2:1
140
2.0
141
1.0
290
     0
  0
SCALE
  5
5A
102
{ACAD_REACTORS
330
45
102
}
330
45
100
AcDbScale
 70
     0
300
4:1
140
4.0
141
1.0
290
     0
  0
SCALE
  5
5B
102
{ACAD_REACTORS
330
45
102
}
330
45
100
AcDbScale
 70
     0
300
8:1
140
8.0
141
1.0
290
     0
  0
SCALE
  5
5C
102
{ACAD_REACTORS
330
45
102
}
330
45
100
AcDbScale
 70
     0
300
10:1
140
10.0
141
1.0
290
     0
  0
SCALE
  5
5D
102
{ACAD_REACTORS
330
45
102
}
330
45
100
AcDbScale
 70
     0
300
100:1
140
100.0
141
1.0
290
     0
  0
SCALE
  5
5E
102
{ACAD_REACTORS
330
45
102
}
330
45
100
AcDbScale
 70
     0
300
1/128" = 1'-0"
140
0.0078125
141
12.0
290
     0
  0
SCALE
  5
5F
102
{ACAD_REACTORS
330
45
102
}
330
45
100
AcDbScale
 70
     0
300
1/64" = 1'-0"
140
0.015625
141
12.0
290
     0
  0
SCALE
  5
60
102
{ACAD_REACTORS
330
45
102
}
330
45
100
AcDbScale
 70
     0
300
1/32" = 1'-0"
140
0.03125
141
12.0
290
     0
  0
SCALE
  5
61
102
{ACAD_REACTORS
330
45
102
}
330
45
100
AcDbScale
 70
     0
300
1/16" = 1'-0"
140
0.0625
141
12.0
290
     0
  0
SCALE
  5
62
102
{ACAD_REACTORS
330
45
102
}
330
45
100
AcDbScale
 70
     0
300
3/32" = 1'-0"
140
0.09375
141
12.0
290
     0
  0
SCALE
  5
63
102
{ACAD_REACTORS
330
45
102
}
330
45
100
AcDbScale
 70
     0
300
1/8" = 1'-0"
140
0.125
141
12.0
290
     0
  0
SCALE
  5
64
102
{ACAD_REACTORS
330
45
102
}
330
45
100
AcDbScale
 70
     0
300
3/16" = 1'-0"
140
0.1875
141
12.0
290
     0
  0
SCALE
  5
65
102
{ACAD_REACTORS
330
45
102
}
330
45
100
AcDbScale
 70
     0
300
1/4" = 1'-0"
140
0.25
141
12.0
290
     0
  0
SCALE
  5
66
102
{ACAD_REACTORS
330
45
102
}
330
45
100
AcDbScale
 70
     0
300
3/8" = 1'-0"
140
0.375
141
12.0
290
     0
  0
SCALE
  5
67
102
{ACAD_REACTORS
330
45
102
}
330
45
100
AcDbScale
 70
     0
300
1/2" = 1'-0"
140
0.5
141
12.0
290
     0
  0
SCALE
  5
68
102
{ACAD_REACTORS
330
45
102
}
330
45
100
AcDbScale
 70
     0
300
3/4" = 1'-0"
140
0.75
141
12.0
290
     0
  0
SCALE
  5
69
102
{ACAD_REACTORS
330
45
102
}
330
45
100
AcDbScale
 70
     0
300
1" = 1'-0"
140
1.0
141
12.0
290
     0
  0
SCALE
  5
6A
102
{ACAD_REACTORS
330
45
102
}
330
45
100
AcDbScale
 70
     0
300
1-1/2" = 1'-0"
140
1.5
141
12.0
290
     0
  0
SCALE
  5
6B
102
{ACAD_REACTORS
330
45
102
}
330
45
100
AcDbScale
 70
     0
300
3" = 1'-0"
140
3.0
141
12.0
290
     0
  0
SCALE
  5
6C
102
{ACAD_REACTORS
330
45
102
}
330
45
100
AcDbScale
 70
     0
300
6" = 1'-0"
140
6.0
141
12.0
290
     0
  0
SCALE
  5
6D
102
{ACAD_REACTORS
330
45
102
}
330
45
100
AcDbScale
 70
     0
300
1'-0" = 1'-0"
140
12.0
141
12.0
290
     0
  0
TABLESTYLE
  5
49
102
{ACAD_XDICTIONARY
360
4A
102
}
102
{ACAD_REACTORS
330
46
102
}
330
46
100
AcDbTableStyle
  3
Standard
 70
     0
 71
     0
 40
0.06
 41
0.06
280
     0
281
     0
  7
STANDARD
140
0.18
170
     2
 62
     0
 63
     7
283
     0
274
    -2
284
     1
 64
     0
275
    -2
285
     1
 65
     0
276
    -2
286
     1
 66
     0
277
    -2
287
     1
 67
     0
278
    -2
288
     1
 68
     0
279
    -2
289
     1
 69
     0
  7
STANDARD
140
0.25
170
     5
 62
     0
 63
     7
283
     0
274
    -2
284
     1
 64
     0
275
    -2
285
     1
 65
     0
276
    -2
286
     1
 66
     0
277
    -2
287
     1
 67
     0
278
    -2
288
     1
 68
     0
279
    -2
289
     1
 69
     0
  7
STANDARD
140
0.18
170
     5
 62
     0
 63
     7
283
     0
274
    -2
284
     1
 64
     0
275
    -2
285
     1
 65
     0
276
    -2
286
     1
 66
     0
277
    -2
287
     1
 67
     0
278
    -2
288
     1
 68
     0
279
    -2
289
     1
 69
     0
  0
VISUALSTYLE
  5
2A
102
{ACAD_XDICTIONARY
360
28A
102
}
102
{ACAD_REACTORS
330
2B
102
}
330
2B
100
AcDbVisualStyle
  2
2dWireframe
 70
     4
 71
     0
 72
     2
 73
     0
 90
        0
 40
-0.6
 41
-30.0
 62
     5
 63
     7
 74
     1
 91
        4
 64
     7
 65
   257
 75
     1
175
     1
 42
1.0
 92
        0
 66
   257
 43
1.0
 76
     1
 77
     6
 78
     2
 67
     7
 79
     5
170
     0
171
     0
290
     0
174
     0
 93
        1
 44
0.0
173
     0
291
     0
 45
0.0
1001
ACAD
1000
AcDbSavedByObjectVersion
1070
     0
  0
VISUALSTYLE
  5
236
102
{ACAD_XDICTIONARY
360
2A1
102
}
102
{ACAD_REACTORS
330
2B
102
}
330
2B
100
AcDbVisualStyle
  2
Basic
 70
     7
 71
     1
 72
     0
 73
     1
 90
        0
 40
-0.6
 41
-30.0
 62
     5
 63
     7
 74
     0
 91
        4
 64
     7
 65
   257
 75
     1
175
     1
 42
1.0
 92
        8
 66
     7
 43
1.0
 76
     1
 77
     6
 78
     2
 67
     7
 79
     5
170
     0
171
     0
290
     0
174
     0
 93
        1
 44
0.0
173
     0
291
     1
 45
0.0
1001
ACAD
1000
AcDbSavedByObjectVersion
1070
     0
  0
VISUALSTYLE
  5
23A
102
{ACAD_XDICTIONARY
360
2A9
102
}
102
{ACAD_REACTORS
330
2B
102
}
330
2B
100
AcDbVisualStyle
  2
Brighten
 70
    12
 71
     2
 72
     2
 73
     0
 90
        0
 40
-0.6
 41
-30.0
 62
     5
 63
     7
 74
     1
 91
        4
 64
     7
 65
   257
 75
     1
175
     1
 42
1.0
 92
        8
 66
     7
 43
1.0
 76
     1
 77
     6
 78
     2
 67
     7
 79
     5
170
     0
171
     0
290
     0
174
     0
 93
        1
 44
50.0
173
     0
291
     1
 45
0.0
1001
ACAD
1000
AcDbSavedByObjectVersion
1070
     0
  0
VISUALSTYLE
  5
23E
102
{ACAD_XDICTIONARY
360
2B1
102
}
102
{ACAD_REACTORS
330
2B
102
}
330
2B
100
AcDbVisualStyle
  2
ColorChange
 70
    16
 71
     2
 72
     2
 73
     3
 90
        0
 40
-0.6
 41
-30.0
 62
     5
 63
     8
 74
     1
 91
        4
 64
     7
 65
   257
 75
     1
175
     1
 42
1.0
 92
        8
 66
     8
 43
1.0
 76
     1
 77
     6
 78
     2
 67
     7
 79
     5
170
     0
171
     0
290
     0
174
     0
 93
        1
 44
0.0
173
     0
291
     1
 45
0.0
1001
ACAD
1000
AcDbSavedByObjectVersion
1070
     0
  0
VISUALSTYLE
  5
238
102
{ACAD_XDICTIONARY
360
2A5
102
}
102
{ACAD_REACTORS
330
2B
102
}
330
2B
100
AcDbVisualStyle
  2
Conceptual
 70
     9
 71
     3
 72
     2
 73
     0
 90
        0
 40
-0.6
 41
-30.0
 62
     5
 63
     7
 74
     2
 91
        2
 64
     7
 65
   257
 75
     1
175
     1
 42
179.0
 92
        8
 66
     7
 43
1.0
 76
     1
 77
     6
 78
     2
 67
     7
 79
     3
170
     0
171
     0
290
     0
174
     0
 93
        1
 44
0.0
173
     0
291
     0
 45
0.0
1001
ACAD
1000
AcDbSavedByObjectVersion
1070
     0
  0
VISUALSTYLE
  5
239
102
{ACAD_XDICTIONARY
360
2A7
102
}
102
{ACAD_REACTORS
330
2B
102
}
330
2B
100
AcDbVisualStyle
  2
Dim
 70
    11
 71
     2
 72
     2
 73
     0
 90
        0
 40
-0.6
 41
-30.0
 62
     5
 63
     7
 74
     1
 91
        4
 64
     7
 65
   257
 75
     1
175
     1
 42
1.0
 92
        8
 66
     7
 43
1.0
 76
     1
 77
     6
 78
     2
 67
     7
 79
     5
170
     0
171
     0
290
     0
174
     0
 93
        1
 44
-50.0
173
     0
291
     1
 45
0.0
1001
ACAD
1000
AcDbSavedByObjectVersion
1070
     0
  0
VISUALSTYLE
  5
246
102
{ACAD_XDICTIONARY
360
2C1
102
}
102
{ACAD_REACTORS
330
2B
102
}
330
2B
100
AcDbVisualStyle
  2
EdgeColorOff
 70
    22
 71
     2
 72
     2
 73
     0
 90
        0
 40
-0.6
 41
-30.0
 62
     5
 63
     7
 74
     1
 91
        4
 64
     7
 65
   257
 75
     1
175
     1
 42
1.0
 92
        8
 66
     7
 43
1.0
 76
     1
 77
     6
 78
     2
 67
     7
 79
     5
170
     0
171
     0
290
     0
174
     0
 93
        1
 44
0.0
173
     0
291
     1
 45
0.0
1001
ACAD
1000
AcDbSavedByObjectVersion
1070
     0
  0
VISUALSTYLE
  5
23D
102
{ACAD_XDICTIONARY
360
2AF
102
}
102
{ACAD_REACTORS
330
2B
102
}
330
2B
100
AcDbVisualStyle
  2
Facepattern
 70
    15
 71
     2
 72
     2
 73
     0
 90
        0
 40
-0.6
 41
-30.0
 62
     5
 63
     7
 74
     1
 91
        4
 64
     7
 65
   257
 75
     1
175
     1
 42
1.0
 92
        8
 66
     7
 43
1.0
 76
     1
 77
     6
 78
     2
 67
     7
 79
     5
170
     0
171
     0
290
     0
174
     0
 93
        1
 44
0.0
173
     0
291
     1
 45
0.0
1001
ACAD
1000
AcDbSavedByObjectVersion
1070
     0
  0
VISUALSTYLE
  5
232
102
{ACAD_XDICTIONARY
360
299
102
}
102
{ACAD_REACTORS
330
2B
102
}
330
2B
100
AcDbVisualStyle
  2
Flat
 70
     0
 71
     2
 72
     1
 73
     1
 90
        2
 40
-0.6
 41
30.0
 62
     5
 63
     7
 74
     0
 91
        0
 64
     7
 65
   257
 75
     1
175
     1
 42
1.0
 92
        8
 66
     7
 43
1.0
 76
     1
 77
     6
 78
     2
 67
     7
 79
     5
170
     0
171
     0
290
     0
174
     0
 93
       13
 44
0.0
173
     0
291
     1
 45
0.0
1001
ACAD
1000
AcDbSavedByObjectVersion
1070
     0
  0
VISUALSTYLE
  5
233
102
{ACAD_XDICTIONARY
360
29B
102
}
102
{ACAD_REACTORS
330
2B
102
}
330
2B
100
AcDbVisualStyle
  2
FlatWithEdges
 70
     1
 71
     2
 72
     1
 73
     1
 90
        2
 40
-0.6
 41
30.0
 62
     5
 63
     7
 74
     1
 91
        0
 64
     7
 65
   257
 75
     1
175
     1
 42
1.0
 92
        0
 66
   257
 43
1.0
 76
     1
 77
     6
 78
     2
 67
     7
 79
     5
170
     0
171
     0
290
     0
174
     0
 93
       13
 44
0.0
173
     0
291
     1
 45
0.0
1001
ACAD
1000
AcDbSavedByObjectVersion
1070
     0
  0
VISUALSTYLE
  5
234
102
{ACAD_XDICTIONARY
360
29D
102
}
102
{ACAD_REACTORS
330
2B
102
}
330
2B
100
AcDbVisualStyle
  2
Gouraud
 70
     2
 71
     2
 72
     2
 73
     1
 90
        2
 40
-0.6
 41
30.0
 62
     5
 63
     7
 74
     0
 91
        0
 64
     7
 65
   257
 75
     1
175
     1
 42
1.0
 92
        0
 66
     7
 43
1.0
 76
     1
 77
     6
 78
     2
 67
     7
 79
     5
170
     0
171
     0
290
     0
174
     0
 93
       13
 44
0.0
173
     0
291
     1
 45
0.0
1001
ACAD
1000
AcDbSavedByObjectVersion
1070
     0
  0
VISUALSTYLE
  5
235
102
{ACAD_XDICTIONARY
360
29F
102
}
102
{ACAD_REACTORS
330
2B
102
}
330
2B
100
AcDbVisualStyle
  2
GouraudWithEdges
 70
     3
 71
     2
 72
     2
 73
     1
 90
        2
 40
-0.6
 41
30.0
 62
     5
 63
     7
 74
     1
 91
        0
 64
     7
 65
   257
 75
     1
175
     1
 42
1.0
 92
        0
 66
   257
 43
1.0
 76
     1
 77
     6
 78
     2
 67
     7
 79
     5
170
     0
171
     0
290
     0
174
     0
 93
       13
 44
0.0
173
     0
291
     1
 45
0.0
1001
ACAD
1000
AcDbSavedByObjectVersion
1070
     0
  0
VISUALSTYLE
  5
237
102
{ACAD_XDICTIONARY
360
2A3
102
}
102
{ACAD_REACTORS
330
2B
102
}
330
2B
100
AcDbVisualStyle
  2
Hidden
 70
     6
 71
     1
 72
     2
 73
     2
 90
        0
 40
-0.6
 41
-30.0
 62
     5
 63
     7
 74
     2
 91
        2
 64
     7
 65
   257
 75
     2
175
     1
 42
40.0
 92
        0
 66
   257
 43
1.0
 76
     1
 77
     6
 78
     2
 67
     7
 79
     3
170
     0
171
     0
290
     0
174
     0
 93
        1
 44
0.0
173
     0
291
     0
 45
0.0
1001
ACAD
1000
AcDbSavedByObjectVersion
1070
     0
  0
VISUALSTYLE
  5
244
102
{ACAD_XDICTIONARY
360
2BD
102
}
102
{ACAD_REACTORS
330
2B
102
}
330
2B
100
AcDbVisualStyle
  2
JitterOff
 70
    20
 71
     2
 72
     2
 73
     0
 90
        0
 40
-0.6
 41
-30.0
 62
     5
 63
     7
 74
     1
 91
        4
 64
     7
 65
   257
 75
     1
175
     1
 42
1.0
 92
       10
 66
     7
 43
1.0
 76
     1
 77
     6
 78
     2
 67
     7
 79
     5
170
     0
171
     0
290
     0
174
     0
 93
        1
 44
0.0
173
     0
291
     1
 45
0.0
1001
ACAD
1000
AcDbSavedByObjectVersion
1070
     0
  0
VISUALSTYLE
  5
23C
102
{ACAD_XDICTIONARY
360
2AD
102
}
102
{ACAD_REACTORS
330
2B
102
}
330
2B
100
AcDbVisualStyle
  2
Linepattern
 70
    14
 71
     2
 72
     2
 73
     0
 90
        0
 40
-0.6
 41
-30.0
 62
     5
 63
     7
 74
     1
 91
        4
 64
     7
 65
   257
 75
     7
175
     7
 42
1.0
 92
        8
 66
     7
 43
1.0
 76
     1
 77
     6
 78
     2
 67
     7
 79
     5
170
     0
171
     0
290
     0
174
     0
 93
        1
 44
0.0
173
     0
291
     1
 45
0.0
1001
ACAD
1000
AcDbSavedByObjectVersion
1070
     0
  0
VISUALSTYLE
  5
245
102
{ACAD_XDICTIONARY
360
2BF
102
}
102
{ACAD_REACTORS
330
2B
102
}
330
2B
100
AcDbVisualStyle
  2
OverhangOff
 70
    21
 71
     2
 72
     2
 73
     0
 90
        0
 40
-0.6
 41
-30.0
 62
     5
 63
     7
 74
     1
 91
        4
 64
     7
 65
   257
 75
     1
175
     1
 42
1.0
 92
        9
 66
     7
 43
1.0
 76
     1
 77
     6
 78
     2
 67
     7
 79
     5
170
     0
171
     0
290
     0
174
     0
 93
        1
 44
0.0
173
     0
291
     1
 45
0.0
1001
ACAD
1000
AcDbSavedByObjectVersion
1070
     0
  0
VISUALSTYLE
  5
4B
102
{ACAD_XDICTIONARY
360
28F
102
}
102
{ACAD_REACTORS
330
2B
102
}
330
2B
100
AcDbVisualStyle
  2
Realistic
 70
     8
 71
     2
 72
     2
 73
     0
 90
        0
 40
-0.6
 41
-30.0
 62
     5
 63
     7
 74
     1
 91
        0
 64
     7
 65
   257
 75
     1
175
     1
 42
1.0
 92
        8
 66
     8
 43
1.0
 76
     1
 77
     6
 78
     2
 67
     7
 79
     5
170
     0
171
     0
290
     0
174
     0
 93
       13
 44
0.0
173
     0
291
     0
 45
0.0
1001
ACAD
1000
AcDbSavedByObjectVersion
1070
     0
  0
VISUALSTYLE
  5
243
102
{ACAD_XDICTIONARY
360
2BB
102
}
102
{ACAD_REACTORS
330
2B
102
}
330
2B
100
AcDbVisualStyle
  2
Shaded
 70
    27
 71
     2
 72
     2
 73
     1
 90
        2
 40
-0.6
 41
30.0
 62
     5
 63
     7
 74
     0
 91
        4
 64
     7
 65
   257
 75
     1
175
     1
 42
1.0
 92
        8
 66
   257
 43
1.0
 76
     1
 77
     6
 78
     2
 67
     8
 79
     3
170
     0
171
     0
290
     0
174
     0
 93
        5
 44
0.0
173
     0
291
     0
 45
0.0
1001
ACAD
1000
AcDbSavedByObjectVersion
1070
     0
  0
VISUALSTYLE
  5
242
102
{ACAD_XDICTIONARY
360
2B9
102
}
102
{ACAD_REACTORS
330
2B
102
}
330
2B
100
AcDbVisualStyle
  2
Shaded with edges
 70
    26
 71
     2
 72
     2
 73
     1
 90
        2
 40
-0.6
 41
30.0
 62
     5
 63
     7
 74
     1
 91
       10
 64
     7
 65
   257
 75
     2
175
     1
 42
1.0
 92
        8
 66
   257
 43
1.0
 76
     1
 77
     6
 78
     2
 67
     7
 79
     3
170
     0
171
     0
290
     0
174
     0
 93
        5
 44
0.0
173
     0
291
     0
 45
0.0
1001
ACAD
1000
AcDbSavedByObjectVersion
1070
     0
  0
VISUALSTYLE
  5
23F
102
{ACAD_XDICTIONARY
360
2B3
102
}
102
{ACAD_REACTORS
330
2B
102
}
330
2B
100
AcDbVisualStyle
  2
Shades of Gray
 70
    23
 71
     2
 72
     2
 73
     3
 90
        0
 40
-0.6
 41
-30.0
 62
     5
 63
     7
 74
     2
 91
        2
 64
     7
 65
     7
 75
     1
175
     1
 42
40.0
 92
        8
 66
     7
 43
1.0
 76
     1
 77
     6
 78
     2
 67
     7
 79
     3
170
     0
171
     0
290
     0
174
     0
 93
        1
 44
0.0
173
     0
291
     0
 45
0.0
1001
ACAD
1000
AcDbSavedByObjectVersion
1070
     0
  0
VISUALSTYLE
  5
240
102
{ACAD_XDICTIONARY
360
2B5
102
}
102
{ACAD_REACTORS
330
2B
102
}
330
2B
100
AcDbVisualStyle
  2
Sketchy
 70
    24
 71
     1
 72
     2
 73
     2
 90
        0
 40
-0.6
 41
-30.0
 62
     5
 63
     7
 74
     2
 91
        2
 64
     7
 65
     7
 75
     1
175
     1
 42
40.0
 92
       11
 66
     7
 43
1.0
 76
     1
 77
     6
 78
     2
 67
     7
 79
     6
170
     0
171
     0
290
     0
174
     0
 93
        1
 44
0.0
173
     0
291
     0
 45
0.0
1001
ACAD
1000
AcDbSavedByObjectVersion
1070
     0
  0
VISUALSTYLE
  5
23B
102
{ACAD_XDICTIONARY
360
2AB
102
}
102
{ACAD_REACTORS
330
2B
102
}
330
2B
100
AcDbVisualStyle
  2
Thicken
 70
    13
 71
     2
 72
     2
 73
     0
 90
        0
 40
-0.6
 41
-30.0
 62
     5
 63
     7
 74
     1
 91
        4
 64
     7
 65
   257
 75
     1
175
     1
 42
1.0
 92
       12
 66
     7
 43
1.0
 76
     1
 77
     6
 78
     2
 67
     7
 79
     5
170
     0
171
     0
290
     0
174
     0
 93
        1
 44
0.0
173
     0
291
     1
 45
0.0
1001
ACAD
1000
AcDbSavedByObjectVersion
1070
     0
  0
VISUALSTYLE
  5
4C
102
{ACAD_XDICTIONARY
360
291
102
}
102
{ACAD_REACTORS
330
2B
102
}
330
2B
100
AcDbVisualStyle
  2
Wireframe
 70
     5
 71
     0
 72
     2
 73
     0
 90
        0
 40
-0.6
 41
-30.0
 62
     5
 63
     7
 74
     1
 91
        4
 64
     7
 65
   257
 75
     1
175
     1
 42
1.0
 92
        0
 66
   257
 43
1.0
 76
     1
 77
     6
 78
     2
 67
     7
 79
     3
170
     0
171
     0
290
     0
174
     0
 93
        1
 44
0.0
173
     0
291
     0
 45
0.0
1001
ACAD
1000
AcDbSavedByObjectVersion
1070
     0
  0
VISUALSTYLE
  5
241
102
{ACAD_XDICTIONARY
360
2B7
102
}
102
{ACAD_REACTORS
330
2B
102
}
330
2B
100
AcDbVisualStyle
  2
X-Ray
 70
    25
 71
     2
 72
     2
 73
     1
 90
        1
 40
0.5
 41
-30.0
 62
     5
 63
     7
 74
     1
 91
        0
 64
     7
 65
   257
 75
     1
175
     1
 42
1.0
 92
        8
 66
     7
 43
1.0
 76
     1
 77
     6
 78
     2
 67
     7
 79
     3
170
     0
171
     0
290
     0
174
     0
 93
       13
 44
0.0
173
     0
291
     0
 45
0.0
1001
ACAD
1000
AcDbSavedByObjectVersion
1070
     0
  0
DICTIONARYVAR
  5
22D
102
{ACAD_REACTORS
330
229
102
}
330
229
100
DictionaryVariables
280
     0
  1
1:1
  0
DICTIONARYVAR
  5
22B
102
{ACAD_REACTORS
330
229
102
}
330
229
100
DictionaryVariables
280
     0
  1
STANDARD
  0
DICTIONARYVAR
  5
22A
102
{ACAD_REACTORS
330
229
102
}
330
229
100
DictionaryVariables
280
     0
  1
STANDARD
  0
DICTIONARYVAR
  5
27C
102
{ACAD_REACTORS
330
229
102
}
330
229
100
DictionaryVariables
280
     0
  1
1
  0
DICTIONARYVAR
  5
27B
102
{ACAD_REACTORS
330
229
102
}
330
229
100
DictionaryVariables
280
     0
  1
1
  0
DICTIONARYVAR
  5
27A
102
{ACAD_REACTORS
330
229
102
}
330
229
100
DictionaryVariables
280
     0
  1
0
  0
DICTIONARYVAR
  5
22F
102
{ACAD_REACTORS
330
229
102
}
330
229
100
DictionaryVariables
280
     0
  1
1
  0
DICTIONARYVAR
  5
230
102
{ACAD_REACTORS
330
229
102
}
330
229
100
DictionaryVariables
280
     0
  1
15
  0
DICTIONARYVAR
  5
22E
102
{ACAD_REACTORS
330
229
102
}
330
229
100
DictionaryVariables
280
     0
  1
0
  0
DICTIONARYVAR
  5
22C
102
{ACAD_REACTORS
330
229
102
}
330
229
100
DictionaryVariables
280
     0
  1
0
  0
DICTIONARYVAR
  5
279
102
{ACAD_REACTORS
330
229
102
}
330
229
100
DictionaryVariables
280
     0
  1
127
  0
DICTIONARYVAR
  5
27D
102
{ACAD_REACTORS
330
229
102
}
330
229
100
DictionaryVariables
280
     0
  1
2
  0
DICTIONARY
  5
1DD
102
{ACAD_REACTORS
330
1DC
102
}
330
1DC
100
AcDbDictionary
281
     1
  0
DICTIONARY
  5
1D7
102
{ACAD_REACTORS
330
1CD
102
}
330
1CD
100
AcDbDictionary
281
     1
  3
DWGSETTINGS
350
1D6
  3
TRANSSETTINGS
350
1D8
  0
DICTIONARY
  5
288
330
1A
100
AcDbDictionary
280
     1
281
     1
  3
ACAD_XREC_ROUNDTRIP
360
289
  0
DICTIONARY
  5
286
330
15
100
AcDbDictionary
280
     1
281
     1
  3
ACAD_XREC_ROUNDTRIP
360
287
  0
DICTIONARY
  5
3D
330
3C
100
AcDbDictionary
280
     1
281
     1
  3
ACAD_XREC_ROUNDTRIP
360
28D
  3
BUMPTILE
360
3E
  3
DIFFUSETILE
360
3F
  3
OPACITYTILE
360
40
  3
REFLECTIONTILE
360
41
  3
REFRACTIONTILE
360
42
  3
SPECULARTILE
360
43
  0
DICTIONARY
  5
35
330
34
100
AcDbDictionary
280
     1
281
     1
  3
ACAD_XREC_ROUNDTRIP
360
28C
  3
BUMPTILE
360
36
  3
DIFFUSETILE
360
37
  3
OPACITYTILE
360
38
  3
REFLECTIONTILE
360
39
  3
REFRACTIONTILE
360
3A
  3
SPECULARTILE
360
3B
  0
DICTIONARY
  5
C
330
A
100
AcDbDictionary
280
     1
281
     1
  3
ACAD_XREC_ROUNDTRIP
360
285
  3
BUMPTILE
360
D
  3
DIFFUSETILE
360
E
  3
OPACITYTILE
360
F
  3
REFLECTIONTILE
360
10
  3
REFRACTIONTILE
360
11
  3
SPECULARTILE
360
12
  0
DICTIONARY
  5
4A
330
49
100
AcDbDictionary
280
     1
281
     1
  3
ACAD_ROUNDTRIP_2008_TABLESTYLE_CELLSTYLEMAP
360
27E
  3
ACAD_XREC_ROUNDTRIP
360
28E
  0
DICTIONARY
  5
28A
330
2A
100
AcDbDictionary
280
     1
281
     1
  3
ACAD_XREC_ROUNDTRIP
360
28B
  0
DICTIONARY
  5
2A1
330
236
100
AcDbDictionary
280
     1
281
     1
  3
ACAD_XREC_ROUNDTRIP
360
2A2
  0
DICTIONARY
  5
2A9
330
23A
100
AcDbDictionary
280
     1
281
     1
  3
ACAD_XREC_ROUNDTRIP
360
2AA
  0
DICTIONARY
  5
2B1
330
23E
100
AcDbDictionary
280
     1
281
     1
  3
ACAD_XREC_ROUNDTRIP
360
2B2
  0
DICTIONARY
  5
2A5
330
238
100
AcDbDictionary
280
     1
281
     1
  3
ACAD_XREC_ROUNDTRIP
360
2A6
  0
DICTIONARY
  5
2A7
330
239
100
AcDbDictionary
280
     1
281
     1
  3
ACAD_XREC_ROUNDTRIP
360
2A8
  0
DICTIONARY
  5
2C1
330
246
100
AcDbDictionary
280
     1
281
     1
  3
ACAD_XREC_ROUNDTRIP
360
2C2
  0
DICTIONARY
  5
2AF
330
23D
100
AcDbDictionary
280
     1
281
     1
  3
ACAD_XREC_ROUNDTRIP
360
2B0
  0
DICTIONARY
  5
299
330
232
100
AcDbDictionary
280
     1
281
     1
  3
ACAD_XREC_ROUNDTRIP
360
29A
  0
DICTIONARY
  5
29B
330
233
100
AcDbDictionary
280
     1
281
     1
  3
ACAD_XREC_ROUNDTRIP
360
29C
  0
DICTIONARY
  5
29D
330
234
100
AcDbDictionary
280
     1
281
     1
  3
ACAD_XREC_ROUNDTRIP
360
29E
  0
DICTIONARY
  5
29F
330
235
100
AcDbDictionary
280
     1
281
     1
  3
ACAD_XREC_ROUNDTRIP
360
2A0
  0
DICTIONARY
  5
2A3
330
237
100
AcDbDictionary
280
     1
281
     1
  3
ACAD_XREC_ROUNDTRIP
360
2A4
  0
DICTIONARY
  5
2BD
330
244
100
AcDbDictionary
280
     1
281
     1
  3
ACAD_XREC_ROUNDTRIP
360
2BE
  0
DICTIONARY
  5
2AD
330
23C
100
AcDbDictionary
280
     1
281
     1
  3
ACAD_XREC_ROUNDTRIP
360
2AE
  0
DICTIONARY
  5
2BF
330
245
100
AcDbDictionary
280
     1
281
     1
  3
ACAD_XREC_ROUNDTRIP
360
2C0
  0
DICTIONARY
  5
28F
330
4B
100
AcDbDictionary
280
     1
281
     1
  3
ACAD_XREC_ROUNDTRIP
360
290
  0
DICTIONARY
  5
2BB
330
243
100
AcDbDictionary
280
     1
281
     1
  3
ACAD_XREC_ROUNDTRIP
360
2BC
  0
DICTIONARY
  5
2B9
330
242
100
AcDbDictionary
280
     1
281
     1
  3
ACAD_XREC_ROUNDTRIP
360
2BA
  0
DICTIONARY
  5
2B3
330
23F
100
AcDbDictionary
280
     1
281
     1
  3
ACAD_XREC_ROUNDTRIP
360
2B4
  0
DICTIONARY
  5
2B5
330
240
100
AcDbDictionary
280
     1
281
     1
  3
ACAD_XREC_ROUNDTRIP
360
2B6
  0
DICTIONARY
  5
2AB
330
23B
100
AcDbDictionary
280
     1
281
     1
  3
ACAD_XREC_ROUNDTRIP
360
2AC
  0
DICTIONARY
  5
291
330
4C
100
AcDbDictionary
280
     1
281
     1
  3
ACAD_XREC_ROUNDTRIP
360
292
  0
DICTIONARY
  5
2B7
330
241
100
AcDbDictionary
280
     1
281
     1
  3
ACAD_XREC_ROUNDTRIP
360
2B8
  0
XRECORD
  5
289
102
{ACAD_REACTORS
330
288
102
}
330
288
100
AcDbXrecord
280
     1
102
SHADEPLOT
 70
     0
102
SHADEPLOTRESLEVEL
 70
     2
102
SHADEPLOTCUSTOMDPI
 70
   300
  0
XRECORD
  5
287
102
{ACAD_REACTORS
330
286
102
}
330
286
100
AcDbXrecord
280
     1
102
SHADEPLOT
 70
     0
102
SHADEPLOTRESLEVEL
 70
     2
102
SHADEPLOTCUSTOMDPI
 70
   300
  0
XRECORD
  5
28D
102
{ACAD_REACTORS
330
3D
102
}
330
3D
100
AcDbXrecord
280
     1
102
MATERIAL
148
0.0
149
0.0
149
0.0
 93
        0
 94
      127
282
     0
 72
     0
 77
     0
171
     0
175
     0
179
     0
273
     0
  0
XRECORD
  5
3E
102
{ACAD_REACTORS
330
3D
102
}
330
3D
100
AcDbXrecord
280
     1
270
     1
271
     1
  0
XRECORD
  5
3F
102
{ACAD_REACTORS
330
3D
102
}
330
3D
100
AcDbXrecord
280
     1
270
     1
271
     1
  0
XRECORD
  5
40
102
{ACAD_REACTORS
330
3D
102
}
330
3D
100
AcDbXrecord
280
     1
270
     1
271
     1
  0
XRECORD
  5
41
102
{ACAD_REACTORS
330
3D
102
}
330
3D
100
AcDbXrecord
280
     1
270
     1
271
     1
  0
XRECORD
  5
42
102
{ACAD_REACTORS
330
3D
102
}
330
3D
100
AcDbXrecord
280
     1
270
     1
271
     1
  0
XRECORD
  5
43
102
{ACAD_REACTORS
330
3D
102
}
330
3D
100
AcDbXrecord
280
     1
270
     1
271
     1
  0
XRECORD
  5
28C
102
{ACAD_REACTORS
330
35
102
}
330
35
100
AcDbXrecord
280
     1
102
MATERIAL
148
0.0
149
0.0
149
0.0
 93
        0
 94
      127
282
     0
 72
     0
 77
     0
171
     0
175
     0
179
     0
273
     0
  0
XRECORD
  5
36
102
{ACAD_REACTORS
330
35
102
}
330
35
100
AcDbXrecord
280
     1
270
     1
271
     1
  0
XRECORD
  5
37
102
{ACAD_REACTORS
330
35
102
}
330
35
100
AcDbXrecord
280
     1
270
     1
271
     1
  0
XRECORD
  5
38
102
{ACAD_REACTORS
330
35
102
}
330
35
100
AcDbXrecord
280
     1
270
     1
271
     1
  0
XRECORD
  5
39
102
{ACAD_REACTORS
330
35
102
}
330
35
100
AcDbXrecord
280
     1
270
     1
271
     1
  0
XRECORD
  5
3A
102
{ACAD_REACTORS
330
35
102
}
330
35
100
AcDbXrecord
280
     1
270
     1
271
     1
  0
XRECORD
  5
3B
102
{ACAD_REACTORS
330
35
102
}
330
35
100
AcDbXrecord
280
     1
270
     1
271
     1
  0
XRECORD
  5
285
102
{ACAD_REACTORS
330
C
102
}
330
C
100
AcDbXrecord
280
     1
102
MATERIAL
148
0.0
149
0.0
149
0.0
 93
        0
 94
      127
282
     0
 72
     0
 77
     0
171
     0
175
     0
179
     0
273
     0
  0
XRECORD
  5
D
102
{ACAD_REACTORS
330
C
102
}
330
C
100
AcDbXrecord
280
     1
270
     1
271
     1
  0
XRECORD
  5
E
102
{ACAD_REACTORS
330
C
102
}
330
C
100
AcDbXrecord
280
     1
270
     1
271
     1
  0
XRECORD
  5
F
102
{ACAD_REACTORS
330
C
102
}
330
C
100
AcDbXrecord
280
     1
270
     1
271
     1
  0
XRECORD
  5
10
102
{ACAD_REACTORS
330
C
102
}
330
C
100
AcDbXrecord
280
     1
270
     1
271
     1
  0
XRECORD
  5
11
102
{ACAD_REACTORS
330
C
102
}
330
C
100
AcDbXrecord
280
     1
270
     1
271
     1
  0
XRECORD
  5
12
102
{ACAD_REACTORS
330
C
102
}
330
C
100
AcDbXrecord
280
     1
270
     1
271
     1
  0
CELLSTYLEMAP
  5
27E
102
{ACAD_REACTORS
330
4A
102
}
330
4A
100
AcDbCellStyleMap
 90
        3
300
CELLSTYLE
  1
TABLEFORMAT_BEGIN
 90
        5
170
     1
 91
        0
 92
    32768
 62
   257
 93
        1
300
CONTENTFORMAT
  1
CONTENTFORMAT_BEGIN
 90
        0
 91
        0
 92
      512
 93
        0
300

 40
0.0
140
1.0
 94
        5
 62
     0
340
21
144
0.25
309
CONTENTFORMAT_END
171
     0
 94
        0
309
TABLEFORMAT_END
  1
CELLSTYLE_BEGIN
 90
        1
 91
        1
300
_TITLE
309
CELLSTYLE_END
300
CELLSTYLE
  1
TABLEFORMAT_BEGIN
 90
        5
170
     1
 91
        0
 92
        0
 62
   257
 93
        1
300
CONTENTFORMAT
  1
CONTENTFORMAT_BEGIN
 90
        0
 91
        0
 92
      512
 93
        0
300

 40
0.0
140
1.0
 94
        5
 62
     0
340
21
144
0.18
309
CONTENTFORMAT_END
171
     0
 94
        0
309
TABLEFORMAT_END
  1
CELLSTYLE_BEGIN
 90
        2
 91
        1
300
_HEADER
309
CELLSTYLE_END
300
CELLSTYLE
  1
TABLEFORMAT_BEGIN
 90
        5
170
     1
 91
        0
 92
        0
 62
   257
 93
        1
300
CONTENTFORMAT
  1
CONTENTFORMAT_BEGIN
 90
        0
 91
        0
 92
      512
 93
        0
300

 40
0.0
140
1.0
 94
        2
 62
     0
340
21
144
0.18
309
CONTENTFORMAT_END
171
     0
 94
        0
309
TABLEFORMAT_END
  1
CELLSTYLE_BEGIN
 90
        3
 91
        2
300
_DATA
309
CELLSTYLE_END
  0
XRECORD
  5
28E
102
{ACAD_REACTORS
330
4A
102
}
330
4A
100
AcDbXrecord
280
     1
102
ACAD_ROUNDTRIP_PRE2007_TABLESTYLE
 90
      512
 91
        0
  1

 92
      512
 93
        0
  2

 94
      512
 95
        0
  3

  0
XRECORD
  5
28B
102
{ACAD_REACTORS
330
28A
102
}
330
28A
100
AcDbXrecord
280
     1
102
RTVSPropertyOp0
 70
     1
102
RTVSPropertyOp1
 70
     1
102
RTVSPropertyOp2
 70
     1
102
RTVSPropertyOp3
 70
     1
102
RTVSPropertyOp4
 70
     1
102
RTVSPropertyOp5
 70
     1
102
RTVSPropertyOp6
 70
     1
102
RTVSPropertyOp7
 70
     1
102
RTVSPropertyOp8
 70
     1
102
RTVSPropertyOp9
 70
     1
102
RTVSPropertyOp10
 70
     1
102
RTVSPropertyOp11
 70
     1
102
RTVSPropertyOp12
 70
     1
102
RTVSPropertyOp13
 70
     1
102
RTVSPropertyOp14
 70
     1
102
RTVSPropertyOp15
 70
     1
102
RTVSPropertyOp16
 70
     1
102
RTVSPropertyOp17
 70
     1
102
RTVSPropertyOp18
 70
     1
102
RTVSPropertyOp19
 70
     1
102
RTVSPropertyOp20
 70
     1
102
RTVSPropertyOp21
 70
     1
102
RTVSPropertyOp22
 70
     1
102
RTVSPropertyOp23
 70
     1
102
RTVSPropertyOp24
 70
     1
102
RTVSPropertyOp25
 70
     1
102
RTVSPropertyOp26
 70
     1
102
RTVSPropertyOp27
 70
     1
102
RTVSPropertyOp28
 70
     1
102
RTVSPropertyOp29
 70
     1
102
RTVSPropertyOp30
 70
     1
102
RTVSPropertyOp31
 70
     1
102
RTVSPropertyOp32
 70
     1
  0
XRECORD
  5
2A2
102
{ACAD_REACTORS
330
2A1
102
}
330
2A1
100
AcDbXrecord
280
     1
102
RTVSPropertyOp0
 70
     1
102
RTVSPropertyOp1
 70
     1
102
RTVSPropertyOp2
 70
     1
102
RTVSPropertyOp3
 70
     1
102
RTVSPropertyOp4
 70
     1
102
RTVSPropertyOp5
 70
     1
102
RTVSPropertyOp6
 70
     1
102
RTVSPropertyOp7
 70
     1
102
RTVSPropertyOp8
 70
     1
102
RTVSPropertyOp9
 70
     1
102
RTVSPropertyOp10
 70
     1
102
RTVSPropertyOp11
 70
     1
102
RTVSPropertyOp12
 70
     1
102
RTVSPropertyOp13
 70
     1
102
RTVSPropertyOp14
 70
     1
102
RTVSPropertyOp15
 70
     1
102
RTVSPropertyOp16
 70
     1
102
RTVSPropertyOp17
 70
     1
102
RTVSPropertyOp18
 70
     1
102
RTVSPropertyOp19
 70
     1
102
RTVSPropertyOp20
 70
     1
102
RTVSPropertyOp21
 70
     1
102
RTVSPropertyOp22
 70
     1
102
RTVSPropertyOp23
 70
     1
102
RTVSPropertyOp24
 70
     1
102
RTVSPropertyOp25
 70
     1
102
RTVSPropertyOp26
 70
     1
102
RTVSPropertyOp27
 70
     1
102
RTVSPropertyOp28
 70
     1
102
RTVSPropertyOp29
 70
     1
102
RTVSPropertyOp30
 70
     1
102
RTVSPropertyOp31
 70
     1
102
RTVSPropertyOp32
 70
     1
  0
XRECORD
  5
2AA
102
{ACAD_REACTORS
330
2A9
102
}
330
2A9
100
AcDbXrecord
280
     1
102
RTVSPropertyOp0
 70
     1
102
RTVSPropertyOp1
 70
     1
102
RTVSPropertyOp2
 70
     1
102
RTVSPropertyOp3
 70
     1
102
RTVSPropertyOp4
 70
     1
102
RTVSPropertyOp5
 70
     1
102
RTVSPropertyOp6
 70
     1
102
RTVSPropertyOp7
 70
     1
102
RTVSPropertyOp8
 70
     1
102
RTVSPropertyOp9
 70
     1
102
RTVSPropertyOp10
 70
     1
102
RTVSPropertyOp11
 70
     1
102
RTVSPropertyOp12
 70
     1
102
RTVSPropertyOp13
 70
     1
102
RTVSPropertyOp14
 70
     1
102
RTVSPropertyOp15
 70
     1
102
RTVSPropertyOp16
 70
     1
102
RTVSPropertyOp17
 70
     1
102
RTVSPropertyOp18
 70
     1
102
RTVSPropertyOp19
 70
     1
102
RTVSPropertyOp20
 70
     1
102
RTVSPropertyOp21
 70
     1
102
RTVSPropertyOp22
 70
     1
102
RTVSPropertyOp23
 70
     1
102
RTVSPropertyOp24
 70
     1
102
RTVSPropertyOp25
 70
     1
102
RTVSPropertyOp26
 70
     1
102
RTVSPropertyOp27
 70
     1
102
RTVSPropertyOp28
 70
     1
102
RTVSPropertyOp29
 70
     1
102
RTVSPropertyOp30
 70
     1
102
RTVSPropertyOp31
 70
     1
102
RTVSPropertyOp32
 70
     1
  0
XRECORD
  5
2B2
102
{ACAD_REACTORS
330
2B1
102
}
330
2B1
100
AcDbXrecord
280
     1
102
RTVSPropertyOp0
 70
     1
102
RTVSPropertyOp1
 70
     1
102
RTVSPropertyOp2
 70
     1
102
RTVSPropertyOp3
 70
     1
102
RTVSPropertyOp4
 70
     1
102
RTVSPropertyOp5
 70
     1
102
RTVSPropertyOp6
 70
     1
102
RTVSPropertyOp7
 70
     1
102
RTVSPropertyOp8
 70
     1
102
RTVSPropertyOp9
 70
     1
102
RTVSPropertyOp10
 70
     1
102
RTVSPropertyOp11
 70
     1
102
RTVSPropertyOp12
 70
     1
102
RTVSPropertyOp13
 70
     1
102
RTVSPropertyOp14
 70
     1
102
RTVSPropertyOp15
 70
     1
102
RTVSPropertyOp16
 70
     1
102
RTVSPropertyOp17
 70
     1
102
RTVSPropertyOp18
 70
     1
102
RTVSPropertyOp19
 70
     1
102
RTVSPropertyOp20
 70
     1
102
RTVSPropertyOp21
 70
     1
102
RTVSPropertyOp22
 70
     1
102
RTVSPropertyOp23
 70
     1
102
RTVSPropertyOp24
 70
     1
102
RTVSPropertyOp25
 70
     1
102
RTVSPropertyOp26
 70
     1
102
RTVSPropertyOp27
 70
     1
102
RTVSPropertyOp28
 70
     1
102
RTVSPropertyOp29
 70
     1
102
RTVSPropertyOp30
 70
     1
102
RTVSPropertyOp31
 70
     1
102
RTVSPropertyOp32
 70
     1
  0
XRECORD
  5
2A6
102
{ACAD_REACTORS
330
2A5
102
}
330
2A5
100
AcDbXrecord
280
     1
102
RTVSPropertyOp0
 70
     1
102
RTVSPropertyOp1
 70
     1
102
RTVSPropertyOp2
 70
     1
102
RTVSPropertyOp3
 70
     1
102
RTVSPropertyOp4
 70
     1
102
RTVSPropertyOp5
 70
     1
102
RTVSPropertyOp6
 70
     1
102
RTVSPropertyOp7
 70
     1
102
RTVSPropertyOp8
 70
     1
102
RTVSPropertyOp9
 70
     1
102
RTVSPropertyOp10
 70
     1
102
RTVSPropertyOp11
 70
     1
102
RTVSPropertyOp12
 70
     1
102
RTVSPropertyOp13
 70
     1
102
RTVSPropertyOp14
 70
     1
102
RTVSPropertyOp15
 70
     1
102
RTVSPropertyOp16
 70
     1
102
RTVSPropertyOp17
 70
     1
102
RTVSPropertyOp18
 70
     1
102
RTVSPropertyOp19
 70
     1
102
RTVSPropertyOp20
 70
     1
102
RTVSPropertyOp21
 70
     1
102
RTVSPropertyOp22
 70
     1
102
RTVSPropertyOp23
 70
     1
102
RTVSPropertyOp24
 70
     1
102
RTVSPropertyOp25
 70
     1
102
RTVSPropertyOp26
 70
     1
102
RTVSPropertyOp27
 70
     1
102
RTVSPropertyOp28
 70
     1
102
RTVSPropertyOp29
 70
     1
102
RTVSPropertyOp30
 70
     1
102
RTVSPropertyOp31
 70
     1
102
RTVSPropertyOp32
 70
     1
  0
XRECORD
  5
2A8
102
{ACAD_REACTORS
330
2A7
102
}
330
2A7
100
AcDbXrecord
280
     1
102
RTVSPropertyOp0
 70
     1
102
RTVSPropertyOp1
 70
     1
102
RTVSPropertyOp2
 70
     1
102
RTVSPropertyOp3
 70
     1
102
RTVSPropertyOp4
 70
     1
102
RTVSPropertyOp5
 70
     1
102
RTVSPropertyOp6
 70
     1
102
RTVSPropertyOp7
 70
     1
102
RTVSPropertyOp8
 70
     1
102
RTVSPropertyOp9
 70
     1
102
RTVSPropertyOp10
 70
     1
102
RTVSPropertyOp11
 70
     1
102
RTVSPropertyOp12
 70
     1
102
RTVSPropertyOp13
 70
     1
102
RTVSPropertyOp14
 70
     1
102
RTVSPropertyOp15
 70
     1
102
RTVSPropertyOp16
 70
     1
102
RTVSPropertyOp17
 70
     1
102
RTVSPropertyOp18
 70
     1
102
RTVSPropertyOp19
 70
     1
102
RTVSPropertyOp20
 70
     1
102
RTVSPropertyOp21
 70
     1
102
RTVSPropertyOp22
 70
     1
102
RTVSPropertyOp23
 70
     1
102
RTVSPropertyOp24
 70
     1
102
RTVSPropertyOp25
 70
     1
102
RTVSPropertyOp26
 70
     1
102
RTVSPropertyOp27
 70
     1
102
RTVSPropertyOp28
 70
     1
102
RTVSPropertyOp29
 70
     1
102
RTVSPropertyOp30
 70
     1
102
RTVSPropertyOp31
 70
     1
102
RTVSPropertyOp32
 70
     1
  0
XRECORD
  5
2C2
102
{ACAD_REACTORS
330
2C1
102
}
330
2C1
100
AcDbXrecord
280
     1
102
RTVSPropertyOp0
 70
     0
102
RTVSPropertyOp1
 70
     0
102
RTVSPropertyOp2
 70
     0
102
RTVSPropertyOp3
 70
     0
102
RTVSPropertyOp4
 70
     0
102
RTVSPropertyOp5
 70
     0
102
RTVSPropertyOp6
 70
     0
102
RTVSPropertyOp7
 70
     0
102
RTVSPropertyOp8
 70
     0
102
RTVSPropertyOp9
 70
     0
102
RTVSPropertyOp10
 70
     0
102
RTVSPropertyOp11
 70
     0
102
RTVSPropertyOp12
 70
     0
102
RTVSPropertyOp13
 70
     0
102
RTVSPropertyOp14
 70
     2
102
RTVSPropertyOp15
 70
     0
102
RTVSPropertyOp16
 70
     0
102
RTVSPropertyOp17
 70
     0
102
RTVSPropertyOp18
 70
     0
102
RTVSPropertyOp19
 70
     0
102
RTVSPropertyOp20
 70
     0
102
RTVSPropertyOp21
 70
     0
102
RTVSPropertyOp22
 70
     0
102
RTVSPropertyOp23
 70
     0
102
RTVSPropertyOp24
 70
     0
102
RTVSPropertyOp25
 70
     0
102
RTVSPropertyOp26
 70
     0
102
RTVSPropertyOp27
 70
     0
102
RTVSPropertyOp28
 70
     0
102
RTVSPropertyOp29
 70
     0
102
RTVSPropertyOp30
 70
     0
102
RTVSPropertyOp31
 70
     0
102
RTVSPropertyOp32
 70
     0
  0
XRECORD
  5
2B0
102
{ACAD_REACTORS
330
2AF
102
}
330
2AF
100
AcDbXrecord
280
     1
102
RTVSPropertyOp0
 70
     1
102
RTVSPropertyOp1
 70
     1
102
RTVSPropertyOp2
 70
     1
102
RTVSPropertyOp3
 70
     1
102
RTVSPropertyOp4
 70
     1
102
RTVSPropertyOp5
 70
     1
102
RTVSPropertyOp6
 70
     1
102
RTVSPropertyOp7
 70
     1
102
RTVSPropertyOp8
 70
     1
102
RTVSPropertyOp9
 70
     1
102
RTVSPropertyOp10
 70
     1
102
RTVSPropertyOp11
 70
     1
102
RTVSPropertyOp12
 70
     1
102
RTVSPropertyOp13
 70
     1
102
RTVSPropertyOp14
 70
     1
102
RTVSPropertyOp15
 70
     1
102
RTVSPropertyOp16
 70
     1
102
RTVSPropertyOp17
 70
     1
102
RTVSPropertyOp18
 70
     1
102
RTVSPropertyOp19
 70
     1
102
RTVSPropertyOp20
 70
     1
102
RTVSPropertyOp21
 70
     1
102
RTVSPropertyOp22
 70
     1
102
RTVSPropertyOp23
 70
     1
102
RTVSPropertyOp24
 70
     1
102
RTVSPropertyOp25
 70
     1
102
RTVSPropertyOp26
 70
     1
102
RTVSPropertyOp27
 70
     1
102
RTVSPropertyOp28
 70
     1
102
RTVSPropertyOp29
 70
     1
102
RTVSPropertyOp30
 70
     1
102
RTVSPropertyOp31
 70
     1
102
RTVSPropertyOp32
 70
     1
  0
XRECORD
  5
29A
102
{ACAD_REACTORS
330
299
102
}
330
299
100
AcDbXrecord
280
     1
102
RTVSPropertyOp0
 70
     1
102
RTVSPropertyOp1
 70
     1
102
RTVSPropertyOp2
 70
     1
102
RTVSPropertyOp3
 70
     1
102
RTVSPropertyOp4
 70
     1
102
RTVSPropertyOp5
 70
     1
102
RTVSPropertyOp6
 70
     1
102
RTVSPropertyOp7
 70
     1
102
RTVSPropertyOp8
 70
     1
102
RTVSPropertyOp9
 70
     1
102
RTVSPropertyOp10
 70
     1
102
RTVSPropertyOp11
 70
     1
102
RTVSPropertyOp12
 70
     1
102
RTVSPropertyOp13
 70
     1
102
RTVSPropertyOp14
 70
     1
102
RTVSPropertyOp15
 70
     1
102
RTVSPropertyOp16
 70
     1
102
RTVSPropertyOp17
 70
     1
102
RTVSPropertyOp18
 70
     1
102
RTVSPropertyOp19
 70
     1
102
RTVSPropertyOp20
 70
     1
102
RTVSPropertyOp21
 70
     1
102
RTVSPropertyOp22
 70
     1
102
RTVSPropertyOp23
 70
     1
102
RTVSPropertyOp24
 70
     1
102
RTVSPropertyOp25
 70
     1
102
RTVSPropertyOp26
 70
     1
102
RTVSPropertyOp27
 70
     1
102
RTVSPropertyOp28
 70
     1
102
RTVSPropertyOp29
 70
     1
102
RTVSPropertyOp30
 70
     1
102
RTVSPropertyOp31
 70
     1
102
RTVSPropertyOp32
 70
     1
  0
XRECORD
  5
29C
102
{ACAD_REACTORS
330
29B
102
}
330
29B
100
AcDbXrecord
280
     1
102
RTVSPropertyOp0
 70
     1
102
RTVSPropertyOp1
 70
     1
102
RTVSPropertyOp2
 70
     1
102
RTVSPropertyOp3
 70
     1
102
RTVSPropertyOp4
 70
     1
102
RTVSPropertyOp5
 70
     1
102
RTVSPropertyOp6
 70
     1
102
RTVSPropertyOp7
 70
     1
102
RTVSPropertyOp8
 70
     1
102
RTVSPropertyOp9
 70
     1
102
RTVSPropertyOp10
 70
     1
102
RTVSPropertyOp11
 70
     1
102
RTVSPropertyOp12
 70
     1
102
RTVSPropertyOp13
 70
     1
102
RTVSPropertyOp14
 70
     1
102
RTVSPropertyOp15
 70
     1
102
RTVSPropertyOp16
 70
     1
102
RTVSPropertyOp17
 70
     1
102
RTVSPropertyOp18
 70
     1
102
RTVSPropertyOp19
 70
     1
102
RTVSPropertyOp20
 70
     1
102
RTVSPropertyOp21
 70
     1
102
RTVSPropertyOp22
 70
     1
102
RTVSPropertyOp23
 70
     1
102
RTVSPropertyOp24
 70
     1
102
RTVSPropertyOp25
 70
     1
102
RTVSPropertyOp26
 70
     1
102
RTVSPropertyOp27
 70
     1
102
RTVSPropertyOp28
 70
     1
102
RTVSPropertyOp29
 70
     1
102
RTVSPropertyOp30
 70
     1
102
RTVSPropertyOp31
 70
     1
102
RTVSPropertyOp32
 70
     1
  0
XRECORD
  5
29E
102
{ACAD_REACTORS
330
29D
102
}
330
29D
100
AcDbXrecord
280
     1
102
RTVSPropertyOp0
 70
     1
102
RTVSPropertyOp1
 70
     1
102
RTVSPropertyOp2
 70
     1
102
RTVSPropertyOp3
 70
     1
102
RTVSPropertyOp4
 70
     1
102
RTVSPropertyOp5
 70
     1
102
RTVSPropertyOp6
 70
     1
102
RTVSPropertyOp7
 70
     1
102
RTVSPropertyOp8
 70
     1
102
RTVSPropertyOp9
 70
     1
102
RTVSPropertyOp10
 70
     1
102
RTVSPropertyOp11
 70
     1
102
RTVSPropertyOp12
 70
     1
102
RTVSPropertyOp13
 70
     1
102
RTVSPropertyOp14
 70
     1
102
RTVSPropertyOp15
 70
     1
102
RTVSPropertyOp16
 70
     1
102
RTVSPropertyOp17
 70
     1
102
RTVSPropertyOp18
 70
     1
102
RTVSPropertyOp19
 70
     1
102
RTVSPropertyOp20
 70
     1
102
RTVSPropertyOp21
 70
     1
102
RTVSPropertyOp22
 70
     1
102
RTVSPropertyOp23
 70
     1
102
RTVSPropertyOp24
 70
     1
102
RTVSPropertyOp25
 70
     1
102
RTVSPropertyOp26
 70
     1
102
RTVSPropertyOp27
 70
     1
102
RTVSPropertyOp28
 70
     1
102
RTVSPropertyOp29
 70
     1
102
RTVSPropertyOp30
 70
     1
102
RTVSPropertyOp31
 70
     1
102
RTVSPropertyOp32
 70
     1
  0
XRECORD
  5
2A0
102
{ACAD_REACTORS
330
29F
102
}
330
29F
100
AcDbXrecord
280
     1
102
RTVSPropertyOp0
 70
     1
102
RTVSPropertyOp1
 70
     1
102
RTVSPropertyOp2
 70
     1
102
RTVSPropertyOp3
 70
     1
102
RTVSPropertyOp4
 70
     1
102
RTVSPropertyOp5
 70
     1
102
RTVSPropertyOp6
 70
     1
102
RTVSPropertyOp7
 70
     1
102
RTVSPropertyOp8
 70
     1
102
RTVSPropertyOp9
 70
     1
102
RTVSPropertyOp10
 70
     1
102
RTVSPropertyOp11
 70
     1
102
RTVSPropertyOp12
 70
     1
102
RTVSPropertyOp13
 70
     1
102
RTVSPropertyOp14
 70
     1
102
RTVSPropertyOp15
 70
     1
102
RTVSPropertyOp16
 70
     1
102
RTVSPropertyOp17
 70
     1
102
RTVSPropertyOp18
 70
     1
102
RTVSPropertyOp19
 70
     1
102
RTVSPropertyOp20
 70
     1
102
RTVSPropertyOp21
 70
     1
102
RTVSPropertyOp22
 70
     1
102
RTVSPropertyOp23
 70
     1
102
RTVSPropertyOp24
 70
     1
102
RTVSPropertyOp25
 70
     1
102
RTVSPropertyOp26
 70
     1
102
RTVSPropertyOp27
 70
     1
102
RTVSPropertyOp28
 70
     1
102
RTVSPropertyOp29
 70
     1
102
RTVSPropertyOp30
 70
     1
102
RTVSPropertyOp31
 70
     1
102
RTVSPropertyOp32
 70
     1
  0
XRECORD
  5
2A4
102
{ACAD_REACTORS
330
2A3
102
}
330
2A3
100
AcDbXrecord
280
     1
102
RTVSPropertyOp0
 70
     1
102
RTVSPropertyOp1
 70
     1
102
RTVSPropertyOp2
 70
     1
102
RTVSPropertyOp3
 70
     1
102
RTVSPropertyOp4
 70
     1
102
RTVSPropertyOp5
 70
     1
102
RTVSPropertyOp6
 70
     1
102
RTVSPropertyOp7
 70
     1
102
RTVSPropertyOp8
 70
     1
102
RTVSPropertyOp9
 70
     1
102
RTVSPropertyOp10
 70
     1
102
RTVSPropertyOp11
 70
     1
102
RTVSPropertyOp12
 70
     1
102
RTVSPropertyOp13
 70
     1
102
RTVSPropertyOp14
 70
     1
102
RTVSPropertyOp15
 70
     1
102
RTVSPropertyOp16
 70
     1
102
RTVSPropertyOp17
 70
     1
102
RTVSPropertyOp18
 70
     1
102
RTVSPropertyOp19
 70
     1
102
RTVSPropertyOp20
 70
     1
102
RTVSPropertyOp21
 70
     1
102
RTVSPropertyOp22
 70
     1
102
RTVSPropertyOp23
 70
     1
102
RTVSPropertyOp24
 70
     1
102
RTVSPropertyOp25
 70
     1
102
RTVSPropertyOp26
 70
     1
102
RTVSPropertyOp27
 70
     1
102
RTVSPropertyOp28
 70
     1
102
RTVSPropertyOp29
 70
     1
102
RTVSPropertyOp30
 70
     1
102
RTVSPropertyOp31
 70
     1
102
RTVSPropertyOp32
 70
     1
  0
XRECORD
  5
2BE
102
{ACAD_REACTORS
330
2BD
102
}
330
2BD
100
AcDbXrecord
280
     1
102
RTVSPropertyOp0
 70
     0
102
RTVSPropertyOp1
 70
     0
102
RTVSPropertyOp2
 70
     0
102
RTVSPropertyOp3
 70
     0
102
RTVSPropertyOp4
 70
     0
102
RTVSPropertyOp5
 70
     0
102
RTVSPropertyOp6
 70
     0
102
RTVSPropertyOp7
 70
     0
102
RTVSPropertyOp8
 70
     0
102
RTVSPropertyOp9
 70
     0
102
RTVSPropertyOp10
 70
     0
102
RTVSPropertyOp11
 70
     0
102
RTVSPropertyOp12
 70
     0
102
RTVSPropertyOp13
 70
     0
102
RTVSPropertyOp14
 70
     2
102
RTVSPropertyOp15
 70
     0
102
RTVSPropertyOp16
 70
     0
102
RTVSPropertyOp17
 70
     0
102
RTVSPropertyOp18
 70
     0
102
RTVSPropertyOp19
 70
     0
102
RTVSPropertyOp20
 70
     0
102
RTVSPropertyOp21
 70
     0
102
RTVSPropertyOp22
 70
     0
102
RTVSPropertyOp23
 70
     0
102
RTVSPropertyOp24
 70
     0
102
RTVSPropertyOp25
 70
     0
102
RTVSPropertyOp26
 70
     0
102
RTVSPropertyOp27
 70
     0
102
RTVSPropertyOp28
 70
     0
102
RTVSPropertyOp29
 70
     0
102
RTVSPropertyOp30
 70
     0
102
RTVSPropertyOp31
 70
     0
102
RTVSPropertyOp32
 70
     0
  0
XRECORD
  5
2AE
102
{ACAD_REACTORS
330
2AD
102
}
330
2AD
100
AcDbXrecord
280
     1
102
RTVSPropertyOp0
 70
     1
102
RTVSPropertyOp1
 70
     1
102
RTVSPropertyOp2
 70
     1
102
RTVSPropertyOp3
 70
     1
102
RTVSPropertyOp4
 70
     1
102
RTVSPropertyOp5
 70
     1
102
RTVSPropertyOp6
 70
     1
102
RTVSPropertyOp7
 70
     1
102
RTVSPropertyOp8
 70
     1
102
RTVSPropertyOp9
 70
     1
102
RTVSPropertyOp10
 70
     1
102
RTVSPropertyOp11
 70
     1
102
RTVSPropertyOp12
 70
     1
102
RTVSPropertyOp13
 70
     1
102
RTVSPropertyOp14
 70
     1
102
RTVSPropertyOp15
 70
     1
102
RTVSPropertyOp16
 70
     1
102
RTVSPropertyOp17
 70
     1
102
RTVSPropertyOp18
 70
     1
102
RTVSPropertyOp19
 70
     1
102
RTVSPropertyOp20
 70
     1
102
RTVSPropertyOp21
 70
     1
102
RTVSPropertyOp22
 70
     1
102
RTVSPropertyOp23
 70
     1
102
RTVSPropertyOp24
 70
     1
102
RTVSPropertyOp25
 70
     1
102
RTVSPropertyOp26
 70
     1
102
RTVSPropertyOp27
 70
     1
102
RTVSPropertyOp28
 70
     1
102
RTVSPropertyOp29
 70
     1
102
RTVSPropertyOp30
 70
     1
102
RTVSPropertyOp31
 70
     1
102
RTVSPropertyOp32
 70
     1
  0
XRECORD
  5
2C0
102
{ACAD_REACTORS
330
2BF
102
}
330
2BF
100
AcDbXrecord
280
     1
102
RTVSPropertyOp0
 70
     0
102
RTVSPropertyOp1
 70
     0
102
RTVSPropertyOp2
 70
     0
102
RTVSPropertyOp3
 70
     0
102
RTVSPropertyOp4
 70
     0
102
RTVSPropertyOp5
 70
     0
102
RTVSPropertyOp6
 70
     0
102
RTVSPropertyOp7
 70
     0
102
RTVSPropertyOp8
 70
     0
102
RTVSPropertyOp9
 70
     0
102
RTVSPropertyOp10
 70
     0
102
RTVSPropertyOp11
 70
     0
102
RTVSPropertyOp12
 70
     0
102
RTVSPropertyOp13
 70
     0
102
RTVSPropertyOp14
 70
     2
102
RTVSPropertyOp15
 70
     0
102
RTVSPropertyOp16
 70
     0
102
RTVSPropertyOp17
 70
     0
102
RTVSPropertyOp18
 70
     0
102
RTVSPropertyOp19
 70
     0
102
RTVSPropertyOp20
 70
     0
102
RTVSPropertyOp21
 70
     0
102
RTVSPropertyOp22
 70
     0
102
RTVSPropertyOp23
 70
     0
102
RTVSPropertyOp24
 70
     0
102
RTVSPropertyOp25
 70
     0
102
RTVSPropertyOp26
 70
     0
102
RTVSPropertyOp27
 70
     0
102
RTVSPropertyOp28
 70
     0
102
RTVSPropertyOp29
 70
     0
102
RTVSPropertyOp30
 70
     0
102
RTVSPropertyOp31
 70
     0
102
RTVSPropertyOp32
 70
     0
  0
XRECORD
  5
290
102
{ACAD_REACTORS
330
28F
102
}
330
28F
100
AcDbXrecord
280
     1
102
RTVSPropertyOp0
 70
     1
102
RTVSPropertyOp1
 70
     1
102
RTVSPropertyOp2
 70
     1
102
RTVSPropertyOp3
 70
     1
102
RTVSPropertyOp4
 70
     1
102
RTVSPropertyOp5
 70
     1
102
RTVSPropertyOp6
 70
     1
102
RTVSPropertyOp7
 70
     1
102
RTVSPropertyOp8
 70
     1
102
RTVSPropertyOp9
 70
     1
102
RTVSPropertyOp10
 70
     1
102
RTVSPropertyOp11
 70
     1
102
RTVSPropertyOp12
 70
     1
102
RTVSPropertyOp13
 70
     1
102
RTVSPropertyOp14
 70
     1
102
RTVSPropertyOp15
 70
     1
102
RTVSPropertyOp16
 70
     1
102
RTVSPropertyOp17
 70
     1
102
RTVSPropertyOp18
 70
     1
102
RTVSPropertyOp19
 70
     1
102
RTVSPropertyOp20
 70
     1
102
RTVSPropertyOp21
 70
     1
102
RTVSPropertyOp22
 70
     1
102
RTVSPropertyOp23
 70
     1
102
RTVSPropertyOp24
 70
     1
102
RTVSPropertyOp25
 70
     1
102
RTVSPropertyOp26
 70
     1
102
RTVSPropertyOp27
 70
     1
102
RTVSPropertyOp28
 70
     1
102
RTVSPropertyOp29
 70
     1
102
RTVSPropertyOp30
 70
     1
102
RTVSPropertyOp31
 70
     1
102
RTVSPropertyOp32
 70
     1
  0
XRECORD
  5
2BC
102
{ACAD_REACTORS
330
2BB
102
}
330
2BB
100
AcDbXrecord
280
     1
102
RTVSPropertyOp0
 70
     1
102
RTVSPropertyOp1
 70
     1
102
RTVSPropertyOp2
 70
     1
102
RTVSPropertyOp3
 70
     1
102
RTVSPropertyOp4
 70
     1
102
RTVSPropertyOp5
 70
     1
102
RTVSPropertyOp6
 70
     1
102
RTVSPropertyOp7
 70
     1
102
RTVSPropertyOp8
 70
     1
102
RTVSPropertyOp9
 70
     1
102
RTVSPropertyOp10
 70
     1
102
RTVSPropertyOp11
 70
     1
102
RTVSPropertyOp12
 70
     1
102
RTVSPropertyOp13
 70
     1
102
RTVSPropertyOp14
 70
     1
102
RTVSPropertyOp15
 70
     1
102
RTVSPropertyOp16
 70
     1
102
RTVSPropertyOp17
 70
     1
102
RTVSPropertyOp18
 70
     1
102
RTVSPropertyOp19
 70
     1
102
RTVSPropertyOp20
 70
     1
102
RTVSPropertyOp21
 70
     1
102
RTVSPropertyOp22
 70
     1
102
RTVSPropertyOp23
 70
     1
102
RTVSPropertyOp24
 70
     1
102
RTVSPropertyOp25
 70
     1
102
RTVSPropertyOp26
 70
     1
102
RTVSPropertyOp27
 70
     1
102
RTVSPropertyOp28
 70
     1
102
RTVSPropertyOp29
 70
     1
102
RTVSPropertyOp30
 70
     1
102
RTVSPropertyOp31
 70
     1
102
RTVSPropertyOp32
 70
     1
  0
XRECORD
  5
2BA
102
{ACAD_REACTORS
330
2B9
102
}
330
2B9
100
AcDbXrecord
280
     1
102
RTVSPropertyOp0
 70
     1
102
RTVSPropertyOp1
 70
     1
102
RTVSPropertyOp2
 70
     1
102
RTVSPropertyOp3
 70
     1
102
RTVSPropertyOp4
 70
     1
102
RTVSPropertyOp5
 70
     1
102
RTVSPropertyOp6
 70
     1
102
RTVSPropertyOp7
 70
     1
102
RTVSPropertyOp8
 70
     1
102
RTVSPropertyOp9
 70
     1
102
RTVSPropertyOp10
 70
     1
102
RTVSPropertyOp11
 70
     1
102
RTVSPropertyOp12
 70
     1
102
RTVSPropertyOp13
 70
     1
102
RTVSPropertyOp14
 70
     1
102
RTVSPropertyOp15
 70
     1
102
RTVSPropertyOp16
 70
     1
102
RTVSPropertyOp17
 70
     1
102
RTVSPropertyOp18
 70
     1
102
RTVSPropertyOp19
 70
     1
102
RTVSPropertyOp20
 70
     1
102
RTVSPropertyOp21
 70
     1
102
RTVSPropertyOp22
 70
     1
102
RTVSPropertyOp23
 70
     1
102
RTVSPropertyOp24
 70
     1
102
RTVSPropertyOp25
 70
     1
102
RTVSPropertyOp26
 70
     1
102
RTVSPropertyOp27
 70
     1
102
RTVSPropertyOp28
 70
     1
102
RTVSPropertyOp29
 70
     1
102
RTVSPropertyOp30
 70
     1
102
RTVSPropertyOp31
 70
     1
102
RTVSPropertyOp32
 70
     1
  0
XRECORD
  5
2B4
102
{ACAD_REACTORS
330
2B3
102
}
330
2B3
100
AcDbXrecord
280
     1
102
RTVSPropertyOp0
 70
     1
102
RTVSPropertyOp1
 70
     1
102
RTVSPropertyOp2
 70
     1
102
RTVSPropertyOp3
 70
     1
102
RTVSPropertyOp4
 70
     1
102
RTVSPropertyOp5
 70
     1
102
RTVSPropertyOp6
 70
     1
102
RTVSPropertyOp7
 70
     1
102
RTVSPropertyOp8
 70
     1
102
RTVSPropertyOp9
 70
     1
102
RTVSPropertyOp10
 70
     1
102
RTVSPropertyOp11
 70
     1
102
RTVSPropertyOp12
 70
     1
102
RTVSPropertyOp13
 70
     1
102
RTVSPropertyOp14
 70
     1
102
RTVSPropertyOp15
 70
     1
102
RTVSPropertyOp16
 70
     1
102
RTVSPropertyOp17
 70
     1
102
RTVSPropertyOp18
 70
     1
102
RTVSPropertyOp19
 70
     1
102
RTVSPropertyOp20
 70
     1
102
RTVSPropertyOp21
 70
     1
102
RTVSPropertyOp22
 70
     1
102
RTVSPropertyOp23
 70
     1
102
RTVSPropertyOp24
 70
     1
102
RTVSPropertyOp25
 70
     1
102
RTVSPropertyOp26
 70
     1
102
RTVSPropertyOp27
 70
     1
102
RTVSPropertyOp28
 70
     1
102
RTVSPropertyOp29
 70
     1
102
RTVSPropertyOp30
 70
     1
102
RTVSPropertyOp31
 70
     1
102
RTVSPropertyOp32
 70
     1
  0
XRECORD
  5
2B6
102
{ACAD_REACTORS
330
2B5
102
}
330
2B5
100
AcDbXrecord
280
     1
102
RTVSPropertyOp0
 70
     1
102
RTVSPropertyOp1
 70
     1
102
RTVSPropertyOp2
 70
     1
102
RTVSPropertyOp3
 70
     1
102
RTVSPropertyOp4
 70
     1
102
RTVSPropertyOp5
 70
     1
102
RTVSPropertyOp6
 70
     1
102
RTVSPropertyOp7
 70
     1
102
RTVSPropertyOp8
 70
     1
102
RTVSPropertyOp9
 70
     1
102
RTVSPropertyOp10
 70
     1
102
RTVSPropertyOp11
 70
     1
102
RTVSPropertyOp12
 70
     1
102
RTVSPropertyOp13
 70
     1
102
RTVSPropertyOp14
 70
     1
102
RTVSPropertyOp15
 70
     1
102
RTVSPropertyOp16
 70
     1
102
RTVSPropertyOp17
 70
     1
102
RTVSPropertyOp18
 70
     1
102
RTVSPropertyOp19
 70
     1
102
RTVSPropertyOp20
 70
     1
102
RTVSPropertyOp21
 70
     1
102
RTVSPropertyOp22
 70
     1
102
RTVSPropertyOp23
 70
     1
102
RTVSPropertyOp24
 70
     1
102
RTVSPropertyOp25
 70
     1
102
RTVSPropertyOp26
 70
     1
102
RTVSPropertyOp27
 70
     1
102
RTVSPropertyOp28
 70
     1
102
RTVSPropertyOp29
 70
     1
102
RTVSPropertyOp30
 70
     1
102
RTVSPropertyOp31
 70
     1
102
RTVSPropertyOp32
 70
     1
  0
XRECORD
  5
2AC
102
{ACAD_REACTORS
330
2AB
102
}
330
2AB
100
AcDbXrecord
280
     1
102
RTVSPropertyOp0
 70
     1
102
RTVSPropertyOp1
 70
     1
102
RTVSPropertyOp2
 70
     1
102
RTVSPropertyOp3
 70
     1
102
RTVSPropertyOp4
 70
     1
102
RTVSPropertyOp5
 70
     1
102
RTVSPropertyOp6
 70
     1
102
RTVSPropertyOp7
 70
     1
102
RTVSPropertyOp8
 70
     1
102
RTVSPropertyOp9
 70
     1
102
RTVSPropertyOp10
 70
     1
102
RTVSPropertyOp11
 70
     1
102
RTVSPropertyOp12
 70
     1
102
RTVSPropertyOp13
 70
     1
102
RTVSPropertyOp14
 70
     1
102
RTVSPropertyOp15
 70
     1
102
RTVSPropertyOp16
 70
     1
102
RTVSPropertyOp17
 70
     1
102
RTVSPropertyOp18
 70
     1
102
RTVSPropertyOp19
 70
     1
102
RTVSPropertyOp20
 70
     1
102
RTVSPropertyOp21
 70
     1
102
RTVSPropertyOp22
 70
     1
102
RTVSPropertyOp23
 70
     1
102
RTVSPropertyOp24
 70
     1
102
RTVSPropertyOp25
 70
     1
102
RTVSPropertyOp26
 70
     1
102
RTVSPropertyOp27
 70
     1
102
RTVSPropertyOp28
 70
     1
102
RTVSPropertyOp29
 70
     1
102
RTVSPropertyOp30
 70
     1
102
RTVSPropertyOp31
 70
     1
102
RTVSPropertyOp32
 70
     1
  0
XRECORD
  5
292
102
{ACAD_REACTORS
330
291
102
}
330
291
100
AcDbXrecord
280
     1
102
RTVSPropertyOp0
 70
     1
102
RTVSPropertyOp1
 70
     1
102
RTVSPropertyOp2
 70
     1
102
RTVSPropertyOp3
 70
     1
102
RTVSPropertyOp4
 70
     1
102
RTVSPropertyOp5
 70
     1
102
RTVSPropertyOp6
 70
     1
102
RTVSPropertyOp7
 70
     1
102
RTVSPropertyOp8
 70
     1
102
RTVSPropertyOp9
 70
     1
102
RTVSPropertyOp10
 70
     1
102
RTVSPropertyOp11
 70
     1
102
RTVSPropertyOp12
 70
     1
102
RTVSPropertyOp13
 70
     1
102
RTVSPropertyOp14
 70
     1
102
RTVSPropertyOp15
 70
     1
102
RTVSPropertyOp16
 70
     1
102
RTVSPropertyOp17
 70
     1
102
RTVSPropertyOp18
 70
     1
102
RTVSPropertyOp19
 70
     1
102
RTVSPropertyOp20
 70
     1
102
RTVSPropertyOp21
 70
     1
102
RTVSPropertyOp22
 70
     1
102
RTVSPropertyOp23
 70
     1
102
RTVSPropertyOp24
 70
     1
102
RTVSPropertyOp25
 70
     1
102
RTVSPropertyOp26
 70
     1
102
RTVSPropertyOp27
 70
     1
102
RTVSPropertyOp28
 70
     1
102
RTVSPropertyOp29
 70
     1
102
RTVSPropertyOp30
 70
     1
102
RTVSPropertyOp31
 70
     1
102
RTVSPropertyOp32
 70
     1
  0
XRECORD
  5
2B8
102
{ACAD_REACTORS
330
2B7
102
}
330
2B7
100
AcDbXrecord
280
     1
102
RTVSPropertyOp0
 70
     1
102
RTVSPropertyOp1
 70
     1
102
RTVSPropertyOp2
 70
     1
102
RTVSPropertyOp3
 70
     1
102
RTVSPropertyOp4
 70
     1
102
RTVSPropertyOp5
 70
     1
102
RTVSPropertyOp6
 70
     1
102
RTVSPropertyOp7
 70
     1
102
RTVSPropertyOp8
 70
     1
102
RTVSPropertyOp9
 70
     1
102
RTVSPropertyOp10
 70
     1
102
RTVSPropertyOp11
 70
     1
102
RTVSPropertyOp12
 70
     1
102
RTVSPropertyOp13
 70
     1
102
RTVSPropertyOp14
 70
     1
102
RTVSPropertyOp15
 70
     1
102
RTVSPropertyOp16
 70
     1
102
RTVSPropertyOp17
 70
     1
102
RTVSPropertyOp18
 70
     1
102
RTVSPropertyOp19
 70
     1
102
RTVSPropertyOp20
 70
     1
102
RTVSPropertyOp21
 70
     1
102
RTVSPropertyOp22
 70
     1
102
RTVSPropertyOp23
 70
     1
102
RTVSPropertyOp24
 70
     1
102
RTVSPropertyOp25
 70
     1
102
RTVSPropertyOp26
 70
     1
102
RTVSPropertyOp27
 70
     1
102
RTVSPropertyOp28
 70
     1
102
RTVSPropertyOp29
 70
     1
102
RTVSPropertyOp30
 70
     1
102
RTVSPropertyOp31
 70
     1
102
RTVSPropertyOp32
 70
     1
  0
ENDSEC
  0
EOF
