  0
SECTION
  2
HEADER
  9
$ACADVER
  1
AC1015
  9
$ACADMAINTVER
 70
    18
  9
$DWGCODEPAGE
  3
ANSI_1252
  9
$INSBASE
 10
0.0
 20
0.0
 30
0.0
  9
$EXTMIN
 10
-298.5744146934881
 20
-73.42837337151696
 30
-0.0015258207003583
  9
$EXTMAX
 10
298.5018480451568
 20
2.540864019119908
 30
0.0000000349246037
  9
$LIMMIN
 10
0.0
 20
0.0
  9
$LIMMAX
 10
1189.0
 20
840.9999999999998
  9
$ORTHOMODE
 70
     0
  9
$REGENMODE
 70
     1
  9
$FILLMODE
 70
     1
  9
$QTEXTMODE
 70
     0
  9
$MIRRTEXT
 70
     0
  9
$LTSCALE
 40
1.0
  9
$ATTMODE
 70
     1
  9
$TEXTSIZE
 40
0.2
  9
$TRACEWID
 40
0.05
  9
$TEXTSTYLE
  7
STANDARD
  9
$CLAYER
  8
0
  9
$CELTYPE
  6
ByLayer
  9
$CECOLOR
 62
   256
  9
$CELTSCALE
 40
1.0
  9
$DISPSILH
 70
     0
  9
$DIMSCALE
 40
1.0
  9
$DIMASZ
 40
180.0
  9
$DIMEXO
 40
0.0625
  9
$DIMDLI
 40
0.38
  9
$DIMRND
 40
0.0
  9
$DIMDLE
 40
0.0
  9
$DIMEXE
 40
0.18
  9
$DIMTP
 40
0.0
  9
$DIMTM
 40
0.0
  9
$DIMTXT
 40
34.99999940395355
  9
$DIMCEN
 40
0.09
  9
$DIMTSZ
 40
0.0
  9
$DIMTOL
 70
     0
  9
$DIMLIM
 70
     0
  9
$DIMTIH
 70
     1
  9
$DIMTOH
 70
     1
  9
$DIMSE1
 70
     0
  9
$DIMSE2
 70
     0
  9
$DIMTAD
 70
     0
  9
$DIMZIN
 70
     0
  9
$DIMBLK
  1

  9
$DIMASO
 70
     1
  9
$DIMSHO
 70
     1
  9
$DIMPOST
  1

  9
$DIMAPOST
  1

  9
$DIMALT
 70
     0
  9
$DIMALTD
 70
     2
  9
$DIMALTF
 40
25.4
  9
$DIMLFAC
 40
1.0
  9
$DIMTOFL
 70
     0
  9
$DIMTVP
 40
0.0
  9
$DIMTIX
 70
     0
  9
$DIMSOXD
 70
     0
  9
$DIMSAH
 70
     0
  9
$DIMBLK1
  1

  9
$DIMBLK2
  1

  9
$DIMSTYLE
  2
STANDARD
  9
$DIMCLRD
 70
     0
  9
$DIMCLRE
 70
     0
  9
$DIMCLRT
 70
     0
  9
$DIMTFAC
 40
1.0
  9
$DIMGAP
 40
0.09
  9
$DIMJUST
 70
     0
  9
$DIMSD1
 70
     0
  9
$DIMSD2
 70
     0
  9
$DIMTOLJ
 70
     1
  9
$DIMTZIN
 70
     0
  9
$DIMALTZ
 70
     0
  9
$DIMALTTZ
 70
     0
  9
$DIMUPT
 70
     0
  9
$DIMDEC
 70
     4
  9
$DIMTDEC
 70
     4
  9
$DIMALTU
 70
     2
  9
$DIMALTTD
 70
     2
  9
$DIMTXSTY
  7
STANDARD
  9
$DIMAUNIT
 70
     0
  9
$DIMADEC
 70
     0
  9
$DIMALTRND
 40
0.0
  9
$DIMAZIN
 70
     0
  9
$DIMDSEP
 70
    46
  9
$DIMATFIT
 70
     3
  9
$DIMFRAC
 70
     0
  9
$DIMLDRBLK
  1

  9
$DIMLUNIT
 70
     2
  9
$DIMLWD
 70
    -2
  9
$DIMLWE
 70
    -2
  9
$DIMTMOVE
 70
     0
  9
$LUNITS
 70
     2
  9
$LUPREC
 70
     4
  9
$SKETCHINC
 40
0.1
  9
$FILLETRAD
 40
0.0
  9
$AUNITS
 70
     0
  9
$AUPREC
 70
     0
  9
$MENU
  1
.
  9
$ELEVATION
 40
0.0
  9
$PELEVATION
 40
0.0
  9
$THICKNESS
 40
0.0
  9
$LIMCHECK
 70
     0
  9
$CHAMFERA
 40
0.0
  9
$CHAMFERB
 40
0.0
  9
$CHAMFERC
 40
0.0
  9
$CHAMFERD
 40
0.0
  9
$SKPOLY
 70
     0
  9
$TDCREATE
 40
2454871.539305995
  9
$TDUCREATE
 40
2454871.455972662
  9
$TDUPDATE
 40
2455723.334534861
  9
$TDUUPDATE
 40
2455723.251201528
  9
$TDINDWG
 40
0.0121115856
  9
$TDUSRTIMER
 40
0.0121115856
  9
$USRTIMER
 70
     1
  9
$ANGBASE
 50
0.0
  9
$ANGDIR
 70
     0
  9
$PDMODE
 70
     0
  9
$PDSIZE
 40
0.0
  9
$PLINEWID
 40
0.0
  9
$SPLFRAME
 70
     0
  9
$SPLINETYPE
 70
     6
  9
$SPLINESEGS
 70
     8
  9
$HANDSEED
  5
3A6
  9
$SURFTAB1
 70
     6
  9
$SURFTAB2
 70
     6
  9
$SURFTYPE
 70
     6
  9
$SURFU
 70
     6
  9
$SURFV
 70
     6
  9
$UCSBASE
  2

  9
$UCSNAME
  2

  9
$UCSORG
 10
0.0
 20
0.0
 30
0.0
  9
$UCSXDIR
 10
1.0
 20
0.0
 30
0.0
  9
$UCSYDIR
 10
0.0
 20
1.0
 30
0.0
  9
$UCSORTHOREF
  2

  9
$UCSORTHOVIEW
 70
     0
  9
$UCSORGTOP
 10
0.0
 20
0.0
 30
0.0
  9
$UCSORGBOTTOM
 10
0.0
 20
0.0
 30
0.0
  9
$UCSORGLEFT
 10
0.0
 20
0.0
 30
0.0
  9
$UCSORGRIGHT
 10
0.0
 20
0.0
 30
0.0
  9
$UCSORGFRONT
 10
0.0
 20
0.0
 30
0.0
  9
$UCSORGBACK
 10
0.0
 20
0.0
 30
0.0
  9
$PUCSBASE
  2

  9
$PUCSNAME
  2

  9
$PUCSORG
 10
0.0
 20
0.0
 30
0.0
  9
$PUCSXDIR
 10
1.0
 20
0.0
 30
0.0
  9
$PUCSYDIR
 10
0.0
 20
1.0
 30
0.0
  9
$PUCSORTHOREF
  2

  9
$PUCSORTHOVIEW
 70
     0
  9
$PUCSORGTOP
 10
0.0
 20
0.0
 30
0.0
  9
$PUCSORGBOTTOM
 10
0.0
 20
0.0
 30
0.0
  9
$PUCSORGLEFT
 10
0.0
 20
0.0
 30
0.0
  9
$PUCSORGRIGHT
 10
0.0
 20
0.0
 30
0.0
  9
$PUCSORGFRONT
 10
0.0
 20
0.0
 30
0.0
  9
$PUCSORGBACK
 10
0.0
 20
0.0
 30
0.0
  9
$USERI1
 70
     0
  9
$USERI2
 70
     0
  9
$USERI3
 70
     0
  9
$USERI4
 70
     0
  9
$USERI5
 70
     0
  9
$USERR1
 40
0.0
  9
$USERR2
 40
0.0
  9
$USERR3
 40
0.0
  9
$USERR4
 40
0.0
  9
$USERR5
 40
0.0
  9
$WORLDVIEW
 70
     1
  9
$SHADEDGE
 70
     3
  9
$SHADEDIF
 70
    70
  9
$TILEMODE
 70
     1
  9
$MAXACTVP
 70
    64
  9
$PINSBASE
 10
0.0
 20
0.0
 30
0.0
  9
$PLIMCHECK
 70
     0
  9
$PEXTMIN
 10
0.0
 20
0.0
 30
0.0
  9
$PEXTMAX
 10
1189.0
 20
840.9999999999998
 30
0.0
  9
$PLIMMIN
 10
0.0
 20
0.0
  9
$PLIMMAX
 10
1189.0
 20
840.9999999999998
  9
$UNITMODE
 70
     0
  9
$VISRETAIN
 70
     1
  9
$PLINEGEN
 70
     0
  9
$PSLTSCALE
 70
     1
  9
$TREEDEPTH
 70
  3020
  9
$CMLSTYLE
  2
Standard
  9
$CMLJUST
 70
     0
  9
$CMLSCALE
 40
1.0
  9
$PROXYGRAPHICS
 70
     1
  9
$MEASUREMENT
 70
     1
  9
$CELWEIGHT
370
    -1
  9
$ENDCAPS
280
     0
  9
$JOINSTYLE
280
     0
  9
$LWDISPLAY
290
     0
  9
$INSUNITS
 70
     4
  9
$HYPERLINKBASE
  1

  9
$STYLESHEET
  1

  9
$XEDIT
290
     1
  9
$CEPSNTYPE
380
     0
  9
$PSTYLEMODE
290
     1
  9
$FINGERPRINTGUID
  2
{2AB12B3F-AF48-4316-91D0-049D638ADEE4}
  9
$VERSIONGUID
  2
{5443C484-884E-4569-994A-6D1EEFB3B9DD}
  9
$EXTNAMES
290
     1
  9
$PSVPSCALE
 40
0.0
  9
$OLESTARTUP
290
     0
  0
ENDSEC
  0
SECTION
  2
CLASSES
  0
CLASS
  1
ACDBDICTIONARYWDFLT
  2
AcDbDictionaryWithDefault
  3
ObjectDBX Classes
 90
        0
280
     0
281
     0
  0
CLASS
  1
MATERIAL
  2
AcDbMaterial
  3
ObjectDBX Classes
 90
     1153
280
     0
281
     0
  0
CLASS
  1
VISUALSTYLE
  2
AcDbVisualStyle
  3
ObjectDBX Classes
 90
     4095
280
     0
281
     0
  0
CLASS
  1
SCALE
  2
AcDbScale
  3
ObjectDBX Classes
 90
     1153
280
     0
281
     0
  0
CLASS
  1
TABLESTYLE
  2
AcDbTableStyle
  3
ObjectDBX Classes
 90
     4095
280
     0
281
     0
  0
CLASS
  1
MLEADERSTYLE
  2
AcDbMLeaderStyle
  3
ACDB_MLEADERSTYLE_CLASS
 90
     4095
280
     0
281
     0
  0
CLASS
  1
SORTENTSTABLE
  2
AcDbSortentsTable
  3
ObjectDBX Classes
 90
        0
280
     0
281
     0
  0
CLASS
  1
CELLSTYLEMAP
  2
AcDbCellStyleMap
  3
ObjectDBX Classes
 90
     1152
280
     0
281
     0
  0
CLASS
  1
DICTIONARYVAR
  2
AcDbDictionaryVar
  3
ObjectDBX Classes
 90
        0
280
     0
281
     0
  0
CLASS
  1
ACME_DOCUMENT
  2
AcMeDbDoc
  3
AcMeServices
 90
     1024
280
     0
281
     0
  0
CLASS
  1
AMGSETTINGSOBJ
  2
AmgSettingsObj
  3
"AcadM|Product Description: AutoCAD Mechanical|Company: Autodesk, Inc."
 90
     1024
280
     0
281
     0
  0
CLASS
  1
ACMESCOPE
  2
AcMeScope
  3
AcMeServices
 90
     1024
280
     0
281
     0
  0
CLASS
  1
ACMECOMMANDHISTORY
  2
AcMeCommandHistory
  3
AcMeServices
 90
     1024
280
     0
281
     0
  0
CLASS
  1
ACIMSYSVARMAN
  2
AcImSysVarManager
  3
AcMeServices
 90
     1024
280
     0
281
     0
  0
CLASS
  1
ACIMINTSYSVAR
  2
AcImIntSysVar
  3
AcMeServices
 90
     1024
280
     0
281
     0
  0
CLASS
  1
ACMEDRAWINGMAN
  2
AcMeDrawingMan
  3
AcMeServices
 90
    33792
280
     0
281
     0
  0
CLASS
  1
ACMEVIEW
  2
AcMeView
  3
AcMeServices
 90
    33792
280
     0
281
     0
  0
CLASS
  1
ACDBENTITYCACHE
  2
AcMeEntityCache
  3
AcMeServices
 90
     1024
280
     0
281
     0
  0
CLASS
  1
GSMANAGER
  2
AcMeGSManager
  3
AcMeServices
 90
    33792
280
     1
281
     0
  0
CLASS
  1
AMDTINTERNALREACTOR
  2
AmdtInternalReactor
  3
AcMeServices
 90
     1024
280
     0
281
     0
  0
CLASS
  1
ACMESTATEMGR
  2
AcMeStateMgr
  3
AcMeServices
 90
     1024
280
     0
281
     0
  0
CLASS
  1
ACGREFMASTER
  2
AcGrefMaster
  3
AcAttribServices
 90
     1024
280
     0
281
     0
  0
CLASS
  1
AM_DRAWING_MGR
  2
AcDmDwgMgr
  3
AcMechDwgViewMgmt
 90
     1024
280
     0
281
     0
  0
CLASS
  1
AM_DWG_DOCUMENT
  2
AcDmDwgDocument
  3
AcMechDwgViewMgmt
 90
     1024
280
     0
281
     0
  0
CLASS
  1
AM_DWG_SHEET
  2
AcDmSheet
  3
AcMechDwgViewMgmt
 90
     1024
280
     0
281
     0
  0
CLASS
  1
AM_VIEWDIMPARMAP
  2
AcDmViewDimParMap
  3
AcMechDwgViewMgmt
 90
     1024
280
     0
281
     0
  0
CLASS
  1
ACIMREALSYSVAR
  2
AcImRealSysVar
  3
AcMeServices
 90
     1024
280
     0
281
     0
  0
CLASS
  1
AM_DWGMGR_NAME
  2
AcDmDwgMgrName
  3
AcMechDwgViewMgmt
 90
     1024
280
     0
281
     0
  0
CLASS
  1
ACME_DATABASE
  2
AcMeDbDatabase
  3
AcMeServices
 90
     1024
280
     0
281
     0
  0
CLASS
  1
ACRFINSADJUSTERMGR
  2
AcRfInsAdjusterMgr
  3
AcMeServices
 90
     1024
280
     0
281
     0
  0
CLASS
  1
ACGREFACADMASTER
  2
AcGrefacadMaster
  3
AcGrefServices
 90
     1024
280
     0
281
     0
  0
CLASS
  1
AMDTMENUSTATEMGR
  2
AmdtMenuStateMgr
  3
McadcomServices
 90
     1024
280
     0
281
     0
  0
CLASS
  1
AMDTMCOMMENUSTATE
  2
AmdtMcomMenuState
  3
McadcomServices
 90
     1024
280
     0
281
     0
  0
CLASS
  1
AMIMASTER
  2
AmiMaster
  3
AmiServices
 90
     1024
280
     0
281
     0
  0
CLASS
  1
MAPIAMMOUDLE
  2
MApiAmModule
  3
MApiAmServices
 90
     1024
280
     0
281
     0
  0
CLASS
  1
ACIMSTRSYSVAR
  2
AcImStrSysVar
  3
AcMeServices
 90
     1024
280
     0
281
     0
  0
CLASS
  1
AMDTADMENUSTATE
  2
AmdtAdMenuState
  3
DesignerServices
 90
    33792
280
     1
281
     0
  0
CLASS
  1
ADAPPL
  2
AcAdAppl
  3
DesignerAssemblies
 90
    33792
280
     0
281
     0
  0
CLASS
  1
DEPMGR
  2
AcAdDepMgr
  3
DesignerAssemblies
 90
    33792
280
     0
281
     0
  0
CLASS
  1
PARAMMGR
  2
AcAdParamMgr
  3
DesignerAssemblies
 90
    33792
280
     0
281
     0
  0
CLASS
  1
PARAMSCOPE
  2
AcAdParamScope
  3
DesignerAssemblies
 90
    33792
280
     0
281
     0
  0
CLASS
  1
NAMEDAPPL
  2
AcAdNamedAppl
  3
DesignerAssemblies
 90
    33792
280
     0
281
     0
  0
CLASS
  1
AMDTDMMENUSTATE
  2
AmdtDmMenuState
  3
AcMechDwgViewMgmt
 90
     1024
280
     0
281
     0
  0
CLASS
  1
AMDTAMMENUSTATE
  2
AmdtAmMenuState
  3
DesignerAssemblies
 90
     1024
280
     0
281
     0
  0
CLASS
  1
ACAMPROJECT
  2
AcAmProject
  3
DesignerAssemblies
 90
     1024
280
     0
281
     0
  0
CLASS
  1
ACAMGRCOMPDEF
  2
AcAmGrCompDef
  3
DesignerAssemblies
 90
     1024
280
     0
281
     0
  0
CLASS
  1
ACCMCONTEXT
  2
AcCmContext
  3
DesignerAssemblies
 90
    33792
280
     0
281
     0
  0
CLASS
  1
ACAMCOMPDEF
  2
AcAmCompDef
  3
DesignerAssemblies
 90
     1024
280
     0
281
     0
  0
CLASS
  1
ACAMCOMPDEFMGR
  2
AcAmCompDefMgr
  3
DesignerAssemblies
 90
     1024
280
     0
281
     0
  0
CLASS
  1
AMCONTEXTMGR
  2
AcAmContextMgr
  3
DesignerAssemblies
 90
     1024
280
     0
281
     0
  0
CLASS
  1
ACAMCONTEXTMODELER
  2
AcAmContextModeler
  3
DesignerAssemblies
 90
     1024
280
     0
281
     0
  0
CLASS
  1
ACMDATADICTIONARY
  2
AcmDataDictionary
  3
"AcmSymBB|Product Description: AutoCAD Mechanical|Company: Autodesk, Inc."
 90
     1024
280
     0
281
     0
  0
CLASS
  1
CATALOGSTATE
  2
AcAmCatalogState
  3
DesignerAssemblies
 90
    33792
280
     0
281
     0
  0
CLASS
  1
ACAMGRCOMPDEFSET
  2
AcAmGrCompDefSet
  3
DesignerAssemblies
 90
     1024
280
     0
281
     0
  0
CLASS
  1
AMDTBROWSERDBTAB
  2
AmdtBrowserDbTab
  3
McadcomServices
 90
     1024
280
     0
281
     0
  0
CLASS
  1
CBROWSERAPPOBJECT
  2
CBrowserAppObject
  3
McadcomServices
 90
     1024
280
     0
281
     0
  0
CLASS
  1
DM_PLACEHOLDER
  2
AcDmSelsetPlaceholder
  3
AcMechDwgViewMgmt
 90
     1024
280
     0
281
     0
  0
CLASS
  1
EXACXREFPANELOBJECT
  2
ExAcXREFPanelObject
  3
EXAC_ESW
 90
     1025
280
     0
281
     0
  0
CLASS
  1
NPOCOLLECTION
  2
AcDbImpNonPersistentObjectsCollection
  3
ObjectDBX Classes
 90
     1153
280
     0
281
     0
  0
CLASS
  1
ACMSTANDARDANSI
  2
AcmStandardANSI
  3
"Amdt_StdImp|Product Description: AutoCAD Mechanical|Company: Autodesk, Inc."
 90
     1024
280
     0
281
     0
  0
CLASS
  1
ACMSURFSTANDARDANSI
  2
AcmSurfTextStdANSI
  3
"Amdt_StdImp|Product Description: AutoCAD Mechanical|Company: Autodesk, Inc."
 90
     1024
280
     0
281
     0
  0
CLASS
  1
ACMFCFSTANDARDANSI
  2
AcmFCFStdANSI
  3
"Amdt_StdImp|Product Description: AutoCAD Mechanical|Company: Autodesk, Inc."
 90
     1024
280
     0
281
     0
  0
CLASS
  1
ACMWELDSTANDARDANSI
  2
AcmWeldingStdANSI
  3
"Amdt_StdImp|Product Description: AutoCAD Mechanical|Company: Autodesk, Inc."
 90
     1024
280
     0
281
     0
  0
CLASS
  1
ACMIDSTANDARDANSI
  2
AcmIdStdANSI
  3
"Amdt_StdImp|Product Description: AutoCAD Mechanical|Company: Autodesk, Inc."
 90
     1024
280
     0
281
     0
  0
CLASS
  1
ACMDATUMSTANDARDANSI
  2
AcmDatumStdANSI
  3
"Amdt_StdImp|Product Description: AutoCAD Mechanical|Company: Autodesk, Inc."
 90
     1024
280
     0
281
     0
  0
CLASS
  1
ACMBOMSTANDARDANSI
  2
AcmBOMStdANSI
  3
"Amdt_StdImp|Product Description: AutoCAD Mechanical|Company: Autodesk, Inc."
 90
     1024
280
     0
281
     0
  0
CLASS
  1
ACMDETAILSTANDARDANSI
  2
AmdtDetailSymStdANSI
  3
"Amdt_StdImp|Product Description: AutoCAD Mechanical|Company: Autodesk, Inc."
 90
     1024
280
     0
281
     0
  0
CLASS
  1
ACMSECTIONSTANDARDANSI
  2
AmdtSectionSymStdANSI
  3
"Amdt_StdImp|Product Description: AutoCAD Mechanical|Company: Autodesk, Inc."
 90
     1024
280
     0
281
     0
  0
CLASS
  1
ACMCENTERLINESTANDARDANSI
  2
AmdtCenterLineStdANSI
  3
"Amdt_StdImp|Product Description: AutoCAD Mechanical|Company: Autodesk, Inc."
 90
     1024
280
     0
281
     0
  0
CLASS
  1
ACMTHREADLINESTANDARDANSI
  2
AmdtThreadLineStdANSI
  3
"Amdt_StdImp|Product Description: AutoCAD Mechanical|Company: Autodesk, Inc."
 90
     1024
280
     0
281
     0
  0
CLASS
  1
ACMNOTESTANDARDANSI
  2
AmdtNoteStdANSI
  3
"Amdt_StdImp|Product Description: AutoCAD Mechanical|Company: Autodesk, Inc."
 90
     1024
280
     0
281
     0
  0
CLASS
  1
ACMTAPERSTANDARDANSI
  2
AcmTaperStdANSI
  3
"Amdt_StdImp|Product Description: AutoCAD Mechanical|Company: Autodesk, Inc."
 90
     1024
280
     0
281
     0
  0
CLASS
  1
ACMANOOTATIONVIEWSTANDARDANSI
  2
AmdtAnViewStdANSI
  3
"Amdt_StdImp|Product Description: AutoCAD Mechanical|Company: Autodesk, Inc."
 90
     1024
280
     0
281
     0
  0
CLASS
  1
ACAMGLAYSTD
  2
AcAmgLayStd
  3
"AmgLay|Product Description: AutoCAD Mechanical|Company: Autodesk, Inc."
 90
     1024
280
     0
281
     0
  0
CLASS
  1
ACAMGDIMSTD
  2
AcAmgDimStd
  3
"AmgDim|Product Description: AutoCAD Mechanical|Company: Autodesk, Inc."
 90
     1024
280
     0
281
     0
  0
CLASS
  1
AMGOBJPROPCFG
  2
AmgObjPropCfg
  3
"AmgLay|Product Description: AutoCAD Mechanical|Company: Autodesk, Inc."
 90
     1025
280
     0
281
     0
  0
CLASS
  1
ACAMGHOLECHARTSTDANSI
  2
AcAmgHoleChartStdANSI
  3
AmgDim|Product Description: AutoCAD Mechanical|Company: Autodesk, Inc.
 90
     1024
280
     0
281
     0
  0
CLASS
  1
ACAMGTITLESTD
  2
AcAmgTitleStd
  3
"AmgTitle|Product Description: AutoCAD Mechanical|Company: Autodesk, Inc."
 90
     4095
280
     0
281
     0
  0
CLASS
  1
AMDTNOTETEMPLATEDB
  2
AmdtNoteTemplateDB
  3
AcmSymBB|Product Description: AutoCAD Mechanical|Company: Autodesk, Inc.
 90
     1024
280
     0
281
     0
  0
CLASS
  1
ACAMGFILTERDAT
  2
AcAmgFilterDat
  3
"AcadM|Product Description: AutoCAD Mechanical|Company: Autodesk, Inc."
 90
    33792
280
     0
281
     0
  0
CLASS
  1
CAMSSTRUCTBTNSTATE
  2
StructBtnState
  3
DesignerAssemblies
 90
    33792
280
     0
281
     0
  0
CLASS
  1
ACDBPLACEHOLDER
  2
AcDbPlaceHolder
  3
ObjectDBX Classes
 90
        0
280
     0
281
     0
  0
CLASS
  1
LAYOUT
  2
AcDbLayout
  3
ObjectDBX Classes
 90
        0
280
     0
281
     0
  0
ENDSEC
  0
SECTION
  2
TABLES
  0
TABLE
  2
VPORT
  5
28
102
{ACAD_XDICTIONARY
360
2C
102
}
330
0
100
AcDbSymbolTable
 70
     1
  0
VPORT
  5
29
330
28
100
AcDbSymbolTableRecord
100
AcDbViewportTableRecord
  2
*ACTIVE
 70
     0
 10
0.0
 20
0.0
 11
1.0
 21
1.0
 12
-0.0362833241656517
 22
-35.44375467619853
 13
0.0
 23
0.0
 14
1.0
 24
1.0
 15
0.0
 25
0.0
 16
0.0
 26
0.0
 36
1.0
 17
0.0
 27
0.0
 37
0.0
 40
321.8381524783199
 41
2.068965517241379
 42
50.0
 43
0.0
 44
0.0
 50
0.0
 51
0.0
 71
     0
 72
   100
 73
     1
 74
     1
 75
     0
 76
     0
 77
     0
 78
     0
281
     0
 65
     1
110
0.0
120
0.0
130
0.0
111
1.0
121
0.0
131
0.0
112
0.0
122
1.0
132
0.0
 79
     0
146
0.0
  0
ENDTAB
  0
TABLE
  2
LTYPE
  5
23
330
0
100
AcDbSymbolTable
 70
    11
  0
LTYPE
  5
24
330
23
100
AcDbSymbolTableRecord
100
AcDbLinetypeTableRecord
  2
ByBlock
 70
     0
  3

 72
    65
 73
     0
 40
0.0
  0
LTYPE
  5
25
330
23
100
AcDbSymbolTableRecord
100
AcDbLinetypeTableRecord
  2
ByLayer
 70
     0
  3

 72
    65
 73
     0
 40
0.0
  0
LTYPE
  5
13
330
23
100
AcDbSymbolTableRecord
100
AcDbLinetypeTableRecord
  2
CONTINUOUS
 70
     0
  3
Solid line
 72
    65
 73
     0
 40
0.0
  0
LTYPE
  5
2B0
330
23
100
AcDbSymbolTableRecord
100
AcDbLinetypeTableRecord
  2
HIDDEN
 70
     0
  3
Verdeckt
 72
    65
 73
     2
 40
0.375
 49
0.25
 74
     0
 49
-0.125
 74
     0
  0
LTYPE
  5
2B2
330
23
100
AcDbSymbolTableRecord
100
AcDbLinetypeTableRecord
  2
PHANTOM2
 70
     0
  3
Phantom (.5x) ___ _ _ ___ _ _ ___ _ _ ___ _ _
 72
    65
 73
     6
 40
1.25
 49
0.625
 74
     0
 49
-0.125
 74
     0
 49
0.125
 74
     0
 49
-0.125
 74
     0
 49
0.125
 74
     0
 49
-0.125
 74
     0
  0
LTYPE
  5
2B1
330
23
100
AcDbSymbolTableRecord
100
AcDbLinetypeTableRecord
  2
CENTER
 70
     0
  3
Mitte ____ _ ____ _ ____ _ ____ _ ____ _ ____
 72
    65
 73
     4
 40
2.0
 49
1.25
 74
     0
 49
-0.25
 74
     0
 49
0.25
 74
     0
 49
-0.25
 74
     0
  0
LTYPE
  5
2B3
330
23
100
AcDbSymbolTableRecord
100
AcDbLinetypeTableRecord
  2
Amconstr
 70
     0
  3
_______________________
 72
    65
 73
     2
 40
9999.0
 49
9999.0
 74
     0
 49
0.0
 74
     0
  0
LTYPE
  5
2B4
330
23
100
AcDbSymbolTableRecord
100
AcDbLinetypeTableRecord
  2
CENTER2
 70
     0
  3
Center (.5x) ___ _ ___ _ ___ _ ___ _ ___ _ ___
 72
    65
 73
     4
 40
1.125
 49
0.75
 74
     0
 49
-0.125
 74
     0
 49
0.125
 74
     0
 49
-0.125
 74
     0
  0
LTYPE
  5
2B5
330
23
100
AcDbSymbolTableRecord
100
AcDbLinetypeTableRecord
  2
HIDDEN2
 70
     0
  3
Hidden (.5x) _ _ _ _ _ _ _ _ _ _ _ _ _ _ _ _ _
 72
    65
 73
     2
 40
0.1875
 49
0.125
 74
     0
 49
-0.0625
 74
     0
  0
LTYPE
  5
2B6
330
23
100
AcDbSymbolTableRecord
100
AcDbLinetypeTableRecord
  2
Amzigzag2
 70
     0
  3
/\/-/\/-/\/-/\/-/\/-/\/
 72
    65
 73
     2
 40
0.4401
 49
0.0001
 74
     4
 75
   136
340
2B7
 46
0.0016
 50
0.0
 44
0.0
 45
0.0
 49
-0.4400000000000001
 74
     0
  0
LTYPE
  5
2C7
330
23
100
AcDbSymbolTableRecord
100
AcDbLinetypeTableRecord
  2
ACANSTGB
 70
     0
  3
__ . . __ . .
 72
    65
 73
     6
 40
0.35433070866
 49
0.15748031496
 74
     0
 49
-0.03937007874
 74
     0
 49
0.03937007874
 74
     0
 49
-0.03937007874
 74
     0
 49
0.03937007874
 74
     0
 49
-0.03937007874
 74
     0
  0
LTYPE
  5
2C8
330
23
100
AcDbSymbolTableRecord
100
AcDbLinetypeTableRecord
  2
ACANSTGL
 70
     0
  3
_ _ _ _ _
 72
    65
 73
     2
 40
0.11811023622
 49
0.07874015748
 74
     0
 49
-0.03937007874
 74
     0
  0
LTYPE
  5
7C
330
23
100
AcDbSymbolTableRecord
100
AcDbLinetypeTableRecord
  2
DASHED
 70
     0
  3
Dashed __ __ __ __ __ __ __ __ __ __ __ __ __ _
 72
    65
 73
     2
 40
0.75
 49
0.5
 74
     0
 49
-0.25
 74
     0
  0
ENDTAB
  0
TABLE
  2
LAYER
  5
1B
102
{ACAD_XDICTIONARY
360
1C
102
}
330
0
100
AcDbSymbolTable
 70
     7
  0
LAYER
  5
6
330
1B
100
AcDbSymbolTableRecord
100
AcDbLayerTableRecord
  2
0
 70
     0
 62
     7
  6
CONTINUOUS
370
    -3
390
7
  0
LAYER
  5
82
330
1B
100
AcDbSymbolTableRecord
100
AcDbLayerTableRecord
  2
GEB-KONTUR-A
 70
     0
 62
     5
  6
CONTINUOUS
370
    -3
390
7
  0
LAYER
  5
7B
330
1B
100
AcDbSymbolTableRecord
100
AcDbLayerTableRecord
  2
GEB-VERDECKT
 70
     0
 62
     2
  6
DASHED
370
    -3
390
7
1001
AcAecLayerStandard
1000

1000

  0
LAYER
  5
76
330
1B
100
AcDbSymbolTableRecord
100
AcDbLayerTableRecord
  2
Arbeitspunkt(DIN)
 70
     0
 62
     7
  6
CONTINUOUS
370
    25
390
7
  0
LAYER
  5
2AC
330
1B
100
AcDbSymbolTableRecord
100
AcDbLayerTableRecord
  2
GEB-ART-NR
 70
     0
 62
     1
  6
CONTINUOUS
370
    18
390
7
  0
LAYER
  5
72
330
1B
100
AcDbSymbolTableRecord
100
AcDbLayerTableRecord
  2
GEB-BEZUG
 70
     0
 62
     2
  6
CONTINUOUS
370
    25
390
7
  0
LAYER
  5
2A9
330
1B
100
AcDbSymbolTableRecord
100
AcDbLayerTableRecord
  2
GEB-TEXT
 70
     0
 62
     5
  6
CONTINUOUS
370
    18
390
7
  0
ENDTAB
  0
TABLE
  2
STYLE
  5
20
330
0
100
AcDbSymbolTable
 70
     3
  0
STYLE
  5
21
330
20
100
AcDbSymbolTableRecord
100
AcDbTextStyleTableRecord
  2
STANDARD
 70
     0
 40
0.0
 41
1.0
 50
0.0
 71
     0
 42
0.2
  3
arial.ttf
  4

1001
ACAD
1000
Arial
1071
       34
  0
STYLE
  5
2B7
330
20
100
AcDbSymbolTableRecord
100
AcDbTextStyleTableRecord
  2

 70
     1
 40
0.0
 41
1.0
 50
0.0
 71
     0
 42
0.2
  3
genltshp.shx
  4

  0
STYLE
  5
2C3
330
20
100
AcDbSymbolTableRecord
100
AcDbTextStyleTableRecord
  2
ACANSGDT
 70
     0
 40
0.0
 41
1.0
 50
0.0
 71
     0
 42
0.2
  3
amgdt.shx
  4

  0
ENDTAB
  0
TABLE
  2
VIEW
  5
26
330
0
100
AcDbSymbolTable
 70
     0
  0
ENDTAB
  0
TABLE
  2
UCS
  5
27
330
0
100
AcDbSymbolTable
 70
     0
  0
ENDTAB
  0
TABLE
  2
APPID
  5
2D
330
0
100
AcDbSymbolTable
 70
    14
  0
APPID
  5
1F
330
2D
100
AcDbSymbolTableRecord
100
AcDbRegAppTableRecord
  2
ACAD
 70
     0
  0
APPID
  5
7D
330
2D
100
AcDbSymbolTableRecord
100
AcDbRegAppTableRecord
  2
AcAecLayerStandard
 70
     0
  0
APPID
  5
306
330
2D
100
AcDbSymbolTableRecord
100
AcDbRegAppTableRecord
  2
ACATTRIBSERVICES
 70
     0
  0
APPID
  5
331
330
2D
100
AcDbSymbolTableRecord
100
AcDbRegAppTableRecord
  2
MCAD_NO_VIS
 70
     0
  0
APPID
  5
332
330
2D
100
AcDbSymbolTableRecord
100
AcDbRegAppTableRecord
  2
ACAD_TEMP_GRAPHIC
 70
     0
  0
APPID
  5
336
330
2D
100
AcDbSymbolTableRecord
100
AcDbRegAppTableRecord
  2
AD_DRAW
 70
     0
  0
APPID
  5
34F
330
2D
100
AcDbSymbolTableRecord
100
AcDbRegAppTableRecord
  2
DESIGNERASSEMBLIES
 70
     0
  0
APPID
  5
354
330
2D
100
AcDbSymbolTableRecord
100
AcDbRegAppTableRecord
  2
ACADM_DIM_EDIT
 70
     0
  0
APPID
  5
355
330
2D
100
AcDbSymbolTableRecord
100
AcDbRegAppTableRecord
  2
AMDT_DM_ADJ
 70
     0
  0
APPID
  5
375
330
2D
100
AcDbSymbolTableRecord
100
AcDbRegAppTableRecord
  2
ACAD_DSTYLE_DIMARC_LENGTH_SYMBOL
 70
     0
  0
APPID
  5
376
330
2D
100
AcDbSymbolTableRecord
100
AcDbRegAppTableRecord
  2
ACAD_DSTYLE_DIM_LINETYPE
 70
     0
  0
APPID
  5
377
330
2D
100
AcDbSymbolTableRecord
100
AcDbRegAppTableRecord
  2
ACAD_DSTYLE_DIM_EXT1_LINETYPE
 70
     0
  0
APPID
  5
378
330
2D
100
AcDbSymbolTableRecord
100
AcDbRegAppTableRecord
  2
ACAD_DSTYLE_DIM_EXT2_LINETYPE
 70
     0
  0
APPID
  5
3A5
330
2D
100
AcDbSymbolTableRecord
100
AcDbRegAppTableRecord
  2
ACAD_MLEADERVER
 70
     0
  0
ENDTAB
  0
TABLE
  2
DIMSTYLE
  5
2E
330
0
100
AcDbSymbolTable
 70
     7
100
AcDbDimStyleTable
 71
     1
340
2F
  0
DIMSTYLE
105
2F
330
2E
100
AcDbSymbolTableRecord
100
AcDbDimStyleTableRecord
  2
STANDARD
 70
     0
279
     2
340
21
  0
DIMSTYLE
105
2D9
102
{ACAD_REACTORS
330
2C0
102
}
330
2E
100
AcDbSymbolTableRecord
100
AcDbDimStyleTableRecord
  2
AM_ANSI
 70
     0
  4
mm
 41
0.12
 42
0.05
 43
0.5
 44
0.1
 47
0.1
 48
0.1
 78
     7
 79
     2
140
0.12
141
0.0
146
0.71
147
0.06
176
   256
177
   256
178
     2
274
     4
284
     7
340
21
371
    -1
372
    -1
1001
ACAD_DSTYLE_DIMARC_LENGTH_SYMBOL
1070
   379
1070
     1
1001
ACAD_DSTYLE_DIM_LINETYPE
1070
   380
1005
24
1001
ACAD_DSTYLE_DIM_EXT1_LINETYPE
1070
   381
1005
24
1001
ACAD_DSTYLE_DIM_EXT2_LINETYPE
1070
   382
1005
24
  0
DIMSTYLE
105
2DA
330
2E
100
AcDbSymbolTableRecord
100
AcDbDimStyleTableRecord
  2
AM_ANSI$3
 70
     0
  4
mm
 41
0.12
 42
0.05
 43
0.5
 44
0.1
 47
0.1
 48
0.1
 78
     7
 79
     2
140
0.12
141
0.0
146
0.71
147
0.06
176
   256
177
   256
178
     2
274
     4
284
     7
288
     1
289
     0
340
21
371
    -1
372
    -1
1001
ACAD_DSTYLE_DIMARC_LENGTH_SYMBOL
1070
   379
1070
     1
1001
ACAD_DSTYLE_DIM_LINETYPE
1070
   380
1005
24
1001
ACAD_DSTYLE_DIM_EXT1_LINETYPE
1070
   381
1005
24
1001
ACAD_DSTYLE_DIM_EXT2_LINETYPE
1070
   382
1005
24
  0
DIMSTYLE
105
2DB
330
2E
100
AcDbSymbolTableRecord
100
AcDbDimStyleTableRecord
  2
AM_ANSI$4
 70
     0
  4
mm
 41
0.12
 42
0.05
 43
0.5
 44
0.1
 47
0.1
 48
0.1
 78
     7
 79
     2
140
0.12
141
0.0
146
0.71
147
0.06
176
   256
177
   256
178
     2
274
     4
284
     7
288
     1
289
     0
340
21
371
    -1
372
    -1
1001
ACAD_DSTYLE_DIMARC_LENGTH_SYMBOL
1070
   379
1070
     1
1001
ACAD_DSTYLE_DIM_LINETYPE
1070
   380
1005
24
1001
ACAD_DSTYLE_DIM_EXT1_LINETYPE
1070
   381
1005
24
1001
ACAD_DSTYLE_DIM_EXT2_LINETYPE
1070
   382
1005
24
  0
DIMSTYLE
105
2DC
330
2E
100
AcDbSymbolTableRecord
100
AcDbDimStyleTableRecord
  2
AM_ANSI$7
 70
     0
  4
mm
 41
0.12
 42
0.05
 43
0.5
 44
0.1
 47
0.1
 48
0.1
 78
     7
 79
     2
140
0.12
141
0.0
146
0.71
147
0.06
176
   256
177
   256
178
     2
274
     4
284
     7
340
21
371
    -1
372
    -1
1001
ACAD_DSTYLE_DIMARC_LENGTH_SYMBOL
1070
   379
1070
     1
1001
ACAD_DSTYLE_DIM_LINETYPE
1070
   380
1005
24
1001
ACAD_DSTYLE_DIM_EXT1_LINETYPE
1070
   381
1005
24
1001
ACAD_DSTYLE_DIM_EXT2_LINETYPE
1070
   382
1005
24
  0
DIMSTYLE
105
2DD
330
2E
100
AcDbSymbolTableRecord
100
AcDbDimStyleTableRecord
  2
AM_ANSI$SF
 70
     0
  4
mm
 41
0.12
 42
0.05
 43
0.5
 44
0.1
 47
0.1
 48
0.1
 75
     1
 76
     1
 78
     7
 79
     2
140
0.12
141
0.0
146
0.71
147
0.06
176
   256
177
   256
178
     2
274
     4
284
     7
340
21
371
    -1
372
    -1
1001
ACAD_DSTYLE_DIMARC_LENGTH_SYMBOL
1070
   379
1070
     1
1001
ACAD_DSTYLE_DIM_LINETYPE
1070
   380
1005
24
1001
ACAD_DSTYLE_DIM_EXT1_LINETYPE
1070
   381
1005
24
1001
ACAD_DSTYLE_DIM_EXT2_LINETYPE
1070
   382
1005
24
  0
DIMSTYLE
105
2DE
330
2E
100
AcDbSymbolTableRecord
100
AcDbDimStyleTableRecord
  2
AM_ANSI$SH
 70
     0
  4
mm
 41
0.12
 42
0.05
 43
0.5
 44
0.1
 47
0.1
 48
0.1
 75
     1
 76
     1
 78
     7
 79
     2
140
0.12
141
0.0
146
0.71
147
0.06
173
     1
176
   256
177
   256
178
     2
274
     4
284
     7
340
21
343
2DF
371
    -1
372
    -1
1001
ACAD_DSTYLE_DIMARC_LENGTH_SYMBOL
1070
   379
1070
     1
1001
ACAD_DSTYLE_DIM_LINETYPE
1070
   380
1005
24
1001
ACAD_DSTYLE_DIM_EXT1_LINETYPE
1070
   381
1005
24
1001
ACAD_DSTYLE_DIM_EXT2_LINETYPE
1070
   382
1005
24
  0
ENDTAB
  0
TABLE
  2
BLOCK_RECORD
  5
1
330
0
100
AcDbSymbolTable
 70
     3
  0
BLOCK_RECORD
  5
2
102
{ACAD_XDICTIONARY
360
3
102
}
330
1
100
AcDbSymbolTableRecord
100
AcDbBlockTableRecord
  2
*Model_Space
340
15
  0
BLOCK_RECORD
  5
17
330
1
100
AcDbSymbolTableRecord
100
AcDbBlockTableRecord
  2
*Paper_Space
340
1A
  0
BLOCK_RECORD
  5
2DF
330
1
100
AcDbSymbolTableRecord
100
AcDbBlockTableRecord
  2
GENAXEH
340
0
  0
BLOCK_RECORD
  5
6F
330
1
100
AcDbSymbolTableRecord
100
AcDbBlockTableRecord
  2
Einfügepunkt
340
0
102
{BLKREFS
331
6E
102
}
  0
ENDTAB
  0
ENDSEC
  0
SECTION
  2
BLOCKS
  0
BLOCK
  5
5
330
2
100
AcDbEntity
  8
0
100
AcDbBlockBegin
  2
*Model_Space
 70
     0
 10
0.0
 20
0.0
 30
0.0
  3
*Model_Space
  1

  0
ENDBLK
  5
14
330
2
100
AcDbEntity
  8
0
100
AcDbBlockEnd
  0
BLOCK
  5
18
330
17
100
AcDbEntity
 67
     1
  8
0
100
AcDbBlockBegin
  2
*Paper_Space
 70
     0
 10
0.0
 20
0.0
 30
0.0
  3
*Paper_Space
  1

  0
ENDBLK
  5
19
330
17
100
AcDbEntity
 67
     1
  8
0
100
AcDbBlockEnd
  0
BLOCK
  5
2E0
330
2DF
100
AcDbEntity
  8
0
100
AcDbBlockBegin
  2
GENAXEH
 70
     0
 10
0.0
 20
0.0
 30
0.0
  3
GENAXEH
  1

  0
LINE
  5
2E1
330
2DF
100
AcDbEntity
  8
0
100
AcDbLine
 10
-1.0
 20
0.0
 30
0.0
 11
1.0
 21
0.0
 31
0.0
  0
ENDBLK
  5
2E2
330
2DF
100
AcDbEntity
  8
0
100
AcDbBlockEnd
  0
BLOCK
  5
70
330
6F
100
AcDbEntity
  8
0
100
AcDbBlockBegin
  2
Einfügepunkt
 70
     0
 10
0.0
 20
0.0
 30
0.0
  3
Einfügepunkt
  1

  0
LINE
  5
71
330
6F
100
AcDbEntity
  8
GEB-BEZUG
100
AcDbLine
 10
-0.7071067811865817
 20
-0.7071067811865106
 30
0.0
 11
0.7071067811864751
 21
0.7071067811865817
 31
0.0
  0
LINE
  5
73
330
6F
100
AcDbEntity
  8
GEB-BEZUG
100
AcDbLine
 10
-0.7071067811865106
 20
0.7071067811865817
 30
0.0
 11
0.7071067811865462
 21
-0.7071067811865106
 31
0.0
  0
ENDBLK
  5
74
330
6F
100
AcDbEntity
  8
0
100
AcDbBlockEnd
  0
ENDSEC
  0
SECTION
  2
ENTITIES
  0
INSERT
  5
6E
330
2
100
AcDbEntity
  8
0
 48
25.0
100
AcDbBlockReference
  2
Einfügepunkt
 10
0.0
 20
0.0
 30
0.0
  0
LINE
  5
75
330
2
100
AcDbEntity
  8
Arbeitspunkt(DIN)
 48
25.0
100
AcDbLine
 10
0.0
 20
-0.0000000000007105
 30
0.0
 11
0.0
 21
-2.50000000000071
 31
0.0
  0
LINE
  5
77
330
2
100
AcDbEntity
  8
Arbeitspunkt(DIN)
 48
25.0
100
AcDbLine
 10
0.0
 20
-0.0000000000007105
 30
0.0
 11
0.0
 21
2.499999999999289
 31
0.0
  0
LINE
  5
78
330
2
100
AcDbEntity
  8
Arbeitspunkt(DIN)
 48
25.0
100
AcDbLine
 10
0.0
 20
-0.0000000000007105
 30
0.0
 11
-2.5
 21
-0.0000000000007105
 31
0.0
  0
LINE
  5
79
330
2
100
AcDbEntity
  8
Arbeitspunkt(DIN)
 48
25.0
100
AcDbLine
 10
0.0
 20
-0.0000000000007105
 30
0.0
 11
2.5
 21
-0.0000000000007105
 31
0.0
  0
LINE
  5
7A
330
2
100
AcDbEntity
  8
GEB-VERDECKT
 48
25.0
100
AcDbLine
 10
64.0
 20
-9.500000000000625
 30
0.0
 11
64.0
 21
-55.00000000000063
 31
0.0
  0
LINE
  5
7E
330
2
100
AcDbEntity
  8
GEB-VERDECKT
 48
25.0
100
AcDbLine
 10
89.0
 20
-9.500000000000625
 30
0.0
 11
89.0
 21
-55.00000000000063
 31
0.0
  0
ARC
  5
7F
330
2
100
AcDbEntity
  8
GEB-VERDECKT
 48
25.0
100
AcDbCircle
 10
76.5
 20
-21.00000000000654
 30
0.0
 40
20.99999999999999
100
AcDbArc
 50
115.2087652967551
 51
178.6356858493296
  0
ARC
  5
80
330
2
100
AcDbEntity
  8
GEB-VERDECKT
 48
25.0
100
AcDbCircle
 10
76.5
 20
-21.00000000000654
 30
0.0
 40
20.99999999999999
100
AcDbArc
 50
1.36431415067041
 51
64.79123470324485
  0
LINE
  5
81
330
2
100
AcDbEntity
  8
GEB-KONTUR-A
 48
25.0
100
AcDbLine
 10
41.5
 20
-2.000000000000625
 30
0.0
 11
41.5
 21
-20.50000000000062
 31
0.0
  0
LINE
  5
83
330
2
100
AcDbEntity
  8
GEB-KONTUR-A
 48
25.0
100
AcDbLine
 10
111.5
 20
-2.000000000000625
 30
0.0
 11
111.5
 21
-20.50000000000062
 31
0.0
  0
LINE
  5
84
330
2
100
AcDbEntity
  8
GEB-KONTUR-A
 48
25.0
100
AcDbLine
 10
111.5
 20
-2.000000000000625
 30
0.0
 11
41.5
 21
-2.000000000000625
 31
0.0
  0
LINE
  5
85
330
2
100
AcDbEntity
  8
GEB-KONTUR-A
 48
25.0
100
AcDbLine
 10
111.5
 20
-20.50000000000062
 30
0.0
 11
41.5
 21
-20.50000000000062
 31
0.0
  0
ARC
  5
86
330
2
100
AcDbEntity
  8
GEB-KONTUR-A
 48
25.0
100
AcDbCircle
 10
76.5
 20
-21.00000000000179
 30
0.0
 40
21.00000000000002
100
AcDbArc
 50
178.6356858493344
 51
213.5573097619216
  0
ARC
  5
87
330
2
100
AcDbEntity
  8
GEB-KONTUR-A
 48
25.0
100
AcDbCircle
 10
76.5
 20
-21.00000000000179
 30
0.0
 40
21.00000000000003
100
AcDbArc
 50
326.4426902380784
 51
1.364314150665526
  0
ARC
  5
88
330
2
100
AcDbEntity
  8
GEB-VERDECKT
 48
25.0
100
AcDbCircle
 10
76.49999999999824
 20
-21.00000000000304
 30
0.0
 40
20.99999999999782
100
AcDbArc
 50
213.5573097619216
 51
215.7795430902196
  0
ARC
  5
89
330
2
100
AcDbEntity
  8
GEB-VERDECKT
 48
25.0
100
AcDbCircle
 10
76.50000000000449
 20
-21.00000000000492
 30
0.0
 40
20.99999999999456
100
AcDbArc
 50
324.220456909779
 51
326.4426902380784
  0
SPLINE
  5
8A
330
2
100
AcDbEntity
  8
GEB-VERDECKT
 48
25.0
100
AcDbSpline
210
0.0
220
0.0
230
1.0
 70
     8
 71
     3
 72
    12
 73
     8
 74
     0
 42
0.0000000001
 43
0.0000000001
 40
3.311450438871145
 40
3.311450438871145
 40
3.311450438871145
 40
3.311450438871145
 40
3.361579481505844
 40
3.361579481505844
 40
4.201974351882305
 40
4.201974351882305
 40
4.658402867985611
 40
4.658402867985611
 40
4.658402867985611
 40
4.658402867985611
 10
59.00714431546413
 20
-20.50000000000074
 30
0.0
 10
59.00701232526279
 20
-20.66623975911327
 30
0.0
 10
59.00694712569753
 20
-20.83290319121843
 30
0.0
 10
59.00694712569753
 20
-23.80131623458897
 30
0.0
 10
59.01057357834531
 20
-26.48024264284519
 30
0.0
 10
59.20027490829227
 20
-30.50433181105771
 30
0.0
 10
59.30437708234848
 20
-31.90000898654387
 30
0.0
 10
59.4632749625992
 20
-33.27802915781049
 30
0.0
  0
SPLINE
  5
8B
330
2
100
AcDbEntity
  8
GEB-VERDECKT
 48
25.0
100
AcDbSpline
210
0.0
220
0.0
230
1.0
 70
     8
 71
     3
 72
    12
 73
     8
 74
     0
 42
0.0000000001
 43
0.0000000001
 40
2.064756095026077
 40
2.064756095026077
 40
2.064756095026077
 40
2.064756095026077
 40
2.521184611129383
 40
2.521184611129383
 40
3.361579481505844
 40
3.361579481505844
 40
3.411708524140542
 40
3.411708524140542
 40
3.411708524140542
 40
3.411708524140542
 10
93.5367250374008
 20
-33.27802915781049
 30
0.0
 10
93.69562291765152
 20
-31.90000898654387
 30
0.0
 10
93.79972509170773
 20
-30.50433181105771
 30
0.0
 10
93.98942642165469
 20
-26.48024264284519
 30
0.0
 10
93.99305287430246
 20
-23.80131623458897
 30
0.0
 10
93.99305287430246
 20
-20.83290319121843
 30
0.0
 10
93.99298767473721
 20
-20.66623975911327
 30
0.0
 10
93.99285568453587
 20
-20.5000000000008
 30
0.0
  0
LINE
  5
8C
330
2
100
AcDbEntity
  8
GEB-VERDECKT
 48
25.0
100
AcDbLine
 10
85.44427190999915
 20
-40.00000000000511
 30
0.0
 11
67.55572809000085
 21
-40.00000000000511
 31
0.0
  0
SPLINE
  5
8D
330
2
100
AcDbEntity
  8
GEB-VERDECKT
 48
25.0
100
AcDbSpline
210
0.0
220
0.0
230
1.0
 70
     8
 71
     3
 72
    16
 73
    12
 74
     0
 42
0.0000000001
 43
0.0000000001
 40
9.502512983956679
 40
9.502512983956679
 40
9.502512983956679
 40
9.502512983956679
 40
9.61781230693931
 40
9.61781230693931
 40
9.967445179214781
 40
9.967445179214781
 40
10.33188844778205
 40
10.33188844778205
 40
10.69633171634932
 40
10.69633171634932
 40
11.01316083892573
 40
11.01316083892573
 40
11.01316083892573
 40
11.01316083892573
 10
67.55572809000085
 20
-40.00000000000508
 30
0.0
 10
67.23336057738521
 20
-39.84824512170059
 30
0.0
 10
66.91964756647417
 20
-39.69052585247198
 30
0.0
 10
65.69281521181626
 20
-39.03602443093806
 30
0.0
 10
64.85806188079152
 20
-38.5010593818393
 30
0.0
 10
63.36217512882041
 20
-37.41007184004843
 30
0.0
 10
62.65106492415061
 20
-36.81013089430763
 30
0.0
 10
61.39370887639
 20
-35.61345988223564
 30
0.0
 10
60.84692972473618
 20
-35.01668991278308
 30
0.0
 10
60.01010269775372
 20
-34.01732451045663
 30
0.0
 10
59.69521465562928
 20
-33.59986360897762
 30
0.0
 10
59.4632749625992
 20
-33.27802915781049
 30
0.0
  0
SPLINE
  5
8E
330
2
100
AcDbEntity
  8
GEB-VERDECKT
 48
25.0
100
AcDbSpline
210
0.0
220
0.0
230
1.0
 70
     8
 71
     3
 72
    16
 73
    12
 74
     0
 42
0.0000000001
 43
0.0000000001
 40
6.12466654130006
 40
6.12466654130006
 40
6.12466654130006
 40
6.12466654130006
 40
6.441495663876471
 40
6.441495663876471
 40
6.805938932443742
 40
6.805938932443742
 40
7.170382201011012
 40
7.170382201011012
 40
7.520015073286483
 40
7.520015073286483
 40
7.635314396269113
 40
7.635314396269113
 40
7.635314396269113
 40
7.635314396269113
 10
93.5367250374008
 20
-33.27802915781049
 30
0.0
 10
93.30478534437071
 20
-33.59986360897762
 30
0.0
 10
92.98989730224628
 20
-34.01732451045663
 30
0.0
 10
92.15307027526382
 20
-35.01668991278308
 30
0.0
 10
91.60629112360998
 20
-35.61345988223564
 30
0.0
 10
90.34893507584939
 20
-36.81013089430763
 30
0.0
 10
89.63782487117958
 20
-37.41007184004843
 30
0.0
 10
88.14193811920848
 20
-38.5010593818393
 30
0.0
 10
87.30718478818374
 20
-39.03602443093806
 30
0.0
 10
86.08035243352583
 20
-39.69052585247198
 30
0.0
 10
85.76663942261479
 20
-39.84824512170059
 30
0.0
 10
85.44427190999915
 20
-40.00000000000508
 30
0.0
  0
LINE
  5
8F
330
2
100
AcDbEntity
  8
GEB-KONTUR-A
 48
25.0
100
AcDbLine
 10
59.0
 20
-20.50000000000062
 30
0.0
 11
59.0
 21
-55.00000000000063
 31
0.0
  0
LINE
  5
90
330
2
100
AcDbEntity
  8
GEB-KONTUR-A
 48
25.0
100
AcDbLine
 10
94.0
 20
-20.50000000000062
 30
0.0
 11
94.0
 21
-55.00000000000063
 31
0.0
  0
LINE
  5
91
330
2
100
AcDbEntity
  8
GEB-KONTUR-A
 48
25.0
100
AcDbLine
 10
94.0
 20
-55.00000000000063
 30
0.0
 11
59.0
 21
-55.00000000000063
 31
0.0
  0
CIRCLE
  5
92
330
2
100
AcDbEntity
  8
GEB-VERDECKT
 48
25.0
100
AcDbCircle
 10
76.5
 20
-21.00000000000688
 30
0.0
 40
16.0
  0
ARC
  5
93
330
2
100
AcDbEntity
  8
GEB-VERDECKT
 48
25.0
100
AcDbCircle
 10
76.5
 20
-21.00000000000435
 30
0.0
 40
12.5
100
AcDbArc
 50
270.0
 51
66.92608193436832
  0
SPLINE
  5
94
330
2
100
AcDbEntity
  8
GEB-VERDECKT
 48
25.0
100
AcDbSpline
210
0.0
220
0.0
230
1.0
 70
     8
 71
     3
 72
    29
 73
    25
 74
     0
 42
0.0000000001
 43
0.0000000001
 40
5.294194845345974
 40
5.294194845345974
 40
5.294194845345974
 40
5.294194845345974
 40
5.342529643306968
 40
5.342529643306968
 40
5.569483070831155
 40
5.569483070831155
 40
5.796436498355341
 40
5.796436498355341
 40
6.194190514924422
 40
6.194190514924422
 40
6.591944531493502
 40
6.591944531493502
 40
6.591944531493502
 40
6.989698548062582
 40
6.989698548062582
 40
7.387452564631661
 40
7.387452564631661
 40
7.614405992155849
 40
7.614405992155849
 40
7.841359419680037
 40
7.841359419680037
 40
8.040645042023456
 40
8.040645042023456
 40
8.239930664366877
 40
8.239930664366877
 40
8.239930664366877
 40
8.239930664366877
 10
79.96410165853081
 20
-9.500000013075293
 30
0.0
 10
80.10290185493573
 20
-9.583620533364694
 30
0.0
 10
80.2367323645554
 20
-9.670201804505097
 30
0.0
 10
80.96709795923572
 20
-10.17241419109928
 30
0.0
 10
81.5527867751004
 20
-10.70122520193291
 30
0.0
 10
82.58094592933145
 20
-11.88022716617041
 30
0.0
 10
83.02491693957808
 20
-12.52976256716493
 30
0.0
 10
84.00526276272074
 20
-14.24943377613445
 30
0.0
 10
84.51488936420554
 20
-15.53804562590403
 30
0.0
 10
85.18166418953899
 20
-18.2491473719557
 30
0.0
 10
85.33883476483186
 20
-19.6741532781063
 30
0.0
 10
85.33883476483186
 20
-21.00000000000324
 30
0.0
 10
85.33883476483186
 20
-22.32584672190018
 30
0.0
 10
85.18166418953899
 20
-23.7508526280509
 30
0.0
 10
84.51488936420554
 20
-26.4619543741029
 30
0.0
 10
84.00526276272074
 20
-27.75056622387274
 30
0.0
 10
83.02491693957808
 20
-29.47023743284265
 30
0.0
 10
82.58094592933145
 20
-30.11977283383738
 30
0.0
 10
81.5527867751004
 20
-31.2987747980751
 30
0.0
 10
80.96709795923572
 20
-31.82758580890891
 30
0.0
 10
79.83624560772705
 20
-32.6051800199088
 30
0.0
 10
79.20962817776592
 20
-32.93766661009215
 30
0.0
 10
77.87412736583371
 20
-33.38610532850032
 30
0.0
 10
77.16428540781141
 20
-33.50000000000435
 30
0.0
 10
76.5
 20
-33.50000000000435
 30
0.0
  0
ARC
  5
95
330
2
100
AcDbEntity
  8
GEB-VERDECKT
 48
25.0
100
AcDbCircle
 10
76.5
 20
-21.00000000000435
 30
0.0
 40
12.5
100
AcDbArc
 50
113.0739180656316
 51
270.0
  0
SPLINE
  5
96
330
2
100
AcDbEntity
  8
GEB-VERDECKT
 48
25.0
100
AcDbSpline
210
0.0
220
0.0
230
1.0
 70
     8
 71
     3
 72
    28
 73
    24
 74
     0
 42
0.0000000001
 43
0.0000000001
 40
1.647986132873375
 40
1.647986132873375
 40
1.647986132873375
 40
1.647986132873375
 40
1.847271755216796
 40
1.847271755216796
 40
2.046557377560216
 40
2.046557377560216
 40
2.273510805084403
 40
2.273510805084403
 40
2.500464232608591
 40
2.500464232608591
 40
2.898218249177671
 40
2.898218249177671
 40
3.295972265746751
 40
3.295972265746751
 40
3.69372628231583
 40
3.69372628231583
 40
4.091480298884911
 40
4.091480298884911
 40
4.318433726409097
 40
4.318433726409097
 40
4.545387153933284
 40
4.545387153933284
 40
4.593721951894279
 40
4.593721951894279
 40
4.593721951894279
 40
4.593721951894279
 10
76.5
 20
-33.50000000000435
 30
0.0
 10
75.83571459218859
 20
-33.50000000000435
 30
0.0
 10
75.12587263416628
 20
-33.38610532850032
 30
0.0
 10
73.79037182223408
 20
-32.93766661009215
 30
0.0
 10
73.16375439227295
 20
-32.6051800199088
 30
0.0
 10
72.03290204076427
 20
-31.82758580890891
 30
0.0
 10
71.4472132248996
 20
-31.2987747980751
 30
0.0
 10
70.41905407066855
 20
-30.11977283383738
 30
0.0
 10
69.97508306042192
 20
-29.47023743284265
 30
0.0
 10
68.99473723727926
 20
-27.75056622387274
 30
0.0
 10
68.48511063579445
 20
-26.4619543741029
 30
0.0
 10
67.818335810461
 20
-23.7508526280509
 30
0.0
 10
67.66116523516814
 20
-22.32584672190018
 30
0.0
 10
67.66116523516814
 20
-19.6741532781063
 30
0.0
 10
67.818335810461
 20
-18.2491473719557
 30
0.0
 10
68.48511063579445
 20
-15.53804562590403
 30
0.0
 10
68.99473723727926
 20
-14.24943377613445
 30
0.0
 10
69.97508306042192
 20
-12.52976256716493
 30
0.0
 10
70.41905407066855
 20
-11.88022716617041
 30
0.0
 10
71.4472132248996
 20
-10.70122520193291
 30
0.0
 10
72.03290204076427
 20
-10.17241419109928
 30
0.0
 10
72.7632676354446
 20
-9.670201804505097
 30
0.0
 10
72.89709814506426
 20
-9.583620533364694
 30
0.0
 10
73.03589834146919
 20
-9.500000013075293
 30
0.0
  0
LINE
  5
97
330
2
100
AcDbEntity
  8
GEB-VERDECKT
 48
25.0
100
AcDbLine
 10
45.49999999999999
 20
-2.000000000000625
 30
0.0
 11
45.89305834462282
 21
-9.500000000000625
 31
0.0
  0
ARC
  5
98
330
2
100
AcDbEntity
  8
GEB-VERDECKT
 48
25.0
100
AcDbCircle
 10
76.5
 20
-21.00000000000503
 30
0.0
 40
12.5
100
AcDbArc
 50
89.99999999999674
 51
113.073918065628
  0
LINE
  5
99
330
2
100
AcDbEntity
  8
GEB-VERDECKT
 48
25.0
100
AcDbLine
 10
76.5
 20
-3.000000000005371
 30
0.0
 11
76.5
 21
-8.500000000005229
 31
0.0
  0
ARC
  5
9A
330
2
100
AcDbEntity
  8
GEB-VERDECKT
 48
25.0
100
AcDbCircle
 10
76.5
 20
-21.00000000000503
 30
0.0
 40
12.5
100
AcDbArc
 50
66.92608193437195
 51
90.00000000000325
  0
LINE
  5
9B
330
2
100
AcDbEntity
  8
GEB-VERDECKT
 48
25.0
100
AcDbLine
 10
107.5
 20
-2.000000000000625
 30
0.0
 11
107.1069416553771
 21
-9.500000000000625
 31
0.0
  0
LINE
  5
9C
330
2
100
AcDbEntity
  8
GEB-VERDECKT
 48
25.0
100
AcDbLine
 10
107.1069416553771
 20
-9.500000000000625
 30
0.0
 11
45.89305834462282
 21
-9.500000000000625
 31
0.0
  0
LINE
  5
9D
330
2
100
AcDbEntity
  8
GEB-VERDECKT
 48
25.0
100
AcDbLine
 10
-88.99999999999989
 20
-9.500000000000682
 30
0.0
 11
-88.99999999999989
 21
-55.00000000000046
 31
0.0
  0
LINE
  5
9E
330
2
100
AcDbEntity
  8
GEB-VERDECKT
 48
25.0
100
AcDbLine
 10
-64.00000000000005
 20
-9.500000000000682
 30
0.0
 11
-64.00000000000005
 21
-55.00000000000046
 31
0.0
  0
ARC
  5
9F
330
2
100
AcDbEntity
  8
GEB-VERDECKT
 48
25.0
100
AcDbCircle
 10
-76.49999999999997
 20
-21.00000000000651
 30
0.0
 40
20.9999999999999
100
AcDbArc
 50
115.2087652967551
 51
178.6356858493296
  0
ARC
  5
A0
330
2
100
AcDbEntity
  8
GEB-VERDECKT
 48
25.0
100
AcDbCircle
 10
-76.49999999999997
 20
-21.00000000000651
 30
0.0
 40
20.9999999999999
100
AcDbArc
 50
1.36431415067041
 51
64.79123470324485
  0
LINE
  5
A1
330
2
100
AcDbEntity
  8
GEB-KONTUR-A
 48
25.0
100
AcDbLine
 10
-111.4999999999998
 20
-2.00000000000071
 30
0.0
 11
-111.4999999999998
 21
-20.50000000000062
 31
0.0
  0
LINE
  5
A2
330
2
100
AcDbEntity
  8
GEB-KONTUR-A
 48
25.0
100
AcDbLine
 10
-41.50000000000017
 20
-2.00000000000071
 30
0.0
 11
-41.50000000000017
 21
-20.50000000000062
 31
0.0
  0
LINE
  5
A3
330
2
100
AcDbEntity
  8
GEB-KONTUR-A
 48
25.0
100
AcDbLine
 10
-41.50000000000017
 20
-2.00000000000071
 30
0.0
 11
-111.4999999999998
 21
-2.00000000000071
 31
0.0
  0
LINE
  5
A4
330
2
100
AcDbEntity
  8
GEB-KONTUR-A
 48
25.0
100
AcDbLine
 10
-41.50000000000017
 20
-20.50000000000062
 30
0.0
 11
-111.4999999999998
 21
-20.50000000000062
 31
0.0
  0
ARC
  5
A5
330
2
100
AcDbEntity
  8
GEB-KONTUR-A
 48
25.0
100
AcDbCircle
 10
-76.49999999999995
 20
-21.00000000000179
 30
0.0
 40
20.99999999999993
100
AcDbArc
 50
178.6356858493344
 51
213.5573097619216
  0
ARC
  5
A6
330
2
100
AcDbEntity
  8
GEB-KONTUR-A
 48
25.0
100
AcDbCircle
 10
-76.5
 20
-21.00000000000179
 30
0.0
 40
20.99999999999995
100
AcDbArc
 50
326.4426902380784
 51
1.364314150665526
  0
ARC
  5
A7
330
2
100
AcDbEntity
  8
GEB-VERDECKT
 48
25.0
100
AcDbCircle
 10
-76.50000000000176
 20
-21.00000000000304
 30
0.0
 40
20.99999999999774
100
AcDbArc
 50
213.5573097619216
 51
215.7795430902196
  0
ARC
  5
A8
330
2
100
AcDbEntity
  8
GEB-VERDECKT
 48
25.0
100
AcDbCircle
 10
-76.50000000000216
 20
-21.00000000000023
 30
0.0
 40
21.00000000000261
100
AcDbArc
 50
324.2204569097804
 51
326.4426902380784
  0
SPLINE
  5
A9
330
2
100
AcDbEntity
  8
GEB-VERDECKT
 48
25.0
100
AcDbSpline
210
0.0
220
0.0
230
1.0
 70
     8
 71
     3
 72
    12
 73
     8
 74
     0
 42
0.0000000001
 43
0.0000000001
 40
3.311450438871145
 40
3.311450438871145
 40
3.311450438871145
 40
3.311450438871145
 40
3.361579481505844
 40
3.361579481505844
 40
4.201974351882305
 40
4.201974351882305
 40
4.658402867985611
 40
4.658402867985611
 40
4.658402867985611
 40
4.658402867985611
 10
-93.99285568453576
 20
-20.50000000000074
 30
0.0
 10
-93.99298767473709
 20
-20.66623975911327
 30
0.0
 10
-93.99305287430236
 20
-20.83290319121843
 30
0.0
 10
-93.99305287430236
 20
-23.80131623458894
 30
0.0
 10
-93.98942642165456
 20
-26.48024264284515
 30
0.0
 10
-93.79972509170764
 20
-30.50433181105763
 30
0.0
 10
-93.69562291765143
 20
-31.90000898654378
 30
0.0
 10
-93.53672503740069
 20
-33.27802915781041
 30
0.0
  0
SPLINE
  5
AA
330
2
100
AcDbEntity
  8
GEB-VERDECKT
 48
25.0
100
AcDbSpline
210
0.0
220
0.0
230
1.0
 70
     8
 71
     3
 72
    12
 73
     8
 74
     0
 42
0.0000000001
 43
0.0000000001
 40
2.064756095026077
 40
2.064756095026077
 40
2.064756095026077
 40
2.064756095026077
 40
2.521184611129383
 40
2.521184611129383
 40
3.361579481505844
 40
3.361579481505844
 40
3.411708524140542
 40
3.411708524140542
 40
3.411708524140542
 40
3.411708524140542
 10
-59.46327496259925
 20
-33.27802915781041
 30
0.0
 10
-59.30437708234851
 20
-31.90000898654378
 30
0.0
 10
-59.2002749082923
 20
-30.50433181105763
 30
0.0
 10
-59.01057357834537
 20
-26.48024264284515
 30
0.0
 10
-59.00694712569759
 20
-23.80131623458894
 30
0.0
 10
-59.00694712569759
 20
-20.83290319121843
 30
0.0
 10
-59.00701232526285
 20
-20.66623975911327
 30
0.0
 10
-59.00714431546418
 20
-20.50000000000074
 30
0.0
  0
LINE
  5
AB
330
2
100
AcDbEntity
  8
GEB-VERDECKT
 48
25.0
100
AcDbLine
 10
-67.55572809000089
 20
-40.000000000005
 30
0.0
 11
-85.44427190999906
 21
-40.000000000005
 31
0.0
  0
SPLINE
  5
AC
330
2
100
AcDbEntity
  8
GEB-VERDECKT
 48
25.0
100
AcDbSpline
210
0.0
220
0.0
230
1.0
 70
     8
 71
     3
 72
    16
 73
    12
 74
     0
 42
0.0000000001
 43
0.0000000001
 40
9.502512983956679
 40
9.502512983956679
 40
9.502512983956679
 40
9.502512983956679
 40
9.61781230693931
 40
9.61781230693931
 40
9.967445179214781
 40
9.967445179214781
 40
10.33188844778205
 40
10.33188844778205
 40
10.69633171634932
 40
10.69633171634932
 40
11.01316083892573
 40
11.01316083892573
 40
11.01316083892573
 40
11.01316083892573
 10
-85.44427190999906
 20
-40.000000000005
 30
0.0
 10
-85.76663942261474
 20
-39.8482451217005
 30
0.0
 10
-86.08035243352572
 20
-39.69052585247192
 30
0.0
 10
-87.30718478818369
 20
-39.03602443093797
 30
0.0
 10
-88.14193811920839
 20
-38.50105938183924
 30
0.0
 10
-89.63782487117953
 20
-37.41007184004838
 30
0.0
 10
-90.3489350758493
 20
-36.81013089430758
 30
0.0
 10
-91.60629112360993
 20
-35.61345988223559
 30
0.0
 10
-92.15307027526369
 20
-35.01668991278303
 30
0.0
 10
-92.98989730224613
 20
-34.01732451045658
 30
0.0
 10
-93.30478534437057
 20
-33.59986360897753
 30
0.0
 10
-93.53672503740069
 20
-33.27802915781041
 30
0.0
  0
SPLINE
  5
AD
330
2
100
AcDbEntity
  8
GEB-VERDECKT
 48
25.0
100
AcDbSpline
210
0.0
220
0.0
230
1.0
 70
     8
 71
     3
 72
    16
 73
    12
 74
     0
 42
0.0000000001
 43
0.0000000001
 40
6.12466654130006
 40
6.12466654130006
 40
6.12466654130006
 40
6.12466654130006
 40
6.441495663876471
 40
6.441495663876471
 40
6.805938932443742
 40
6.805938932443742
 40
7.170382201011012
 40
7.170382201011012
 40
7.520015073286483
 40
7.520015073286483
 40
7.635314396269113
 40
7.635314396269113
 40
7.635314396269113
 40
7.635314396269113
 10
-59.46327496259925
 20
-33.27802915781041
 30
0.0
 10
-59.69521465562937
 20
-33.59986360897753
 30
0.0
 10
-60.01010269775381
 20
-34.01732451045658
 30
0.0
 10
-60.84692972473624
 20
-35.01668991278303
 30
0.0
 10
-61.39370887639
 20
-35.61345988223559
 30
0.0
 10
-62.65106492415063
 20
-36.81013089430758
 30
0.0
 10
-63.36217512882041
 20
-37.41007184004838
 30
0.0
 10
-64.85806188079155
 20
-38.50105938183924
 30
0.0
 10
-65.69281521181626
 20
-39.03602443093797
 30
0.0
 10
-66.91964756647422
 20
-39.69052585247192
 30
0.0
 10
-67.23336057738524
 20
-39.8482451217005
 30
0.0
 10
-67.55572809000089
 20
-40.000000000005
 30
0.0
  0
LINE
  5
AE
330
2
100
AcDbEntity
  8
GEB-KONTUR-A
 48
25.0
100
AcDbLine
 10
-93.99999999999989
 20
-20.50000000000062
 30
0.0
 11
-93.99999999999989
 21
-55.00000000000046
 31
0.0
  0
LINE
  5
AF
330
2
100
AcDbEntity
  8
GEB-KONTUR-A
 48
25.0
100
AcDbLine
 10
-59.00000000000005
 20
-20.50000000000062
 30
0.0
 11
-59.00000000000005
 21
-55.00000000000046
 31
0.0
  0
LINE
  5
B0
330
2
100
AcDbEntity
  8
GEB-KONTUR-A
 48
25.0
100
AcDbLine
 10
-59.00000000000005
 20
-55.00000000000046
 30
0.0
 11
-93.99999999999989
 21
-55.00000000000046
 31
0.0
  0
CIRCLE
  5
B1
330
2
100
AcDbEntity
  8
GEB-VERDECKT
 48
25.0
100
AcDbCircle
 10
-76.49999999999997
 20
-21.00000000000682
 30
0.0
 40
15.99999999999992
  0
ARC
  5
B2
330
2
100
AcDbEntity
  8
GEB-VERDECKT
 48
25.0
100
AcDbCircle
 10
-76.49999999999997
 20
-21.00000000000432
 30
0.0
 40
12.49999999999994
100
AcDbArc
 50
270.0
 51
66.92608193436832
  0
SPLINE
  5
B3
330
2
100
AcDbEntity
  8
GEB-VERDECKT
 48
25.0
100
AcDbSpline
210
0.0
220
0.0
230
1.0
 70
     8
 71
     3
 72
    29
 73
    25
 74
     0
 42
0.0000000001
 43
0.0000000001
 40
5.294194845345974
 40
5.294194845345974
 40
5.294194845345974
 40
5.294194845345974
 40
5.342529643306968
 40
5.342529643306968
 40
5.569483070831155
 40
5.569483070831155
 40
5.796436498355341
 40
5.796436498355341
 40
6.194190514924422
 40
6.194190514924422
 40
6.591944531493502
 40
6.591944531493502
 40
6.591944531493502
 40
6.989698548062582
 40
6.989698548062582
 40
7.387452564631661
 40
7.387452564631661
 40
7.614405992155849
 40
7.614405992155849
 40
7.841359419680037
 40
7.841359419680037
 40
8.040645042023456
 40
8.040645042023456
 40
8.239930664366877
 40
8.239930664366877
 40
8.239930664366877
 40
8.239930664366877
 10
-73.03589834146922
 20
-9.500000013075322
 30
0.0
 10
-72.8970981450642
 20
-9.583620533364722
 30
0.0
 10
-72.76326763544464
 20
-9.670201804505154
 30
0.0
 10
-72.03290204076421
 20
-10.17241419109933
 30
0.0
 10
-71.44721322489954
 20
-10.70122520193294
 30
0.0
 10
-70.4190540706686
 20
-11.88022716617041
 30
0.0
 10
-69.97508306042195
 20
-12.52976256716496
 30
0.0
 10
-68.99473723727926
 20
-14.24943377613445
 30
0.0
 10
-68.48511063579451
 20
-15.53804562590403
 30
0.0
 10
-67.818335810461
 20
-18.2491473719557
 30
0.0
 10
-67.66116523516817
 20
-19.6741532781063
 30
0.0
 10
-67.66116523516817
 20
-21.00000000000324
 30
0.0
 10
-67.66116523516817
 20
-22.32584672190015
 30
0.0
 10
-67.818335810461
 20
-23.75085262805086
 30
0.0
 10
-68.48511063579451
 20
-26.46195437410288
 30
0.0
 10
-68.99473723727926
 20
-27.75056622387271
 30
0.0
 10
-69.97508306042195
 20
-29.4702374328426
 30
0.0
 10
-70.4190540706686
 20
-30.11977283383729
 30
0.0
 10
-71.44721322489954
 20
-31.29877479807507
 30
0.0
 10
-72.03290204076421
 20
-31.82758580890885
 30
0.0
 10
-73.16375439227292
 20
-32.60518001990874
 30
0.0
 10
-73.79037182223408
 20
-32.93766661009212
 30
0.0
 10
-75.12587263416626
 20
-33.38610532850026
 30
0.0
 10
-75.83571459218859
 20
-33.50000000000426
 30
0.0
 10
-76.49999999999997
 20
-33.50000000000426
 30
0.0
  0
ARC
  5
B4
330
2
100
AcDbEntity
  8
GEB-VERDECKT
 48
25.0
100
AcDbCircle
 10
-76.49999999999997
 20
-21.00000000000432
 30
0.0
 40
12.49999999999994
100
AcDbArc
 50
113.0739180656316
 51
270.0
  0
SPLINE
  5
B5
330
2
100
AcDbEntity
  8
GEB-VERDECKT
 48
25.0
100
AcDbSpline
210
0.0
220
0.0
230
1.0
 70
     8
 71
     3
 72
    28
 73
    24
 74
     0
 42
0.0000000001
 43
0.0000000001
 40
1.647986132873375
 40
1.647986132873375
 40
1.647986132873375
 40
1.647986132873375
 40
1.847271755216796
 40
1.847271755216796
 40
2.046557377560216
 40
2.046557377560216
 40
2.273510805084403
 40
2.273510805084403
 40
2.500464232608591
 40
2.500464232608591
 40
2.898218249177671
 40
2.898218249177671
 40
3.295972265746751
 40
3.295972265746751
 40
3.69372628231583
 40
3.69372628231583
 40
4.091480298884911
 40
4.091480298884911
 40
4.318433726409097
 40
4.318433726409097
 40
4.545387153933284
 40
4.545387153933284
 40
4.593721951894279
 40
4.593721951894279
 40
4.593721951894279
 40
4.593721951894279
 10
-76.49999999999997
 20
-33.50000000000426
 30
0.0
 10
-77.16428540781135
 20
-33.50000000000426
 30
0.0
 10
-77.87412736583369
 20
-33.38610532850026
 30
0.0
 10
-79.20962817776587
 20
-32.93766661009212
 30
0.0
 10
-79.83624560772702
 20
-32.60518001990874
 30
0.0
 10
-80.96709795923567
 20
-31.82758580890885
 30
0.0
 10
-81.5527867751004
 20
-31.29877479807507
 30
0.0
 10
-82.58094592933133
 20
-30.11977283383729
 30
0.0
 10
-83.02491693957799
 20
-29.47023743284262
 30
0.0
 10
-84.00526276272069
 20
-27.75056622387271
 30
0.0
 10
-84.51488936420544
 20
-26.46195437410288
 30
0.0
 10
-85.18166418953894
 20
-23.75085262805086
 30
0.0
 10
-85.33883476483177
 20
-22.32584672190015
 30
0.0
 10
-85.33883476483177
 20
-19.6741532781063
 30
0.0
 10
-85.18166418953894
 20
-18.2491473719557
 30
0.0
 10
-84.51488936420544
 20
-15.53804562590403
 30
0.0
 10
-84.00526276272069
 20
-14.24943377613448
 30
0.0
 10
-83.02491693957799
 20
-12.52976256716496
 30
0.0
 10
-82.58094592933133
 20
-11.88022716617041
 30
0.0
 10
-81.5527867751004
 20
-10.70122520193294
 30
0.0
 10
-80.96709795923572
 20
-10.17241419109933
 30
0.0
 10
-80.23673236455531
 20
-9.670201804505154
 30
0.0
 10
-80.10290185493573
 20
-9.583620533364722
 30
0.0
 10
-79.96410165853072
 20
-9.500000013075322
 30
0.0
  0
LINE
  5
B6
330
2
100
AcDbEntity
  8
GEB-VERDECKT
 48
25.0
100
AcDbLine
 10
-107.4999999999998
 20
-2.00000000000071
 30
0.0
 11
-107.106941655377
 21
-9.500000000000682
 31
0.0
  0
ARC
  5
B7
330
2
100
AcDbEntity
  8
GEB-VERDECKT
 48
25.0
100
AcDbCircle
 10
-76.49999999999997
 20
-21.00000000000503
 30
0.0
 40
12.49999999999994
100
AcDbArc
 50
89.99999999999674
 51
113.073918065628
  0
LINE
  5
B8
330
2
100
AcDbEntity
  8
GEB-VERDECKT
 48
25.0
100
AcDbLine
 10
-76.49999999999997
 20
-3.000000000005371
 30
0.0
 11
-76.49999999999997
 21
-8.500000000005286
 31
0.0
  0
ARC
  5
B9
330
2
100
AcDbEntity
  8
GEB-VERDECKT
 48
25.0
100
AcDbCircle
 10
-76.49999999999997
 20
-21.00000000000503
 30
0.0
 40
12.49999999999994
100
AcDbArc
 50
66.92608193437195
 51
90.00000000000325
  0
LINE
  5
BA
330
2
100
AcDbEntity
  8
GEB-VERDECKT
 48
25.0
100
AcDbLine
 10
-45.50000000000011
 20
-2.00000000000071
 30
0.0
 11
-45.89305834462294
 21
-9.500000000000682
 31
0.0
  0
LINE
  5
BB
330
2
100
AcDbEntity
  8
GEB-VERDECKT
 48
25.0
100
AcDbLine
 10
-45.89305834462294
 20
-9.500000000000682
 30
0.0
 11
-107.106941655377
 21
-9.500000000000682
 31
0.0
  0
LINE
  5
BC
330
2
100
AcDbEntity
  8
GEB-VERDECKT
 48
25.0
100
AcDbLine
 10
-60.39244808909703
 20
-7.299999999996344
 30
0.0
 11
-60.39244808909703
 21
-6.499999999996362
 31
0.0
  0
LINE
  5
BD
330
2
100
AcDbEntity
  8
GEB-VERDECKT
 48
25.0
100
AcDbLine
 10
-63.39244808909703
 20
-7.299999999996344
 30
0.0
 11
-63.39244808909703
 21
-6.499999999996362
 31
0.0
  0
LINE
  5
BE
330
2
100
AcDbEntity
  8
GEB-VERDECKT
 48
25.0
100
AcDbLine
 10
-54.34180197453201
 20
-7.300000000000693
 30
0.0
 11
-54.34180197453201
 21
-6.500000000000682
 31
0.0
  0
LINE
  5
BF
330
2
100
AcDbEntity
  8
GEB-VERDECKT
 48
25.0
100
AcDbLine
 10
-57.34180197453202
 20
-7.300000000000693
 30
0.0
 11
-57.34180197453202
 21
-6.500000000000682
 31
0.0
  0
LINE
  5
C0
330
2
100
AcDbEntity
  8
GEB-VERDECKT
 48
25.0
100
AcDbLine
 10
-95.65819802546792
 20
-7.300000000000693
 30
0.0
 11
-95.65819802546792
 21
-6.500000000000682
 31
0.0
  0
LINE
  5
C1
330
2
100
AcDbEntity
  8
GEB-VERDECKT
 48
25.0
100
AcDbLine
 10
-98.65819802546793
 20
-7.300000000000693
 30
0.0
 11
-98.65819802546793
 21
-6.500000000000682
 31
0.0
  0
LINE
  5
C2
330
2
100
AcDbEntity
  8
GEB-VERDECKT
 48
25.0
100
AcDbLine
 10
-75.0
 20
-7.299999999994554
 30
0.0
 11
-75.0
 21
-6.499999999994543
 31
0.0
  0
LINE
  5
C3
330
2
100
AcDbEntity
  8
GEB-VERDECKT
 48
25.0
100
AcDbLine
 10
-77.99999999999994
 20
-7.299999999994554
 30
0.0
 11
-77.99999999999994
 21
-6.499999999994543
 31
0.0
  0
LINE
  5
C4
330
2
100
AcDbEntity
  8
GEB-VERDECKT
 48
25.0
100
AcDbLine
 10
-64.99244808909702
 20
0.000000000003638
 30
0.0
 11
-64.99244808909702
 21
-2.999999999996362
 31
0.0
  0
LINE
  5
C5
330
2
100
AcDbEntity
  8
GEB-VERDECKT
 48
25.0
100
AcDbLine
 10
-58.79244808909703
 20
0.000000000003638
 30
0.0
 11
-58.79244808909703
 21
-2.999999999996362
 31
0.0
  0
LINE
  5
C6
330
2
100
AcDbEntity
  8
GEB-VERDECKT
 48
25.0
100
AcDbLine
 10
-58.94180197453201
 20
-0.0000000000007105
 30
0.0
 11
-58.94180197453201
 21
-3.000000000000682
 31
0.0
  0
LINE
  5
C7
330
2
100
AcDbEntity
  8
GEB-VERDECKT
 48
25.0
100
AcDbLine
 10
-52.74180197453199
 20
-0.0000000000007105
 30
0.0
 11
-52.74180197453199
 21
-3.000000000000682
 31
0.0
  0
LINE
  5
C8
330
2
100
AcDbEntity
  8
GEB-VERDECKT
 48
25.0
100
AcDbLine
 10
-79.59999999999999
 20
0.0000000000054285
 30
0.0
 11
-79.59999999999999
 21
-2.999999999994571
 31
0.0
  0
LINE
  5
C9
330
2
100
AcDbEntity
  8
GEB-VERDECKT
 48
25.0
100
AcDbLine
 10
-73.39999999999995
 20
0.0000000000054285
 30
0.0
 11
-73.39999999999995
 21
-2.999999999994571
 31
0.0
  0
LINE
  5
CA
330
2
100
AcDbEntity
  8
GEB-VERDECKT
 48
25.0
100
AcDbLine
 10
-100.2581980254679
 20
-0.0000000000007105
 30
0.0
 11
-100.2581980254679
 21
-3.000000000000682
 31
0.0
  0
LINE
  5
CB
330
2
100
AcDbEntity
  8
GEB-VERDECKT
 48
25.0
100
AcDbLine
 10
-94.05819802546792
 20
-0.0000000000007105
 30
0.0
 11
-94.05819802546792
 21
-3.000000000000682
 31
0.0
  0
LINE
  5
CC
330
2
100
AcDbEntity
  8
GEB-VERDECKT
 48
25.0
100
AcDbLine
 10
-89.49999999999997
 20
-9.500000000000682
 30
0.0
 11
-89.49999999999997
 21
-6.500000000000682
 31
0.0
  0
LINE
  5
CD
330
2
100
AcDbEntity
  8
GEB-VERDECKT
 48
25.0
100
AcDbLine
 10
-63.49999999999997
 20
-9.500000000000682
 30
0.0
 11
-63.49999999999997
 21
-6.500000000000682
 31
0.0
  0
LINE
  5
CE
330
2
100
AcDbEntity
  8
GEB-VERDECKT
 48
25.0
100
AcDbLine
 10
-105.4999999999999
 20
-9.500000000000682
 30
0.0
 11
-105.4999999999999
 21
-0.0000000000007105
 31
0.0
  0
LINE
  5
CF
330
2
100
AcDbEntity
  8
GEB-VERDECKT
 48
25.0
100
AcDbLine
 10
-47.5
 20
-0.0000000000007105
 30
0.0
 11
-47.5
 21
-9.500000000000682
 31
0.0
  0
LINE
  5
D0
330
2
100
AcDbEntity
  8
GEB-VERDECKT
 48
25.0
100
AcDbLine
 10
-76.49999999999997
 20
-0.0000000000045475
 30
0.0
 11
-76.49999999999997
 21
-3.000000000004547
 31
0.0
  0
LINE
  5
D1
330
2
100
AcDbEntity
  8
GEB-VERDECKT
 48
25.0
100
AcDbLine
 10
-99.49999999999997
 20
-6.500000000003467
 30
0.0
 11
-99.49999999999997
 21
-3.000000000003495
 31
0.0
  0
LINE
  5
D2
330
2
100
AcDbEntity
  8
GEB-VERDECKT
 48
25.0
100
AcDbLine
 10
-53.49999999999997
 20
-6.500000000003467
 30
0.0
 11
-53.49999999999997
 21
-3.000000000003495
 31
0.0
  0
LINE
  5
D3
330
2
100
AcDbEntity
  8
GEB-VERDECKT
 48
25.0
100
AcDbLine
 10
-102.5
 20
-6.500000000000682
 30
0.0
 11
-102.5
 21
-3.000000000000682
 31
0.0
  0
LINE
  5
D4
330
2
100
AcDbEntity
  8
GEB-VERDECKT
 48
25.0
100
AcDbLine
 10
-50.49999999999994
 20
-6.500000000000682
 30
0.0
 11
-50.49999999999994
 21
-3.000000000000682
 31
0.0
  0
LINE
  5
D5
330
2
100
AcDbEntity
  8
GEB-VERDECKT
 48
25.0
100
AcDbLine
 10
-73.39999999999995
 20
-9.499999999994543
 30
0.0
 11
-73.39999999999995
 21
-7.299999999994554
 31
0.0
  0
LINE
  5
D6
330
2
100
AcDbEntity
  8
GEB-VERDECKT
 48
25.0
100
AcDbLine
 10
-79.59999999999999
 20
-9.499999999994543
 30
0.0
 11
-79.59999999999999
 21
-7.299999999994554
 31
0.0
  0
LINE
  5
D7
330
2
100
AcDbEntity
  8
GEB-VERDECKT
 48
25.0
100
AcDbLine
 10
-94.05819802546792
 20
-9.500000000000682
 30
0.0
 11
-94.05819802546792
 21
-7.300000000000693
 31
0.0
  0
LINE
  5
D8
330
2
100
AcDbEntity
  8
GEB-VERDECKT
 48
25.0
100
AcDbLine
 10
-100.2581980254679
 20
-9.500000000000682
 30
0.0
 11
-100.2581980254679
 21
-7.300000000000693
 31
0.0
  0
LINE
  5
D9
330
2
100
AcDbEntity
  8
GEB-VERDECKT
 48
25.0
100
AcDbLine
 10
-52.74180197453199
 20
-9.500000000000682
 30
0.0
 11
-52.74180197453199
 21
-7.300000000000693
 31
0.0
  0
LINE
  5
DA
330
2
100
AcDbEntity
  8
GEB-VERDECKT
 48
25.0
100
AcDbLine
 10
-58.94180197453201
 20
-9.500000000000682
 30
0.0
 11
-58.94180197453201
 21
-7.300000000000693
 31
0.0
  0
LINE
  5
DB
330
2
100
AcDbEntity
  8
GEB-VERDECKT
 48
25.0
100
AcDbLine
 10
-58.79244808909703
 20
-9.499999999996333
 30
0.0
 11
-58.79244808909703
 21
-7.299999999996344
 31
0.0
  0
LINE
  5
DC
330
2
100
AcDbEntity
  8
GEB-VERDECKT
 48
25.0
100
AcDbLine
 10
-64.99244808909702
 20
-9.499999999996333
 30
0.0
 11
-64.99244808909702
 21
-7.299999999996344
 31
0.0
  0
LINE
  5
DD
330
2
100
AcDbEntity
  8
GEB-VERDECKT
 48
25.0
100
AcDbLine
 10
-79.59999999999997
 20
-7.299999999994525
 30
0.0
 11
-73.39999999999998
 21
-7.299999999994525
 31
0.0
  0
LINE
  5
DE
330
2
100
AcDbEntity
  8
GEB-VERDECKT
 48
25.0
100
AcDbLine
 10
-100.2581980254679
 20
-7.300000000000693
 30
0.0
 11
-94.05819802546792
 21
-7.300000000000693
 31
0.0
  0
LINE
  5
DF
330
2
100
AcDbEntity
  8
GEB-VERDECKT
 48
25.0
100
AcDbLine
 10
-58.79244808909703
 20
-7.300000000000409
 30
0.0
 11
-52.74180197453205
 21
-7.300000000000693
 31
0.0
  0
LINE
  5
E0
330
2
100
AcDbEntity
  8
GEB-VERDECKT
 48
25.0
100
AcDbLine
 10
-64.99244808909702
 20
-7.299999999996344
 30
0.0
 11
-58.79244808909707
 21
-7.299999999996344
 31
0.0
  0
LINE
  5
E1
330
2
100
AcDbEntity
  8
GEB-VERDECKT
 48
25.0
100
AcDbLine
 10
92.60755191090295
 20
-7.299999999996316
 30
0.0
 11
92.60755191090295
 21
-6.499999999996305
 31
0.0
  0
LINE
  5
E2
330
2
100
AcDbEntity
  8
GEB-VERDECKT
 48
25.0
100
AcDbLine
 10
89.60755191090294
 20
-7.299999999996316
 30
0.0
 11
89.60755191090294
 21
-6.499999999996305
 31
0.0
  0
LINE
  5
E3
330
2
100
AcDbEntity
  8
GEB-VERDECKT
 48
25.0
100
AcDbLine
 10
98.65819802546793
 20
-7.300000000000636
 30
0.0
 11
98.65819802546793
 21
-6.500000000000625
 31
0.0
  0
LINE
  5
E4
330
2
100
AcDbEntity
  8
GEB-VERDECKT
 48
25.0
100
AcDbLine
 10
95.65819802546792
 20
-7.300000000000636
 30
0.0
 11
95.65819802546792
 21
-6.500000000000625
 31
0.0
  0
LINE
  5
E5
330
2
100
AcDbEntity
  8
GEB-VERDECKT
 48
25.0
100
AcDbLine
 10
57.34180197453207
 20
-7.300000000000636
 30
0.0
 11
57.34180197453207
 21
-6.500000000000625
 31
0.0
  0
LINE
  5
E6
330
2
100
AcDbEntity
  8
GEB-VERDECKT
 48
25.0
100
AcDbLine
 10
54.34180197453208
 20
-7.300000000000636
 30
0.0
 11
54.34180197453208
 21
-6.500000000000625
 31
0.0
  0
LINE
  5
E7
330
2
100
AcDbEntity
  8
GEB-VERDECKT
 48
25.0
100
AcDbLine
 10
78.0
 20
-7.299999999994497
 30
0.0
 11
78.0
 21
-6.499999999994514
 31
0.0
  0
LINE
  5
E8
330
2
100
AcDbEntity
  8
GEB-VERDECKT
 48
25.0
100
AcDbLine
 10
75.0
 20
-7.299999999994497
 30
0.0
 11
75.0
 21
-6.499999999994514
 31
0.0
  0
LINE
  5
E9
330
2
100
AcDbEntity
  8
GEB-VERDECKT
 48
25.0
100
AcDbLine
 10
88.00755191090292
 20
0.000000000003638
 30
0.0
 11
88.00755191090292
 21
-2.999999999996362
 31
0.0
  0
LINE
  5
EA
330
2
100
AcDbEntity
  8
GEB-VERDECKT
 48
25.0
100
AcDbLine
 10
94.20755191090297
 20
0.000000000003638
 30
0.0
 11
94.20755191090297
 21
-2.999999999996362
 31
0.0
  0
LINE
  5
EB
330
2
100
AcDbEntity
  8
GEB-VERDECKT
 48
25.0
100
AcDbLine
 10
94.05819802546796
 20
-0.0000000000007105
 30
0.0
 11
94.05819802546796
 21
-3.000000000000682
 31
0.0
  0
LINE
  5
EC
330
2
100
AcDbEntity
  8
GEB-VERDECKT
 48
25.0
100
AcDbLine
 10
100.2581980254679
 20
-0.0000000000007105
 30
0.0
 11
100.2581980254679
 21
-3.000000000000682
 31
0.0
  0
LINE
  5
ED
330
2
100
AcDbEntity
  8
GEB-VERDECKT
 48
25.0
100
AcDbLine
 10
73.39999999999998
 20
0.0000000000054285
 30
0.0
 11
73.39999999999998
 21
-2.999999999994543
 31
0.0
  0
LINE
  5
EE
330
2
100
AcDbEntity
  8
GEB-VERDECKT
 48
25.0
100
AcDbLine
 10
79.60000000000002
 20
0.0000000000054285
 30
0.0
 11
79.60000000000002
 21
-2.999999999994543
 31
0.0
  0
LINE
  5
EF
330
2
100
AcDbEntity
  8
GEB-VERDECKT
 48
25.0
100
AcDbLine
 10
52.74180197453205
 20
-0.0000000000007105
 30
0.0
 11
52.74180197453205
 21
-3.000000000000682
 31
0.0
  0
LINE
  5
F0
330
2
100
AcDbEntity
  8
GEB-VERDECKT
 48
25.0
100
AcDbLine
 10
58.94180197453204
 20
-0.0000000000007105
 30
0.0
 11
58.94180197453204
 21
-3.000000000000682
 31
0.0
  0
LINE
  5
F1
330
2
100
AcDbEntity
  8
GEB-VERDECKT
 48
25.0
100
AcDbLine
 10
63.50000000000005
 20
-9.500000000000596
 30
0.0
 11
63.50000000000005
 21
-6.500000000000625
 31
0.0
  0
LINE
  5
F2
330
2
100
AcDbEntity
  8
GEB-VERDECKT
 48
25.0
100
AcDbLine
 10
89.49999999999993
 20
-9.500000000000596
 30
0.0
 11
89.49999999999993
 21
-6.500000000000625
 31
0.0
  0
LINE
  5
F3
330
2
100
AcDbEntity
  8
GEB-KONTUR-A
 48
25.0
100
AcDbLine
 10
47.5
 20
-2.000000000000625
 30
0.0
 11
47.5
 21
-0.0000000000007105
 31
0.0
  0
LINE
  5
F4
330
2
100
AcDbEntity
  8
GEB-KONTUR-A
 48
25.0
100
AcDbLine
 10
105.5
 20
-0.0000000000007105
 30
0.0
 11
105.5
 21
-2.000000000000625
 31
0.0
  0
LINE
  5
F5
330
2
100
AcDbEntity
  8
GEB-VERDECKT
 48
25.0
100
AcDbLine
 10
47.5
 20
-9.500000000000596
 30
0.0
 11
47.5
 21
-2.000000000000625
 31
0.0
  0
LINE
  5
F6
330
2
100
AcDbEntity
  8
GEB-VERDECKT
 48
25.0
100
AcDbLine
 10
105.5
 20
-2.000000000000625
 30
0.0
 11
105.5
 21
-9.500000000000596
 31
0.0
  0
LINE
  5
F7
330
2
100
AcDbEntity
  8
GEB-VERDECKT
 48
25.0
100
AcDbLine
 10
76.5
 20
-0.0000000000045475
 30
0.0
 11
76.5
 21
-3.000000000004519
 31
0.0
  0
LINE
  5
F8
330
2
100
AcDbEntity
  8
GEB-VERDECKT
 48
25.0
100
AcDbLine
 10
53.50000000000005
 20
-6.500000000003439
 30
0.0
 11
53.50000000000005
 21
-3.000000000003467
 31
0.0
  0
LINE
  5
F9
330
2
100
AcDbEntity
  8
GEB-VERDECKT
 48
25.0
100
AcDbLine
 10
99.49999999999995
 20
-6.500000000003439
 30
0.0
 11
99.49999999999995
 21
-3.000000000003467
 31
0.0
  0
LINE
  5
FA
330
2
100
AcDbEntity
  8
GEB-VERDECKT
 48
25.0
100
AcDbLine
 10
50.50000000000006
 20
-6.500000000000625
 30
0.0
 11
50.50000000000006
 21
-3.000000000000682
 31
0.0
  0
LINE
  5
FB
330
2
100
AcDbEntity
  8
GEB-VERDECKT
 48
25.0
100
AcDbLine
 10
102.4999999999999
 20
-6.500000000000625
 30
0.0
 11
102.4999999999999
 21
-3.000000000000682
 31
0.0
  0
LINE
  5
FC
330
2
100
AcDbEntity
  8
GEB-VERDECKT
 48
25.0
100
AcDbLine
 10
79.60000000000002
 20
-9.499999999994486
 30
0.0
 11
79.60000000000002
 21
-7.299999999994497
 31
0.0
  0
LINE
  5
FD
330
2
100
AcDbEntity
  8
GEB-VERDECKT
 48
25.0
100
AcDbLine
 10
73.39999999999998
 20
-9.499999999994486
 30
0.0
 11
73.39999999999998
 21
-7.299999999994497
 31
0.0
  0
LINE
  5
FE
330
2
100
AcDbEntity
  8
GEB-VERDECKT
 48
25.0
100
AcDbLine
 10
58.94180197453204
 20
-9.500000000000596
 30
0.0
 11
58.94180197453204
 21
-7.300000000000636
 31
0.0
  0
LINE
  5
FF
330
2
100
AcDbEntity
  8
GEB-VERDECKT
 48
25.0
100
AcDbLine
 10
52.74180197453205
 20
-9.500000000000596
 30
0.0
 11
52.74180197453205
 21
-7.300000000000636
 31
0.0
  0
LINE
  5
100
330
2
100
AcDbEntity
  8
GEB-VERDECKT
 48
25.0
100
AcDbLine
 10
100.2581980254679
 20
-9.500000000000596
 30
0.0
 11
100.2581980254679
 21
-7.300000000000636
 31
0.0
  0
LINE
  5
101
330
2
100
AcDbEntity
  8
GEB-VERDECKT
 48
25.0
100
AcDbLine
 10
94.05819802546796
 20
-9.500000000000596
 30
0.0
 11
94.05819802546796
 21
-7.300000000000636
 31
0.0
  0
LINE
  5
102
330
2
100
AcDbEntity
  8
GEB-VERDECKT
 48
25.0
100
AcDbLine
 10
94.20755191090297
 20
-9.499999999996248
 30
0.0
 11
94.20755191090297
 21
-7.299999999996316
 31
0.0
  0
LINE
  5
103
330
2
100
AcDbEntity
  8
GEB-VERDECKT
 48
25.0
100
AcDbLine
 10
88.00755191090292
 20
-9.499999999996248
 30
0.0
 11
88.00755191090292
 21
-7.299999999996316
 31
0.0
  0
LINE
  5
104
330
2
100
AcDbEntity
  8
GEB-VERDECKT
 48
25.0
100
AcDbLine
 10
73.39999999999998
 20
-7.299999999994497
 30
0.0
 11
79.60000000000002
 21
-7.299999999994497
 31
0.0
  0
LINE
  5
105
330
2
100
AcDbEntity
  8
GEB-VERDECKT
 48
25.0
100
AcDbLine
 10
52.74180197453205
 20
-7.300000000000636
 30
0.0
 11
58.94180197453209
 21
-7.300000000000636
 31
0.0
  0
LINE
  5
106
330
2
100
AcDbEntity
  8
GEB-VERDECKT
 48
25.0
100
AcDbLine
 10
94.20755191090284
 20
-7.300000000000352
 30
0.0
 11
100.2581980254679
 21
-7.300000000000636
 31
0.0
  0
LINE
  5
107
330
2
100
AcDbEntity
  8
GEB-VERDECKT
 48
25.0
100
AcDbLine
 10
88.00755191090292
 20
-7.299999999996316
 30
0.0
 11
94.20755191090297
 21
-7.299999999996316
 31
0.0
  0
LINE
  5
108
330
2
100
AcDbEntity
  8
GEB-VERDECKT
 48
25.0
100
AcDbLine
 10
-93.70000000000004
 20
-0.000000000000739
 30
0.0
 11
-93.70000000000004
 21
1.999999999999261
 31
0.0
  0
LINE
  5
109
330
2
100
AcDbEntity
  8
GEB-VERDECKT
 48
25.0
100
AcDbLine
 10
-99.29999999999999
 20
-0.000000000000739
 30
0.0
 11
-99.29999999999999
 21
1.999999999999261
 31
0.0
  0
LINE
  5
10A
330
2
100
AcDbEntity
  8
GEB-VERDECKT
 48
25.0
100
AcDbLine
 10
-87.84213562373095
 20
0.000000000003439
 30
0.0
 11
-87.84213562373095
 21
2.000000000003439
 31
0.0
  0
LINE
  5
10B
330
2
100
AcDbEntity
  8
GEB-VERDECKT
 48
25.0
100
AcDbLine
 10
-93.44213562373097
 20
0.000000000003439
 30
0.0
 11
-93.44213562373097
 21
2.000000000003439
 31
0.0
  0
LINE
  5
10C
330
2
100
AcDbEntity
  8
GEB-VERDECKT
 48
25.0
100
AcDbLine
 10
-73.69999999999999
 20
0.0000000000051728
 30
0.0
 11
-73.69999999999999
 21
2.000000000005229
 31
0.0
  0
LINE
  5
10D
330
2
100
AcDbEntity
  8
GEB-VERDECKT
 48
25.0
100
AcDbLine
 10
-79.30000000000001
 20
0.0000000000051728
 30
0.0
 11
-79.30000000000001
 21
2.000000000005229
 31
0.0
  0
LINE
  5
10E
330
2
100
AcDbEntity
  8
GEB-VERDECKT
 48
25.0
100
AcDbLine
 10
-59.55786437626904
 20
0.000000000003439
 30
0.0
 11
-59.55786437626904
 21
2.000000000003439
 31
0.0
  0
LINE
  5
10F
330
2
100
AcDbEntity
  8
GEB-VERDECKT
 48
25.0
100
AcDbLine
 10
-65.15786437626906
 20
0.000000000003439
 30
0.0
 11
-65.15786437626906
 21
2.000000000003439
 31
0.0
  0
LINE
  5
110
330
2
100
AcDbEntity
  8
GEB-VERDECKT
 48
25.0
100
AcDbLine
 10
-53.69999999999999
 20
-0.000000000000739
 30
0.0
 11
-53.69999999999999
 21
1.999999999999261
 31
0.0
  0
LINE
  5
111
330
2
100
AcDbEntity
  8
GEB-VERDECKT
 48
25.0
100
AcDbLine
 10
-59.30000000000001
 20
-0.000000000000739
 30
0.0
 11
-59.30000000000001
 21
1.999999999999261
 31
0.0
  0
LINE
  5
112
330
2
100
AcDbEntity
  8
GEB-VERDECKT
 48
25.0
100
AcDbLine
 10
-13.69999999999999
 20
-0.000000000000739
 30
0.0
 11
-13.69999999999999
 21
1.999999999999261
 31
0.0
  0
LINE
  5
113
330
2
100
AcDbEntity
  8
GEB-VERDECKT
 48
25.0
100
AcDbLine
 10
-19.30000000000001
 20
-0.000000000000739
 30
0.0
 11
-19.30000000000001
 21
1.999999999999261
 31
0.0
  0
LINE
  5
114
330
2
100
AcDbEntity
  8
GEB-VERDECKT
 48
25.0
100
AcDbLine
 10
-19.55786437626909
 20
0.000000000003439
 30
0.0
 11
-19.55786437626909
 21
2.000000000003439
 31
0.0
  0
LINE
  5
115
330
2
100
AcDbEntity
  8
GEB-VERDECKT
 48
25.0
100
AcDbLine
 10
-25.15786437626912
 20
0.000000000003439
 30
0.0
 11
-25.15786437626912
 21
2.000000000003439
 31
0.0
  0
LINE
  5
116
330
2
100
AcDbEntity
  8
GEB-VERDECKT
 48
25.0
100
AcDbLine
 10
-33.70000000000004
 20
0.0000000000051728
 30
0.0
 11
-33.70000000000004
 21
2.000000000005229
 31
0.0
  0
LINE
  5
117
330
2
100
AcDbEntity
  8
GEB-VERDECKT
 48
25.0
100
AcDbLine
 10
-39.30000000000007
 20
0.0000000000051728
 30
0.0
 11
-39.30000000000007
 21
2.000000000005229
 31
0.0
  0
LINE
  5
118
330
2
100
AcDbEntity
  8
GEB-VERDECKT
 48
25.0
100
AcDbLine
 10
-47.84213562373094
 20
0.000000000003439
 30
0.0
 11
-47.84213562373094
 21
2.000000000003439
 31
0.0
  0
LINE
  5
119
330
2
100
AcDbEntity
  8
GEB-VERDECKT
 48
25.0
100
AcDbLine
 10
-53.44213562373096
 20
0.000000000003439
 30
0.0
 11
-53.44213562373096
 21
2.000000000003439
 31
0.0
  0
LINE
  5
11A
330
2
100
AcDbEntity
  8
GEB-VERDECKT
 48
25.0
100
AcDbLine
 10
-111.5
 20
-0.000000000000739
 30
0.0
 11
-111.5
 21
1.999999999999261
 31
0.0
  0
LINE
  5
11B
330
2
100
AcDbEntity
  8
GEB-VERDECKT
 48
25.0
100
AcDbLine
 10
-121.5
 20
-0.000000000000739
 30
0.0
 11
-121.5
 21
1.999999999999261
 31
0.0
  0
LINE
  5
11C
330
2
100
AcDbEntity
  8
GEB-VERDECKT
 48
25.0
100
AcDbLine
 10
-61.25
 20
-0.000000000000739
 30
0.0
 11
-61.25
 21
1.999999999999261
 31
0.0
  0
LINE
  5
11D
330
2
100
AcDbEntity
  8
GEB-VERDECKT
 48
25.0
100
AcDbLine
 10
-91.75000000000002
 20
-0.000000000000739
 30
0.0
 11
-91.75000000000002
 21
1.999999999999261
 31
0.0
  0
LINE
  5
11E
330
2
100
AcDbEntity
  8
GEB-VERDECKT
 48
25.0
100
AcDbLine
 10
-21.25
 20
-0.000000000000739
 30
0.0
 11
-21.25
 21
1.999999999999261
 31
0.0
  0
LINE
  5
11F
330
2
100
AcDbEntity
  8
GEB-VERDECKT
 48
25.0
100
AcDbLine
 10
-51.75000000000003
 20
-0.000000000000739
 30
0.0
 11
-51.75000000000003
 21
1.999999999999261
 31
0.0
  0
LINE
  5
120
330
2
100
AcDbEntity
  8
GEB-VERDECKT
 48
25.0
100
AcDbLine
 10
61.25
 20
1.999999999999261
 30
0.0
 11
61.25
 21
-0.000000000000739
 31
0.0
  0
LINE
  5
121
330
2
100
AcDbEntity
  8
GEB-VERDECKT
 48
25.0
100
AcDbLine
 10
91.75000000000006
 20
1.999999999999261
 30
0.0
 11
91.75000000000006
 21
-0.000000000000739
 31
0.0
  0
LINE
  5
122
330
2
100
AcDbEntity
  8
GEB-VERDECKT
 48
25.0
100
AcDbLine
 10
111.5
 20
1.999999999999261
 30
0.0
 11
111.5
 21
-0.000000000000739
 31
0.0
  0
LINE
  5
123
330
2
100
AcDbEntity
  8
GEB-VERDECKT
 48
25.0
100
AcDbLine
 10
121.5
 20
1.999999999999261
 30
0.0
 11
121.5
 21
-0.000000000000739
 31
0.0
  0
LINE
  5
124
330
2
100
AcDbEntity
  8
GEB-VERDECKT
 48
25.0
100
AcDbLine
 10
47.84213562373099
 20
2.000000000003439
 30
0.0
 11
47.84213562373099
 21
0.000000000003439
 31
0.0
  0
LINE
  5
125
330
2
100
AcDbEntity
  8
GEB-VERDECKT
 48
25.0
100
AcDbLine
 10
53.44213562373102
 20
2.000000000003439
 30
0.0
 11
53.44213562373102
 21
0.000000000003439
 31
0.0
  0
LINE
  5
126
330
2
100
AcDbEntity
  8
GEB-VERDECKT
 48
25.0
100
AcDbLine
 10
33.70000000000004
 20
2.000000000005229
 30
0.0
 11
33.70000000000004
 21
0.0000000000051728
 31
0.0
  0
LINE
  5
127
330
2
100
AcDbEntity
  8
GEB-VERDECKT
 48
25.0
100
AcDbLine
 10
39.30000000000007
 20
2.000000000005229
 30
0.0
 11
39.30000000000007
 21
0.0000000000051728
 31
0.0
  0
LINE
  5
128
330
2
100
AcDbEntity
  8
GEB-VERDECKT
 48
25.0
100
AcDbLine
 10
19.55786437626915
 20
2.000000000003439
 30
0.0
 11
19.55786437626915
 21
0.000000000003439
 31
0.0
  0
LINE
  5
129
330
2
100
AcDbEntity
  8
GEB-VERDECKT
 48
25.0
100
AcDbLine
 10
25.15786437626918
 20
2.000000000003439
 30
0.0
 11
25.15786437626918
 21
0.000000000003439
 31
0.0
  0
LINE
  5
12A
330
2
100
AcDbEntity
  8
GEB-VERDECKT
 48
25.0
100
AcDbLine
 10
13.70000000000004
 20
1.999999999999261
 30
0.0
 11
13.70000000000004
 21
-0.000000000000739
 31
0.0
  0
LINE
  5
12B
330
2
100
AcDbEntity
  8
GEB-VERDECKT
 48
25.0
100
AcDbLine
 10
19.30000000000001
 20
1.999999999999261
 30
0.0
 11
19.30000000000001
 21
-0.000000000000739
 31
0.0
  0
LINE
  5
12C
330
2
100
AcDbEntity
  8
GEB-VERDECKT
 48
25.0
100
AcDbLine
 10
53.70000000000004
 20
1.999999999999261
 30
0.0
 11
53.70000000000004
 21
-0.000000000000739
 31
0.0
  0
LINE
  5
12D
330
2
100
AcDbEntity
  8
GEB-VERDECKT
 48
25.0
100
AcDbLine
 10
59.30000000000001
 20
1.999999999999261
 30
0.0
 11
59.30000000000001
 21
-0.000000000000739
 31
0.0
  0
LINE
  5
12E
330
2
100
AcDbEntity
  8
GEB-VERDECKT
 48
25.0
100
AcDbLine
 10
59.55786437626904
 20
2.000000000003439
 30
0.0
 11
59.55786437626904
 21
0.000000000003439
 31
0.0
  0
LINE
  5
12F
330
2
100
AcDbEntity
  8
GEB-VERDECKT
 48
25.0
100
AcDbLine
 10
65.15786437626906
 20
2.000000000003439
 30
0.0
 11
65.15786437626906
 21
0.000000000003439
 31
0.0
  0
LINE
  5
130
330
2
100
AcDbEntity
  8
GEB-VERDECKT
 48
25.0
100
AcDbLine
 10
73.70000000000004
 20
2.000000000005229
 30
0.0
 11
73.70000000000004
 21
0.0000000000051728
 31
0.0
  0
LINE
  5
131
330
2
100
AcDbEntity
  8
GEB-VERDECKT
 48
25.0
100
AcDbLine
 10
79.30000000000001
 20
2.000000000005229
 30
0.0
 11
79.30000000000001
 21
0.0000000000051728
 31
0.0
  0
LINE
  5
132
330
2
100
AcDbEntity
  8
GEB-VERDECKT
 48
25.0
100
AcDbLine
 10
87.842135623731
 20
2.000000000003439
 30
0.0
 11
87.842135623731
 21
0.000000000003439
 31
0.0
  0
LINE
  5
133
330
2
100
AcDbEntity
  8
GEB-VERDECKT
 48
25.0
100
AcDbLine
 10
93.44213562373102
 20
2.000000000003439
 30
0.0
 11
93.44213562373102
 21
0.000000000003439
 31
0.0
  0
LINE
  5
134
330
2
100
AcDbEntity
  8
GEB-VERDECKT
 48
25.0
100
AcDbLine
 10
93.70000000000004
 20
1.999999999999261
 30
0.0
 11
93.70000000000004
 21
-0.000000000000739
 31
0.0
  0
LINE
  5
135
330
2
100
AcDbEntity
  8
GEB-VERDECKT
 48
25.0
100
AcDbLine
 10
99.30000000000001
 20
1.999999999999261
 30
0.0
 11
99.30000000000001
 21
-0.000000000000739
 31
0.0
  0
LINE
  5
136
330
2
100
AcDbEntity
  8
GEB-VERDECKT
 48
25.0
100
AcDbLine
 10
21.25000000000006
 20
1.999999999999261
 30
0.0
 11
21.25000000000006
 21
-0.000000000000739
 31
0.0
  0
LINE
  5
137
330
2
100
AcDbEntity
  8
GEB-VERDECKT
 48
25.0
100
AcDbLine
 10
51.75000000000006
 20
1.999999999999261
 30
0.0
 11
51.75000000000006
 21
-0.000000000000739
 31
0.0
  0
LINE
  5
138
330
2
100
AcDbEntity
  8
GEB-VERDECKT
 48
25.0
100
AcDbLine
 10
-160.7499999999999
 20
-42.00000000000073
 30
0.0
 11
-160.7499999999999
 21
-40.00000000000071
 31
0.0
  0
LINE
  5
139
330
2
100
AcDbEntity
  8
GEB-VERDECKT
 48
25.0
100
AcDbLine
 10
-136.2499999999999
 20
-42.00000000000073
 30
0.0
 11
-136.2499999999999
 21
-40.00000000000071
 31
0.0
  0
LINE
  5
13A
330
2
100
AcDbEntity
  8
GEB-VERDECKT
 48
25.0
100
AcDbLine
 10
-274.75
 20
-42.00000000000073
 30
0.0
 11
-274.75
 21
-40.00000000000071
 31
0.0
  0
LINE
  5
13B
330
2
100
AcDbEntity
  8
GEB-VERDECKT
 48
25.0
100
AcDbLine
 10
-245.25
 20
-42.00000000000073
 30
0.0
 11
-245.25
 21
-40.00000000000071
 31
0.0
  0
LINE
  5
13C
330
2
100
AcDbEntity
  8
GEB-VERDECKT
 48
25.0
100
AcDbLine
 10
-188.25
 20
-42.00000000000073
 30
0.0
 11
-188.25
 21
-40.00000000000071
 31
0.0
  0
LINE
  5
13D
330
2
100
AcDbEntity
  8
GEB-VERDECKT
 48
25.0
100
AcDbLine
 10
-217.7499999999999
 20
-42.00000000000073
 30
0.0
 11
-217.7499999999999
 21
-40.00000000000071
 31
0.0
  0
LINE
  5
13E
330
2
100
AcDbEntity
  8
GEB-VERDECKT
 48
25.0
100
AcDbLine
 10
-291.75
 20
-41.9999999999973
 30
0.0
 11
-291.75
 21
-39.9999999999973
 31
0.0
  0
LINE
  5
13F
330
2
100
AcDbEntity
  8
GEB-VERDECKT
 48
25.0
100
AcDbLine
 10
-285.25
 20
-41.9999999999973
 30
0.0
 11
-285.25
 21
-39.9999999999973
 31
0.0
  0
LINE
  5
140
330
2
100
AcDbEntity
  8
GEB-VERDECKT
 48
25.0
100
AcDbLine
 10
-177.75
 20
-41.99999999999732
 30
0.0
 11
-177.75
 21
-39.9999999999973
 31
0.0
  0
LINE
  5
141
330
2
100
AcDbEntity
  8
GEB-VERDECKT
 48
25.0
100
AcDbLine
 10
-171.2499999999999
 20
-41.99999999999732
 30
0.0
 11
-171.2499999999999
 21
-39.9999999999973
 31
0.0
  0
LINE
  5
142
330
2
100
AcDbEntity
  8
GEB-VERDECKT
 48
25.0
100
AcDbLine
 10
-234.75
 20
-41.99999999999732
 30
0.0
 11
-234.75
 21
-39.9999999999973
 31
0.0
  0
LINE
  5
143
330
2
100
AcDbEntity
  8
GEB-VERDECKT
 48
25.0
100
AcDbLine
 10
-228.25
 20
-41.99999999999732
 30
0.0
 11
-228.25
 21
-39.9999999999973
 31
0.0
  0
LINE
  5
144
330
2
100
AcDbEntity
  8
GEB-KONTUR-A
 48
25.0
100
AcDbLine
 10
-288.4999999999999
 20
-41.99999999999181
 30
0.0
 11
-298.4999999999999
 21
-41.99999999999477
 31
0.0
  0
LINE
  5
145
330
2
100
AcDbEntity
  8
GEB-KONTUR-A
 48
25.0
100
AcDbLine
 10
-298.4999999999999
 20
-41.99999999999477
 30
0.0
 11
-298.4999999999999
 21
-39.99999999999477
 31
0.0
  0
LINE
  5
146
330
2
100
AcDbEntity
  8
GEB-KONTUR-A
 48
25.0
100
AcDbLine
 10
-298.4999999999999
 20
-39.99999999999477
 30
0.0
 11
-288.4999999999999
 21
-39.99999999999181
 31
0.0
  0
LINE
  5
147
330
2
100
AcDbEntity
  8
GEB-KONTUR-A
 48
25.0
100
AcDbLine
 10
-288.4999999999999
 20
-39.99999999999181
 30
0.0
 11
-288.4999999999999
 21
-41.99999999999181
 31
0.0
  0
LINE
  5
148
330
2
100
AcDbEntity
  8
GEB-KONTUR-A
 48
25.0
100
AcDbLine
 10
288.4999999999999
 20
-41.99999999999181
 30
0.0
 11
130.5
 21
-41.99999999999187
 31
0.0
  0
ARC
  5
149
330
2
100
AcDbEntity
  8
GEB-KONTUR-A
 48
25.0
100
AcDbCircle
 10
130.5
 20
-37.9999999999919
 30
0.0
 40
3.999999999999987
100
AcDbArc
 50
180.0
 51
270.0
  0
LINE
  5
14A
330
2
100
AcDbEntity
  8
GEB-KONTUR-A
 48
25.0
100
AcDbLine
 10
126.5
 20
-37.99999999999187
 30
0.0
 11
126.5
 21
-3.999999999991842
 31
0.0
  0
ARC
  5
14B
330
2
100
AcDbEntity
  8
GEB-KONTUR-A
 48
25.0
100
AcDbCircle
 10
122.5
 20
-3.999999999991842
 30
0.0
 40
3.99999999999995
100
AcDbArc
 50
0.0
 51
90.0
  0
LINE
  5
14C
330
2
100
AcDbEntity
  8
GEB-KONTUR-A
 48
25.0
100
AcDbLine
 10
122.4999999999999
 20
0.0000000000081286
 30
0.0
 11
-122.5
 21
0.0000000000081855
 31
0.0
  0
ARC
  5
14D
330
2
100
AcDbEntity
  8
GEB-KONTUR-A
 48
25.0
100
AcDbCircle
 10
-122.5
 20
-3.999999999991814
 30
0.0
 40
4.000000000000012
100
AcDbArc
 50
90.0
 51
180.0
  0
LINE
  5
14E
330
2
100
AcDbEntity
  8
GEB-KONTUR-A
 48
25.0
100
AcDbLine
 10
-126.4999999999999
 20
-3.999999999991842
 30
0.0
 11
-126.5
 21
-37.99999999999184
 31
0.0
  0
ARC
  5
14F
330
2
100
AcDbEntity
  8
GEB-KONTUR-A
 48
25.0
100
AcDbCircle
 10
-130.5
 20
-37.99999999999184
 30
0.0
 40
4.000000000000021
100
AcDbArc
 50
270.0
 51
0.0
  0
LINE
  5
150
330
2
100
AcDbEntity
  8
GEB-KONTUR-A
 48
25.0
100
AcDbLine
 10
-130.5
 20
-41.99999999999187
 30
0.0
 11
-288.4999999999999
 21
-41.99999999999181
 31
0.0
  0
LINE
  5
151
330
2
100
AcDbEntity
  8
GEB-KONTUR-A
 48
25.0
100
AcDbLine
 10
-288.4999999999999
 20
-39.99999999999181
 30
0.0
 11
-131.5
 21
-39.99999999999181
 31
0.0
  0
ARC
  5
152
330
2
100
AcDbEntity
  8
GEB-KONTUR-A
 48
25.0
100
AcDbCircle
 10
-131.5
 20
-36.99999999999182
 30
0.0
 40
3.000000000000026
100
AcDbArc
 50
270.0
 51
0.0
  0
LINE
  5
153
330
2
100
AcDbEntity
  8
GEB-KONTUR-A
 48
25.0
100
AcDbLine
 10
-128.5
 20
-36.99999999999182
 30
0.0
 11
-128.5
 21
-2.999999999991842
 31
0.0
  0
ARC
  5
154
330
2
100
AcDbEntity
  8
GEB-KONTUR-A
 48
25.0
100
AcDbCircle
 10
-123.5
 20
-2.999999999991871
 30
0.0
 40
5.000000000000017
100
AcDbArc
 50
90.0
 51
180.0
  0
LINE
  5
155
330
2
100
AcDbEntity
  8
GEB-KONTUR-A
 48
25.0
100
AcDbLine
 10
-123.5
 20
2.000000000008128
 30
0.0
 11
123.5
 21
2.000000000008157
 31
0.0
  0
ARC
  5
156
330
2
100
AcDbEntity
  8
GEB-KONTUR-A
 48
25.0
100
AcDbCircle
 10
123.4999999999999
 20
-2.999999999991871
 30
0.0
 40
5.000000000000008
100
AcDbArc
 50
0.0
 51
90.0
  0
LINE
  5
157
330
2
100
AcDbEntity
  8
GEB-KONTUR-A
 48
25.0
100
AcDbLine
 10
128.5
 20
-2.999999999991842
 30
0.0
 11
128.5
 21
-36.99999999999182
 31
0.0
  0
ARC
  5
158
330
2
100
AcDbEntity
  8
GEB-KONTUR-A
 48
25.0
100
AcDbCircle
 10
131.5
 20
-36.99999999999182
 30
0.0
 40
3.000000000000024
100
AcDbArc
 50
180.0
 51
270.0
  0
LINE
  5
159
330
2
100
AcDbEntity
  8
GEB-KONTUR-A
 48
25.0
100
AcDbLine
 10
131.5
 20
-39.99999999999181
 30
0.0
 11
288.4999999999999
 21
-39.99999999999181
 31
0.0
  0
LINE
  5
15A
330
2
100
AcDbEntity
  8
GEB-KONTUR-A
 48
25.0
100
AcDbLine
 10
298.4999999999999
 20
-39.99999999999477
 30
0.0
 11
298.4999999999999
 21
-41.99999999999477
 31
0.0
  0
LINE
  5
15B
330
2
100
AcDbEntity
  8
GEB-KONTUR-A
 48
25.0
100
AcDbLine
 10
298.4999999999999
 20
-41.99999999999477
 30
0.0
 11
288.4999999999999
 21
-41.99999999999181
 31
0.0
  0
LINE
  5
15C
330
2
100
AcDbEntity
  8
GEB-KONTUR-A
 48
25.0
100
AcDbLine
 10
288.4999999999999
 20
-41.99999999999181
 30
0.0
 11
288.4999999999999
 21
-39.99999999999181
 31
0.0
  0
LINE
  5
15D
330
2
100
AcDbEntity
  8
GEB-KONTUR-A
 48
25.0
100
AcDbLine
 10
288.4999999999999
 20
-39.99999999999181
 30
0.0
 11
298.4999999999999
 21
-39.99999999999477
 31
0.0
  0
LINE
  5
15E
330
2
100
AcDbEntity
  8
GEB-VERDECKT
 48
25.0
100
AcDbLine
 10
188.2499999999999
 20
-40.00000000000071
 30
0.0
 11
188.2499999999999
 21
-42.00000000000076
 31
0.0
  0
LINE
  5
15F
330
2
100
AcDbEntity
  8
GEB-VERDECKT
 48
25.0
100
AcDbLine
 10
217.7499999999999
 20
-40.00000000000071
 30
0.0
 11
217.7499999999999
 21
-42.00000000000076
 31
0.0
  0
LINE
  5
160
330
2
100
AcDbEntity
  8
GEB-VERDECKT
 48
25.0
100
AcDbLine
 10
274.75
 20
-40.00000000000071
 30
0.0
 11
274.75
 21
-42.00000000000076
 31
0.0
  0
LINE
  5
161
330
2
100
AcDbEntity
  8
GEB-VERDECKT
 48
25.0
100
AcDbLine
 10
245.25
 20
-40.00000000000071
 30
0.0
 11
245.25
 21
-42.00000000000076
 31
0.0
  0
LINE
  5
162
330
2
100
AcDbEntity
  8
GEB-VERDECKT
 48
25.0
100
AcDbLine
 10
136.2499999999999
 20
-40.00000000000071
 30
0.0
 11
136.2499999999999
 21
-42.00000000000076
 31
0.0
  0
LINE
  5
163
330
2
100
AcDbEntity
  8
GEB-VERDECKT
 48
25.0
100
AcDbLine
 10
160.7499999999999
 20
-40.00000000000071
 30
0.0
 11
160.7499999999999
 21
-42.00000000000076
 31
0.0
  0
LINE
  5
164
330
2
100
AcDbEntity
  8
GEB-VERDECKT
 48
25.0
100
AcDbLine
 10
177.75
 20
-41.99999999999732
 30
0.0
 11
177.75
 21
-39.9999999999973
 31
0.0
  0
LINE
  5
165
330
2
100
AcDbEntity
  8
GEB-VERDECKT
 48
25.0
100
AcDbLine
 10
171.2499999999999
 20
-41.99999999999732
 30
0.0
 11
171.2499999999999
 21
-39.9999999999973
 31
0.0
  0
LINE
  5
166
330
2
100
AcDbEntity
  8
GEB-VERDECKT
 48
25.0
100
AcDbLine
 10
285.25
 20
-41.9999999999973
 30
0.0
 11
285.25
 21
-39.9999999999973
 31
0.0
  0
LINE
  5
167
330
2
100
AcDbEntity
  8
GEB-VERDECKT
 48
25.0
100
AcDbLine
 10
291.75
 20
-41.9999999999973
 30
0.0
 11
291.75
 21
-39.9999999999973
 31
0.0
  0
LINE
  5
168
330
2
100
AcDbEntity
  8
GEB-VERDECKT
 48
25.0
100
AcDbLine
 10
228.2499999999999
 20
-41.99999999999732
 30
0.0
 11
228.2499999999999
 21
-39.9999999999973
 31
0.0
  0
LINE
  5
169
330
2
100
AcDbEntity
  8
GEB-VERDECKT
 48
25.0
100
AcDbLine
 10
234.7500000000001
 20
-41.99999999999732
 30
0.0
 11
234.7500000000001
 21
-39.9999999999973
 31
0.0
  0
LINE
  5
16A
330
2
100
AcDbEntity
  8
GEB-VERDECKT
 48
25.0
100
AcDbLine
 10
2.800000000000011
 20
0.0000000000051728
 30
0.0
 11
2.800000000000011
 21
2.000000000005229
 31
0.0
  0
LINE
  5
16B
330
2
100
AcDbEntity
  8
GEB-VERDECKT
 48
25.0
100
AcDbLine
 10
-2.800000000000011
 20
0.0000000000051728
 30
0.0
 11
-2.800000000000011
 21
2.000000000005229
 31
0.0
  0
LINE
  5
16C
330
2
100
AcDbEntity
  8
GEB-VERDECKT
 48
25.0
100
AcDbLine
 10
-0.5000000000000569
 20
0.0000000000036948
 30
0.0
 11
-0.5000000000000569
 21
2.000000000003723
 31
0.0
  0
LINE
  5
16D
330
2
100
AcDbEntity
  8
GEB-VERDECKT
 48
25.0
100
AcDbLine
 10
0.5
 20
0.0000000000036948
 30
0.0
 11
0.5
 21
2.000000000003723
 31
0.0
  0
ARC
  5
16E
330
2
100
AcDbEntity
  8
GEB-VERDECKT
 48
25.0
100
AcDbCircle
 10
-76.49999999999997
 20
-21.00000000001725
 30
0.0
 40
12.27504889337326
100
AcDbArc
 50
155.9627582805286
 51
204.0372417194713
  0
ARC
  5
16F
330
2
100
AcDbEntity
  8
GEB-VERDECKT
 48
25.0
100
AcDbCircle
 10
-76.49999999999997
 20
-21.00000000001202
 30
0.0
 40
14.89999999999999
100
AcDbArc
 50
164.4275671503858
 51
195.5724328496141
  0
SPLINE
  5
170
330
2
100
AcDbEntity
  8
GEB-VERDECKT
 48
25.0
100
AcDbSpline
210
0.0
220
0.0
230
1.0
 70
    28
 71
     2
 72
     6
 73
     3
 74
     0
 42
0.0000000001
 43
0.0000000001
 40
0.0
 40
0.0
 40
0.0
 40
0.5613261942872661
 40
0.5613261942872661
 40
0.5613261942872661
 10
-87.71056757415534
 20
-16.00000000001725
 30
0.0
 41
1.0
 10
-88.39225813944855
 20
-16.00000000001654
 30
0.0
 41
1.002903287574923
 10
-89.14752940300985
 20
-16.00000000001571
 30
0.0
 41
1.002712972645559
  0
SPLINE
  5
171
330
2
100
AcDbEntity
  8
GEB-VERDECKT
 48
25.0
100
AcDbSpline
210
0.0
220
0.0
230
1.0
 70
     8
 71
     3
 72
    10
 73
     6
 74
     0
 42
0.0000000001
 43
0.0000000001
 40
0.0
 40
0.0
 40
0.0
 40
0.0
 40
0.4966101253357071
 40
0.4966101253357071
 40
1.052443047124898
 40
1.052443047124898
 40
1.052443047124898
 40
1.052443047124898
 10
-87.95577293464011
 20
-14.6093266353314
 30
0.0
 10
-88.4134228534225
 20
-14.56723535036087
 30
0.0
 10
-88.87135964278831
 20
-14.52477108879105
 30
0.0
 10
-89.82582908393442
 20
-14.43577860495361
 30
0.0
 10
-90.33093829972054
 20
-14.38839150055543
 30
0.0
 10
-90.82845872085718
 20
-14.34152639980439
 30
0.0
  0
LINE
  5
172
330
2
100
AcDbEntity
  8
GEB-VERDECKT
 48
25.0
100
AcDbLine
 10
-87.71056757415534
 20
-16.00000000001725
 30
0.0
 11
-87.9557729346401
 21
-14.6093266353314
 31
0.0
  0
ELLIPSE
  5
173
330
2
100
AcDbEntity
  8
GEB-VERDECKT
 48
25.0
100
AcDbEllipse
 10
-76.47217111456541
 20
-21.00000000001722
 30
0.0
 11
13.14206985013445
 21
0.0000002444130673
 31
0.0
210
0.0
220
0.0
230
1.0
 40
0.9999977580066177
 41
2.633768514436859
 42
2.751300685085409
  0
LINE
  5
174
330
2
100
AcDbEntity
  8
GEB-VERDECKT
 48
25.0
100
AcDbLine
 10
-90.53547698529696
 20
-16.00000000001069
 30
0.0
 11
-89.14752940300985
 21
-16.00000000001069
 31
0.0
  0
SPLINE
  5
175
330
2
100
AcDbEntity
  8
GEB-VERDECKT
 48
25.0
100
AcDbSpline
210
0.0
220
0.0
230
1.0
 70
     8
 71
     3
 72
    14
 73
    10
 74
     0
 42
0.0000000001
 43
0.0000000001
 40
0.3072577440109771
 40
0.3072577440109771
 40
0.3072577440109771
 40
0.3072577440109771
 40
0.3453821699580131
 40
0.3453821699580131
 40
0.383506595905049
 40
0.383506595905049
 40
0.4225281117749357
 40
0.4225281117749357
 40
0.4615496276448223
 40
0.4615496276448223
 40
0.4615496276448223
 40
0.4615496276448223
 10
-90.53602507834744
 20
-16.00000000001173
 30
0.0
 10
-90.53602507834744
 20
-16.00000000001176
 30
0.0
 10
-90.54526862001674
 20
-16.02572703932486
 30
0.0
 10
-90.5812322521827
 20
-16.12846427445274
 30
0.0
 10
-90.60781863590893
 20
-16.20542470263268
 30
0.0
 10
-90.66675184463671
 20
-16.38241992009222
 30
0.0
 10
-90.70325722814008
 20
-16.49510680132289
 30
0.0
 10
-90.77898816408088
 20
-16.74123543397167
 30
0.0
 10
-90.81812987425285
 20
-16.87470297358388
 30
0.0
 10
-90.85304845668678
 20
-17.00000000001205
 30
0.0
  0
SPLINE
  5
176
330
2
100
AcDbEntity
  8
GEB-VERDECKT
 48
25.0
100
AcDbSpline
210
0.0
220
0.0
230
1.0
 70
     8
 71
     3
 72
    14
 73
    10
 74
     0
 42
0.0000000001
 43
0.0000000001
 40
0.1529682240815632
 40
0.1529682240815632
 40
0.1529682240815632
 40
0.1529682240815632
 40
0.1924673699099895
 40
0.1924673699099895
 40
0.2319665157384157
 40
0.2319665157384157
 40
0.2696121298746964
 40
0.2696121298746964
 40
0.3072577440109771
 40
0.3072577440109771
 40
0.3072577440109771
 40
0.3072577440109771
 10
-90.85304845668678
 20
-25.00000000001199
 30
0.0
 10
-90.81770246489401
 20
-25.12683068324987
 30
0.0
 10
-90.77808554305887
 20
-25.26182747027287
 30
0.0
 10
-90.70154976017713
 20
-25.51030870030087
 30
0.0
 10
-90.66471845486853
 20
-25.62382037368477
 30
0.0
 10
-90.60622148477738
 20
-25.79923511102365
 30
0.0
 10
-90.58020124312458
 20
-25.8745012509863
 30
0.0
 10
-90.54503877683734
 20
-25.97490856991115
 30
0.0
 10
-90.53602507834744
 20
-26.00000000001174
 30
0.0
 10
-90.53602507834744
 20
-26.00000000001171
 30
0.0
  0
LINE
  5
177
330
2
100
AcDbEntity
  8
GEB-VERDECKT
 48
25.0
100
AcDbLine
 10
-89.14752940300985
 20
-26.00000000001069
 30
0.0
 11
-90.53557115883831
 21
-26.00000000001069
 31
0.0
  0
ELLIPSE
  5
178
330
2
100
AcDbEntity
  8
GEB-VERDECKT
 48
25.0
100
AcDbEllipse
 10
-76.47217111456541
 20
-21.00000000001722
 30
0.0
 11
13.14206985013445
 21
0.0000002444130687
 31
0.0
210
0.0
220
0.0
230
1.0
 40
0.9999977580066177
 41
3.531884584903039
 42
3.649416755551384
  0
LINE
  5
179
330
2
100
AcDbEntity
  8
GEB-VERDECKT
 48
25.0
100
AcDbLine
 10
-87.71056757415534
 20
-26.00000000001723
 30
0.0
 11
-87.9557729346401
 21
-27.39067336470305
 31
0.0
  0
SPLINE
  5
17A
330
2
100
AcDbEntity
  8
GEB-VERDECKT
 48
25.0
100
AcDbSpline
210
0.0
220
0.0
230
1.0
 70
    28
 71
     2
 72
     6
 73
     3
 74
     0
 42
0.0000000001
 43
0.0000000001
 40
0.4922618882761959
 40
0.4922618882761959
 40
0.4922618882761959
 40
1.053588082563648
 40
1.053588082563648
 40
1.053588082563648
 10
-89.14752940300985
 20
-26.00000000001572
 30
0.0
 41
1.00271297264596
 10
-88.39225813944855
 20
-26.00000000001648
 30
0.0
 41
1.002903287575353
 10
-87.71056757415534
 20
-26.00000000001723
 30
0.0
 41
1.0
  0
SPLINE
  5
17B
330
2
100
AcDbEntity
  8
GEB-VERDECKT
 48
25.0
100
AcDbSpline
210
0.0
220
0.0
230
1.0
 70
     8
 71
     3
 72
    10
 73
     6
 74
     0
 42
0.0000000001
 43
0.0000000001
 40
0.0
 40
0.0
 40
0.0
 40
0.0
 40
0.5547545270202581
 40
0.5547545270202581
 40
1.051513804832344
 40
1.051513804832344
 40
1.051513804832344
 40
1.051513804832344
 10
-90.82845872085718
 20
-27.65847360022403
 30
0.0
 10
-90.33146435956386
 20
-27.61165805291251
 30
0.0
 10
-89.82690350833228
 20
-27.56432219825018
 30
0.0
 10
-88.87244981836294
 20
-27.47532999765906
 30
0.0
 10
-88.41396522583341
 20
-27.43281453311144
 30
0.0
 10
-87.95577293464011
 20
-27.39067336470305
 30
0.0
  0
CIRCLE
  5
17C
330
2
100
AcDbEntity
  8
GEB-VERDECKT
 48
25.0
100
AcDbCircle
 10
-76.49999999999997
 20
-21.0000000000162
 30
0.0
 40
10.24999999999998
  0
CIRCLE
  5
17D
330
2
100
AcDbEntity
  8
GEB-VERDECKT
 48
25.0
100
AcDbCircle
 10
-76.49999999999997
 20
-21.00000000001569
 30
0.0
 40
10.89807903868639
  0
CIRCLE
  5
17E
330
2
100
AcDbEntity
  8
GEB-VERDECKT
 48
25.0
100
AcDbCircle
 10
-76.49999999999997
 20
-21.00000000001285
 30
0.0
 40
12.24999999999998
  0
CIRCLE
  5
17F
330
2
100
AcDbEntity
  8
GEB-VERDECKT
 48
25.0
100
AcDbCircle
 10
-76.49999999999997
 20
-21.00000000000804
 30
0.0
 40
13.59999999999998
  0
CIRCLE
  5
180
330
2
100
AcDbEntity
  8
GEB-VERDECKT
 48
25.0
100
AcDbCircle
 10
-76.49999999999997
 20
-21.00000000000784
 30
0.0
 40
13.99999999999998
  0
CIRCLE
  5
181
330
2
100
AcDbEntity
  8
GEB-VERDECKT
 48
25.0
100
AcDbCircle
 10
-76.49999999999997
 20
-21.00000000001799
 30
0.0
 40
13.01873492709983
  0
ARC
  5
182
330
2
100
AcDbEntity
  8
GEB-VERDECKT
 48
25.0
100
AcDbCircle
 10
-76.49999999999995
 20
-21.00000000001731
 30
0.0
 40
13.06324962288854
100
AcDbArc
 50
135.0
 51
157.4956760149038
  0
ARC
  5
183
330
2
100
AcDbEntity
  8
GEB-VERDECKT
 48
25.0
100
AcDbCircle
 10
-76.49999999999995
 20
-21.00000000001725
 30
0.0
 40
13.06324962288857
100
AcDbArc
 50
202.5043239850961
 51
225.0
  0
ARC
  5
184
330
2
100
AcDbEntity
  8
GEB-VERDECKT
 48
25.0
100
AcDbCircle
 10
-76.49999999999997
 20
-21.00000000000784
 30
0.0
 40
15.79999999999998
100
AcDbArc
 50
135.0
 51
225.0
  0
LINE
  5
185
330
2
100
AcDbEntity
  8
GEB-VERDECKT
 48
25.0
100
AcDbLine
 10
-90.82845872085716
 20
-14.34152639980087
 30
0.0
 11
-90.73122186005528
 21
-14.89298404066318
 31
0.0
  0
SPLINE
  5
186
330
2
100
AcDbEntity
  8
GEB-VERDECKT
 48
25.0
100
AcDbSpline
210
0.0
220
0.0
230
1.0
 70
    24
 71
     3
 72
     8
 73
     4
 74
     0
 42
0.0000000001
 43
0.0000000001
 40
0.142803462792876
 40
0.142803462792876
 40
0.142803462792876
 40
0.142803462792876
 40
0.1987614655853647
 40
0.1987614655853647
 40
0.1987614655853647
 40
0.1987614655853647
 10
-90.73122186005576
 20
-14.89298404066403
 30
0.0
 10
-90.7637000717291
 20
-14.70930669688758
 30
0.0
 10
-90.7961782834025
 20
-14.52562935311113
 30
0.0
 10
-90.8286564950758
 20
-14.3419520093347
 30
0.0
  0
SPLINE
  5
187
330
2
100
AcDbEntity
  8
GEB-VERDECKT
 48
25.0
100
AcDbSpline
210
0.0
220
0.0
230
1.0
 70
     8
 71
     3
 72
     8
 73
     4
 74
     0
 42
0.0000000001
 43
0.0000000001
 40
0.0
 40
0.0
 40
0.0
 40
0.0
 40
0.0267669657340522
 40
0.0267669657340522
 40
0.0267669657340522
 40
0.0267669657340522
 10
-90.77046007453239
 20
-17.26556962026353
 30
0.0
 10
-90.74787191779478
 20
-17.17925300538454
 30
0.0
 10
-90.73020014866424
 20
-17.09153321060324
 30
0.0
 10
-90.71699242179741
 20
-17.0000000000104
 30
0.0
  0
SPLINE
  5
188
330
2
100
AcDbEntity
  8
GEB-VERDECKT
 48
25.0
100
AcDbSpline
210
0.0
220
0.0
230
1.0
 70
     8
 71
     3
 72
    16
 73
    12
 74
     0
 42
0.0000000001
 43
0.0000000001
 40
0.0136831908681082
 40
0.0136831908681082
 40
0.0136831908681082
 40
0.0136831908681082
 40
0.0403676035692468
 40
0.0403676035692468
 40
0.0812369480020667
 40
0.0812369480020667
 40
0.1211764385122882
 40
0.1211764385122882
 40
0.1469473844068602
 40
0.1469473844068602
 40
0.1724074894212338
 40
0.1724074894212338
 40
0.1724074894212338
 40
0.1724074894212338
 10
-90.71699242179741
 20
-17.0000000000104
 30
0.0
 10
-90.70433937186839
 20
-16.91231085444605
 30
0.0
 10
-90.69069792371598
 20
-16.8249188649888
 30
0.0
 10
-90.65514446417541
 20
-16.61016645691075
 30
0.0
 10
-90.63303433252931
 20
-16.48855051354331
 30
0.0
 10
-90.59295298173566
 20
-16.27901995678852
 30
0.0
 10
-90.57529713344081
 20
-16.19221122748013
 30
0.0
 10
-90.5533690381066
 20
-16.08574147611702
 30
0.0
 10
-90.54666420144759
 20
-16.05364339387293
 30
0.0
 10
-90.53772275394766
 20
-16.01079663612626
 30
0.0
 10
-90.53547698529696
 20
-16.00000000001069
 30
0.0
 10
-90.53547698529696
 20
-16.00000000001069
 30
0.0
  0
SPLINE
  5
189
330
2
100
AcDbEntity
  8
GEB-VERDECKT
 48
25.0
100
AcDbSpline
210
0.0
220
0.0
230
1.0
 70
     8
 71
     3
 72
    16
 73
    12
 74
     0
 42
0.0000000001
 43
0.0000000001
 40
0.0
 40
0.0
 40
0.0
 40
0.0
 40
0.0393266642598616
 40
0.0393266642598616
 40
0.0770927003301641
 40
0.0770927003301641
 40
0.1142902718541408
 40
0.1142902718541408
 40
0.1443854110165289
 40
0.1443854110165289
 40
0.1586800458003512
 40
0.1586800458003512
 40
0.1586800458003512
 40
0.1586800458003512
 10
-90.53557115883831
 20
-26.00000000001069
 30
0.0
 10
-90.53557115883831
 20
-26.00000000001063
 30
0.0
 10
-90.54107022284856
 20
-25.9742344484674
 30
0.0
 10
-90.5613035275992
 20
-25.87649519007257
 30
0.0
 10
-90.5754428946418
 20
-25.80736169505548
 30
0.0
 10
-90.60917847779014
 20
-25.63570209634264
 30
0.0
 10
-90.6284204662845
 20
-25.53508907864449
 30
0.0
 10
-90.66427400378779
 20
-25.33448954094769
 30
0.0
 10
-90.68047012864884
 20
-25.23896836819421
 30
0.0
 10
-90.70311789713366
 20
-25.09412003482535
 30
0.0
 10
-90.71019865485476
 20
-25.04708075091674
 30
0.0
 10
-90.71698890796289
 20
-25.00000000001037
 30
0.0
  0
SPLINE
  5
18A
330
2
100
AcDbEntity
  8
GEB-VERDECKT
 48
25.0
100
AcDbSpline
210
0.0
220
0.0
230
1.0
 70
     8
 71
     3
 72
     8
 73
     4
 74
     0
 42
0.0000000001
 43
0.0000000001
 40
0.0584232393371453
 40
0.0584232393371453
 40
0.0584232393371453
 40
0.0584232393371453
 40
0.0977834980903351
 40
0.0977834980903351
 40
0.0977834980903351
 40
0.0977834980903351
 10
-90.71698890796289
 20
-25.00000000001037
 30
0.0
 10
-90.73086166434256
 20
-24.90381215883599
 30
0.0
 10
-90.74896481024792
 20
-24.8165707009228
 30
0.0
 10
-90.77046007453237
 20
-24.73443037975722
 30
0.0
  0
LINE
  5
18B
330
2
100
AcDbEntity
  8
GEB-VERDECKT
 48
25.0
100
AcDbLine
 10
-90.82803049579849
 20
-27.65939502594708
 30
0.0
 11
-90.53557115883831
 21
-26.00000000001069
 31
0.0
  0
LINE
  5
18C
330
2
100
AcDbEntity
  8
GEB-VERDECKT
 48
25.0
100
AcDbLine
 10
-90.82845872085716
 20
-27.6584736002205
 30
0.0
 11
-90.53602507834744
 21
-26.00000000001069
 31
0.0
  0
LINE
  5
18D
330
2
100
AcDbEntity
  8
GEB-VERDECKT
 48
25.0
100
AcDbLine
 10
-90.53557115883831
 20
-26.00000000001069
 30
0.0
 11
-90.53602507834744
 21
-26.00000000001069
 31
0.0
  0
ARC
  5
18E
330
2
100
AcDbEntity
  8
GEB-VERDECKT
 48
25.0
100
AcDbCircle
 10
-76.5
 20
-21.0000000000104
 30
0.0
 40
14.75099999999996
100
AcDbArc
 50
165.3351462901592
 51
194.6648537098407
  0
LINE
  5
18F
330
2
100
AcDbEntity
  8
GEB-VERDECKT
 48
25.0
100
AcDbLine
 10
-90.73122186005528
 20
-14.89298404066318
 30
0.0
 11
-90.53602507834744
 21
-16.00000000001069
 31
0.0
  0
LINE
  5
190
330
2
100
AcDbEntity
  8
GEB-VERDECKT
 48
25.0
100
AcDbLine
 10
-90.53547698529696
 20
-16.00000000001069
 30
0.0
 11
-90.73122186005528
 21
-14.89298404066318
 31
0.0
  0
LINE
  5
191
330
2
100
AcDbEntity
  8
GEB-VERDECKT
 48
25.0
100
AcDbLine
 10
-90.53602507834744
 20
-16.00000000001069
 30
0.0
 11
-90.53547698529696
 21
-16.00000000001069
 31
0.0
  0
LINE
  5
192
330
2
100
AcDbEntity
  8
GEB-VERDECKT
 48
25.0
100
AcDbLine
 10
-65.25700217913388
 20
-32.24299782087394
 30
0.0
 11
-65.32771285725255
 21
-32.1722871427553
 31
0.0
  0
LINE
  5
193
330
2
100
AcDbEntity
  8
GEB-VERDECKT
 48
25.0
100
AcDbLine
 10
-85.73711239267703
 20
-30.23711239269437
 30
0.0
 11
-87.67228714274741
 21
-32.17228714276163
 31
0.0
  0
LINE
  5
194
330
2
100
AcDbEntity
  8
GEB-VERDECKT
 48
25.0
100
AcDbLine
 10
-87.67228714274741
 20
-32.1722871427553
 30
0.0
 11
-87.74299782086606
 21
-32.24299782087394
 31
0.0
  0
ARC
  5
195
330
2
100
AcDbEntity
  8
GEB-VERDECKT
 48
25.0
100
AcDbCircle
 10
-76.49999999999997
 20
-21.00000000000784
 30
0.0
 40
15.89999999999997
100
AcDbArc
 50
225.0
 51
315.0
  0
ARC
  5
196
330
2
100
AcDbEntity
  8
GEB-VERDECKT
 48
25.0
100
AcDbCircle
 10
-76.49999999999997
 20
-21.00000000001731
 30
0.0
 40
13.15672436936377
100
AcDbArc
 50
225.0
 51
315.0
  0
LINE
  5
197
330
2
100
AcDbEntity
  8
GEB-VERDECKT
 48
25.0
100
AcDbLine
 10
-90.1946173804678
 20
-28.88019383027716
 30
0.0
 11
-90.62799134820414
 21
-29.12956705275403
 31
0.0
  0
LINE
  5
198
330
2
100
AcDbEntity
  8
GEB-VERDECKT
 48
25.0
100
AcDbLine
 10
-89.52899942183586
 20
-29.93785064016979
 30
0.0
 11
-89.94130953012183
 21
-30.2206940148584
 31
0.0
  0
LINE
  5
199
330
2
100
AcDbEntity
  8
GEB-VERDECKT
 48
25.0
100
AcDbLine
 10
-88.78187531236887
 20
-30.93959449935534
 30
0.0
 11
-89.1705422526337
 21
-31.25413862908147
 31
0.0
  0
SPLINE
  5
19A
330
2
100
AcDbEntity
  8
GEB-VERDECKT
 48
25.0
100
AcDbSpline
210
0.0
220
0.0
230
1.0
 70
     8
 71
     3
 72
     8
 73
     4
 74
     0
 42
0.0000000001
 43
0.0000000001
 40
0.0
 40
0.0
 40
0.0
 40
0.0
 40
0.2500000000000002
 40
0.2500000000000002
 40
0.2500000000000002
 40
0.2500000000000002
 10
-90.62799134820414
 20
-29.12956705275403
 30
0.0
 10
-90.19921671462061
 20
-29.87471427576054
 30
0.0
 10
-89.71137234910372
 20
-30.58586108411132
 30
0.0
 10
-89.1705422526337
 20
-31.25413862908147
 30
0.0
  0
LINE
  5
19B
330
2
100
AcDbEntity
  8
GEB-VERDECKT
 48
25.0
100
AcDbLine
 10
-62.80538261953214
 20
-13.1198061697421
 30
0.0
 11
-62.3720086517958
 21
-12.87043294726527
 31
0.0
  0
LINE
  5
19C
330
2
100
AcDbEntity
  8
GEB-VERDECKT
 48
25.0
100
AcDbLine
 10
-63.47100057816408
 20
-12.06214935985085
 30
0.0
 11
-63.05869046987812
 21
-11.77930598516226
 31
0.0
  0
LINE
  5
19D
330
2
100
AcDbEntity
  8
GEB-VERDECKT
 48
25.0
100
AcDbLine
 10
-64.21812468763111
 20
-11.06040550066396
 30
0.0
 11
-63.82945774736623
 21
-10.7458613709378
 31
0.0
  0
SPLINE
  5
19E
330
2
100
AcDbEntity
  8
GEB-VERDECKT
 48
25.0
100
AcDbSpline
210
0.0
220
0.0
230
1.0
 70
     8
 71
     3
 72
     8
 73
     4
 74
     0
 42
0.0000000001
 43
0.0000000001
 40
0.0
 40
0.0
 40
0.0
 40
0.0
 40
0.2500000000000002
 40
0.2500000000000002
 40
0.2500000000000002
 40
0.2500000000000002
 10
-62.3720086517958
 20
-12.87043294726527
 30
0.0
 10
-62.80078328537934
 20
-12.1252857242587
 30
0.0
 10
-63.28862765089621
 20
-11.41413891590798
 30
0.0
 10
-63.82945774736623
 20
-10.7458613709378
 30
0.0
  0
ARC
  5
19F
330
2
100
AcDbEntity
  8
GEB-VERDECKT
 48
25.0
100
AcDbCircle
 10
-76.49999999999995
 20
-21.00000000001728
 30
0.0
 40
13.06324962288848
100
AcDbArc
 50
22.50432398509614
 51
45.0
  0
ARC
  5
1A0
330
2
100
AcDbEntity
  8
GEB-VERDECKT
 48
25.0
100
AcDbCircle
 10
-76.49999999999997
 20
-21.00000000001725
 30
0.0
 40
12.27504889337326
100
AcDbArc
 50
335.9627582805286
 51
24.03724171947136
  0
ARC
  5
1A1
330
2
100
AcDbEntity
  8
GEB-VERDECKT
 48
25.0
100
AcDbCircle
 10
-76.49999999999997
 20
-21.00000000001202
 30
0.0
 40
14.89999999999999
100
AcDbArc
 50
344.4275671503859
 51
15.57243284961413
  0
SPLINE
  5
1A2
330
2
100
AcDbEntity
  8
GEB-VERDECKT
 48
25.0
100
AcDbSpline
210
0.0
220
0.0
230
1.0
 70
     8
 71
     3
 72
    14
 73
    10
 74
     0
 42
0.0000000001
 43
0.0000000001
 40
0.3072577440109772
 40
0.3072577440109772
 40
0.3072577440109772
 40
0.3072577440109772
 40
0.3453821699580131
 40
0.3453821699580131
 40
0.383506595905049
 40
0.383506595905049
 40
0.4225281117749358
 40
0.4225281117749358
 40
0.4615496276448225
 40
0.4615496276448225
 40
0.4615496276448225
 40
0.4615496276448225
 10
-62.46397492165249
 20
-26.00000000001171
 30
0.0
 10
-62.46397492165249
 20
-26.00000000001174
 30
0.0
 10
-62.4547313799832
 20
-25.9742729606987
 30
0.0
 10
-62.41876774781724
 20
-25.87153572557099
 30
0.0
 10
-62.39218136409101
 20
-25.79457529739114
 30
0.0
 10
-62.33324815536324
 20
-25.61758007993172
 30
0.0
 10
-62.29674277185989
 20
-25.50489319870107
 30
0.0
 10
-62.22101183591906
 20
-25.25876456605235
 30
0.0
 10
-62.18187012574708
 20
-25.12529702644016
 30
0.0
 10
-62.14695154331318
 20
-25.00000000001199
 30
0.0
  0
SPLINE
  5
1A3
330
2
100
AcDbEntity
  8
GEB-VERDECKT
 48
25.0
100
AcDbSpline
210
0.0
220
0.0
230
1.0
 70
     8
 71
     3
 72
    14
 73
    10
 74
     0
 42
0.0000000001
 43
0.0000000001
 40
0.1529682240815632
 40
0.1529682240815632
 40
0.1529682240815632
 40
0.1529682240815632
 40
0.1924673699099895
 40
0.1924673699099895
 40
0.2319665157384158
 40
0.2319665157384158
 40
0.2696121298746964
 40
0.2696121298746964
 40
0.3072577440109771
 40
0.3072577440109771
 40
0.3072577440109771
 40
0.3072577440109771
 10
-62.14695154331315
 20
-17.00000000001199
 30
0.0
 10
-62.18229753510593
 20
-16.87316931677418
 30
0.0
 10
-62.22191445694107
 20
-16.73817252975115
 30
0.0
 10
-62.29845023982282
 20
-16.48969129972306
 30
0.0
 10
-62.33528154513141
 20
-16.37617962633914
 30
0.0
 10
-62.39377851522255
 20
-16.20076488900014
 30
0.0
 10
-62.41979875687537
 20
-16.12549874903743
 30
0.0
 10
-62.4549612231626
 20
-16.02509143011244
 30
0.0
 10
-62.46397492165249
 20
-16.00000000001176
 30
0.0
 10
-62.46397492165249
 20
-16.00000000001173
 30
0.0
  0
ARC
  5
1A4
330
2
100
AcDbEntity
  8
GEB-VERDECKT
 48
25.0
100
AcDbCircle
 10
-76.49999999999997
 20
-21.00000000001728
 30
0.0
 40
13.06324962288852
100
AcDbArc
 50
315.0
 51
337.4956760149038
  0
LINE
  5
1A5
330
2
100
AcDbEntity
  8
GEB-VERDECKT
 48
25.0
100
AcDbLine
 10
-67.26288760732291
 20
-30.23711239269437
 30
0.0
 11
-65.32771285725252
 21
-32.17228714276166
 31
0.0
  0
LINE
  5
1A6
330
2
100
AcDbEntity
  8
GEB-VERDECKT
 48
25.0
100
AcDbLine
 10
-62.46452301470299
 20
-26.00000000001069
 30
0.0
 11
-63.85247059699008
 21
-26.00000000001069
 31
0.0
  0
SPLINE
  5
1A7
330
2
100
AcDbEntity
  8
GEB-VERDECKT
 48
25.0
100
AcDbSpline
210
0.0
220
0.0
230
1.0
 70
    28
 71
     2
 72
     6
 73
     3
 74
     0
 42
0.0000000001
 43
0.0000000001
 40
0.0
 40
0.0
 40
0.0
 40
0.561326194287263
 40
0.561326194287263
 40
0.561326194287263
 10
-65.2894324258446
 20
-26.00000000001725
 30
0.0
 41
1.0
 10
-64.60774186055139
 20
-26.00000000001648
 30
0.0
 41
1.002903287574923
 10
-63.85247059699008
 20
-26.00000000001572
 30
0.0
 41
1.002712972645559
  0
SPLINE
  5
1A8
330
2
100
AcDbEntity
  8
GEB-VERDECKT
 48
25.0
100
AcDbSpline
210
0.0
220
0.0
230
1.0
 70
     8
 71
     3
 72
    10
 73
     6
 74
     0
 42
0.0000000001
 43
0.0000000001
 40
0.0
 40
0.0
 40
0.0
 40
0.0
 40
0.496610125335709
 40
0.496610125335709
 40
1.052443047124921
 40
1.052443047124921
 40
1.052443047124921
 40
1.052443047124921
 10
-65.04422706535982
 20
-27.39067336470305
 30
0.0
 10
-64.58657714657744
 20
-27.43276464967266
 30
0.0
 10
-64.12864035721162
 20
-27.47522891124152
 30
0.0
 10
-63.17417091606552
 20
-27.56422139507697
 30
0.0
 10
-62.6690617002794
 20
-27.61160849947407
 30
0.0
 10
-62.17154127914276
 20
-27.65847360022403
 30
0.0
  0
LINE
  5
1A9
330
2
100
AcDbEntity
  8
GEB-VERDECKT
 48
25.0
100
AcDbLine
 10
-65.2894324258446
 20
-26.00000000001723
 30
0.0
 11
-65.04422706535982
 21
-27.39067336470305
 31
0.0
  0
ELLIPSE
  5
1AA
330
2
100
AcDbEntity
  8
GEB-VERDECKT
 48
25.0
100
AcDbEllipse
 10
-76.52782888543453
 20
-21.00000000001722
 30
0.0
 11
-13.14206985014896
 21
-0.0000001762388819
 31
0.0
210
0.0
220
0.0
230
1.0
 40
0.999997758004412
 41
2.633768519622808
 42
2.75130069027149
  0
LINE
  5
1AB
330
2
100
AcDbEntity
  8
GEB-VERDECKT
 48
25.0
100
AcDbLine
 10
-63.85247059699008
 20
-16.00000000001069
 30
0.0
 11
-62.46442884116163
 21
-16.00000000001069
 31
0.0
  0
ELLIPSE
  5
1AC
330
2
100
AcDbEntity
  8
GEB-VERDECKT
 48
25.0
100
AcDbEllipse
 10
-76.52782888543459
 20
-21.00000000001722
 30
0.0
 11
-13.14206985016343
 21
-0.0000005967843249
 31
0.0
210
0.0
220
0.0
230
0.9999999999999998
 40
0.9999977580022063
 41
3.531884558095265
 42
3.649416728743787
  0
LINE
  5
1AD
330
2
100
AcDbEntity
  8
GEB-VERDECKT
 48
25.0
100
AcDbLine
 10
-65.2894324258446
 20
-16.00000000001725
 30
0.0
 11
-65.04422706535982
 21
-14.6093266353314
 31
0.0
  0
SPLINE
  5
1AE
330
2
100
AcDbEntity
  8
GEB-VERDECKT
 48
25.0
100
AcDbSpline
210
0.0
220
0.0
230
1.0
 70
    28
 71
     2
 72
     6
 73
     3
 74
     0
 42
0.0000000001
 43
0.0000000001
 40
0.4922618882761993
 40
0.4922618882761993
 40
0.4922618882761993
 40
1.053588082563648
 40
1.053588082563648
 40
1.053588082563648
 10
-63.85247059699009
 20
-16.00000000001571
 30
0.0
 41
1.002712972645959
 10
-64.60774186055139
 20
-16.00000000001654
 30
0.0
 41
1.002903287575353
 10
-65.2894324258446
 20
-16.00000000001725
 30
0.0
 41
1.0
  0
SPLINE
  5
1AF
330
2
100
AcDbEntity
  8
GEB-VERDECKT
 48
25.0
100
AcDbSpline
210
0.0
220
0.0
230
1.0
 70
     8
 71
     3
 72
    10
 73
     6
 74
     0
 42
0.0000000001
 43
0.0000000001
 40
0.0
 40
0.0
 40
0.0
 40
0.0
 40
0.5547545270202199
 40
0.5547545270202199
 40
1.051513804832264
 40
1.051513804832264
 40
1.051513804832264
 40
1.051513804832264
 10
-62.17154127914276
 20
-14.34152639980439
 30
0.0
 10
-62.66853564043606
 20
-14.388341947117
 30
0.0
 10
-63.17309649166765
 20
-14.43567780178034
 30
0.0
 10
-64.12755018163699
 20
-14.52467000237351
 30
0.0
 10
-64.58603477416653
 20
-14.56718546692207
 30
0.0
 10
-65.04422706535982
 20
-14.6093266353314
 30
0.0
  0
ARC
  5
1B0
330
2
100
AcDbEntity
  8
GEB-VERDECKT
 48
25.0
100
AcDbCircle
 10
-76.49999999999997
 20
-21.00000000000784
 30
0.0
 40
15.79999999999997
100
AcDbArc
 50
315.0
 51
45.0
  0
LINE
  5
1B1
330
2
100
AcDbEntity
  8
GEB-VERDECKT
 48
25.0
100
AcDbLine
 10
-62.17154127914279
 20
-27.6584736002205
 30
0.0
 11
-62.26877813994494
 21
-27.10701595935657
 31
0.0
  0
SPLINE
  5
1B2
330
2
100
AcDbEntity
  8
GEB-VERDECKT
 48
25.0
100
AcDbSpline
210
0.0
220
0.0
230
1.0
 70
    24
 71
     3
 72
     8
 73
     4
 74
     0
 42
0.0000000001
 43
0.0000000001
 40
0.1428034627928335
 40
0.1428034627928335
 40
0.1428034627928335
 40
0.1428034627928335
 40
0.1987614655853647
 40
0.1987614655853647
 40
0.1987614655853647
 40
0.1987614655853647
 10
-62.26877813994429
 20
-27.10701595935689
 30
0.0
 10
-62.23629992827088
 20
-27.29069330313348
 30
0.0
 10
-62.20382171659747
 20
-27.47437064691008
 30
0.0
 10
-62.17134350492415
 20
-27.65804799068664
 30
0.0
  0
SPLINE
  5
1B3
330
2
100
AcDbEntity
  8
GEB-VERDECKT
 48
25.0
100
AcDbSpline
210
0.0
220
0.0
230
1.0
 70
     8
 71
     3
 72
     8
 73
     4
 74
     0
 42
0.0000000001
 43
0.0000000001
 40
0.0
 40
0.0
 40
0.0
 40
0.0
 40
0.0267669657340523
 40
0.0267669657340523
 40
0.0267669657340523
 40
0.0267669657340523
 10
-62.22953992546758
 20
-24.73443037975722
 30
0.0
 10
-62.25212808220516
 20
-24.82074699463624
 30
0.0
 10
-62.26979985133571
 20
-24.90846678941753
 30
0.0
 10
-62.28300757820253
 20
-25.00000000001037
 30
0.0
  0
SPLINE
  5
1B4
330
2
100
AcDbEntity
  8
GEB-VERDECKT
 48
25.0
100
AcDbSpline
210
0.0
220
0.0
230
1.0
 70
     8
 71
     3
 72
    16
 73
    12
 74
     0
 42
0.0000000001
 43
0.0000000001
 40
0.0136831908681082
 40
0.0136831908681082
 40
0.0136831908681082
 40
0.0136831908681082
 40
0.0403676035692466
 40
0.0403676035692466
 40
0.081236948002065
 40
0.081236948002065
 40
0.1211764385122848
 40
0.1211764385122848
 40
0.1469473844068598
 40
0.1469473844068598
 40
0.1724074894212375
 40
0.1724074894212375
 40
0.1724074894212375
 40
0.1724074894212375
 10
-62.28300757820253
 20
-25.00000000001037
 30
0.0
 10
-62.29566062813154
 20
-25.0876891455747
 30
0.0
 10
-62.30930207628396
 20
-25.17508113503197
 30
0.0
 10
-62.34485553582453
 20
-25.38983354311006
 30
0.0
 10
-62.36696566747062
 20
-25.51144948647755
 30
0.0
 10
-62.40704701826428
 20
-25.72098004323243
 30
0.0
 10
-62.42470286655913
 20
-25.8077887725409
 30
0.0
 10
-62.44663096189333
 20
-25.9142585239041
 30
0.0
 10
-62.45333579855236
 20
-25.94635660614824
 30
0.0
 10
-62.46227724605228
 20
-25.98920336389497
 30
0.0
 10
-62.46452301470299
 20
-26.00000000001063
 30
0.0
 10
-62.46452301470299
 20
-26.00000000001069
 30
0.0
  0
SPLINE
  5
1B5
330
2
100
AcDbEntity
  8
GEB-VERDECKT
 48
25.0
100
AcDbSpline
210
0.0
220
0.0
230
1.0
 70
     8
 71
     3
 72
    16
 73
    12
 74
     0
 42
0.0000000001
 43
0.0000000001
 40
0.0
 40
0.0
 40
0.0
 40
0.0
 40
0.0393266642598639
 40
0.0393266642598639
 40
0.0770927003301671
 40
0.0770927003301671
 40
0.11429027185414
 40
0.11429027185414
 40
0.1443854110165249
 40
0.1443854110165249
 40
0.1586800458003431
 40
0.1586800458003431
 40
0.1586800458003431
 40
0.1586800458003431
 10
-62.46442884116163
 20
-16.00000000001069
 30
0.0
 10
-62.46442884116163
 20
-16.00000000001063
 30
0.0
 10
-62.45892977715138
 20
-16.0257655515538
 30
0.0
 10
-62.43869647240074
 20
-16.12350480994848
 30
0.0
 10
-62.42455710535816
 20
-16.1926383049655
 30
0.0
 10
-62.39082152220979
 20
-16.36429790367825
 30
0.0
 10
-62.37157953371542
 20
-16.4649109213764
 30
0.0
 10
-62.33572599621215
 20
-16.66551045907309
 30
0.0
 10
-62.31952987135111
 20
-16.76103163182654
 30
0.0
 10
-62.29688210286631
 20
-16.90587996519542
 30
0.0
 10
-62.28980134514518
 20
-16.95291924910401
 30
0.0
 10
-62.28301109203707
 20
-17.0000000000104
 30
0.0
  0
SPLINE
  5
1B6
330
2
100
AcDbEntity
  8
GEB-VERDECKT
 48
25.0
100
AcDbSpline
210
0.0
220
0.0
230
1.0
 70
     8
 71
     3
 72
     8
 73
     4
 74
     0
 42
0.0000000001
 43
0.0000000001
 40
0.0584232393371448
 40
0.0584232393371448
 40
0.0584232393371448
 40
0.0584232393371448
 40
0.0977834980903327
 40
0.0977834980903327
 40
0.0977834980903327
 40
0.0977834980903327
 10
-62.28301109203707
 20
-17.0000000000104
 30
0.0
 10
-62.26913833565737
 20
-17.09618784118478
 30
0.0
 10
-62.25103518975203
 20
-17.18342929909798
 30
0.0
 10
-62.22953992546758
 20
-17.26556962026353
 30
0.0
  0
LINE
  5
1B7
330
2
100
AcDbEntity
  8
GEB-VERDECKT
 48
25.0
100
AcDbLine
 10
-62.17196950420145
 20
-14.34060497407429
 30
0.0
 11
-62.46442884116163
 21
-16.00000000001069
 31
0.0
  0
LINE
  5
1B8
330
2
100
AcDbEntity
  8
GEB-VERDECKT
 48
25.0
100
AcDbLine
 10
-62.17154127914279
 20
-14.34152639980087
 30
0.0
 11
-62.46397492165249
 21
-16.00000000001071
 31
0.0
  0
LINE
  5
1B9
330
2
100
AcDbEntity
  8
GEB-VERDECKT
 48
25.0
100
AcDbLine
 10
-62.46442884116163
 20
-16.00000000001069
 30
0.0
 11
-62.46397492165249
 21
-16.00000000001071
 31
0.0
  0
ARC
  5
1BA
330
2
100
AcDbEntity
  8
GEB-VERDECKT
 48
25.0
100
AcDbCircle
 10
-76.49999999999997
 20
-21.0000000000104
 30
0.0
 40
14.75099999999998
100
AcDbArc
 50
345.3351462901593
 51
14.66485370984073
  0
LINE
  5
1BB
330
2
100
AcDbEntity
  8
GEB-VERDECKT
 48
25.0
100
AcDbLine
 10
-62.26877813994494
 20
-27.10701595935657
 30
0.0
 11
-62.46397492165249
 21
-26.00000000001069
 31
0.0
  0
LINE
  5
1BC
330
2
100
AcDbEntity
  8
GEB-VERDECKT
 48
25.0
100
AcDbLine
 10
-62.46452301470299
 20
-26.00000000001069
 30
0.0
 11
-62.26877813994494
 21
-27.10701595935657
 31
0.0
  0
LINE
  5
1BD
330
2
100
AcDbEntity
  8
GEB-VERDECKT
 48
25.0
100
AcDbLine
 10
-62.46397492165249
 20
-26.00000000001069
 30
0.0
 11
-62.46452301470299
 21
-26.00000000001069
 31
0.0
  0
LINE
  5
1BE
330
2
100
AcDbEntity
  8
GEB-VERDECKT
 48
25.0
100
AcDbLine
 10
-67.26288760732291
 20
-11.76288760734021
 30
0.0
 11
-65.32771285725252
 21
-9.827712857266817
 31
0.0
  0
LINE
  5
1BF
330
2
100
AcDbEntity
  8
GEB-VERDECKT
 48
25.0
100
AcDbLine
 10
-65.32771285725255
 20
-9.827712857260422
 30
0.0
 11
-65.25700217913388
 21
-9.757002179141778
 31
0.0
  0
ARC
  5
1C0
330
2
100
AcDbEntity
  8
GEB-VERDECKT
 48
25.0
100
AcDbCircle
 10
-76.49999999999997
 20
-21.00000000000787
 30
0.0
 40
15.89999999999998
100
AcDbArc
 50
45.0
 51
135.0
  0
ARC
  5
1C1
330
2
100
AcDbEntity
  8
GEB-VERDECKT
 48
25.0
100
AcDbCircle
 10
-76.49999999999997
 20
-21.00000000001731
 30
0.0
 40
13.15672436936377
100
AcDbArc
 50
45.0
 51
135.0
  0
LINE
  5
1C2
330
2
100
AcDbEntity
  8
GEB-VERDECKT
 48
25.0
100
AcDbLine
 10
-87.74299782086606
 20
-9.757002179141778
 30
0.0
 11
-87.67228714274741
 21
-9.827712857260422
 31
0.0
  0
LINE
  5
1C3
330
2
100
AcDbEntity
  8
GEB-VERDECKT
 48
25.0
100
AcDbLine
 10
-87.67228714274741
 20
-9.82771285726676
 30
0.0
 11
-85.73711239267703
 21
-11.76288760734021
 31
0.0
  0
LINE
  5
1C4
330
2
100
AcDbEntity
  8
GEB-VERDECKT
 48
25.0
100
AcDbLine
 10
-75.93333333333333
 20
-19.39722462932087
 30
0.0
 11
-75.93333333333333
 21
-7.411810683957696
 31
0.0
  0
ARC
  5
1C5
330
2
100
AcDbEntity
  8
GEB-VERDECKT
 48
25.0
100
AcDbCircle
 10
-76.49999999999997
 20
-21.0000000000104
 30
0.0
 40
1.699999999999997
100
AcDbArc
 50
109.4712206344899
 51
70.52877936551012
  0
LINE
  5
1C6
330
2
100
AcDbEntity
  8
GEB-VERDECKT
 48
25.0
100
AcDbLine
 10
-77.06666666666666
 20
-7.411810683957696
 30
0.0
 11
-77.06666666666666
 21
-19.39722462932087
 31
0.0
  0
ARC
  5
1C7
330
2
100
AcDbEntity
  8
GEB-VERDECKT
 48
25.0
100
AcDbCircle
 10
76.5
 20
-21.00000000001725
 30
0.0
 40
12.27504889337325
100
AcDbArc
 50
155.9627582805286
 51
204.0372417194713
  0
ARC
  5
1C8
330
2
100
AcDbEntity
  8
GEB-VERDECKT
 48
25.0
100
AcDbCircle
 10
76.5
 20
-21.00000000001202
 30
0.0
 40
14.89999999999997
100
AcDbArc
 50
164.4275671503858
 51
195.5724328496141
  0
SPLINE
  5
1C9
330
2
100
AcDbEntity
  8
GEB-VERDECKT
 48
25.0
100
AcDbSpline
210
0.0
220
0.0
230
1.0
 70
    28
 71
     2
 72
     6
 73
     3
 74
     0
 42
0.0000000001
 43
0.0000000001
 40
0.0
 40
0.0
 40
0.0
 40
0.5613261942872661
 40
0.5613261942872661
 40
0.5613261942872661
 10
65.2894324258446
 20
-16.00000000001725
 30
0.0
 41
1.0
 10
64.60774186055141
 20
-16.00000000001654
 30
0.0
 41
1.002903287574923
 10
63.85247059699015
 20
-16.00000000001571
 30
0.0
 41
1.002712972645559
  0
SPLINE
  5
1CA
330
2
100
AcDbEntity
  8
GEB-VERDECKT
 48
25.0
100
AcDbSpline
210
0.0
220
0.0
230
1.0
 70
     8
 71
     3
 72
    10
 73
     6
 74
     0
 42
0.0000000001
 43
0.0000000001
 40
0.0
 40
0.0
 40
0.0
 40
0.0
 40
0.4966101253357071
 40
0.4966101253357071
 40
1.052443047124898
 40
1.052443047124898
 40
1.052443047124898
 40
1.052443047124898
 10
65.04422706535985
 20
-14.6093266353314
 30
0.0
 10
64.5865771465775
 20
-14.56723535036087
 30
0.0
 10
64.12864035721162
 20
-14.52477108879105
 30
0.0
 10
63.17417091606557
 20
-14.43577860495361
 30
0.0
 10
62.66906170027943
 20
-14.38839150055543
 30
0.0
 10
62.17154127914279
 20
-14.34152639980442
 30
0.0
  0
LINE
  5
1CB
330
2
100
AcDbEntity
  8
GEB-VERDECKT
 48
25.0
100
AcDbLine
 10
65.2894324258446
 20
-16.00000000001725
 30
0.0
 11
65.04422706535985
 21
-14.6093266353314
 31
0.0
  0
ELLIPSE
  5
1CC
330
2
100
AcDbEntity
  8
GEB-VERDECKT
 48
25.0
100
AcDbEllipse
 10
76.52782888543459
 20
-21.00000000001722
 30
0.0
 11
13.14206985013445
 21
0.0000002444130673
 31
0.0
210
0.0
220
0.0
230
1.0
 40
0.9999977580066177
 41
2.633768514436866
 42
2.751300685085409
  0
LINE
  5
1CD
330
2
100
AcDbEntity
  8
GEB-VERDECKT
 48
25.0
100
AcDbLine
 10
62.46452301470299
 20
-16.00000000001071
 30
0.0
 11
63.85247059699015
 21
-16.00000000001071
 31
0.0
  0
SPLINE
  5
1CE
330
2
100
AcDbEntity
  8
GEB-VERDECKT
 48
25.0
100
AcDbSpline
210
0.0
220
0.0
230
1.0
 70
     8
 71
     3
 72
    14
 73
    10
 74
     0
 42
0.0000000001
 43
0.0000000001
 40
0.3072577440109771
 40
0.3072577440109771
 40
0.3072577440109771
 40
0.3072577440109771
 40
0.3453821699580131
 40
0.3453821699580131
 40
0.383506595905049
 40
0.383506595905049
 40
0.4225281117749357
 40
0.4225281117749357
 40
0.4615496276448223
 40
0.4615496276448223
 40
0.4615496276448223
 40
0.4615496276448223
 10
62.46397492165255
 20
-16.00000000001173
 30
0.0
 10
62.46397492165255
 20
-16.00000000001176
 30
0.0
 10
62.45473137998317
 20
-16.02572703932486
 30
0.0
 10
62.41876774781729
 20
-16.12846427445274
 30
0.0
 10
62.39218136409107
 20
-16.20542470263271
 30
0.0
 10
62.3332481553632
 20
-16.38241992009222
 30
0.0
 10
62.29674277185996
 20
-16.49510680132289
 30
0.0
 10
62.22101183591906
 20
-16.74123543397169
 30
0.0
 10
62.18187012574714
 20
-16.87470297358388
 30
0.0
 10
62.14695154331315
 20
-17.00000000001205
 30
0.0
  0
SPLINE
  5
1CF
330
2
100
AcDbEntity
  8
GEB-VERDECKT
 48
25.0
100
AcDbSpline
210
0.0
220
0.0
230
1.0
 70
     8
 71
     3
 72
    14
 73
    10
 74
     0
 42
0.0000000001
 43
0.0000000001
 40
0.1529682240815632
 40
0.1529682240815632
 40
0.1529682240815632
 40
0.1529682240815632
 40
0.1924673699099895
 40
0.1924673699099895
 40
0.2319665157384157
 40
0.2319665157384157
 40
0.2696121298746964
 40
0.2696121298746964
 40
0.3072577440109771
 40
0.3072577440109771
 40
0.3072577440109771
 40
0.3072577440109771
 10
62.14695154331315
 20
-25.00000000001199
 30
0.0
 10
62.18229753510598
 20
-25.12683068324987
 30
0.0
 10
62.22191445694107
 20
-25.26182747027287
 30
0.0
 10
62.2984502398229
 20
-25.51030870030087
 30
0.0
 10
62.33528154513146
 20
-25.62382037368477
 30
0.0
 10
62.39377851522255
 20
-25.79923511102365
 30
0.0
 10
62.41979875687542
 20
-25.8745012509863
 30
0.0
 10
62.45496122316263
 20
-25.97490856991115
 30
0.0
 10
62.46397492165255
 20
-26.00000000001174
 30
0.0
 10
62.46397492165255
 20
-26.00000000001171
 30
0.0
  0
LINE
  5
1D0
330
2
100
AcDbEntity
  8
GEB-VERDECKT
 48
25.0
100
AcDbLine
 10
63.85247059699015
 20
-26.00000000001069
 30
0.0
 11
62.46442884116163
 21
-26.00000000001069
 31
0.0
  0
ELLIPSE
  5
1D1
330
2
100
AcDbEntity
  8
GEB-VERDECKT
 48
25.0
100
AcDbEllipse
 10
76.52782888543459
 20
-21.00000000001722
 30
0.0
 11
13.14206985013445
 21
0.0000002444130687
 31
0.0
210
0.0
220
0.0
230
1.0
 40
0.9999977580066177
 41
3.531884584903039
 42
3.649416755551382
  0
LINE
  5
1D2
330
2
100
AcDbEntity
  8
GEB-VERDECKT
 48
25.0
100
AcDbLine
 10
65.2894324258446
 20
-26.00000000001723
 30
0.0
 11
65.04422706535985
 21
-27.39067336470305
 31
0.0
  0
SPLINE
  5
1D3
330
2
100
AcDbEntity
  8
GEB-VERDECKT
 48
25.0
100
AcDbSpline
210
0.0
220
0.0
230
1.0
 70
    28
 71
     2
 72
     6
 73
     3
 74
     0
 42
0.0000000001
 43
0.0000000001
 40
0.4922618882761959
 40
0.4922618882761959
 40
0.4922618882761959
 40
1.053588082563648
 40
1.053588082563648
 40
1.053588082563648
 10
63.85247059699015
 20
-26.00000000001572
 30
0.0
 41
1.00271297264596
 10
64.60774186055141
 20
-26.00000000001648
 30
0.0
 41
1.002903287575353
 10
65.2894324258446
 20
-26.00000000001723
 30
0.0
 41
1.0
  0
SPLINE
  5
1D4
330
2
100
AcDbEntity
  8
GEB-VERDECKT
 48
25.0
100
AcDbSpline
210
0.0
220
0.0
230
1.0
 70
     8
 71
     3
 72
    10
 73
     6
 74
     0
 42
0.0000000001
 43
0.0000000001
 40
0.0
 40
0.0
 40
0.0
 40
0.0
 40
0.5547545270202581
 40
0.5547545270202581
 40
1.051513804832344
 40
1.051513804832344
 40
1.051513804832344
 40
1.051513804832344
 10
62.17154127914279
 20
-27.65847360022403
 30
0.0
 10
62.66853564043618
 20
-27.61165805291251
 30
0.0
 10
63.17309649166765
 20
-27.56432219825018
 30
0.0
 10
64.12755018163699
 20
-27.475329997659
 30
0.0
 10
64.58603477416659
 20
-27.43281453311144
 30
0.0
 10
65.04422706535985
 20
-27.39067336470305
 30
0.0
  0
CIRCLE
  5
1D5
330
2
100
AcDbEntity
  8
GEB-VERDECKT
 48
25.0
100
AcDbCircle
 10
76.5
 20
-21.0000000000162
 30
0.0
 40
10.24999999999998
  0
CIRCLE
  5
1D6
330
2
100
AcDbEntity
  8
GEB-VERDECKT
 48
25.0
100
AcDbCircle
 10
76.5
 20
-21.00000000001569
 30
0.0
 40
10.89807903868639
  0
CIRCLE
  5
1D7
330
2
100
AcDbEntity
  8
GEB-VERDECKT
 48
25.0
100
AcDbCircle
 10
76.5
 20
-21.00000000001285
 30
0.0
 40
12.24999999999997
  0
CIRCLE
  5
1D8
330
2
100
AcDbEntity
  8
GEB-VERDECKT
 48
25.0
100
AcDbCircle
 10
76.5
 20
-21.00000000000804
 30
0.0
 40
13.59999999999997
  0
CIRCLE
  5
1D9
330
2
100
AcDbEntity
  8
GEB-VERDECKT
 48
25.0
100
AcDbCircle
 10
76.5
 20
-21.00000000000784
 30
0.0
 40
13.99999999999997
  0
CIRCLE
  5
1DA
330
2
100
AcDbEntity
  8
GEB-VERDECKT
 48
25.0
100
AcDbCircle
 10
76.5
 20
-21.00000000001799
 30
0.0
 40
13.01873492709982
  0
ARC
  5
1DB
330
2
100
AcDbEntity
  8
GEB-VERDECKT
 48
25.0
100
AcDbCircle
 10
76.5
 20
-21.00000000001731
 30
0.0
 40
13.06324962288853
100
AcDbArc
 50
135.0
 51
157.4956760149038
  0
ARC
  5
1DC
330
2
100
AcDbEntity
  8
GEB-VERDECKT
 48
25.0
100
AcDbCircle
 10
76.50000000000005
 20
-21.00000000001725
 30
0.0
 40
13.06324962288856
100
AcDbArc
 50
202.5043239850961
 51
225.0
  0
ARC
  5
1DD
330
2
100
AcDbEntity
  8
GEB-VERDECKT
 48
25.0
100
AcDbCircle
 10
76.5
 20
-21.00000000000784
 30
0.0
 40
15.79999999999996
100
AcDbArc
 50
135.0
 51
225.0
  0
LINE
  5
1DE
330
2
100
AcDbEntity
  8
GEB-VERDECKT
 48
25.0
100
AcDbLine
 10
62.17154127914284
 20
-14.34152639980087
 30
0.0
 11
62.26877813994469
 21
-14.89298404066318
 31
0.0
  0
SPLINE
  5
1DF
330
2
100
AcDbEntity
  8
GEB-VERDECKT
 48
25.0
100
AcDbSpline
210
0.0
220
0.0
230
1.0
 70
    24
 71
     3
 72
     8
 73
     4
 74
     0
 42
0.0000000001
 43
0.0000000001
 40
0.142803462792876
 40
0.142803462792876
 40
0.142803462792876
 40
0.142803462792876
 40
0.1987614655853647
 40
0.1987614655853647
 40
0.1987614655853647
 40
0.1987614655853647
 10
62.26877813994423
 20
-14.89298404066406
 30
0.0
 10
62.23629992827085
 20
-14.70930669688758
 30
0.0
 10
62.20382171659753
 20
-14.52562935311113
 30
0.0
 10
62.17134350492415
 20
-14.3419520093347
 30
0.0
  0
SPLINE
  5
1E0
330
2
100
AcDbEntity
  8
GEB-VERDECKT
 48
25.0
100
AcDbSpline
210
0.0
220
0.0
230
1.0
 70
     8
 71
     3
 72
     8
 73
     4
 74
     0
 42
0.0000000001
 43
0.0000000001
 40
0.0
 40
0.0
 40
0.0
 40
0.0
 40
0.0267669657340522
 40
0.0267669657340522
 40
0.0267669657340522
 40
0.0267669657340522
 10
62.22953992546758
 20
-17.26556962026353
 30
0.0
 10
62.25212808220522
 20
-17.17925300538454
 30
0.0
 10
62.26979985133579
 20
-17.09153321060324
 30
0.0
 10
62.2830075782025
 20
-17.0000000000104
 30
0.0
  0
SPLINE
  5
1E1
330
2
100
AcDbEntity
  8
GEB-VERDECKT
 48
25.0
100
AcDbSpline
210
0.0
220
0.0
230
1.0
 70
     8
 71
     3
 72
    16
 73
    12
 74
     0
 42
0.0000000001
 43
0.0000000001
 40
0.0136831908681082
 40
0.0136831908681082
 40
0.0136831908681082
 40
0.0136831908681082
 40
0.0403676035692468
 40
0.0403676035692468
 40
0.0812369480020667
 40
0.0812369480020667
 40
0.1211764385122882
 40
0.1211764385122882
 40
0.1469473844068602
 40
0.1469473844068602
 40
0.1724074894212338
 40
0.1724074894212338
 40
0.1724074894212338
 40
0.1724074894212338
 10
62.2830075782025
 20
-17.0000000000104
 30
0.0
 10
62.29566062813154
 20
-16.91231085444605
 30
0.0
 10
62.30930207628398
 20
-16.8249188649888
 30
0.0
 10
62.34485553582459
 20
-16.61016645691075
 30
0.0
 10
62.36696566747065
 20
-16.48855051354331
 30
0.0
 10
62.40704701826434
 20
-16.27901995678852
 30
0.0
 10
62.42470286655919
 20
-16.19221122748013
 30
0.0
 10
62.44663096189339
 20
-16.08574147611705
 30
0.0
 10
62.45333579855241
 20
-16.05364339387293
 30
0.0
 10
62.46227724605233
 20
-16.01079663612626
 30
0.0
 10
62.46452301470299
 20
-16.00000000001069
 30
0.0
 10
62.46452301470299
 20
-16.00000000001071
 30
0.0
  0
SPLINE
  5
1E2
330
2
100
AcDbEntity
  8
GEB-VERDECKT
 48
25.0
100
AcDbSpline
210
0.0
220
0.0
230
1.0
 70
     8
 71
     3
 72
    16
 73
    12
 74
     0
 42
0.0000000001
 43
0.0000000001
 40
0.0
 40
0.0
 40
0.0
 40
0.0
 40
0.0393266642598616
 40
0.0393266642598616
 40
0.0770927003301641
 40
0.0770927003301641
 40
0.1142902718541408
 40
0.1142902718541408
 40
0.1443854110165289
 40
0.1443854110165289
 40
0.1586800458003512
 40
0.1586800458003512
 40
0.1586800458003512
 40
0.1586800458003512
 10
62.46442884116163
 20
-26.00000000001069
 30
0.0
 10
62.46442884116163
 20
-26.00000000001063
 30
0.0
 10
62.45892977715135
 20
-25.9742344484674
 30
0.0
 10
62.43869647240074
 20
-25.87649519007257
 30
0.0
 10
62.42455710535813
 20
-25.80736169505548
 30
0.0
 10
62.39082152220982
 20
-25.63570209634264
 30
0.0
 10
62.37157953371542
 20
-25.53508907864449
 30
0.0
 10
62.3357259962122
 20
-25.33448954094769
 30
0.0
 10
62.31952987135116
 20
-25.23896836819421
 30
0.0
 10
62.29688210286633
 20
-25.09412003482535
 30
0.0
 10
62.28980134514523
 20
-25.04708075091674
 30
0.0
 10
62.28301109203704
 20
-25.00000000001037
 30
0.0
  0
SPLINE
  5
1E3
330
2
100
AcDbEntity
  8
GEB-VERDECKT
 48
25.0
100
AcDbSpline
210
0.0
220
0.0
230
1.0
 70
     8
 71
     3
 72
     8
 73
     4
 74
     0
 42
0.0000000001
 43
0.0000000001
 40
0.0584232393371453
 40
0.0584232393371453
 40
0.0584232393371453
 40
0.0584232393371453
 40
0.0977834980903351
 40
0.0977834980903351
 40
0.0977834980903351
 40
0.0977834980903351
 10
62.28301109203704
 20
-25.00000000001037
 30
0.0
 10
62.26913833565737
 20
-24.90381215883593
 30
0.0
 10
62.25103518975203
 20
-24.81657070092274
 30
0.0
 10
62.22953992546758
 20
-24.73443037975722
 30
0.0
  0
LINE
  5
1E4
330
2
100
AcDbEntity
  8
GEB-VERDECKT
 48
25.0
100
AcDbLine
 10
62.17196950420145
 20
-27.65939502594705
 30
0.0
 11
62.46442884116163
 21
-26.00000000001069
 31
0.0
  0
LINE
  5
1E5
330
2
100
AcDbEntity
  8
GEB-VERDECKT
 48
25.0
100
AcDbLine
 10
62.17154127914284
 20
-27.6584736002205
 30
0.0
 11
62.46397492165255
 21
-26.00000000001069
 31
0.0
  0
LINE
  5
1E6
330
2
100
AcDbEntity
  8
GEB-VERDECKT
 48
25.0
100
AcDbLine
 10
62.46442884116163
 20
-26.00000000001069
 30
0.0
 11
62.46397492165255
 21
-26.00000000001069
 31
0.0
  0
ARC
  5
1E7
330
2
100
AcDbEntity
  8
GEB-VERDECKT
 48
25.0
100
AcDbCircle
 10
76.5
 20
-21.0000000000104
 30
0.0
 40
14.75099999999995
100
AcDbArc
 50
165.3351462901592
 51
194.6648537098407
  0
LINE
  5
1E8
330
2
100
AcDbEntity
  8
GEB-VERDECKT
 48
25.0
100
AcDbLine
 10
62.26877813994469
 20
-14.89298404066318
 30
0.0
 11
62.46397492165255
 21
-16.00000000001071
 31
0.0
  0
LINE
  5
1E9
330
2
100
AcDbEntity
  8
GEB-VERDECKT
 48
25.0
100
AcDbLine
 10
62.46452301470299
 20
-16.00000000001071
 30
0.0
 11
62.26877813994469
 21
-14.89298404066318
 31
0.0
  0
LINE
  5
1EA
330
2
100
AcDbEntity
  8
GEB-VERDECKT
 48
25.0
100
AcDbLine
 10
62.46397492165255
 20
-16.00000000001071
 30
0.0
 11
62.46452301470299
 21
-16.00000000001071
 31
0.0
  0
LINE
  5
1EB
330
2
100
AcDbEntity
  8
GEB-VERDECKT
 48
25.0
100
AcDbLine
 10
87.74299782086609
 20
-32.24299782087394
 30
0.0
 11
87.6722871427474
 21
-32.1722871427553
 31
0.0
  0
LINE
  5
1EC
330
2
100
AcDbEntity
  8
GEB-VERDECKT
 48
25.0
100
AcDbLine
 10
67.26288760732291
 20
-30.23711239269434
 30
0.0
 11
65.32771285725255
 21
-32.17228714276163
 31
0.0
  0
LINE
  5
1ED
330
2
100
AcDbEntity
  8
GEB-VERDECKT
 48
25.0
100
AcDbLine
 10
65.32771285725255
 20
-32.1722871427553
 30
0.0
 11
65.2570021791339
 21
-32.24299782087394
 31
0.0
  0
ARC
  5
1EE
330
2
100
AcDbEntity
  8
GEB-VERDECKT
 48
25.0
100
AcDbCircle
 10
76.5
 20
-21.00000000000784
 30
0.0
 40
15.89999999999996
100
AcDbArc
 50
225.0
 51
315.0
  0
ARC
  5
1EF
330
2
100
AcDbEntity
  8
GEB-VERDECKT
 48
25.0
100
AcDbCircle
 10
76.5
 20
-21.00000000001731
 30
0.0
 40
13.15672436936376
100
AcDbArc
 50
225.0
 51
315.0
  0
LINE
  5
1F0
330
2
100
AcDbEntity
  8
GEB-VERDECKT
 48
25.0
100
AcDbLine
 10
62.80538261953211
 20
-28.88019383027716
 30
0.0
 11
62.37200865179585
 21
-29.129567052754
 31
0.0
  0
LINE
  5
1F1
330
2
100
AcDbEntity
  8
GEB-VERDECKT
 48
25.0
100
AcDbLine
 10
63.47100057816414
 20
-29.93785064016979
 30
0.0
 11
63.05869046987817
 21
-30.2206940148584
 31
0.0
  0
LINE
  5
1F2
330
2
100
AcDbEntity
  8
GEB-VERDECKT
 48
25.0
100
AcDbLine
 10
64.21812468763107
 20
-30.93959449935534
 30
0.0
 11
63.82945774736629
 21
-31.25413862908147
 31
0.0
  0
SPLINE
  5
1F3
330
2
100
AcDbEntity
  8
GEB-VERDECKT
 48
25.0
100
AcDbSpline
210
0.0
220
0.0
230
1.0
 70
     8
 71
     3
 72
     8
 73
     4
 74
     0
 42
0.0000000001
 43
0.0000000001
 40
0.0
 40
0.0
 40
0.0
 40
0.0
 40
0.2500000000000002
 40
0.2500000000000002
 40
0.2500000000000002
 40
0.2500000000000002
 10
62.37200865179585
 20
-29.129567052754
 30
0.0
 10
62.80078328537939
 20
-29.87471427576054
 30
0.0
 10
63.28862765089628
 20
-30.58586108411132
 30
0.0
 10
63.82945774736629
 20
-31.25413862908144
 30
0.0
  0
LINE
  5
1F4
330
2
100
AcDbEntity
  8
GEB-VERDECKT
 48
25.0
100
AcDbLine
 10
90.19461738046784
 20
-13.1198061697421
 30
0.0
 11
90.62799134820414
 21
-12.8704329472653
 31
0.0
  0
LINE
  5
1F5
330
2
100
AcDbEntity
  8
GEB-VERDECKT
 48
25.0
100
AcDbLine
 10
89.52899942183586
 20
-12.06214935985085
 30
0.0
 11
89.94130953012183
 21
-11.77930598516226
 31
0.0
  0
LINE
  5
1F6
330
2
100
AcDbEntity
  8
GEB-VERDECKT
 48
25.0
100
AcDbLine
 10
88.78187531236887
 20
-11.06040550066396
 30
0.0
 11
89.1705422526337
 21
-10.7458613709378
 31
0.0
  0
SPLINE
  5
1F7
330
2
100
AcDbEntity
  8
GEB-VERDECKT
 48
25.0
100
AcDbSpline
210
0.0
220
0.0
230
1.0
 70
     8
 71
     3
 72
     8
 73
     4
 74
     0
 42
0.0000000001
 43
0.0000000001
 40
0.0
 40
0.0
 40
0.0
 40
0.0
 40
0.2500000000000002
 40
0.2500000000000002
 40
0.2500000000000002
 40
0.2500000000000002
 10
90.62799134820414
 20
-12.87043294726527
 30
0.0
 10
90.19921671462061
 20
-12.12528572425873
 30
0.0
 10
89.71137234910372
 20
-11.41413891590798
 30
0.0
 10
89.1705422526337
 20
-10.74586137093786
 30
0.0
  0
ARC
  5
1F8
330
2
100
AcDbEntity
  8
GEB-VERDECKT
 48
25.0
100
AcDbCircle
 10
76.5
 20
-21.00000000001728
 30
0.0
 40
13.06324962288847
100
AcDbArc
 50
22.50432398509614
 51
45.0
  0
ARC
  5
1F9
330
2
100
AcDbEntity
  8
GEB-VERDECKT
 48
25.0
100
AcDbCircle
 10
76.5
 20
-21.00000000001725
 30
0.0
 40
12.27504889337325
100
AcDbArc
 50
335.9627582805286
 51
24.03724171947136
  0
ARC
  5
1FA
330
2
100
AcDbEntity
  8
GEB-VERDECKT
 48
25.0
100
AcDbCircle
 10
76.5
 20
-21.00000000001202
 30
0.0
 40
14.89999999999997
100
AcDbArc
 50
344.4275671503859
 51
15.57243284961413
  0
SPLINE
  5
1FB
330
2
100
AcDbEntity
  8
GEB-VERDECKT
 48
25.0
100
AcDbSpline
210
0.0
220
0.0
230
1.0
 70
     8
 71
     3
 72
    14
 73
    10
 74
     0
 42
0.0000000001
 43
0.0000000001
 40
0.3072577440109772
 40
0.3072577440109772
 40
0.3072577440109772
 40
0.3072577440109772
 40
0.3453821699580131
 40
0.3453821699580131
 40
0.383506595905049
 40
0.383506595905049
 40
0.4225281117749358
 40
0.4225281117749358
 40
0.4615496276448225
 40
0.4615496276448225
 40
0.4615496276448225
 40
0.4615496276448225
 10
90.53602507834744
 20
-26.00000000001171
 30
0.0
 10
90.53602507834744
 20
-26.00000000001174
 30
0.0
 10
90.54526862001678
 20
-25.9742729606987
 30
0.0
 10
90.5812322521827
 20
-25.87153572557099
 30
0.0
 10
90.60781863590893
 20
-25.79457529739114
 30
0.0
 10
90.66675184463674
 20
-25.61758007993172
 30
0.0
 10
90.70325722814004
 20
-25.50489319870107
 30
0.0
 10
90.77898816408088
 20
-25.25876456605232
 30
0.0
 10
90.81812987425285
 20
-25.12529702644016
 30
0.0
 10
90.85304845668686
 20
-25.00000000001199
 30
0.0
  0
SPLINE
  5
1FC
330
2
100
AcDbEntity
  8
GEB-VERDECKT
 48
25.0
100
AcDbSpline
210
0.0
220
0.0
230
1.0
 70
     8
 71
     3
 72
    14
 73
    10
 74
     0
 42
0.0000000001
 43
0.0000000001
 40
0.1529682240815632
 40
0.1529682240815632
 40
0.1529682240815632
 40
0.1529682240815632
 40
0.1924673699099895
 40
0.1924673699099895
 40
0.2319665157384158
 40
0.2319665157384158
 40
0.2696121298746964
 40
0.2696121298746964
 40
0.3072577440109771
 40
0.3072577440109771
 40
0.3072577440109771
 40
0.3072577440109771
 10
90.85304845668686
 20
-17.00000000001205
 30
0.0
 10
90.81770246489401
 20
-16.87316931677418
 30
0.0
 10
90.77808554305892
 20
-16.73817252975115
 30
0.0
 10
90.70154976017709
 20
-16.48969129972306
 30
0.0
 10
90.66471845486853
 20
-16.37617962633914
 30
0.0
 10
90.60622148477746
 20
-16.20076488900014
 30
0.0
 10
90.58020124312458
 20
-16.12549874903743
 30
0.0
 10
90.54503877683737
 20
-16.02509143011246
 30
0.0
 10
90.53602507834744
 20
-16.00000000001176
 30
0.0
 10
90.53602507834744
 20
-16.00000000001173
 30
0.0
  0
ARC
  5
1FD
330
2
100
AcDbEntity
  8
GEB-VERDECKT
 48
25.0
100
AcDbCircle
 10
76.5
 20
-21.00000000001728
 30
0.0
 40
13.06324962288851
100
AcDbArc
 50
315.0
 51
337.4956760149038
  0
LINE
  5
1FE
330
2
100
AcDbEntity
  8
GEB-VERDECKT
 48
25.0
100
AcDbLine
 10
85.73711239267709
 20
-30.23711239269434
 30
0.0
 11
87.67228714274745
 21
-32.17228714276163
 31
0.0
  0
LINE
  5
1FF
330
2
100
AcDbEntity
  8
GEB-VERDECKT
 48
25.0
100
AcDbLine
 10
90.53547698529701
 20
-26.00000000001069
 30
0.0
 11
89.14752940300985
 21
-26.00000000001069
 31
0.0
  0
SPLINE
  5
200
330
2
100
AcDbEntity
  8
GEB-VERDECKT
 48
25.0
100
AcDbSpline
210
0.0
220
0.0
230
1.0
 70
    28
 71
     2
 72
     6
 73
     3
 74
     0
 42
0.0000000001
 43
0.0000000001
 40
0.0
 40
0.0
 40
0.0
 40
0.561326194287263
 40
0.561326194287263
 40
0.561326194287263
 10
87.71056757415539
 20
-26.00000000001723
 30
0.0
 41
1.0
 10
88.39225813944858
 20
-26.00000000001648
 30
0.0
 41
1.002903287574923
 10
89.14752940300985
 20
-26.00000000001572
 30
0.0
 41
1.002712972645559
  0
SPLINE
  5
201
330
2
100
AcDbEntity
  8
GEB-VERDECKT
 48
25.0
100
AcDbSpline
210
0.0
220
0.0
230
1.0
 70
     8
 71
     3
 72
    10
 73
     6
 74
     0
 42
0.0000000001
 43
0.0000000001
 40
0.0
 40
0.0
 40
0.0
 40
0.0
 40
0.496610125335709
 40
0.496610125335709
 40
1.052443047124921
 40
1.052443047124921
 40
1.052443047124921
 40
1.052443047124921
 10
87.95577293464015
 20
-27.39067336470305
 30
0.0
 10
88.4134228534225
 20
-27.43276464967266
 30
0.0
 10
88.87135964278838
 20
-27.47522891124152
 30
0.0
 10
89.82582908393442
 20
-27.56422139507697
 30
0.0
 10
90.33093829972058
 20
-27.61160849947405
 30
0.0
 10
90.82845872085721
 20
-27.65847360022403
 30
0.0
  0
LINE
  5
202
330
2
100
AcDbEntity
  8
GEB-VERDECKT
 48
25.0
100
AcDbLine
 10
87.71056757415539
 20
-26.00000000001723
 30
0.0
 11
87.95577293464015
 21
-27.39067336470305
 31
0.0
  0
ELLIPSE
  5
203
330
2
100
AcDbEntity
  8
GEB-VERDECKT
 48
25.0
100
AcDbEllipse
 10
76.47217111456541
 20
-21.00000000001722
 30
0.0
 11
-13.14206985014894
 21
-0.0000001762388819
 31
0.0
210
0.0
220
0.0
230
1.0
 40
0.999997758004412
 41
2.633768519622808
 42
2.751300690271488
  0
LINE
  5
204
330
2
100
AcDbEntity
  8
GEB-VERDECKT
 48
25.0
100
AcDbLine
 10
89.14752940300985
 20
-16.00000000001071
 30
0.0
 11
90.53557115883837
 21
-16.00000000001069
 31
0.0
  0
ELLIPSE
  5
205
330
2
100
AcDbEntity
  8
GEB-VERDECKT
 48
25.0
100
AcDbEllipse
 10
76.47217111456541
 20
-21.00000000001722
 30
0.0
 11
-13.14206985016343
 21
-0.0000005967843249
 31
0.0
210
0.0
220
0.0
230
1.0
 40
0.9999977580022061
 41
3.531884558095266
 42
3.649416728743786
  0
LINE
  5
206
330
2
100
AcDbEntity
  8
GEB-VERDECKT
 48
25.0
100
AcDbLine
 10
87.71056757415539
 20
-16.00000000001725
 30
0.0
 11
87.95577293464015
 21
-14.6093266353314
 31
0.0
  0
SPLINE
  5
207
330
2
100
AcDbEntity
  8
GEB-VERDECKT
 48
25.0
100
AcDbSpline
210
0.0
220
0.0
230
1.0
 70
    28
 71
     2
 72
     6
 73
     3
 74
     0
 42
0.0000000001
 43
0.0000000001
 40
0.4922618882761993
 40
0.4922618882761993
 40
0.4922618882761993
 40
1.053588082563648
 40
1.053588082563648
 40
1.053588082563648
 10
89.14752940300985
 20
-16.00000000001571
 30
0.0
 41
1.002712972645959
 10
88.39225813944858
 20
-16.00000000001654
 30
0.0
 41
1.002903287575353
 10
87.71056757415539
 20
-16.00000000001725
 30
0.0
 41
1.0
  0
SPLINE
  5
208
330
2
100
AcDbEntity
  8
GEB-VERDECKT
 48
25.0
100
AcDbSpline
210
0.0
220
0.0
230
1.0
 70
     8
 71
     3
 72
    10
 73
     6
 74
     0
 42
0.0000000001
 43
0.0000000001
 40
0.0
 40
0.0
 40
0.0
 40
0.0
 40
0.5547545270202199
 40
0.5547545270202199
 40
1.051513804832264
 40
1.051513804832264
 40
1.051513804832264
 40
1.051513804832264
 10
90.82845872085721
 20
-14.34152639980442
 30
0.0
 10
90.33146435956387
 20
-14.388341947117
 30
0.0
 10
89.82690350833236
 20
-14.43567780178034
 30
0.0
 10
88.87244981836301
 20
-14.52467000237357
 30
0.0
 10
88.41396522583341
 20
-14.56718546692207
 30
0.0
 10
87.95577293464015
 20
-14.6093266353314
 30
0.0
  0
ARC
  5
209
330
2
100
AcDbEntity
  8
GEB-VERDECKT
 48
25.0
100
AcDbCircle
 10
76.5
 20
-21.00000000000784
 30
0.0
 40
15.79999999999996
100
AcDbArc
 50
315.0
 51
45.0
  0
LINE
  5
20A
330
2
100
AcDbEntity
  8
GEB-VERDECKT
 48
25.0
100
AcDbLine
 10
90.82845872085716
 20
-27.6584736002205
 30
0.0
 11
90.73122186005496
 21
-27.10701595935657
 31
0.0
  0
SPLINE
  5
20B
330
2
100
AcDbEntity
  8
GEB-VERDECKT
 48
25.0
100
AcDbSpline
210
0.0
220
0.0
230
1.0
 70
    24
 71
     3
 72
     8
 73
     4
 74
     0
 42
0.0000000001
 43
0.0000000001
 40
0.1428034627928335
 40
0.1428034627928335
 40
0.1428034627928335
 40
0.1428034627928335
 40
0.1987614655853647
 40
0.1987614655853647
 40
0.1987614655853647
 40
0.1987614655853647
 10
90.73122186005571
 20
-27.10701595935689
 30
0.0
 10
90.76370007172902
 20
-27.29069330313348
 30
0.0
 10
90.79617828340246
 20
-27.47437064691008
 30
0.0
 10
90.82865649507585
 20
-27.65804799068664
 30
0.0
  0
SPLINE
  5
20C
330
2
100
AcDbEntity
  8
GEB-VERDECKT
 48
25.0
100
AcDbSpline
210
0.0
220
0.0
230
1.0
 70
     8
 71
     3
 72
     8
 73
     4
 74
     0
 42
0.0000000001
 43
0.0000000001
 40
0.0
 40
0.0
 40
0.0
 40
0.0
 40
0.0267669657340523
 40
0.0267669657340523
 40
0.0267669657340523
 40
0.0267669657340523
 10
90.77046007453242
 20
-24.73443037975722
 30
0.0
 10
90.74787191779478
 20
-24.82074699463624
 30
0.0
 10
90.7302001486642
 20
-24.90846678941753
 30
0.0
 10
90.71699242179745
 20
-25.00000000001037
 30
0.0
  0
SPLINE
  5
20D
330
2
100
AcDbEntity
  8
GEB-VERDECKT
 48
25.0
100
AcDbSpline
210
0.0
220
0.0
230
1.0
 70
     8
 71
     3
 72
    16
 73
    12
 74
     0
 42
0.0000000001
 43
0.0000000001
 40
0.0136831908681082
 40
0.0136831908681082
 40
0.0136831908681082
 40
0.0136831908681082
 40
0.0403676035692466
 40
0.0403676035692466
 40
0.081236948002065
 40
0.081236948002065
 40
0.1211764385122848
 40
0.1211764385122848
 40
0.1469473844068598
 40
0.1469473844068598
 40
0.1724074894212375
 40
0.1724074894212375
 40
0.1724074894212375
 40
0.1724074894212375
 10
90.71699242179745
 20
-25.00000000001037
 30
0.0
 10
90.70433937186846
 20
-25.0876891455747
 30
0.0
 10
90.69069792371601
 20
-25.17508113503197
 30
0.0
 10
90.65514446417541
 20
-25.38983354311006
 30
0.0
 10
90.63303433252935
 20
-25.51144948647755
 30
0.0
 10
90.59295298173566
 20
-25.72098004323243
 30
0.0
 10
90.57529713344081
 20
-25.80778877254088
 30
0.0
 10
90.5533690381066
 20
-25.9142585239041
 30
0.0
 10
90.54666420144759
 20
-25.94635660614824
 30
0.0
 10
90.53772275394766
 20
-25.98920336389497
 30
0.0
 10
90.53547698529701
 20
-26.00000000001063
 30
0.0
 10
90.53547698529701
 20
-26.00000000001069
 30
0.0
  0
SPLINE
  5
20E
330
2
100
AcDbEntity
  8
GEB-VERDECKT
 48
25.0
100
AcDbSpline
210
0.0
220
0.0
230
1.0
 70
     8
 71
     3
 72
    16
 73
    12
 74
     0
 42
0.0000000001
 43
0.0000000001
 40
0.0
 40
0.0
 40
0.0
 40
0.0
 40
0.0393266642598639
 40
0.0393266642598639
 40
0.0770927003301671
 40
0.0770927003301671
 40
0.11429027185414
 40
0.11429027185414
 40
0.1443854110165249
 40
0.1443854110165249
 40
0.1586800458003431
 40
0.1586800458003431
 40
0.1586800458003431
 40
0.1586800458003431
 10
90.53557115883837
 20
-16.00000000001069
 30
0.0
 10
90.53557115883837
 20
-16.00000000001063
 30
0.0
 10
90.54107022284865
 20
-16.0257655515538
 30
0.0
 10
90.56130352759925
 20
-16.12350480994848
 30
0.0
 10
90.57544289464187
 20
-16.1926383049655
 30
0.0
 10
90.60917847779018
 20
-16.36429790367825
 30
0.0
 10
90.62842046628459
 20
-16.4649109213764
 30
0.0
 10
90.66427400378779
 20
-16.66551045907309
 30
0.0
 10
90.68047012864884
 20
-16.76103163182654
 30
0.0
 10
90.70311789713366
 20
-16.90587996519542
 30
0.0
 10
90.71019865485476
 20
-16.95291924910401
 30
0.0
 10
90.71698890796296
 20
-17.0000000000104
 30
0.0
  0
SPLINE
  5
20F
330
2
100
AcDbEntity
  8
GEB-VERDECKT
 48
25.0
100
AcDbSpline
210
0.0
220
0.0
230
1.0
 70
     8
 71
     3
 72
     8
 73
     4
 74
     0
 42
0.0000000001
 43
0.0000000001
 40
0.0584232393371448
 40
0.0584232393371448
 40
0.0584232393371448
 40
0.0584232393371448
 40
0.0977834980903327
 40
0.0977834980903327
 40
0.0977834980903327
 40
0.0977834980903327
 10
90.71698890796296
 20
-17.0000000000104
 30
0.0
 10
90.73086166434263
 20
-17.09618784118478
 30
0.0
 10
90.74896481024797
 20
-17.18342929909798
 30
0.0
 10
90.77046007453242
 20
-17.26556962026353
 30
0.0
  0
LINE
  5
210
330
2
100
AcDbEntity
  8
GEB-VERDECKT
 48
25.0
100
AcDbLine
 10
90.82803049579855
 20
-14.34060497407429
 30
0.0
 11
90.53557115883837
 21
-16.00000000001069
 31
0.0
  0
LINE
  5
211
330
2
100
AcDbEntity
  8
GEB-VERDECKT
 48
25.0
100
AcDbLine
 10
90.82845872085716
 20
-14.34152639980087
 30
0.0
 11
90.53602507834744
 21
-16.00000000001071
 31
0.0
  0
LINE
  5
212
330
2
100
AcDbEntity
  8
GEB-VERDECKT
 48
25.0
100
AcDbLine
 10
90.53557115883837
 20
-16.00000000001069
 30
0.0
 11
90.53602507834744
 21
-16.00000000001071
 31
0.0
  0
ARC
  5
213
330
2
100
AcDbEntity
  8
GEB-VERDECKT
 48
25.0
100
AcDbCircle
 10
76.5
 20
-21.0000000000104
 30
0.0
 40
14.75099999999997
100
AcDbArc
 50
345.3351462901593
 51
14.66485370984073
  0
LINE
  5
214
330
2
100
AcDbEntity
  8
GEB-VERDECKT
 48
25.0
100
AcDbLine
 10
90.73122186005496
 20
-27.10701595935657
 30
0.0
 11
90.53602507834744
 21
-26.00000000001069
 31
0.0
  0
LINE
  5
215
330
2
100
AcDbEntity
  8
GEB-VERDECKT
 48
25.0
100
AcDbLine
 10
90.53547698529701
 20
-26.00000000001069
 30
0.0
 11
90.73122186005496
 21
-27.10701595935657
 31
0.0
  0
LINE
  5
216
330
2
100
AcDbEntity
  8
GEB-VERDECKT
 48
25.0
100
AcDbLine
 10
90.53602507834744
 20
-26.00000000001069
 30
0.0
 11
90.53547698529701
 21
-26.00000000001069
 31
0.0
  0
LINE
  5
217
330
2
100
AcDbEntity
  8
GEB-VERDECKT
 48
25.0
100
AcDbLine
 10
85.73711239267709
 20
-11.76288760734024
 30
0.0
 11
87.67228714274745
 21
-9.827712857266817
 31
0.0
  0
LINE
  5
218
330
2
100
AcDbEntity
  8
GEB-VERDECKT
 48
25.0
100
AcDbLine
 10
87.67228714274745
 20
-9.827712857260422
 30
0.0
 11
87.74299782086609
 21
-9.757002179141778
 31
0.0
  0
ARC
  5
219
330
2
100
AcDbEntity
  8
GEB-VERDECKT
 48
25.0
100
AcDbCircle
 10
76.5
 20
-21.00000000000787
 30
0.0
 40
15.89999999999996
100
AcDbArc
 50
45.0
 51
135.0
  0
ARC
  5
21A
330
2
100
AcDbEntity
  8
GEB-VERDECKT
 48
25.0
100
AcDbCircle
 10
76.5
 20
-21.00000000001731
 30
0.0
 40
13.15672436936376
100
AcDbArc
 50
45.0
 51
135.0
  0
LINE
  5
21B
330
2
100
AcDbEntity
  8
GEB-VERDECKT
 48
25.0
100
AcDbLine
 10
65.2570021791339
 20
-9.757002179141778
 30
0.0
 11
65.32771285725255
 21
-9.827712857260422
 31
0.0
  0
LINE
  5
21C
330
2
100
AcDbEntity
  8
GEB-VERDECKT
 48
25.0
100
AcDbLine
 10
65.32771285725255
 20
-9.827712857266817
 30
0.0
 11
67.26288760732296
 21
-11.76288760734021
 31
0.0
  0
LINE
  5
21D
330
2
100
AcDbEntity
  8
GEB-VERDECKT
 48
25.0
100
AcDbLine
 10
77.06666666666666
 20
-19.39722462932087
 30
0.0
 11
77.06666666666666
 21
-7.411810683957725
 31
0.0
  0
ARC
  5
21E
330
2
100
AcDbEntity
  8
GEB-VERDECKT
 48
25.0
100
AcDbCircle
 10
76.5
 20
-21.0000000000104
 30
0.0
 40
1.699999999999996
100
AcDbArc
 50
109.4712206344899
 51
70.52877936551012
  0
LINE
  5
21F
330
2
100
AcDbEntity
  8
GEB-VERDECKT
 48
25.0
100
AcDbLine
 10
75.93333333333333
 20
-7.411810683957725
 30
0.0
 11
75.93333333333333
 21
-19.39722462932087
 31
0.0
  0
CIRCLE
  5
220
330
2
100
AcDbEntity
  8
GEB-VERDECKT
 48
25.0
100
AcDbCircle
 10
-76.49999999999997
 20
-21.00000000001475
 30
0.0
 40
6.399999999999998
  0
CIRCLE
  5
221
330
2
100
AcDbEntity
  8
GEB-VERDECKT
 48
25.0
100
AcDbCircle
 10
-76.49999999999997
 20
-21.00000000001441
 30
0.0
 40
7.875
  0
CIRCLE
  5
222
330
2
100
AcDbEntity
  8
GEB-VERDECKT
 48
25.0
100
AcDbCircle
 10
-76.49999999999997
 20
-21.00000000001356
 30
0.0
 40
6.499999999999998
  0
CIRCLE
  5
223
330
2
100
AcDbEntity
  8
GEB-VERDECKT
 48
25.0
100
AcDbCircle
 10
-76.49999999999997
 20
-21.00000000001046
 30
0.0
 40
7.499999999999999
  0
CIRCLE
  5
224
330
2
100
AcDbEntity
  8
GEB-VERDECKT
 48
25.0
100
AcDbCircle
 10
-76.49999999999997
 20
-21.00000000000873
 30
0.0
 40
10.23749999999999
  0
CIRCLE
  5
225
330
2
100
AcDbEntity
  8
GEB-VERDECKT
 48
25.0
100
AcDbCircle
 10
-76.49999999999997
 20
-21.00000000000784
 30
0.0
 40
8.899999999999996
  0
CIRCLE
  5
226
330
2
100
AcDbEntity
  8
GEB-VERDECKT
 48
25.0
100
AcDbCircle
 10
76.5
 20
-21.00000000001475
 30
0.0
 40
6.399999999999995
  0
CIRCLE
  5
227
330
2
100
AcDbEntity
  8
GEB-VERDECKT
 48
25.0
100
AcDbCircle
 10
76.5
 20
-21.00000000001441
 30
0.0
 40
7.874999999999992
  0
CIRCLE
  5
228
330
2
100
AcDbEntity
  8
GEB-VERDECKT
 48
25.0
100
AcDbCircle
 10
76.5
 20
-21.00000000001356
 30
0.0
 40
6.499999999999992
  0
CIRCLE
  5
229
330
2
100
AcDbEntity
  8
GEB-VERDECKT
 48
25.0
100
AcDbCircle
 10
76.5
 20
-21.00000000001046
 30
0.0
 40
7.499999999999992
  0
CIRCLE
  5
22A
330
2
100
AcDbEntity
  8
GEB-VERDECKT
 48
25.0
100
AcDbCircle
 10
76.5
 20
-21.00000000000873
 30
0.0
 40
10.23749999999999
  0
CIRCLE
  5
22B
330
2
100
AcDbEntity
  8
GEB-VERDECKT
 48
25.0
100
AcDbCircle
 10
76.5
 20
-21.00000000000784
 30
0.0
 40
8.899999999999989
  0
LINE
  5
22C
330
2
100
AcDbEntity
  8
GEB-VERDECKT
 48
25.0
100
AcDbLine
 10
-50.24999999999997
 20
-6.500000000000738
 30
0.0
 11
-50.24999999999997
 21
-3.00000000000071
 31
0.0
  0
LINE
  5
22D
330
2
100
AcDbEntity
  8
GEB-VERDECKT
 48
25.0
100
AcDbLine
 10
-102.7499999999999
 20
-6.500000000000738
 30
0.0
 11
-102.7499999999999
 21
-3.00000000000071
 31
0.0
  0
LINE
  5
22E
330
2
100
AcDbEntity
  8
GEB-VERDECKT
 48
25.0
100
AcDbLine
 10
-52.99999999999994
 20
-6.644121393029081
 30
0.0
 11
-50.24999999999997
 21
-6.500000000000738
 31
0.0
  0
LINE
  5
22F
330
2
100
AcDbEntity
  8
GEB-VERDECKT
 48
25.0
100
AcDbLine
 10
-65.14999999999997
 20
-7.280875911318048
 30
0.0
 11
-60.0
 21
-7.01097584801036
 31
0.0
  0
LINE
  5
230
330
2
100
AcDbEntity
  8
GEB-VERDECKT
 48
25.0
100
AcDbLine
 10
-100.0
 20
-6.644121393029081
 30
0.0
 11
-102.7499999999999
 21
-6.500000000000738
 31
0.0
  0
LINE
  5
231
330
2
100
AcDbEntity
  8
GEB-VERDECKT
 48
25.0
100
AcDbLine
 10
-87.85
 20
-7.280875911318048
 30
0.0
 11
-92.99999999999995
 21
-7.01097584801036
 31
0.0
  0
LINE
  5
232
330
2
100
AcDbEntity
  8
GEB-VERDECKT
 48
25.0
100
AcDbLine
 10
-50.24999999999997
 20
-6.500000000000738
 30
0.0
 11
-102.7499999999999
 21
-6.500000000000738
 31
0.0
  0
LINE
  5
233
330
2
100
AcDbEntity
  8
GEB-VERDECKT
 48
25.0
100
AcDbLine
 10
-50.24999999999997
 20
-3.00000000000071
 30
0.0
 11
-102.7499999999999
 21
-3.00000000000071
 31
0.0
  0
LINE
  5
234
330
2
100
AcDbEntity
  8
GEB-VERDECKT
 48
25.0
100
AcDbLine
 10
-80.0
 20
-2.99999999999477
 30
0.0
 11
-80.0
 21
-6.81161977365204
 31
0.0
  0
LINE
  5
235
330
2
100
AcDbEntity
  8
GEB-VERDECKT
 48
25.0
100
AcDbLine
 10
-72.99999999999994
 20
-2.99999999999477
 30
0.0
 11
-72.99999999999994
 21
-6.81161977365204
 31
0.0
  0
LINE
  5
236
330
2
100
AcDbEntity
  8
GEB-VERDECKT
 48
25.0
100
AcDbLine
 10
-60.0
 20
-3.00000000000071
 30
0.0
 11
-60.0
 21
-7.01097584801036
 31
0.0
  0
LINE
  5
237
330
2
100
AcDbEntity
  8
GEB-VERDECKT
 48
25.0
100
AcDbLine
 10
-53.0
 20
-3.00000000000071
 30
0.0
 11
-53.0
 21
-6.644121393029081
 31
0.0
  0
LINE
  5
238
330
2
100
AcDbEntity
  8
GEB-VERDECKT
 48
25.0
100
AcDbLine
 10
-100.0
 20
-3.00000000000071
 30
0.0
 11
-100.0
 21
-6.644121393029081
 31
0.0
  0
LINE
  5
239
330
2
100
AcDbEntity
  8
GEB-VERDECKT
 48
25.0
100
AcDbLine
 10
-92.99999999999995
 20
-3.00000000000071
 30
0.0
 11
-92.99999999999995
 21
-7.01097584801036
 31
0.0
  0
LINE
  5
23A
330
2
100
AcDbEntity
  8
GEB-VERDECKT
 48
25.0
100
AcDbLine
 10
-87.84999999999996
 20
-7.280875911318048
 30
0.0
 11
-87.84999999999996
 21
-22.80000000000072
 31
0.0
  0
LINE
  5
23B
330
2
100
AcDbEntity
  8
GEB-VERDECKT
 48
25.0
100
AcDbLine
 10
-65.14999999999997
 20
-7.280875911318048
 30
0.0
 11
-65.14999999999997
 21
-22.80000000000072
 31
0.0
  0
SPLINE
  5
23C
330
2
100
AcDbEntity
  8
GEB-VERDECKT
 48
25.0
100
AcDbSpline
210
0.0
220
0.0
230
1.0
 70
    11
 71
     3
 72
    38
 73
    34
 74
     0
 42
0.0000000001
 43
0.0000000001
 40
0.0
 40
0.0
 40
0.0
 40
0.0
 40
0.1166833165813259
 40
0.1166833165813259
 40
0.2333666331626517
 40
0.2333666331626517
 40
0.3498559518644112
 40
0.3498559518644112
 40
0.4663452705661707
 40
0.4663452705661707
 40
0.5828345892679301
 40
0.5828345892679301
 40
0.6993239079696896
 40
0.6993239079696896
 40
0.8160072245510153
 40
0.8160072245510153
 40
0.9326905411323414
 40
0.9326905411323414
 40
1.080264911775732
 40
1.080264911775732
 40
1.227839282419122
 40
1.227839282419122
 40
1.375297519840151
 40
1.375297519840151
 40
1.52275575726118
 40
1.52275575726118
 40
1.670213994682209
 40
1.670213994682209
 40
1.817672232103238
 40
1.817672232103238
 40
1.965246602746629
 40
1.965246602746629
 40
2.11282097339002
 40
2.11282097339002
 40
2.11282097339002
 40
2.11282097339002
 10
-73.05401048318481
 20
-6.843723303266671
 30
0.0
 10
-73.12198247010636
 20
-6.864079079769709
 30
0.0
 10
-73.26265154950334
 20
-6.885968042625421
 30
0.0
 10
-73.6791044614694
 20
-6.926738113442496
 30
0.0
 10
-73.95489129163909
 20
-6.945589515805181
 30
0.0
 10
-74.55033888723412
 20
-6.975521208776058
 30
0.0
 10
-74.91398967335062
 20
-6.988824728263978
 30
0.0
 10
-75.69466988609178
 20
-7.006578440323494
 30
0.0
 10
-76.1117022709941
 20
-7.010975848005472
 30
0.0
 10
-76.88829772900584
 20
-7.010975848005472
 30
0.0
 10
-77.30533011390815
 20
-7.006578440323494
 30
0.0
 10
-78.08601032664933
 20
-6.988824728263978
 30
0.0
 10
-78.44966111276582
 20
-6.975521208776058
 30
0.0
 10
-79.04510870836086
 20
-6.945589515805181
 30
0.0
 10
-79.32089553853055
 20
-6.926738113442496
 30
0.0
 10
-79.73734845049659
 20
-6.885968042625421
 30
0.0
 10
-79.87801752989359
 20
-6.864079079769709
 30
0.0
 10
-80.03195658978857
 20
-6.817978483917954
 30
0.0
 10
-80.01511897391171
 20
-6.79077621049106
 30
0.0
 10
-79.74835949334982
 20
-6.741275111321897
 30
0.0
 10
-79.4984342074695
 20
-6.71891885499744
 30
0.0
 10
-78.86721266014177
 20
-6.683683747271174
 30
0.0
 10
-78.44938016465085
 20
-6.668744189848155
 30
0.0
 10
-77.51153749985826
 20
-6.648981193929017
 30
0.0
 10
-76.99152745807007
 20
-6.644121393022118
 30
0.0
 10
-76.00847254192988
 20
-6.644121393022118
 30
0.0
 10
-75.48846250014168
 20
-6.648981193929017
 30
0.0
 10
-74.5506198353491
 20
-6.668744189848155
 30
0.0
 10
-74.13278733985814
 20
-6.683683747271174
 30
0.0
 10
-73.50156579253044
 20
-6.71891885499744
 30
0.0
 10
-73.25164050665012
 20
-6.741275111321897
 30
0.0
 10
-72.9848810260882
 20
-6.79077621049106
 30
0.0
 10
-72.96804341021138
 20
-6.817978483917954
 30
0.0
 10
-73.05401048318481
 20
-6.843723303266671
 30
0.0
  0
SPLINE
  5
23D
330
2
100
AcDbEntity
  8
GEB-VERDECKT
 48
25.0
100
AcDbSpline
210
0.0
220
0.0
230
1.0
 70
     8
 71
     3
 72
    22
 73
    18
 74
     0
 42
0.0000000001
 43
0.0000000001
 40
0.4663452705627677
 40
0.4663452705627677
 40
0.4663452705661707
 40
0.4663452705661707
 40
0.58283458926793
 40
0.58283458926793
 40
0.6993239079696894
 40
0.6993239079696894
 40
0.8160072245510152
 40
0.8160072245510152
 40
0.9326905411323412
 40
0.9326905411323412
 40
1.080264911775731
 40
1.080264911775731
 40
1.227839282419122
 40
1.227839282419122
 40
1.375297519840151
 40
1.375297519840151
 40
1.522755757253822
 40
1.522755757253822
 40
1.52275575726118
 40
1.52275575726118
 10
-60.0
 20
-7.01097584801036
 30
0.0
 10
-60.0
 20
-7.010975848010275
 30
0.0
 10
-59.9313175139381
 20
-7.006578440328183
 30
0.0
 10
-59.64754947798031
 20
-6.988824728268525
 30
0.0
 10
-59.43246876670446
 20
-6.975521208780548
 30
0.0
 10
-58.93381902586091
 20
-6.945589515809615
 30
0.0
 10
-58.61312777026435
 20
-6.926738113446958
 30
0.0
 10
-57.89367701036074
 20
-6.885968042629997
 30
0.0
 10
-57.49491755815305
 20
-6.86407907977437
 30
0.0
 10
-56.62884019223224
 20
-6.817978483922786
 30
0.0
 10
-56.09785841233843
 20
-6.790776210496062
 30
0.0
 10
-55.09788023661264
 20
-6.741275111327297
 30
0.0
 10
-54.62888759720698
 20
-6.718918855003039
 30
0.0
 10
-53.87557752452153
 20
-6.6836837472772
 30
0.0
 10
-53.54742161993852
 20
-6.668744189854407
 30
0.0
 10
-53.10963217314315
 20
-6.648981193936151
 30
0.0
 10
-53.00000000001091
 20
-6.644121393029422
 30
0.0
 10
-52.99999999999994
 20
-6.644121393029081
 30
0.0
  0
SPLINE
  5
23E
330
2
100
AcDbEntity
  8
GEB-VERDECKT
 48
25.0
100
AcDbSpline
210
0.0
220
0.0
230
1.0
 70
     8
 71
     3
 72
    14
 73
    10
 74
     0
 42
0.0000000001
 43
0.0000000001
 40
1.522755757253822
 40
1.522755757253822
 40
1.52275575726118
 40
1.52275575726118
 40
1.670213994682209
 40
1.670213994682209
 40
1.817672232103238
 40
1.817672232103238
 40
1.965246602746629
 40
1.965246602746629
 40
2.112820973390019
 40
2.112820973390019
 40
2.112820973390019
 40
2.112820973390019
 10
-100.0
 20
-6.644121393029081
 30
0.0
 10
-100.0
 20
-6.644121393028939
 30
0.0
 10
-99.89036782686774
 20
-6.648981193935668
 30
0.0
 10
-99.45257838006142
 20
-6.668744189854407
 30
0.0
 10
-99.12442247547842
 20
-6.6836837472772
 30
0.0
 10
-98.37111240279297
 20
-6.718918855003039
 30
0.0
 10
-97.90211976338731
 20
-6.741275111327297
 30
0.0
 10
-96.90214158766151
 20
-6.790776210496062
 30
0.0
 10
-96.37115980776769
 20
-6.817978483922786
 30
0.0
 10
-95.88749999999995
 20
-6.843723303271389
 30
0.0
  0
SPLINE
  5
23F
330
2
100
AcDbEntity
  8
GEB-VERDECKT
 48
25.0
100
AcDbSpline
210
0.0
220
0.0
230
1.0
 70
     8
 71
     3
 72
    14
 73
    10
 74
     0
 42
0.0000000001
 43
0.0000000001
 40
0.0
 40
0.0
 40
0.0
 40
0.0
 40
0.1166833165813259
 40
0.1166833165813259
 40
0.2333666331626518
 40
0.2333666331626518
 40
0.3498559518644112
 40
0.3498559518644112
 40
0.4663452705627679
 40
0.4663452705627679
 40
0.4663452705661707
 40
0.4663452705661707
 10
-95.88749999999995
 20
-6.843723303271389
 30
0.0
 10
-95.50508244184689
 20
-6.86407907977437
 30
0.0
 10
-95.10632298963921
 20
-6.885968042629997
 30
0.0
 10
-94.38687222973559
 20
-6.926738113446958
 30
0.0
 10
-94.06618097413902
 20
-6.945589515809615
 30
0.0
 10
-93.56753123329548
 20
-6.975521208780548
 30
0.0
 10
-93.35245052201964
 20
-6.988824728268525
 30
0.0
 10
-93.06868248606599
 20
-7.006578440327928
 30
0.0
 10
-93.00000000000398
 20
-7.010975848009991
 30
0.0
 10
-92.99999999999995
 20
-7.01097584801036
 30
0.0
  0
SPLINE
  5
240
330
2
100
AcDbEntity
  8
GEB-VERDECKT
 48
25.0
100
AcDbSpline
210
0.0
220
0.0
230
1.0
 70
    12
 71
     2
 72
     6
 73
     3
 74
     0
 42
0.0000000001
 43
0.0000000001
 40
0.1000511876665786
 40
0.1000511876665786
 40
0.1000511876665786
 40
2.217635884578037
 40
2.217635884578037
 40
2.217635884578037
 10
-98.85879998678824
 20
-6.66567884329126
 30
0.0
 41
1.052653845186695
 10
-85.83827108960084
 20
-7.28087591132072
 30
0.0
 41
1.597003840639932
 10
-79.43759616191357
 20
-7.280875911321317
 30
0.0
 41
1.597003840639931
  0
LINE
  5
241
330
2
100
AcDbEntity
  8
GEB-VERDECKT
 48
25.0
100
AcDbLine
 10
-102.720510013277
 20
-3.00000000000108
 30
0.0
 11
-102.720510013277
 21
-6.50000000000108
 31
0.0
  0
SPLINE
  5
242
330
2
100
AcDbEntity
  8
GEB-VERDECKT
 48
25.0
100
AcDbSpline
210
0.0
220
0.0
230
1.0
 70
     8
 71
     3
 72
    12
 73
     8
 74
     0
 42
0.0000000001
 43
0.0000000001
 40
0.9644929883245975
 40
0.9644929883245975
 40
0.9644929883245975
 40
0.9644929883245975
 40
1.157835825797595
 40
1.157835825797595
 40
1.389330604781658
 40
1.389330604781658
 40
1.575223907412686
 40
1.575223907412686
 40
1.575223907412686
 40
1.575223907412686
 10
-102.720510013277
 20
-6.50000000000108
 30
0.0
 10
-102.6511961872953
 20
-6.502011268316891
 30
0.0
 10
-102.4528313424564
 20
-6.509393331073567
 30
0.0
 10
-101.7556570652632
 20
-6.537268780629517
 30
0.0
 10
-101.2023405001508
 20
-6.560239123608653
 30
0.0
 10
-100.0758712581416
 20
-6.609481554248816
 30
0.0
 10
-99.48522787587231
 20
-6.63608122834492
 30
0.0
 10
-98.85879998678824
 20
-6.66567884329126
 30
0.0
  0
LINE
  5
243
330
2
100
AcDbEntity
  8
GEB-VERDECKT
 48
25.0
100
AcDbLine
 10
-50.27948998672295
 20
-6.50000000000108
 30
0.0
 11
-50.27948998672295
 21
-3.00000000000108
 31
0.0
  0
SPLINE
  5
244
330
2
100
AcDbEntity
  8
GEB-VERDECKT
 48
25.0
100
AcDbSpline
210
0.0
220
0.0
230
1.0
 70
     8
 71
     3
 72
    12
 73
     8
 74
     0
 42
0.0000000001
 43
0.0000000001
 40
0.2774581862143782
 40
0.2774581862143782
 40
0.2774581862143782
 40
0.2774581862143782
 40
0.4633514888454068
 40
0.4633514888454068
 40
0.694846267829469
 40
0.694846267829469
 40
0.8881891053024673
 40
0.8881891053024673
 40
0.8881891053024673
 40
0.8881891053024673
 10
-54.14120001321174
 20
-6.66567884329126
 30
0.0
 10
-53.51477212412763
 20
-6.63608122834492
 30
0.0
 10
-52.92412874185828
 20
-6.609481554248816
 30
0.0
 10
-51.79765949984909
 20
-6.560239123608653
 30
0.0
 10
-51.24434293473672
 20
-6.537268780629517
 30
0.0
 10
-50.54716865754352
 20
-6.509393331073567
 30
0.0
 10
-50.34880381270466
 20
-6.502011268316891
 30
0.0
 10
-50.27948998672295
 20
-6.50000000000108
 30
0.0
  0
SPLINE
  5
245
330
2
100
AcDbEntity
  8
GEB-VERDECKT
 48
25.0
100
AcDbSpline
210
0.0
220
0.0
230
1.0
 70
    12
 71
     2
 72
     6
 73
     3
 74
     0
 42
0.0000000001
 43
0.0000000001
 40
2.217635884578033
 40
2.217635884578033
 40
2.217635884578033
 40
4.335220581489489
 40
4.335220581489489
 40
4.335220581489489
 10
-73.56240383808634
 20
-7.28087591132126
 30
0.0
 41
1.597003840639928
 10
-67.16172891039869
 20
-7.28087591132072
 30
0.0
 41
1.597003840639928
 10
-54.14120001321174
 20
-6.66567884329126
 30
0.0
 41
1.052653845186695
  0
LINE
  5
246
330
2
100
AcDbEntity
  8
GEB-VERDECKT
 48
25.0
100
AcDbLine
 10
-65.14999999999995
 20
-7.280875911318048
 30
0.0
 11
-87.85
 21
-7.280875911318048
 31
0.0
  0
SPLINE
  5
247
330
2
100
AcDbEntity
  8
GEB-VERDECKT
 48
25.0
100
AcDbSpline
210
0.0
220
0.0
230
1.0
 70
     8
 71
     3
 72
    27
 73
    23
 74
     0
 42
0.0000000001
 43
0.0000000001
 40
-0.180865270126778
 40
-0.180865270126778
 40
-0.180865270126778
 40
-0.180865270126778
 40
0.0
 40
0.0
 40
0.0
 40
0.3325675604680591
 40
0.3325675604680591
 40
0.6651351209361183
 40
0.6651351209361183
 40
0.9916529056786091
 40
0.9916529056786091
 40
1.318170690421099
 40
1.318170690421099
 40
1.64468847516359
 40
1.64468847516359
 40
1.971206259906081
 40
1.971206259906081
 40
2.30377382037414
 40
2.30377382037414
 40
2.636341380842199
 40
2.636341380842199
 40
2.817206664835975
 40
2.817206664835975
 40
2.817206664835975
 40
2.817206664835975
 10
-68.39753124041812
 20
-22.80000000000308
 30
0.0
 10
-68.26654308584522
 20
-22.21037364983522
 30
0.0
 10
-68.19999999999999
 20
-21.60288423375897
 30
0.0
 10
-68.19999999999999
 20
-21.00000000000301
 30
0.0
 10
-68.19999999999999
 20
-19.89144146510949
 30
0.0
 10
-68.43010947782423
 20
-18.77154432864159
 30
0.0
 10
-69.2842088955092
 20
-16.75482166808567
 30
0.0
 10
-69.91016227784533
 20
-15.85186515446142
 30
0.0
 10
-71.33875206090465
 20
-14.42327537140238
 30
0.0
 10
-72.24359639767107
 20
-13.78926271954572
 30
0.0
 10
-74.27897136991657
 20
-12.92666479717047
 30
0.0
 10
-75.41160738419169
 20
-12.70000000000408
 30
0.0
 10
-77.58839261580826
 20
-12.70000000000408
 30
0.0
 10
-78.72102863008336
 20
-12.92666479717047
 30
0.0
 10
-80.75640360232887
 20
-13.78926271954572
 30
0.0
 10
-81.6612479390953
 20
-14.42327537140238
 30
0.0
 10
-83.0898377221546
 20
-15.85186515446142
 30
0.0
 10
-83.71579110449074
 20
-16.75482166808567
 30
0.0
 10
-84.5698905221757
 20
-18.77154432864159
 30
0.0
 10
-84.79999999999995
 20
-19.89144146510949
 30
0.0
 10
-84.79999999999995
 20
-21.60288427998225
 30
0.0
 10
-84.73345691632625
 20
-22.21037364006034
 30
0.0
 10
-84.60246875958182
 20
-22.80000000000308
 30
0.0
  0
ARC
  5
248
330
2
100
AcDbEntity
  8
GEB-KONTUR-A
 48
25.0
100
AcDbCircle
 10
-90.49999999999995
 20
-53.20785784962911
 30
0.0
 40
1.999999999999999
100
AcDbArc
 50
243.6463391512528
 51
249.9999999999999
  0
ARC
  5
249
330
2
100
AcDbEntity
  8
GEB-KONTUR-A
 48
25.0
100
AcDbCircle
 10
-62.5
 20
-53.20785784962911
 30
0.0
 40
1.999999999999999
100
AcDbArc
 50
290.0000000000001
 51
296.3536608487471
  0
LINE
  5
24A
330
2
100
AcDbEntity
  8
GEB-KONTUR-A
 48
25.0
100
AcDbLine
 10
-62.94999999999996
 20
-55.50000000000071
 30
0.0
 11
-61.81595971334863
 21
-55.08724309120092
 31
0.0
  0
LINE
  5
24B
330
2
100
AcDbEntity
  8
GEB-KONTUR-A
 48
25.0
100
AcDbLine
 10
-90.05
 20
-55.50000000000071
 30
0.0
 11
-91.1840402866513
 21
-55.08724309120092
 31
0.0
  0
LINE
  5
24C
330
2
100
AcDbEntity
  8
GEB-KONTUR-A
 48
25.0
100
AcDbLine
 10
-62.94999999999996
 20
-55.50000000000071
 30
0.0
 11
-90.04999999999999
 21
-55.50000000000071
 31
0.0
  0
LINE
  5
24D
330
2
100
AcDbEntity
  8
GEB-VERDECKT
 48
25.0
100
AcDbLine
 10
-87.84999999999996
 20
-22.80000000000072
 30
0.0
 11
-90.05
 21
-25.00000000000071
 31
0.0
  0
LINE
  5
24E
330
2
100
AcDbEntity
  8
GEB-VERDECKT
 48
25.0
100
AcDbLine
 10
-65.14999999999997
 20
-22.80000000000072
 30
0.0
 11
-62.94999999999999
 21
-25.00000000000071
 31
0.0
  0
LINE
  5
24F
330
2
100
AcDbEntity
  8
GEB-VERDECKT
 48
25.0
100
AcDbLine
 10
-62.94999999999999
 20
-48.00000000000071
 30
0.0
 11
-62.94999999999999
 21
-25.00000000000071
 31
0.0
  0
LINE
  5
250
330
2
100
AcDbEntity
  8
GEB-VERDECKT
 48
25.0
100
AcDbLine
 10
-90.05
 20
-48.00000000000071
 30
0.0
 11
-90.05
 21
-25.00000000000071
 31
0.0
  0
LINE
  5
251
330
2
100
AcDbEntity
  8
GEB-VERDECKT
 48
25.0
100
AcDbLine
 10
-90.05
 20
-48.00000000000071
 30
0.0
 11
-92.23205080756883
 21
-51.7794228634067
 31
0.0
  0
LINE
  5
252
330
2
100
AcDbEntity
  8
GEB-VERDECKT
 48
25.0
100
AcDbLine
 10
-62.94999999999996
 20
-48.00000000000071
 30
0.0
 11
-60.7679491924311
 21
-51.7794228634067
 31
0.0
  0
ARC
  5
253
330
2
100
AcDbEntity
  8
GEB-VERDECKT
 48
25.0
100
AcDbCircle
 10
-90.49999999999995
 20
-52.77942286340669
 30
0.0
 40
2.000000000000021
100
AcDbArc
 50
149.9999999999994
 51
180.0
  0
ARC
  5
254
330
2
100
AcDbEntity
  8
GEB-VERDECKT
 48
25.0
100
AcDbCircle
 10
-62.5
 20
-52.77942286340669
 30
0.0
 40
2.000000000000021
100
AcDbArc
 50
0.0
 51
30.00000000000055
  0
LINE
  5
255
330
2
100
AcDbEntity
  8
GEB-VERDECKT
 48
25.0
100
AcDbLine
 10
-60.49999999999994
 20
-53.20785784962911
 30
0.0
 11
-60.49999999999994
 21
-52.77942286340669
 31
0.0
  0
LINE
  5
256
330
2
100
AcDbEntity
  8
GEB-VERDECKT
 48
25.0
100
AcDbLine
 10
-92.5
 20
-53.20785784962911
 30
0.0
 11
-92.5
 21
-52.77942286340669
 31
0.0
  0
ARC
  5
257
330
2
100
AcDbEntity
  8
GEB-VERDECKT
 48
25.0
100
AcDbCircle
 10
-90.49999999999995
 20
-53.20785784962911
 30
0.0
 40
1.999999999999999
100
AcDbArc
 50
180.0
 51
243.6463391512528
  0
ARC
  5
258
330
2
100
AcDbEntity
  8
GEB-VERDECKT
 48
25.0
100
AcDbCircle
 10
-62.5
 20
-53.20785784962911
 30
0.0
 40
1.999999999999999
100
AcDbArc
 50
296.3536608487471
 51
0.0
  0
LINE
  5
259
330
2
100
AcDbEntity
  8
GEB-VERDECKT
 48
25.0
100
AcDbLine
 10
-62.94999999999996
 20
-25.00000000000071
 30
0.0
 11
-90.04999999999999
 21
-25.00000000000071
 31
0.0
  0
LINE
  5
25A
330
2
100
AcDbEntity
  8
GEB-VERDECKT
 48
25.0
100
AcDbLine
 10
-62.94999999999996
 20
-48.00000000000071
 30
0.0
 11
-90.04999999999999
 21
-48.00000000000071
 31
0.0
  0
LINE
  5
25B
330
2
100
AcDbEntity
  8
GEB-VERDECKT
 48
25.0
100
AcDbLine
 10
-65.14999999999997
 20
-22.80000000000072
 30
0.0
 11
-87.84999999999996
 21
-22.80000000000072
 31
0.0
  0
SPLINE
  5
25C
330
2
100
AcDbEntity
  8
GEB-VERDECKT
 48
25.0
100
AcDbSpline
210
0.0
220
0.0
230
1.0
 70
     8
 71
     3
 72
    10
 73
     6
 74
     0
 42
0.0000000001
 43
0.0000000001
 40
8.058249977828447
 40
8.058249977828447
 40
8.058249977828447
 40
8.058249977828447
 40
8.232751391615448
 40
8.232751391615448
 40
8.466068728267851
 40
8.466068728267851
 40
8.466068728267851
 40
8.466068728267851
 10
-69.22744886576928
 20
-25.00000000000412
 30
0.0
 10
-69.04915476299385
 20
-24.67583675516241
 30
0.0
 10
-68.90153815529306
 20
-24.35578080587192
 30
0.0
 10
-68.6194282539804
 20
-23.6418666887331
 30
0.0
 10
-68.4907963541039
 20
-23.21982092777986
 30
0.0
 10
-68.39753124041812
 20
-22.80000000000308
 30
0.0
  0
SPLINE
  5
25D
330
2
100
AcDbEntity
  8
GEB-VERDECKT
 48
25.0
100
AcDbSpline
210
0.0
220
0.0
230
1.0
 70
     8
 71
     3
 72
    10
 73
     6
 74
     0
 42
0.0000000001
 43
0.0000000001
 40
5.489832282047297
 40
5.489832282047297
 40
5.489832282047297
 40
5.489832282047297
 40
5.723149618699701
 40
5.723149618699701
 40
5.897651032486702
 40
5.897651032486702
 40
5.897651032486702
 40
5.897651032486702
 10
-84.60246875958182
 20
-22.80000000000308
 30
0.0
 10
-84.50920364589604
 20
-23.21982092777984
 30
0.0
 10
-84.38057174601954
 20
-23.6418666887331
 30
0.0
 10
-84.09846184470689
 20
-24.35578080587192
 30
0.0
 10
-83.95084523700608
 20
-24.67583675516241
 30
0.0
 10
-83.77255113423066
 20
-25.00000000000412
 30
0.0
  0
SPLINE
  5
25E
330
2
100
AcDbEntity
  8
GEB-VERDECKT
 48
25.0
100
AcDbSpline
210
0.0
220
0.0
230
1.0
 70
     8
 71
     3
 72
    18
 73
    14
 74
     0
 42
0.0000000001
 43
0.0000000001
 40
0.4099523842370038
 40
0.4099523842370038
 40
0.4099523842370038
 40
0.4099523842370038
 40
0.6484669980069616
 40
0.6484669980069616
 40
0.970383311770699
 40
0.970383311770699
 40
1.292299625534436
 40
1.292299625534436
 40
1.614215939298174
 40
1.614215939298174
 40
1.936132253061911
 40
1.936132253061911
 40
2.174646866831869
 40
2.174646866831869
 40
2.174646866831869
 40
2.174646866831869
 10
-83.77255113423066
 20
-25.00000000000412
 30
0.0
 10
-83.38586299698306
 20
-25.70305231278758
 30
0.0
 10
-82.90127925161636
 20
-26.33669331608456
 30
0.0
 10
-81.65056577569647
 20
-27.58740679200463
 30
0.0
 10
-80.73641706665322
 20
-28.22250964408965
 30
0.0
 10
-78.6985100578758
 20
-29.07950698452135
 30
0.0
 10
-77.57305437921241
 20
-29.30000000000476
 30
0.0
 10
-75.42694562078754
 20
-29.30000000000476
 30
0.0
 10
-74.30148994212413
 20
-29.07950698452135
 30
0.0
 10
-72.26358293334673
 20
-28.22250964408965
 30
0.0
 10
-71.34943422430348
 20
-27.58740679200463
 30
0.0
 10
-70.09872074838352
 20
-26.33669331608456
 30
0.0
 10
-69.61413700301688
 20
-25.70305231278758
 30
0.0
 10
-69.22744886576928
 20
-25.00000000000412
 30
0.0
  0
CIRCLE
  5
25F
330
2
100
AcDbEntity
  8
GEB-VERDECKT
 48
25.0
100
AcDbCircle
 10
-76.49999999999997
 20
-21.00000000000759
 30
0.0
 40
16.35
  0
CIRCLE
  5
260
330
2
100
AcDbEntity
  8
GEB-VERDECKT
 48
25.0
100
AcDbCircle
 10
-76.49999999999997
 20
-21.00000000000676
 30
0.0
 40
11.3
  0
CIRCLE
  5
261
330
2
100
AcDbEntity
  8
GEB-VERDECKT
 48
25.0
100
AcDbCircle
 10
-76.49999999999997
 20
-21.00000000000614
 30
0.0
 40
13.2
  0
SPLINE
  5
262
330
2
100
AcDbEntity
  8
GEB-VERDECKT
 48
25.0
100
AcDbSpline
210
0.0
220
0.0
230
1.0
 70
    11
 71
     3
 72
    38
 73
    34
 74
     0
 42
0.0000000001
 43
0.0000000001
 40
0.0
 40
0.0
 40
0.0
 40
0.0
 40
0.2015281700218617
 40
0.2015281700218617
 40
0.4030563400437234
 40
0.4030563400437234
 40
0.6036670471646021
 40
0.6036670471646021
 40
0.8042777542854807
 40
0.8042777542854807
 40
1.004888461406359
 40
1.004888461406359
 40
1.205499168527237
 40
1.205499168527237
 40
1.407027338549099
 40
1.407027338549099
 40
1.608555508570961
 40
1.608555508570961
 40
1.810083678592823
 40
1.810083678592823
 40
2.011611848614684
 40
2.011611848614684
 40
2.212222555735563
 40
2.212222555735563
 40
2.412833262856441
 40
2.412833262856441
 40
2.613443969977319
 40
2.613443969977319
 40
2.814054677098198
 40
2.814054677098198
 40
3.01558284712006
 40
3.01558284712006
 40
3.217111017141921
 40
3.217111017141921
 40
3.217111017141921
 40
3.217111017141921
 10
-71.29999999999999
 20
-21.00000000000301
 30
0.0
 10
-71.29999999999999
 20
-20.32823943326346
 30
0.0
 10
-71.43737238433857
 20
-19.62623634898992
 30
0.0
 10
-71.97179722990944
 20
-18.35182723781369
 30
0.0
 10
-72.36854532461657
 20
-17.7775441510465
 30
0.0
 10
-73.27547502914285
 20
-16.87061444652033
 30
0.0
 10
-73.85038767475958
 20
-16.47238930627213
 30
0.0
 10
-75.12783472762444
 20
-15.93671370985899
 30
0.0
 10
-75.83129764293039
 20
-15.80000000000348
 30
0.0
 10
-77.16870235706958
 20
-15.80000000000348
 30
0.0
 10
-77.8721652723755
 20
-15.93671370985899
 30
0.0
 10
-79.14961232524035
 20
-16.47238930627213
 30
0.0
 10
-79.72452497085709
 20
-16.87061444652033
 30
0.0
 10
-80.63145467538337
 20
-17.7775441510465
 30
0.0
 10
-81.02820277009049
 20
-18.35182723781369
 30
0.0
 10
-81.56262761566138
 20
-19.62623634898989
 30
0.0
 10
-81.69999999999996
 20
-20.32823943326346
 30
0.0
 10
-81.69999999999996
 20
-21.67176056674254
 30
0.0
 10
-81.56262761566138
 20
-22.37376365101619
 30
0.0
 10
-81.02820277009049
 20
-23.64817276219259
 30
0.0
 10
-80.63145467538337
 20
-24.22245584895993
 30
0.0
 10
-79.72452497085709
 20
-25.12938555348629
 30
0.0
 10
-79.14961232524035
 20
-25.5276106937346
 30
0.0
 10
-77.8721652723755
 20
-26.06328629014794
 30
0.0
 10
-77.16870235706955
 20
-26.20000000000349
 30
0.0
 10
-75.83129764293037
 20
-26.20000000000349
 30
0.0
 10
-75.12783472762444
 20
-26.06328629014794
 30
0.0
 10
-73.85038767475958
 20
-25.5276106937346
 30
0.0
 10
-73.27547502914285
 20
-25.12938555348629
 30
0.0
 10
-72.36854532461657
 20
-24.2224558489599
 30
0.0
 10
-71.97179722990944
 20
-23.64817276219259
 30
0.0
 10
-71.43737238433857
 20
-22.37376365101619
 30
0.0
 10
-71.29999999999999
 20
-21.67176056674254
 30
0.0
 10
-71.29999999999999
 20
-21.00000000000301
 30
0.0
  0
LINE
  5
263
330
2
100
AcDbEntity
  8
GEB-VERDECKT
 48
25.0
100
AcDbLine
 10
-85.81549999999998
 20
-15.50000000000071
 30
0.0
 11
-85.81549999999998
 21
-53.56550000000073
 31
0.0
  0
LINE
  5
264
330
2
100
AcDbEntity
  8
GEB-VERDECKT
 48
25.0
100
AcDbLine
 10
-67.18449999999996
 20
-15.50000000000071
 30
0.0
 11
-67.18449999999996
 21
-53.56550000000073
 31
0.0
  0
LINE
  5
265
330
2
100
AcDbEntity
  8
GEB-VERDECKT
 48
25.0
100
AcDbLine
 10
-85.81549999999998
 20
-53.56550000000073
 30
0.0
 11
-87.74999999999996
 21
-55.50000000000071
 31
0.0
  0
LINE
  5
266
330
2
100
AcDbEntity
  8
GEB-VERDECKT
 48
25.0
100
AcDbLine
 10
-67.18449999999996
 20
-53.56550000000073
 30
0.0
 11
-65.24999999999997
 21
-55.50000000000071
 31
0.0
  0
LINE
  5
267
330
2
100
AcDbEntity
  8
GEB-VERDECKT
 48
25.0
100
AcDbLine
 10
-76.49999999999997
 20
-9.902682903449459
 30
0.0
 11
-85.81549999999998
 21
-15.50000000000071
 31
0.0
  0
LINE
  5
268
330
2
100
AcDbEntity
  8
GEB-VERDECKT
 48
25.0
100
AcDbLine
 10
-76.49999999999997
 20
-9.902682903449459
 30
0.0
 11
-67.18449999999996
 21
-15.50000000000071
 31
0.0
  0
LINE
  5
269
330
2
100
AcDbEntity
  8
GEB-VERDECKT
 48
25.0
100
AcDbLine
 10
-85.81549999999998
 20
-53.56550000000073
 30
0.0
 11
-67.18449999999996
 21
-53.56550000000073
 31
0.0
  0
LINE
  5
26A
330
2
100
AcDbEntity
  8
GEB-VERDECKT
 48
25.0
100
AcDbLine
 10
-85.81549999999998
 20
-15.50000000000071
 30
0.0
 11
-67.18449999999996
 21
-15.50000000000071
 31
0.0
  0
LINE
  5
26B
330
2
100
AcDbEntity
  8
GEB-VERDECKT
 48
25.0
100
AcDbLine
 10
102.75
 20
-6.500000000000682
 30
0.0
 11
102.75
 21
-3.00000000000071
 31
0.0
  0
LINE
  5
26C
330
2
100
AcDbEntity
  8
GEB-VERDECKT
 48
25.0
100
AcDbLine
 10
50.25
 20
-6.500000000000682
 30
0.0
 11
50.25
 21
-3.00000000000071
 31
0.0
  0
LINE
  5
26D
330
2
100
AcDbEntity
  8
GEB-VERDECKT
 48
25.0
100
AcDbLine
 10
100.0
 20
-6.644121393029081
 30
0.0
 11
102.75
 21
-6.500000000000682
 31
0.0
  0
LINE
  5
26E
330
2
100
AcDbEntity
  8
GEB-VERDECKT
 48
25.0
100
AcDbLine
 10
87.84999999999996
 20
-7.280875911318048
 30
0.0
 11
93.0
 21
-7.01097584801036
 31
0.0
  0
LINE
  5
26F
330
2
100
AcDbEntity
  8
GEB-VERDECKT
 48
25.0
100
AcDbLine
 10
53.0
 20
-6.644121393029081
 30
0.0
 11
50.25
 21
-6.500000000000682
 31
0.0
  0
LINE
  5
270
330
2
100
AcDbEntity
  8
GEB-VERDECKT
 48
25.0
100
AcDbLine
 10
65.15000000000004
 20
-7.280875911318048
 30
0.0
 11
60.0
 21
-7.01097584801036
 31
0.0
  0
LINE
  5
271
330
2
100
AcDbEntity
  8
GEB-VERDECKT
 48
25.0
100
AcDbLine
 10
102.75
 20
-6.500000000000682
 30
0.0
 11
50.25
 21
-6.500000000000682
 31
0.0
  0
LINE
  5
272
330
2
100
AcDbEntity
  8
GEB-VERDECKT
 48
25.0
100
AcDbLine
 10
102.75
 20
-3.00000000000071
 30
0.0
 11
50.25
 21
-3.00000000000071
 31
0.0
  0
LINE
  5
273
330
2
100
AcDbEntity
  8
GEB-VERDECKT
 48
25.0
100
AcDbLine
 10
73.0
 20
-2.99999999999477
 30
0.0
 11
73.0
 21
-6.81161977365204
 31
0.0
  0
LINE
  5
274
330
2
100
AcDbEntity
  8
GEB-VERDECKT
 48
25.0
100
AcDbLine
 10
80.0
 20
-2.99999999999477
 30
0.0
 11
80.0
 21
-6.81161977365204
 31
0.0
  0
LINE
  5
275
330
2
100
AcDbEntity
  8
GEB-VERDECKT
 48
25.0
100
AcDbLine
 10
93.0
 20
-3.00000000000071
 30
0.0
 11
93.0
 21
-7.01097584801036
 31
0.0
  0
LINE
  5
276
330
2
100
AcDbEntity
  8
GEB-VERDECKT
 48
25.0
100
AcDbLine
 10
99.99999999999994
 20
-3.00000000000071
 30
0.0
 11
99.99999999999994
 21
-6.644121393029081
 31
0.0
  0
LINE
  5
277
330
2
100
AcDbEntity
  8
GEB-VERDECKT
 48
25.0
100
AcDbLine
 10
53.00000000000006
 20
-3.00000000000071
 30
0.0
 11
53.00000000000006
 21
-6.644121393029081
 31
0.0
  0
LINE
  5
278
330
2
100
AcDbEntity
  8
GEB-VERDECKT
 48
25.0
100
AcDbLine
 10
60.0
 20
-3.00000000000071
 30
0.0
 11
60.0
 21
-7.01097584801036
 31
0.0
  0
LINE
  5
279
330
2
100
AcDbEntity
  8
GEB-VERDECKT
 48
25.0
100
AcDbLine
 10
65.15000000000004
 20
-7.280875911318048
 30
0.0
 11
65.15000000000004
 21
-22.80000000000069
 31
0.0
  0
LINE
  5
27A
330
2
100
AcDbEntity
  8
GEB-VERDECKT
 48
25.0
100
AcDbLine
 10
87.84999999999996
 20
-7.280875911318048
 30
0.0
 11
87.84999999999996
 21
-22.80000000000069
 31
0.0
  0
SPLINE
  5
27B
330
2
100
AcDbEntity
  8
GEB-VERDECKT
 48
25.0
100
AcDbSpline
210
0.0
220
0.0
230
1.0
 70
    11
 71
     3
 72
    38
 73
    34
 74
     0
 42
0.0000000001
 43
0.0000000001
 40
0.0
 40
0.0
 40
0.0
 40
0.0
 40
0.1166833165813259
 40
0.1166833165813259
 40
0.2333666331626517
 40
0.2333666331626517
 40
0.3498559518644112
 40
0.3498559518644112
 40
0.4663452705661707
 40
0.4663452705661707
 40
0.5828345892679301
 40
0.5828345892679301
 40
0.6993239079696896
 40
0.6993239079696896
 40
0.8160072245510153
 40
0.8160072245510153
 40
0.9326905411323414
 40
0.9326905411323414
 40
1.080264911775732
 40
1.080264911775732
 40
1.227839282419122
 40
1.227839282419122
 40
1.375297519840151
 40
1.375297519840151
 40
1.52275575726118
 40
1.52275575726118
 40
1.670213994682209
 40
1.670213994682209
 40
1.817672232103238
 40
1.817672232103238
 40
1.965246602746629
 40
1.965246602746629
 40
2.11282097339002
 40
2.11282097339002
 40
2.11282097339002
 40
2.11282097339002
 10
79.94598951681519
 20
-6.843723303266671
 30
0.0
 10
79.87801752989361
 20
-6.864079079769709
 30
0.0
 10
79.73734845049666
 20
-6.885968042625421
 30
0.0
 10
79.32089553853064
 20
-6.926738113442496
 30
0.0
 10
79.04510870836094
 20
-6.945589515805181
 30
0.0
 10
78.44966111276585
 20
-6.975521208776058
 30
0.0
 10
78.08601032664933
 20
-6.988824728263978
 30
0.0
 10
77.30533011390821
 20
-7.006578440323494
 30
0.0
 10
76.88829772900584
 20
-7.010975848005472
 30
0.0
 10
76.11170227099416
 20
-7.010975848005472
 30
0.0
 10
75.69466988609178
 20
-7.006578440323494
 30
0.0
 10
74.91398967335067
 20
-6.988824728263978
 30
0.0
 10
74.55033888723415
 20
-6.975521208776058
 30
0.0
 10
73.95489129163917
 20
-6.945589515805181
 30
0.0
 10
73.67910446146936
 20
-6.926738113442496
 30
0.0
 10
73.26265154950334
 20
-6.885968042625421
 30
0.0
 10
73.12198247010639
 20
-6.864079079769709
 30
0.0
 10
72.96804341021135
 20
-6.817978483917954
 30
0.0
 10
72.9848810260882
 20
-6.79077621049106
 30
0.0
 10
73.25164050665017
 20
-6.741275111321897
 30
0.0
 10
73.50156579253047
 20
-6.71891885499744
 30
0.0
 10
74.13278733985823
 20
-6.683683747271174
 30
0.0
 10
74.5506198353491
 20
-6.668744189848155
 30
0.0
 10
75.48846250014173
 20
-6.648981193929017
 30
0.0
 10
76.00847254192996
 20
-6.644121393022118
 30
0.0
 10
76.99152745807004
 20
-6.644121393022118
 30
0.0
 10
77.51153749985832
 20
-6.648981193929017
 30
0.0
 10
78.4493801646509
 20
-6.668744189848155
 30
0.0
 10
78.86721266014177
 20
-6.683683747271174
 30
0.0
 10
79.49843420746953
 20
-6.71891885499744
 30
0.0
 10
79.74835949334982
 20
-6.741275111321897
 30
0.0
 10
80.0151189739118
 20
-6.79077621049106
 30
0.0
 10
80.03195658978865
 20
-6.817978483917954
 30
0.0
 10
79.94598951681519
 20
-6.843723303266671
 30
0.0
  0
SPLINE
  5
27C
330
2
100
AcDbEntity
  8
GEB-VERDECKT
 48
25.0
100
AcDbSpline
210
0.0
220
0.0
230
1.0
 70
     8
 71
     3
 72
    22
 73
    18
 74
     0
 42
0.0000000001
 43
0.0000000001
 40
0.4663452705627677
 40
0.4663452705627677
 40
0.4663452705661707
 40
0.4663452705661707
 40
0.58283458926793
 40
0.58283458926793
 40
0.6993239079696894
 40
0.6993239079696894
 40
0.8160072245510152
 40
0.8160072245510152
 40
0.9326905411323412
 40
0.9326905411323412
 40
1.080264911775731
 40
1.080264911775731
 40
1.227839282419122
 40
1.227839282419122
 40
1.375297519840151
 40
1.375297519840151
 40
1.522755757253822
 40
1.522755757253822
 40
1.52275575726118
 40
1.52275575726118
 10
93.0
 20
-7.01097584801036
 30
0.0
 10
93.0
 20
-7.010975848010275
 30
0.0
 10
93.06868248606184
 20
-7.006578440328183
 30
0.0
 10
93.35245052201969
 20
-6.988824728268525
 30
0.0
 10
93.56753123329548
 20
-6.975521208780548
 30
0.0
 10
94.06618097413906
 20
-6.945589515809615
 30
0.0
 10
94.38687222973555
 20
-6.926738113446958
 30
0.0
 10
95.10632298963917
 20
-6.885968042629997
 30
0.0
 10
95.50508244184692
 20
-6.86407907977437
 30
0.0
 10
96.37115980776769
 20
-6.817978483922786
 30
0.0
 10
96.90214158766156
 20
-6.790776210496062
 30
0.0
 10
97.90211976338737
 20
-6.741275111327297
 30
0.0
 10
98.37111240279302
 20
-6.718918855003039
 30
0.0
 10
99.12442247547847
 20
-6.683683747277171
 30
0.0
 10
99.45257838006142
 20
-6.668744189854407
 30
0.0
 10
99.8903678268568
 20
-6.648981193936151
 30
0.0
 10
99.99999999998909
 20
-6.644121393029422
 30
0.0
 10
100.0
 20
-6.644121393029081
 30
0.0
  0
SPLINE
  5
27D
330
2
100
AcDbEntity
  8
GEB-VERDECKT
 48
25.0
100
AcDbSpline
210
0.0
220
0.0
230
1.0
 70
     8
 71
     3
 72
    14
 73
    10
 74
     0
 42
0.0000000001
 43
0.0000000001
 40
1.522755757253822
 40
1.522755757253822
 40
1.52275575726118
 40
1.52275575726118
 40
1.670213994682209
 40
1.670213994682209
 40
1.817672232103238
 40
1.817672232103238
 40
1.965246602746629
 40
1.965246602746629
 40
2.112820973390019
 40
2.112820973390019
 40
2.112820973390019
 40
2.112820973390019
 10
53.0
 20
-6.644121393029081
 30
0.0
 10
53.0
 20
-6.644121393028939
 30
0.0
 10
53.10963217313224
 20
-6.648981193935668
 30
0.0
 10
53.54742161993858
 20
-6.668744189854407
 30
0.0
 10
53.87557752452153
 20
-6.683683747277171
 30
0.0
 10
54.62888759720698
 20
-6.718918855003039
 30
0.0
 10
55.09788023661264
 20
-6.741275111327297
 30
0.0
 10
56.09785841233843
 20
-6.790776210496062
 30
0.0
 10
56.62884019223231
 20
-6.817978483922786
 30
0.0
 10
57.11250000000001
 20
-6.843723303271389
 30
0.0
  0
SPLINE
  5
27E
330
2
100
AcDbEntity
  8
GEB-VERDECKT
 48
25.0
100
AcDbSpline
210
0.0
220
0.0
230
1.0
 70
     8
 71
     3
 72
    14
 73
    10
 74
     0
 42
0.0000000001
 43
0.0000000001
 40
0.0
 40
0.0
 40
0.0
 40
0.0
 40
0.1166833165813259
 40
0.1166833165813259
 40
0.2333666331626518
 40
0.2333666331626518
 40
0.3498559518644112
 40
0.3498559518644112
 40
0.4663452705627679
 40
0.4663452705627679
 40
0.4663452705661707
 40
0.4663452705661707
 10
57.11250000000001
 20
-6.843723303271389
 30
0.0
 10
57.49491755815308
 20
-6.86407907977437
 30
0.0
 10
57.89367701036082
 20
-6.885968042629997
 30
0.0
 10
58.61312777026444
 20
-6.926738113446958
 30
0.0
 10
58.93381902586094
 20
-6.945589515809615
 30
0.0
 10
59.43246876670452
 20
-6.975521208780548
 30
0.0
 10
59.64754947798031
 20
-6.988824728268525
 30
0.0
 10
59.931317513934
 20
-7.006578440327899
 30
0.0
 10
59.99999999999596
 20
-7.010975848009991
 30
0.0
 10
60.0
 20
-7.01097584801036
 30
0.0
  0
SPLINE
  5
27F
330
2
100
AcDbEntity
  8
GEB-VERDECKT
 48
25.0
100
AcDbSpline
210
0.0
220
0.0
230
1.0
 70
    12
 71
     2
 72
     6
 73
     3
 74
     0
 42
0.0000000001
 43
0.0000000001
 40
0.1000511876665786
 40
0.1000511876665786
 40
0.1000511876665786
 40
2.217635884578037
 40
2.217635884578037
 40
2.217635884578037
 10
54.14120001321174
 20
-6.66567884329126
 30
0.0
 41
1.052653845186695
 10
67.16172891039917
 20
-7.28087591132072
 30
0.0
 41
1.597003840639932
 10
73.56240383808643
 20
-7.280875911321317
 30
0.0
 41
1.597003840639931
  0
LINE
  5
280
330
2
100
AcDbEntity
  8
GEB-VERDECKT
 48
25.0
100
AcDbLine
 10
50.27948998672304
 20
-3.00000000000108
 30
0.0
 11
50.27948998672304
 21
-6.50000000000108
 31
0.0
  0
SPLINE
  5
281
330
2
100
AcDbEntity
  8
GEB-VERDECKT
 48
25.0
100
AcDbSpline
210
0.0
220
0.0
230
1.0
 70
     8
 71
     3
 72
    12
 73
     8
 74
     0
 42
0.0000000001
 43
0.0000000001
 40
0.9644929883245975
 40
0.9644929883245975
 40
0.9644929883245975
 40
0.9644929883245975
 40
1.157835825797595
 40
1.157835825797595
 40
1.389330604781658
 40
1.389330604781658
 40
1.575223907412686
 40
1.575223907412686
 40
1.575223907412686
 40
1.575223907412686
 10
50.27948998672304
 20
-6.50000000000108
 30
0.0
 10
50.34880381270472
 20
-6.502011268316891
 30
0.0
 10
50.54716865754357
 20
-6.509393331073567
 30
0.0
 10
51.24434293473678
 20
-6.537268780629517
 30
0.0
 10
51.7976594998492
 20
-6.560239123608653
 30
0.0
 10
52.92412874185828
 20
-6.609481554248816
 30
0.0
 10
53.51477212412766
 20
-6.63608122834492
 30
0.0
 10
54.14120001321174
 20
-6.66567884329126
 30
0.0
  0
LINE
  5
282
330
2
100
AcDbEntity
  8
GEB-VERDECKT
 48
25.0
100
AcDbLine
 10
102.7205100132769
 20
-6.50000000000108
 30
0.0
 11
102.7205100132769
 21
-3.00000000000108
 31
0.0
  0
SPLINE
  5
283
330
2
100
AcDbEntity
  8
GEB-VERDECKT
 48
25.0
100
AcDbSpline
210
0.0
220
0.0
230
1.0
 70
     8
 71
     3
 72
    12
 73
     8
 74
     0
 42
0.0000000001
 43
0.0000000001
 40
0.2774581862143782
 40
0.2774581862143782
 40
0.2774581862143782
 40
0.2774581862143782
 40
0.4633514888454068
 40
0.4633514888454068
 40
0.694846267829469
 40
0.694846267829469
 40
0.8881891053024673
 40
0.8881891053024673
 40
0.8881891053024673
 40
0.8881891053024673
 10
98.8587999867882
 20
-6.66567884329126
 30
0.0
 10
99.48522787587235
 20
-6.63608122834492
 30
0.0
 10
100.0758712581417
 20
-6.609481554248816
 30
0.0
 10
101.2023405001508
 20
-6.560239123608653
 30
0.0
 10
101.7556570652632
 20
-6.537268780629517
 30
0.0
 10
102.4528313424564
 20
-6.509393331073567
 30
0.0
 10
102.6511961872953
 20
-6.502011268316891
 30
0.0
 10
102.7205100132769
 20
-6.50000000000108
 30
0.0
  0
SPLINE
  5
284
330
2
100
AcDbEntity
  8
GEB-VERDECKT
 48
25.0
100
AcDbSpline
210
0.0
220
0.0
230
1.0
 70
    12
 71
     2
 72
     6
 73
     3
 74
     0
 42
0.0000000001
 43
0.0000000001
 40
2.217635884578033
 40
2.217635884578033
 40
2.217635884578033
 40
4.335220581489489
 40
4.335220581489489
 40
4.335220581489489
 10
79.43759616191357
 20
-7.28087591132126
 30
0.0
 41
1.597003840639928
 10
85.83827108960127
 20
-7.28087591132072
 30
0.0
 41
1.597003840639928
 10
98.8587999867882
 20
-6.66567884329126
 30
0.0
 41
1.052653845186695
  0
LINE
  5
285
330
2
100
AcDbEntity
  8
GEB-VERDECKT
 48
25.0
100
AcDbLine
 10
87.84999999999996
 20
-7.280875911318048
 30
0.0
 11
65.15000000000004
 21
-7.280875911318048
 31
0.0
  0
SPLINE
  5
286
330
2
100
AcDbEntity
  8
GEB-VERDECKT
 48
25.0
100
AcDbSpline
210
0.0
220
0.0
230
1.0
 70
     8
 71
     3
 72
    27
 73
    23
 74
     0
 42
0.0000000001
 43
0.0000000001
 40
-0.180865270126778
 40
-0.180865270126778
 40
-0.180865270126778
 40
-0.180865270126778
 40
0.0
 40
0.0
 40
0.0
 40
0.3325675604680591
 40
0.3325675604680591
 40
0.6651351209361183
 40
0.6651351209361183
 40
0.9916529056786091
 40
0.9916529056786091
 40
1.318170690421099
 40
1.318170690421099
 40
1.64468847516359
 40
1.64468847516359
 40
1.971206259906081
 40
1.971206259906081
 40
2.30377382037414
 40
2.30377382037414
 40
2.636341380842199
 40
2.636341380842199
 40
2.817206664835975
 40
2.817206664835975
 40
2.817206664835975
 40
2.817206664835975
 10
84.60246875958189
 20
-22.80000000000308
 30
0.0
 10
84.73345691415477
 20
-22.21037364983519
 30
0.0
 10
84.80000000000002
 20
-21.60288423375892
 30
0.0
 10
84.80000000000002
 20
-21.00000000000301
 30
0.0
 10
84.80000000000002
 20
-19.89144146510949
 30
0.0
 10
84.56989052217574
 20
-18.77154432864159
 30
0.0
 10
83.71579110449079
 20
-16.75482166808564
 30
0.0
 10
83.08983772215464
 20
-15.85186515446139
 30
0.0
 10
81.66124793909535
 20
-14.42327537140238
 30
0.0
 10
80.75640360232894
 20
-13.78926271954572
 30
0.0
 10
78.72102863008336
 20
-12.92666479717047
 30
0.0
 10
77.58839261580835
 20
-12.70000000000408
 30
0.0
 10
75.41160738419165
 20
-12.70000000000408
 30
0.0
 10
74.27897136991663
 20
-12.92666479717047
 30
0.0
 10
72.24359639767107
 20
-13.78926271954572
 30
0.0
 10
71.33875206090465
 20
-14.42327537140238
 30
0.0
 10
69.91016227784536
 20
-15.85186515446139
 30
0.0
 10
69.2842088955092
 20
-16.75482166808564
 30
0.0
 10
68.43010947782426
 20
-18.77154432864159
 30
0.0
 10
68.19999999999999
 20
-19.89144146510949
 30
0.0
 10
68.19999999999999
 20
-21.60288427998225
 30
0.0
 10
68.26654308367375
 20
-22.21037364006034
 30
0.0
 10
68.39753124041812
 20
-22.80000000000308
 30
0.0
  0
LINE
  5
287
330
2
100
AcDbEntity
  8
GEB-VERDECKT
 48
25.0
100
AcDbLine
 10
65.15000000000004
 20
-22.80000000000069
 30
0.0
 11
62.95000000000005
 21
-25.00000000000071
 31
0.0
  0
LINE
  5
288
330
2
100
AcDbEntity
  8
GEB-VERDECKT
 48
25.0
100
AcDbLine
 10
87.84999999999996
 20
-22.80000000000072
 30
0.0
 11
90.04999999999995
 21
-25.00000000000071
 31
0.0
  0
LINE
  5
289
330
2
100
AcDbEntity
  8
GEB-VERDECKT
 48
25.0
100
AcDbLine
 10
90.04999999999995
 20
-48.00000000000068
 30
0.0
 11
90.04999999999995
 21
-25.00000000000071
 31
0.0
  0
LINE
  5
28A
330
2
100
AcDbEntity
  8
GEB-VERDECKT
 48
25.0
100
AcDbLine
 10
62.95000000000005
 20
-48.00000000000068
 30
0.0
 11
62.95000000000005
 21
-25.00000000000071
 31
0.0
  0
LINE
  5
28B
330
2
100
AcDbEntity
  8
GEB-VERDECKT
 48
25.0
100
AcDbLine
 10
62.95000000000005
 20
-48.00000000000068
 30
0.0
 11
60.76794919243116
 21
-51.77942286340666
 31
0.0
  0
LINE
  5
28C
330
2
100
AcDbEntity
  8
GEB-VERDECKT
 48
25.0
100
AcDbLine
 10
90.04999999999995
 20
-48.00000000000068
 30
0.0
 11
92.23205080756883
 21
-51.77942286340666
 31
0.0
  0
ARC
  5
28D
330
2
100
AcDbEntity
  8
GEB-VERDECKT
 48
25.0
100
AcDbCircle
 10
62.5
 20
-52.77942286340667
 30
0.0
 40
2.000000000000019
100
AcDbArc
 50
149.9999999999994
 51
180.0
  0
ARC
  5
28E
330
2
100
AcDbEntity
  8
GEB-VERDECKT
 48
25.0
100
AcDbCircle
 10
90.5
 20
-52.77942286340667
 30
0.0
 40
2.000000000000019
100
AcDbArc
 50
0.0
 51
30.00000000000055
  0
LINE
  5
28F
330
2
100
AcDbEntity
  8
GEB-VERDECKT
 48
25.0
100
AcDbLine
 10
92.5
 20
-53.20785784962907
 30
0.0
 11
92.5
 21
-52.77942286340667
 31
0.0
  0
LINE
  5
290
330
2
100
AcDbEntity
  8
GEB-VERDECKT
 48
25.0
100
AcDbLine
 10
60.5
 20
-53.20785784962907
 30
0.0
 11
60.5
 21
-52.77942286340667
 31
0.0
  0
ARC
  5
291
330
2
100
AcDbEntity
  8
GEB-VERDECKT
 48
25.0
100
AcDbCircle
 10
62.5
 20
-53.20785784962907
 30
0.0
 40
1.999999999999997
100
AcDbArc
 50
180.0
 51
249.9999999999999
  0
ARC
  5
292
330
2
100
AcDbEntity
  8
GEB-VERDECKT
 48
25.0
100
AcDbCircle
 10
90.5
 20
-53.20785784962907
 30
0.0
 40
1.999999999999997
100
AcDbArc
 50
290.0000000000001
 51
0.0
  0
LINE
  5
293
330
2
100
AcDbEntity
  8
GEB-VERDECKT
 48
25.0
100
AcDbLine
 10
90.04999999999995
 20
-55.50000000000068
 30
0.0
 11
91.18404028665134
 21
-55.08724309120086
 31
0.0
  0
LINE
  5
294
330
2
100
AcDbEntity
  8
GEB-VERDECKT
 48
25.0
100
AcDbLine
 10
62.95000000000005
 20
-55.50000000000068
 30
0.0
 11
61.81595971334866
 21
-55.08724309120086
 31
0.0
  0
LINE
  5
295
330
2
100
AcDbEntity
  8
GEB-VERDECKT
 48
25.0
100
AcDbLine
 10
90.04999999999995
 20
-25.00000000000071
 30
0.0
 11
62.95000000000005
 21
-25.00000000000071
 31
0.0
  0
LINE
  5
296
330
2
100
AcDbEntity
  8
GEB-VERDECKT
 48
25.0
100
AcDbLine
 10
90.04999999999995
 20
-48.00000000000068
 30
0.0
 11
62.95000000000005
 21
-48.00000000000068
 31
0.0
  0
LINE
  5
297
330
2
100
AcDbEntity
  8
GEB-VERDECKT
 48
25.0
100
AcDbLine
 10
90.04999999999995
 20
-55.50000000000068
 30
0.0
 11
62.95000000000005
 21
-55.50000000000068
 31
0.0
  0
LINE
  5
298
330
2
100
AcDbEntity
  8
GEB-VERDECKT
 48
25.0
100
AcDbLine
 10
87.84999999999996
 20
-22.80000000000072
 30
0.0
 11
65.15000000000004
 21
-22.80000000000072
 31
0.0
  0
SPLINE
  5
299
330
2
100
AcDbEntity
  8
GEB-VERDECKT
 48
25.0
100
AcDbSpline
210
0.0
220
0.0
230
1.0
 70
     8
 71
     3
 72
    10
 73
     6
 74
     0
 42
0.0000000001
 43
0.0000000001
 40
8.058249977828447
 40
8.058249977828447
 40
8.058249977828447
 40
8.058249977828447
 40
8.232751391615448
 40
8.232751391615448
 40
8.466068728267851
 40
8.466068728267851
 40
8.466068728267851
 40
8.466068728267851
 10
83.77255113423069
 20
-25.00000000000409
 30
0.0
 10
83.95084523700615
 20
-24.67583675516241
 30
0.0
 10
84.09846184470689
 20
-24.35578080587189
 30
0.0
 10
84.38057174601954
 20
-23.6418666887331
 30
0.0
 10
84.5092036458961
 20
-23.21982092777984
 30
0.0
 10
84.60246875958189
 20
-22.80000000000308
 30
0.0
  0
SPLINE
  5
29A
330
2
100
AcDbEntity
  8
GEB-VERDECKT
 48
25.0
100
AcDbSpline
210
0.0
220
0.0
230
1.0
 70
     8
 71
     3
 72
    10
 73
     6
 74
     0
 42
0.0000000001
 43
0.0000000001
 40
5.489832282047297
 40
5.489832282047297
 40
5.489832282047297
 40
5.489832282047297
 40
5.723149618699701
 40
5.723149618699701
 40
5.897651032486702
 40
5.897651032486702
 40
5.897651032486702
 40
5.897651032486702
 10
68.39753124041812
 20
-22.80000000000308
 30
0.0
 10
68.4907963541039
 20
-23.21982092777984
 30
0.0
 10
68.61942825398045
 20
-23.64186668873305
 30
0.0
 10
68.90153815529311
 20
-24.35578080587189
 30
0.0
 10
69.04915476299385
 20
-24.67583675516241
 30
0.0
 10
69.2274488657693
 20
-25.00000000000409
 30
0.0
  0
SPLINE
  5
29B
330
2
100
AcDbEntity
  8
GEB-VERDECKT
 48
25.0
100
AcDbSpline
210
0.0
220
0.0
230
1.0
 70
     8
 71
     3
 72
    18
 73
    14
 74
     0
 42
0.0000000001
 43
0.0000000001
 40
0.4099523842370038
 40
0.4099523842370038
 40
0.4099523842370038
 40
0.4099523842370038
 40
0.6484669980069616
 40
0.6484669980069616
 40
0.970383311770699
 40
0.970383311770699
 40
1.292299625534436
 40
1.292299625534436
 40
1.614215939298174
 40
1.614215939298174
 40
1.936132253061911
 40
1.936132253061911
 40
2.174646866831869
 40
2.174646866831869
 40
2.174646866831869
 40
2.174646866831869
 10
69.2274488657693
 20
-25.00000000000409
 30
0.0
 10
69.61413700301694
 20
-25.70305231278755
 30
0.0
 10
70.09872074838359
 20
-26.33669331608451
 30
0.0
 10
71.34943422430348
 20
-27.5874067920046
 30
0.0
 10
72.26358293334675
 20
-28.22250964408965
 30
0.0
 10
74.30148994212419
 20
-29.07950698452129
 30
0.0
 10
75.42694562078754
 20
-29.30000000000473
 30
0.0
 10
77.57305437921246
 20
-29.30000000000473
 30
0.0
 10
78.6985100578758
 20
-29.07950698452129
 30
0.0
 10
80.73641706665325
 20
-28.22250964408965
 30
0.0
 10
81.65056577569652
 20
-27.5874067920046
 30
0.0
 10
82.90127925161641
 20
-26.33669331608451
 30
0.0
 10
83.38586299698306
 20
-25.70305231278758
 30
0.0
 10
83.77255113423069
 20
-25.00000000000409
 30
0.0
  0
CIRCLE
  5
29C
330
2
100
AcDbEntity
  8
GEB-VERDECKT
 48
25.0
100
AcDbCircle
 10
76.5
 20
-21.00000000000759
 30
0.0
 40
16.34999999999999
  0
CIRCLE
  5
29D
330
2
100
AcDbEntity
  8
GEB-VERDECKT
 48
25.0
100
AcDbCircle
 10
76.5
 20
-21.00000000000676
 30
0.0
 40
11.29999999999999
  0
CIRCLE
  5
29E
330
2
100
AcDbEntity
  8
GEB-VERDECKT
 48
25.0
100
AcDbCircle
 10
76.5
 20
-21.00000000000608
 30
0.0
 40
13.19999999999999
  0
SPLINE
  5
29F
330
2
100
AcDbEntity
  8
GEB-VERDECKT
 48
25.0
100
AcDbSpline
210
0.0
220
0.0
230
1.0
 70
    11
 71
     3
 72
    38
 73
    34
 74
     0
 42
0.0000000001
 43
0.0000000001
 40
0.0
 40
0.0
 40
0.0
 40
0.0
 40
0.2015281700218617
 40
0.2015281700218617
 40
0.4030563400437234
 40
0.4030563400437234
 40
0.6036670471646021
 40
0.6036670471646021
 40
0.8042777542854807
 40
0.8042777542854807
 40
1.004888461406359
 40
1.004888461406359
 40
1.205499168527237
 40
1.205499168527237
 40
1.407027338549099
 40
1.407027338549099
 40
1.608555508570961
 40
1.608555508570961
 40
1.810083678592823
 40
1.810083678592823
 40
2.011611848614684
 40
2.011611848614684
 40
2.212222555735563
 40
2.212222555735563
 40
2.412833262856441
 40
2.412833262856441
 40
2.613443969977319
 40
2.613443969977319
 40
2.814054677098198
 40
2.814054677098198
 40
3.01558284712006
 40
3.01558284712006
 40
3.217111017141921
 40
3.217111017141921
 40
3.217111017141921
 40
3.217111017141921
 10
81.69999999999999
 20
-21.00000000000301
 30
0.0
 10
81.69999999999999
 20
-20.32823943326346
 30
0.0
 10
81.56262761566143
 20
-19.62623634898989
 30
0.0
 10
81.02820277009056
 20
-18.35182723781366
 30
0.0
 10
80.63145467538333
 20
-17.77754415104647
 30
0.0
 10
79.72452497085715
 20
-16.87061444652033
 30
0.0
 10
79.14961232524035
 20
-16.47238930627213
 30
0.0
 10
77.87216527237553
 20
-15.93671370985896
 30
0.0
 10
77.16870235706955
 20
-15.80000000000348
 30
0.0
 10
75.83129764293045
 20
-15.80000000000348
 30
0.0
 10
75.12783472762447
 20
-15.93671370985896
 30
0.0
 10
73.85038767475965
 20
-16.47238930627213
 30
0.0
 10
73.27547502914285
 20
-16.87061444652033
 30
0.0
 10
72.36854532461666
 20
-17.77754415104647
 30
0.0
 10
71.97179722990944
 20
-18.35182723781366
 30
0.0
 10
71.43737238433857
 20
-19.62623634898989
 30
0.0
 10
71.30000000000001
 20
-20.32823943326346
 30
0.0
 10
71.30000000000001
 20
-21.67176056674254
 30
0.0
 10
71.43737238433857
 20
-22.37376365101614
 30
0.0
 10
71.97179722990944
 20
-23.64817276219259
 30
0.0
 10
72.36854532461666
 20
-24.2224558489599
 30
0.0
 10
73.27547502914285
 20
-25.12938555348626
 30
0.0
 10
73.85038767475965
 20
-25.5276106937346
 30
0.0
 10
75.12783472762447
 20
-26.06328629014792
 30
0.0
 10
75.83129764293045
 20
-26.20000000000346
 30
0.0
 10
77.16870235706955
 20
-26.20000000000346
 30
0.0
 10
77.87216527237553
 20
-26.06328629014792
 30
0.0
 10
79.14961232524035
 20
-25.5276106937346
 30
0.0
 10
79.72452497085715
 20
-25.12938555348626
 30
0.0
 10
80.63145467538333
 20
-24.2224558489599
 30
0.0
 10
81.02820277009056
 20
-23.64817276219256
 30
0.0
 10
81.56262761566143
 20
-22.37376365101614
 30
0.0
 10
81.69999999999999
 20
-21.67176056674254
 30
0.0
 10
81.69999999999999
 20
-21.00000000000301
 30
0.0
  0
LINE
  5
2A0
330
2
100
AcDbEntity
  8
GEB-VERDECKT
 48
25.0
100
AcDbLine
 10
67.18450000000001
 20
-15.50000000000071
 30
0.0
 11
67.18450000000001
 21
-53.56550000000066
 31
0.0
  0
LINE
  5
2A1
330
2
100
AcDbEntity
  8
GEB-VERDECKT
 48
25.0
100
AcDbLine
 10
85.81549999999998
 20
-15.50000000000071
 30
0.0
 11
85.81549999999998
 21
-53.56550000000066
 31
0.0
  0
LINE
  5
2A2
330
2
100
AcDbEntity
  8
GEB-VERDECKT
 48
25.0
100
AcDbLine
 10
67.18450000000001
 20
-53.56550000000069
 30
0.0
 11
65.25
 21
-55.50000000000068
 31
0.0
  0
LINE
  5
2A3
330
2
100
AcDbEntity
  8
GEB-VERDECKT
 48
25.0
100
AcDbLine
 10
85.81549999999998
 20
-53.56550000000066
 30
0.0
 11
87.75
 21
-55.50000000000068
 31
0.0
  0
LINE
  5
2A4
330
2
100
AcDbEntity
  8
GEB-VERDECKT
 48
25.0
100
AcDbLine
 10
76.5
 20
-9.902682903449459
 30
0.0
 11
67.18450000000001
 21
-15.50000000000071
 31
0.0
  0
LINE
  5
2A5
330
2
100
AcDbEntity
  8
GEB-VERDECKT
 48
25.0
100
AcDbLine
 10
76.5
 20
-9.902682903449459
 30
0.0
 11
85.81549999999998
 21
-15.50000000000071
 31
0.0
  0
LINE
  5
2A6
330
2
100
AcDbEntity
  8
GEB-VERDECKT
 48
25.0
100
AcDbLine
 10
67.18450000000001
 20
-53.56550000000066
 30
0.0
 11
85.81549999999998
 21
-53.56550000000066
 31
0.0
  0
LINE
  5
2A7
330
2
100
AcDbEntity
  8
GEB-VERDECKT
 48
25.0
100
AcDbLine
 10
67.18450000000001
 20
-15.50000000000071
 30
0.0
 11
85.81549999999998
 21
-15.50000000000071
 31
0.0
  0
TEXT
  5
2A8
330
2
100
AcDbEntity
  8
GEB-TEXT
100
AcDbText
 10
-40.75972032742155
 20
-66.00000000000068
 30
0.0
 40
3.5
  1
AnWinSet 2x Mpad PF Ms d20-Rp1/2
 72
     1
 11
0.0
 21
-66.00000000000068
 31
0.0
100
AcDbText
  0
TEXT
  5
2AA
330
2
100
AcDbEntity
  8
GEB-TEXT
100
AcDbText
 10
-16.98431105047749
 20
-60.50000000000068
 30
0.0
 40
3.5
  1
Geberit PushFit
 72
     1
 11
0.0
 21
-60.50000000000068
 31
0.0
100
AcDbText
  0
TEXT
  5
2AB
330
2
100
AcDbEntity
  8
GEB-ART-NR
100
AcDbText
 10
-24.17544479964571
 20
-72.3427812542809
 30
0.0
 40
3.5
  1
GEB-ART-NR 651.300
 72
     1
 11
0.552556564610768
 21
-72.3427812542809
 31
0.0
100
AcDbText
  0
ENDSEC
  0
SECTION
  2
OBJECTS
  0
DICTIONARY
  5
9
330
0
100
AcDbDictionary
281
     1
  3
ACAD_2007HEADERVARS_RT
350
362
  3
ACAD_COLOR
350
44
  3
ACAD_GROUP
350
31
  3
ACAD_LAYOUT
350
16
  3
ACAD_MATERIAL
350
B
  3
ACAD_MLEADERSTYLE
350
47
  3
ACAD_MLINESTYLE
350
32
  3
ACAD_PLOTSETTINGS
350
33
  3
ACAD_PLOTSTYLENAME
350
8
  3
ACAD_SCALELIST
350
45
  3
ACAD_TABLESTYLE
350
46
  3
ACAD_VISUALSTYLE
350
2B
  3
ACDB_RECOMPOSE_DATA
350
361
  3
AcDbVariableDictionary
350
30B
  3
AcmDictionary
350
2BE
  3
AcmSystemVariableManager
350
379
  3
AMG
350
2AF
  0
DICTIONARY
  5
2C
330
28
100
AcDbDictionary
280
     1
281
     1
  0
DICTIONARY
  5
1C
330
1B
100
AcDbDictionary
280
     1
281
     1
  3
ACAD_LAYERFILTERS
360
1D
  3
ACLYDICTIONARY
360
1E
  0
DICTIONARY
  5
3
330
2
100
AcDbDictionary
280
     1
281
     1
  3
ACAD_SORTENTS
360
2AD
  0
DICTIONARY
  5
362
102
{ACAD_REACTORS
330
9
102
}
330
9
100
AcDbDictionary
281
     1
  3
DIMARCSYM
350
363
  3
DIMLTEX1
350
365
  3
DIMLTEX2
350
366
  3
DIMLTYPE
350
364
  0
DICTIONARY
  5
44
102
{ACAD_REACTORS
330
9
102
}
330
9
100
AcDbDictionary
281
     1
  0
DICTIONARY
  5
31
102
{ACAD_REACTORS
330
9
102
}
330
9
100
AcDbDictionary
281
     1
  0
DICTIONARY
  5
16
102
{ACAD_REACTORS
330
9
102
}
330
9
100
AcDbDictionary
281
     1
  3
Layout1
350
1A
  3
Model
350
15
  0
DICTIONARY
  5
B
102
{ACAD_REACTORS
330
9
102
}
330
9
100
AcDbDictionary
281
     1
  3
ByBlock
350
3C
  3
ByLayer
350
34
  3
Global
350
A
  0
DICTIONARY
  5
47
102
{ACAD_REACTORS
330
9
102
}
330
9
100
AcDbDictionary
281
     1
  3
Standard
350
329
  0
DICTIONARY
  5
32
102
{ACAD_REACTORS
330
9
102
}
330
9
100
AcDbDictionary
281
     1
  3
Standard
350
48
  0
DICTIONARY
  5
33
102
{ACAD_REACTORS
330
9
102
}
330
9
100
AcDbDictionary
281
     1
  0
ACDBDICTIONARYWDFLT
  5
8
102
{ACAD_REACTORS
330
9
102
}
330
9
100
AcDbDictionary
281
     1
  3
Normal
350
7
100
AcDbDictionaryWithDefault
340
7
  0
DICTIONARY
  5
45
102
{ACAD_REACTORS
330
9
102
}
330
9
100
AcDbDictionary
281
     1
  3
A0
350
4D
  3
A1
350
4E
  3
A2
350
4F
  3
A3
350
50
  3
A4
350
51
  3
A5
350
52
  3
A6
350
53
  3
A7
350
54
  3
A8
350
55
  3
A9
350
56
  3
B0
350
57
  3
B1
350
58
  3
B2
350
59
  3
B3
350
5A
  3
B4
350
5B
  3
B5
350
5C
  3
B6
350
5D
  3
B7
350
5E
  3
B8
350
5F
  3
B9
350
60
  3
C0
350
61
  3
C1
350
62
  3
C2
350
63
  3
C3
350
64
  3
C4
350
65
  3
C5
350
66
  3
C6
350
67
  3
C7
350
68
  3
C8
350
69
  3
C9
350
6A
  3
D0
350
6B
  3
D1
350
6C
  3
D2
350
6D
  0
DICTIONARY
  5
46
102
{ACAD_REACTORS
330
9
102
}
330
9
100
AcDbDictionary
281
     1
  3
Standard
350
49
  0
DICTIONARY
  5
2B
102
{ACAD_REACTORS
330
9
102
}
330
9
100
AcDbDictionary
281
     1
  3
2dWireframe
350
2A
  3
Basic
350
318
  3
Brighten
350
31C
  3
ColorChange
350
320
  3
Conceptual
350
31A
  3
Dim
350
31B
  3
EdgeColorOff
350
328
  3
Facepattern
350
31F
  3
Flat
350
314
  3
FlatWithEdges
350
315
  3
Gouraud
350
316
  3
GouraudWithEdges
350
317
  3
Hidden
350
319
  3
JitterOff
350
326
  3
Linepattern
350
31E
  3
OverhangOff
350
327
  3
Realistic
350
4B
  3
Shaded
350
325
  3
Shaded with edges
350
324
  3
Shades of Gray
350
321
  3
Sketchy
350
322
  3
Thicken
350
31D
  3
Wireframe
350
4C
  3
X-Ray
350
323
  0
XRECORD
  5
361
102
{ACAD_REACTORS
330
9
102
}
330
9
100
AcDbXrecord
280
     1
 90
        1
330
49
  0
DICTIONARY
  5
30B
102
{ACAD_REACTORS
330
9
102
}
330
9
100
AcDbDictionary
281
     1
  3
CANNOSCALE
350
30F
  3
CMLEADERSTYLE
350
30D
  3
CTABLESTYLE
350
30C
  3
DIMASSOC
350
35E
  3
HIDETEXT
350
35D
  3
INDEXCTL
350
35C
  3
LAYEREVAL
350
311
  3
LAYERNOTIFY
350
312
  3
LIGHTINGUNITS
350
310
  3
MSLTSCALE
350
30E
  3
SORTENTS
350
35B
  3
XCLIPFRAME
350
35F
  0
DICTIONARY
  5
2BE
102
{ACAD_REACTORS
330
9
102
}
330
9
100
AcDbDictionary
281
     1
  3
AcmStdDictionary
350
2BF
  0
DICTIONARY
  5
2AF
102
{ACAD_REACTORS
330
9
102
}
330
9
100
AcDbDictionary
281
     1
  3
AcMgSettings
350
2B9
  0
DICTIONARY
  5
1D
102
{ACAD_REACTORS
330
1C
102
}
330
1C
100
AcDbDictionary
281
     1
  0
DICTIONARY
  5
1E
102
{ACAD_REACTORS
330
1C
102
}
330
1C
100
AcDbDictionary
281
     1
1001
ACAD
1000
<All
  0
SORTENTSTABLE
  5
2AD
102
{ACAD_REACTORS
330
3
102
}
330
3
100
AcDbSortentsTable
330
2
331
297
  5
89
331
12E
  5
1F2
331
B4
  5
26C
331
293
  5
8D
331
EF
  5
231
331
12A
  5
1F6
331
B0
  5
270
331
28F
  5
91
331
EB
  5
235
331
AC
  5
274
331
126
  5
1FA
331
165
  5
1BB
331
28B
  5
95
331
A8
  5
278
331
161
  5
1BF
331
122
  5
1FE
331
77
  5
2A5
331
21E
  5
102
331
1A4
  5
17C
331
1DF
  5
141
331
21A
  5
106
331
1A0
  5
180
331
1DB
  5
145
331
19C
  5
184
331
255
  5
CB
331
216
  5
10A
331
198
  5
188
331
251
  5
CF
331
212
  5
10E
331
E7
  5
239
331
287
  5
99
331
E3
  5
23D
331
15D
  5
1C3
331
11E
  5
202
331
A4
  5
27C
331
283
  5
9D
331
DF
  5
241
331
159
  5
1C7
331
11A
  5
206
331
A0
  5
280
331
27F
  5
A1
331
DB
  5
245
331
9C
  5
284
331
116
  5
20A
331
155
  5
1CB
331
27B
  5
A5
331
98
  5
288
331
151
  5
1CF
331
112
  5
20E
331
1D7
  5
149
331
1D3
  5
14D
331
24D
  5
D3
331
20E
  5
112
331
194
  5
18C
331
1CF
  5
151
331
20A
  5
116
331
249
  5
D7
331
1CB
  5
155
331
18C
  5
194
331
245
  5
DB
331
206
  5
11A
331
188
  5
198
331
241
  5
DF
331
202
  5
11E
331
D7
  5
249
331
277
  5
A9
331
94
  5
28C
331
14D
  5
1D3
331
10E
  5
212
331
D3
  5
24D
331
273
  5
AD
331
CF
  5
251
331
149
  5
1D7
331
10A
  5
216
331
90
  5
290
331
26F
  5
B1
331
CB
  5
255
331
8C
  5
294
331
106
  5
21A
331
145
  5
1DB
331
26B
  5
B5
331
88
  5
298
331
141
  5
1DF
331
102
  5
21E
331
1C7
  5
159
331
1C3
  5
15D
331
23D
  5
E3
331
1FE
  5
122
331
184
  5
19C
331
1BF
  5
161
331
180
  5
1A0
331
1FA
  5
126
331
239
  5
E7
331
1BB
  5
165
331
17C
  5
1A4
331
1F6
  5
12A
331
235
  5
EB
331
178
  5
1A8
331
231
  5
EF
331
1F2
  5
12E
331
2A6
  5
75
331
C7
  5
259
331
267
  5
B9
331
84
  5
29C
331
13D
  5
1E3
331
FE
  5
222
331
C3
  5
25D
331
263
  5
BD
331
2A2
  5
7A
331
BF
  5
261
331
139
  5
1E7
331
FA
  5
226
331
80
  5
29F
331
25F
  5
C1
331
29E
  5
81
331
29A
  5
86
331
BB
  5
265
331
F6
  5
22A
331
135
  5
1EB
331
25B
  5
C5
331
78
  5
2A4
331
131
  5
1EF
331
F2
  5
22E
331
1B7
  5
169
331
1B3
  5
16D
331
22D
  5
F3
331
1EE
  5
132
331
174
  5
1AC
331
1AF
  5
171
331
229
  5
F7
331
1EA
  5
136
331
170
  5
1B0
331
1AB
  5
175
331
16C
  5
1B4
331
1E6
  5
13A
331
225
  5
FB
331
168
  5
1B8
331
221
  5
FF
331
1E2
  5
13E
331
B7
  5
269
331
296
  5
8A
331
12D
  5
1F3
331
B3
  5
26D
331
292
  5
8E
331
EE
  5
232
331
129
  5
1F7
331
AF
  5
271
331
28E
  5
92
331
EA
  5
236
331
AB
  5
275
331
164
  5
1BC
331
125
  5
1FB
331
28A
  5
96
331
160
  5
1C0
331
121
  5
1FF
331
1A7
  5
179
331
21D
  5
103
331
1A3
  5
17D
331
1DE
  5
142
331
219
  5
107
331
19F
  5
181
331
19B
  5
185
331
254
  5
CC
331
215
  5
10B
331
1DA
  5
146
331
250
  5
D0
331
211
  5
10F
331
A7
  5
279
331
E6
  5
23A
331
286
  5
9A
331
E2
  5
23E
331
15C
  5
1C4
331
11D
  5
203
331
A3
  5
27D
331
282
  5
9E
331
DE
  5
242
331
9F
  5
281
331
119
  5
207
331
158
  5
1C8
331
27E
  5
A2
331
DA
  5
246
331
9B
  5
285
331
115
  5
20B
331
154
  5
1CC
331
27A
  5
A6
331
150
  5
1D0
331
111
  5
20F
331
6E
  5
2A7
331
197
  5
189
331
1D6
  5
14A
331
1D2
  5
14E
331
24C
  5
D4
331
20D
  5
113
331
193
  5
18D
331
1CE
  5
152
331
18F
  5
191
331
209
  5
117
331
248
  5
D8
331
1CA
  5
156
331
18B
  5
195
331
244
  5
DC
331
205
  5
11B
331
240
  5
E0
331
201
  5
11F
331
97
  5
289
331
D6
  5
24A
331
276
  5
AA
331
D2
  5
24E
331
14C
  5
1D4
331
10D
  5
213
331
93
  5
28D
331
272
  5
AE
331
CE
  5
252
331
148
  5
1D8
331
109
  5
217
331
8F
  5
291
331
26E
  5
B2
331
CA
  5
256
331
8B
  5
295
331
105
  5
21B
331
144
  5
1DC
331
26A
  5
B6
331
140
  5
1E0
331
101
  5
21F
331
187
  5
199
331
1C6
  5
15A
331
1C2
  5
15E
331
23C
  5
E4
331
1FD
  5
123
331
183
  5
19D
331
1BE
  5
162
331
17F
  5
1A1
331
1F9
  5
127
331
238
  5
E8
331
1BA
  5
166
331
17B
  5
1A5
331
234
  5
EC
331
1F5
  5
12B
331
230
  5
F0
331
1F1
  5
12F
331
2A5
  5
77
331
87
  5
299
331
C6
  5
25A
331
266
  5
BA
331
83
  5
29D
331
13C
  5
1E4
331
FD
  5
223
331
C2
  5
25E
331
262
  5
BE
331
2A1
  5
7E
331
29D
  5
83
331
BE
  5
262
331
138
  5
1E8
331
F9
  5
227
331
7F
  5
2A0
331
25E
  5
C2
331
299
  5
87
331
BA
  5
266
331
F5
  5
22B
331
134
  5
1EC
331
25A
  5
C6
331
130
  5
1F0
331
F1
  5
22F
331
177
  5
1A9
331
1B6
  5
16A
331
1B2
  5
16E
331
22C
  5
F4
331
1ED
  5
133
331
173
  5
1AD
331
1AE
  5
172
331
16F
  5
1B1
331
1E9
  5
137
331
228
  5
F8
331
1AA
  5
176
331
16B
  5
1B5
331
1E5
  5
13B
331
224
  5
FC
331
220
  5
100
331
1E1
  5
13F
331
295
  5
8B
331
B6
  5
26A
331
291
  5
8F
331
12C
  5
1F4
331
B2
  5
26E
331
28D
  5
93
331
ED
  5
233
331
AE
  5
272
331
128
  5
1F8
331
167
  5
1B9
331
289
  5
97
331
E9
  5
237
331
AA
  5
276
331
163
  5
1BD
331
124
  5
1FC
331
120
  5
200
331
75
  5
2A6
331
1A6
  5
17A
331
21C
  5
104
331
1A2
  5
17E
331
1DD
  5
143
331
19E
  5
182
331
218
  5
108
331
257
  5
C9
331
19A
  5
186
331
253
  5
CD
331
214
  5
10C
331
1D9
  5
147
331
210
  5
110
331
285
  5
9B
331
A6
  5
27A
331
15F
  5
1C1
331
E5
  5
23B
331
281
  5
9F
331
E1
  5
23F
331
15B
  5
1C5
331
11C
  5
204
331
A2
  5
27E
331
27D
  5
A3
331
DD
  5
243
331
9E
  5
282
331
118
  5
208
331
157
  5
1C9
331
279
  5
A7
331
D9
  5
247
331
9A
  5
286
331
153
  5
1CD
331
114
  5
20C
331
110
  5
210
331
1D5
  5
14B
331
24F
  5
D1
331
196
  5
18A
331
1D1
  5
14F
331
24B
  5
D5
331
20C
  5
114
331
192
  5
18E
331
1CD
  5
153
331
18E
  5
192
331
208
  5
118
331
247
  5
D9
331
18A
  5
196
331
243
  5
DD
331
204
  5
11C
331
1C9
  5
157
331
200
  5
120
331
275
  5
AB
331
96
  5
28A
331
14F
  5
1D1
331
D5
  5
24B
331
271
  5
AF
331
D1
  5
24F
331
14B
  5
1D5
331
10C
  5
214
331
92
  5
28E
331
26D
  5
B3
331
CD
  5
253
331
8E
  5
292
331
108
  5
218
331
147
  5
1D9
331
2A8
  5
2AB
331
269
  5
B7
331
C9
  5
257
331
8A
  5
296
331
104
  5
21C
331
143
  5
1DD
331
100
  5
220
331
186
  5
19A
331
23F
  5
E1
331
1C5
  5
15B
331
1C1
  5
15F
331
23B
  5
E5
331
1FC
  5
124
331
182
  5
19E
331
1BD
  5
163
331
17E
  5
1A2
331
1F8
  5
128
331
237
  5
E9
331
1B9
  5
167
331
17A
  5
1A6
331
233
  5
ED
331
1F4
  5
12C
331
1F0
  5
130
331
2A4
  5
78
331
265
  5
BB
331
86
  5
29A
331
13F
  5
1E1
331
C5
  5
25B
331
261
  5
BF
331
2A0
  5
7F
331
13B
  5
1E5
331
FC
  5
224
331
C1
  5
25F
331
29C
  5
84
331
25D
  5
C3
331
BD
  5
263
331
137
  5
1E9
331
F8
  5
228
331
7E
  5
2A1
331
298
  5
88
331
259
  5
C7
331
B9
  5
267
331
7A
  5
2A2
331
F4
  5
22C
331
133
  5
1ED
331
F0
  5
230
331
176
  5
1AA
331
22F
  5
F1
331
1B5
  5
16B
331
1B1
  5
16F
331
22B
  5
F5
331
1EC
  5
134
331
172
  5
1AE
331
1AD
  5
173
331
16E
  5
1B2
331
1E8
  5
138
331
227
  5
F9
331
1A9
  5
177
331
16A
  5
1B6
331
223
  5
FD
331
1E4
  5
13C
331
1E0
  5
140
331
294
  5
8C
331
12F
  5
1F1
331
B5
  5
26B
331
290
  5
90
331
12B
  5
1F5
331
B1
  5
26F
331
28C
  5
94
331
EC
  5
234
331
AD
  5
273
331
127
  5
1F9
331
166
  5
1BA
331
288
  5
98
331
A9
  5
277
331
162
  5
1BE
331
123
  5
1FD
331
E8
  5
238
331
21F
  5
101
331
1A5
  5
17B
331
21B
  5
105
331
1A1
  5
17F
331
1DC
  5
144
331
19D
  5
183
331
256
  5
CA
331
217
  5
109
331
199
  5
187
331
252
  5
CE
331
213
  5
10D
331
1D8
  5
148
331
284
  5
9C
331
A5
  5
27B
331
15E
  5
1C2
331
11F
  5
201
331
E4
  5
23C
331
280
  5
A0
331
E0
  5
240
331
15A
  5
1C6
331
11B
  5
205
331
A1
  5
27F
331
27C
  5
A4
331
DC
  5
244
331
9D
  5
283
331
117
  5
209
331
156
  5
1CA
331
278
  5
A8
331
D8
  5
248
331
99
  5
287
331
152
  5
1CE
331
113
  5
20D
331
1D4
  5
14C
331
24E
  5
D2
331
20F
  5
111
331
195
  5
18B
331
1D0
  5
150
331
191
  5
18F
331
20B
  5
115
331
24A
  5
D6
331
1CC
  5
154
331
18D
  5
193
331
207
  5
119
331
246
  5
DA
331
189
  5
197
331
242
  5
DE
331
203
  5
11D
331
1C8
  5
158
331
274
  5
AC
331
95
  5
28B
331
14E
  5
1D2
331
10F
  5
211
331
D4
  5
24C
331
270
  5
B0
331
D0
  5
250
331
14A
  5
1D6
331
10B
  5
215
331
91
  5
28F
331
2AB
  5
2A8
331
26C
  5
B4
331
CC
  5
254
331
8D
  5
293
331
107
  5
219
331
146
  5
1DA
331
268
  5
B8
331
C8
  5
258
331
89
  5
297
331
142
  5
1DE
331
103
  5
21D
331
1C4
  5
15C
331
23E
  5
E2
331
1FF
  5
121
331
185
  5
19B
331
1C0
  5
160
331
23A
  5
E6
331
1FB
  5
125
331
181
  5
19F
331
1BC
  5
164
331
17D
  5
1A3
331
1F7
  5
129
331
236
  5
EA
331
179
  5
1A7
331
232
  5
EE
331
1F3
  5
12D
331
1B8
  5
168
331
2A7
  5
6E
331
2A3
  5
79
331
264
  5
BC
331
85
  5
29B
331
13E
  5
1E2
331
FF
  5
221
331
C4
  5
25C
331
260
  5
C0
331
29F
  5
80
331
C0
  5
260
331
13A
  5
1E6
331
FB
  5
225
331
81
  5
29E
331
29B
  5
85
331
25C
  5
C4
331
BC
  5
264
331
F7
  5
229
331
136
  5
1EA
331
258
  5
C8
331
B8
  5
268
331
79
  5
2A3
331
F3
  5
22D
331
132
  5
1EE
331
175
  5
1AB
331
22E
  5
F2
331
1EF
  5
131
331
1B4
  5
16C
331
1B0
  5
170
331
22A
  5
F6
331
1EB
  5
135
331
171
  5
1AF
331
1AC
  5
174
331
16D
  5
1B3
331
1E7
  5
139
331
226
  5
FA
331
1A8
  5
178
331
169
  5
1B7
331
222
  5
FE
331
1E3
  5
13D
  0
XRECORD
  5
363
102
{ACAD_REACTORS
330
362
102
}
330
362
100
AcDbXrecord
280
     1
 70
     1
  0
XRECORD
  5
365
102
{ACAD_REACTORS
330
362
102
}
330
362
100
AcDbXrecord
280
     1
340
24
  0
XRECORD
  5
366
102
{ACAD_REACTORS
330
362
102
}
330
362
100
AcDbXrecord
280
     1
340
24
  0
XRECORD
  5
364
102
{ACAD_REACTORS
330
362
102
}
330
362
100
AcDbXrecord
280
     1
340
24
  0
LAYOUT
  5
1A
102
{ACAD_XDICTIONARY
360
36A
102
}
102
{ACAD_REACTORS
330
16
102
}
330
16
100
AcDbPlotSettings
  1

  2
\\le-server\HP LaserJet 2100
  4

  6

 40
0.0
 41
0.0
 42
0.0
 43
0.0
 44
0.0
 45
0.0
 46
0.0
 47
0.0
 48
0.0
 49
0.0
140
0.0
141
0.0
142
1.0
143
1.0
 70
   688
 72
     0
 73
     0
 74
     5
  7

 75
    16
147
1.0
148
0.0
149
0.0
100
AcDbLayout
  1
Layout1
 70
     1
 71
     1
 10
0.0
 20
0.0
 11
1189.0
 21
840.9999999999998
 12
0.0
 22
0.0
 32
0.0
 14
0.0
 24
0.0
 34
0.0
 15
1189.0
 25
840.9999999999998
 35
0.0
146
0.0
 13
0.0
 23
0.0
 33
0.0
 16
1.0
 26
0.0
 36
0.0
 17
0.0
 27
1.0
 37
0.0
 76
     0
330
17
  0
LAYOUT
  5
15
102
{ACAD_XDICTIONARY
360
368
102
}
102
{ACAD_REACTORS
330
16
102
}
330
16
100
AcDbPlotSettings
  1

  2
\\le-server\HP LaserJet 2100
  4

  6

 40
0.0
 41
0.0
 42
0.0
 43
0.0
 44
0.0
 45
0.0
 46
0.0
 47
0.0
 48
0.0
 49
0.0
140
0.0
141
0.0
142
1.0
143
1.0
 70
  1712
 72
     0
 73
     0
 74
     0
  7

 75
     0
147
1.0
148
0.0
149
0.0
100
AcDbLayout
  1
Model
 70
     1
 71
     0
 10
0.0
 20
0.0
 11
12.0
 21
9.0
 12
0.0
 22
0.0
 32
0.0
 14
0.0
 24
0.0
 34
0.0
 15
0.0
 25
0.0
 35
0.0
146
0.0
 13
0.0
 23
0.0
 33
0.0
 16
1.0
 26
0.0
 36
0.0
 17
0.0
 27
1.0
 37
0.0
 76
     0
330
2
331
29
  0
MATERIAL
  5
3C
102
{ACAD_XDICTIONARY
360
3D
102
}
102
{ACAD_REACTORS
330
B
102
}
330
B
100
AcDbMaterial
  1
ByBlock
 72
     0
 43
0.0208333333333333
 43
0.0
 43
0.0
 43
0.0
 43
0.0
 43
0.0208333333333333
 43
0.0
 43
0.0
 43
0.0
 43
0.0
 43
1.0
 43
0.0
 43
0.0
 43
0.0
 43
0.0
 43
1.0
 77
     0
 47
0.0208333333333333
 47
0.0
 47
0.0
 47
0.0
 47
0.0
 47
0.0208333333333333
 47
0.0
 47
0.0
 47
0.0
 47
0.0
 47
1.0
 47
0.0
 47
0.0
 47
0.0
 47
0.0
 47
1.0
171
     0
 49
0.0208333333333333
 49
0.0
 49
0.0
 49
0.0
 49
0.0
 49
0.0208333333333333
 49
0.0
 49
0.0
 49
0.0
 49
0.0
 49
1.0
 49
0.0
 49
0.0
 49
0.0
 49
0.0
 49
1.0
175
     0
142
0.0208333333333333
142
0.0
142
0.0
142
0.0
142
0.0
142
0.0208333333333333
142
0.0
142
0.0
142
0.0
142
0.0
142
1.0
142
0.0
142
0.0
142
0.0
142
0.0
142
1.0
179
     0
144
0.0208333333333333
144
0.0
144
0.0
144
0.0
144
0.0
144
0.0208333333333333
144
0.0
144
0.0
144
0.0
144
0.0
144
1.0
144
0.0
144
0.0
144
0.0
144
0.0
144
1.0
147
0.0208333333333333
147
0.0
147
0.0
147
0.0
147
0.0
147
0.0208333333333333
147
0.0
147
0.0
147
0.0
147
0.0
147
1.0
147
0.0
147
0.0
147
0.0
147
0.0
147
1.0
  0
MATERIAL
  5
34
102
{ACAD_XDICTIONARY
360
35
102
}
102
{ACAD_REACTORS
330
B
102
}
330
B
100
AcDbMaterial
  1
ByLayer
 72
     0
 43
0.0208333333333333
 43
0.0
 43
0.0
 43
0.0
 43
0.0
 43
0.0208333333333333
 43
0.0
 43
0.0
 43
0.0
 43
0.0
 43
1.0
 43
0.0
 43
0.0
 43
0.0
 43
0.0
 43
1.0
 77
     0
 47
0.0208333333333333
 47
0.0
 47
0.0
 47
0.0
 47
0.0
 47
0.0208333333333333
 47
0.0
 47
0.0
 47
0.0
 47
0.0
 47
1.0
 47
0.0
 47
0.0
 47
0.0
 47
0.0
 47
1.0
171
     0
 49
0.0208333333333333
 49
0.0
 49
0.0
 49
0.0
 49
0.0
 49
0.0208333333333333
 49
0.0
 49
0.0
 49
0.0
 49
0.0
 49
1.0
 49
0.0
 49
0.0
 49
0.0
 49
0.0
 49
1.0
175
     0
142
0.0208333333333333
142
0.0
142
0.0
142
0.0
142
0.0
142
0.0208333333333333
142
0.0
142
0.0
142
0.0
142
0.0
142
1.0
142
0.0
142
0.0
142
0.0
142
0.0
142
1.0
179
     0
144
0.0208333333333333
144
0.0
144
0.0
144
0.0
144
0.0
144
0.0208333333333333
144
0.0
144
0.0
144
0.0
144
0.0
144
1.0
144
0.0
144
0.0
144
0.0
144
0.0
144
1.0
147
0.0208333333333333
147
0.0
147
0.0
147
0.0
147
0.0
147
0.0208333333333333
147
0.0
147
0.0
147
0.0
147
0.0
147
1.0
147
0.0
147
0.0
147
0.0
147
0.0
147
1.0
  0
MATERIAL
  5
A
102
{ACAD_XDICTIONARY
360
C
102
}
102
{ACAD_REACTORS
330
B
102
}
330
B
100
AcDbMaterial
  1
Global
 72
     0
 43
0.0208333333333333
 43
0.0
 43
0.0
 43
0.0
 43
0.0
 43
0.0208333333333333
 43
0.0
 43
0.0
 43
0.0
 43
0.0
 43
1.0
 43
0.0
 43
0.0
 43
0.0
 43
0.0
 43
1.0
 77
     0
 47
0.0208333333333333
 47
0.0
 47
0.0
 47
0.0
 47
0.0
 47
0.0208333333333333
 47
0.0
 47
0.0
 47
0.0
 47
0.0
 47
1.0
 47
0.0
 47
0.0
 47
0.0
 47
0.0
 47
1.0
171
     0
 49
0.0208333333333333
 49
0.0
 49
0.0
 49
0.0
 49
0.0
 49
0.0208333333333333
 49
0.0
 49
0.0
 49
0.0
 49
0.0
 49
1.0
 49
0.0
 49
0.0
 49
0.0
 49
0.0
 49
1.0
175
     0
142
0.0208333333333333
142
0.0
142
0.0
142
0.0
142
0.0
142
0.0208333333333333
142
0.0
142
0.0
142
0.0
142
0.0
142
1.0
142
0.0
142
0.0
142
0.0
142
0.0
142
1.0
179
     0
144
0.0208333333333333
144
0.0
144
0.0
144
0.0
144
0.0
144
0.0208333333333333
144
0.0
144
0.0
144
0.0
144
0.0
144
1.0
144
0.0
144
0.0
144
0.0
144
0.0
144
1.0
147
0.0208333333333333
147
0.0
147
0.0
147
0.0
147
0.0
147
0.0208333333333333
147
0.0
147
0.0
147
0.0
147
0.0
147
1.0
147
0.0
147
0.0
147
0.0
147
0.0
147
1.0
  0
MLEADERSTYLE
  5
329
102
{ACAD_REACTORS
330
47
102
}
330
47
100
AcDbMLeaderStyle
170
     2
171
     1
172
     0
 90
        2
 40
0.0
 41
0.0
173
     1
 91
-1056964608
340
24
 92
       -2
290
     1
 42
2.0
291
     1
 43
0.36
  3
Standard
 44
4.0
300

342
21
174
     1
178
     6
175
     1
176
     0
 93
-1056964608
 45
4.0
292
     0
297
     0
 46
4.0
 94
-1056964608
 47
1.0
 49
1.0
140
1.0
293
     1
141
0.0
294
     1
177
     0
142
1.0
295
     0
296
     0
143
0.125
1001
ACAD_MLEADERVER
1070
     2
  0
MLINESTYLE
  5
48
102
{ACAD_REACTORS
330
32
102
}
330
32
100
AcDbMlineStyle
  2
STANDARD
 70
     0
  3

 62
   256
 51
90.0
 52
90.0
 71
     2
 49
0.5
 62
   256
  6
BYLAYER
 49
-0.5
 62
   256
  6
BYLAYER
  0
ACDBPLACEHOLDER
  5
7
102
{ACAD_REACTORS
330
8
102
}
330
8
  0
SCALE
  5
4D
102
{ACAD_REACTORS
330
45
102
}
330
45
100
AcDbScale
 70
     0
300
1:1
140
1.0
141
1.0
290
     1
  0
SCALE
  5
4E
102
{ACAD_REACTORS
330
45
102
}
330
45
100
AcDbScale
 70
     0
300
1:2
140
1.0
141
2.0
290
     0
  0
SCALE
  5
4F
102
{ACAD_REACTORS
330
45
102
}
330
45
100
AcDbScale
 70
     0
300
1:4
140
1.0
141
4.0
290
     0
  0
SCALE
  5
50
102
{ACAD_REACTORS
330
45
102
}
330
45
100
AcDbScale
 70
     0
300
1:5
140
1.0
141
5.0
290
     0
  0
SCALE
  5
51
102
{ACAD_REACTORS
330
45
102
}
330
45
100
AcDbScale
 70
     0
300
1:8
140
1.0
141
8.0
290
     0
  0
SCALE
  5
52
102
{ACAD_REACTORS
330
45
102
}
330
45
100
AcDbScale
 70
     0
300
1:10
140
1.0
141
10.0
290
     0
  0
SCALE
  5
53
102
{ACAD_REACTORS
330
45
102
}
330
45
100
AcDbScale
 70
     0
300
1:16
140
1.0
141
16.0
290
     0
  0
SCALE
  5
54
102
{ACAD_REACTORS
330
45
102
}
330
45
100
AcDbScale
 70
     0
300
1:20
140
1.0
141
20.0
290
     0
  0
SCALE
  5
55
102
{ACAD_REACTORS
330
45
102
}
330
45
100
AcDbScale
 70
     0
300
1:30
140
1.0
141
30.0
290
     0
  0
SCALE
  5
56
102
{ACAD_REACTORS
330
45
102
}
330
45
100
AcDbScale
 70
     0
300
1:40
140
1.0
141
40.0
290
     0
  0
SCALE
  5
57
102
{ACAD_REACTORS
330
45
102
}
330
45
100
AcDbScale
 70
     0
300
1:50
140
1.0
141
50.0
290
     0
  0
SCALE
  5
58
102
{ACAD_REACTORS
330
45
102
}
330
45
100
AcDbScale
 70
     0
300
1:100
140
1.0
141
100.0
290
     0
  0
SCALE
  5
59
102
{ACAD_REACTORS
330
45
102
}
330
45
100
AcDbScale
 70
     0
300
2:1
140
2.0
141
1.0
290
     0
  0
SCALE
  5
5A
102
{ACAD_REACTORS
330
45
102
}
330
45
100
AcDbScale
 70
     0
300
4:1
140
4.0
141
1.0
290
     0
  0
SCALE
  5
5B
102
{ACAD_REACTORS
330
45
102
}
330
45
100
AcDbScale
 70
     0
300
8:1
140
8.0
141
1.0
290
     0
  0
SCALE
  5
5C
102
{ACAD_REACTORS
330
45
102
}
330
45
100
AcDbScale
 70
     0
300
10:1
140
10.0
141
1.0
290
     0
  0
SCALE
  5
5D
102
{ACAD_REACTORS
330
45
102
}
330
45
100
AcDbScale
 70
     0
300
100:1
140
100.0
141
1.0
290
     0
  0
SCALE
  5
5E
102
{ACAD_REACTORS
330
45
102
}
330
45
100
AcDbScale
 70
     0
300
1/128" = 1'-0"
140
0.0078125
141
12.0
290
     0
  0
SCALE
  5
5F
102
{ACAD_REACTORS
330
45
102
}
330
45
100
AcDbScale
 70
     0
300
1/64" = 1'-0"
140
0.015625
141
12.0
290
     0
  0
SCALE
  5
60
102
{ACAD_REACTORS
330
45
102
}
330
45
100
AcDbScale
 70
     0
300
1/32" = 1'-0"
140
0.03125
141
12.0
290
     0
  0
SCALE
  5
61
102
{ACAD_REACTORS
330
45
102
}
330
45
100
AcDbScale
 70
     0
300
1/16" = 1'-0"
140
0.0625
141
12.0
290
     0
  0
SCALE
  5
62
102
{ACAD_REACTORS
330
45
102
}
330
45
100
AcDbScale
 70
     0
300
3/32" = 1'-0"
140
0.09375
141
12.0
290
     0
  0
SCALE
  5
63
102
{ACAD_REACTORS
330
45
102
}
330
45
100
AcDbScale
 70
     0
300
1/8" = 1'-0"
140
0.125
141
12.0
290
     0
  0
SCALE
  5
64
102
{ACAD_REACTORS
330
45
102
}
330
45
100
AcDbScale
 70
     0
300
3/16" = 1'-0"
140
0.1875
141
12.0
290
     0
  0
SCALE
  5
65
102
{ACAD_REACTORS
330
45
102
}
330
45
100
AcDbScale
 70
     0
300
1/4" = 1'-0"
140
0.25
141
12.0
290
     0
  0
SCALE
  5
66
102
{ACAD_REACTORS
330
45
102
}
330
45
100
AcDbScale
 70
     0
300
3/8" = 1'-0"
140
0.375
141
12.0
290
     0
  0
SCALE
  5
67
102
{ACAD_REACTORS
330
45
102
}
330
45
100
AcDbScale
 70
     0
300
1/2" = 1'-0"
140
0.5
141
12.0
290
     0
  0
SCALE
  5
68
102
{ACAD_REACTORS
330
45
102
}
330
45
100
AcDbScale
 70
     0
300
3/4" = 1'-0"
140
0.75
141
12.0
290
     0
  0
SCALE
  5
69
102
{ACAD_REACTORS
330
45
102
}
330
45
100
AcDbScale
 70
     0
300
1" = 1'-0"
140
1.0
141
12.0
290
     0
  0
SCALE
  5
6A
102
{ACAD_REACTORS
330
45
102
}
330
45
100
AcDbScale
 70
     0
300
1-1/2" = 1'-0"
140
1.5
141
12.0
290
     0
  0
SCALE
  5
6B
102
{ACAD_REACTORS
330
45
102
}
330
45
100
AcDbScale
 70
     0
300
3" = 1'-0"
140
3.0
141
12.0
290
     0
  0
SCALE
  5
6C
102
{ACAD_REACTORS
330
45
102
}
330
45
100
AcDbScale
 70
     0
300
6" = 1'-0"
140
6.0
141
12.0
290
     0
  0
SCALE
  5
6D
102
{ACAD_REACTORS
330
45
102
}
330
45
100
AcDbScale
 70
     0
300
1'-0" = 1'-0"
140
12.0
141
12.0
290
     0
  0
TABLESTYLE
  5
49
102
{ACAD_XDICTIONARY
360
4A
102
}
102
{ACAD_REACTORS
330
46
102
}
330
46
100
AcDbTableStyle
  3
Standard
 70
     0
 71
     0
 40
0.06
 41
0.06
280
     0
281
     0
  7
STANDARD
140
0.18
170
     2
 62
     0
 63
     7
283
     0
274
    -2
284
     1
 64
     0
275
    -2
285
     1
 65
     0
276
    -2
286
     1
 66
     0
277
    -2
287
     1
 67
     0
278
    -2
288
     1
 68
     0
279
    -2
289
     1
 69
     0
  7
STANDARD
140
0.25
170
     5
 62
     0
 63
     7
283
     0
274
    -2
284
     1
 64
     0
275
    -2
285
     1
 65
     0
276
    -2
286
     1
 66
     0
277
    -2
287
     1
 67
     0
278
    -2
288
     1
 68
     0
279
    -2
289
     1
 69
     0
  7
STANDARD
140
0.18
170
     5
 62
     0
 63
     7
283
     0
274
    -2
284
     1
 64
     0
275
    -2
285
     1
 65
     0
276
    -2
286
     1
 66
     0
277
    -2
287
     1
 67
     0
278
    -2
288
     1
 68
     0
279
    -2
289
     1
 69
     0
  0
VISUALSTYLE
  5
2A
102
{ACAD_XDICTIONARY
360
36C
102
}
102
{ACAD_REACTORS
330
2B
102
}
330
2B
100
AcDbVisualStyle
  2
2dWireframe
 70
     4
 71
     0
 72
     2
 73
     0
 90
        0
 40
-0.6
 41
-30.0
 62
     5
 63
     7
 74
     1
 91
        4
 64
     7
 65
   257
 75
     1
175
     1
 42
1.0
 92
        0
 66
   257
 43
1.0
 76
     1
 77
     6
 78
     2
 67
     7
 79
     5
170
     0
171
     0
290
     0
174
     0
 93
        1
 44
0.0
173
     0
291
     0
 45
0.0
1001
ACAD
1000
AcDbSavedByObjectVersion
1070
     0
  0
VISUALSTYLE
  5
318
102
{ACAD_XDICTIONARY
360
383
102
}
102
{ACAD_REACTORS
330
2B
102
}
330
2B
100
AcDbVisualStyle
  2
Basic
 70
     7
 71
     1
 72
     0
 73
     1
 90
        0
 40
-0.6
 41
-30.0
 62
     5
 63
     7
 74
     0
 91
        4
 64
     7
 65
   257
 75
     1
175
     1
 42
1.0
 92
        8
 66
     7
 43
1.0
 76
     1
 77
     6
 78
     2
 67
     7
 79
     5
170
     0
171
     0
290
     0
174
     0
 93
        1
 44
0.0
173
     0
291
     1
 45
0.0
1001
ACAD
1000
AcDbSavedByObjectVersion
1070
     0
  0
VISUALSTYLE
  5
31C
102
{ACAD_XDICTIONARY
360
38B
102
}
102
{ACAD_REACTORS
330
2B
102
}
330
2B
100
AcDbVisualStyle
  2
Brighten
 70
    12
 71
     2
 72
     2
 73
     0
 90
        0
 40
-0.6
 41
-30.0
 62
     5
 63
     7
 74
     1
 91
        4
 64
     7
 65
   257
 75
     1
175
     1
 42
1.0
 92
        8
 66
     7
 43
1.0
 76
     1
 77
     6
 78
     2
 67
     7
 79
     5
170
     0
171
     0
290
     0
174
     0
 93
        1
 44
50.0
173
     0
291
     1
 45
0.0
1001
ACAD
1000
AcDbSavedByObjectVersion
1070
     0
  0
VISUALSTYLE
  5
320
102
{ACAD_XDICTIONARY
360
393
102
}
102
{ACAD_REACTORS
330
2B
102
}
330
2B
100
AcDbVisualStyle
  2
ColorChange
 70
    16
 71
     2
 72
     2
 73
     3
 90
        0
 40
-0.6
 41
-30.0
 62
     5
 63
     8
 74
     1
 91
        4
 64
     7
 65
   257
 75
     1
175
     1
 42
1.0
 92
        8
 66
     8
 43
1.0
 76
     1
 77
     6
 78
     2
 67
     7
 79
     5
170
     0
171
     0
290
     0
174
     0
 93
        1
 44
0.0
173
     0
291
     1
 45
0.0
1001
ACAD
1000
AcDbSavedByObjectVersion
1070
     0
  0
VISUALSTYLE
  5
31A
102
{ACAD_XDICTIONARY
360
387
102
}
102
{ACAD_REACTORS
330
2B
102
}
330
2B
100
AcDbVisualStyle
  2
Conceptual
 70
     9
 71
     3
 72
     2
 73
     0
 90
        0
 40
-0.6
 41
-30.0
 62
     5
 63
     7
 74
     2
 91
        2
 64
     7
 65
   257
 75
     1
175
     1
 42
179.0
 92
        8
 66
     7
 43
1.0
 76
     1
 77
     6
 78
     2
 67
     7
 79
     3
170
     0
171
     0
290
     0
174
     0
 93
        1
 44
0.0
173
     0
291
     0
 45
0.0
1001
ACAD
1000
AcDbSavedByObjectVersion
1070
     0
  0
VISUALSTYLE
  5
31B
102
{ACAD_XDICTIONARY
360
389
102
}
102
{ACAD_REACTORS
330
2B
102
}
330
2B
100
AcDbVisualStyle
  2
Dim
 70
    11
 71
     2
 72
     2
 73
     0
 90
        0
 40
-0.6
 41
-30.0
 62
     5
 63
     7
 74
     1
 91
        4
 64
     7
 65
   257
 75
     1
175
     1
 42
1.0
 92
        8
 66
     7
 43
1.0
 76
     1
 77
     6
 78
     2
 67
     7
 79
     5
170
     0
171
     0
290
     0
174
     0
 93
        1
 44
-50.0
173
     0
291
     1
 45
0.0
1001
ACAD
1000
AcDbSavedByObjectVersion
1070
     0
  0
VISUALSTYLE
  5
328
102
{ACAD_XDICTIONARY
360
3A3
102
}
102
{ACAD_REACTORS
330
2B
102
}
330
2B
100
AcDbVisualStyle
  2
EdgeColorOff
 70
    22
 71
     2
 72
     2
 73
     0
 90
        0
 40
-0.6
 41
-30.0
 62
     5
 63
     7
 74
     1
 91
        4
 64
     7
 65
   257
 75
     1
175
     1
 42
1.0
 92
        8
 66
     7
 43
1.0
 76
     1
 77
     6
 78
     2
 67
     7
 79
     5
170
     0
171
     0
290
     0
174
     0
 93
        1
 44
0.0
173
     0
291
     1
 45
0.0
1001
ACAD
1000
AcDbSavedByObjectVersion
1070
     0
  0
VISUALSTYLE
  5
31F
102
{ACAD_XDICTIONARY
360
391
102
}
102
{ACAD_REACTORS
330
2B
102
}
330
2B
100
AcDbVisualStyle
  2
Facepattern
 70
    15
 71
     2
 72
     2
 73
     0
 90
        0
 40
-0.6
 41
-30.0
 62
     5
 63
     7
 74
     1
 91
        4
 64
     7
 65
   257
 75
     1
175
     1
 42
1.0
 92
        8
 66
     7
 43
1.0
 76
     1
 77
     6
 78
     2
 67
     7
 79
     5
170
     0
171
     0
290
     0
174
     0
 93
        1
 44
0.0
173
     0
291
     1
 45
0.0
1001
ACAD
1000
AcDbSavedByObjectVersion
1070
     0
  0
VISUALSTYLE
  5
314
102
{ACAD_XDICTIONARY
360
37B
102
}
102
{ACAD_REACTORS
330
2B
102
}
330
2B
100
AcDbVisualStyle
  2
Flat
 70
     0
 71
     2
 72
     1
 73
     1
 90
        2
 40
-0.6
 41
30.0
 62
     5
 63
     7
 74
     0
 91
        0
 64
     7
 65
   257
 75
     1
175
     1
 42
1.0
 92
        8
 66
     7
 43
1.0
 76
     1
 77
     6
 78
     2
 67
     7
 79
     5
170
     0
171
     0
290
     0
174
     0
 93
       13
 44
0.0
173
     0
291
     1
 45
0.0
1001
ACAD
1000
AcDbSavedByObjectVersion
1070
     0
  0
VISUALSTYLE
  5
315
102
{ACAD_XDICTIONARY
360
37D
102
}
102
{ACAD_REACTORS
330
2B
102
}
330
2B
100
AcDbVisualStyle
  2
FlatWithEdges
 70
     1
 71
     2
 72
     1
 73
     1
 90
        2
 40
-0.6
 41
30.0
 62
     5
 63
     7
 74
     1
 91
        0
 64
     7
 65
   257
 75
     1
175
     1
 42
1.0
 92
        0
 66
   257
 43
1.0
 76
     1
 77
     6
 78
     2
 67
     7
 79
     5
170
     0
171
     0
290
     0
174
     0
 93
       13
 44
0.0
173
     0
291
     1
 45
0.0
1001
ACAD
1000
AcDbSavedByObjectVersion
1070
     0
  0
VISUALSTYLE
  5
316
102
{ACAD_XDICTIONARY
360
37F
102
}
102
{ACAD_REACTORS
330
2B
102
}
330
2B
100
AcDbVisualStyle
  2
Gouraud
 70
     2
 71
     2
 72
     2
 73
     1
 90
        2
 40
-0.6
 41
30.0
 62
     5
 63
     7
 74
     0
 91
        0
 64
     7
 65
   257
 75
     1
175
     1
 42
1.0
 92
        0
 66
     7
 43
1.0
 76
     1
 77
     6
 78
     2
 67
     7
 79
     5
170
     0
171
     0
290
     0
174
     0
 93
       13
 44
0.0
173
     0
291
     1
 45
0.0
1001
ACAD
1000
AcDbSavedByObjectVersion
1070
     0
  0
VISUALSTYLE
  5
317
102
{ACAD_XDICTIONARY
360
381
102
}
102
{ACAD_REACTORS
330
2B
102
}
330
2B
100
AcDbVisualStyle
  2
GouraudWithEdges
 70
     3
 71
     2
 72
     2
 73
     1
 90
        2
 40
-0.6
 41
30.0
 62
     5
 63
     7
 74
     1
 91
        0
 64
     7
 65
   257
 75
     1
175
     1
 42
1.0
 92
        0
 66
   257
 43
1.0
 76
     1
 77
     6
 78
     2
 67
     7
 79
     5
170
     0
171
     0
290
     0
174
     0
 93
       13
 44
0.0
173
     0
291
     1
 45
0.0
1001
ACAD
1000
AcDbSavedByObjectVersion
1070
     0
  0
VISUALSTYLE
  5
319
102
{ACAD_XDICTIONARY
360
385
102
}
102
{ACAD_REACTORS
330
2B
102
}
330
2B
100
AcDbVisualStyle
  2
Hidden
 70
     6
 71
     1
 72
     2
 73
     2
 90
        0
 40
-0.6
 41
-30.0
 62
     5
 63
     7
 74
     2
 91
        2
 64
     7
 65
   257
 75
     2
175
     1
 42
40.0
 92
        0
 66
   257
 43
1.0
 76
     1
 77
     6
 78
     2
 67
     7
 79
     3
170
     0
171
     0
290
     0
174
     0
 93
        1
 44
0.0
173
     0
291
     0
 45
0.0
1001
ACAD
1000
AcDbSavedByObjectVersion
1070
     0
  0
VISUALSTYLE
  5
326
102
{ACAD_XDICTIONARY
360
39F
102
}
102
{ACAD_REACTORS
330
2B
102
}
330
2B
100
AcDbVisualStyle
  2
JitterOff
 70
    20
 71
     2
 72
     2
 73
     0
 90
        0
 40
-0.6
 41
-30.0
 62
     5
 63
     7
 74
     1
 91
        4
 64
     7
 65
   257
 75
     1
175
     1
 42
1.0
 92
       10
 66
     7
 43
1.0
 76
     1
 77
     6
 78
     2
 67
     7
 79
     5
170
     0
171
     0
290
     0
174
     0
 93
        1
 44
0.0
173
     0
291
     1
 45
0.0
1001
ACAD
1000
AcDbSavedByObjectVersion
1070
     0
  0
VISUALSTYLE
  5
31E
102
{ACAD_XDICTIONARY
360
38F
102
}
102
{ACAD_REACTORS
330
2B
102
}
330
2B
100
AcDbVisualStyle
  2
Linepattern
 70
    14
 71
     2
 72
     2
 73
     0
 90
        0
 40
-0.6
 41
-30.0
 62
     5
 63
     7
 74
     1
 91
        4
 64
     7
 65
   257
 75
     7
175
     7
 42
1.0
 92
        8
 66
     7
 43
1.0
 76
     1
 77
     6
 78
     2
 67
     7
 79
     5
170
     0
171
     0
290
     0
174
     0
 93
        1
 44
0.0
173
     0
291
     1
 45
0.0
1001
ACAD
1000
AcDbSavedByObjectVersion
1070
     0
  0
VISUALSTYLE
  5
327
102
{ACAD_XDICTIONARY
360
3A1
102
}
102
{ACAD_REACTORS
330
2B
102
}
330
2B
100
AcDbVisualStyle
  2
OverhangOff
 70
    21
 71
     2
 72
     2
 73
     0
 90
        0
 40
-0.6
 41
-30.0
 62
     5
 63
     7
 74
     1
 91
        4
 64
     7
 65
   257
 75
     1
175
     1
 42
1.0
 92
        9
 66
     7
 43
1.0
 76
     1
 77
     6
 78
     2
 67
     7
 79
     5
170
     0
171
     0
290
     0
174
     0
 93
        1
 44
0.0
173
     0
291
     1
 45
0.0
1001
ACAD
1000
AcDbSavedByObjectVersion
1070
     0
  0
VISUALSTYLE
  5
4B
102
{ACAD_XDICTIONARY
360
371
102
}
102
{ACAD_REACTORS
330
2B
102
}
330
2B
100
AcDbVisualStyle
  2
Realistic
 70
     8
 71
     2
 72
     2
 73
     0
 90
        0
 40
-0.6
 41
-30.0
 62
     5
 63
     7
 74
     1
 91
        0
 64
     7
 65
   257
 75
     1
175
     1
 42
1.0
 92
        8
 66
     8
 43
1.0
 76
     1
 77
     6
 78
     2
 67
     7
 79
     5
170
     0
171
     0
290
     0
174
     0
 93
       13
 44
0.0
173
     0
291
     0
 45
0.0
1001
ACAD
1000
AcDbSavedByObjectVersion
1070
     0
  0
VISUALSTYLE
  5
325
102
{ACAD_XDICTIONARY
360
39D
102
}
102
{ACAD_REACTORS
330
2B
102
}
330
2B
100
AcDbVisualStyle
  2
Shaded
 70
    27
 71
     2
 72
     2
 73
     1
 90
        2
 40
-0.6
 41
30.0
 62
     5
 63
     7
 74
     0
 91
        4
 64
     7
 65
   257
 75
     1
175
     1
 42
1.0
 92
        8
 66
   257
 43
1.0
 76
     1
 77
     6
 78
     2
 67
     8
 79
     3
170
     0
171
     0
290
     0
174
     0
 93
        5
 44
0.0
173
     0
291
     0
 45
0.0
1001
ACAD
1000
AcDbSavedByObjectVersion
1070
     0
  0
VISUALSTYLE
  5
324
102
{ACAD_XDICTIONARY
360
39B
102
}
102
{ACAD_REACTORS
330
2B
102
}
330
2B
100
AcDbVisualStyle
  2
Shaded with edges
 70
    26
 71
     2
 72
     2
 73
     1
 90
        2
 40
-0.6
 41
30.0
 62
     5
 63
     7
 74
     1
 91
       10
 64
     7
 65
   257
 75
     2
175
     1
 42
1.0
 92
        8
 66
   257
 43
1.0
 76
     1
 77
     6
 78
     2
 67
     7
 79
     3
170
     0
171
     0
290
     0
174
     0
 93
        5
 44
0.0
173
     0
291
     0
 45
0.0
1001
ACAD
1000
AcDbSavedByObjectVersion
1070
     0
  0
VISUALSTYLE
  5
321
102
{ACAD_XDICTIONARY
360
395
102
}
102
{ACAD_REACTORS
330
2B
102
}
330
2B
100
AcDbVisualStyle
  2
Shades of Gray
 70
    23
 71
     2
 72
     2
 73
     3
 90
        0
 40
-0.6
 41
-30.0
 62
     5
 63
     7
 74
     2
 91
        2
 64
     7
 65
     7
 75
     1
175
     1
 42
40.0
 92
        8
 66
     7
 43
1.0
 76
     1
 77
     6
 78
     2
 67
     7
 79
     3
170
     0
171
     0
290
     0
174
     0
 93
        1
 44
0.0
173
     0
291
     0
 45
0.0
1001
ACAD
1000
AcDbSavedByObjectVersion
1070
     0
  0
VISUALSTYLE
  5
322
102
{ACAD_XDICTIONARY
360
397
102
}
102
{ACAD_REACTORS
330
2B
102
}
330
2B
100
AcDbVisualStyle
  2
Sketchy
 70
    24
 71
     1
 72
     2
 73
     2
 90
        0
 40
-0.6
 41
-30.0
 62
     5
 63
     7
 74
     2
 91
        2
 64
     7
 65
     7
 75
     1
175
     1
 42
40.0
 92
       11
 66
     7
 43
1.0
 76
     1
 77
     6
 78
     2
 67
     7
 79
     6
170
     0
171
     0
290
     0
174
     0
 93
        1
 44
0.0
173
     0
291
     0
 45
0.0
1001
ACAD
1000
AcDbSavedByObjectVersion
1070
     0
  0
VISUALSTYLE
  5
31D
102
{ACAD_XDICTIONARY
360
38D
102
}
102
{ACAD_REACTORS
330
2B
102
}
330
2B
100
AcDbVisualStyle
  2
Thicken
 70
    13
 71
     2
 72
     2
 73
     0
 90
        0
 40
-0.6
 41
-30.0
 62
     5
 63
     7
 74
     1
 91
        4
 64
     7
 65
   257
 75
     1
175
     1
 42
1.0
 92
       12
 66
     7
 43
1.0
 76
     1
 77
     6
 78
     2
 67
     7
 79
     5
170
     0
171
     0
290
     0
174
     0
 93
        1
 44
0.0
173
     0
291
     1
 45
0.0
1001
ACAD
1000
AcDbSavedByObjectVersion
1070
     0
  0
VISUALSTYLE
  5
4C
102
{ACAD_XDICTIONARY
360
373
102
}
102
{ACAD_REACTORS
330
2B
102
}
330
2B
100
AcDbVisualStyle
  2
Wireframe
 70
     5
 71
     0
 72
     2
 73
     0
 90
        0
 40
-0.6
 41
-30.0
 62
     5
 63
     7
 74
     1
 91
        4
 64
     7
 65
   257
 75
     1
175
     1
 42
1.0
 92
        0
 66
   257
 43
1.0
 76
     1
 77
     6
 78
     2
 67
     7
 79
     3
170
     0
171
     0
290
     0
174
     0
 93
        1
 44
0.0
173
     0
291
     0
 45
0.0
1001
ACAD
1000
AcDbSavedByObjectVersion
1070
     0
  0
VISUALSTYLE
  5
323
102
{ACAD_XDICTIONARY
360
399
102
}
102
{ACAD_REACTORS
330
2B
102
}
330
2B
100
AcDbVisualStyle
  2
X-Ray
 70
    25
 71
     2
 72
     2
 73
     1
 90
        1
 40
0.5
 41
-30.0
 62
     5
 63
     7
 74
     1
 91
        0
 64
     7
 65
   257
 75
     1
175
     1
 42
1.0
 92
        8
 66
     7
 43
1.0
 76
     1
 77
     6
 78
     2
 67
     7
 79
     3
170
     0
171
     0
290
     0
174
     0
 93
       13
 44
0.0
173
     0
291
     0
 45
0.0
1001
ACAD
1000
AcDbSavedByObjectVersion
1070
     0
  0
DICTIONARYVAR
  5
30F
102
{ACAD_REACTORS
330
30B
102
}
330
30B
100
DictionaryVariables
280
     0
  1
1:1
  0
DICTIONARYVAR
  5
30D
102
{ACAD_REACTORS
330
30B
102
}
330
30B
100
DictionaryVariables
280
     0
  1
STANDARD
  0
DICTIONARYVAR
  5
30C
102
{ACAD_REACTORS
330
30B
102
}
330
30B
100
DictionaryVariables
280
     0
  1
STANDARD
  0
DICTIONARYVAR
  5
35E
102
{ACAD_REACTORS
330
30B
102
}
330
30B
100
DictionaryVariables
280
     0
  1
1
  0
DICTIONARYVAR
  5
35D
102
{ACAD_REACTORS
330
30B
102
}
330
30B
100
DictionaryVariables
280
     0
  1
1
  0
DICTIONARYVAR
  5
35C
102
{ACAD_REACTORS
330
30B
102
}
330
30B
100
DictionaryVariables
280
     0
  1
0
  0
DICTIONARYVAR
  5
311
102
{ACAD_REACTORS
330
30B
102
}
330
30B
100
DictionaryVariables
280
     0
  1
1
  0
DICTIONARYVAR
  5
312
102
{ACAD_REACTORS
330
30B
102
}
330
30B
100
DictionaryVariables
280
     0
  1
15
  0
DICTIONARYVAR
  5
310
102
{ACAD_REACTORS
330
30B
102
}
330
30B
100
DictionaryVariables
280
     0
  1
0
  0
DICTIONARYVAR
  5
30E
102
{ACAD_REACTORS
330
30B
102
}
330
30B
100
DictionaryVariables
280
     0
  1
0
  0
DICTIONARYVAR
  5
35B
102
{ACAD_REACTORS
330
30B
102
}
330
30B
100
DictionaryVariables
280
     0
  1
127
  0
DICTIONARYVAR
  5
35F
102
{ACAD_REACTORS
330
30B
102
}
330
30B
100
DictionaryVariables
280
     0
  1
2
  0
DICTIONARY
  5
2BF
102
{ACAD_REACTORS
330
2BE
102
}
330
2BE
100
AcDbDictionary
281
     1
  0
DICTIONARY
  5
2B9
102
{ACAD_REACTORS
330
2AF
102
}
330
2AF
100
AcDbDictionary
281
     1
  3
DWGSETTINGS
350
2B8
  3
TRANSSETTINGS
350
2BA
  0
DICTIONARY
  5
36A
330
1A
100
AcDbDictionary
280
     1
281
     1
  3
ACAD_XREC_ROUNDTRIP
360
36B
  0
DICTIONARY
  5
368
330
15
100
AcDbDictionary
280
     1
281
     1
  3
ACAD_XREC_ROUNDTRIP
360
369
  0
DICTIONARY
  5
3D
330
3C
100
AcDbDictionary
280
     1
281
     1
  3
ACAD_XREC_ROUNDTRIP
360
36F
  3
BUMPTILE
360
3E
  3
DIFFUSETILE
360
3F
  3
OPACITYTILE
360
40
  3
REFLECTIONTILE
360
41
  3
REFRACTIONTILE
360
42
  3
SPECULARTILE
360
43
  0
DICTIONARY
  5
35
330
34
100
AcDbDictionary
280
     1
281
     1
  3
ACAD_XREC_ROUNDTRIP
360
36E
  3
BUMPTILE
360
36
  3
DIFFUSETILE
360
37
  3
OPACITYTILE
360
38
  3
REFLECTIONTILE
360
39
  3
REFRACTIONTILE
360
3A
  3
SPECULARTILE
360
3B
  0
DICTIONARY
  5
C
330
A
100
AcDbDictionary
280
     1
281
     1
  3
ACAD_XREC_ROUNDTRIP
360
367
  3
BUMPTILE
360
D
  3
DIFFUSETILE
360
E
  3
OPACITYTILE
360
F
  3
REFLECTIONTILE
360
10
  3
REFRACTIONTILE
360
11
  3
SPECULARTILE
360
12
  0
DICTIONARY
  5
4A
330
49
100
AcDbDictionary
280
     1
281
     1
  3
ACAD_ROUNDTRIP_2008_TABLESTYLE_CELLSTYLEMAP
360
360
  3
ACAD_XREC_ROUNDTRIP
360
370
  0
DICTIONARY
  5
36C
330
2A
100
AcDbDictionary
280
     1
281
     1
  3
ACAD_XREC_ROUNDTRIP
360
36D
  0
DICTIONARY
  5
383
330
318
100
AcDbDictionary
280
     1
281
     1
  3
ACAD_XREC_ROUNDTRIP
360
384
  0
DICTIONARY
  5
38B
330
31C
100
AcDbDictionary
280
     1
281
     1
  3
ACAD_XREC_ROUNDTRIP
360
38C
  0
DICTIONARY
  5
393
330
320
100
AcDbDictionary
280
     1
281
     1
  3
ACAD_XREC_ROUNDTRIP
360
394
  0
DICTIONARY
  5
387
330
31A
100
AcDbDictionary
280
     1
281
     1
  3
ACAD_XREC_ROUNDTRIP
360
388
  0
DICTIONARY
  5
389
330
31B
100
AcDbDictionary
280
     1
281
     1
  3
ACAD_XREC_ROUNDTRIP
360
38A
  0
DICTIONARY
  5
3A3
330
328
100
AcDbDictionary
280
     1
281
     1
  3
ACAD_XREC_ROUNDTRIP
360
3A4
  0
DICTIONARY
  5
391
330
31F
100
AcDbDictionary
280
     1
281
     1
  3
ACAD_XREC_ROUNDTRIP
360
392
  0
DICTIONARY
  5
37B
330
314
100
AcDbDictionary
280
     1
281
     1
  3
ACAD_XREC_ROUNDTRIP
360
37C
  0
DICTIONARY
  5
37D
330
315
100
AcDbDictionary
280
     1
281
     1
  3
ACAD_XREC_ROUNDTRIP
360
37E
  0
DICTIONARY
  5
37F
330
316
100
AcDbDictionary
280
     1
281
     1
  3
ACAD_XREC_ROUNDTRIP
360
380
  0
DICTIONARY
  5
381
330
317
100
AcDbDictionary
280
     1
281
     1
  3
ACAD_XREC_ROUNDTRIP
360
382
  0
DICTIONARY
  5
385
330
319
100
AcDbDictionary
280
     1
281
     1
  3
ACAD_XREC_ROUNDTRIP
360
386
  0
DICTIONARY
  5
39F
330
326
100
AcDbDictionary
280
     1
281
     1
  3
ACAD_XREC_ROUNDTRIP
360
3A0
  0
DICTIONARY
  5
38F
330
31E
100
AcDbDictionary
280
     1
281
     1
  3
ACAD_XREC_ROUNDTRIP
360
390
  0
DICTIONARY
  5
3A1
330
327
100
AcDbDictionary
280
     1
281
     1
  3
ACAD_XREC_ROUNDTRIP
360
3A2
  0
DICTIONARY
  5
371
330
4B
100
AcDbDictionary
280
     1
281
     1
  3
ACAD_XREC_ROUNDTRIP
360
372
  0
DICTIONARY
  5
39D
330
325
100
AcDbDictionary
280
     1
281
     1
  3
ACAD_XREC_ROUNDTRIP
360
39E
  0
DICTIONARY
  5
39B
330
324
100
AcDbDictionary
280
     1
281
     1
  3
ACAD_XREC_ROUNDTRIP
360
39C
  0
DICTIONARY
  5
395
330
321
100
AcDbDictionary
280
     1
281
     1
  3
ACAD_XREC_ROUNDTRIP
360
396
  0
DICTIONARY
  5
397
330
322
100
AcDbDictionary
280
     1
281
     1
  3
ACAD_XREC_ROUNDTRIP
360
398
  0
DICTIONARY
  5
38D
330
31D
100
AcDbDictionary
280
     1
281
     1
  3
ACAD_XREC_ROUNDTRIP
360
38E
  0
DICTIONARY
  5
373
330
4C
100
AcDbDictionary
280
     1
281
     1
  3
ACAD_XREC_ROUNDTRIP
360
374
  0
DICTIONARY
  5
399
330
323
100
AcDbDictionary
280
     1
281
     1
  3
ACAD_XREC_ROUNDTRIP
360
39A
  0
XRECORD
  5
36B
102
{ACAD_REACTORS
330
36A
102
}
330
36A
100
AcDbXrecord
280
     1
102
SHADEPLOT
 70
     0
102
SHADEPLOTRESLEVEL
 70
     2
102
SHADEPLOTCUSTOMDPI
 70
   300
  0
XRECORD
  5
369
102
{ACAD_REACTORS
330
368
102
}
330
368
100
AcDbXrecord
280
     1
102
SHADEPLOT
 70
     0
102
SHADEPLOTRESLEVEL
 70
     2
102
SHADEPLOTCUSTOMDPI
 70
   300
  0
XRECORD
  5
36F
102
{ACAD_REACTORS
330
3D
102
}
330
3D
100
AcDbXrecord
280
     1
102
MATERIAL
148
0.0
149
0.0
149
0.0
 93
        0
 94
      127
282
     0
 72
     0
 77
     0
171
     0
175
     0
179
     0
273
     0
  0
XRECORD
  5
3E
102
{ACAD_REACTORS
330
3D
102
}
330
3D
100
AcDbXrecord
280
     1
270
     1
271
     1
  0
XRECORD
  5
3F
102
{ACAD_REACTORS
330
3D
102
}
330
3D
100
AcDbXrecord
280
     1
270
     1
271
     1
  0
XRECORD
  5
40
102
{ACAD_REACTORS
330
3D
102
}
330
3D
100
AcDbXrecord
280
     1
270
     1
271
     1
  0
XRECORD
  5
41
102
{ACAD_REACTORS
330
3D
102
}
330
3D
100
AcDbXrecord
280
     1
270
     1
271
     1
  0
XRECORD
  5
42
102
{ACAD_REACTORS
330
3D
102
}
330
3D
100
AcDbXrecord
280
     1
270
     1
271
     1
  0
XRECORD
  5
43
102
{ACAD_REACTORS
330
3D
102
}
330
3D
100
AcDbXrecord
280
     1
270
     1
271
     1
  0
XRECORD
  5
36E
102
{ACAD_REACTORS
330
35
102
}
330
35
100
AcDbXrecord
280
     1
102
MATERIAL
148
0.0
149
0.0
149
0.0
 93
        0
 94
      127
282
     0
 72
     0
 77
     0
171
     0
175
     0
179
     0
273
     0
  0
XRECORD
  5
36
102
{ACAD_REACTORS
330
35
102
}
330
35
100
AcDbXrecord
280
     1
270
     1
271
     1
  0
XRECORD
  5
37
102
{ACAD_REACTORS
330
35
102
}
330
35
100
AcDbXrecord
280
     1
270
     1
271
     1
  0
XRECORD
  5
38
102
{ACAD_REACTORS
330
35
102
}
330
35
100
AcDbXrecord
280
     1
270
     1
271
     1
  0
XRECORD
  5
39
102
{ACAD_REACTORS
330
35
102
}
330
35
100
AcDbXrecord
280
     1
270
     1
271
     1
  0
XRECORD
  5
3A
102
{ACAD_REACTORS
330
35
102
}
330
35
100
AcDbXrecord
280
     1
270
     1
271
     1
  0
XRECORD
  5
3B
102
{ACAD_REACTORS
330
35
102
}
330
35
100
AcDbXrecord
280
     1
270
     1
271
     1
  0
XRECORD
  5
367
102
{ACAD_REACTORS
330
C
102
}
330
C
100
AcDbXrecord
280
     1
102
MATERIAL
148
0.0
149
0.0
149
0.0
 93
        0
 94
      127
282
     0
 72
     0
 77
     0
171
     0
175
     0
179
     0
273
     0
  0
XRECORD
  5
D
102
{ACAD_REACTORS
330
C
102
}
330
C
100
AcDbXrecord
280
     1
270
     1
271
     1
  0
XRECORD
  5
E
102
{ACAD_REACTORS
330
C
102
}
330
C
100
AcDbXrecord
280
     1
270
     1
271
     1
  0
XRECORD
  5
F
102
{ACAD_REACTORS
330
C
102
}
330
C
100
AcDbXrecord
280
     1
270
     1
271
     1
  0
XRECORD
  5
10
102
{ACAD_REACTORS
330
C
102
}
330
C
100
AcDbXrecord
280
     1
270
     1
271
     1
  0
XRECORD
  5
11
102
{ACAD_REACTORS
330
C
102
}
330
C
100
AcDbXrecord
280
     1
270
     1
271
     1
  0
XRECORD
  5
12
102
{ACAD_REACTORS
330
C
102
}
330
C
100
AcDbXrecord
280
     1
270
     1
271
     1
  0
CELLSTYLEMAP
  5
360
102
{ACAD_REACTORS
330
4A
102
}
330
4A
100
AcDbCellStyleMap
 90
        3
300
CELLSTYLE
  1
TABLEFORMAT_BEGIN
 90
        5
170
     1
 91
        0
 92
    32768
 62
   257
 93
        1
300
CONTENTFORMAT
  1
CONTENTFORMAT_BEGIN
 90
        0
 91
        0
 92
      512
 93
        0
300

 40
0.0
140
1.0
 94
        5
 62
     0
340
21
144
0.25
309
CONTENTFORMAT_END
171
     0
 94
        0
309
TABLEFORMAT_END
  1
CELLSTYLE_BEGIN
 90
        1
 91
        1
300
_TITLE
309
CELLSTYLE_END
300
CELLSTYLE
  1
TABLEFORMAT_BEGIN
 90
        5
170
     1
 91
        0
 92
        0
 62
   257
 93
        1
300
CONTENTFORMAT
  1
CONTENTFORMAT_BEGIN
 90
        0
 91
        0
 92
      512
 93
        0
300

 40
0.0
140
1.0
 94
        5
 62
     0
340
21
144
0.18
309
CONTENTFORMAT_END
171
     0
 94
        0
309
TABLEFORMAT_END
  1
CELLSTYLE_BEGIN
 90
        2
 91
        1
300
_HEADER
309
CELLSTYLE_END
300
CELLSTYLE
  1
TABLEFORMAT_BEGIN
 90
        5
170
     1
 91
        0
 92
        0
 62
   257
 93
        1
300
CONTENTFORMAT
  1
CONTENTFORMAT_BEGIN
 90
        0
 91
        0
 92
      512
 93
        0
300

 40
0.0
140
1.0
 94
        2
 62
     0
340
21
144
0.18
309
CONTENTFORMAT_END
171
     0
 94
        0
309
TABLEFORMAT_END
  1
CELLSTYLE_BEGIN
 90
        3
 91
        2
300
_DATA
309
CELLSTYLE_END
  0
XRECORD
  5
370
102
{ACAD_REACTORS
330
4A
102
}
330
4A
100
AcDbXrecord
280
     1
102
ACAD_ROUNDTRIP_PRE2007_TABLESTYLE
 90
      512
 91
        0
  1

 92
      512
 93
        0
  2

 94
      512
 95
        0
  3

  0
XRECORD
  5
36D
102
{ACAD_REACTORS
330
36C
102
}
330
36C
100
AcDbXrecord
280
     1
102
RTVSPropertyOp0
 70
     1
102
RTVSPropertyOp1
 70
     1
102
RTVSPropertyOp2
 70
     1
102
RTVSPropertyOp3
 70
     1
102
RTVSPropertyOp4
 70
     1
102
RTVSPropertyOp5
 70
     1
102
RTVSPropertyOp6
 70
     1
102
RTVSPropertyOp7
 70
     1
102
RTVSPropertyOp8
 70
     1
102
RTVSPropertyOp9
 70
     1
102
RTVSPropertyOp10
 70
     1
102
RTVSPropertyOp11
 70
     1
102
RTVSPropertyOp12
 70
     1
102
RTVSPropertyOp13
 70
     1
102
RTVSPropertyOp14
 70
     1
102
RTVSPropertyOp15
 70
     1
102
RTVSPropertyOp16
 70
     1
102
RTVSPropertyOp17
 70
     1
102
RTVSPropertyOp18
 70
     1
102
RTVSPropertyOp19
 70
     1
102
RTVSPropertyOp20
 70
     1
102
RTVSPropertyOp21
 70
     1
102
RTVSPropertyOp22
 70
     1
102
RTVSPropertyOp23
 70
     1
102
RTVSPropertyOp24
 70
     1
102
RTVSPropertyOp25
 70
     1
102
RTVSPropertyOp26
 70
     1
102
RTVSPropertyOp27
 70
     1
102
RTVSPropertyOp28
 70
     1
102
RTVSPropertyOp29
 70
     1
102
RTVSPropertyOp30
 70
     1
102
RTVSPropertyOp31
 70
     1
102
RTVSPropertyOp32
 70
     1
  0
XRECORD
  5
384
102
{ACAD_REACTORS
330
383
102
}
330
383
100
AcDbXrecord
280
     1
102
RTVSPropertyOp0
 70
     1
102
RTVSPropertyOp1
 70
     1
102
RTVSPropertyOp2
 70
     1
102
RTVSPropertyOp3
 70
     1
102
RTVSPropertyOp4
 70
     1
102
RTVSPropertyOp5
 70
     1
102
RTVSPropertyOp6
 70
     1
102
RTVSPropertyOp7
 70
     1
102
RTVSPropertyOp8
 70
     1
102
RTVSPropertyOp9
 70
     1
102
RTVSPropertyOp10
 70
     1
102
RTVSPropertyOp11
 70
     1
102
RTVSPropertyOp12
 70
     1
102
RTVSPropertyOp13
 70
     1
102
RTVSPropertyOp14
 70
     1
102
RTVSPropertyOp15
 70
     1
102
RTVSPropertyOp16
 70
     1
102
RTVSPropertyOp17
 70
     1
102
RTVSPropertyOp18
 70
     1
102
RTVSPropertyOp19
 70
     1
102
RTVSPropertyOp20
 70
     1
102
RTVSPropertyOp21
 70
     1
102
RTVSPropertyOp22
 70
     1
102
RTVSPropertyOp23
 70
     1
102
RTVSPropertyOp24
 70
     1
102
RTVSPropertyOp25
 70
     1
102
RTVSPropertyOp26
 70
     1
102
RTVSPropertyOp27
 70
     1
102
RTVSPropertyOp28
 70
     1
102
RTVSPropertyOp29
 70
     1
102
RTVSPropertyOp30
 70
     1
102
RTVSPropertyOp31
 70
     1
102
RTVSPropertyOp32
 70
     1
  0
XRECORD
  5
38C
102
{ACAD_REACTORS
330
38B
102
}
330
38B
100
AcDbXrecord
280
     1
102
RTVSPropertyOp0
 70
     1
102
RTVSPropertyOp1
 70
     1
102
RTVSPropertyOp2
 70
     1
102
RTVSPropertyOp3
 70
     1
102
RTVSPropertyOp4
 70
     1
102
RTVSPropertyOp5
 70
     1
102
RTVSPropertyOp6
 70
     1
102
RTVSPropertyOp7
 70
     1
102
RTVSPropertyOp8
 70
     1
102
RTVSPropertyOp9
 70
     1
102
RTVSPropertyOp10
 70
     1
102
RTVSPropertyOp11
 70
     1
102
RTVSPropertyOp12
 70
     1
102
RTVSPropertyOp13
 70
     1
102
RTVSPropertyOp14
 70
     1
102
RTVSPropertyOp15
 70
     1
102
RTVSPropertyOp16
 70
     1
102
RTVSPropertyOp17
 70
     1
102
RTVSPropertyOp18
 70
     1
102
RTVSPropertyOp19
 70
     1
102
RTVSPropertyOp20
 70
     1
102
RTVSPropertyOp21
 70
     1
102
RTVSPropertyOp22
 70
     1
102
RTVSPropertyOp23
 70
     1
102
RTVSPropertyOp24
 70
     1
102
RTVSPropertyOp25
 70
     1
102
RTVSPropertyOp26
 70
     1
102
RTVSPropertyOp27
 70
     1
102
RTVSPropertyOp28
 70
     1
102
RTVSPropertyOp29
 70
     1
102
RTVSPropertyOp30
 70
     1
102
RTVSPropertyOp31
 70
     1
102
RTVSPropertyOp32
 70
     1
  0
XRECORD
  5
394
102
{ACAD_REACTORS
330
393
102
}
330
393
100
AcDbXrecord
280
     1
102
RTVSPropertyOp0
 70
     1
102
RTVSPropertyOp1
 70
     1
102
RTVSPropertyOp2
 70
     1
102
RTVSPropertyOp3
 70
     1
102
RTVSPropertyOp4
 70
     1
102
RTVSPropertyOp5
 70
     1
102
RTVSPropertyOp6
 70
     1
102
RTVSPropertyOp7
 70
     1
102
RTVSPropertyOp8
 70
     1
102
RTVSPropertyOp9
 70
     1
102
RTVSPropertyOp10
 70
     1
102
RTVSPropertyOp11
 70
     1
102
RTVSPropertyOp12
 70
     1
102
RTVSPropertyOp13
 70
     1
102
RTVSPropertyOp14
 70
     1
102
RTVSPropertyOp15
 70
     1
102
RTVSPropertyOp16
 70
     1
102
RTVSPropertyOp17
 70
     1
102
RTVSPropertyOp18
 70
     1
102
RTVSPropertyOp19
 70
     1
102
RTVSPropertyOp20
 70
     1
102
RTVSPropertyOp21
 70
     1
102
RTVSPropertyOp22
 70
     1
102
RTVSPropertyOp23
 70
     1
102
RTVSPropertyOp24
 70
     1
102
RTVSPropertyOp25
 70
     1
102
RTVSPropertyOp26
 70
     1
102
RTVSPropertyOp27
 70
     1
102
RTVSPropertyOp28
 70
     1
102
RTVSPropertyOp29
 70
     1
102
RTVSPropertyOp30
 70
     1
102
RTVSPropertyOp31
 70
     1
102
RTVSPropertyOp32
 70
     1
  0
XRECORD
  5
388
102
{ACAD_REACTORS
330
387
102
}
330
387
100
AcDbXrecord
280
     1
102
RTVSPropertyOp0
 70
     1
102
RTVSPropertyOp1
 70
     1
102
RTVSPropertyOp2
 70
     1
102
RTVSPropertyOp3
 70
     1
102
RTVSPropertyOp4
 70
     1
102
RTVSPropertyOp5
 70
     1
102
RTVSPropertyOp6
 70
     1
102
RTVSPropertyOp7
 70
     1
102
RTVSPropertyOp8
 70
     1
102
RTVSPropertyOp9
 70
     1
102
RTVSPropertyOp10
 70
     1
102
RTVSPropertyOp11
 70
     1
102
RTVSPropertyOp12
 70
     1
102
RTVSPropertyOp13
 70
     1
102
RTVSPropertyOp14
 70
     1
102
RTVSPropertyOp15
 70
     1
102
RTVSPropertyOp16
 70
     1
102
RTVSPropertyOp17
 70
     1
102
RTVSPropertyOp18
 70
     1
102
RTVSPropertyOp19
 70
     1
102
RTVSPropertyOp20
 70
     1
102
RTVSPropertyOp21
 70
     1
102
RTVSPropertyOp22
 70
     1
102
RTVSPropertyOp23
 70
     1
102
RTVSPropertyOp24
 70
     1
102
RTVSPropertyOp25
 70
     1
102
RTVSPropertyOp26
 70
     1
102
RTVSPropertyOp27
 70
     1
102
RTVSPropertyOp28
 70
     1
102
RTVSPropertyOp29
 70
     1
102
RTVSPropertyOp30
 70
     1
102
RTVSPropertyOp31
 70
     1
102
RTVSPropertyOp32
 70
     1
  0
XRECORD
  5
38A
102
{ACAD_REACTORS
330
389
102
}
330
389
100
AcDbXrecord
280
     1
102
RTVSPropertyOp0
 70
     1
102
RTVSPropertyOp1
 70
     1
102
RTVSPropertyOp2
 70
     1
102
RTVSPropertyOp3
 70
     1
102
RTVSPropertyOp4
 70
     1
102
RTVSPropertyOp5
 70
     1
102
RTVSPropertyOp6
 70
     1
102
RTVSPropertyOp7
 70
     1
102
RTVSPropertyOp8
 70
     1
102
RTVSPropertyOp9
 70
     1
102
RTVSPropertyOp10
 70
     1
102
RTVSPropertyOp11
 70
     1
102
RTVSPropertyOp12
 70
     1
102
RTVSPropertyOp13
 70
     1
102
RTVSPropertyOp14
 70
     1
102
RTVSPropertyOp15
 70
     1
102
RTVSPropertyOp16
 70
     1
102
RTVSPropertyOp17
 70
     1
102
RTVSPropertyOp18
 70
     1
102
RTVSPropertyOp19
 70
     1
102
RTVSPropertyOp20
 70
     1
102
RTVSPropertyOp21
 70
     1
102
RTVSPropertyOp22
 70
     1
102
RTVSPropertyOp23
 70
     1
102
RTVSPropertyOp24
 70
     1
102
RTVSPropertyOp25
 70
     1
102
RTVSPropertyOp26
 70
     1
102
RTVSPropertyOp27
 70
     1
102
RTVSPropertyOp28
 70
     1
102
RTVSPropertyOp29
 70
     1
102
RTVSPropertyOp30
 70
     1
102
RTVSPropertyOp31
 70
     1
102
RTVSPropertyOp32
 70
     1
  0
XRECORD
  5
3A4
102
{ACAD_REACTORS
330
3A3
102
}
330
3A3
100
AcDbXrecord
280
     1
102
RTVSPropertyOp0
 70
     0
102
RTVSPropertyOp1
 70
     0
102
RTVSPropertyOp2
 70
     0
102
RTVSPropertyOp3
 70
     0
102
RTVSPropertyOp4
 70
     0
102
RTVSPropertyOp5
 70
     0
102
RTVSPropertyOp6
 70
     0
102
RTVSPropertyOp7
 70
     0
102
RTVSPropertyOp8
 70
     0
102
RTVSPropertyOp9
 70
     0
102
RTVSPropertyOp10
 70
     0
102
RTVSPropertyOp11
 70
     0
102
RTVSPropertyOp12
 70
     0
102
RTVSPropertyOp13
 70
     0
102
RTVSPropertyOp14
 70
     2
102
RTVSPropertyOp15
 70
     0
102
RTVSPropertyOp16
 70
     0
102
RTVSPropertyOp17
 70
     0
102
RTVSPropertyOp18
 70
     0
102
RTVSPropertyOp19
 70
     0
102
RTVSPropertyOp20
 70
     0
102
RTVSPropertyOp21
 70
     0
102
RTVSPropertyOp22
 70
     0
102
RTVSPropertyOp23
 70
     0
102
RTVSPropertyOp24
 70
     0
102
RTVSPropertyOp25
 70
     0
102
RTVSPropertyOp26
 70
     0
102
RTVSPropertyOp27
 70
     0
102
RTVSPropertyOp28
 70
     0
102
RTVSPropertyOp29
 70
     0
102
RTVSPropertyOp30
 70
     0
102
RTVSPropertyOp31
 70
     0
102
RTVSPropertyOp32
 70
     0
  0
XRECORD
  5
392
102
{ACAD_REACTORS
330
391
102
}
330
391
100
AcDbXrecord
280
     1
102
RTVSPropertyOp0
 70
     1
102
RTVSPropertyOp1
 70
     1
102
RTVSPropertyOp2
 70
     1
102
RTVSPropertyOp3
 70
     1
102
RTVSPropertyOp4
 70
     1
102
RTVSPropertyOp5
 70
     1
102
RTVSPropertyOp6
 70
     1
102
RTVSPropertyOp7
 70
     1
102
RTVSPropertyOp8
 70
     1
102
RTVSPropertyOp9
 70
     1
102
RTVSPropertyOp10
 70
     1
102
RTVSPropertyOp11
 70
     1
102
RTVSPropertyOp12
 70
     1
102
RTVSPropertyOp13
 70
     1
102
RTVSPropertyOp14
 70
     1
102
RTVSPropertyOp15
 70
     1
102
RTVSPropertyOp16
 70
     1
102
RTVSPropertyOp17
 70
     1
102
RTVSPropertyOp18
 70
     1
102
RTVSPropertyOp19
 70
     1
102
RTVSPropertyOp20
 70
     1
102
RTVSPropertyOp21
 70
     1
102
RTVSPropertyOp22
 70
     1
102
RTVSPropertyOp23
 70
     1
102
RTVSPropertyOp24
 70
     1
102
RTVSPropertyOp25
 70
     1
102
RTVSPropertyOp26
 70
     1
102
RTVSPropertyOp27
 70
     1
102
RTVSPropertyOp28
 70
     1
102
RTVSPropertyOp29
 70
     1
102
RTVSPropertyOp30
 70
     1
102
RTVSPropertyOp31
 70
     1
102
RTVSPropertyOp32
 70
     1
  0
XRECORD
  5
37C
102
{ACAD_REACTORS
330
37B
102
}
330
37B
100
AcDbXrecord
280
     1
102
RTVSPropertyOp0
 70
     1
102
RTVSPropertyOp1
 70
     1
102
RTVSPropertyOp2
 70
     1
102
RTVSPropertyOp3
 70
     1
102
RTVSPropertyOp4
 70
     1
102
RTVSPropertyOp5
 70
     1
102
RTVSPropertyOp6
 70
     1
102
RTVSPropertyOp7
 70
     1
102
RTVSPropertyOp8
 70
     1
102
RTVSPropertyOp9
 70
     1
102
RTVSPropertyOp10
 70
     1
102
RTVSPropertyOp11
 70
     1
102
RTVSPropertyOp12
 70
     1
102
RTVSPropertyOp13
 70
     1
102
RTVSPropertyOp14
 70
     1
102
RTVSPropertyOp15
 70
     1
102
RTVSPropertyOp16
 70
     1
102
RTVSPropertyOp17
 70
     1
102
RTVSPropertyOp18
 70
     1
102
RTVSPropertyOp19
 70
     1
102
RTVSPropertyOp20
 70
     1
102
RTVSPropertyOp21
 70
     1
102
RTVSPropertyOp22
 70
     1
102
RTVSPropertyOp23
 70
     1
102
RTVSPropertyOp24
 70
     1
102
RTVSPropertyOp25
 70
     1
102
RTVSPropertyOp26
 70
     1
102
RTVSPropertyOp27
 70
     1
102
RTVSPropertyOp28
 70
     1
102
RTVSPropertyOp29
 70
     1
102
RTVSPropertyOp30
 70
     1
102
RTVSPropertyOp31
 70
     1
102
RTVSPropertyOp32
 70
     1
  0
XRECORD
  5
37E
102
{ACAD_REACTORS
330
37D
102
}
330
37D
100
AcDbXrecord
280
     1
102
RTVSPropertyOp0
 70
     1
102
RTVSPropertyOp1
 70
     1
102
RTVSPropertyOp2
 70
     1
102
RTVSPropertyOp3
 70
     1
102
RTVSPropertyOp4
 70
     1
102
RTVSPropertyOp5
 70
     1
102
RTVSPropertyOp6
 70
     1
102
RTVSPropertyOp7
 70
     1
102
RTVSPropertyOp8
 70
     1
102
RTVSPropertyOp9
 70
     1
102
RTVSPropertyOp10
 70
     1
102
RTVSPropertyOp11
 70
     1
102
RTVSPropertyOp12
 70
     1
102
RTVSPropertyOp13
 70
     1
102
RTVSPropertyOp14
 70
     1
102
RTVSPropertyOp15
 70
     1
102
RTVSPropertyOp16
 70
     1
102
RTVSPropertyOp17
 70
     1
102
RTVSPropertyOp18
 70
     1
102
RTVSPropertyOp19
 70
     1
102
RTVSPropertyOp20
 70
     1
102
RTVSPropertyOp21
 70
     1
102
RTVSPropertyOp22
 70
     1
102
RTVSPropertyOp23
 70
     1
102
RTVSPropertyOp24
 70
     1
102
RTVSPropertyOp25
 70
     1
102
RTVSPropertyOp26
 70
     1
102
RTVSPropertyOp27
 70
     1
102
RTVSPropertyOp28
 70
     1
102
RTVSPropertyOp29
 70
     1
102
RTVSPropertyOp30
 70
     1
102
RTVSPropertyOp31
 70
     1
102
RTVSPropertyOp32
 70
     1
  0
XRECORD
  5
380
102
{ACAD_REACTORS
330
37F
102
}
330
37F
100
AcDbXrecord
280
     1
102
RTVSPropertyOp0
 70
     1
102
RTVSPropertyOp1
 70
     1
102
RTVSPropertyOp2
 70
     1
102
RTVSPropertyOp3
 70
     1
102
RTVSPropertyOp4
 70
     1
102
RTVSPropertyOp5
 70
     1
102
RTVSPropertyOp6
 70
     1
102
RTVSPropertyOp7
 70
     1
102
RTVSPropertyOp8
 70
     1
102
RTVSPropertyOp9
 70
     1
102
RTVSPropertyOp10
 70
     1
102
RTVSPropertyOp11
 70
     1
102
RTVSPropertyOp12
 70
     1
102
RTVSPropertyOp13
 70
     1
102
RTVSPropertyOp14
 70
     1
102
RTVSPropertyOp15
 70
     1
102
RTVSPropertyOp16
 70
     1
102
RTVSPropertyOp17
 70
     1
102
RTVSPropertyOp18
 70
     1
102
RTVSPropertyOp19
 70
     1
102
RTVSPropertyOp20
 70
     1
102
RTVSPropertyOp21
 70
     1
102
RTVSPropertyOp22
 70
     1
102
RTVSPropertyOp23
 70
     1
102
RTVSPropertyOp24
 70
     1
102
RTVSPropertyOp25
 70
     1
102
RTVSPropertyOp26
 70
     1
102
RTVSPropertyOp27
 70
     1
102
RTVSPropertyOp28
 70
     1
102
RTVSPropertyOp29
 70
     1
102
RTVSPropertyOp30
 70
     1
102
RTVSPropertyOp31
 70
     1
102
RTVSPropertyOp32
 70
     1
  0
XRECORD
  5
382
102
{ACAD_REACTORS
330
381
102
}
330
381
100
AcDbXrecord
280
     1
102
RTVSPropertyOp0
 70
     1
102
RTVSPropertyOp1
 70
     1
102
RTVSPropertyOp2
 70
     1
102
RTVSPropertyOp3
 70
     1
102
RTVSPropertyOp4
 70
     1
102
RTVSPropertyOp5
 70
     1
102
RTVSPropertyOp6
 70
     1
102
RTVSPropertyOp7
 70
     1
102
RTVSPropertyOp8
 70
     1
102
RTVSPropertyOp9
 70
     1
102
RTVSPropertyOp10
 70
     1
102
RTVSPropertyOp11
 70
     1
102
RTVSPropertyOp12
 70
     1
102
RTVSPropertyOp13
 70
     1
102
RTVSPropertyOp14
 70
     1
102
RTVSPropertyOp15
 70
     1
102
RTVSPropertyOp16
 70
     1
102
RTVSPropertyOp17
 70
     1
102
RTVSPropertyOp18
 70
     1
102
RTVSPropertyOp19
 70
     1
102
RTVSPropertyOp20
 70
     1
102
RTVSPropertyOp21
 70
     1
102
RTVSPropertyOp22
 70
     1
102
RTVSPropertyOp23
 70
     1
102
RTVSPropertyOp24
 70
     1
102
RTVSPropertyOp25
 70
     1
102
RTVSPropertyOp26
 70
     1
102
RTVSPropertyOp27
 70
     1
102
RTVSPropertyOp28
 70
     1
102
RTVSPropertyOp29
 70
     1
102
RTVSPropertyOp30
 70
     1
102
RTVSPropertyOp31
 70
     1
102
RTVSPropertyOp32
 70
     1
  0
XRECORD
  5
386
102
{ACAD_REACTORS
330
385
102
}
330
385
100
AcDbXrecord
280
     1
102
RTVSPropertyOp0
 70
     1
102
RTVSPropertyOp1
 70
     1
102
RTVSPropertyOp2
 70
     1
102
RTVSPropertyOp3
 70
     1
102
RTVSPropertyOp4
 70
     1
102
RTVSPropertyOp5
 70
     1
102
RTVSPropertyOp6
 70
     1
102
RTVSPropertyOp7
 70
     1
102
RTVSPropertyOp8
 70
     1
102
RTVSPropertyOp9
 70
     1
102
RTVSPropertyOp10
 70
     1
102
RTVSPropertyOp11
 70
     1
102
RTVSPropertyOp12
 70
     1
102
RTVSPropertyOp13
 70
     1
102
RTVSPropertyOp14
 70
     1
102
RTVSPropertyOp15
 70
     1
102
RTVSPropertyOp16
 70
     1
102
RTVSPropertyOp17
 70
     1
102
RTVSPropertyOp18
 70
     1
102
RTVSPropertyOp19
 70
     1
102
RTVSPropertyOp20
 70
     1
102
RTVSPropertyOp21
 70
     1
102
RTVSPropertyOp22
 70
     1
102
RTVSPropertyOp23
 70
     1
102
RTVSPropertyOp24
 70
     1
102
RTVSPropertyOp25
 70
     1
102
RTVSPropertyOp26
 70
     1
102
RTVSPropertyOp27
 70
     1
102
RTVSPropertyOp28
 70
     1
102
RTVSPropertyOp29
 70
     1
102
RTVSPropertyOp30
 70
     1
102
RTVSPropertyOp31
 70
     1
102
RTVSPropertyOp32
 70
     1
  0
XRECORD
  5
3A0
102
{ACAD_REACTORS
330
39F
102
}
330
39F
100
AcDbXrecord
280
     1
102
RTVSPropertyOp0
 70
     0
102
RTVSPropertyOp1
 70
     0
102
RTVSPropertyOp2
 70
     0
102
RTVSPropertyOp3
 70
     0
102
RTVSPropertyOp4
 70
     0
102
RTVSPropertyOp5
 70
     0
102
RTVSPropertyOp6
 70
     0
102
RTVSPropertyOp7
 70
     0
102
RTVSPropertyOp8
 70
     0
102
RTVSPropertyOp9
 70
     0
102
RTVSPropertyOp10
 70
     0
102
RTVSPropertyOp11
 70
     0
102
RTVSPropertyOp12
 70
     0
102
RTVSPropertyOp13
 70
     0
102
RTVSPropertyOp14
 70
     2
102
RTVSPropertyOp15
 70
     0
102
RTVSPropertyOp16
 70
     0
102
RTVSPropertyOp17
 70
     0
102
RTVSPropertyOp18
 70
     0
102
RTVSPropertyOp19
 70
     0
102
RTVSPropertyOp20
 70
     0
102
RTVSPropertyOp21
 70
     0
102
RTVSPropertyOp22
 70
     0
102
RTVSPropertyOp23
 70
     0
102
RTVSPropertyOp24
 70
     0
102
RTVSPropertyOp25
 70
     0
102
RTVSPropertyOp26
 70
     0
102
RTVSPropertyOp27
 70
     0
102
RTVSPropertyOp28
 70
     0
102
RTVSPropertyOp29
 70
     0
102
RTVSPropertyOp30
 70
     0
102
RTVSPropertyOp31
 70
     0
102
RTVSPropertyOp32
 70
     0
  0
XRECORD
  5
390
102
{ACAD_REACTORS
330
38F
102
}
330
38F
100
AcDbXrecord
280
     1
102
RTVSPropertyOp0
 70
     1
102
RTVSPropertyOp1
 70
     1
102
RTVSPropertyOp2
 70
     1
102
RTVSPropertyOp3
 70
     1
102
RTVSPropertyOp4
 70
     1
102
RTVSPropertyOp5
 70
     1
102
RTVSPropertyOp6
 70
     1
102
RTVSPropertyOp7
 70
     1
102
RTVSPropertyOp8
 70
     1
102
RTVSPropertyOp9
 70
     1
102
RTVSPropertyOp10
 70
     1
102
RTVSPropertyOp11
 70
     1
102
RTVSPropertyOp12
 70
     1
102
RTVSPropertyOp13
 70
     1
102
RTVSPropertyOp14
 70
     1
102
RTVSPropertyOp15
 70
     1
102
RTVSPropertyOp16
 70
     1
102
RTVSPropertyOp17
 70
     1
102
RTVSPropertyOp18
 70
     1
102
RTVSPropertyOp19
 70
     1
102
RTVSPropertyOp20
 70
     1
102
RTVSPropertyOp21
 70
     1
102
RTVSPropertyOp22
 70
     1
102
RTVSPropertyOp23
 70
     1
102
RTVSPropertyOp24
 70
     1
102
RTVSPropertyOp25
 70
     1
102
RTVSPropertyOp26
 70
     1
102
RTVSPropertyOp27
 70
     1
102
RTVSPropertyOp28
 70
     1
102
RTVSPropertyOp29
 70
     1
102
RTVSPropertyOp30
 70
     1
102
RTVSPropertyOp31
 70
     1
102
RTVSPropertyOp32
 70
     1
  0
XRECORD
  5
3A2
102
{ACAD_REACTORS
330
3A1
102
}
330
3A1
100
AcDbXrecord
280
     1
102
RTVSPropertyOp0
 70
     0
102
RTVSPropertyOp1
 70
     0
102
RTVSPropertyOp2
 70
     0
102
RTVSPropertyOp3
 70
     0
102
RTVSPropertyOp4
 70
     0
102
RTVSPropertyOp5
 70
     0
102
RTVSPropertyOp6
 70
     0
102
RTVSPropertyOp7
 70
     0
102
RTVSPropertyOp8
 70
     0
102
RTVSPropertyOp9
 70
     0
102
RTVSPropertyOp10
 70
     0
102
RTVSPropertyOp11
 70
     0
102
RTVSPropertyOp12
 70
     0
102
RTVSPropertyOp13
 70
     0
102
RTVSPropertyOp14
 70
     2
102
RTVSPropertyOp15
 70
     0
102
RTVSPropertyOp16
 70
     0
102
RTVSPropertyOp17
 70
     0
102
RTVSPropertyOp18
 70
     0
102
RTVSPropertyOp19
 70
     0
102
RTVSPropertyOp20
 70
     0
102
RTVSPropertyOp21
 70
     0
102
RTVSPropertyOp22
 70
     0
102
RTVSPropertyOp23
 70
     0
102
RTVSPropertyOp24
 70
     0
102
RTVSPropertyOp25
 70
     0
102
RTVSPropertyOp26
 70
     0
102
RTVSPropertyOp27
 70
     0
102
RTVSPropertyOp28
 70
     0
102
RTVSPropertyOp29
 70
     0
102
RTVSPropertyOp30
 70
     0
102
RTVSPropertyOp31
 70
     0
102
RTVSPropertyOp32
 70
     0
  0
XRECORD
  5
372
102
{ACAD_REACTORS
330
371
102
}
330
371
100
AcDbXrecord
280
     1
102
RTVSPropertyOp0
 70
     1
102
RTVSPropertyOp1
 70
     1
102
RTVSPropertyOp2
 70
     1
102
RTVSPropertyOp3
 70
     1
102
RTVSPropertyOp4
 70
     1
102
RTVSPropertyOp5
 70
     1
102
RTVSPropertyOp6
 70
     1
102
RTVSPropertyOp7
 70
     1
102
RTVSPropertyOp8
 70
     1
102
RTVSPropertyOp9
 70
     1
102
RTVSPropertyOp10
 70
     1
102
RTVSPropertyOp11
 70
     1
102
RTVSPropertyOp12
 70
     1
102
RTVSPropertyOp13
 70
     1
102
RTVSPropertyOp14
 70
     1
102
RTVSPropertyOp15
 70
     1
102
RTVSPropertyOp16
 70
     1
102
RTVSPropertyOp17
 70
     1
102
RTVSPropertyOp18
 70
     1
102
RTVSPropertyOp19
 70
     1
102
RTVSPropertyOp20
 70
     1
102
RTVSPropertyOp21
 70
     1
102
RTVSPropertyOp22
 70
     1
102
RTVSPropertyOp23
 70
     1
102
RTVSPropertyOp24
 70
     1
102
RTVSPropertyOp25
 70
     1
102
RTVSPropertyOp26
 70
     1
102
RTVSPropertyOp27
 70
     1
102
RTVSPropertyOp28
 70
     1
102
RTVSPropertyOp29
 70
     1
102
RTVSPropertyOp30
 70
     1
102
RTVSPropertyOp31
 70
     1
102
RTVSPropertyOp32
 70
     1
  0
XRECORD
  5
39E
102
{ACAD_REACTORS
330
39D
102
}
330
39D
100
AcDbXrecord
280
     1
102
RTVSPropertyOp0
 70
     1
102
RTVSPropertyOp1
 70
     1
102
RTVSPropertyOp2
 70
     1
102
RTVSPropertyOp3
 70
     1
102
RTVSPropertyOp4
 70
     1
102
RTVSPropertyOp5
 70
     1
102
RTVSPropertyOp6
 70
     1
102
RTVSPropertyOp7
 70
     1
102
RTVSPropertyOp8
 70
     1
102
RTVSPropertyOp9
 70
     1
102
RTVSPropertyOp10
 70
     1
102
RTVSPropertyOp11
 70
     1
102
RTVSPropertyOp12
 70
     1
102
RTVSPropertyOp13
 70
     1
102
RTVSPropertyOp14
 70
     1
102
RTVSPropertyOp15
 70
     1
102
RTVSPropertyOp16
 70
     1
102
RTVSPropertyOp17
 70
     1
102
RTVSPropertyOp18
 70
     1
102
RTVSPropertyOp19
 70
     1
102
RTVSPropertyOp20
 70
     1
102
RTVSPropertyOp21
 70
     1
102
RTVSPropertyOp22
 70
     1
102
RTVSPropertyOp23
 70
     1
102
RTVSPropertyOp24
 70
     1
102
RTVSPropertyOp25
 70
     1
102
RTVSPropertyOp26
 70
     1
102
RTVSPropertyOp27
 70
     1
102
RTVSPropertyOp28
 70
     1
102
RTVSPropertyOp29
 70
     1
102
RTVSPropertyOp30
 70
     1
102
RTVSPropertyOp31
 70
     1
102
RTVSPropertyOp32
 70
     1
  0
XRECORD
  5
39C
102
{ACAD_REACTORS
330
39B
102
}
330
39B
100
AcDbXrecord
280
     1
102
RTVSPropertyOp0
 70
     1
102
RTVSPropertyOp1
 70
     1
102
RTVSPropertyOp2
 70
     1
102
RTVSPropertyOp3
 70
     1
102
RTVSPropertyOp4
 70
     1
102
RTVSPropertyOp5
 70
     1
102
RTVSPropertyOp6
 70
     1
102
RTVSPropertyOp7
 70
     1
102
RTVSPropertyOp8
 70
     1
102
RTVSPropertyOp9
 70
     1
102
RTVSPropertyOp10
 70
     1
102
RTVSPropertyOp11
 70
     1
102
RTVSPropertyOp12
 70
     1
102
RTVSPropertyOp13
 70
     1
102
RTVSPropertyOp14
 70
     1
102
RTVSPropertyOp15
 70
     1
102
RTVSPropertyOp16
 70
     1
102
RTVSPropertyOp17
 70
     1
102
RTVSPropertyOp18
 70
     1
102
RTVSPropertyOp19
 70
     1
102
RTVSPropertyOp20
 70
     1
102
RTVSPropertyOp21
 70
     1
102
RTVSPropertyOp22
 70
     1
102
RTVSPropertyOp23
 70
     1
102
RTVSPropertyOp24
 70
     1
102
RTVSPropertyOp25
 70
     1
102
RTVSPropertyOp26
 70
     1
102
RTVSPropertyOp27
 70
     1
102
RTVSPropertyOp28
 70
     1
102
RTVSPropertyOp29
 70
     1
102
RTVSPropertyOp30
 70
     1
102
RTVSPropertyOp31
 70
     1
102
RTVSPropertyOp32
 70
     1
  0
XRECORD
  5
396
102
{ACAD_REACTORS
330
395
102
}
330
395
100
AcDbXrecord
280
     1
102
RTVSPropertyOp0
 70
     1
102
RTVSPropertyOp1
 70
     1
102
RTVSPropertyOp2
 70
     1
102
RTVSPropertyOp3
 70
     1
102
RTVSPropertyOp4
 70
     1
102
RTVSPropertyOp5
 70
     1
102
RTVSPropertyOp6
 70
     1
102
RTVSPropertyOp7
 70
     1
102
RTVSPropertyOp8
 70
     1
102
RTVSPropertyOp9
 70
     1
102
RTVSPropertyOp10
 70
     1
102
RTVSPropertyOp11
 70
     1
102
RTVSPropertyOp12
 70
     1
102
RTVSPropertyOp13
 70
     1
102
RTVSPropertyOp14
 70
     1
102
RTVSPropertyOp15
 70
     1
102
RTVSPropertyOp16
 70
     1
102
RTVSPropertyOp17
 70
     1
102
RTVSPropertyOp18
 70
     1
102
RTVSPropertyOp19
 70
     1
102
RTVSPropertyOp20
 70
     1
102
RTVSPropertyOp21
 70
     1
102
RTVSPropertyOp22
 70
     1
102
RTVSPropertyOp23
 70
     1
102
RTVSPropertyOp24
 70
     1
102
RTVSPropertyOp25
 70
     1
102
RTVSPropertyOp26
 70
     1
102
RTVSPropertyOp27
 70
     1
102
RTVSPropertyOp28
 70
     1
102
RTVSPropertyOp29
 70
     1
102
RTVSPropertyOp30
 70
     1
102
RTVSPropertyOp31
 70
     1
102
RTVSPropertyOp32
 70
     1
  0
XRECORD
  5
398
102
{ACAD_REACTORS
330
397
102
}
330
397
100
AcDbXrecord
280
     1
102
RTVSPropertyOp0
 70
     1
102
RTVSPropertyOp1
 70
     1
102
RTVSPropertyOp2
 70
     1
102
RTVSPropertyOp3
 70
     1
102
RTVSPropertyOp4
 70
     1
102
RTVSPropertyOp5
 70
     1
102
RTVSPropertyOp6
 70
     1
102
RTVSPropertyOp7
 70
     1
102
RTVSPropertyOp8
 70
     1
102
RTVSPropertyOp9
 70
     1
102
RTVSPropertyOp10
 70
     1
102
RTVSPropertyOp11
 70
     1
102
RTVSPropertyOp12
 70
     1
102
RTVSPropertyOp13
 70
     1
102
RTVSPropertyOp14
 70
     1
102
RTVSPropertyOp15
 70
     1
102
RTVSPropertyOp16
 70
     1
102
RTVSPropertyOp17
 70
     1
102
RTVSPropertyOp18
 70
     1
102
RTVSPropertyOp19
 70
     1
102
RTVSPropertyOp20
 70
     1
102
RTVSPropertyOp21
 70
     1
102
RTVSPropertyOp22
 70
     1
102
RTVSPropertyOp23
 70
     1
102
RTVSPropertyOp24
 70
     1
102
RTVSPropertyOp25
 70
     1
102
RTVSPropertyOp26
 70
     1
102
RTVSPropertyOp27
 70
     1
102
RTVSPropertyOp28
 70
     1
102
RTVSPropertyOp29
 70
     1
102
RTVSPropertyOp30
 70
     1
102
RTVSPropertyOp31
 70
     1
102
RTVSPropertyOp32
 70
     1
  0
XRECORD
  5
38E
102
{ACAD_REACTORS
330
38D
102
}
330
38D
100
AcDbXrecord
280
     1
102
RTVSPropertyOp0
 70
     1
102
RTVSPropertyOp1
 70
     1
102
RTVSPropertyOp2
 70
     1
102
RTVSPropertyOp3
 70
     1
102
RTVSPropertyOp4
 70
     1
102
RTVSPropertyOp5
 70
     1
102
RTVSPropertyOp6
 70
     1
102
RTVSPropertyOp7
 70
     1
102
RTVSPropertyOp8
 70
     1
102
RTVSPropertyOp9
 70
     1
102
RTVSPropertyOp10
 70
     1
102
RTVSPropertyOp11
 70
     1
102
RTVSPropertyOp12
 70
     1
102
RTVSPropertyOp13
 70
     1
102
RTVSPropertyOp14
 70
     1
102
RTVSPropertyOp15
 70
     1
102
RTVSPropertyOp16
 70
     1
102
RTVSPropertyOp17
 70
     1
102
RTVSPropertyOp18
 70
     1
102
RTVSPropertyOp19
 70
     1
102
RTVSPropertyOp20
 70
     1
102
RTVSPropertyOp21
 70
     1
102
RTVSPropertyOp22
 70
     1
102
RTVSPropertyOp23
 70
     1
102
RTVSPropertyOp24
 70
     1
102
RTVSPropertyOp25
 70
     1
102
RTVSPropertyOp26
 70
     1
102
RTVSPropertyOp27
 70
     1
102
RTVSPropertyOp28
 70
     1
102
RTVSPropertyOp29
 70
     1
102
RTVSPropertyOp30
 70
     1
102
RTVSPropertyOp31
 70
     1
102
RTVSPropertyOp32
 70
     1
  0
XRECORD
  5
374
102
{ACAD_REACTORS
330
373
102
}
330
373
100
AcDbXrecord
280
     1
102
RTVSPropertyOp0
 70
     1
102
RTVSPropertyOp1
 70
     1
102
RTVSPropertyOp2
 70
     1
102
RTVSPropertyOp3
 70
     1
102
RTVSPropertyOp4
 70
     1
102
RTVSPropertyOp5
 70
     1
102
RTVSPropertyOp6
 70
     1
102
RTVSPropertyOp7
 70
     1
102
RTVSPropertyOp8
 70
     1
102
RTVSPropertyOp9
 70
     1
102
RTVSPropertyOp10
 70
     1
102
RTVSPropertyOp11
 70
     1
102
RTVSPropertyOp12
 70
     1
102
RTVSPropertyOp13
 70
     1
102
RTVSPropertyOp14
 70
     1
102
RTVSPropertyOp15
 70
     1
102
RTVSPropertyOp16
 70
     1
102
RTVSPropertyOp17
 70
     1
102
RTVSPropertyOp18
 70
     1
102
RTVSPropertyOp19
 70
     1
102
RTVSPropertyOp20
 70
     1
102
RTVSPropertyOp21
 70
     1
102
RTVSPropertyOp22
 70
     1
102
RTVSPropertyOp23
 70
     1
102
RTVSPropertyOp24
 70
     1
102
RTVSPropertyOp25
 70
     1
102
RTVSPropertyOp26
 70
     1
102
RTVSPropertyOp27
 70
     1
102
RTVSPropertyOp28
 70
     1
102
RTVSPropertyOp29
 70
     1
102
RTVSPropertyOp30
 70
     1
102
RTVSPropertyOp31
 70
     1
102
RTVSPropertyOp32
 70
     1
  0
XRECORD
  5
39A
102
{ACAD_REACTORS
330
399
102
}
330
399
100
AcDbXrecord
280
     1
102
RTVSPropertyOp0
 70
     1
102
RTVSPropertyOp1
 70
     1
102
RTVSPropertyOp2
 70
     1
102
RTVSPropertyOp3
 70
     1
102
RTVSPropertyOp4
 70
     1
102
RTVSPropertyOp5
 70
     1
102
RTVSPropertyOp6
 70
     1
102
RTVSPropertyOp7
 70
     1
102
RTVSPropertyOp8
 70
     1
102
RTVSPropertyOp9
 70
     1
102
RTVSPropertyOp10
 70
     1
102
RTVSPropertyOp11
 70
     1
102
RTVSPropertyOp12
 70
     1
102
RTVSPropertyOp13
 70
     1
102
RTVSPropertyOp14
 70
     1
102
RTVSPropertyOp15
 70
     1
102
RTVSPropertyOp16
 70
     1
102
RTVSPropertyOp17
 70
     1
102
RTVSPropertyOp18
 70
     1
102
RTVSPropertyOp19
 70
     1
102
RTVSPropertyOp20
 70
     1
102
RTVSPropertyOp21
 70
     1
102
RTVSPropertyOp22
 70
     1
102
RTVSPropertyOp23
 70
     1
102
RTVSPropertyOp24
 70
     1
102
RTVSPropertyOp25
 70
     1
102
RTVSPropertyOp26
 70
     1
102
RTVSPropertyOp27
 70
     1
102
RTVSPropertyOp28
 70
     1
102
RTVSPropertyOp29
 70
     1
102
RTVSPropertyOp30
 70
     1
102
RTVSPropertyOp31
 70
     1
102
RTVSPropertyOp32
 70
     1
  0
ENDSEC
  0
EOF
