  0
SECTION
  2
HEADER
  9
$ACADVER
  1
AC1015
  9
$ACADMAINTVER
 70
    18
  9
$DWGCODEPAGE
  3
ANSI_1252
  9
$INSBASE
 10
0.0
 20
0.0
 30
0.0
  9
$EXTMIN
 10
-38.40809358983324
 20
-112.8887463422595
 30
-0.0015258207003583
  9
$EXTMAX
 10
38.426240442584
 20
85.43972886172083
 30
0.0000000349246037
  9
$LIMMIN
 10
0.0
 20
0.0
  9
$LIMMAX
 10
1189.0
 20
840.9999999999998
  9
$ORTHOMODE
 70
     0
  9
$REGENMODE
 70
     1
  9
$FILLMODE
 70
     1
  9
$QTEXTMODE
 70
     0
  9
$MIRRTEXT
 70
     0
  9
$LTSCALE
 40
1.0
  9
$ATTMODE
 70
     1
  9
$TEXTSIZE
 40
0.2
  9
$TRACEWID
 40
0.05
  9
$TEXTSTYLE
  7
STANDARD
  9
$CLAYER
  8
0
  9
$CELTYPE
  6
ByLayer
  9
$CECOLOR
 62
   256
  9
$CELTSCALE
 40
1.0
  9
$DISPSILH
 70
     0
  9
$DIMSCALE
 40
1.0
  9
$DIMASZ
 40
180.0
  9
$DIMEXO
 40
0.0625
  9
$DIMDLI
 40
0.38
  9
$DIMRND
 40
0.0
  9
$DIMDLE
 40
0.0
  9
$DIMEXE
 40
0.18
  9
$DIMTP
 40
0.0
  9
$DIMTM
 40
0.0
  9
$DIMTXT
 40
34.99999940395355
  9
$DIMCEN
 40
0.09
  9
$DIMTSZ
 40
0.0
  9
$DIMTOL
 70
     0
  9
$DIMLIM
 70
     0
  9
$DIMTIH
 70
     1
  9
$DIMTOH
 70
     1
  9
$DIMSE1
 70
     0
  9
$DIMSE2
 70
     0
  9
$DIMTAD
 70
     0
  9
$DIMZIN
 70
     0
  9
$DIMBLK
  1

  9
$DIMASO
 70
     1
  9
$DIMSHO
 70
     1
  9
$DIMPOST
  1

  9
$DIMAPOST
  1

  9
$DIMALT
 70
     0
  9
$DIMALTD
 70
     2
  9
$DIMALTF
 40
25.4
  9
$DIMLFAC
 40
1.0
  9
$DIMTOFL
 70
     0
  9
$DIMTVP
 40
0.0
  9
$DIMTIX
 70
     0
  9
$DIMSOXD
 70
     0
  9
$DIMSAH
 70
     0
  9
$DIMBLK1
  1

  9
$DIMBLK2
  1

  9
$DIMSTYLE
  2
STANDARD
  9
$DIMCLRD
 70
     0
  9
$DIMCLRE
 70
     0
  9
$DIMCLRT
 70
     0
  9
$DIMTFAC
 40
1.0
  9
$DIMGAP
 40
0.09
  9
$DIMJUST
 70
     0
  9
$DIMSD1
 70
     0
  9
$DIMSD2
 70
     0
  9
$DIMTOLJ
 70
     1
  9
$DIMTZIN
 70
     0
  9
$DIMALTZ
 70
     0
  9
$DIMALTTZ
 70
     0
  9
$DIMUPT
 70
     0
  9
$DIMDEC
 70
     4
  9
$DIMTDEC
 70
     4
  9
$DIMALTU
 70
     2
  9
$DIMALTTD
 70
     2
  9
$DIMTXSTY
  7
STANDARD
  9
$DIMAUNIT
 70
     0
  9
$DIMADEC
 70
     0
  9
$DIMALTRND
 40
0.0
  9
$DIMAZIN
 70
     0
  9
$DIMDSEP
 70
    46
  9
$DIMATFIT
 70
     3
  9
$DIMFRAC
 70
     0
  9
$DIMLDRBLK
  1

  9
$DIMLUNIT
 70
     2
  9
$DIMLWD
 70
    -2
  9
$DIMLWE
 70
    -2
  9
$DIMTMOVE
 70
     0
  9
$LUNITS
 70
     2
  9
$LUPREC
 70
     4
  9
$SKETCHINC
 40
0.1
  9
$FILLETRAD
 40
0.0
  9
$AUNITS
 70
     0
  9
$AUPREC
 70
     0
  9
$MENU
  1
.
  9
$ELEVATION
 40
0.0
  9
$PELEVATION
 40
0.0
  9
$THICKNESS
 40
0.0
  9
$LIMCHECK
 70
     0
  9
$CHAMFERA
 40
0.0
  9
$CHAMFERB
 40
0.0
  9
$CHAMFERC
 40
0.0
  9
$CHAMFERD
 40
0.0
  9
$SKPOLY
 70
     0
  9
$TDCREATE
 40
2454871.539305995
  9
$TDUCREATE
 40
2454871.455972662
  9
$TDUPDATE
 40
2455726.916861586
  9
$TDUUPDATE
 40
2455726.833528252
  9
$TDINDWG
 40
0.0121478588
  9
$TDUSRTIMER
 40
0.0121478588
  9
$USRTIMER
 70
     1
  9
$ANGBASE
 50
0.0
  9
$ANGDIR
 70
     0
  9
$PDMODE
 70
     0
  9
$PDSIZE
 40
0.0
  9
$PLINEWID
 40
0.0
  9
$SPLFRAME
 70
     0
  9
$SPLINETYPE
 70
     6
  9
$SPLINESEGS
 70
     8
  9
$HANDSEED
  5
389
  9
$SURFTAB1
 70
     6
  9
$SURFTAB2
 70
     6
  9
$SURFTYPE
 70
     6
  9
$SURFU
 70
     6
  9
$SURFV
 70
     6
  9
$UCSBASE
  2

  9
$UCSNAME
  2

  9
$UCSORG
 10
0.0
 20
0.0
 30
0.0
  9
$UCSXDIR
 10
1.0
 20
0.0
 30
0.0
  9
$UCSYDIR
 10
0.0
 20
1.0
 30
0.0
  9
$UCSORTHOREF
  2

  9
$UCSORTHOVIEW
 70
     0
  9
$UCSORGTOP
 10
0.0
 20
0.0
 30
0.0
  9
$UCSORGBOTTOM
 10
0.0
 20
0.0
 30
0.0
  9
$UCSORGLEFT
 10
0.0
 20
0.0
 30
0.0
  9
$UCSORGRIGHT
 10
0.0
 20
0.0
 30
0.0
  9
$UCSORGFRONT
 10
0.0
 20
0.0
 30
0.0
  9
$UCSORGBACK
 10
0.0
 20
0.0
 30
0.0
  9
$PUCSBASE
  2

  9
$PUCSNAME
  2

  9
$PUCSORG
 10
0.0
 20
0.0
 30
0.0
  9
$PUCSXDIR
 10
1.0
 20
0.0
 30
0.0
  9
$PUCSYDIR
 10
0.0
 20
1.0
 30
0.0
  9
$PUCSORTHOREF
  2

  9
$PUCSORTHOVIEW
 70
     0
  9
$PUCSORGTOP
 10
0.0
 20
0.0
 30
0.0
  9
$PUCSORGBOTTOM
 10
0.0
 20
0.0
 30
0.0
  9
$PUCSORGLEFT
 10
0.0
 20
0.0
 30
0.0
  9
$PUCSORGRIGHT
 10
0.0
 20
0.0
 30
0.0
  9
$PUCSORGFRONT
 10
0.0
 20
0.0
 30
0.0
  9
$PUCSORGBACK
 10
0.0
 20
0.0
 30
0.0
  9
$USERI1
 70
     0
  9
$USERI2
 70
     0
  9
$USERI3
 70
     0
  9
$USERI4
 70
     0
  9
$USERI5
 70
     0
  9
$USERR1
 40
0.0
  9
$USERR2
 40
0.0
  9
$USERR3
 40
0.0
  9
$USERR4
 40
0.0
  9
$USERR5
 40
0.0
  9
$WORLDVIEW
 70
     1
  9
$SHADEDGE
 70
     3
  9
$SHADEDIF
 70
    70
  9
$TILEMODE
 70
     1
  9
$MAXACTVP
 70
    64
  9
$PINSBASE
 10
0.0
 20
0.0
 30
0.0
  9
$PLIMCHECK
 70
     0
  9
$PEXTMIN
 10
0.0
 20
0.0
 30
0.0
  9
$PEXTMAX
 10
1189.0
 20
840.9999999999998
 30
0.0
  9
$PLIMMIN
 10
0.0
 20
0.0
  9
$PLIMMAX
 10
1189.0
 20
840.9999999999998
  9
$UNITMODE
 70
     0
  9
$VISRETAIN
 70
     1
  9
$PLINEGEN
 70
     0
  9
$PSLTSCALE
 70
     1
  9
$TREEDEPTH
 70
  3020
  9
$CMLSTYLE
  2
Standard
  9
$CMLJUST
 70
     0
  9
$CMLSCALE
 40
1.0
  9
$PROXYGRAPHICS
 70
     1
  9
$MEASUREMENT
 70
     1
  9
$CELWEIGHT
370
    -1
  9
$ENDCAPS
280
     0
  9
$JOINSTYLE
280
     0
  9
$LWDISPLAY
290
     0
  9
$INSUNITS
 70
     4
  9
$HYPERLINKBASE
  1

  9
$STYLESHEET
  1

  9
$XEDIT
290
     1
  9
$CEPSNTYPE
380
     0
  9
$PSTYLEMODE
290
     1
  9
$FINGERPRINTGUID
  2
{5CF6CF2D-D656-42DB-AC7C-521422A65D45}
  9
$VERSIONGUID
  2
{0EF92D89-089C-496E-8779-51C10987C171}
  9
$EXTNAMES
290
     1
  9
$PSVPSCALE
 40
0.0
  9
$OLESTARTUP
290
     0
  0
ENDSEC
  0
SECTION
  2
CLASSES
  0
CLASS
  1
ACDBDICTIONARYWDFLT
  2
AcDbDictionaryWithDefault
  3
ObjectDBX Classes
 90
        0
280
     0
281
     0
  0
CLASS
  1
MATERIAL
  2
AcDbMaterial
  3
ObjectDBX Classes
 90
     1153
280
     0
281
     0
  0
CLASS
  1
VISUALSTYLE
  2
AcDbVisualStyle
  3
ObjectDBX Classes
 90
     4095
280
     0
281
     0
  0
CLASS
  1
SCALE
  2
AcDbScale
  3
ObjectDBX Classes
 90
     1153
280
     0
281
     0
  0
CLASS
  1
TABLESTYLE
  2
AcDbTableStyle
  3
ObjectDBX Classes
 90
     4095
280
     0
281
     0
  0
CLASS
  1
MLEADERSTYLE
  2
AcDbMLeaderStyle
  3
ACDB_MLEADERSTYLE_CLASS
 90
     4095
280
     0
281
     0
  0
CLASS
  1
SORTENTSTABLE
  2
AcDbSortentsTable
  3
ObjectDBX Classes
 90
        0
280
     0
281
     0
  0
CLASS
  1
CELLSTYLEMAP
  2
AcDbCellStyleMap
  3
ObjectDBX Classes
 90
     1152
280
     0
281
     0
  0
CLASS
  1
DICTIONARYVAR
  2
AcDbDictionaryVar
  3
ObjectDBX Classes
 90
        0
280
     0
281
     0
  0
CLASS
  1
ACME_DOCUMENT
  2
AcMeDbDoc
  3
AcMeServices
 90
     1024
280
     0
281
     0
  0
CLASS
  1
AMGSETTINGSOBJ
  2
AmgSettingsObj
  3
"AcadM|Product Description: AutoCAD Mechanical|Company: Autodesk, Inc."
 90
     1024
280
     0
281
     0
  0
CLASS
  1
ACMESCOPE
  2
AcMeScope
  3
AcMeServices
 90
     1024
280
     0
281
     0
  0
CLASS
  1
ACMECOMMANDHISTORY
  2
AcMeCommandHistory
  3
AcMeServices
 90
     1024
280
     0
281
     0
  0
CLASS
  1
ACIMSYSVARMAN
  2
AcImSysVarManager
  3
AcMeServices
 90
     1024
280
     0
281
     0
  0
CLASS
  1
ACIMINTSYSVAR
  2
AcImIntSysVar
  3
AcMeServices
 90
     1024
280
     0
281
     0
  0
CLASS
  1
ACMEDRAWINGMAN
  2
AcMeDrawingMan
  3
AcMeServices
 90
    33792
280
     0
281
     0
  0
CLASS
  1
ACMEVIEW
  2
AcMeView
  3
AcMeServices
 90
    33792
280
     0
281
     0
  0
CLASS
  1
ACDBENTITYCACHE
  2
AcMeEntityCache
  3
AcMeServices
 90
     1024
280
     0
281
     0
  0
CLASS
  1
GSMANAGER
  2
AcMeGSManager
  3
AcMeServices
 90
    33792
280
     1
281
     0
  0
CLASS
  1
AMDTINTERNALREACTOR
  2
AmdtInternalReactor
  3
AcMeServices
 90
     1024
280
     0
281
     0
  0
CLASS
  1
ACMESTATEMGR
  2
AcMeStateMgr
  3
AcMeServices
 90
     1024
280
     0
281
     0
  0
CLASS
  1
ACGREFMASTER
  2
AcGrefMaster
  3
AcAttribServices
 90
     1024
280
     0
281
     0
  0
CLASS
  1
AM_DRAWING_MGR
  2
AcDmDwgMgr
  3
AcMechDwgViewMgmt
 90
     1024
280
     0
281
     0
  0
CLASS
  1
AM_DWG_DOCUMENT
  2
AcDmDwgDocument
  3
AcMechDwgViewMgmt
 90
     1024
280
     0
281
     0
  0
CLASS
  1
AM_DWG_SHEET
  2
AcDmSheet
  3
AcMechDwgViewMgmt
 90
     1024
280
     0
281
     0
  0
CLASS
  1
AM_VIEWDIMPARMAP
  2
AcDmViewDimParMap
  3
AcMechDwgViewMgmt
 90
     1024
280
     0
281
     0
  0
CLASS
  1
ACIMREALSYSVAR
  2
AcImRealSysVar
  3
AcMeServices
 90
     1024
280
     0
281
     0
  0
CLASS
  1
AM_DWGMGR_NAME
  2
AcDmDwgMgrName
  3
AcMechDwgViewMgmt
 90
     1024
280
     0
281
     0
  0
CLASS
  1
ACME_DATABASE
  2
AcMeDbDatabase
  3
AcMeServices
 90
     1024
280
     0
281
     0
  0
CLASS
  1
ACRFINSADJUSTERMGR
  2
AcRfInsAdjusterMgr
  3
AcMeServices
 90
     1024
280
     0
281
     0
  0
CLASS
  1
ACGREFACADMASTER
  2
AcGrefacadMaster
  3
AcGrefServices
 90
     1024
280
     0
281
     0
  0
CLASS
  1
AMDTMENUSTATEMGR
  2
AmdtMenuStateMgr
  3
McadcomServices
 90
     1024
280
     0
281
     0
  0
CLASS
  1
AMDTMCOMMENUSTATE
  2
AmdtMcomMenuState
  3
McadcomServices
 90
     1024
280
     0
281
     0
  0
CLASS
  1
AMIMASTER
  2
AmiMaster
  3
AmiServices
 90
     1024
280
     0
281
     0
  0
CLASS
  1
MAPIAMMOUDLE
  2
MApiAmModule
  3
MApiAmServices
 90
     1024
280
     0
281
     0
  0
CLASS
  1
ACIMSTRSYSVAR
  2
AcImStrSysVar
  3
AcMeServices
 90
     1024
280
     0
281
     0
  0
CLASS
  1
AMDTADMENUSTATE
  2
AmdtAdMenuState
  3
DesignerServices
 90
    33792
280
     1
281
     0
  0
CLASS
  1
ADAPPL
  2
AcAdAppl
  3
DesignerAssemblies
 90
    33792
280
     0
281
     0
  0
CLASS
  1
DEPMGR
  2
AcAdDepMgr
  3
DesignerAssemblies
 90
    33792
280
     0
281
     0
  0
CLASS
  1
PARAMMGR
  2
AcAdParamMgr
  3
DesignerAssemblies
 90
    33792
280
     0
281
     0
  0
CLASS
  1
PARAMSCOPE
  2
AcAdParamScope
  3
DesignerAssemblies
 90
    33792
280
     0
281
     0
  0
CLASS
  1
NAMEDAPPL
  2
AcAdNamedAppl
  3
DesignerAssemblies
 90
    33792
280
     0
281
     0
  0
CLASS
  1
AMDTDMMENUSTATE
  2
AmdtDmMenuState
  3
AcMechDwgViewMgmt
 90
     1024
280
     0
281
     0
  0
CLASS
  1
AMDTAMMENUSTATE
  2
AmdtAmMenuState
  3
DesignerAssemblies
 90
     1024
280
     0
281
     0
  0
CLASS
  1
ACAMPROJECT
  2
AcAmProject
  3
DesignerAssemblies
 90
     1024
280
     0
281
     0
  0
CLASS
  1
ACAMGRCOMPDEF
  2
AcAmGrCompDef
  3
DesignerAssemblies
 90
     1024
280
     0
281
     0
  0
CLASS
  1
ACCMCONTEXT
  2
AcCmContext
  3
DesignerAssemblies
 90
    33792
280
     0
281
     0
  0
CLASS
  1
ACAMCOMPDEF
  2
AcAmCompDef
  3
DesignerAssemblies
 90
     1024
280
     0
281
     0
  0
CLASS
  1
ACAMCOMPDEFMGR
  2
AcAmCompDefMgr
  3
DesignerAssemblies
 90
     1024
280
     0
281
     0
  0
CLASS
  1
AMCONTEXTMGR
  2
AcAmContextMgr
  3
DesignerAssemblies
 90
     1024
280
     0
281
     0
  0
CLASS
  1
ACAMCONTEXTMODELER
  2
AcAmContextModeler
  3
DesignerAssemblies
 90
     1024
280
     0
281
     0
  0
CLASS
  1
ACMDATADICTIONARY
  2
AcmDataDictionary
  3
"AcmSymBB|Product Description: AutoCAD Mechanical|Company: Autodesk, Inc."
 90
     1024
280
     0
281
     0
  0
CLASS
  1
CATALOGSTATE
  2
AcAmCatalogState
  3
DesignerAssemblies
 90
    33792
280
     0
281
     0
  0
CLASS
  1
ACAMGRCOMPDEFSET
  2
AcAmGrCompDefSet
  3
DesignerAssemblies
 90
     1024
280
     0
281
     0
  0
CLASS
  1
AMDTBROWSERDBTAB
  2
AmdtBrowserDbTab
  3
McadcomServices
 90
     1024
280
     0
281
     0
  0
CLASS
  1
CBROWSERAPPOBJECT
  2
CBrowserAppObject
  3
McadcomServices
 90
     1024
280
     0
281
     0
  0
CLASS
  1
DM_PLACEHOLDER
  2
AcDmSelsetPlaceholder
  3
AcMechDwgViewMgmt
 90
     1024
280
     0
281
     0
  0
CLASS
  1
EXACXREFPANELOBJECT
  2
ExAcXREFPanelObject
  3
EXAC_ESW
 90
     1025
280
     0
281
     0
  0
CLASS
  1
NPOCOLLECTION
  2
AcDbImpNonPersistentObjectsCollection
  3
ObjectDBX Classes
 90
     1153
280
     0
281
     0
  0
CLASS
  1
ACMSTANDARDANSI
  2
AcmStandardANSI
  3
"Amdt_StdImp|Product Description: AutoCAD Mechanical|Company: Autodesk, Inc."
 90
     1024
280
     0
281
     0
  0
CLASS
  1
ACMSURFSTANDARDANSI
  2
AcmSurfTextStdANSI
  3
"Amdt_StdImp|Product Description: AutoCAD Mechanical|Company: Autodesk, Inc."
 90
     1024
280
     0
281
     0
  0
CLASS
  1
ACMFCFSTANDARDANSI
  2
AcmFCFStdANSI
  3
"Amdt_StdImp|Product Description: AutoCAD Mechanical|Company: Autodesk, Inc."
 90
     1024
280
     0
281
     0
  0
CLASS
  1
ACMWELDSTANDARDANSI
  2
AcmWeldingStdANSI
  3
"Amdt_StdImp|Product Description: AutoCAD Mechanical|Company: Autodesk, Inc."
 90
     1024
280
     0
281
     0
  0
CLASS
  1
ACMIDSTANDARDANSI
  2
AcmIdStdANSI
  3
"Amdt_StdImp|Product Description: AutoCAD Mechanical|Company: Autodesk, Inc."
 90
     1024
280
     0
281
     0
  0
CLASS
  1
ACMDATUMSTANDARDANSI
  2
AcmDatumStdANSI
  3
"Amdt_StdImp|Product Description: AutoCAD Mechanical|Company: Autodesk, Inc."
 90
     1024
280
     0
281
     0
  0
CLASS
  1
ACMBOMSTANDARDANSI
  2
AcmBOMStdANSI
  3
"Amdt_StdImp|Product Description: AutoCAD Mechanical|Company: Autodesk, Inc."
 90
     1024
280
     0
281
     0
  0
CLASS
  1
ACMDETAILSTANDARDANSI
  2
AmdtDetailSymStdANSI
  3
"Amdt_StdImp|Product Description: AutoCAD Mechanical|Company: Autodesk, Inc."
 90
     1024
280
     0
281
     0
  0
CLASS
  1
ACMSECTIONSTANDARDANSI
  2
AmdtSectionSymStdANSI
  3
"Amdt_StdImp|Product Description: AutoCAD Mechanical|Company: Autodesk, Inc."
 90
     1024
280
     0
281
     0
  0
CLASS
  1
ACMCENTERLINESTANDARDANSI
  2
AmdtCenterLineStdANSI
  3
"Amdt_StdImp|Product Description: AutoCAD Mechanical|Company: Autodesk, Inc."
 90
     1024
280
     0
281
     0
  0
CLASS
  1
ACMTHREADLINESTANDARDANSI
  2
AmdtThreadLineStdANSI
  3
"Amdt_StdImp|Product Description: AutoCAD Mechanical|Company: Autodesk, Inc."
 90
     1024
280
     0
281
     0
  0
CLASS
  1
ACMNOTESTANDARDANSI
  2
AmdtNoteStdANSI
  3
"Amdt_StdImp|Product Description: AutoCAD Mechanical|Company: Autodesk, Inc."
 90
     1024
280
     0
281
     0
  0
CLASS
  1
ACMTAPERSTANDARDANSI
  2
AcmTaperStdANSI
  3
"Amdt_StdImp|Product Description: AutoCAD Mechanical|Company: Autodesk, Inc."
 90
     1024
280
     0
281
     0
  0
CLASS
  1
ACMANOOTATIONVIEWSTANDARDANSI
  2
AmdtAnViewStdANSI
  3
"Amdt_StdImp|Product Description: AutoCAD Mechanical|Company: Autodesk, Inc."
 90
     1024
280
     0
281
     0
  0
CLASS
  1
ACAMGLAYSTD
  2
AcAmgLayStd
  3
"AmgLay|Product Description: AutoCAD Mechanical|Company: Autodesk, Inc."
 90
     1024
280
     0
281
     0
  0
CLASS
  1
ACAMGDIMSTD
  2
AcAmgDimStd
  3
"AmgDim|Product Description: AutoCAD Mechanical|Company: Autodesk, Inc."
 90
     1024
280
     0
281
     0
  0
CLASS
  1
AMGOBJPROPCFG
  2
AmgObjPropCfg
  3
"AmgLay|Product Description: AutoCAD Mechanical|Company: Autodesk, Inc."
 90
     1025
280
     0
281
     0
  0
CLASS
  1
ACAMGHOLECHARTSTDANSI
  2
AcAmgHoleChartStdANSI
  3
AmgDim|Product Description: AutoCAD Mechanical|Company: Autodesk, Inc.
 90
     1024
280
     0
281
     0
  0
CLASS
  1
ACAMGTITLESTD
  2
AcAmgTitleStd
  3
"AmgTitle|Product Description: AutoCAD Mechanical|Company: Autodesk, Inc."
 90
     4095
280
     0
281
     0
  0
CLASS
  1
AMDTNOTETEMPLATEDB
  2
AmdtNoteTemplateDB
  3
AcmSymBB|Product Description: AutoCAD Mechanical|Company: Autodesk, Inc.
 90
     1024
280
     0
281
     0
  0
CLASS
  1
ACAMGFILTERDAT
  2
AcAmgFilterDat
  3
"AcadM|Product Description: AutoCAD Mechanical|Company: Autodesk, Inc."
 90
    33792
280
     0
281
     0
  0
CLASS
  1
CAMSSTRUCTBTNSTATE
  2
StructBtnState
  3
DesignerAssemblies
 90
    33792
280
     0
281
     0
  0
CLASS
  1
ACDBPLACEHOLDER
  2
AcDbPlaceHolder
  3
ObjectDBX Classes
 90
        0
280
     0
281
     0
  0
CLASS
  1
LAYOUT
  2
AcDbLayout
  3
ObjectDBX Classes
 90
        0
280
     0
281
     0
  0
ENDSEC
  0
SECTION
  2
TABLES
  0
TABLE
  2
VPORT
  5
28
102
{ACAD_XDICTIONARY
360
2C
102
}
330
0
100
AcDbSymbolTable
 70
     1
  0
VPORT
  5
29
330
28
100
AcDbSymbolTableRecord
100
AcDbViewportTableRecord
  2
*ACTIVE
 70
     0
 10
0.0
 20
0.0
 11
1.0
 21
1.0
 12
0.0090734263753802
 22
-13.72450874026936
 13
0.0
 23
0.0
 14
1.0
 24
1.0
 15
0.0
 25
0.0
 16
0.0
 26
0.0
 36
1.0
 17
0.0
 27
0.0
 37
0.0
 40
222.0514390747513
 41
2.068965517241379
 42
50.0
 43
0.0
 44
0.0
 50
0.0
 51
0.0
 71
     0
 72
   100
 73
     1
 74
     1
 75
     0
 76
     0
 77
     0
 78
     0
281
     0
 65
     1
110
0.0
120
0.0
130
0.0
111
1.0
121
0.0
131
0.0
112
0.0
122
1.0
132
0.0
 79
     0
146
0.0
  0
ENDTAB
  0
TABLE
  2
LTYPE
  5
23
330
0
100
AcDbSymbolTable
 70
    12
  0
LTYPE
  5
24
330
23
100
AcDbSymbolTableRecord
100
AcDbLinetypeTableRecord
  2
ByBlock
 70
     0
  3

 72
    65
 73
     0
 40
0.0
  0
LTYPE
  5
25
330
23
100
AcDbSymbolTableRecord
100
AcDbLinetypeTableRecord
  2
ByLayer
 70
     0
  3

 72
    65
 73
     0
 40
0.0
  0
LTYPE
  5
13
330
23
100
AcDbSymbolTableRecord
100
AcDbLinetypeTableRecord
  2
CONTINUOUS
 70
     0
  3
Solid line
 72
    65
 73
     0
 40
0.0
  0
LTYPE
  5
293
330
23
100
AcDbSymbolTableRecord
100
AcDbLinetypeTableRecord
  2
HIDDEN
 70
     0
  3
Verdeckt
 72
    65
 73
     2
 40
0.375
 49
0.25
 74
     0
 49
-0.125
 74
     0
  0
LTYPE
  5
295
330
23
100
AcDbSymbolTableRecord
100
AcDbLinetypeTableRecord
  2
PHANTOM2
 70
     0
  3
Phantom (.5x) ___ _ _ ___ _ _ ___ _ _ ___ _ _
 72
    65
 73
     6
 40
1.25
 49
0.625
 74
     0
 49
-0.125
 74
     0
 49
0.125
 74
     0
 49
-0.125
 74
     0
 49
0.125
 74
     0
 49
-0.125
 74
     0
  0
LTYPE
  5
294
330
23
100
AcDbSymbolTableRecord
100
AcDbLinetypeTableRecord
  2
CENTER
 70
     0
  3
Mitte ____ _ ____ _ ____ _ ____ _ ____ _ ____
 72
    65
 73
     4
 40
2.0
 49
1.25
 74
     0
 49
-0.25
 74
     0
 49
0.25
 74
     0
 49
-0.25
 74
     0
  0
LTYPE
  5
296
330
23
100
AcDbSymbolTableRecord
100
AcDbLinetypeTableRecord
  2
Amconstr
 70
     0
  3
_______________________
 72
    65
 73
     2
 40
9999.0
 49
9999.0
 74
     0
 49
0.0
 74
     0
  0
LTYPE
  5
297
330
23
100
AcDbSymbolTableRecord
100
AcDbLinetypeTableRecord
  2
CENTER2
 70
     0
  3
Center (.5x) ___ _ ___ _ ___ _ ___ _ ___ _ ___
 72
    65
 73
     4
 40
1.125
 49
0.75
 74
     0
 49
-0.125
 74
     0
 49
0.125
 74
     0
 49
-0.125
 74
     0
  0
LTYPE
  5
298
330
23
100
AcDbSymbolTableRecord
100
AcDbLinetypeTableRecord
  2
HIDDEN2
 70
     0
  3
Hidden (.5x) _ _ _ _ _ _ _ _ _ _ _ _ _ _ _ _ _
 72
    65
 73
     2
 40
0.1875
 49
0.125
 74
     0
 49
-0.0625
 74
     0
  0
LTYPE
  5
299
330
23
100
AcDbSymbolTableRecord
100
AcDbLinetypeTableRecord
  2
Amzigzag2
 70
     0
  3
/\/-/\/-/\/-/\/-/\/-/\/
 72
    65
 73
     2
 40
0.4401
 49
0.0001
 74
     4
 75
   136
340
29A
 46
0.0016
 50
0.0
 44
0.0
 45
0.0
 49
-0.4400000000000001
 74
     0
  0
LTYPE
  5
2AA
330
23
100
AcDbSymbolTableRecord
100
AcDbLinetypeTableRecord
  2
ACANSTGB
 70
     0
  3
__ . . __ . .
 72
    65
 73
     6
 40
0.35433070866
 49
0.15748031496
 74
     0
 49
-0.03937007874
 74
     0
 49
0.03937007874
 74
     0
 49
-0.03937007874
 74
     0
 49
0.03937007874
 74
     0
 49
-0.03937007874
 74
     0
  0
LTYPE
  5
2AB
330
23
100
AcDbSymbolTableRecord
100
AcDbLinetypeTableRecord
  2
ACANSTGL
 70
     0
  3
_ _ _ _ _
 72
    65
 73
     2
 40
0.11811023622
 49
0.07874015748
 74
     0
 49
-0.03937007874
 74
     0
  0
LTYPE
  5
70
330
23
100
AcDbSymbolTableRecord
100
AcDbLinetypeTableRecord
  2
DASHDOT
 70
     0
  3
Dash dot __ . __ . __ . __ . __ . __ . __ . __
 72
    65
 73
     4
 40
1.0
 49
0.5
 74
     0
 49
-0.25
 74
     0
 49
0.0
 74
     0
 49
-0.25
 74
     0
  0
LTYPE
  5
83
330
23
100
AcDbSymbolTableRecord
100
AcDbLinetypeTableRecord
  2
DASHED
 70
     0
  3
Dashed __ __ __ __ __ __ __ __ __ __ __ __ __ _
 72
    65
 73
     2
 40
0.75
 49
0.5
 74
     0
 49
-0.25
 74
     0
  0
ENDTAB
  0
TABLE
  2
LAYER
  5
1B
102
{ACAD_XDICTIONARY
360
1C
102
}
330
0
100
AcDbSymbolTable
 70
     8
  0
LAYER
  5
6
330
1B
100
AcDbSymbolTableRecord
100
AcDbLayerTableRecord
  2
0
 70
     0
 62
     7
  6
CONTINUOUS
370
    -3
390
7
  0
LAYER
  5
8B
330
1B
100
AcDbSymbolTableRecord
100
AcDbLayerTableRecord
  2
GEB-KONTUR-A
 70
     0
 62
     5
  6
CONTINUOUS
370
    -3
390
7
  0
LAYER
  5
6F
330
1B
100
AcDbSymbolTableRecord
100
AcDbLayerTableRecord
  2
GEB-SYMMETRIE
 70
     0
 62
     3
  6
DASHDOT
370
    -3
390
7
1001
AcAecLayerStandard
1000

1000

  0
LAYER
  5
82
330
1B
100
AcDbSymbolTableRecord
100
AcDbLayerTableRecord
  2
GEB-VERDECKT
 70
     0
 62
     2
  6
DASHED
370
    -3
390
7
1001
AcAecLayerStandard
1000

1000

  0
LAYER
  5
7D
330
1B
100
AcDbSymbolTableRecord
100
AcDbLayerTableRecord
  2
Arbeitspunkt(DIN)
 70
     0
 62
     7
  6
CONTINUOUS
370
    25
390
7
  0
LAYER
  5
28F
330
1B
100
AcDbSymbolTableRecord
100
AcDbLayerTableRecord
  2
GEB-ART-NR
 70
     0
 62
     1
  6
CONTINUOUS
370
    18
390
7
  0
LAYER
  5
79
330
1B
100
AcDbSymbolTableRecord
100
AcDbLayerTableRecord
  2
GEB-BEZUG
 70
     0
 62
     2
  6
CONTINUOUS
370
    25
390
7
  0
LAYER
  5
28C
330
1B
100
AcDbSymbolTableRecord
100
AcDbLayerTableRecord
  2
GEB-TEXT
 70
     0
 62
     5
  6
CONTINUOUS
370
    18
390
7
  0
ENDTAB
  0
TABLE
  2
STYLE
  5
20
330
0
100
AcDbSymbolTable
 70
     3
  0
STYLE
  5
21
330
20
100
AcDbSymbolTableRecord
100
AcDbTextStyleTableRecord
  2
STANDARD
 70
     0
 40
0.0
 41
1.0
 50
0.0
 71
     0
 42
0.2
  3
arial.ttf
  4

1001
ACAD
1000
Arial
1071
       34
  0
STYLE
  5
29A
330
20
100
AcDbSymbolTableRecord
100
AcDbTextStyleTableRecord
  2

 70
     1
 40
0.0
 41
1.0
 50
0.0
 71
     0
 42
0.2
  3
genltshp.shx
  4

  0
STYLE
  5
2A6
330
20
100
AcDbSymbolTableRecord
100
AcDbTextStyleTableRecord
  2
ACANSGDT
 70
     0
 40
0.0
 41
1.0
 50
0.0
 71
     0
 42
0.2
  3
amgdt.shx
  4

  0
ENDTAB
  0
TABLE
  2
VIEW
  5
26
330
0
100
AcDbSymbolTable
 70
     0
  0
ENDTAB
  0
TABLE
  2
UCS
  5
27
330
0
100
AcDbSymbolTable
 70
     0
  0
ENDTAB
  0
TABLE
  2
APPID
  5
2D
330
0
100
AcDbSymbolTable
 70
    14
  0
APPID
  5
1F
330
2D
100
AcDbSymbolTableRecord
100
AcDbRegAppTableRecord
  2
ACAD
 70
     0
  0
APPID
  5
71
330
2D
100
AcDbSymbolTableRecord
100
AcDbRegAppTableRecord
  2
AcAecLayerStandard
 70
     0
  0
APPID
  5
2E9
330
2D
100
AcDbSymbolTableRecord
100
AcDbRegAppTableRecord
  2
ACATTRIBSERVICES
 70
     0
  0
APPID
  5
314
330
2D
100
AcDbSymbolTableRecord
100
AcDbRegAppTableRecord
  2
MCAD_NO_VIS
 70
     0
  0
APPID
  5
315
330
2D
100
AcDbSymbolTableRecord
100
AcDbRegAppTableRecord
  2
ACAD_TEMP_GRAPHIC
 70
     0
  0
APPID
  5
319
330
2D
100
AcDbSymbolTableRecord
100
AcDbRegAppTableRecord
  2
AD_DRAW
 70
     0
  0
APPID
  5
332
330
2D
100
AcDbSymbolTableRecord
100
AcDbRegAppTableRecord
  2
DESIGNERASSEMBLIES
 70
     0
  0
APPID
  5
337
330
2D
100
AcDbSymbolTableRecord
100
AcDbRegAppTableRecord
  2
ACADM_DIM_EDIT
 70
     0
  0
APPID
  5
338
330
2D
100
AcDbSymbolTableRecord
100
AcDbRegAppTableRecord
  2
AMDT_DM_ADJ
 70
     0
  0
APPID
  5
358
330
2D
100
AcDbSymbolTableRecord
100
AcDbRegAppTableRecord
  2
ACAD_DSTYLE_DIMARC_LENGTH_SYMBOL
 70
     0
  0
APPID
  5
359
330
2D
100
AcDbSymbolTableRecord
100
AcDbRegAppTableRecord
  2
ACAD_DSTYLE_DIM_LINETYPE
 70
     0
  0
APPID
  5
35A
330
2D
100
AcDbSymbolTableRecord
100
AcDbRegAppTableRecord
  2
ACAD_DSTYLE_DIM_EXT1_LINETYPE
 70
     0
  0
APPID
  5
35B
330
2D
100
AcDbSymbolTableRecord
100
AcDbRegAppTableRecord
  2
ACAD_DSTYLE_DIM_EXT2_LINETYPE
 70
     0
  0
APPID
  5
388
330
2D
100
AcDbSymbolTableRecord
100
AcDbRegAppTableRecord
  2
ACAD_MLEADERVER
 70
     0
  0
ENDTAB
  0
TABLE
  2
DIMSTYLE
  5
2E
330
0
100
AcDbSymbolTable
 70
     7
100
AcDbDimStyleTable
 71
     1
340
2F
  0
DIMSTYLE
105
2F
330
2E
100
AcDbSymbolTableRecord
100
AcDbDimStyleTableRecord
  2
STANDARD
 70
     0
279
     2
340
21
  0
DIMSTYLE
105
2BC
102
{ACAD_REACTORS
330
2A3
102
}
330
2E
100
AcDbSymbolTableRecord
100
AcDbDimStyleTableRecord
  2
AM_ANSI
 70
     0
  4
mm
 41
0.12
 42
0.05
 43
0.5
 44
0.1
 47
0.1
 48
0.1
 78
     7
 79
     2
140
0.12
141
0.0
146
0.71
147
0.06
176
   256
177
   256
178
     2
274
     4
284
     7
340
21
371
    -1
372
    -1
1001
ACAD_DSTYLE_DIMARC_LENGTH_SYMBOL
1070
   379
1070
     1
1001
ACAD_DSTYLE_DIM_LINETYPE
1070
   380
1005
24
1001
ACAD_DSTYLE_DIM_EXT1_LINETYPE
1070
   381
1005
24
1001
ACAD_DSTYLE_DIM_EXT2_LINETYPE
1070
   382
1005
24
  0
DIMSTYLE
105
2BD
330
2E
100
AcDbSymbolTableRecord
100
AcDbDimStyleTableRecord
  2
AM_ANSI$3
 70
     0
  4
mm
 41
0.12
 42
0.05
 43
0.5
 44
0.1
 47
0.1
 48
0.1
 78
     7
 79
     2
140
0.12
141
0.0
146
0.71
147
0.06
176
   256
177
   256
178
     2
274
     4
284
     7
288
     1
289
     0
340
21
371
    -1
372
    -1
1001
ACAD_DSTYLE_DIMARC_LENGTH_SYMBOL
1070
   379
1070
     1
1001
ACAD_DSTYLE_DIM_LINETYPE
1070
   380
1005
24
1001
ACAD_DSTYLE_DIM_EXT1_LINETYPE
1070
   381
1005
24
1001
ACAD_DSTYLE_DIM_EXT2_LINETYPE
1070
   382
1005
24
  0
DIMSTYLE
105
2BE
330
2E
100
AcDbSymbolTableRecord
100
AcDbDimStyleTableRecord
  2
AM_ANSI$4
 70
     0
  4
mm
 41
0.12
 42
0.05
 43
0.5
 44
0.1
 47
0.1
 48
0.1
 78
     7
 79
     2
140
0.12
141
0.0
146
0.71
147
0.06
176
   256
177
   256
178
     2
274
     4
284
     7
288
     1
289
     0
340
21
371
    -1
372
    -1
1001
ACAD_DSTYLE_DIMARC_LENGTH_SYMBOL
1070
   379
1070
     1
1001
ACAD_DSTYLE_DIM_LINETYPE
1070
   380
1005
24
1001
ACAD_DSTYLE_DIM_EXT1_LINETYPE
1070
   381
1005
24
1001
ACAD_DSTYLE_DIM_EXT2_LINETYPE
1070
   382
1005
24
  0
DIMSTYLE
105
2BF
330
2E
100
AcDbSymbolTableRecord
100
AcDbDimStyleTableRecord
  2
AM_ANSI$7
 70
     0
  4
mm
 41
0.12
 42
0.05
 43
0.5
 44
0.1
 47
0.1
 48
0.1
 78
     7
 79
     2
140
0.12
141
0.0
146
0.71
147
0.06
176
   256
177
   256
178
     2
274
     4
284
     7
340
21
371
    -1
372
    -1
1001
ACAD_DSTYLE_DIMARC_LENGTH_SYMBOL
1070
   379
1070
     1
1001
ACAD_DSTYLE_DIM_LINETYPE
1070
   380
1005
24
1001
ACAD_DSTYLE_DIM_EXT1_LINETYPE
1070
   381
1005
24
1001
ACAD_DSTYLE_DIM_EXT2_LINETYPE
1070
   382
1005
24
  0
DIMSTYLE
105
2C0
330
2E
100
AcDbSymbolTableRecord
100
AcDbDimStyleTableRecord
  2
AM_ANSI$SF
 70
     0
  4
mm
 41
0.12
 42
0.05
 43
0.5
 44
0.1
 47
0.1
 48
0.1
 75
     1
 76
     1
 78
     7
 79
     2
140
0.12
141
0.0
146
0.71
147
0.06
176
   256
177
   256
178
     2
274
     4
284
     7
340
21
371
    -1
372
    -1
1001
ACAD_DSTYLE_DIMARC_LENGTH_SYMBOL
1070
   379
1070
     1
1001
ACAD_DSTYLE_DIM_LINETYPE
1070
   380
1005
24
1001
ACAD_DSTYLE_DIM_EXT1_LINETYPE
1070
   381
1005
24
1001
ACAD_DSTYLE_DIM_EXT2_LINETYPE
1070
   382
1005
24
  0
DIMSTYLE
105
2C1
330
2E
100
AcDbSymbolTableRecord
100
AcDbDimStyleTableRecord
  2
AM_ANSI$SH
 70
     0
  4
mm
 41
0.12
 42
0.05
 43
0.5
 44
0.1
 47
0.1
 48
0.1
 75
     1
 76
     1
 78
     7
 79
     2
140
0.12
141
0.0
146
0.71
147
0.06
173
     1
176
   256
177
   256
178
     2
274
     4
284
     7
340
21
343
2C2
371
    -1
372
    -1
1001
ACAD_DSTYLE_DIMARC_LENGTH_SYMBOL
1070
   379
1070
     1
1001
ACAD_DSTYLE_DIM_LINETYPE
1070
   380
1005
24
1001
ACAD_DSTYLE_DIM_EXT1_LINETYPE
1070
   381
1005
24
1001
ACAD_DSTYLE_DIM_EXT2_LINETYPE
1070
   382
1005
24
  0
ENDTAB
  0
TABLE
  2
BLOCK_RECORD
  5
1
330
0
100
AcDbSymbolTable
 70
     3
  0
BLOCK_RECORD
  5
2
102
{ACAD_XDICTIONARY
360
3
102
}
330
1
100
AcDbSymbolTableRecord
100
AcDbBlockTableRecord
  2
*Model_Space
340
15
  0
BLOCK_RECORD
  5
17
330
1
100
AcDbSymbolTableRecord
100
AcDbBlockTableRecord
  2
*Paper_Space
340
1A
  0
BLOCK_RECORD
  5
2C2
330
1
100
AcDbSymbolTableRecord
100
AcDbBlockTableRecord
  2
GENAXEH
340
0
  0
BLOCK_RECORD
  5
76
330
1
100
AcDbSymbolTableRecord
100
AcDbBlockTableRecord
  2
Einfügepunkt
340
0
102
{BLKREFS
331
75
102
}
  0
ENDTAB
  0
ENDSEC
  0
SECTION
  2
BLOCKS
  0
BLOCK
  5
5
330
2
100
AcDbEntity
  8
0
100
AcDbBlockBegin
  2
*Model_Space
 70
     0
 10
0.0
 20
0.0
 30
0.0
  3
*Model_Space
  1

  0
ENDBLK
  5
14
330
2
100
AcDbEntity
  8
0
100
AcDbBlockEnd
  0
BLOCK
  5
18
330
17
100
AcDbEntity
 67
     1
  8
0
100
AcDbBlockBegin
  2
*Paper_Space
 70
     0
 10
0.0
 20
0.0
 30
0.0
  3
*Paper_Space
  1

  0
ENDBLK
  5
19
330
17
100
AcDbEntity
 67
     1
  8
0
100
AcDbBlockEnd
  0
BLOCK
  5
2C3
330
2C2
100
AcDbEntity
  8
0
100
AcDbBlockBegin
  2
GENAXEH
 70
     0
 10
0.0
 20
0.0
 30
0.0
  3
GENAXEH
  1

  0
LINE
  5
2C4
330
2C2
100
AcDbEntity
  8
0
100
AcDbLine
 10
-1.0
 20
0.0
 30
0.0
 11
1.0
 21
0.0
 31
0.0
  0
ENDBLK
  5
2C5
330
2C2
100
AcDbEntity
  8
0
100
AcDbBlockEnd
  0
BLOCK
  5
77
330
76
100
AcDbEntity
  8
0
100
AcDbBlockBegin
  2
Einfügepunkt
 70
     0
 10
0.0
 20
0.0
 30
0.0
  3
Einfügepunkt
  1

  0
LINE
  5
78
330
76
100
AcDbEntity
  8
GEB-BEZUG
100
AcDbLine
 10
-0.7071067811865817
 20
-0.7071067811865106
 30
0.0
 11
0.7071067811864751
 21
0.7071067811865817
 31
0.0
  0
LINE
  5
7A
330
76
100
AcDbEntity
  8
GEB-BEZUG
100
AcDbLine
 10
-0.7071067811865106
 20
0.7071067811865817
 30
0.0
 11
0.7071067811865462
 21
-0.7071067811865106
 31
0.0
  0
ENDBLK
  5
7B
330
76
100
AcDbEntity
  8
0
100
AcDbBlockEnd
  0
ENDSEC
  0
SECTION
  2
ENTITIES
  0
LINE
  5
6E
330
2
100
AcDbEntity
  8
GEB-SYMMETRIE
 48
25.0
100
AcDbLine
 10
-0.0000000000048317
 20
16.33416664540433
 30
0.0
 11
-38.40000000000486
 21
16.33416664540433
 31
0.0
  0
LINE
  5
72
330
2
100
AcDbEntity
  8
GEB-SYMMETRIE
 48
25.0
100
AcDbLine
 10
-0.0000000000048317
 20
16.33416664540433
 30
0.0
 11
38.39999999999515
 21
16.33416664540433
 31
0.0
  0
LINE
  5
73
330
2
100
AcDbEntity
  8
GEB-SYMMETRIE
 48
25.0
100
AcDbLine
 10
-0.0000000000048317
 20
16.33416664540433
 30
0.0
 11
-0.0000000000048317
 21
-22.06583335459567
 31
0.0
  0
LINE
  5
74
330
2
100
AcDbEntity
  8
GEB-SYMMETRIE
 48
25.0
100
AcDbLine
 10
-0.0000000000048317
 20
16.33416664540433
 30
0.0
 11
-0.0000000000048317
 21
54.73416664540434
 31
0.0
  0
INSERT
  5
75
330
2
100
AcDbEntity
  8
0
 48
25.0
100
AcDbBlockReference
  2
Einfügepunkt
 10
0.0
 20
0.0
 30
0.0
  0
LINE
  5
7C
330
2
100
AcDbEntity
  8
Arbeitspunkt(DIN)
 48
25.0
100
AcDbLine
 10
0.0
 20
-0.0000000000000284
 30
0.0
 11
0.0
 21
-2.500000000000028
 31
0.0
  0
LINE
  5
7E
330
2
100
AcDbEntity
  8
Arbeitspunkt(DIN)
 48
25.0
100
AcDbLine
 10
0.0
 20
-0.0000000000000284
 30
0.0
 11
0.0
 21
2.499999999999971
 31
0.0
  0
LINE
  5
7F
330
2
100
AcDbEntity
  8
Arbeitspunkt(DIN)
 48
25.0
100
AcDbLine
 10
0.0
 20
-0.0000000000000284
 30
0.0
 11
-2.5
 21
-0.0000000000000284
 31
0.0
  0
LINE
  5
80
330
2
100
AcDbEntity
  8
Arbeitspunkt(DIN)
 48
25.0
100
AcDbLine
 10
0.0
 20
-0.0000000000000284
 30
0.0
 11
2.5
 21
-0.0000000000000284
 31
0.0
  0
SPLINE
  5
81
330
2
100
AcDbEntity
  8
GEB-VERDECKT
 48
25.0
100
AcDbSpline
210
0.0
220
0.0
230
1.0
 70
     8
 71
     3
 72
    24
 73
    20
 74
     0
 42
0.0000000001
 43
0.0000000001
 40
1.748050035891932
 40
1.748050035891932
 40
1.748050035891932
 40
1.748050035891932
 40
2.073772777155821
 40
2.073772777155821
 40
2.394221355549045
 40
2.394221355549045
 40
2.71217696706158
 40
2.71217696706158
 40
3.029711910734074
 40
3.029711910734074
 40
3.347292352808329
 40
3.347292352808329
 40
3.664856471988662
 40
3.664856471988662
 40
3.982420227472162
 40
3.982420227472162
 40
4.300789647681485
 40
4.300789647681485
 40
4.535135271287654
 40
4.535135271287654
 40
4.535135271287654
 40
4.535135271287654
 10
22.8632148714446
 20
63.98697762666998
 30
0.0
 10
22.42739952020173
 20
62.26665380070139
 30
0.0
 10
21.59044757038817
 20
60.59014372691709
 30
0.0
 10
19.20363816352761
 20
57.52251334870251
 30
0.0
 10
17.66573087232365
 20
56.12854165010552
 30
0.0
 10
14.04529425809664
 20
53.75616114141539
 30
0.0
 10
11.96801224537137
 20
52.77523987956766
 30
0.0
 10
7.477688187958051
 20
51.32129947057535
 30
0.0
 10
5.06599153434638
 20
50.84784916681846
 30
0.0
 10
0.1509184858289245
 20
50.45737914536733
 30
0.0
 10
-2.351585373871955
 20
50.54049591492611
 30
0.0
 10
-7.191870300699406
 20
51.25462403156527
 30
0.0
 10
-9.528774000025833
 20
51.88550217083548
 30
0.0
 10
-13.79929696413569
 20
53.62758749698767
 30
0.0
 10
-15.73201959660483
 20
54.73846720554778
 30
0.0
 10
-19.00352780618144
 20
57.32356698201832
 30
0.0
 10
-20.34000181551375
 20
58.79785035264785
 30
0.0
 10
-22.02935936530574
 20
61.5343066825406
 30
0.0
 10
-22.54966163332645
 20
62.74926742491619
 30
0.0
 10
-22.86321487148263
 20
63.98697762665645
 30
0.0
  0
LINE
  5
84
330
2
100
AcDbEntity
  8
GEB-VERDECKT
 48
25.0
100
AcDbLine
 10
19.6999999999943
 20
19.09188309203688
 30
0.0
 11
19.69999999998435
 21
52.73841761509427
 31
0.0
  0
LINE
  5
85
330
2
100
AcDbEntity
  8
GEB-VERDECKT
 48
25.0
100
AcDbLine
 10
-19.7000000000057
 20
19.0918830920252
 30
0.0
 11
-19.70000000001568
 21
52.73841761508257
 31
0.0
  0
LINE
  5
86
330
2
100
AcDbEntity
  8
GEB-VERDECKT
 48
25.0
100
AcDbLine
 10
19.39133349180128
 20
50.28218214092089
 30
0.0
 11
22.86321487144466
 21
63.98697762667004
 31
0.0
  0
LINE
  5
87
330
2
100
AcDbEntity
  8
GEB-VERDECKT
 48
25.0
100
AcDbLine
 10
-19.39133349183115
 20
50.28218214090938
 30
0.0
 11
-22.86321487148265
 21
63.98697762665648
 31
0.0
  0
ELLIPSE
  5
88
330
2
100
AcDbEntity
  8
GEB-VERDECKT
 48
25.0
100
AcDbEllipse
 10
-0.0000000000056843
 20
19.09188309203105
 30
0.0
 11
19.69999999999999
 21
0.0000000000058441
 31
0.0
210
0.0
220
0.0
230
1.0
 40
0.7071067811867594
 41
0.0
 42
6.283185307179586
  0
ELLIPSE
  5
89
330
2
100
AcDbEntity
  8
GEB-VERDECKT
 48
25.0
100
AcDbEllipse
 10
-0.0000000000156319
 20
52.73841761508845
 30
0.0
 11
19.7
 21
0.0000000000058441
 31
0.0
210
0.0
220
0.0
230
1.0
 40
0.7071067811867595
 41
0.0
 42
6.283185307179586
  0
LINE
  5
8A
330
2
100
AcDbEntity
  8
GEB-KONTUR-A
 48
25.0
100
AcDbLine
 10
26.42607983590818
 20
35.25369968579085
 30
0.0
 11
26.43919889466213
 21
35.27018287557635
 31
0.0
  0
ELLIPSE
  5
8C
330
2
100
AcDbEntity
  8
GEB-KONTUR-A
 48
25.0
100
AcDbEllipse
 10
-0.0000000000110276
 20
37.05239533416412
 30
0.0
 11
-26.82499999999999
 21
-0.0000000000079575
 31
0.0
210
0.0
220
0.0
230
1.0
 40
0.7071067811867595
 41
3.036313570153676
 42
6.388464390615703
  0
LINE
  5
8D
330
2
100
AcDbEntity
  8
GEB-VERDECKT
 48
25.0
100
AcDbLine
 10
26.4391988946611
 20
38.7350061033894
 30
0.0
 11
25.099999999989
 21
37.05239533417156
 31
0.0
  0
LINE
  5
8E
330
2
100
AcDbEntity
  8
GEB-VERDECKT
 48
25.0
100
AcDbLine
 10
25.09999999999002
 20
33.58757210635847
 30
0.0
 11
25.099999999989
 21
37.05239533417156
 31
0.0
  0
LINE
  5
8F
330
2
100
AcDbEntity
  8
GEB-VERDECKT
 48
25.0
100
AcDbLine
 10
25.099999999989
 20
37.05239533417154
 30
0.0
 11
26.43919889466213
 21
35.36978456495447
 31
0.0
  0
LINE
  5
90
330
2
100
AcDbEntity
  8
GEB-VERDECKT
 48
25.0
100
AcDbLine
 10
26.43919889466315
 20
31.90496133714143
 30
0.0
 11
25.09999999999002
 21
33.58757210635847
 31
0.0
  0
LINE
  5
91
330
2
100
AcDbEntity
  8
GEB-VERDECKT
 48
25.0
100
AcDbLine
 10
25.09999999999002
 20
33.58757210635847
 30
0.0
 11
26.42607983590818
 21
35.25369968579085
 31
0.0
  0
ELLIPSE
  5
92
330
2
100
AcDbEntity
  8
GEB-VERDECKT
 48
25.0
100
AcDbEllipse
 10
-0.0000000000110276
 20
37.05239533416412
 30
0.0
 11
26.82500000000001
 21
0.0000000000079575
 31
0.0
210
0.0
220
0.0
230
1.0
 40
0.7071067811867594
 41
3.246871737025909
 42
6.17790622374347
  0
LINE
  5
93
330
2
100
AcDbEntity
  8
GEB-KONTUR-A
 48
25.0
100
AcDbLine
 10
26.43919889466213
 20
35.27018287557635
 30
0.0
 11
24.69663267381469
 21
36.75666776396651
 31
0.0
  0
LINE
  5
94
330
2
100
AcDbEntity
  8
GEB-KONTUR-A
 48
25.0
100
AcDbLine
 10
25.58942128794081
 20
39.45990341619725
 30
0.0
 11
26.4391988946611
 21
38.7350061033894
 31
0.0
  0
LINE
  5
95
330
2
100
AcDbEntity
  8
GEB-KONTUR-A
 48
25.0
100
AcDbLine
 10
26.4391988946611
 20
38.7350061033894
 30
0.0
 11
26.43919889466213
 21
35.27018287557635
 31
0.0
  0
LINE
  5
96
330
2
100
AcDbEntity
  8
GEB-KONTUR-A
 48
25.0
100
AcDbLine
 10
24.69663267381469
 20
36.75666776396651
 30
0.0
 11
25.58942128794104
 21
38.58132391943161
 31
0.0
  0
LINE
  5
97
330
2
100
AcDbEntity
  8
GEB-KONTUR-A
 48
25.0
100
AcDbLine
 10
25.58942128794104
 20
38.58132391943161
 30
0.0
 11
23.49949525304555
 21
39.82390607959818
 31
0.0
  0
LINE
  5
98
330
2
100
AcDbEntity
  8
GEB-KONTUR-A
 48
25.0
100
AcDbLine
 10
23.91717862597886
 20
43.04039233321188
 30
0.0
 11
25.58942128794001
 21
42.04614714724468
 31
0.0
  0
LINE
  5
99
330
2
100
AcDbEntity
  8
GEB-KONTUR-A
 48
25.0
100
AcDbLine
 10
25.58942128794104
 20
38.58132391943161
 30
0.0
 11
25.58942128794001
 21
42.04614714724468
 31
0.0
  0
LINE
  5
9A
330
2
100
AcDbEntity
  8
GEB-KONTUR-A
 48
25.0
100
AcDbLine
 10
23.49949525304555
 20
39.82390607959818
 30
0.0
 11
23.91717862597926
 21
41.73196167114176
 31
0.0
  0
LINE
  5
9B
330
2
100
AcDbEntity
  8
GEB-KONTUR-A
 48
25.0
100
AcDbLine
 10
23.91717862597926
 20
41.73196167114176
 30
0.0
 11
21.54706471939414
 21
42.69070349005699
 31
0.0
  0
LINE
  5
9C
330
2
100
AcDbEntity
  8
GEB-KONTUR-A
 48
25.0
100
AcDbLine
 10
21.54706471939312
 20
46.15552671787006
 30
0.0
 11
23.91717862597824
 21
45.19678489895485
 31
0.0
  0
LINE
  5
9D
330
2
100
AcDbEntity
  8
GEB-KONTUR-A
 48
25.0
100
AcDbLine
 10
23.91717862597926
 20
41.73196167114176
 30
0.0
 11
23.91717862597824
 21
45.19678489895485
 31
0.0
  0
LINE
  5
9E
330
2
100
AcDbEntity
  8
GEB-KONTUR-A
 48
25.0
100
AcDbLine
 10
21.47621816385703
 20
48.08565526882659
 30
0.0
 11
21.54706471939312
 21
46.15552671787006
 31
0.0
  0
LINE
  5
9F
330
2
100
AcDbEntity
  8
GEB-KONTUR-A
 48
25.0
100
AcDbLine
 10
21.54706471939414
 20
42.69070349005701
 30
0.0
 11
21.54706471939312
 21
46.15552671787006
 31
0.0
  0
LINE
  5
A0
330
2
100
AcDbEntity
  8
GEB-KONTUR-A
 48
25.0
100
AcDbLine
 10
21.54706471939414
 20
42.69070349005701
 30
0.0
 11
21.47621816385811
 21
44.62083204101353
 31
0.0
  0
LINE
  5
A1
330
2
100
AcDbEntity
  8
GEB-KONTUR-A
 48
25.0
100
AcDbLine
 10
21.47621816385811
 20
44.62083204101353
 30
0.0
 11
18.90209379667715
 21
45.26491876776205
 31
0.0
  0
LINE
  5
A2
330
2
100
AcDbEntity
  8
GEB-KONTUR-A
 48
25.0
100
AcDbLine
 10
18.90209379667613
 20
48.7297419955751
 30
0.0
 11
21.47621816385703
 21
48.08565526882659
 31
0.0
  0
LINE
  5
A3
330
2
100
AcDbEntity
  8
GEB-KONTUR-A
 48
25.0
100
AcDbLine
 10
21.47621816385811
 20
44.62083204101353
 30
0.0
 11
21.47621816385703
 21
48.08565526882659
 31
0.0
  0
LINE
  5
A4
330
2
100
AcDbEntity
  8
GEB-KONTUR-A
 48
25.0
100
AcDbLine
 10
18.34499437925797
 20
50.6199075862018
 30
0.0
 11
18.90209379667613
 21
48.7297419955751
 31
0.0
  0
LINE
  5
A5
330
2
100
AcDbEntity
  8
GEB-KONTUR-A
 48
25.0
100
AcDbLine
 10
18.90209379667715
 20
45.26491876776205
 30
0.0
 11
18.90209379667613
 21
48.72974199557515
 31
0.0
  0
LINE
  5
A6
330
2
100
AcDbEntity
  8
GEB-KONTUR-A
 48
25.0
100
AcDbLine
 10
18.90209379667715
 20
45.26491876776205
 30
0.0
 11
18.34499437925899
 21
47.15508435838873
 31
0.0
  0
LINE
  5
A7
330
2
100
AcDbEntity
  8
GEB-KONTUR-A
 48
25.0
100
AcDbLine
 10
18.34499437925899
 20
47.15508435838873
 30
0.0
 11
15.6495940266401
 21
47.46381451561652
 31
0.0
  0
LINE
  5
A8
330
2
100
AcDbEntity
  8
GEB-KONTUR-A
 48
25.0
100
AcDbLine
 10
15.64959402663908
 20
50.92863774342962
 30
0.0
 11
18.34499437925797
 21
50.6199075862018
 31
0.0
  0
LINE
  5
A9
330
2
100
AcDbEntity
  8
GEB-KONTUR-A
 48
25.0
100
AcDbLine
 10
18.34499437925899
 20
47.15508435838873
 30
0.0
 11
18.34499437925797
 21
50.6199075862018
 31
0.0
  0
LINE
  5
AA
330
2
100
AcDbEntity
  8
GEB-KONTUR-A
 48
25.0
100
AcDbLine
 10
14.6241473809975
 20
52.71808889641022
 30
0.0
 11
15.64959402663908
 21
50.92863774342962
 31
0.0
  0
LINE
  5
AB
330
2
100
AcDbEntity
  8
GEB-KONTUR-A
 48
25.0
100
AcDbLine
 10
15.6495940266401
 20
47.46381451561652
 30
0.0
 11
15.64959402663908
 21
50.92863774342962
 31
0.0
  0
LINE
  5
AC
330
2
100
AcDbEntity
  8
GEB-KONTUR-A
 48
25.0
100
AcDbLine
 10
15.6495940266401
 20
47.46381451561652
 30
0.0
 11
14.62414738099852
 21
49.25326566859715
 31
0.0
  0
LINE
  5
AD
330
2
100
AcDbEntity
  8
GEB-KONTUR-A
 48
25.0
100
AcDbLine
 10
14.62414738099852
 20
49.25326566859715
 30
0.0
 11
11.89410342805763
 21
49.21671641502695
 31
0.0
  0
LINE
  5
AE
330
2
100
AcDbEntity
  8
GEB-KONTUR-A
 48
25.0
100
AcDbLine
 10
11.89410342805661
 20
52.68153964284
 30
0.0
 11
14.6241473809975
 21
52.71808889641022
 31
0.0
  0
LINE
  5
AF
330
2
100
AcDbEntity
  8
GEB-KONTUR-A
 48
25.0
100
AcDbLine
 10
14.62414738099852
 20
49.25326566859715
 30
0.0
 11
14.6241473809975
 21
52.71808889641022
 31
0.0
  0
LINE
  5
B0
330
2
100
AcDbEntity
  8
GEB-KONTUR-A
 48
25.0
100
AcDbLine
 10
10.43326825312289
 20
54.31276192575248
 30
0.0
 11
11.89410342805661
 21
52.68153964284
 31
0.0
  0
LINE
  5
B1
330
2
100
AcDbEntity
  8
GEB-KONTUR-A
 48
25.0
100
AcDbLine
 10
11.89410342805763
 20
49.21671641502695
 30
0.0
 11
11.89410342805661
 21
52.68153964284
 31
0.0
  0
LINE
  5
B2
330
2
100
AcDbEntity
  8
GEB-KONTUR-A
 48
25.0
100
AcDbLine
 10
11.89410342805763
 20
49.21671641502695
 30
0.0
 11
10.43326825312391
 21
50.84793869793941
 31
0.0
  0
LINE
  5
B3
330
2
100
AcDbEntity
  8
GEB-KONTUR-A
 48
25.0
100
AcDbLine
 10
10.43326825312391
 20
50.84793869793941
 30
0.0
 11
7.75632655879616
 21
50.46728475665372
 31
0.0
  0
LINE
  5
B4
330
2
100
AcDbEntity
  8
GEB-KONTUR-A
 48
25.0
100
AcDbLine
 10
7.756326558795194
 20
53.93210798446677
 30
0.0
 11
10.43326825312289
 21
54.31276192575248
 31
0.0
  0
LINE
  5
B5
330
2
100
AcDbEntity
  8
GEB-KONTUR-A
 48
25.0
100
AcDbLine
 10
10.43326825312391
 20
50.84793869793941
 30
0.0
 11
10.43326825312289
 21
54.31276192575248
 31
0.0
  0
LINE
  5
B6
330
2
100
AcDbEntity
  8
GEB-KONTUR-A
 48
25.0
100
AcDbLine
 10
5.907055299070862
 20
55.35267257096413
 30
0.0
 11
7.756326558795194
 21
53.93210798446677
 31
0.0
  0
LINE
  5
B7
330
2
100
AcDbEntity
  8
GEB-KONTUR-A
 48
25.0
100
AcDbLine
 10
7.75632655879616
 20
50.46728475665372
 30
0.0
 11
7.756326558795194
 21
53.93210798446677
 31
0.0
  0
LINE
  5
B8
330
2
100
AcDbEntity
  8
GEB-KONTUR-A
 48
25.0
100
AcDbLine
 10
7.75632655879616
 20
50.46728475665372
 30
0.0
 11
5.907055299071885
 21
51.88784934315106
 31
0.0
  0
LINE
  5
B9
330
2
100
AcDbEntity
  8
GEB-KONTUR-A
 48
25.0
100
AcDbLine
 10
5.907055299071885
 20
51.88784934315106
 30
0.0
 11
3.369254972007922
 21
51.17532524502593
 31
0.0
  0
LINE
  5
BA
330
2
100
AcDbEntity
  8
GEB-KONTUR-A
 48
25.0
100
AcDbLine
 10
3.369254972006956
 20
54.64014847283903
 30
0.0
 11
5.907055299070862
 21
55.35267257096413
 31
0.0
  0
LINE
  5
BB
330
2
100
AcDbEntity
  8
GEB-KONTUR-A
 48
25.0
100
AcDbLine
 10
5.907055299071885
 20
51.88784934315106
 30
0.0
 11
5.907055299070862
 21
55.35267257096413
 31
0.0
  0
LINE
  5
BC
330
2
100
AcDbEntity
  8
GEB-KONTUR-A
 48
25.0
100
AcDbLine
 10
1.190984727364991
 20
55.80439724826675
 30
0.0
 11
3.369254972006956
 21
54.64014847283903
 31
0.0
  0
LINE
  5
BD
330
2
100
AcDbEntity
  8
GEB-KONTUR-A
 48
25.0
100
AcDbLine
 10
3.369254972007922
 20
51.17532524502593
 30
0.0
 11
3.369254972006956
 21
54.64014847283903
 31
0.0
  0
LINE
  5
BE
330
2
100
AcDbEntity
  8
GEB-KONTUR-A
 48
25.0
100
AcDbLine
 10
3.369254972007922
 20
51.17532524502593
 30
0.0
 11
1.190984727366071
 21
52.33957402045368
 31
0.0
  0
LINE
  5
BF
330
2
100
AcDbEntity
  8
GEB-KONTUR-A
 48
25.0
100
AcDbLine
 10
1.190984727366071
 20
52.33957402045368
 30
0.0
 11
-1.126107241813201
 21
51.31808087626968
 31
0.0
  0
LINE
  5
C0
330
2
100
AcDbEntity
  8
GEB-KONTUR-A
 48
25.0
100
AcDbLine
 10
-1.126107241814224
 20
54.78290410408274
 30
0.0
 11
1.190984727364991
 21
55.80439724826675
 31
0.0
  0
LINE
  5
C1
330
2
100
AcDbEntity
  8
GEB-KONTUR-A
 48
25.0
100
AcDbLine
 10
1.190984727366071
 20
52.33957402045368
 30
0.0
 11
1.190984727364991
 21
55.80439724826675
 31
0.0
  0
LINE
  5
C2
330
2
100
AcDbEntity
  8
GEB-KONTUR-A
 48
25.0
100
AcDbLine
 10
-3.563365073424165
 20
55.65341715485158
 30
0.0
 11
-1.126107241814224
 21
54.78290410408274
 31
0.0
  0
LINE
  5
C3
330
2
100
AcDbEntity
  8
GEB-KONTUR-A
 48
25.0
100
AcDbLine
 10
-1.126107241813201
 20
51.31808087626968
 30
0.0
 11
-1.126107241814224
 21
54.78290410408274
 31
0.0
  0
LINE
  5
C4
330
2
100
AcDbEntity
  8
GEB-KONTUR-A
 48
25.0
100
AcDbLine
 10
-1.126107241813201
 20
51.31808087626968
 30
0.0
 11
-3.563365073423142
 21
52.18859392703851
 31
0.0
  0
LINE
  5
C5
330
2
100
AcDbEntity
  8
GEB-KONTUR-A
 48
25.0
100
AcDbLine
 10
-3.563365073423142
 20
52.18859392703851
 30
0.0
 11
-5.585275442318589
 21
50.890963366937
 31
0.0
  0
LINE
  5
C6
330
2
100
AcDbEntity
  8
GEB-KONTUR-A
 48
25.0
100
AcDbLine
 10
-5.585275442319641
 20
54.35578659475007
 30
0.0
 11
-3.563365073424165
 21
55.65341715485158
 31
0.0
  0
LINE
  5
C7
330
2
100
AcDbEntity
  8
GEB-KONTUR-A
 48
25.0
100
AcDbLine
 10
-3.563365073423142
 20
52.18859392703851
 30
0.0
 11
-3.563365073424165
 21
55.65341715485158
 31
0.0
  0
LINE
  5
C8
330
2
100
AcDbEntity
  8
GEB-KONTUR-A
 48
25.0
100
AcDbLine
 10
-8.203185388807298
 20
54.90458491514775
 30
0.0
 11
-5.585275442319641
 21
54.35578659475007
 31
0.0
  0
LINE
  5
C9
330
2
100
AcDbEntity
  8
GEB-KONTUR-A
 48
25.0
100
AcDbLine
 10
-5.585275442318589
 20
50.890963366937
 30
0.0
 11
-5.585275442319641
 21
54.35578659475007
 31
0.0
  0
LINE
  5
CA
330
2
100
AcDbEntity
  8
GEB-KONTUR-A
 48
25.0
100
AcDbLine
 10
-5.585275442318589
 20
50.890963366937
 30
0.0
 11
-8.203185388806303
 21
51.43976168733465
 31
0.0
  0
LINE
  5
CB
330
2
100
AcDbEntity
  8
GEB-KONTUR-A
 48
25.0
100
AcDbLine
 10
-8.203185388806303
 20
51.43976168733465
 30
0.0
 11
-9.864928294528311
 21
49.90770062521133
 31
0.0
  0
LINE
  5
CC
330
2
100
AcDbEntity
  8
GEB-KONTUR-A
 48
25.0
100
AcDbLine
 10
-9.864928294529335
 20
53.37252385302443
 30
0.0
 11
-8.203185388807298
 21
54.90458491514775
 31
0.0
  0
LINE
  5
CD
330
2
100
AcDbEntity
  8
GEB-KONTUR-A
 48
25.0
100
AcDbLine
 10
-8.203185388806303
 20
51.43976168733465
 30
0.0
 11
-8.203185388807298
 21
54.90458491514772
 31
0.0
  0
LINE
  5
CE
330
2
100
AcDbEntity
  8
GEB-KONTUR-A
 48
25.0
100
AcDbLine
 10
-12.57934857619111
 20
53.58196861348059
 30
0.0
 11
-9.864928294529335
 21
53.37252385302443
 31
0.0
  0
LINE
  5
CF
330
2
100
AcDbEntity
  8
GEB-KONTUR-A
 48
25.0
100
AcDbLine
 10
-9.864928294528311
 20
49.90770062521133
 30
0.0
 11
-9.864928294529335
 21
53.37252385302443
 31
0.0
  0
LINE
  5
D0
330
2
100
AcDbEntity
  8
GEB-KONTUR-A
 48
25.0
100
AcDbLine
 10
-9.864928294528311
 20
49.90770062521133
 30
0.0
 11
-12.57934857619008
 21
50.11714538566753
 31
0.0
  0
LINE
  5
D1
330
2
100
AcDbEntity
  8
GEB-KONTUR-A
 48
25.0
100
AcDbLine
 10
-12.57934857619008
 20
50.11714538566753
 30
0.0
 11
-13.82751423446217
 21
48.39989552464306
 31
0.0
  0
LINE
  5
D2
330
2
100
AcDbEntity
  8
GEB-KONTUR-A
 48
25.0
100
AcDbLine
 10
-13.82751423446319
 20
51.86471875245612
 30
0.0
 11
-12.57934857619111
 21
53.58196861348059
 31
0.0
  0
LINE
  5
D3
330
2
100
AcDbEntity
  8
GEB-KONTUR-A
 48
25.0
100
AcDbLine
 10
-12.57934857619008
 20
50.11714538566753
 30
0.0
 11
-12.57934857619111
 21
53.58196861348059
 31
0.0
  0
LINE
  5
D4
330
2
100
AcDbEntity
  8
GEB-KONTUR-A
 48
25.0
100
AcDbLine
 10
-16.55120115001401
 20
51.728078226038
 30
0.0
 11
-13.82751423446319
 21
51.86471875245612
 31
0.0
  0
LINE
  5
D5
330
2
100
AcDbEntity
  8
GEB-KONTUR-A
 48
25.0
100
AcDbLine
 10
-13.82751423446217
 20
48.39989552464306
 30
0.0
 11
-13.82751423446319
 21
51.86471875245612
 31
0.0
  0
LINE
  5
D6
330
2
100
AcDbEntity
  8
GEB-KONTUR-A
 48
25.0
100
AcDbLine
 10
-13.82751423446217
 20
48.39989552464306
 30
0.0
 11
-16.55120115001298
 21
48.26325499822494
 31
0.0
  0
LINE
  5
D7
330
2
100
AcDbEntity
  8
GEB-KONTUR-A
 48
25.0
100
AcDbLine
 10
-16.55120115001298
 20
48.26325499822494
 30
0.0
 11
-17.3456724895841
 21
46.41601016179052
 31
0.0
  0
LINE
  5
D8
330
2
100
AcDbEntity
  8
GEB-KONTUR-A
 48
25.0
100
AcDbLine
 10
-17.34567248958512
 20
49.88083338960362
 30
0.0
 11
-16.55120115001401
 21
51.728078226038
 31
0.0
  0
LINE
  5
D9
330
2
100
AcDbEntity
  8
GEB-KONTUR-A
 48
25.0
100
AcDbLine
 10
-16.55120115001298
 20
48.26325499822494
 30
0.0
 11
-16.55120115001401
 21
51.728078226038
 31
0.0
  0
LINE
  5
DA
330
2
100
AcDbEntity
  8
GEB-KONTUR-A
 48
25.0
100
AcDbLine
 10
-19.99108450050215
 20
49.40249931525852
 30
0.0
 11
-17.34567248958512
 21
49.88083338960362
 31
0.0
  0
LINE
  5
DB
330
2
100
AcDbEntity
  8
GEB-KONTUR-A
 48
25.0
100
AcDbLine
 10
-17.3456724895841
 20
46.41601016179052
 30
0.0
 11
-17.34567248958512
 21
49.88083338960362
 31
0.0
  0
LINE
  5
DC
330
2
100
AcDbEntity
  8
GEB-KONTUR-A
 48
25.0
100
AcDbLine
 10
-17.3456724895841
 20
46.41601016179052
 30
0.0
 11
-19.9910845005011
 21
45.93767608744542
 31
0.0
  0
LINE
  5
DD
330
2
100
AcDbEntity
  8
GEB-KONTUR-A
 48
25.0
100
AcDbLine
 10
-19.9910845005011
 20
45.93767608744542
 30
0.0
 11
-20.30632655882425
 21
44.01980824456219
 31
0.0
  0
LINE
  5
DE
330
2
100
AcDbEntity
  8
GEB-KONTUR-A
 48
25.0
100
AcDbLine
 10
-20.30632655882531
 20
47.48463147237527
 30
0.0
 11
-19.99108450050215
 21
49.40249931525852
 31
0.0
  0
LINE
  5
DF
330
2
100
AcDbEntity
  8
GEB-KONTUR-A
 48
25.0
100
AcDbLine
 10
-19.9910845005011
 20
45.93767608744542
 30
0.0
 11
-19.99108450050215
 21
49.40249931525852
 31
0.0
  0
LINE
  5
E0
330
2
100
AcDbEntity
  8
GEB-KONTUR-A
 48
25.0
100
AcDbLine
 10
-22.7884379464254
 20
46.67997790082722
 30
0.0
 11
-20.30632655882531
 21
47.48463147237529
 31
0.0
  0
LINE
  5
E1
330
2
100
AcDbEntity
  8
GEB-KONTUR-A
 48
25.0
100
AcDbLine
 10
-20.30632655882425
 20
44.01980824456219
 30
0.0
 11
-20.30632655882531
 21
47.48463147237527
 31
0.0
  0
LINE
  5
E2
330
2
100
AcDbEntity
  8
GEB-KONTUR-A
 48
25.0
100
AcDbLine
 10
-20.30632655882425
 20
44.01980824456219
 30
0.0
 11
-22.78843794642435
 21
43.21515467301412
 31
0.0
  0
LINE
  5
E3
330
2
100
AcDbEntity
  8
GEB-KONTUR-A
 48
25.0
100
AcDbLine
 10
-22.78843794642435
 20
43.21515467301412
 30
0.0
 11
-22.61431858436299
 21
41.28830567417927
 31
0.0
  0
LINE
  5
E4
330
2
100
AcDbEntity
  8
GEB-KONTUR-A
 48
25.0
100
AcDbLine
 10
-22.78843794642435
 20
43.21515467301412
 30
0.0
 11
-22.7884379464254
 21
46.67997790082722
 31
0.0
  0
LINE
  5
E5
330
2
100
AcDbEntity
  8
GEB-KONTUR-A
 48
25.0
100
AcDbLine
 10
-24.85335224636165
 20
43.64801806110205
 30
0.0
 11
-22.78843794642478
 21
44.66718950863347
 31
0.0
  0
LINE
  5
E6
330
2
100
AcDbEntity
  8
GEB-KONTUR-A
 48
25.0
100
AcDbLine
 10
-22.61431858436299
 20
41.28830567417927
 30
0.0
 11
-24.85335224636063
 21
40.18319483328897
 31
0.0
  0
LINE
  5
E7
330
2
100
AcDbEntity
  8
GEB-KONTUR-A
 48
25.0
100
AcDbLine
 10
-24.85335224636063
 20
40.18319483328897
 30
0.0
 11
-24.19546780347733
 21
38.30929519074167
 31
0.0
  0
LINE
  5
E8
330
2
100
AcDbEntity
  8
GEB-KONTUR-A
 48
25.0
100
AcDbLine
 10
-24.85335224636063
 20
40.18319483328897
 30
0.0
 11
-24.85335224636165
 21
43.64801806110205
 31
0.0
  0
LINE
  5
E9
330
2
100
AcDbEntity
  8
GEB-KONTUR-A
 48
25.0
100
AcDbLine
 10
-26.11945935569386
 20
40.40406948003663
 30
0.0
 11
-24.85335224636094
 21
41.30564760765074
 31
0.0
  0
LINE
  5
EA
330
2
100
AcDbEntity
  8
GEB-KONTUR-A
 48
25.0
100
AcDbLine
 10
-24.19546780347733
 20
38.30929519074167
 30
0.0
 11
-26.11945935569284
 21
36.93924625222357
 31
0.0
  0
LINE
  5
EB
330
2
100
AcDbEntity
  8
GEB-KONTUR-A
 48
25.0
100
AcDbLine
 10
-26.11945935569284
 20
36.93924625222357
 30
0.0
 11
-25.48854092850721
 21
35.94784315381222
 31
0.0
  0
LINE
  5
EC
330
2
100
AcDbEntity
  8
GEB-KONTUR-A
 48
25.0
100
AcDbLine
 10
-26.11945935569284
 20
36.93924625222357
 30
0.0
 11
-26.11945935569386
 21
40.40406948003663
 31
0.0
  0
LINE
  5
ED
330
2
100
AcDbEntity
  8
GEB-KONTUR-A
 48
25.0
100
AcDbLine
 10
-26.54606555017171
 20
37.05239533415622
 30
0.0
 11
-26.11945935569301
 21
37.49109062330191
 31
0.0
  0
LINE
  5
EE
330
2
100
AcDbEntity
  8
GEB-KONTUR-A
 48
25.0
100
AcDbLine
 10
-26.54606555017114
 20
35.16097277602316
 30
0.0
 11
-26.54606555017171
 21
37.05239533415622
 31
0.0
  0
LINE
  5
EF
330
2
100
AcDbEntity
  8
GEB-KONTUR-A
 48
25.0
100
AcDbLine
 10
26.43919889466218
 20
35.24360585486661
 30
0.0
 11
26.43919889466213
 21
35.27018287557431
 31
0.0
  0
LINE
  5
F0
330
2
100
AcDbEntity
  8
GEB-VERDECKT
 48
25.0
100
AcDbLine
 10
24.69663267381367
 20
40.22149099177958
 30
0.0
 11
25.58942128794081
 21
39.45990341619725
 31
0.0
  0
LINE
  5
F1
330
2
100
AcDbEntity
  8
GEB-VERDECKT
 48
25.0
100
AcDbLine
 10
25.58942128794001
 20
42.04614714724468
 30
0.0
 11
24.69663267381367
 21
40.22149099177954
 31
0.0
  0
LINE
  5
F2
330
2
100
AcDbEntity
  8
GEB-VERDECKT
 48
25.0
100
AcDbLine
 10
24.69663267381469
 20
36.75666776396651
 30
0.0
 11
24.69663267381367
 21
40.22149099177958
 31
0.0
  0
LINE
  5
F3
330
2
100
AcDbEntity
  8
GEB-VERDECKT
 48
25.0
100
AcDbLine
 10
23.49949525304453
 20
43.28872930741124
 30
0.0
 11
23.91717862597886
 21
43.04039233321188
 31
0.0
  0
LINE
  5
F4
330
2
100
AcDbEntity
  8
GEB-VERDECKT
 48
25.0
100
AcDbLine
 10
23.91717862597824
 20
45.19678489895485
 30
0.0
 11
23.49949525304453
 21
43.28872930741124
 31
0.0
  0
LINE
  5
F5
330
2
100
AcDbEntity
  8
GEB-VERDECKT
 48
25.0
100
AcDbLine
 10
23.49949525304555
 20
39.82390607959818
 30
0.0
 11
23.49949525304453
 21
43.28872930741124
 31
0.0
  0
LINE
  5
F6
330
2
100
AcDbEntity
  8
GEB-VERDECKT
 48
25.0
100
AcDbLine
 10
-22.61431858436401
 20
44.75312890199234
 30
0.0
 11
-22.7884379464254
 21
46.67997790082722
 31
0.0
  0
LINE
  5
F7
330
2
100
AcDbEntity
  8
GEB-VERDECKT
 48
25.0
100
AcDbLine
 10
-22.78843794642478
 20
44.66718950863347
 30
0.0
 11
-22.61431858436401
 21
44.75312890199234
 31
0.0
  0
LINE
  5
F8
330
2
100
AcDbEntity
  8
GEB-VERDECKT
 48
25.0
100
AcDbLine
 10
-22.61431858436299
 20
41.28830567417927
 30
0.0
 11
-22.61431858436401
 21
44.75312890199236
 31
0.0
  0
LINE
  5
F9
330
2
100
AcDbEntity
  8
GEB-VERDECKT
 48
25.0
100
AcDbLine
 10
-24.19546780347835
 20
41.77411841855476
 30
0.0
 11
-24.85335224636165
 21
43.64801806110205
 31
0.0
  0
LINE
  5
FA
330
2
100
AcDbEntity
  8
GEB-VERDECKT
 48
25.0
100
AcDbLine
 10
-24.85335224636094
 20
41.30564760765071
 30
0.0
 11
-24.19546780347835
 21
41.77411841855476
 31
0.0
  0
LINE
  5
FB
330
2
100
AcDbEntity
  8
GEB-VERDECKT
 48
25.0
100
AcDbLine
 10
-24.19546780347733
 20
38.30929519074167
 30
0.0
 11
-24.19546780347835
 21
41.77411841855476
 31
0.0
  0
LINE
  5
FC
330
2
100
AcDbEntity
  8
GEB-VERDECKT
 48
25.0
100
AcDbLine
 10
-25.48854092850721
 20
35.94784315381222
 30
0.0
 11
-24.99895477929096
 21
35.17852464232507
 31
0.0
  0
LINE
  5
FD
330
2
100
AcDbEntity
  8
GEB-VERDECKT
 48
25.0
100
AcDbLine
 10
-24.99895477929198
 20
38.64334787013815
 30
0.0
 11
-26.11945935569386
 21
40.40406948003663
 31
0.0
  0
LINE
  5
FE
330
2
100
AcDbEntity
  8
GEB-VERDECKT
 48
25.0
100
AcDbLine
 10
-26.11945935569301
 20
37.49109062330191
 30
0.0
 11
-24.99895477929198
 21
38.64334787013815
 31
0.0
  0
LINE
  5
FF
330
2
100
AcDbEntity
  8
GEB-VERDECKT
 48
25.0
100
AcDbLine
 10
-24.99895477929096
 20
35.17852464232507
 30
0.0
 11
-24.99895477929198
 21
38.64334787013815
 31
0.0
  0
LINE
  5
100
330
2
100
AcDbEntity
  8
GEB-VERDECKT
 48
25.0
100
AcDbLine
 10
-24.99895477929096
 20
35.17852464232507
 30
0.0
 11
-26.54606555017068
 21
33.58757210634318
 31
0.0
  0
LINE
  5
101
330
2
100
AcDbEntity
  8
GEB-VERDECKT
 48
25.0
100
AcDbLine
 10
-26.54606555017068
 20
33.58757210634318
 30
0.0
 11
-24.99895477928999
 21
31.99661957036213
 31
0.0
  0
LINE
  5
102
330
2
100
AcDbEntity
  8
GEB-VERDECKT
 48
25.0
100
AcDbLine
 10
-24.99895477929107
 20
35.46144279817523
 30
0.0
 11
-26.54606555017171
 21
37.05239533415622
 31
0.0
  0
LINE
  5
103
330
2
100
AcDbEntity
  8
GEB-VERDECKT
 48
25.0
100
AcDbLine
 10
-26.54606555017068
 20
33.58757210634318
 30
0.0
 11
-26.54606555017114
 21
35.16097277602316
 31
0.0
  0
LINE
  5
104
330
2
100
AcDbEntity
  8
GEB-VERDECKT
 48
25.0
100
AcDbLine
 10
-26.11945935569187
 20
33.70072118827605
 30
0.0
 11
-24.99895477929107
 21
35.46144279817523
 31
0.0
  0
LINE
  5
105
330
2
100
AcDbEntity
  8
GEB-VERDECKT
 48
25.0
100
AcDbLine
 10
-24.99895477928999
 20
31.99661957036213
 30
0.0
 11
-24.99895477929096
 21
35.1785246423232
 31
0.0
  0
LINE
  5
106
330
2
100
AcDbEntity
  8
GEB-VERDECKT
 48
25.0
100
AcDbLine
 10
-24.99895477928999
 20
31.99661957036213
 30
0.0
 11
-26.11945935569088
 21
30.23589796046298
 31
0.0
  0
LINE
  5
107
330
2
100
AcDbEntity
  8
GEB-VERDECKT
 48
25.0
100
AcDbLine
 10
-26.11945935569088
 20
30.23589796046298
 30
0.0
 11
-24.19546780347451
 21
28.86584902194599
 31
0.0
  0
LINE
  5
108
330
2
100
AcDbEntity
  8
GEB-VERDECKT
 48
25.0
100
AcDbLine
 10
-24.19546780347554
 20
32.33067224975909
 30
0.0
 11
-26.11945935569187
 21
33.70072118827605
 31
0.0
  0
LINE
  5
109
330
2
100
AcDbEntity
  8
GEB-VERDECKT
 48
25.0
100
AcDbLine
 10
-26.11945935569088
 20
30.23589796046298
 30
0.0
 11
-26.11945935569187
 21
33.70072118827605
 31
0.0
  0
LINE
  5
10A
330
2
100
AcDbEntity
  8
GEB-VERDECKT
 48
25.0
100
AcDbLine
 10
-24.85335224635776
 20
30.45677260721138
 30
0.0
 11
-24.19546780347554
 21
32.33067224975909
 31
0.0
  0
LINE
  5
10B
330
2
100
AcDbEntity
  8
GEB-VERDECKT
 48
25.0
100
AcDbLine
 10
-24.19546780347451
 20
28.86584902194599
 30
0.0
 11
-24.19546780347554
 21
32.33067224975909
 31
0.0
  0
LINE
  5
10C
330
2
100
AcDbEntity
  8
GEB-VERDECKT
 48
25.0
100
AcDbLine
 10
-24.19546780347451
 20
28.86584902194599
 30
0.0
 11
-24.85335224635671
 21
26.99194937939834
 31
0.0
  0
LINE
  5
10D
330
2
100
AcDbEntity
  8
GEB-VERDECKT
 48
25.0
100
AcDbLine
 10
-24.85335224635671
 20
26.99194937939834
 30
0.0
 11
-22.61431858435845
 21
25.88683853850935
 31
0.0
  0
LINE
  5
10E
330
2
100
AcDbEntity
  8
GEB-VERDECKT
 48
25.0
100
AcDbLine
 10
-22.61431858435947
 20
29.3516617663224
 30
0.0
 11
-24.85335224635776
 21
30.45677260721138
 31
0.0
  0
LINE
  5
10F
330
2
100
AcDbEntity
  8
GEB-VERDECKT
 48
25.0
100
AcDbLine
 10
-24.85335224635671
 20
26.99194937939834
 30
0.0
 11
-24.85335224635776
 21
30.45677260721138
 31
0.0
  0
LINE
  5
110
330
2
100
AcDbEntity
  8
GEB-VERDECKT
 48
25.0
100
AcDbLine
 10
-22.78843794641966
 20
27.42481276748745
 30
0.0
 11
-22.61431858435947
 21
29.3516617663224
 31
0.0
  0
LINE
  5
111
330
2
100
AcDbEntity
  8
GEB-VERDECKT
 48
25.0
100
AcDbLine
 10
-22.61431858435845
 20
25.88683853850935
 30
0.0
 11
-22.61431858435947
 21
29.3516617663224
 31
0.0
  0
LINE
  5
112
330
2
100
AcDbEntity
  8
GEB-VERDECKT
 48
25.0
100
AcDbLine
 10
-22.61431858435845
 20
25.88683853850935
 30
0.0
 11
-22.78843794641864
 21
23.95998953967438
 31
0.0
  0
LINE
  5
113
330
2
100
AcDbEntity
  8
GEB-VERDECKT
 48
25.0
100
AcDbLine
 10
-22.78843794641864
 20
23.95998953967438
 30
0.0
 11
-20.30632655881809
 21
23.15533596812779
 31
0.0
  0
LINE
  5
114
330
2
100
AcDbEntity
  8
GEB-VERDECKT
 48
25.0
100
AcDbLine
 10
-20.30632655881911
 20
26.62015919594086
 30
0.0
 11
-22.78843794641966
 21
27.42481276748745
 31
0.0
  0
LINE
  5
115
330
2
100
AcDbEntity
  8
GEB-VERDECKT
 48
25.0
100
AcDbLine
 10
-22.78843794641864
 20
23.95998953967438
 30
0.0
 11
-22.78843794641966
 21
27.42481276748745
 31
0.0
  0
LINE
  5
116
330
2
100
AcDbEntity
  8
GEB-VERDECKT
 48
25.0
100
AcDbLine
 10
-19.99108450049482
 20
24.70229135305783
 30
0.0
 11
-20.30632655881911
 21
26.62015919594086
 31
0.0
  0
LINE
  5
117
330
2
100
AcDbEntity
  8
GEB-VERDECKT
 48
25.0
100
AcDbLine
 10
-20.30632655881809
 20
23.15533596812779
 30
0.0
 11
-20.30632655881911
 21
26.62015919594086
 31
0.0
  0
LINE
  5
118
330
2
100
AcDbEntity
  8
GEB-VERDECKT
 48
25.0
100
AcDbLine
 10
-20.30632655881809
 20
23.15533596812779
 30
0.0
 11
-19.9910845004938
 21
21.23746812524473
 31
0.0
  0
LINE
  5
119
330
2
100
AcDbEntity
  8
GEB-VERDECKT
 48
25.0
100
AcDbLine
 10
-19.9910845004938
 20
21.23746812524473
 30
0.0
 11
-17.34567248957648
 21
20.75913405090123
 31
0.0
  0
LINE
  5
11A
330
2
100
AcDbEntity
  8
GEB-VERDECKT
 48
25.0
100
AcDbLine
 10
-17.34567248957751
 20
24.2239572787143
 30
0.0
 11
-19.99108450049482
 21
24.70229135305783
 31
0.0
  0
LINE
  5
11B
330
2
100
AcDbEntity
  8
GEB-VERDECKT
 48
25.0
100
AcDbLine
 10
-19.9910845004938
 20
21.23746812524473
 30
0.0
 11
-19.99108450049482
 21
24.70229135305783
 31
0.0
  0
LINE
  5
11C
330
2
100
AcDbEntity
  8
GEB-VERDECKT
 48
25.0
100
AcDbLine
 10
-16.55120115000531
 20
22.37671244228037
 30
0.0
 11
-17.34567248957751
 21
24.22395727871432
 31
0.0
  0
LINE
  5
11D
330
2
100
AcDbEntity
  8
GEB-VERDECKT
 48
25.0
100
AcDbLine
 10
-17.34567248957648
 20
20.75913405090123
 30
0.0
 11
-17.34567248957751
 21
24.22395727871432
 31
0.0
  0
LINE
  5
11E
330
2
100
AcDbEntity
  8
GEB-VERDECKT
 48
25.0
100
AcDbLine
 10
-17.34567248957648
 20
20.75913405090123
 30
0.0
 11
-16.55120115000426
 21
18.91188921446726
 31
0.0
  0
LINE
  5
11F
330
2
100
AcDbEntity
  8
GEB-VERDECKT
 48
25.0
100
AcDbLine
 10
-16.55120115000426
 20
18.91188921446726
 30
0.0
 11
-13.82751423445336
 21
18.77524868805082
 31
0.0
  0
LINE
  5
120
330
2
100
AcDbEntity
  8
GEB-VERDECKT
 48
25.0
100
AcDbLine
 10
-13.82751423445438
 20
22.24007191586387
 30
0.0
 11
-16.55120115000531
 21
22.37671244228037
 31
0.0
  0
LINE
  5
121
330
2
100
AcDbEntity
  8
GEB-VERDECKT
 48
25.0
100
AcDbLine
 10
-16.55120115000426
 20
18.91188921446726
 30
0.0
 11
-16.55120115000531
 21
22.37671244228037
 31
0.0
  0
LINE
  5
122
330
2
100
AcDbEntity
  8
GEB-VERDECKT
 48
25.0
100
AcDbLine
 10
-12.5793485761813
 20
20.52282205484013
 30
0.0
 11
-13.82751423445438
 21
22.24007191586387
 31
0.0
  0
LINE
  5
123
330
2
100
AcDbEntity
  8
GEB-VERDECKT
 48
25.0
100
AcDbLine
 10
-13.82751423445336
 20
18.77524868805079
 30
0.0
 11
-13.82751423445438
 21
22.24007191586387
 31
0.0
  0
LINE
  5
124
330
2
100
AcDbEntity
  8
GEB-VERDECKT
 48
25.0
100
AcDbLine
 10
-13.82751423445336
 20
18.77524868805079
 30
0.0
 11
-12.57934857618028
 21
17.05799882702706
 31
0.0
  0
LINE
  5
125
330
2
100
AcDbEntity
  8
GEB-VERDECKT
 48
25.0
100
AcDbLine
 10
-12.57934857618028
 20
17.05799882702706
 30
0.0
 11
-9.864928294518648
 21
17.26744358748488
 31
0.0
  0
LINE
  5
126
330
2
100
AcDbEntity
  8
GEB-VERDECKT
 48
25.0
100
AcDbLine
 10
-9.864928294519671
 20
20.73226681529792
 30
0.0
 11
-12.5793485761813
 21
20.52282205484013
 31
0.0
  0
LINE
  5
127
330
2
100
AcDbEntity
  8
GEB-VERDECKT
 48
25.0
100
AcDbLine
 10
-12.57934857618028
 20
17.05799882702706
 30
0.0
 11
-12.5793485761813
 21
20.52282205484013
 31
0.0
  0
LINE
  5
128
330
2
100
AcDbEntity
  8
GEB-VERDECKT
 48
25.0
100
AcDbLine
 10
-8.203185388796697
 20
19.20020575317559
 30
0.0
 11
-9.864928294519671
 21
20.73226681529792
 31
0.0
  0
LINE
  5
129
330
2
100
AcDbEntity
  8
GEB-VERDECKT
 48
25.0
100
AcDbLine
 10
-9.864928294518648
 20
17.26744358748488
 30
0.0
 11
-9.864928294519671
 21
20.73226681529792
 31
0.0
  0
LINE
  5
12A
330
2
100
AcDbEntity
  8
GEB-VERDECKT
 48
25.0
100
AcDbLine
 10
-9.864928294518648
 20
17.26744358748488
 30
0.0
 11
-8.203185388795674
 21
15.73538252536252
 31
0.0
  0
LINE
  5
12B
330
2
100
AcDbEntity
  8
GEB-VERDECKT
 48
25.0
100
AcDbLine
 10
-8.203185388795674
 20
15.73538252536249
 30
0.0
 11
-5.585275442308329
 21
16.28418084576171
 31
0.0
  0
LINE
  5
12C
330
2
100
AcDbEntity
  8
GEB-VERDECKT
 48
25.0
100
AcDbLine
 10
-5.585275442309352
 20
19.74900407357481
 30
0.0
 11
-8.203185388796697
 21
19.20020575317559
 31
0.0
  0
LINE
  5
12D
330
2
100
AcDbEntity
  8
GEB-VERDECKT
 48
25.0
100
AcDbLine
 10
-8.203185388795674
 20
15.73538252536249
 30
0.0
 11
-8.203185388796697
 21
19.20020575317559
 31
0.0
  0
LINE
  5
12E
330
2
100
AcDbEntity
  8
GEB-VERDECKT
 48
25.0
100
AcDbLine
 10
-3.563365073413137
 20
18.45137351347449
 30
0.0
 11
-5.585275442309352
 21
19.74900407357481
 31
0.0
  0
LINE
  5
12F
330
2
100
AcDbEntity
  8
GEB-VERDECKT
 48
25.0
100
AcDbLine
 10
-5.585275442308329
 20
16.28418084576177
 30
0.0
 11
-5.585275442309352
 21
19.74900407357481
 31
0.0
  0
LINE
  5
130
330
2
100
AcDbEntity
  8
GEB-VERDECKT
 48
25.0
100
AcDbLine
 10
-5.585275442308329
 20
16.28418084576177
 30
0.0
 11
-3.563365073412114
 21
14.98655028566145
 31
0.0
  0
LINE
  5
131
330
2
100
AcDbEntity
  8
GEB-VERDECKT
 48
25.0
100
AcDbLine
 10
-3.563365073412114
 20
14.98655028566145
 30
0.0
 11
-1.126107241802685
 21
15.85706333643171
 31
0.0
  0
LINE
  5
132
330
2
100
AcDbEntity
  8
GEB-VERDECKT
 48
25.0
100
AcDbLine
 10
-1.126107241803708
 20
19.32188656424481
 30
0.0
 11
-3.563365073413137
 21
18.45137351347449
 31
0.0
  0
LINE
  5
133
330
2
100
AcDbEntity
  8
GEB-VERDECKT
 48
25.0
100
AcDbLine
 10
-3.563365073412114
 20
14.98655028566145
 30
0.0
 11
-3.563365073413137
 21
18.45137351347449
 31
0.0
  0
LINE
  5
134
330
2
100
AcDbEntity
  8
GEB-VERDECKT
 48
25.0
100
AcDbLine
 10
1.190984727376189
 20
18.30039342006213
 30
0.0
 11
-1.126107241803708
 21
19.32188656424481
 31
0.0
  0
LINE
  5
135
330
2
100
AcDbEntity
  8
GEB-VERDECKT
 48
25.0
100
AcDbLine
 10
-1.126107241802685
 20
15.85706333643171
 30
0.0
 11
-1.126107241803708
 21
19.32188656424481
 31
0.0
  0
LINE
  5
136
330
2
100
AcDbEntity
  8
GEB-VERDECKT
 48
25.0
100
AcDbLine
 10
-1.126107241802685
 20
15.85706333643171
 30
0.0
 11
1.190984727377212
 21
14.83557019224906
 31
0.0
  0
LINE
  5
137
330
2
100
AcDbEntity
  8
GEB-VERDECKT
 48
25.0
100
AcDbLine
 10
1.190984727377212
 20
14.83557019224906
 30
0.0
 11
3.369254972018381
 21
15.99981896767812
 31
0.0
  0
LINE
  5
138
330
2
100
AcDbEntity
  8
GEB-VERDECKT
 48
25.0
100
AcDbLine
 10
3.369254972017358
 20
19.46464219549116
 30
0.0
 11
1.190984727376189
 21
18.30039342006213
 31
0.0
  0
LINE
  5
139
330
2
100
AcDbEntity
  8
GEB-VERDECKT
 48
25.0
100
AcDbLine
 10
1.190984727377212
 20
14.83557019224906
 30
0.0
 11
1.190984727376189
 21
18.30039342006213
 31
0.0
  0
LINE
  5
13A
330
2
100
AcDbEntity
  8
GEB-VERDECKT
 48
25.0
100
AcDbLine
 10
5.907055299081719
 20
18.75211809736757
 30
0.0
 11
3.369254972017358
 21
19.46464219549116
 31
0.0
  0
LINE
  5
13B
330
2
100
AcDbEntity
  8
GEB-VERDECKT
 48
25.0
100
AcDbLine
 10
3.369254972018381
 20
15.99981896767812
 30
0.0
 11
3.369254972017358
 21
19.46464219549116
 31
0.0
  0
LINE
  5
13C
330
2
100
AcDbEntity
  8
GEB-VERDECKT
 48
25.0
100
AcDbLine
 10
3.369254972018381
 20
15.99981896767812
 30
0.0
 11
5.907055299082742
 21
15.28729486955447
 31
0.0
  0
LINE
  5
13D
330
2
100
AcDbEntity
  8
GEB-VERDECKT
 48
25.0
100
AcDbLine
 10
5.907055299082742
 20
15.28729486955447
 30
0.0
 11
7.756326558806165
 21
16.70785945605291
 31
0.0
  0
LINE
  5
13E
330
2
100
AcDbEntity
  8
GEB-VERDECKT
 48
25.0
100
AcDbLine
 10
7.756326558805142
 20
20.17268268386601
 30
0.0
 11
5.907055299081719
 21
18.75211809736757
 31
0.0
  0
LINE
  5
13F
330
2
100
AcDbEntity
  8
GEB-VERDECKT
 48
25.0
100
AcDbLine
 10
5.907055299082742
 20
15.28729486955447
 30
0.0
 11
5.907055299081719
 21
18.75211809736757
 31
0.0
  0
LINE
  5
140
330
2
100
AcDbEntity
  8
GEB-VERDECKT
 48
25.0
100
AcDbLine
 10
10.43326825313312
 20
19.79202874258192
 30
0.0
 11
7.756326558805142
 21
20.17268268386601
 31
0.0
  0
LINE
  5
141
330
2
100
AcDbEntity
  8
GEB-VERDECKT
 48
25.0
100
AcDbLine
 10
7.756326558806165
 20
16.70785945605291
 30
0.0
 11
7.756326558805142
 21
20.17268268386601
 31
0.0
  0
LINE
  5
142
330
2
100
AcDbEntity
  8
GEB-VERDECKT
 48
25.0
100
AcDbLine
 10
7.756326558806165
 20
16.70785945605291
 30
0.0
 11
10.43326825313414
 21
16.32720551476882
 31
0.0
  0
LINE
  5
143
330
2
100
AcDbEntity
  8
GEB-VERDECKT
 48
25.0
100
AcDbLine
 10
10.43326825313414
 20
16.32720551476882
 30
0.0
 11
11.8941034280669
 21
17.95842779768216
 31
0.0
  0
LINE
  5
144
330
2
100
AcDbEntity
  8
GEB-VERDECKT
 48
25.0
100
AcDbLine
 10
11.89410342806593
 20
21.42325102549524
 30
0.0
 11
10.43326825313312
 21
19.79202874258192
 31
0.0
  0
LINE
  5
145
330
2
100
AcDbEntity
  8
GEB-VERDECKT
 48
25.0
100
AcDbLine
 10
10.43326825313414
 20
16.32720551476882
 30
0.0
 11
10.43326825313312
 21
19.79202874258189
 31
0.0
  0
LINE
  5
146
330
2
100
AcDbEntity
  8
GEB-VERDECKT
 48
25.0
100
AcDbLine
 10
14.62414738100682
 20
21.38670177192663
 30
0.0
 11
11.89410342806593
 21
21.42325102549524
 31
0.0
  0
LINE
  5
147
330
2
100
AcDbEntity
  8
GEB-VERDECKT
 48
25.0
100
AcDbLine
 10
11.8941034280669
 20
17.95842779768219
 30
0.0
 11
11.89410342806593
 21
21.42325102549524
 31
0.0
  0
LINE
  5
148
330
2
100
AcDbEntity
  8
GEB-VERDECKT
 48
25.0
100
AcDbLine
 10
11.8941034280669
 20
17.95842779768219
 30
0.0
 11
14.62414738100784
 21
17.92187854411355
 31
0.0
  0
LINE
  5
149
330
2
100
AcDbEntity
  8
GEB-VERDECKT
 48
25.0
100
AcDbLine
 10
14.62414738100784
 20
17.92187854411355
 30
0.0
 11
15.64959402664834
 21
19.71132969709478
 31
0.0
  0
LINE
  5
14A
330
2
100
AcDbEntity
  8
GEB-VERDECKT
 48
25.0
100
AcDbLine
 10
15.64959402664732
 20
23.17615292490785
 30
0.0
 11
14.62414738100682
 21
21.38670177192663
 31
0.0
  0
LINE
  5
14B
330
2
100
AcDbEntity
  8
GEB-VERDECKT
 48
25.0
100
AcDbLine
 10
14.62414738100784
 20
17.92187854411355
 30
0.0
 11
14.62414738100682
 21
21.38670177192665
 31
0.0
  0
LINE
  5
14C
330
2
100
AcDbEntity
  8
GEB-VERDECKT
 48
25.0
100
AcDbLine
 10
18.34499437926598
 20
23.48488308213729
 30
0.0
 11
15.64959402664732
 21
23.17615292490785
 31
0.0
  0
LINE
  5
14D
330
2
100
AcDbEntity
  8
GEB-VERDECKT
 48
25.0
100
AcDbLine
 10
15.64959402664834
 20
19.71132969709478
 30
0.0
 11
15.64959402664732
 21
23.17615292490785
 31
0.0
  0
LINE
  5
14E
330
2
100
AcDbEntity
  8
GEB-VERDECKT
 48
25.0
100
AcDbLine
 10
15.64959402664834
 20
19.71132969709478
 30
0.0
 11
18.34499437926706
 21
20.02005985432419
 31
0.0
  0
LINE
  5
14F
330
2
100
AcDbEntity
  8
GEB-VERDECKT
 48
25.0
100
AcDbLine
 10
18.34499437926706
 20
20.02005985432419
 30
0.0
 11
18.90209379668408
 21
21.91022544495118
 31
0.0
  0
LINE
  5
150
330
2
100
AcDbEntity
  8
GEB-VERDECKT
 48
25.0
100
AcDbLine
 10
18.90209379668306
 20
25.37504867276428
 30
0.0
 11
18.34499437926598
 21
23.48488308213729
 31
0.0
  0
LINE
  5
151
330
2
100
AcDbEntity
  8
GEB-VERDECKT
 48
25.0
100
AcDbLine
 10
18.34499437926706
 20
20.02005985432419
 30
0.0
 11
18.34499437926598
 21
23.48488308213729
 31
0.0
  0
LINE
  5
152
330
2
100
AcDbEntity
  8
GEB-VERDECKT
 48
25.0
100
AcDbLine
 10
21.47621816386362
 20
26.01913539951434
 30
0.0
 11
18.90209379668306
 21
25.37504867276425
 31
0.0
  0
LINE
  5
153
330
2
100
AcDbEntity
  8
GEB-VERDECKT
 48
25.0
100
AcDbLine
 10
18.90209379668408
 20
21.91022544495118
 30
0.0
 11
18.90209379668306
 21
25.37504867276425
 31
0.0
  0
LINE
  5
154
330
2
100
AcDbEntity
  8
GEB-VERDECKT
 48
25.0
100
AcDbLine
 10
18.90209379668408
 20
21.91022544495118
 30
0.0
 11
21.47621816386465
 21
22.55431217170124
 31
0.0
  0
LINE
  5
155
330
2
100
AcDbEntity
  8
GEB-VERDECKT
 48
25.0
100
AcDbLine
 10
21.47621816386465
 20
22.55431217170127
 30
0.0
 11
21.54706471939954
 21
24.48444072265784
 31
0.0
  0
LINE
  5
156
330
2
100
AcDbEntity
  8
GEB-VERDECKT
 48
25.0
100
AcDbLine
 10
21.54706471939852
 20
27.94926395047088
 30
0.0
 11
21.47621816386362
 21
26.01913539951434
 31
0.0
  0
LINE
  5
157
330
2
100
AcDbEntity
  8
GEB-VERDECKT
 48
25.0
100
AcDbLine
 10
21.47621816386465
 20
22.55431217170127
 30
0.0
 11
21.47621816386362
 21
26.01913539951434
 31
0.0
  0
LINE
  5
158
330
2
100
AcDbEntity
  8
GEB-VERDECKT
 48
25.0
100
AcDbLine
 10
23.91717862598307
 20
28.90800576938753
 30
0.0
 11
21.54706471939852
 21
27.94926395047091
 31
0.0
  0
LINE
  5
159
330
2
100
AcDbEntity
  8
GEB-VERDECKT
 48
25.0
100
AcDbLine
 10
21.54706471939954
 20
24.48444072265784
 30
0.0
 11
21.54706471939852
 21
27.94926395047091
 31
0.0
  0
LINE
  5
15A
330
2
100
AcDbEntity
  8
GEB-VERDECKT
 48
25.0
100
AcDbLine
 10
21.54706471939954
 20
24.48444072265784
 30
0.0
 11
23.91717862598415
 21
25.44318254157446
 31
0.0
  0
LINE
  5
15B
330
2
100
AcDbEntity
  8
GEB-VERDECKT
 48
25.0
100
AcDbLine
 10
23.91717862598415
 20
25.44318254157446
 30
0.0
 11
23.49949525304925
 21
27.35123813311779
 31
0.0
  0
LINE
  5
15C
330
2
100
AcDbEntity
  8
GEB-VERDECKT
 48
25.0
100
AcDbLine
 10
23.49949525304822
 20
30.81606136093089
 30
0.0
 11
23.91717862598307
 21
28.90800576938753
 31
0.0
  0
LINE
  5
15D
330
2
100
AcDbEntity
  8
GEB-VERDECKT
 48
25.0
100
AcDbLine
 10
23.91717862598415
 20
25.44318254157446
 30
0.0
 11
23.91717862598307
 21
28.90800576938753
 31
0.0
  0
LINE
  5
15E
330
2
100
AcDbEntity
  8
GEB-VERDECKT
 48
25.0
100
AcDbLine
 10
25.58942128794303
 20
32.0586435210987
 30
0.0
 11
23.49949525304822
 21
30.81606136093089
 31
0.0
  0
LINE
  5
15F
330
2
100
AcDbEntity
  8
GEB-VERDECKT
 48
25.0
100
AcDbLine
 10
23.49949525304925
 20
27.35123813311779
 30
0.0
 11
23.49949525304822
 21
30.81606136093089
 31
0.0
  0
LINE
  5
160
330
2
100
AcDbEntity
  8
GEB-VERDECKT
 48
25.0
100
AcDbLine
 10
23.49949525304925
 20
27.35123813311779
 30
0.0
 11
25.58942128794405
 21
28.59382029328561
 31
0.0
  0
LINE
  5
161
330
2
100
AcDbEntity
  8
GEB-VERDECKT
 48
25.0
100
AcDbLine
 10
26.43919889466213
 20
35.36978456495447
 30
0.0
 11
24.69663267381554
 21
33.88329967656327
 31
0.0
  0
LINE
  5
162
330
2
100
AcDbEntity
  8
GEB-VERDECKT
 48
25.0
100
AcDbLine
 10
24.69663267381657
 20
30.4184764487502
 30
0.0
 11
26.43919889466315
 21
31.90496133714143
 31
0.0
  0
LINE
  5
163
330
2
100
AcDbEntity
  8
GEB-VERDECKT
 48
25.0
100
AcDbLine
 10
26.43919889466315
 20
31.90496133714143
 30
0.0
 11
26.43919889466218
 21
35.24360585486661
 31
0.0
  0
LINE
  5
164
330
2
100
AcDbEntity
  8
GEB-VERDECKT
 48
25.0
100
AcDbLine
 10
25.58942128794405
 20
28.59382029328561
 30
0.0
 11
24.69663267381657
 21
30.4184764487502
 31
0.0
  0
LINE
  5
165
330
2
100
AcDbEntity
  8
GEB-VERDECKT
 48
25.0
100
AcDbLine
 10
24.69663267381657
 20
30.4184764487502
 30
0.0
 11
24.69663267381554
 21
33.88329967656327
 31
0.0
  0
LINE
  5
166
330
2
100
AcDbEntity
  8
GEB-VERDECKT
 48
25.0
100
AcDbLine
 10
24.69663267381554
 20
33.8832996765633
 30
0.0
 11
25.58942128794303
 21
32.0586435210987
 31
0.0
  0
LINE
  5
167
330
2
100
AcDbEntity
  8
GEB-VERDECKT
 48
25.0
100
AcDbLine
 10
25.58942128794405
 20
28.59382029328561
 30
0.0
 11
25.58942128794303
 21
32.0586435210987
 31
0.0
  0
SPLINE
  5
168
330
2
100
AcDbEntity
  8
GEB-KONTUR-A
 48
25.0
100
AcDbSpline
210
0.0
220
0.0
230
1.0
 70
     8
 71
     3
 72
    24
 73
    20
 74
     0
 42
0.0000000001
 43
0.0000000001
 40
4.889642689481716
 40
4.889642689481716
 40
4.889642689481716
 40
4.889642689481716
 40
5.205710758649469
 40
5.205710758649469
 40
5.525226077789536
 40
5.525226077789536
 40
5.846634475392823
 40
5.846634475392823
 40
6.168412665043994
 40
6.168412665043994
 40
6.490170576838078
 40
6.490170576838078
 40
6.811938545535594
 40
6.811938545535594
 40
7.133686403200687
 40
7.133686403200687
 40
7.454766368085039
 40
7.454766368085039
 40
7.676727924877456
 40
7.676727924877456
 40
7.676727924877456
 40
7.676727924877456
 10
25.59424540092039
 20
70.18335423869783
 30
0.0
 10
25.10433330783974
 20
72.11721784389467
 30
0.0
 10
24.17986861278496
 20
73.99023629802318
 30
0.0
 10
21.5514516069519
 20
77.4469982033153
 30
0.0
 10
19.83978105507458
 20
79.02734524204814
 30
0.0
 10
15.80086386437443
 20
81.73071109825039
 30
0.0
 10
13.4705014889783
 20
82.85069267691254
 30
0.0
 10
8.431974194227336
 20
84.51299070796526
 30
0.0
 10
5.724151279782802
 20
85.05434192415785
 30
0.0
 10
0.2062546741162237
 20
85.50413190310147
 30
0.0
 10
-2.6028802588404
 20
85.41252234983947
 30
0.0
 10
-8.040016921024772
 20
84.60517654341064
 30
0.0
 10
-10.66710591537628
 20
83.88957752565564
 30
0.0
 10
-15.47420637953934
 20
81.9036561013144
 30
0.0
 10
-17.6535447270079
 20
80.6336906577898
 30
0.0
 10
-21.33865581470502
 20
77.66446136394549
 30
0.0
 10
-22.84535518102479
 20
75.96625847062117
 30
0.0
 10
-24.69267312155091
 20
72.86991211918027
 30
0.0
 10
-25.25020036294961
 20
71.54142681325177
 30
0.0
 10
-25.59424540096208
 20
70.18335423868265
 30
0.0
  0
LINE
  5
169
330
2
100
AcDbEntity
  8
GEB-KONTUR-A
 48
25.0
100
AcDbLine
 10
-25.59424540096208
 20
70.18335423868271
 30
0.0
 11
-26.40469649331783
 21
66.98420505776258
 31
0.0
  0
LINE
  5
16A
330
2
100
AcDbEntity
  8
GEB-KONTUR-A
 48
25.0
100
AcDbLine
 10
25.59424540092039
 20
70.18335423869789
 30
0.0
 11
26.40469649327804
 21
66.98420505777827
 31
0.0
  0
LINE
  5
16B
330
2
100
AcDbEntity
  8
GEB-KONTUR-A
 48
25.0
100
AcDbLine
 10
-26.82500000001889
 20
63.63961030676254
 30
0.0
 11
-26.82500000001716
 21
57.77062402291591
 31
0.0
  0
LINE
  5
16C
330
2
100
AcDbEntity
  8
GEB-KONTUR-A
 48
25.0
100
AcDbLine
 10
26.82499999998106
 20
63.63961030677845
 30
0.0
 11
26.82499999998282
 21
57.77062402293182
 31
0.0
  0
LINE
  5
16D
330
2
100
AcDbEntity
  8
GEB-KONTUR-A
 48
25.0
100
AcDbLine
 10
-25.00000000001717
 20
57.77062402291645
 30
0.0
 11
-25.00000000001652
 21
55.52574176576951
 31
0.0
  0
LINE
  5
16E
330
2
100
AcDbEntity
  8
GEB-KONTUR-A
 48
25.0
100
AcDbLine
 10
24.99999999998284
 20
57.77062402293125
 30
0.0
 11
24.99999999998351
 21
55.52574176578435
 31
0.0
  0
LINE
  5
16F
330
2
100
AcDbEntity
  8
GEB-KONTUR-A
 48
25.0
100
AcDbLine
 10
-26.82500000001446
 20
48.64894654561211
 30
0.0
 11
-26.82500000001102
 21
37.05239533415616
 31
0.0
  0
LINE
  5
170
330
2
100
AcDbEntity
  8
GEB-KONTUR-A
 48
25.0
100
AcDbLine
 10
26.82499999998555
 20
48.64894654562803
 30
0.0
 11
26.82499999998896
 21
37.05239533417208
 31
0.0
  0
ELLIPSE
  5
171
330
2
100
AcDbEntity
  8
GEB-KONTUR-A
 48
25.0
100
AcDbEllipse
 10
-0.0000000000162572
 20
54.7300648638226
 30
0.0
 11
-22.39999999999999
 21
-0.0000000000082823
 31
0.0
210
0.0
220
0.0
230
1.0
 40
0.7071067811867593
 41
3.716503989184435
 42
5.708273971584509
  0
ELLIPSE
  5
172
330
2
100
AcDbEntity
  8
GEB-KONTUR-A
 48
25.0
100
AcDbEllipse
 10
-0.0000000000153477
 20
51.68950570472134
 30
0.0
 11
24.99999999999998
 21
0.0000000000074174
 31
0.0
210
0.0
220
0.0
230
1.0
 40
0.7071067811867595
 41
0.3617482585523001
 42
2.779844395037494
  0
ELLIPSE
  5
173
330
2
100
AcDbEntity
  8
GEB-KONTUR-A
 48
25.0
100
AcDbEllipse
 10
-0.000000000018872
 20
63.63961030677049
 30
0.0
 11
26.825
 21
0.0000000000079542
 31
0.0
210
0.0
220
0.0
230
1.0
 40
0.7071067811867593
 41
0.0000000000000004
 42
3.141592653589793
  0
ELLIPSE
  5
174
330
2
100
AcDbEntity
  8
GEB-KONTUR-A
 48
25.0
100
AcDbEllipse
 10
-0.0000000000171667
 20
57.77062402292386
 30
0.0
 11
26.825
 21
0.000000000007957
 31
0.0
210
0.0
220
0.0
230
1.0
 40
0.7071067811867593
 41
6.040358617769832
 42
9.66760465017913
  0
ELLIPSE
  5
175
330
2
100
AcDbEntity
  8
GEB-KONTUR-A
 48
25.0
100
AcDbEllipse
 10
-0.0000000000162572
 20
54.7300648638226
 30
0.0
 11
25.0
 21
0.0000000000074156
 31
0.0
210
0.0
220
0.0
230
1.0
 40
0.7071067811867594
 41
0.0479733410490457
 42
3.093619312540745
  0
ELLIPSE
  5
176
330
2
100
AcDbEntity
  8
GEB-KONTUR-A
 48
25.0
100
AcDbEllipse
 10
-0.0000000000171667
 20
57.77062402292386
 30
0.0
 11
25.0
 21
0.000000000007413
 31
0.0
210
0.0
220
0.0
230
1.0
 40
0.7071067811867594
 41
0.0000000000000009
 42
3.141592653589794
  0
ELLIPSE
  5
177
330
2
100
AcDbEntity
  8
GEB-KONTUR-A
 48
25.0
100
AcDbEllipse
 10
-0.0000000000084128
 20
33.58757210635076
 30
0.0
 11
-25.10000000000163
 21
-0.000000000007444
 31
0.0
210
0.0
220
0.0
230
1.0
 40
0.7071067811867594
 41
6.01390593687189
 42
6.121538995134595
  0
ELLIPSE
  5
178
330
2
100
AcDbEntity
  8
GEB-KONTUR-A
 48
25.0
100
AcDbEllipse
 10
-0.0000000000093792
 20
33.58757210635088
 30
0.0
 11
-25.10000000000067
 21
-0.0000000000074418
 31
0.0
210
0.0
220
0.0
230
1.0
 40
0.7071067811867594
 41
5.83438635666676
 42
6.013905936871886
  0
ELLIPSE
  5
179
330
2
100
AcDbEntity
  8
GEB-KONTUR-A
 48
25.0
100
AcDbEllipse
 10
-0.0000000000104592
 20
33.58757210635122
 30
0.0
 11
-25.09999999999948
 21
-0.0000000000074429
 31
0.0
210
0.0
220
0.0
230
1.0
 40
0.7071067811867593
 41
5.654866776461622
 42
5.834386356666758
  0
ELLIPSE
  5
17A
330
2
100
AcDbEntity
  8
GEB-KONTUR-A
 48
25.0
100
AcDbEllipse
 10
-0.000000000010516
 20
33.58757210635142
 30
0.0
 11
-25.09999999999927
 21
-0.0000000000074463
 31
0.0
210
0.0
220
0.0
230
1.0
 40
0.7071067811867593
 41
5.475347196256493
 42
5.65486677646163
  0
ELLIPSE
  5
17B
330
2
100
AcDbEntity
  8
GEB-KONTUR-A
 48
25.0
100
AcDbEllipse
 10
-0.0000000000100613
 20
33.58757210635114
 30
0.0
 11
-25.09999999999989
 21
-0.0000000000074452
 31
0.0
210
0.0
220
0.0
230
1.0
 40
0.7071067811867593
 41
5.295827616051365
 42
5.475347196256496
  0
ELLIPSE
  5
17C
330
2
100
AcDbEntity
  8
GEB-KONTUR-A
 48
25.0
100
AcDbEllipse
 10
-0.0000000000100044
 20
33.58757210635105
 30
0.0
 11
-25.09999999999998
 21
-0.0000000000074474
 31
0.0
210
0.0
220
0.0
230
1.0
 40
0.7071067811867593
 41
5.116308035846232
 42
5.295827616051363
  0
ELLIPSE
  5
17D
330
2
100
AcDbEntity
  8
GEB-KONTUR-A
 48
25.0
100
AcDbEllipse
 10
-0.0000000000098908
 20
33.58757210635085
 30
0.0
 11
-25.10000000000028
 21
-0.0000000000074463
 31
0.0
210
0.0
220
0.0
230
1.0
 40
0.7071067811867592
 41
4.936788455641103
 42
5.11630803584623
  0
ELLIPSE
  5
17E
330
2
100
AcDbEntity
  8
GEB-KONTUR-A
 48
25.0
100
AcDbEllipse
 10
-0.0000000000100044
 20
33.58757210635119
 30
0.0
 11
-25.09999999999982
 21
-0.0000000000074454
 31
0.0
210
0.0
220
0.0
230
1.0
 40
0.7071067811867593
 41
4.757268875435972
 42
4.936788455641102
  0
ELLIPSE
  5
17F
330
2
100
AcDbEntity
  8
GEB-KONTUR-A
 48
25.0
100
AcDbEllipse
 10
-0.0000000000100044
 20
33.58757210635088
 30
0.0
 11
-25.10000000000026
 21
-0.000000000007446
 31
0.0
210
0.0
220
0.0
230
1.0
 40
0.7071067811867593
 41
4.577749295230841
 42
4.757268875435969
  0
ELLIPSE
  5
180
330
2
100
AcDbEntity
  8
GEB-KONTUR-A
 48
25.0
100
AcDbEllipse
 10
-0.0000000000101181
 20
33.58757210635059
 30
0.0
 11
-25.10000000000067
 21
-0.0000000000074463
 31
0.0
210
0.0
220
0.0
230
1.0
 40
0.7071067811867594
 41
4.398229715025713
 42
4.577749295230839
  0
ELLIPSE
  5
181
330
2
100
AcDbEntity
  8
GEB-KONTUR-A
 48
25.0
100
AcDbEllipse
 10
-0.0000000000101181
 20
33.58757210635079
 30
0.0
 11
-25.10000000000039
 21
-0.0000000000092815
 31
0.0
210
0.0
220
0.0
230
1.0
 40
0.7071067811867593
 41
4.218710134820509
 42
4.398229715025657
  0
ELLIPSE
  5
182
330
2
100
AcDbEntity
  8
GEB-KONTUR-A
 48
25.0
100
AcDbEllipse
 10
-0.0000000000098908
 20
33.58757210635114
 30
0.0
 11
-25.09999999999986
 21
-0.0000000000092848
 31
0.0
210
0.0
220
0.0
230
1.0
 40
0.7071067811867594
 41
4.039190554615325
 42
4.218710134820485
  0
ELLIPSE
  5
183
330
2
100
AcDbEntity
  8
GEB-KONTUR-A
 48
25.0
100
AcDbEllipse
 10
-0.0000000000104023
 20
33.58757210635074
 30
0.0
 11
-25.10000000000059
 21
-0.000000000009277
 31
0.0
210
0.0
220
0.0
230
1.0
 40
0.7071067811867595
 41
3.859670974410143
 42
4.039190554615297
  0
ELLIPSE
  5
184
330
2
100
AcDbEntity
  8
GEB-KONTUR-A
 48
25.0
100
AcDbEllipse
 10
-0.0000000000099476
 20
33.58757210635108
 30
0.0
 11
-25.09999999999995
 21
-0.0000000000092781
 31
0.0
210
0.0
220
0.0
230
1.0
 40
0.7071067811867595
 41
3.680151394204955
 42
3.859670974410113
  0
ELLIPSE
  5
185
330
2
100
AcDbEntity
  8
GEB-KONTUR-A
 48
25.0
100
AcDbEllipse
 10
-0.0000000000092655
 20
33.5875721063513
 30
0.0
 11
25.0999999999992
 21
0.0000000000074463
 31
0.0
210
0.0
220
0.0
230
1.0
 40
0.7071067811867593
 41
0.3590391604102586
 42
0.5385587406153957
  0
ELLIPSE
  5
186
330
2
100
AcDbEntity
  8
GEB-KONTUR-A
 48
25.0
100
AcDbEllipse
 10
-0.0000000000103455
 20
33.58757210635096
 30
0.0
 11
25.10000000000039
 21
0.0000000000074429
 31
0.0
210
0.0
220
0.0
230
1.0
 40
0.7071067811867597
 41
0.1795195802051332
 42
0.359039160410262
  0
ELLIPSE
  5
187
330
2
100
AcDbEntity
  8
GEB-KONTUR-A
 48
25.0
100
AcDbEllipse
 10
0.0000000000062528
 20
33.58757210635295
 30
0.0
 11
25.09999999998351
 21
0.0000000000074463
 31
0.0
210
0.0
220
0.0
230
1.0
 40
0.7071067811867594
 41
0.1616463120449796
 42
0.1795195802051328
  0
ELLIPSE
  5
188
330
2
100
AcDbEntity
  8
GEB-KONTUR-A
 48
25.0
100
AcDbEllipse
 10
-0.0000000000144382
 20
48.64894654562007
 30
0.0
 11
26.825
 21
0.0000000000079541
 31
0.0
210
0.0
220
0.0
230
1.0
 40
0.7071067811867593
 41
0.0000000000000004
 42
3.141592653589793
  0
ELLIPSE
  5
189
330
2
100
AcDbEntity
  8
GEB-KONTUR-A
 48
25.0
100
AcDbEllipse
 10
-0.0000000000076739
 20
25.7687518879618
 30
0.0
 11
-25.09999999999998
 21
-0.0000000000074474
 31
0.0
210
0.0
220
0.0
230
1.0
 40
0.7071067811867594
 41
4.561920923776856
 42
4.862857036992519
  0
LINE
  5
18A
330
2
100
AcDbEntity
  8
GEB-VERDECKT
 48
25.0
100
AcDbLine
 10
-22.40000000001629
 20
54.73006486381596
 30
0.0
 11
-22.40000000001535
 21
51.68950570471469
 31
0.0
  0
LINE
  5
18B
330
2
100
AcDbEntity
  8
GEB-VERDECKT
 48
25.0
100
AcDbLine
 10
22.39999999998372
 20
54.73006486382925
 30
0.0
 11
22.39999999998463
 21
51.68950570472799
 31
0.0
  0
LINE
  5
18C
330
2
100
AcDbEntity
  8
GEB-VERDECKT
 48
25.0
100
AcDbLine
 10
-25.00000000001538
 20
51.68950570471392
 30
0.0
 11
-25.00000000001444
 21
48.64894654561266
 31
0.0
  0
LINE
  5
18D
330
2
100
AcDbEntity
  8
GEB-VERDECKT
 48
25.0
100
AcDbLine
 10
24.99999999998465
 20
51.68950570472873
 30
0.0
 11
24.99999999998556
 21
48.64894654562746
 31
0.0
  0
LINE
  5
18E
330
2
100
AcDbEntity
  8
GEB-VERDECKT
 48
25.0
100
AcDbLine
 10
-25.10000000000997
 20
33.58757210634357
 30
0.0
 11
-25.10000000000912
 21
30.64778867814008
 31
0.0
  0
LINE
  5
18F
330
2
100
AcDbEntity
  8
GEB-VERDECKT
 48
25.0
100
AcDbLine
 10
25.09999999999002
 20
33.58757210635847
 30
0.0
 11
25.09999999999093
 21
30.64778867815494
 31
0.0
  0
LINE
  5
190
330
2
100
AcDbEntity
  8
GEB-VERDECKT
 48
25.0
100
AcDbLine
 10
-17.91987782486396
 20
38.19630150046132
 30
0.0
 11
-18.49102930932133
 21
37.78451618718199
 31
0.0
  0
LINE
  5
191
330
2
100
AcDbEntity
  8
GEB-VERDECKT
 48
25.0
100
AcDbLine
 10
17.91987782484125
 20
38.19630150047195
 30
0.0
 11
18.49102930929882
 21
37.78451618719297
 31
0.0
  0
LINE
  5
192
330
2
100
AcDbEntity
  8
GEB-VERDECKT
 48
25.0
100
AcDbLine
 10
-25.10000000000741
 20
24.96086937587023
 30
0.0
 11
-25.10000000000719
 21
24.14240629122574
 31
0.0
  0
LINE
  5
193
330
2
100
AcDbEntity
  8
GEB-VERDECKT
 48
25.0
100
AcDbLine
 10
25.09999999999258
 20
24.96086937588513
 30
0.0
 11
25.0999999999928
 21
24.14240629124058
 31
0.0
  0
LINE
  5
194
330
2
100
AcDbEntity
  8
GEB-VERDECKT
 48
25.0
100
AcDbLine
 10
-17.91987782486339
 20
36.56995590373279
 30
0.0
 11
-18.49102930932071
 21
36.15817059045347
 31
0.0
  0
LINE
  5
195
330
2
100
AcDbEntity
  8
GEB-VERDECKT
 48
25.0
100
AcDbLine
 10
17.91987782484165
 20
36.56995590374342
 30
0.0
 11
18.49102930929922
 21
36.15817059046447
 31
0.0
  0
LINE
  5
196
330
2
100
AcDbEntity
  8
GEB-VERDECKT
 48
25.0
100
AcDbLine
 10
-25.10000000000693
 20
23.33452377914162
 30
0.0
 11
-25.10000000000568
 21
19.09188309202361
 31
0.0
  0
LINE
  5
197
330
2
100
AcDbEntity
  8
GEB-VERDECKT
 48
25.0
100
AcDbLine
 10
25.09999999999309
 20
23.33452377915651
 30
0.0
 11
25.09999999999434
 21
19.0918830920385
 31
0.0
  0
LINE
  5
198
330
2
100
AcDbEntity
  8
GEB-VERDECKT
 48
25.0
100
AcDbLine
 10
-25.00000000001652
 20
55.52574176576951
 30
0.0
 11
-25.00000000001626
 21
54.73006486381518
 31
0.0
  0
LINE
  5
199
330
2
100
AcDbEntity
  8
GEB-VERDECKT
 48
25.0
100
AcDbLine
 10
24.99999999998351
 20
55.52574176578431
 30
0.0
 11
24.99999999998375
 21
54.73006486382999
 31
0.0
  0
LINE
  5
19A
330
2
100
AcDbEntity
  8
GEB-VERDECKT
 48
25.0
100
AcDbLine
 10
-25.10000000000889
 20
29.83990616605598
 30
0.0
 11
-25.10000000000815
 21
27.39509748468291
 31
0.0
  0
LINE
  5
19B
330
2
100
AcDbEntity
  8
GEB-VERDECKT
 48
25.0
100
AcDbLine
 10
25.0999999999911
 20
29.83990616607087
 30
0.0
 11
25.09999999999184
 21
27.3950974846978
 31
0.0
  0
LINE
  5
19C
330
2
100
AcDbEntity
  8
GEB-VERDECKT
 48
25.0
100
AcDbLine
 10
-25.10000000000792
 20
26.58721497259879
 30
0.0
 11
-25.10000000000767
 21
25.7687518879543
 31
0.0
  0
LINE
  5
19D
330
2
100
AcDbEntity
  8
GEB-VERDECKT
 48
25.0
100
AcDbLine
 10
25.09999999999212
 20
26.58721497261368
 30
0.0
 11
25.09999999999229
 21
25.76875188796919
 31
0.0
  0
ELLIPSE
  5
19E
330
2
100
AcDbEntity
  8
GEB-VERDECKT
 48
25.0
100
AcDbEllipse
 10
-0.0000000000162572
 20
54.7300648638226
 30
0.0
 11
-22.39999999999999
 21
-0.0000000000066447
 31
0.0
210
0.0
220
0.0
230
1.0
 40
0.7071067811867595
 41
5.708273971584727
 42
9.999689296364238
  0
ELLIPSE
  5
19F
330
2
100
AcDbEntity
  8
GEB-VERDECKT
 48
25.0
100
AcDbEllipse
 10
-0.0000000000153477
 20
51.68950570472134
 30
0.0
 11
22.4
 21
0.000000000006645
 31
0.0
210
0.0
220
0.0
230
1.0
 40
0.7071067811867593
 41
0.0
 42
6.283185307179586
  0
ELLIPSE
  5
1A0
330
2
100
AcDbEntity
  8
GEB-VERDECKT
 48
25.0
100
AcDbEllipse
 10
-0.0000000000153477
 20
51.68950570472134
 30
0.0
 11
-25.0
 21
-0.0000000000074096
 31
0.0
210
0.0
220
0.0
230
1.0
 40
0.7071067811867593
 41
5.921437048627285
 42
9.786526219321677
  0
ELLIPSE
  5
1A1
330
2
100
AcDbEntity
  8
GEB-VERDECKT
 48
25.0
100
AcDbEllipse
 10
-0.0000000000144382
 20
48.64894654562007
 30
0.0
 11
25.0
 21
0.0000000000074163
 31
0.0
210
0.0
220
0.0
230
1.0
 40
0.7071067811867594
 41
0.0
 42
6.283185307179586
  0
ELLIPSE
  5
1A2
330
2
100
AcDbEntity
  8
GEB-VERDECKT
 48
25.0
100
AcDbEllipse
 10
-0.0000000000099476
 20
33.58757210635105
 30
0.0
 11
-25.10000000000007
 21
-0.0000000000074449
 31
0.0
210
0.0
220
0.0
230
1.0
 40
0.7071067811867594
 41
6.193425517077019
 42
6.372945097282151
  0
ELLIPSE
  5
1A3
330
2
100
AcDbEntity
  8
GEB-VERDECKT
 48
25.0
100
AcDbEllipse
 10
-0.0000000000074465
 20
24.96086937587771
 30
0.0
 11
25.9
 21
0.0000000000076833
 31
0.0
210
0.0
220
0.0
230
1.0
 40
0.7071067811867593
 41
0.0
 42
6.283185307179586
  0
ELLIPSE
  5
1A4
330
2
100
AcDbEntity
  8
GEB-VERDECKT
 48
25.0
100
AcDbEllipse
 10
-0.0000000000074465
 20
24.96086937587771
 30
0.0
 11
25.1
 21
0.000000000007446
 31
0.0
210
0.0
220
0.0
230
1.0
 40
0.7071067811867594
 41
0.0
 42
6.283185307179586
  0
ELLIPSE
  5
1A5
330
2
100
AcDbEntity
  8
GEB-VERDECKT
 48
25.0
100
AcDbEllipse
 10
-0.0000000000072191
 20
24.14240629123319
 30
0.0
 11
25.1
 21
0.000000000007446
 31
0.0
210
0.0
220
0.0
230
1.0
 40
0.7071067811867594
 41
0.0
 42
6.283185307179586
  0
ELLIPSE
  5
1A6
330
2
100
AcDbEntity
  8
GEB-VERDECKT
 48
25.0
100
AcDbEllipse
 10
-0.0000000000069349
 20
23.33452377914909
 30
0.0
 11
25.9
 21
0.0000000000076833
 31
0.0
210
0.0
220
0.0
230
1.0
 40
0.7071067811867593
 41
0.0
 42
6.283185307179586
  0
ELLIPSE
  5
1A7
330
2
100
AcDbEntity
  8
GEB-VERDECKT
 48
25.0
100
AcDbEllipse
 10
-0.0000000000056843
 20
19.09188309203105
 30
0.0
 11
25.1
 21
0.000000000007446
 31
0.0
210
0.0
220
0.0
230
1.0
 40
0.7071067811867594
 41
0.0
 42
6.283185307179586
  0
ELLIPSE
  5
1A8
330
2
100
AcDbEntity
  8
GEB-VERDECKT
 48
25.0
100
AcDbEllipse
 10
-0.0000000000069349
 20
23.33452377914909
 30
0.0
 11
25.1
 21
0.000000000007446
 31
0.0
210
0.0
220
0.0
230
1.0
 40
0.7071067811867594
 41
0.0
 42
6.283185307179586
  0
ELLIPSE
  5
1A9
330
2
100
AcDbEntity
  8
GEB-VERDECKT
 48
25.0
100
AcDbEllipse
 10
-0.000000000018872
 20
63.63961030677049
 30
0.0
 11
-26.825
 21
-0.0000000000079566
 31
0.0
210
0.0
220
0.0
230
1.0
 40
0.7071067811867593
 41
0.0000000000000001
 42
3.141592653589793
  0
ELLIPSE
  5
1AA
330
2
100
AcDbEntity
  8
GEB-VERDECKT
 48
25.0
100
AcDbEllipse
 10
-0.0000000000171667
 20
57.77062402292386
 30
0.0
 11
-26.825
 21
-0.0000000000079559
 31
0.0
210
0.0
220
0.0
230
1.0
 40
0.7071067811867594
 41
0.2428266894097538
 42
2.89876596418004
  0
ELLIPSE
  5
1AB
330
2
100
AcDbEntity
  8
GEB-VERDECKT
 48
25.0
100
AcDbEllipse
 10
-0.0000000000162572
 20
54.7300648638226
 30
0.0
 11
-25.0
 21
-0.0000000000074155
 31
0.0
210
0.0
220
0.0
230
1.0
 40
0.7071067811867594
 41
6.235211966130538
 42
9.472751301818423
  0
ELLIPSE
  5
1AC
330
2
100
AcDbEntity
  8
GEB-VERDECKT
 48
25.0
100
AcDbEllipse
 10
-0.0000000000171667
 20
57.77062402292386
 30
0.0
 11
-25.0
 21
-0.0000000000074216
 31
0.0
210
0.0
220
0.0
230
1.0
 40
0.7071067811867594
 41
0.0
 42
3.141592653589793
  0
ELLIPSE
  5
1AD
330
2
100
AcDbEntity
  8
GEB-VERDECKT
 48
25.0
100
AcDbEllipse
 10
-0.0000000000097771
 20
33.58757210635108
 30
0.0
 11
-25.10000000000021
 21
-0.000000000007446
 31
0.0
210
0.0
220
0.0
230
1.0
 40
0.7071067811867593
 41
0.089759790102567
 42
0.2692793703076966
  0
ELLIPSE
  5
1AE
330
2
100
AcDbEntity
  8
GEB-VERDECKT
 48
25.0
100
AcDbEllipse
 10
-0.0000000000103455
 20
33.58757210635094
 30
0.0
 11
-25.09999999999959
 21
-0.0000000000074485
 31
0.0
210
0.0
220
0.0
230
1.0
 40
0.7071067811867593
 41
0.2692793703076947
 42
0.4487989505128294
  0
ELLIPSE
  5
1AF
330
2
100
AcDbEntity
  8
GEB-VERDECKT
 48
25.0
100
AcDbEllipse
 10
-0.0000000000081286
 20
33.5875721063509
 30
0.0
 11
-25.10000000000188
 21
-0.0000000000074463
 31
0.0
210
0.0
220
0.0
230
1.0
 40
0.7071067811867595
 41
6.121538995134608
 42
6.193425517077022
  0
ELLIPSE
  5
1B0
330
2
100
AcDbEntity
  8
GEB-VERDECKT
 48
25.0
100
AcDbEllipse
 10
-0.0000000000106866
 20
33.58757210635074
 30
0.0
 11
25.09999999999916
 21
0.000000000009277
 31
0.0
210
0.0
220
0.0
230
1.0
 40
0.7071067811867595
 41
3.590391604102364
 42
3.769911184307525
  0
ELLIPSE
  5
1B1
330
2
100
AcDbEntity
  8
GEB-VERDECKT
 48
25.0
100
AcDbEllipse
 10
-0.0000000000100613
 20
33.58757210635096
 30
0.0
 11
25.0999999999999
 21
0.0000000000092792
 31
0.0
210
0.0
220
0.0
230
1.0
 40
0.7071067811867594
 41
3.769911184307545
 42
3.949430764512706
  0
ELLIPSE
  5
1B2
330
2
100
AcDbEntity
  8
GEB-VERDECKT
 48
25.0
100
AcDbEllipse
 10
-0.0000000000100044
 20
33.58757210635102
 30
0.0
 11
25.09999999999995
 21
0.0000000000092826
 31
0.0
210
0.0
220
0.0
230
1.0
 40
0.7071067811867593
 41
3.949430764512733
 42
4.128950344717893
  0
ELLIPSE
  5
1B3
330
2
100
AcDbEntity
  8
GEB-VERDECKT
 48
25.0
100
AcDbEllipse
 10
-0.0000000000102318
 20
33.58757210635068
 30
0.0
 11
25.09999999999946
 21
0.0000000000092848
 31
0.0
210
0.0
220
0.0
230
1.0
 40
0.7071067811867594
 41
4.128950344717916
 42
4.308469924923075
  0
ELLIPSE
  5
1B4
330
2
100
AcDbEntity
  8
GEB-VERDECKT
 48
25.0
100
AcDbEllipse
 10
-0.0000000000101181
 20
33.58757210635076
 30
0.0
 11
25.09999999999961
 21
0.0000000000092748
 31
0.0
210
0.0
220
0.0
230
1.0
 40
0.7071067811867595
 41
4.308469924923095
 42
4.487989505128245
  0
ELLIPSE
  5
1B5
330
2
100
AcDbEntity
  8
GEB-VERDECKT
 48
25.0
100
AcDbEllipse
 10
-0.0000000000101181
 20
33.58757210635037
 30
0.0
 11
25.09999999999907
 21
0.0000000000074485
 31
0.0
210
0.0
220
0.0
230
1.0
 40
0.7071067811867593
 41
4.487989505128271
 42
4.667509085333407
  0
ELLIPSE
  5
1B6
330
2
100
AcDbEntity
  8
GEB-VERDECKT
 48
25.0
100
AcDbEllipse
 10
-0.0000000000099476
 20
33.58757210635116
 30
0.0
 11
25.10000000000016
 21
0.000000000007446
 31
0.0
210
0.0
220
0.0
230
1.0
 40
0.7071067811867593
 41
4.667509085333406
 42
4.847028665538536
  0
ELLIPSE
  5
1B7
330
2
100
AcDbEntity
  8
GEB-VERDECKT
 48
25.0
100
AcDbEllipse
 10
-0.0000000000101181
 20
33.58757210635147
 30
0.0
 11
25.10000000000065
 21
0.0000000000074488
 31
0.0
210
0.0
220
0.0
230
1.0
 40
0.7071067811867593
 41
4.84702866553854
 42
5.026548245743667
  0
ELLIPSE
  5
1B8
330
2
100
AcDbEntity
  8
GEB-VERDECKT
 48
25.0
100
AcDbEllipse
 10
-0.0000000000100044
 20
33.58757210635114
 30
0.0
 11
25.10000000000013
 21
0.0000000000074429
 31
0.0
210
0.0
220
0.0
230
1.0
 40
0.7071067811867598
 41
5.026548245743668
 42
5.206067825948796
  0
ELLIPSE
  5
1B9
330
2
100
AcDbEntity
  8
GEB-VERDECKT
 48
25.0
100
AcDbEllipse
 10
-0.0000000000097202
 20
33.58757210635076
 30
0.0
 11
25.09999999999953
 21
0.0000000000074418
 31
0.0
210
0.0
220
0.0
230
1.0
 40
0.7071067811867592
 41
5.206067825948796
 42
5.385587406153935
  0
ELLIPSE
  5
1BA
330
2
100
AcDbEntity
  8
GEB-VERDECKT
 48
25.0
100
AcDbEllipse
 10
-0.0000000000097771
 20
33.58757210635088
 30
0.0
 11
25.09999999999968
 21
0.0000000000074452
 31
0.0
210
0.0
220
0.0
230
1.0
 40
0.7071067811867593
 41
5.385587406153929
 42
5.565106986359061
  0
ELLIPSE
  5
1BB
330
2
100
AcDbEntity
  8
GEB-VERDECKT
 48
25.0
100
AcDbEllipse
 10
-0.0000000000096634
 20
33.58757210635088
 30
0.0
 11
25.09999999999959
 21
0.0000000000074452
 31
0.0
210
0.0
220
0.0
230
1.0
 40
0.7071067811867594
 41
5.56510698635906
 42
5.744626566564193
  0
ELLIPSE
  5
1BC
330
2
100
AcDbEntity
  8
GEB-VERDECKT
 48
25.0
100
AcDbEllipse
 10
-0.0000000000100044
 20
33.58757210635105
 30
0.0
 11
25.10000000000004
 21
0.0000000000074429
 31
0.0
210
0.0
220
0.0
230
1.0
 40
0.7071067811867593
 41
5.744626566564191
 42
5.924146146769322
  0
ELLIPSE
  5
1BD
330
2
100
AcDbEntity
  8
GEB-VERDECKT
 48
25.0
100
AcDbEllipse
 10
-0.0000000000100044
 20
33.58757210635105
 30
0.0
 11
25.10000000000003
 21
0.000000000007444
 31
0.0
210
0.0
220
0.0
230
1.0
 40
0.7071067811867594
 41
5.924146146769324
 42
6.103665726974454
  0
ELLIPSE
  5
1BE
330
2
100
AcDbEntity
  8
GEB-VERDECKT
 48
25.0
100
AcDbEllipse
 10
-0.0000000000100613
 20
33.58757210635105
 30
0.0
 11
25.10000000000009
 21
0.0000000000074463
 31
0.0
210
0.0
220
0.0
230
1.0
 40
0.7071067811867594
 41
6.103665726974454
 42
6.283185307179587
  0
ELLIPSE
  5
1BF
330
2
100
AcDbEntity
  8
GEB-VERDECKT
 48
25.0
100
AcDbEllipse
 10
-0.000000000009436
 20
33.58757210635108
 30
0.0
 11
25.09999999999946
 21
0.000000000007408
 31
0.0
210
0.0
220
0.0
230
1.0
 40
0.7071067811867593
 41
0.0000000000000071
 42
0.1616463120449919
  0
ELLIPSE
  5
1C0
330
2
100
AcDbEntity
  8
GEB-VERDECKT
 48
25.0
100
AcDbEllipse
 10
-0.0000000000144382
 20
48.64894654562007
 30
0.0
 11
-26.825
 21
-0.0000000000079609
 31
0.0
210
0.0
220
0.0
230
1.0
 40
0.7071067811867593
 41
0.0
 42
3.141592653589793
  0
ELLIPSE
  5
1C1
330
2
100
AcDbEntity
  8
GEB-VERDECKT
 48
25.0
100
AcDbEllipse
 10
-0.0000000000076739
 20
25.76875188796177
 30
0.0
 11
-25.1
 21
-0.0000000000074468
 31
0.0
210
0.0
220
0.0
230
1.0
 40
0.7071067811867594
 41
4.862857036992519
 42
10.84510623095644
  0
LINE
  5
1C2
330
2
100
AcDbEntity
  8
GEB-KONTUR-A
 48
25.0
100
AcDbLine
 10
-17.91987782486467
 20
43.07533829064758
 30
0.0
 11
-18.49102930932199
 21
42.66355297736834
 31
0.0
  0
LINE
  5
1C3
330
2
100
AcDbEntity
  8
GEB-KONTUR-A
 48
25.0
100
AcDbLine
 10
17.91987782483909
 20
43.07533829065826
 30
0.0
 11
18.4910293092966
 21
42.66355297737931
 31
0.0
  0
ELLIPSE
  5
1C4
330
2
100
AcDbEntity
  8
GEB-KONTUR-A
 48
25.0
100
AcDbEllipse
 10
-0.0000000000079012
 20
26.58721497260629
 30
0.0
 11
-25.1
 21
-0.0000000000092859
 31
0.0
210
0.0
220
0.0
230
1.0
 40
0.7071067811867595
 41
4.157158166262336
 42
5.26761979450687
  0
ELLIPSE
  5
1C5
330
2
100
AcDbEntity
  8
GEB-KONTUR-A
 48
25.0
100
AcDbEllipse
 10
-0.0000000000079012
 20
26.58721497260629
 30
0.0
 11
25.89999999999999
 21
0.0000000000057854
 31
0.0
210
0.0
220
0.0
230
1.0
 40
0.7071067811867594
 41
0.8604408745321237
 42
2.281151779057932
  0
ELLIPSE
  5
1C6
330
2
100
AcDbEntity
  8
GEB-KONTUR-A
 48
25.0
100
AcDbEllipse
 10
-0.0000000000081855
 20
27.39509748469036
 30
0.0
 11
25.1
 21
0.0000000000056155
 31
0.0
210
0.0
220
0.0
230
1.0
 40
0.7071067811867595
 41
0.8221359626224469
 42
2.319456690967637
  0
ELLIPSE
  5
1C7
330
2
100
AcDbEntity
  8
GEB-KONTUR-A
 48
25.0
100
AcDbEllipse
 10
-0.0000000000088676
 20
29.83990616606346
 30
0.0
 11
-25.1
 21
-0.0000000000092848
 31
0.0
210
0.0
220
0.0
230
1.0
 40
0.7071067811867594
 41
3.616179422296525
 42
5.808598538472362
  0
ELLIPSE
  5
1C8
330
2
100
AcDbEntity
  8
GEB-KONTUR-A
 48
25.0
100
AcDbEllipse
 10
-0.0000000000088676
 20
29.83990616606346
 30
0.0
 11
25.90000000000001
 21
0.0000000000057931
 31
0.0
210
0.0
220
0.0
230
1.0
 40
0.7071067811867595
 41
0.4066461113492564
 42
2.734946542241058
  0
ELLIPSE
  5
1C9
330
2
100
AcDbEntity
  8
GEB-KONTUR-A
 48
25.0
100
AcDbEllipse
 10
-0.0000000000090949
 20
30.64778867814752
 30
0.0
 11
25.1
 21
0.0000000000056155
 31
0.0
210
0.0
220
0.0
230
1.0
 40
0.7071067811867594
 41
0.775688149639854
 42
2.365904503950257
  0
LINE
  5
1CA
330
2
100
AcDbEntity
  8
GEB-VERDECKT
 48
25.0
100
AcDbLine
 10
-17.91987782486461
 20
39.82264709718985
 30
0.0
 11
-18.49102930932193
 21
39.41086178391049
 31
0.0
  0
LINE
  5
1CB
330
2
100
AcDbEntity
  8
GEB-VERDECKT
 48
25.0
100
AcDbLine
 10
17.91987782484091
 20
39.82264709720045
 30
0.0
 11
18.49102930929848
 21
39.41086178392149
 31
0.0
  0
ELLIPSE
  5
1CC
330
2
100
AcDbEntity
  8
GEB-VERDECKT
 48
25.0
100
AcDbEllipse
 10
-0.0000000000079012
 20
26.58721497260629
 30
0.0
 11
-25.1
 21
-0.0000000000074429
 31
0.0
210
0.0
220
0.0
230
1.0
 40
0.7071067811867594
 41
5.267619794506956
 42
10.44034347344201
  0
ELLIPSE
  5
1CD
330
2
100
AcDbEntity
  8
GEB-VERDECKT
 48
25.0
100
AcDbEllipse
 10
-0.0000000000079012
 20
26.58721497260629
 30
0.0
 11
25.89999999999999
 21
0.0000000000076883
 31
0.0
210
0.0
220
0.0
230
1.0
 40
0.7071067811867594
 41
2.281151779057799
 42
7.143626181711575
  0
ELLIPSE
  5
1CE
330
2
100
AcDbEntity
  8
GEB-VERDECKT
 48
25.0
100
AcDbEllipse
 10
-0.0000000000081855
 20
27.39509748469036
 30
0.0
 11
25.1
 21
0.0000000000074496
 31
0.0
210
0.0
220
0.0
230
1.0
 40
0.7071067811867594
 41
2.319456690967491
 42
7.105321269801887
  0
ELLIPSE
  5
1CF
330
2
100
AcDbEntity
  8
GEB-VERDECKT
 48
25.0
100
AcDbEllipse
 10
-0.0000000000088676
 20
29.83990616606346
 30
0.0
 11
-25.1
 21
-0.0000000000074429
 31
0.0
210
0.0
220
0.0
230
1.0
 40
0.7071067811867595
 41
5.808598538472607
 42
9.899364729476356
  0
ELLIPSE
  5
1D0
330
2
100
AcDbEntity
  8
GEB-VERDECKT
 48
25.0
100
AcDbEllipse
 10
-0.0000000000088676
 20
29.83990616606346
 30
0.0
 11
25.90000000000001
 21
0.0000000000076883
 31
0.0
210
0.0
220
0.0
230
1.0
 40
0.7071067811867592
 41
2.734946542240797
 42
6.689831418528582
  0
ELLIPSE
  5
1D1
330
2
100
AcDbEntity
  8
GEB-VERDECKT
 48
25.0
100
AcDbEllipse
 10
-0.0000000000090949
 20
30.64778867814752
 30
0.0
 11
25.1
 21
0.0000000000074429
 31
0.0
210
0.0
220
0.0
230
1.0
 40
0.7071067811867594
 41
2.365904503950099
 42
7.058873456819281
  0
ARC
  5
1D2
330
2
100
AcDbEntity
  8
GEB-VERDECKT
 48
25.0
100
AcDbCircle
 10
23.71954981561657
 20
-94.49999999999294
 30
0.0
 40
0.4999999999999997
100
AcDbArc
 50
190.0000000000168
 51
270.0000000000163
  0
ARC
  5
1D3
330
2
100
AcDbEntity
  8
GEB-VERDECKT
 48
25.0
100
AcDbCircle
 10
-23.71954981556058
 20
-94.500000000007
 30
0.0
 40
0.4999999999999997
100
AcDbArc
 50
270.0000000000163
 51
350.0000000000164
  0
LINE
  5
1D4
330
2
100
AcDbEntity
  8
GEB-VERDECKT
 48
25.0
100
AcDbLine
 10
-19.69999999999197
 20
-27.00000000000589
 30
0.0
 11
-19.69999999997785
 21
-74.58338544938212
 31
0.0
  0
LINE
  5
1D5
330
2
100
AcDbEntity
  8
GEB-VERDECKT
 48
25.0
100
AcDbLine
 10
19.70000000000794
 20
-26.9999999999942
 30
0.0
 11
19.70000000002204
 21
-74.58338544937042
 31
0.0
  0
LINE
  5
1D6
330
2
100
AcDbEntity
  8
GEB-VERDECKT
 48
25.0
100
AcDbLine
 10
-19.69999999997785
 20
-74.58338544938212
 30
0.0
 11
-23.22714593905442
 21
-94.58682408884033
 31
0.0
  0
LINE
  5
1D7
330
2
100
AcDbEntity
  8
GEB-VERDECKT
 48
25.0
100
AcDbLine
 10
19.70000000002204
 20
-74.58338544937042
 30
0.0
 11
23.22714593911047
 21
-94.58682408882655
 31
0.0
  0
LINE
  5
1D8
330
2
100
AcDbEntity
  8
GEB-VERDECKT
 48
25.0
100
AcDbLine
 10
-19.69999999997788
 20
-74.58338544938209
 30
0.0
 11
19.70000000002204
 21
-74.58338544937041
 31
0.0
  0
LINE
  5
1D9
330
2
100
AcDbEntity
  8
GEB-KONTUR-A
 48
25.0
100
AcDbLine
 10
0.0000000000140403
 20
-47.49999999999258
 30
0.0
 11
0.0000000000155183
 21
-52.39999999999255
 31
0.0
  0
LINE
  5
1DA
330
2
100
AcDbEntity
  8
GEB-KONTUR-A
 48
25.0
100
AcDbLine
 10
-2.379570970007591
 20
-47.49999999999289
 30
0.0
 11
0.0000000000140403
 21
-47.49999999999258
 31
0.0
  0
LINE
  5
1DB
330
2
100
AcDbEntity
  8
GEB-KONTUR-A
 48
25.0
100
AcDbLine
 10
0.0000000000140403
 20
-47.49999999999258
 30
0.0
 11
2.379570970035729
 21
-47.49999999999147
 31
0.0
  0
LINE
  5
1DC
330
2
100
AcDbEntity
  8
GEB-KONTUR-A
 48
25.0
100
AcDbLine
 10
-26.82499999998444
 20
-52.40000000000796
 30
0.0
 11
26.82500000001545
 21
-52.39999999999205
 31
0.0
  0
LINE
  5
1DD
330
2
100
AcDbEntity
  8
GEB-VERDECKT
 48
25.0
100
AcDbLine
 10
22.10294784961809
 20
-47.49999999998993
 30
0.0
 11
22.10294784961957
 21
-52.39999999998994
 31
0.0
  0
LINE
  5
1DE
330
2
100
AcDbEntity
  8
GEB-VERDECKT
 48
25.0
100
AcDbLine
 10
23.87151855902232
 20
-47.49999999999064
 30
0.0
 11
23.8715185590238
 21
-52.39999999999063
 31
0.0
  0
LINE
  5
1DF
330
2
100
AcDbEntity
  8
GEB-VERDECKT
 48
25.0
100
AcDbLine
 10
24.87283902038917
 20
-47.49999999999164
 30
0.0
 11
24.87283902039064
 21
-52.39999999999165
 31
0.0
  0
LINE
  5
1E0
330
2
100
AcDbEntity
  8
GEB-VERDECKT
 48
25.0
100
AcDbLine
 10
25.07472597020097
 20
-47.49999999999292
 30
0.0
 11
25.07472597020245
 21
-52.3999999999929
 31
0.0
  0
LINE
  5
1E1
330
2
100
AcDbEntity
  8
GEB-VERDECKT
 48
25.0
100
AcDbLine
 10
26.30581733282173
 20
-47.49999999999329
 30
0.0
 11
26.30581733282316
 21
-52.39999999999326
 31
0.0
  0
LINE
  5
1E2
330
2
100
AcDbEntity
  8
GEB-VERDECKT
 48
25.0
100
AcDbLine
 10
24.47069059577774
 20
-47.49999999999443
 30
0.0
 11
24.47069059577922
 21
-52.39999999999444
 31
0.0
  0
LINE
  5
1E3
330
2
100
AcDbEntity
  8
GEB-VERDECKT
 48
25.0
100
AcDbLine
 10
25.2468086234926
 20
-47.49999999999497
 30
0.0
 11
25.24680862349408
 21
-52.39999999999497
 31
0.0
  0
LINE
  5
1E4
330
2
100
AcDbEntity
  8
GEB-VERDECKT
 48
25.0
100
AcDbLine
 10
23.08014709105544
 20
-47.4999999999961
 30
0.0
 11
23.08014709105686
 21
-52.39999999999611
 31
0.0
  0
LINE
  5
1E5
330
2
100
AcDbEntity
  8
GEB-VERDECKT
 48
25.0
100
AcDbLine
 10
23.37634671186163
 20
-47.49999999999682
 30
0.0
 11
23.37634671186305
 21
-52.39999999999682
 31
0.0
  0
LINE
  5
1E6
330
2
100
AcDbEntity
  8
GEB-VERDECKT
 48
25.0
100
AcDbLine
 10
20.94778866841875
 20
-47.49999999999789
 30
0.0
 11
20.94778866842012
 21
-52.3999999999979
 31
0.0
  0
LINE
  5
1E7
330
2
100
AcDbEntity
  8
GEB-VERDECKT
 48
25.0
100
AcDbLine
 10
20.75454978278964
 20
-47.49999999999878
 30
0.0
 11
20.75454978279112
 21
-52.39999999999878
 31
0.0
  0
LINE
  5
1E8
330
2
100
AcDbEntity
  8
GEB-VERDECKT
 48
25.0
100
AcDbLine
 10
18.14215108208157
 20
-47.4999999999998
 30
0.0
 11
18.14215108208299
 21
-52.39999999999978
 31
0.0
  0
LINE
  5
1E9
330
2
100
AcDbEntity
  8
GEB-VERDECKT
 48
25.0
100
AcDbLine
 10
17.4656845467988
 20
-47.50000000000077
 30
0.0
 11
17.46568454680027
 21
-52.40000000000077
 31
0.0
  0
LINE
  5
1EA
330
2
100
AcDbEntity
  8
GEB-VERDECKT
 48
25.0
100
AcDbLine
 10
14.75340983255506
 20
-47.50000000000167
 30
0.0
 11
14.75340983255654
 21
-52.40000000000165
 31
0.0
  0
LINE
  5
1EB
330
2
100
AcDbEntity
  8
GEB-VERDECKT
 48
25.0
100
AcDbLine
 10
13.61545783866126
 20
-47.50000000000272
 30
0.0
 11
13.61545783866268
 21
-52.40000000000273
 31
0.0
  0
LINE
  5
1EC
330
2
100
AcDbEntity
  8
GEB-VERDECKT
 48
25.0
100
AcDbLine
 10
10.89048185186476
 20
-47.50000000000352
 30
0.0
 11
10.89048185186618
 21
-52.4000000000035
 31
0.0
  0
LINE
  5
1ED
330
2
100
AcDbEntity
  8
GEB-VERDECKT
 48
25.0
100
AcDbLine
 10
9.327619112753552
 20
-47.50000000000463
 30
0.0
 11
9.327619112754973
 21
-52.40000000000461
 31
0.0
  0
LINE
  5
1EE
330
2
100
AcDbEntity
  8
GEB-VERDECKT
 48
25.0
100
AcDbLine
 10
6.677524823737599
 20
-47.50000000000523
 30
0.0
 11
6.67752482373902
 21
-52.4000000000052
 31
0.0
  0
LINE
  5
1EF
330
2
100
AcDbEntity
  8
GEB-VERDECKT
 48
25.0
100
AcDbLine
 10
4.739983033771807
 20
-47.50000000000636
 30
0.0
 11
4.739983033773285
 21
-52.40000000000637
 31
0.0
  0
LINE
  5
1F0
330
2
100
AcDbEntity
  8
GEB-VERDECKT
 48
25.0
100
AcDbLine
 10
2.249946653490269
 20
-47.50000000000679
 30
0.0
 11
2.24994665349169
 21
-52.40000000000677
 31
0.0
  0
LINE
  5
1F1
330
2
100
AcDbEntity
  8
GEB-VERDECKT
 48
25.0
100
AcDbLine
 10
-2.249946653462131
 20
-47.5000000000081
 30
0.0
 11
-2.249946653460654
 21
-52.40000000000811
 31
0.0
  0
LINE
  5
1F2
330
2
100
AcDbEntity
  8
GEB-VERDECKT
 48
25.0
100
AcDbLine
 10
-4.739983033743669
 20
-47.50000000000918
 30
0.0
 11
-4.739983033742191
 21
-52.40000000000918
 31
0.0
  0
LINE
  5
1F3
330
2
100
AcDbEntity
  8
GEB-VERDECKT
 48
25.0
100
AcDbLine
 10
-6.677524823709461
 20
-47.50000000000918
 30
0.0
 11
-6.677524823707983
 21
-52.40000000000918
 31
0.0
  0
LINE
  5
1F4
330
2
100
AcDbEntity
  8
GEB-VERDECKT
 48
25.0
100
AcDbLine
 10
-9.327619112725415
 20
-47.50000000001015
 30
0.0
 11
-9.327619112723965
 21
-52.40000000001015
 31
0.0
  0
LINE
  5
1F5
330
2
100
AcDbEntity
  8
GEB-VERDECKT
 48
25.0
100
AcDbLine
 10
-10.89048185183662
 20
-47.50000000000997
 30
0.0
 11
-10.89048185183517
 21
-52.40000000000995
 31
0.0
  0
LINE
  5
1F6
330
2
100
AcDbEntity
  8
GEB-VERDECKT
 48
25.0
100
AcDbLine
 10
-13.61545783863315
 20
-47.50000000001082
 30
0.0
 11
-13.6154578386317
 21
-52.40000000001081
 31
0.0
  0
LINE
  5
1F7
330
2
100
AcDbEntity
  8
GEB-VERDECKT
 48
25.0
100
AcDbLine
 10
-14.75340983252698
 20
-47.50000000001043
 30
0.0
 11
-14.75340983252553
 21
-52.40000000001043
 31
0.0
  0
LINE
  5
1F8
330
2
100
AcDbEntity
  8
GEB-VERDECKT
 48
25.0
100
AcDbLine
 10
-17.46568454677072
 20
-47.50000000001114
 30
0.0
 11
-17.46568454676927
 21
-52.40000000001114
 31
0.0
  0
LINE
  5
1F9
330
2
100
AcDbEntity
  8
GEB-VERDECKT
 48
25.0
100
AcDbLine
 10
-18.1421510820534
 20
-47.50000000001054
 30
0.0
 11
-18.14215108205195
 21
-52.40000000001055
 31
0.0
  0
LINE
  5
1FA
330
2
100
AcDbEntity
  8
GEB-VERDECKT
 48
25.0
100
AcDbLine
 10
-20.7545497827615
 20
-47.50000000001108
 30
0.0
 11
-20.75454978276005
 21
-52.40000000001109
 31
0.0
  0
LINE
  5
1FB
330
2
100
AcDbEntity
  8
GEB-VERDECKT
 48
25.0
100
AcDbLine
 10
-20.94778866839059
 20
-47.50000000001034
 30
0.0
 11
-20.94778866838914
 21
-52.40000000001035
 31
0.0
  0
LINE
  5
1FC
330
2
100
AcDbEntity
  8
GEB-VERDECKT
 48
25.0
100
AcDbLine
 10
-23.37634671183346
 20
-47.50000000001068
 30
0.0
 11
-23.37634671183201
 21
-52.40000000001069
 31
0.0
  0
LINE
  5
1FD
330
2
100
AcDbEntity
  8
GEB-VERDECKT
 48
25.0
100
AcDbLine
 10
-23.0801470910273
 20
-47.5000000000098
 30
0.0
 11
-23.08014709102585
 21
-52.40000000000978
 31
0.0
  0
LINE
  5
1FE
330
2
100
AcDbEntity
  8
GEB-VERDECKT
 48
25.0
100
AcDbLine
 10
-25.24680862346449
 20
-47.50000000000994
 30
0.0
 11
-25.24680862346304
 21
-52.40000000000993
 31
0.0
  0
LINE
  5
1FF
330
2
100
AcDbEntity
  8
GEB-VERDECKT
 48
25.0
100
AcDbLine
 10
-24.47069059574966
 20
-47.50000000000895
 30
0.0
 11
-24.47069059574821
 21
-52.40000000000893
 31
0.0
  0
LINE
  5
200
330
2
100
AcDbEntity
  8
GEB-VERDECKT
 48
25.0
100
AcDbLine
 10
-26.3058173327936
 20
-47.50000000000889
 30
0.0
 11
-26.30581733279212
 21
-52.40000000000887
 31
0.0
  0
LINE
  5
201
330
2
100
AcDbEntity
  8
GEB-VERDECKT
 48
25.0
100
AcDbLine
 10
-25.07472597017289
 20
-47.50000000000778
 30
0.0
 11
-25.07472597017144
 21
-52.4000000000078
 31
0.0
  0
LINE
  5
202
330
2
100
AcDbEntity
  8
GEB-VERDECKT
 48
25.0
100
AcDbLine
 10
-24.87283902036103
 20
-47.50000000000639
 30
0.0
 11
-24.87283902035961
 21
-52.4000000000064
 31
0.0
  0
LINE
  5
203
330
2
100
AcDbEntity
  8
GEB-VERDECKT
 48
25.0
100
AcDbLine
 10
-23.87151855899424
 20
-47.5000000000048
 30
0.0
 11
-23.87151855899279
 21
-52.40000000000481
 31
0.0
  0
LINE
  5
204
330
2
100
AcDbEntity
  8
GEB-VERDECKT
 48
25.0
100
AcDbLine
 10
-22.10294784959001
 20
-47.50000000000304
 30
0.0
 11
-22.10294784958856
 21
-52.40000000000304
 31
0.0
  0
LINE
  5
205
330
2
100
AcDbEntity
  8
GEB-KONTUR-A
 48
25.0
100
AcDbLine
 10
2.379570970035729
 20
-47.49999999999147
 30
0.0
 11
4.481778059459827
 21
-47.49999999999135
 31
0.0
  0
LINE
  5
206
330
2
100
AcDbEntity
  8
GEB-KONTUR-A
 48
25.0
100
AcDbLine
 10
2.37957097003715
 20
-52.39999999999148
 30
0.0
 11
2.379570970035729
 21
-47.49999999999147
 31
0.0
  0
LINE
  5
207
330
2
100
AcDbEntity
  8
GEB-KONTUR-A
 48
25.0
100
AcDbLine
 10
4.481778059459827
 20
-47.49999999999135
 30
0.0
 11
4.481778059461305
 21
-52.39999999999136
 31
0.0
  0
LINE
  5
208
330
2
100
AcDbEntity
  8
GEB-KONTUR-A
 48
25.0
100
AcDbLine
 10
4.481778059459827
 20
-47.49999999999135
 30
0.0
 11
7.062231541184985
 21
-47.49999999999033
 31
0.0
  0
LINE
  5
209
330
2
100
AcDbEntity
  8
GEB-KONTUR-A
 48
25.0
100
AcDbLine
 10
7.062231541184985
 20
-47.49999999999033
 30
0.0
 11
8.819508084455719
 21
-47.49999999999045
 31
0.0
  0
LINE
  5
20A
330
2
100
AcDbEntity
  8
GEB-KONTUR-A
 48
25.0
100
AcDbLine
 10
7.062231541184985
 20
-47.49999999999033
 30
0.0
 11
7.062231541186463
 21
-52.39999999999032
 31
0.0
  0
LINE
  5
20B
330
2
100
AcDbEntity
  8
GEB-KONTUR-A
 48
25.0
100
AcDbLine
 10
8.819508084455719
 20
-47.49999999999045
 30
0.0
 11
8.819508084457197
 21
-52.39999999999042
 31
0.0
  0
LINE
  5
20C
330
2
100
AcDbEntity
  8
GEB-KONTUR-A
 48
25.0
100
AcDbLine
 10
8.819508084455719
 20
-47.49999999999045
 30
0.0
 11
11.51790617977752
 21
-47.49999999998951
 31
0.0
  0
LINE
  5
20D
330
2
100
AcDbEntity
  8
GEB-KONTUR-A
 48
25.0
100
AcDbLine
 10
11.51790617977752
 20
-47.49999999998951
 30
0.0
 11
12.87377186290229
 21
-47.49999999998979
 31
0.0
  0
LINE
  5
20E
330
2
100
AcDbEntity
  8
GEB-KONTUR-A
 48
25.0
100
AcDbLine
 10
11.51790617977752
 20
-47.49999999998951
 30
0.0
 11
11.517906179779
 21
-52.39999999998949
 31
0.0
  0
LINE
  5
20F
330
2
100
AcDbEntity
  8
GEB-KONTUR-A
 48
25.0
100
AcDbLine
 10
12.87377186290229
 20
-47.49999999998979
 30
0.0
 11
12.87377186290371
 21
-52.3999999999898
 31
0.0
  0
LINE
  5
210
330
2
100
AcDbEntity
  8
GEB-KONTUR-A
 48
25.0
100
AcDbLine
 10
12.87377186290229
 20
-47.49999999998979
 30
0.0
 11
15.60338583678776
 21
-47.49999999998903
 31
0.0
  0
LINE
  5
211
330
2
100
AcDbEntity
  8
GEB-KONTUR-A
 48
25.0
100
AcDbLine
 10
15.60338583678776
 20
-47.49999999998903
 30
0.0
 11
16.51426202110082
 21
-47.49999999998951
 31
0.0
  0
LINE
  5
212
330
2
100
AcDbEntity
  8
GEB-KONTUR-A
 48
25.0
100
AcDbLine
 10
15.60338583678776
 20
-47.49999999998903
 30
0.0
 11
15.60338583678924
 21
-52.399999999989
 31
0.0
  0
LINE
  5
213
330
2
100
AcDbEntity
  8
GEB-KONTUR-A
 48
25.0
100
AcDbLine
 10
16.51426202110082
 20
-47.49999999998951
 30
0.0
 11
16.51426202110229
 21
-52.39999999998949
 31
0.0
  0
LINE
  5
214
330
2
100
AcDbEntity
  8
GEB-KONTUR-A
 48
25.0
100
AcDbLine
 10
16.51426202110082
 20
-47.49999999998951
 30
0.0
 11
19.18735983449539
 21
-47.49999999998888
 31
0.0
  0
LINE
  5
215
330
2
100
AcDbEntity
  8
GEB-KONTUR-A
 48
25.0
100
AcDbLine
 10
19.18735983449539
 20
-47.49999999998888
 30
0.0
 11
19.62397020996155
 21
-47.49999999998957
 31
0.0
  0
LINE
  5
216
330
2
100
AcDbEntity
  8
GEB-KONTUR-A
 48
25.0
100
AcDbLine
 10
19.18735983449539
 20
-47.49999999998888
 30
0.0
 11
19.18735983449687
 21
-52.39999999998889
 31
0.0
  0
LINE
  5
217
330
2
100
AcDbEntity
  8
GEB-KONTUR-A
 48
25.0
100
AcDbLine
 10
19.62397020996155
 20
-47.49999999998957
 30
0.0
 11
19.62397020996298
 21
-52.39999999998954
 31
0.0
  0
LINE
  5
218
330
2
100
AcDbEntity
  8
GEB-KONTUR-A
 48
25.0
100
AcDbLine
 10
19.62397020996155
 20
-47.49999999998957
 30
0.0
 11
22.1546362997106
 21
-47.49999999998911
 31
0.0
  0
LINE
  5
219
330
2
100
AcDbEntity
  8
GEB-KONTUR-A
 48
25.0
100
AcDbLine
 10
22.1546362997106
 20
-47.49999999998911
 30
0.0
 11
22.15463629971202
 21
-52.39999999998912
 31
0.0
  0
LINE
  5
21A
330
2
100
AcDbEntity
  8
GEB-KONTUR-A
 48
25.0
100
AcDbLine
 10
22.1546362997106
 20
-47.49999999998993
 30
0.0
 11
24.40984452535804
 21
-47.49999999998968
 31
0.0
  0
LINE
  5
21B
330
2
100
AcDbEntity
  8
GEB-KONTUR-A
 48
25.0
100
AcDbLine
 10
24.40984452535804
 20
-47.49999999998968
 30
0.0
 11
24.40984452535952
 21
-52.39999999998969
 31
0.0
  0
LINE
  5
21C
330
2
100
AcDbEntity
  8
GEB-KONTUR-A
 48
25.0
100
AcDbLine
 10
24.40984452535804
 20
-47.49999999999062
 30
0.0
 11
25.88050026347401
 21
-47.49999999999059
 31
0.0
  0
LINE
  5
21D
330
2
100
AcDbEntity
  8
GEB-KONTUR-A
 48
25.0
100
AcDbLine
 10
25.88050026347401
 20
-47.49999999999059
 30
0.0
 11
25.88050026347548
 21
-52.3999999999906
 31
0.0
  0
LINE
  5
21E
330
2
100
AcDbEntity
  8
GEB-KONTUR-A
 48
25.0
100
AcDbLine
 10
25.88050026347401
 20
-47.49999999999175
 30
0.0
 11
26.5193354285758
 21
-47.49999999999178
 31
0.0
  0
LINE
  5
21F
330
2
100
AcDbEntity
  8
GEB-KONTUR-A
 48
25.0
100
AcDbLine
 10
26.5193354285758
 20
-47.49999999999178
 30
0.0
 11
26.51933542857722
 21
-52.39999999999179
 31
0.0
  0
LINE
  5
220
330
2
100
AcDbEntity
  8
GEB-KONTUR-A
 48
25.0
100
AcDbLine
 10
-26.51933542854767
 20
-47.50000000000753
 30
0.0
 11
-25.88050026344587
 21
-47.5000000000071
 31
0.0
  0
LINE
  5
221
330
2
100
AcDbEntity
  8
GEB-KONTUR-A
 48
25.0
100
AcDbLine
 10
-26.51933542854767
 20
-47.50000000000753
 30
0.0
 11
-26.51933542854619
 21
-52.40000000000754
 31
0.0
  0
LINE
  5
222
330
2
100
AcDbEntity
  8
GEB-KONTUR-A
 48
25.0
100
AcDbLine
 10
-25.88050026344587
 20
-47.50000000000594
 30
0.0
 11
-24.40984452532993
 21
-47.50000000000511
 31
0.0
  0
LINE
  5
223
330
2
100
AcDbEntity
  8
GEB-KONTUR-A
 48
25.0
100
AcDbLine
 10
-25.88050026344587
 20
-47.50000000000594
 30
0.0
 11
-25.88050026344442
 21
-52.40000000000595
 31
0.0
  0
LINE
  5
224
330
2
100
AcDbEntity
  8
GEB-KONTUR-A
 48
25.0
100
AcDbLine
 10
-24.40984452532993
 20
-47.50000000000414
 30
0.0
 11
-22.15463629968247
 21
-47.50000000000309
 31
0.0
  0
LINE
  5
225
330
2
100
AcDbEntity
  8
GEB-KONTUR-A
 48
25.0
100
AcDbLine
 10
-24.40984452532993
 20
-47.50000000000414
 30
0.0
 11
-24.40984452532848
 21
-52.40000000000415
 31
0.0
  0
LINE
  5
226
330
2
100
AcDbEntity
  8
GEB-KONTUR-A
 48
25.0
100
AcDbLine
 10
-22.15463629968247
 20
-47.50000000000224
 30
0.0
 11
-19.62397020993345
 21
-47.50000000000122
 31
0.0
  0
LINE
  5
227
330
2
100
AcDbEntity
  8
GEB-KONTUR-A
 48
25.0
100
AcDbLine
 10
-22.15463629968247
 20
-47.50000000000224
 30
0.0
 11
-22.15463629968102
 21
-52.40000000000225
 31
0.0
  0
LINE
  5
228
330
2
100
AcDbEntity
  8
GEB-KONTUR-A
 48
25.0
100
AcDbLine
 10
-19.62397020993345
 20
-47.50000000000122
 30
0.0
 11
-19.623970209932
 21
-52.4000000000012
 31
0.0
  0
LINE
  5
229
330
2
100
AcDbEntity
  8
GEB-KONTUR-A
 48
25.0
100
AcDbLine
 10
-19.62397020993345
 20
-47.50000000000122
 30
0.0
 11
-19.18735983446729
 21
-47.50000000000028
 31
0.0
  0
LINE
  5
22A
330
2
100
AcDbEntity
  8
GEB-KONTUR-A
 48
25.0
100
AcDbLine
 10
-19.18735983446729
 20
-47.50000000000028
 30
0.0
 11
-16.51426202107268
 21
-47.49999999999931
 31
0.0
  0
LINE
  5
22B
330
2
100
AcDbEntity
  8
GEB-KONTUR-A
 48
25.0
100
AcDbLine
 10
-19.18735983446729
 20
-47.50000000000028
 30
0.0
 11
-19.18735983446584
 21
-52.40000000000026
 31
0.0
  0
LINE
  5
22C
330
2
100
AcDbEntity
  8
GEB-KONTUR-A
 48
25.0
100
AcDbLine
 10
-16.51426202107268
 20
-47.49999999999931
 30
0.0
 11
-16.51426202107123
 21
-52.39999999999932
 31
0.0
  0
LINE
  5
22D
330
2
100
AcDbEntity
  8
GEB-KONTUR-A
 48
25.0
100
AcDbLine
 10
-16.51426202107268
 20
-47.49999999999931
 30
0.0
 11
-15.60338583675963
 21
-47.49999999999826
 31
0.0
  0
LINE
  5
22E
330
2
100
AcDbEntity
  8
GEB-KONTUR-A
 48
25.0
100
AcDbLine
 10
-15.60338583675963
 20
-47.49999999999826
 30
0.0
 11
-12.87377186287418
 21
-47.49999999999744
 31
0.0
  0
LINE
  5
22F
330
2
100
AcDbEntity
  8
GEB-KONTUR-A
 48
25.0
100
AcDbLine
 10
-15.60338583675963
 20
-47.49999999999826
 30
0.0
 11
-15.60338583675818
 21
-52.39999999999827
 31
0.0
  0
LINE
  5
230
330
2
100
AcDbEntity
  8
GEB-KONTUR-A
 48
25.0
100
AcDbLine
 10
-12.87377186287418
 20
-47.49999999999744
 30
0.0
 11
-12.87377186287273
 21
-52.39999999999745
 31
0.0
  0
LINE
  5
231
330
2
100
AcDbEntity
  8
GEB-KONTUR-A
 48
25.0
100
AcDbLine
 10
-12.87377186287418
 20
-47.49999999999744
 30
0.0
 11
-11.51790617974944
 21
-47.49999999999633
 31
0.0
  0
LINE
  5
232
330
2
100
AcDbEntity
  8
GEB-KONTUR-A
 48
25.0
100
AcDbLine
 10
-11.51790617974944
 20
-47.49999999999633
 30
0.0
 11
-8.81950808442761
 21
-47.49999999999565
 31
0.0
  0
LINE
  5
233
330
2
100
AcDbEntity
  8
GEB-KONTUR-A
 48
25.0
100
AcDbLine
 10
-11.51790617974944
 20
-47.49999999999633
 30
0.0
 11
-11.51790617974799
 21
-52.39999999999634
 31
0.0
  0
LINE
  5
234
330
2
100
AcDbEntity
  8
GEB-KONTUR-A
 48
25.0
100
AcDbLine
 10
-8.81950808442761
 20
-47.49999999999565
 30
0.0
 11
-8.819508084426161
 21
-52.39999999999565
 31
0.0
  0
LINE
  5
235
330
2
100
AcDbEntity
  8
GEB-KONTUR-A
 48
25.0
100
AcDbLine
 10
-8.81950808442761
 20
-47.49999999999565
 30
0.0
 11
-7.062231541156847
 21
-47.49999999999451
 31
0.0
  0
LINE
  5
236
330
2
100
AcDbEntity
  8
GEB-KONTUR-A
 48
25.0
100
AcDbLine
 10
-4.48177805943169
 20
-47.49999999999403
 30
0.0
 11
-2.379570970007591
 21
-47.49999999999289
 31
0.0
  0
LINE
  5
237
330
2
100
AcDbEntity
  8
GEB-KONTUR-A
 48
25.0
100
AcDbLine
 10
-2.379570970007591
 20
-47.49999999999289
 30
0.0
 11
-2.379570970006113
 21
-52.39999999999287
 31
0.0
  0
LINE
  5
238
330
2
100
AcDbEntity
  8
GEB-KONTUR-A
 48
25.0
100
AcDbLine
 10
-7.062231541156847
 20
-47.49999999999451
 30
0.0
 11
-4.48177805943169
 21
-47.49999999999403
 31
0.0
  0
LINE
  5
239
330
2
100
AcDbEntity
  8
GEB-KONTUR-A
 48
25.0
100
AcDbLine
 10
-4.48177805943169
 20
-47.49999999999403
 30
0.0
 11
-4.481778059430212
 21
-52.39999999999401
 31
0.0
  0
LINE
  5
23A
330
2
100
AcDbEntity
  8
GEB-KONTUR-A
 48
25.0
100
AcDbLine
 10
-7.062231541156847
 20
-47.49999999999451
 30
0.0
 11
-7.062231541155398
 21
-52.39999999999452
 31
0.0
  0
LINE
  5
23B
330
2
100
AcDbEntity
  8
GEB-KONTUR-A
 48
25.0
100
AcDbLine
 10
22.40000000002289
 20
-77.39999999999334
 30
0.0
 11
22.40000000002158
 21
-73.09999999999334
 31
0.0
  0
LINE
  5
23C
330
2
100
AcDbEntity
  8
GEB-KONTUR-A
 48
25.0
100
AcDbLine
 10
-22.39999999997701
 20
-77.40000000000662
 30
0.0
 11
-22.39999999997829
 21
-73.10000000000663
 31
0.0
  0
LINE
  5
23D
330
2
100
AcDbEntity
  8
GEB-KONTUR-A
 48
25.0
100
AcDbLine
 10
25.0000000000216
 20
-73.09999999999257
 30
0.0
 11
25.00000000002035
 21
-68.79999999999258
 31
0.0
  0
LINE
  5
23E
330
2
100
AcDbEntity
  8
GEB-KONTUR-A
 48
25.0
100
AcDbLine
 10
-24.99999999997829
 20
-73.10000000000741
 30
0.0
 11
-24.99999999997957
 21
-68.80000000000741
 31
0.0
  0
LINE
  5
23F
330
2
100
AcDbEntity
  8
GEB-KONTUR-A
 48
25.0
100
AcDbLine
 10
25.10000000001401
 20
-47.49999999999258
 30
0.0
 11
25.10000000001276
 21
-43.34251840538627
 31
0.0
  0
LINE
  5
240
330
2
100
AcDbEntity
  8
GEB-KONTUR-A
 48
25.0
100
AcDbLine
 10
-25.0999999999859
 20
-47.50000000000747
 30
0.0
 11
-25.09999999998712
 21
-43.34251840540116
 31
0.0
  0
LINE
  5
241
330
2
100
AcDbEntity
  8
GEB-KONTUR-A
 48
25.0
100
AcDbLine
 10
25.10000000001071
 20
-36.44251840538627
 30
0.0
 11
25.90000000001038
 21
-35.29999999999234
 31
0.0
  0
LINE
  5
242
330
2
100
AcDbEntity
  8
GEB-KONTUR-A
 48
25.0
100
AcDbLine
 10
-25.09999999998917
 20
-36.44251840540116
 30
0.0
 11
-25.89999999998952
 21
-35.30000000000772
 31
0.0
  0
LINE
  5
243
330
2
100
AcDbEntity
  8
GEB-KONTUR-A
 48
25.0
100
AcDbLine
 10
25.10000000001037
 20
-35.29999999999259
 30
0.0
 11
25.10000000001003
 21
-34.14251840538629
 31
0.0
  0
LINE
  5
244
330
2
100
AcDbEntity
  8
GEB-KONTUR-A
 48
25.0
100
AcDbLine
 10
-25.09999999998948
 20
-35.30000000000749
 30
0.0
 11
-25.09999999998985
 21
-34.14251840540115
 31
0.0
  0
LINE
  5
245
330
2
100
AcDbEntity
  8
GEB-KONTUR-A
 48
25.0
100
AcDbLine
 10
25.10000000001003
 20
-34.14251840538629
 30
0.0
 11
25.9000000000097
 21
-32.99999999999233
 31
0.0
  0
LINE
  5
246
330
2
100
AcDbEntity
  8
GEB-KONTUR-A
 48
25.0
100
AcDbLine
 10
-25.09999999998985
 20
-34.14251840540115
 30
0.0
 11
-25.89999999999017
 21
-33.0000000000077
 31
0.0
  0
LINE
  5
247
330
2
100
AcDbEntity
  8
GEB-KONTUR-A
 48
25.0
100
AcDbLine
 10
25.10000000000969
 20
-32.99999999999258
 30
0.0
 11
25.10000000000792
 21
-26.99999999999261
 31
0.0
  0
LINE
  5
248
330
2
100
AcDbEntity
  8
GEB-KONTUR-A
 48
25.0
100
AcDbLine
 10
-25.09999999999019
 20
-33.00000000000748
 30
0.0
 11
-25.09999999999198
 21
-27.00000000000748
 31
0.0
  0
ARC
  5
249
330
2
100
AcDbEntity
  8
GEB-KONTUR-A
 48
25.0
100
AcDbCircle
 10
-25.60772524395867
 20
-94.60000000000759
 30
0.0
 40
0.3999999999999997
100
AcDbArc
 50
190.0000000000168
 51
270.0000000000163
  0
ARC
  5
24A
330
2
100
AcDbEntity
  8
GEB-KONTUR-A
 48
25.0
100
AcDbCircle
 10
25.60772524401472
 20
-94.59999999999238
 30
0.0
 40
0.3999999999999997
100
AcDbArc
 50
270.0000000000196
 51
350.000000000018
  0
LINE
  5
24B
330
2
100
AcDbEntity
  8
GEB-KONTUR-A
 48
25.0
100
AcDbLine
 10
26.00164834521962
 20
-94.66945927105903
 30
0.0
 11
26.82500000002659
 21
-89.99999999999202
 31
0.0
  0
LINE
  5
24C
330
2
100
AcDbEntity
  8
GEB-KONTUR-A
 48
25.0
100
AcDbLine
 10
-26.00164834516355
 20
-94.66945927107445
 30
0.0
 11
-26.82499999997328
 21
-90.00000000000794
 31
0.0
  0
LINE
  5
24D
330
2
100
AcDbEntity
  8
GEB-KONTUR-A
 48
25.0
100
AcDbLine
 10
26.82500000002659
 20
-89.99999999999202
 30
0.0
 11
26.82500000002415
 21
-81.69999999999204
 31
0.0
  0
LINE
  5
24E
330
2
100
AcDbEntity
  8
GEB-KONTUR-A
 48
25.0
100
AcDbLine
 10
-26.82499999997328
 20
-90.00000000000794
 30
0.0
 11
-26.82499999997572
 21
-81.70000000000795
 31
0.0
  0
LINE
  5
24F
330
2
100
AcDbEntity
  8
GEB-KONTUR-A
 48
25.0
100
AcDbLine
 10
25.00000000002416
 20
-81.69999999999257
 30
0.0
 11
25.00000000002285
 21
-77.39999999999257
 31
0.0
  0
LINE
  5
250
330
2
100
AcDbEntity
  8
GEB-KONTUR-A
 48
25.0
100
AcDbLine
 10
-24.99999999997573
 20
-81.7000000000074
 30
0.0
 11
-24.99999999997701
 21
-77.4000000000074
 31
0.0
  0
LINE
  5
251
330
2
100
AcDbEntity
  8
GEB-KONTUR-A
 48
25.0
100
AcDbLine
 10
26.82500000002028
 20
-68.79999999999203
 30
0.0
 11
26.82500000001545
 21
-52.39999999999205
 31
0.0
  0
LINE
  5
252
330
2
100
AcDbEntity
  8
GEB-KONTUR-A
 48
25.0
100
AcDbLine
 10
-26.82499999997958
 20
-68.80000000000794
 30
0.0
 11
-26.82499999998444
 21
-52.40000000000796
 31
0.0
  0
LINE
  5
253
330
2
100
AcDbEntity
  8
GEB-KONTUR-A
 48
25.0
100
AcDbLine
 10
25.10000000001241
 20
-42.19999999999259
 30
0.0
 11
25.10000000001139
 21
-38.74251840538631
 31
0.0
  0
LINE
  5
254
330
2
100
AcDbEntity
  8
GEB-KONTUR-A
 48
25.0
100
AcDbLine
 10
-25.09999999998746
 20
-42.20000000000749
 30
0.0
 11
-25.09999999998849
 21
-38.74251840540117
 31
0.0
  0
LINE
  5
255
330
2
100
AcDbEntity
  8
GEB-KONTUR-A
 48
25.0
100
AcDbLine
 10
25.10000000001105
 20
-37.59999999999261
 30
0.0
 11
25.10000000001071
 21
-36.44251840538627
 31
0.0
  0
LINE
  5
256
330
2
100
AcDbEntity
  8
GEB-KONTUR-A
 48
25.0
100
AcDbLine
 10
-25.09999999998882
 20
-37.60000000000747
 30
0.0
 11
-25.09999999998917
 21
-36.44251840540116
 31
0.0
  0
LINE
  5
257
330
2
100
AcDbEntity
  8
GEB-KONTUR-A
 48
25.0
100
AcDbLine
 10
25.0000000000216
 20
-73.09999999999257
 30
0.0
 11
-24.99999999997829
 21
-73.1000000000074
 31
0.0
  0
LINE
  5
258
330
2
100
AcDbEntity
  8
GEB-KONTUR-A
 48
25.0
100
AcDbLine
 10
25.90000000001038
 20
-35.29999999999234
 30
0.0
 11
-25.89999999998946
 21
-35.30000000000772
 31
0.0
  0
LINE
  5
259
330
2
100
AcDbEntity
  8
GEB-KONTUR-A
 48
25.0
100
AcDbLine
 10
25.10000000001003
 20
-34.14251840538629
 30
0.0
 11
-25.09999999998985
 21
-34.14251840540115
 31
0.0
  0
LINE
  5
25A
330
2
100
AcDbEntity
  8
GEB-KONTUR-A
 48
25.0
100
AcDbLine
 10
25.9000000000097
 20
-32.99999999999233
 30
0.0
 11
-25.89999999999017
 21
-33.0000000000077
 31
0.0
  0
LINE
  5
25B
330
2
100
AcDbEntity
  8
GEB-KONTUR-A
 48
25.0
100
AcDbLine
 10
-25.60772524395853
 20
-95.00000000000758
 30
0.0
 11
25.60772524401483
 21
-94.99999999999237
 31
0.0
  0
LINE
  5
25C
330
2
100
AcDbEntity
  8
GEB-KONTUR-A
 48
25.0
100
AcDbLine
 10
26.82500000002659
 20
-89.99999999999202
 30
0.0
 11
-26.82499999997328
 21
-90.00000000000794
 31
0.0
  0
LINE
  5
25D
330
2
100
AcDbEntity
  8
GEB-KONTUR-A
 48
25.0
100
AcDbLine
 10
26.82500000002415
 20
-81.69999999999204
 30
0.0
 11
-26.82499999997572
 21
-81.70000000000795
 31
0.0
  0
LINE
  5
25E
330
2
100
AcDbEntity
  8
GEB-KONTUR-A
 48
25.0
100
AcDbLine
 10
25.00000000002285
 20
-77.39999999999257
 30
0.0
 11
-24.99999999997701
 21
-77.4000000000074
 31
0.0
  0
LINE
  5
25F
330
2
100
AcDbEntity
  8
GEB-KONTUR-A
 48
25.0
100
AcDbLine
 10
26.82500000002028
 20
-68.79999999999203
 30
0.0
 11
-26.82499999997958
 21
-68.80000000000794
 31
0.0
  0
LINE
  5
260
330
2
100
AcDbEntity
  8
GEB-KONTUR-A
 48
25.0
100
AcDbLine
 10
25.10000000001071
 20
-36.44251840538627
 30
0.0
 11
-25.09999999998917
 21
-36.44251840540116
 31
0.0
  0
LINE
  5
261
330
2
100
AcDbEntity
  8
GEB-KONTUR-A
 48
25.0
100
AcDbLine
 10
25.10000000001139
 20
-38.74251840538631
 30
0.0
 11
25.90000000001106
 21
-37.59999999999235
 31
0.0
  0
LINE
  5
262
330
2
100
AcDbEntity
  8
GEB-KONTUR-A
 48
25.0
100
AcDbLine
 10
-25.09999999998849
 20
-38.74251840540117
 30
0.0
 11
-25.89999999998878
 21
-37.60000000000772
 31
0.0
  0
LINE
  5
263
330
2
100
AcDbEntity
  8
GEB-KONTUR-A
 48
25.0
100
AcDbLine
 10
25.10000000001276
 20
-43.34251840538627
 30
0.0
 11
25.90000000001243
 21
-42.19999999999237
 31
0.0
  0
LINE
  5
264
330
2
100
AcDbEntity
  8
GEB-KONTUR-A
 48
25.0
100
AcDbLine
 10
-25.09999999998712
 20
-43.34251840540116
 30
0.0
 11
-25.89999999998744
 21
-42.20000000000775
 31
0.0
  0
LINE
  5
265
330
2
100
AcDbEntity
  8
GEB-KONTUR-A
 48
25.0
100
AcDbLine
 10
-25.89999999998878
 20
-37.60000000000772
 30
0.0
 11
25.90000000001106
 21
-37.59999999999235
 31
0.0
  0
LINE
  5
266
330
2
100
AcDbEntity
  8
GEB-KONTUR-A
 48
25.0
100
AcDbLine
 10
-25.09999999998849
 20
-38.74251840540117
 30
0.0
 11
25.10000000001139
 21
-38.74251840538628
 31
0.0
  0
LINE
  5
267
330
2
100
AcDbEntity
  8
GEB-KONTUR-A
 48
25.0
100
AcDbLine
 10
-25.89999999998744
 20
-42.20000000000775
 30
0.0
 11
25.90000000001243
 21
-42.19999999999237
 31
0.0
  0
LINE
  5
268
330
2
100
AcDbEntity
  8
GEB-KONTUR-A
 48
25.0
100
AcDbLine
 10
-25.09999999998712
 20
-43.34251840540114
 30
0.0
 11
25.10000000001276
 21
-43.34251840538624
 31
0.0
  0
LINE
  5
269
330
2
100
AcDbEntity
  8
GEB-KONTUR-A
 48
25.0
100
AcDbLine
 10
27.25000000000637
 20
-21.49999999999196
 30
0.0
 11
27.25000000000353
 21
-11.88138902595702
 31
0.0
  0
LINE
  5
26A
330
2
100
AcDbEntity
  8
GEB-KONTUR-A
 48
25.0
100
AcDbLine
 10
-27.24999999999364
 20
-21.50000000000813
 30
0.0
 11
-27.24999999999648
 21
-11.88138902597319
 31
0.0
  0
LINE
  5
26B
330
2
100
AcDbEntity
  8
GEB-KONTUR-A
 48
25.0
100
AcDbLine
 10
27.25000000000353
 20
-11.88138902595707
 30
0.0
 11
27.2499999999975
 21
8.401410750180872
 31
0.0
  0
LINE
  5
26C
330
2
100
AcDbEntity
  8
GEB-KONTUR-A
 48
25.0
100
AcDbLine
 10
-27.2500000000025
 20
8.401410750164728
 30
0.0
 11
-27.24999999999648
 21
-11.88138902597322
 31
0.0
  0
LINE
  5
26D
330
2
100
AcDbEntity
  8
GEB-KONTUR-A
 48
25.0
100
AcDbLine
 10
27.2499999999975
 20
8.401410750180872
 30
0.0
 11
27.24999999999545
 21
15.2027957955143
 31
0.0
  0
LINE
  5
26E
330
2
100
AcDbEntity
  8
GEB-KONTUR-A
 48
25.0
100
AcDbLine
 10
-27.25000000000253
 20
8.401410750164728
 30
0.0
 11
-27.25000000000455
 21
15.20279579549813
 31
0.0
  0
LINE
  5
26F
330
2
100
AcDbEntity
  8
GEB-VERDECKT
 48
25.0
100
AcDbLine
 10
19.700000000008
 20
-26.9999999999942
 30
0.0
 11
19.70000000000237
 21
-8.160007178744166
 31
0.0
  0
LINE
  5
270
330
2
100
AcDbEntity
  8
GEB-VERDECKT
 48
25.0
100
AcDbLine
 10
-19.69999999999203
 20
-27.00000000000589
 30
0.0
 11
-19.6999999999976
 21
-8.160007178755847
 31
0.0
  0
LINE
  5
271
330
2
100
AcDbEntity
  8
GEB-VERDECKT
 48
25.0
100
AcDbLine
 10
19.70000000000237
 20
-8.160007178744166
 30
0.0
 11
19.69999999999828
 21
5.769996410629119
 31
0.0
  0
LINE
  5
272
330
2
100
AcDbEntity
  8
GEB-VERDECKT
 48
25.0
100
AcDbLine
 10
-19.70000000000172
 20
5.769996410617437
 30
0.0
 11
-19.6999999999976
 21
-8.160007178755847
 31
0.0
  0
LINE
  5
273
330
2
100
AcDbEntity
  8
GEB-VERDECKT
 48
25.0
100
AcDbLine
 10
19.69999999999828
 20
5.769996410629119
 30
0.0
 11
19.6999999999943
 21
19.09188309203691
 31
0.0
  0
LINE
  5
274
330
2
100
AcDbEntity
  8
GEB-VERDECKT
 48
25.0
100
AcDbLine
 10
-19.70000000000175
 20
5.769996410617437
 30
0.0
 11
-19.7000000000057
 21
19.09188309202523
 31
0.0
  0
ELLIPSE
  5
275
330
2
100
AcDbEntity
  8
GEB-VERDECKT
 48
25.0
100
AcDbEllipse
 10
-0.0000000000056843
 20
19.09188309203111
 30
0.0
 11
19.69999999999999
 21
0.0000000000058441
 31
0.0
210
0.0
220
0.0
230
1.0
 40
0.7071067811867572
 41
0.0
 42
6.283185307179586
  0
LINE
  5
276
330
2
100
AcDbEntity
  8
GEB-KONTUR-A
 48
25.0
100
AcDbLine
 10
-33.12871870788345
 20
-21.50000000000986
 30
0.0
 11
-35.89999999999316
 21
-23.10000000001068
 31
0.0
  0
LINE
  5
277
330
2
100
AcDbEntity
  8
GEB-KONTUR-A
 48
25.0
100
AcDbLine
 10
33.12871870789616
 20
-21.49999999999022
 30
0.0
 11
35.90000000000685
 21
-23.0999999999894
 31
0.0
  0
LINE
  5
278
330
2
100
AcDbEntity
  8
GEB-KONTUR-A
 48
25.0
100
AcDbLine
 10
35.90000000000754
 20
-25.55662432701533
 30
0.0
 11
35.90000000000685
 21
-23.0999999999894
 31
0.0
  0
LINE
  5
279
330
2
100
AcDbEntity
  8
GEB-KONTUR-A
 48
25.0
100
AcDbLine
 10
-35.89999999999242
 20
-25.55662432703665
 30
0.0
 11
-35.89999999999316
 21
-23.10000000001068
 31
0.0
  0
LINE
  5
27A
330
2
100
AcDbEntity
  8
GEB-KONTUR-A
 48
25.0
100
AcDbLine
 10
33.40000000000799
 20
-26.99999999999011
 30
0.0
 11
35.90000000000754
 21
-25.55662432701533
 31
0.0
  0
LINE
  5
27B
330
2
100
AcDbEntity
  8
GEB-KONTUR-A
 48
25.0
100
AcDbLine
 10
-33.39999999999199
 20
-27.00000000000995
 30
0.0
 11
-35.89999999999242
 21
-25.55662432703665
 31
0.0
  0
LINE
  5
27C
330
2
100
AcDbEntity
  8
GEB-KONTUR-A
 48
25.0
100
AcDbLine
 10
33.12871870789616
 20
-21.49999999999022
 30
0.0
 11
-33.12871870788348
 21
-21.50000000000989
 31
0.0
  0
LINE
  5
27D
330
2
100
AcDbEntity
  8
GEB-KONTUR-A
 48
25.0
100
AcDbLine
 10
35.90000000000685
 20
-23.09999999998936
 30
0.0
 11
-35.89999999999316
 21
-23.10000000001068
 31
0.0
  0
LINE
  5
27E
330
2
100
AcDbEntity
  8
GEB-KONTUR-A
 48
25.0
100
AcDbLine
 10
33.40000000000799
 20
-26.99999999999011
 30
0.0
 11
-33.39999999999202
 21
-27.00000000000995
 31
0.0
  0
LINE
  5
27F
330
2
100
AcDbEntity
  8
GEB-KONTUR-A
 48
25.0
100
AcDbLine
 10
35.90000000000754
 20
-25.55662432701533
 30
0.0
 11
-35.89999999999245
 21
-25.55662432703665
 31
0.0
  0
LINE
  5
280
330
2
100
AcDbEntity
  8
GEB-KONTUR-A
 48
25.0
100
AcDbLine
 10
35.89999999999509
 20
16.33416664541499
 30
0.0
 11
35.89999999999463
 21
18.07126236588235
 31
0.0
  0
LINE
  5
281
330
2
100
AcDbEntity
  8
GEB-KONTUR-A
 48
25.0
100
AcDbLine
 10
-35.90000000000487
 20
16.33416664539371
 30
0.0
 11
-35.90000000000535
 21
18.07126236586109
 31
0.0
  0
ELLIPSE
  5
282
330
2
100
AcDbEntity
  8
GEB-KONTUR-A
 48
25.0
100
AcDbEllipse
 10
-0.0000000000054001
 20
18.07126236587172
 30
0.0
 11
-35.89999999999999
 21
-0.0000000000106587
 31
0.0
210
0.0
220
0.0
230
1.0
 40
0.7071067811867574
 41
3.141592653589792
 42
6.283185307179586
  0
ELLIPSE
  5
283
330
2
100
AcDbEntity
  8
GEB-KONTUR-A
 48
25.0
100
AcDbEllipse
 10
-0.0000000000048317
 20
16.33416664540436
 30
0.0
 11
-35.89999999999999
 21
-0.0000000000106559
 31
0.0
210
0.0
220
0.0
230
1.0
 40
0.7071067811867575
 41
2.432653469498393
 42
6.992124491270987
  0
ELLIPSE
  5
284
330
2
100
AcDbEntity
  8
GEB-KONTUR-A
 48
25.0
100
AcDbEllipse
 10
-0.0000000000045475
 20
15.2027957955062
 30
0.0
 11
27.25
 21
0.0000000000080794
 31
0.0
210
0.0
220
0.0
230
1.0
 40
0.7071067811867572
 41
0.0
 42
3.141592653589793
  0
ELLIPSE
  5
285
330
2
100
AcDbEntity
  8
GEB-KONTUR-A
 48
25.0
100
AcDbEllipse
 10
-0.0000000000045475
 20
15.2027957955062
 30
0.0
 11
-33.12871870788978
 21
-0.0000000000098344
 31
0.0
210
0.0
220
0.0
230
1.0
 40
0.7071067811867574
 41
2.536675417336447
 42
6.888102543432932
  0
ELLIPSE
  5
286
330
2
100
AcDbEntity
  8
GEB-VERDECKT
 48
25.0
100
AcDbEllipse
 10
-0.0000000000056843
 20
19.09188309203111
 30
0.0
 11
-33.39999999999999
 21
-0.0000000000099082
 31
0.0
210
0.0
220
0.0
230
1.0
 40
0.7071067811867574
 41
0.0
 42
6.283185307179586
  0
ELLIPSE
  5
287
330
2
100
AcDbEntity
  8
GEB-VERDECKT
 48
25.0
100
AcDbEllipse
 10
-0.0000000000054001
 20
18.07126236587172
 30
0.0
 11
35.89999999999999
 21
0.0000000000106543
 31
0.0
210
0.0
220
0.0
230
1.0
 40
0.7071067811867572
 41
3.141592653589793
 42
6.283185307179586
  0
ELLIPSE
  5
288
330
2
100
AcDbEntity
  8
GEB-VERDECKT
 48
25.0
100
AcDbEllipse
 10
-0.0000000000048885
 20
16.33416664540436
 30
0.0
 11
-35.9
 21
-0.0000000000080291
 31
0.0
210
0.0
220
0.0
230
1.0
 40
0.7071067811867575
 41
0.708939184091582
 42
2.432653469498569
  0
ELLIPSE
  5
289
330
2
100
AcDbEntity
  8
GEB-VERDECKT
 48
25.0
100
AcDbEllipse
 10
-0.0000000000045475
 20
15.2027957955062
 30
0.0
 11
-27.25
 21
-0.0000000000080816
 31
0.0
210
0.0
220
0.0
230
1.0
 40
0.7071067811867572
 41
0.0
 42
3.141592653589793
  0
ELLIPSE
  5
28A
330
2
100
AcDbEntity
  8
GEB-VERDECKT
 48
25.0
100
AcDbEllipse
 10
-0.0000000000045475
 20
15.2027957955062
 30
0.0
 11
-33.12871870788978
 21
-0.0000000000074118
 31
0.0
210
0.0
220
0.0
230
1.0
 40
0.7071067811867574
 41
0.6049172362535558
 42
2.536675417336656
  0
TEXT
  5
28B
330
2
100
AcDbEntity
  8
GEB-TEXT
100
AcDbText
 10
-30.5700886766761
 20
-105.5000000000076
 30
0.0
 40
3.5
  1
Winkel MEP PVDF 45G d63
 72
     1
 11
-0.0000000000048885
 21
-105.5000000000076
 31
0.0
100
AcDbText
  0
TEXT
  5
28D
330
2
100
AcDbEntity
  8
GEB-TEXT
100
AcDbText
 10
-15.35487721692167
 20
-100.0000000000076
 30
0.0
 40
3.5
  1
Geberit Mepla
 72
     1
 11
-0.0000000000048885
 21
-100.0000000000076
 31
0.0
100
AcDbText
  0
TEXT
  5
28E
330
2
100
AcDbEntity
  8
GEB-ART-NR
100
AcDbText
 10
-26.8752806103494
 20
-111.8427812542878
 30
0.0
 40
3.5
  1
GEB-ART-NR 627.245
 72
     1
 11
-2.147279246092921
 21
-111.8427812542878
 31
0.0
100
AcDbText
  0
ENDSEC
  0
SECTION
  2
OBJECTS
  0
DICTIONARY
  5
9
330
0
100
AcDbDictionary
281
     1
  3
ACAD_2007HEADERVARS_RT
350
345
  3
ACAD_COLOR
350
44
  3
ACAD_GROUP
350
31
  3
ACAD_LAYOUT
350
16
  3
ACAD_MATERIAL
350
B
  3
ACAD_MLEADERSTYLE
350
47
  3
ACAD_MLINESTYLE
350
32
  3
ACAD_PLOTSETTINGS
350
33
  3
ACAD_PLOTSTYLENAME
350
8
  3
ACAD_SCALELIST
350
45
  3
ACAD_TABLESTYLE
350
46
  3
ACAD_VISUALSTYLE
350
2B
  3
ACDB_RECOMPOSE_DATA
350
344
  3
AcDbVariableDictionary
350
2EE
  3
AcmDictionary
350
2A1
  3
AcmSystemVariableManager
350
35C
  3
AMG
350
292
  0
DICTIONARY
  5
2C
330
28
100
AcDbDictionary
280
     1
281
     1
  0
DICTIONARY
  5
1C
330
1B
100
AcDbDictionary
280
     1
281
     1
  3
ACAD_LAYERFILTERS
360
1D
  3
ACLYDICTIONARY
360
1E
  0
DICTIONARY
  5
3
330
2
100
AcDbDictionary
280
     1
281
     1
  3
ACAD_SORTENTS
360
290
  0
DICTIONARY
  5
345
102
{ACAD_REACTORS
330
9
102
}
330
9
100
AcDbDictionary
281
     1
  3
DIMARCSYM
350
346
  3
DIMLTEX1
350
348
  3
DIMLTEX2
350
349
  3
DIMLTYPE
350
347
  0
DICTIONARY
  5
44
102
{ACAD_REACTORS
330
9
102
}
330
9
100
AcDbDictionary
281
     1
  0
DICTIONARY
  5
31
102
{ACAD_REACTORS
330
9
102
}
330
9
100
AcDbDictionary
281
     1
  0
DICTIONARY
  5
16
102
{ACAD_REACTORS
330
9
102
}
330
9
100
AcDbDictionary
281
     1
  3
Layout1
350
1A
  3
Model
350
15
  0
DICTIONARY
  5
B
102
{ACAD_REACTORS
330
9
102
}
330
9
100
AcDbDictionary
281
     1
  3
ByBlock
350
3C
  3
ByLayer
350
34
  3
Global
350
A
  0
DICTIONARY
  5
47
102
{ACAD_REACTORS
330
9
102
}
330
9
100
AcDbDictionary
281
     1
  3
Standard
350
30C
  0
DICTIONARY
  5
32
102
{ACAD_REACTORS
330
9
102
}
330
9
100
AcDbDictionary
281
     1
  3
Standard
350
48
  0
DICTIONARY
  5
33
102
{ACAD_REACTORS
330
9
102
}
330
9
100
AcDbDictionary
281
     1
  0
ACDBDICTIONARYWDFLT
  5
8
102
{ACAD_REACTORS
330
9
102
}
330
9
100
AcDbDictionary
281
     1
  3
Normal
350
7
100
AcDbDictionaryWithDefault
340
7
  0
DICTIONARY
  5
45
102
{ACAD_REACTORS
330
9
102
}
330
9
100
AcDbDictionary
281
     1
  3
A0
350
4D
  3
A1
350
4E
  3
A2
350
4F
  3
A3
350
50
  3
A4
350
51
  3
A5
350
52
  3
A6
350
53
  3
A7
350
54
  3
A8
350
55
  3
A9
350
56
  3
B0
350
57
  3
B1
350
58
  3
B2
350
59
  3
B3
350
5A
  3
B4
350
5B
  3
B5
350
5C
  3
B6
350
5D
  3
B7
350
5E
  3
B8
350
5F
  3
B9
350
60
  3
C0
350
61
  3
C1
350
62
  3
C2
350
63
  3
C3
350
64
  3
C4
350
65
  3
C5
350
66
  3
C6
350
67
  3
C7
350
68
  3
C8
350
69
  3
C9
350
6A
  3
D0
350
6B
  3
D1
350
6C
  3
D2
350
6D
  0
DICTIONARY
  5
46
102
{ACAD_REACTORS
330
9
102
}
330
9
100
AcDbDictionary
281
     1
  3
Standard
350
49
  0
DICTIONARY
  5
2B
102
{ACAD_REACTORS
330
9
102
}
330
9
100
AcDbDictionary
281
     1
  3
2dWireframe
350
2A
  3
Basic
350
2FB
  3
Brighten
350
2FF
  3
ColorChange
350
303
  3
Conceptual
350
2FD
  3
Dim
350
2FE
  3
EdgeColorOff
350
30B
  3
Facepattern
350
302
  3
Flat
350
2F7
  3
FlatWithEdges
350
2F8
  3
Gouraud
350
2F9
  3
GouraudWithEdges
350
2FA
  3
Hidden
350
2FC
  3
JitterOff
350
309
  3
Linepattern
350
301
  3
OverhangOff
350
30A
  3
Realistic
350
4B
  3
Shaded
350
308
  3
Shaded with edges
350
307
  3
Shades of Gray
350
304
  3
Sketchy
350
305
  3
Thicken
350
300
  3
Wireframe
350
4C
  3
X-Ray
350
306
  0
XRECORD
  5
344
102
{ACAD_REACTORS
330
9
102
}
330
9
100
AcDbXrecord
280
     1
 90
        1
330
49
  0
DICTIONARY
  5
2EE
102
{ACAD_REACTORS
330
9
102
}
330
9
100
AcDbDictionary
281
     1
  3
CANNOSCALE
350
2F2
  3
CMLEADERSTYLE
350
2F0
  3
CTABLESTYLE
350
2EF
  3
DIMASSOC
350
341
  3
HIDETEXT
350
340
  3
INDEXCTL
350
33F
  3
LAYEREVAL
350
2F4
  3
LAYERNOTIFY
350
2F5
  3
LIGHTINGUNITS
350
2F3
  3
MSLTSCALE
350
2F1
  3
SORTENTS
350
33E
  3
XCLIPFRAME
350
342
  0
DICTIONARY
  5
2A1
102
{ACAD_REACTORS
330
9
102
}
330
9
100
AcDbDictionary
281
     1
  3
AcmStdDictionary
350
2A2
  0
DICTIONARY
  5
292
102
{ACAD_REACTORS
330
9
102
}
330
9
100
AcDbDictionary
281
     1
  3
AcMgSettings
350
29C
  0
DICTIONARY
  5
1D
102
{ACAD_REACTORS
330
1C
102
}
330
1C
100
AcDbDictionary
281
     1
  0
DICTIONARY
  5
1E
102
{ACAD_REACTORS
330
1C
102
}
330
1C
100
AcDbDictionary
281
     1
1001
ACAD
1000
<All
  0
SORTENTSTABLE
  5
290
102
{ACAD_REACTORS
330
3
102
}
330
3
100
AcDbSortentsTable
330
2
331
B4
  5
251
331
12E
  5
1D7
331
B0
  5
255
331
12A
  5
1DB
331
EF
  5
216
331
EB
  5
21A
331
165
  5
1A0
331
126
  5
1DF
331
AC
  5
259
331
A8
  5
25D
331
122
  5
1E3
331
161
  5
1A4
331
1A7
  5
15E
331
21D
  5
E8
331
1A3
  5
162
331
19F
  5
166
331
219
  5
EC
331
1DE
  5
127
331
73
  5
288
331
19B
  5
16A
331
254
  5
B1
331
215
  5
F0
331
1DA
  5
12B
331
250
  5
B5
331
211
  5
F4
331
288
  5
73
331
E7
  5
21E
331
E3
  5
222
331
A4
  5
261
331
15D
  5
1A8
331
11E
  5
1E7
331
A0
  5
265
331
159
  5
1AC
331
11A
  5
1EB
331
DF
  5
226
331
DB
  5
22A
331
155
  5
1B0
331
116
  5
1EF
331
9C
  5
269
331
98
  5
26D
331
112
  5
1F3
331
151
  5
1B4
331
1D6
  5
12F
331
197
  5
16E
331
1D2
  5
133
331
193
  5
172
331
20D
  5
F8
331
24C
  5
B9
331
1CE
  5
137
331
18F
  5
176
331
248
  5
BD
331
209
  5
FC
331
18B
  5
17A
331
244
  5
C1
331
205
  5
100
331
1CA
  5
13B
331
240
  5
C5
331
201
  5
104
331
284
  5
7E
331
280
  5
84
331
27C
  5
88
331
278
  5
8D
331
D7
  5
22E
331
D3
  5
232
331
94
  5
271
331
14D
  5
1B8
331
10E
  5
1F7
331
90
  5
275
331
149
  5
1BC
331
10A
  5
1FB
331
CF
  5
236
331
CB
  5
23A
331
145
  5
1C0
331
106
  5
1FF
331
8C
  5
279
331
88
  5
27C
331
102
  5
203
331
141
  5
1C4
331
1C6
  5
13F
331
187
  5
17E
331
1C2
  5
143
331
183
  5
182
331
1FD
  5
108
331
23C
  5
C9
331
1BE
  5
147
331
17F
  5
186
331
238
  5
CD
331
1F9
  5
10C
331
17B
  5
18A
331
234
  5
D1
331
1F5
  5
110
331
1BA
  5
14B
331
230
  5
D5
331
1F1
  5
114
331
274
  5
91
331
270
  5
95
331
26C
  5
99
331
268
  5
9D
331
C7
  5
23E
331
C3
  5
242
331
84
  5
280
331
FE
  5
207
331
13D
  5
1C8
331
80
  5
282
331
139
  5
1CC
331
FA
  5
20B
331
BF
  5
246
331
BB
  5
24A
331
135
  5
1D0
331
F6
  5
20F
331
7C
  5
285
331
131
  5
1D4
331
F2
  5
213
331
1B6
  5
14F
331
177
  5
18E
331
1B2
  5
153
331
173
  5
192
331
1ED
  5
118
331
22C
  5
D9
331
1AE
  5
157
331
16F
  5
196
331
1E9
  5
11C
331
228
  5
DD
331
16B
  5
19A
331
224
  5
E1
331
1E5
  5
120
331
1AA
  5
15B
331
220
  5
E5
331
1E1
  5
124
331
264
  5
A1
331
260
  5
A5
331
25C
  5
A9
331
258
  5
AD
331
B7
  5
24E
331
B3
  5
252
331
12D
  5
1D8
331
EE
  5
217
331
129
  5
1DC
331
AF
  5
256
331
EA
  5
21B
331
164
  5
1A1
331
125
  5
1E0
331
AB
  5
25A
331
121
  5
1E4
331
160
  5
1A5
331
1A6
  5
15F
331
21C
  5
E9
331
1A2
  5
163
331
19E
  5
167
331
257
  5
AE
331
218
  5
ED
331
1DD
  5
128
331
1D9
  5
12C
331
72
  5
289
331
253
  5
B2
331
214
  5
F1
331
19A
  5
16B
331
210
  5
F5
331
28B
  5
28E
331
E6
  5
21F
331
A7
  5
25E
331
A3
  5
262
331
15C
  5
1A9
331
11D
  5
1E8
331
E2
  5
223
331
9F
  5
266
331
158
  5
1AD
331
119
  5
1EC
331
DE
  5
227
331
DA
  5
22B
331
154
  5
1B1
331
115
  5
1F0
331
9B
  5
26A
331
111
  5
1F4
331
150
  5
1B5
331
1D5
  5
130
331
6E
  5
28A
331
24F
  5
B6
331
196
  5
16F
331
1D1
  5
134
331
192
  5
173
331
20C
  5
F9
331
24B
  5
BA
331
18E
  5
177
331
247
  5
BE
331
208
  5
FD
331
1CD
  5
138
331
18A
  5
17B
331
243
  5
C2
331
204
  5
101
331
1C9
  5
13C
331
200
  5
105
331
287
  5
74
331
283
  5
7F
331
27F
  5
85
331
27B
  5
89
331
D6
  5
22F
331
97
  5
26E
331
D2
  5
233
331
93
  5
272
331
14C
  5
1B9
331
10D
  5
1F8
331
8F
  5
276
331
148
  5
1BD
331
109
  5
1FC
331
CE
  5
237
331
144
  5
1C1
331
105
  5
200
331
CA
  5
23B
331
101
  5
204
331
140
  5
1C5
331
1C5
  5
140
331
23F
  5
C6
331
186
  5
17F
331
1C1
  5
144
331
182
  5
183
331
1FC
  5
109
331
23B
  5
CA
331
1BD
  5
148
331
17E
  5
187
331
237
  5
CE
331
1F8
  5
10D
331
17A
  5
18B
331
233
  5
D2
331
1F4
  5
111
331
1B9
  5
14C
331
1F0
  5
115
331
277
  5
8E
331
273
  5
92
331
26F
  5
96
331
26B
  5
9A
331
C6
  5
23F
331
87
  5
27D
331
C2
  5
243
331
13C
  5
1C9
331
FD
  5
208
331
7F
  5
283
331
138
  5
1CD
331
F9
  5
20C
331
BE
  5
247
331
134
  5
1D1
331
F5
  5
210
331
BA
  5
24B
331
F1
  5
214
331
130
  5
1D5
331
1B5
  5
150
331
22F
  5
D6
331
176
  5
18F
331
1B1
  5
154
331
172
  5
193
331
1EC
  5
119
331
22B
  5
DA
331
1AD
  5
158
331
16E
  5
197
331
227
  5
DE
331
1E8
  5
11D
331
16A
  5
19B
331
223
  5
E2
331
1E4
  5
121
331
1A9
  5
15C
331
1E0
  5
125
331
267
  5
9E
331
263
  5
A2
331
25F
  5
A6
331
25B
  5
AA
331
B6
  5
24F
331
B2
  5
253
331
12C
  5
1D9
331
ED
  5
218
331
167
  5
19E
331
128
  5
1DD
331
AE
  5
257
331
E9
  5
21C
331
AA
  5
25B
331
124
  5
1E1
331
163
  5
1A2
331
120
  5
1E5
331
21F
  5
E6
331
1A5
  5
160
331
1A1
  5
164
331
21B
  5
EA
331
19D
  5
168
331
1DC
  5
129
331
256
  5
AF
331
217
  5
EE
331
75
  5
286
331
1D8
  5
12D
331
252
  5
B3
331
213
  5
F2
331
199
  5
16C
331
28E
  5
28B
331
28A
  5
6E
331
E5
  5
220
331
A6
  5
25F
331
15F
  5
1A6
331
A2
  5
263
331
15B
  5
1AA
331
11C
  5
1E9
331
E1
  5
224
331
DD
  5
228
331
157
  5
1AE
331
118
  5
1ED
331
9E
  5
267
331
D9
  5
22C
331
153
  5
1B2
331
114
  5
1F1
331
9A
  5
26B
331
110
  5
1F5
331
1D4
  5
131
331
195
  5
170
331
20F
  5
F6
331
24E
  5
B7
331
1D0
  5
135
331
191
  5
174
331
20B
  5
FA
331
24A
  5
BB
331
18D
  5
178
331
246
  5
BF
331
207
  5
FE
331
1CC
  5
139
331
1C8
  5
13D
331
242
  5
C3
331
203
  5
102
331
189
  5
17C
331
286
  5
75
331
282
  5
80
331
27E
  5
86
331
27A
  5
8A
331
D5
  5
230
331
96
  5
26F
331
14F
  5
1B6
331
92
  5
273
331
14B
  5
1BA
331
10C
  5
1F9
331
D1
  5
234
331
8E
  5
277
331
147
  5
1BE
331
108
  5
1FD
331
CD
  5
238
331
C9
  5
23C
331
143
  5
1C2
331
104
  5
201
331
8A
  5
27A
331
100
  5
205
331
1C4
  5
141
331
23E
  5
C7
331
1FF
  5
106
331
185
  5
180
331
1C0
  5
145
331
181
  5
184
331
1FB
  5
10A
331
23A
  5
CB
331
17D
  5
188
331
236
  5
CF
331
1F7
  5
10E
331
1BC
  5
149
331
179
  5
18C
331
232
  5
D3
331
1F3
  5
112
331
1B8
  5
14D
331
276
  5
8F
331
272
  5
93
331
26E
  5
97
331
26A
  5
9B
331
C5
  5
240
331
86
  5
27E
331
13F
  5
1C6
331
C1
  5
244
331
13B
  5
1CA
331
FC
  5
209
331
7E
  5
284
331
137
  5
1CE
331
F8
  5
20D
331
BD
  5
248
331
133
  5
1D2
331
F4
  5
211
331
B9
  5
24C
331
F0
  5
215
331
1B4
  5
151
331
22E
  5
D7
331
1EF
  5
116
331
175
  5
190
331
1B0
  5
155
331
171
  5
194
331
1EB
  5
11A
331
22A
  5
DB
331
1AC
  5
159
331
16D
  5
198
331
226
  5
DF
331
1E7
  5
11E
331
169
  5
19C
331
222
  5
E3
331
1E3
  5
122
331
1A8
  5
15D
331
266
  5
9F
331
262
  5
A3
331
25E
  5
A7
331
25A
  5
AB
331
B5
  5
250
331
12F
  5
1D6
331
B1
  5
254
331
12B
  5
1DA
331
EC
  5
219
331
166
  5
19F
331
127
  5
1DE
331
AD
  5
258
331
E8
  5
21D
331
A9
  5
25C
331
123
  5
1E2
331
162
  5
1A3
331
21E
  5
E7
331
1A4
  5
161
331
1DF
  5
126
331
1A0
  5
165
331
21A
  5
EB
331
74
  5
287
331
19C
  5
169
331
255
  5
B0
331
216
  5
EF
331
1DB
  5
12A
331
251
  5
B4
331
212
  5
F3
331
198
  5
16D
331
289
  5
72
331
E4
  5
221
331
A5
  5
260
331
15E
  5
1A7
331
11F
  5
1E6
331
A1
  5
264
331
15A
  5
1AB
331
11B
  5
1EA
331
E0
  5
225
331
DC
  5
229
331
156
  5
1AF
331
117
  5
1EE
331
9D
  5
268
331
D8
  5
22D
331
99
  5
26C
331
113
  5
1F2
331
152
  5
1B3
331
1D7
  5
12E
331
1D3
  5
132
331
194
  5
171
331
20E
  5
F7
331
24D
  5
B8
331
1CF
  5
136
331
190
  5
175
331
249
  5
BC
331
20A
  5
FB
331
18C
  5
179
331
245
  5
C0
331
206
  5
FF
331
1CB
  5
13A
331
241
  5
C4
331
202
  5
103
331
188
  5
17D
331
285
  5
7C
331
281
  5
81
331
27D
  5
87
331
279
  5
8C
331
D4
  5
231
331
95
  5
270
331
10F
  5
1F6
331
14E
  5
1B7
331
91
  5
274
331
14A
  5
1BB
331
10B
  5
1FA
331
D0
  5
235
331
CC
  5
239
331
146
  5
1BF
331
107
  5
1FE
331
8D
  5
278
331
C8
  5
23D
331
142
  5
1C3
331
103
  5
202
331
89
  5
27B
331
1C7
  5
13E
331
1C3
  5
142
331
184
  5
181
331
1FE
  5
107
331
23D
  5
C8
331
1BF
  5
146
331
180
  5
185
331
1FA
  5
10B
331
239
  5
CC
331
17C
  5
189
331
235
  5
D0
331
1F6
  5
10F
331
1BB
  5
14A
331
231
  5
D4
331
1F2
  5
113
331
178
  5
18D
331
275
  5
90
331
271
  5
94
331
26D
  5
98
331
269
  5
9C
331
C4
  5
241
331
85
  5
27F
331
FF
  5
206
331
13E
  5
1C7
331
81
  5
281
331
13A
  5
1CB
331
FB
  5
20A
331
C0
  5
245
331
136
  5
1CF
331
F7
  5
20E
331
BC
  5
249
331
132
  5
1D3
331
F3
  5
212
331
B8
  5
24D
331
1B7
  5
14E
331
1B3
  5
152
331
22D
  5
D8
331
1EE
  5
117
331
174
  5
191
331
1AF
  5
156
331
170
  5
195
331
1EA
  5
11B
331
229
  5
DC
331
16C
  5
199
331
225
  5
E0
331
1E6
  5
11F
331
1AB
  5
15A
331
168
  5
19D
331
221
  5
E4
331
1E2
  5
123
331
265
  5
A0
331
261
  5
A4
331
25D
  5
A8
331
259
  5
AC
  0
XRECORD
  5
346
102
{ACAD_REACTORS
330
345
102
}
330
345
100
AcDbXrecord
280
     1
 70
     1
  0
XRECORD
  5
348
102
{ACAD_REACTORS
330
345
102
}
330
345
100
AcDbXrecord
280
     1
340
24
  0
XRECORD
  5
349
102
{ACAD_REACTORS
330
345
102
}
330
345
100
AcDbXrecord
280
     1
340
24
  0
XRECORD
  5
347
102
{ACAD_REACTORS
330
345
102
}
330
345
100
AcDbXrecord
280
     1
340
24
  0
LAYOUT
  5
1A
102
{ACAD_XDICTIONARY
360
34D
102
}
102
{ACAD_REACTORS
330
16
102
}
330
16
100
AcDbPlotSettings
  1

  2
\\le-server\HP LaserJet 2100
  4

  6

 40
0.0
 41
0.0
 42
0.0
 43
0.0
 44
0.0
 45
0.0
 46
0.0
 47
0.0
 48
0.0
 49
0.0
140
0.0
141
0.0
142
1.0
143
1.0
 70
   688
 72
     0
 73
     0
 74
     5
  7

 75
    16
147
1.0
148
0.0
149
0.0
100
AcDbLayout
  1
Layout1
 70
     1
 71
     1
 10
0.0
 20
0.0
 11
1189.0
 21
840.9999999999998
 12
0.0
 22
0.0
 32
0.0
 14
0.0
 24
0.0
 34
0.0
 15
1189.0
 25
840.9999999999998
 35
0.0
146
0.0
 13
0.0
 23
0.0
 33
0.0
 16
1.0
 26
0.0
 36
0.0
 17
0.0
 27
1.0
 37
0.0
 76
     0
330
17
  0
LAYOUT
  5
15
102
{ACAD_XDICTIONARY
360
34B
102
}
102
{ACAD_REACTORS
330
16
102
}
330
16
100
AcDbPlotSettings
  1

  2
\\le-server\HP LaserJet 2100
  4

  6

 40
0.0
 41
0.0
 42
0.0
 43
0.0
 44
0.0
 45
0.0
 46
0.0
 47
0.0
 48
0.0
 49
0.0
140
0.0
141
0.0
142
1.0
143
1.0
 70
  1712
 72
     0
 73
     0
 74
     0
  7

 75
     0
147
1.0
148
0.0
149
0.0
100
AcDbLayout
  1
Model
 70
     1
 71
     0
 10
0.0
 20
0.0
 11
12.0
 21
9.0
 12
0.0
 22
0.0
 32
0.0
 14
0.0
 24
0.0
 34
0.0
 15
0.0
 25
0.0
 35
0.0
146
0.0
 13
0.0
 23
0.0
 33
0.0
 16
1.0
 26
0.0
 36
0.0
 17
0.0
 27
1.0
 37
0.0
 76
     0
330
2
331
29
  0
MATERIAL
  5
3C
102
{ACAD_XDICTIONARY
360
3D
102
}
102
{ACAD_REACTORS
330
B
102
}
330
B
100
AcDbMaterial
  1
ByBlock
 72
     0
 43
0.0208333333333333
 43
0.0
 43
0.0
 43
0.0
 43
0.0
 43
0.0208333333333333
 43
0.0
 43
0.0
 43
0.0
 43
0.0
 43
1.0
 43
0.0
 43
0.0
 43
0.0
 43
0.0
 43
1.0
 77
     0
 47
0.0208333333333333
 47
0.0
 47
0.0
 47
0.0
 47
0.0
 47
0.0208333333333333
 47
0.0
 47
0.0
 47
0.0
 47
0.0
 47
1.0
 47
0.0
 47
0.0
 47
0.0
 47
0.0
 47
1.0
171
     0
 49
0.0208333333333333
 49
0.0
 49
0.0
 49
0.0
 49
0.0
 49
0.0208333333333333
 49
0.0
 49
0.0
 49
0.0
 49
0.0
 49
1.0
 49
0.0
 49
0.0
 49
0.0
 49
0.0
 49
1.0
175
     0
142
0.0208333333333333
142
0.0
142
0.0
142
0.0
142
0.0
142
0.0208333333333333
142
0.0
142
0.0
142
0.0
142
0.0
142
1.0
142
0.0
142
0.0
142
0.0
142
0.0
142
1.0
179
     0
144
0.0208333333333333
144
0.0
144
0.0
144
0.0
144
0.0
144
0.0208333333333333
144
0.0
144
0.0
144
0.0
144
0.0
144
1.0
144
0.0
144
0.0
144
0.0
144
0.0
144
1.0
147
0.0208333333333333
147
0.0
147
0.0
147
0.0
147
0.0
147
0.0208333333333333
147
0.0
147
0.0
147
0.0
147
0.0
147
1.0
147
0.0
147
0.0
147
0.0
147
0.0
147
1.0
  0
MATERIAL
  5
34
102
{ACAD_XDICTIONARY
360
35
102
}
102
{ACAD_REACTORS
330
B
102
}
330
B
100
AcDbMaterial
  1
ByLayer
 72
     0
 43
0.0208333333333333
 43
0.0
 43
0.0
 43
0.0
 43
0.0
 43
0.0208333333333333
 43
0.0
 43
0.0
 43
0.0
 43
0.0
 43
1.0
 43
0.0
 43
0.0
 43
0.0
 43
0.0
 43
1.0
 77
     0
 47
0.0208333333333333
 47
0.0
 47
0.0
 47
0.0
 47
0.0
 47
0.0208333333333333
 47
0.0
 47
0.0
 47
0.0
 47
0.0
 47
1.0
 47
0.0
 47
0.0
 47
0.0
 47
0.0
 47
1.0
171
     0
 49
0.0208333333333333
 49
0.0
 49
0.0
 49
0.0
 49
0.0
 49
0.0208333333333333
 49
0.0
 49
0.0
 49
0.0
 49
0.0
 49
1.0
 49
0.0
 49
0.0
 49
0.0
 49
0.0
 49
1.0
175
     0
142
0.0208333333333333
142
0.0
142
0.0
142
0.0
142
0.0
142
0.0208333333333333
142
0.0
142
0.0
142
0.0
142
0.0
142
1.0
142
0.0
142
0.0
142
0.0
142
0.0
142
1.0
179
     0
144
0.0208333333333333
144
0.0
144
0.0
144
0.0
144
0.0
144
0.0208333333333333
144
0.0
144
0.0
144
0.0
144
0.0
144
1.0
144
0.0
144
0.0
144
0.0
144
0.0
144
1.0
147
0.0208333333333333
147
0.0
147
0.0
147
0.0
147
0.0
147
0.0208333333333333
147
0.0
147
0.0
147
0.0
147
0.0
147
1.0
147
0.0
147
0.0
147
0.0
147
0.0
147
1.0
  0
MATERIAL
  5
A
102
{ACAD_XDICTIONARY
360
C
102
}
102
{ACAD_REACTORS
330
B
102
}
330
B
100
AcDbMaterial
  1
Global
 72
     0
 43
0.0208333333333333
 43
0.0
 43
0.0
 43
0.0
 43
0.0
 43
0.0208333333333333
 43
0.0
 43
0.0
 43
0.0
 43
0.0
 43
1.0
 43
0.0
 43
0.0
 43
0.0
 43
0.0
 43
1.0
 77
     0
 47
0.0208333333333333
 47
0.0
 47
0.0
 47
0.0
 47
0.0
 47
0.0208333333333333
 47
0.0
 47
0.0
 47
0.0
 47
0.0
 47
1.0
 47
0.0
 47
0.0
 47
0.0
 47
0.0
 47
1.0
171
     0
 49
0.0208333333333333
 49
0.0
 49
0.0
 49
0.0
 49
0.0
 49
0.0208333333333333
 49
0.0
 49
0.0
 49
0.0
 49
0.0
 49
1.0
 49
0.0
 49
0.0
 49
0.0
 49
0.0
 49
1.0
175
     0
142
0.0208333333333333
142
0.0
142
0.0
142
0.0
142
0.0
142
0.0208333333333333
142
0.0
142
0.0
142
0.0
142
0.0
142
1.0
142
0.0
142
0.0
142
0.0
142
0.0
142
1.0
179
     0
144
0.0208333333333333
144
0.0
144
0.0
144
0.0
144
0.0
144
0.0208333333333333
144
0.0
144
0.0
144
0.0
144
0.0
144
1.0
144
0.0
144
0.0
144
0.0
144
0.0
144
1.0
147
0.0208333333333333
147
0.0
147
0.0
147
0.0
147
0.0
147
0.0208333333333333
147
0.0
147
0.0
147
0.0
147
0.0
147
1.0
147
0.0
147
0.0
147
0.0
147
0.0
147
1.0
  0
MLEADERSTYLE
  5
30C
102
{ACAD_REACTORS
330
47
102
}
330
47
100
AcDbMLeaderStyle
170
     2
171
     1
172
     0
 90
        2
 40
0.0
 41
0.0
173
     1
 91
-1056964608
340
24
 92
       -2
290
     1
 42
2.0
291
     1
 43
0.36
  3
Standard
 44
4.0
300

342
21
174
     1
178
     6
175
     1
176
     0
 93
-1056964608
 45
4.0
292
     0
297
     0
 46
4.0
 94
-1056964608
 47
1.0
 49
1.0
140
1.0
293
     1
141
0.0
294
     1
177
     0
142
1.0
295
     0
296
     0
143
0.125
1001
ACAD_MLEADERVER
1070
     2
  0
MLINESTYLE
  5
48
102
{ACAD_REACTORS
330
32
102
}
330
32
100
AcDbMlineStyle
  2
STANDARD
 70
     0
  3

 62
   256
 51
90.0
 52
90.0
 71
     2
 49
0.5
 62
   256
  6
BYLAYER
 49
-0.5
 62
   256
  6
BYLAYER
  0
ACDBPLACEHOLDER
  5
7
102
{ACAD_REACTORS
330
8
102
}
330
8
  0
SCALE
  5
4D
102
{ACAD_REACTORS
330
45
102
}
330
45
100
AcDbScale
 70
     0
300
1:1
140
1.0
141
1.0
290
     1
  0
SCALE
  5
4E
102
{ACAD_REACTORS
330
45
102
}
330
45
100
AcDbScale
 70
     0
300
1:2
140
1.0
141
2.0
290
     0
  0
SCALE
  5
4F
102
{ACAD_REACTORS
330
45
102
}
330
45
100
AcDbScale
 70
     0
300
1:4
140
1.0
141
4.0
290
     0
  0
SCALE
  5
50
102
{ACAD_REACTORS
330
45
102
}
330
45
100
AcDbScale
 70
     0
300
1:5
140
1.0
141
5.0
290
     0
  0
SCALE
  5
51
102
{ACAD_REACTORS
330
45
102
}
330
45
100
AcDbScale
 70
     0
300
1:8
140
1.0
141
8.0
290
     0
  0
SCALE
  5
52
102
{ACAD_REACTORS
330
45
102
}
330
45
100
AcDbScale
 70
     0
300
1:10
140
1.0
141
10.0
290
     0
  0
SCALE
  5
53
102
{ACAD_REACTORS
330
45
102
}
330
45
100
AcDbScale
 70
     0
300
1:16
140
1.0
141
16.0
290
     0
  0
SCALE
  5
54
102
{ACAD_REACTORS
330
45
102
}
330
45
100
AcDbScale
 70
     0
300
1:20
140
1.0
141
20.0
290
     0
  0
SCALE
  5
55
102
{ACAD_REACTORS
330
45
102
}
330
45
100
AcDbScale
 70
     0
300
1:30
140
1.0
141
30.0
290
     0
  0
SCALE
  5
56
102
{ACAD_REACTORS
330
45
102
}
330
45
100
AcDbScale
 70
     0
300
1:40
140
1.0
141
40.0
290
     0
  0
SCALE
  5
57
102
{ACAD_REACTORS
330
45
102
}
330
45
100
AcDbScale
 70
     0
300
1:50
140
1.0
141
50.0
290
     0
  0
SCALE
  5
58
102
{ACAD_REACTORS
330
45
102
}
330
45
100
AcDbScale
 70
     0
300
1:100
140
1.0
141
100.0
290
     0
  0
SCALE
  5
59
102
{ACAD_REACTORS
330
45
102
}
330
45
100
AcDbScale
 70
     0
300
2:1
140
2.0
141
1.0
290
     0
  0
SCALE
  5
5A
102
{ACAD_REACTORS
330
45
102
}
330
45
100
AcDbScale
 70
     0
300
4:1
140
4.0
141
1.0
290
     0
  0
SCALE
  5
5B
102
{ACAD_REACTORS
330
45
102
}
330
45
100
AcDbScale
 70
     0
300
8:1
140
8.0
141
1.0
290
     0
  0
SCALE
  5
5C
102
{ACAD_REACTORS
330
45
102
}
330
45
100
AcDbScale
 70
     0
300
10:1
140
10.0
141
1.0
290
     0
  0
SCALE
  5
5D
102
{ACAD_REACTORS
330
45
102
}
330
45
100
AcDbScale
 70
     0
300
100:1
140
100.0
141
1.0
290
     0
  0
SCALE
  5
5E
102
{ACAD_REACTORS
330
45
102
}
330
45
100
AcDbScale
 70
     0
300
1/128" = 1'-0"
140
0.0078125
141
12.0
290
     0
  0
SCALE
  5
5F
102
{ACAD_REACTORS
330
45
102
}
330
45
100
AcDbScale
 70
     0
300
1/64" = 1'-0"
140
0.015625
141
12.0
290
     0
  0
SCALE
  5
60
102
{ACAD_REACTORS
330
45
102
}
330
45
100
AcDbScale
 70
     0
300
1/32" = 1'-0"
140
0.03125
141
12.0
290
     0
  0
SCALE
  5
61
102
{ACAD_REACTORS
330
45
102
}
330
45
100
AcDbScale
 70
     0
300
1/16" = 1'-0"
140
0.0625
141
12.0
290
     0
  0
SCALE
  5
62
102
{ACAD_REACTORS
330
45
102
}
330
45
100
AcDbScale
 70
     0
300
3/32" = 1'-0"
140
0.09375
141
12.0
290
     0
  0
SCALE
  5
63
102
{ACAD_REACTORS
330
45
102
}
330
45
100
AcDbScale
 70
     0
300
1/8" = 1'-0"
140
0.125
141
12.0
290
     0
  0
SCALE
  5
64
102
{ACAD_REACTORS
330
45
102
}
330
45
100
AcDbScale
 70
     0
300
3/16" = 1'-0"
140
0.1875
141
12.0
290
     0
  0
SCALE
  5
65
102
{ACAD_REACTORS
330
45
102
}
330
45
100
AcDbScale
 70
     0
300
1/4" = 1'-0"
140
0.25
141
12.0
290
     0
  0
SCALE
  5
66
102
{ACAD_REACTORS
330
45
102
}
330
45
100
AcDbScale
 70
     0
300
3/8" = 1'-0"
140
0.375
141
12.0
290
     0
  0
SCALE
  5
67
102
{ACAD_REACTORS
330
45
102
}
330
45
100
AcDbScale
 70
     0
300
1/2" = 1'-0"
140
0.5
141
12.0
290
     0
  0
SCALE
  5
68
102
{ACAD_REACTORS
330
45
102
}
330
45
100
AcDbScale
 70
     0
300
3/4" = 1'-0"
140
0.75
141
12.0
290
     0
  0
SCALE
  5
69
102
{ACAD_REACTORS
330
45
102
}
330
45
100
AcDbScale
 70
     0
300
1" = 1'-0"
140
1.0
141
12.0
290
     0
  0
SCALE
  5
6A
102
{ACAD_REACTORS
330
45
102
}
330
45
100
AcDbScale
 70
     0
300
1-1/2" = 1'-0"
140
1.5
141
12.0
290
     0
  0
SCALE
  5
6B
102
{ACAD_REACTORS
330
45
102
}
330
45
100
AcDbScale
 70
     0
300
3" = 1'-0"
140
3.0
141
12.0
290
     0
  0
SCALE
  5
6C
102
{ACAD_REACTORS
330
45
102
}
330
45
100
AcDbScale
 70
     0
300
6" = 1'-0"
140
6.0
141
12.0
290
     0
  0
SCALE
  5
6D
102
{ACAD_REACTORS
330
45
102
}
330
45
100
AcDbScale
 70
     0
300
1'-0" = 1'-0"
140
12.0
141
12.0
290
     0
  0
TABLESTYLE
  5
49
102
{ACAD_XDICTIONARY
360
4A
102
}
102
{ACAD_REACTORS
330
46
102
}
330
46
100
AcDbTableStyle
  3
Standard
 70
     0
 71
     0
 40
0.06
 41
0.06
280
     0
281
     0
  7
STANDARD
140
0.18
170
     2
 62
     0
 63
     7
283
     0
274
    -2
284
     1
 64
     0
275
    -2
285
     1
 65
     0
276
    -2
286
     1
 66
     0
277
    -2
287
     1
 67
     0
278
    -2
288
     1
 68
     0
279
    -2
289
     1
 69
     0
  7
STANDARD
140
0.25
170
     5
 62
     0
 63
     7
283
     0
274
    -2
284
     1
 64
     0
275
    -2
285
     1
 65
     0
276
    -2
286
     1
 66
     0
277
    -2
287
     1
 67
     0
278
    -2
288
     1
 68
     0
279
    -2
289
     1
 69
     0
  7
STANDARD
140
0.18
170
     5
 62
     0
 63
     7
283
     0
274
    -2
284
     1
 64
     0
275
    -2
285
     1
 65
     0
276
    -2
286
     1
 66
     0
277
    -2
287
     1
 67
     0
278
    -2
288
     1
 68
     0
279
    -2
289
     1
 69
     0
  0
VISUALSTYLE
  5
2A
102
{ACAD_XDICTIONARY
360
34F
102
}
102
{ACAD_REACTORS
330
2B
102
}
330
2B
100
AcDbVisualStyle
  2
2dWireframe
 70
     4
 71
     0
 72
     2
 73
     0
 90
        0
 40
-0.6
 41
-30.0
 62
     5
 63
     7
 74
     1
 91
        4
 64
     7
 65
   257
 75
     1
175
     1
 42
1.0
 92
        0
 66
   257
 43
1.0
 76
     1
 77
     6
 78
     2
 67
     7
 79
     5
170
     0
171
     0
290
     0
174
     0
 93
        1
 44
0.0
173
     0
291
     0
 45
0.0
1001
ACAD
1000
AcDbSavedByObjectVersion
1070
     0
  0
VISUALSTYLE
  5
2FB
102
{ACAD_XDICTIONARY
360
366
102
}
102
{ACAD_REACTORS
330
2B
102
}
330
2B
100
AcDbVisualStyle
  2
Basic
 70
     7
 71
     1
 72
     0
 73
     1
 90
        0
 40
-0.6
 41
-30.0
 62
     5
 63
     7
 74
     0
 91
        4
 64
     7
 65
   257
 75
     1
175
     1
 42
1.0
 92
        8
 66
     7
 43
1.0
 76
     1
 77
     6
 78
     2
 67
     7
 79
     5
170
     0
171
     0
290
     0
174
     0
 93
        1
 44
0.0
173
     0
291
     1
 45
0.0
1001
ACAD
1000
AcDbSavedByObjectVersion
1070
     0
  0
VISUALSTYLE
  5
2FF
102
{ACAD_XDICTIONARY
360
36E
102
}
102
{ACAD_REACTORS
330
2B
102
}
330
2B
100
AcDbVisualStyle
  2
Brighten
 70
    12
 71
     2
 72
     2
 73
     0
 90
        0
 40
-0.6
 41
-30.0
 62
     5
 63
     7
 74
     1
 91
        4
 64
     7
 65
   257
 75
     1
175
     1
 42
1.0
 92
        8
 66
     7
 43
1.0
 76
     1
 77
     6
 78
     2
 67
     7
 79
     5
170
     0
171
     0
290
     0
174
     0
 93
        1
 44
50.0
173
     0
291
     1
 45
0.0
1001
ACAD
1000
AcDbSavedByObjectVersion
1070
     0
  0
VISUALSTYLE
  5
303
102
{ACAD_XDICTIONARY
360
376
102
}
102
{ACAD_REACTORS
330
2B
102
}
330
2B
100
AcDbVisualStyle
  2
ColorChange
 70
    16
 71
     2
 72
     2
 73
     3
 90
        0
 40
-0.6
 41
-30.0
 62
     5
 63
     8
 74
     1
 91
        4
 64
     7
 65
   257
 75
     1
175
     1
 42
1.0
 92
        8
 66
     8
 43
1.0
 76
     1
 77
     6
 78
     2
 67
     7
 79
     5
170
     0
171
     0
290
     0
174
     0
 93
        1
 44
0.0
173
     0
291
     1
 45
0.0
1001
ACAD
1000
AcDbSavedByObjectVersion
1070
     0
  0
VISUALSTYLE
  5
2FD
102
{ACAD_XDICTIONARY
360
36A
102
}
102
{ACAD_REACTORS
330
2B
102
}
330
2B
100
AcDbVisualStyle
  2
Conceptual
 70
     9
 71
     3
 72
     2
 73
     0
 90
        0
 40
-0.6
 41
-30.0
 62
     5
 63
     7
 74
     2
 91
        2
 64
     7
 65
   257
 75
     1
175
     1
 42
179.0
 92
        8
 66
     7
 43
1.0
 76
     1
 77
     6
 78
     2
 67
     7
 79
     3
170
     0
171
     0
290
     0
174
     0
 93
        1
 44
0.0
173
     0
291
     0
 45
0.0
1001
ACAD
1000
AcDbSavedByObjectVersion
1070
     0
  0
VISUALSTYLE
  5
2FE
102
{ACAD_XDICTIONARY
360
36C
102
}
102
{ACAD_REACTORS
330
2B
102
}
330
2B
100
AcDbVisualStyle
  2
Dim
 70
    11
 71
     2
 72
     2
 73
     0
 90
        0
 40
-0.6
 41
-30.0
 62
     5
 63
     7
 74
     1
 91
        4
 64
     7
 65
   257
 75
     1
175
     1
 42
1.0
 92
        8
 66
     7
 43
1.0
 76
     1
 77
     6
 78
     2
 67
     7
 79
     5
170
     0
171
     0
290
     0
174
     0
 93
        1
 44
-50.0
173
     0
291
     1
 45
0.0
1001
ACAD
1000
AcDbSavedByObjectVersion
1070
     0
  0
VISUALSTYLE
  5
30B
102
{ACAD_XDICTIONARY
360
386
102
}
102
{ACAD_REACTORS
330
2B
102
}
330
2B
100
AcDbVisualStyle
  2
EdgeColorOff
 70
    22
 71
     2
 72
     2
 73
     0
 90
        0
 40
-0.6
 41
-30.0
 62
     5
 63
     7
 74
     1
 91
        4
 64
     7
 65
   257
 75
     1
175
     1
 42
1.0
 92
        8
 66
     7
 43
1.0
 76
     1
 77
     6
 78
     2
 67
     7
 79
     5
170
     0
171
     0
290
     0
174
     0
 93
        1
 44
0.0
173
     0
291
     1
 45
0.0
1001
ACAD
1000
AcDbSavedByObjectVersion
1070
     0
  0
VISUALSTYLE
  5
302
102
{ACAD_XDICTIONARY
360
374
102
}
102
{ACAD_REACTORS
330
2B
102
}
330
2B
100
AcDbVisualStyle
  2
Facepattern
 70
    15
 71
     2
 72
     2
 73
     0
 90
        0
 40
-0.6
 41
-30.0
 62
     5
 63
     7
 74
     1
 91
        4
 64
     7
 65
   257
 75
     1
175
     1
 42
1.0
 92
        8
 66
     7
 43
1.0
 76
     1
 77
     6
 78
     2
 67
     7
 79
     5
170
     0
171
     0
290
     0
174
     0
 93
        1
 44
0.0
173
     0
291
     1
 45
0.0
1001
ACAD
1000
AcDbSavedByObjectVersion
1070
     0
  0
VISUALSTYLE
  5
2F7
102
{ACAD_XDICTIONARY
360
35E
102
}
102
{ACAD_REACTORS
330
2B
102
}
330
2B
100
AcDbVisualStyle
  2
Flat
 70
     0
 71
     2
 72
     1
 73
     1
 90
        2
 40
-0.6
 41
30.0
 62
     5
 63
     7
 74
     0
 91
        0
 64
     7
 65
   257
 75
     1
175
     1
 42
1.0
 92
        8
 66
     7
 43
1.0
 76
     1
 77
     6
 78
     2
 67
     7
 79
     5
170
     0
171
     0
290
     0
174
     0
 93
       13
 44
0.0
173
     0
291
     1
 45
0.0
1001
ACAD
1000
AcDbSavedByObjectVersion
1070
     0
  0
VISUALSTYLE
  5
2F8
102
{ACAD_XDICTIONARY
360
360
102
}
102
{ACAD_REACTORS
330
2B
102
}
330
2B
100
AcDbVisualStyle
  2
FlatWithEdges
 70
     1
 71
     2
 72
     1
 73
     1
 90
        2
 40
-0.6
 41
30.0
 62
     5
 63
     7
 74
     1
 91
        0
 64
     7
 65
   257
 75
     1
175
     1
 42
1.0
 92
        0
 66
   257
 43
1.0
 76
     1
 77
     6
 78
     2
 67
     7
 79
     5
170
     0
171
     0
290
     0
174
     0
 93
       13
 44
0.0
173
     0
291
     1
 45
0.0
1001
ACAD
1000
AcDbSavedByObjectVersion
1070
     0
  0
VISUALSTYLE
  5
2F9
102
{ACAD_XDICTIONARY
360
362
102
}
102
{ACAD_REACTORS
330
2B
102
}
330
2B
100
AcDbVisualStyle
  2
Gouraud
 70
     2
 71
     2
 72
     2
 73
     1
 90
        2
 40
-0.6
 41
30.0
 62
     5
 63
     7
 74
     0
 91
        0
 64
     7
 65
   257
 75
     1
175
     1
 42
1.0
 92
        0
 66
     7
 43
1.0
 76
     1
 77
     6
 78
     2
 67
     7
 79
     5
170
     0
171
     0
290
     0
174
     0
 93
       13
 44
0.0
173
     0
291
     1
 45
0.0
1001
ACAD
1000
AcDbSavedByObjectVersion
1070
     0
  0
VISUALSTYLE
  5
2FA
102
{ACAD_XDICTIONARY
360
364
102
}
102
{ACAD_REACTORS
330
2B
102
}
330
2B
100
AcDbVisualStyle
  2
GouraudWithEdges
 70
     3
 71
     2
 72
     2
 73
     1
 90
        2
 40
-0.6
 41
30.0
 62
     5
 63
     7
 74
     1
 91
        0
 64
     7
 65
   257
 75
     1
175
     1
 42
1.0
 92
        0
 66
   257
 43
1.0
 76
     1
 77
     6
 78
     2
 67
     7
 79
     5
170
     0
171
     0
290
     0
174
     0
 93
       13
 44
0.0
173
     0
291
     1
 45
0.0
1001
ACAD
1000
AcDbSavedByObjectVersion
1070
     0
  0
VISUALSTYLE
  5
2FC
102
{ACAD_XDICTIONARY
360
368
102
}
102
{ACAD_REACTORS
330
2B
102
}
330
2B
100
AcDbVisualStyle
  2
Hidden
 70
     6
 71
     1
 72
     2
 73
     2
 90
        0
 40
-0.6
 41
-30.0
 62
     5
 63
     7
 74
     2
 91
        2
 64
     7
 65
   257
 75
     2
175
     1
 42
40.0
 92
        0
 66
   257
 43
1.0
 76
     1
 77
     6
 78
     2
 67
     7
 79
     3
170
     0
171
     0
290
     0
174
     0
 93
        1
 44
0.0
173
     0
291
     0
 45
0.0
1001
ACAD
1000
AcDbSavedByObjectVersion
1070
     0
  0
VISUALSTYLE
  5
309
102
{ACAD_XDICTIONARY
360
382
102
}
102
{ACAD_REACTORS
330
2B
102
}
330
2B
100
AcDbVisualStyle
  2
JitterOff
 70
    20
 71
     2
 72
     2
 73
     0
 90
        0
 40
-0.6
 41
-30.0
 62
     5
 63
     7
 74
     1
 91
        4
 64
     7
 65
   257
 75
     1
175
     1
 42
1.0
 92
       10
 66
     7
 43
1.0
 76
     1
 77
     6
 78
     2
 67
     7
 79
     5
170
     0
171
     0
290
     0
174
     0
 93
        1
 44
0.0
173
     0
291
     1
 45
0.0
1001
ACAD
1000
AcDbSavedByObjectVersion
1070
     0
  0
VISUALSTYLE
  5
301
102
{ACAD_XDICTIONARY
360
372
102
}
102
{ACAD_REACTORS
330
2B
102
}
330
2B
100
AcDbVisualStyle
  2
Linepattern
 70
    14
 71
     2
 72
     2
 73
     0
 90
        0
 40
-0.6
 41
-30.0
 62
     5
 63
     7
 74
     1
 91
        4
 64
     7
 65
   257
 75
     7
175
     7
 42
1.0
 92
        8
 66
     7
 43
1.0
 76
     1
 77
     6
 78
     2
 67
     7
 79
     5
170
     0
171
     0
290
     0
174
     0
 93
        1
 44
0.0
173
     0
291
     1
 45
0.0
1001
ACAD
1000
AcDbSavedByObjectVersion
1070
     0
  0
VISUALSTYLE
  5
30A
102
{ACAD_XDICTIONARY
360
384
102
}
102
{ACAD_REACTORS
330
2B
102
}
330
2B
100
AcDbVisualStyle
  2
OverhangOff
 70
    21
 71
     2
 72
     2
 73
     0
 90
        0
 40
-0.6
 41
-30.0
 62
     5
 63
     7
 74
     1
 91
        4
 64
     7
 65
   257
 75
     1
175
     1
 42
1.0
 92
        9
 66
     7
 43
1.0
 76
     1
 77
     6
 78
     2
 67
     7
 79
     5
170
     0
171
     0
290
     0
174
     0
 93
        1
 44
0.0
173
     0
291
     1
 45
0.0
1001
ACAD
1000
AcDbSavedByObjectVersion
1070
     0
  0
VISUALSTYLE
  5
4B
102
{ACAD_XDICTIONARY
360
354
102
}
102
{ACAD_REACTORS
330
2B
102
}
330
2B
100
AcDbVisualStyle
  2
Realistic
 70
     8
 71
     2
 72
     2
 73
     0
 90
        0
 40
-0.6
 41
-30.0
 62
     5
 63
     7
 74
     1
 91
        0
 64
     7
 65
   257
 75
     1
175
     1
 42
1.0
 92
        8
 66
     8
 43
1.0
 76
     1
 77
     6
 78
     2
 67
     7
 79
     5
170
     0
171
     0
290
     0
174
     0
 93
       13
 44
0.0
173
     0
291
     0
 45
0.0
1001
ACAD
1000
AcDbSavedByObjectVersion
1070
     0
  0
VISUALSTYLE
  5
308
102
{ACAD_XDICTIONARY
360
380
102
}
102
{ACAD_REACTORS
330
2B
102
}
330
2B
100
AcDbVisualStyle
  2
Shaded
 70
    27
 71
     2
 72
     2
 73
     1
 90
        2
 40
-0.6
 41
30.0
 62
     5
 63
     7
 74
     0
 91
        4
 64
     7
 65
   257
 75
     1
175
     1
 42
1.0
 92
        8
 66
   257
 43
1.0
 76
     1
 77
     6
 78
     2
 67
     8
 79
     3
170
     0
171
     0
290
     0
174
     0
 93
        5
 44
0.0
173
     0
291
     0
 45
0.0
1001
ACAD
1000
AcDbSavedByObjectVersion
1070
     0
  0
VISUALSTYLE
  5
307
102
{ACAD_XDICTIONARY
360
37E
102
}
102
{ACAD_REACTORS
330
2B
102
}
330
2B
100
AcDbVisualStyle
  2
Shaded with edges
 70
    26
 71
     2
 72
     2
 73
     1
 90
        2
 40
-0.6
 41
30.0
 62
     5
 63
     7
 74
     1
 91
       10
 64
     7
 65
   257
 75
     2
175
     1
 42
1.0
 92
        8
 66
   257
 43
1.0
 76
     1
 77
     6
 78
     2
 67
     7
 79
     3
170
     0
171
     0
290
     0
174
     0
 93
        5
 44
0.0
173
     0
291
     0
 45
0.0
1001
ACAD
1000
AcDbSavedByObjectVersion
1070
     0
  0
VISUALSTYLE
  5
304
102
{ACAD_XDICTIONARY
360
378
102
}
102
{ACAD_REACTORS
330
2B
102
}
330
2B
100
AcDbVisualStyle
  2
Shades of Gray
 70
    23
 71
     2
 72
     2
 73
     3
 90
        0
 40
-0.6
 41
-30.0
 62
     5
 63
     7
 74
     2
 91
        2
 64
     7
 65
     7
 75
     1
175
     1
 42
40.0
 92
        8
 66
     7
 43
1.0
 76
     1
 77
     6
 78
     2
 67
     7
 79
     3
170
     0
171
     0
290
     0
174
     0
 93
        1
 44
0.0
173
     0
291
     0
 45
0.0
1001
ACAD
1000
AcDbSavedByObjectVersion
1070
     0
  0
VISUALSTYLE
  5
305
102
{ACAD_XDICTIONARY
360
37A
102
}
102
{ACAD_REACTORS
330
2B
102
}
330
2B
100
AcDbVisualStyle
  2
Sketchy
 70
    24
 71
     1
 72
     2
 73
     2
 90
        0
 40
-0.6
 41
-30.0
 62
     5
 63
     7
 74
     2
 91
        2
 64
     7
 65
     7
 75
     1
175
     1
 42
40.0
 92
       11
 66
     7
 43
1.0
 76
     1
 77
     6
 78
     2
 67
     7
 79
     6
170
     0
171
     0
290
     0
174
     0
 93
        1
 44
0.0
173
     0
291
     0
 45
0.0
1001
ACAD
1000
AcDbSavedByObjectVersion
1070
     0
  0
VISUALSTYLE
  5
300
102
{ACAD_XDICTIONARY
360
370
102
}
102
{ACAD_REACTORS
330
2B
102
}
330
2B
100
AcDbVisualStyle
  2
Thicken
 70
    13
 71
     2
 72
     2
 73
     0
 90
        0
 40
-0.6
 41
-30.0
 62
     5
 63
     7
 74
     1
 91
        4
 64
     7
 65
   257
 75
     1
175
     1
 42
1.0
 92
       12
 66
     7
 43
1.0
 76
     1
 77
     6
 78
     2
 67
     7
 79
     5
170
     0
171
     0
290
     0
174
     0
 93
        1
 44
0.0
173
     0
291
     1
 45
0.0
1001
ACAD
1000
AcDbSavedByObjectVersion
1070
     0
  0
VISUALSTYLE
  5
4C
102
{ACAD_XDICTIONARY
360
356
102
}
102
{ACAD_REACTORS
330
2B
102
}
330
2B
100
AcDbVisualStyle
  2
Wireframe
 70
     5
 71
     0
 72
     2
 73
     0
 90
        0
 40
-0.6
 41
-30.0
 62
     5
 63
     7
 74
     1
 91
        4
 64
     7
 65
   257
 75
     1
175
     1
 42
1.0
 92
        0
 66
   257
 43
1.0
 76
     1
 77
     6
 78
     2
 67
     7
 79
     3
170
     0
171
     0
290
     0
174
     0
 93
        1
 44
0.0
173
     0
291
     0
 45
0.0
1001
ACAD
1000
AcDbSavedByObjectVersion
1070
     0
  0
VISUALSTYLE
  5
306
102
{ACAD_XDICTIONARY
360
37C
102
}
102
{ACAD_REACTORS
330
2B
102
}
330
2B
100
AcDbVisualStyle
  2
X-Ray
 70
    25
 71
     2
 72
     2
 73
     1
 90
        1
 40
0.5
 41
-30.0
 62
     5
 63
     7
 74
     1
 91
        0
 64
     7
 65
   257
 75
     1
175
     1
 42
1.0
 92
        8
 66
     7
 43
1.0
 76
     1
 77
     6
 78
     2
 67
     7
 79
     3
170
     0
171
     0
290
     0
174
     0
 93
       13
 44
0.0
173
     0
291
     0
 45
0.0
1001
ACAD
1000
AcDbSavedByObjectVersion
1070
     0
  0
DICTIONARYVAR
  5
2F2
102
{ACAD_REACTORS
330
2EE
102
}
330
2EE
100
DictionaryVariables
280
     0
  1
1:1
  0
DICTIONARYVAR
  5
2F0
102
{ACAD_REACTORS
330
2EE
102
}
330
2EE
100
DictionaryVariables
280
     0
  1
STANDARD
  0
DICTIONARYVAR
  5
2EF
102
{ACAD_REACTORS
330
2EE
102
}
330
2EE
100
DictionaryVariables
280
     0
  1
STANDARD
  0
DICTIONARYVAR
  5
341
102
{ACAD_REACTORS
330
2EE
102
}
330
2EE
100
DictionaryVariables
280
     0
  1
1
  0
DICTIONARYVAR
  5
340
102
{ACAD_REACTORS
330
2EE
102
}
330
2EE
100
DictionaryVariables
280
     0
  1
1
  0
DICTIONARYVAR
  5
33F
102
{ACAD_REACTORS
330
2EE
102
}
330
2EE
100
DictionaryVariables
280
     0
  1
0
  0
DICTIONARYVAR
  5
2F4
102
{ACAD_REACTORS
330
2EE
102
}
330
2EE
100
DictionaryVariables
280
     0
  1
1
  0
DICTIONARYVAR
  5
2F5
102
{ACAD_REACTORS
330
2EE
102
}
330
2EE
100
DictionaryVariables
280
     0
  1
15
  0
DICTIONARYVAR
  5
2F3
102
{ACAD_REACTORS
330
2EE
102
}
330
2EE
100
DictionaryVariables
280
     0
  1
0
  0
DICTIONARYVAR
  5
2F1
102
{ACAD_REACTORS
330
2EE
102
}
330
2EE
100
DictionaryVariables
280
     0
  1
0
  0
DICTIONARYVAR
  5
33E
102
{ACAD_REACTORS
330
2EE
102
}
330
2EE
100
DictionaryVariables
280
     0
  1
127
  0
DICTIONARYVAR
  5
342
102
{ACAD_REACTORS
330
2EE
102
}
330
2EE
100
DictionaryVariables
280
     0
  1
2
  0
DICTIONARY
  5
2A2
102
{ACAD_REACTORS
330
2A1
102
}
330
2A1
100
AcDbDictionary
281
     1
  0
DICTIONARY
  5
29C
102
{ACAD_REACTORS
330
292
102
}
330
292
100
AcDbDictionary
281
     1
  3
DWGSETTINGS
350
29B
  3
TRANSSETTINGS
350
29D
  0
DICTIONARY
  5
34D
330
1A
100
AcDbDictionary
280
     1
281
     1
  3
ACAD_XREC_ROUNDTRIP
360
34E
  0
DICTIONARY
  5
34B
330
15
100
AcDbDictionary
280
     1
281
     1
  3
ACAD_XREC_ROUNDTRIP
360
34C
  0
DICTIONARY
  5
3D
330
3C
100
AcDbDictionary
280
     1
281
     1
  3
ACAD_XREC_ROUNDTRIP
360
352
  3
BUMPTILE
360
3E
  3
DIFFUSETILE
360
3F
  3
OPACITYTILE
360
40
  3
REFLECTIONTILE
360
41
  3
REFRACTIONTILE
360
42
  3
SPECULARTILE
360
43
  0
DICTIONARY
  5
35
330
34
100
AcDbDictionary
280
     1
281
     1
  3
ACAD_XREC_ROUNDTRIP
360
351
  3
BUMPTILE
360
36
  3
DIFFUSETILE
360
37
  3
OPACITYTILE
360
38
  3
REFLECTIONTILE
360
39
  3
REFRACTIONTILE
360
3A
  3
SPECULARTILE
360
3B
  0
DICTIONARY
  5
C
330
A
100
AcDbDictionary
280
     1
281
     1
  3
ACAD_XREC_ROUNDTRIP
360
34A
  3
BUMPTILE
360
D
  3
DIFFUSETILE
360
E
  3
OPACITYTILE
360
F
  3
REFLECTIONTILE
360
10
  3
REFRACTIONTILE
360
11
  3
SPECULARTILE
360
12
  0
DICTIONARY
  5
4A
330
49
100
AcDbDictionary
280
     1
281
     1
  3
ACAD_ROUNDTRIP_2008_TABLESTYLE_CELLSTYLEMAP
360
343
  3
ACAD_XREC_ROUNDTRIP
360
353
  0
DICTIONARY
  5
34F
330
2A
100
AcDbDictionary
280
     1
281
     1
  3
ACAD_XREC_ROUNDTRIP
360
350
  0
DICTIONARY
  5
366
330
2FB
100
AcDbDictionary
280
     1
281
     1
  3
ACAD_XREC_ROUNDTRIP
360
367
  0
DICTIONARY
  5
36E
330
2FF
100
AcDbDictionary
280
     1
281
     1
  3
ACAD_XREC_ROUNDTRIP
360
36F
  0
DICTIONARY
  5
376
330
303
100
AcDbDictionary
280
     1
281
     1
  3
ACAD_XREC_ROUNDTRIP
360
377
  0
DICTIONARY
  5
36A
330
2FD
100
AcDbDictionary
280
     1
281
     1
  3
ACAD_XREC_ROUNDTRIP
360
36B
  0
DICTIONARY
  5
36C
330
2FE
100
AcDbDictionary
280
     1
281
     1
  3
ACAD_XREC_ROUNDTRIP
360
36D
  0
DICTIONARY
  5
386
330
30B
100
AcDbDictionary
280
     1
281
     1
  3
ACAD_XREC_ROUNDTRIP
360
387
  0
DICTIONARY
  5
374
330
302
100
AcDbDictionary
280
     1
281
     1
  3
ACAD_XREC_ROUNDTRIP
360
375
  0
DICTIONARY
  5
35E
330
2F7
100
AcDbDictionary
280
     1
281
     1
  3
ACAD_XREC_ROUNDTRIP
360
35F
  0
DICTIONARY
  5
360
330
2F8
100
AcDbDictionary
280
     1
281
     1
  3
ACAD_XREC_ROUNDTRIP
360
361
  0
DICTIONARY
  5
362
330
2F9
100
AcDbDictionary
280
     1
281
     1
  3
ACAD_XREC_ROUNDTRIP
360
363
  0
DICTIONARY
  5
364
330
2FA
100
AcDbDictionary
280
     1
281
     1
  3
ACAD_XREC_ROUNDTRIP
360
365
  0
DICTIONARY
  5
368
330
2FC
100
AcDbDictionary
280
     1
281
     1
  3
ACAD_XREC_ROUNDTRIP
360
369
  0
DICTIONARY
  5
382
330
309
100
AcDbDictionary
280
     1
281
     1
  3
ACAD_XREC_ROUNDTRIP
360
383
  0
DICTIONARY
  5
372
330
301
100
AcDbDictionary
280
     1
281
     1
  3
ACAD_XREC_ROUNDTRIP
360
373
  0
DICTIONARY
  5
384
330
30A
100
AcDbDictionary
280
     1
281
     1
  3
ACAD_XREC_ROUNDTRIP
360
385
  0
DICTIONARY
  5
354
330
4B
100
AcDbDictionary
280
     1
281
     1
  3
ACAD_XREC_ROUNDTRIP
360
355
  0
DICTIONARY
  5
380
330
308
100
AcDbDictionary
280
     1
281
     1
  3
ACAD_XREC_ROUNDTRIP
360
381
  0
DICTIONARY
  5
37E
330
307
100
AcDbDictionary
280
     1
281
     1
  3
ACAD_XREC_ROUNDTRIP
360
37F
  0
DICTIONARY
  5
378
330
304
100
AcDbDictionary
280
     1
281
     1
  3
ACAD_XREC_ROUNDTRIP
360
379
  0
DICTIONARY
  5
37A
330
305
100
AcDbDictionary
280
     1
281
     1
  3
ACAD_XREC_ROUNDTRIP
360
37B
  0
DICTIONARY
  5
370
330
300
100
AcDbDictionary
280
     1
281
     1
  3
ACAD_XREC_ROUNDTRIP
360
371
  0
DICTIONARY
  5
356
330
4C
100
AcDbDictionary
280
     1
281
     1
  3
ACAD_XREC_ROUNDTRIP
360
357
  0
DICTIONARY
  5
37C
330
306
100
AcDbDictionary
280
     1
281
     1
  3
ACAD_XREC_ROUNDTRIP
360
37D
  0
XRECORD
  5
34E
102
{ACAD_REACTORS
330
34D
102
}
330
34D
100
AcDbXrecord
280
     1
102
SHADEPLOT
 70
     0
102
SHADEPLOTRESLEVEL
 70
     2
102
SHADEPLOTCUSTOMDPI
 70
   300
  0
XRECORD
  5
34C
102
{ACAD_REACTORS
330
34B
102
}
330
34B
100
AcDbXrecord
280
     1
102
SHADEPLOT
 70
     0
102
SHADEPLOTRESLEVEL
 70
     2
102
SHADEPLOTCUSTOMDPI
 70
   300
  0
XRECORD
  5
352
102
{ACAD_REACTORS
330
3D
102
}
330
3D
100
AcDbXrecord
280
     1
102
MATERIAL
148
0.0
149
0.0
149
0.0
 93
        0
 94
      127
282
     0
 72
     0
 77
     0
171
     0
175
     0
179
     0
273
     0
  0
XRECORD
  5
3E
102
{ACAD_REACTORS
330
3D
102
}
330
3D
100
AcDbXrecord
280
     1
270
     1
271
     1
  0
XRECORD
  5
3F
102
{ACAD_REACTORS
330
3D
102
}
330
3D
100
AcDbXrecord
280
     1
270
     1
271
     1
  0
XRECORD
  5
40
102
{ACAD_REACTORS
330
3D
102
}
330
3D
100
AcDbXrecord
280
     1
270
     1
271
     1
  0
XRECORD
  5
41
102
{ACAD_REACTORS
330
3D
102
}
330
3D
100
AcDbXrecord
280
     1
270
     1
271
     1
  0
XRECORD
  5
42
102
{ACAD_REACTORS
330
3D
102
}
330
3D
100
AcDbXrecord
280
     1
270
     1
271
     1
  0
XRECORD
  5
43
102
{ACAD_REACTORS
330
3D
102
}
330
3D
100
AcDbXrecord
280
     1
270
     1
271
     1
  0
XRECORD
  5
351
102
{ACAD_REACTORS
330
35
102
}
330
35
100
AcDbXrecord
280
     1
102
MATERIAL
148
0.0
149
0.0
149
0.0
 93
        0
 94
      127
282
     0
 72
     0
 77
     0
171
     0
175
     0
179
     0
273
     0
  0
XRECORD
  5
36
102
{ACAD_REACTORS
330
35
102
}
330
35
100
AcDbXrecord
280
     1
270
     1
271
     1
  0
XRECORD
  5
37
102
{ACAD_REACTORS
330
35
102
}
330
35
100
AcDbXrecord
280
     1
270
     1
271
     1
  0
XRECORD
  5
38
102
{ACAD_REACTORS
330
35
102
}
330
35
100
AcDbXrecord
280
     1
270
     1
271
     1
  0
XRECORD
  5
39
102
{ACAD_REACTORS
330
35
102
}
330
35
100
AcDbXrecord
280
     1
270
     1
271
     1
  0
XRECORD
  5
3A
102
{ACAD_REACTORS
330
35
102
}
330
35
100
AcDbXrecord
280
     1
270
     1
271
     1
  0
XRECORD
  5
3B
102
{ACAD_REACTORS
330
35
102
}
330
35
100
AcDbXrecord
280
     1
270
     1
271
     1
  0
XRECORD
  5
34A
102
{ACAD_REACTORS
330
C
102
}
330
C
100
AcDbXrecord
280
     1
102
MATERIAL
148
0.0
149
0.0
149
0.0
 93
        0
 94
      127
282
     0
 72
     0
 77
     0
171
     0
175
     0
179
     0
273
     0
  0
XRECORD
  5
D
102
{ACAD_REACTORS
330
C
102
}
330
C
100
AcDbXrecord
280
     1
270
     1
271
     1
  0
XRECORD
  5
E
102
{ACAD_REACTORS
330
C
102
}
330
C
100
AcDbXrecord
280
     1
270
     1
271
     1
  0
XRECORD
  5
F
102
{ACAD_REACTORS
330
C
102
}
330
C
100
AcDbXrecord
280
     1
270
     1
271
     1
  0
XRECORD
  5
10
102
{ACAD_REACTORS
330
C
102
}
330
C
100
AcDbXrecord
280
     1
270
     1
271
     1
  0
XRECORD
  5
11
102
{ACAD_REACTORS
330
C
102
}
330
C
100
AcDbXrecord
280
     1
270
     1
271
     1
  0
XRECORD
  5
12
102
{ACAD_REACTORS
330
C
102
}
330
C
100
AcDbXrecord
280
     1
270
     1
271
     1
  0
CELLSTYLEMAP
  5
343
102
{ACAD_REACTORS
330
4A
102
}
330
4A
100
AcDbCellStyleMap
 90
        3
300
CELLSTYLE
  1
TABLEFORMAT_BEGIN
 90
        5
170
     1
 91
        0
 92
    32768
 62
   257
 93
        1
300
CONTENTFORMAT
  1
CONTENTFORMAT_BEGIN
 90
        0
 91
        0
 92
      512
 93
        0
300

 40
0.0
140
1.0
 94
        5
 62
     0
340
21
144
0.25
309
CONTENTFORMAT_END
171
     0
 94
        0
309
TABLEFORMAT_END
  1
CELLSTYLE_BEGIN
 90
        1
 91
        1
300
_TITLE
309
CELLSTYLE_END
300
CELLSTYLE
  1
TABLEFORMAT_BEGIN
 90
        5
170
     1
 91
        0
 92
        0
 62
   257
 93
        1
300
CONTENTFORMAT
  1
CONTENTFORMAT_BEGIN
 90
        0
 91
        0
 92
      512
 93
        0
300

 40
0.0
140
1.0
 94
        5
 62
     0
340
21
144
0.18
309
CONTENTFORMAT_END
171
     0
 94
        0
309
TABLEFORMAT_END
  1
CELLSTYLE_BEGIN
 90
        2
 91
        1
300
_HEADER
309
CELLSTYLE_END
300
CELLSTYLE
  1
TABLEFORMAT_BEGIN
 90
        5
170
     1
 91
        0
 92
        0
 62
   257
 93
        1
300
CONTENTFORMAT
  1
CONTENTFORMAT_BEGIN
 90
        0
 91
        0
 92
      512
 93
        0
300

 40
0.0
140
1.0
 94
        2
 62
     0
340
21
144
0.18
309
CONTENTFORMAT_END
171
     0
 94
        0
309
TABLEFORMAT_END
  1
CELLSTYLE_BEGIN
 90
        3
 91
        2
300
_DATA
309
CELLSTYLE_END
  0
XRECORD
  5
353
102
{ACAD_REACTORS
330
4A
102
}
330
4A
100
AcDbXrecord
280
     1
102
ACAD_ROUNDTRIP_PRE2007_TABLESTYLE
 90
      512
 91
        0
  1

 92
      512
 93
        0
  2

 94
      512
 95
        0
  3

  0
XRECORD
  5
350
102
{ACAD_REACTORS
330
34F
102
}
330
34F
100
AcDbXrecord
280
     1
102
RTVSPropertyOp0
 70
     1
102
RTVSPropertyOp1
 70
     1
102
RTVSPropertyOp2
 70
     1
102
RTVSPropertyOp3
 70
     1
102
RTVSPropertyOp4
 70
     1
102
RTVSPropertyOp5
 70
     1
102
RTVSPropertyOp6
 70
     1
102
RTVSPropertyOp7
 70
     1
102
RTVSPropertyOp8
 70
     1
102
RTVSPropertyOp9
 70
     1
102
RTVSPropertyOp10
 70
     1
102
RTVSPropertyOp11
 70
     1
102
RTVSPropertyOp12
 70
     1
102
RTVSPropertyOp13
 70
     1
102
RTVSPropertyOp14
 70
     1
102
RTVSPropertyOp15
 70
     1
102
RTVSPropertyOp16
 70
     1
102
RTVSPropertyOp17
 70
     1
102
RTVSPropertyOp18
 70
     1
102
RTVSPropertyOp19
 70
     1
102
RTVSPropertyOp20
 70
     1
102
RTVSPropertyOp21
 70
     1
102
RTVSPropertyOp22
 70
     1
102
RTVSPropertyOp23
 70
     1
102
RTVSPropertyOp24
 70
     1
102
RTVSPropertyOp25
 70
     1
102
RTVSPropertyOp26
 70
     1
102
RTVSPropertyOp27
 70
     1
102
RTVSPropertyOp28
 70
     1
102
RTVSPropertyOp29
 70
     1
102
RTVSPropertyOp30
 70
     1
102
RTVSPropertyOp31
 70
     1
102
RTVSPropertyOp32
 70
     1
  0
XRECORD
  5
367
102
{ACAD_REACTORS
330
366
102
}
330
366
100
AcDbXrecord
280
     1
102
RTVSPropertyOp0
 70
     1
102
RTVSPropertyOp1
 70
     1
102
RTVSPropertyOp2
 70
     1
102
RTVSPropertyOp3
 70
     1
102
RTVSPropertyOp4
 70
     1
102
RTVSPropertyOp5
 70
     1
102
RTVSPropertyOp6
 70
     1
102
RTVSPropertyOp7
 70
     1
102
RTVSPropertyOp8
 70
     1
102
RTVSPropertyOp9
 70
     1
102
RTVSPropertyOp10
 70
     1
102
RTVSPropertyOp11
 70
     1
102
RTVSPropertyOp12
 70
     1
102
RTVSPropertyOp13
 70
     1
102
RTVSPropertyOp14
 70
     1
102
RTVSPropertyOp15
 70
     1
102
RTVSPropertyOp16
 70
     1
102
RTVSPropertyOp17
 70
     1
102
RTVSPropertyOp18
 70
     1
102
RTVSPropertyOp19
 70
     1
102
RTVSPropertyOp20
 70
     1
102
RTVSPropertyOp21
 70
     1
102
RTVSPropertyOp22
 70
     1
102
RTVSPropertyOp23
 70
     1
102
RTVSPropertyOp24
 70
     1
102
RTVSPropertyOp25
 70
     1
102
RTVSPropertyOp26
 70
     1
102
RTVSPropertyOp27
 70
     1
102
RTVSPropertyOp28
 70
     1
102
RTVSPropertyOp29
 70
     1
102
RTVSPropertyOp30
 70
     1
102
RTVSPropertyOp31
 70
     1
102
RTVSPropertyOp32
 70
     1
  0
XRECORD
  5
36F
102
{ACAD_REACTORS
330
36E
102
}
330
36E
100
AcDbXrecord
280
     1
102
RTVSPropertyOp0
 70
     1
102
RTVSPropertyOp1
 70
     1
102
RTVSPropertyOp2
 70
     1
102
RTVSPropertyOp3
 70
     1
102
RTVSPropertyOp4
 70
     1
102
RTVSPropertyOp5
 70
     1
102
RTVSPropertyOp6
 70
     1
102
RTVSPropertyOp7
 70
     1
102
RTVSPropertyOp8
 70
     1
102
RTVSPropertyOp9
 70
     1
102
RTVSPropertyOp10
 70
     1
102
RTVSPropertyOp11
 70
     1
102
RTVSPropertyOp12
 70
     1
102
RTVSPropertyOp13
 70
     1
102
RTVSPropertyOp14
 70
     1
102
RTVSPropertyOp15
 70
     1
102
RTVSPropertyOp16
 70
     1
102
RTVSPropertyOp17
 70
     1
102
RTVSPropertyOp18
 70
     1
102
RTVSPropertyOp19
 70
     1
102
RTVSPropertyOp20
 70
     1
102
RTVSPropertyOp21
 70
     1
102
RTVSPropertyOp22
 70
     1
102
RTVSPropertyOp23
 70
     1
102
RTVSPropertyOp24
 70
     1
102
RTVSPropertyOp25
 70
     1
102
RTVSPropertyOp26
 70
     1
102
RTVSPropertyOp27
 70
     1
102
RTVSPropertyOp28
 70
     1
102
RTVSPropertyOp29
 70
     1
102
RTVSPropertyOp30
 70
     1
102
RTVSPropertyOp31
 70
     1
102
RTVSPropertyOp32
 70
     1
  0
XRECORD
  5
377
102
{ACAD_REACTORS
330
376
102
}
330
376
100
AcDbXrecord
280
     1
102
RTVSPropertyOp0
 70
     1
102
RTVSPropertyOp1
 70
     1
102
RTVSPropertyOp2
 70
     1
102
RTVSPropertyOp3
 70
     1
102
RTVSPropertyOp4
 70
     1
102
RTVSPropertyOp5
 70
     1
102
RTVSPropertyOp6
 70
     1
102
RTVSPropertyOp7
 70
     1
102
RTVSPropertyOp8
 70
     1
102
RTVSPropertyOp9
 70
     1
102
RTVSPropertyOp10
 70
     1
102
RTVSPropertyOp11
 70
     1
102
RTVSPropertyOp12
 70
     1
102
RTVSPropertyOp13
 70
     1
102
RTVSPropertyOp14
 70
     1
102
RTVSPropertyOp15
 70
     1
102
RTVSPropertyOp16
 70
     1
102
RTVSPropertyOp17
 70
     1
102
RTVSPropertyOp18
 70
     1
102
RTVSPropertyOp19
 70
     1
102
RTVSPropertyOp20
 70
     1
102
RTVSPropertyOp21
 70
     1
102
RTVSPropertyOp22
 70
     1
102
RTVSPropertyOp23
 70
     1
102
RTVSPropertyOp24
 70
     1
102
RTVSPropertyOp25
 70
     1
102
RTVSPropertyOp26
 70
     1
102
RTVSPropertyOp27
 70
     1
102
RTVSPropertyOp28
 70
     1
102
RTVSPropertyOp29
 70
     1
102
RTVSPropertyOp30
 70
     1
102
RTVSPropertyOp31
 70
     1
102
RTVSPropertyOp32
 70
     1
  0
XRECORD
  5
36B
102
{ACAD_REACTORS
330
36A
102
}
330
36A
100
AcDbXrecord
280
     1
102
RTVSPropertyOp0
 70
     1
102
RTVSPropertyOp1
 70
     1
102
RTVSPropertyOp2
 70
     1
102
RTVSPropertyOp3
 70
     1
102
RTVSPropertyOp4
 70
     1
102
RTVSPropertyOp5
 70
     1
102
RTVSPropertyOp6
 70
     1
102
RTVSPropertyOp7
 70
     1
102
RTVSPropertyOp8
 70
     1
102
RTVSPropertyOp9
 70
     1
102
RTVSPropertyOp10
 70
     1
102
RTVSPropertyOp11
 70
     1
102
RTVSPropertyOp12
 70
     1
102
RTVSPropertyOp13
 70
     1
102
RTVSPropertyOp14
 70
     1
102
RTVSPropertyOp15
 70
     1
102
RTVSPropertyOp16
 70
     1
102
RTVSPropertyOp17
 70
     1
102
RTVSPropertyOp18
 70
     1
102
RTVSPropertyOp19
 70
     1
102
RTVSPropertyOp20
 70
     1
102
RTVSPropertyOp21
 70
     1
102
RTVSPropertyOp22
 70
     1
102
RTVSPropertyOp23
 70
     1
102
RTVSPropertyOp24
 70
     1
102
RTVSPropertyOp25
 70
     1
102
RTVSPropertyOp26
 70
     1
102
RTVSPropertyOp27
 70
     1
102
RTVSPropertyOp28
 70
     1
102
RTVSPropertyOp29
 70
     1
102
RTVSPropertyOp30
 70
     1
102
RTVSPropertyOp31
 70
     1
102
RTVSPropertyOp32
 70
     1
  0
XRECORD
  5
36D
102
{ACAD_REACTORS
330
36C
102
}
330
36C
100
AcDbXrecord
280
     1
102
RTVSPropertyOp0
 70
     1
102
RTVSPropertyOp1
 70
     1
102
RTVSPropertyOp2
 70
     1
102
RTVSPropertyOp3
 70
     1
102
RTVSPropertyOp4
 70
     1
102
RTVSPropertyOp5
 70
     1
102
RTVSPropertyOp6
 70
     1
102
RTVSPropertyOp7
 70
     1
102
RTVSPropertyOp8
 70
     1
102
RTVSPropertyOp9
 70
     1
102
RTVSPropertyOp10
 70
     1
102
RTVSPropertyOp11
 70
     1
102
RTVSPropertyOp12
 70
     1
102
RTVSPropertyOp13
 70
     1
102
RTVSPropertyOp14
 70
     1
102
RTVSPropertyOp15
 70
     1
102
RTVSPropertyOp16
 70
     1
102
RTVSPropertyOp17
 70
     1
102
RTVSPropertyOp18
 70
     1
102
RTVSPropertyOp19
 70
     1
102
RTVSPropertyOp20
 70
     1
102
RTVSPropertyOp21
 70
     1
102
RTVSPropertyOp22
 70
     1
102
RTVSPropertyOp23
 70
     1
102
RTVSPropertyOp24
 70
     1
102
RTVSPropertyOp25
 70
     1
102
RTVSPropertyOp26
 70
     1
102
RTVSPropertyOp27
 70
     1
102
RTVSPropertyOp28
 70
     1
102
RTVSPropertyOp29
 70
     1
102
RTVSPropertyOp30
 70
     1
102
RTVSPropertyOp31
 70
     1
102
RTVSPropertyOp32
 70
     1
  0
XRECORD
  5
387
102
{ACAD_REACTORS
330
386
102
}
330
386
100
AcDbXrecord
280
     1
102
RTVSPropertyOp0
 70
     0
102
RTVSPropertyOp1
 70
     0
102
RTVSPropertyOp2
 70
     0
102
RTVSPropertyOp3
 70
     0
102
RTVSPropertyOp4
 70
     0
102
RTVSPropertyOp5
 70
     0
102
RTVSPropertyOp6
 70
     0
102
RTVSPropertyOp7
 70
     0
102
RTVSPropertyOp8
 70
     0
102
RTVSPropertyOp9
 70
     0
102
RTVSPropertyOp10
 70
     0
102
RTVSPropertyOp11
 70
     0
102
RTVSPropertyOp12
 70
     0
102
RTVSPropertyOp13
 70
     0
102
RTVSPropertyOp14
 70
     2
102
RTVSPropertyOp15
 70
     0
102
RTVSPropertyOp16
 70
     0
102
RTVSPropertyOp17
 70
     0
102
RTVSPropertyOp18
 70
     0
102
RTVSPropertyOp19
 70
     0
102
RTVSPropertyOp20
 70
     0
102
RTVSPropertyOp21
 70
     0
102
RTVSPropertyOp22
 70
     0
102
RTVSPropertyOp23
 70
     0
102
RTVSPropertyOp24
 70
     0
102
RTVSPropertyOp25
 70
     0
102
RTVSPropertyOp26
 70
     0
102
RTVSPropertyOp27
 70
     0
102
RTVSPropertyOp28
 70
     0
102
RTVSPropertyOp29
 70
     0
102
RTVSPropertyOp30
 70
     0
102
RTVSPropertyOp31
 70
     0
102
RTVSPropertyOp32
 70
     0
  0
XRECORD
  5
375
102
{ACAD_REACTORS
330
374
102
}
330
374
100
AcDbXrecord
280
     1
102
RTVSPropertyOp0
 70
     1
102
RTVSPropertyOp1
 70
     1
102
RTVSPropertyOp2
 70
     1
102
RTVSPropertyOp3
 70
     1
102
RTVSPropertyOp4
 70
     1
102
RTVSPropertyOp5
 70
     1
102
RTVSPropertyOp6
 70
     1
102
RTVSPropertyOp7
 70
     1
102
RTVSPropertyOp8
 70
     1
102
RTVSPropertyOp9
 70
     1
102
RTVSPropertyOp10
 70
     1
102
RTVSPropertyOp11
 70
     1
102
RTVSPropertyOp12
 70
     1
102
RTVSPropertyOp13
 70
     1
102
RTVSPropertyOp14
 70
     1
102
RTVSPropertyOp15
 70
     1
102
RTVSPropertyOp16
 70
     1
102
RTVSPropertyOp17
 70
     1
102
RTVSPropertyOp18
 70
     1
102
RTVSPropertyOp19
 70
     1
102
RTVSPropertyOp20
 70
     1
102
RTVSPropertyOp21
 70
     1
102
RTVSPropertyOp22
 70
     1
102
RTVSPropertyOp23
 70
     1
102
RTVSPropertyOp24
 70
     1
102
RTVSPropertyOp25
 70
     1
102
RTVSPropertyOp26
 70
     1
102
RTVSPropertyOp27
 70
     1
102
RTVSPropertyOp28
 70
     1
102
RTVSPropertyOp29
 70
     1
102
RTVSPropertyOp30
 70
     1
102
RTVSPropertyOp31
 70
     1
102
RTVSPropertyOp32
 70
     1
  0
XRECORD
  5
35F
102
{ACAD_REACTORS
330
35E
102
}
330
35E
100
AcDbXrecord
280
     1
102
RTVSPropertyOp0
 70
     1
102
RTVSPropertyOp1
 70
     1
102
RTVSPropertyOp2
 70
     1
102
RTVSPropertyOp3
 70
     1
102
RTVSPropertyOp4
 70
     1
102
RTVSPropertyOp5
 70
     1
102
RTVSPropertyOp6
 70
     1
102
RTVSPropertyOp7
 70
     1
102
RTVSPropertyOp8
 70
     1
102
RTVSPropertyOp9
 70
     1
102
RTVSPropertyOp10
 70
     1
102
RTVSPropertyOp11
 70
     1
102
RTVSPropertyOp12
 70
     1
102
RTVSPropertyOp13
 70
     1
102
RTVSPropertyOp14
 70
     1
102
RTVSPropertyOp15
 70
     1
102
RTVSPropertyOp16
 70
     1
102
RTVSPropertyOp17
 70
     1
102
RTVSPropertyOp18
 70
     1
102
RTVSPropertyOp19
 70
     1
102
RTVSPropertyOp20
 70
     1
102
RTVSPropertyOp21
 70
     1
102
RTVSPropertyOp22
 70
     1
102
RTVSPropertyOp23
 70
     1
102
RTVSPropertyOp24
 70
     1
102
RTVSPropertyOp25
 70
     1
102
RTVSPropertyOp26
 70
     1
102
RTVSPropertyOp27
 70
     1
102
RTVSPropertyOp28
 70
     1
102
RTVSPropertyOp29
 70
     1
102
RTVSPropertyOp30
 70
     1
102
RTVSPropertyOp31
 70
     1
102
RTVSPropertyOp32
 70
     1
  0
XRECORD
  5
361
102
{ACAD_REACTORS
330
360
102
}
330
360
100
AcDbXrecord
280
     1
102
RTVSPropertyOp0
 70
     1
102
RTVSPropertyOp1
 70
     1
102
RTVSPropertyOp2
 70
     1
102
RTVSPropertyOp3
 70
     1
102
RTVSPropertyOp4
 70
     1
102
RTVSPropertyOp5
 70
     1
102
RTVSPropertyOp6
 70
     1
102
RTVSPropertyOp7
 70
     1
102
RTVSPropertyOp8
 70
     1
102
RTVSPropertyOp9
 70
     1
102
RTVSPropertyOp10
 70
     1
102
RTVSPropertyOp11
 70
     1
102
RTVSPropertyOp12
 70
     1
102
RTVSPropertyOp13
 70
     1
102
RTVSPropertyOp14
 70
     1
102
RTVSPropertyOp15
 70
     1
102
RTVSPropertyOp16
 70
     1
102
RTVSPropertyOp17
 70
     1
102
RTVSPropertyOp18
 70
     1
102
RTVSPropertyOp19
 70
     1
102
RTVSPropertyOp20
 70
     1
102
RTVSPropertyOp21
 70
     1
102
RTVSPropertyOp22
 70
     1
102
RTVSPropertyOp23
 70
     1
102
RTVSPropertyOp24
 70
     1
102
RTVSPropertyOp25
 70
     1
102
RTVSPropertyOp26
 70
     1
102
RTVSPropertyOp27
 70
     1
102
RTVSPropertyOp28
 70
     1
102
RTVSPropertyOp29
 70
     1
102
RTVSPropertyOp30
 70
     1
102
RTVSPropertyOp31
 70
     1
102
RTVSPropertyOp32
 70
     1
  0
XRECORD
  5
363
102
{ACAD_REACTORS
330
362
102
}
330
362
100
AcDbXrecord
280
     1
102
RTVSPropertyOp0
 70
     1
102
RTVSPropertyOp1
 70
     1
102
RTVSPropertyOp2
 70
     1
102
RTVSPropertyOp3
 70
     1
102
RTVSPropertyOp4
 70
     1
102
RTVSPropertyOp5
 70
     1
102
RTVSPropertyOp6
 70
     1
102
RTVSPropertyOp7
 70
     1
102
RTVSPropertyOp8
 70
     1
102
RTVSPropertyOp9
 70
     1
102
RTVSPropertyOp10
 70
     1
102
RTVSPropertyOp11
 70
     1
102
RTVSPropertyOp12
 70
     1
102
RTVSPropertyOp13
 70
     1
102
RTVSPropertyOp14
 70
     1
102
RTVSPropertyOp15
 70
     1
102
RTVSPropertyOp16
 70
     1
102
RTVSPropertyOp17
 70
     1
102
RTVSPropertyOp18
 70
     1
102
RTVSPropertyOp19
 70
     1
102
RTVSPropertyOp20
 70
     1
102
RTVSPropertyOp21
 70
     1
102
RTVSPropertyOp22
 70
     1
102
RTVSPropertyOp23
 70
     1
102
RTVSPropertyOp24
 70
     1
102
RTVSPropertyOp25
 70
     1
102
RTVSPropertyOp26
 70
     1
102
RTVSPropertyOp27
 70
     1
102
RTVSPropertyOp28
 70
     1
102
RTVSPropertyOp29
 70
     1
102
RTVSPropertyOp30
 70
     1
102
RTVSPropertyOp31
 70
     1
102
RTVSPropertyOp32
 70
     1
  0
XRECORD
  5
365
102
{ACAD_REACTORS
330
364
102
}
330
364
100
AcDbXrecord
280
     1
102
RTVSPropertyOp0
 70
     1
102
RTVSPropertyOp1
 70
     1
102
RTVSPropertyOp2
 70
     1
102
RTVSPropertyOp3
 70
     1
102
RTVSPropertyOp4
 70
     1
102
RTVSPropertyOp5
 70
     1
102
RTVSPropertyOp6
 70
     1
102
RTVSPropertyOp7
 70
     1
102
RTVSPropertyOp8
 70
     1
102
RTVSPropertyOp9
 70
     1
102
RTVSPropertyOp10
 70
     1
102
RTVSPropertyOp11
 70
     1
102
RTVSPropertyOp12
 70
     1
102
RTVSPropertyOp13
 70
     1
102
RTVSPropertyOp14
 70
     1
102
RTVSPropertyOp15
 70
     1
102
RTVSPropertyOp16
 70
     1
102
RTVSPropertyOp17
 70
     1
102
RTVSPropertyOp18
 70
     1
102
RTVSPropertyOp19
 70
     1
102
RTVSPropertyOp20
 70
     1
102
RTVSPropertyOp21
 70
     1
102
RTVSPropertyOp22
 70
     1
102
RTVSPropertyOp23
 70
     1
102
RTVSPropertyOp24
 70
     1
102
RTVSPropertyOp25
 70
     1
102
RTVSPropertyOp26
 70
     1
102
RTVSPropertyOp27
 70
     1
102
RTVSPropertyOp28
 70
     1
102
RTVSPropertyOp29
 70
     1
102
RTVSPropertyOp30
 70
     1
102
RTVSPropertyOp31
 70
     1
102
RTVSPropertyOp32
 70
     1
  0
XRECORD
  5
369
102
{ACAD_REACTORS
330
368
102
}
330
368
100
AcDbXrecord
280
     1
102
RTVSPropertyOp0
 70
     1
102
RTVSPropertyOp1
 70
     1
102
RTVSPropertyOp2
 70
     1
102
RTVSPropertyOp3
 70
     1
102
RTVSPropertyOp4
 70
     1
102
RTVSPropertyOp5
 70
     1
102
RTVSPropertyOp6
 70
     1
102
RTVSPropertyOp7
 70
     1
102
RTVSPropertyOp8
 70
     1
102
RTVSPropertyOp9
 70
     1
102
RTVSPropertyOp10
 70
     1
102
RTVSPropertyOp11
 70
     1
102
RTVSPropertyOp12
 70
     1
102
RTVSPropertyOp13
 70
     1
102
RTVSPropertyOp14
 70
     1
102
RTVSPropertyOp15
 70
     1
102
RTVSPropertyOp16
 70
     1
102
RTVSPropertyOp17
 70
     1
102
RTVSPropertyOp18
 70
     1
102
RTVSPropertyOp19
 70
     1
102
RTVSPropertyOp20
 70
     1
102
RTVSPropertyOp21
 70
     1
102
RTVSPropertyOp22
 70
     1
102
RTVSPropertyOp23
 70
     1
102
RTVSPropertyOp24
 70
     1
102
RTVSPropertyOp25
 70
     1
102
RTVSPropertyOp26
 70
     1
102
RTVSPropertyOp27
 70
     1
102
RTVSPropertyOp28
 70
     1
102
RTVSPropertyOp29
 70
     1
102
RTVSPropertyOp30
 70
     1
102
RTVSPropertyOp31
 70
     1
102
RTVSPropertyOp32
 70
     1
  0
XRECORD
  5
383
102
{ACAD_REACTORS
330
382
102
}
330
382
100
AcDbXrecord
280
     1
102
RTVSPropertyOp0
 70
     0
102
RTVSPropertyOp1
 70
     0
102
RTVSPropertyOp2
 70
     0
102
RTVSPropertyOp3
 70
     0
102
RTVSPropertyOp4
 70
     0
102
RTVSPropertyOp5
 70
     0
102
RTVSPropertyOp6
 70
     0
102
RTVSPropertyOp7
 70
     0
102
RTVSPropertyOp8
 70
     0
102
RTVSPropertyOp9
 70
     0
102
RTVSPropertyOp10
 70
     0
102
RTVSPropertyOp11
 70
     0
102
RTVSPropertyOp12
 70
     0
102
RTVSPropertyOp13
 70
     0
102
RTVSPropertyOp14
 70
     2
102
RTVSPropertyOp15
 70
     0
102
RTVSPropertyOp16
 70
     0
102
RTVSPropertyOp17
 70
     0
102
RTVSPropertyOp18
 70
     0
102
RTVSPropertyOp19
 70
     0
102
RTVSPropertyOp20
 70
     0
102
RTVSPropertyOp21
 70
     0
102
RTVSPropertyOp22
 70
     0
102
RTVSPropertyOp23
 70
     0
102
RTVSPropertyOp24
 70
     0
102
RTVSPropertyOp25
 70
     0
102
RTVSPropertyOp26
 70
     0
102
RTVSPropertyOp27
 70
     0
102
RTVSPropertyOp28
 70
     0
102
RTVSPropertyOp29
 70
     0
102
RTVSPropertyOp30
 70
     0
102
RTVSPropertyOp31
 70
     0
102
RTVSPropertyOp32
 70
     0
  0
XRECORD
  5
373
102
{ACAD_REACTORS
330
372
102
}
330
372
100
AcDbXrecord
280
     1
102
RTVSPropertyOp0
 70
     1
102
RTVSPropertyOp1
 70
     1
102
RTVSPropertyOp2
 70
     1
102
RTVSPropertyOp3
 70
     1
102
RTVSPropertyOp4
 70
     1
102
RTVSPropertyOp5
 70
     1
102
RTVSPropertyOp6
 70
     1
102
RTVSPropertyOp7
 70
     1
102
RTVSPropertyOp8
 70
     1
102
RTVSPropertyOp9
 70
     1
102
RTVSPropertyOp10
 70
     1
102
RTVSPropertyOp11
 70
     1
102
RTVSPropertyOp12
 70
     1
102
RTVSPropertyOp13
 70
     1
102
RTVSPropertyOp14
 70
     1
102
RTVSPropertyOp15
 70
     1
102
RTVSPropertyOp16
 70
     1
102
RTVSPropertyOp17
 70
     1
102
RTVSPropertyOp18
 70
     1
102
RTVSPropertyOp19
 70
     1
102
RTVSPropertyOp20
 70
     1
102
RTVSPropertyOp21
 70
     1
102
RTVSPropertyOp22
 70
     1
102
RTVSPropertyOp23
 70
     1
102
RTVSPropertyOp24
 70
     1
102
RTVSPropertyOp25
 70
     1
102
RTVSPropertyOp26
 70
     1
102
RTVSPropertyOp27
 70
     1
102
RTVSPropertyOp28
 70
     1
102
RTVSPropertyOp29
 70
     1
102
RTVSPropertyOp30
 70
     1
102
RTVSPropertyOp31
 70
     1
102
RTVSPropertyOp32
 70
     1
  0
XRECORD
  5
385
102
{ACAD_REACTORS
330
384
102
}
330
384
100
AcDbXrecord
280
     1
102
RTVSPropertyOp0
 70
     0
102
RTVSPropertyOp1
 70
     0
102
RTVSPropertyOp2
 70
     0
102
RTVSPropertyOp3
 70
     0
102
RTVSPropertyOp4
 70
     0
102
RTVSPropertyOp5
 70
     0
102
RTVSPropertyOp6
 70
     0
102
RTVSPropertyOp7
 70
     0
102
RTVSPropertyOp8
 70
     0
102
RTVSPropertyOp9
 70
     0
102
RTVSPropertyOp10
 70
     0
102
RTVSPropertyOp11
 70
     0
102
RTVSPropertyOp12
 70
     0
102
RTVSPropertyOp13
 70
     0
102
RTVSPropertyOp14
 70
     2
102
RTVSPropertyOp15
 70
     0
102
RTVSPropertyOp16
 70
     0
102
RTVSPropertyOp17
 70
     0
102
RTVSPropertyOp18
 70
     0
102
RTVSPropertyOp19
 70
     0
102
RTVSPropertyOp20
 70
     0
102
RTVSPropertyOp21
 70
     0
102
RTVSPropertyOp22
 70
     0
102
RTVSPropertyOp23
 70
     0
102
RTVSPropertyOp24
 70
     0
102
RTVSPropertyOp25
 70
     0
102
RTVSPropertyOp26
 70
     0
102
RTVSPropertyOp27
 70
     0
102
RTVSPropertyOp28
 70
     0
102
RTVSPropertyOp29
 70
     0
102
RTVSPropertyOp30
 70
     0
102
RTVSPropertyOp31
 70
     0
102
RTVSPropertyOp32
 70
     0
  0
XRECORD
  5
355
102
{ACAD_REACTORS
330
354
102
}
330
354
100
AcDbXrecord
280
     1
102
RTVSPropertyOp0
 70
     1
102
RTVSPropertyOp1
 70
     1
102
RTVSPropertyOp2
 70
     1
102
RTVSPropertyOp3
 70
     1
102
RTVSPropertyOp4
 70
     1
102
RTVSPropertyOp5
 70
     1
102
RTVSPropertyOp6
 70
     1
102
RTVSPropertyOp7
 70
     1
102
RTVSPropertyOp8
 70
     1
102
RTVSPropertyOp9
 70
     1
102
RTVSPropertyOp10
 70
     1
102
RTVSPropertyOp11
 70
     1
102
RTVSPropertyOp12
 70
     1
102
RTVSPropertyOp13
 70
     1
102
RTVSPropertyOp14
 70
     1
102
RTVSPropertyOp15
 70
     1
102
RTVSPropertyOp16
 70
     1
102
RTVSPropertyOp17
 70
     1
102
RTVSPropertyOp18
 70
     1
102
RTVSPropertyOp19
 70
     1
102
RTVSPropertyOp20
 70
     1
102
RTVSPropertyOp21
 70
     1
102
RTVSPropertyOp22
 70
     1
102
RTVSPropertyOp23
 70
     1
102
RTVSPropertyOp24
 70
     1
102
RTVSPropertyOp25
 70
     1
102
RTVSPropertyOp26
 70
     1
102
RTVSPropertyOp27
 70
     1
102
RTVSPropertyOp28
 70
     1
102
RTVSPropertyOp29
 70
     1
102
RTVSPropertyOp30
 70
     1
102
RTVSPropertyOp31
 70
     1
102
RTVSPropertyOp32
 70
     1
  0
XRECORD
  5
381
102
{ACAD_REACTORS
330
380
102
}
330
380
100
AcDbXrecord
280
     1
102
RTVSPropertyOp0
 70
     1
102
RTVSPropertyOp1
 70
     1
102
RTVSPropertyOp2
 70
     1
102
RTVSPropertyOp3
 70
     1
102
RTVSPropertyOp4
 70
     1
102
RTVSPropertyOp5
 70
     1
102
RTVSPropertyOp6
 70
     1
102
RTVSPropertyOp7
 70
     1
102
RTVSPropertyOp8
 70
     1
102
RTVSPropertyOp9
 70
     1
102
RTVSPropertyOp10
 70
     1
102
RTVSPropertyOp11
 70
     1
102
RTVSPropertyOp12
 70
     1
102
RTVSPropertyOp13
 70
     1
102
RTVSPropertyOp14
 70
     1
102
RTVSPropertyOp15
 70
     1
102
RTVSPropertyOp16
 70
     1
102
RTVSPropertyOp17
 70
     1
102
RTVSPropertyOp18
 70
     1
102
RTVSPropertyOp19
 70
     1
102
RTVSPropertyOp20
 70
     1
102
RTVSPropertyOp21
 70
     1
102
RTVSPropertyOp22
 70
     1
102
RTVSPropertyOp23
 70
     1
102
RTVSPropertyOp24
 70
     1
102
RTVSPropertyOp25
 70
     1
102
RTVSPropertyOp26
 70
     1
102
RTVSPropertyOp27
 70
     1
102
RTVSPropertyOp28
 70
     1
102
RTVSPropertyOp29
 70
     1
102
RTVSPropertyOp30
 70
     1
102
RTVSPropertyOp31
 70
     1
102
RTVSPropertyOp32
 70
     1
  0
XRECORD
  5
37F
102
{ACAD_REACTORS
330
37E
102
}
330
37E
100
AcDbXrecord
280
     1
102
RTVSPropertyOp0
 70
     1
102
RTVSPropertyOp1
 70
     1
102
RTVSPropertyOp2
 70
     1
102
RTVSPropertyOp3
 70
     1
102
RTVSPropertyOp4
 70
     1
102
RTVSPropertyOp5
 70
     1
102
RTVSPropertyOp6
 70
     1
102
RTVSPropertyOp7
 70
     1
102
RTVSPropertyOp8
 70
     1
102
RTVSPropertyOp9
 70
     1
102
RTVSPropertyOp10
 70
     1
102
RTVSPropertyOp11
 70
     1
102
RTVSPropertyOp12
 70
     1
102
RTVSPropertyOp13
 70
     1
102
RTVSPropertyOp14
 70
     1
102
RTVSPropertyOp15
 70
     1
102
RTVSPropertyOp16
 70
     1
102
RTVSPropertyOp17
 70
     1
102
RTVSPropertyOp18
 70
     1
102
RTVSPropertyOp19
 70
     1
102
RTVSPropertyOp20
 70
     1
102
RTVSPropertyOp21
 70
     1
102
RTVSPropertyOp22
 70
     1
102
RTVSPropertyOp23
 70
     1
102
RTVSPropertyOp24
 70
     1
102
RTVSPropertyOp25
 70
     1
102
RTVSPropertyOp26
 70
     1
102
RTVSPropertyOp27
 70
     1
102
RTVSPropertyOp28
 70
     1
102
RTVSPropertyOp29
 70
     1
102
RTVSPropertyOp30
 70
     1
102
RTVSPropertyOp31
 70
     1
102
RTVSPropertyOp32
 70
     1
  0
XRECORD
  5
379
102
{ACAD_REACTORS
330
378
102
}
330
378
100
AcDbXrecord
280
     1
102
RTVSPropertyOp0
 70
     1
102
RTVSPropertyOp1
 70
     1
102
RTVSPropertyOp2
 70
     1
102
RTVSPropertyOp3
 70
     1
102
RTVSPropertyOp4
 70
     1
102
RTVSPropertyOp5
 70
     1
102
RTVSPropertyOp6
 70
     1
102
RTVSPropertyOp7
 70
     1
102
RTVSPropertyOp8
 70
     1
102
RTVSPropertyOp9
 70
     1
102
RTVSPropertyOp10
 70
     1
102
RTVSPropertyOp11
 70
     1
102
RTVSPropertyOp12
 70
     1
102
RTVSPropertyOp13
 70
     1
102
RTVSPropertyOp14
 70
     1
102
RTVSPropertyOp15
 70
     1
102
RTVSPropertyOp16
 70
     1
102
RTVSPropertyOp17
 70
     1
102
RTVSPropertyOp18
 70
     1
102
RTVSPropertyOp19
 70
     1
102
RTVSPropertyOp20
 70
     1
102
RTVSPropertyOp21
 70
     1
102
RTVSPropertyOp22
 70
     1
102
RTVSPropertyOp23
 70
     1
102
RTVSPropertyOp24
 70
     1
102
RTVSPropertyOp25
 70
     1
102
RTVSPropertyOp26
 70
     1
102
RTVSPropertyOp27
 70
     1
102
RTVSPropertyOp28
 70
     1
102
RTVSPropertyOp29
 70
     1
102
RTVSPropertyOp30
 70
     1
102
RTVSPropertyOp31
 70
     1
102
RTVSPropertyOp32
 70
     1
  0
XRECORD
  5
37B
102
{ACAD_REACTORS
330
37A
102
}
330
37A
100
AcDbXrecord
280
     1
102
RTVSPropertyOp0
 70
     1
102
RTVSPropertyOp1
 70
     1
102
RTVSPropertyOp2
 70
     1
102
RTVSPropertyOp3
 70
     1
102
RTVSPropertyOp4
 70
     1
102
RTVSPropertyOp5
 70
     1
102
RTVSPropertyOp6
 70
     1
102
RTVSPropertyOp7
 70
     1
102
RTVSPropertyOp8
 70
     1
102
RTVSPropertyOp9
 70
     1
102
RTVSPropertyOp10
 70
     1
102
RTVSPropertyOp11
 70
     1
102
RTVSPropertyOp12
 70
     1
102
RTVSPropertyOp13
 70
     1
102
RTVSPropertyOp14
 70
     1
102
RTVSPropertyOp15
 70
     1
102
RTVSPropertyOp16
 70
     1
102
RTVSPropertyOp17
 70
     1
102
RTVSPropertyOp18
 70
     1
102
RTVSPropertyOp19
 70
     1
102
RTVSPropertyOp20
 70
     1
102
RTVSPropertyOp21
 70
     1
102
RTVSPropertyOp22
 70
     1
102
RTVSPropertyOp23
 70
     1
102
RTVSPropertyOp24
 70
     1
102
RTVSPropertyOp25
 70
     1
102
RTVSPropertyOp26
 70
     1
102
RTVSPropertyOp27
 70
     1
102
RTVSPropertyOp28
 70
     1
102
RTVSPropertyOp29
 70
     1
102
RTVSPropertyOp30
 70
     1
102
RTVSPropertyOp31
 70
     1
102
RTVSPropertyOp32
 70
     1
  0
XRECORD
  5
371
102
{ACAD_REACTORS
330
370
102
}
330
370
100
AcDbXrecord
280
     1
102
RTVSPropertyOp0
 70
     1
102
RTVSPropertyOp1
 70
     1
102
RTVSPropertyOp2
 70
     1
102
RTVSPropertyOp3
 70
     1
102
RTVSPropertyOp4
 70
     1
102
RTVSPropertyOp5
 70
     1
102
RTVSPropertyOp6
 70
     1
102
RTVSPropertyOp7
 70
     1
102
RTVSPropertyOp8
 70
     1
102
RTVSPropertyOp9
 70
     1
102
RTVSPropertyOp10
 70
     1
102
RTVSPropertyOp11
 70
     1
102
RTVSPropertyOp12
 70
     1
102
RTVSPropertyOp13
 70
     1
102
RTVSPropertyOp14
 70
     1
102
RTVSPropertyOp15
 70
     1
102
RTVSPropertyOp16
 70
     1
102
RTVSPropertyOp17
 70
     1
102
RTVSPropertyOp18
 70
     1
102
RTVSPropertyOp19
 70
     1
102
RTVSPropertyOp20
 70
     1
102
RTVSPropertyOp21
 70
     1
102
RTVSPropertyOp22
 70
     1
102
RTVSPropertyOp23
 70
     1
102
RTVSPropertyOp24
 70
     1
102
RTVSPropertyOp25
 70
     1
102
RTVSPropertyOp26
 70
     1
102
RTVSPropertyOp27
 70
     1
102
RTVSPropertyOp28
 70
     1
102
RTVSPropertyOp29
 70
     1
102
RTVSPropertyOp30
 70
     1
102
RTVSPropertyOp31
 70
     1
102
RTVSPropertyOp32
 70
     1
  0
XRECORD
  5
357
102
{ACAD_REACTORS
330
356
102
}
330
356
100
AcDbXrecord
280
     1
102
RTVSPropertyOp0
 70
     1
102
RTVSPropertyOp1
 70
     1
102
RTVSPropertyOp2
 70
     1
102
RTVSPropertyOp3
 70
     1
102
RTVSPropertyOp4
 70
     1
102
RTVSPropertyOp5
 70
     1
102
RTVSPropertyOp6
 70
     1
102
RTVSPropertyOp7
 70
     1
102
RTVSPropertyOp8
 70
     1
102
RTVSPropertyOp9
 70
     1
102
RTVSPropertyOp10
 70
     1
102
RTVSPropertyOp11
 70
     1
102
RTVSPropertyOp12
 70
     1
102
RTVSPropertyOp13
 70
     1
102
RTVSPropertyOp14
 70
     1
102
RTVSPropertyOp15
 70
     1
102
RTVSPropertyOp16
 70
     1
102
RTVSPropertyOp17
 70
     1
102
RTVSPropertyOp18
 70
     1
102
RTVSPropertyOp19
 70
     1
102
RTVSPropertyOp20
 70
     1
102
RTVSPropertyOp21
 70
     1
102
RTVSPropertyOp22
 70
     1
102
RTVSPropertyOp23
 70
     1
102
RTVSPropertyOp24
 70
     1
102
RTVSPropertyOp25
 70
     1
102
RTVSPropertyOp26
 70
     1
102
RTVSPropertyOp27
 70
     1
102
RTVSPropertyOp28
 70
     1
102
RTVSPropertyOp29
 70
     1
102
RTVSPropertyOp30
 70
     1
102
RTVSPropertyOp31
 70
     1
102
RTVSPropertyOp32
 70
     1
  0
XRECORD
  5
37D
102
{ACAD_REACTORS
330
37C
102
}
330
37C
100
AcDbXrecord
280
     1
102
RTVSPropertyOp0
 70
     1
102
RTVSPropertyOp1
 70
     1
102
RTVSPropertyOp2
 70
     1
102
RTVSPropertyOp3
 70
     1
102
RTVSPropertyOp4
 70
     1
102
RTVSPropertyOp5
 70
     1
102
RTVSPropertyOp6
 70
     1
102
RTVSPropertyOp7
 70
     1
102
RTVSPropertyOp8
 70
     1
102
RTVSPropertyOp9
 70
     1
102
RTVSPropertyOp10
 70
     1
102
RTVSPropertyOp11
 70
     1
102
RTVSPropertyOp12
 70
     1
102
RTVSPropertyOp13
 70
     1
102
RTVSPropertyOp14
 70
     1
102
RTVSPropertyOp15
 70
     1
102
RTVSPropertyOp16
 70
     1
102
RTVSPropertyOp17
 70
     1
102
RTVSPropertyOp18
 70
     1
102
RTVSPropertyOp19
 70
     1
102
RTVSPropertyOp20
 70
     1
102
RTVSPropertyOp21
 70
     1
102
RTVSPropertyOp22
 70
     1
102
RTVSPropertyOp23
 70
     1
102
RTVSPropertyOp24
 70
     1
102
RTVSPropertyOp25
 70
     1
102
RTVSPropertyOp26
 70
     1
102
RTVSPropertyOp27
 70
     1
102
RTVSPropertyOp28
 70
     1
102
RTVSPropertyOp29
 70
     1
102
RTVSPropertyOp30
 70
     1
102
RTVSPropertyOp31
 70
     1
102
RTVSPropertyOp32
 70
     1
  0
ENDSEC
  0
EOF
