  0
SECTION
  2
HEADER
  9
$ACADVER
  1
AC1015
  9
$ACADMAINTVER
 70
    18
  9
$DWGCODEPAGE
  3
ANSI_1252
  9
$INSBASE
 10
0.0
 20
0.0
 30
0.0
  9
$EXTMIN
 10
-56.55079380626649
 20
-30.88816641281392
 30
-0.0015258207003583
  9
$EXTMAX
 10
56.56894065901724
 20
14.15440468205406
 30
0.0000000349246037
  9
$LIMMIN
 10
0.0
 20
0.0
  9
$LIMMAX
 10
1189.0
 20
840.9999999999998
  9
$ORTHOMODE
 70
     0
  9
$REGENMODE
 70
     1
  9
$FILLMODE
 70
     1
  9
$QTEXTMODE
 70
     0
  9
$MIRRTEXT
 70
     0
  9
$LTSCALE
 40
1.0
  9
$ATTMODE
 70
     1
  9
$TEXTSIZE
 40
0.2
  9
$TRACEWID
 40
0.05
  9
$TEXTSTYLE
  7
STANDARD
  9
$CLAYER
  8
0
  9
$CELTYPE
  6
ByLayer
  9
$CECOLOR
 62
   256
  9
$CELTSCALE
 40
1.0
  9
$DISPSILH
 70
     0
  9
$DIMSCALE
 40
1.0
  9
$DIMASZ
 40
180.0
  9
$DIMEXO
 40
0.0625
  9
$DIMDLI
 40
0.38
  9
$DIMRND
 40
0.0
  9
$DIMDLE
 40
0.0
  9
$DIMEXE
 40
0.18
  9
$DIMTP
 40
0.0
  9
$DIMTM
 40
0.0
  9
$DIMTXT
 40
34.99999940395355
  9
$DIMCEN
 40
0.09
  9
$DIMTSZ
 40
0.0
  9
$DIMTOL
 70
     0
  9
$DIMLIM
 70
     0
  9
$DIMTIH
 70
     1
  9
$DIMTOH
 70
     1
  9
$DIMSE1
 70
     0
  9
$DIMSE2
 70
     0
  9
$DIMTAD
 70
     0
  9
$DIMZIN
 70
     0
  9
$DIMBLK
  1

  9
$DIMASO
 70
     1
  9
$DIMSHO
 70
     1
  9
$DIMPOST
  1

  9
$DIMAPOST
  1

  9
$DIMALT
 70
     0
  9
$DIMALTD
 70
     2
  9
$DIMALTF
 40
25.4
  9
$DIMLFAC
 40
1.0
  9
$DIMTOFL
 70
     0
  9
$DIMTVP
 40
0.0
  9
$DIMTIX
 70
     0
  9
$DIMSOXD
 70
     0
  9
$DIMSAH
 70
     0
  9
$DIMBLK1
  1

  9
$DIMBLK2
  1

  9
$DIMSTYLE
  2
STANDARD
  9
$DIMCLRD
 70
     0
  9
$DIMCLRE
 70
     0
  9
$DIMCLRT
 70
     0
  9
$DIMTFAC
 40
1.0
  9
$DIMGAP
 40
0.09
  9
$DIMJUST
 70
     0
  9
$DIMSD1
 70
     0
  9
$DIMSD2
 70
     0
  9
$DIMTOLJ
 70
     1
  9
$DIMTZIN
 70
     0
  9
$DIMALTZ
 70
     0
  9
$DIMALTTZ
 70
     0
  9
$DIMUPT
 70
     0
  9
$DIMDEC
 70
     4
  9
$DIMTDEC
 70
     4
  9
$DIMALTU
 70
     2
  9
$DIMALTTD
 70
     2
  9
$DIMTXSTY
  7
STANDARD
  9
$DIMAUNIT
 70
     0
  9
$DIMADEC
 70
     0
  9
$DIMALTRND
 40
0.0
  9
$DIMAZIN
 70
     0
  9
$DIMDSEP
 70
    46
  9
$DIMATFIT
 70
     3
  9
$DIMFRAC
 70
     0
  9
$DIMLDRBLK
  1

  9
$DIMLUNIT
 70
     2
  9
$DIMLWD
 70
    -2
  9
$DIMLWE
 70
    -2
  9
$DIMTMOVE
 70
     0
  9
$LUNITS
 70
     2
  9
$LUPREC
 70
     4
  9
$SKETCHINC
 40
0.1
  9
$FILLETRAD
 40
0.0
  9
$AUNITS
 70
     0
  9
$AUPREC
 70
     0
  9
$MENU
  1
.
  9
$ELEVATION
 40
0.0
  9
$PELEVATION
 40
0.0
  9
$THICKNESS
 40
0.0
  9
$LIMCHECK
 70
     0
  9
$CHAMFERA
 40
0.0
  9
$CHAMFERB
 40
0.0
  9
$CHAMFERC
 40
0.0
  9
$CHAMFERD
 40
0.0
  9
$SKPOLY
 70
     0
  9
$TDCREATE
 40
2454871.539305995
  9
$TDUCREATE
 40
2454871.455972662
  9
$TDUPDATE
 40
2455726.885535104
  9
$TDUUPDATE
 40
2455726.802201771
  9
$TDINDWG
 40
0.0121691088
  9
$TDUSRTIMER
 40
0.0121691088
  9
$USRTIMER
 70
     1
  9
$ANGBASE
 50
0.0
  9
$ANGDIR
 70
     0
  9
$PDMODE
 70
     0
  9
$PDSIZE
 40
0.0
  9
$PLINEWID
 40
0.0
  9
$SPLFRAME
 70
     0
  9
$SPLINETYPE
 70
     6
  9
$SPLINESEGS
 70
     8
  9
$HANDSEED
  5
38F
  9
$SURFTAB1
 70
     6
  9
$SURFTAB2
 70
     6
  9
$SURFTYPE
 70
     6
  9
$SURFU
 70
     6
  9
$SURFV
 70
     6
  9
$UCSBASE
  2

  9
$UCSNAME
  2

  9
$UCSORG
 10
0.0
 20
0.0
 30
0.0
  9
$UCSXDIR
 10
1.0
 20
0.0
 30
0.0
  9
$UCSYDIR
 10
0.0
 20
1.0
 30
0.0
  9
$UCSORTHOREF
  2

  9
$UCSORTHOVIEW
 70
     0
  9
$UCSORGTOP
 10
0.0
 20
0.0
 30
0.0
  9
$UCSORGBOTTOM
 10
0.0
 20
0.0
 30
0.0
  9
$UCSORGLEFT
 10
0.0
 20
0.0
 30
0.0
  9
$UCSORGRIGHT
 10
0.0
 20
0.0
 30
0.0
  9
$UCSORGFRONT
 10
0.0
 20
0.0
 30
0.0
  9
$UCSORGBACK
 10
0.0
 20
0.0
 30
0.0
  9
$PUCSBASE
  2

  9
$PUCSNAME
  2

  9
$PUCSORG
 10
0.0
 20
0.0
 30
0.0
  9
$PUCSXDIR
 10
1.0
 20
0.0
 30
0.0
  9
$PUCSYDIR
 10
0.0
 20
1.0
 30
0.0
  9
$PUCSORTHOREF
  2

  9
$PUCSORTHOVIEW
 70
     0
  9
$PUCSORGTOP
 10
0.0
 20
0.0
 30
0.0
  9
$PUCSORGBOTTOM
 10
0.0
 20
0.0
 30
0.0
  9
$PUCSORGLEFT
 10
0.0
 20
0.0
 30
0.0
  9
$PUCSORGRIGHT
 10
0.0
 20
0.0
 30
0.0
  9
$PUCSORGFRONT
 10
0.0
 20
0.0
 30
0.0
  9
$PUCSORGBACK
 10
0.0
 20
0.0
 30
0.0
  9
$USERI1
 70
     0
  9
$USERI2
 70
     0
  9
$USERI3
 70
     0
  9
$USERI4
 70
     0
  9
$USERI5
 70
     0
  9
$USERR1
 40
0.0
  9
$USERR2
 40
0.0
  9
$USERR3
 40
0.0
  9
$USERR4
 40
0.0
  9
$USERR5
 40
0.0
  9
$WORLDVIEW
 70
     1
  9
$SHADEDGE
 70
     3
  9
$SHADEDIF
 70
    70
  9
$TILEMODE
 70
     1
  9
$MAXACTVP
 70
    64
  9
$PINSBASE
 10
0.0
 20
0.0
 30
0.0
  9
$PLIMCHECK
 70
     0
  9
$PEXTMIN
 10
0.0
 20
0.0
 30
0.0
  9
$PEXTMAX
 10
1189.0
 20
840.9999999999998
 30
0.0
  9
$PLIMMIN
 10
0.0
 20
0.0
  9
$PLIMMAX
 10
1189.0
 20
840.9999999999998
  9
$UNITMODE
 70
     0
  9
$VISRETAIN
 70
     1
  9
$PLINEGEN
 70
     0
  9
$PSLTSCALE
 70
     1
  9
$TREEDEPTH
 70
  3020
  9
$CMLSTYLE
  2
Standard
  9
$CMLJUST
 70
     0
  9
$CMLSCALE
 40
1.0
  9
$PROXYGRAPHICS
 70
     1
  9
$MEASUREMENT
 70
     1
  9
$CELWEIGHT
370
    -1
  9
$ENDCAPS
280
     0
  9
$JOINSTYLE
280
     0
  9
$LWDISPLAY
290
     0
  9
$INSUNITS
 70
     4
  9
$HYPERLINKBASE
  1

  9
$STYLESHEET
  1

  9
$XEDIT
290
     1
  9
$CEPSNTYPE
380
     0
  9
$PSTYLEMODE
290
     1
  9
$FINGERPRINTGUID
  2
{913B66BE-59CC-4D7A-8278-089DDA6AE071}
  9
$VERSIONGUID
  2
{7B1A282F-0BAB-4C10-B496-7B591DE635EF}
  9
$EXTNAMES
290
     1
  9
$PSVPSCALE
 40
0.0
  9
$OLESTARTUP
290
     0
  0
ENDSEC
  0
SECTION
  2
CLASSES
  0
CLASS
  1
ACDBDICTIONARYWDFLT
  2
AcDbDictionaryWithDefault
  3
ObjectDBX Classes
 90
        0
280
     0
281
     0
  0
CLASS
  1
MATERIAL
  2
AcDbMaterial
  3
ObjectDBX Classes
 90
     1153
280
     0
281
     0
  0
CLASS
  1
VISUALSTYLE
  2
AcDbVisualStyle
  3
ObjectDBX Classes
 90
     4095
280
     0
281
     0
  0
CLASS
  1
SCALE
  2
AcDbScale
  3
ObjectDBX Classes
 90
     1153
280
     0
281
     0
  0
CLASS
  1
TABLESTYLE
  2
AcDbTableStyle
  3
ObjectDBX Classes
 90
     4095
280
     0
281
     0
  0
CLASS
  1
MLEADERSTYLE
  2
AcDbMLeaderStyle
  3
ACDB_MLEADERSTYLE_CLASS
 90
     4095
280
     0
281
     0
  0
CLASS
  1
SORTENTSTABLE
  2
AcDbSortentsTable
  3
ObjectDBX Classes
 90
        0
280
     0
281
     0
  0
CLASS
  1
CELLSTYLEMAP
  2
AcDbCellStyleMap
  3
ObjectDBX Classes
 90
     1152
280
     0
281
     0
  0
CLASS
  1
DICTIONARYVAR
  2
AcDbDictionaryVar
  3
ObjectDBX Classes
 90
        0
280
     0
281
     0
  0
CLASS
  1
ACME_DOCUMENT
  2
AcMeDbDoc
  3
AcMeServices
 90
     1024
280
     0
281
     0
  0
CLASS
  1
AMGSETTINGSOBJ
  2
AmgSettingsObj
  3
"AcadM|Product Description: AutoCAD Mechanical|Company: Autodesk, Inc."
 90
     1024
280
     0
281
     0
  0
CLASS
  1
ACMESCOPE
  2
AcMeScope
  3
AcMeServices
 90
     1024
280
     0
281
     0
  0
CLASS
  1
ACMECOMMANDHISTORY
  2
AcMeCommandHistory
  3
AcMeServices
 90
     1024
280
     0
281
     0
  0
CLASS
  1
ACIMSYSVARMAN
  2
AcImSysVarManager
  3
AcMeServices
 90
     1024
280
     0
281
     0
  0
CLASS
  1
ACIMINTSYSVAR
  2
AcImIntSysVar
  3
AcMeServices
 90
     1024
280
     0
281
     0
  0
CLASS
  1
ACMEDRAWINGMAN
  2
AcMeDrawingMan
  3
AcMeServices
 90
    33792
280
     0
281
     0
  0
CLASS
  1
ACMEVIEW
  2
AcMeView
  3
AcMeServices
 90
    33792
280
     0
281
     0
  0
CLASS
  1
ACDBENTITYCACHE
  2
AcMeEntityCache
  3
AcMeServices
 90
     1024
280
     0
281
     0
  0
CLASS
  1
GSMANAGER
  2
AcMeGSManager
  3
AcMeServices
 90
    33792
280
     1
281
     0
  0
CLASS
  1
AMDTINTERNALREACTOR
  2
AmdtInternalReactor
  3
AcMeServices
 90
     1024
280
     0
281
     0
  0
CLASS
  1
ACMESTATEMGR
  2
AcMeStateMgr
  3
AcMeServices
 90
     1024
280
     0
281
     0
  0
CLASS
  1
ACGREFMASTER
  2
AcGrefMaster
  3
AcAttribServices
 90
     1024
280
     0
281
     0
  0
CLASS
  1
AM_DRAWING_MGR
  2
AcDmDwgMgr
  3
AcMechDwgViewMgmt
 90
     1024
280
     0
281
     0
  0
CLASS
  1
AM_DWG_DOCUMENT
  2
AcDmDwgDocument
  3
AcMechDwgViewMgmt
 90
     1024
280
     0
281
     0
  0
CLASS
  1
AM_DWG_SHEET
  2
AcDmSheet
  3
AcMechDwgViewMgmt
 90
     1024
280
     0
281
     0
  0
CLASS
  1
AM_VIEWDIMPARMAP
  2
AcDmViewDimParMap
  3
AcMechDwgViewMgmt
 90
     1024
280
     0
281
     0
  0
CLASS
  1
ACIMREALSYSVAR
  2
AcImRealSysVar
  3
AcMeServices
 90
     1024
280
     0
281
     0
  0
CLASS
  1
AM_DWGMGR_NAME
  2
AcDmDwgMgrName
  3
AcMechDwgViewMgmt
 90
     1024
280
     0
281
     0
  0
CLASS
  1
ACME_DATABASE
  2
AcMeDbDatabase
  3
AcMeServices
 90
     1024
280
     0
281
     0
  0
CLASS
  1
ACRFINSADJUSTERMGR
  2
AcRfInsAdjusterMgr
  3
AcMeServices
 90
     1024
280
     0
281
     0
  0
CLASS
  1
ACGREFACADMASTER
  2
AcGrefacadMaster
  3
AcGrefServices
 90
     1024
280
     0
281
     0
  0
CLASS
  1
AMDTMENUSTATEMGR
  2
AmdtMenuStateMgr
  3
McadcomServices
 90
     1024
280
     0
281
     0
  0
CLASS
  1
AMDTMCOMMENUSTATE
  2
AmdtMcomMenuState
  3
McadcomServices
 90
     1024
280
     0
281
     0
  0
CLASS
  1
AMIMASTER
  2
AmiMaster
  3
AmiServices
 90
     1024
280
     0
281
     0
  0
CLASS
  1
MAPIAMMOUDLE
  2
MApiAmModule
  3
MApiAmServices
 90
     1024
280
     0
281
     0
  0
CLASS
  1
ACIMSTRSYSVAR
  2
AcImStrSysVar
  3
AcMeServices
 90
     1024
280
     0
281
     0
  0
CLASS
  1
AMDTADMENUSTATE
  2
AmdtAdMenuState
  3
DesignerServices
 90
    33792
280
     1
281
     0
  0
CLASS
  1
ADAPPL
  2
AcAdAppl
  3
DesignerAssemblies
 90
    33792
280
     0
281
     0
  0
CLASS
  1
DEPMGR
  2
AcAdDepMgr
  3
DesignerAssemblies
 90
    33792
280
     0
281
     0
  0
CLASS
  1
PARAMMGR
  2
AcAdParamMgr
  3
DesignerAssemblies
 90
    33792
280
     0
281
     0
  0
CLASS
  1
PARAMSCOPE
  2
AcAdParamScope
  3
DesignerAssemblies
 90
    33792
280
     0
281
     0
  0
CLASS
  1
NAMEDAPPL
  2
AcAdNamedAppl
  3
DesignerAssemblies
 90
    33792
280
     0
281
     0
  0
CLASS
  1
AMDTDMMENUSTATE
  2
AmdtDmMenuState
  3
AcMechDwgViewMgmt
 90
     1024
280
     0
281
     0
  0
CLASS
  1
AMDTAMMENUSTATE
  2
AmdtAmMenuState
  3
DesignerAssemblies
 90
     1024
280
     0
281
     0
  0
CLASS
  1
ACAMPROJECT
  2
AcAmProject
  3
DesignerAssemblies
 90
     1024
280
     0
281
     0
  0
CLASS
  1
ACAMGRCOMPDEF
  2
AcAmGrCompDef
  3
DesignerAssemblies
 90
     1024
280
     0
281
     0
  0
CLASS
  1
ACCMCONTEXT
  2
AcCmContext
  3
DesignerAssemblies
 90
    33792
280
     0
281
     0
  0
CLASS
  1
ACAMCOMPDEF
  2
AcAmCompDef
  3
DesignerAssemblies
 90
     1024
280
     0
281
     0
  0
CLASS
  1
ACAMCOMPDEFMGR
  2
AcAmCompDefMgr
  3
DesignerAssemblies
 90
     1024
280
     0
281
     0
  0
CLASS
  1
AMCONTEXTMGR
  2
AcAmContextMgr
  3
DesignerAssemblies
 90
     1024
280
     0
281
     0
  0
CLASS
  1
ACAMCONTEXTMODELER
  2
AcAmContextModeler
  3
DesignerAssemblies
 90
     1024
280
     0
281
     0
  0
CLASS
  1
ACMDATADICTIONARY
  2
AcmDataDictionary
  3
"AcmSymBB|Product Description: AutoCAD Mechanical|Company: Autodesk, Inc."
 90
     1024
280
     0
281
     0
  0
CLASS
  1
CATALOGSTATE
  2
AcAmCatalogState
  3
DesignerAssemblies
 90
    33792
280
     0
281
     0
  0
CLASS
  1
ACAMGRCOMPDEFSET
  2
AcAmGrCompDefSet
  3
DesignerAssemblies
 90
     1024
280
     0
281
     0
  0
CLASS
  1
AMDTBROWSERDBTAB
  2
AmdtBrowserDbTab
  3
McadcomServices
 90
     1024
280
     0
281
     0
  0
CLASS
  1
CBROWSERAPPOBJECT
  2
CBrowserAppObject
  3
McadcomServices
 90
     1024
280
     0
281
     0
  0
CLASS
  1
DM_PLACEHOLDER
  2
AcDmSelsetPlaceholder
  3
AcMechDwgViewMgmt
 90
     1024
280
     0
281
     0
  0
CLASS
  1
EXACXREFPANELOBJECT
  2
ExAcXREFPanelObject
  3
EXAC_ESW
 90
     1025
280
     0
281
     0
  0
CLASS
  1
NPOCOLLECTION
  2
AcDbImpNonPersistentObjectsCollection
  3
ObjectDBX Classes
 90
     1153
280
     0
281
     0
  0
CLASS
  1
ACMSTANDARDANSI
  2
AcmStandardANSI
  3
"Amdt_StdImp|Product Description: AutoCAD Mechanical|Company: Autodesk, Inc."
 90
     1024
280
     0
281
     0
  0
CLASS
  1
ACMSURFSTANDARDANSI
  2
AcmSurfTextStdANSI
  3
"Amdt_StdImp|Product Description: AutoCAD Mechanical|Company: Autodesk, Inc."
 90
     1024
280
     0
281
     0
  0
CLASS
  1
ACMFCFSTANDARDANSI
  2
AcmFCFStdANSI
  3
"Amdt_StdImp|Product Description: AutoCAD Mechanical|Company: Autodesk, Inc."
 90
     1024
280
     0
281
     0
  0
CLASS
  1
ACMWELDSTANDARDANSI
  2
AcmWeldingStdANSI
  3
"Amdt_StdImp|Product Description: AutoCAD Mechanical|Company: Autodesk, Inc."
 90
     1024
280
     0
281
     0
  0
CLASS
  1
ACMIDSTANDARDANSI
  2
AcmIdStdANSI
  3
"Amdt_StdImp|Product Description: AutoCAD Mechanical|Company: Autodesk, Inc."
 90
     1024
280
     0
281
     0
  0
CLASS
  1
ACMDATUMSTANDARDANSI
  2
AcmDatumStdANSI
  3
"Amdt_StdImp|Product Description: AutoCAD Mechanical|Company: Autodesk, Inc."
 90
     1024
280
     0
281
     0
  0
CLASS
  1
ACMBOMSTANDARDANSI
  2
AcmBOMStdANSI
  3
"Amdt_StdImp|Product Description: AutoCAD Mechanical|Company: Autodesk, Inc."
 90
     1024
280
     0
281
     0
  0
CLASS
  1
ACMDETAILSTANDARDANSI
  2
AmdtDetailSymStdANSI
  3
"Amdt_StdImp|Product Description: AutoCAD Mechanical|Company: Autodesk, Inc."
 90
     1024
280
     0
281
     0
  0
CLASS
  1
ACMSECTIONSTANDARDANSI
  2
AmdtSectionSymStdANSI
  3
"Amdt_StdImp|Product Description: AutoCAD Mechanical|Company: Autodesk, Inc."
 90
     1024
280
     0
281
     0
  0
CLASS
  1
ACMCENTERLINESTANDARDANSI
  2
AmdtCenterLineStdANSI
  3
"Amdt_StdImp|Product Description: AutoCAD Mechanical|Company: Autodesk, Inc."
 90
     1024
280
     0
281
     0
  0
CLASS
  1
ACMTHREADLINESTANDARDANSI
  2
AmdtThreadLineStdANSI
  3
"Amdt_StdImp|Product Description: AutoCAD Mechanical|Company: Autodesk, Inc."
 90
     1024
280
     0
281
     0
  0
CLASS
  1
ACMNOTESTANDARDANSI
  2
AmdtNoteStdANSI
  3
"Amdt_StdImp|Product Description: AutoCAD Mechanical|Company: Autodesk, Inc."
 90
     1024
280
     0
281
     0
  0
CLASS
  1
ACMTAPERSTANDARDANSI
  2
AcmTaperStdANSI
  3
"Amdt_StdImp|Product Description: AutoCAD Mechanical|Company: Autodesk, Inc."
 90
     1024
280
     0
281
     0
  0
CLASS
  1
ACMANOOTATIONVIEWSTANDARDANSI
  2
AmdtAnViewStdANSI
  3
"Amdt_StdImp|Product Description: AutoCAD Mechanical|Company: Autodesk, Inc."
 90
     1024
280
     0
281
     0
  0
CLASS
  1
ACAMGLAYSTD
  2
AcAmgLayStd
  3
"AmgLay|Product Description: AutoCAD Mechanical|Company: Autodesk, Inc."
 90
     1024
280
     0
281
     0
  0
CLASS
  1
ACAMGDIMSTD
  2
AcAmgDimStd
  3
"AmgDim|Product Description: AutoCAD Mechanical|Company: Autodesk, Inc."
 90
     1024
280
     0
281
     0
  0
CLASS
  1
AMGOBJPROPCFG
  2
AmgObjPropCfg
  3
"AmgLay|Product Description: AutoCAD Mechanical|Company: Autodesk, Inc."
 90
     1025
280
     0
281
     0
  0
CLASS
  1
ACAMGHOLECHARTSTDANSI
  2
AcAmgHoleChartStdANSI
  3
AmgDim|Product Description: AutoCAD Mechanical|Company: Autodesk, Inc.
 90
     1024
280
     0
281
     0
  0
CLASS
  1
ACAMGTITLESTD
  2
AcAmgTitleStd
  3
"AmgTitle|Product Description: AutoCAD Mechanical|Company: Autodesk, Inc."
 90
     4095
280
     0
281
     0
  0
CLASS
  1
AMDTNOTETEMPLATEDB
  2
AmdtNoteTemplateDB
  3
AcmSymBB|Product Description: AutoCAD Mechanical|Company: Autodesk, Inc.
 90
     1024
280
     0
281
     0
  0
CLASS
  1
ACAMGFILTERDAT
  2
AcAmgFilterDat
  3
"AcadM|Product Description: AutoCAD Mechanical|Company: Autodesk, Inc."
 90
    33792
280
     0
281
     0
  0
CLASS
  1
CAMSSTRUCTBTNSTATE
  2
StructBtnState
  3
DesignerAssemblies
 90
    33792
280
     0
281
     0
  0
CLASS
  1
ACDBPLACEHOLDER
  2
AcDbPlaceHolder
  3
ObjectDBX Classes
 90
        0
280
     0
281
     0
  0
CLASS
  1
LAYOUT
  2
AcDbLayout
  3
ObjectDBX Classes
 90
        0
280
     0
281
     0
  0
ENDSEC
  0
SECTION
  2
TABLES
  0
TABLE
  2
VPORT
  5
28
102
{ACAD_XDICTIONARY
360
2C
102
}
330
0
100
AcDbSymbolTable
 70
     1
  0
VPORT
  5
29
330
28
100
AcDbSymbolTableRecord
100
AcDbViewportTableRecord
  2
*ACTIVE
 70
     0
 10
0.0
 20
0.0
 11
1.0
 21
1.0
 12
0.0090734263753802
 22
-8.366880865379926
 13
0.0
 23
0.0
 14
1.0
 24
1.0
 15
0.0
 25
0.0
 16
0.0
 26
0.0
 36
1.0
 17
0.0
 27
0.0
 37
0.0
 40
60.97419814038221
 41
2.068965517241379
 42
50.0
 43
0.0
 44
0.0
 50
0.0
 51
0.0
 71
     0
 72
   100
 73
     1
 74
     1
 75
     0
 76
     0
 77
     0
 78
     0
281
     0
 65
     1
110
0.0
120
0.0
130
0.0
111
1.0
121
0.0
131
0.0
112
0.0
122
1.0
132
0.0
 79
     0
146
0.0
  0
ENDTAB
  0
TABLE
  2
LTYPE
  5
23
330
0
100
AcDbSymbolTable
 70
    11
  0
LTYPE
  5
24
330
23
100
AcDbSymbolTableRecord
100
AcDbLinetypeTableRecord
  2
ByBlock
 70
     0
  3

 72
    65
 73
     0
 40
0.0
  0
LTYPE
  5
25
330
23
100
AcDbSymbolTableRecord
100
AcDbLinetypeTableRecord
  2
ByLayer
 70
     0
  3

 72
    65
 73
     0
 40
0.0
  0
LTYPE
  5
13
330
23
100
AcDbSymbolTableRecord
100
AcDbLinetypeTableRecord
  2
CONTINUOUS
 70
     0
  3
Solid line
 72
    65
 73
     0
 40
0.0
  0
LTYPE
  5
299
330
23
100
AcDbSymbolTableRecord
100
AcDbLinetypeTableRecord
  2
HIDDEN
 70
     0
  3
Verdeckt
 72
    65
 73
     2
 40
0.375
 49
0.25
 74
     0
 49
-0.125
 74
     0
  0
LTYPE
  5
29B
330
23
100
AcDbSymbolTableRecord
100
AcDbLinetypeTableRecord
  2
PHANTOM2
 70
     0
  3
Phantom (.5x) ___ _ _ ___ _ _ ___ _ _ ___ _ _
 72
    65
 73
     6
 40
1.25
 49
0.625
 74
     0
 49
-0.125
 74
     0
 49
0.125
 74
     0
 49
-0.125
 74
     0
 49
0.125
 74
     0
 49
-0.125
 74
     0
  0
LTYPE
  5
29A
330
23
100
AcDbSymbolTableRecord
100
AcDbLinetypeTableRecord
  2
CENTER
 70
     0
  3
Mitte ____ _ ____ _ ____ _ ____ _ ____ _ ____
 72
    65
 73
     4
 40
2.0
 49
1.25
 74
     0
 49
-0.25
 74
     0
 49
0.25
 74
     0
 49
-0.25
 74
     0
  0
LTYPE
  5
29C
330
23
100
AcDbSymbolTableRecord
100
AcDbLinetypeTableRecord
  2
Amconstr
 70
     0
  3
_______________________
 72
    65
 73
     2
 40
9999.0
 49
9999.0
 74
     0
 49
0.0
 74
     0
  0
LTYPE
  5
29D
330
23
100
AcDbSymbolTableRecord
100
AcDbLinetypeTableRecord
  2
CENTER2
 70
     0
  3
Center (.5x) ___ _ ___ _ ___ _ ___ _ ___ _ ___
 72
    65
 73
     4
 40
1.125
 49
0.75
 74
     0
 49
-0.125
 74
     0
 49
0.125
 74
     0
 49
-0.125
 74
     0
  0
LTYPE
  5
29E
330
23
100
AcDbSymbolTableRecord
100
AcDbLinetypeTableRecord
  2
HIDDEN2
 70
     0
  3
Hidden (.5x) _ _ _ _ _ _ _ _ _ _ _ _ _ _ _ _ _
 72
    65
 73
     2
 40
0.1875
 49
0.125
 74
     0
 49
-0.0625
 74
     0
  0
LTYPE
  5
29F
330
23
100
AcDbSymbolTableRecord
100
AcDbLinetypeTableRecord
  2
Amzigzag2
 70
     0
  3
/\/-/\/-/\/-/\/-/\/-/\/
 72
    65
 73
     2
 40
0.4401
 49
0.0001
 74
     4
 75
   136
340
2A0
 46
0.0016
 50
0.0
 44
0.0
 45
0.0
 49
-0.4400000000000001
 74
     0
  0
LTYPE
  5
2B0
330
23
100
AcDbSymbolTableRecord
100
AcDbLinetypeTableRecord
  2
ACANSTGB
 70
     0
  3
__ . . __ . .
 72
    65
 73
     6
 40
0.35433070866
 49
0.15748031496
 74
     0
 49
-0.03937007874
 74
     0
 49
0.03937007874
 74
     0
 49
-0.03937007874
 74
     0
 49
0.03937007874
 74
     0
 49
-0.03937007874
 74
     0
  0
LTYPE
  5
2B1
330
23
100
AcDbSymbolTableRecord
100
AcDbLinetypeTableRecord
  2
ACANSTGL
 70
     0
  3
_ _ _ _ _
 72
    65
 73
     2
 40
0.11811023622
 49
0.07874015748
 74
     0
 49
-0.03937007874
 74
     0
  0
LTYPE
  5
7C
330
23
100
AcDbSymbolTableRecord
100
AcDbLinetypeTableRecord
  2
DASHED
 70
     0
  3
Dashed __ __ __ __ __ __ __ __ __ __ __ __ __ _
 72
    65
 73
     2
 40
0.75
 49
0.5
 74
     0
 49
-0.25
 74
     0
  0
ENDTAB
  0
TABLE
  2
LAYER
  5
1B
102
{ACAD_XDICTIONARY
360
1C
102
}
330
0
100
AcDbSymbolTable
 70
     7
  0
LAYER
  5
6
330
1B
100
AcDbSymbolTableRecord
100
AcDbLayerTableRecord
  2
0
 70
     0
 62
     7
  6
CONTINUOUS
370
    -3
390
7
  0
LAYER
  5
DB
330
1B
100
AcDbSymbolTableRecord
100
AcDbLayerTableRecord
  2
GEB-KONTUR-A
 70
     0
 62
     5
  6
CONTINUOUS
370
    -3
390
7
  0
LAYER
  5
7B
330
1B
100
AcDbSymbolTableRecord
100
AcDbLayerTableRecord
  2
GEB-VERDECKT
 70
     0
 62
     2
  6
DASHED
370
    -3
390
7
1001
AcAecLayerStandard
1000

1000

  0
LAYER
  5
76
330
1B
100
AcDbSymbolTableRecord
100
AcDbLayerTableRecord
  2
Arbeitspunkt(DIN)
 70
     0
 62
     7
  6
CONTINUOUS
370
    25
390
7
  0
LAYER
  5
295
330
1B
100
AcDbSymbolTableRecord
100
AcDbLayerTableRecord
  2
GEB-ART-NR
 70
     0
 62
     1
  6
CONTINUOUS
370
    18
390
7
  0
LAYER
  5
72
330
1B
100
AcDbSymbolTableRecord
100
AcDbLayerTableRecord
  2
GEB-BEZUG
 70
     0
 62
     2
  6
CONTINUOUS
370
    25
390
7
  0
LAYER
  5
292
330
1B
100
AcDbSymbolTableRecord
100
AcDbLayerTableRecord
  2
GEB-TEXT
 70
     0
 62
     5
  6
CONTINUOUS
370
    18
390
7
  0
ENDTAB
  0
TABLE
  2
STYLE
  5
20
330
0
100
AcDbSymbolTable
 70
     3
  0
STYLE
  5
21
330
20
100
AcDbSymbolTableRecord
100
AcDbTextStyleTableRecord
  2
STANDARD
 70
     0
 40
0.0
 41
1.0
 50
0.0
 71
     0
 42
0.2
  3
arial.ttf
  4

1001
ACAD
1000
Arial
1071
       34
  0
STYLE
  5
2A0
330
20
100
AcDbSymbolTableRecord
100
AcDbTextStyleTableRecord
  2

 70
     1
 40
0.0
 41
1.0
 50
0.0
 71
     0
 42
0.2
  3
genltshp.shx
  4

  0
STYLE
  5
2AC
330
20
100
AcDbSymbolTableRecord
100
AcDbTextStyleTableRecord
  2
ACANSGDT
 70
     0
 40
0.0
 41
1.0
 50
0.0
 71
     0
 42
0.2
  3
amgdt.shx
  4

  0
ENDTAB
  0
TABLE
  2
VIEW
  5
26
330
0
100
AcDbSymbolTable
 70
     0
  0
ENDTAB
  0
TABLE
  2
UCS
  5
27
330
0
100
AcDbSymbolTable
 70
     0
  0
ENDTAB
  0
TABLE
  2
APPID
  5
2D
330
0
100
AcDbSymbolTable
 70
    14
  0
APPID
  5
1F
330
2D
100
AcDbSymbolTableRecord
100
AcDbRegAppTableRecord
  2
ACAD
 70
     0
  0
APPID
  5
7D
330
2D
100
AcDbSymbolTableRecord
100
AcDbRegAppTableRecord
  2
AcAecLayerStandard
 70
     0
  0
APPID
  5
2EF
330
2D
100
AcDbSymbolTableRecord
100
AcDbRegAppTableRecord
  2
ACATTRIBSERVICES
 70
     0
  0
APPID
  5
31A
330
2D
100
AcDbSymbolTableRecord
100
AcDbRegAppTableRecord
  2
MCAD_NO_VIS
 70
     0
  0
APPID
  5
31B
330
2D
100
AcDbSymbolTableRecord
100
AcDbRegAppTableRecord
  2
ACAD_TEMP_GRAPHIC
 70
     0
  0
APPID
  5
31F
330
2D
100
AcDbSymbolTableRecord
100
AcDbRegAppTableRecord
  2
AD_DRAW
 70
     0
  0
APPID
  5
338
330
2D
100
AcDbSymbolTableRecord
100
AcDbRegAppTableRecord
  2
DESIGNERASSEMBLIES
 70
     0
  0
APPID
  5
33D
330
2D
100
AcDbSymbolTableRecord
100
AcDbRegAppTableRecord
  2
ACADM_DIM_EDIT
 70
     0
  0
APPID
  5
33E
330
2D
100
AcDbSymbolTableRecord
100
AcDbRegAppTableRecord
  2
AMDT_DM_ADJ
 70
     0
  0
APPID
  5
35E
330
2D
100
AcDbSymbolTableRecord
100
AcDbRegAppTableRecord
  2
ACAD_DSTYLE_DIMARC_LENGTH_SYMBOL
 70
     0
  0
APPID
  5
35F
330
2D
100
AcDbSymbolTableRecord
100
AcDbRegAppTableRecord
  2
ACAD_DSTYLE_DIM_LINETYPE
 70
     0
  0
APPID
  5
360
330
2D
100
AcDbSymbolTableRecord
100
AcDbRegAppTableRecord
  2
ACAD_DSTYLE_DIM_EXT1_LINETYPE
 70
     0
  0
APPID
  5
361
330
2D
100
AcDbSymbolTableRecord
100
AcDbRegAppTableRecord
  2
ACAD_DSTYLE_DIM_EXT2_LINETYPE
 70
     0
  0
APPID
  5
38E
330
2D
100
AcDbSymbolTableRecord
100
AcDbRegAppTableRecord
  2
ACAD_MLEADERVER
 70
     0
  0
ENDTAB
  0
TABLE
  2
DIMSTYLE
  5
2E
330
0
100
AcDbSymbolTable
 70
     7
100
AcDbDimStyleTable
 71
     1
340
2F
  0
DIMSTYLE
105
2F
330
2E
100
AcDbSymbolTableRecord
100
AcDbDimStyleTableRecord
  2
STANDARD
 70
     0
279
     2
340
21
  0
DIMSTYLE
105
2C2
102
{ACAD_REACTORS
330
2A9
102
}
330
2E
100
AcDbSymbolTableRecord
100
AcDbDimStyleTableRecord
  2
AM_ANSI
 70
     0
  4
mm
 41
0.12
 42
0.05
 43
0.5
 44
0.1
 47
0.1
 48
0.1
 78
     7
 79
     2
140
0.12
141
0.0
146
0.71
147
0.06
176
   256
177
   256
178
     2
274
     4
284
     7
340
21
371
    -1
372
    -1
1001
ACAD_DSTYLE_DIMARC_LENGTH_SYMBOL
1070
   379
1070
     1
1001
ACAD_DSTYLE_DIM_LINETYPE
1070
   380
1005
24
1001
ACAD_DSTYLE_DIM_EXT1_LINETYPE
1070
   381
1005
24
1001
ACAD_DSTYLE_DIM_EXT2_LINETYPE
1070
   382
1005
24
  0
DIMSTYLE
105
2C3
330
2E
100
AcDbSymbolTableRecord
100
AcDbDimStyleTableRecord
  2
AM_ANSI$3
 70
     0
  4
mm
 41
0.12
 42
0.05
 43
0.5
 44
0.1
 47
0.1
 48
0.1
 78
     7
 79
     2
140
0.12
141
0.0
146
0.71
147
0.06
176
   256
177
   256
178
     2
274
     4
284
     7
288
     1
289
     0
340
21
371
    -1
372
    -1
1001
ACAD_DSTYLE_DIMARC_LENGTH_SYMBOL
1070
   379
1070
     1
1001
ACAD_DSTYLE_DIM_LINETYPE
1070
   380
1005
24
1001
ACAD_DSTYLE_DIM_EXT1_LINETYPE
1070
   381
1005
24
1001
ACAD_DSTYLE_DIM_EXT2_LINETYPE
1070
   382
1005
24
  0
DIMSTYLE
105
2C4
330
2E
100
AcDbSymbolTableRecord
100
AcDbDimStyleTableRecord
  2
AM_ANSI$4
 70
     0
  4
mm
 41
0.12
 42
0.05
 43
0.5
 44
0.1
 47
0.1
 48
0.1
 78
     7
 79
     2
140
0.12
141
0.0
146
0.71
147
0.06
176
   256
177
   256
178
     2
274
     4
284
     7
288
     1
289
     0
340
21
371
    -1
372
    -1
1001
ACAD_DSTYLE_DIMARC_LENGTH_SYMBOL
1070
   379
1070
     1
1001
ACAD_DSTYLE_DIM_LINETYPE
1070
   380
1005
24
1001
ACAD_DSTYLE_DIM_EXT1_LINETYPE
1070
   381
1005
24
1001
ACAD_DSTYLE_DIM_EXT2_LINETYPE
1070
   382
1005
24
  0
DIMSTYLE
105
2C5
330
2E
100
AcDbSymbolTableRecord
100
AcDbDimStyleTableRecord
  2
AM_ANSI$7
 70
     0
  4
mm
 41
0.12
 42
0.05
 43
0.5
 44
0.1
 47
0.1
 48
0.1
 78
     7
 79
     2
140
0.12
141
0.0
146
0.71
147
0.06
176
   256
177
   256
178
     2
274
     4
284
     7
340
21
371
    -1
372
    -1
1001
ACAD_DSTYLE_DIMARC_LENGTH_SYMBOL
1070
   379
1070
     1
1001
ACAD_DSTYLE_DIM_LINETYPE
1070
   380
1005
24
1001
ACAD_DSTYLE_DIM_EXT1_LINETYPE
1070
   381
1005
24
1001
ACAD_DSTYLE_DIM_EXT2_LINETYPE
1070
   382
1005
24
  0
DIMSTYLE
105
2C6
330
2E
100
AcDbSymbolTableRecord
100
AcDbDimStyleTableRecord
  2
AM_ANSI$SF
 70
     0
  4
mm
 41
0.12
 42
0.05
 43
0.5
 44
0.1
 47
0.1
 48
0.1
 75
     1
 76
     1
 78
     7
 79
     2
140
0.12
141
0.0
146
0.71
147
0.06
176
   256
177
   256
178
     2
274
     4
284
     7
340
21
371
    -1
372
    -1
1001
ACAD_DSTYLE_DIMARC_LENGTH_SYMBOL
1070
   379
1070
     1
1001
ACAD_DSTYLE_DIM_LINETYPE
1070
   380
1005
24
1001
ACAD_DSTYLE_DIM_EXT1_LINETYPE
1070
   381
1005
24
1001
ACAD_DSTYLE_DIM_EXT2_LINETYPE
1070
   382
1005
24
  0
DIMSTYLE
105
2C7
330
2E
100
AcDbSymbolTableRecord
100
AcDbDimStyleTableRecord
  2
AM_ANSI$SH
 70
     0
  4
mm
 41
0.12
 42
0.05
 43
0.5
 44
0.1
 47
0.1
 48
0.1
 75
     1
 76
     1
 78
     7
 79
     2
140
0.12
141
0.0
146
0.71
147
0.06
173
     1
176
   256
177
   256
178
     2
274
     4
284
     7
340
21
343
2C8
371
    -1
372
    -1
1001
ACAD_DSTYLE_DIMARC_LENGTH_SYMBOL
1070
   379
1070
     1
1001
ACAD_DSTYLE_DIM_LINETYPE
1070
   380
1005
24
1001
ACAD_DSTYLE_DIM_EXT1_LINETYPE
1070
   381
1005
24
1001
ACAD_DSTYLE_DIM_EXT2_LINETYPE
1070
   382
1005
24
  0
ENDTAB
  0
TABLE
  2
BLOCK_RECORD
  5
1
330
0
100
AcDbSymbolTable
 70
     3
  0
BLOCK_RECORD
  5
2
102
{ACAD_XDICTIONARY
360
3
102
}
330
1
100
AcDbSymbolTableRecord
100
AcDbBlockTableRecord
  2
*Model_Space
340
15
  0
BLOCK_RECORD
  5
17
330
1
100
AcDbSymbolTableRecord
100
AcDbBlockTableRecord
  2
*Paper_Space
340
1A
  0
BLOCK_RECORD
  5
2C8
330
1
100
AcDbSymbolTableRecord
100
AcDbBlockTableRecord
  2
GENAXEH
340
0
  0
BLOCK_RECORD
  5
6F
330
1
100
AcDbSymbolTableRecord
100
AcDbBlockTableRecord
  2
Einfügepunkt
340
0
102
{BLKREFS
331
6E
102
}
  0
ENDTAB
  0
ENDSEC
  0
SECTION
  2
BLOCKS
  0
BLOCK
  5
5
330
2
100
AcDbEntity
  8
0
100
AcDbBlockBegin
  2
*Model_Space
 70
     0
 10
0.0
 20
0.0
 30
0.0
  3
*Model_Space
  1

  0
ENDBLK
  5
14
330
2
100
AcDbEntity
  8
0
100
AcDbBlockEnd
  0
BLOCK
  5
18
330
17
100
AcDbEntity
 67
     1
  8
0
100
AcDbBlockBegin
  2
*Paper_Space
 70
     0
 10
0.0
 20
0.0
 30
0.0
  3
*Paper_Space
  1

  0
ENDBLK
  5
19
330
17
100
AcDbEntity
 67
     1
  8
0
100
AcDbBlockEnd
  0
BLOCK
  5
2C9
330
2C8
100
AcDbEntity
  8
0
100
AcDbBlockBegin
  2
GENAXEH
 70
     0
 10
0.0
 20
0.0
 30
0.0
  3
GENAXEH
  1

  0
LINE
  5
2CA
330
2C8
100
AcDbEntity
  8
0
100
AcDbLine
 10
-1.0
 20
0.0
 30
0.0
 11
1.0
 21
0.0
 31
0.0
  0
ENDBLK
  5
2CB
330
2C8
100
AcDbEntity
  8
0
100
AcDbBlockEnd
  0
BLOCK
  5
70
330
6F
100
AcDbEntity
  8
0
100
AcDbBlockBegin
  2
Einfügepunkt
 70
     0
 10
0.0
 20
0.0
 30
0.0
  3
Einfügepunkt
  1

  0
LINE
  5
71
330
6F
100
AcDbEntity
  8
GEB-BEZUG
100
AcDbLine
 10
-0.7071067811865817
 20
-0.7071067811865106
 30
0.0
 11
0.7071067811864751
 21
0.7071067811865817
 31
0.0
  0
LINE
  5
73
330
6F
100
AcDbEntity
  8
GEB-BEZUG
100
AcDbLine
 10
-0.7071067811865106
 20
0.7071067811865817
 30
0.0
 11
0.7071067811865462
 21
-0.7071067811865106
 31
0.0
  0
ENDBLK
  5
74
330
6F
100
AcDbEntity
  8
0
100
AcDbBlockEnd
  0
ENDSEC
  0
SECTION
  2
ENTITIES
  0
INSERT
  5
6E
330
2
100
AcDbEntity
  8
0
 48
25.0
100
AcDbBlockReference
  2
Einfügepunkt
 10
0.0
 20
0.0
 30
0.0
  0
LINE
  5
75
330
2
100
AcDbEntity
  8
Arbeitspunkt(DIN)
 48
25.0
100
AcDbLine
 10
0.0
 20
0.0000000000094076
 30
0.0
 11
0.0
 21
-2.499999999990592
 31
0.0
  0
LINE
  5
77
330
2
100
AcDbEntity
  8
Arbeitspunkt(DIN)
 48
25.0
100
AcDbLine
 10
0.0
 20
0.0000000000094076
 30
0.0
 11
0.0
 21
2.500000000009407
 31
0.0
  0
LINE
  5
78
330
2
100
AcDbEntity
  8
Arbeitspunkt(DIN)
 48
25.0
100
AcDbLine
 10
0.0
 20
0.0000000000094076
 30
0.0
 11
-2.5
 21
0.0000000000094076
 31
0.0
  0
LINE
  5
79
330
2
100
AcDbEntity
  8
Arbeitspunkt(DIN)
 48
25.0
100
AcDbLine
 10
0.0
 20
0.0000000000094076
 30
0.0
 11
2.5
 21
0.0000000000094076
 31
0.0
  0
CIRCLE
  5
7A
330
2
100
AcDbEntity
  8
GEB-VERDECKT
 48
25.0
100
AcDbCircle
 10
0.0
 20
-0.0000000000053717
 30
0.0
 40
8.999999999999984
  0
LINE
  5
7E
330
2
100
AcDbEntity
  8
GEB-VERDECKT
 48
25.0
100
AcDbLine
 10
1.029605363186391
 20
9.796040669378982
 30
0.0
 11
0.0
 21
8.90000000000154
 31
0.0
  0
LINE
  5
7F
330
2
100
AcDbEntity
  8
GEB-VERDECKT
 48
25.0
100
AcDbLine
 10
0.0
 20
8.90000000000154
 30
0.0
 11
-1.029605363186362
 21
9.796040669378982
 31
0.0
  0
ARC
  5
80
330
2
100
AcDbEntity
  8
GEB-VERDECKT
 48
25.0
100
AcDbCircle
 10
0.0
 20
0.0000000000007105
 30
0.0
 40
9.849999999999933
100
AcDbArc
 50
83.99999999999993
 51
96.00000000000008
  0
CIRCLE
  5
81
330
2
100
AcDbEntity
  8
GEB-VERDECKT
 48
25.0
100
AcDbCircle
 10
0.0
 20
-0.0000000000024158
 30
0.0
 40
7.999999999999984
  0
CIRCLE
  5
82
330
2
100
AcDbEntity
  8
GEB-VERDECKT
 48
25.0
100
AcDbCircle
 10
0.0
 20
-0.0000000000019895
 30
0.0
 40
9.249999999999982
  0
CIRCLE
  5
83
330
2
100
AcDbEntity
  8
GEB-VERDECKT
 48
25.0
100
AcDbCircle
 10
0.0
 20
0.0000000000019895
 30
0.0
 40
8.89999999999998
  0
CIRCLE
  5
84
330
2
100
AcDbEntity
  8
GEB-VERDECKT
 48
25.0
100
AcDbCircle
 10
0.0
 20
0.0000000000022453
 30
0.0
 40
9.499999999999978
  0
CIRCLE
  5
85
330
2
100
AcDbEntity
  8
GEB-VERDECKT
 48
25.0
100
AcDbCircle
 10
0.0
 20
0.0000000000028706
 30
0.0
 40
9.199999999999979
  0
ARC
  5
86
330
2
100
AcDbEntity
  8
GEB-VERDECKT
 48
25.0
100
AcDbCircle
 10
0.0000000000000284
 20
0.0000000000017053
 30
0.0
 40
9.849999999999786
100
AcDbArc
 50
78.00000000000055
 51
83.99999999999993
  0
ARC
  5
87
330
2
100
AcDbEntity
  8
GEB-VERDECKT
 48
25.0
100
AcDbCircle
 10
-0.0000000000000853
 20
0.0000000000022453
 30
0.0
 40
9.849999999999262
100
AcDbArc
 50
96.00000000000008
 51
101.9999999999998
  0
ARC
  5
88
330
2
100
AcDbEntity
  8
GEB-VERDECKT
 48
25.0
100
AcDbCircle
 10
-0.0000000000001705
 20
0.0000000000018474
 30
0.0
 40
9.849999999999607
100
AcDbArc
 50
113.9999999999991
 51
119.9999999999997
  0
ARC
  5
89
330
2
100
AcDbEntity
  8
GEB-VERDECKT
 48
25.0
100
AcDbCircle
 10
0.0000000000001137
 20
0.0000000000014211
 30
0.0
 40
9.850000000000125
100
AcDbArc
 50
131.9999999999999
 51
138.0
  0
ARC
  5
8A
330
2
100
AcDbEntity
  8
GEB-VERDECKT
 48
25.0
100
AcDbCircle
 10
0.000000000000199
 20
0.0000000000014495
 30
0.0
 40
9.850000000000173
100
AcDbArc
 50
150.0000000000003
 51
156.0000000000009
  0
ARC
  5
8B
330
2
100
AcDbEntity
  8
GEB-VERDECKT
 48
25.0
100
AcDbCircle
 10
0.0000000000001137
 20
0.0000000000015348
 30
0.0
 40
9.850000000000086
100
AcDbArc
 50
168.0000000000005
 51
173.9999999999999
  0
ARC
  5
8C
330
2
100
AcDbEntity
  8
GEB-VERDECKT
 48
25.0
100
AcDbCircle
 10
-0.0000000000007105
 20
0.0000000000014211
 30
0.0
 40
9.849999999999262
100
AcDbArc
 50
186.0000000000001
 51
191.9999999999998
  0
ARC
  5
8D
330
2
100
AcDbEntity
  8
GEB-VERDECKT
 48
25.0
100
AcDbCircle
 10
-0.0000000000004263
 20
0.0000000000013074
 30
0.0
 40
9.849999999999502
100
AcDbArc
 50
203.9999999999991
 51
209.9999999999997
  0
ARC
  5
8E
330
2
100
AcDbEntity
  8
GEB-VERDECKT
 48
25.0
100
AcDbCircle
 10
-0.0000000000000853
 20
0.0000000000014211
 30
0.0
 40
9.84999999999982
100
AcDbArc
 50
221.9999999999999
 51
228.0000000000001
  0
ARC
  5
8F
330
2
100
AcDbEntity
  8
GEB-VERDECKT
 48
25.0
100
AcDbCircle
 10
-0.0000000000001421
 20
0.000000000001279
 30
0.0
 40
9.849999999999697
100
AcDbArc
 50
240.0000000000003
 51
246.0000000000009
  0
ARC
  5
90
330
2
100
AcDbEntity
  8
GEB-VERDECKT
 48
25.0
100
AcDbCircle
 10
-0.0000000000000284
 20
0.0000000000012506
 30
0.0
 40
9.849999999999681
100
AcDbArc
 50
258.0000000000002
 51
263.9999999999999
  0
ARC
  5
91
330
2
100
AcDbEntity
  8
GEB-VERDECKT
 48
25.0
100
AcDbCircle
 10
-0.0000000000000853
 20
0.00000000000216
 30
0.0
 40
9.850000000000601
100
AcDbArc
 50
276.0000000000001
 51
281.9999999999994
  0
ARC
  5
92
330
2
100
AcDbEntity
  8
GEB-VERDECKT
 48
25.0
100
AcDbCircle
 10
-0.0000000000000853
 20
0.0000000000017337
 30
0.0
 40
9.850000000000218
100
AcDbArc
 50
293.9999999999991
 51
299.9999999999997
  0
ARC
  5
93
330
2
100
AcDbEntity
  8
GEB-VERDECKT
 48
25.0
100
AcDbCircle
 10
-0.0000000000007674
 20
0.0000000000023022
 30
0.0
 40
9.850000000001083
100
AcDbArc
 50
312.0
 51
318.0000000000001
  0
ARC
  5
94
330
2
100
AcDbEntity
  8
GEB-VERDECKT
 48
25.0
100
AcDbCircle
 10
-0.0000000000003695
 20
0.0000000000017337
 30
0.0
 40
9.850000000000417
100
AcDbArc
 50
330.0000000000003
 51
335.9999999999994
  0
ARC
  5
95
330
2
100
AcDbEntity
  8
GEB-VERDECKT
 48
25.0
100
AcDbCircle
 10
-0.000000000000199
 20
0.0000000000015632
 30
0.0
 40
9.850000000000191
100
AcDbArc
 50
348.0000000000002
 51
353.9999999999999
  0
ARC
  5
96
330
2
100
AcDbEntity
  8
GEB-VERDECKT
 48
25.0
100
AcDbCircle
 10
-0.0000000000001421
 20
0.0000000000015348
 30
0.0
 40
9.850000000000104
100
AcDbArc
 50
6.000000000000078
 51
11.99999999999945
  0
ARC
  5
97
330
2
100
AcDbEntity
  8
GEB-VERDECKT
 48
25.0
100
AcDbCircle
 10
-0.0000000000006253
 20
0.0000000000012221
 30
0.0
 40
9.850000000000678
100
AcDbArc
 50
23.99999999999912
 51
29.99999999999972
  0
ARC
  5
98
330
2
100
AcDbEntity
  8
GEB-VERDECKT
 48
25.0
100
AcDbCircle
 10
-0.0000000000001705
 20
0.0000000000013358
 30
0.0
 40
9.850000000000239
100
AcDbArc
 50
41.99999999999993
 51
48.00000000000007
  0
ARC
  5
99
330
2
100
AcDbEntity
  8
GEB-VERDECKT
 48
25.0
100
AcDbCircle
 10
0.0000000000001137
 20
0.0000000000017906
 30
0.0
 40
9.849999999999724
100
AcDbArc
 50
60.00000000000028
 51
66.00000000000088
  0
ARC
  5
9A
330
2
100
AcDbEntity
  8
GEB-VERDECKT
 48
25.0
100
AcDbCircle
 10
-0.0000000000000284
 20
0.0000000000007674
 30
0.0
 40
9.849999999999855
100
AcDbArc
 50
101.9999999999994
 51
113.9999999999991
  0
LINE
  5
9B
330
2
100
AcDbEntity
  8
GEB-VERDECKT
 48
25.0
100
AcDbLine
 10
-2.750251249937036
 20
8.464402995028393
 30
0.0
 11
-4.006355934296607
 21
8.998422757781128
 31
0.0
  0
LINE
  5
9C
330
2
100
AcDbEntity
  8
GEB-VERDECKT
 48
25.0
100
AcDbLine
 10
-2.047930154554933
 20
9.634753867229505
 30
0.0
 11
-2.750251249937036
 21
8.464402995028393
 31
0.0
  0
ARC
  5
9D
330
2
100
AcDbEntity
  8
GEB-VERDECKT
 48
25.0
100
AcDbCircle
 10
0.0000000000000284
 20
0.0000000000005969
 30
0.0
 40
9.850000000000049
100
AcDbArc
 50
119.9999999999997
 51
131.9999999999999
  0
LINE
  5
9E
330
2
100
AcDbEntity
  8
GEB-VERDECKT
 48
25.0
100
AcDbLine
 10
-5.23128874540302
 20
7.20025124993856
 30
0.0
 11
-6.590936472634751
 21
7.319976530953823
 31
0.0
  0
LINE
  5
9F
330
2
100
AcDbEntity
  8
GEB-VERDECKT
 48
25.0
100
AcDbLine
 10
-4.924999999999982
 20
8.530350227278233
 30
0.0
 11
-5.23128874540302
 21
7.20025124993856
 31
0.0
  0
ARC
  5
A0
330
2
100
AcDbEntity
  8
GEB-VERDECKT
 48
25.0
100
AcDbCircle
 10
-0.0000000000000853
 20
0.000000000000739
 30
0.0
 40
9.84999999999985
100
AcDbArc
 50
138.0
 51
150.0000000000003
  0
LINE
  5
A1
330
2
100
AcDbEntity
  8
GEB-VERDECKT
 48
25.0
100
AcDbLine
 10
-7.200251249936997
 20
5.231288745404555
 30
0.0
 11
-8.530350227276699
 21
4.925000000001517
 31
0.0
  0
LINE
  5
A2
330
2
100
AcDbEntity
  8
GEB-VERDECKT
 48
25.0
100
AcDbLine
 10
-7.319976530952288
 20
6.590936472636286
 30
0.0
 11
-7.200251249936997
 21
5.231288745404555
 31
0.0
  0
ARC
  5
A3
330
2
100
AcDbEntity
  8
GEB-VERDECKT
 48
25.0
100
AcDbCircle
 10
0.0000000000000284
 20
0.0000000000006821
 30
0.0
 40
9.850000000000001
100
AcDbArc
 50
156.0000000000009
 51
168.0000000000002
  0
LINE
  5
A4
330
2
100
AcDbEntity
  8
GEB-VERDECKT
 48
25.0
100
AcDbLine
 10
-8.464402995026858
 20
2.750251249938571
 30
0.0
 11
-9.634753867227942
 21
2.047930154556468
 31
0.0
  0
LINE
  5
A5
330
2
100
AcDbEntity
  8
GEB-VERDECKT
 48
25.0
100
AcDbLine
 10
-8.998422757779593
 20
4.006355934298142
 30
0.0
 11
-8.464402995026858
 21
2.750251249938571
 31
0.0
  0
ARC
  5
A6
330
2
100
AcDbEntity
  8
GEB-VERDECKT
 48
25.0
100
AcDbCircle
 10
-0.0000000000001421
 20
0.0000000000006821
 30
0.0
 40
9.849999999999853
100
AcDbArc
 50
173.9999999999999
 51
186.0000000000001
  0
LINE
  5
A7
330
2
100
AcDbEntity
  8
GEB-VERDECKT
 48
25.0
100
AcDbLine
 10
-8.899999999999948
 20
0.0000000000015348
 30
0.0
 11
-9.796040669377447
 21
-1.029605363184856
 31
0.0
  0
LINE
  5
A8
330
2
100
AcDbEntity
  8
GEB-VERDECKT
 48
25.0
100
AcDbLine
 10
-9.796040669377447
 20
1.029605363187926
 30
0.0
 11
-8.899999999999948
 21
0.0000000000015348
 31
0.0
  0
ARC
  5
A9
330
2
100
AcDbEntity
  8
GEB-VERDECKT
 48
25.0
100
AcDbCircle
 10
0.0000000000000284
 20
0.0000000000006821
 30
0.0
 40
9.850000000000004
100
AcDbArc
 50
191.9999999999994
 51
203.9999999999991
  0
LINE
  5
AA
330
2
100
AcDbEntity
  8
GEB-VERDECKT
 48
25.0
100
AcDbLine
 10
-8.464402995026858
 20
-2.750251249935473
 30
0.0
 11
-8.998422757779593
 21
-4.0063559342951
 31
0.0
  0
LINE
  5
AB
330
2
100
AcDbEntity
  8
GEB-VERDECKT
 48
25.0
100
AcDbLine
 10
-9.634753867227942
 20
-2.047930154553398
 30
0.0
 11
-8.464402995026858
 21
-2.750251249935473
 31
0.0
  0
ARC
  5
AC
330
2
100
AcDbEntity
  8
GEB-VERDECKT
 48
25.0
100
AcDbCircle
 10
0.0000000000000853
 20
0.000000000000739
 30
0.0
 40
9.850000000000083
100
AcDbArc
 50
209.9999999999997
 51
221.9999999999999
  0
LINE
  5
AD
330
2
100
AcDbEntity
  8
GEB-VERDECKT
 48
25.0
100
AcDbLine
 10
-7.200251249936997
 20
-5.231288745401457
 30
0.0
 11
-7.319976530952288
 21
-6.590936472633188
 31
0.0
  0
LINE
  5
AE
330
2
100
AcDbEntity
  8
GEB-VERDECKT
 48
25.0
100
AcDbLine
 10
-8.530350227276699
 20
-4.924999999998476
 30
0.0
 11
-7.200251249936997
 21
-5.231288745401457
 31
0.0
  0
ARC
  5
AF
330
2
100
AcDbEntity
  8
GEB-VERDECKT
 48
25.0
100
AcDbCircle
 10
0.0000000000000284
 20
0.0000000000007105
 30
0.0
 40
9.850000000000028
100
AcDbArc
 50
228.0000000000001
 51
240.0000000000003
  0
LINE
  5
B0
330
2
100
AcDbEntity
  8
GEB-VERDECKT
 48
25.0
100
AcDbLine
 10
-5.23128874540302
 20
-7.200251249935462
 30
0.0
 11
-4.924999999999982
 21
-8.530350227275192
 31
0.0
  0
LINE
  5
B1
330
2
100
AcDbEntity
  8
GEB-VERDECKT
 48
25.0
100
AcDbLine
 10
-6.590936472634751
 20
-7.319976530950782
 30
0.0
 11
-5.23128874540302
 21
-7.200251249935462
 31
0.0
  0
ARC
  5
B2
330
2
100
AcDbEntity
  8
GEB-VERDECKT
 48
25.0
100
AcDbCircle
 10
-0.0000000000000284
 20
0.00000000000054
 30
0.0
 40
9.849999999999827
100
AcDbArc
 50
246.0000000000009
 51
258.0000000000006
  0
LINE
  5
B3
330
2
100
AcDbEntity
  8
GEB-VERDECKT
 48
25.0
100
AcDbLine
 10
-2.750251249937036
 20
-8.464402995025324
 30
0.0
 11
-2.047930154554933
 21
-9.634753867226407
 31
0.0
  0
LINE
  5
B4
330
2
100
AcDbEntity
  8
GEB-VERDECKT
 48
25.0
100
AcDbLine
 10
-4.006355934296607
 20
-8.998422757778058
 30
0.0
 11
-2.750251249937036
 21
-8.464402995025324
 31
0.0
  0
ARC
  5
B5
330
2
100
AcDbEntity
  8
GEB-VERDECKT
 48
25.0
100
AcDbCircle
 10
0.0
 20
0.0000000000006537
 30
0.0
 40
9.849999999999933
100
AcDbArc
 50
263.9999999999999
 51
276.0000000000001
  0
LINE
  5
B6
330
2
100
AcDbEntity
  8
GEB-VERDECKT
 48
25.0
100
AcDbLine
 10
0.0
 20
-8.899999999998442
 30
0.0
 11
1.029605363186391
 21
-9.79604066937594
 31
0.0
  0
LINE
  5
B7
330
2
100
AcDbEntity
  8
GEB-VERDECKT
 48
25.0
100
AcDbLine
 10
-1.029605363186362
 20
-9.79604066937594
 30
0.0
 11
0.0
 21
-8.899999999998442
 31
0.0
  0
ARC
  5
B8
330
2
100
AcDbEntity
  8
GEB-VERDECKT
 48
25.0
100
AcDbCircle
 10
-0.0000000000000284
 20
0.0000000000007674
 30
0.0
 40
9.850000000000106
100
AcDbArc
 50
281.9999999999998
 51
293.9999999999991
  0
LINE
  5
B9
330
2
100
AcDbEntity
  8
GEB-VERDECKT
 48
25.0
100
AcDbLine
 10
2.750251249937036
 20
-8.464402995025324
 30
0.0
 11
4.006355934296635
 21
-8.998422757778058
 31
0.0
  0
LINE
  5
BA
330
2
100
AcDbEntity
  8
GEB-VERDECKT
 48
25.0
100
AcDbLine
 10
2.047930154554933
 20
-9.634753867226407
 30
0.0
 11
2.750251249937036
 21
-8.464402995025324
 31
0.0
  0
ARC
  5
BB
330
2
100
AcDbEntity
  8
GEB-VERDECKT
 48
25.0
100
AcDbCircle
 10
-0.0000000000000853
 20
0.0000000000008242
 30
0.0
 40
9.850000000000171
100
AcDbArc
 50
299.9999999999997
 51
312.0
  0
LINE
  5
BC
330
2
100
AcDbEntity
  8
GEB-VERDECKT
 48
25.0
100
AcDbLine
 10
5.23128874540302
 20
-7.200251249935462
 30
0.0
 11
6.590936472634751
 21
-7.319976530950782
 31
0.0
  0
LINE
  5
BD
330
2
100
AcDbEntity
  8
GEB-VERDECKT
 48
25.0
100
AcDbLine
 10
4.924999999999982
 20
-8.530350227275192
 30
0.0
 11
5.23128874540302
 21
-7.200251249935462
 31
0.0
  0
ARC
  5
BE
330
2
100
AcDbEntity
  8
GEB-VERDECKT
 48
25.0
100
AcDbCircle
 10
-0.0000000000000568
 20
0.0000000000007105
 30
0.0
 40
9.850000000000061
100
AcDbArc
 50
318.0000000000001
 51
330.0000000000003
  0
LINE
  5
BF
330
2
100
AcDbEntity
  8
GEB-VERDECKT
 48
25.0
100
AcDbLine
 10
7.200251249936997
 20
-5.231288745401457
 30
0.0
 11
8.530350227276727
 21
-4.924999999998476
 31
0.0
  0
LINE
  5
C0
330
2
100
AcDbEntity
  8
GEB-VERDECKT
 48
25.0
100
AcDbLine
 10
7.319976530952345
 20
-6.590936472633188
 30
0.0
 11
7.200251249936997
 21
-5.231288745401457
 31
0.0
  0
ARC
  5
C1
330
2
100
AcDbEntity
  8
GEB-VERDECKT
 48
25.0
100
AcDbCircle
 10
-0.0000000000000284
 20
0.0000000000006821
 30
0.0
 40
9.850000000000015
100
AcDbArc
 50
336.0000000000009
 51
348.0000000000002
  0
LINE
  5
C2
330
2
100
AcDbEntity
  8
GEB-VERDECKT
 48
25.0
100
AcDbLine
 10
8.464402995026858
 20
-2.750251249935473
 30
0.0
 11
9.634753867227942
 21
-2.047930154553398
 31
0.0
  0
LINE
  5
C3
330
2
100
AcDbEntity
  8
GEB-VERDECKT
 48
25.0
100
AcDbLine
 10
8.998422757779593
 20
-4.0063559342951
 30
0.0
 11
8.464402995026858
 21
-2.750251249935473
 31
0.0
  0
ARC
  5
C4
330
2
100
AcDbEntity
  8
GEB-VERDECKT
 48
25.0
100
AcDbCircle
 10
0.0000000000000284
 20
0.0000000000006821
 30
0.0
 40
9.849999999999933
100
AcDbArc
 50
353.9999999999999
 51
6.000000000000078
  0
LINE
  5
C5
330
2
100
AcDbEntity
  8
GEB-VERDECKT
 48
25.0
100
AcDbLine
 10
8.900000000000005
 20
0.0000000000015348
 30
0.0
 11
9.796040669377447
 21
1.029605363187926
 31
0.0
  0
LINE
  5
C6
330
2
100
AcDbEntity
  8
GEB-VERDECKT
 48
25.0
100
AcDbLine
 10
9.796040669377447
 20
-1.029605363184856
 30
0.0
 11
8.900000000000005
 21
0.0000000000015348
 31
0.0
  0
ARC
  5
C7
330
2
100
AcDbEntity
  8
GEB-VERDECKT
 48
25.0
100
AcDbCircle
 10
-0.0000000000000853
 20
0.0000000000006537
 30
0.0
 40
9.850000000000081
100
AcDbArc
 50
11.99999999999979
 51
23.99999999999912
  0
LINE
  5
C8
330
2
100
AcDbEntity
  8
GEB-VERDECKT
 48
25.0
100
AcDbLine
 10
8.464402995026858
 20
2.750251249938571
 30
0.0
 11
8.998422757779593
 21
4.006355934298142
 31
0.0
  0
LINE
  5
C9
330
2
100
AcDbEntity
  8
GEB-VERDECKT
 48
25.0
100
AcDbLine
 10
9.634753867227942
 20
2.047930154556468
 30
0.0
 11
8.464402995026858
 21
2.750251249938571
 31
0.0
  0
ARC
  5
CA
330
2
100
AcDbEntity
  8
GEB-VERDECKT
 48
25.0
100
AcDbCircle
 10
0.0000000000000853
 20
0.0000000000007105
 30
0.0
 40
9.849999999999916
100
AcDbArc
 50
29.99999999999972
 51
41.99999999999993
  0
LINE
  5
CB
330
2
100
AcDbEntity
  8
GEB-VERDECKT
 48
25.0
100
AcDbLine
 10
7.200251249936997
 20
5.231288745404555
 30
0.0
 11
7.319976530952345
 21
6.590936472636286
 31
0.0
  0
LINE
  5
CC
330
2
100
AcDbEntity
  8
GEB-VERDECKT
 48
25.0
100
AcDbLine
 10
8.530350227276727
 20
4.925000000001517
 30
0.0
 11
7.200251249936997
 21
5.231288745404555
 31
0.0
  0
ARC
  5
CD
330
2
100
AcDbEntity
  8
GEB-VERDECKT
 48
25.0
100
AcDbCircle
 10
-0.0000000000000853
 20
0.00000000000054
 30
0.0
 40
9.850000000000143
100
AcDbArc
 50
48.00000000000007
 51
60.00000000000028
  0
LINE
  5
CE
330
2
100
AcDbEntity
  8
GEB-VERDECKT
 48
25.0
100
AcDbLine
 10
5.23128874540302
 20
7.20025124993856
 30
0.0
 11
4.924999999999982
 21
8.530350227278233
 31
0.0
  0
LINE
  5
CF
330
2
100
AcDbEntity
  8
GEB-VERDECKT
 48
25.0
100
AcDbLine
 10
6.590936472634751
 20
7.319976530953823
 30
0.0
 11
5.23128874540302
 21
7.20025124993856
 31
0.0
  0
ARC
  5
D0
330
2
100
AcDbEntity
  8
GEB-VERDECKT
 48
25.0
100
AcDbCircle
 10
0.0
 20
0.0000000000006537
 30
0.0
 40
9.850000000000015
100
AcDbArc
 50
66.00000000000088
 51
78.00000000000022
  0
LINE
  5
D1
330
2
100
AcDbEntity
  8
GEB-VERDECKT
 48
25.0
100
AcDbLine
 10
2.750251249937036
 20
8.464402995028393
 30
0.0
 11
2.047930154554933
 21
9.634753867229505
 31
0.0
  0
LINE
  5
D2
330
2
100
AcDbEntity
  8
GEB-VERDECKT
 48
25.0
100
AcDbLine
 10
4.006355934296635
 20
8.998422757781128
 30
0.0
 11
2.750251249937036
 21
8.464402995028393
 31
0.0
  0
ARC
  5
D3
330
2
100
AcDbEntity
  8
GEB-VERDECKT
 48
25.0
100
AcDbCircle
 10
-56.0
 20
-6.219549815579227
 30
0.0
 40
0.5000000000000001
100
AcDbArc
 50
99.99999999999861
 51
180.0
  0
ARC
  5
D4
330
2
100
AcDbEntity
  8
GEB-VERDECKT
 48
25.0
100
AcDbCircle
 10
-56.0
 20
6.219549815598071
 30
0.0
 40
0.5
100
AcDbArc
 50
180.0
 51
260.0000000000014
  0
LINE
  5
D5
330
2
100
AcDbEntity
  8
GEB-VERDECKT
 48
25.0
100
AcDbLine
 10
-28.00000000000003
 20
4.700000000009396
 30
0.0
 11
-50.26158999842056
 21
4.700000000009396
 31
0.0
  0
LINE
  5
D6
330
2
100
AcDbEntity
  8
GEB-VERDECKT
 48
25.0
100
AcDbLine
 10
-28.00000000000003
 20
-4.699999999990581
 30
0.0
 11
-50.26158999842056
 21
-4.699999999990581
 31
0.0
  0
LINE
  5
D7
330
2
100
AcDbEntity
  8
GEB-VERDECKT
 48
25.0
100
AcDbLine
 10
-50.26158999842056
 20
4.700000000009396
 30
0.0
 11
-56.08682408883348
 21
5.72714593909194
 31
0.0
  0
LINE
  5
D8
330
2
100
AcDbEntity
  8
GEB-VERDECKT
 48
25.0
100
AcDbLine
 10
-50.26158999842056
 20
-4.699999999990581
 30
0.0
 11
-56.08682408883348
 21
-5.727145939073096
 31
0.0
  0
LINE
  5
D9
330
2
100
AcDbEntity
  8
GEB-VERDECKT
 48
25.0
100
AcDbLine
 10
-50.26158999842056
 20
4.700000000009396
 30
0.0
 11
-50.26158999842056
 21
-4.699999999990581
 31
0.0
  0
LINE
  5
DA
330
2
100
AcDbEntity
  8
GEB-KONTUR-A
 48
25.0
100
AcDbLine
 10
-32.50000000000003
 20
0.0000000000113971
 30
0.0
 11
-34.90000000000006
 21
0.0000000000113971
 31
0.0
  0
LINE
  5
DC
330
2
100
AcDbEntity
  8
GEB-KONTUR-A
 48
25.0
100
AcDbLine
 10
-32.50000000000003
 20
0.7682842050288344
 30
0.0
 11
-32.50000000000003
 21
0.0000000000113971
 31
0.0
  0
LINE
  5
DD
330
2
100
AcDbEntity
  8
GEB-KONTUR-A
 48
25.0
100
AcDbLine
 10
-32.50000000000003
 20
0.0000000000113971
 30
0.0
 11
-32.50000000000003
 21
-0.7682842050056991
 31
0.0
  0
LINE
  5
DE
330
2
100
AcDbEntity
  8
GEB-KONTUR-A
 48
25.0
100
AcDbLine
 10
-34.90000000000006
 20
0.7682842050288344
 30
0.0
 11
-32.50000000000003
 21
0.7682842050288344
 31
0.0
  0
LINE
  5
DF
330
2
100
AcDbEntity
  8
GEB-KONTUR-A
 48
25.0
100
AcDbLine
 10
-34.90000000000006
 20
0.7682842050288059
 30
0.0
 11
-34.90000000000006
 21
-0.7682842050056991
 31
0.0
  0
LINE
  5
E0
330
2
100
AcDbEntity
  8
GEB-KONTUR-A
 48
25.0
100
AcDbLine
 10
-32.50000000000003
 20
-0.7682842050056991
 30
0.0
 11
-34.90000000000006
 21
-0.7682842050056991
 31
0.0
  0
LINE
  5
E1
330
2
100
AcDbEntity
  8
GEB-VERDECKT
 48
25.0
100
AcDbLine
 10
-32.50000000000003
 20
-5.379963012582805
 30
0.0
 11
-34.90000000000006
 21
-5.379963012582805
 31
0.0
  0
LINE
  5
E2
330
2
100
AcDbEntity
  8
GEB-VERDECKT
 48
25.0
100
AcDbLine
 10
-34.90000000000006
 20
-5.379963012582805
 30
0.0
 11
-34.90000000000006
 21
-5.462114467247971
 31
0.0
  0
LINE
  5
E3
330
2
100
AcDbEntity
  8
GEB-VERDECKT
 48
25.0
100
AcDbLine
 10
-32.50000000000003
 20
-6.324525833352765
 30
0.0
 11
-34.90000000000006
 21
-6.324525833352765
 31
0.0
  0
LINE
  5
E4
330
2
100
AcDbEntity
  8
GEB-VERDECKT
 48
25.0
100
AcDbLine
 10
-34.90000000000006
 20
-6.36528671780556
 30
0.0
 11
-34.90000000000006
 21
-6.714559113662801
 31
0.0
  0
LINE
  5
E5
330
2
100
AcDbEntity
  8
GEB-VERDECKT
 48
25.0
100
AcDbLine
 10
-32.50000000000003
 20
-6.649999999990569
 30
0.0
 11
-34.90000000000006
 21
-6.649999999990569
 31
0.0
  0
LINE
  5
E6
330
2
100
AcDbEntity
  8
GEB-VERDECKT
 48
25.0
100
AcDbLine
 10
-34.90000000000006
 20
-7.189384865383885
 30
0.0
 11
-34.90000000000006
 21
-7.309735930947169
 31
0.0
  0
LINE
  5
E7
330
2
100
AcDbEntity
  8
GEB-VERDECKT
 48
25.0
100
AcDbLine
 10
-34.90000000000006
 20
7.309735930966468
 30
0.0
 11
-34.90000000000006
 21
7.18938486540307
 31
0.0
  0
LINE
  5
E8
330
2
100
AcDbEntity
  8
GEB-VERDECKT
 48
25.0
100
AcDbLine
 10
-32.50000000000003
 20
6.650000000009413
 30
0.0
 11
-34.90000000000006
 21
6.650000000009413
 31
0.0
  0
LINE
  5
E9
330
2
100
AcDbEntity
  8
GEB-VERDECKT
 48
25.0
100
AcDbLine
 10
-34.90000000000006
 20
6.714559113683407
 30
0.0
 11
-34.90000000000006
 21
6.365286717825682
 31
0.0
  0
LINE
  5
EA
330
2
100
AcDbEntity
  8
GEB-VERDECKT
 48
25.0
100
AcDbLine
 10
-32.50000000000003
 20
6.324525833372803
 30
0.0
 11
-34.90000000000006
 21
6.324525833372803
 31
0.0
  0
LINE
  5
EB
330
2
100
AcDbEntity
  8
GEB-VERDECKT
 48
25.0
100
AcDbLine
 10
-34.90000000000006
 20
5.462114467269714
 30
0.0
 11
-34.90000000000006
 21
5.379963012603951
 31
0.0
  0
LINE
  5
EC
330
2
100
AcDbEntity
  8
GEB-VERDECKT
 48
25.0
100
AcDbLine
 10
-32.50000000000003
 20
5.379963012603951
 30
0.0
 11
-34.90000000000006
 21
5.379963012603951
 31
0.0
  0
LINE
  5
ED
330
2
100
AcDbEntity
  8
GEB-KONTUR-A
 48
25.0
100
AcDbLine
 10
-34.90000000000006
 20
-1.528150927499012
 30
0.0
 11
-34.90000000000006
 21
-2.989514326595696
 31
0.0
  0
LINE
  5
EE
330
2
100
AcDbEntity
  8
GEB-KONTUR-A
 48
25.0
100
AcDbLine
 10
-32.50000000000003
 20
-2.054963012582106
 30
0.0
 11
-32.50000000000003
 21
-2.989514326595696
 31
0.0
  0
LINE
  5
EF
330
2
100
AcDbEntity
  8
GEB-KONTUR-A
 48
25.0
100
AcDbLine
 10
-32.50000000000003
 20
-2.989514326595696
 30
0.0
 11
-34.90000000000006
 21
-2.989514326595696
 31
0.0
  0
LINE
  5
F0
330
2
100
AcDbEntity
  8
GEB-KONTUR-A
 48
25.0
100
AcDbLine
 10
-34.90000000000006
 20
-1.528150927498955
 30
0.0
 11
-32.50000000000003
 21
-1.528150927498955
 31
0.0
  0
LINE
  5
F1
330
2
100
AcDbEntity
  8
GEB-KONTUR-A
 48
25.0
100
AcDbLine
 10
-32.50000000000003
 20
-1.528150927498955
 30
0.0
 11
-32.50000000000003
 21
-2.054963012582106
 31
0.0
  0
LINE
  5
F2
330
2
100
AcDbEntity
  8
GEB-KONTUR-A
 48
25.0
100
AcDbLine
 10
-32.50000000000003
 20
-2.054963012582106
 30
0.0
 11
-34.90000000000006
 21
-2.054963012582106
 31
0.0
  0
LINE
  5
F3
330
2
100
AcDbEntity
  8
GEB-KONTUR-A
 48
25.0
100
AcDbLine
 10
-34.90000000000006
 20
-3.674999999988671
 30
0.0
 11
-34.90000000000006
 21
-4.918109956726539
 31
0.0
  0
LINE
  5
F4
330
2
100
AcDbEntity
  8
GEB-KONTUR-A
 48
25.0
100
AcDbLine
 10
-32.50000000000003
 20
-3.908771927733965
 30
0.0
 11
-32.50000000000003
 21
-4.918109956726567
 31
0.0
  0
LINE
  5
F5
330
2
100
AcDbEntity
  8
GEB-KONTUR-A
 48
25.0
100
AcDbLine
 10
-32.50000000000003
 20
-4.918109956726567
 30
0.0
 11
-34.90000000000006
 21
-4.918109956726567
 31
0.0
  0
LINE
  5
F6
330
2
100
AcDbEntity
  8
GEB-KONTUR-A
 48
25.0
100
AcDbLine
 10
-34.90000000000006
 20
-3.674999999988699
 30
0.0
 11
-32.50000000000003
 21
-3.674999999988699
 31
0.0
  0
LINE
  5
F7
330
2
100
AcDbEntity
  8
GEB-KONTUR-A
 48
25.0
100
AcDbLine
 10
-32.50000000000003
 20
-3.674999999988699
 30
0.0
 11
-32.50000000000003
 21
-3.908771927733965
 31
0.0
  0
LINE
  5
F8
330
2
100
AcDbEntity
  8
GEB-KONTUR-A
 48
25.0
100
AcDbLine
 10
-32.50000000000003
 20
-3.908771927733965
 30
0.0
 11
-34.90000000000006
 21
-3.908771927733965
 31
0.0
  0
LINE
  5
F9
330
2
100
AcDbEntity
  8
GEB-KONTUR-A
 48
25.0
100
AcDbLine
 10
-34.90000000000006
 20
-5.462114467247971
 30
0.0
 11
-34.90000000000006
 21
-6.365286717805105
 31
0.0
  0
LINE
  5
FA
330
2
100
AcDbEntity
  8
GEB-KONTUR-A
 48
25.0
100
AcDbLine
 10
-32.50000000000003
 20
-5.462114467248284
 30
0.0
 11
-32.50000000000003
 21
-6.365286717805105
 31
0.0
  0
LINE
  5
FB
330
2
100
AcDbEntity
  8
GEB-KONTUR-A
 48
25.0
100
AcDbLine
 10
-32.50000000000003
 20
-6.365286717805105
 30
0.0
 11
-34.90000000000006
 21
-6.365286717805105
 31
0.0
  0
LINE
  5
FC
330
2
100
AcDbEntity
  8
GEB-KONTUR-A
 48
25.0
100
AcDbLine
 10
-34.90000000000006
 20
-5.462114467247971
 30
0.0
 11
-32.50000000000003
 21
-5.462114467247971
 31
0.0
  0
LINE
  5
FD
330
2
100
AcDbEntity
  8
GEB-KONTUR-A
 48
25.0
100
AcDbLine
 10
-34.90000000000006
 20
-6.714559113662801
 30
0.0
 11
-34.90000000000006
 21
-7.189384865383601
 31
0.0
  0
LINE
  5
FE
330
2
100
AcDbEntity
  8
GEB-KONTUR-A
 48
25.0
100
AcDbLine
 10
-32.50000000000003
 20
-6.71455911366317
 30
0.0
 11
-32.50000000000003
 21
-7.189384865383601
 31
0.0
  0
LINE
  5
FF
330
2
100
AcDbEntity
  8
GEB-KONTUR-A
 48
25.0
100
AcDbLine
 10
-32.50000000000003
 20
-7.189384865383601
 30
0.0
 11
-34.90000000000006
 21
-7.189384865383601
 31
0.0
  0
LINE
  5
100
330
2
100
AcDbEntity
  8
GEB-KONTUR-A
 48
25.0
100
AcDbLine
 10
-34.90000000000006
 20
-6.714559113662801
 30
0.0
 11
-32.50000000000003
 21
-6.714559113662801
 31
0.0
  0
LINE
  5
101
330
2
100
AcDbEntity
  8
GEB-KONTUR-A
 48
25.0
100
AcDbLine
 10
-34.90000000000006
 20
-7.309735930947169
 30
0.0
 11
-34.90000000000006
 21
-7.349999999990586
 31
0.0
  0
LINE
  5
102
330
2
100
AcDbEntity
  8
GEB-KONTUR-A
 48
25.0
100
AcDbLine
 10
-34.90000000000006
 20
-7.309735930947169
 30
0.0
 11
-32.50000000000003
 21
-7.309735930947169
 31
0.0
  0
LINE
  5
103
330
2
100
AcDbEntity
  8
GEB-KONTUR-A
 48
25.0
100
AcDbLine
 10
-34.90000000000006
 20
7.35000000000943
 30
0.0
 11
-34.90000000000006
 21
7.309735930966468
 31
0.0
  0
LINE
  5
104
330
2
100
AcDbEntity
  8
GEB-KONTUR-A
 48
25.0
100
AcDbLine
 10
-32.50000000000003
 20
7.309735930966468
 30
0.0
 11
-34.90000000000006
 21
7.309735930966468
 31
0.0
  0
LINE
  5
105
330
2
100
AcDbEntity
  8
GEB-KONTUR-A
 48
25.0
100
AcDbLine
 10
-34.90000000000006
 20
7.189384865403354
 30
0.0
 11
-34.90000000000006
 21
6.714559113683435
 31
0.0
  0
LINE
  5
106
330
2
100
AcDbEntity
  8
GEB-KONTUR-A
 48
25.0
100
AcDbLine
 10
-32.50000000000003
 20
6.714559113683407
 30
0.0
 11
-34.90000000000006
 21
6.714559113683407
 31
0.0
  0
LINE
  5
107
330
2
100
AcDbEntity
  8
GEB-KONTUR-A
 48
25.0
100
AcDbLine
 10
-34.90000000000006
 20
7.189384865403354
 30
0.0
 11
-32.50000000000003
 21
7.189384865403354
 31
0.0
  0
LINE
  5
108
330
2
100
AcDbEntity
  8
GEB-KONTUR-A
 48
25.0
100
AcDbLine
 10
-32.50000000000003
 20
7.189384865403354
 30
0.0
 11
-32.50000000000003
 21
6.714559113683094
 31
0.0
  0
LINE
  5
109
330
2
100
AcDbEntity
  8
GEB-KONTUR-A
 48
25.0
100
AcDbLine
 10
-34.90000000000006
 20
6.365286717826137
 30
0.0
 11
-34.90000000000006
 21
5.462114467269714
 31
0.0
  0
LINE
  5
10A
330
2
100
AcDbEntity
  8
GEB-KONTUR-A
 48
25.0
100
AcDbLine
 10
-32.50000000000003
 20
5.462114467269714
 30
0.0
 11
-34.90000000000006
 21
5.462114467269714
 31
0.0
  0
LINE
  5
10B
330
2
100
AcDbEntity
  8
GEB-KONTUR-A
 48
25.0
100
AcDbLine
 10
-34.90000000000006
 20
6.365286717826137
 30
0.0
 11
-32.50000000000003
 21
6.365286717826137
 31
0.0
  0
LINE
  5
10C
330
2
100
AcDbEntity
  8
GEB-KONTUR-A
 48
25.0
100
AcDbLine
 10
-32.50000000000003
 20
6.365286717826137
 30
0.0
 11
-32.50000000000003
 21
5.462114467269429
 31
0.0
  0
LINE
  5
10D
330
2
100
AcDbEntity
  8
GEB-KONTUR-A
 48
25.0
100
AcDbLine
 10
-34.90000000000006
 20
4.918109956748651
 30
0.0
 11
-34.90000000000006
 21
3.675000000011323
 31
0.0
  0
LINE
  5
10E
330
2
100
AcDbEntity
  8
GEB-KONTUR-A
 48
25.0
100
AcDbLine
 10
-32.50000000000003
 20
3.908771927755935
 30
0.0
 11
-32.50000000000003
 21
3.675000000011294
 31
0.0
  0
LINE
  5
10F
330
2
100
AcDbEntity
  8
GEB-KONTUR-A
 48
25.0
100
AcDbLine
 10
-32.50000000000003
 20
3.675000000011294
 30
0.0
 11
-34.90000000000006
 21
3.675000000011294
 31
0.0
  0
LINE
  5
110
330
2
100
AcDbEntity
  8
GEB-KONTUR-A
 48
25.0
100
AcDbLine
 10
-34.90000000000006
 20
4.918109956748651
 30
0.0
 11
-32.50000000000003
 21
4.918109956748651
 31
0.0
  0
LINE
  5
111
330
2
100
AcDbEntity
  8
GEB-KONTUR-A
 48
25.0
100
AcDbLine
 10
-32.50000000000003
 20
4.918109956748651
 30
0.0
 11
-32.50000000000003
 21
3.908771927755935
 31
0.0
  0
LINE
  5
112
330
2
100
AcDbEntity
  8
GEB-KONTUR-A
 48
25.0
100
AcDbLine
 10
-32.50000000000003
 20
3.908771927755935
 30
0.0
 11
-34.90000000000006
 21
3.908771927755935
 31
0.0
  0
LINE
  5
113
330
2
100
AcDbEntity
  8
GEB-KONTUR-A
 48
25.0
100
AcDbLine
 10
-34.90000000000006
 20
2.989514326618547
 30
0.0
 11
-34.90000000000006
 21
1.528150927522091
 31
0.0
  0
LINE
  5
114
330
2
100
AcDbEntity
  8
GEB-KONTUR-A
 48
25.0
100
AcDbLine
 10
-32.50000000000003
 20
2.054963012604702
 30
0.0
 11
-32.50000000000003
 21
1.528150927522062
 31
0.0
  0
LINE
  5
115
330
2
100
AcDbEntity
  8
GEB-KONTUR-A
 48
25.0
100
AcDbLine
 10
-32.50000000000003
 20
1.528150927522062
 30
0.0
 11
-34.90000000000006
 21
1.528150927522062
 31
0.0
  0
LINE
  5
116
330
2
100
AcDbEntity
  8
GEB-KONTUR-A
 48
25.0
100
AcDbLine
 10
-34.90000000000006
 20
2.989514326618547
 30
0.0
 11
-32.50000000000003
 21
2.989514326618547
 31
0.0
  0
LINE
  5
117
330
2
100
AcDbEntity
  8
GEB-KONTUR-A
 48
25.0
100
AcDbLine
 10
-32.50000000000003
 20
2.989514326618547
 30
0.0
 11
-32.50000000000003
 21
2.054963012604702
 31
0.0
  0
LINE
  5
118
330
2
100
AcDbEntity
  8
GEB-KONTUR-A
 48
25.0
100
AcDbLine
 10
-32.50000000000003
 20
2.054963012604702
 30
0.0
 11
-34.90000000000006
 21
2.054963012604702
 31
0.0
  0
LINE
  5
119
330
2
100
AcDbEntity
  8
GEB-KONTUR-A
 48
25.0
100
AcDbLine
 10
-45.50000000000003
 20
-5.899999999990569
 30
0.0
 11
-43.50000000000003
 21
-5.899999999990569
 31
0.0
  0
LINE
  5
11A
330
2
100
AcDbEntity
  8
GEB-KONTUR-A
 48
25.0
100
AcDbLine
 10
-45.50000000000003
 20
5.900000000009413
 30
0.0
 11
-43.50000000000003
 21
5.900000000009413
 31
0.0
  0
LINE
  5
11B
330
2
100
AcDbEntity
  8
GEB-KONTUR-A
 48
25.0
100
AcDbLine
 10
-43.50000000000003
 20
-6.899999999990598
 30
0.0
 11
-42.20000000000001
 21
-6.899999999990598
 31
0.0
  0
LINE
  5
11C
330
2
100
AcDbEntity
  8
GEB-KONTUR-A
 48
25.0
100
AcDbLine
 10
-43.50000000000003
 20
6.900000000009441
 30
0.0
 11
-42.20000000000001
 21
6.900000000009441
 31
0.0
  0
LINE
  5
11D
330
2
100
AcDbEntity
  8
GEB-KONTUR-A
 48
25.0
100
AcDbLine
 10
-32.50000000000003
 20
-6.649999999990569
 30
0.0
 11
-32.3140740033711
 21
-6.649999999990569
 31
0.0
  0
LINE
  5
11E
330
2
100
AcDbEntity
  8
GEB-KONTUR-A
 48
25.0
100
AcDbLine
 10
-32.50000000000003
 20
6.650000000009413
 30
0.0
 11
-32.3140740033711
 21
6.650000000009413
 31
0.0
  0
LINE
  5
11F
330
2
100
AcDbEntity
  8
GEB-KONTUR-A
 48
25.0
100
AcDbLine
 10
-32.3140740033711
 20
-6.649999999990569
 30
0.0
 11
-31.60000000000002
 21
-7.149999999990569
 31
0.0
  0
LINE
  5
120
330
2
100
AcDbEntity
  8
GEB-KONTUR-A
 48
25.0
100
AcDbLine
 10
-32.3140740033711
 20
6.650000000009413
 30
0.0
 11
-31.60000000000002
 21
7.150000000009413
 31
0.0
  0
LINE
  5
121
330
2
100
AcDbEntity
  8
GEB-KONTUR-A
 48
25.0
100
AcDbLine
 10
-31.60000000000002
 20
-6.649999999990569
 30
0.0
 11
-30.81407400337108
 21
-6.649999999990569
 31
0.0
  0
LINE
  5
122
330
2
100
AcDbEntity
  8
GEB-KONTUR-A
 48
25.0
100
AcDbLine
 10
-31.60000000000002
 20
6.650000000009413
 30
0.0
 11
-30.81407400337108
 21
6.650000000009413
 31
0.0
  0
LINE
  5
123
330
2
100
AcDbEntity
  8
GEB-KONTUR-A
 48
25.0
100
AcDbLine
 10
-30.81407400337108
 20
-6.649999999990569
 30
0.0
 11
-30.10000000000005
 21
-7.149999999990569
 31
0.0
  0
LINE
  5
124
330
2
100
AcDbEntity
  8
GEB-KONTUR-A
 48
25.0
100
AcDbLine
 10
-30.81407400337108
 20
6.650000000009413
 30
0.0
 11
-30.10000000000005
 21
7.150000000009413
 31
0.0
  0
LINE
  5
125
330
2
100
AcDbEntity
  8
GEB-KONTUR-A
 48
25.0
100
AcDbLine
 10
-30.10000000000005
 20
-6.899999999990598
 30
0.0
 11
-28.00000000000003
 21
-6.899999999990598
 31
0.0
  0
LINE
  5
126
330
2
100
AcDbEntity
  8
GEB-KONTUR-A
 48
25.0
100
AcDbLine
 10
-30.10000000000005
 20
6.900000000009441
 30
0.0
 11
-28.00000000000003
 21
6.900000000009441
 31
0.0
  0
ARC
  5
127
330
2
100
AcDbEntity
  8
GEB-KONTUR-A
 48
25.0
100
AcDbCircle
 10
-56.10000000000002
 20
6.661706186121563
 30
0.0
 40
0.4000000000000002
100
AcDbArc
 50
100.0000000000002
 51
180.0
  0
ARC
  5
128
330
2
100
AcDbEntity
  8
GEB-KONTUR-A
 48
25.0
100
AcDbCircle
 10
-56.10000000000002
 20
-6.661706186102748
 30
0.0
 40
0.4
100
AcDbArc
 50
180.0
 51
259.9999999999998
  0
LINE
  5
129
330
2
100
AcDbEntity
  8
GEB-KONTUR-A
 48
25.0
100
AcDbLine
 10
-56.16945927106681
 20
-7.055629287307652
 30
0.0
 11
-54.50000000000002
 21
-7.349999999990586
 31
0.0
  0
LINE
  5
12A
330
2
100
AcDbEntity
  8
GEB-KONTUR-A
 48
25.0
100
AcDbLine
 10
-56.16945927106681
 20
7.055629287326468
 30
0.0
 11
-54.50000000000002
 21
7.350000000009401
 31
0.0
  0
LINE
  5
12B
330
2
100
AcDbEntity
  8
GEB-KONTUR-A
 48
25.0
100
AcDbLine
 10
-48.96672885658725
 20
-7.349999999990586
 30
0.0
 11
-46.80000000000004
 21
-7.349999999990586
 31
0.0
  0
LINE
  5
12C
330
2
100
AcDbEntity
  8
GEB-KONTUR-A
 48
25.0
100
AcDbLine
 10
-48.9667288565873
 20
7.350000000009401
 30
0.0
 11
-46.80000000000004
 21
7.350000000009401
 31
0.0
  0
LINE
  5
12D
330
2
100
AcDbEntity
  8
GEB-KONTUR-A
 48
25.0
100
AcDbLine
 10
-46.80000000000004
 20
-6.899999999990598
 30
0.0
 11
-45.50000000000003
 21
-6.899999999990598
 31
0.0
  0
LINE
  5
12E
330
2
100
AcDbEntity
  8
GEB-KONTUR-A
 48
25.0
100
AcDbLine
 10
-46.80000000000004
 20
6.900000000009441
 30
0.0
 11
-45.50000000000003
 21
6.900000000009441
 31
0.0
  0
LINE
  5
12F
330
2
100
AcDbEntity
  8
GEB-KONTUR-A
 48
25.0
100
AcDbLine
 10
-38.90000000000004
 20
-7.349999999990586
 30
0.0
 11
-34.90000000000006
 21
-7.349999999990586
 31
0.0
  0
LINE
  5
130
330
2
100
AcDbEntity
  8
GEB-KONTUR-A
 48
25.0
100
AcDbLine
 10
-42.20000000000001
 20
-7.349999999990586
 30
0.0
 11
-41.30000000000001
 21
-7.349999999990586
 31
0.0
  0
LINE
  5
131
330
2
100
AcDbEntity
  8
GEB-KONTUR-A
 48
25.0
100
AcDbLine
 10
-38.90000000000004
 20
7.350000000009401
 30
0.0
 11
-34.90000000000006
 21
7.350000000009401
 31
0.0
  0
LINE
  5
132
330
2
100
AcDbEntity
  8
GEB-KONTUR-A
 48
25.0
100
AcDbLine
 10
-42.20000000000001
 20
7.350000000009401
 30
0.0
 11
-41.30000000000001
 21
7.350000000009401
 31
0.0
  0
LINE
  5
133
330
2
100
AcDbEntity
  8
GEB-KONTUR-A
 48
25.0
100
AcDbLine
 10
-54.50000000000002
 20
-7.349999999990586
 30
0.0
 11
-53.43327114341272
 21
-7.349999999990586
 31
0.0
  0
LINE
  5
134
330
2
100
AcDbEntity
  8
GEB-KONTUR-A
 48
25.0
100
AcDbLine
 10
-54.50000000000002
 20
7.350000000009401
 30
0.0
 11
-53.43327114341272
 21
7.350000000009401
 31
0.0
  0
LINE
  5
135
330
2
100
AcDbEntity
  8
GEB-KONTUR-A
 48
25.0
100
AcDbLine
 10
-43.50000000000003
 20
-6.899999999990598
 30
0.0
 11
-43.50000000000003
 21
6.900000000009441
 31
0.0
  0
LINE
  5
136
330
2
100
AcDbEntity
  8
GEB-KONTUR-A
 48
25.0
100
AcDbLine
 10
-32.3140740033711
 20
-6.649999999990569
 30
0.0
 11
-32.3140740033711
 21
6.650000000009413
 31
0.0
  0
LINE
  5
137
330
2
100
AcDbEntity
  8
GEB-KONTUR-A
 48
25.0
100
AcDbLine
 10
-31.60000000000002
 20
-7.149999999990569
 30
0.0
 11
-31.60000000000002
 21
7.150000000009413
 31
0.0
  0
LINE
  5
138
330
2
100
AcDbEntity
  8
GEB-KONTUR-A
 48
25.0
100
AcDbLine
 10
-30.81407400337108
 20
-6.649999999990569
 30
0.0
 11
-30.81407400337108
 21
6.650000000009413
 31
0.0
  0
LINE
  5
139
330
2
100
AcDbEntity
  8
GEB-KONTUR-A
 48
25.0
100
AcDbLine
 10
-30.10000000000005
 20
-7.149999999990569
 30
0.0
 11
-30.10000000000005
 21
7.150000000009413
 31
0.0
  0
LINE
  5
13A
330
2
100
AcDbEntity
  8
GEB-KONTUR-A
 48
25.0
100
AcDbLine
 10
-56.50000000000003
 20
6.661706186121563
 30
0.0
 11
-56.50000000000003
 21
-6.661706186102748
 31
0.0
  0
LINE
  5
13B
330
2
100
AcDbEntity
  8
GEB-KONTUR-A
 48
25.0
100
AcDbLine
 10
-46.80000000000004
 20
-7.349999999990586
 30
0.0
 11
-46.80000000000004
 21
7.350000000009401
 31
0.0
  0
LINE
  5
13C
330
2
100
AcDbEntity
  8
GEB-KONTUR-A
 48
25.0
100
AcDbLine
 10
-45.50000000000003
 20
-6.899999999990598
 30
0.0
 11
-45.50000000000003
 21
6.900000000009441
 31
0.0
  0
LINE
  5
13D
330
2
100
AcDbEntity
  8
GEB-KONTUR-A
 48
25.0
100
AcDbLine
 10
-42.20000000000001
 20
-7.349999999990586
 30
0.0
 11
-42.20000000000001
 21
7.350000000009401
 31
0.0
  0
LINE
  5
13E
330
2
100
AcDbEntity
  8
GEB-KONTUR-A
 48
25.0
100
AcDbLine
 10
-32.50000000000003
 20
0.7682842050288344
 30
0.0
 11
-32.50000000000003
 21
1.528150927522091
 31
0.0
  0
LINE
  5
13F
330
2
100
AcDbEntity
  8
GEB-KONTUR-A
 48
25.0
100
AcDbLine
 10
-32.50000000000003
 20
-1.528150927499012
 30
0.0
 11
-32.50000000000003
 21
-0.7682842050056991
 31
0.0
  0
LINE
  5
140
330
2
100
AcDbEntity
  8
GEB-KONTUR-A
 48
25.0
100
AcDbLine
 10
-32.50000000000003
 20
-3.674999999988671
 30
0.0
 11
-32.50000000000003
 21
-2.989514326595696
 31
0.0
  0
LINE
  5
141
330
2
100
AcDbEntity
  8
GEB-KONTUR-A
 48
25.0
100
AcDbLine
 10
-32.50000000000003
 20
-5.462114467247999
 30
0.0
 11
-32.50000000000003
 21
-4.918109956726567
 31
0.0
  0
LINE
  5
142
330
2
100
AcDbEntity
  8
GEB-KONTUR-A
 48
25.0
100
AcDbLine
 10
-32.50000000000003
 20
-6.714559113662801
 30
0.0
 11
-32.50000000000003
 21
-6.365286717805105
 31
0.0
  0
LINE
  5
143
330
2
100
AcDbEntity
  8
GEB-KONTUR-A
 48
25.0
100
AcDbLine
 10
-32.50000000000003
 20
-7.309735930947141
 30
0.0
 11
-32.50000000000003
 21
-7.189384865383601
 31
0.0
  0
LINE
  5
144
330
2
100
AcDbEntity
  8
GEB-KONTUR-A
 48
25.0
100
AcDbLine
 10
-32.50000000000003
 20
7.189384865403354
 30
0.0
 11
-32.50000000000003
 21
7.309735930966411
 31
0.0
  0
LINE
  5
145
330
2
100
AcDbEntity
  8
GEB-KONTUR-A
 48
25.0
100
AcDbLine
 10
-32.50000000000003
 20
6.365286717826108
 30
0.0
 11
-32.50000000000003
 21
6.714559113683407
 31
0.0
  0
LINE
  5
146
330
2
100
AcDbEntity
  8
GEB-KONTUR-A
 48
25.0
100
AcDbLine
 10
-32.50000000000003
 20
4.918109956748679
 30
0.0
 11
-32.50000000000003
 21
5.462114467269714
 31
0.0
  0
LINE
  5
147
330
2
100
AcDbEntity
  8
GEB-KONTUR-A
 48
25.0
100
AcDbLine
 10
-32.50000000000003
 20
2.989514326618518
 30
0.0
 11
-32.50000000000003
 21
3.675000000011294
 31
0.0
  0
LINE
  5
148
330
2
100
AcDbEntity
  8
GEB-KONTUR-A
 48
25.0
100
AcDbLine
 10
-54.50000000000002
 20
-7.349999999990586
 30
0.0
 11
-54.50000000000002
 21
7.350000000009401
 31
0.0
  0
ARC
  5
149
330
2
100
AcDbEntity
  8
GEB-KONTUR-A
 48
25.0
100
AcDbCircle
 10
-51.20000000000001
 20
10.30000000000942
 30
0.0
 40
3.699999999999998
100
AcDbArc
 50
232.8727828181813
 51
307.1272171818187
  0
ARC
  5
14A
330
2
100
AcDbEntity
  8
GEB-KONTUR-A
 48
25.0
100
AcDbCircle
 10
-51.20000000000001
 20
-10.2999999999906
 30
0.0
 40
3.699999999999998
100
AcDbArc
 50
52.87278281818131
 51
127.1272171818187
  0
LINE
  5
14B
330
2
100
AcDbEntity
  8
GEB-KONTUR-A
 48
25.0
100
AcDbLine
 10
-53.43327114341272
 20
7.350000000009401
 30
0.0
 11
-53.43327114341272
 21
-7.349999999990586
 31
0.0
  0
LINE
  5
14C
330
2
100
AcDbEntity
  8
GEB-KONTUR-A
 48
25.0
100
AcDbLine
 10
-48.9667288565873
 20
-7.349999999990586
 30
0.0
 11
-48.9667288565873
 21
7.350000000009401
 31
0.0
  0
LINE
  5
14D
330
2
100
AcDbEntity
  8
GEB-VERDECKT
 48
25.0
100
AcDbLine
 10
-38.90000000000004
 20
-5.462114467247971
 30
0.0
 11
-38.90000000000004
 21
-5.379963012582805
 31
0.0
  0
LINE
  5
14E
330
2
100
AcDbEntity
  8
GEB-VERDECKT
 48
25.0
100
AcDbLine
 10
-38.90000000000004
 20
-5.379963012582805
 30
0.0
 11
-41.30000000000001
 21
-5.379963012582805
 31
0.0
  0
LINE
  5
14F
330
2
100
AcDbEntity
  8
GEB-VERDECKT
 48
25.0
100
AcDbLine
 10
-41.30000000000001
 20
-5.379963012582805
 30
0.0
 11
-41.30000000000001
 21
-5.462114467247971
 31
0.0
  0
LINE
  5
150
330
2
100
AcDbEntity
  8
GEB-VERDECKT
 48
25.0
100
AcDbLine
 10
-38.90000000000004
 20
-6.714559113662801
 30
0.0
 11
-38.90000000000004
 21
-6.36528671780556
 31
0.0
  0
LINE
  5
151
330
2
100
AcDbEntity
  8
GEB-VERDECKT
 48
25.0
100
AcDbLine
 10
-38.90000000000004
 20
-6.324525833352765
 30
0.0
 11
-41.30000000000001
 21
-6.324525833352765
 31
0.0
  0
LINE
  5
152
330
2
100
AcDbEntity
  8
GEB-VERDECKT
 48
25.0
100
AcDbLine
 10
-41.30000000000001
 20
-6.36528671780556
 30
0.0
 11
-41.30000000000001
 21
-6.714559113662801
 31
0.0
  0
LINE
  5
153
330
2
100
AcDbEntity
  8
GEB-VERDECKT
 48
25.0
100
AcDbLine
 10
-38.90000000000004
 20
-7.309735930947169
 30
0.0
 11
-38.90000000000004
 21
-7.189384865383885
 31
0.0
  0
LINE
  5
154
330
2
100
AcDbEntity
  8
GEB-VERDECKT
 48
25.0
100
AcDbLine
 10
-38.90000000000004
 20
-6.649999999990569
 30
0.0
 11
-41.30000000000001
 21
-6.649999999990569
 31
0.0
  0
LINE
  5
155
330
2
100
AcDbEntity
  8
GEB-VERDECKT
 48
25.0
100
AcDbLine
 10
-41.30000000000001
 20
-7.189384865383885
 30
0.0
 11
-41.30000000000001
 21
-7.309735930947169
 31
0.0
  0
LINE
  5
156
330
2
100
AcDbEntity
  8
GEB-VERDECKT
 48
25.0
100
AcDbLine
 10
-38.90000000000004
 20
7.18938486540307
 30
0.0
 11
-38.90000000000004
 21
7.309735930966468
 31
0.0
  0
LINE
  5
157
330
2
100
AcDbEntity
  8
GEB-VERDECKT
 48
25.0
100
AcDbLine
 10
-41.30000000000001
 20
7.309735930966468
 30
0.0
 11
-41.30000000000001
 21
7.18938486540307
 31
0.0
  0
LINE
  5
158
330
2
100
AcDbEntity
  8
GEB-VERDECKT
 48
25.0
100
AcDbLine
 10
-38.90000000000004
 20
6.650000000009413
 30
0.0
 11
-41.30000000000001
 21
6.650000000009413
 31
0.0
  0
LINE
  5
159
330
2
100
AcDbEntity
  8
GEB-VERDECKT
 48
25.0
100
AcDbLine
 10
-38.90000000000004
 20
6.365286717825682
 30
0.0
 11
-38.90000000000004
 21
6.714559113683407
 31
0.0
  0
LINE
  5
15A
330
2
100
AcDbEntity
  8
GEB-VERDECKT
 48
25.0
100
AcDbLine
 10
-41.30000000000001
 20
6.714559113683407
 30
0.0
 11
-41.30000000000001
 21
6.365286717825682
 31
0.0
  0
LINE
  5
15B
330
2
100
AcDbEntity
  8
GEB-VERDECKT
 48
25.0
100
AcDbLine
 10
-38.90000000000004
 20
6.324525833372803
 30
0.0
 11
-41.30000000000001
 21
6.324525833372803
 31
0.0
  0
LINE
  5
15C
330
2
100
AcDbEntity
  8
GEB-VERDECKT
 48
25.0
100
AcDbLine
 10
-38.90000000000004
 20
5.379963012603951
 30
0.0
 11
-38.90000000000004
 21
5.462114467269714
 31
0.0
  0
LINE
  5
15D
330
2
100
AcDbEntity
  8
GEB-VERDECKT
 48
25.0
100
AcDbLine
 10
-41.30000000000001
 20
5.462114467269714
 30
0.0
 11
-41.30000000000001
 21
5.379963012603951
 31
0.0
  0
LINE
  5
15E
330
2
100
AcDbEntity
  8
GEB-VERDECKT
 48
25.0
100
AcDbLine
 10
-38.90000000000004
 20
5.379963012603951
 30
0.0
 11
-41.30000000000001
 21
5.379963012603951
 31
0.0
  0
LINE
  5
15F
330
2
100
AcDbEntity
  8
GEB-KONTUR-A
 48
25.0
100
AcDbLine
 10
-41.30000000000001
 20
0.7682842050288059
 30
0.0
 11
-41.30000000000001
 21
-0.7682842050056991
 31
0.0
  0
LINE
  5
160
330
2
100
AcDbEntity
  8
GEB-KONTUR-A
 48
25.0
100
AcDbLine
 10
-38.90000000000004
 20
-0.7682842050056991
 30
0.0
 11
-38.90000000000004
 21
0.7682842050288344
 31
0.0
  0
LINE
  5
161
330
2
100
AcDbEntity
  8
GEB-KONTUR-A
 48
25.0
100
AcDbLine
 10
-38.90000000000004
 20
-0.7682842050056991
 30
0.0
 11
-41.30000000000001
 21
-0.7682842050056991
 31
0.0
  0
LINE
  5
162
330
2
100
AcDbEntity
  8
GEB-KONTUR-A
 48
25.0
100
AcDbLine
 10
-41.30000000000001
 20
0.7682842050288344
 30
0.0
 11
-38.90000000000004
 21
0.7682842050288344
 31
0.0
  0
LINE
  5
163
330
2
100
AcDbEntity
  8
GEB-KONTUR-A
 48
25.0
100
AcDbLine
 10
-38.90000000000004
 20
0.0000000000113971
 30
0.0
 11
-41.30000000000001
 21
0.0000000000113971
 31
0.0
  0
LINE
  5
164
330
2
100
AcDbEntity
  8
GEB-KONTUR-A
 48
25.0
100
AcDbLine
 10
-41.30000000000001
 20
-1.528150927499012
 30
0.0
 11
-41.30000000000001
 21
-2.989514326595696
 31
0.0
  0
LINE
  5
165
330
2
100
AcDbEntity
  8
GEB-KONTUR-A
 48
25.0
100
AcDbLine
 10
-38.90000000000004
 20
-2.989514326595696
 30
0.0
 11
-38.90000000000004
 21
-1.528150927498955
 31
0.0
  0
LINE
  5
166
330
2
100
AcDbEntity
  8
GEB-KONTUR-A
 48
25.0
100
AcDbLine
 10
-38.90000000000004
 20
-2.989514326595696
 30
0.0
 11
-41.30000000000001
 21
-2.989514326595696
 31
0.0
  0
LINE
  5
167
330
2
100
AcDbEntity
  8
GEB-KONTUR-A
 48
25.0
100
AcDbLine
 10
-41.30000000000001
 20
-1.528150927498955
 30
0.0
 11
-38.90000000000004
 21
-1.528150927498955
 31
0.0
  0
LINE
  5
168
330
2
100
AcDbEntity
  8
GEB-KONTUR-A
 48
25.0
100
AcDbLine
 10
-38.90000000000004
 20
-2.054963012582106
 30
0.0
 11
-41.30000000000001
 21
-2.054963012582106
 31
0.0
  0
LINE
  5
169
330
2
100
AcDbEntity
  8
GEB-KONTUR-A
 48
25.0
100
AcDbLine
 10
-41.30000000000001
 20
-3.674999999988671
 30
0.0
 11
-41.30000000000001
 21
-4.918109956726539
 31
0.0
  0
LINE
  5
16A
330
2
100
AcDbEntity
  8
GEB-KONTUR-A
 48
25.0
100
AcDbLine
 10
-38.90000000000004
 20
-4.918109956726567
 30
0.0
 11
-38.90000000000004
 21
-3.674999999988699
 31
0.0
  0
LINE
  5
16B
330
2
100
AcDbEntity
  8
GEB-KONTUR-A
 48
25.0
100
AcDbLine
 10
-38.90000000000004
 20
-4.918109956726567
 30
0.0
 11
-41.30000000000001
 21
-4.918109956726567
 31
0.0
  0
LINE
  5
16C
330
2
100
AcDbEntity
  8
GEB-KONTUR-A
 48
25.0
100
AcDbLine
 10
-41.30000000000001
 20
-3.674999999988699
 30
0.0
 11
-38.90000000000004
 21
-3.674999999988699
 31
0.0
  0
LINE
  5
16D
330
2
100
AcDbEntity
  8
GEB-KONTUR-A
 48
25.0
100
AcDbLine
 10
-38.90000000000004
 20
-3.908771927733965
 30
0.0
 11
-41.30000000000001
 21
-3.908771927733965
 31
0.0
  0
LINE
  5
16E
330
2
100
AcDbEntity
  8
GEB-KONTUR-A
 48
25.0
100
AcDbLine
 10
-41.30000000000001
 20
-5.462114467247971
 30
0.0
 11
-41.30000000000001
 21
-6.365286717805105
 31
0.0
  0
LINE
  5
16F
330
2
100
AcDbEntity
  8
GEB-KONTUR-A
 48
25.0
100
AcDbLine
 10
-38.90000000000004
 20
-6.365286717805133
 30
0.0
 11
-38.90000000000004
 21
-5.462114467247971
 31
0.0
  0
LINE
  5
170
330
2
100
AcDbEntity
  8
GEB-KONTUR-A
 48
25.0
100
AcDbLine
 10
-38.90000000000004
 20
-6.365286717805105
 30
0.0
 11
-41.30000000000001
 21
-6.365286717805105
 31
0.0
  0
LINE
  5
171
330
2
100
AcDbEntity
  8
GEB-KONTUR-A
 48
25.0
100
AcDbLine
 10
-41.30000000000001
 20
-5.462114467247971
 30
0.0
 11
-38.90000000000004
 21
-5.462114467247971
 31
0.0
  0
LINE
  5
172
330
2
100
AcDbEntity
  8
GEB-KONTUR-A
 48
25.0
100
AcDbLine
 10
-41.30000000000001
 20
-6.714559113662801
 30
0.0
 11
-41.30000000000001
 21
-7.189384865383601
 31
0.0
  0
LINE
  5
173
330
2
100
AcDbEntity
  8
GEB-KONTUR-A
 48
25.0
100
AcDbLine
 10
-38.90000000000004
 20
-7.189384865383601
 30
0.0
 11
-38.90000000000004
 21
-6.714559113662801
 31
0.0
  0
LINE
  5
174
330
2
100
AcDbEntity
  8
GEB-KONTUR-A
 48
25.0
100
AcDbLine
 10
-38.90000000000004
 20
-7.189384865383601
 30
0.0
 11
-41.30000000000001
 21
-7.189384865383601
 31
0.0
  0
LINE
  5
175
330
2
100
AcDbEntity
  8
GEB-KONTUR-A
 48
25.0
100
AcDbLine
 10
-41.30000000000001
 20
-6.714559113662801
 30
0.0
 11
-38.90000000000004
 21
-6.714559113662801
 31
0.0
  0
LINE
  5
176
330
2
100
AcDbEntity
  8
GEB-KONTUR-A
 48
25.0
100
AcDbLine
 10
-41.30000000000001
 20
-7.309735930947169
 30
0.0
 11
-41.30000000000001
 21
-7.349999999990586
 31
0.0
  0
LINE
  5
177
330
2
100
AcDbEntity
  8
GEB-KONTUR-A
 48
25.0
100
AcDbLine
 10
-38.90000000000004
 20
-7.349999999990586
 30
0.0
 11
-38.90000000000004
 21
-7.309735930947141
 31
0.0
  0
LINE
  5
178
330
2
100
AcDbEntity
  8
GEB-KONTUR-A
 48
25.0
100
AcDbLine
 10
-41.30000000000001
 20
-7.309735930947169
 30
0.0
 11
-38.90000000000004
 21
-7.309735930947169
 31
0.0
  0
LINE
  5
179
330
2
100
AcDbEntity
  8
GEB-KONTUR-A
 48
25.0
100
AcDbLine
 10
-41.30000000000001
 20
7.35000000000943
 30
0.0
 11
-41.30000000000001
 21
7.309735930966468
 31
0.0
  0
LINE
  5
17A
330
2
100
AcDbEntity
  8
GEB-KONTUR-A
 48
25.0
100
AcDbLine
 10
-38.90000000000004
 20
7.309735930966468
 30
0.0
 11
-38.90000000000004
 21
7.35000000000943
 31
0.0
  0
LINE
  5
17B
330
2
100
AcDbEntity
  8
GEB-KONTUR-A
 48
25.0
100
AcDbLine
 10
-38.90000000000004
 20
7.309735930966468
 30
0.0
 11
-41.30000000000001
 21
7.309735930966468
 31
0.0
  0
LINE
  5
17C
330
2
100
AcDbEntity
  8
GEB-KONTUR-A
 48
25.0
100
AcDbLine
 10
-41.30000000000001
 20
7.189384865403354
 30
0.0
 11
-41.30000000000001
 21
6.714559113683435
 31
0.0
  0
LINE
  5
17D
330
2
100
AcDbEntity
  8
GEB-KONTUR-A
 48
25.0
100
AcDbLine
 10
-38.90000000000004
 20
6.714559113683407
 30
0.0
 11
-38.90000000000004
 21
7.189384865403354
 31
0.0
  0
LINE
  5
17E
330
2
100
AcDbEntity
  8
GEB-KONTUR-A
 48
25.0
100
AcDbLine
 10
-38.90000000000004
 20
6.714559113683407
 30
0.0
 11
-41.30000000000001
 21
6.714559113683407
 31
0.0
  0
LINE
  5
17F
330
2
100
AcDbEntity
  8
GEB-KONTUR-A
 48
25.0
100
AcDbLine
 10
-41.30000000000001
 20
7.189384865403354
 30
0.0
 11
-38.90000000000004
 21
7.189384865403354
 31
0.0
  0
LINE
  5
180
330
2
100
AcDbEntity
  8
GEB-KONTUR-A
 48
25.0
100
AcDbLine
 10
-41.30000000000001
 20
6.365286717826137
 30
0.0
 11
-41.30000000000001
 21
5.462114467269714
 31
0.0
  0
LINE
  5
181
330
2
100
AcDbEntity
  8
GEB-KONTUR-A
 48
25.0
100
AcDbLine
 10
-38.90000000000004
 20
5.462114467269714
 30
0.0
 11
-38.90000000000004
 21
6.365286717826137
 31
0.0
  0
LINE
  5
182
330
2
100
AcDbEntity
  8
GEB-KONTUR-A
 48
25.0
100
AcDbLine
 10
-38.90000000000004
 20
5.462114467269714
 30
0.0
 11
-41.30000000000001
 21
5.462114467269714
 31
0.0
  0
LINE
  5
183
330
2
100
AcDbEntity
  8
GEB-KONTUR-A
 48
25.0
100
AcDbLine
 10
-41.30000000000001
 20
6.365286717826137
 30
0.0
 11
-38.90000000000004
 21
6.365286717826137
 31
0.0
  0
LINE
  5
184
330
2
100
AcDbEntity
  8
GEB-KONTUR-A
 48
25.0
100
AcDbLine
 10
-41.30000000000001
 20
4.918109956748651
 30
0.0
 11
-41.30000000000001
 21
3.675000000011323
 31
0.0
  0
LINE
  5
185
330
2
100
AcDbEntity
  8
GEB-KONTUR-A
 48
25.0
100
AcDbLine
 10
-38.90000000000004
 20
3.675000000011294
 30
0.0
 11
-38.90000000000004
 21
4.918109956748651
 31
0.0
  0
LINE
  5
186
330
2
100
AcDbEntity
  8
GEB-KONTUR-A
 48
25.0
100
AcDbLine
 10
-38.90000000000004
 20
3.675000000011294
 30
0.0
 11
-41.30000000000001
 21
3.675000000011294
 31
0.0
  0
LINE
  5
187
330
2
100
AcDbEntity
  8
GEB-KONTUR-A
 48
25.0
100
AcDbLine
 10
-41.30000000000001
 20
4.918109956748651
 30
0.0
 11
-38.90000000000004
 21
4.918109956748651
 31
0.0
  0
LINE
  5
188
330
2
100
AcDbEntity
  8
GEB-KONTUR-A
 48
25.0
100
AcDbLine
 10
-38.90000000000004
 20
3.908771927755935
 30
0.0
 11
-41.30000000000001
 21
3.908771927755935
 31
0.0
  0
LINE
  5
189
330
2
100
AcDbEntity
  8
GEB-KONTUR-A
 48
25.0
100
AcDbLine
 10
-41.30000000000001
 20
2.989514326618547
 30
0.0
 11
-41.30000000000001
 21
1.528150927522091
 31
0.0
  0
LINE
  5
18A
330
2
100
AcDbEntity
  8
GEB-KONTUR-A
 48
25.0
100
AcDbLine
 10
-38.90000000000004
 20
1.528150927522091
 30
0.0
 11
-38.90000000000004
 21
2.989514326618547
 31
0.0
  0
LINE
  5
18B
330
2
100
AcDbEntity
  8
GEB-KONTUR-A
 48
25.0
100
AcDbLine
 10
-38.90000000000004
 20
1.528150927522062
 30
0.0
 11
-41.30000000000001
 21
1.528150927522062
 31
0.0
  0
LINE
  5
18C
330
2
100
AcDbEntity
  8
GEB-KONTUR-A
 48
25.0
100
AcDbLine
 10
-41.30000000000001
 20
2.989514326618547
 30
0.0
 11
-38.90000000000004
 21
2.989514326618547
 31
0.0
  0
LINE
  5
18D
330
2
100
AcDbEntity
  8
GEB-KONTUR-A
 48
25.0
100
AcDbLine
 10
-38.90000000000004
 20
2.054963012604702
 30
0.0
 11
-41.30000000000001
 21
2.054963012604702
 31
0.0
  0
ARC
  5
18E
330
2
100
AcDbEntity
  8
GEB-VERDECKT
 48
25.0
100
AcDbCircle
 10
56.00000000000003
 20
6.219549815598071
 30
0.0
 40
0.5
100
AcDbArc
 50
279.9999999999986
 51
0.0
  0
ARC
  5
18F
330
2
100
AcDbEntity
  8
GEB-VERDECKT
 48
25.0
100
AcDbCircle
 10
56.00000000000003
 20
-6.219549815579227
 30
0.0
 40
0.5
100
AcDbArc
 50
0.0
 51
80.0000000000014
  0
LINE
  5
190
330
2
100
AcDbEntity
  8
GEB-VERDECKT
 48
25.0
100
AcDbLine
 10
28.00000000000003
 20
-4.699999999990581
 30
0.0
 11
50.26158999842059
 21
-4.699999999990581
 31
0.0
  0
LINE
  5
191
330
2
100
AcDbEntity
  8
GEB-VERDECKT
 48
25.0
100
AcDbLine
 10
28.00000000000003
 20
4.700000000009396
 30
0.0
 11
50.26158999842059
 21
4.700000000009396
 31
0.0
  0
LINE
  5
192
330
2
100
AcDbEntity
  8
GEB-VERDECKT
 48
25.0
100
AcDbLine
 10
50.26158999842059
 20
-4.699999999990581
 30
0.0
 11
56.08682408883353
 21
-5.727145939073096
 31
0.0
  0
LINE
  5
193
330
2
100
AcDbEntity
  8
GEB-VERDECKT
 48
25.0
100
AcDbLine
 10
50.26158999842059
 20
4.700000000009396
 30
0.0
 11
56.08682408883353
 21
5.72714593909194
 31
0.0
  0
LINE
  5
194
330
2
100
AcDbEntity
  8
GEB-VERDECKT
 48
25.0
100
AcDbLine
 10
50.26158999842059
 20
-4.699999999990581
 30
0.0
 11
50.26158999842059
 21
4.700000000009396
 31
0.0
  0
LINE
  5
195
330
2
100
AcDbEntity
  8
GEB-KONTUR-A
 48
25.0
100
AcDbLine
 10
34.90000000000006
 20
-7.349999999990586
 30
0.0
 11
34.90000000000006
 21
-7.309735930947141
 31
0.0
  0
LINE
  5
196
330
2
100
AcDbEntity
  8
GEB-KONTUR-A
 48
25.0
100
AcDbLine
 10
32.50000000000003
 20
-7.309735930947169
 30
0.0
 11
34.90000000000006
 21
-7.309735930947169
 31
0.0
  0
LINE
  5
197
330
2
100
AcDbEntity
  8
GEB-KONTUR-A
 48
25.0
100
AcDbLine
 10
34.90000000000006
 20
-7.189384865383601
 30
0.0
 11
34.90000000000006
 21
-6.714559113662801
 31
0.0
  0
LINE
  5
198
330
2
100
AcDbEntity
  8
GEB-KONTUR-A
 48
25.0
100
AcDbLine
 10
32.50000000000003
 20
-6.714559113662801
 30
0.0
 11
34.90000000000006
 21
-6.714559113662801
 31
0.0
  0
LINE
  5
199
330
2
100
AcDbEntity
  8
GEB-KONTUR-A
 48
25.0
100
AcDbLine
 10
34.90000000000006
 20
-7.189384865383601
 30
0.0
 11
32.50000000000003
 21
-7.189384865383601
 31
0.0
  0
LINE
  5
19A
330
2
100
AcDbEntity
  8
GEB-KONTUR-A
 48
25.0
100
AcDbLine
 10
32.50000000000003
 20
-7.189384865383601
 30
0.0
 11
32.50000000000003
 21
-6.71455911366317
 31
0.0
  0
LINE
  5
19B
330
2
100
AcDbEntity
  8
GEB-KONTUR-A
 48
25.0
100
AcDbLine
 10
34.90000000000006
 20
-6.365286717805105
 30
0.0
 11
34.90000000000006
 21
-5.462114467247971
 31
0.0
  0
LINE
  5
19C
330
2
100
AcDbEntity
  8
GEB-KONTUR-A
 48
25.0
100
AcDbLine
 10
32.50000000000003
 20
-5.462114467247971
 30
0.0
 11
34.90000000000006
 21
-5.462114467247971
 31
0.0
  0
LINE
  5
19D
330
2
100
AcDbEntity
  8
GEB-KONTUR-A
 48
25.0
100
AcDbLine
 10
34.90000000000006
 20
-6.365286717805105
 30
0.0
 11
32.50000000000003
 21
-6.365286717805105
 31
0.0
  0
LINE
  5
19E
330
2
100
AcDbEntity
  8
GEB-KONTUR-A
 48
25.0
100
AcDbLine
 10
32.50000000000003
 20
-6.365286717805105
 30
0.0
 11
32.50000000000003
 21
-5.462114467248284
 31
0.0
  0
LINE
  5
19F
330
2
100
AcDbEntity
  8
GEB-KONTUR-A
 48
25.0
100
AcDbLine
 10
34.90000000000006
 20
-4.918109956726539
 30
0.0
 11
34.90000000000006
 21
-3.674999999988699
 31
0.0
  0
LINE
  5
1A0
330
2
100
AcDbEntity
  8
GEB-KONTUR-A
 48
25.0
100
AcDbLine
 10
32.50000000000003
 20
-3.908771927733965
 30
0.0
 11
32.50000000000003
 21
-3.674999999988699
 31
0.0
  0
LINE
  5
1A1
330
2
100
AcDbEntity
  8
GEB-KONTUR-A
 48
25.0
100
AcDbLine
 10
32.50000000000003
 20
-3.674999999988699
 30
0.0
 11
34.90000000000006
 21
-3.674999999988699
 31
0.0
  0
LINE
  5
1A2
330
2
100
AcDbEntity
  8
GEB-KONTUR-A
 48
25.0
100
AcDbLine
 10
34.90000000000006
 20
-4.918109956726567
 30
0.0
 11
32.50000000000003
 21
-4.918109956726567
 31
0.0
  0
LINE
  5
1A3
330
2
100
AcDbEntity
  8
GEB-KONTUR-A
 48
25.0
100
AcDbLine
 10
32.50000000000003
 20
-4.918109956726567
 30
0.0
 11
32.50000000000003
 21
-3.908771927733965
 31
0.0
  0
LINE
  5
1A4
330
2
100
AcDbEntity
  8
GEB-KONTUR-A
 48
25.0
100
AcDbLine
 10
32.50000000000003
 20
-3.908771927733965
 30
0.0
 11
34.90000000000006
 21
-3.908771927733965
 31
0.0
  0
LINE
  5
1A5
330
2
100
AcDbEntity
  8
GEB-KONTUR-A
 48
25.0
100
AcDbLine
 10
34.90000000000006
 20
-2.989514326595696
 30
0.0
 11
34.90000000000006
 21
-1.528150927498955
 31
0.0
  0
LINE
  5
1A6
330
2
100
AcDbEntity
  8
GEB-KONTUR-A
 48
25.0
100
AcDbLine
 10
32.50000000000003
 20
-2.054963012582106
 30
0.0
 11
32.50000000000003
 21
-1.528150927498955
 31
0.0
  0
LINE
  5
1A7
330
2
100
AcDbEntity
  8
GEB-KONTUR-A
 48
25.0
100
AcDbLine
 10
32.50000000000003
 20
-1.528150927498955
 30
0.0
 11
34.90000000000006
 21
-1.528150927498955
 31
0.0
  0
LINE
  5
1A8
330
2
100
AcDbEntity
  8
GEB-KONTUR-A
 48
25.0
100
AcDbLine
 10
34.90000000000006
 20
-2.989514326595696
 30
0.0
 11
32.50000000000003
 21
-2.989514326595696
 31
0.0
  0
LINE
  5
1A9
330
2
100
AcDbEntity
  8
GEB-KONTUR-A
 48
25.0
100
AcDbLine
 10
32.50000000000003
 20
-2.989514326595696
 30
0.0
 11
32.50000000000003
 21
-2.054963012582106
 31
0.0
  0
LINE
  5
1AA
330
2
100
AcDbEntity
  8
GEB-KONTUR-A
 48
25.0
100
AcDbLine
 10
32.50000000000003
 20
-2.054963012582106
 30
0.0
 11
34.90000000000006
 21
-2.054963012582106
 31
0.0
  0
LINE
  5
1AB
330
2
100
AcDbEntity
  8
GEB-KONTUR-A
 48
25.0
100
AcDbLine
 10
34.90000000000006
 20
-0.7682842050056991
 30
0.0
 11
34.90000000000006
 21
0.7682842050288344
 31
0.0
  0
LINE
  5
1AC
330
2
100
AcDbEntity
  8
GEB-KONTUR-A
 48
25.0
100
AcDbLine
 10
32.50000000000003
 20
0.0000000000113971
 30
0.0
 11
32.50000000000003
 21
0.7682842050288344
 31
0.0
  0
LINE
  5
1AD
330
2
100
AcDbEntity
  8
GEB-KONTUR-A
 48
25.0
100
AcDbLine
 10
32.50000000000003
 20
0.7682842050288344
 30
0.0
 11
34.90000000000006
 21
0.7682842050288344
 31
0.0
  0
LINE
  5
1AE
330
2
100
AcDbEntity
  8
GEB-KONTUR-A
 48
25.0
100
AcDbLine
 10
34.90000000000006
 20
-0.7682842050056991
 30
0.0
 11
32.50000000000003
 21
-0.7682842050056991
 31
0.0
  0
LINE
  5
1AF
330
2
100
AcDbEntity
  8
GEB-KONTUR-A
 48
25.0
100
AcDbLine
 10
32.50000000000003
 20
-0.7682842050056991
 30
0.0
 11
32.50000000000003
 21
0.0000000000113971
 31
0.0
  0
LINE
  5
1B0
330
2
100
AcDbEntity
  8
GEB-KONTUR-A
 48
25.0
100
AcDbLine
 10
32.50000000000003
 20
0.0000000000113971
 30
0.0
 11
34.90000000000006
 21
0.0000000000113971
 31
0.0
  0
LINE
  5
1B1
330
2
100
AcDbEntity
  8
GEB-KONTUR-A
 48
25.0
100
AcDbLine
 10
34.90000000000006
 20
1.528150927522091
 30
0.0
 11
34.90000000000006
 21
2.989514326618547
 31
0.0
  0
LINE
  5
1B2
330
2
100
AcDbEntity
  8
GEB-KONTUR-A
 48
25.0
100
AcDbLine
 10
32.50000000000003
 20
2.054963012604673
 30
0.0
 11
32.50000000000003
 21
2.989514326618518
 31
0.0
  0
LINE
  5
1B3
330
2
100
AcDbEntity
  8
GEB-KONTUR-A
 48
25.0
100
AcDbLine
 10
32.50000000000003
 20
2.989514326618518
 30
0.0
 11
34.90000000000006
 21
2.989514326618518
 31
0.0
  0
LINE
  5
1B4
330
2
100
AcDbEntity
  8
GEB-KONTUR-A
 48
25.0
100
AcDbLine
 10
34.90000000000006
 20
1.528150927522062
 30
0.0
 11
32.50000000000003
 21
1.528150927522062
 31
0.0
  0
LINE
  5
1B5
330
2
100
AcDbEntity
  8
GEB-KONTUR-A
 48
25.0
100
AcDbLine
 10
32.50000000000003
 20
1.528150927522062
 30
0.0
 11
32.50000000000003
 21
2.054963012604673
 31
0.0
  0
LINE
  5
1B6
330
2
100
AcDbEntity
  8
GEB-KONTUR-A
 48
25.0
100
AcDbLine
 10
32.50000000000003
 20
2.054963012604673
 30
0.0
 11
34.90000000000006
 21
2.054963012604673
 31
0.0
  0
LINE
  5
1B7
330
2
100
AcDbEntity
  8
GEB-KONTUR-A
 48
25.0
100
AcDbLine
 10
34.90000000000006
 20
3.675000000011294
 30
0.0
 11
34.90000000000006
 21
4.918109956748651
 31
0.0
  0
LINE
  5
1B8
330
2
100
AcDbEntity
  8
GEB-KONTUR-A
 48
25.0
100
AcDbLine
 10
32.50000000000003
 20
3.908771927755935
 30
0.0
 11
32.50000000000003
 21
4.918109956748651
 31
0.0
  0
LINE
  5
1B9
330
2
100
AcDbEntity
  8
GEB-KONTUR-A
 48
25.0
100
AcDbLine
 10
32.50000000000003
 20
4.918109956748651
 30
0.0
 11
34.90000000000006
 21
4.918109956748651
 31
0.0
  0
LINE
  5
1BA
330
2
100
AcDbEntity
  8
GEB-KONTUR-A
 48
25.0
100
AcDbLine
 10
34.90000000000006
 20
3.675000000011294
 30
0.0
 11
32.50000000000003
 21
3.675000000011294
 31
0.0
  0
LINE
  5
1BB
330
2
100
AcDbEntity
  8
GEB-KONTUR-A
 48
25.0
100
AcDbLine
 10
32.50000000000003
 20
3.675000000011294
 30
0.0
 11
32.50000000000003
 21
3.908771927755935
 31
0.0
  0
LINE
  5
1BC
330
2
100
AcDbEntity
  8
GEB-KONTUR-A
 48
25.0
100
AcDbLine
 10
32.50000000000003
 20
3.908771927755935
 30
0.0
 11
34.90000000000006
 21
3.908771927755935
 31
0.0
  0
LINE
  5
1BD
330
2
100
AcDbEntity
  8
GEB-KONTUR-A
 48
25.0
100
AcDbLine
 10
34.90000000000006
 20
5.462114467269714
 30
0.0
 11
34.90000000000006
 21
6.365286717826137
 31
0.0
  0
LINE
  5
1BE
330
2
100
AcDbEntity
  8
GEB-KONTUR-A
 48
25.0
100
AcDbLine
 10
32.50000000000003
 20
5.462114467269429
 30
0.0
 11
32.50000000000003
 21
6.365286717826137
 31
0.0
  0
LINE
  5
1BF
330
2
100
AcDbEntity
  8
GEB-KONTUR-A
 48
25.0
100
AcDbLine
 10
32.50000000000003
 20
6.365286717826137
 30
0.0
 11
34.90000000000006
 21
6.365286717826137
 31
0.0
  0
LINE
  5
1C0
330
2
100
AcDbEntity
  8
GEB-KONTUR-A
 48
25.0
100
AcDbLine
 10
34.90000000000006
 20
5.462114467269714
 30
0.0
 11
32.50000000000003
 21
5.462114467269714
 31
0.0
  0
LINE
  5
1C1
330
2
100
AcDbEntity
  8
GEB-KONTUR-A
 48
25.0
100
AcDbLine
 10
34.90000000000006
 20
6.714559113683407
 30
0.0
 11
34.90000000000006
 21
7.189384865403297
 31
0.0
  0
LINE
  5
1C2
330
2
100
AcDbEntity
  8
GEB-KONTUR-A
 48
25.0
100
AcDbLine
 10
32.50000000000003
 20
6.714559113683066
 30
0.0
 11
32.50000000000003
 21
7.189384865403354
 31
0.0
  0
LINE
  5
1C3
330
2
100
AcDbEntity
  8
GEB-KONTUR-A
 48
25.0
100
AcDbLine
 10
32.50000000000003
 20
7.189384865403354
 30
0.0
 11
34.90000000000006
 21
7.189384865403354
 31
0.0
  0
LINE
  5
1C4
330
2
100
AcDbEntity
  8
GEB-KONTUR-A
 48
25.0
100
AcDbLine
 10
34.90000000000006
 20
6.714559113683407
 30
0.0
 11
32.50000000000003
 21
6.714559113683407
 31
0.0
  0
LINE
  5
1C5
330
2
100
AcDbEntity
  8
GEB-KONTUR-A
 48
25.0
100
AcDbLine
 10
34.90000000000006
 20
7.309735930966411
 30
0.0
 11
34.90000000000006
 21
7.350000000009401
 31
0.0
  0
LINE
  5
1C6
330
2
100
AcDbEntity
  8
GEB-KONTUR-A
 48
25.0
100
AcDbLine
 10
34.90000000000006
 20
7.309735930966468
 30
0.0
 11
32.50000000000003
 21
7.309735930966468
 31
0.0
  0
LINE
  5
1C7
330
2
100
AcDbEntity
  8
GEB-VERDECKT
 48
25.0
100
AcDbLine
 10
34.90000000000006
 20
-7.309735930947169
 30
0.0
 11
34.90000000000006
 21
-7.189384865383885
 31
0.0
  0
LINE
  5
1C8
330
2
100
AcDbEntity
  8
GEB-VERDECKT
 48
25.0
100
AcDbLine
 10
32.50000000000003
 20
-6.649999999990569
 30
0.0
 11
34.90000000000006
 21
-6.649999999990569
 31
0.0
  0
LINE
  5
1C9
330
2
100
AcDbEntity
  8
GEB-VERDECKT
 48
25.0
100
AcDbLine
 10
34.90000000000006
 20
-6.714559113662801
 30
0.0
 11
34.90000000000006
 21
-6.36528671780556
 31
0.0
  0
LINE
  5
1CA
330
2
100
AcDbEntity
  8
GEB-VERDECKT
 48
25.0
100
AcDbLine
 10
32.50000000000003
 20
-6.324525833352765
 30
0.0
 11
34.90000000000006
 21
-6.324525833352765
 31
0.0
  0
LINE
  5
1CB
330
2
100
AcDbEntity
  8
GEB-VERDECKT
 48
25.0
100
AcDbLine
 10
34.90000000000006
 20
-5.462114467247971
 30
0.0
 11
34.90000000000006
 21
-5.379963012582805
 31
0.0
  0
LINE
  5
1CC
330
2
100
AcDbEntity
  8
GEB-VERDECKT
 48
25.0
100
AcDbLine
 10
32.50000000000003
 20
-5.379963012582805
 30
0.0
 11
34.90000000000006
 21
-5.379963012582805
 31
0.0
  0
LINE
  5
1CD
330
2
100
AcDbEntity
  8
GEB-VERDECKT
 48
25.0
100
AcDbLine
 10
32.50000000000003
 20
5.379963012603951
 30
0.0
 11
34.90000000000006
 21
5.379963012603951
 31
0.0
  0
LINE
  5
1CE
330
2
100
AcDbEntity
  8
GEB-VERDECKT
 48
25.0
100
AcDbLine
 10
34.90000000000006
 20
5.379963012603951
 30
0.0
 11
34.90000000000006
 21
5.462114467269714
 31
0.0
  0
LINE
  5
1CF
330
2
100
AcDbEntity
  8
GEB-VERDECKT
 48
25.0
100
AcDbLine
 10
32.50000000000003
 20
6.324525833372803
 30
0.0
 11
34.90000000000006
 21
6.324525833372803
 31
0.0
  0
LINE
  5
1D0
330
2
100
AcDbEntity
  8
GEB-VERDECKT
 48
25.0
100
AcDbLine
 10
34.90000000000006
 20
6.365286717825682
 30
0.0
 11
34.90000000000006
 21
6.714559113683407
 31
0.0
  0
LINE
  5
1D1
330
2
100
AcDbEntity
  8
GEB-VERDECKT
 48
25.0
100
AcDbLine
 10
32.50000000000003
 20
6.650000000009413
 30
0.0
 11
34.90000000000006
 21
6.650000000009413
 31
0.0
  0
LINE
  5
1D2
330
2
100
AcDbEntity
  8
GEB-VERDECKT
 48
25.0
100
AcDbLine
 10
34.90000000000006
 20
7.18938486540307
 30
0.0
 11
34.90000000000006
 21
7.309735930966468
 31
0.0
  0
LINE
  5
1D3
330
2
100
AcDbEntity
  8
GEB-KONTUR-A
 48
25.0
100
AcDbLine
 10
45.50000000000003
 20
5.900000000009413
 30
0.0
 11
43.50000000000003
 21
5.900000000009413
 31
0.0
  0
LINE
  5
1D4
330
2
100
AcDbEntity
  8
GEB-KONTUR-A
 48
25.0
100
AcDbLine
 10
45.50000000000003
 20
-5.899999999990569
 30
0.0
 11
43.50000000000003
 21
-5.899999999990569
 31
0.0
  0
LINE
  5
1D5
330
2
100
AcDbEntity
  8
GEB-KONTUR-A
 48
25.0
100
AcDbLine
 10
43.50000000000003
 20
6.900000000009441
 30
0.0
 11
42.20000000000001
 21
6.900000000009441
 31
0.0
  0
LINE
  5
1D6
330
2
100
AcDbEntity
  8
GEB-KONTUR-A
 48
25.0
100
AcDbLine
 10
43.50000000000003
 20
-6.899999999990598
 30
0.0
 11
42.20000000000001
 21
-6.899999999990598
 31
0.0
  0
LINE
  5
1D7
330
2
100
AcDbEntity
  8
GEB-KONTUR-A
 48
25.0
100
AcDbLine
 10
32.50000000000003
 20
6.650000000009413
 30
0.0
 11
32.31407400337108
 21
6.650000000009413
 31
0.0
  0
LINE
  5
1D8
330
2
100
AcDbEntity
  8
GEB-KONTUR-A
 48
25.0
100
AcDbLine
 10
32.50000000000003
 20
-6.649999999990569
 30
0.0
 11
32.31407400337114
 21
-6.649999999990569
 31
0.0
  0
LINE
  5
1D9
330
2
100
AcDbEntity
  8
GEB-KONTUR-A
 48
25.0
100
AcDbLine
 10
32.31407400337108
 20
6.650000000009413
 30
0.0
 11
31.60000000000005
 21
7.150000000009413
 31
0.0
  0
LINE
  5
1DA
330
2
100
AcDbEntity
  8
GEB-KONTUR-A
 48
25.0
100
AcDbLine
 10
32.31407400337114
 20
-6.649999999990569
 30
0.0
 11
31.60000000000005
 21
-7.149999999990569
 31
0.0
  0
LINE
  5
1DB
330
2
100
AcDbEntity
  8
GEB-KONTUR-A
 48
25.0
100
AcDbLine
 10
31.60000000000005
 20
6.650000000009413
 30
0.0
 11
30.81407400337108
 21
6.650000000009413
 31
0.0
  0
LINE
  5
1DC
330
2
100
AcDbEntity
  8
GEB-KONTUR-A
 48
25.0
100
AcDbLine
 10
31.60000000000005
 20
-6.649999999990569
 30
0.0
 11
30.81407400337108
 21
-6.649999999990569
 31
0.0
  0
LINE
  5
1DD
330
2
100
AcDbEntity
  8
GEB-KONTUR-A
 48
25.0
100
AcDbLine
 10
30.81407400337108
 20
6.650000000009413
 30
0.0
 11
30.10000000000005
 21
7.150000000009413
 31
0.0
  0
LINE
  5
1DE
330
2
100
AcDbEntity
  8
GEB-KONTUR-A
 48
25.0
100
AcDbLine
 10
30.81407400337108
 20
-6.649999999990569
 30
0.0
 11
30.10000000000005
 21
-7.149999999990569
 31
0.0
  0
LINE
  5
1DF
330
2
100
AcDbEntity
  8
GEB-KONTUR-A
 48
25.0
100
AcDbLine
 10
30.10000000000005
 20
6.900000000009441
 30
0.0
 11
28.00000000000003
 21
6.900000000009441
 31
0.0
  0
LINE
  5
1E0
330
2
100
AcDbEntity
  8
GEB-KONTUR-A
 48
25.0
100
AcDbLine
 10
30.10000000000005
 20
-6.899999999990598
 30
0.0
 11
28.00000000000003
 21
-6.899999999990598
 31
0.0
  0
ARC
  5
1E1
330
2
100
AcDbEntity
  8
GEB-KONTUR-A
 48
25.0
100
AcDbCircle
 10
56.10000000000005
 20
-6.661706186102748
 30
0.0
 40
0.4
100
AcDbArc
 50
280.0000000000002
 51
0.0
  0
ARC
  5
1E2
330
2
100
AcDbEntity
  8
GEB-KONTUR-A
 48
25.0
100
AcDbCircle
 10
56.10000000000005
 20
6.661706186121563
 30
0.0
 40
0.3999999999999999
100
AcDbArc
 50
0.0
 51
79.9999999999998
  0
LINE
  5
1E3
330
2
100
AcDbEntity
  8
GEB-KONTUR-A
 48
25.0
100
AcDbLine
 10
56.16945927106681
 20
7.055629287326468
 30
0.0
 11
54.50000000000002
 21
7.350000000009401
 31
0.0
  0
LINE
  5
1E4
330
2
100
AcDbEntity
  8
GEB-KONTUR-A
 48
25.0
100
AcDbLine
 10
56.16945927106681
 20
-7.055629287307652
 30
0.0
 11
54.50000000000002
 21
-7.349999999990586
 31
0.0
  0
LINE
  5
1E5
330
2
100
AcDbEntity
  8
GEB-KONTUR-A
 48
25.0
100
AcDbLine
 10
48.9667288565873
 20
7.350000000009401
 30
0.0
 11
46.80000000000004
 21
7.350000000009401
 31
0.0
  0
LINE
  5
1E6
330
2
100
AcDbEntity
  8
GEB-KONTUR-A
 48
25.0
100
AcDbLine
 10
48.9667288565873
 20
-7.349999999990586
 30
0.0
 11
46.80000000000004
 21
-7.349999999990586
 31
0.0
  0
LINE
  5
1E7
330
2
100
AcDbEntity
  8
GEB-KONTUR-A
 48
25.0
100
AcDbLine
 10
46.80000000000004
 20
6.900000000009441
 30
0.0
 11
45.50000000000003
 21
6.900000000009441
 31
0.0
  0
LINE
  5
1E8
330
2
100
AcDbEntity
  8
GEB-KONTUR-A
 48
25.0
100
AcDbLine
 10
46.80000000000004
 20
-6.899999999990598
 30
0.0
 11
45.50000000000003
 21
-6.899999999990598
 31
0.0
  0
LINE
  5
1E9
330
2
100
AcDbEntity
  8
GEB-KONTUR-A
 48
25.0
100
AcDbLine
 10
38.90000000000006
 20
7.350000000009401
 30
0.0
 11
34.90000000000006
 21
7.350000000009401
 31
0.0
  0
LINE
  5
1EA
330
2
100
AcDbEntity
  8
GEB-KONTUR-A
 48
25.0
100
AcDbLine
 10
42.20000000000001
 20
7.350000000009401
 30
0.0
 11
41.30000000000009
 21
7.350000000009401
 31
0.0
  0
LINE
  5
1EB
330
2
100
AcDbEntity
  8
GEB-KONTUR-A
 48
25.0
100
AcDbLine
 10
38.90000000000006
 20
-7.349999999990586
 30
0.0
 11
34.90000000000006
 21
-7.349999999990586
 31
0.0
  0
LINE
  5
1EC
330
2
100
AcDbEntity
  8
GEB-KONTUR-A
 48
25.0
100
AcDbLine
 10
42.20000000000001
 20
-7.349999999990586
 30
0.0
 11
41.30000000000009
 21
-7.349999999990586
 31
0.0
  0
LINE
  5
1ED
330
2
100
AcDbEntity
  8
GEB-KONTUR-A
 48
25.0
100
AcDbLine
 10
54.50000000000002
 20
7.350000000009401
 30
0.0
 11
53.43327114341278
 21
7.350000000009401
 31
0.0
  0
LINE
  5
1EE
330
2
100
AcDbEntity
  8
GEB-KONTUR-A
 48
25.0
100
AcDbLine
 10
54.50000000000002
 20
-7.349999999990586
 30
0.0
 11
53.43327114341278
 21
-7.349999999990586
 31
0.0
  0
LINE
  5
1EF
330
2
100
AcDbEntity
  8
GEB-KONTUR-A
 48
25.0
100
AcDbLine
 10
43.50000000000003
 20
6.900000000009441
 30
0.0
 11
43.50000000000003
 21
-6.899999999990598
 31
0.0
  0
LINE
  5
1F0
330
2
100
AcDbEntity
  8
GEB-KONTUR-A
 48
25.0
100
AcDbLine
 10
32.31407400337114
 20
6.650000000009413
 30
0.0
 11
32.31407400337114
 21
-6.649999999990569
 31
0.0
  0
LINE
  5
1F1
330
2
100
AcDbEntity
  8
GEB-KONTUR-A
 48
25.0
100
AcDbLine
 10
31.60000000000005
 20
7.150000000009413
 30
0.0
 11
31.60000000000005
 21
-7.149999999990569
 31
0.0
  0
LINE
  5
1F2
330
2
100
AcDbEntity
  8
GEB-KONTUR-A
 48
25.0
100
AcDbLine
 10
30.81407400337108
 20
6.650000000009413
 30
0.0
 11
30.81407400337108
 21
-6.649999999990569
 31
0.0
  0
LINE
  5
1F3
330
2
100
AcDbEntity
  8
GEB-KONTUR-A
 48
25.0
100
AcDbLine
 10
30.10000000000005
 20
7.150000000009413
 30
0.0
 11
30.10000000000005
 21
-7.149999999990569
 31
0.0
  0
LINE
  5
1F4
330
2
100
AcDbEntity
  8
GEB-KONTUR-A
 48
25.0
100
AcDbLine
 10
56.50000000000003
 20
-6.661706186102748
 30
0.0
 11
56.50000000000003
 21
6.661706186121563
 31
0.0
  0
LINE
  5
1F5
330
2
100
AcDbEntity
  8
GEB-KONTUR-A
 48
25.0
100
AcDbLine
 10
46.80000000000004
 20
7.350000000009401
 30
0.0
 11
46.80000000000004
 21
-7.349999999990586
 31
0.0
  0
LINE
  5
1F6
330
2
100
AcDbEntity
  8
GEB-KONTUR-A
 48
25.0
100
AcDbLine
 10
45.50000000000003
 20
6.900000000009441
 30
0.0
 11
45.50000000000003
 21
-6.899999999990598
 31
0.0
  0
LINE
  5
1F7
330
2
100
AcDbEntity
  8
GEB-KONTUR-A
 48
25.0
100
AcDbLine
 10
42.20000000000001
 20
7.350000000009401
 30
0.0
 11
42.20000000000001
 21
-7.349999999990586
 31
0.0
  0
LINE
  5
1F8
330
2
100
AcDbEntity
  8
GEB-KONTUR-A
 48
25.0
100
AcDbLine
 10
32.50000000000003
 20
-7.189384865383601
 30
0.0
 11
32.50000000000003
 21
-7.309735930947141
 31
0.0
  0
LINE
  5
1F9
330
2
100
AcDbEntity
  8
GEB-KONTUR-A
 48
25.0
100
AcDbLine
 10
32.50000000000003
 20
-6.365286717805105
 30
0.0
 11
32.50000000000003
 21
-6.714559113662801
 31
0.0
  0
LINE
  5
1FA
330
2
100
AcDbEntity
  8
GEB-KONTUR-A
 48
25.0
100
AcDbLine
 10
32.50000000000003
 20
-4.918109956726567
 30
0.0
 11
32.50000000000003
 21
-5.462114467247999
 31
0.0
  0
LINE
  5
1FB
330
2
100
AcDbEntity
  8
GEB-KONTUR-A
 48
25.0
100
AcDbLine
 10
32.50000000000003
 20
-2.989514326595752
 30
0.0
 11
32.50000000000003
 21
-3.674999999988699
 31
0.0
  0
LINE
  5
1FC
330
2
100
AcDbEntity
  8
GEB-KONTUR-A
 48
25.0
100
AcDbLine
 10
32.50000000000003
 20
-0.7682842050056422
 30
0.0
 11
32.50000000000003
 21
-1.528150927498955
 31
0.0
  0
LINE
  5
1FD
330
2
100
AcDbEntity
  8
GEB-KONTUR-A
 48
25.0
100
AcDbLine
 10
32.50000000000003
 20
1.528150927522062
 30
0.0
 11
32.50000000000003
 21
0.7682842050288344
 31
0.0
  0
LINE
  5
1FE
330
2
100
AcDbEntity
  8
GEB-KONTUR-A
 48
25.0
100
AcDbLine
 10
32.50000000000003
 20
3.675000000011294
 30
0.0
 11
32.50000000000003
 21
2.989514326618547
 31
0.0
  0
LINE
  5
1FF
330
2
100
AcDbEntity
  8
GEB-KONTUR-A
 48
25.0
100
AcDbLine
 10
32.50000000000003
 20
5.462114467269714
 30
0.0
 11
32.50000000000003
 21
4.918109956748651
 31
0.0
  0
LINE
  5
200
330
2
100
AcDbEntity
  8
GEB-KONTUR-A
 48
25.0
100
AcDbLine
 10
32.50000000000003
 20
6.714559113683407
 30
0.0
 11
32.50000000000003
 21
6.365286717826137
 31
0.0
  0
LINE
  5
201
330
2
100
AcDbEntity
  8
GEB-KONTUR-A
 48
25.0
100
AcDbLine
 10
32.50000000000003
 20
7.309735930966468
 30
0.0
 11
32.50000000000003
 21
7.189384865403354
 31
0.0
  0
LINE
  5
202
330
2
100
AcDbEntity
  8
GEB-KONTUR-A
 48
25.0
100
AcDbLine
 10
54.50000000000002
 20
7.350000000009401
 30
0.0
 11
54.50000000000002
 21
-7.349999999990586
 31
0.0
  0
ARC
  5
203
330
2
100
AcDbEntity
  8
GEB-KONTUR-A
 48
25.0
100
AcDbCircle
 10
51.20000000000001
 20
-10.2999999999906
 30
0.0
 40
3.699999999999998
100
AcDbArc
 50
52.87278281818131
 51
127.1272171818187
  0
ARC
  5
204
330
2
100
AcDbEntity
  8
GEB-KONTUR-A
 48
25.0
100
AcDbCircle
 10
51.20000000000001
 20
10.30000000000942
 30
0.0
 40
3.699999999999998
100
AcDbArc
 50
232.8727828181813
 51
307.1272171818187
  0
LINE
  5
205
330
2
100
AcDbEntity
  8
GEB-KONTUR-A
 48
25.0
100
AcDbLine
 10
53.43327114341278
 20
-7.349999999990586
 30
0.0
 11
53.43327114341278
 21
7.350000000009401
 31
0.0
  0
LINE
  5
206
330
2
100
AcDbEntity
  8
GEB-KONTUR-A
 48
25.0
100
AcDbLine
 10
48.9667288565873
 20
7.350000000009401
 30
0.0
 11
48.9667288565873
 21
-7.349999999990586
 31
0.0
  0
LINE
  5
207
330
2
100
AcDbEntity
  8
GEB-KONTUR-A
 48
25.0
100
AcDbLine
 10
41.30000000000004
 20
-7.349999999990586
 30
0.0
 11
41.30000000000004
 21
-7.309735930947141
 31
0.0
  0
LINE
  5
208
330
2
100
AcDbEntity
  8
GEB-KONTUR-A
 48
25.0
100
AcDbLine
 10
38.90000000000006
 20
-7.309735930947169
 30
0.0
 11
38.90000000000006
 21
-7.349999999990586
 31
0.0
  0
LINE
  5
209
330
2
100
AcDbEntity
  8
GEB-KONTUR-A
 48
25.0
100
AcDbLine
 10
38.90000000000006
 20
-7.309735930947169
 30
0.0
 11
41.30000000000009
 21
-7.309735930947169
 31
0.0
  0
LINE
  5
20A
330
2
100
AcDbEntity
  8
GEB-KONTUR-A
 48
25.0
100
AcDbLine
 10
41.30000000000004
 20
-7.189384865383601
 30
0.0
 11
41.30000000000004
 21
-6.714559113662801
 31
0.0
  0
LINE
  5
20B
330
2
100
AcDbEntity
  8
GEB-KONTUR-A
 48
25.0
100
AcDbLine
 10
38.90000000000006
 20
-6.714559113662772
 30
0.0
 11
38.90000000000006
 21
-7.189384865383601
 31
0.0
  0
LINE
  5
20C
330
2
100
AcDbEntity
  8
GEB-KONTUR-A
 48
25.0
100
AcDbLine
 10
38.90000000000006
 20
-6.714559113662801
 30
0.0
 11
41.30000000000009
 21
-6.714559113662801
 31
0.0
  0
LINE
  5
20D
330
2
100
AcDbEntity
  8
GEB-KONTUR-A
 48
25.0
100
AcDbLine
 10
41.30000000000009
 20
-7.189384865383601
 30
0.0
 11
38.90000000000006
 21
-7.189384865383601
 31
0.0
  0
LINE
  5
20E
330
2
100
AcDbEntity
  8
GEB-KONTUR-A
 48
25.0
100
AcDbLine
 10
41.30000000000004
 20
-6.365286717805105
 30
0.0
 11
41.30000000000004
 21
-5.462114467247971
 31
0.0
  0
LINE
  5
20F
330
2
100
AcDbEntity
  8
GEB-KONTUR-A
 48
25.0
100
AcDbLine
 10
38.90000000000006
 20
-5.462114467247943
 30
0.0
 11
38.90000000000006
 21
-6.365286717805105
 31
0.0
  0
LINE
  5
210
330
2
100
AcDbEntity
  8
GEB-KONTUR-A
 48
25.0
100
AcDbLine
 10
38.90000000000006
 20
-5.462114467247971
 30
0.0
 11
41.30000000000009
 21
-5.462114467247971
 31
0.0
  0
LINE
  5
211
330
2
100
AcDbEntity
  8
GEB-KONTUR-A
 48
25.0
100
AcDbLine
 10
41.30000000000009
 20
-6.365286717805105
 30
0.0
 11
38.90000000000006
 21
-6.365286717805105
 31
0.0
  0
LINE
  5
212
330
2
100
AcDbEntity
  8
GEB-KONTUR-A
 48
25.0
100
AcDbLine
 10
41.30000000000004
 20
-4.918109956726539
 30
0.0
 11
41.30000000000004
 21
-3.674999999988699
 31
0.0
  0
LINE
  5
213
330
2
100
AcDbEntity
  8
GEB-KONTUR-A
 48
25.0
100
AcDbLine
 10
38.90000000000006
 20
-3.674999999988699
 30
0.0
 11
38.90000000000006
 21
-4.918109956726567
 31
0.0
  0
LINE
  5
214
330
2
100
AcDbEntity
  8
GEB-KONTUR-A
 48
25.0
100
AcDbLine
 10
38.90000000000006
 20
-3.674999999988699
 30
0.0
 11
41.30000000000009
 21
-3.674999999988699
 31
0.0
  0
LINE
  5
215
330
2
100
AcDbEntity
  8
GEB-KONTUR-A
 48
25.0
100
AcDbLine
 10
41.30000000000009
 20
-4.918109956726567
 30
0.0
 11
38.90000000000006
 21
-4.918109956726567
 31
0.0
  0
LINE
  5
216
330
2
100
AcDbEntity
  8
GEB-KONTUR-A
 48
25.0
100
AcDbLine
 10
38.90000000000006
 20
-3.908771927733965
 30
0.0
 11
41.30000000000009
 21
-3.908771927733965
 31
0.0
  0
LINE
  5
217
330
2
100
AcDbEntity
  8
GEB-KONTUR-A
 48
25.0
100
AcDbLine
 10
41.30000000000004
 20
-2.989514326595696
 30
0.0
 11
41.30000000000004
 21
-1.528150927498955
 31
0.0
  0
LINE
  5
218
330
2
100
AcDbEntity
  8
GEB-KONTUR-A
 48
25.0
100
AcDbLine
 10
38.90000000000006
 20
-1.528150927499012
 30
0.0
 11
38.90000000000006
 21
-2.989514326595752
 31
0.0
  0
LINE
  5
219
330
2
100
AcDbEntity
  8
GEB-KONTUR-A
 48
25.0
100
AcDbLine
 10
38.90000000000006
 20
-1.528150927498955
 30
0.0
 11
41.30000000000009
 21
-1.528150927498955
 31
0.0
  0
LINE
  5
21A
330
2
100
AcDbEntity
  8
GEB-KONTUR-A
 48
25.0
100
AcDbLine
 10
41.30000000000009
 20
-2.989514326595696
 30
0.0
 11
38.90000000000006
 21
-2.989514326595696
 31
0.0
  0
LINE
  5
21B
330
2
100
AcDbEntity
  8
GEB-KONTUR-A
 48
25.0
100
AcDbLine
 10
38.90000000000006
 20
-2.054963012582106
 30
0.0
 11
41.30000000000009
 21
-2.054963012582106
 31
0.0
  0
LINE
  5
21C
330
2
100
AcDbEntity
  8
GEB-KONTUR-A
 48
25.0
100
AcDbLine
 10
41.30000000000004
 20
-0.7682842050056991
 30
0.0
 11
41.30000000000004
 21
0.7682842050288344
 31
0.0
  0
LINE
  5
21D
330
2
100
AcDbEntity
  8
GEB-KONTUR-A
 48
25.0
100
AcDbLine
 10
38.90000000000006
 20
0.7682842050288059
 30
0.0
 11
38.90000000000006
 21
-0.7682842050056991
 31
0.0
  0
LINE
  5
21E
330
2
100
AcDbEntity
  8
GEB-KONTUR-A
 48
25.0
100
AcDbLine
 10
38.90000000000006
 20
0.7682842050288344
 30
0.0
 11
41.30000000000009
 21
0.7682842050288344
 31
0.0
  0
LINE
  5
21F
330
2
100
AcDbEntity
  8
GEB-KONTUR-A
 48
25.0
100
AcDbLine
 10
41.30000000000009
 20
-0.7682842050056991
 30
0.0
 11
38.90000000000006
 21
-0.7682842050056991
 31
0.0
  0
LINE
  5
220
330
2
100
AcDbEntity
  8
GEB-KONTUR-A
 48
25.0
100
AcDbLine
 10
38.90000000000006
 20
0.0000000000113971
 30
0.0
 11
41.30000000000009
 21
0.0000000000113971
 31
0.0
  0
LINE
  5
221
330
2
100
AcDbEntity
  8
GEB-KONTUR-A
 48
25.0
100
AcDbLine
 10
41.30000000000004
 20
1.528150927522062
 30
0.0
 11
41.30000000000004
 21
2.989514326618518
 31
0.0
  0
LINE
  5
222
330
2
100
AcDbEntity
  8
GEB-KONTUR-A
 48
25.0
100
AcDbLine
 10
38.90000000000006
 20
2.989514326618518
 30
0.0
 11
38.90000000000006
 21
1.528150927522062
 31
0.0
  0
LINE
  5
223
330
2
100
AcDbEntity
  8
GEB-KONTUR-A
 48
25.0
100
AcDbLine
 10
38.90000000000006
 20
2.989514326618518
 30
0.0
 11
41.30000000000009
 21
2.989514326618518
 31
0.0
  0
LINE
  5
224
330
2
100
AcDbEntity
  8
GEB-KONTUR-A
 48
25.0
100
AcDbLine
 10
41.30000000000009
 20
1.528150927522062
 30
0.0
 11
38.90000000000006
 21
1.528150927522062
 31
0.0
  0
LINE
  5
225
330
2
100
AcDbEntity
  8
GEB-KONTUR-A
 48
25.0
100
AcDbLine
 10
38.90000000000006
 20
2.054963012604673
 30
0.0
 11
41.30000000000009
 21
2.054963012604673
 31
0.0
  0
LINE
  5
226
330
2
100
AcDbEntity
  8
GEB-KONTUR-A
 48
25.0
100
AcDbLine
 10
41.30000000000004
 20
3.675000000011294
 30
0.0
 11
41.30000000000004
 21
4.918109956748651
 31
0.0
  0
LINE
  5
227
330
2
100
AcDbEntity
  8
GEB-KONTUR-A
 48
25.0
100
AcDbLine
 10
38.90000000000006
 20
4.918109956748622
 30
0.0
 11
38.90000000000006
 21
3.675000000011294
 31
0.0
  0
LINE
  5
228
330
2
100
AcDbEntity
  8
GEB-KONTUR-A
 48
25.0
100
AcDbLine
 10
38.90000000000006
 20
4.918109956748651
 30
0.0
 11
41.30000000000009
 21
4.918109956748651
 31
0.0
  0
LINE
  5
229
330
2
100
AcDbEntity
  8
GEB-KONTUR-A
 48
25.0
100
AcDbLine
 10
41.30000000000009
 20
3.675000000011294
 30
0.0
 11
38.90000000000006
 21
3.675000000011294
 31
0.0
  0
LINE
  5
22A
330
2
100
AcDbEntity
  8
GEB-KONTUR-A
 48
25.0
100
AcDbLine
 10
38.90000000000006
 20
3.908771927755935
 30
0.0
 11
41.30000000000009
 21
3.908771927755935
 31
0.0
  0
LINE
  5
22B
330
2
100
AcDbEntity
  8
GEB-KONTUR-A
 48
25.0
100
AcDbLine
 10
41.30000000000004
 20
5.462114467269714
 30
0.0
 11
41.30000000000004
 21
6.365286717826137
 31
0.0
  0
LINE
  5
22C
330
2
100
AcDbEntity
  8
GEB-KONTUR-A
 48
25.0
100
AcDbLine
 10
38.90000000000006
 20
6.365286717826137
 30
0.0
 11
38.90000000000006
 21
5.462114467269714
 31
0.0
  0
LINE
  5
22D
330
2
100
AcDbEntity
  8
GEB-KONTUR-A
 48
25.0
100
AcDbLine
 10
38.90000000000006
 20
6.365286717826137
 30
0.0
 11
41.30000000000009
 21
6.365286717826137
 31
0.0
  0
LINE
  5
22E
330
2
100
AcDbEntity
  8
GEB-KONTUR-A
 48
25.0
100
AcDbLine
 10
41.30000000000009
 20
5.462114467269714
 30
0.0
 11
38.90000000000006
 21
5.462114467269714
 31
0.0
  0
LINE
  5
22F
330
2
100
AcDbEntity
  8
GEB-KONTUR-A
 48
25.0
100
AcDbLine
 10
41.30000000000004
 20
6.714559113683407
 30
0.0
 11
41.30000000000004
 21
7.189384865403297
 31
0.0
  0
LINE
  5
230
330
2
100
AcDbEntity
  8
GEB-KONTUR-A
 48
25.0
100
AcDbLine
 10
38.90000000000006
 20
7.189384865403297
 30
0.0
 11
38.90000000000006
 21
6.714559113683407
 31
0.0
  0
LINE
  5
231
330
2
100
AcDbEntity
  8
GEB-KONTUR-A
 48
25.0
100
AcDbLine
 10
38.90000000000006
 20
7.189384865403354
 30
0.0
 11
41.30000000000009
 21
7.189384865403354
 31
0.0
  0
LINE
  5
232
330
2
100
AcDbEntity
  8
GEB-KONTUR-A
 48
25.0
100
AcDbLine
 10
41.30000000000009
 20
6.714559113683407
 30
0.0
 11
38.90000000000006
 21
6.714559113683407
 31
0.0
  0
LINE
  5
233
330
2
100
AcDbEntity
  8
GEB-KONTUR-A
 48
25.0
100
AcDbLine
 10
41.30000000000004
 20
7.309735930966411
 30
0.0
 11
41.30000000000004
 21
7.350000000009401
 31
0.0
  0
LINE
  5
234
330
2
100
AcDbEntity
  8
GEB-KONTUR-A
 48
25.0
100
AcDbLine
 10
38.90000000000006
 20
7.350000000009401
 30
0.0
 11
38.90000000000006
 21
7.309735930966468
 31
0.0
  0
LINE
  5
235
330
2
100
AcDbEntity
  8
GEB-KONTUR-A
 48
25.0
100
AcDbLine
 10
41.30000000000009
 20
7.309735930966468
 30
0.0
 11
38.90000000000006
 21
7.309735930966468
 31
0.0
  0
LINE
  5
236
330
2
100
AcDbEntity
  8
GEB-VERDECKT
 48
25.0
100
AcDbLine
 10
38.90000000000006
 20
-7.189384865383885
 30
0.0
 11
38.90000000000006
 21
-7.309735930947169
 31
0.0
  0
LINE
  5
237
330
2
100
AcDbEntity
  8
GEB-VERDECKT
 48
25.0
100
AcDbLine
 10
41.30000000000009
 20
-7.309735930947169
 30
0.0
 11
41.30000000000009
 21
-7.189384865383885
 31
0.0
  0
LINE
  5
238
330
2
100
AcDbEntity
  8
GEB-VERDECKT
 48
25.0
100
AcDbLine
 10
38.90000000000006
 20
-6.649999999990569
 30
0.0
 11
41.30000000000009
 21
-6.649999999990569
 31
0.0
  0
LINE
  5
239
330
2
100
AcDbEntity
  8
GEB-VERDECKT
 48
25.0
100
AcDbLine
 10
38.90000000000006
 20
-6.36528671780556
 30
0.0
 11
38.90000000000006
 21
-6.714559113662801
 31
0.0
  0
LINE
  5
23A
330
2
100
AcDbEntity
  8
GEB-VERDECKT
 48
25.0
100
AcDbLine
 10
41.30000000000009
 20
-6.714559113662801
 30
0.0
 11
41.30000000000009
 21
-6.36528671780556
 31
0.0
  0
LINE
  5
23B
330
2
100
AcDbEntity
  8
GEB-VERDECKT
 48
25.0
100
AcDbLine
 10
38.90000000000006
 20
-6.324525833352765
 30
0.0
 11
41.30000000000009
 21
-6.324525833352765
 31
0.0
  0
LINE
  5
23C
330
2
100
AcDbEntity
  8
GEB-VERDECKT
 48
25.0
100
AcDbLine
 10
38.90000000000006
 20
-5.379963012582805
 30
0.0
 11
38.90000000000006
 21
-5.462114467247971
 31
0.0
  0
LINE
  5
23D
330
2
100
AcDbEntity
  8
GEB-VERDECKT
 48
25.0
100
AcDbLine
 10
41.30000000000009
 20
-5.462114467247971
 30
0.0
 11
41.30000000000009
 21
-5.379963012582805
 31
0.0
  0
LINE
  5
23E
330
2
100
AcDbEntity
  8
GEB-VERDECKT
 48
25.0
100
AcDbLine
 10
38.90000000000006
 20
-5.379963012582805
 30
0.0
 11
41.30000000000009
 21
-5.379963012582805
 31
0.0
  0
LINE
  5
23F
330
2
100
AcDbEntity
  8
GEB-VERDECKT
 48
25.0
100
AcDbLine
 10
38.90000000000006
 20
5.462114467269714
 30
0.0
 11
38.90000000000006
 21
5.379963012603951
 31
0.0
  0
LINE
  5
240
330
2
100
AcDbEntity
  8
GEB-VERDECKT
 48
25.0
100
AcDbLine
 10
38.90000000000006
 20
5.379963012603951
 30
0.0
 11
41.30000000000009
 21
5.379963012603951
 31
0.0
  0
LINE
  5
241
330
2
100
AcDbEntity
  8
GEB-VERDECKT
 48
25.0
100
AcDbLine
 10
41.30000000000009
 20
5.379963012603951
 30
0.0
 11
41.30000000000009
 21
5.462114467269714
 31
0.0
  0
LINE
  5
242
330
2
100
AcDbEntity
  8
GEB-VERDECKT
 48
25.0
100
AcDbLine
 10
38.90000000000006
 20
6.714559113683407
 30
0.0
 11
38.90000000000006
 21
6.365286717825682
 31
0.0
  0
LINE
  5
243
330
2
100
AcDbEntity
  8
GEB-VERDECKT
 48
25.0
100
AcDbLine
 10
38.90000000000006
 20
6.324525833372803
 30
0.0
 11
41.30000000000009
 21
6.324525833372803
 31
0.0
  0
LINE
  5
244
330
2
100
AcDbEntity
  8
GEB-VERDECKT
 48
25.0
100
AcDbLine
 10
41.30000000000009
 20
6.365286717825682
 30
0.0
 11
41.30000000000009
 21
6.714559113683407
 31
0.0
  0
LINE
  5
245
330
2
100
AcDbEntity
  8
GEB-VERDECKT
 48
25.0
100
AcDbLine
 10
38.90000000000006
 20
7.309735930966468
 30
0.0
 11
38.90000000000006
 21
7.18938486540307
 31
0.0
  0
LINE
  5
246
330
2
100
AcDbEntity
  8
GEB-VERDECKT
 48
25.0
100
AcDbLine
 10
38.90000000000006
 20
6.650000000009413
 30
0.0
 11
41.30000000000009
 21
6.650000000009413
 31
0.0
  0
LINE
  5
247
330
2
100
AcDbEntity
  8
GEB-VERDECKT
 48
25.0
100
AcDbLine
 10
41.30000000000009
 20
7.18938486540307
 30
0.0
 11
41.30000000000009
 21
7.309735930966468
 31
0.0
  0
LINE
  5
248
330
2
100
AcDbEntity
  8
GEB-VERDECKT
 48
25.0
100
AcDbLine
 10
4.774934554525913
 20
-4.699999999990581
 30
0.0
 11
28.00000000000003
 21
-4.699999999990581
 31
0.0
  0
LINE
  5
249
330
2
100
AcDbEntity
  8
GEB-VERDECKT
 48
25.0
100
AcDbLine
 10
-28.0
 20
-4.699999999990581
 30
0.0
 11
-4.774934554525913
 21
-4.699999999990581
 31
0.0
  0
LINE
  5
24A
330
2
100
AcDbEntity
  8
GEB-VERDECKT
 48
25.0
100
AcDbLine
 10
4.774934554525913
 20
4.700000000009396
 30
0.0
 11
28.00000000000003
 21
4.700000000009396
 31
0.0
  0
LINE
  5
24B
330
2
100
AcDbEntity
  8
GEB-VERDECKT
 48
25.0
100
AcDbLine
 10
-28.0
 20
4.700000000009396
 30
0.0
 11
-4.774934554525913
 21
4.700000000009396
 31
0.0
  0
ARC
  5
24C
330
2
100
AcDbEntity
  8
GEB-KONTUR-A
 48
25.0
100
AcDbCircle
 10
14.71865334794731
 20
-4.09999999999016
 30
0.0
 40
2.500000000000003
100
AcDbArc
 50
270.0
 51
283.4335347160981
  0
ARC
  5
24D
330
2
100
AcDbEntity
  8
GEB-KONTUR-A
 48
25.0
100
AcDbCircle
 10
14.71865334794731
 20
4.100000000009828
 30
0.0
 40
2.500000000000019
100
AcDbArc
 50
76.5664652856311
 51
90.0
  0
ARC
  5
24E
330
2
100
AcDbEntity
  8
GEB-KONTUR-A
 48
25.0
100
AcDbCircle
 10
-14.04878036686946
 20
-1.599999999990046
 30
0.0
 40
5.000000000000104
100
AcDbArc
 50
259.2380503063129
 51
270.0
  0
ARC
  5
24F
330
2
100
AcDbEntity
  8
GEB-KONTUR-A
 48
25.0
100
AcDbCircle
 10
-14.04878036686952
 20
1.600000000009771
 30
0.0
 40
5.00000000000007
100
AcDbArc
 50
90.0
 51
100.7619496936922
  0
LINE
  5
250
330
2
100
AcDbEntity
  8
GEB-KONTUR-A
 48
25.0
100
AcDbLine
 10
-25.39999999999998
 20
-6.599999999990586
 30
0.0
 11
-14.05635813981649
 21
-6.599999999990586
 31
0.0
  0
LINE
  5
251
330
2
100
AcDbEntity
  8
GEB-KONTUR-A
 48
25.0
100
AcDbLine
 10
-25.39999999999998
 20
6.60000000000943
 30
0.0
 11
-14.05635813981649
 21
6.60000000000943
 31
0.0
  0
LINE
  5
252
330
2
100
AcDbEntity
  8
GEB-KONTUR-A
 48
25.0
100
AcDbLine
 10
14.72314081525482
 20
-6.599999999990586
 30
0.0
 11
25.40000000000001
 21
-6.599999999990586
 31
0.0
  0
LINE
  5
253
330
2
100
AcDbEntity
  8
GEB-KONTUR-A
 48
25.0
100
AcDbLine
 10
14.7231408152538
 20
6.60000000000943
 30
0.0
 11
25.40000000000001
 21
6.60000000000943
 31
0.0
  0
LINE
  5
254
330
2
100
AcDbEntity
  8
GEB-KONTUR-A
 48
25.0
100
AcDbLine
 10
-7.312865662128814
 20
-6.59999999999016
 30
0.0
 11
-14.04878036686952
 21
-6.59999999999016
 31
0.0
  0
LINE
  5
255
330
2
100
AcDbEntity
  8
GEB-KONTUR-A
 48
25.0
100
AcDbLine
 10
-14.04878036686952
 20
6.600000000009828
 30
0.0
 11
-7.312865662128814
 21
6.600000000009828
 31
0.0
  0
LINE
  5
256
330
2
100
AcDbEntity
  8
GEB-KONTUR-A
 48
25.0
100
AcDbLine
 10
7.312865662128871
 20
6.600000000009828
 30
0.0
 11
14.71865334794737
 21
6.600000000009828
 31
0.0
  0
LINE
  5
257
330
2
100
AcDbEntity
  8
GEB-KONTUR-A
 48
25.0
100
AcDbLine
 10
14.71865334794737
 20
-6.59999999999016
 30
0.0
 11
7.312865662128871
 21
-6.59999999999016
 31
0.0
  0
SPLINE
  5
258
330
2
100
AcDbEntity
  8
GEB-VERDECKT
 48
25.0
100
AcDbSpline
210
0.0
220
0.0
230
1.0
 70
     8
 71
     3
 72
    22
 73
    18
 74
     0
 42
0.0000000001
 43
0.0000000001
 40
-1.484169522441791
 40
-1.484169522441791
 40
-1.484169522441791
 40
-1.484169522441791
 40
-1.297299212217706
 40
-1.297299212217706
 40
-1.11042890199362
 40
-1.11042890199362
 40
-0.9262568316072581
 40
-0.9262568316072581
 40
-0.7420847612208959
 40
-0.7420847612208959
 40
-0.5579126908345331
 40
-0.5579126908345331
 40
-0.3737406204481708
 40
-0.3737406204481708
 40
-0.1868703102240854
 40
-0.1868703102240854
 40
0.0
 40
0.0
 40
0.0
 40
0.0
 10
4.774934554525344
 20
4.700000000009396
 30
0.0
 10
4.774934554525344
 20
4.700000000009225
 30
0.0
 10
4.908819654781922
 20
4.57098927192797
 30
0.0
 10
5.31838480124955
 20
4.087202745756428
 30
0.0
 10
5.584343822101715
 20
3.731798732377171
 30
0.0
 10
6.047578653434953
 20
2.9209018955261
 30
0.0
 10
6.28133325802483
 20
2.407066892032219
 30
0.0
 10
6.60880116020499
 20
1.254139832544552
 30
0.0
 10
6.700000000000017
 20
0.6139069012958771
 30
0.0
 10
6.700000000000017
 20
-0.6139069012798757
 30
0.0
 10
6.60880116020499
 20
-1.254139832528409
 30
0.0
 10
6.28133325802483
 20
-2.407066892015819
 30
0.0
 10
6.047578653434953
 20
-2.920901895509501
 30
0.0
 10
5.584343822101715
 20
-3.73179873236009
 30
0.0
 10
5.31838480124955
 20
-4.087202745739006
 30
0.0
 10
4.908819654781922
 20
-4.570989271909866
 30
0.0
 10
4.774934554525344
 20
-4.699999999990779
 30
0.0
 10
4.774934554525344
 20
-4.699999999990581
 30
0.0
  0
SPLINE
  5
259
330
2
100
AcDbEntity
  8
GEB-VERDECKT
 48
25.0
100
AcDbSpline
210
0.0
220
0.0
230
1.0
 70
     8
 71
     3
 72
    22
 73
    18
 74
     0
 42
0.0000000001
 43
0.0000000001
 40
0.0
 40
0.0
 40
0.0
 40
0.0
 40
0.1868703102240854
 40
0.1868703102240854
 40
0.3737406204481707
 40
0.3737406204481707
 40
0.5579126908345331
 40
0.5579126908345331
 40
0.7420847612208956
 40
0.7420847612208956
 40
0.9262568316072579
 40
0.9262568316072579
 40
1.11042890199362
 40
1.11042890199362
 40
1.297299212217705
 40
1.297299212217705
 40
1.484169522441791
 40
1.484169522441791
 40
1.484169522441791
 40
1.484169522441791
 10
-4.774934554525316
 20
-4.699999999990581
 30
0.0
 10
-4.774934554525316
 20
-4.699999999990779
 30
0.0
 10
-4.908819654781922
 20
-4.570989271909866
 30
0.0
 10
-5.31838480124955
 20
-4.087202745739006
 30
0.0
 10
-5.584343822101686
 20
-3.73179873236009
 30
0.0
 10
-6.047578653434925
 20
-2.920901895509501
 30
0.0
 10
-6.28133325802483
 20
-2.407066892015819
 30
0.0
 10
-6.60880116020499
 20
-1.254139832528409
 30
0.0
 10
-6.700000000000017
 20
-0.6139069012798757
 30
0.0
 10
-6.700000000000017
 20
0.6139069012958771
 30
0.0
 10
-6.60880116020499
 20
1.254139832544552
 30
0.0
 10
-6.28133325802483
 20
2.407066892032219
 30
0.0
 10
-6.047578653434925
 20
2.9209018955261
 30
0.0
 10
-5.584343822101715
 20
3.731798732377171
 30
0.0
 10
-5.31838480124955
 20
4.087202745756428
 30
0.0
 10
-4.908819654781922
 20
4.57098927192797
 30
0.0
 10
-4.774934554525316
 20
4.700000000009225
 30
0.0
 10
-4.774934554525316
 20
4.700000000009396
 30
0.0
  0
ARC
  5
25A
330
2
100
AcDbEntity
  8
GEB-VERDECKT
 48
25.0
100
AcDbCircle
 10
0.0
 20
0.0000000000094076
 30
0.0
 40
6.699999999999999
100
AcDbArc
 50
44.54687347149425
 51
135.453126528508
  0
SPLINE
  5
25B
330
2
100
AcDbEntity
  8
GEB-VERDECKT
 48
25.0
100
AcDbSpline
210
0.0
220
0.0
230
1.0
 70
     8
 71
     3
 72
    14
 73
    10
 74
     0
 42
0.0000000001
 43
0.0000000001
 40
2.882742015127601
 40
2.882742015127601
 40
2.882742015127601
 40
2.882742015127601
 40
3.01840228590951
 40
3.01840228590951
 40
3.357704829039875
 40
3.357704829039875
 40
3.697007372170241
 40
3.697007372170241
 40
3.83266764295215
 40
3.83266764295215
 40
3.83266764295215
 40
3.83266764295215
 10
-4.774934554525913
 20
4.700000000008799
 30
0.0
 10
-4.329707895986842
 20
4.700000000008884
 30
0.0
 10
-3.877115446866412
 20
4.688062699038084
 30
0.0
 10
-2.284035962577121
 20
4.617617814016938
 30
0.0
 10
-1.131008477101204
 20
4.512465364001769
 30
0.0
 10
1.131008477101232
 20
4.512465364001769
 30
0.0
 10
2.284035962577149
 20
4.617617814016938
 30
0.0
 10
3.87711544686644
 20
4.688062699038084
 30
0.0
 10
4.329707895986842
 20
4.700000000008884
 30
0.0
 10
4.774934554525913
 20
4.700000000008799
 30
0.0
  0
ARC
  5
25C
330
2
100
AcDbEntity
  8
GEB-VERDECKT
 48
25.0
100
AcDbCircle
 10
0.0
 20
0.0000000000094076
 30
0.0
 40
6.7
100
AcDbArc
 50
224.5468734714931
 51
315.453126528508
  0
SPLINE
  5
25D
330
2
100
AcDbEntity
  8
GEB-VERDECKT
 48
25.0
100
AcDbSpline
210
0.0
220
0.0
230
1.0
 70
     8
 71
     3
 72
    15
 73
    11
 74
     0
 42
0.0000000001
 43
0.0000000001
 40
-0.4749628139122745
 40
-0.4749628139122745
 40
-0.4749628139122745
 40
-0.4749628139122745
 40
-0.3393025431303656
 40
-0.3393025431303656
 40
0.0
 40
0.0
 40
0.0
 40
0.3393025431303656
 40
0.3393025431303656
 40
0.4749628139122751
 40
0.4749628139122751
 40
0.4749628139122751
 40
0.4749628139122751
 10
4.774934554525913
 20
-4.699999999989955
 30
0.0
 10
4.329707895986842
 20
-4.699999999989927
 30
0.0
 10
3.87711544686644
 20
-4.688062699019013
 30
0.0
 10
2.284035962577149
 20
-4.617617813997497
 30
0.0
 10
1.131008477101232
 20
-4.512465363982187
 30
0.0
 10
0.0
 20
-4.512465363982187
 30
0.0
 10
-1.131008477101204
 20
-4.512465363982187
 30
0.0
 10
-2.284035962577121
 20
-4.617617813997497
 30
0.0
 10
-3.877115446866412
 20
-4.688062699019013
 30
0.0
 10
-4.329707895986842
 20
-4.699999999989927
 30
0.0
 10
-4.774934554525913
 20
-4.699999999989955
 30
0.0
  0
ARC
  5
25E
330
2
100
AcDbEntity
  8
GEB-KONTUR-A
 48
25.0
100
AcDbCircle
 10
0.0
 20
0.0000000000094076
 30
0.0
 40
9.699999999999999
100
AcDbArc
 50
227.8707549560198
 51
312.1292450440678
  0
SPLINE
  5
25F
330
2
100
AcDbEntity
  8
GEB-KONTUR-A
 48
25.0
100
AcDbSpline
210
0.0
220
0.0
230
1.0
 70
    24
 71
     3
 72
    10
 73
     6
 74
     0
 42
0.0000000001
 43
0.0000000001
 40
-0.0498319626015024
 40
-0.0498319626015024
 40
-0.0498319626015024
 40
-0.0498319626015024
 40
0.0
 40
0.0
 40
0.002056419617767
 40
0.002056419617767
 40
0.002056419617767
 40
0.002056419617767
 10
6.872618767348882
 20
6.600000000009913
 30
0.0
 10
7.01524820434966
 20
6.600000000009913
 30
0.0
 10
7.156506777214445
 20
6.600000000009885
 30
0.0
 10
7.301385545500096
 20
6.600000000009828
 30
0.0
 10
7.307126187697718
 20
6.600000000009828
 30
0.0
 10
7.312865662128871
 20
6.600000000009828
 30
0.0
  0
SPLINE
  5
260
330
2
100
AcDbEntity
  8
GEB-KONTUR-A
 48
25.0
100
AcDbSpline
210
0.0
220
0.0
230
1.0
 70
    24
 71
     3
 72
    10
 73
     6
 74
     0
 42
0.0000000001
 43
0.0000000001
 40
-0.3940233183542452
 40
-0.3940233183542452
 40
-0.3940233183542452
 40
-0.3940233183542452
 40
-0.3920261305915224
 40
-0.3920261305915224
 40
-0.3443882348170008
 40
-0.3443882348170008
 40
-0.3443882348170008
 40
-0.3443882348170008
 10
-7.312865662128814
 20
6.600000000009828
 30
0.0
 10
-7.307075897523588
 20
6.600000000009828
 30
0.0
 10
-7.301284942789635
 20
6.600000000009828
 30
0.0
 10
-7.157336650604747
 20
6.600000000009885
 30
0.0
 10
-7.016085705001614
 20
6.600000000009913
 30
0.0
 10
-6.872618767348853
 20
6.600000000009913
 30
0.0
  0
SPLINE
  5
261
330
2
100
AcDbEntity
  8
GEB-KONTUR-A
 48
25.0
100
AcDbSpline
210
0.0
220
0.0
230
1.0
 70
     8
 71
     3
 72
    36
 73
    32
 74
     0
 42
0.0000000001
 43
0.0000000001
 40
-0.4630169534540891
 40
-0.4630169534540891
 40
-0.4630169534540891
 40
-0.4630169534540891
 40
-0.380883089999541
 40
-0.380883089999541
 40
-0.2934073802175607
 40
-0.2934073802175607
 40
-0.2421567931140037
 40
-0.2421567931140037
 40
-0.206438283605894
 40
-0.206438283605894
 40
-0.1886199182555177
 40
-0.1886199182555177
 40
-0.1757641179328272
 40
-0.1757641179328272
 40
-0.1612802340971762
 40
-0.1612802340971762
 40
-0.1567305437355962
 40
-0.1567305437355962
 40
-0.1552384465618837
 40
-0.1552384465618837
 40
-0.1542768249563993
 40
-0.1542768249563993
 40
-0.1533719491262359
 40
-0.1533719491262359
 40
-0.1521824750413926
 40
-0.1521824750413926
 40
-0.1501647582270491
 40
-0.1501647582270491
 40
-0.1373846281116238
 40
-0.1373846281116238
 40
0.0
 40
0.0
 40
0.0
 40
0.0
 10
6.576804856296035
 20
-7.129911491881728
 30
0.0
 10
6.668730011722658
 20
-7.045117478756395
 30
0.0
 10
6.768223771993945
 20
-6.969307946908514
 30
0.0
 10
6.986142841411634
 20
-6.833035303811271
 30
0.0
 10
7.10406921735003
 20
-6.774787966038189
 30
0.0
 10
7.294893485996823
 20
-6.701602315971484
 30
0.0
 10
7.358235890146346
 20
-6.681718882445693
 30
0.0
 10
7.44923139968742
 20
-6.65626088934573
 30
0.0
 10
7.490652106009321
 20
-6.645961918949382
 30
0.0
 10
7.542502231177508
 20
-6.634070521802584
 30
0.0
 10
7.559354003696995
 20
-6.630370125134561
 30
0.0
 10
7.58397636615021
 20
-6.62489170043139
 30
0.0
 10
7.592814918601419
 20
-6.62289153349775
 30
0.0
 10
7.607878977798662
 20
-6.619168136037103
 30
0.0
 10
7.61310584038884
 20
-6.617635401615018
 30
0.0
 10
7.617254400138591
 20
-6.615958853814134
 30
0.0
 10
7.6180331789283
 20
-6.615587492365847
 30
0.0
 10
7.61882337125931
 20
-6.615127328246416
 30
0.0
 10
7.618998772525941
 20
-6.615016353092499
 30
0.0
 10
7.619256396878114
 20
-6.614838017222695
 30
0.0
 10
7.619349585307617
 20
-6.614769171716261
 30
0.0
 10
7.619515884582398
 20
-6.614637504291238
 30
0.0
 10
7.619589862063463
 20
-6.614574561631883
 30
0.0
 10
7.619746208467773
 20
-6.614430875261888
 30
0.0
 10
7.619823911058091
 20
-6.614350747740644
 30
0.0
 10
7.620004813525298
 20
-6.614138527275798
 30
0.0
 10
7.620088142159346
 20
-6.61400904156423
 30
0.0
 10
7.620492456827406
 20
-6.613087032142004
 30
0.0
 10
7.619713173640235
 20
-6.612426924708472
 30
0.0
 10
7.603049002771371
 20
-6.605790794243006
 30
0.0
 10
7.496476685022713
 20
-6.599999999990302
 30
0.0
 10
7.370285941955302
 20
-6.599999999990188
 30
0.0
  0
SPLINE
  5
262
330
2
100
AcDbEntity
  8
GEB-KONTUR-A
 48
25.0
100
AcDbSpline
210
0.0
220
0.0
230
1.0
 70
     8
 71
     3
 72
     8
 73
     4
 74
     0
 42
0.0000000001
 43
0.0000000001
 40
0.1958273867705216
 40
0.1958273867705216
 40
0.1958273867705216
 40
0.1958273867705216
 40
0.2090379122372676
 40
0.2090379122372676
 40
0.2090379122372676
 40
0.2090379122372676
 10
-6.576804856296007
 20
-7.129911491881728
 30
0.0
 10
-6.553938859650344
 20
-7.151003646805946
 30
0.0
 10
-6.530605729548426
 20
-7.172323069002402
 30
0.0
 10
-6.506810950507571
 20
-7.193845373249246
 30
0.0
  0
SPLINE
  5
263
330
2
100
AcDbEntity
  8
GEB-KONTUR-A
 48
25.0
100
AcDbSpline
210
0.0
220
0.0
230
1.0
 70
     8
 71
     3
 72
     8
 73
     4
 74
     0
 42
0.0000000001
 43
0.0000000001
 40
0.0
 40
0.0
 40
0.0
 40
0.0
 40
0.0096461437864368
 40
0.0096461437864368
 40
0.0096461437864368
 40
0.0096461437864368
 10
6.506810950507571
 20
-7.193845373249246
 30
0.0
 10
6.530657296503392
 20
-7.172276426850714
 30
0.0
 10
6.553987062735899
 20
-7.150959183100155
 30
0.0
 10
6.576804856295808
 20
-7.129911491881927
 30
0.0
  0
SPLINE
  5
264
330
2
100
AcDbEntity
  8
GEB-KONTUR-A
 48
25.0
100
AcDbSpline
210
0.0
220
0.0
230
1.0
 70
     8
 71
     3
 72
    44
 73
    40
 74
     0
 42
0.0000000001
 43
0.0000000001
 40
-0.2926077286229691
 40
-0.2926077286229691
 40
-0.2926077286229691
 40
-0.2926077286229691
 40
-0.2893314531773314
 40
-0.2893314531773314
 40
-0.2357425403515695
 40
-0.2357425403515695
 40
-0.2069721657835901
 40
-0.2069721657835901
 40
-0.1920889774158024
 40
-0.1920889774158024
 40
-0.1902710243637678
 40
-0.1902710243637678
 40
-0.1894384386577615
 40
-0.1894384386577615
 40
-0.1888106264653884
 40
-0.1888106264653884
 40
-0.1882202923218632
 40
-0.1882202923218632
 40
-0.1872396692920737
 40
-0.1872396692920737
 40
-0.1847245917083391
 40
-0.1847245917083391
 40
-0.1845096245680938
 40
-0.1845096245680938
 40
-0.1840280848109894
 40
-0.1840280848109894
 40
-0.172093207218858
 40
-0.172093207218858
 40
-0.1633012322564717
 40
-0.1633012322564717
 40
-0.1519929007905335
 40
-0.1519929007905335
 40
-0.1327288895997832
 40
-0.1327288895997832
 40
-0.1012487006298498
 40
-0.1012487006298498
 40
-0.0953646001194667
 40
-0.0953646001194667
 40
0.0
 40
0.0
 40
0.0
 40
0.0
 10
-7.370285941955273
 20
-6.599999999990188
 30
0.0
 10
-7.374636118207718
 20
-6.599999999990188
 30
0.0
 10
-7.37900482650653
 20
-6.600014677107736
 30
0.0
 10
-7.45518119480198
 20
-6.600503729491549
 30
0.0
 10
-7.520604459965653
 20
-6.603682000650792
 30
0.0
 10
-7.585655912588777
 20
-6.607417043054596
 30
0.0
 10
-7.603831159537776
 20
-6.608784880928425
 30
0.0
 10
-7.617957225827893
 20
-6.61142998925996
 30
0.0
 10
-7.620596722800513
 20
-6.612460282203841
 30
0.0
 10
-7.620134259676262
 20
-6.613933954762188
 30
0.0
 10
-7.62003749841881
 20
-6.614100579307176
 30
0.0
 10
-7.619821507209422
 20
-6.614353383446513
 30
0.0
 10
-7.61974286203403
 20
-6.61443423918368
 30
0.0
 10
-7.619585103433536
 20
-6.614578704440106
 30
0.0
 10
-7.619510855318281
 20
-6.614641671236512
 30
0.0
 10
-7.619353895964621
 20
-6.61476557258905
 30
0.0
 10
-7.61927194922552
 20
-6.614826408272705
 30
0.0
 10
-7.619037739092277
 20
-6.614990468844155
 30
0.0
 10
-7.618874788596116
 20
-6.615095139268845
 30
0.0
 10
-7.618231149190251
 20
-6.61547674054762
 30
0.0
 10
-7.617652138736019
 20
-6.615766986068678
 30
0.0
 10
-7.61688183798887
 20
-6.61610149939176
 30
0.0
 10
-7.616820229732098
 20
-6.616127970301988
 30
0.0
 10
-7.616617494939561
 20
-6.616214166781816
 30
0.0
 10
-7.616472502207216
 20
-6.616274423119534
 30
0.0
 10
-7.612606698859877
 20
-6.61784567706033
 30
0.0
 10
-7.606013562303246
 20
-6.619700349167459
 30
0.0
 10
-7.587823016432281
 20
-6.624037719999307
 30
0.0
 10
-7.578465871682482
 20
-6.626123521648338
 30
0.0
 10
-7.554237745360723
 20
-6.631494953992785
 30
0.0
 10
-7.538656091204103
 20
-6.634940581248741
 30
0.0
 10
-7.495727450295873
 20
-6.644821132354167
 30
0.0
 10
-7.464955547121945
 20
-6.652357308788651
 30
0.0
 10
-7.388856006946213
 20
-6.672729391617764
 30
0.0
 10
-7.333158163680479
 20
-6.68926192284573
 30
0.0
 10
-7.259495696251207
 20
-6.715502550700733
 30
0.0
 10
-7.247907671573358
 20
-6.719746642498222
 30
0.0
 10
-7.049066709327746
 20
-6.794599681117745
 30
0.0
 10
-6.807067923583502
 20
-6.917511203198671
 30
0.0
 10
-6.576804856296007
 20
-7.129911491881728
 30
0.0
  0
ARC
  5
265
330
2
100
AcDbEntity
  8
GEB-KONTUR-A
 48
25.0
100
AcDbCircle
 10
7.932843122109517
 20
-8.599999999990586
 30
0.0
 40
1.999999999999999
100
AcDbArc
 50
90.00000000000161
 51
132.6891727166199
  0
ARC
  5
266
330
2
100
AcDbEntity
  8
GEB-KONTUR-A
 48
25.0
100
AcDbCircle
 10
7.932843122109517
 20
8.600000000009401
 30
0.0
 40
2.0
100
AcDbArc
 50
262.0108169519611
 51
270.0
  0
ARC
  5
267
330
2
100
AcDbEntity
  8
GEB-KONTUR-A
 48
25.0
100
AcDbCircle
 10
-7.932843122109488
 20
-8.599999999990586
 30
0.0
 40
2.0
100
AcDbArc
 50
47.31082728338005
 51
89.99999999999836
  0
ARC
  5
268
330
2
100
AcDbEntity
  8
GEB-KONTUR-A
 48
25.0
100
AcDbCircle
 10
-7.932843122109488
 20
8.600000000009401
 30
0.0
 40
2.0
100
AcDbArc
 50
269.9999999999984
 51
277.9891830480389
  0
SPLINE
  5
269
330
2
100
AcDbEntity
  8
GEB-VERDECKT
 48
25.0
100
AcDbSpline
210
0.0
220
0.0
230
1.0
 70
     8
 71
     3
 72
    31
 73
    27
 74
     0
 42
0.0000000001
 43
0.0000000001
 40
4.218268419163126
 40
4.218268419163126
 40
4.218268419163126
 40
4.218268419163126
 40
4.219374030564067
 40
4.219374030564067
 40
4.494716774566533
 40
4.494716774566533
 40
4.759461923926076
 40
4.759461923926076
 40
5.100161498004733
 40
5.100161498004733
 40
5.372425988009792
 40
5.372425988009792
 40
5.624819718516132
 40
5.624819718516132
 40
5.624819718516132
 40
5.78584289937829
 40
5.78584289937829
 40
6.015994708544637
 40
6.015994708544637
 40
6.201469588535435
 40
6.201469588535435
 40
6.506319488539476
 40
6.506319488539476
 40
6.746014336287554
 40
6.746014336287554
 40
6.848477900496842
 40
6.848477900496842
 40
6.848477900496842
 40
6.848477900496842
 10
6.576801562774534
 20
-7.129914529905107
 30
0.0
 10
6.576801562774534
 20
-7.129914529905107
 30
0.0
 10
6.576803732352942
 20
-7.129912528636594
 30
0.0
 10
6.577888607916435
 20
-7.128911811960648
 30
0.0
 10
6.720773348025858
 20
-7.001679172585511
 30
0.0
 10
7.158830472802293
 20
-6.552536014218929
 30
0.0
 10
7.439329717482934
 20
-6.243488061433993
 30
0.0
 10
8.108429505984219
 20
-5.360240086136087
 30
0.0
 10
8.500389530603484
 20
-4.742003918514313
 30
0.0
 10
9.100906457456716
 20
-3.417697996101679
 30
0.0
 10
9.326721950876702
 20
-2.762027051147214
 30
0.0
 10
9.622647027069803
 20
-1.395402438649568
 30
0.0
 10
9.700000000000017
 20
-0.697498343557669
 30
0.0
 10
9.700000000000017
 20
0.0000000000068496
 30
0.0
 10
9.700000000000017
 20
0.4449928360077138
 30
0.0
 10
9.668724433756011
 20
0.8927825414119467
 30
0.0
 10
9.523473431658288
 20
1.945314969444979
 30
0.0
 10
9.377623356802274
 20
2.546549864834815
 30
0.0
 10
9.044264783708996
 20
3.536759347689638
 30
0.0
 10
8.868390675709093
 20
3.952726649996975
 30
0.0
 10
8.363834981516703
 20
4.962763104616243
 30
0.0
 10
8.013259537307447
 20
5.493484127605455
 30
0.0
 10
7.414690016950061
 20
6.268833173576382
 30
0.0
 10
7.161993770871248
 20
6.547979748013858
 30
0.0
 10
6.88063860996678
 20
6.838235626310648
 30
0.0
 10
6.8056023555134
 20
6.912372579130192
 30
0.0
 10
6.744969553204981
 20
6.971039070788663
 30
0.0
  0
SPLINE
  5
26A
330
2
100
AcDbEntity
  8
GEB-VERDECKT
 48
25.0
100
AcDbSpline
210
0.0
220
0.0
230
1.0
 70
     8
 71
     3
 72
    31
 73
    27
 74
     0
 42
0.0000000001
 43
0.0000000001
 40
4.400810869321495
 40
4.400810869321495
 40
4.400810869321495
 40
4.400810869321495
 40
4.494716774566507
 40
4.494716774566507
 40
4.759461923926044
 40
4.759461923926044
 40
5.100161498004641
 40
5.100161498004641
 40
5.372425988009741
 40
5.372425988009741
 40
5.624819718516132
 40
5.624819718516132
 40
5.624819718516132
 40
5.78584289937829
 40
5.78584289937829
 40
6.015994708544637
 40
6.015994708544637
 40
6.201469588535435
 40
6.201469588535435
 40
6.506319488539476
 40
6.506319488539476
 40
6.746014336287554
 40
6.746014336287554
 40
7.001982837709143
 40
7.001982837709143
 40
7.030798678119693
 40
7.030798678119693
 40
7.030798678119693
 40
7.030798678119693
 10
-6.744969553204953
 20
6.971039070788663
 30
0.0
 10
-6.80027988529946
 20
6.917522442611982
 30
0.0
 10
-6.867934024818367
 20
6.850794259600576
 30
0.0
 10
-7.158830472802208
 20
6.552536014235784
 30
0.0
 10
-7.439329717482792
 20
6.243488061450392
 30
0.0
 10
-8.10842950598402
 20
5.360240086151748
 30
0.0
 10
-8.500389530603229
 20
4.742003918529718
 30
0.0
 10
-9.100906457456488
 20
3.417697996116572
 30
0.0
 10
-9.326721950876532
 20
2.762027051161766
 30
0.0
 10
-9.622647027069774
 20
1.395402438663637
 30
0.0
 10
-9.699999999999988
 20
0.6974983435715388
 30
0.0
 10
-9.699999999999988
 20
0.0000000000068496
 30
0.0
 10
-9.699999999999988
 20
-0.4449928359939577
 30
0.0
 10
-9.668724433756011
 20
-0.8927825413981906
 30
0.0
 10
-9.523473431658288
 20
-1.945314969431109
 30
0.0
 10
-9.377623356802246
 20
-2.546549864820775
 30
0.0
 10
-9.044264783708968
 20
-3.536759347675257
 30
0.0
 10
-8.868390675709093
 20
-3.952726649982423
 30
0.0
 10
-8.363834981516674
 20
-4.962763104601151
 30
0.0
 10
-8.013259537307419
 20
-5.493484127589908
 30
0.0
 10
-7.414690016950061
 20
-6.268833173560039
 30
0.0
 10
-7.161993770871248
 20
-6.547979747997089
 30
0.0
 10
-6.754412263340014
 20
-6.96845516442616
 30
0.0
 10
-6.606831023719706
 20
-7.102183173194845
 30
0.0
 10
-6.578259492799105
 20
-7.128570511123058
 30
0.0
 10
-6.576801562774534
 20
-7.129914529905164
 30
0.0
 10
-6.576801562774534
 20
-7.129914529905107
 30
0.0
  0
SPLINE
  5
26B
330
2
100
AcDbEntity
  8
GEB-KONTUR-A
 48
25.0
100
AcDbSpline
210
0.0
220
0.0
230
1.0
 70
     8
 71
     3
 72
    18
 73
    14
 74
     0
 42
0.0000000001
 43
0.0000000001
 40
0.0
 40
0.0
 40
0.0
 40
0.0
 40
0.0800326472334876
 40
0.0800326472334876
 40
0.1600652944669751
 40
0.1600652944669751
 40
0.2400979417004627
 40
0.2400979417004627
 40
0.3201305889339503
 40
0.3201305889339503
 40
0.3601469125506941
 40
0.3601469125506941
 40
0.4001632361674379
 40
0.4001632361674379
 40
0.4001632361674379
 40
0.4001632361674379
 10
6.744969553204981
 20
6.971039070788663
 30
0.0
 10
6.765363393424053
 20
6.951306599064707
 30
0.0
 10
6.784607572839689
 20
6.934317855200021
 30
0.0
 10
6.821998448748587
 20
6.903837616255231
 30
0.0
 10
6.840130798512376
 20
6.890338613994373
 30
0.0
 10
6.877935560305928
 20
6.864571922641431
 30
0.0
 10
6.897572482924289
 20
6.852304491303385
 30
0.0
 10
6.943113061804268
 20
6.8266344967044
 30
0.0
 10
6.968757953860205
 20
6.81330810888474
 30
0.0
 10
7.019661433323761
 20
6.78991189782647
 30
0.0
 10
7.038644369140257
 20
6.781576967807041
 30
0.0
 10
7.085020003351047
 20
6.762431245265787
 30
0.0
 10
7.110438752488533
 20
6.752315303732984
 30
0.0
 10
7.152619337944628
 20
6.736640103160141
 30
0.0
  0
SPLINE
  5
26C
330
2
100
AcDbEntity
  8
GEB-KONTUR-A
 48
25.0
100
AcDbSpline
210
0.0
220
0.0
230
1.0
 70
     8
 71
     3
 72
    20
 73
    16
 74
     0
 42
0.0000000001
 43
0.0000000001
 40
0.0
 40
0.0
 40
0.0
 40
0.0
 40
0.0459140404029774
 40
0.0459140404029774
 40
0.0918280808059548
 40
0.0918280808059548
 40
0.1377421212089321
 40
0.1377421212089321
 40
0.1836561616119095
 40
0.1836561616119095
 40
0.2066131818133982
 40
0.2066131818133982
 40
0.2180916919141426
 40
0.2180916919141426
 40
0.2295702020148869
 40
0.2295702020148869
 40
0.2295702020148869
 40
0.2295702020148869
 10
7.152619337944571
 20
6.736640103160141
 30
0.0
 10
7.17747755820929
 20
6.727402261050571
 30
0.0
 10
7.203404144970392
 20
6.71841241258366
 30
0.0
 10
7.257425253800846
 20
6.701083570889778
 30
0.0
 10
7.285508510892469
 20
6.69274736735602
 30
0.0
 10
7.343955415155136
 20
6.676857380496812
 30
0.0
 10
7.374314204932687
 20
6.669305014187983
 30
0.0
 10
7.437450486829703
 20
6.655122512425378
 30
0.0
 10
7.470144723209983
 20
6.648505147739768
 30
0.0
 10
7.52172357489897
 20
6.63927542368998
 30
0.0
 10
7.539217888935553
 20
6.636332438548151
 30
0.0
 10
7.567397358515705
 20
6.631914372052563
 30
0.0
 10
7.576946558100388
 20
6.630464172424296
 30
0.0
 10
7.599582121908696
 20
6.627155007436272
 30
0.0
 10
7.581611840073122
 20
6.629693125040205
 30
0.0
 10
7.654870833390674
 20
6.619411348445311
 30
0.0
  0
SPLINE
  5
26D
330
2
100
AcDbEntity
  8
GEB-KONTUR-A
 48
25.0
100
AcDbSpline
210
0.0
220
0.0
230
1.0
 70
     8
 71
     3
 72
    20
 73
    16
 74
     0
 42
0.0000000001
 43
0.0000000001
 40
0.0
 40
0.0
 40
0.0
 40
0.0
 40
0.0216760139772036
 40
0.0216760139772036
 40
0.0592349908873486
 40
0.0592349908873486
 40
0.139267615441751
 40
0.139267615441751
 40
0.2193002399961534
 40
0.2193002399961534
 40
0.2993328645505558
 40
0.2993328645505558
 40
0.3793654891049583
 40
0.3793654891049583
 40
0.4001631227720121
 40
0.4001631227720121
 40
0.4001631227720121
 40
0.4001631227720121
 10
-7.152619337944628
 20
6.736640103160141
 30
0.0
 10
-7.129770988139313
 20
6.745131034760163
 30
0.0
 10
-7.112502042817737
 20
6.751758490901352
 30
0.0
 10
-7.070289899905191
 20
6.768346048294404
 30
0.0
 10
-7.049580805582763
 20
6.776982058631517
 30
0.0
 10
-6.991823297867512
 20
6.802095265054191
 30
0.0
 10
-6.96351137311808
 20
6.816101964980276
 30
0.0
 10
-6.914117209882391
 20
6.842546019154411
 30
0.0
 10
-6.893440202172513
 20
6.854870355206486
 30
0.0
 10
-6.854505265461682
 20
6.880159229565009
 30
0.0
 10
-6.836300691831525
 20
6.893116505238197
 30
0.0
 10
-6.799289061746264
 20
6.921941267158445
 30
0.0
 10
-6.780498402694462
 20
6.937815833734845
 30
0.0
 10
-6.755494408669136
 20
6.960967801050543
 30
0.0
 10
-6.750269185700005
 20
6.965911304402709
 30
0.0
 10
-6.744969553204953
 20
6.971039070788663
 30
0.0
  0
SPLINE
  5
26E
330
2
100
AcDbEntity
  8
GEB-KONTUR-A
 48
25.0
100
AcDbSpline
210
0.0
220
0.0
230
1.0
 70
     8
 71
     3
 72
    20
 73
    16
 74
     0
 42
0.0000000001
 43
0.0000000001
 40
-0.2462461878360631
 40
-0.2462461878360631
 40
-0.2462461878360631
 40
-0.2462461878360631
 40
-0.2003463089895922
 40
-0.2003463089895922
 40
-0.1544464301431214
 40
-0.1544464301431214
 40
-0.1085465512966505
 40
-0.1085465512966505
 40
-0.0626466724501797
 40
-0.0626466724501797
 40
-0.0396967330269442
 40
-0.0396967330269442
 40
-0.0282217633153265
 40
-0.0282217633153265
 40
-0.0167467936037088
 40
-0.0167467936037088
 40
-0.0167467936037088
 40
-0.0167467936037088
 10
-7.152619337944628
 20
6.736640103160141
 30
0.0
 10
-7.177469891031847
 20
6.727405110336377
 30
0.0
 10
-7.203397118467449
 20
6.718414610727705
 30
0.0
 10
-7.257438997543857
 20
6.701079218002604
 30
0.0
 10
-7.285552700269619
 20
6.69273448996023
 30
0.0
 10
-7.34401916211047
 20
6.676840914787874
 30
0.0
 10
-7.374355695014003
 20
6.669295316197263
 30
0.0
 10
-7.437457854743172
 20
6.655121235583692
 30
0.0
 10
-7.470165245545587
 20
6.64850114519254
 30
0.0
 10
-7.521746419174661
 20
6.639271501103394
 30
0.0
 10
-7.539239309906264
 20
6.636328952934974
 30
0.0
 10
-7.567412983819167
 20
6.631911985939922
 30
0.0
 10
-7.576959095193188
 20
6.630462303745048
 30
0.0
 10
-7.599590897943329
 20
6.627153760315451
 30
0.0
 10
-7.581425358403834
 20
6.62971929742909
 30
0.0
 10
-7.654870833390958
 20
6.619411348445282
 30
0.0
  0
SPLINE
  5
26F
330
2
100
AcDbEntity
  8
GEB-KONTUR-A
 48
25.0
100
AcDbSpline
210
0.0
220
0.0
230
1.0
 70
     8
 71
     3
 72
    14
 73
    10
 74
     0
 42
0.0000000001
 43
0.0000000001
 40
-0.0000000000007973
 40
-0.0000000000007973
 40
-0.0000000000007973
 40
-0.0000000000007973
 40
0.0198686207239556
 40
0.0198686207239556
 40
0.0327603721791186
 40
0.0327603721791186
 40
0.0407089738690565
 40
0.0407089738690565
 40
0.0488750614980724
 40
0.0488750614980724
 40
0.0488750614980724
 40
0.0488750614980724
 10
-4.525589876412539
 20
8.579570867512245
 30
0.0
 10
-4.859833483368419
 20
8.403262575727552
 30
0.0
 10
-5.185343052326942
 20
8.206313924235757
 30
0.0
 10
-5.696219415954345
 20
7.855100402578358
 30
0.0
 10
-5.890672241686246
 20
7.710249123247393
 30
0.0
 10
-6.19397473565499
 20
7.46637200935865
 30
0.0
 10
-6.30690923798474
 20
7.371182846760575
 30
0.0
 10
-6.529532871821089
 20
7.174805260404014
 30
0.0
 10
-6.639045292234925
 20
7.073528227417114
 30
0.0
 10
-6.744969553204953
 20
6.971039070788663
 30
0.0
  0
SPLINE
  5
270
330
2
100
AcDbEntity
  8
GEB-KONTUR-A
 48
25.0
100
AcDbSpline
210
0.0
220
0.0
230
1.0
 70
     8
 71
     3
 72
    10
 73
     6
 74
     0
 42
0.0000000001
 43
0.0000000001
 40
-0.0000000000000002
 40
-0.0000000000000002
 40
-0.0000000000000002
 40
-0.0000000000000002
 40
0.0231272354410557
 40
0.0231272354410557
 40
0.0488749177848947
 40
0.0488749177848947
 40
0.0488749177848947
 40
0.0488749177848947
 10
6.744969553204981
 20
6.971039070788634
 30
0.0
 10
6.44498069272933
 20
7.261299347580177
 30
0.0
 10
6.115756601244783
 20
7.541646311282107
 30
0.0
 10
5.377153185337675
 20
8.087667489091472
 30
0.0
 10
4.958735100996619
 20
8.351093514417044
 30
0.0
 10
4.525589874796708
 20
8.579570868364584
 30
0.0
  0
SPLINE
  5
271
330
2
100
AcDbEntity
  8
GEB-KONTUR-A
 48
25.0
100
AcDbSpline
210
0.0
220
0.0
230
1.0
 70
     8
 71
     3
 72
    10
 73
     6
 74
     0
 42
0.0000000001
 43
0.0000000001
 40
-0.0840790579237064
 40
-0.0840790579237064
 40
-0.0840790579237064
 40
-0.0840790579237064
 40
-0.0826642550051457
 40
-0.0826642550051457
 40
-0.0341320736541834
 40
-0.0341320736541834
 40
-0.0341320736541834
 40
-0.0341320736541834
 10
7.010777825529061
 20
6.632703090636937
 30
0.0
 10
7.00949133601253
 20
6.632448876486961
 30
0.0
 10
7.008204412811068
 20
6.63219299963174
 30
0.0
 10
6.96275652571424
 20
6.623101413741125
 30
0.0
 10
6.91806255258237
 20
6.612318971933632
 30
0.0
 10
6.872618767348882
 20
6.600000000009913
 30
0.0
  0
ARC
  5
272
330
2
100
AcDbEntity
  8
GEB-KONTUR-A
 48
25.0
100
AcDbCircle
 10
0.0
 20
0.0000000000088392
 30
0.0
 40
9.699999999999995
100
AcDbArc
 50
62.18905193920415
 51
117.8109480650878
  0
SPLINE
  5
273
330
2
100
AcDbEntity
  8
GEB-KONTUR-A
 48
25.0
100
AcDbSpline
210
0.0
220
0.0
230
1.0
 70
     8
 71
     3
 72
    10
 73
     6
 74
     0
 42
0.0000000001
 43
0.0000000001
 40
-0.048517354252686
 40
-0.048517354252686
 40
-0.048517354252686
 40
-0.048517354252686
 40
0.0
 40
0.0
 40
0.0014225943964484
 40
0.0014225943964484
 40
0.0014225943964484
 40
0.0014225943964484
 10
-6.872618767348853
 20
6.600000000009913
 30
0.0
 10
-6.918065662677008
 20
6.612319815022942
 30
0.0
 10
-6.962751453285676
 20
6.623099814373716
 30
0.0
 10
-7.008190391878201
 20
6.632190211825161
 30
0.0
 10
-7.009484328498643
 20
6.632447491774968
 30
0.0
 10
-7.010777825559131
 20
6.632703090636454
 30
0.0
  0
LINE
  5
274
330
2
100
AcDbEntity
  8
GEB-KONTUR-A
 48
25.0
100
AcDbLine
 10
-28.0
 20
-9.999999999990592
 30
0.0
 11
-27.3216134337022
 21
-11.17499999999057
 31
0.0
  0
LINE
  5
275
330
2
100
AcDbEntity
  8
GEB-KONTUR-A
 48
25.0
100
AcDbLine
 10
-28.0
 20
10.00000000000941
 30
0.0
 11
-27.3216134337022
 21
11.17500000000942
 31
0.0
  0
LINE
  5
276
330
2
100
AcDbEntity
  8
GEB-KONTUR-A
 48
25.0
100
AcDbLine
 10
-26.09999999999999
 20
11.17500000000942
 30
0.0
 11
-27.3216134337022
 21
11.17500000000942
 31
0.0
  0
LINE
  5
277
330
2
100
AcDbEntity
  8
GEB-KONTUR-A
 48
25.0
100
AcDbLine
 10
-26.09999999999999
 20
-11.17499999999057
 30
0.0
 11
-27.3216134337022
 21
-11.17499999999057
 31
0.0
  0
LINE
  5
278
330
2
100
AcDbEntity
  8
GEB-KONTUR-A
 48
25.0
100
AcDbLine
 10
-25.39999999999998
 20
9.962564434711197
 30
0.0
 11
-26.09999999999999
 21
11.17500000000942
 31
0.0
  0
LINE
  5
279
330
2
100
AcDbEntity
  8
GEB-KONTUR-A
 48
25.0
100
AcDbLine
 10
-25.39999999999998
 20
-9.962564434692353
 30
0.0
 11
-26.09999999999999
 21
-11.17499999999057
 31
0.0
  0
LINE
  5
27A
330
2
100
AcDbEntity
  8
GEB-KONTUR-A
 48
25.0
100
AcDbLine
 10
-28.0
 20
10.00000000000941
 30
0.0
 11
-28.0
 21
-9.999999999990592
 31
0.0
  0
LINE
  5
27B
330
2
100
AcDbEntity
  8
GEB-KONTUR-A
 48
25.0
100
AcDbLine
 10
-27.3216134337022
 20
11.17500000000942
 30
0.0
 11
-27.3216134337022
 21
-11.17499999999057
 31
0.0
  0
LINE
  5
27C
330
2
100
AcDbEntity
  8
GEB-KONTUR-A
 48
25.0
100
AcDbLine
 10
-26.09999999999999
 20
11.17500000000942
 30
0.0
 11
-26.09999999999999
 21
-11.17499999999057
 31
0.0
  0
LINE
  5
27D
330
2
100
AcDbEntity
  8
GEB-KONTUR-A
 48
25.0
100
AcDbLine
 10
-25.39999999999998
 20
9.962564434711197
 30
0.0
 11
-25.39999999999998
 21
-9.962564434692353
 31
0.0
  0
LINE
  5
27E
330
2
100
AcDbEntity
  8
GEB-KONTUR-A
 48
25.0
100
AcDbLine
 10
28.00000000000003
 20
10.00000000000941
 30
0.0
 11
27.3216134337022
 21
11.17500000000942
 31
0.0
  0
LINE
  5
27F
330
2
100
AcDbEntity
  8
GEB-KONTUR-A
 48
25.0
100
AcDbLine
 10
28.00000000000003
 20
-9.999999999990592
 30
0.0
 11
27.3216134337022
 21
-11.17499999999057
 31
0.0
  0
LINE
  5
280
330
2
100
AcDbEntity
  8
GEB-KONTUR-A
 48
25.0
100
AcDbLine
 10
26.09999999999999
 20
-11.17499999999057
 30
0.0
 11
27.3216134337022
 21
-11.17499999999057
 31
0.0
  0
LINE
  5
281
330
2
100
AcDbEntity
  8
GEB-KONTUR-A
 48
25.0
100
AcDbLine
 10
26.09999999999999
 20
11.17500000000942
 30
0.0
 11
27.3216134337022
 21
11.17500000000942
 31
0.0
  0
LINE
  5
282
330
2
100
AcDbEntity
  8
GEB-KONTUR-A
 48
25.0
100
AcDbLine
 10
25.40000000000001
 20
-9.962564434692353
 30
0.0
 11
26.09999999999999
 21
-11.17499999999057
 31
0.0
  0
LINE
  5
283
330
2
100
AcDbEntity
  8
GEB-KONTUR-A
 48
25.0
100
AcDbLine
 10
25.40000000000001
 20
9.962564434711197
 30
0.0
 11
26.09999999999999
 21
11.17500000000942
 31
0.0
  0
LINE
  5
284
330
2
100
AcDbEntity
  8
GEB-KONTUR-A
 48
25.0
100
AcDbLine
 10
28.00000000000003
 20
-9.999999999990592
 30
0.0
 11
28.00000000000003
 21
10.00000000000941
 31
0.0
  0
LINE
  5
285
330
2
100
AcDbEntity
  8
GEB-KONTUR-A
 48
25.0
100
AcDbLine
 10
27.3216134337022
 20
-11.17499999999057
 30
0.0
 11
27.3216134337022
 21
11.17500000000942
 31
0.0
  0
LINE
  5
286
330
2
100
AcDbEntity
  8
GEB-KONTUR-A
 48
25.0
100
AcDbLine
 10
25.40000000000001
 20
-9.962564434692353
 30
0.0
 11
25.40000000000001
 21
9.962564434711197
 31
0.0
  0
LINE
  5
287
330
2
100
AcDbEntity
  8
GEB-KONTUR-A
 48
25.0
100
AcDbLine
 10
26.09999999999999
 20
-11.17499999999057
 30
0.0
 11
26.09999999999999
 21
11.17500000000942
 31
0.0
  0
CIRCLE
  5
288
330
2
100
AcDbEntity
  8
GEB-VERDECKT
 48
25.0
100
AcDbCircle
 10
0.0
 20
0.0000000000028706
 30
0.0
 40
13.0
  0
ARC
  5
289
330
2
100
AcDbEntity
  8
GEB-VERDECKT
 48
25.0
100
AcDbCircle
 10
0.0
 20
0.0000000000035243
 30
0.0
 40
14.15
100
AcDbArc
 50
152.197120533332
 51
207.802879466668
  0
ARC
  5
28A
330
2
100
AcDbEntity
  8
GEB-VERDECKT
 48
25.0
100
AcDbCircle
 10
0.0
 20
0.0000000000035243
 30
0.0
 40
14.14999999999999
100
AcDbArc
 50
332.1971205333321
 51
27.80287946666796
  0
ARC
  5
28B
330
2
100
AcDbEntity
  8
GEB-VERDECKT
 48
25.0
100
AcDbCircle
 10
0.0
 20
0.0000000000037801
 30
0.0
 40
12.7643593539449
100
AcDbArc
 50
148.8644355798473
 51
211.1355644201527
  0
ARC
  5
28C
330
2
100
AcDbEntity
  8
GEB-VERDECKT
 48
25.0
100
AcDbCircle
 10
0.0
 20
0.0000000000037801
 30
0.0
 40
12.76435935394489
100
AcDbArc
 50
328.8644355798473
 51
31.13556442015273
  0
ARC
  5
28D
330
2
100
AcDbEntity
  8
GEB-KONTUR-A
 48
25.0
100
AcDbCircle
 10
0.0
 20
0.0000000000035243
 30
0.0
 40
14.15
100
AcDbArc
 50
207.802879466668
 51
332.1971205333321
  0
ARC
  5
28E
330
2
100
AcDbEntity
  8
GEB-KONTUR-A
 48
25.0
100
AcDbCircle
 10
0.0
 20
0.0000000000035243
 30
0.0
 40
14.15
100
AcDbArc
 50
27.80287946666796
 51
152.197120533332
  0
ARC
  5
28F
330
2
100
AcDbEntity
  8
GEB-KONTUR-A
 48
25.0
100
AcDbCircle
 10
0.0
 20
0.0000000000037801
 30
0.0
 40
12.76435935394489
100
AcDbArc
 50
211.1355644201527
 51
328.8644355798473
  0
ARC
  5
290
330
2
100
AcDbEntity
  8
GEB-KONTUR-A
 48
25.0
100
AcDbCircle
 10
0.0
 20
0.0000000000037801
 30
0.0
 40
12.7643593539449
100
AcDbArc
 50
31.13556442015273
 51
148.8644355798473
  0
TEXT
  5
291
330
2
100
AcDbEntity
  8
GEB-TEXT
100
AcDbText
 10
-33.42309004092767
 20
-23.49999999999713
 30
0.0
 40
3.5
  1
T-Stück MEP PVDF d20-26-20
 72
     1
 11
0.0000000000000284
 21
-23.49999999999713
 31
0.0
100
AcDbText
  0
TEXT
  5
293
330
2
100
AcDbEntity
  8
GEB-TEXT
100
AcDbText
 10
-15.35487721691675
 20
-17.99999999999713
 30
0.0
 40
3.5
  1
Geberit Mepla
 72
     1
 11
0.0000000000000284
 21
-17.99999999999713
 31
0.0
100
AcDbText
  0
TEXT
  5
294
330
2
100
AcDbEntity
  8
GEB-ART-NR
100
AcDbText
 10
-23.86534800556554
 20
-29.84278125427735
 30
0.0
 40
3.5
  1
GEB-ART-NR 623318
 72
     1
 11
0.1834241636022682
 21
-29.84278125427735
 31
0.0
100
AcDbText
  0
ENDSEC
  0
SECTION
  2
OBJECTS
  0
DICTIONARY
  5
9
330
0
100
AcDbDictionary
281
     1
  3
ACAD_2007HEADERVARS_RT
350
34B
  3
ACAD_COLOR
350
44
  3
ACAD_GROUP
350
31
  3
ACAD_LAYOUT
350
16
  3
ACAD_MATERIAL
350
B
  3
ACAD_MLEADERSTYLE
350
47
  3
ACAD_MLINESTYLE
350
32
  3
ACAD_PLOTSETTINGS
350
33
  3
ACAD_PLOTSTYLENAME
350
8
  3
ACAD_SCALELIST
350
45
  3
ACAD_TABLESTYLE
350
46
  3
ACDB_RECOMPOSE_DATA
350
34A
  3
AcDbVariableDictionary
350
2F4
  3
AcmDictionary
350
2A7
  3
AcmSystemVariableManager
350
362
  3
AMG
350
298
  0
DICTIONARY
  5
2C
330
28
100
AcDbDictionary
280
     1
281
     1
  0
DICTIONARY
  5
1C
330
1B
100
AcDbDictionary
280
     1
281
     1
  3
ACAD_LAYERFILTERS
360
1D
  3
ACLYDICTIONARY
360
1E
  0
DICTIONARY
  5
3
330
2
100
AcDbDictionary
280
     1
281
     1
  3
ACAD_SORTENTS
360
296
  0
DICTIONARY
  5
34B
102
{ACAD_REACTORS
330
9
102
}
330
9
100
AcDbDictionary
281
     1
  3
DIMARCSYM
350
34C
  3
DIMLTEX1
350
34E
  3
DIMLTEX2
350
34F
  3
DIMLTYPE
350
34D
  0
DICTIONARY
  5
44
102
{ACAD_REACTORS
330
9
102
}
330
9
100
AcDbDictionary
281
     1
  0
DICTIONARY
  5
31
102
{ACAD_REACTORS
330
9
102
}
330
9
100
AcDbDictionary
281
     1
  0
DICTIONARY
  5
16
102
{ACAD_REACTORS
330
9
102
}
330
9
100
AcDbDictionary
281
     1
  3
Layout1
350
1A
  3
Model
350
15
  0
DICTIONARY
  5
B
102
{ACAD_REACTORS
330
9
102
}
330
9
100
AcDbDictionary
281
     1
  3
ByBlock
350
3C
  3
ByLayer
350
34
  3
Global
350
A
  0
DICTIONARY
  5
47
102
{ACAD_REACTORS
330
9
102
}
330
9
100
AcDbDictionary
281
     1
  3
Standard
350
312
  0
DICTIONARY
  5
32
102
{ACAD_REACTORS
330
9
102
}
330
9
100
AcDbDictionary
281
     1
  3
Standard
350
48
  0
DICTIONARY
  5
33
102
{ACAD_REACTORS
330
9
102
}
330
9
100
AcDbDictionary
281
     1
  0
ACDBDICTIONARYWDFLT
  5
8
102
{ACAD_REACTORS
330
9
102
}
330
9
100
AcDbDictionary
281
     1
  3
Normal
350
7
100
AcDbDictionaryWithDefault
340
7
  0
DICTIONARY
  5
45
102
{ACAD_REACTORS
330
9
102
}
330
9
100
AcDbDictionary
281
     1
  3
A0
350
4D
  3
A1
350
4E
  3
A2
350
4F
  3
A3
350
50
  3
A4
350
51
  3
A5
350
52
  3
A6
350
53
  3
A7
350
54
  3
A8
350
55
  3
A9
350
56
  3
B0
350
57
  3
B1
350
58
  3
B2
350
59
  3
B3
350
5A
  3
B4
350
5B
  3
B5
350
5C
  3
B6
350
5D
  3
B7
350
5E
  3
B8
350
5F
  3
B9
350
60
  3
C0
350
61
  3
C1
350
62
  3
C2
350
63
  3
C3
350
64
  3
C4
350
65
  3
C5
350
66
  3
C6
350
67
  3
C7
350
68
  3
C8
350
69
  3
C9
350
6A
  3
D0
350
6B
  3
D1
350
6C
  3
D2
350
6D
  0
DICTIONARY
  5
46
102
{ACAD_REACTORS
330
9
102
}
330
9
100
AcDbDictionary
281
     1
  3
Standard
350
49
  0
XRECORD
  5
34A
102
{ACAD_REACTORS
330
9
102
}
330
9
100
AcDbXrecord
280
     1
 90
        1
330
49
  0
DICTIONARY
  5
2F4
102
{ACAD_REACTORS
330
9
102
}
330
9
100
AcDbDictionary
281
     1
  3
CANNOSCALE
350
2F8
  3
CMLEADERSTYLE
350
2F6
  3
CTABLESTYLE
350
2F5
  3
DIMASSOC
350
347
  3
HIDETEXT
350
346
  3
INDEXCTL
350
345
  3
LAYEREVAL
350
2FA
  3
LAYERNOTIFY
350
2FB
  3
LIGHTINGUNITS
350
2F9
  3
MSLTSCALE
350
2F7
  3
SORTENTS
350
344
  3
XCLIPFRAME
350
348
  0
DICTIONARY
  5
2A7
102
{ACAD_REACTORS
330
9
102
}
330
9
100
AcDbDictionary
281
     1
  3
AcmStdDictionary
350
2A8
  0
DICTIONARY
  5
298
102
{ACAD_REACTORS
330
9
102
}
330
9
100
AcDbDictionary
281
     1
  3
AcMgSettings
350
2A2
  0
DICTIONARY
  5
1D
102
{ACAD_REACTORS
330
1C
102
}
330
1C
100
AcDbDictionary
281
     1
  0
DICTIONARY
  5
1E
102
{ACAD_REACTORS
330
1C
102
}
330
1C
100
AcDbDictionary
281
     1
1001
ACAD
1000
<All
  0
SORTENTSTABLE
  5
296
102
{ACAD_REACTORS
330
3
102
}
330
3
100
AcDbSortentsTable
330
2
331
B7
  5
251
331
B3
  5
255
331
12D
  5
1DC
331
EE
  5
21B
331
129
  5
1E0
331
AF
  5
259
331
EA
  5
21F
331
AB
  5
25D
331
125
  5
1E4
331
164
  5
1A5
331
121
  5
1E8
331
160
  5
1A9
331
75
  5
28F
331
28F
  5
75
331
28B
  5
7A
331
1A6
  5
163
331
21C
  5
ED
331
1A2
  5
167
331
1DD
  5
12C
331
19E
  5
16B
331
218
  5
F1
331
257
  5
B1
331
19A
  5
16F
331
253
  5
B5
331
214
  5
F5
331
1D9
  5
130
331
210
  5
F9
331
E6
  5
223
331
A7
  5
261
331
A3
  5
265
331
15C
  5
1AD
331
11D
  5
1EC
331
E2
  5
227
331
DE
  5
22B
331
158
  5
1B1
331
119
  5
1F0
331
9F
  5
269
331
DA
  5
22E
331
154
  5
1B5
331
115
  5
1F4
331
9B
  5
26D
331
111
  5
1F8
331
150
  5
1B9
331
287
  5
81
331
283
  5
85
331
27F
  5
89
331
27B
  5
8D
331
196
  5
173
331
24F
  5
B9
331
1D5
  5
134
331
1D1
  5
138
331
24B
  5
BD
331
20C
  5
FD
331
192
  5
177
331
1CD
  5
13C
331
18E
  5
17B
331
208
  5
101
331
247
  5
C1
331
1C9
  5
140
331
18A
  5
17F
331
243
  5
C5
331
204
  5
105
331
200
  5
109
331
D6
  5
232
331
97
  5
271
331
93
  5
275
331
14C
  5
1BD
331
10D
  5
1FC
331
D2
  5
236
331
8F
  5
279
331
148
  5
1C1
331
109
  5
200
331
CE
  5
23A
331
CA
  5
23E
331
144
  5
1C5
331
105
  5
204
331
8B
  5
27D
331
101
  5
208
331
140
  5
1C9
331
277
  5
91
331
273
  5
95
331
26F
  5
99
331
26B
  5
9D
331
186
  5
183
331
23F
  5
C9
331
1C5
  5
144
331
1C1
  5
148
331
23B
  5
CD
331
1FC
  5
10D
331
182
  5
187
331
1BD
  5
14C
331
17E
  5
18B
331
1F8
  5
111
331
237
  5
D1
331
1B9
  5
150
331
17A
  5
18F
331
233
  5
D5
331
1F4
  5
115
331
1F0
  5
119
331
C6
  5
242
331
87
  5
281
331
C2
  5
246
331
83
  5
285
331
13C
  5
1CD
331
FD
  5
20C
331
7F
  5
289
331
138
  5
1D1
331
F9
  5
210
331
BE
  5
24A
331
134
  5
1D5
331
F5
  5
214
331
BA
  5
24E
331
F1
  5
218
331
130
  5
1D9
331
267
  5
A1
331
263
  5
A5
331
25F
  5
A9
331
25B
  5
AD
331
176
  5
193
331
22F
  5
D9
331
1B5
  5
154
331
1B1
  5
158
331
22B
  5
DE
331
1EC
  5
11D
331
172
  5
197
331
1AD
  5
15C
331
16E
  5
19B
331
1E8
  5
121
331
227
  5
E2
331
1A9
  5
160
331
16A
  5
19F
331
1E4
  5
125
331
223
  5
E6
331
1E0
  5
129
331
B6
  5
252
331
B2
  5
256
331
12C
  5
1DD
331
ED
  5
21C
331
167
  5
1A2
331
128
  5
1E1
331
AE
  5
25A
331
E9
  5
220
331
AA
  5
25E
331
124
  5
1E5
331
163
  5
1A6
331
120
  5
1E9
331
28E
  5
77
331
28A
  5
7E
331
21F
  5
EA
331
1A5
  5
164
331
21B
  5
EE
331
1A1
  5
168
331
1DC
  5
12D
331
19D
  5
16C
331
217
  5
F2
331
256
  5
B2
331
199
  5
170
331
252
  5
B6
331
213
  5
F6
331
1D8
  5
131
331
E5
  5
224
331
A6
  5
262
331
15F
  5
1AA
331
A2
  5
266
331
15B
  5
1AE
331
11C
  5
1ED
331
E1
  5
228
331
DD
  5
22C
331
157
  5
1B2
331
118
  5
1F1
331
9E
  5
26A
331
D9
  5
22F
331
9A
  5
26E
331
114
  5
1F5
331
153
  5
1B6
331
110
  5
1F9
331
286
  5
82
331
282
  5
86
331
27E
  5
8A
331
27A
  5
8E
331
1D4
  5
135
331
24E
  5
BA
331
20F
  5
FA
331
195
  5
174
331
1D0
  5
139
331
24A
  5
BE
331
20B
  5
FE
331
191
  5
178
331
1CC
  5
13D
331
18D
  5
17C
331
207
  5
102
331
246
  5
C2
331
189
  5
180
331
242
  5
C6
331
203
  5
106
331
1C8
  5
141
331
D5
  5
233
331
96
  5
272
331
14F
  5
1BA
331
92
  5
276
331
14B
  5
1BE
331
10C
  5
1FD
331
D1
  5
237
331
CD
  5
23B
331
147
  5
1C2
331
108
  5
201
331
8E
  5
27A
331
C9
  5
23F
331
143
  5
1C6
331
104
  5
205
331
8A
  5
27E
331
100
  5
209
331
276
  5
92
331
272
  5
96
331
26E
  5
9A
331
26A
  5
9E
331
185
  5
184
331
23E
  5
CA
331
1FF
  5
10A
331
1C4
  5
145
331
1C0
  5
149
331
23A
  5
CE
331
1FB
  5
10E
331
181
  5
188
331
1BC
  5
14D
331
17D
  5
18C
331
1F7
  5
112
331
236
  5
D2
331
1B8
  5
151
331
179
  5
190
331
232
  5
D6
331
1F3
  5
116
331
C5
  5
243
331
86
  5
282
331
13F
  5
1CA
331
82
  5
286
331
13B
  5
1CE
331
FC
  5
20D
331
C1
  5
247
331
7E
  5
28A
331
137
  5
1D2
331
F8
  5
211
331
BD
  5
24B
331
B9
  5
24F
331
133
  5
1D6
331
F4
  5
215
331
7A
  5
28B
331
F0
  5
219
331
266
  5
A2
331
262
  5
A6
331
25E
  5
AA
331
25A
  5
AE
331
175
  5
194
331
22E
  5
DA
331
1EF
  5
11A
331
1B4
  5
155
331
1B0
  5
159
331
22A
  5
DF
331
1EB
  5
11E
331
171
  5
198
331
1AC
  5
15D
331
16D
  5
19C
331
1E7
  5
122
331
226
  5
E3
331
1A8
  5
161
331
169
  5
1A0
331
222
  5
E7
331
1E3
  5
126
331
B5
  5
253
331
12F
  5
1DA
331
B1
  5
257
331
12B
  5
1DE
331
EC
  5
21D
331
166
  5
1A3
331
127
  5
1E2
331
AD
  5
25B
331
E8
  5
221
331
A9
  5
25F
331
123
  5
1E6
331
162
  5
1A7
331
77
  5
28E
331
291
  5
294
331
28D
  5
78
331
289
  5
7F
331
21E
  5
EB
331
1A4
  5
165
331
1DF
  5
12A
331
21A
  5
EF
331
1A0
  5
169
331
1DB
  5
12E
331
19C
  5
16D
331
255
  5
B3
331
216
  5
F3
331
198
  5
171
331
251
  5
B7
331
212
  5
F7
331
E4
  5
225
331
A5
  5
263
331
15E
  5
1AB
331
11F
  5
1EA
331
A1
  5
267
331
15A
  5
1AF
331
11B
  5
1EE
331
E0
  5
229
331
DC
  5
22D
331
156
  5
1B3
331
117
  5
1F2
331
9D
  5
26B
331
D8
  5
230
331
99
  5
26F
331
113
  5
1F6
331
152
  5
1B7
331
285
  5
83
331
281
  5
87
331
27D
  5
8B
331
279
  5
8F
331
1D7
  5
132
331
1D3
  5
136
331
24D
  5
BB
331
20E
  5
FB
331
194
  5
175
331
1CF
  5
13A
331
190
  5
179
331
20A
  5
FF
331
249
  5
BF
331
1CB
  5
13E
331
18C
  5
17D
331
206
  5
103
331
245
  5
C3
331
188
  5
181
331
241
  5
C7
331
202
  5
107
331
D4
  5
234
331
95
  5
273
331
14E
  5
1BB
331
10F
  5
1FA
331
91
  5
277
331
14A
  5
1BF
331
10B
  5
1FE
331
D0
  5
238
331
CC
  5
23C
331
146
  5
1C3
331
107
  5
202
331
8D
  5
27B
331
C8
  5
240
331
89
  5
27F
331
103
  5
206
331
142
  5
1C7
331
275
  5
93
331
271
  5
97
331
26D
  5
9B
331
269
  5
9F
331
1C7
  5
142
331
1C3
  5
146
331
23D
  5
CB
331
1FE
  5
10B
331
184
  5
185
331
1BF
  5
14A
331
239
  5
CF
331
1FA
  5
10F
331
180
  5
189
331
1BB
  5
14E
331
17C
  5
18D
331
1F6
  5
113
331
235
  5
D3
331
178
  5
191
331
231
  5
D7
331
1F2
  5
117
331
C4
  5
244
331
85
  5
283
331
FF
  5
20A
331
13E
  5
1CB
331
81
  5
287
331
13A
  5
1CF
331
FB
  5
20E
331
C0
  5
248
331
136
  5
1D3
331
F7
  5
212
331
BC
  5
24C
331
B8
  5
250
331
132
  5
1D7
331
F3
  5
216
331
79
  5
28C
331
265
  5
A3
331
261
  5
A7
331
25D
  5
AB
331
259
  5
AF
331
1B7
  5
152
331
174
  5
195
331
22D
  5
DC
331
1EE
  5
11B
331
1B3
  5
156
331
1AF
  5
15A
331
229
  5
E0
331
1EA
  5
11F
331
170
  5
199
331
1AB
  5
15E
331
16C
  5
19D
331
1E6
  5
123
331
225
  5
E4
331
168
  5
1A1
331
221
  5
E8
331
1E2
  5
127
331
B4
  5
254
331
12E
  5
1DB
331
EF
  5
21A
331
12A
  5
1DF
331
B0
  5
258
331
EB
  5
21E
331
165
  5
1A4
331
126
  5
1E3
331
AC
  5
25C
331
A8
  5
260
331
122
  5
1E7
331
161
  5
1A8
331
294
  5
291
331
290
  5
6E
331
28C
  5
79
331
288
  5
80
331
1A7
  5
162
331
21D
  5
EC
331
1A3
  5
166
331
1DE
  5
12B
331
219
  5
F0
331
19F
  5
16A
331
1DA
  5
12F
331
19B
  5
16E
331
254
  5
B4
331
215
  5
F4
331
250
  5
B8
331
211
  5
F8
331
E7
  5
222
331
A4
  5
264
331
15D
  5
1AC
331
11E
  5
1EB
331
E3
  5
226
331
A0
  5
268
331
159
  5
1B0
331
11A
  5
1EF
331
DF
  5
22A
331
6E
  5
290
331
155
  5
1B4
331
116
  5
1F3
331
9C
  5
26C
331
98
  5
270
331
112
  5
1F7
331
151
  5
1B8
331
284
  5
84
331
280
  5
88
331
27C
  5
8C
331
278
  5
90
331
197
  5
172
331
1D6
  5
133
331
1D2
  5
137
331
24C
  5
BC
331
20D
  5
FC
331
193
  5
176
331
1CE
  5
13B
331
18F
  5
17A
331
209
  5
100
331
248
  5
C0
331
1CA
  5
13F
331
18B
  5
17E
331
244
  5
C4
331
205
  5
104
331
240
  5
C8
331
201
  5
108
331
D7
  5
231
331
D3
  5
235
331
94
  5
274
331
14D
  5
1BC
331
10E
  5
1FB
331
90
  5
278
331
149
  5
1C0
331
10A
  5
1FF
331
CF
  5
239
331
CB
  5
23D
331
145
  5
1C4
331
106
  5
203
331
8C
  5
27C
331
88
  5
280
331
102
  5
207
331
141
  5
1C8
331
274
  5
94
331
270
  5
98
331
26C
  5
9C
331
268
  5
A0
331
187
  5
182
331
1C6
  5
143
331
1C2
  5
147
331
23C
  5
CC
331
1FD
  5
10C
331
183
  5
186
331
1BE
  5
14B
331
17F
  5
18A
331
1F9
  5
110
331
238
  5
D0
331
1BA
  5
14F
331
17B
  5
18E
331
1F5
  5
114
331
234
  5
D4
331
230
  5
D8
331
1F1
  5
118
331
C7
  5
241
331
C3
  5
245
331
84
  5
284
331
13D
  5
1CC
331
FE
  5
20B
331
80
  5
288
331
139
  5
1D0
331
FA
  5
20F
331
BF
  5
249
331
135
  5
1D4
331
F6
  5
213
331
BB
  5
24D
331
78
  5
28D
331
F2
  5
217
331
131
  5
1D8
331
264
  5
A4
331
260
  5
A8
331
25C
  5
AC
331
258
  5
B0
331
177
  5
192
331
1B6
  5
153
331
1B2
  5
157
331
22C
  5
DD
331
1ED
  5
11C
331
173
  5
196
331
1AE
  5
15B
331
228
  5
E1
331
1E9
  5
120
331
16F
  5
19A
331
1AA
  5
15F
331
16B
  5
19E
331
1E5
  5
124
331
224
  5
E5
331
220
  5
E9
331
1E1
  5
128
  0
XRECORD
  5
34C
102
{ACAD_REACTORS
330
34B
102
}
330
34B
100
AcDbXrecord
280
     1
 70
     1
  0
XRECORD
  5
34E
102
{ACAD_REACTORS
330
34B
102
}
330
34B
100
AcDbXrecord
280
     1
340
24
  0
XRECORD
  5
34F
102
{ACAD_REACTORS
330
34B
102
}
330
34B
100
AcDbXrecord
280
     1
340
24
  0
XRECORD
  5
34D
102
{ACAD_REACTORS
330
34B
102
}
330
34B
100
AcDbXrecord
280
     1
340
24
  0
LAYOUT
  5
1A
102
{ACAD_XDICTIONARY
360
353
102
}
102
{ACAD_REACTORS
330
16
102
}
330
16
100
AcDbPlotSettings
  1

  2
\\le-server\HP LaserJet 2100
  4

  6

 40
0.0
 41
0.0
 42
0.0
 43
0.0
 44
0.0
 45
0.0
 46
0.0
 47
0.0
 48
0.0
 49
0.0
140
0.0
141
0.0
142
1.0
143
1.0
 70
   688
 72
     0
 73
     0
 74
     5
  7

 75
    16
147
1.0
148
0.0
149
0.0
100
AcDbLayout
  1
Layout1
 70
     1
 71
     1
 10
0.0
 20
0.0
 11
1189.0
 21
840.9999999999998
 12
0.0
 22
0.0
 32
0.0
 14
0.0
 24
0.0
 34
0.0
 15
1189.0
 25
840.9999999999998
 35
0.0
146
0.0
 13
0.0
 23
0.0
 33
0.0
 16
1.0
 26
0.0
 36
0.0
 17
0.0
 27
1.0
 37
0.0
 76
     0
330
17
  0
LAYOUT
  5
15
102
{ACAD_XDICTIONARY
360
351
102
}
102
{ACAD_REACTORS
330
16
102
}
330
16
100
AcDbPlotSettings
  1

  2
\\le-server\HP LaserJet 2100
  4

  6

 40
0.0
 41
0.0
 42
0.0
 43
0.0
 44
0.0
 45
0.0
 46
0.0
 47
0.0
 48
0.0
 49
0.0
140
0.0
141
0.0
142
1.0
143
1.0
 70
  1712
 72
     0
 73
     0
 74
     0
  7

 75
     0
147
1.0
148
0.0
149
0.0
100
AcDbLayout
  1
Model
 70
     1
 71
     0
 10
0.0
 20
0.0
 11
12.0
 21
9.0
 12
0.0
 22
0.0
 32
0.0
 14
0.0
 24
0.0
 34
0.0
 15
0.0
 25
0.0
 35
0.0
146
0.0
 13
0.0
 23
0.0
 33
0.0
 16
1.0
 26
0.0
 36
0.0
 17
0.0
 27
1.0
 37
0.0
 76
     0
330
2
331
29
  0
MATERIAL
  5
3C
102
{ACAD_XDICTIONARY
360
3D
102
}
102
{ACAD_REACTORS
330
B
102
}
330
B
100
AcDbMaterial
  1
ByBlock
 72
     0
 43
0.0208333333333333
 43
0.0
 43
0.0
 43
0.0
 43
0.0
 43
0.0208333333333333
 43
0.0
 43
0.0
 43
0.0
 43
0.0
 43
1.0
 43
0.0
 43
0.0
 43
0.0
 43
0.0
 43
1.0
 77
     0
 47
0.0208333333333333
 47
0.0
 47
0.0
 47
0.0
 47
0.0
 47
0.0208333333333333
 47
0.0
 47
0.0
 47
0.0
 47
0.0
 47
1.0
 47
0.0
 47
0.0
 47
0.0
 47
0.0
 47
1.0
171
     0
 49
0.0208333333333333
 49
0.0
 49
0.0
 49
0.0
 49
0.0
 49
0.0208333333333333
 49
0.0
 49
0.0
 49
0.0
 49
0.0
 49
1.0
 49
0.0
 49
0.0
 49
0.0
 49
0.0
 49
1.0
175
     0
142
0.0208333333333333
142
0.0
142
0.0
142
0.0
142
0.0
142
0.0208333333333333
142
0.0
142
0.0
142
0.0
142
0.0
142
1.0
142
0.0
142
0.0
142
0.0
142
0.0
142
1.0
179
     0
144
0.0208333333333333
144
0.0
144
0.0
144
0.0
144
0.0
144
0.0208333333333333
144
0.0
144
0.0
144
0.0
144
0.0
144
1.0
144
0.0
144
0.0
144
0.0
144
0.0
144
1.0
147
0.0208333333333333
147
0.0
147
0.0
147
0.0
147
0.0
147
0.0208333333333333
147
0.0
147
0.0
147
0.0
147
0.0
147
1.0
147
0.0
147
0.0
147
0.0
147
0.0
147
1.0
  0
MATERIAL
  5
34
102
{ACAD_XDICTIONARY
360
35
102
}
102
{ACAD_REACTORS
330
B
102
}
330
B
100
AcDbMaterial
  1
ByLayer
 72
     0
 43
0.0208333333333333
 43
0.0
 43
0.0
 43
0.0
 43
0.0
 43
0.0208333333333333
 43
0.0
 43
0.0
 43
0.0
 43
0.0
 43
1.0
 43
0.0
 43
0.0
 43
0.0
 43
0.0
 43
1.0
 77
     0
 47
0.0208333333333333
 47
0.0
 47
0.0
 47
0.0
 47
0.0
 47
0.0208333333333333
 47
0.0
 47
0.0
 47
0.0
 47
0.0
 47
1.0
 47
0.0
 47
0.0
 47
0.0
 47
0.0
 47
1.0
171
     0
 49
0.0208333333333333
 49
0.0
 49
0.0
 49
0.0
 49
0.0
 49
0.0208333333333333
 49
0.0
 49
0.0
 49
0.0
 49
0.0
 49
1.0
 49
0.0
 49
0.0
 49
0.0
 49
0.0
 49
1.0
175
     0
142
0.0208333333333333
142
0.0
142
0.0
142
0.0
142
0.0
142
0.0208333333333333
142
0.0
142
0.0
142
0.0
142
0.0
142
1.0
142
0.0
142
0.0
142
0.0
142
0.0
142
1.0
179
     0
144
0.0208333333333333
144
0.0
144
0.0
144
0.0
144
0.0
144
0.0208333333333333
144
0.0
144
0.0
144
0.0
144
0.0
144
1.0
144
0.0
144
0.0
144
0.0
144
0.0
144
1.0
147
0.0208333333333333
147
0.0
147
0.0
147
0.0
147
0.0
147
0.0208333333333333
147
0.0
147
0.0
147
0.0
147
0.0
147
1.0
147
0.0
147
0.0
147
0.0
147
0.0
147
1.0
  0
MATERIAL
  5
A
102
{ACAD_XDICTIONARY
360
C
102
}
102
{ACAD_REACTORS
330
B
102
}
330
B
100
AcDbMaterial
  1
Global
 72
     0
 43
0.0208333333333333
 43
0.0
 43
0.0
 43
0.0
 43
0.0
 43
0.0208333333333333
 43
0.0
 43
0.0
 43
0.0
 43
0.0
 43
1.0
 43
0.0
 43
0.0
 43
0.0
 43
0.0
 43
1.0
 77
     0
 47
0.0208333333333333
 47
0.0
 47
0.0
 47
0.0
 47
0.0
 47
0.0208333333333333
 47
0.0
 47
0.0
 47
0.0
 47
0.0
 47
1.0
 47
0.0
 47
0.0
 47
0.0
 47
0.0
 47
1.0
171
     0
 49
0.0208333333333333
 49
0.0
 49
0.0
 49
0.0
 49
0.0
 49
0.0208333333333333
 49
0.0
 49
0.0
 49
0.0
 49
0.0
 49
1.0
 49
0.0
 49
0.0
 49
0.0
 49
0.0
 49
1.0
175
     0
142
0.0208333333333333
142
0.0
142
0.0
142
0.0
142
0.0
142
0.0208333333333333
142
0.0
142
0.0
142
0.0
142
0.0
142
1.0
142
0.0
142
0.0
142
0.0
142
0.0
142
1.0
179
     0
144
0.0208333333333333
144
0.0
144
0.0
144
0.0
144
0.0
144
0.0208333333333333
144
0.0
144
0.0
144
0.0
144
0.0
144
1.0
144
0.0
144
0.0
144
0.0
144
0.0
144
1.0
147
0.0208333333333333
147
0.0
147
0.0
147
0.0
147
0.0
147
0.0208333333333333
147
0.0
147
0.0
147
0.0
147
0.0
147
1.0
147
0.0
147
0.0
147
0.0
147
0.0
147
1.0
  0
MLEADERSTYLE
  5
312
102
{ACAD_REACTORS
330
47
102
}
330
47
100
AcDbMLeaderStyle
170
     2
171
     1
172
     0
 90
        2
 40
0.0
 41
0.0
173
     1
 91
-1056964608
340
24
 92
       -2
290
     1
 42
2.0
291
     1
 43
0.36
  3
Standard
 44
4.0
300

342
21
174
     1
178
     6
175
     1
176
     0
 93
-1056964608
 45
4.0
292
     0
297
     0
 46
4.0
 94
-1056964608
 47
1.0
 49
1.0
140
1.0
293
     1
141
0.0
294
     1
177
     0
142
1.0
295
     0
296
     0
143
0.125
1001
ACAD_MLEADERVER
1070
     2
  0
MLINESTYLE
  5
48
102
{ACAD_REACTORS
330
32
102
}
330
32
100
AcDbMlineStyle
  2
STANDARD
 70
     0
  3

 62
   256
 51
90.0
 52
90.0
 71
     2
 49
0.5
 62
   256
  6
BYLAYER
 49
-0.5
 62
   256
  6
BYLAYER
  0
ACDBPLACEHOLDER
  5
7
102
{ACAD_REACTORS
330
8
102
}
330
8
  0
SCALE
  5
4D
102
{ACAD_REACTORS
330
45
102
}
330
45
100
AcDbScale
 70
     0
300
1:1
140
1.0
141
1.0
290
     1
  0
SCALE
  5
4E
102
{ACAD_REACTORS
330
45
102
}
330
45
100
AcDbScale
 70
     0
300
1:2
140
1.0
141
2.0
290
     0
  0
SCALE
  5
4F
102
{ACAD_REACTORS
330
45
102
}
330
45
100
AcDbScale
 70
     0
300
1:4
140
1.0
141
4.0
290
     0
  0
SCALE
  5
50
102
{ACAD_REACTORS
330
45
102
}
330
45
100
AcDbScale
 70
     0
300
1:5
140
1.0
141
5.0
290
     0
  0
SCALE
  5
51
102
{ACAD_REACTORS
330
45
102
}
330
45
100
AcDbScale
 70
     0
300
1:8
140
1.0
141
8.0
290
     0
  0
SCALE
  5
52
102
{ACAD_REACTORS
330
45
102
}
330
45
100
AcDbScale
 70
     0
300
1:10
140
1.0
141
10.0
290
     0
  0
SCALE
  5
53
102
{ACAD_REACTORS
330
45
102
}
330
45
100
AcDbScale
 70
     0
300
1:16
140
1.0
141
16.0
290
     0
  0
SCALE
  5
54
102
{ACAD_REACTORS
330
45
102
}
330
45
100
AcDbScale
 70
     0
300
1:20
140
1.0
141
20.0
290
     0
  0
SCALE
  5
55
102
{ACAD_REACTORS
330
45
102
}
330
45
100
AcDbScale
 70
     0
300
1:30
140
1.0
141
30.0
290
     0
  0
SCALE
  5
56
102
{ACAD_REACTORS
330
45
102
}
330
45
100
AcDbScale
 70
     0
300
1:40
140
1.0
141
40.0
290
     0
  0
SCALE
  5
57
102
{ACAD_REACTORS
330
45
102
}
330
45
100
AcDbScale
 70
     0
300
1:50
140
1.0
141
50.0
290
     0
  0
SCALE
  5
58
102
{ACAD_REACTORS
330
45
102
}
330
45
100
AcDbScale
 70
     0
300
1:100
140
1.0
141
100.0
290
     0
  0
SCALE
  5
59
102
{ACAD_REACTORS
330
45
102
}
330
45
100
AcDbScale
 70
     0
300
2:1
140
2.0
141
1.0
290
     0
  0
SCALE
  5
5A
102
{ACAD_REACTORS
330
45
102
}
330
45
100
AcDbScale
 70
     0
300
4:1
140
4.0
141
1.0
290
     0
  0
SCALE
  5
5B
102
{ACAD_REACTORS
330
45
102
}
330
45
100
AcDbScale
 70
     0
300
8:1
140
8.0
141
1.0
290
     0
  0
SCALE
  5
5C
102
{ACAD_REACTORS
330
45
102
}
330
45
100
AcDbScale
 70
     0
300
10:1
140
10.0
141
1.0
290
     0
  0
SCALE
  5
5D
102
{ACAD_REACTORS
330
45
102
}
330
45
100
AcDbScale
 70
     0
300
100:1
140
100.0
141
1.0
290
     0
  0
SCALE
  5
5E
102
{ACAD_REACTORS
330
45
102
}
330
45
100
AcDbScale
 70
     0
300
1/128" = 1'-0"
140
0.0078125
141
12.0
290
     0
  0
SCALE
  5
5F
102
{ACAD_REACTORS
330
45
102
}
330
45
100
AcDbScale
 70
     0
300
1/64" = 1'-0"
140
0.015625
141
12.0
290
     0
  0
SCALE
  5
60
102
{ACAD_REACTORS
330
45
102
}
330
45
100
AcDbScale
 70
     0
300
1/32" = 1'-0"
140
0.03125
141
12.0
290
     0
  0
SCALE
  5
61
102
{ACAD_REACTORS
330
45
102
}
330
45
100
AcDbScale
 70
     0
300
1/16" = 1'-0"
140
0.0625
141
12.0
290
     0
  0
SCALE
  5
62
102
{ACAD_REACTORS
330
45
102
}
330
45
100
AcDbScale
 70
     0
300
3/32" = 1'-0"
140
0.09375
141
12.0
290
     0
  0
SCALE
  5
63
102
{ACAD_REACTORS
330
45
102
}
330
45
100
AcDbScale
 70
     0
300
1/8" = 1'-0"
140
0.125
141
12.0
290
     0
  0
SCALE
  5
64
102
{ACAD_REACTORS
330
45
102
}
330
45
100
AcDbScale
 70
     0
300
3/16" = 1'-0"
140
0.1875
141
12.0
290
     0
  0
SCALE
  5
65
102
{ACAD_REACTORS
330
45
102
}
330
45
100
AcDbScale
 70
     0
300
1/4" = 1'-0"
140
0.25
141
12.0
290
     0
  0
SCALE
  5
66
102
{ACAD_REACTORS
330
45
102
}
330
45
100
AcDbScale
 70
     0
300
3/8" = 1'-0"
140
0.375
141
12.0
290
     0
  0
SCALE
  5
67
102
{ACAD_REACTORS
330
45
102
}
330
45
100
AcDbScale
 70
     0
300
1/2" = 1'-0"
140
0.5
141
12.0
290
     0
  0
SCALE
  5
68
102
{ACAD_REACTORS
330
45
102
}
330
45
100
AcDbScale
 70
     0
300
3/4" = 1'-0"
140
0.75
141
12.0
290
     0
  0
SCALE
  5
69
102
{ACAD_REACTORS
330
45
102
}
330
45
100
AcDbScale
 70
     0
300
1" = 1'-0"
140
1.0
141
12.0
290
     0
  0
SCALE
  5
6A
102
{ACAD_REACTORS
330
45
102
}
330
45
100
AcDbScale
 70
     0
300
1-1/2" = 1'-0"
140
1.5
141
12.0
290
     0
  0
SCALE
  5
6B
102
{ACAD_REACTORS
330
45
102
}
330
45
100
AcDbScale
 70
     0
300
3" = 1'-0"
140
3.0
141
12.0
290
     0
  0
SCALE
  5
6C
102
{ACAD_REACTORS
330
45
102
}
330
45
100
AcDbScale
 70
     0
300
6" = 1'-0"
140
6.0
141
12.0
290
     0
  0
SCALE
  5
6D
102
{ACAD_REACTORS
330
45
102
}
330
45
100
AcDbScale
 70
     0
300
1'-0" = 1'-0"
140
12.0
141
12.0
290
     0
  0
TABLESTYLE
  5
49
102
{ACAD_XDICTIONARY
360
4A
102
}
102
{ACAD_REACTORS
330
46
102
}
330
46
100
AcDbTableStyle
  3
Standard
 70
     0
 71
     0
 40
0.06
 41
0.06
280
     0
281
     0
  7
STANDARD
140
0.18
170
     2
 62
     0
 63
     7
283
     0
274
    -2
284
     1
 64
     0
275
    -2
285
     1
 65
     0
276
    -2
286
     1
 66
     0
277
    -2
287
     1
 67
     0
278
    -2
288
     1
 68
     0
279
    -2
289
     1
 69
     0
  7
STANDARD
140
0.25
170
     5
 62
     0
 63
     7
283
     0
274
    -2
284
     1
 64
     0
275
    -2
285
     1
 65
     0
276
    -2
286
     1
 66
     0
277
    -2
287
     1
 67
     0
278
    -2
288
     1
 68
     0
279
    -2
289
     1
 69
     0
  7
STANDARD
140
0.18
170
     5
 62
     0
 63
     7
283
     0
274
    -2
284
     1
 64
     0
275
    -2
285
     1
 65
     0
276
    -2
286
     1
 66
     0
277
    -2
287
     1
 67
     0
278
    -2
288
     1
 68
     0
279
    -2
289
     1
 69
     0
  0
DICTIONARYVAR
  5
2F8
102
{ACAD_REACTORS
330
2F4
102
}
330
2F4
100
DictionaryVariables
280
     0
  1
1:1
  0
DICTIONARYVAR
  5
2F6
102
{ACAD_REACTORS
330
2F4
102
}
330
2F4
100
DictionaryVariables
280
     0
  1
STANDARD
  0
DICTIONARYVAR
  5
2F5
102
{ACAD_REACTORS
330
2F4
102
}
330
2F4
100
DictionaryVariables
280
     0
  1
STANDARD
  0
DICTIONARYVAR
  5
347
102
{ACAD_REACTORS
330
2F4
102
}
330
2F4
100
DictionaryVariables
280
     0
  1
1
  0
DICTIONARYVAR
  5
346
102
{ACAD_REACTORS
330
2F4
102
}
330
2F4
100
DictionaryVariables
280
     0
  1
1
  0
DICTIONARYVAR
  5
345
102
{ACAD_REACTORS
330
2F4
102
}
330
2F4
100
DictionaryVariables
280
     0
  1
0
  0
DICTIONARYVAR
  5
2FA
102
{ACAD_REACTORS
330
2F4
102
}
330
2F4
100
DictionaryVariables
280
     0
  1
1
  0
DICTIONARYVAR
  5
2FB
102
{ACAD_REACTORS
330
2F4
102
}
330
2F4
100
DictionaryVariables
280
     0
  1
15
  0
DICTIONARYVAR
  5
2F9
102
{ACAD_REACTORS
330
2F4
102
}
330
2F4
100
DictionaryVariables
280
     0
  1
0
  0
DICTIONARYVAR
  5
2F7
102
{ACAD_REACTORS
330
2F4
102
}
330
2F4
100
DictionaryVariables
280
     0
  1
0
  0
DICTIONARYVAR
  5
344
102
{ACAD_REACTORS
330
2F4
102
}
330
2F4
100
DictionaryVariables
280
     0
  1
127
  0
DICTIONARYVAR
  5
348
102
{ACAD_REACTORS
330
2F4
102
}
330
2F4
100
DictionaryVariables
280
     0
  1
2
  0
DICTIONARY
  5
2A8
102
{ACAD_REACTORS
330
2A7
102
}
330
2A7
100
AcDbDictionary
281
     1
  0
DICTIONARY
  5
2A2
102
{ACAD_REACTORS
330
298
102
}
330
298
100
AcDbDictionary
281
     1
  3
DWGSETTINGS
350
2A1
  3
TRANSSETTINGS
350
2A3
  0
DICTIONARY
  5
353
330
1A
100
AcDbDictionary
280
     1
281
     1
  3
ACAD_XREC_ROUNDTRIP
360
354
  0
DICTIONARY
  5
351
330
15
100
AcDbDictionary
280
     1
281
     1
  3
ACAD_XREC_ROUNDTRIP
360
352
  0
DICTIONARY
  5
3D
330
3C
100
AcDbDictionary
280
     1
281
     1
  3
ACAD_XREC_ROUNDTRIP
360
358
  3
BUMPTILE
360
3E
  3
DIFFUSETILE
360
3F
  3
OPACITYTILE
360
40
  3
REFLECTIONTILE
360
41
  3
REFRACTIONTILE
360
42
  3
SPECULARTILE
360
43
  0
DICTIONARY
  5
35
330
34
100
AcDbDictionary
280
     1
281
     1
  3
ACAD_XREC_ROUNDTRIP
360
357
  3
BUMPTILE
360
36
  3
DIFFUSETILE
360
37
  3
OPACITYTILE
360
38
  3
REFLECTIONTILE
360
39
  3
REFRACTIONTILE
360
3A
  3
SPECULARTILE
360
3B
  0
DICTIONARY
  5
C
330
A
100
AcDbDictionary
280
     1
281
     1
  3
ACAD_XREC_ROUNDTRIP
360
350
  3
BUMPTILE
360
D
  3
DIFFUSETILE
360
E
  3
OPACITYTILE
360
F
  3
REFLECTIONTILE
360
10
  3
REFRACTIONTILE
360
11
  3
SPECULARTILE
360
12
  0
DICTIONARY
  5
4A
330
49
100
AcDbDictionary
280
     1
281
     1
  3
ACAD_ROUNDTRIP_2008_TABLESTYLE_CELLSTYLEMAP
360
349
  3
ACAD_XREC_ROUNDTRIP
360
359
  0
XRECORD
  5
354
102
{ACAD_REACTORS
330
353
102
}
330
353
100
AcDbXrecord
280
     1
102
SHADEPLOT
 70
     0
102
SHADEPLOTRESLEVEL
 70
     2
102
SHADEPLOTCUSTOMDPI
 70
   300
  0
XRECORD
  5
352
102
{ACAD_REACTORS
330
351
102
}
330
351
100
AcDbXrecord
280
     1
102
SHADEPLOT
 70
     0
102
SHADEPLOTRESLEVEL
 70
     2
102
SHADEPLOTCUSTOMDPI
 70
   300
  0
XRECORD
  5
358
102
{ACAD_REACTORS
330
3D
102
}
330
3D
100
AcDbXrecord
280
     1
102
MATERIAL
148
0.0
149
0.0
149
0.0
 93
        0
 94
      127
282
     0
 72
     0
 77
     0
171
     0
175
     0
179
     0
273
     0
  0
XRECORD
  5
3E
102
{ACAD_REACTORS
330
3D
102
}
330
3D
100
AcDbXrecord
280
     1
270
     1
271
     1
  0
XRECORD
  5
3F
102
{ACAD_REACTORS
330
3D
102
}
330
3D
100
AcDbXrecord
280
     1
270
     1
271
     1
  0
XRECORD
  5
40
102
{ACAD_REACTORS
330
3D
102
}
330
3D
100
AcDbXrecord
280
     1
270
     1
271
     1
  0
XRECORD
  5
41
102
{ACAD_REACTORS
330
3D
102
}
330
3D
100
AcDbXrecord
280
     1
270
     1
271
     1
  0
XRECORD
  5
42
102
{ACAD_REACTORS
330
3D
102
}
330
3D
100
AcDbXrecord
280
     1
270
     1
271
     1
  0
XRECORD
  5
43
102
{ACAD_REACTORS
330
3D
102
}
330
3D
100
AcDbXrecord
280
     1
270
     1
271
     1
  0
XRECORD
  5
357
102
{ACAD_REACTORS
330
35
102
}
330
35
100
AcDbXrecord
280
     1
102
MATERIAL
148
0.0
149
0.0
149
0.0
 93
        0
 94
      127
282
     0
 72
     0
 77
     0
171
     0
175
     0
179
     0
273
     0
  0
XRECORD
  5
36
102
{ACAD_REACTORS
330
35
102
}
330
35
100
AcDbXrecord
280
     1
270
     1
271
     1
  0
XRECORD
  5
37
102
{ACAD_REACTORS
330
35
102
}
330
35
100
AcDbXrecord
280
     1
270
     1
271
     1
  0
XRECORD
  5
38
102
{ACAD_REACTORS
330
35
102
}
330
35
100
AcDbXrecord
280
     1
270
     1
271
     1
  0
XRECORD
  5
39
102
{ACAD_REACTORS
330
35
102
}
330
35
100
AcDbXrecord
280
     1
270
     1
271
     1
  0
XRECORD
  5
3A
102
{ACAD_REACTORS
330
35
102
}
330
35
100
AcDbXrecord
280
     1
270
     1
271
     1
  0
XRECORD
  5
3B
102
{ACAD_REACTORS
330
35
102
}
330
35
100
AcDbXrecord
280
     1
270
     1
271
     1
  0
XRECORD
  5
350
102
{ACAD_REACTORS
330
C
102
}
330
C
100
AcDbXrecord
280
     1
102
MATERIAL
148
0.0
149
0.0
149
0.0
 93
        0
 94
      127
282
     0
 72
     0
 77
     0
171
     0
175
     0
179
     0
273
     0
  0
XRECORD
  5
D
102
{ACAD_REACTORS
330
C
102
}
330
C
100
AcDbXrecord
280
     1
270
     1
271
     1
  0
XRECORD
  5
E
102
{ACAD_REACTORS
330
C
102
}
330
C
100
AcDbXrecord
280
     1
270
     1
271
     1
  0
XRECORD
  5
F
102
{ACAD_REACTORS
330
C
102
}
330
C
100
AcDbXrecord
280
     1
270
     1
271
     1
  0
XRECORD
  5
10
102
{ACAD_REACTORS
330
C
102
}
330
C
100
AcDbXrecord
280
     1
270
     1
271
     1
  0
XRECORD
  5
11
102
{ACAD_REACTORS
330
C
102
}
330
C
100
AcDbXrecord
280
     1
270
     1
271
     1
  0
XRECORD
  5
12
102
{ACAD_REACTORS
330
C
102
}
330
C
100
AcDbXrecord
280
     1
270
     1
271
     1
  0
CELLSTYLEMAP
  5
349
102
{ACAD_REACTORS
330
4A
102
}
330
4A
100
AcDbCellStyleMap
 90
        3
300
CELLSTYLE
  1
TABLEFORMAT_BEGIN
 90
        5
170
     1
 91
        0
 92
    32768
 62
   257
 93
        1
300
CONTENTFORMAT
  1
CONTENTFORMAT_BEGIN
 90
        0
 91
        0
 92
      512
 93
        0
300

 40
0.0
140
1.0
 94
        5
 62
     0
340
21
144
0.25
309
CONTENTFORMAT_END
171
     0
 94
        0
309
TABLEFORMAT_END
  1
CELLSTYLE_BEGIN
 90
        1
 91
        1
300
_TITLE
309
CELLSTYLE_END
300
CELLSTYLE
  1
TABLEFORMAT_BEGIN
 90
        5
170
     1
 91
        0
 92
        0
 62
   257
 93
        1
300
CONTENTFORMAT
  1
CONTENTFORMAT_BEGIN
 90
        0
 91
        0
 92
      512
 93
        0
300

 40
0.0
140
1.0
 94
        5
 62
     0
340
21
144
0.18
309
CONTENTFORMAT_END
171
     0
 94
        0
309
TABLEFORMAT_END
  1
CELLSTYLE_BEGIN
 90
        2
 91
        1
300
_HEADER
309
CELLSTYLE_END
300
CELLSTYLE
  1
TABLEFORMAT_BEGIN
 90
        5
170
     1
 91
        0
 92
        0
 62
   257
 93
        1
300
CONTENTFORMAT
  1
CONTENTFORMAT_BEGIN
 90
        0
 91
        0
 92
      512
 93
        0
300

 40
0.0
140
1.0
 94
        2
 62
     0
340
21
144
0.18
309
CONTENTFORMAT_END
171
     0
 94
        0
309
TABLEFORMAT_END
  1
CELLSTYLE_BEGIN
 90
        3
 91
        2
300
_DATA
309
CELLSTYLE_END
  0
XRECORD
  5
359
102
{ACAD_REACTORS
330
4A
102
}
330
4A
100
AcDbXrecord
280
     1
102
ACAD_ROUNDTRIP_PRE2007_TABLESTYLE
 90
      512
 91
        0
  1

 92
      512
 93
        0
  2

 94
      512
 95
        0
  3

  0
ENDSEC
  0
EOF
