  0
SECTION
  2
HEADER
  9
$ACADVER
  1
AC1015
  9
$ACADMAINTVER
 70
    18
  9
$DWGCODEPAGE
  3
ANSI_1252
  9
$INSBASE
 10
0.0
 20
0.0
 30
0.0
  9
$EXTMIN
 10
-48.02372470454293
 20
-28.77078054609114
 30
-0.0015258207003583
  9
$EXTMAX
 10
48.04187155729369
 20
10.88208106984598
 30
0.0000000349246037
  9
$LIMMIN
 10
0.0
 20
0.0
  9
$LIMMAX
 10
1189.0
 20
840.9999999999998
  9
$ORTHOMODE
 70
     0
  9
$REGENMODE
 70
     1
  9
$FILLMODE
 70
     1
  9
$QTEXTMODE
 70
     0
  9
$MIRRTEXT
 70
     0
  9
$LTSCALE
 40
1.0
  9
$ATTMODE
 70
     1
  9
$TEXTSIZE
 40
0.2
  9
$TRACEWID
 40
0.05
  9
$TEXTSTYLE
  7
STANDARD
  9
$CLAYER
  8
0
  9
$CELTYPE
  6
ByLayer
  9
$CECOLOR
 62
   256
  9
$CELTSCALE
 40
1.0
  9
$DISPSILH
 70
     0
  9
$DIMSCALE
 40
1.0
  9
$DIMASZ
 40
180.0
  9
$DIMEXO
 40
0.0625
  9
$DIMDLI
 40
0.38
  9
$DIMRND
 40
0.0
  9
$DIMDLE
 40
0.0
  9
$DIMEXE
 40
0.18
  9
$DIMTP
 40
0.0
  9
$DIMTM
 40
0.0
  9
$DIMTXT
 40
34.99999940395355
  9
$DIMCEN
 40
0.09
  9
$DIMTSZ
 40
0.0
  9
$DIMTOL
 70
     0
  9
$DIMLIM
 70
     0
  9
$DIMTIH
 70
     1
  9
$DIMTOH
 70
     1
  9
$DIMSE1
 70
     0
  9
$DIMSE2
 70
     0
  9
$DIMTAD
 70
     0
  9
$DIMZIN
 70
     0
  9
$DIMBLK
  1

  9
$DIMASO
 70
     1
  9
$DIMSHO
 70
     1
  9
$DIMPOST
  1

  9
$DIMAPOST
  1

  9
$DIMALT
 70
     0
  9
$DIMALTD
 70
     2
  9
$DIMALTF
 40
25.4
  9
$DIMLFAC
 40
1.0
  9
$DIMTOFL
 70
     0
  9
$DIMTVP
 40
0.0
  9
$DIMTIX
 70
     0
  9
$DIMSOXD
 70
     0
  9
$DIMSAH
 70
     0
  9
$DIMBLK1
  1

  9
$DIMBLK2
  1

  9
$DIMSTYLE
  2
STANDARD
  9
$DIMCLRD
 70
     0
  9
$DIMCLRE
 70
     0
  9
$DIMCLRT
 70
     0
  9
$DIMTFAC
 40
1.0
  9
$DIMGAP
 40
0.09
  9
$DIMJUST
 70
     0
  9
$DIMSD1
 70
     0
  9
$DIMSD2
 70
     0
  9
$DIMTOLJ
 70
     1
  9
$DIMTZIN
 70
     0
  9
$DIMALTZ
 70
     0
  9
$DIMALTTZ
 70
     0
  9
$DIMUPT
 70
     0
  9
$DIMDEC
 70
     4
  9
$DIMTDEC
 70
     4
  9
$DIMALTU
 70
     2
  9
$DIMALTTD
 70
     2
  9
$DIMTXSTY
  7
STANDARD
  9
$DIMAUNIT
 70
     0
  9
$DIMADEC
 70
     0
  9
$DIMALTRND
 40
0.0
  9
$DIMAZIN
 70
     0
  9
$DIMDSEP
 70
    46
  9
$DIMATFIT
 70
     3
  9
$DIMFRAC
 70
     0
  9
$DIMLDRBLK
  1

  9
$DIMLUNIT
 70
     2
  9
$DIMLWD
 70
    -2
  9
$DIMLWE
 70
    -2
  9
$DIMTMOVE
 70
     0
  9
$LUNITS
 70
     2
  9
$LUPREC
 70
     4
  9
$SKETCHINC
 40
0.1
  9
$FILLETRAD
 40
0.0
  9
$AUNITS
 70
     0
  9
$AUPREC
 70
     0
  9
$MENU
  1
.
  9
$ELEVATION
 40
0.0
  9
$PELEVATION
 40
0.0
  9
$THICKNESS
 40
0.0
  9
$LIMCHECK
 70
     0
  9
$CHAMFERA
 40
0.0
  9
$CHAMFERB
 40
0.0
  9
$CHAMFERC
 40
0.0
  9
$CHAMFERD
 40
0.0
  9
$SKPOLY
 70
     0
  9
$TDCREATE
 40
2454871.539305995
  9
$TDUCREATE
 40
2454871.455972662
  9
$TDUPDATE
 40
2455726.863543426
  9
$TDUUPDATE
 40
2455726.780210093
  9
$TDINDWG
 40
0.0121782292
  9
$TDUSRTIMER
 40
0.0121782292
  9
$USRTIMER
 70
     1
  9
$ANGBASE
 50
0.0
  9
$ANGDIR
 70
     0
  9
$PDMODE
 70
     0
  9
$PDSIZE
 40
0.0
  9
$PLINEWID
 40
0.0
  9
$SPLFRAME
 70
     0
  9
$SPLINETYPE
 70
     6
  9
$SPLINESEGS
 70
     8
  9
$HANDSEED
  5
3AF
  9
$SURFTAB1
 70
     6
  9
$SURFTAB2
 70
     6
  9
$SURFTYPE
 70
     6
  9
$SURFU
 70
     6
  9
$SURFV
 70
     6
  9
$UCSBASE
  2

  9
$UCSNAME
  2

  9
$UCSORG
 10
0.0
 20
0.0
 30
0.0
  9
$UCSXDIR
 10
1.0
 20
0.0
 30
0.0
  9
$UCSYDIR
 10
0.0
 20
1.0
 30
0.0
  9
$UCSORTHOREF
  2

  9
$UCSORTHOVIEW
 70
     0
  9
$UCSORGTOP
 10
0.0
 20
0.0
 30
0.0
  9
$UCSORGBOTTOM
 10
0.0
 20
0.0
 30
0.0
  9
$UCSORGLEFT
 10
0.0
 20
0.0
 30
0.0
  9
$UCSORGRIGHT
 10
0.0
 20
0.0
 30
0.0
  9
$UCSORGFRONT
 10
0.0
 20
0.0
 30
0.0
  9
$UCSORGBACK
 10
0.0
 20
0.0
 30
0.0
  9
$PUCSBASE
  2

  9
$PUCSNAME
  2

  9
$PUCSORG
 10
0.0
 20
0.0
 30
0.0
  9
$PUCSXDIR
 10
1.0
 20
0.0
 30
0.0
  9
$PUCSYDIR
 10
0.0
 20
1.0
 30
0.0
  9
$PUCSORTHOREF
  2

  9
$PUCSORTHOVIEW
 70
     0
  9
$PUCSORGTOP
 10
0.0
 20
0.0
 30
0.0
  9
$PUCSORGBOTTOM
 10
0.0
 20
0.0
 30
0.0
  9
$PUCSORGLEFT
 10
0.0
 20
0.0
 30
0.0
  9
$PUCSORGRIGHT
 10
0.0
 20
0.0
 30
0.0
  9
$PUCSORGFRONT
 10
0.0
 20
0.0
 30
0.0
  9
$PUCSORGBACK
 10
0.0
 20
0.0
 30
0.0
  9
$USERI1
 70
     0
  9
$USERI2
 70
     0
  9
$USERI3
 70
     0
  9
$USERI4
 70
     0
  9
$USERI5
 70
     0
  9
$USERR1
 40
0.0
  9
$USERR2
 40
0.0
  9
$USERR3
 40
0.0
  9
$USERR4
 40
0.0
  9
$USERR5
 40
0.0
  9
$WORLDVIEW
 70
     1
  9
$SHADEDGE
 70
     3
  9
$SHADEDIF
 70
    70
  9
$TILEMODE
 70
     1
  9
$MAXACTVP
 70
    64
  9
$PINSBASE
 10
0.0
 20
0.0
 30
0.0
  9
$PLIMCHECK
 70
     0
  9
$PEXTMIN
 10
0.0
 20
0.0
 30
0.0
  9
$PEXTMAX
 10
1189.0
 20
840.9999999999998
 30
0.0
  9
$PLIMMIN
 10
0.0
 20
0.0
  9
$PLIMMAX
 10
1189.0
 20
840.9999999999998
  9
$UNITMODE
 70
     0
  9
$VISRETAIN
 70
     1
  9
$PLINEGEN
 70
     0
  9
$PSLTSCALE
 70
     1
  9
$TREEDEPTH
 70
  3020
  9
$CMLSTYLE
  2
Standard
  9
$CMLJUST
 70
     0
  9
$CMLSCALE
 40
1.0
  9
$PROXYGRAPHICS
 70
     1
  9
$MEASUREMENT
 70
     1
  9
$CELWEIGHT
370
    -1
  9
$ENDCAPS
280
     0
  9
$JOINSTYLE
280
     0
  9
$LWDISPLAY
290
     0
  9
$INSUNITS
 70
     4
  9
$HYPERLINKBASE
  1

  9
$STYLESHEET
  1

  9
$XEDIT
290
     1
  9
$CEPSNTYPE
380
     0
  9
$PSTYLEMODE
290
     1
  9
$FINGERPRINTGUID
  2
{2CE55954-33B8-4060-AC01-B042943958A4}
  9
$VERSIONGUID
  2
{2525D692-8AB7-4302-B86F-A73F26A1911D}
  9
$EXTNAMES
290
     1
  9
$PSVPSCALE
 40
0.0
  9
$OLESTARTUP
290
     0
  0
ENDSEC
  0
SECTION
  2
CLASSES
  0
CLASS
  1
ACDBDICTIONARYWDFLT
  2
AcDbDictionaryWithDefault
  3
ObjectDBX Classes
 90
        0
280
     0
281
     0
  0
CLASS
  1
MATERIAL
  2
AcDbMaterial
  3
ObjectDBX Classes
 90
     1153
280
     0
281
     0
  0
CLASS
  1
VISUALSTYLE
  2
AcDbVisualStyle
  3
ObjectDBX Classes
 90
     4095
280
     0
281
     0
  0
CLASS
  1
SCALE
  2
AcDbScale
  3
ObjectDBX Classes
 90
     1153
280
     0
281
     0
  0
CLASS
  1
TABLESTYLE
  2
AcDbTableStyle
  3
ObjectDBX Classes
 90
     4095
280
     0
281
     0
  0
CLASS
  1
MLEADERSTYLE
  2
AcDbMLeaderStyle
  3
ACDB_MLEADERSTYLE_CLASS
 90
     4095
280
     0
281
     0
  0
CLASS
  1
SORTENTSTABLE
  2
AcDbSortentsTable
  3
ObjectDBX Classes
 90
        0
280
     0
281
     0
  0
CLASS
  1
CELLSTYLEMAP
  2
AcDbCellStyleMap
  3
ObjectDBX Classes
 90
     1152
280
     0
281
     0
  0
CLASS
  1
DICTIONARYVAR
  2
AcDbDictionaryVar
  3
ObjectDBX Classes
 90
        0
280
     0
281
     0
  0
CLASS
  1
ACME_DOCUMENT
  2
AcMeDbDoc
  3
AcMeServices
 90
     1024
280
     0
281
     0
  0
CLASS
  1
AMGSETTINGSOBJ
  2
AmgSettingsObj
  3
"AcadM|Product Description: AutoCAD Mechanical|Company: Autodesk, Inc."
 90
     1024
280
     0
281
     0
  0
CLASS
  1
ACMESCOPE
  2
AcMeScope
  3
AcMeServices
 90
     1024
280
     0
281
     0
  0
CLASS
  1
ACMECOMMANDHISTORY
  2
AcMeCommandHistory
  3
AcMeServices
 90
     1024
280
     0
281
     0
  0
CLASS
  1
ACIMSYSVARMAN
  2
AcImSysVarManager
  3
AcMeServices
 90
     1024
280
     0
281
     0
  0
CLASS
  1
ACIMINTSYSVAR
  2
AcImIntSysVar
  3
AcMeServices
 90
     1024
280
     0
281
     0
  0
CLASS
  1
ACMEDRAWINGMAN
  2
AcMeDrawingMan
  3
AcMeServices
 90
    33792
280
     0
281
     0
  0
CLASS
  1
ACMEVIEW
  2
AcMeView
  3
AcMeServices
 90
    33792
280
     0
281
     0
  0
CLASS
  1
ACDBENTITYCACHE
  2
AcMeEntityCache
  3
AcMeServices
 90
     1024
280
     0
281
     0
  0
CLASS
  1
GSMANAGER
  2
AcMeGSManager
  3
AcMeServices
 90
    33792
280
     1
281
     0
  0
CLASS
  1
AMDTINTERNALREACTOR
  2
AmdtInternalReactor
  3
AcMeServices
 90
     1024
280
     0
281
     0
  0
CLASS
  1
ACMESTATEMGR
  2
AcMeStateMgr
  3
AcMeServices
 90
     1024
280
     0
281
     0
  0
CLASS
  1
ACGREFMASTER
  2
AcGrefMaster
  3
AcAttribServices
 90
     1024
280
     0
281
     0
  0
CLASS
  1
AM_DRAWING_MGR
  2
AcDmDwgMgr
  3
AcMechDwgViewMgmt
 90
     1024
280
     0
281
     0
  0
CLASS
  1
AM_DWG_DOCUMENT
  2
AcDmDwgDocument
  3
AcMechDwgViewMgmt
 90
     1024
280
     0
281
     0
  0
CLASS
  1
AM_DWG_SHEET
  2
AcDmSheet
  3
AcMechDwgViewMgmt
 90
     1024
280
     0
281
     0
  0
CLASS
  1
AM_VIEWDIMPARMAP
  2
AcDmViewDimParMap
  3
AcMechDwgViewMgmt
 90
     1024
280
     0
281
     0
  0
CLASS
  1
ACIMREALSYSVAR
  2
AcImRealSysVar
  3
AcMeServices
 90
     1024
280
     0
281
     0
  0
CLASS
  1
AM_DWGMGR_NAME
  2
AcDmDwgMgrName
  3
AcMechDwgViewMgmt
 90
     1024
280
     0
281
     0
  0
CLASS
  1
ACME_DATABASE
  2
AcMeDbDatabase
  3
AcMeServices
 90
     1024
280
     0
281
     0
  0
CLASS
  1
ACRFINSADJUSTERMGR
  2
AcRfInsAdjusterMgr
  3
AcMeServices
 90
     1024
280
     0
281
     0
  0
CLASS
  1
ACGREFACADMASTER
  2
AcGrefacadMaster
  3
AcGrefServices
 90
     1024
280
     0
281
     0
  0
CLASS
  1
AMDTMENUSTATEMGR
  2
AmdtMenuStateMgr
  3
McadcomServices
 90
     1024
280
     0
281
     0
  0
CLASS
  1
AMDTMCOMMENUSTATE
  2
AmdtMcomMenuState
  3
McadcomServices
 90
     1024
280
     0
281
     0
  0
CLASS
  1
AMIMASTER
  2
AmiMaster
  3
AmiServices
 90
     1024
280
     0
281
     0
  0
CLASS
  1
MAPIAMMOUDLE
  2
MApiAmModule
  3
MApiAmServices
 90
     1024
280
     0
281
     0
  0
CLASS
  1
ACIMSTRSYSVAR
  2
AcImStrSysVar
  3
AcMeServices
 90
     1024
280
     0
281
     0
  0
CLASS
  1
AMDTADMENUSTATE
  2
AmdtAdMenuState
  3
DesignerServices
 90
    33792
280
     1
281
     0
  0
CLASS
  1
ADAPPL
  2
AcAdAppl
  3
DesignerAssemblies
 90
    33792
280
     0
281
     0
  0
CLASS
  1
DEPMGR
  2
AcAdDepMgr
  3
DesignerAssemblies
 90
    33792
280
     0
281
     0
  0
CLASS
  1
PARAMMGR
  2
AcAdParamMgr
  3
DesignerAssemblies
 90
    33792
280
     0
281
     0
  0
CLASS
  1
PARAMSCOPE
  2
AcAdParamScope
  3
DesignerAssemblies
 90
    33792
280
     0
281
     0
  0
CLASS
  1
NAMEDAPPL
  2
AcAdNamedAppl
  3
DesignerAssemblies
 90
    33792
280
     0
281
     0
  0
CLASS
  1
AMDTDMMENUSTATE
  2
AmdtDmMenuState
  3
AcMechDwgViewMgmt
 90
     1024
280
     0
281
     0
  0
CLASS
  1
AMDTAMMENUSTATE
  2
AmdtAmMenuState
  3
DesignerAssemblies
 90
     1024
280
     0
281
     0
  0
CLASS
  1
ACAMPROJECT
  2
AcAmProject
  3
DesignerAssemblies
 90
     1024
280
     0
281
     0
  0
CLASS
  1
ACAMGRCOMPDEF
  2
AcAmGrCompDef
  3
DesignerAssemblies
 90
     1024
280
     0
281
     0
  0
CLASS
  1
ACCMCONTEXT
  2
AcCmContext
  3
DesignerAssemblies
 90
    33792
280
     0
281
     0
  0
CLASS
  1
ACAMCOMPDEF
  2
AcAmCompDef
  3
DesignerAssemblies
 90
     1024
280
     0
281
     0
  0
CLASS
  1
ACAMCOMPDEFMGR
  2
AcAmCompDefMgr
  3
DesignerAssemblies
 90
     1024
280
     0
281
     0
  0
CLASS
  1
AMCONTEXTMGR
  2
AcAmContextMgr
  3
DesignerAssemblies
 90
     1024
280
     0
281
     0
  0
CLASS
  1
ACAMCONTEXTMODELER
  2
AcAmContextModeler
  3
DesignerAssemblies
 90
     1024
280
     0
281
     0
  0
CLASS
  1
ACMDATADICTIONARY
  2
AcmDataDictionary
  3
"AcmSymBB|Product Description: AutoCAD Mechanical|Company: Autodesk, Inc."
 90
     1024
280
     0
281
     0
  0
CLASS
  1
CATALOGSTATE
  2
AcAmCatalogState
  3
DesignerAssemblies
 90
    33792
280
     0
281
     0
  0
CLASS
  1
ACAMGRCOMPDEFSET
  2
AcAmGrCompDefSet
  3
DesignerAssemblies
 90
     1024
280
     0
281
     0
  0
CLASS
  1
AMDTBROWSERDBTAB
  2
AmdtBrowserDbTab
  3
McadcomServices
 90
     1024
280
     0
281
     0
  0
CLASS
  1
CBROWSERAPPOBJECT
  2
CBrowserAppObject
  3
McadcomServices
 90
     1024
280
     0
281
     0
  0
CLASS
  1
DM_PLACEHOLDER
  2
AcDmSelsetPlaceholder
  3
AcMechDwgViewMgmt
 90
     1024
280
     0
281
     0
  0
CLASS
  1
EXACXREFPANELOBJECT
  2
ExAcXREFPanelObject
  3
EXAC_ESW
 90
     1025
280
     0
281
     0
  0
CLASS
  1
NPOCOLLECTION
  2
AcDbImpNonPersistentObjectsCollection
  3
ObjectDBX Classes
 90
     1153
280
     0
281
     0
  0
CLASS
  1
ACMSTANDARDANSI
  2
AcmStandardANSI
  3
"Amdt_StdImp|Product Description: AutoCAD Mechanical|Company: Autodesk, Inc."
 90
     1024
280
     0
281
     0
  0
CLASS
  1
ACMSURFSTANDARDANSI
  2
AcmSurfTextStdANSI
  3
"Amdt_StdImp|Product Description: AutoCAD Mechanical|Company: Autodesk, Inc."
 90
     1024
280
     0
281
     0
  0
CLASS
  1
ACMFCFSTANDARDANSI
  2
AcmFCFStdANSI
  3
"Amdt_StdImp|Product Description: AutoCAD Mechanical|Company: Autodesk, Inc."
 90
     1024
280
     0
281
     0
  0
CLASS
  1
ACMWELDSTANDARDANSI
  2
AcmWeldingStdANSI
  3
"Amdt_StdImp|Product Description: AutoCAD Mechanical|Company: Autodesk, Inc."
 90
     1024
280
     0
281
     0
  0
CLASS
  1
ACMIDSTANDARDANSI
  2
AcmIdStdANSI
  3
"Amdt_StdImp|Product Description: AutoCAD Mechanical|Company: Autodesk, Inc."
 90
     1024
280
     0
281
     0
  0
CLASS
  1
ACMDATUMSTANDARDANSI
  2
AcmDatumStdANSI
  3
"Amdt_StdImp|Product Description: AutoCAD Mechanical|Company: Autodesk, Inc."
 90
     1024
280
     0
281
     0
  0
CLASS
  1
ACMBOMSTANDARDANSI
  2
AcmBOMStdANSI
  3
"Amdt_StdImp|Product Description: AutoCAD Mechanical|Company: Autodesk, Inc."
 90
     1024
280
     0
281
     0
  0
CLASS
  1
ACMDETAILSTANDARDANSI
  2
AmdtDetailSymStdANSI
  3
"Amdt_StdImp|Product Description: AutoCAD Mechanical|Company: Autodesk, Inc."
 90
     1024
280
     0
281
     0
  0
CLASS
  1
ACMSECTIONSTANDARDANSI
  2
AmdtSectionSymStdANSI
  3
"Amdt_StdImp|Product Description: AutoCAD Mechanical|Company: Autodesk, Inc."
 90
     1024
280
     0
281
     0
  0
CLASS
  1
ACMCENTERLINESTANDARDANSI
  2
AmdtCenterLineStdANSI
  3
"Amdt_StdImp|Product Description: AutoCAD Mechanical|Company: Autodesk, Inc."
 90
     1024
280
     0
281
     0
  0
CLASS
  1
ACMTHREADLINESTANDARDANSI
  2
AmdtThreadLineStdANSI
  3
"Amdt_StdImp|Product Description: AutoCAD Mechanical|Company: Autodesk, Inc."
 90
     1024
280
     0
281
     0
  0
CLASS
  1
ACMNOTESTANDARDANSI
  2
AmdtNoteStdANSI
  3
"Amdt_StdImp|Product Description: AutoCAD Mechanical|Company: Autodesk, Inc."
 90
     1024
280
     0
281
     0
  0
CLASS
  1
ACMTAPERSTANDARDANSI
  2
AcmTaperStdANSI
  3
"Amdt_StdImp|Product Description: AutoCAD Mechanical|Company: Autodesk, Inc."
 90
     1024
280
     0
281
     0
  0
CLASS
  1
ACMANOOTATIONVIEWSTANDARDANSI
  2
AmdtAnViewStdANSI
  3
"Amdt_StdImp|Product Description: AutoCAD Mechanical|Company: Autodesk, Inc."
 90
     1024
280
     0
281
     0
  0
CLASS
  1
ACAMGLAYSTD
  2
AcAmgLayStd
  3
"AmgLay|Product Description: AutoCAD Mechanical|Company: Autodesk, Inc."
 90
     1024
280
     0
281
     0
  0
CLASS
  1
ACAMGDIMSTD
  2
AcAmgDimStd
  3
"AmgDim|Product Description: AutoCAD Mechanical|Company: Autodesk, Inc."
 90
     1024
280
     0
281
     0
  0
CLASS
  1
AMGOBJPROPCFG
  2
AmgObjPropCfg
  3
"AmgLay|Product Description: AutoCAD Mechanical|Company: Autodesk, Inc."
 90
     1025
280
     0
281
     0
  0
CLASS
  1
ACAMGHOLECHARTSTDANSI
  2
AcAmgHoleChartStdANSI
  3
AmgDim|Product Description: AutoCAD Mechanical|Company: Autodesk, Inc.
 90
     1024
280
     0
281
     0
  0
CLASS
  1
ACAMGTITLESTD
  2
AcAmgTitleStd
  3
"AmgTitle|Product Description: AutoCAD Mechanical|Company: Autodesk, Inc."
 90
     4095
280
     0
281
     0
  0
CLASS
  1
AMDTNOTETEMPLATEDB
  2
AmdtNoteTemplateDB
  3
AcmSymBB|Product Description: AutoCAD Mechanical|Company: Autodesk, Inc.
 90
     1024
280
     0
281
     0
  0
CLASS
  1
ACAMGFILTERDAT
  2
AcAmgFilterDat
  3
"AcadM|Product Description: AutoCAD Mechanical|Company: Autodesk, Inc."
 90
    33792
280
     0
281
     0
  0
CLASS
  1
CAMSSTRUCTBTNSTATE
  2
StructBtnState
  3
DesignerAssemblies
 90
    33792
280
     0
281
     0
  0
CLASS
  1
ACDBPLACEHOLDER
  2
AcDbPlaceHolder
  3
ObjectDBX Classes
 90
        0
280
     0
281
     0
  0
CLASS
  1
LAYOUT
  2
AcDbLayout
  3
ObjectDBX Classes
 90
        0
280
     0
281
     0
  0
ENDSEC
  0
SECTION
  2
TABLES
  0
TABLE
  2
VPORT
  5
28
102
{ACAD_XDICTIONARY
360
2C
102
}
330
0
100
AcDbSymbolTable
 70
     1
  0
VPORT
  5
29
330
28
100
AcDbSymbolTableRecord
100
AcDbViewportTableRecord
  2
*ACTIVE
 70
     0
 10
0.0
 20
0.0
 11
1.0
 21
1.0
 12
0.0090734263753802
 22
-8.944349738122582
 13
0.0
 23
0.0
 14
1.0
 24
1.0
 15
0.0
 25
0.0
 16
0.0
 26
0.0
 36
1.0
 17
0.0
 27
0.0
 37
0.0
 40
51.78161643175401
 41
2.068965517241379
 42
50.0
 43
0.0
 44
0.0
 50
0.0
 51
0.0
 71
     0
 72
   100
 73
     1
 74
     1
 75
     0
 76
     0
 77
     0
 78
     0
281
     0
 65
     1
110
0.0
120
0.0
130
0.0
111
1.0
121
0.0
131
0.0
112
0.0
122
1.0
132
0.0
 79
     0
146
0.0
  0
ENDTAB
  0
TABLE
  2
LTYPE
  5
23
330
0
100
AcDbSymbolTable
 70
    11
  0
LTYPE
  5
24
330
23
100
AcDbSymbolTableRecord
100
AcDbLinetypeTableRecord
  2
ByBlock
 70
     0
  3

 72
    65
 73
     0
 40
0.0
  0
LTYPE
  5
25
330
23
100
AcDbSymbolTableRecord
100
AcDbLinetypeTableRecord
  2
ByLayer
 70
     0
  3

 72
    65
 73
     0
 40
0.0
  0
LTYPE
  5
13
330
23
100
AcDbSymbolTableRecord
100
AcDbLinetypeTableRecord
  2
CONTINUOUS
 70
     0
  3
Solid line
 72
    65
 73
     0
 40
0.0
  0
LTYPE
  5
2B9
330
23
100
AcDbSymbolTableRecord
100
AcDbLinetypeTableRecord
  2
HIDDEN
 70
     0
  3
Verdeckt
 72
    65
 73
     2
 40
0.375
 49
0.25
 74
     0
 49
-0.125
 74
     0
  0
LTYPE
  5
2BB
330
23
100
AcDbSymbolTableRecord
100
AcDbLinetypeTableRecord
  2
PHANTOM2
 70
     0
  3
Phantom (.5x) ___ _ _ ___ _ _ ___ _ _ ___ _ _
 72
    65
 73
     6
 40
1.25
 49
0.625
 74
     0
 49
-0.125
 74
     0
 49
0.125
 74
     0
 49
-0.125
 74
     0
 49
0.125
 74
     0
 49
-0.125
 74
     0
  0
LTYPE
  5
2BA
330
23
100
AcDbSymbolTableRecord
100
AcDbLinetypeTableRecord
  2
CENTER
 70
     0
  3
Mitte ____ _ ____ _ ____ _ ____ _ ____ _ ____
 72
    65
 73
     4
 40
2.0
 49
1.25
 74
     0
 49
-0.25
 74
     0
 49
0.25
 74
     0
 49
-0.25
 74
     0
  0
LTYPE
  5
2BC
330
23
100
AcDbSymbolTableRecord
100
AcDbLinetypeTableRecord
  2
Amconstr
 70
     0
  3
_______________________
 72
    65
 73
     2
 40
9999.0
 49
9999.0
 74
     0
 49
0.0
 74
     0
  0
LTYPE
  5
2BD
330
23
100
AcDbSymbolTableRecord
100
AcDbLinetypeTableRecord
  2
CENTER2
 70
     0
  3
Center (.5x) ___ _ ___ _ ___ _ ___ _ ___ _ ___
 72
    65
 73
     4
 40
1.125
 49
0.75
 74
     0
 49
-0.125
 74
     0
 49
0.125
 74
     0
 49
-0.125
 74
     0
  0
LTYPE
  5
2BE
330
23
100
AcDbSymbolTableRecord
100
AcDbLinetypeTableRecord
  2
HIDDEN2
 70
     0
  3
Hidden (.5x) _ _ _ _ _ _ _ _ _ _ _ _ _ _ _ _ _
 72
    65
 73
     2
 40
0.1875
 49
0.125
 74
     0
 49
-0.0625
 74
     0
  0
LTYPE
  5
2BF
330
23
100
AcDbSymbolTableRecord
100
AcDbLinetypeTableRecord
  2
Amzigzag2
 70
     0
  3
/\/-/\/-/\/-/\/-/\/-/\/
 72
    65
 73
     2
 40
0.4401
 49
0.0001
 74
     4
 75
   136
340
2C0
 46
0.0016
 50
0.0
 44
0.0
 45
0.0
 49
-0.4400000000000001
 74
     0
  0
LTYPE
  5
2D0
330
23
100
AcDbSymbolTableRecord
100
AcDbLinetypeTableRecord
  2
ACANSTGB
 70
     0
  3
__ . . __ . .
 72
    65
 73
     6
 40
0.35433070866
 49
0.15748031496
 74
     0
 49
-0.03937007874
 74
     0
 49
0.03937007874
 74
     0
 49
-0.03937007874
 74
     0
 49
0.03937007874
 74
     0
 49
-0.03937007874
 74
     0
  0
LTYPE
  5
2D1
330
23
100
AcDbSymbolTableRecord
100
AcDbLinetypeTableRecord
  2
ACANSTGL
 70
     0
  3
_ _ _ _ _
 72
    65
 73
     2
 40
0.11811023622
 49
0.07874015748
 74
     0
 49
-0.03937007874
 74
     0
  0
LTYPE
  5
7C
330
23
100
AcDbSymbolTableRecord
100
AcDbLinetypeTableRecord
  2
DASHED
 70
     0
  3
Dashed __ __ __ __ __ __ __ __ __ __ __ __ __ _
 72
    65
 73
     2
 40
0.75
 49
0.5
 74
     0
 49
-0.25
 74
     0
  0
ENDTAB
  0
TABLE
  2
LAYER
  5
1B
102
{ACAD_XDICTIONARY
360
1C
102
}
330
0
100
AcDbSymbolTable
 70
     7
  0
LAYER
  5
6
330
1B
100
AcDbSymbolTableRecord
100
AcDbLayerTableRecord
  2
0
 70
     0
 62
     7
  6
CONTINUOUS
370
    -3
390
7
  0
LAYER
  5
286
330
1B
100
AcDbSymbolTableRecord
100
AcDbLayerTableRecord
  2
GEB-KONTUR-A
 70
     0
 62
     5
  6
CONTINUOUS
370
    -3
390
7
  0
LAYER
  5
7B
330
1B
100
AcDbSymbolTableRecord
100
AcDbLayerTableRecord
  2
GEB-VERDECKT
 70
     0
 62
     2
  6
DASHED
370
    -3
390
7
1001
AcAecLayerStandard
1000

1000

  0
LAYER
  5
76
330
1B
100
AcDbSymbolTableRecord
100
AcDbLayerTableRecord
  2
Arbeitspunkt(DIN)
 70
     0
 62
     7
  6
CONTINUOUS
370
    25
390
7
  0
LAYER
  5
2B5
330
1B
100
AcDbSymbolTableRecord
100
AcDbLayerTableRecord
  2
GEB-ART-NR
 70
     0
 62
     1
  6
CONTINUOUS
370
    18
390
7
  0
LAYER
  5
72
330
1B
100
AcDbSymbolTableRecord
100
AcDbLayerTableRecord
  2
GEB-BEZUG
 70
     0
 62
     2
  6
CONTINUOUS
370
    25
390
7
  0
LAYER
  5
2B2
330
1B
100
AcDbSymbolTableRecord
100
AcDbLayerTableRecord
  2
GEB-TEXT
 70
     0
 62
     5
  6
CONTINUOUS
370
    18
390
7
  0
ENDTAB
  0
TABLE
  2
STYLE
  5
20
330
0
100
AcDbSymbolTable
 70
     3
  0
STYLE
  5
21
330
20
100
AcDbSymbolTableRecord
100
AcDbTextStyleTableRecord
  2
STANDARD
 70
     0
 40
0.0
 41
1.0
 50
0.0
 71
     0
 42
0.2
  3
arial.ttf
  4

1001
ACAD
1000
Arial
1071
       34
  0
STYLE
  5
2C0
330
20
100
AcDbSymbolTableRecord
100
AcDbTextStyleTableRecord
  2

 70
     1
 40
0.0
 41
1.0
 50
0.0
 71
     0
 42
0.2
  3
genltshp.shx
  4

  0
STYLE
  5
2CC
330
20
100
AcDbSymbolTableRecord
100
AcDbTextStyleTableRecord
  2
ACANSGDT
 70
     0
 40
0.0
 41
1.0
 50
0.0
 71
     0
 42
0.2
  3
amgdt.shx
  4

  0
ENDTAB
  0
TABLE
  2
VIEW
  5
26
330
0
100
AcDbSymbolTable
 70
     0
  0
ENDTAB
  0
TABLE
  2
UCS
  5
27
330
0
100
AcDbSymbolTable
 70
     0
  0
ENDTAB
  0
TABLE
  2
APPID
  5
2D
330
0
100
AcDbSymbolTable
 70
    14
  0
APPID
  5
1F
330
2D
100
AcDbSymbolTableRecord
100
AcDbRegAppTableRecord
  2
ACAD
 70
     0
  0
APPID
  5
7D
330
2D
100
AcDbSymbolTableRecord
100
AcDbRegAppTableRecord
  2
AcAecLayerStandard
 70
     0
  0
APPID
  5
30F
330
2D
100
AcDbSymbolTableRecord
100
AcDbRegAppTableRecord
  2
ACATTRIBSERVICES
 70
     0
  0
APPID
  5
33A
330
2D
100
AcDbSymbolTableRecord
100
AcDbRegAppTableRecord
  2
MCAD_NO_VIS
 70
     0
  0
APPID
  5
33B
330
2D
100
AcDbSymbolTableRecord
100
AcDbRegAppTableRecord
  2
ACAD_TEMP_GRAPHIC
 70
     0
  0
APPID
  5
33F
330
2D
100
AcDbSymbolTableRecord
100
AcDbRegAppTableRecord
  2
AD_DRAW
 70
     0
  0
APPID
  5
358
330
2D
100
AcDbSymbolTableRecord
100
AcDbRegAppTableRecord
  2
DESIGNERASSEMBLIES
 70
     0
  0
APPID
  5
35D
330
2D
100
AcDbSymbolTableRecord
100
AcDbRegAppTableRecord
  2
ACADM_DIM_EDIT
 70
     0
  0
APPID
  5
35E
330
2D
100
AcDbSymbolTableRecord
100
AcDbRegAppTableRecord
  2
AMDT_DM_ADJ
 70
     0
  0
APPID
  5
37E
330
2D
100
AcDbSymbolTableRecord
100
AcDbRegAppTableRecord
  2
ACAD_DSTYLE_DIMARC_LENGTH_SYMBOL
 70
     0
  0
APPID
  5
37F
330
2D
100
AcDbSymbolTableRecord
100
AcDbRegAppTableRecord
  2
ACAD_DSTYLE_DIM_LINETYPE
 70
     0
  0
APPID
  5
380
330
2D
100
AcDbSymbolTableRecord
100
AcDbRegAppTableRecord
  2
ACAD_DSTYLE_DIM_EXT1_LINETYPE
 70
     0
  0
APPID
  5
381
330
2D
100
AcDbSymbolTableRecord
100
AcDbRegAppTableRecord
  2
ACAD_DSTYLE_DIM_EXT2_LINETYPE
 70
     0
  0
APPID
  5
3AE
330
2D
100
AcDbSymbolTableRecord
100
AcDbRegAppTableRecord
  2
ACAD_MLEADERVER
 70
     0
  0
ENDTAB
  0
TABLE
  2
DIMSTYLE
  5
2E
330
0
100
AcDbSymbolTable
 70
     7
100
AcDbDimStyleTable
 71
     1
340
2F
  0
DIMSTYLE
105
2F
330
2E
100
AcDbSymbolTableRecord
100
AcDbDimStyleTableRecord
  2
STANDARD
 70
     0
279
     2
340
21
  0
DIMSTYLE
105
2E2
102
{ACAD_REACTORS
330
2C9
102
}
330
2E
100
AcDbSymbolTableRecord
100
AcDbDimStyleTableRecord
  2
AM_ANSI
 70
     0
  4
mm
 41
0.12
 42
0.05
 43
0.5
 44
0.1
 47
0.1
 48
0.1
 78
     7
 79
     2
140
0.12
141
0.0
146
0.71
147
0.06
176
   256
177
   256
178
     2
274
     4
284
     7
340
21
371
    -1
372
    -1
1001
ACAD_DSTYLE_DIMARC_LENGTH_SYMBOL
1070
   379
1070
     1
1001
ACAD_DSTYLE_DIM_LINETYPE
1070
   380
1005
24
1001
ACAD_DSTYLE_DIM_EXT1_LINETYPE
1070
   381
1005
24
1001
ACAD_DSTYLE_DIM_EXT2_LINETYPE
1070
   382
1005
24
  0
DIMSTYLE
105
2E3
330
2E
100
AcDbSymbolTableRecord
100
AcDbDimStyleTableRecord
  2
AM_ANSI$3
 70
     0
  4
mm
 41
0.12
 42
0.05
 43
0.5
 44
0.1
 47
0.1
 48
0.1
 78
     7
 79
     2
140
0.12
141
0.0
146
0.71
147
0.06
176
   256
177
   256
178
     2
274
     4
284
     7
288
     1
289
     0
340
21
371
    -1
372
    -1
1001
ACAD_DSTYLE_DIMARC_LENGTH_SYMBOL
1070
   379
1070
     1
1001
ACAD_DSTYLE_DIM_LINETYPE
1070
   380
1005
24
1001
ACAD_DSTYLE_DIM_EXT1_LINETYPE
1070
   381
1005
24
1001
ACAD_DSTYLE_DIM_EXT2_LINETYPE
1070
   382
1005
24
  0
DIMSTYLE
105
2E4
330
2E
100
AcDbSymbolTableRecord
100
AcDbDimStyleTableRecord
  2
AM_ANSI$4
 70
     0
  4
mm
 41
0.12
 42
0.05
 43
0.5
 44
0.1
 47
0.1
 48
0.1
 78
     7
 79
     2
140
0.12
141
0.0
146
0.71
147
0.06
176
   256
177
   256
178
     2
274
     4
284
     7
288
     1
289
     0
340
21
371
    -1
372
    -1
1001
ACAD_DSTYLE_DIMARC_LENGTH_SYMBOL
1070
   379
1070
     1
1001
ACAD_DSTYLE_DIM_LINETYPE
1070
   380
1005
24
1001
ACAD_DSTYLE_DIM_EXT1_LINETYPE
1070
   381
1005
24
1001
ACAD_DSTYLE_DIM_EXT2_LINETYPE
1070
   382
1005
24
  0
DIMSTYLE
105
2E5
330
2E
100
AcDbSymbolTableRecord
100
AcDbDimStyleTableRecord
  2
AM_ANSI$7
 70
     0
  4
mm
 41
0.12
 42
0.05
 43
0.5
 44
0.1
 47
0.1
 48
0.1
 78
     7
 79
     2
140
0.12
141
0.0
146
0.71
147
0.06
176
   256
177
   256
178
     2
274
     4
284
     7
340
21
371
    -1
372
    -1
1001
ACAD_DSTYLE_DIMARC_LENGTH_SYMBOL
1070
   379
1070
     1
1001
ACAD_DSTYLE_DIM_LINETYPE
1070
   380
1005
24
1001
ACAD_DSTYLE_DIM_EXT1_LINETYPE
1070
   381
1005
24
1001
ACAD_DSTYLE_DIM_EXT2_LINETYPE
1070
   382
1005
24
  0
DIMSTYLE
105
2E6
330
2E
100
AcDbSymbolTableRecord
100
AcDbDimStyleTableRecord
  2
AM_ANSI$SF
 70
     0
  4
mm
 41
0.12
 42
0.05
 43
0.5
 44
0.1
 47
0.1
 48
0.1
 75
     1
 76
     1
 78
     7
 79
     2
140
0.12
141
0.0
146
0.71
147
0.06
176
   256
177
   256
178
     2
274
     4
284
     7
340
21
371
    -1
372
    -1
1001
ACAD_DSTYLE_DIMARC_LENGTH_SYMBOL
1070
   379
1070
     1
1001
ACAD_DSTYLE_DIM_LINETYPE
1070
   380
1005
24
1001
ACAD_DSTYLE_DIM_EXT1_LINETYPE
1070
   381
1005
24
1001
ACAD_DSTYLE_DIM_EXT2_LINETYPE
1070
   382
1005
24
  0
DIMSTYLE
105
2E7
330
2E
100
AcDbSymbolTableRecord
100
AcDbDimStyleTableRecord
  2
AM_ANSI$SH
 70
     0
  4
mm
 41
0.12
 42
0.05
 43
0.5
 44
0.1
 47
0.1
 48
0.1
 75
     1
 76
     1
 78
     7
 79
     2
140
0.12
141
0.0
146
0.71
147
0.06
173
     1
176
   256
177
   256
178
     2
274
     4
284
     7
340
21
343
2E8
371
    -1
372
    -1
1001
ACAD_DSTYLE_DIMARC_LENGTH_SYMBOL
1070
   379
1070
     1
1001
ACAD_DSTYLE_DIM_LINETYPE
1070
   380
1005
24
1001
ACAD_DSTYLE_DIM_EXT1_LINETYPE
1070
   381
1005
24
1001
ACAD_DSTYLE_DIM_EXT2_LINETYPE
1070
   382
1005
24
  0
ENDTAB
  0
TABLE
  2
BLOCK_RECORD
  5
1
330
0
100
AcDbSymbolTable
 70
     3
  0
BLOCK_RECORD
  5
2
102
{ACAD_XDICTIONARY
360
3
102
}
330
1
100
AcDbSymbolTableRecord
100
AcDbBlockTableRecord
  2
*Model_Space
340
15
  0
BLOCK_RECORD
  5
17
330
1
100
AcDbSymbolTableRecord
100
AcDbBlockTableRecord
  2
*Paper_Space
340
1A
  0
BLOCK_RECORD
  5
2E8
330
1
100
AcDbSymbolTableRecord
100
AcDbBlockTableRecord
  2
GENAXEH
340
0
  0
BLOCK_RECORD
  5
6F
330
1
100
AcDbSymbolTableRecord
100
AcDbBlockTableRecord
  2
Einfügepunkt
340
0
102
{BLKREFS
331
6E
102
}
  0
ENDTAB
  0
ENDSEC
  0
SECTION
  2
BLOCKS
  0
BLOCK
  5
5
330
2
100
AcDbEntity
  8
0
100
AcDbBlockBegin
  2
*Model_Space
 70
     0
 10
0.0
 20
0.0
 30
0.0
  3
*Model_Space
  1

  0
ENDBLK
  5
14
330
2
100
AcDbEntity
  8
0
100
AcDbBlockEnd
  0
BLOCK
  5
18
330
17
100
AcDbEntity
 67
     1
  8
0
100
AcDbBlockBegin
  2
*Paper_Space
 70
     0
 10
0.0
 20
0.0
 30
0.0
  3
*Paper_Space
  1

  0
ENDBLK
  5
19
330
17
100
AcDbEntity
 67
     1
  8
0
100
AcDbBlockEnd
  0
BLOCK
  5
2E9
330
2E8
100
AcDbEntity
  8
0
100
AcDbBlockBegin
  2
GENAXEH
 70
     0
 10
0.0
 20
0.0
 30
0.0
  3
GENAXEH
  1

  0
LINE
  5
2EA
330
2E8
100
AcDbEntity
  8
0
100
AcDbLine
 10
-1.0
 20
0.0
 30
0.0
 11
1.0
 21
0.0
 31
0.0
  0
ENDBLK
  5
2EB
330
2E8
100
AcDbEntity
  8
0
100
AcDbBlockEnd
  0
BLOCK
  5
70
330
6F
100
AcDbEntity
  8
0
100
AcDbBlockBegin
  2
Einfügepunkt
 70
     0
 10
0.0
 20
0.0
 30
0.0
  3
Einfügepunkt
  1

  0
LINE
  5
71
330
6F
100
AcDbEntity
  8
GEB-BEZUG
100
AcDbLine
 10
-0.7071067811865817
 20
-0.7071067811865106
 30
0.0
 11
0.7071067811864751
 21
0.7071067811865817
 31
0.0
  0
LINE
  5
73
330
6F
100
AcDbEntity
  8
GEB-BEZUG
100
AcDbLine
 10
-0.7071067811865106
 20
0.7071067811865817
 30
0.0
 11
0.7071067811865462
 21
-0.7071067811865106
 31
0.0
  0
ENDBLK
  5
74
330
6F
100
AcDbEntity
  8
0
100
AcDbBlockEnd
  0
ENDSEC
  0
SECTION
  2
ENTITIES
  0
INSERT
  5
6E
330
2
100
AcDbEntity
  8
0
 48
25.0
100
AcDbBlockReference
  2
Einfügepunkt
 10
0.0
 20
0.0
 30
0.0
  0
LINE
  5
75
330
2
100
AcDbEntity
  8
Arbeitspunkt(DIN)
 48
25.0
100
AcDbLine
 10
0.0
 20
0.0000000000092655
 30
0.0
 11
0.0
 21
-2.499999999990734
 31
0.0
  0
LINE
  5
77
330
2
100
AcDbEntity
  8
Arbeitspunkt(DIN)
 48
25.0
100
AcDbLine
 10
0.0
 20
0.0000000000092655
 30
0.0
 11
0.0
 21
2.500000000009265
 31
0.0
  0
LINE
  5
78
330
2
100
AcDbEntity
  8
Arbeitspunkt(DIN)
 48
25.0
100
AcDbLine
 10
0.0
 20
0.0000000000092655
 30
0.0
 11
-2.5
 21
0.0000000000092655
 31
0.0
  0
LINE
  5
79
330
2
100
AcDbEntity
  8
Arbeitspunkt(DIN)
 48
25.0
100
AcDbLine
 10
0.0
 20
0.0000000000092655
 30
0.0
 11
2.5
 21
0.0000000000092655
 31
0.0
  0
LINE
  5
7A
330
2
100
AcDbEntity
  8
GEB-VERDECKT
 48
25.0
100
AcDbLine
 10
0.5853593942988482
 20
5.569322614063736
 30
0.0
 11
0.0
 21
4.950000000001381
 31
0.0
  0
LINE
  5
7E
330
2
100
AcDbEntity
  8
GEB-VERDECKT
 48
25.0
100
AcDbLine
 10
0.0
 20
4.950000000001381
 30
0.0
 11
-0.5853593942988767
 21
5.569322614063736
 31
0.0
  0
ARC
  5
7F
330
2
100
AcDbEntity
  8
GEB-VERDECKT
 48
25.0
100
AcDbCircle
 10
0.0
 20
0.0000000000008527
 30
0.0
 40
5.600000000000029
100
AcDbArc
 50
83.99999999999993
 51
96.00000000000008
  0
ARC
  5
80
330
2
100
AcDbEntity
  8
GEB-VERDECKT
 48
25.0
100
AcDbCircle
 10
0.0
 20
0.0000000000008527
 30
0.0
 40
5.600000000000014
100
AcDbArc
 50
101.9999999999998
 51
114.0000000000013
  0
LINE
  5
81
330
2
100
AcDbEntity
  8
GEB-VERDECKT
 48
25.0
100
AcDbLine
 10
-1.529634122155982
 20
4.707729755662427
 30
0.0
 11
-2.277725201224455
 21
5.115854562799967
 31
0.0
  0
LINE
  5
82
330
2
100
AcDbEntity
  8
GEB-VERDECKT
 48
25.0
100
AcDbLine
 10
-1.164305468579442
 20
5.477626564110693
 30
0.0
 11
-1.529634122155982
 21
4.707729755662427
 31
0.0
  0
ARC
  5
83
330
2
100
AcDbEntity
  8
GEB-VERDECKT
 48
25.0
100
AcDbCircle
 10
-0.0000000000000284
 20
0.0000000000009663
 30
0.0
 40
5.599999999999906
100
AcDbArc
 50
119.9999999999997
 51
131.9999999999999
  0
LINE
  5
84
330
2
100
AcDbEntity
  8
GEB-VERDECKT
 48
25.0
100
AcDbLine
 10
-2.909536998847727
 20
4.004634122157398
 30
0.0
 11
-3.747131395609585
 21
4.161611022674804
 31
0.0
  0
LINE
  5
85
330
2
100
AcDbEntity
  8
GEB-VERDECKT
 48
25.0
100
AcDbLine
 10
-2.800000000000011
 20
4.849742261194279
 30
0.0
 11
-2.909536998847727
 21
4.004634122157398
 31
0.0
  0
ARC
  5
86
330
2
100
AcDbEntity
  8
GEB-VERDECKT
 48
25.0
100
AcDbCircle
 10
-0.0000000000000568
 20
0.0000000000009379
 30
0.0
 40
5.599999999999906
100
AcDbArc
 50
138.0
 51
150.0000000000003
  0
LINE
  5
87
330
2
100
AcDbEntity
  8
GEB-VERDECKT
 48
25.0
100
AcDbLine
 10
-4.004634122155977
 20
2.909536998849176
 30
0.0
 11
-4.84974226119283
 21
2.800000000001404
 31
0.0
  0
LINE
  5
88
330
2
100
AcDbEntity
  8
GEB-VERDECKT
 48
25.0
100
AcDbLine
 10
-4.161611022673383
 20
3.747131395611035
 30
0.0
 11
-4.004634122155977
 21
2.909536998849176
 31
0.0
  0
ARC
  5
89
330
2
100
AcDbEntity
  8
GEB-VERDECKT
 48
25.0
100
AcDbCircle
 10
-0.0000000000000568
 20
0.0000000000008811
 30
0.0
 40
5.599999999999901
100
AcDbArc
 50
156.0000000000009
 51
168.0000000000005
  0
LINE
  5
8A
330
2
100
AcDbEntity
  8
GEB-VERDECKT
 48
25.0
100
AcDbLine
 10
-4.707729755660977
 20
1.529634122157403
 30
0.0
 11
-5.4776265641093
 21
1.164305468580863
 31
0.0
  0
LINE
  5
8B
330
2
100
AcDbEntity
  8
GEB-VERDECKT
 48
25.0
100
AcDbLine
 10
-5.115854562798546
 20
2.277725201225877
 30
0.0
 11
-4.707729755660977
 21
1.529634122157403
 31
0.0
  0
ARC
  5
8C
330
2
100
AcDbEntity
  8
GEB-VERDECKT
 48
25.0
100
AcDbCircle
 10
-0.0000000000000568
 20
0.0000000000008811
 30
0.0
 40
5.599999999999925
100
AcDbArc
 50
173.9999999999999
 51
186.0000000000001
  0
LINE
  5
8D
330
2
100
AcDbEntity
  8
GEB-VERDECKT
 48
25.0
100
AcDbLine
 10
-4.94999999999996
 20
0.0000000000014211
 30
0.0
 11
-5.569322614062315
 21
-0.5853593942974556
 31
0.0
  0
LINE
  5
8E
330
2
100
AcDbEntity
  8
GEB-VERDECKT
 48
25.0
100
AcDbLine
 10
-5.569322614062315
 20
0.5853593943002693
 30
0.0
 11
-4.94999999999996
 21
0.0000000000014211
 31
0.0
  0
ARC
  5
8F
330
2
100
AcDbEntity
  8
GEB-VERDECKT
 48
25.0
100
AcDbCircle
 10
-0.0000000000000568
 20
0.0000000000008527
 30
0.0
 40
5.599999999999926
100
AcDbArc
 50
191.9999999999994
 51
203.9999999999991
  0
LINE
  5
90
330
2
100
AcDbEntity
  8
GEB-VERDECKT
 48
25.0
100
AcDbLine
 10
-4.707729755660977
 20
-1.529634122154561
 30
0.0
 11
-5.115854562798546
 21
-2.277725201223091
 31
0.0
  0
LINE
  5
91
330
2
100
AcDbEntity
  8
GEB-VERDECKT
 48
25.0
100
AcDbLine
 10
-5.4776265641093
 20
-1.164305468578021
 30
0.0
 11
-4.707729755660977
 21
-1.529634122154561
 31
0.0
  0
ARC
  5
92
330
2
100
AcDbEntity
  8
GEB-VERDECKT
 48
25.0
100
AcDbCircle
 10
0.0
 20
0.0000000000008527
 30
0.0
 40
5.599999999999977
100
AcDbArc
 50
209.9999999999997
 51
221.9999999999999
  0
LINE
  5
93
330
2
100
AcDbEntity
  8
GEB-VERDECKT
 48
25.0
100
AcDbLine
 10
-4.004634122155977
 20
-2.909536998846334
 30
0.0
 11
-4.161611022673383
 21
-3.747131395608192
 31
0.0
  0
LINE
  5
94
330
2
100
AcDbEntity
  8
GEB-VERDECKT
 48
25.0
100
AcDbLine
 10
-4.84974226119283
 20
-2.79999999999859
 30
0.0
 11
-4.004634122155977
 21
-2.909536998846334
 31
0.0
  0
ARC
  5
95
330
2
100
AcDbEntity
  8
GEB-VERDECKT
 48
25.0
100
AcDbCircle
 10
-0.0000000000000568
 20
0.0000000000007674
 30
0.0
 40
5.599999999999872
100
AcDbArc
 50
228.0000000000001
 51
240.0000000000003
  0
LINE
  5
96
330
2
100
AcDbEntity
  8
GEB-VERDECKT
 48
25.0
100
AcDbLine
 10
-2.909536998847727
 20
-4.004634122154584
 30
0.0
 11
-2.799999999999982
 21
-4.849742261191437
 31
0.0
  0
LINE
  5
97
330
2
100
AcDbEntity
  8
GEB-VERDECKT
 48
25.0
100
AcDbLine
 10
-3.747131395609585
 20
-4.161611022671991
 30
0.0
 11
-2.909536998847727
 21
-4.004634122154584
 31
0.0
  0
ARC
  5
98
330
2
100
AcDbEntity
  8
GEB-VERDECKT
 48
25.0
100
AcDbCircle
 10
-0.0000000000000284
 20
0.0000000000007674
 30
0.0
 40
5.599999999999897
100
AcDbArc
 50
245.9999999999994
 51
258.0000000000006
  0
LINE
  5
99
330
2
100
AcDbEntity
  8
GEB-VERDECKT
 48
25.0
100
AcDbLine
 10
-1.529634122155982
 20
-4.707729755659613
 30
0.0
 11
-1.164305468579442
 21
-5.477626564107907
 31
0.0
  0
LINE
  5
9A
330
2
100
AcDbEntity
  8
GEB-VERDECKT
 48
25.0
100
AcDbLine
 10
-2.277725201224455
 20
-5.115854562797153
 30
0.0
 11
-1.529634122155982
 21
-4.707729755659613
 31
0.0
  0
ARC
  5
9B
330
2
100
AcDbEntity
  8
GEB-VERDECKT
 48
25.0
100
AcDbCircle
 10
0.0
 20
0.0000000000008242
 30
0.0
 40
5.599999999999926
100
AcDbArc
 50
263.9999999999999
 51
276.0000000000001
  0
LINE
  5
9C
330
2
100
AcDbEntity
  8
GEB-VERDECKT
 48
25.0
100
AcDbLine
 10
0.0
 20
-4.949999999998595
 30
0.0
 11
0.5853593942988767
 21
-5.569322614060894
 31
0.0
  0
LINE
  5
9D
330
2
100
AcDbEntity
  8
GEB-VERDECKT
 48
25.0
100
AcDbLine
 10
-0.5853593942988198
 20
-5.569322614060894
 30
0.0
 11
0.0
 21
-4.949999999998595
 31
0.0
  0
ARC
  5
9E
330
2
100
AcDbEntity
  8
GEB-VERDECKT
 48
25.0
100
AcDbCircle
 10
0.0000000000000284
 20
0.0000000000007674
 30
0.0
 40
5.599999999999902
100
AcDbArc
 50
281.9999999999998
 51
294.0000000000006
  0
LINE
  5
9F
330
2
100
AcDbEntity
  8
GEB-VERDECKT
 48
25.0
100
AcDbLine
 10
1.529634122155982
 20
-4.707729755659585
 30
0.0
 11
2.277725201224455
 21
-5.115854562797153
 31
0.0
  0
LINE
  5
A0
330
2
100
AcDbEntity
  8
GEB-VERDECKT
 48
25.0
100
AcDbLine
 10
1.164305468579442
 20
-5.477626564107907
 30
0.0
 11
1.529634122155982
 21
-4.707729755659613
 31
0.0
  0
ARC
  5
A1
330
2
100
AcDbEntity
  8
GEB-VERDECKT
 48
25.0
100
AcDbCircle
 10
0.0000000000000284
 20
0.0000000000008527
 30
0.0
 40
5.599999999999951
100
AcDbArc
 50
299.9999999999997
 51
312.0
  0
LINE
  5
A2
330
2
100
AcDbEntity
  8
GEB-VERDECKT
 48
25.0
100
AcDbLine
 10
2.909536998847755
 20
-4.004634122154584
 30
0.0
 11
3.747131395609613
 21
-4.161611022671991
 31
0.0
  0
LINE
  5
A3
330
2
100
AcDbEntity
  8
GEB-VERDECKT
 48
25.0
100
AcDbLine
 10
2.800000000000011
 20
-4.849742261191437
 30
0.0
 11
2.909536998847755
 21
-4.004634122154584
 31
0.0
  0
ARC
  5
A4
330
2
100
AcDbEntity
  8
GEB-VERDECKT
 48
25.0
100
AcDbCircle
 10
0.0000000000000284
 20
0.0000000000008527
 30
0.0
 40
5.59999999999993
100
AcDbArc
 50
318.0000000000001
 51
330.0000000000003
  0
LINE
  5
A5
330
2
100
AcDbEntity
  8
GEB-VERDECKT
 48
25.0
100
AcDbLine
 10
4.004634122155977
 20
-2.909536998846334
 30
0.0
 11
4.849742261192858
 21
-2.79999999999859
 31
0.0
  0
LINE
  5
A6
330
2
100
AcDbEntity
  8
GEB-VERDECKT
 48
25.0
100
AcDbLine
 10
4.161611022673383
 20
-3.747131395608192
 30
0.0
 11
4.004634122155977
 21
-2.909536998846334
 31
0.0
  0
ARC
  5
A7
330
2
100
AcDbEntity
  8
GEB-VERDECKT
 48
25.0
100
AcDbCircle
 10
0.0000000000000853
 20
0.0000000000008527
 30
0.0
 40
5.599999999999903
100
AcDbArc
 50
336.0000000000009
 51
348.0000000000006
  0
LINE
  5
A8
330
2
100
AcDbEntity
  8
GEB-VERDECKT
 48
25.0
100
AcDbLine
 10
4.707729755661006
 20
-1.529634122154561
 30
0.0
 11
5.477626564109328
 21
-1.164305468578021
 31
0.0
  0
LINE
  5
A9
330
2
100
AcDbEntity
  8
GEB-VERDECKT
 48
25.0
100
AcDbLine
 10
5.115854562798546
 20
-2.277725201223091
 30
0.0
 11
4.707729755661006
 21
-1.529634122154561
 31
0.0
  0
ARC
  5
AA
330
2
100
AcDbEntity
  8
GEB-VERDECKT
 48
25.0
100
AcDbCircle
 10
-0.0000000000000284
 20
0.0000000000008811
 30
0.0
 40
5.600000000000017
100
AcDbArc
 50
353.9999999999999
 51
6.000000000000078
  0
LINE
  5
AB
330
2
100
AcDbEntity
  8
GEB-VERDECKT
 48
25.0
100
AcDbLine
 10
4.94999999999996
 20
0.0000000000014211
 30
0.0
 11
5.569322614062315
 21
0.5853593943002693
 31
0.0
  0
LINE
  5
AC
330
2
100
AcDbEntity
  8
GEB-VERDECKT
 48
25.0
100
AcDbLine
 10
5.569322614062315
 20
-0.5853593942974556
 30
0.0
 11
4.94999999999996
 21
0.0000000000014211
 31
0.0
  0
ARC
  5
AD
330
2
100
AcDbEntity
  8
GEB-VERDECKT
 48
25.0
100
AcDbCircle
 10
-0.0000000000000284
 20
0.0000000000008527
 30
0.0
 40
5.600000000000038
100
AcDbArc
 50
11.99999999999945
 51
23.99999999999912
  0
LINE
  5
AE
330
2
100
AcDbEntity
  8
GEB-VERDECKT
 48
25.0
100
AcDbLine
 10
4.707729755661006
 20
1.529634122157403
 30
0.0
 11
5.115854562798546
 21
2.277725201225877
 31
0.0
  0
LINE
  5
AF
330
2
100
AcDbEntity
  8
GEB-VERDECKT
 48
25.0
100
AcDbLine
 10
5.477626564109328
 20
1.164305468580863
 30
0.0
 11
4.707729755661006
 21
1.529634122157403
 31
0.0
  0
ARC
  5
B0
330
2
100
AcDbEntity
  8
GEB-VERDECKT
 48
25.0
100
AcDbCircle
 10
0.0000000000000284
 20
0.0000000000008811
 30
0.0
 40
5.599999999999955
100
AcDbArc
 50
29.99999999999972
 51
41.99999999999993
  0
LINE
  5
B1
330
2
100
AcDbEntity
  8
GEB-VERDECKT
 48
25.0
100
AcDbLine
 10
4.004634122155977
 20
2.909536998849176
 30
0.0
 11
4.161611022673383
 21
3.747131395611035
 31
0.0
  0
LINE
  5
B2
330
2
100
AcDbEntity
  8
GEB-VERDECKT
 48
25.0
100
AcDbLine
 10
4.849742261192858
 20
2.800000000001404
 30
0.0
 11
4.004634122155977
 21
2.909536998849176
 31
0.0
  0
ARC
  5
B3
330
2
100
AcDbEntity
  8
GEB-VERDECKT
 48
25.0
100
AcDbCircle
 10
-0.0000000000000284
 20
0.0000000000008242
 30
0.0
 40
5.60000000000007
100
AcDbArc
 50
48.00000000000007
 51
60.00000000000028
  0
LINE
  5
B4
330
2
100
AcDbEntity
  8
GEB-VERDECKT
 48
25.0
100
AcDbLine
 10
2.909536998847755
 20
4.004634122157398
 30
0.0
 11
2.799999999999982
 21
4.849742261194279
 31
0.0
  0
LINE
  5
B5
330
2
100
AcDbEntity
  8
GEB-VERDECKT
 48
25.0
100
AcDbLine
 10
3.747131395609613
 20
4.161611022674804
 30
0.0
 11
2.909536998847755
 21
4.004634122157398
 31
0.0
  0
ARC
  5
B6
330
2
100
AcDbEntity
  8
GEB-VERDECKT
 48
25.0
100
AcDbCircle
 10
0.0000000000000284
 20
0.0000000000009663
 30
0.0
 40
5.599999999999903
100
AcDbArc
 50
66.00000000000088
 51
78.00000000000055
  0
LINE
  5
B7
330
2
100
AcDbEntity
  8
GEB-VERDECKT
 48
25.0
100
AcDbLine
 10
1.529634122155982
 20
4.707729755662427
 30
0.0
 11
1.164305468579442
 21
5.477626564110693
 31
0.0
  0
LINE
  5
B8
330
2
100
AcDbEntity
  8
GEB-VERDECKT
 48
25.0
100
AcDbLine
 10
2.277725201224455
 20
5.115854562799967
 30
0.0
 11
1.529634122155982
 21
4.707729755662427
 31
0.0
  0
CIRCLE
  5
B9
330
2
100
AcDbEntity
  8
GEB-VERDECKT
 48
25.0
100
AcDbCircle
 10
0.0
 20
-0.0000000000011653
 30
0.0
 40
4.199999999999991
  0
ARC
  5
BA
330
2
100
AcDbEntity
  8
GEB-VERDECKT
 48
25.0
100
AcDbCircle
 10
0.0
 20
-0.0000000000008811
 30
0.0
 40
5.200000000000036
100
AcDbArc
 50
74.55073157566089
 51
87.4492684243388
  0
CIRCLE
  5
BB
330
2
100
AcDbEntity
  8
GEB-VERDECKT
 48
25.0
100
AcDbCircle
 10
0.0
 20
0.00000000000216
 30
0.0
 40
4.949999999999989
  0
CIRCLE
  5
BC
330
2
100
AcDbEntity
  8
GEB-VERDECKT
 48
25.0
100
AcDbCircle
 10
0.0
 20
0.000000000002359
 30
0.0
 40
5.349999999999988
  0
CIRCLE
  5
BD
330
2
100
AcDbEntity
  8
GEB-VERDECKT
 48
25.0
100
AcDbCircle
 10
0.0
 20
0.0000000000027285
 30
0.0
 40
5.099999999999988
  0
ARC
  5
BE
330
2
100
AcDbEntity
  8
GEB-VERDECKT
 48
25.0
100
AcDbCircle
 10
-0.0000000000000568
 20
0.0000000000009948
 30
0.0
 40
5.600000000000403
100
AcDbArc
 50
78.00000000000055
 51
83.99999999999993
  0
ARC
  5
BF
330
2
100
AcDbEntity
  8
GEB-VERDECKT
 48
25.0
100
AcDbCircle
 10
0.0000000000000284
 20
0.0000000000012506
 30
0.0
 40
5.600000000000152
100
AcDbArc
 50
96.00000000000008
 51
101.9999999999994
  0
ARC
  5
C0
330
2
100
AcDbEntity
  8
GEB-VERDECKT
 48
25.0
100
AcDbCircle
 10
0.0000000000000853
 20
0.000000000001279
 30
0.0
 40
5.600000000000143
100
AcDbArc
 50
114.0000000000013
 51
119.9999999999997
  0
ARC
  5
C1
330
2
100
AcDbEntity
  8
GEB-VERDECKT
 48
25.0
100
AcDbCircle
 10
-0.0000000000000853
 20
0.0000000000015348
 30
0.0
 40
5.59999999999981
100
AcDbArc
 50
131.9999999999999
 51
138.0
  0
ARC
  5
C2
330
2
100
AcDbEntity
  8
GEB-VERDECKT
 48
25.0
100
AcDbCircle
 10
0.000000000000199
 20
0.0000000000013074
 30
0.0
 40
5.600000000000184
100
AcDbArc
 50
150.0000000000003
 51
156.0000000000009
  0
ARC
  5
C3
330
2
100
AcDbEntity
  8
GEB-VERDECKT
 48
25.0
100
AcDbCircle
 10
-0.000000000000739
 20
0.0000000000015348
 30
0.0
 40
5.599999999999236
100
AcDbArc
 50
167.9999999999986
 51
173.9999999999999
  0
ARC
  5
C4
330
2
100
AcDbEntity
  8
GEB-VERDECKT
 48
25.0
100
AcDbCircle
 10
0.0000000000001137
 20
0.0000000000014495
 30
0.0
 40
5.600000000000113
100
AcDbArc
 50
186.0000000000001
 51
191.9999999999994
  0
ARC
  5
C5
330
2
100
AcDbEntity
  8
GEB-VERDECKT
 48
25.0
100
AcDbCircle
 10
-0.0000000000000568
 20
0.0000000000013358
 30
0.0
 40
5.599999999999893
100
AcDbArc
 50
203.9999999999991
 51
209.9999999999997
  0
ARC
  5
C6
330
2
100
AcDbEntity
  8
GEB-VERDECKT
 48
25.0
100
AcDbCircle
 10
-0.0000000000000284
 20
0.0000000000013927
 30
0.0
 40
5.59999999999995
100
AcDbArc
 50
221.9999999999999
 51
228.0000000000001
  0
ARC
  5
C7
330
2
100
AcDbEntity
  8
GEB-VERDECKT
 48
25.0
100
AcDbCircle
 10
-0.0000000000001705
 20
0.0000000000011084
 30
0.0
 40
5.599999999999637
100
AcDbArc
 50
240.0000000000003
 51
246.0000000000009
  0
ARC
  5
C8
330
2
100
AcDbEntity
  8
GEB-VERDECKT
 48
25.0
100
AcDbCircle
 10
0.0
 20
0.0000000000014495
 30
0.0
 40
5.600000000000031
100
AcDbArc
 50
258.0000000000006
 51
263.9999999999999
  0
ARC
  5
C9
330
2
100
AcDbEntity
  8
GEB-VERDECKT
 48
25.0
100
AcDbCircle
 10
0.0
 20
0.0000000000013927
 30
0.0
 40
5.599999999999943
100
AcDbArc
 50
276.0000000000001
 51
282.0000000000014
  0
ARC
  5
CA
330
2
100
AcDbEntity
  8
GEB-VERDECKT
 48
25.0
100
AcDbCircle
 10
-0.0000000000000284
 20
0.0000000000014495
 30
0.0
 40
5.600000000000036
100
AcDbArc
 50
293.9999999999991
 51
299.9999999999997
  0
ARC
  5
CB
330
2
100
AcDbEntity
  8
GEB-VERDECKT
 48
25.0
100
AcDbCircle
 10
-0.0000000000003411
 20
0.0000000000017337
 30
0.0
 40
5.600000000000466
100
AcDbArc
 50
312.0
 51
318.0000000000001
  0
ARC
  5
CC
330
2
100
AcDbEntity
  8
GEB-VERDECKT
 48
25.0
100
AcDbCircle
 10
-0.0000000000004832
 20
0.0000000000016769
 30
0.0
 40
5.60000000000056
100
AcDbArc
 50
330.0000000000003
 51
335.9999999999987
  0
ARC
  5
CD
330
2
100
AcDbEntity
  8
GEB-VERDECKT
 48
25.0
100
AcDbCircle
 10
-0.0000000000000284
 20
0.0000000000014211
 30
0.0
 40
5.60000000000003
100
AcDbArc
 50
348.0000000000006
 51
353.9999999999999
  0
ARC
  5
CE
330
2
100
AcDbEntity
  8
GEB-VERDECKT
 48
25.0
100
AcDbCircle
 10
0.0000000000002274
 20
0.0000000000014495
 30
0.0
 40
5.599999999999774
100
AcDbArc
 50
6.000000000000078
 51
11.99999999999979
  0
ARC
  5
CF
330
2
100
AcDbEntity
  8
GEB-VERDECKT
 48
25.0
100
AcDbCircle
 10
-0.0000000000002558
 20
0.000000000001279
 30
0.0
 40
5.600000000000278
100
AcDbArc
 50
23.99999999999912
 51
29.99999999999972
  0
ARC
  5
D0
330
2
100
AcDbEntity
  8
GEB-VERDECKT
 48
25.0
100
AcDbCircle
 10
-0.0000000000000284
 20
0.0000000000013358
 30
0.0
 40
5.600000000000056
100
AcDbArc
 50
41.99999999999993
 51
48.00000000000007
  0
ARC
  5
D1
330
2
100
AcDbEntity
  8
GEB-VERDECKT
 48
25.0
100
AcDbCircle
 10
-0.0000000000000853
 20
0.0000000000012506
 30
0.0
 40
5.600000000000172
100
AcDbArc
 50
60.00000000000028
 51
65.99999999999941
  0
ARC
  5
D2
330
2
100
AcDbEntity
  8
GEB-VERDECKT
 48
25.0
100
AcDbCircle
 10
0.0000000000000284
 20
-0.0000000000008242
 30
0.0
 40
5.199999999999938
100
AcDbArc
 50
56.55073157566174
 51
69.44926842433883
  0
ARC
  5
D3
330
2
100
AcDbEntity
  8
GEB-VERDECKT
 48
25.0
100
AcDbCircle
 10
0.0000000000000853
 20
-0.0000000000007674
 30
0.0
 40
5.19999999999991
100
AcDbArc
 50
38.55073157566229
 51
51.44926842433771
  0
ARC
  5
D4
330
2
100
AcDbEntity
  8
GEB-VERDECKT
 48
25.0
100
AcDbCircle
 10
0.0000000000000284
 20
-0.0000000000008242
 30
0.0
 40
5.199999999999961
100
AcDbArc
 50
20.55073157566118
 51
33.44926842433827
  0
ARC
  5
D5
330
2
100
AcDbEntity
  8
GEB-VERDECKT
 48
25.0
100
AcDbCircle
 10
-0.0000000000000568
 20
-0.0000000000008527
 30
0.0
 40
5.200000000000049
100
AcDbArc
 50
2.550731575661206
 51
15.44926842433755
  0
ARC
  5
D6
330
2
100
AcDbEntity
  8
GEB-VERDECKT
 48
25.0
100
AcDbCircle
 10
-0.0000000000000284
 20
-0.0000000000008527
 30
0.0
 40
5.200000000000038
100
AcDbArc
 50
344.5507315756608
 51
357.4492684243387
  0
ARC
  5
D7
330
2
100
AcDbEntity
  8
GEB-VERDECKT
 48
25.0
100
AcDbCircle
 10
0.0000000000000853
 20
-0.0000000000008811
 30
0.0
 40
5.199999999999923
100
AcDbArc
 50
326.5507315756618
 51
339.4492684243388
  0
ARC
  5
D8
330
2
100
AcDbEntity
  8
GEB-VERDECKT
 48
25.0
100
AcDbCircle
 10
-0.0000000000000284
 20
-0.0000000000008242
 30
0.0
 40
5.200000000000018
100
AcDbArc
 50
308.5507315756623
 51
321.4492684243377
  0
ARC
  5
D9
330
2
100
AcDbEntity
  8
GEB-VERDECKT
 48
25.0
100
AcDbCircle
 10
0.0
 20
-0.0000000000008242
 30
0.0
 40
5.200000000000024
100
AcDbArc
 50
290.5507315756612
 51
303.4492684243383
  0
ARC
  5
DA
330
2
100
AcDbEntity
  8
GEB-VERDECKT
 48
25.0
100
AcDbCircle
 10
0.0
 20
-0.0000000000008527
 30
0.0
 40
5.199999999999979
100
AcDbArc
 50
272.5507315756612
 51
285.4492684243376
  0
ARC
  5
DB
330
2
100
AcDbEntity
  8
GEB-VERDECKT
 48
25.0
100
AcDbCircle
 10
0.0
 20
-0.0000000000007674
 30
0.0
 40
5.200000000000043
100
AcDbArc
 50
254.5507315756625
 51
267.4492684243388
  0
ARC
  5
DC
330
2
100
AcDbEntity
  8
GEB-VERDECKT
 48
25.0
100
AcDbCircle
 10
-0.0000000000000284
 20
-0.0000000000008811
 30
0.0
 40
5.199999999999938
100
AcDbArc
 50
236.5507315756617
 51
249.4492684243388
  0
ARC
  5
DD
330
2
100
AcDbEntity
  8
GEB-VERDECKT
 48
25.0
100
AcDbCircle
 10
0.0
 20
-0.0000000000008527
 30
0.0
 40
5.199999999999994
100
AcDbArc
 50
218.5507315756623
 51
231.4492684243377
  0
ARC
  5
DE
330
2
100
AcDbEntity
  8
GEB-VERDECKT
 48
25.0
100
AcDbCircle
 10
0.0000000000000284
 20
-0.0000000000008242
 30
0.0
 40
5.200000000000036
100
AcDbArc
 50
200.5507315756612
 51
213.4492684243383
  0
ARC
  5
DF
330
2
100
AcDbEntity
  8
GEB-VERDECKT
 48
25.0
100
AcDbCircle
 10
0.0
 20
-0.0000000000008527
 30
0.0
 40
5.199999999999979
100
AcDbArc
 50
182.5507315756612
 51
195.4492684243375
  0
ARC
  5
E0
330
2
100
AcDbEntity
  8
GEB-VERDECKT
 48
25.0
100
AcDbCircle
 10
-0.0000000000000853
 20
-0.0000000000008242
 30
0.0
 40
5.199999999999869
100
AcDbArc
 50
164.5507315756608
 51
177.4492684243388
  0
ARC
  5
E1
330
2
100
AcDbEntity
  8
GEB-VERDECKT
 48
25.0
100
AcDbCircle
 10
-0.0000000000000284
 20
-0.0000000000008242
 30
0.0
 40
5.199999999999947
100
AcDbArc
 50
146.5507315756617
 51
159.4492684243388
  0
ARC
  5
E2
330
2
100
AcDbEntity
  8
GEB-VERDECKT
 48
25.0
100
AcDbCircle
 10
0.0
 20
-0.0000000000008242
 30
0.0
 40
5.199999999999973
100
AcDbArc
 50
128.5507315756623
 51
141.4492684243377
  0
ARC
  5
E3
330
2
100
AcDbEntity
  8
GEB-VERDECKT
 48
25.0
100
AcDbCircle
 10
0.0
 20
-0.0000000000008811
 30
0.0
 40
5.200000000000022
100
AcDbArc
 50
110.5507315756611
 51
123.4492684243373
  0
ARC
  5
E4
330
2
100
AcDbEntity
  8
GEB-VERDECKT
 48
25.0
100
AcDbCircle
 10
0.0
 20
-0.0000000000009379
 30
0.0
 40
5.200000000000058
100
AcDbArc
 50
92.55073157566121
 51
105.4492684243375
  0
ARC
  5
E5
330
2
100
AcDbEntity
  8
GEB-VERDECKT
 48
25.0
100
AcDbCircle
 10
0.0
 20
-0.0000000000007105
 30
0.0
 40
5.199999999999852
100
AcDbArc
 50
87.4492684243388
 51
92.55073157566283
  0
ARC
  5
E6
330
2
100
AcDbEntity
  8
GEB-VERDECKT
 48
25.0
100
AcDbCircle
 10
-0.0000000000000284
 20
-0.000000000000739
 30
0.0
 40
5.199999999999899
100
AcDbArc
 50
105.4492684243375
 51
110.5507315756627
  0
ARC
  5
E7
330
2
100
AcDbEntity
  8
GEB-VERDECKT
 48
25.0
100
AcDbCircle
 10
0.0
 20
-0.0000000000008527
 30
0.0
 40
5.2
100
AcDbArc
 50
123.4492684243382
 51
128.5507315756623
  0
ARC
  5
E8
330
2
100
AcDbEntity
  8
GEB-VERDECKT
 48
25.0
100
AcDbCircle
 10
0.0000000000001137
 20
-0.0000000000009379
 30
0.0
 40
5.200000000000101
100
AcDbArc
 50
141.4492684243377
 51
146.5507315756617
  0
ARC
  5
E9
330
2
100
AcDbEntity
  8
GEB-VERDECKT
 48
25.0
100
AcDbCircle
 10
-0.0000000000000853
 20
-0.0000000000008242
 30
0.0
 40
5.199999999999875
100
AcDbArc
 50
159.4492684243388
 51
164.5507315756624
  0
ARC
  5
EA
330
2
100
AcDbEntity
  8
GEB-VERDECKT
 48
25.0
100
AcDbCircle
 10
-0.0000000000002558
 20
-0.0000000000008527
 30
0.0
 40
5.199999999999747
100
AcDbArc
 50
177.4492684243388
 51
182.5507315756612
  0
ARC
  5
EB
330
2
100
AcDbEntity
  8
GEB-VERDECKT
 48
25.0
100
AcDbCircle
 10
-0.0000000000000568
 20
-0.0000000000008811
 30
0.0
 40
5.199999999999906
100
AcDbArc
 50
195.4492684243375
 51
200.5507315756612
  0
ARC
  5
EC
330
2
100
AcDbEntity
  8
GEB-VERDECKT
 48
25.0
100
AcDbCircle
 10
-0.0000000000003695
 20
-0.0000000000011369
 30
0.0
 40
5.199999999999508
100
AcDbArc
 50
213.4492684243383
 51
218.5507315756623
  0
ARC
  5
ED
330
2
100
AcDbEntity
  8
GEB-VERDECKT
 48
25.0
100
AcDbCircle
 10
-0.0000000000001421
 20
-0.0000000000010232
 30
0.0
 40
5.199999999999777
100
AcDbArc
 50
231.4492684243377
 51
236.5507315756617
  0
ARC
  5
EE
330
2
100
AcDbEntity
  8
GEB-VERDECKT
 48
25.0
100
AcDbCircle
 10
-0.0000000000000284
 20
-0.0000000000009663
 30
0.0
 40
5.199999999999882
100
AcDbArc
 50
249.4492684243388
 51
254.5507315756625
  0
ARC
  5
EF
330
2
100
AcDbEntity
  8
GEB-VERDECKT
 48
25.0
100
AcDbCircle
 10
0.0
 20
-0.0000000000011084
 30
0.0
 40
5.199999999999747
100
AcDbArc
 50
267.4492684243388
 51
272.5507315756612
  0
ARC
  5
F0
330
2
100
AcDbEntity
  8
GEB-VERDECKT
 48
25.0
100
AcDbCircle
 10
0.0000000000000284
 20
-0.0000000000009379
 30
0.0
 40
5.199999999999903
100
AcDbArc
 50
285.4492684243376
 51
290.5507315756612
  0
ARC
  5
F1
330
2
100
AcDbEntity
  8
GEB-VERDECKT
 48
25.0
100
AcDbCircle
 10
0.0000000000000284
 20
-0.0000000000008811
 30
0.0
 40
5.199999999999926
100
AcDbArc
 50
303.4492684243383
 51
308.5507315756623
  0
ARC
  5
F2
330
2
100
AcDbEntity
  8
GEB-VERDECKT
 48
25.0
100
AcDbCircle
 10
0.0000000000001137
 20
-0.0000000000009379
 30
0.0
 40
5.199999999999866
100
AcDbArc
 50
321.4492684243377
 51
326.5507315756618
  0
ARC
  5
F3
330
2
100
AcDbEntity
  8
GEB-VERDECKT
 48
25.0
100
AcDbCircle
 10
-0.0000000000003695
 20
-0.0000000000007105
 30
0.0
 40
5.200000000000407
100
AcDbArc
 50
339.4492684243388
 51
344.5507315756624
  0
ARC
  5
F4
330
2
100
AcDbEntity
  8
GEB-VERDECKT
 48
25.0
100
AcDbCircle
 10
0.0000000000002558
 20
-0.0000000000008527
 30
0.0
 40
5.199999999999747
100
AcDbArc
 50
357.4492684243387
 51
2.550731575661206
  0
ARC
  5
F5
330
2
100
AcDbEntity
  8
GEB-VERDECKT
 48
25.0
100
AcDbCircle
 10
0.0000000000000853
 20
-0.0000000000008242
 30
0.0
 40
5.199999999999908
100
AcDbArc
 50
15.44926842433755
 51
20.55073157566118
  0
ARC
  5
F6
330
2
100
AcDbEntity
  8
GEB-VERDECKT
 48
25.0
100
AcDbCircle
 10
0.0
 20
-0.0000000000008527
 30
0.0
 40
5.199999999999969
100
AcDbArc
 50
33.44926842433827
 51
38.55073157566229
  0
ARC
  5
F7
330
2
100
AcDbEntity
  8
GEB-VERDECKT
 48
25.0
100
AcDbCircle
 10
0.0000000000001421
 20
-0.0000000000005969
 30
0.0
 40
5.199999999999713
100
AcDbArc
 50
51.44926842433771
 51
56.55073157566174
  0
ARC
  5
F8
330
2
100
AcDbEntity
  8
GEB-VERDECKT
 48
25.0
100
AcDbCircle
 10
-0.0000000000001421
 20
-0.0000000000012506
 30
0.0
 40
5.200000000000413
100
AcDbArc
 50
69.44926842433883
 51
74.55073157566089
  0
ARC
  5
F9
330
2
100
AcDbEntity
  8
GEB-VERDECKT
 48
25.0
100
AcDbCircle
 10
-47.59999999999999
 20
-4.63563985246165
 30
0.0
 40
0.4000000000000002
100
AcDbArc
 50
100.0000000000002
 51
180.0
  0
ARC
  5
FA
330
2
100
AcDbEntity
  8
GEB-VERDECKT
 48
25.0
100
AcDbCircle
 10
-47.59999999999999
 20
4.635639852480181
 30
0.0
 40
0.4000000000000001
100
AcDbArc
 50
180.0
 51
259.9999999999998
  0
LINE
  5
FB
330
2
100
AcDbEntity
  8
GEB-VERDECKT
 48
25.0
100
AcDbLine
 10
-22.00000000000003
 20
3.250000000009265
 30
0.0
 11
-42.04515408940141
 21
3.250000000009265
 31
0.0
  0
LINE
  5
FC
330
2
100
AcDbEntity
  8
GEB-VERDECKT
 48
25.0
100
AcDbLine
 10
-22.00000000000003
 20
-3.249999999990706
 30
0.0
 11
-42.04515408940141
 21
-3.249999999990706
 31
0.0
  0
LINE
  5
FD
330
2
100
AcDbEntity
  8
GEB-VERDECKT
 48
25.0
100
AcDbLine
 10
-42.04515408940141
 20
3.250000000009265
 30
0.0
 11
-47.66945927106678
 21
4.241716751275276
 31
0.0
  0
LINE
  5
FE
330
2
100
AcDbEntity
  8
GEB-VERDECKT
 48
25.0
100
AcDbLine
 10
-42.04515408940141
 20
-3.249999999990706
 30
0.0
 11
-47.66945927106678
 21
-4.241716751256745
 31
0.0
  0
LINE
  5
FF
330
2
100
AcDbEntity
  8
GEB-VERDECKT
 48
25.0
100
AcDbLine
 10
-42.04515408940141
 20
3.250000000009265
 30
0.0
 11
-42.04515408940141
 21
-3.249999999990706
 31
0.0
  0
LINE
  5
100
330
2
100
AcDbEntity
  8
GEB-VERDECKT
 48
25.0
100
AcDbLine
 10
-26.50000000000003
 20
0.000000000010715
 30
0.0
 11
-28.30000000000001
 21
0.000000000010715
 31
0.0
  0
LINE
  5
101
330
2
100
AcDbEntity
  8
GEB-VERDECKT
 48
25.0
100
AcDbLine
 10
-26.50000000000003
 20
0.5853593943097906
 30
0.0
 11
-26.50000000000003
 21
0.000000000010715
 31
0.0
  0
LINE
  5
102
330
2
100
AcDbEntity
  8
GEB-VERDECKT
 48
25.0
100
AcDbLine
 10
-26.50000000000003
 20
0.000000000010715
 30
0.0
 11
-26.50000000000003
 21
-0.5853593942879343
 31
0.0
  0
LINE
  5
103
330
2
100
AcDbEntity
  8
GEB-VERDECKT
 48
25.0
100
AcDbLine
 10
-28.30000000000001
 20
0.5853593943097906
 30
0.0
 11
-26.50000000000003
 21
0.5853593943097906
 31
0.0
  0
LINE
  5
104
330
2
100
AcDbEntity
  8
GEB-VERDECKT
 48
25.0
100
AcDbLine
 10
-28.30000000000001
 20
0.5853593943097906
 30
0.0
 11
-28.30000000000001
 21
-0.5853593942879343
 31
0.0
  0
LINE
  5
105
330
2
100
AcDbEntity
  8
GEB-VERDECKT
 48
25.0
100
AcDbLine
 10
-26.50000000000003
 20
-0.5853593942879343
 30
0.0
 11
-28.30000000000001
 21
-0.5853593942879343
 31
0.0
  0
LINE
  5
106
330
2
100
AcDbEntity
  8
GEB-VERDECKT
 48
25.0
100
AcDbLine
 10
-28.30000000000001
 20
-1.164305468568528
 30
0.0
 11
-28.30000000000001
 21
-2.277725201213712
 31
0.0
  0
LINE
  5
107
330
2
100
AcDbEntity
  8
GEB-VERDECKT
 48
25.0
100
AcDbLine
 10
-26.50000000000003
 20
-1.529634122145324
 30
0.0
 11
-26.50000000000003
 21
-2.277725201213712
 31
0.0
  0
LINE
  5
108
330
2
100
AcDbEntity
  8
GEB-VERDECKT
 48
25.0
100
AcDbLine
 10
-26.50000000000003
 20
-2.277725201213712
 30
0.0
 11
-28.30000000000001
 21
-2.277725201213712
 31
0.0
  0
LINE
  5
109
330
2
100
AcDbEntity
  8
GEB-VERDECKT
 48
25.0
100
AcDbLine
 10
-28.30000000000001
 20
-1.164305468568528
 30
0.0
 11
-26.50000000000003
 21
-1.164305468568528
 31
0.0
  0
LINE
  5
10A
330
2
100
AcDbEntity
  8
GEB-VERDECKT
 48
25.0
100
AcDbLine
 10
-26.50000000000003
 20
-1.164305468568528
 30
0.0
 11
-26.50000000000003
 21
-1.529634122145324
 31
0.0
  0
LINE
  5
10B
330
2
100
AcDbEntity
  8
GEB-VERDECKT
 48
25.0
100
AcDbLine
 10
-26.50000000000003
 20
-1.529634122145324
 30
0.0
 11
-28.30000000000001
 21
-1.529634122145324
 31
0.0
  0
LINE
  5
10C
330
2
100
AcDbEntity
  8
GEB-VERDECKT
 48
25.0
100
AcDbLine
 10
-28.30000000000001
 20
-2.799999999989296
 30
0.0
 11
-28.30000000000001
 21
-3.747131395599097
 31
0.0
  0
LINE
  5
10D
330
2
100
AcDbEntity
  8
GEB-VERDECKT
 48
25.0
100
AcDbLine
 10
-26.50000000000003
 20
-2.909536998837296
 30
0.0
 11
-26.50000000000003
 21
-3.747131395599097
 31
0.0
  0
LINE
  5
10E
330
2
100
AcDbEntity
  8
GEB-VERDECKT
 48
25.0
100
AcDbLine
 10
-26.50000000000003
 20
-3.747131395599097
 30
0.0
 11
-28.30000000000001
 21
-3.747131395599097
 31
0.0
  0
LINE
  5
10F
330
2
100
AcDbEntity
  8
GEB-VERDECKT
 48
25.0
100
AcDbLine
 10
-28.30000000000001
 20
-2.799999999989296
 30
0.0
 11
-26.50000000000003
 21
-2.799999999989296
 31
0.0
  0
LINE
  5
110
330
2
100
AcDbEntity
  8
GEB-VERDECKT
 48
25.0
100
AcDbLine
 10
-26.50000000000003
 20
-2.799999999989296
 30
0.0
 11
-26.50000000000003
 21
-2.909536998837296
 31
0.0
  0
LINE
  5
111
330
2
100
AcDbEntity
  8
GEB-VERDECKT
 48
25.0
100
AcDbLine
 10
-26.50000000000003
 20
-2.909536998837296
 30
0.0
 11
-28.30000000000001
 21
-2.909536998837296
 31
0.0
  0
LINE
  5
112
330
2
100
AcDbEntity
  8
GEB-VERDECKT
 48
25.0
100
AcDbLine
 10
-28.30000000000001
 20
-4.161611022663009
 30
0.0
 11
-28.30000000000001
 21
-4.84974226118274
 31
0.0
  0
LINE
  5
113
330
2
100
AcDbEntity
  8
GEB-VERDECKT
 48
25.0
100
AcDbLine
 10
-26.50000000000003
 20
-4.161611022663294
 30
0.0
 11
-26.50000000000003
 21
-4.84974226118274
 31
0.0
  0
LINE
  5
114
330
2
100
AcDbEntity
  8
GEB-VERDECKT
 48
25.0
100
AcDbLine
 10
-26.50000000000003
 20
-4.84974226118274
 30
0.0
 11
-28.30000000000001
 21
-4.84974226118274
 31
0.0
  0
LINE
  5
115
330
2
100
AcDbEntity
  8
GEB-VERDECKT
 48
25.0
100
AcDbLine
 10
-28.30000000000001
 20
-4.161611022663009
 30
0.0
 11
-26.50000000000003
 21
-4.161611022663009
 31
0.0
  0
LINE
  5
116
330
2
100
AcDbEntity
  8
GEB-VERDECKT
 48
25.0
100
AcDbLine
 10
-26.50000000000003
 20
-4.004634122145859
 30
0.0
 11
-28.30000000000001
 21
-4.004634122145859
 31
0.0
  0
LINE
  5
117
330
2
100
AcDbEntity
  8
GEB-VERDECKT
 48
25.0
100
AcDbLine
 10
-28.30000000000001
 20
-4.004634122145859
 30
0.0
 11
-28.30000000000001
 21
-4.161611022663009
 31
0.0
  0
LINE
  5
118
330
2
100
AcDbEntity
  8
GEB-VERDECKT
 48
25.0
100
AcDbLine
 10
-28.30000000000001
 20
-5.115854562788598
 30
0.0
 11
-28.30000000000001
 21
-5.477626564099693
 31
0.0
  0
LINE
  5
119
330
2
100
AcDbEntity
  8
GEB-VERDECKT
 48
25.0
100
AcDbLine
 10
-26.50000000000003
 20
-5.115854562788911
 30
0.0
 11
-26.50000000000003
 21
-5.477626564099693
 31
0.0
  0
LINE
  5
11A
330
2
100
AcDbEntity
  8
GEB-VERDECKT
 48
25.0
100
AcDbLine
 10
-26.50000000000003
 20
-5.477626564099693
 30
0.0
 11
-28.30000000000001
 21
-5.477626564099693
 31
0.0
  0
LINE
  5
11B
330
2
100
AcDbEntity
  8
GEB-VERDECKT
 48
25.0
100
AcDbLine
 10
-28.30000000000001
 20
-5.115854562788626
 30
0.0
 11
-26.50000000000003
 21
-5.115854562788626
 31
0.0
  0
LINE
  5
11C
330
2
100
AcDbEntity
  8
GEB-VERDECKT
 48
25.0
100
AcDbLine
 10
-26.50000000000003
 20
-4.707729755651286
 30
0.0
 11
-28.30000000000001
 21
-4.707729755651286
 31
0.0
  0
LINE
  5
11D
330
2
100
AcDbEntity
  8
GEB-VERDECKT
 48
25.0
100
AcDbLine
 10
-28.30000000000001
 20
-4.849742261183024
 30
0.0
 11
-28.30000000000001
 21
-5.115854562788626
 31
0.0
  0
LINE
  5
11E
330
2
100
AcDbEntity
  8
GEB-VERDECKT
 48
25.0
100
AcDbLine
 10
-28.30000000000001
 20
-5.569322614052907
 30
0.0
 11
-28.30000000000001
 21
-5.599999999990728
 31
0.0
  0
LINE
  5
11F
330
2
100
AcDbEntity
  8
GEB-VERDECKT
 48
25.0
100
AcDbLine
 10
-28.30000000000001
 20
-5.569322614052907
 30
0.0
 11
-26.50000000000003
 21
-5.569322614052907
 31
0.0
  0
LINE
  5
120
330
2
100
AcDbEntity
  8
GEB-VERDECKT
 48
25.0
100
AcDbLine
 10
-26.50000000000003
 20
-4.949999999990751
 30
0.0
 11
-28.30000000000001
 21
-4.949999999990751
 31
0.0
  0
LINE
  5
121
330
2
100
AcDbEntity
  8
GEB-VERDECKT
 48
25.0
100
AcDbLine
 10
-28.30000000000001
 20
-5.477626564099892
 30
0.0
 11
-28.30000000000001
 21
-5.569322614052907
 31
0.0
  0
LINE
  5
122
330
2
100
AcDbEntity
  8
GEB-VERDECKT
 48
25.0
100
AcDbLine
 10
-28.30000000000001
 20
5.600000000009288
 30
0.0
 11
-28.30000000000001
 21
5.569322614071808
 31
0.0
  0
LINE
  5
123
330
2
100
AcDbEntity
  8
GEB-VERDECKT
 48
25.0
100
AcDbLine
 10
-26.50000000000003
 20
5.569322614071751
 30
0.0
 11
-28.30000000000001
 21
5.569322614071751
 31
0.0
  0
LINE
  5
124
330
2
100
AcDbEntity
  8
GEB-VERDECKT
 48
25.0
100
AcDbLine
 10
-28.30000000000001
 20
5.569322614071751
 30
0.0
 11
-28.30000000000001
 21
5.477626564118736
 31
0.0
  0
LINE
  5
125
330
2
100
AcDbEntity
  8
GEB-VERDECKT
 48
25.0
100
AcDbLine
 10
-26.50000000000003
 20
4.950000000009282
 30
0.0
 11
-28.30000000000001
 21
4.950000000009282
 31
0.0
  0
LINE
  5
126
330
2
100
AcDbEntity
  8
GEB-VERDECKT
 48
25.0
100
AcDbLine
 10
-28.30000000000001
 20
5.477626564118935
 30
0.0
 11
-28.30000000000001
 21
5.115854562808522
 31
0.0
  0
LINE
  5
127
330
2
100
AcDbEntity
  8
GEB-VERDECKT
 48
25.0
100
AcDbLine
 10
-26.50000000000003
 20
5.115854562808522
 30
0.0
 11
-28.30000000000001
 21
5.115854562808522
 31
0.0
  0
LINE
  5
128
330
2
100
AcDbEntity
  8
GEB-VERDECKT
 48
25.0
100
AcDbLine
 10
-28.30000000000001
 20
5.115854562808522
 30
0.0
 11
-28.30000000000001
 21
4.849742261202635
 31
0.0
  0
LINE
  5
129
330
2
100
AcDbEntity
  8
GEB-VERDECKT
 48
25.0
100
AcDbLine
 10
-28.30000000000001
 20
5.477626564118935
 30
0.0
 11
-26.50000000000003
 21
5.477626564118935
 31
0.0
  0
LINE
  5
12A
330
2
100
AcDbEntity
  8
GEB-VERDECKT
 48
25.0
100
AcDbLine
 10
-26.50000000000003
 20
5.477626564118935
 30
0.0
 11
-26.50000000000003
 21
5.115854562808237
 31
0.0
  0
LINE
  5
12B
330
2
100
AcDbEntity
  8
GEB-VERDECKT
 48
25.0
100
AcDbLine
 10
-26.50000000000003
 20
4.707729755670726
 30
0.0
 11
-28.30000000000001
 21
4.707729755670726
 31
0.0
  0
LINE
  5
12C
330
2
100
AcDbEntity
  8
GEB-VERDECKT
 48
25.0
100
AcDbLine
 10
-28.30000000000001
 20
4.849742261202976
 30
0.0
 11
-28.30000000000001
 21
4.161611022683786
 31
0.0
  0
LINE
  5
12D
330
2
100
AcDbEntity
  8
GEB-VERDECKT
 48
25.0
100
AcDbLine
 10
-26.50000000000003
 20
4.161611022683786
 30
0.0
 11
-28.30000000000001
 21
4.161611022683786
 31
0.0
  0
LINE
  5
12E
330
2
100
AcDbEntity
  8
GEB-VERDECKT
 48
25.0
100
AcDbLine
 10
-28.30000000000001
 20
4.161611022683786
 30
0.0
 11
-28.30000000000001
 21
4.004634122166123
 31
0.0
  0
LINE
  5
12F
330
2
100
AcDbEntity
  8
GEB-VERDECKT
 48
25.0
100
AcDbLine
 10
-28.30000000000001
 20
4.849742261202976
 30
0.0
 11
-26.50000000000003
 21
4.849742261202976
 31
0.0
  0
LINE
  5
130
330
2
100
AcDbEntity
  8
GEB-VERDECKT
 48
25.0
100
AcDbLine
 10
-26.50000000000003
 20
4.849742261202976
 30
0.0
 11
-26.50000000000003
 21
4.161611022683558
 31
0.0
  0
LINE
  5
131
330
2
100
AcDbEntity
  8
GEB-VERDECKT
 48
25.0
100
AcDbLine
 10
-26.50000000000003
 20
4.004634122166123
 30
0.0
 11
-28.30000000000001
 21
4.004634122166123
 31
0.0
  0
LINE
  5
132
330
2
100
AcDbEntity
  8
GEB-VERDECKT
 48
25.0
100
AcDbLine
 10
-28.30000000000001
 20
3.747131395620129
 30
0.0
 11
-28.30000000000001
 21
2.800000000010726
 31
0.0
  0
LINE
  5
133
330
2
100
AcDbEntity
  8
GEB-VERDECKT
 48
25.0
100
AcDbLine
 10
-26.50000000000003
 20
2.909536998858186
 30
0.0
 11
-26.50000000000003
 21
2.800000000010697
 31
0.0
  0
LINE
  5
134
330
2
100
AcDbEntity
  8
GEB-VERDECKT
 48
25.0
100
AcDbLine
 10
-26.50000000000003
 20
2.800000000010697
 30
0.0
 11
-28.30000000000001
 21
2.800000000010697
 31
0.0
  0
LINE
  5
135
330
2
100
AcDbEntity
  8
GEB-VERDECKT
 48
25.0
100
AcDbLine
 10
-28.30000000000001
 20
3.747131395620129
 30
0.0
 11
-26.50000000000003
 21
3.747131395620129
 31
0.0
  0
LINE
  5
136
330
2
100
AcDbEntity
  8
GEB-VERDECKT
 48
25.0
100
AcDbLine
 10
-26.50000000000003
 20
3.747131395620129
 30
0.0
 11
-26.50000000000003
 21
2.909536998858186
 31
0.0
  0
LINE
  5
137
330
2
100
AcDbEntity
  8
GEB-VERDECKT
 48
25.0
100
AcDbLine
 10
-26.50000000000003
 20
2.909536998858186
 30
0.0
 11
-28.30000000000001
 21
2.909536998858186
 31
0.0
  0
LINE
  5
138
330
2
100
AcDbEntity
  8
GEB-VERDECKT
 48
25.0
100
AcDbLine
 10
-28.30000000000001
 20
2.277725201235313
 30
0.0
 11
-28.30000000000001
 21
1.164305468590356
 31
0.0
  0
LINE
  5
139
330
2
100
AcDbEntity
  8
GEB-VERDECKT
 48
25.0
100
AcDbLine
 10
-26.50000000000003
 20
1.529634122166669
 30
0.0
 11
-26.50000000000003
 21
1.164305468590356
 31
0.0
  0
LINE
  5
13A
330
2
100
AcDbEntity
  8
GEB-VERDECKT
 48
25.0
100
AcDbLine
 10
-26.50000000000003
 20
1.164305468590356
 30
0.0
 11
-28.30000000000001
 21
1.164305468590356
 31
0.0
  0
LINE
  5
13B
330
2
100
AcDbEntity
  8
GEB-VERDECKT
 48
25.0
100
AcDbLine
 10
-28.30000000000001
 20
2.277725201235256
 30
0.0
 11
-26.50000000000003
 21
2.277725201235256
 31
0.0
  0
LINE
  5
13C
330
2
100
AcDbEntity
  8
GEB-VERDECKT
 48
25.0
100
AcDbLine
 10
-26.50000000000003
 20
2.277725201235256
 30
0.0
 11
-26.50000000000003
 21
1.529634122166669
 31
0.0
  0
LINE
  5
13D
330
2
100
AcDbEntity
  8
GEB-VERDECKT
 48
25.0
100
AcDbLine
 10
-26.50000000000003
 20
1.529634122166669
 30
0.0
 11
-28.30000000000001
 21
1.529634122166669
 31
0.0
  0
ARC
  5
13E
330
2
100
AcDbEntity
  8
GEB-VERDECKT
 48
25.0
100
AcDbCircle
 10
-42.69999999999998
 20
8.300000000009305
 30
0.0
 40
3.399999999999998
100
AcDbArc
 50
232.5719944569567
 51
307.4280055430433
  0
ARC
  5
13F
330
2
100
AcDbEntity
  8
GEB-VERDECKT
 48
25.0
100
AcDbCircle
 10
-42.69999999999998
 20
-8.299999999990745
 30
0.0
 40
3.399999999999998
100
AcDbArc
 50
52.57199445695672
 51
127.4280055430432
  0
LINE
  5
140
330
2
100
AcDbEntity
  8
GEB-VERDECKT
 48
25.0
100
AcDbLine
 10
-44.76639783197717
 20
5.600000000009259
 30
0.0
 11
-44.76639783197717
 21
-5.599999999990728
 31
0.0
  0
LINE
  5
141
330
2
100
AcDbEntity
  8
GEB-VERDECKT
 48
25.0
100
AcDbLine
 10
-40.63360216802283
 20
-5.599999999990728
 30
0.0
 11
-40.63360216802283
 21
5.600000000009259
 31
0.0
  0
LINE
  5
142
330
2
100
AcDbEntity
  8
GEB-VERDECKT
 48
25.0
100
AcDbLine
 10
-37.20000000000002
 20
-4.199999999990751
 30
0.0
 11
-35.20000000000002
 21
-4.199999999990751
 31
0.0
  0
LINE
  5
143
330
2
100
AcDbEntity
  8
GEB-VERDECKT
 48
25.0
100
AcDbLine
 10
-37.20000000000002
 20
4.200000000009282
 30
0.0
 11
-35.20000000000002
 21
4.200000000009282
 31
0.0
  0
LINE
  5
144
330
2
100
AcDbEntity
  8
GEB-VERDECKT
 48
25.0
100
AcDbLine
 10
-35.20000000000002
 20
-5.199999999990723
 30
0.0
 11
-34.10000000000002
 21
-5.199999999990723
 31
0.0
  0
LINE
  5
145
330
2
100
AcDbEntity
  8
GEB-VERDECKT
 48
25.0
100
AcDbLine
 10
-35.20000000000002
 20
5.200000000009282
 30
0.0
 11
-34.10000000000002
 21
5.200000000009282
 31
0.0
  0
LINE
  5
146
330
2
100
AcDbEntity
  8
GEB-VERDECKT
 48
25.0
100
AcDbLine
 10
-26.50000000000003
 20
-4.949999999990751
 30
0.0
 11
-25.47125920269687
 21
-4.949999999990751
 31
0.0
  0
LINE
  5
147
330
2
100
AcDbEntity
  8
GEB-VERDECKT
 48
25.0
100
AcDbLine
 10
-26.50000000000003
 20
4.950000000009282
 30
0.0
 11
-25.47125920269687
 21
4.950000000009282
 31
0.0
  0
LINE
  5
148
330
2
100
AcDbEntity
  8
GEB-VERDECKT
 48
25.0
100
AcDbLine
 10
-25.47125920269687
 20
-4.949999999990751
 30
0.0
 11
-24.90000000000001
 21
-5.349999999990728
 31
0.0
  0
LINE
  5
149
330
2
100
AcDbEntity
  8
GEB-VERDECKT
 48
25.0
100
AcDbLine
 10
-25.47125920269687
 20
4.950000000009282
 30
0.0
 11
-24.90000000000006
 21
5.350000000009259
 31
0.0
  0
LINE
  5
14A
330
2
100
AcDbEntity
  8
GEB-VERDECKT
 48
25.0
100
AcDbLine
 10
-24.90000000000001
 20
-4.949999999990751
 30
0.0
 11
-23.97125920269687
 21
-4.949999999990751
 31
0.0
  0
LINE
  5
14B
330
2
100
AcDbEntity
  8
GEB-VERDECKT
 48
25.0
100
AcDbLine
 10
-24.90000000000001
 20
4.950000000009282
 30
0.0
 11
-23.97125920269687
 21
4.950000000009282
 31
0.0
  0
LINE
  5
14C
330
2
100
AcDbEntity
  8
GEB-VERDECKT
 48
25.0
100
AcDbLine
 10
-23.97125920269687
 20
-4.949999999990751
 30
0.0
 11
-23.40000000000003
 21
-5.349999999990728
 31
0.0
  0
LINE
  5
14D
330
2
100
AcDbEntity
  8
GEB-VERDECKT
 48
25.0
100
AcDbLine
 10
-23.97125920269687
 20
4.950000000009282
 30
0.0
 11
-23.40000000000003
 21
5.350000000009259
 31
0.0
  0
LINE
  5
14E
330
2
100
AcDbEntity
  8
GEB-VERDECKT
 48
25.0
100
AcDbLine
 10
-23.40000000000003
 20
-5.099999999990728
 30
0.0
 11
-22.00000000000003
 21
-5.099999999990728
 31
0.0
  0
LINE
  5
14F
330
2
100
AcDbEntity
  8
GEB-VERDECKT
 48
25.0
100
AcDbLine
 10
-23.40000000000003
 20
5.100000000009288
 30
0.0
 11
-22.00000000000003
 21
5.100000000009288
 31
0.0
  0
ARC
  5
150
330
2
100
AcDbEntity
  8
GEB-VERDECKT
 48
25.0
100
AcDbCircle
 10
-47.59999999999999
 20
4.911706186121421
 30
0.0
 40
0.4000000000000002
100
AcDbArc
 50
100.0000000000002
 51
180.0
  0
ARC
  5
151
330
2
100
AcDbEntity
  8
GEB-VERDECKT
 48
25.0
100
AcDbCircle
 10
-47.59999999999999
 20
-4.911706186102861
 30
0.0
 40
0.4000000000000001
100
AcDbArc
 50
180.0
 51
259.9999999999998
  0
LINE
  5
152
330
2
100
AcDbEntity
  8
GEB-VERDECKT
 48
25.0
100
AcDbLine
 10
-47.66945927106678
 20
-5.305629287307766
 30
0.0
 11
-46.0
 21
-5.599999999990728
 31
0.0
  0
LINE
  5
153
330
2
100
AcDbEntity
  8
GEB-VERDECKT
 48
25.0
100
AcDbLine
 10
-47.66945927106678
 20
5.305629287326325
 30
0.0
 11
-46.0
 21
5.600000000009259
 31
0.0
  0
LINE
  5
154
330
2
100
AcDbEntity
  8
GEB-VERDECKT
 48
25.0
100
AcDbLine
 10
-40.63360216802283
 20
-5.599999999990728
 30
0.0
 11
-38.30000000000001
 21
-5.599999999990728
 31
0.0
  0
LINE
  5
155
330
2
100
AcDbEntity
  8
GEB-VERDECKT
 48
25.0
100
AcDbLine
 10
-40.63360216802283
 20
5.600000000009259
 30
0.0
 11
-38.30000000000001
 21
5.600000000009259
 31
0.0
  0
LINE
  5
156
330
2
100
AcDbEntity
  8
GEB-VERDECKT
 48
25.0
100
AcDbLine
 10
-38.30000000000001
 20
-5.199999999990723
 30
0.0
 11
-37.20000000000002
 21
-5.199999999990723
 31
0.0
  0
LINE
  5
157
330
2
100
AcDbEntity
  8
GEB-VERDECKT
 48
25.0
100
AcDbLine
 10
-38.30000000000001
 20
5.200000000009282
 30
0.0
 11
-37.20000000000002
 21
5.200000000009282
 31
0.0
  0
LINE
  5
158
330
2
100
AcDbEntity
  8
GEB-VERDECKT
 48
25.0
100
AcDbLine
 10
-32.30000000000004
 20
-5.599999999990728
 30
0.0
 11
-28.30000000000001
 21
-5.599999999990728
 31
0.0
  0
LINE
  5
159
330
2
100
AcDbEntity
  8
GEB-VERDECKT
 48
25.0
100
AcDbLine
 10
-32.30000000000004
 20
5.600000000009259
 30
0.0
 11
-28.30000000000001
 21
5.600000000009259
 31
0.0
  0
LINE
  5
15A
330
2
100
AcDbEntity
  8
GEB-VERDECKT
 48
25.0
100
AcDbLine
 10
-46.0
 20
-5.599999999990728
 30
0.0
 11
-44.76639783197717
 21
-5.599999999990728
 31
0.0
  0
LINE
  5
15B
330
2
100
AcDbEntity
  8
GEB-VERDECKT
 48
25.0
100
AcDbLine
 10
-46.0
 20
5.600000000009259
 30
0.0
 11
-44.76639783197717
 21
5.600000000009259
 31
0.0
  0
LINE
  5
15C
330
2
100
AcDbEntity
  8
GEB-VERDECKT
 48
25.0
100
AcDbLine
 10
-35.20000000000002
 20
-5.199999999990723
 30
0.0
 11
-35.20000000000002
 21
5.200000000009282
 31
0.0
  0
LINE
  5
15D
330
2
100
AcDbEntity
  8
GEB-VERDECKT
 48
25.0
100
AcDbLine
 10
-25.47125920269687
 20
-4.949999999990751
 30
0.0
 11
-25.47125920269687
 21
4.950000000009282
 31
0.0
  0
LINE
  5
15E
330
2
100
AcDbEntity
  8
GEB-VERDECKT
 48
25.0
100
AcDbLine
 10
-24.90000000000001
 20
-5.349999999990728
 30
0.0
 11
-24.90000000000001
 21
5.350000000009259
 31
0.0
  0
LINE
  5
15F
330
2
100
AcDbEntity
  8
GEB-VERDECKT
 48
25.0
100
AcDbLine
 10
-23.97125920269687
 20
-4.949999999990751
 30
0.0
 11
-23.97125920269687
 21
4.950000000009282
 31
0.0
  0
LINE
  5
160
330
2
100
AcDbEntity
  8
GEB-VERDECKT
 48
25.0
100
AcDbLine
 10
-23.40000000000003
 20
-5.349999999990728
 30
0.0
 11
-23.40000000000003
 21
5.350000000009259
 31
0.0
  0
LINE
  5
161
330
2
100
AcDbEntity
  8
GEB-VERDECKT
 48
25.0
100
AcDbLine
 10
-48.0
 20
4.911706186121421
 30
0.0
 11
-48.0
 21
-4.911706186102861
 31
0.0
  0
LINE
  5
162
330
2
100
AcDbEntity
  8
GEB-VERDECKT
 48
25.0
100
AcDbLine
 10
-38.30000000000001
 20
-5.599999999990728
 30
0.0
 11
-38.30000000000001
 21
5.600000000009259
 31
0.0
  0
LINE
  5
163
330
2
100
AcDbEntity
  8
GEB-VERDECKT
 48
25.0
100
AcDbLine
 10
-37.20000000000002
 20
-5.199999999990723
 30
0.0
 11
-37.20000000000002
 21
5.200000000009282
 31
0.0
  0
LINE
  5
164
330
2
100
AcDbEntity
  8
GEB-VERDECKT
 48
25.0
100
AcDbLine
 10
-26.50000000000003
 20
0.5853593943097906
 30
0.0
 11
-26.50000000000003
 21
1.164305468590356
 31
0.0
  0
LINE
  5
165
330
2
100
AcDbEntity
  8
GEB-VERDECKT
 48
25.0
100
AcDbLine
 10
-26.50000000000003
 20
-1.164305468568528
 30
0.0
 11
-26.50000000000003
 21
-0.5853593942879343
 31
0.0
  0
LINE
  5
166
330
2
100
AcDbEntity
  8
GEB-VERDECKT
 48
25.0
100
AcDbLine
 10
-26.50000000000003
 20
-2.799999999989239
 30
0.0
 11
-26.50000000000003
 21
-2.277725201213712
 31
0.0
  0
LINE
  5
167
330
2
100
AcDbEntity
  8
GEB-VERDECKT
 48
25.0
100
AcDbLine
 10
-26.50000000000003
 20
-4.161611022663009
 30
0.0
 11
-26.50000000000003
 21
-3.747131395599097
 31
0.0
  0
LINE
  5
168
330
2
100
AcDbEntity
  8
GEB-VERDECKT
 48
25.0
100
AcDbLine
 10
-26.50000000000003
 20
-5.115854562788626
 30
0.0
 11
-26.50000000000003
 21
-4.84974226118274
 31
0.0
  0
LINE
  5
169
330
2
100
AcDbEntity
  8
GEB-VERDECKT
 48
25.0
100
AcDbLine
 10
-26.50000000000003
 20
-5.569322614052879
 30
0.0
 11
-26.50000000000003
 21
-5.477626564099693
 31
0.0
  0
LINE
  5
16A
330
2
100
AcDbEntity
  8
GEB-VERDECKT
 48
25.0
100
AcDbLine
 10
-26.50000000000003
 20
5.477626564118935
 30
0.0
 11
-26.50000000000003
 21
5.569322614071751
 31
0.0
  0
LINE
  5
16B
330
2
100
AcDbEntity
  8
GEB-VERDECKT
 48
25.0
100
AcDbLine
 10
-26.50000000000003
 20
4.849742261202976
 30
0.0
 11
-26.50000000000003
 21
5.115854562808522
 31
0.0
  0
LINE
  5
16C
330
2
100
AcDbEntity
  8
GEB-VERDECKT
 48
25.0
100
AcDbLine
 10
-26.50000000000003
 20
3.747131395620129
 30
0.0
 11
-26.50000000000003
 21
4.161611022683786
 31
0.0
  0
LINE
  5
16D
330
2
100
AcDbEntity
  8
GEB-VERDECKT
 48
25.0
100
AcDbLine
 10
-26.50000000000003
 20
2.277725201235256
 30
0.0
 11
-26.50000000000003
 21
2.800000000010697
 31
0.0
  0
LINE
  5
16E
330
2
100
AcDbEntity
  8
GEB-VERDECKT
 48
25.0
100
AcDbLine
 10
-34.10000000000002
 20
0.5853593943097906
 30
0.0
 11
-34.10000000000002
 21
1.164305468590356
 31
0.0
  0
LINE
  5
16F
330
2
100
AcDbEntity
  8
GEB-VERDECKT
 48
25.0
100
AcDbLine
 10
-46.0
 20
-5.599999999990728
 30
0.0
 11
-46.0
 21
5.600000000009259
 31
0.0
  0
LINE
  5
170
330
2
100
AcDbEntity
  8
GEB-VERDECKT
 48
25.0
100
AcDbLine
 10
-34.10000000000002
 20
2.277725201235313
 30
0.0
 11
-34.10000000000002
 21
2.800000000010697
 31
0.0
  0
LINE
  5
171
330
2
100
AcDbEntity
  8
GEB-VERDECKT
 48
25.0
100
AcDbLine
 10
-34.10000000000002
 20
3.747131395620129
 30
0.0
 11
-34.10000000000002
 21
4.161611022683786
 31
0.0
  0
LINE
  5
172
330
2
100
AcDbEntity
  8
GEB-VERDECKT
 48
25.0
100
AcDbLine
 10
-34.10000000000002
 20
4.849742261202976
 30
0.0
 11
-34.10000000000002
 21
5.115854562808522
 31
0.0
  0
LINE
  5
173
330
2
100
AcDbEntity
  8
GEB-VERDECKT
 48
25.0
100
AcDbLine
 10
-34.10000000000002
 20
5.477626564118935
 30
0.0
 11
-34.10000000000002
 21
5.569322614071751
 31
0.0
  0
LINE
  5
174
330
2
100
AcDbEntity
  8
GEB-VERDECKT
 48
25.0
100
AcDbLine
 10
-34.10000000000002
 20
-5.569322614052879
 30
0.0
 11
-34.10000000000002
 21
-5.477626564099693
 31
0.0
  0
LINE
  5
175
330
2
100
AcDbEntity
  8
GEB-VERDECKT
 48
25.0
100
AcDbLine
 10
-34.10000000000002
 20
-5.115854562788626
 30
0.0
 11
-34.10000000000002
 21
-4.84974226118274
 31
0.0
  0
LINE
  5
176
330
2
100
AcDbEntity
  8
GEB-VERDECKT
 48
25.0
100
AcDbLine
 10
-34.10000000000002
 20
-4.161611022663009
 30
0.0
 11
-34.10000000000002
 21
-3.747131395599097
 31
0.0
  0
LINE
  5
177
330
2
100
AcDbEntity
  8
GEB-VERDECKT
 48
25.0
100
AcDbLine
 10
-34.10000000000002
 20
-2.799999999989296
 30
0.0
 11
-34.10000000000002
 21
-2.277725201213655
 31
0.0
  0
LINE
  5
178
330
2
100
AcDbEntity
  8
GEB-VERDECKT
 48
25.0
100
AcDbLine
 10
-34.10000000000002
 20
-1.164305468568528
 30
0.0
 11
-34.10000000000002
 21
-0.5853593942879343
 31
0.0
  0
LINE
  5
179
330
2
100
AcDbEntity
  8
GEB-VERDECKT
 48
25.0
100
AcDbLine
 10
-32.30000000000004
 20
-0.5853593942879627
 30
0.0
 11
-32.30000000000004
 21
0.5853593943097906
 31
0.0
  0
LINE
  5
17A
330
2
100
AcDbEntity
  8
GEB-VERDECKT
 48
25.0
100
AcDbLine
 10
-32.30000000000004
 20
-0.5853593942879343
 30
0.0
 11
-34.10000000000002
 21
-0.5853593942879343
 31
0.0
  0
LINE
  5
17B
330
2
100
AcDbEntity
  8
GEB-VERDECKT
 48
25.0
100
AcDbLine
 10
-34.10000000000002
 20
0.2314205943253853
 30
0.0
 11
-34.10000000000002
 21
0.5853593943097906
 31
0.0
  0
LINE
  5
17C
330
2
100
AcDbEntity
  8
GEB-VERDECKT
 48
25.0
100
AcDbLine
 10
-34.10000000000002
 20
0.5853593943097906
 30
0.0
 11
-32.30000000000004
 21
0.5853593943097906
 31
0.0
  0
LINE
  5
17D
330
2
100
AcDbEntity
  8
GEB-VERDECKT
 48
25.0
100
AcDbLine
 10
-32.30000000000004
 20
0.000000000010715
 30
0.0
 11
-34.10000000000002
 21
0.000000000010715
 31
0.0
  0
LINE
  5
17E
330
2
100
AcDbEntity
  8
GEB-VERDECKT
 48
25.0
100
AcDbLine
 10
-34.10000000000002
 20
-0.231420594303728
 30
0.0
 11
-34.10000000000002
 21
0.2314205943253853
 31
0.0
  0
LINE
  5
17F
330
2
100
AcDbEntity
  8
GEB-VERDECKT
 48
25.0
100
AcDbLine
 10
-34.10000000000002
 20
-0.5853593942879343
 30
0.0
 11
-34.10000000000002
 21
-0.2314205943037848
 31
0.0
  0
LINE
  5
180
330
2
100
AcDbEntity
  8
GEB-VERDECKT
 48
25.0
100
AcDbLine
 10
-32.30000000000004
 20
-2.277725201213741
 30
0.0
 11
-32.30000000000004
 21
-1.164305468568585
 31
0.0
  0
LINE
  5
181
330
2
100
AcDbEntity
  8
GEB-VERDECKT
 48
25.0
100
AcDbLine
 10
-32.30000000000004
 20
-2.277725201213712
 30
0.0
 11
-34.10000000000002
 21
-2.277725201213712
 31
0.0
  0
LINE
  5
182
330
2
100
AcDbEntity
  8
GEB-VERDECKT
 48
25.0
100
AcDbLine
 10
-34.10000000000002
 20
-2.277725201213712
 30
0.0
 11
-34.10000000000002
 21
-1.825390342692202
 31
0.0
  0
LINE
  5
183
330
2
100
AcDbEntity
  8
GEB-VERDECKT
 48
25.0
100
AcDbLine
 10
-34.10000000000002
 20
-1.385202214236613
 30
0.0
 11
-34.10000000000002
 21
-1.164305468568528
 31
0.0
  0
LINE
  5
184
330
2
100
AcDbEntity
  8
GEB-VERDECKT
 48
25.0
100
AcDbLine
 10
-34.10000000000002
 20
-1.164305468568528
 30
0.0
 11
-32.30000000000004
 21
-1.164305468568528
 31
0.0
  0
LINE
  5
185
330
2
100
AcDbEntity
  8
GEB-VERDECKT
 48
25.0
100
AcDbLine
 10
-32.30000000000004
 20
-1.529634122145324
 30
0.0
 11
-34.10000000000002
 21
-1.529634122145324
 31
0.0
  0
LINE
  5
186
330
2
100
AcDbEntity
  8
GEB-VERDECKT
 48
25.0
100
AcDbLine
 10
-34.10000000000002
 20
-1.825390342692202
 30
0.0
 11
-34.10000000000002
 21
-1.385202214236613
 31
0.0
  0
LINE
  5
187
330
2
100
AcDbEntity
  8
GEB-VERDECKT
 48
25.0
100
AcDbLine
 10
-32.30000000000004
 20
-3.747131395599097
 30
0.0
 11
-32.30000000000004
 21
-2.799999999989296
 31
0.0
  0
LINE
  5
188
330
2
100
AcDbEntity
  8
GEB-VERDECKT
 48
25.0
100
AcDbLine
 10
-32.30000000000004
 20
-3.747131395599097
 30
0.0
 11
-34.10000000000002
 21
-3.747131395599097
 31
0.0
  0
LINE
  5
189
330
2
100
AcDbEntity
  8
GEB-VERDECKT
 48
25.0
100
AcDbLine
 10
-34.10000000000002
 20
-3.747131395599097
 30
0.0
 11
-34.10000000000002
 21
-3.240678166094596
 31
0.0
  0
LINE
  5
18A
330
2
100
AcDbEntity
  8
GEB-VERDECKT
 48
25.0
100
AcDbLine
 10
-34.10000000000002
 20
-2.866231778796873
 30
0.0
 11
-34.10000000000002
 21
-2.799999999989296
 31
0.0
  0
LINE
  5
18B
330
2
100
AcDbEntity
  8
GEB-VERDECKT
 48
25.0
100
AcDbLine
 10
-34.10000000000002
 20
-2.799999999989296
 30
0.0
 11
-32.30000000000004
 21
-2.799999999989296
 31
0.0
  0
LINE
  5
18C
330
2
100
AcDbEntity
  8
GEB-VERDECKT
 48
25.0
100
AcDbLine
 10
-32.30000000000004
 20
-2.909536998837296
 30
0.0
 11
-34.10000000000002
 21
-2.909536998837296
 31
0.0
  0
LINE
  5
18D
330
2
100
AcDbEntity
  8
GEB-VERDECKT
 48
25.0
100
AcDbLine
 10
-34.10000000000002
 20
-3.240678166094596
 30
0.0
 11
-34.10000000000002
 21
-2.866231778796873
 31
0.0
  0
LINE
  5
18E
330
2
100
AcDbEntity
  8
GEB-VERDECKT
 48
25.0
100
AcDbLine
 10
-32.30000000000004
 20
-4.84974226118274
 30
0.0
 11
-32.30000000000004
 21
-4.161611022663038
 31
0.0
  0
LINE
  5
18F
330
2
100
AcDbEntity
  8
GEB-VERDECKT
 48
25.0
100
AcDbLine
 10
-32.30000000000004
 20
-4.84974226118274
 30
0.0
 11
-34.10000000000002
 21
-4.84974226118274
 31
0.0
  0
LINE
  5
190
330
2
100
AcDbEntity
  8
GEB-VERDECKT
 48
25.0
100
AcDbLine
 10
-34.10000000000002
 20
-4.84974226118274
 30
0.0
 11
-34.10000000000002
 21
-4.338745831466354
 31
0.0
  0
LINE
  5
191
330
2
100
AcDbEntity
  8
GEB-VERDECKT
 48
25.0
100
AcDbLine
 10
-34.10000000000002
 20
-4.161611022663009
 30
0.0
 11
-32.30000000000004
 21
-4.161611022663009
 31
0.0
  0
LINE
  5
192
330
2
100
AcDbEntity
  8
GEB-VERDECKT
 48
25.0
100
AcDbLine
 10
-32.30000000000004
 20
-4.161611022663009
 30
0.0
 11
-32.30000000000004
 21
-4.004634122145859
 31
0.0
  0
LINE
  5
193
330
2
100
AcDbEntity
  8
GEB-VERDECKT
 48
25.0
100
AcDbLine
 10
-32.30000000000004
 20
-4.004634122145859
 30
0.0
 11
-34.10000000000002
 21
-4.004634122145859
 31
0.0
  0
LINE
  5
194
330
2
100
AcDbEntity
  8
GEB-VERDECKT
 48
25.0
100
AcDbLine
 10
-34.10000000000002
 20
-4.338745831466354
 30
0.0
 11
-34.10000000000002
 21
-4.161611022663208
 31
0.0
  0
LINE
  5
195
330
2
100
AcDbEntity
  8
GEB-VERDECKT
 48
25.0
100
AcDbLine
 10
-32.30000000000004
 20
-5.477626564099693
 30
0.0
 11
-32.30000000000004
 21
-5.115854562788626
 31
0.0
  0
LINE
  5
196
330
2
100
AcDbEntity
  8
GEB-VERDECKT
 48
25.0
100
AcDbLine
 10
-32.30000000000004
 20
-5.477626564099693
 30
0.0
 11
-34.10000000000002
 21
-5.477626564099693
 31
0.0
  0
LINE
  5
197
330
2
100
AcDbEntity
  8
GEB-VERDECKT
 48
25.0
100
AcDbLine
 10
-34.10000000000002
 20
-5.477626564099693
 30
0.0
 11
-34.10000000000002
 21
-5.115854562788911
 31
0.0
  0
LINE
  5
198
330
2
100
AcDbEntity
  8
GEB-VERDECKT
 48
25.0
100
AcDbLine
 10
-34.10000000000002
 20
-5.115854562788626
 30
0.0
 11
-32.30000000000004
 21
-5.115854562788626
 31
0.0
  0
LINE
  5
199
330
2
100
AcDbEntity
  8
GEB-VERDECKT
 48
25.0
100
AcDbLine
 10
-32.30000000000004
 20
-5.115854562788626
 30
0.0
 11
-32.30000000000004
 21
-4.849742261183024
 31
0.0
  0
LINE
  5
19A
330
2
100
AcDbEntity
  8
GEB-VERDECKT
 48
25.0
100
AcDbLine
 10
-32.30000000000004
 20
-4.707729755651286
 30
0.0
 11
-34.10000000000002
 21
-4.707729755651286
 31
0.0
  0
LINE
  5
19B
330
2
100
AcDbEntity
  8
GEB-VERDECKT
 48
25.0
100
AcDbLine
 10
-32.30000000000004
 20
-5.599999999990728
 30
0.0
 11
-32.30000000000004
 21
-5.569322614052907
 31
0.0
  0
LINE
  5
19C
330
2
100
AcDbEntity
  8
GEB-VERDECKT
 48
25.0
100
AcDbLine
 10
-34.10000000000002
 20
-5.569322614052907
 30
0.0
 11
-32.30000000000004
 21
-5.569322614052907
 31
0.0
  0
LINE
  5
19D
330
2
100
AcDbEntity
  8
GEB-VERDECKT
 48
25.0
100
AcDbLine
 10
-32.30000000000004
 20
-5.569322614052907
 30
0.0
 11
-32.30000000000004
 21
-5.477626564099892
 31
0.0
  0
LINE
  5
19E
330
2
100
AcDbEntity
  8
GEB-VERDECKT
 48
25.0
100
AcDbLine
 10
-32.30000000000004
 20
-4.949999999990751
 30
0.0
 11
-34.10000000000002
 21
-4.949999999990751
 31
0.0
  0
LINE
  5
19F
330
2
100
AcDbEntity
  8
GEB-VERDECKT
 48
25.0
100
AcDbLine
 10
-32.30000000000004
 20
5.569322614071808
 30
0.0
 11
-32.30000000000004
 21
5.600000000009259
 31
0.0
  0
LINE
  5
1A0
330
2
100
AcDbEntity
  8
GEB-VERDECKT
 48
25.0
100
AcDbLine
 10
-32.30000000000004
 20
5.477626564118736
 30
0.0
 11
-32.30000000000004
 21
5.569322614071751
 31
0.0
  0
LINE
  5
1A1
330
2
100
AcDbEntity
  8
GEB-VERDECKT
 48
25.0
100
AcDbLine
 10
-32.30000000000004
 20
5.569322614071751
 30
0.0
 11
-34.10000000000002
 21
5.569322614071751
 31
0.0
  0
LINE
  5
1A2
330
2
100
AcDbEntity
  8
GEB-VERDECKT
 48
25.0
100
AcDbLine
 10
-32.30000000000004
 20
4.950000000009282
 30
0.0
 11
-34.10000000000002
 21
4.950000000009282
 31
0.0
  0
LINE
  5
1A3
330
2
100
AcDbEntity
  8
GEB-VERDECKT
 48
25.0
100
AcDbLine
 10
-32.30000000000004
 20
5.115854562808493
 30
0.0
 11
-32.30000000000004
 21
5.477626564118907
 31
0.0
  0
LINE
  5
1A4
330
2
100
AcDbEntity
  8
GEB-VERDECKT
 48
25.0
100
AcDbLine
 10
-32.30000000000004
 20
4.849742261202635
 30
0.0
 11
-32.30000000000004
 21
5.115854562808522
 31
0.0
  0
LINE
  5
1A5
330
2
100
AcDbEntity
  8
GEB-VERDECKT
 48
25.0
100
AcDbLine
 10
-32.30000000000004
 20
5.115854562808522
 30
0.0
 11
-34.10000000000002
 21
5.115854562808522
 31
0.0
  0
LINE
  5
1A6
330
2
100
AcDbEntity
  8
GEB-VERDECKT
 48
25.0
100
AcDbLine
 10
-34.10000000000002
 20
5.115854562808237
 30
0.0
 11
-34.10000000000002
 21
5.477626564118935
 31
0.0
  0
LINE
  5
1A7
330
2
100
AcDbEntity
  8
GEB-VERDECKT
 48
25.0
100
AcDbLine
 10
-34.10000000000002
 20
5.477626564118935
 30
0.0
 11
-32.30000000000004
 21
5.477626564118935
 31
0.0
  0
LINE
  5
1A8
330
2
100
AcDbEntity
  8
GEB-VERDECKT
 48
25.0
100
AcDbLine
 10
-32.30000000000004
 20
4.707729755670726
 30
0.0
 11
-34.10000000000002
 21
4.707729755670726
 31
0.0
  0
LINE
  5
1A9
330
2
100
AcDbEntity
  8
GEB-VERDECKT
 48
25.0
100
AcDbLine
 10
-32.30000000000004
 20
4.161611022683786
 30
0.0
 11
-32.30000000000004
 21
4.849742261202976
 31
0.0
  0
LINE
  5
1AA
330
2
100
AcDbEntity
  8
GEB-VERDECKT
 48
25.0
100
AcDbLine
 10
-32.30000000000004
 20
4.004634122166123
 30
0.0
 11
-32.30000000000004
 21
4.161611022683786
 31
0.0
  0
LINE
  5
1AB
330
2
100
AcDbEntity
  8
GEB-VERDECKT
 48
25.0
100
AcDbLine
 10
-32.30000000000004
 20
4.161611022683786
 30
0.0
 11
-34.10000000000002
 21
4.161611022683786
 31
0.0
  0
LINE
  5
1AC
330
2
100
AcDbEntity
  8
GEB-VERDECKT
 48
25.0
100
AcDbLine
 10
-34.10000000000002
 20
4.33874583148659
 30
0.0
 11
-34.10000000000002
 21
4.849742261202976
 31
0.0
  0
LINE
  5
1AD
330
2
100
AcDbEntity
  8
GEB-VERDECKT
 48
25.0
100
AcDbLine
 10
-34.10000000000002
 20
4.849742261202976
 30
0.0
 11
-32.30000000000004
 21
4.849742261202976
 31
0.0
  0
LINE
  5
1AE
330
2
100
AcDbEntity
  8
GEB-VERDECKT
 48
25.0
100
AcDbLine
 10
-32.30000000000004
 20
4.004634122166123
 30
0.0
 11
-34.10000000000002
 21
4.004634122166123
 31
0.0
  0
LINE
  5
1AF
330
2
100
AcDbEntity
  8
GEB-VERDECKT
 48
25.0
100
AcDbLine
 10
-34.10000000000002
 20
4.161611022683615
 30
0.0
 11
-34.10000000000002
 21
4.33874583148659
 31
0.0
  0
LINE
  5
1B0
330
2
100
AcDbEntity
  8
GEB-VERDECKT
 48
25.0
100
AcDbLine
 10
-32.30000000000004
 20
2.800000000010726
 30
0.0
 11
-32.30000000000004
 21
3.747131395620129
 31
0.0
  0
LINE
  5
1B1
330
2
100
AcDbEntity
  8
GEB-VERDECKT
 48
25.0
100
AcDbLine
 10
-32.30000000000004
 20
2.800000000010697
 30
0.0
 11
-34.10000000000002
 21
2.800000000010697
 31
0.0
  0
LINE
  5
1B2
330
2
100
AcDbEntity
  8
GEB-VERDECKT
 48
25.0
100
AcDbLine
 10
-34.10000000000002
 20
2.800000000010697
 30
0.0
 11
-34.10000000000002
 21
2.866231778817962
 31
0.0
  0
LINE
  5
1B3
330
2
100
AcDbEntity
  8
GEB-VERDECKT
 48
25.0
100
AcDbLine
 10
-34.10000000000002
 20
3.240678166115571
 30
0.0
 11
-34.10000000000002
 21
3.747131395620129
 31
0.0
  0
LINE
  5
1B4
330
2
100
AcDbEntity
  8
GEB-VERDECKT
 48
25.0
100
AcDbLine
 10
-34.10000000000002
 20
3.747131395620129
 30
0.0
 11
-32.30000000000004
 21
3.747131395620129
 31
0.0
  0
LINE
  5
1B5
330
2
100
AcDbEntity
  8
GEB-VERDECKT
 48
25.0
100
AcDbLine
 10
-32.30000000000004
 20
2.909536998858186
 30
0.0
 11
-34.10000000000002
 21
2.909536998858186
 31
0.0
  0
LINE
  5
1B6
330
2
100
AcDbEntity
  8
GEB-VERDECKT
 48
25.0
100
AcDbLine
 10
-34.10000000000002
 20
2.866231778817962
 30
0.0
 11
-34.10000000000002
 21
3.240678166115571
 31
0.0
  0
LINE
  5
1B7
330
2
100
AcDbEntity
  8
GEB-VERDECKT
 48
25.0
100
AcDbLine
 10
-32.30000000000004
 20
1.164305468590356
 30
0.0
 11
-32.30000000000004
 21
2.277725201235256
 31
0.0
  0
LINE
  5
1B8
330
2
100
AcDbEntity
  8
GEB-VERDECKT
 48
25.0
100
AcDbLine
 10
-32.30000000000004
 20
1.164305468590356
 30
0.0
 11
-34.10000000000002
 21
1.164305468590356
 31
0.0
  0
LINE
  5
1B9
330
2
100
AcDbEntity
  8
GEB-VERDECKT
 48
25.0
100
AcDbLine
 10
-34.10000000000002
 20
1.164305468590356
 30
0.0
 11
-34.10000000000002
 21
1.3852022142581
 31
0.0
  0
LINE
  5
1BA
330
2
100
AcDbEntity
  8
GEB-VERDECKT
 48
25.0
100
AcDbLine
 10
-34.10000000000002
 20
1.825390342713603
 30
0.0
 11
-34.10000000000002
 21
2.277725201235256
 31
0.0
  0
LINE
  5
1BB
330
2
100
AcDbEntity
  8
GEB-VERDECKT
 48
25.0
100
AcDbLine
 10
-34.10000000000002
 20
2.277725201235256
 30
0.0
 11
-32.30000000000004
 21
2.277725201235256
 31
0.0
  0
LINE
  5
1BC
330
2
100
AcDbEntity
  8
GEB-VERDECKT
 48
25.0
100
AcDbLine
 10
-32.30000000000004
 20
1.529634122166669
 30
0.0
 11
-34.10000000000002
 21
1.529634122166669
 31
0.0
  0
LINE
  5
1BD
330
2
100
AcDbEntity
  8
GEB-VERDECKT
 48
25.0
100
AcDbLine
 10
-34.10000000000002
 20
1.3852022142581
 30
0.0
 11
-34.10000000000002
 21
1.825390342713603
 31
0.0
  0
ARC
  5
1BE
330
2
100
AcDbEntity
  8
GEB-VERDECKT
 48
25.0
100
AcDbCircle
 10
47.60000000000005
 20
4.635639852480181
 30
0.0
 40
0.4
100
AcDbArc
 50
280.0000000000002
 51
0.0
  0
ARC
  5
1BF
330
2
100
AcDbEntity
  8
GEB-VERDECKT
 48
25.0
100
AcDbCircle
 10
47.60000000000005
 20
-4.63563985246165
 30
0.0
 40
0.3999999999999999
100
AcDbArc
 50
0.0
 51
79.9999999999998
  0
LINE
  5
1C0
330
2
100
AcDbEntity
  8
GEB-VERDECKT
 48
25.0
100
AcDbLine
 10
22.00000000000003
 20
-3.249999999990706
 30
0.0
 11
42.04515408940145
 21
-3.249999999990706
 31
0.0
  0
LINE
  5
1C1
330
2
100
AcDbEntity
  8
GEB-VERDECKT
 48
25.0
100
AcDbLine
 10
22.00000000000003
 20
3.250000000009265
 30
0.0
 11
42.04515408940145
 21
3.250000000009265
 31
0.0
  0
LINE
  5
1C2
330
2
100
AcDbEntity
  8
GEB-VERDECKT
 48
25.0
100
AcDbLine
 10
42.04515408940145
 20
-3.249999999990706
 30
0.0
 11
47.66945927106681
 21
-4.241716751256745
 31
0.0
  0
LINE
  5
1C3
330
2
100
AcDbEntity
  8
GEB-VERDECKT
 48
25.0
100
AcDbLine
 10
42.04515408940145
 20
3.250000000009265
 30
0.0
 11
47.66945927106681
 21
4.241716751275333
 31
0.0
  0
LINE
  5
1C4
330
2
100
AcDbEntity
  8
GEB-VERDECKT
 48
25.0
100
AcDbLine
 10
42.04515408940145
 20
-3.249999999990706
 30
0.0
 11
42.04515408940145
 21
3.250000000009265
 31
0.0
  0
LINE
  5
1C5
330
2
100
AcDbEntity
  8
GEB-VERDECKT
 48
25.0
100
AcDbLine
 10
28.30000000000004
 20
-5.599999999990728
 30
0.0
 11
28.30000000000004
 21
-5.569322614052907
 31
0.0
  0
LINE
  5
1C6
330
2
100
AcDbEntity
  8
GEB-VERDECKT
 48
25.0
100
AcDbLine
 10
26.50000000000003
 20
-5.569322614052879
 30
0.0
 11
28.30000000000004
 21
-5.569322614052879
 31
0.0
  0
LINE
  5
1C7
330
2
100
AcDbEntity
  8
GEB-VERDECKT
 48
25.0
100
AcDbLine
 10
28.30000000000004
 20
-5.569322614052879
 30
0.0
 11
28.30000000000004
 21
-5.477626564099892
 31
0.0
  0
LINE
  5
1C8
330
2
100
AcDbEntity
  8
GEB-VERDECKT
 48
25.0
100
AcDbLine
 10
26.50000000000003
 20
-4.949999999990751
 30
0.0
 11
28.30000000000004
 21
-4.949999999990751
 31
0.0
  0
LINE
  5
1C9
330
2
100
AcDbEntity
  8
GEB-VERDECKT
 48
25.0
100
AcDbLine
 10
28.30000000000004
 20
-5.477626564099693
 30
0.0
 11
28.30000000000004
 21
-5.115854562788626
 31
0.0
  0
LINE
  5
1CA
330
2
100
AcDbEntity
  8
GEB-VERDECKT
 48
25.0
100
AcDbLine
 10
26.50000000000003
 20
-5.115854562788626
 30
0.0
 11
28.30000000000004
 21
-5.115854562788626
 31
0.0
  0
LINE
  5
1CB
330
2
100
AcDbEntity
  8
GEB-VERDECKT
 48
25.0
100
AcDbLine
 10
28.30000000000004
 20
-5.115854562788626
 30
0.0
 11
28.30000000000004
 21
-4.849742261183024
 31
0.0
  0
LINE
  5
1CC
330
2
100
AcDbEntity
  8
GEB-VERDECKT
 48
25.0
100
AcDbLine
 10
28.30000000000004
 20
-5.477626564099693
 30
0.0
 11
26.50000000000003
 21
-5.477626564099693
 31
0.0
  0
LINE
  5
1CD
330
2
100
AcDbEntity
  8
GEB-VERDECKT
 48
25.0
100
AcDbLine
 10
26.50000000000003
 20
-5.477626564099693
 30
0.0
 11
26.50000000000003
 21
-5.115854562788911
 31
0.0
  0
LINE
  5
1CE
330
2
100
AcDbEntity
  8
GEB-VERDECKT
 48
25.0
100
AcDbLine
 10
26.50000000000003
 20
-4.707729755651286
 30
0.0
 11
28.30000000000004
 21
-4.707729755651286
 31
0.0
  0
LINE
  5
1CF
330
2
100
AcDbEntity
  8
GEB-VERDECKT
 48
25.0
100
AcDbLine
 10
28.30000000000004
 20
-4.84974226118274
 30
0.0
 11
28.30000000000004
 21
-4.161611022663009
 31
0.0
  0
LINE
  5
1D0
330
2
100
AcDbEntity
  8
GEB-VERDECKT
 48
25.0
100
AcDbLine
 10
26.50000000000003
 20
-4.161611022663009
 30
0.0
 11
28.30000000000004
 21
-4.161611022663009
 31
0.0
  0
LINE
  5
1D1
330
2
100
AcDbEntity
  8
GEB-VERDECKT
 48
25.0
100
AcDbLine
 10
28.30000000000004
 20
-4.161611022663009
 30
0.0
 11
28.30000000000004
 21
-4.004634122145859
 31
0.0
  0
LINE
  5
1D2
330
2
100
AcDbEntity
  8
GEB-VERDECKT
 48
25.0
100
AcDbLine
 10
28.30000000000004
 20
-4.84974226118274
 30
0.0
 11
26.50000000000003
 21
-4.84974226118274
 31
0.0
  0
LINE
  5
1D3
330
2
100
AcDbEntity
  8
GEB-VERDECKT
 48
25.0
100
AcDbLine
 10
26.50000000000003
 20
-4.84974226118274
 30
0.0
 11
26.50000000000003
 21
-4.161611022663294
 31
0.0
  0
LINE
  5
1D4
330
2
100
AcDbEntity
  8
GEB-VERDECKT
 48
25.0
100
AcDbLine
 10
26.50000000000003
 20
-4.004634122145859
 30
0.0
 11
28.30000000000004
 21
-4.004634122145859
 31
0.0
  0
LINE
  5
1D5
330
2
100
AcDbEntity
  8
GEB-VERDECKT
 48
25.0
100
AcDbLine
 10
28.30000000000004
 20
-3.747131395599097
 30
0.0
 11
28.30000000000004
 21
-2.799999999989296
 31
0.0
  0
LINE
  5
1D6
330
2
100
AcDbEntity
  8
GEB-VERDECKT
 48
25.0
100
AcDbLine
 10
26.50000000000003
 20
-2.909536998837296
 30
0.0
 11
26.50000000000003
 21
-2.799999999989296
 31
0.0
  0
LINE
  5
1D7
330
2
100
AcDbEntity
  8
GEB-VERDECKT
 48
25.0
100
AcDbLine
 10
26.50000000000003
 20
-2.799999999989296
 30
0.0
 11
28.30000000000004
 21
-2.799999999989296
 31
0.0
  0
LINE
  5
1D8
330
2
100
AcDbEntity
  8
GEB-VERDECKT
 48
25.0
100
AcDbLine
 10
28.30000000000004
 20
-3.747131395599097
 30
0.0
 11
26.50000000000003
 21
-3.747131395599097
 31
0.0
  0
LINE
  5
1D9
330
2
100
AcDbEntity
  8
GEB-VERDECKT
 48
25.0
100
AcDbLine
 10
26.50000000000003
 20
-3.747131395599097
 30
0.0
 11
26.50000000000003
 21
-2.909536998837296
 31
0.0
  0
LINE
  5
1DA
330
2
100
AcDbEntity
  8
GEB-VERDECKT
 48
25.0
100
AcDbLine
 10
26.50000000000003
 20
-2.909536998837296
 30
0.0
 11
28.30000000000004
 21
-2.909536998837296
 31
0.0
  0
LINE
  5
1DB
330
2
100
AcDbEntity
  8
GEB-VERDECKT
 48
25.0
100
AcDbLine
 10
28.30000000000004
 20
-2.277725201213712
 30
0.0
 11
28.30000000000004
 21
-1.164305468568585
 31
0.0
  0
LINE
  5
1DC
330
2
100
AcDbEntity
  8
GEB-VERDECKT
 48
25.0
100
AcDbLine
 10
26.50000000000003
 20
-1.529634122145324
 30
0.0
 11
26.50000000000003
 21
-1.164305468568528
 31
0.0
  0
LINE
  5
1DD
330
2
100
AcDbEntity
  8
GEB-VERDECKT
 48
25.0
100
AcDbLine
 10
26.50000000000003
 20
-1.164305468568528
 30
0.0
 11
28.30000000000004
 21
-1.164305468568528
 31
0.0
  0
LINE
  5
1DE
330
2
100
AcDbEntity
  8
GEB-VERDECKT
 48
25.0
100
AcDbLine
 10
28.30000000000004
 20
-2.277725201213712
 30
0.0
 11
26.50000000000003
 21
-2.277725201213712
 31
0.0
  0
LINE
  5
1DF
330
2
100
AcDbEntity
  8
GEB-VERDECKT
 48
25.0
100
AcDbLine
 10
26.50000000000003
 20
-2.277725201213712
 30
0.0
 11
26.50000000000003
 21
-1.529634122145324
 31
0.0
  0
LINE
  5
1E0
330
2
100
AcDbEntity
  8
GEB-VERDECKT
 48
25.0
100
AcDbLine
 10
26.50000000000003
 20
-1.529634122145324
 30
0.0
 11
28.30000000000004
 21
-1.529634122145324
 31
0.0
  0
LINE
  5
1E1
330
2
100
AcDbEntity
  8
GEB-VERDECKT
 48
25.0
100
AcDbLine
 10
28.30000000000004
 20
-0.5853593942879343
 30
0.0
 11
28.30000000000004
 21
0.5853593943097906
 31
0.0
  0
LINE
  5
1E2
330
2
100
AcDbEntity
  8
GEB-VERDECKT
 48
25.0
100
AcDbLine
 10
26.50000000000003
 20
0.000000000010715
 30
0.0
 11
26.50000000000003
 21
0.5853593943097906
 31
0.0
  0
LINE
  5
1E3
330
2
100
AcDbEntity
  8
GEB-VERDECKT
 48
25.0
100
AcDbLine
 10
26.50000000000003
 20
0.5853593943097906
 30
0.0
 11
28.30000000000004
 21
0.5853593943097906
 31
0.0
  0
LINE
  5
1E4
330
2
100
AcDbEntity
  8
GEB-VERDECKT
 48
25.0
100
AcDbLine
 10
28.30000000000004
 20
-0.5853593942879343
 30
0.0
 11
26.50000000000003
 21
-0.5853593942879343
 31
0.0
  0
LINE
  5
1E5
330
2
100
AcDbEntity
  8
GEB-VERDECKT
 48
25.0
100
AcDbLine
 10
26.50000000000003
 20
-0.5853593942879343
 30
0.0
 11
26.50000000000003
 21
0.000000000010715
 31
0.0
  0
LINE
  5
1E6
330
2
100
AcDbEntity
  8
GEB-VERDECKT
 48
25.0
100
AcDbLine
 10
26.50000000000003
 20
0.000000000010715
 30
0.0
 11
28.30000000000004
 21
0.000000000010715
 31
0.0
  0
LINE
  5
1E7
330
2
100
AcDbEntity
  8
GEB-VERDECKT
 48
25.0
100
AcDbLine
 10
28.30000000000004
 20
1.164305468590356
 30
0.0
 11
28.30000000000004
 21
2.277725201235313
 31
0.0
  0
LINE
  5
1E8
330
2
100
AcDbEntity
  8
GEB-VERDECKT
 48
25.0
100
AcDbLine
 10
26.50000000000003
 20
1.52963412216664
 30
0.0
 11
26.50000000000003
 21
2.277725201235256
 31
0.0
  0
LINE
  5
1E9
330
2
100
AcDbEntity
  8
GEB-VERDECKT
 48
25.0
100
AcDbLine
 10
26.50000000000003
 20
2.277725201235256
 30
0.0
 11
28.30000000000004
 21
2.277725201235256
 31
0.0
  0
LINE
  5
1EA
330
2
100
AcDbEntity
  8
GEB-VERDECKT
 48
25.0
100
AcDbLine
 10
28.30000000000004
 20
1.164305468590356
 30
0.0
 11
26.50000000000003
 21
1.164305468590356
 31
0.0
  0
LINE
  5
1EB
330
2
100
AcDbEntity
  8
GEB-VERDECKT
 48
25.0
100
AcDbLine
 10
26.50000000000003
 20
1.164305468590356
 30
0.0
 11
26.50000000000003
 21
1.52963412216664
 31
0.0
  0
LINE
  5
1EC
330
2
100
AcDbEntity
  8
GEB-VERDECKT
 48
25.0
100
AcDbLine
 10
26.50000000000003
 20
1.52963412216664
 30
0.0
 11
28.30000000000004
 21
1.52963412216664
 31
0.0
  0
LINE
  5
1ED
330
2
100
AcDbEntity
  8
GEB-VERDECKT
 48
25.0
100
AcDbLine
 10
28.30000000000004
 20
2.800000000010726
 30
0.0
 11
28.30000000000004
 21
3.747131395620129
 31
0.0
  0
LINE
  5
1EE
330
2
100
AcDbEntity
  8
GEB-VERDECKT
 48
25.0
100
AcDbLine
 10
26.50000000000003
 20
2.909536998858186
 30
0.0
 11
26.50000000000003
 21
3.747131395620129
 31
0.0
  0
LINE
  5
1EF
330
2
100
AcDbEntity
  8
GEB-VERDECKT
 48
25.0
100
AcDbLine
 10
26.50000000000003
 20
3.747131395620129
 30
0.0
 11
28.30000000000004
 21
3.747131395620129
 31
0.0
  0
LINE
  5
1F0
330
2
100
AcDbEntity
  8
GEB-VERDECKT
 48
25.0
100
AcDbLine
 10
28.30000000000004
 20
2.800000000010697
 30
0.0
 11
26.50000000000003
 21
2.800000000010697
 31
0.0
  0
LINE
  5
1F1
330
2
100
AcDbEntity
  8
GEB-VERDECKT
 48
25.0
100
AcDbLine
 10
26.50000000000003
 20
2.800000000010697
 30
0.0
 11
26.50000000000003
 21
2.909536998858186
 31
0.0
  0
LINE
  5
1F2
330
2
100
AcDbEntity
  8
GEB-VERDECKT
 48
25.0
100
AcDbLine
 10
26.50000000000003
 20
2.909536998858186
 30
0.0
 11
28.30000000000004
 21
2.909536998858186
 31
0.0
  0
LINE
  5
1F3
330
2
100
AcDbEntity
  8
GEB-VERDECKT
 48
25.0
100
AcDbLine
 10
28.30000000000004
 20
4.161611022683786
 30
0.0
 11
28.30000000000004
 21
4.849742261202919
 31
0.0
  0
LINE
  5
1F4
330
2
100
AcDbEntity
  8
GEB-VERDECKT
 48
25.0
100
AcDbLine
 10
26.50000000000003
 20
4.161611022683558
 30
0.0
 11
26.50000000000003
 21
4.849742261202976
 31
0.0
  0
LINE
  5
1F5
330
2
100
AcDbEntity
  8
GEB-VERDECKT
 48
25.0
100
AcDbLine
 10
26.50000000000003
 20
4.849742261202976
 30
0.0
 11
28.30000000000004
 21
4.849742261202976
 31
0.0
  0
LINE
  5
1F6
330
2
100
AcDbEntity
  8
GEB-VERDECKT
 48
25.0
100
AcDbLine
 10
28.30000000000004
 20
4.161611022683786
 30
0.0
 11
26.50000000000003
 21
4.161611022683786
 31
0.0
  0
LINE
  5
1F7
330
2
100
AcDbEntity
  8
GEB-VERDECKT
 48
25.0
100
AcDbLine
 10
26.50000000000003
 20
4.004634122166123
 30
0.0
 11
28.30000000000004
 21
4.004634122166123
 31
0.0
  0
LINE
  5
1F8
330
2
100
AcDbEntity
  8
GEB-VERDECKT
 48
25.0
100
AcDbLine
 10
28.30000000000004
 20
4.004634122166123
 30
0.0
 11
28.30000000000004
 21
4.161611022683786
 31
0.0
  0
LINE
  5
1F9
330
2
100
AcDbEntity
  8
GEB-VERDECKT
 48
25.0
100
AcDbLine
 10
28.30000000000004
 20
5.115854562808493
 30
0.0
 11
28.30000000000004
 21
5.477626564118907
 31
0.0
  0
LINE
  5
1FA
330
2
100
AcDbEntity
  8
GEB-VERDECKT
 48
25.0
100
AcDbLine
 10
26.50000000000003
 20
5.115854562808237
 30
0.0
 11
26.50000000000003
 21
5.477626564118935
 31
0.0
  0
LINE
  5
1FB
330
2
100
AcDbEntity
  8
GEB-VERDECKT
 48
25.0
100
AcDbLine
 10
26.50000000000003
 20
5.477626564118935
 30
0.0
 11
28.30000000000004
 21
5.477626564118935
 31
0.0
  0
LINE
  5
1FC
330
2
100
AcDbEntity
  8
GEB-VERDECKT
 48
25.0
100
AcDbLine
 10
28.30000000000004
 20
5.115854562808522
 30
0.0
 11
26.50000000000003
 21
5.115854562808522
 31
0.0
  0
LINE
  5
1FD
330
2
100
AcDbEntity
  8
GEB-VERDECKT
 48
25.0
100
AcDbLine
 10
26.50000000000003
 20
4.707729755670726
 30
0.0
 11
28.30000000000004
 21
4.707729755670726
 31
0.0
  0
LINE
  5
1FE
330
2
100
AcDbEntity
  8
GEB-VERDECKT
 48
25.0
100
AcDbLine
 10
28.30000000000004
 20
4.849742261202635
 30
0.0
 11
28.30000000000004
 21
5.115854562808522
 31
0.0
  0
LINE
  5
1FF
330
2
100
AcDbEntity
  8
GEB-VERDECKT
 48
25.0
100
AcDbLine
 10
28.30000000000004
 20
5.569322614071751
 30
0.0
 11
28.30000000000004
 21
5.600000000009259
 31
0.0
  0
LINE
  5
200
330
2
100
AcDbEntity
  8
GEB-VERDECKT
 48
25.0
100
AcDbLine
 10
28.30000000000004
 20
5.569322614071751
 30
0.0
 11
26.50000000000003
 21
5.569322614071751
 31
0.0
  0
LINE
  5
201
330
2
100
AcDbEntity
  8
GEB-VERDECKT
 48
25.0
100
AcDbLine
 10
26.50000000000003
 20
4.950000000009282
 30
0.0
 11
28.30000000000004
 21
4.950000000009282
 31
0.0
  0
LINE
  5
202
330
2
100
AcDbEntity
  8
GEB-VERDECKT
 48
25.0
100
AcDbLine
 10
28.30000000000004
 20
5.477626564118736
 30
0.0
 11
28.30000000000004
 21
5.569322614071751
 31
0.0
  0
ARC
  5
203
330
2
100
AcDbEntity
  8
GEB-VERDECKT
 48
25.0
100
AcDbCircle
 10
42.70000000000002
 20
-8.299999999990717
 30
0.0
 40
3.399999999999998
100
AcDbArc
 50
52.57199445695672
 51
127.4280055430432
  0
ARC
  5
204
330
2
100
AcDbEntity
  8
GEB-VERDECKT
 48
25.0
100
AcDbCircle
 10
42.70000000000002
 20
8.300000000009248
 30
0.0
 40
3.399999999999998
100
AcDbArc
 50
232.5719944569567
 51
307.4280055430433
  0
LINE
  5
205
330
2
100
AcDbEntity
  8
GEB-VERDECKT
 48
25.0
100
AcDbLine
 10
44.76639783197717
 20
-5.599999999990728
 30
0.0
 11
44.76639783197717
 21
5.600000000009259
 31
0.0
  0
LINE
  5
206
330
2
100
AcDbEntity
  8
GEB-VERDECKT
 48
25.0
100
AcDbLine
 10
40.63360216802286
 20
5.600000000009259
 30
0.0
 11
40.63360216802286
 21
-5.599999999990728
 31
0.0
  0
LINE
  5
207
330
2
100
AcDbEntity
  8
GEB-VERDECKT
 48
25.0
100
AcDbLine
 10
37.20000000000002
 20
4.200000000009254
 30
0.0
 11
35.20000000000002
 21
4.200000000009254
 31
0.0
  0
LINE
  5
208
330
2
100
AcDbEntity
  8
GEB-VERDECKT
 48
25.0
100
AcDbLine
 10
37.20000000000002
 20
-4.199999999990694
 30
0.0
 11
35.20000000000002
 21
-4.199999999990694
 31
0.0
  0
LINE
  5
209
330
2
100
AcDbEntity
  8
GEB-VERDECKT
 48
25.0
100
AcDbLine
 10
35.20000000000002
 20
5.200000000009282
 30
0.0
 11
34.10000000000005
 21
5.200000000009282
 31
0.0
  0
LINE
  5
20A
330
2
100
AcDbEntity
  8
GEB-VERDECKT
 48
25.0
100
AcDbLine
 10
35.20000000000002
 20
-5.199999999990723
 30
0.0
 11
34.10000000000005
 21
-5.199999999990723
 31
0.0
  0
LINE
  5
20B
330
2
100
AcDbEntity
  8
GEB-VERDECKT
 48
25.0
100
AcDbLine
 10
26.50000000000003
 20
4.950000000009282
 30
0.0
 11
25.47125920269687
 21
4.950000000009282
 31
0.0
  0
LINE
  5
20C
330
2
100
AcDbEntity
  8
GEB-VERDECKT
 48
25.0
100
AcDbLine
 10
26.50000000000003
 20
-4.949999999990751
 30
0.0
 11
25.47125920269687
 21
-4.949999999990751
 31
0.0
  0
LINE
  5
20D
330
2
100
AcDbEntity
  8
GEB-VERDECKT
 48
25.0
100
AcDbLine
 10
25.47125920269687
 20
4.950000000009282
 30
0.0
 11
24.90000000000006
 21
5.350000000009259
 31
0.0
  0
LINE
  5
20E
330
2
100
AcDbEntity
  8
GEB-VERDECKT
 48
25.0
100
AcDbLine
 10
25.47125920269687
 20
-4.949999999990751
 30
0.0
 11
24.90000000000001
 21
-5.349999999990728
 31
0.0
  0
LINE
  5
20F
330
2
100
AcDbEntity
  8
GEB-VERDECKT
 48
25.0
100
AcDbLine
 10
24.90000000000001
 20
4.950000000009282
 30
0.0
 11
23.97125920269687
 21
4.950000000009282
 31
0.0
  0
LINE
  5
210
330
2
100
AcDbEntity
  8
GEB-VERDECKT
 48
25.0
100
AcDbLine
 10
24.90000000000001
 20
-4.949999999990751
 30
0.0
 11
23.97125920269687
 21
-4.949999999990751
 31
0.0
  0
LINE
  5
211
330
2
100
AcDbEntity
  8
GEB-VERDECKT
 48
25.0
100
AcDbLine
 10
23.97125920269687
 20
4.950000000009282
 30
0.0
 11
23.40000000000006
 21
5.350000000009259
 31
0.0
  0
LINE
  5
212
330
2
100
AcDbEntity
  8
GEB-VERDECKT
 48
25.0
100
AcDbLine
 10
23.97125920269687
 20
-4.949999999990751
 30
0.0
 11
23.40000000000006
 21
-5.349999999990728
 31
0.0
  0
LINE
  5
213
330
2
100
AcDbEntity
  8
GEB-VERDECKT
 48
25.0
100
AcDbLine
 10
23.40000000000006
 20
5.100000000009288
 30
0.0
 11
22.00000000000003
 21
5.100000000009288
 31
0.0
  0
LINE
  5
214
330
2
100
AcDbEntity
  8
GEB-VERDECKT
 48
25.0
100
AcDbLine
 10
23.40000000000006
 20
-5.099999999990728
 30
0.0
 11
22.00000000000003
 21
-5.099999999990728
 31
0.0
  0
ARC
  5
215
330
2
100
AcDbEntity
  8
GEB-VERDECKT
 48
25.0
100
AcDbCircle
 10
47.60000000000005
 20
-4.911706186102861
 30
0.0
 40
0.4
100
AcDbArc
 50
280.0000000000002
 51
0.0
  0
ARC
  5
216
330
2
100
AcDbEntity
  8
GEB-VERDECKT
 48
25.0
100
AcDbCircle
 10
47.60000000000005
 20
4.911706186121421
 30
0.0
 40
0.3999999999999999
100
AcDbArc
 50
0.0
 51
79.9999999999998
  0
LINE
  5
217
330
2
100
AcDbEntity
  8
GEB-VERDECKT
 48
25.0
100
AcDbLine
 10
47.66945927106681
 20
5.305629287326325
 30
0.0
 11
46.00000000000003
 21
5.600000000009259
 31
0.0
  0
LINE
  5
218
330
2
100
AcDbEntity
  8
GEB-VERDECKT
 48
25.0
100
AcDbLine
 10
47.66945927106681
 20
-5.305629287307766
 30
0.0
 11
46.00000000000003
 21
-5.599999999990728
 31
0.0
  0
LINE
  5
219
330
2
100
AcDbEntity
  8
GEB-VERDECKT
 48
25.0
100
AcDbLine
 10
40.63360216802286
 20
5.600000000009259
 30
0.0
 11
38.30000000000004
 21
5.600000000009259
 31
0.0
  0
LINE
  5
21A
330
2
100
AcDbEntity
  8
GEB-VERDECKT
 48
25.0
100
AcDbLine
 10
40.63360216802286
 20
-5.599999999990728
 30
0.0
 11
38.30000000000004
 21
-5.599999999990728
 31
0.0
  0
LINE
  5
21B
330
2
100
AcDbEntity
  8
GEB-VERDECKT
 48
25.0
100
AcDbLine
 10
38.30000000000004
 20
5.200000000009282
 30
0.0
 11
37.20000000000002
 21
5.200000000009282
 31
0.0
  0
LINE
  5
21C
330
2
100
AcDbEntity
  8
GEB-VERDECKT
 48
25.0
100
AcDbLine
 10
38.30000000000004
 20
-5.199999999990723
 30
0.0
 11
37.20000000000002
 21
-5.199999999990723
 31
0.0
  0
LINE
  5
21D
330
2
100
AcDbEntity
  8
GEB-VERDECKT
 48
25.0
100
AcDbLine
 10
32.30000000000004
 20
5.600000000009259
 30
0.0
 11
28.30000000000004
 21
5.600000000009259
 31
0.0
  0
LINE
  5
21E
330
2
100
AcDbEntity
  8
GEB-VERDECKT
 48
25.0
100
AcDbLine
 10
32.30000000000004
 20
-5.599999999990728
 30
0.0
 11
28.30000000000004
 21
-5.599999999990728
 31
0.0
  0
LINE
  5
21F
330
2
100
AcDbEntity
  8
GEB-VERDECKT
 48
25.0
100
AcDbLine
 10
46.00000000000003
 20
5.600000000009259
 30
0.0
 11
44.76639783197717
 21
5.600000000009259
 31
0.0
  0
LINE
  5
220
330
2
100
AcDbEntity
  8
GEB-VERDECKT
 48
25.0
100
AcDbLine
 10
46.00000000000003
 20
-5.599999999990728
 30
0.0
 11
44.76639783197717
 21
-5.599999999990728
 31
0.0
  0
LINE
  5
221
330
2
100
AcDbEntity
  8
GEB-VERDECKT
 48
25.0
100
AcDbLine
 10
35.20000000000002
 20
5.200000000009282
 30
0.0
 11
35.20000000000002
 21
-5.199999999990723
 31
0.0
  0
LINE
  5
222
330
2
100
AcDbEntity
  8
GEB-VERDECKT
 48
25.0
100
AcDbLine
 10
25.47125920269687
 20
4.950000000009282
 30
0.0
 11
25.47125920269687
 21
-4.949999999990751
 31
0.0
  0
LINE
  5
223
330
2
100
AcDbEntity
  8
GEB-VERDECKT
 48
25.0
100
AcDbLine
 10
24.90000000000001
 20
5.350000000009259
 30
0.0
 11
24.90000000000001
 21
-5.349999999990728
 31
0.0
  0
LINE
  5
224
330
2
100
AcDbEntity
  8
GEB-VERDECKT
 48
25.0
100
AcDbLine
 10
23.97125920269687
 20
4.950000000009282
 30
0.0
 11
23.97125920269687
 21
-4.949999999990751
 31
0.0
  0
LINE
  5
225
330
2
100
AcDbEntity
  8
GEB-VERDECKT
 48
25.0
100
AcDbLine
 10
23.40000000000006
 20
5.350000000009259
 30
0.0
 11
23.40000000000006
 21
-5.349999999990728
 31
0.0
  0
LINE
  5
226
330
2
100
AcDbEntity
  8
GEB-VERDECKT
 48
25.0
100
AcDbLine
 10
48.00000000000003
 20
-4.911706186102861
 30
0.0
 11
48.00000000000003
 21
4.911706186121421
 31
0.0
  0
LINE
  5
227
330
2
100
AcDbEntity
  8
GEB-VERDECKT
 48
25.0
100
AcDbLine
 10
38.30000000000004
 20
5.600000000009259
 30
0.0
 11
38.30000000000004
 21
-5.599999999990728
 31
0.0
  0
LINE
  5
228
330
2
100
AcDbEntity
  8
GEB-VERDECKT
 48
25.0
100
AcDbLine
 10
37.20000000000002
 20
5.200000000009282
 30
0.0
 11
37.20000000000002
 21
-5.199999999990723
 31
0.0
  0
LINE
  5
229
330
2
100
AcDbEntity
  8
GEB-VERDECKT
 48
25.0
100
AcDbLine
 10
26.50000000000003
 20
-5.477626564099693
 30
0.0
 11
26.50000000000003
 21
-5.569322614052907
 31
0.0
  0
LINE
  5
22A
330
2
100
AcDbEntity
  8
GEB-VERDECKT
 48
25.0
100
AcDbLine
 10
26.50000000000003
 20
-4.84974226118274
 30
0.0
 11
26.50000000000003
 21
-5.115854562788626
 31
0.0
  0
LINE
  5
22B
330
2
100
AcDbEntity
  8
GEB-VERDECKT
 48
25.0
100
AcDbLine
 10
26.50000000000003
 20
-3.747131395599126
 30
0.0
 11
26.50000000000003
 21
-4.161611022663038
 31
0.0
  0
LINE
  5
22C
330
2
100
AcDbEntity
  8
GEB-VERDECKT
 48
25.0
100
AcDbLine
 10
26.50000000000003
 20
-2.277725201213712
 30
0.0
 11
26.50000000000003
 21
-2.799999999989324
 31
0.0
  0
LINE
  5
22D
330
2
100
AcDbEntity
  8
GEB-VERDECKT
 48
25.0
100
AcDbLine
 10
26.50000000000003
 20
-0.5853593942879343
 30
0.0
 11
26.50000000000003
 21
-1.164305468568585
 31
0.0
  0
LINE
  5
22E
330
2
100
AcDbEntity
  8
GEB-VERDECKT
 48
25.0
100
AcDbLine
 10
26.50000000000003
 20
1.164305468590356
 30
0.0
 11
26.50000000000003
 21
0.5853593943097906
 31
0.0
  0
LINE
  5
22F
330
2
100
AcDbEntity
  8
GEB-VERDECKT
 48
25.0
100
AcDbLine
 10
26.50000000000003
 20
2.800000000010697
 30
0.0
 11
26.50000000000003
 21
2.277725201235256
 31
0.0
  0
LINE
  5
230
330
2
100
AcDbEntity
  8
GEB-VERDECKT
 48
25.0
100
AcDbLine
 10
26.50000000000003
 20
4.161611022683786
 30
0.0
 11
26.50000000000003
 21
3.747131395620129
 31
0.0
  0
LINE
  5
231
330
2
100
AcDbEntity
  8
GEB-VERDECKT
 48
25.0
100
AcDbLine
 10
26.50000000000003
 20
5.115854562808522
 30
0.0
 11
26.50000000000003
 21
4.849742261202976
 31
0.0
  0
LINE
  5
232
330
2
100
AcDbEntity
  8
GEB-VERDECKT
 48
25.0
100
AcDbLine
 10
26.50000000000003
 20
5.569322614071808
 30
0.0
 11
26.50000000000003
 21
5.477626564118935
 31
0.0
  0
LINE
  5
233
330
2
100
AcDbEntity
  8
GEB-VERDECKT
 48
25.0
100
AcDbLine
 10
46.00000000000003
 20
5.600000000009259
 30
0.0
 11
46.00000000000003
 21
-5.599999999990728
 31
0.0
  0
LINE
  5
234
330
2
100
AcDbEntity
  8
GEB-VERDECKT
 48
25.0
100
AcDbLine
 10
34.10000000000005
 20
5.569322614071808
 30
0.0
 11
34.10000000000005
 21
5.477626564118935
 31
0.0
  0
LINE
  5
235
330
2
100
AcDbEntity
  8
GEB-VERDECKT
 48
25.0
100
AcDbLine
 10
34.10000000000005
 20
5.115854562808522
 30
0.0
 11
34.10000000000005
 21
4.849742261202976
 31
0.0
  0
LINE
  5
236
330
2
100
AcDbEntity
  8
GEB-VERDECKT
 48
25.0
100
AcDbLine
 10
34.10000000000005
 20
4.161611022683786
 30
0.0
 11
34.10000000000005
 21
3.747131395620129
 31
0.0
  0
LINE
  5
237
330
2
100
AcDbEntity
  8
GEB-VERDECKT
 48
25.0
100
AcDbLine
 10
34.10000000000005
 20
2.800000000010697
 30
0.0
 11
34.10000000000005
 21
2.277725201235256
 31
0.0
  0
LINE
  5
238
330
2
100
AcDbEntity
  8
GEB-VERDECKT
 48
25.0
100
AcDbLine
 10
34.10000000000005
 20
1.164305468590356
 30
0.0
 11
34.10000000000005
 21
0.5853593943097906
 31
0.0
  0
LINE
  5
239
330
2
100
AcDbEntity
  8
GEB-VERDECKT
 48
25.0
100
AcDbLine
 10
34.10000000000005
 20
-0.5853593942879343
 30
0.0
 11
34.10000000000005
 21
-1.164305468568585
 31
0.0
  0
LINE
  5
23A
330
2
100
AcDbEntity
  8
GEB-VERDECKT
 48
25.0
100
AcDbLine
 10
34.10000000000005
 20
-2.277725201213712
 30
0.0
 11
34.10000000000005
 21
-2.799999999989296
 31
0.0
  0
LINE
  5
23B
330
2
100
AcDbEntity
  8
GEB-VERDECKT
 48
25.0
100
AcDbLine
 10
34.10000000000005
 20
-3.747131395599126
 30
0.0
 11
34.10000000000005
 21
-4.161611022663038
 31
0.0
  0
LINE
  5
23C
330
2
100
AcDbEntity
  8
GEB-VERDECKT
 48
25.0
100
AcDbLine
 10
34.10000000000005
 20
-4.84974226118274
 30
0.0
 11
34.10000000000005
 21
-5.115854562788626
 31
0.0
  0
LINE
  5
23D
330
2
100
AcDbEntity
  8
GEB-VERDECKT
 48
25.0
100
AcDbLine
 10
34.10000000000005
 20
-5.477626564099693
 30
0.0
 11
34.10000000000005
 21
-5.569322614052907
 31
0.0
  0
LINE
  5
23E
330
2
100
AcDbEntity
  8
GEB-VERDECKT
 48
25.0
100
AcDbLine
 10
32.30000000000004
 20
-5.569322614052907
 30
0.0
 11
32.30000000000004
 21
-5.599999999990757
 31
0.0
  0
LINE
  5
23F
330
2
100
AcDbEntity
  8
GEB-VERDECKT
 48
25.0
100
AcDbLine
 10
32.30000000000004
 20
-5.477626564099892
 30
0.0
 11
32.30000000000004
 21
-5.569322614052879
 31
0.0
  0
LINE
  5
240
330
2
100
AcDbEntity
  8
GEB-VERDECKT
 48
25.0
100
AcDbLine
 10
32.30000000000004
 20
-5.569322614052879
 30
0.0
 11
34.10000000000005
 21
-5.569322614052879
 31
0.0
  0
LINE
  5
241
330
2
100
AcDbEntity
  8
GEB-VERDECKT
 48
25.0
100
AcDbLine
 10
32.30000000000004
 20
-4.949999999990751
 30
0.0
 11
34.10000000000005
 21
-4.949999999990751
 31
0.0
  0
LINE
  5
242
330
2
100
AcDbEntity
  8
GEB-VERDECKT
 48
25.0
100
AcDbLine
 10
32.30000000000004
 20
-5.115854562788626
 30
0.0
 11
32.30000000000004
 21
-5.477626564099693
 31
0.0
  0
LINE
  5
243
330
2
100
AcDbEntity
  8
GEB-VERDECKT
 48
25.0
100
AcDbLine
 10
32.30000000000004
 20
-4.849742261183024
 30
0.0
 11
32.30000000000004
 21
-5.115854562788626
 31
0.0
  0
LINE
  5
244
330
2
100
AcDbEntity
  8
GEB-VERDECKT
 48
25.0
100
AcDbLine
 10
32.30000000000004
 20
-5.115854562788626
 30
0.0
 11
34.10000000000005
 21
-5.115854562788626
 31
0.0
  0
LINE
  5
245
330
2
100
AcDbEntity
  8
GEB-VERDECKT
 48
25.0
100
AcDbLine
 10
34.10000000000005
 20
-5.115854562788911
 30
0.0
 11
34.10000000000005
 21
-5.477626564099693
 31
0.0
  0
LINE
  5
246
330
2
100
AcDbEntity
  8
GEB-VERDECKT
 48
25.0
100
AcDbLine
 10
34.10000000000005
 20
-5.477626564099693
 30
0.0
 11
32.30000000000004
 21
-5.477626564099693
 31
0.0
  0
LINE
  5
247
330
2
100
AcDbEntity
  8
GEB-VERDECKT
 48
25.0
100
AcDbLine
 10
32.30000000000004
 20
-4.707729755651286
 30
0.0
 11
34.10000000000005
 21
-4.707729755651286
 31
0.0
  0
LINE
  5
248
330
2
100
AcDbEntity
  8
GEB-VERDECKT
 48
25.0
100
AcDbLine
 10
32.30000000000004
 20
-4.161611022663009
 30
0.0
 11
32.30000000000004
 21
-4.84974226118274
 31
0.0
  0
LINE
  5
249
330
2
100
AcDbEntity
  8
GEB-VERDECKT
 48
25.0
100
AcDbLine
 10
32.30000000000004
 20
-4.004634122145859
 30
0.0
 11
32.30000000000004
 21
-4.161611022663009
 31
0.0
  0
LINE
  5
24A
330
2
100
AcDbEntity
  8
GEB-VERDECKT
 48
25.0
100
AcDbLine
 10
32.30000000000004
 20
-4.161611022663009
 30
0.0
 11
34.10000000000005
 21
-4.161611022663009
 31
0.0
  0
LINE
  5
24B
330
2
100
AcDbEntity
  8
GEB-VERDECKT
 48
25.0
100
AcDbLine
 10
34.10000000000005
 20
-4.338745831466326
 30
0.0
 11
34.10000000000005
 21
-4.84974226118274
 31
0.0
  0
LINE
  5
24C
330
2
100
AcDbEntity
  8
GEB-VERDECKT
 48
25.0
100
AcDbLine
 10
34.10000000000005
 20
-4.84974226118274
 30
0.0
 11
32.30000000000004
 21
-4.84974226118274
 31
0.0
  0
LINE
  5
24D
330
2
100
AcDbEntity
  8
GEB-VERDECKT
 48
25.0
100
AcDbLine
 10
32.30000000000004
 20
-4.004634122145859
 30
0.0
 11
34.10000000000005
 21
-4.004634122145859
 31
0.0
  0
LINE
  5
24E
330
2
100
AcDbEntity
  8
GEB-VERDECKT
 48
25.0
100
AcDbLine
 10
34.10000000000005
 20
-4.161611022663208
 30
0.0
 11
34.10000000000005
 21
-4.338745831466326
 31
0.0
  0
LINE
  5
24F
330
2
100
AcDbEntity
  8
GEB-VERDECKT
 48
25.0
100
AcDbLine
 10
32.30000000000004
 20
-2.799999999989324
 30
0.0
 11
32.30000000000004
 21
-3.747131395599126
 31
0.0
  0
LINE
  5
250
330
2
100
AcDbEntity
  8
GEB-VERDECKT
 48
25.0
100
AcDbLine
 10
32.30000000000004
 20
-2.799999999989296
 30
0.0
 11
34.10000000000005
 21
-2.799999999989296
 31
0.0
  0
LINE
  5
251
330
2
100
AcDbEntity
  8
GEB-VERDECKT
 48
25.0
100
AcDbLine
 10
34.10000000000005
 20
-2.799999999989296
 30
0.0
 11
34.10000000000005
 21
-2.866231778796873
 31
0.0
  0
LINE
  5
252
330
2
100
AcDbEntity
  8
GEB-VERDECKT
 48
25.0
100
AcDbLine
 10
34.10000000000005
 20
-3.240678166094596
 30
0.0
 11
34.10000000000005
 21
-3.747131395599097
 31
0.0
  0
LINE
  5
253
330
2
100
AcDbEntity
  8
GEB-VERDECKT
 48
25.0
100
AcDbLine
 10
34.10000000000005
 20
-3.747131395599097
 30
0.0
 11
32.30000000000004
 21
-3.747131395599097
 31
0.0
  0
LINE
  5
254
330
2
100
AcDbEntity
  8
GEB-VERDECKT
 48
25.0
100
AcDbLine
 10
32.30000000000004
 20
-2.909536998837296
 30
0.0
 11
34.10000000000005
 21
-2.909536998837296
 31
0.0
  0
LINE
  5
255
330
2
100
AcDbEntity
  8
GEB-VERDECKT
 48
25.0
100
AcDbLine
 10
34.10000000000005
 20
-2.866231778796901
 30
0.0
 11
34.10000000000005
 21
-3.240678166094625
 31
0.0
  0
LINE
  5
256
330
2
100
AcDbEntity
  8
GEB-VERDECKT
 48
25.0
100
AcDbLine
 10
32.30000000000004
 20
-1.164305468568528
 30
0.0
 11
32.30000000000004
 21
-2.277725201213655
 31
0.0
  0
LINE
  5
257
330
2
100
AcDbEntity
  8
GEB-VERDECKT
 48
25.0
100
AcDbLine
 10
32.30000000000004
 20
-1.164305468568528
 30
0.0
 11
34.10000000000005
 21
-1.164305468568528
 31
0.0
  0
LINE
  5
258
330
2
100
AcDbEntity
  8
GEB-VERDECKT
 48
25.0
100
AcDbLine
 10
34.10000000000005
 20
-1.164305468568528
 30
0.0
 11
34.10000000000005
 21
-1.385202214236613
 31
0.0
  0
LINE
  5
259
330
2
100
AcDbEntity
  8
GEB-VERDECKT
 48
25.0
100
AcDbLine
 10
34.10000000000005
 20
-1.825390342692202
 30
0.0
 11
34.10000000000005
 21
-2.277725201213712
 31
0.0
  0
LINE
  5
25A
330
2
100
AcDbEntity
  8
GEB-VERDECKT
 48
25.0
100
AcDbLine
 10
34.10000000000005
 20
-2.277725201213712
 30
0.0
 11
32.30000000000004
 21
-2.277725201213712
 31
0.0
  0
LINE
  5
25B
330
2
100
AcDbEntity
  8
GEB-VERDECKT
 48
25.0
100
AcDbLine
 10
32.30000000000004
 20
-1.529634122145324
 30
0.0
 11
34.10000000000005
 21
-1.529634122145324
 31
0.0
  0
LINE
  5
25C
330
2
100
AcDbEntity
  8
GEB-VERDECKT
 48
25.0
100
AcDbLine
 10
34.10000000000005
 20
-1.385202214236585
 30
0.0
 11
34.10000000000005
 21
-1.825390342692202
 31
0.0
  0
LINE
  5
25D
330
2
100
AcDbEntity
  8
GEB-VERDECKT
 48
25.0
100
AcDbLine
 10
32.30000000000004
 20
0.5853593943097906
 30
0.0
 11
32.30000000000004
 21
-0.5853593942879343
 31
0.0
  0
LINE
  5
25E
330
2
100
AcDbEntity
  8
GEB-VERDECKT
 48
25.0
100
AcDbLine
 10
32.30000000000004
 20
0.5853593943097906
 30
0.0
 11
34.10000000000005
 21
0.5853593943097906
 31
0.0
  0
LINE
  5
25F
330
2
100
AcDbEntity
  8
GEB-VERDECKT
 48
25.0
100
AcDbLine
 10
34.10000000000005
 20
0.5853593943097906
 30
0.0
 11
34.10000000000005
 21
0.2314205943253853
 31
0.0
  0
LINE
  5
260
330
2
100
AcDbEntity
  8
GEB-VERDECKT
 48
25.0
100
AcDbLine
 10
34.10000000000005
 20
-0.2314205943037848
 30
0.0
 11
34.10000000000005
 21
-0.5853593942879343
 31
0.0
  0
LINE
  5
261
330
2
100
AcDbEntity
  8
GEB-VERDECKT
 48
25.0
100
AcDbLine
 10
34.10000000000005
 20
-0.5853593942879343
 30
0.0
 11
32.30000000000004
 21
-0.5853593942879343
 31
0.0
  0
LINE
  5
262
330
2
100
AcDbEntity
  8
GEB-VERDECKT
 48
25.0
100
AcDbLine
 10
32.30000000000004
 20
0.000000000010715
 30
0.0
 11
34.10000000000005
 21
0.000000000010715
 31
0.0
  0
LINE
  5
263
330
2
100
AcDbEntity
  8
GEB-VERDECKT
 48
25.0
100
AcDbLine
 10
34.10000000000005
 20
0.2314205943253853
 30
0.0
 11
34.10000000000005
 21
-0.2314205943037848
 31
0.0
  0
LINE
  5
264
330
2
100
AcDbEntity
  8
GEB-VERDECKT
 48
25.0
100
AcDbLine
 10
32.30000000000004
 20
2.277725201235313
 30
0.0
 11
32.30000000000004
 21
1.164305468590356
 31
0.0
  0
LINE
  5
265
330
2
100
AcDbEntity
  8
GEB-VERDECKT
 48
25.0
100
AcDbLine
 10
32.30000000000004
 20
2.277725201235256
 30
0.0
 11
34.10000000000005
 21
2.277725201235256
 31
0.0
  0
LINE
  5
266
330
2
100
AcDbEntity
  8
GEB-VERDECKT
 48
25.0
100
AcDbLine
 10
34.10000000000005
 20
2.277725201235256
 30
0.0
 11
34.10000000000005
 21
1.825390342713603
 31
0.0
  0
LINE
  5
267
330
2
100
AcDbEntity
  8
GEB-VERDECKT
 48
25.0
100
AcDbLine
 10
34.10000000000005
 20
1.3852022142581
 30
0.0
 11
34.10000000000005
 21
1.164305468590356
 31
0.0
  0
LINE
  5
268
330
2
100
AcDbEntity
  8
GEB-VERDECKT
 48
25.0
100
AcDbLine
 10
34.10000000000005
 20
1.164305468590356
 30
0.0
 11
32.30000000000004
 21
1.164305468590356
 31
0.0
  0
LINE
  5
269
330
2
100
AcDbEntity
  8
GEB-VERDECKT
 48
25.0
100
AcDbLine
 10
32.30000000000004
 20
1.52963412216664
 30
0.0
 11
34.10000000000005
 21
1.52963412216664
 31
0.0
  0
LINE
  5
26A
330
2
100
AcDbEntity
  8
GEB-VERDECKT
 48
25.0
100
AcDbLine
 10
34.10000000000005
 20
1.825390342713603
 30
0.0
 11
34.10000000000005
 21
1.3852022142581
 31
0.0
  0
LINE
  5
26B
330
2
100
AcDbEntity
  8
GEB-VERDECKT
 48
25.0
100
AcDbLine
 10
32.30000000000004
 20
3.747131395620129
 30
0.0
 11
32.30000000000004
 21
2.800000000010697
 31
0.0
  0
LINE
  5
26C
330
2
100
AcDbEntity
  8
GEB-VERDECKT
 48
25.0
100
AcDbLine
 10
32.30000000000004
 20
3.747131395620129
 30
0.0
 11
34.10000000000005
 21
3.747131395620129
 31
0.0
  0
LINE
  5
26D
330
2
100
AcDbEntity
  8
GEB-VERDECKT
 48
25.0
100
AcDbLine
 10
34.10000000000005
 20
3.747131395620129
 30
0.0
 11
34.10000000000005
 21
3.240678166115571
 31
0.0
  0
LINE
  5
26E
330
2
100
AcDbEntity
  8
GEB-VERDECKT
 48
25.0
100
AcDbLine
 10
34.10000000000005
 20
2.866231778817962
 30
0.0
 11
34.10000000000005
 21
2.800000000010697
 31
0.0
  0
LINE
  5
26F
330
2
100
AcDbEntity
  8
GEB-VERDECKT
 48
25.0
100
AcDbLine
 10
34.10000000000005
 20
2.800000000010697
 30
0.0
 11
32.30000000000004
 21
2.800000000010697
 31
0.0
  0
LINE
  5
270
330
2
100
AcDbEntity
  8
GEB-VERDECKT
 48
25.0
100
AcDbLine
 10
32.30000000000004
 20
2.909536998858186
 30
0.0
 11
34.10000000000005
 21
2.909536998858186
 31
0.0
  0
LINE
  5
271
330
2
100
AcDbEntity
  8
GEB-VERDECKT
 48
25.0
100
AcDbLine
 10
34.10000000000005
 20
3.240678166115571
 30
0.0
 11
34.10000000000005
 21
2.866231778817962
 31
0.0
  0
LINE
  5
272
330
2
100
AcDbEntity
  8
GEB-VERDECKT
 48
25.0
100
AcDbLine
 10
32.30000000000004
 20
4.849742261202976
 30
0.0
 11
32.30000000000004
 21
4.161611022683786
 31
0.0
  0
LINE
  5
273
330
2
100
AcDbEntity
  8
GEB-VERDECKT
 48
25.0
100
AcDbLine
 10
32.30000000000004
 20
4.849742261202976
 30
0.0
 11
34.10000000000005
 21
4.849742261202976
 31
0.0
  0
LINE
  5
274
330
2
100
AcDbEntity
  8
GEB-VERDECKT
 48
25.0
100
AcDbLine
 10
34.10000000000005
 20
4.849742261202976
 30
0.0
 11
34.10000000000005
 21
4.33874583148659
 31
0.0
  0
LINE
  5
275
330
2
100
AcDbEntity
  8
GEB-VERDECKT
 48
25.0
100
AcDbLine
 10
34.10000000000005
 20
4.161611022683786
 30
0.0
 11
32.30000000000004
 21
4.161611022683786
 31
0.0
  0
LINE
  5
276
330
2
100
AcDbEntity
  8
GEB-VERDECKT
 48
25.0
100
AcDbLine
 10
32.30000000000004
 20
4.161611022683786
 30
0.0
 11
32.30000000000004
 21
4.004634122166123
 31
0.0
  0
LINE
  5
277
330
2
100
AcDbEntity
  8
GEB-VERDECKT
 48
25.0
100
AcDbLine
 10
32.30000000000004
 20
4.004634122166123
 30
0.0
 11
34.10000000000005
 21
4.004634122166123
 31
0.0
  0
LINE
  5
278
330
2
100
AcDbEntity
  8
GEB-VERDECKT
 48
25.0
100
AcDbLine
 10
34.10000000000005
 20
4.338745831486619
 30
0.0
 11
34.10000000000005
 21
4.161611022683615
 31
0.0
  0
LINE
  5
279
330
2
100
AcDbEntity
  8
GEB-VERDECKT
 48
25.0
100
AcDbLine
 10
32.30000000000004
 20
5.477626564118907
 30
0.0
 11
32.30000000000004
 21
5.115854562808493
 31
0.0
  0
LINE
  5
27A
330
2
100
AcDbEntity
  8
GEB-VERDECKT
 48
25.0
100
AcDbLine
 10
32.30000000000004
 20
5.477626564118935
 30
0.0
 11
34.10000000000005
 21
5.477626564118935
 31
0.0
  0
LINE
  5
27B
330
2
100
AcDbEntity
  8
GEB-VERDECKT
 48
25.0
100
AcDbLine
 10
34.10000000000005
 20
5.477626564118935
 30
0.0
 11
34.10000000000005
 21
5.115854562808237
 31
0.0
  0
LINE
  5
27C
330
2
100
AcDbEntity
  8
GEB-VERDECKT
 48
25.0
100
AcDbLine
 10
34.10000000000005
 20
5.115854562808522
 30
0.0
 11
32.30000000000004
 21
5.115854562808522
 31
0.0
  0
LINE
  5
27D
330
2
100
AcDbEntity
  8
GEB-VERDECKT
 48
25.0
100
AcDbLine
 10
32.30000000000004
 20
5.115854562808522
 30
0.0
 11
32.30000000000004
 21
4.849742261202635
 31
0.0
  0
LINE
  5
27E
330
2
100
AcDbEntity
  8
GEB-VERDECKT
 48
25.0
100
AcDbLine
 10
32.30000000000004
 20
4.707729755670726
 30
0.0
 11
34.10000000000005
 21
4.707729755670726
 31
0.0
  0
LINE
  5
27F
330
2
100
AcDbEntity
  8
GEB-VERDECKT
 48
25.0
100
AcDbLine
 10
32.30000000000004
 20
5.600000000009259
 30
0.0
 11
32.30000000000004
 21
5.569322614071751
 31
0.0
  0
LINE
  5
280
330
2
100
AcDbEntity
  8
GEB-VERDECKT
 48
25.0
100
AcDbLine
 10
34.10000000000005
 20
5.569322614071751
 30
0.0
 11
32.30000000000004
 21
5.569322614071751
 31
0.0
  0
LINE
  5
281
330
2
100
AcDbEntity
  8
GEB-VERDECKT
 48
25.0
100
AcDbLine
 10
32.30000000000004
 20
5.569322614071751
 30
0.0
 11
32.30000000000004
 21
5.477626564118736
 31
0.0
  0
LINE
  5
282
330
2
100
AcDbEntity
  8
GEB-VERDECKT
 48
25.0
100
AcDbLine
 10
32.30000000000004
 20
4.950000000009282
 30
0.0
 11
34.10000000000005
 21
4.950000000009282
 31
0.0
  0
LINE
  5
283
330
2
100
AcDbEntity
  8
GEB-VERDECKT
 48
25.0
100
AcDbLine
 10
-21.99999999999997
 20
-3.249999999990706
 30
0.0
 11
22.00000000000003
 21
-3.249999999990706
 31
0.0
  0
LINE
  5
284
330
2
100
AcDbEntity
  8
GEB-VERDECKT
 48
25.0
100
AcDbLine
 10
-21.99999999999997
 20
3.250000000009265
 30
0.0
 11
22.00000000000003
 21
3.250000000009265
 31
0.0
  0
LINE
  5
285
330
2
100
AcDbEntity
  8
GEB-KONTUR-A
 48
25.0
100
AcDbLine
 10
-19.4
 20
-4.899999999990711
 30
0.0
 11
-6.504805770653945
 21
-4.899999999990711
 31
0.0
  0
LINE
  5
287
330
2
100
AcDbEntity
  8
GEB-KONTUR-A
 48
25.0
100
AcDbLine
 10
-19.4
 20
4.900000000009271
 30
0.0
 11
-6.504805770653945
 21
4.900000000009271
 31
0.0
  0
LINE
  5
288
330
2
100
AcDbEntity
  8
GEB-KONTUR-A
 48
25.0
100
AcDbLine
 10
7.178910076652272
 20
-4.899999999990711
 30
0.0
 11
19.4
 21
-4.899999999990711
 31
0.0
  0
LINE
  5
289
330
2
100
AcDbEntity
  8
GEB-KONTUR-A
 48
25.0
100
AcDbLine
 10
7.178910076652272
 20
4.900000000009271
 30
0.0
 11
19.4
 21
4.900000000009271
 31
0.0
  0
LINE
  5
28A
330
2
100
AcDbEntity
  8
GEB-KONTUR-A
 48
25.0
100
AcDbLine
 10
-6.504805770653945
 20
4.900000000009555
 30
0.0
 11
7.174678751731761
 21
4.900000000009555
 31
0.0
  0
LINE
  5
28B
330
2
100
AcDbEntity
  8
GEB-KONTUR-A
 48
25.0
100
AcDbLine
 10
7.174678751731761
 20
-4.899999999990455
 30
0.0
 11
-6.504805770653945
 21
-4.899999999990427
 31
0.0
  0
ARC
  5
28C
330
2
100
AcDbEntity
  8
GEB-KONTUR-A
 48
25.0
100
AcDbCircle
 10
7.174678751731761
 20
-2.399999999990569
 30
0.0
 40
2.499999999999891
100
AcDbArc
 50
270.0
 51
279.8035145816793
  0
ARC
  5
28D
330
2
100
AcDbEntity
  8
GEB-KONTUR-A
 48
25.0
100
AcDbCircle
 10
7.174678751731761
 20
2.40000000000964
 30
0.0
 40
2.49999999999989
100
AcDbArc
 50
80.19648541832072
 51
90.0
  0
ARC
  5
28E
330
2
100
AcDbEntity
  8
GEB-KONTUR-A
 48
25.0
100
AcDbCircle
 10
-6.504805770653945
 20
0.1000000000094872
 30
0.0
 40
4.99999999999994
100
AcDbArc
 50
262.143131986057
 51
270.0
  0
ARC
  5
28F
330
2
100
AcDbEntity
  8
GEB-KONTUR-A
 48
25.0
100
AcDbCircle
 10
-6.504805770653945
 20
-0.0999999999906436
 30
0.0
 40
5.000000000000175
100
AcDbArc
 50
90.0
 51
97.85686801387223
  0
ARC
  5
290
330
2
100
AcDbEntity
  8
GEB-VERDECKT
 48
25.0
100
AcDbCircle
 10
0.0
 20
0.0000000000092655
 30
0.0
 40
3.25
100
AcDbArc
 50
90.00000000001628
 51
270.0000000000163
  0
ARC
  5
291
330
2
100
AcDbEntity
  8
GEB-VERDECKT
 48
25.0
100
AcDbCircle
 10
0.0
 20
0.0000000000092655
 30
0.0
 40
3.25
100
AcDbArc
 50
269.9999999999838
 51
89.99999999998371
  0
ARC
  5
292
330
2
100
AcDbEntity
  8
GEB-VERDECKT
 48
25.0
100
AcDbCircle
 10
0.0
 20
0.0000000000092655
 30
0.0
 40
4.9
100
AcDbArc
 50
269.9999999999755
 51
89.99999999997557
  0
ARC
  5
293
330
2
100
AcDbEntity
  8
GEB-VERDECKT
 48
25.0
100
AcDbCircle
 10
0.0
 20
0.0000000000092655
 30
0.0
 40
4.9
100
AcDbArc
 50
90.00000000002442
 51
270.0000000000244
  0
LINE
  5
294
330
2
100
AcDbEntity
  8
GEB-KONTUR-A
 48
25.0
100
AcDbLine
 10
-21.99999999999997
 20
-9.999999999990734
 30
0.0
 11
-21.50925227118881
 21
-10.84999999999073
 31
0.0
  0
LINE
  5
295
330
2
100
AcDbEntity
  8
GEB-KONTUR-A
 48
25.0
100
AcDbLine
 10
-21.99999999999997
 20
10.00000000000926
 30
0.0
 11
-21.50925227118881
 21
10.85000000000928
 31
0.0
  0
LINE
  5
296
330
2
100
AcDbEntity
  8
GEB-KONTUR-A
 48
25.0
100
AcDbLine
 10
-20.09999999999999
 20
10.85000000000928
 30
0.0
 11
-21.50925227118881
 21
10.85000000000928
 31
0.0
  0
LINE
  5
297
330
2
100
AcDbEntity
  8
GEB-KONTUR-A
 48
25.0
100
AcDbLine
 10
-20.09999999999999
 20
-10.84999999999073
 30
0.0
 11
-21.50925227118881
 21
-10.84999999999073
 31
0.0
  0
LINE
  5
298
330
2
100
AcDbEntity
  8
GEB-KONTUR-A
 48
25.0
100
AcDbLine
 10
-19.4
 20
9.637564434711038
 30
0.0
 11
-20.09999999999999
 21
10.85000000000928
 31
0.0
  0
LINE
  5
299
330
2
100
AcDbEntity
  8
GEB-KONTUR-A
 48
25.0
100
AcDbLine
 10
-19.4
 20
-9.637564434692507
 30
0.0
 11
-20.09999999999999
 21
-10.84999999999073
 31
0.0
  0
LINE
  5
29A
330
2
100
AcDbEntity
  8
GEB-KONTUR-A
 48
25.0
100
AcDbLine
 10
-21.99999999999997
 20
10.00000000000926
 30
0.0
 11
-21.99999999999997
 21
-9.999999999990734
 31
0.0
  0
LINE
  5
29B
330
2
100
AcDbEntity
  8
GEB-KONTUR-A
 48
25.0
100
AcDbLine
 10
-21.50925227118881
 20
10.85000000000928
 30
0.0
 11
-21.50925227118881
 21
-10.84999999999073
 31
0.0
  0
LINE
  5
29C
330
2
100
AcDbEntity
  8
GEB-KONTUR-A
 48
25.0
100
AcDbLine
 10
-20.09999999999999
 20
10.85000000000928
 30
0.0
 11
-20.09999999999999
 21
-10.84999999999073
 31
0.0
  0
LINE
  5
29D
330
2
100
AcDbEntity
  8
GEB-KONTUR-A
 48
25.0
100
AcDbLine
 10
-19.4
 20
9.637564434711038
 30
0.0
 11
-19.4
 21
-9.637564434692507
 31
0.0
  0
LINE
  5
29E
330
2
100
AcDbEntity
  8
GEB-KONTUR-A
 48
25.0
100
AcDbLine
 10
22.00000000000003
 20
10.00000000000926
 30
0.0
 11
21.50925227118884
 21
10.85000000000928
 31
0.0
  0
LINE
  5
29F
330
2
100
AcDbEntity
  8
GEB-KONTUR-A
 48
25.0
100
AcDbLine
 10
22.00000000000003
 20
-9.999999999990734
 30
0.0
 11
21.50925227118884
 21
-10.84999999999073
 31
0.0
  0
LINE
  5
2A0
330
2
100
AcDbEntity
  8
GEB-KONTUR-A
 48
25.0
100
AcDbLine
 10
20.10000000000005
 20
-10.84999999999073
 30
0.0
 11
21.50925227118884
 21
-10.84999999999073
 31
0.0
  0
LINE
  5
2A1
330
2
100
AcDbEntity
  8
GEB-KONTUR-A
 48
25.0
100
AcDbLine
 10
20.10000000000005
 20
10.85000000000928
 30
0.0
 11
21.50925227118884
 21
10.85000000000928
 31
0.0
  0
LINE
  5
2A2
330
2
100
AcDbEntity
  8
GEB-KONTUR-A
 48
25.0
100
AcDbLine
 10
19.4
 20
-9.637564434692507
 30
0.0
 11
20.10000000000005
 21
-10.84999999999073
 31
0.0
  0
LINE
  5
2A3
330
2
100
AcDbEntity
  8
GEB-KONTUR-A
 48
25.0
100
AcDbLine
 10
19.4
 20
9.637564434711038
 30
0.0
 11
20.10000000000005
 21
10.85000000000928
 31
0.0
  0
LINE
  5
2A4
330
2
100
AcDbEntity
  8
GEB-KONTUR-A
 48
25.0
100
AcDbLine
 10
22.00000000000003
 20
-9.999999999990734
 30
0.0
 11
22.00000000000003
 21
10.00000000000926
 31
0.0
  0
LINE
  5
2A5
330
2
100
AcDbEntity
  8
GEB-KONTUR-A
 48
25.0
100
AcDbLine
 10
21.50925227118884
 20
-10.84999999999073
 30
0.0
 11
21.50925227118884
 21
10.85000000000928
 31
0.0
  0
LINE
  5
2A6
330
2
100
AcDbEntity
  8
GEB-KONTUR-A
 48
25.0
100
AcDbLine
 10
19.4
 20
-9.637564434692507
 30
0.0
 11
19.4
 21
9.637564434711038
 31
0.0
  0
LINE
  5
2A7
330
2
100
AcDbEntity
  8
GEB-KONTUR-A
 48
25.0
100
AcDbLine
 10
20.10000000000005
 20
-10.84999999999073
 30
0.0
 11
20.10000000000005
 21
10.85000000000928
 31
0.0
  0
CIRCLE
  5
2A8
330
2
100
AcDbEntity
  8
GEB-VERDECKT
 48
25.0
100
AcDbCircle
 10
0.0
 20
0.0000000000027285
 30
0.0
 40
10.0
  0
ARC
  5
2A9
330
2
100
AcDbEntity
  8
GEB-VERDECKT
 48
25.0
100
AcDbCircle
 10
0.0
 20
0.0000000000032969
 30
0.0
 40
10.84999999999999
100
AcDbArc
 50
153.1527866739947
 51
206.8472133260038
  0
ARC
  5
2AA
330
2
100
AcDbEntity
  8
GEB-VERDECKT
 48
25.0
100
AcDbCircle
 10
0.0
 20
0.0000000000032969
 30
0.0
 40
10.85
100
AcDbArc
 50
333.1527866739961
 51
26.84721332600384
  0
ARC
  5
2AB
330
2
100
AcDbEntity
  8
GEB-VERDECKT
 48
25.0
100
AcDbCircle
 10
0.0
 20
0.0000000000035243
 30
0.0
 40
9.637564434701777
100
AcDbArc
 50
149.4408763105577
 51
210.5591236894423
  0
ARC
  5
2AC
330
2
100
AcDbEntity
  8
GEB-VERDECKT
 48
25.0
100
AcDbCircle
 10
0.0
 20
0.0000000000035243
 30
0.0
 40
9.637564434701777
100
AcDbArc
 50
329.4408763105577
 51
30.55912368944231
  0
ARC
  5
2AD
330
2
100
AcDbEntity
  8
GEB-KONTUR-A
 48
25.0
100
AcDbCircle
 10
0.0
 20
0.0000000000032969
 30
0.0
 40
10.85
100
AcDbArc
 50
206.8472133260038
 51
333.1527866739961
  0
ARC
  5
2AE
330
2
100
AcDbEntity
  8
GEB-KONTUR-A
 48
25.0
100
AcDbCircle
 10
0.0
 20
0.0000000000032969
 30
0.0
 40
10.85
100
AcDbArc
 50
26.84721332600384
 51
153.1527866739961
  0
ARC
  5
2AF
330
2
100
AcDbEntity
  8
GEB-KONTUR-A
 48
25.0
100
AcDbCircle
 10
0.0
 20
0.0000000000035243
 30
0.0
 40
9.637564434701777
100
AcDbArc
 50
210.5591236894423
 51
329.4408763105577
  0
ARC
  5
2B0
330
2
100
AcDbEntity
  8
GEB-KONTUR-A
 48
25.0
100
AcDbCircle
 10
0.0
 20
0.0000000000035243
 30
0.0
 40
9.637564434701777
100
AcDbArc
 50
30.55912368944231
 51
149.4408763105577
  0
TEXT
  5
2B1
330
2
100
AcDbEntity
  8
GEB-TEXT
100
AcDbText
 10
-33.42309004092767
 20
-21.34999999999073
 30
0.0
 40
3.5
  1
T-Stück MEP PVDF d16-16-16
 72
     1
 11
0.0000000000000284
 21
-21.34999999999073
 31
0.0
100
AcDbText
  0
TEXT
  5
2B3
330
2
100
AcDbEntity
  8
GEB-TEXT
100
AcDbText
 10
-15.35487721691675
 20
-15.84999999999073
 30
0.0
 40
3.5
  1
Geberit Mepla
 72
     1
 11
0.0000000000000284
 21
-15.84999999999073
 31
0.0
100
AcDbText
  0
TEXT
  5
2B4
330
2
100
AcDbEntity
  8
GEB-ART-NR
100
AcDbText
 10
-23.86534800556554
 20
-27.69278125427096
 30
0.0
 40
3.5
  1
GEB-ART-NR 621310
 72
     1
 11
0.1834241636022682
 21
-27.69278125427096
 31
0.0
100
AcDbText
  0
ENDSEC
  0
SECTION
  2
OBJECTS
  0
DICTIONARY
  5
9
330
0
100
AcDbDictionary
281
     1
  3
ACAD_2007HEADERVARS_RT
350
36B
  3
ACAD_COLOR
350
44
  3
ACAD_LAYOUT
350
16
  3
ACAD_MATERIAL
350
B
  3
ACAD_MLEADERSTYLE
350
47
  3
ACAD_MLINESTYLE
350
32
  3
ACAD_PLOTSETTINGS
350
33
  3
ACAD_PLOTSTYLENAME
350
8
  3
ACAD_SCALELIST
350
45
  3
ACAD_TABLESTYLE
350
46
  3
ACAD_VISUALSTYLE
350
2B
  3
ACDB_RECOMPOSE_DATA
350
36A
  3
AcDbVariableDictionary
350
314
  3
AcmDictionary
350
2C7
  3
AcmSystemVariableManager
350
382
  3
AMG
350
2B8
  0
DICTIONARY
  5
2C
330
28
100
AcDbDictionary
280
     1
281
     1
  0
DICTIONARY
  5
1C
330
1B
100
AcDbDictionary
280
     1
281
     1
  3
ACAD_LAYERFILTERS
360
1D
  3
ACLYDICTIONARY
360
1E
  0
DICTIONARY
  5
3
330
2
100
AcDbDictionary
280
     1
281
     1
  3
ACAD_SORTENTS
360
2B6
  0
DICTIONARY
  5
36B
102
{ACAD_REACTORS
330
9
102
}
330
9
100
AcDbDictionary
281
     1
  3
DIMARCSYM
350
36C
  3
DIMLTEX1
350
36E
  3
DIMLTEX2
350
36F
  3
DIMLTYPE
350
36D
  0
DICTIONARY
  5
44
102
{ACAD_REACTORS
330
9
102
}
330
9
100
AcDbDictionary
281
     1
  0
DICTIONARY
  5
16
102
{ACAD_REACTORS
330
9
102
}
330
9
100
AcDbDictionary
281
     1
  3
Layout1
350
1A
  3
Model
350
15
  0
DICTIONARY
  5
B
102
{ACAD_REACTORS
330
9
102
}
330
9
100
AcDbDictionary
281
     1
  3
ByBlock
350
3C
  3
ByLayer
350
34
  3
Global
350
A
  0
DICTIONARY
  5
47
102
{ACAD_REACTORS
330
9
102
}
330
9
100
AcDbDictionary
281
     1
  3
Standard
350
332
  0
DICTIONARY
  5
32
102
{ACAD_REACTORS
330
9
102
}
330
9
100
AcDbDictionary
281
     1
  3
Standard
350
48
  0
DICTIONARY
  5
33
102
{ACAD_REACTORS
330
9
102
}
330
9
100
AcDbDictionary
281
     1
  0
ACDBDICTIONARYWDFLT
  5
8
102
{ACAD_REACTORS
330
9
102
}
330
9
100
AcDbDictionary
281
     1
  3
Normal
350
7
100
AcDbDictionaryWithDefault
340
7
  0
DICTIONARY
  5
45
102
{ACAD_REACTORS
330
9
102
}
330
9
100
AcDbDictionary
281
     1
  3
A0
350
4D
  3
A1
350
4E
  3
A2
350
4F
  3
A3
350
50
  3
A4
350
51
  3
A5
350
52
  3
A6
350
53
  3
A7
350
54
  3
A8
350
55
  3
A9
350
56
  3
B0
350
57
  3
B1
350
58
  3
B2
350
59
  3
B3
350
5A
  3
B4
350
5B
  3
B5
350
5C
  3
B6
350
5D
  3
B7
350
5E
  3
B8
350
5F
  3
B9
350
60
  3
C0
350
61
  3
C1
350
62
  3
C2
350
63
  3
C3
350
64
  3
C4
350
65
  3
C5
350
66
  3
C6
350
67
  3
C7
350
68
  3
C8
350
69
  3
C9
350
6A
  3
D0
350
6B
  3
D1
350
6C
  3
D2
350
6D
  0
DICTIONARY
  5
46
102
{ACAD_REACTORS
330
9
102
}
330
9
100
AcDbDictionary
281
     1
  3
Standard
350
49
  0
DICTIONARY
  5
2B
102
{ACAD_REACTORS
330
9
102
}
330
9
100
AcDbDictionary
281
     1
  3
2dWireframe
350
2A
  3
Basic
350
321
  3
Brighten
350
325
  3
ColorChange
350
329
  3
Conceptual
350
323
  3
Dim
350
324
  3
EdgeColorOff
350
331
  3
Facepattern
350
328
  3
Flat
350
31D
  3
FlatWithEdges
350
31E
  3
Gouraud
350
31F
  3
GouraudWithEdges
350
320
  3
Hidden
350
322
  3
JitterOff
350
32F
  3
Linepattern
350
327
  3
OverhangOff
350
330
  3
Realistic
350
4B
  3
Shaded
350
32E
  3
Shaded with edges
350
32D
  3
Shades of Gray
350
32A
  3
Sketchy
350
32B
  3
Thicken
350
326
  3
Wireframe
350
4C
  3
X-Ray
350
32C
  0
XRECORD
  5
36A
102
{ACAD_REACTORS
330
9
102
}
330
9
100
AcDbXrecord
280
     1
 90
        1
330
49
  0
DICTIONARY
  5
314
102
{ACAD_REACTORS
330
9
102
}
330
9
100
AcDbDictionary
281
     1
  3
CANNOSCALE
350
318
  3
CMLEADERSTYLE
350
316
  3
CTABLESTYLE
350
315
  3
DIMASSOC
350
367
  3
HIDETEXT
350
366
  3
INDEXCTL
350
365
  3
LAYEREVAL
350
31A
  3
LAYERNOTIFY
350
31B
  3
LIGHTINGUNITS
350
319
  3
MSLTSCALE
350
317
  3
SORTENTS
350
364
  3
XCLIPFRAME
350
368
  0
DICTIONARY
  5
2C7
102
{ACAD_REACTORS
330
9
102
}
330
9
100
AcDbDictionary
281
     1
  3
AcmStdDictionary
350
2C8
  0
DICTIONARY
  5
2B8
102
{ACAD_REACTORS
330
9
102
}
330
9
100
AcDbDictionary
281
     1
  3
AcMgSettings
350
2C2
  0
DICTIONARY
  5
1D
102
{ACAD_REACTORS
330
1C
102
}
330
1C
100
AcDbDictionary
281
     1
  0
DICTIONARY
  5
1E
102
{ACAD_REACTORS
330
1C
102
}
330
1C
100
AcDbDictionary
281
     1
1001
ACAD
1000
<All
  0
SORTENTSTABLE
  5
2B6
102
{ACAD_REACTORS
330
3
102
}
330
3
100
AcDbSortentsTable
330
2
331
297
  5
91
331
1A7
  5
180
331
293
  5
95
331
75
  5
2AF
331
21D
  5
10A
331
1A3
  5
184
331
28F
  5
99
331
1DE
  5
149
331
219
  5
10E
331
19F
  5
188
331
28B
  5
9D
331
19B
  5
18C
331
254
  5
D3
331
215
  5
112
331
1DA
  5
14D
331
250
  5
D7
331
211
  5
116
331
B7
  5
270
331
12D
  5
1FA
331
B3
  5
274
331
EE
  5
239
331
129
  5
1FE
331
AF
  5
278
331
EA
  5
23D
331
AB
  5
27C
331
164
  5
1C3
331
125
  5
202
331
160
  5
1C7
331
121
  5
206
331
287
  5
A1
331
197
  5
190
331
1D6
  5
151
331
283
  5
A4
331
1D2
  5
155
331
24C
  5
DB
331
20D
  5
11A
331
193
  5
194
331
27F
  5
A8
331
1CE
  5
159
331
18F
  5
198
331
209
  5
11E
331
248
  5
DF
331
27B
  5
AC
331
1CA
  5
15D
331
18B
  5
19C
331
244
  5
E3
331
205
  5
122
331
240
  5
E7
331
201
  5
126
331
A7
  5
280
331
E6
  5
241
331
E2
  5
245
331
15C
  5
1CB
331
11D
  5
20A
331
A3
  5
284
331
DE
  5
249
331
9F
  5
289
331
119
  5
20E
331
158
  5
1CF
331
DA
  5
24D
331
9B
  5
28D
331
115
  5
212
331
154
  5
1D3
331
150
  5
1D7
331
111
  5
216
331
277
  5
B0
331
187
  5
1A0
331
1C6
  5
161
331
273
  5
B4
331
1C2
  5
165
331
23C
  5
EB
331
1FD
  5
12A
331
183
  5
1A4
331
26F
  5
B8
331
2AE
  5
77
331
2AA
  5
7E
331
1BE
  5
169
331
17F
  5
1A8
331
1F9
  5
12E
331
238
  5
EF
331
26B
  5
BC
331
1BA
  5
16D
331
17B
  5
1AC
331
234
  5
F3
331
1F5
  5
132
331
230
  5
F7
331
1F1
  5
136
331
97
  5
291
331
D6
  5
251
331
D2
  5
255
331
14C
  5
1DB
331
10D
  5
21A
331
93
  5
295
331
CE
  5
259
331
148
  5
1DF
331
109
  5
21E
331
8F
  5
299
331
CA
  5
25D
331
8B
  5
29D
331
105
  5
222
331
144
  5
1E3
331
140
  5
1E7
331
101
  5
226
331
2A6
  5
82
331
267
  5
C0
331
2A2
  5
86
331
177
  5
1B0
331
1B6
  5
171
331
263
  5
C4
331
1B2
  5
175
331
22C
  5
FB
331
1ED
  5
13A
331
173
  5
1B4
331
25F
  5
C8
331
29E
  5
8A
331
29A
  5
8E
331
1AE
  5
179
331
16F
  5
1B8
331
1E9
  5
13E
331
228
  5
FF
331
25B
  5
CC
331
1AA
  5
17D
331
16B
  5
1BC
331
1E5
  5
142
331
224
  5
103
331
220
  5
107
331
1E1
  5
146
331
87
  5
2A1
331
C6
  5
261
331
83
  5
2A5
331
13C
  5
1EB
331
FD
  5
22A
331
C2
  5
265
331
BE
  5
269
331
138
  5
1EF
331
F9
  5
22E
331
7F
  5
2A9
331
BA
  5
26D
331
F5
  5
232
331
134
  5
1F3
331
130
  5
1F7
331
F1
  5
236
331
296
  5
92
331
292
  5
96
331
1A6
  5
181
331
28E
  5
9A
331
21C
  5
10B
331
1A2
  5
185
331
28A
  5
9E
331
1DD
  5
14A
331
19E
  5
189
331
218
  5
10F
331
257
  5
D0
331
19A
  5
18D
331
253
  5
D4
331
214
  5
113
331
1D9
  5
14E
331
210
  5
117
331
B6
  5
271
331
12C
  5
1FB
331
B2
  5
275
331
ED
  5
23A
331
AE
  5
279
331
128
  5
1FF
331
167
  5
1C0
331
E9
  5
23E
331
AA
  5
27D
331
163
  5
1C4
331
124
  5
203
331
120
  5
207
331
282
  5
A5
331
1D5
  5
152
331
24F
  5
D8
331
196
  5
191
331
27E
  5
A9
331
1D1
  5
156
331
24B
  5
DC
331
20C
  5
11B
331
192
  5
195
331
27A
  5
AD
331
1CD
  5
15A
331
18E
  5
199
331
208
  5
11F
331
247
  5
E0
331
18A
  5
19D
331
243
  5
E4
331
204
  5
123
331
1C9
  5
15E
331
200
  5
127
331
A6
  5
281
331
15F
  5
1C8
331
E5
  5
242
331
E1
  5
246
331
15B
  5
1CC
331
11C
  5
20B
331
A2
  5
285
331
DD
  5
24A
331
9E
  5
28A
331
118
  5
20F
331
157
  5
1D0
331
D9
  5
24E
331
9A
  5
28E
331
153
  5
1D4
331
114
  5
213
331
110
  5
217
331
276
  5
B1
331
272
  5
B5
331
2B1
  5
2B4
331
186
  5
1A1
331
23F
  5
E8
331
1C5
  5
162
331
2AD
  5
78
331
26E
  5
B9
331
1C1
  5
166
331
23B
  5
EC
331
1FC
  5
12B
331
182
  5
1A5
331
2A9
  5
7F
331
26A
  5
BD
331
1BD
  5
16A
331
17E
  5
1A9
331
1F8
  5
12F
331
237
  5
F0
331
1B9
  5
16E
331
17A
  5
1AD
331
233
  5
F4
331
1F4
  5
133
331
1F0
  5
137
331
96
  5
292
331
14F
  5
1D8
331
D5
  5
252
331
D1
  5
256
331
14B
  5
1DC
331
10C
  5
21B
331
92
  5
296
331
CD
  5
25A
331
8E
  5
29A
331
108
  5
21F
331
147
  5
1E0
331
C9
  5
25E
331
8A
  5
29E
331
104
  5
223
331
143
  5
1E4
331
100
  5
227
331
2A5
  5
83
331
266
  5
C1
331
262
  5
C5
331
2A1
  5
87
331
176
  5
1B1
331
22F
  5
F8
331
1B5
  5
172
331
25E
  5
C9
331
29D
  5
8B
331
1B1
  5
176
331
22B
  5
FC
331
1EC
  5
13B
331
172
  5
1B5
331
299
  5
8F
331
25A
  5
CD
331
1AD
  5
17A
331
16E
  5
1B9
331
1E8
  5
13F
331
227
  5
100
331
1A9
  5
17E
331
16A
  5
1BD
331
223
  5
104
331
1E4
  5
143
331
1E0
  5
147
331
86
  5
2A2
331
13F
  5
1E8
331
C5
  5
262
331
C1
  5
266
331
13B
  5
1EC
331
FC
  5
22B
331
82
  5
2A6
331
BD
  5
26A
331
137
  5
1F0
331
F8
  5
22F
331
7E
  5
2AA
331
B9
  5
26E
331
7A
  5
2AB
331
F4
  5
233
331
133
  5
1F4
331
F0
  5
237
331
295
  5
93
331
291
  5
97
331
77
  5
2AE
331
21F
  5
108
331
1A5
  5
182
331
28D
  5
9B
331
21B
  5
10C
331
1A1
  5
186
331
289
  5
9F
331
1DC
  5
14B
331
19D
  5
18A
331
256
  5
D1
331
217
  5
110
331
199
  5
18E
331
252
  5
D5
331
213
  5
114
331
1D8
  5
14F
331
12F
  5
1F8
331
B5
  5
272
331
12B
  5
1FC
331
B1
  5
276
331
EC
  5
23B
331
AD
  5
27A
331
127
  5
200
331
166
  5
1C1
331
A9
  5
27E
331
162
  5
1C5
331
123
  5
204
331
E8
  5
23F
331
285
  5
A2
331
281
  5
A6
331
1D4
  5
153
331
24E
  5
D9
331
20F
  5
118
331
195
  5
192
331
27D
  5
AA
331
1D0
  5
157
331
191
  5
196
331
20B
  5
11C
331
24A
  5
DD
331
279
  5
AE
331
1CC
  5
15B
331
18D
  5
19A
331
207
  5
120
331
246
  5
E1
331
189
  5
19E
331
242
  5
E5
331
203
  5
124
331
1C8
  5
15F
331
A5
  5
282
331
15E
  5
1C9
331
11F
  5
208
331
E4
  5
243
331
E0
  5
247
331
15A
  5
1CD
331
11B
  5
20C
331
A1
  5
287
331
DC
  5
24B
331
9D
  5
28B
331
117
  5
210
331
156
  5
1D1
331
D8
  5
24F
331
99
  5
28F
331
152
  5
1D5
331
113
  5
214
331
2B4
  5
2B1
331
275
  5
B2
331
271
  5
B6
331
2B0
  5
6E
331
1C4
  5
163
331
23E
  5
E9
331
1FF
  5
128
331
185
  5
1A2
331
2AC
  5
79
331
26D
  5
BA
331
1C0
  5
167
331
23A
  5
ED
331
1FB
  5
12C
331
181
  5
1A6
331
2A8
  5
80
331
269
  5
BE
331
1BC
  5
16B
331
17D
  5
1AA
331
1F7
  5
130
331
236
  5
F1
331
179
  5
1AE
331
232
  5
F5
331
1F3
  5
134
331
1B8
  5
16F
331
95
  5
293
331
14E
  5
1D9
331
10F
  5
218
331
D4
  5
253
331
D0
  5
257
331
14A
  5
1DD
331
10B
  5
21C
331
91
  5
297
331
CC
  5
25B
331
8D
  5
29B
331
107
  5
220
331
146
  5
1E1
331
C8
  5
25F
331
89
  5
29F
331
142
  5
1E5
331
103
  5
224
331
2A4
  5
84
331
265
  5
C2
331
261
  5
C6
331
2A0
  5
88
331
175
  5
1B2
331
22E
  5
F9
331
1EF
  5
138
331
1B4
  5
173
331
29C
  5
8C
331
25D
  5
CA
331
1B0
  5
177
331
22A
  5
FD
331
1EB
  5
13C
331
171
  5
1B6
331
298
  5
90
331
259
  5
CE
331
1AC
  5
17B
331
16D
  5
1BA
331
1E7
  5
140
331
226
  5
101
331
1A8
  5
17F
331
169
  5
1BE
331
222
  5
105
331
1E3
  5
144
331
85
  5
2A3
331
13E
  5
1E9
331
FF
  5
228
331
C4
  5
263
331
C0
  5
267
331
13A
  5
1ED
331
FB
  5
22C
331
81
  5
2A7
331
BC
  5
26B
331
F7
  5
230
331
136
  5
1F1
331
B8
  5
26F
331
79
  5
2AC
331
F3
  5
234
331
132
  5
1F5
331
294
  5
94
331
290
  5
98
331
21E
  5
109
331
1A4
  5
183
331
28C
  5
9C
331
1DF
  5
148
331
21A
  5
10D
331
1A0
  5
187
331
288
  5
A0
331
1DB
  5
14C
331
19C
  5
18B
331
255
  5
D2
331
216
  5
111
331
198
  5
18F
331
251
  5
D6
331
212
  5
115
331
12E
  5
1F9
331
B4
  5
273
331
EF
  5
238
331
12A
  5
1FD
331
B0
  5
277
331
EB
  5
23C
331
AC
  5
27B
331
126
  5
201
331
165
  5
1C2
331
A8
  5
27F
331
161
  5
1C6
331
122
  5
205
331
6E
  5
2B0
331
284
  5
A3
331
1D7
  5
150
331
280
  5
A7
331
1D3
  5
154
331
24D
  5
DA
331
20E
  5
119
331
194
  5
193
331
27C
  5
AB
331
1CF
  5
158
331
190
  5
197
331
20A
  5
11D
331
249
  5
DE
331
278
  5
AF
331
1CB
  5
15C
331
18C
  5
19B
331
245
  5
E2
331
206
  5
121
331
188
  5
19F
331
241
  5
E6
331
202
  5
125
331
E7
  5
240
331
E3
  5
244
331
15D
  5
1CA
331
11E
  5
209
331
A4
  5
283
331
DF
  5
248
331
159
  5
1CE
331
11A
  5
20D
331
A0
  5
288
331
DB
  5
24C
331
9C
  5
28C
331
116
  5
211
331
155
  5
1D2
331
98
  5
290
331
151
  5
1D6
331
112
  5
215
331
274
  5
B3
331
1C7
  5
160
331
270
  5
B7
331
2AF
  5
75
331
1C3
  5
164
331
23D
  5
EA
331
1FE
  5
129
331
184
  5
1A3
331
2AB
  5
7A
331
26C
  5
BB
331
1BF
  5
168
331
180
  5
1A7
331
1FA
  5
12D
331
239
  5
EE
331
268
  5
BF
331
1BB
  5
16C
331
17C
  5
1AB
331
1F6
  5
131
331
235
  5
F2
331
178
  5
1AF
331
231
  5
F6
331
1F2
  5
135
331
D7
  5
250
331
94
  5
294
331
14D
  5
1DA
331
10E
  5
219
331
D3
  5
254
331
CF
  5
258
331
149
  5
1DE
331
10A
  5
21D
331
90
  5
298
331
CB
  5
25C
331
8C
  5
29C
331
106
  5
221
331
145
  5
1E2
331
88
  5
2A0
331
141
  5
1E6
331
102
  5
225
331
2A7
  5
81
331
2A3
  5
85
331
264
  5
C3
331
1B7
  5
170
331
260
  5
C7
331
29F
  5
89
331
1B3
  5
174
331
22D
  5
FA
331
1EE
  5
139
331
174
  5
1B3
331
29B
  5
8D
331
25C
  5
CB
331
1AF
  5
178
331
229
  5
FE
331
1EA
  5
13D
331
170
  5
1B7
331
258
  5
CF
331
1AB
  5
17C
331
16C
  5
1BB
331
1E6
  5
141
331
225
  5
102
331
168
  5
1BF
331
221
  5
106
331
1E2
  5
145
331
C7
  5
260
331
84
  5
2A4
331
13D
  5
1EA
331
FE
  5
229
331
C3
  5
264
331
BF
  5
268
331
139
  5
1EE
331
FA
  5
22D
331
80
  5
2A8
331
BB
  5
26C
331
F6
  5
231
331
135
  5
1F2
331
78
  5
2AD
331
131
  5
1F6
331
F2
  5
235
  0
XRECORD
  5
36C
102
{ACAD_REACTORS
330
36B
102
}
330
36B
100
AcDbXrecord
280
     1
 70
     1
  0
XRECORD
  5
36E
102
{ACAD_REACTORS
330
36B
102
}
330
36B
100
AcDbXrecord
280
     1
340
24
  0
XRECORD
  5
36F
102
{ACAD_REACTORS
330
36B
102
}
330
36B
100
AcDbXrecord
280
     1
340
24
  0
XRECORD
  5
36D
102
{ACAD_REACTORS
330
36B
102
}
330
36B
100
AcDbXrecord
280
     1
340
24
  0
LAYOUT
  5
1A
102
{ACAD_XDICTIONARY
360
373
102
}
102
{ACAD_REACTORS
330
16
102
}
330
16
100
AcDbPlotSettings
  1

  2
\\le-server\HP LaserJet 2100
  4

  6

 40
0.0
 41
0.0
 42
0.0
 43
0.0
 44
0.0
 45
0.0
 46
0.0
 47
0.0
 48
0.0
 49
0.0
140
0.0
141
0.0
142
1.0
143
1.0
 70
   688
 72
     0
 73
     0
 74
     5
  7

 75
    16
147
1.0
148
0.0
149
0.0
100
AcDbLayout
  1
Layout1
 70
     1
 71
     1
 10
0.0
 20
0.0
 11
1189.0
 21
840.9999999999998
 12
0.0
 22
0.0
 32
0.0
 14
0.0
 24
0.0
 34
0.0
 15
1189.0
 25
840.9999999999998
 35
0.0
146
0.0
 13
0.0
 23
0.0
 33
0.0
 16
1.0
 26
0.0
 36
0.0
 17
0.0
 27
1.0
 37
0.0
 76
     0
330
17
  0
LAYOUT
  5
15
102
{ACAD_XDICTIONARY
360
371
102
}
102
{ACAD_REACTORS
330
16
102
}
330
16
100
AcDbPlotSettings
  1

  2
\\le-server\HP LaserJet 2100
  4

  6

 40
0.0
 41
0.0
 42
0.0
 43
0.0
 44
0.0
 45
0.0
 46
0.0
 47
0.0
 48
0.0
 49
0.0
140
0.0
141
0.0
142
1.0
143
1.0
 70
  1712
 72
     0
 73
     0
 74
     0
  7

 75
     0
147
1.0
148
0.0
149
0.0
100
AcDbLayout
  1
Model
 70
     1
 71
     0
 10
0.0
 20
0.0
 11
12.0
 21
9.0
 12
0.0
 22
0.0
 32
0.0
 14
0.0
 24
0.0
 34
0.0
 15
0.0
 25
0.0
 35
0.0
146
0.0
 13
0.0
 23
0.0
 33
0.0
 16
1.0
 26
0.0
 36
0.0
 17
0.0
 27
1.0
 37
0.0
 76
     0
330
2
331
29
  0
MATERIAL
  5
3C
102
{ACAD_XDICTIONARY
360
3D
102
}
102
{ACAD_REACTORS
330
B
102
}
330
B
100
AcDbMaterial
  1
ByBlock
 72
     0
 43
0.0208333333333333
 43
0.0
 43
0.0
 43
0.0
 43
0.0
 43
0.0208333333333333
 43
0.0
 43
0.0
 43
0.0
 43
0.0
 43
1.0
 43
0.0
 43
0.0
 43
0.0
 43
0.0
 43
1.0
 77
     0
 47
0.0208333333333333
 47
0.0
 47
0.0
 47
0.0
 47
0.0
 47
0.0208333333333333
 47
0.0
 47
0.0
 47
0.0
 47
0.0
 47
1.0
 47
0.0
 47
0.0
 47
0.0
 47
0.0
 47
1.0
171
     0
 49
0.0208333333333333
 49
0.0
 49
0.0
 49
0.0
 49
0.0
 49
0.0208333333333333
 49
0.0
 49
0.0
 49
0.0
 49
0.0
 49
1.0
 49
0.0
 49
0.0
 49
0.0
 49
0.0
 49
1.0
175
     0
142
0.0208333333333333
142
0.0
142
0.0
142
0.0
142
0.0
142
0.0208333333333333
142
0.0
142
0.0
142
0.0
142
0.0
142
1.0
142
0.0
142
0.0
142
0.0
142
0.0
142
1.0
179
     0
144
0.0208333333333333
144
0.0
144
0.0
144
0.0
144
0.0
144
0.0208333333333333
144
0.0
144
0.0
144
0.0
144
0.0
144
1.0
144
0.0
144
0.0
144
0.0
144
0.0
144
1.0
147
0.0208333333333333
147
0.0
147
0.0
147
0.0
147
0.0
147
0.0208333333333333
147
0.0
147
0.0
147
0.0
147
0.0
147
1.0
147
0.0
147
0.0
147
0.0
147
0.0
147
1.0
  0
MATERIAL
  5
34
102
{ACAD_XDICTIONARY
360
35
102
}
102
{ACAD_REACTORS
330
B
102
}
330
B
100
AcDbMaterial
  1
ByLayer
 72
     0
 43
0.0208333333333333
 43
0.0
 43
0.0
 43
0.0
 43
0.0
 43
0.0208333333333333
 43
0.0
 43
0.0
 43
0.0
 43
0.0
 43
1.0
 43
0.0
 43
0.0
 43
0.0
 43
0.0
 43
1.0
 77
     0
 47
0.0208333333333333
 47
0.0
 47
0.0
 47
0.0
 47
0.0
 47
0.0208333333333333
 47
0.0
 47
0.0
 47
0.0
 47
0.0
 47
1.0
 47
0.0
 47
0.0
 47
0.0
 47
0.0
 47
1.0
171
     0
 49
0.0208333333333333
 49
0.0
 49
0.0
 49
0.0
 49
0.0
 49
0.0208333333333333
 49
0.0
 49
0.0
 49
0.0
 49
0.0
 49
1.0
 49
0.0
 49
0.0
 49
0.0
 49
0.0
 49
1.0
175
     0
142
0.0208333333333333
142
0.0
142
0.0
142
0.0
142
0.0
142
0.0208333333333333
142
0.0
142
0.0
142
0.0
142
0.0
142
1.0
142
0.0
142
0.0
142
0.0
142
0.0
142
1.0
179
     0
144
0.0208333333333333
144
0.0
144
0.0
144
0.0
144
0.0
144
0.0208333333333333
144
0.0
144
0.0
144
0.0
144
0.0
144
1.0
144
0.0
144
0.0
144
0.0
144
0.0
144
1.0
147
0.0208333333333333
147
0.0
147
0.0
147
0.0
147
0.0
147
0.0208333333333333
147
0.0
147
0.0
147
0.0
147
0.0
147
1.0
147
0.0
147
0.0
147
0.0
147
0.0
147
1.0
  0
MATERIAL
  5
A
102
{ACAD_XDICTIONARY
360
C
102
}
102
{ACAD_REACTORS
330
B
102
}
330
B
100
AcDbMaterial
  1
Global
 72
     0
 43
0.0208333333333333
 43
0.0
 43
0.0
 43
0.0
 43
0.0
 43
0.0208333333333333
 43
0.0
 43
0.0
 43
0.0
 43
0.0
 43
1.0
 43
0.0
 43
0.0
 43
0.0
 43
0.0
 43
1.0
 77
     0
 47
0.0208333333333333
 47
0.0
 47
0.0
 47
0.0
 47
0.0
 47
0.0208333333333333
 47
0.0
 47
0.0
 47
0.0
 47
0.0
 47
1.0
 47
0.0
 47
0.0
 47
0.0
 47
0.0
 47
1.0
171
     0
 49
0.0208333333333333
 49
0.0
 49
0.0
 49
0.0
 49
0.0
 49
0.0208333333333333
 49
0.0
 49
0.0
 49
0.0
 49
0.0
 49
1.0
 49
0.0
 49
0.0
 49
0.0
 49
0.0
 49
1.0
175
     0
142
0.0208333333333333
142
0.0
142
0.0
142
0.0
142
0.0
142
0.0208333333333333
142
0.0
142
0.0
142
0.0
142
0.0
142
1.0
142
0.0
142
0.0
142
0.0
142
0.0
142
1.0
179
     0
144
0.0208333333333333
144
0.0
144
0.0
144
0.0
144
0.0
144
0.0208333333333333
144
0.0
144
0.0
144
0.0
144
0.0
144
1.0
144
0.0
144
0.0
144
0.0
144
0.0
144
1.0
147
0.0208333333333333
147
0.0
147
0.0
147
0.0
147
0.0
147
0.0208333333333333
147
0.0
147
0.0
147
0.0
147
0.0
147
1.0
147
0.0
147
0.0
147
0.0
147
0.0
147
1.0
  0
MLEADERSTYLE
  5
332
102
{ACAD_REACTORS
330
47
102
}
330
47
100
AcDbMLeaderStyle
170
     2
171
     1
172
     0
 90
        2
 40
0.0
 41
0.0
173
     1
 91
-1056964608
340
24
 92
       -2
290
     1
 42
2.0
291
     1
 43
0.36
  3
Standard
 44
4.0
300

342
21
174
     1
178
     6
175
     1
176
     0
 93
-1056964608
 45
4.0
292
     0
297
     0
 46
4.0
 94
-1056964608
 47
1.0
 49
1.0
140
1.0
293
     1
141
0.0
294
     1
177
     0
142
1.0
295
     0
296
     0
143
0.125
1001
ACAD_MLEADERVER
1070
     2
  0
MLINESTYLE
  5
48
102
{ACAD_REACTORS
330
32
102
}
330
32
100
AcDbMlineStyle
  2
STANDARD
 70
     0
  3

 62
   256
 51
90.0
 52
90.0
 71
     2
 49
0.5
 62
   256
  6
BYLAYER
 49
-0.5
 62
   256
  6
BYLAYER
  0
ACDBPLACEHOLDER
  5
7
102
{ACAD_REACTORS
330
8
102
}
330
8
  0
SCALE
  5
4D
102
{ACAD_REACTORS
330
45
102
}
330
45
100
AcDbScale
 70
     0
300
1:1
140
1.0
141
1.0
290
     1
  0
SCALE
  5
4E
102
{ACAD_REACTORS
330
45
102
}
330
45
100
AcDbScale
 70
     0
300
1:2
140
1.0
141
2.0
290
     0
  0
SCALE
  5
4F
102
{ACAD_REACTORS
330
45
102
}
330
45
100
AcDbScale
 70
     0
300
1:4
140
1.0
141
4.0
290
     0
  0
SCALE
  5
50
102
{ACAD_REACTORS
330
45
102
}
330
45
100
AcDbScale
 70
     0
300
1:5
140
1.0
141
5.0
290
     0
  0
SCALE
  5
51
102
{ACAD_REACTORS
330
45
102
}
330
45
100
AcDbScale
 70
     0
300
1:8
140
1.0
141
8.0
290
     0
  0
SCALE
  5
52
102
{ACAD_REACTORS
330
45
102
}
330
45
100
AcDbScale
 70
     0
300
1:10
140
1.0
141
10.0
290
     0
  0
SCALE
  5
53
102
{ACAD_REACTORS
330
45
102
}
330
45
100
AcDbScale
 70
     0
300
1:16
140
1.0
141
16.0
290
     0
  0
SCALE
  5
54
102
{ACAD_REACTORS
330
45
102
}
330
45
100
AcDbScale
 70
     0
300
1:20
140
1.0
141
20.0
290
     0
  0
SCALE
  5
55
102
{ACAD_REACTORS
330
45
102
}
330
45
100
AcDbScale
 70
     0
300
1:30
140
1.0
141
30.0
290
     0
  0
SCALE
  5
56
102
{ACAD_REACTORS
330
45
102
}
330
45
100
AcDbScale
 70
     0
300
1:40
140
1.0
141
40.0
290
     0
  0
SCALE
  5
57
102
{ACAD_REACTORS
330
45
102
}
330
45
100
AcDbScale
 70
     0
300
1:50
140
1.0
141
50.0
290
     0
  0
SCALE
  5
58
102
{ACAD_REACTORS
330
45
102
}
330
45
100
AcDbScale
 70
     0
300
1:100
140
1.0
141
100.0
290
     0
  0
SCALE
  5
59
102
{ACAD_REACTORS
330
45
102
}
330
45
100
AcDbScale
 70
     0
300
2:1
140
2.0
141
1.0
290
     0
  0
SCALE
  5
5A
102
{ACAD_REACTORS
330
45
102
}
330
45
100
AcDbScale
 70
     0
300
4:1
140
4.0
141
1.0
290
     0
  0
SCALE
  5
5B
102
{ACAD_REACTORS
330
45
102
}
330
45
100
AcDbScale
 70
     0
300
8:1
140
8.0
141
1.0
290
     0
  0
SCALE
  5
5C
102
{ACAD_REACTORS
330
45
102
}
330
45
100
AcDbScale
 70
     0
300
10:1
140
10.0
141
1.0
290
     0
  0
SCALE
  5
5D
102
{ACAD_REACTORS
330
45
102
}
330
45
100
AcDbScale
 70
     0
300
100:1
140
100.0
141
1.0
290
     0
  0
SCALE
  5
5E
102
{ACAD_REACTORS
330
45
102
}
330
45
100
AcDbScale
 70
     0
300
1/128" = 1'-0"
140
0.0078125
141
12.0
290
     0
  0
SCALE
  5
5F
102
{ACAD_REACTORS
330
45
102
}
330
45
100
AcDbScale
 70
     0
300
1/64" = 1'-0"
140
0.015625
141
12.0
290
     0
  0
SCALE
  5
60
102
{ACAD_REACTORS
330
45
102
}
330
45
100
AcDbScale
 70
     0
300
1/32" = 1'-0"
140
0.03125
141
12.0
290
     0
  0
SCALE
  5
61
102
{ACAD_REACTORS
330
45
102
}
330
45
100
AcDbScale
 70
     0
300
1/16" = 1'-0"
140
0.0625
141
12.0
290
     0
  0
SCALE
  5
62
102
{ACAD_REACTORS
330
45
102
}
330
45
100
AcDbScale
 70
     0
300
3/32" = 1'-0"
140
0.09375
141
12.0
290
     0
  0
SCALE
  5
63
102
{ACAD_REACTORS
330
45
102
}
330
45
100
AcDbScale
 70
     0
300
1/8" = 1'-0"
140
0.125
141
12.0
290
     0
  0
SCALE
  5
64
102
{ACAD_REACTORS
330
45
102
}
330
45
100
AcDbScale
 70
     0
300
3/16" = 1'-0"
140
0.1875
141
12.0
290
     0
  0
SCALE
  5
65
102
{ACAD_REACTORS
330
45
102
}
330
45
100
AcDbScale
 70
     0
300
1/4" = 1'-0"
140
0.25
141
12.0
290
     0
  0
SCALE
  5
66
102
{ACAD_REACTORS
330
45
102
}
330
45
100
AcDbScale
 70
     0
300
3/8" = 1'-0"
140
0.375
141
12.0
290
     0
  0
SCALE
  5
67
102
{ACAD_REACTORS
330
45
102
}
330
45
100
AcDbScale
 70
     0
300
1/2" = 1'-0"
140
0.5
141
12.0
290
     0
  0
SCALE
  5
68
102
{ACAD_REACTORS
330
45
102
}
330
45
100
AcDbScale
 70
     0
300
3/4" = 1'-0"
140
0.75
141
12.0
290
     0
  0
SCALE
  5
69
102
{ACAD_REACTORS
330
45
102
}
330
45
100
AcDbScale
 70
     0
300
1" = 1'-0"
140
1.0
141
12.0
290
     0
  0
SCALE
  5
6A
102
{ACAD_REACTORS
330
45
102
}
330
45
100
AcDbScale
 70
     0
300
1-1/2" = 1'-0"
140
1.5
141
12.0
290
     0
  0
SCALE
  5
6B
102
{ACAD_REACTORS
330
45
102
}
330
45
100
AcDbScale
 70
     0
300
3" = 1'-0"
140
3.0
141
12.0
290
     0
  0
SCALE
  5
6C
102
{ACAD_REACTORS
330
45
102
}
330
45
100
AcDbScale
 70
     0
300
6" = 1'-0"
140
6.0
141
12.0
290
     0
  0
SCALE
  5
6D
102
{ACAD_REACTORS
330
45
102
}
330
45
100
AcDbScale
 70
     0
300
1'-0" = 1'-0"
140
12.0
141
12.0
290
     0
  0
TABLESTYLE
  5
49
102
{ACAD_XDICTIONARY
360
4A
102
}
102
{ACAD_REACTORS
330
46
102
}
330
46
100
AcDbTableStyle
  3
Standard
 70
     0
 71
     0
 40
0.06
 41
0.06
280
     0
281
     0
  7
STANDARD
140
0.18
170
     2
 62
     0
 63
     7
283
     0
274
    -2
284
     1
 64
     0
275
    -2
285
     1
 65
     0
276
    -2
286
     1
 66
     0
277
    -2
287
     1
 67
     0
278
    -2
288
     1
 68
     0
279
    -2
289
     1
 69
     0
  7
STANDARD
140
0.25
170
     5
 62
     0
 63
     7
283
     0
274
    -2
284
     1
 64
     0
275
    -2
285
     1
 65
     0
276
    -2
286
     1
 66
     0
277
    -2
287
     1
 67
     0
278
    -2
288
     1
 68
     0
279
    -2
289
     1
 69
     0
  7
STANDARD
140
0.18
170
     5
 62
     0
 63
     7
283
     0
274
    -2
284
     1
 64
     0
275
    -2
285
     1
 65
     0
276
    -2
286
     1
 66
     0
277
    -2
287
     1
 67
     0
278
    -2
288
     1
 68
     0
279
    -2
289
     1
 69
     0
  0
VISUALSTYLE
  5
2A
102
{ACAD_XDICTIONARY
360
375
102
}
102
{ACAD_REACTORS
330
2B
102
}
330
2B
100
AcDbVisualStyle
  2
2dWireframe
 70
     4
 71
     0
 72
     2
 73
     0
 90
        0
 40
-0.6
 41
-30.0
 62
     5
 63
     7
 74
     1
 91
        4
 64
     7
 65
   257
 75
     1
175
     1
 42
1.0
 92
        0
 66
   257
 43
1.0
 76
     1
 77
     6
 78
     2
 67
     7
 79
     5
170
     0
171
     0
290
     0
174
     0
 93
        1
 44
0.0
173
     0
291
     0
 45
0.0
1001
ACAD
1000
AcDbSavedByObjectVersion
1070
     0
  0
VISUALSTYLE
  5
321
102
{ACAD_XDICTIONARY
360
38C
102
}
102
{ACAD_REACTORS
330
2B
102
}
330
2B
100
AcDbVisualStyle
  2
Basic
 70
     7
 71
     1
 72
     0
 73
     1
 90
        0
 40
-0.6
 41
-30.0
 62
     5
 63
     7
 74
     0
 91
        4
 64
     7
 65
   257
 75
     1
175
     1
 42
1.0
 92
        8
 66
     7
 43
1.0
 76
     1
 77
     6
 78
     2
 67
     7
 79
     5
170
     0
171
     0
290
     0
174
     0
 93
        1
 44
0.0
173
     0
291
     1
 45
0.0
1001
ACAD
1000
AcDbSavedByObjectVersion
1070
     0
  0
VISUALSTYLE
  5
325
102
{ACAD_XDICTIONARY
360
394
102
}
102
{ACAD_REACTORS
330
2B
102
}
330
2B
100
AcDbVisualStyle
  2
Brighten
 70
    12
 71
     2
 72
     2
 73
     0
 90
        0
 40
-0.6
 41
-30.0
 62
     5
 63
     7
 74
     1
 91
        4
 64
     7
 65
   257
 75
     1
175
     1
 42
1.0
 92
        8
 66
     7
 43
1.0
 76
     1
 77
     6
 78
     2
 67
     7
 79
     5
170
     0
171
     0
290
     0
174
     0
 93
        1
 44
50.0
173
     0
291
     1
 45
0.0
1001
ACAD
1000
AcDbSavedByObjectVersion
1070
     0
  0
VISUALSTYLE
  5
329
102
{ACAD_XDICTIONARY
360
39C
102
}
102
{ACAD_REACTORS
330
2B
102
}
330
2B
100
AcDbVisualStyle
  2
ColorChange
 70
    16
 71
     2
 72
     2
 73
     3
 90
        0
 40
-0.6
 41
-30.0
 62
     5
 63
     8
 74
     1
 91
        4
 64
     7
 65
   257
 75
     1
175
     1
 42
1.0
 92
        8
 66
     8
 43
1.0
 76
     1
 77
     6
 78
     2
 67
     7
 79
     5
170
     0
171
     0
290
     0
174
     0
 93
        1
 44
0.0
173
     0
291
     1
 45
0.0
1001
ACAD
1000
AcDbSavedByObjectVersion
1070
     0
  0
VISUALSTYLE
  5
323
102
{ACAD_XDICTIONARY
360
390
102
}
102
{ACAD_REACTORS
330
2B
102
}
330
2B
100
AcDbVisualStyle
  2
Conceptual
 70
     9
 71
     3
 72
     2
 73
     0
 90
        0
 40
-0.6
 41
-30.0
 62
     5
 63
     7
 74
     2
 91
        2
 64
     7
 65
   257
 75
     1
175
     1
 42
179.0
 92
        8
 66
     7
 43
1.0
 76
     1
 77
     6
 78
     2
 67
     7
 79
     3
170
     0
171
     0
290
     0
174
     0
 93
        1
 44
0.0
173
     0
291
     0
 45
0.0
1001
ACAD
1000
AcDbSavedByObjectVersion
1070
     0
  0
VISUALSTYLE
  5
324
102
{ACAD_XDICTIONARY
360
392
102
}
102
{ACAD_REACTORS
330
2B
102
}
330
2B
100
AcDbVisualStyle
  2
Dim
 70
    11
 71
     2
 72
     2
 73
     0
 90
        0
 40
-0.6
 41
-30.0
 62
     5
 63
     7
 74
     1
 91
        4
 64
     7
 65
   257
 75
     1
175
     1
 42
1.0
 92
        8
 66
     7
 43
1.0
 76
     1
 77
     6
 78
     2
 67
     7
 79
     5
170
     0
171
     0
290
     0
174
     0
 93
        1
 44
-50.0
173
     0
291
     1
 45
0.0
1001
ACAD
1000
AcDbSavedByObjectVersion
1070
     0
  0
VISUALSTYLE
  5
331
102
{ACAD_XDICTIONARY
360
3AC
102
}
102
{ACAD_REACTORS
330
2B
102
}
330
2B
100
AcDbVisualStyle
  2
EdgeColorOff
 70
    22
 71
     2
 72
     2
 73
     0
 90
        0
 40
-0.6
 41
-30.0
 62
     5
 63
     7
 74
     1
 91
        4
 64
     7
 65
   257
 75
     1
175
     1
 42
1.0
 92
        8
 66
     7
 43
1.0
 76
     1
 77
     6
 78
     2
 67
     7
 79
     5
170
     0
171
     0
290
     0
174
     0
 93
        1
 44
0.0
173
     0
291
     1
 45
0.0
1001
ACAD
1000
AcDbSavedByObjectVersion
1070
     0
  0
VISUALSTYLE
  5
328
102
{ACAD_XDICTIONARY
360
39A
102
}
102
{ACAD_REACTORS
330
2B
102
}
330
2B
100
AcDbVisualStyle
  2
Facepattern
 70
    15
 71
     2
 72
     2
 73
     0
 90
        0
 40
-0.6
 41
-30.0
 62
     5
 63
     7
 74
     1
 91
        4
 64
     7
 65
   257
 75
     1
175
     1
 42
1.0
 92
        8
 66
     7
 43
1.0
 76
     1
 77
     6
 78
     2
 67
     7
 79
     5
170
     0
171
     0
290
     0
174
     0
 93
        1
 44
0.0
173
     0
291
     1
 45
0.0
1001
ACAD
1000
AcDbSavedByObjectVersion
1070
     0
  0
VISUALSTYLE
  5
31D
102
{ACAD_XDICTIONARY
360
384
102
}
102
{ACAD_REACTORS
330
2B
102
}
330
2B
100
AcDbVisualStyle
  2
Flat
 70
     0
 71
     2
 72
     1
 73
     1
 90
        2
 40
-0.6
 41
30.0
 62
     5
 63
     7
 74
     0
 91
        0
 64
     7
 65
   257
 75
     1
175
     1
 42
1.0
 92
        8
 66
     7
 43
1.0
 76
     1
 77
     6
 78
     2
 67
     7
 79
     5
170
     0
171
     0
290
     0
174
     0
 93
       13
 44
0.0
173
     0
291
     1
 45
0.0
1001
ACAD
1000
AcDbSavedByObjectVersion
1070
     0
  0
VISUALSTYLE
  5
31E
102
{ACAD_XDICTIONARY
360
386
102
}
102
{ACAD_REACTORS
330
2B
102
}
330
2B
100
AcDbVisualStyle
  2
FlatWithEdges
 70
     1
 71
     2
 72
     1
 73
     1
 90
        2
 40
-0.6
 41
30.0
 62
     5
 63
     7
 74
     1
 91
        0
 64
     7
 65
   257
 75
     1
175
     1
 42
1.0
 92
        0
 66
   257
 43
1.0
 76
     1
 77
     6
 78
     2
 67
     7
 79
     5
170
     0
171
     0
290
     0
174
     0
 93
       13
 44
0.0
173
     0
291
     1
 45
0.0
1001
ACAD
1000
AcDbSavedByObjectVersion
1070
     0
  0
VISUALSTYLE
  5
31F
102
{ACAD_XDICTIONARY
360
388
102
}
102
{ACAD_REACTORS
330
2B
102
}
330
2B
100
AcDbVisualStyle
  2
Gouraud
 70
     2
 71
     2
 72
     2
 73
     1
 90
        2
 40
-0.6
 41
30.0
 62
     5
 63
     7
 74
     0
 91
        0
 64
     7
 65
   257
 75
     1
175
     1
 42
1.0
 92
        0
 66
     7
 43
1.0
 76
     1
 77
     6
 78
     2
 67
     7
 79
     5
170
     0
171
     0
290
     0
174
     0
 93
       13
 44
0.0
173
     0
291
     1
 45
0.0
1001
ACAD
1000
AcDbSavedByObjectVersion
1070
     0
  0
VISUALSTYLE
  5
320
102
{ACAD_XDICTIONARY
360
38A
102
}
102
{ACAD_REACTORS
330
2B
102
}
330
2B
100
AcDbVisualStyle
  2
GouraudWithEdges
 70
     3
 71
     2
 72
     2
 73
     1
 90
        2
 40
-0.6
 41
30.0
 62
     5
 63
     7
 74
     1
 91
        0
 64
     7
 65
   257
 75
     1
175
     1
 42
1.0
 92
        0
 66
   257
 43
1.0
 76
     1
 77
     6
 78
     2
 67
     7
 79
     5
170
     0
171
     0
290
     0
174
     0
 93
       13
 44
0.0
173
     0
291
     1
 45
0.0
1001
ACAD
1000
AcDbSavedByObjectVersion
1070
     0
  0
VISUALSTYLE
  5
322
102
{ACAD_XDICTIONARY
360
38E
102
}
102
{ACAD_REACTORS
330
2B
102
}
330
2B
100
AcDbVisualStyle
  2
Hidden
 70
     6
 71
     1
 72
     2
 73
     2
 90
        0
 40
-0.6
 41
-30.0
 62
     5
 63
     7
 74
     2
 91
        2
 64
     7
 65
   257
 75
     2
175
     1
 42
40.0
 92
        0
 66
   257
 43
1.0
 76
     1
 77
     6
 78
     2
 67
     7
 79
     3
170
     0
171
     0
290
     0
174
     0
 93
        1
 44
0.0
173
     0
291
     0
 45
0.0
1001
ACAD
1000
AcDbSavedByObjectVersion
1070
     0
  0
VISUALSTYLE
  5
32F
102
{ACAD_XDICTIONARY
360
3A8
102
}
102
{ACAD_REACTORS
330
2B
102
}
330
2B
100
AcDbVisualStyle
  2
JitterOff
 70
    20
 71
     2
 72
     2
 73
     0
 90
        0
 40
-0.6
 41
-30.0
 62
     5
 63
     7
 74
     1
 91
        4
 64
     7
 65
   257
 75
     1
175
     1
 42
1.0
 92
       10
 66
     7
 43
1.0
 76
     1
 77
     6
 78
     2
 67
     7
 79
     5
170
     0
171
     0
290
     0
174
     0
 93
        1
 44
0.0
173
     0
291
     1
 45
0.0
1001
ACAD
1000
AcDbSavedByObjectVersion
1070
     0
  0
VISUALSTYLE
  5
327
102
{ACAD_XDICTIONARY
360
398
102
}
102
{ACAD_REACTORS
330
2B
102
}
330
2B
100
AcDbVisualStyle
  2
Linepattern
 70
    14
 71
     2
 72
     2
 73
     0
 90
        0
 40
-0.6
 41
-30.0
 62
     5
 63
     7
 74
     1
 91
        4
 64
     7
 65
   257
 75
     7
175
     7
 42
1.0
 92
        8
 66
     7
 43
1.0
 76
     1
 77
     6
 78
     2
 67
     7
 79
     5
170
     0
171
     0
290
     0
174
     0
 93
        1
 44
0.0
173
     0
291
     1
 45
0.0
1001
ACAD
1000
AcDbSavedByObjectVersion
1070
     0
  0
VISUALSTYLE
  5
330
102
{ACAD_XDICTIONARY
360
3AA
102
}
102
{ACAD_REACTORS
330
2B
102
}
330
2B
100
AcDbVisualStyle
  2
OverhangOff
 70
    21
 71
     2
 72
     2
 73
     0
 90
        0
 40
-0.6
 41
-30.0
 62
     5
 63
     7
 74
     1
 91
        4
 64
     7
 65
   257
 75
     1
175
     1
 42
1.0
 92
        9
 66
     7
 43
1.0
 76
     1
 77
     6
 78
     2
 67
     7
 79
     5
170
     0
171
     0
290
     0
174
     0
 93
        1
 44
0.0
173
     0
291
     1
 45
0.0
1001
ACAD
1000
AcDbSavedByObjectVersion
1070
     0
  0
VISUALSTYLE
  5
4B
102
{ACAD_XDICTIONARY
360
37A
102
}
102
{ACAD_REACTORS
330
2B
102
}
330
2B
100
AcDbVisualStyle
  2
Realistic
 70
     8
 71
     2
 72
     2
 73
     0
 90
        0
 40
-0.6
 41
-30.0
 62
     5
 63
     7
 74
     1
 91
        0
 64
     7
 65
   257
 75
     1
175
     1
 42
1.0
 92
        8
 66
     8
 43
1.0
 76
     1
 77
     6
 78
     2
 67
     7
 79
     5
170
     0
171
     0
290
     0
174
     0
 93
       13
 44
0.0
173
     0
291
     0
 45
0.0
1001
ACAD
1000
AcDbSavedByObjectVersion
1070
     0
  0
VISUALSTYLE
  5
32E
102
{ACAD_XDICTIONARY
360
3A6
102
}
102
{ACAD_REACTORS
330
2B
102
}
330
2B
100
AcDbVisualStyle
  2
Shaded
 70
    27
 71
     2
 72
     2
 73
     1
 90
        2
 40
-0.6
 41
30.0
 62
     5
 63
     7
 74
     0
 91
        4
 64
     7
 65
   257
 75
     1
175
     1
 42
1.0
 92
        8
 66
   257
 43
1.0
 76
     1
 77
     6
 78
     2
 67
     8
 79
     3
170
     0
171
     0
290
     0
174
     0
 93
        5
 44
0.0
173
     0
291
     0
 45
0.0
1001
ACAD
1000
AcDbSavedByObjectVersion
1070
     0
  0
VISUALSTYLE
  5
32D
102
{ACAD_XDICTIONARY
360
3A4
102
}
102
{ACAD_REACTORS
330
2B
102
}
330
2B
100
AcDbVisualStyle
  2
Shaded with edges
 70
    26
 71
     2
 72
     2
 73
     1
 90
        2
 40
-0.6
 41
30.0
 62
     5
 63
     7
 74
     1
 91
       10
 64
     7
 65
   257
 75
     2
175
     1
 42
1.0
 92
        8
 66
   257
 43
1.0
 76
     1
 77
     6
 78
     2
 67
     7
 79
     3
170
     0
171
     0
290
     0
174
     0
 93
        5
 44
0.0
173
     0
291
     0
 45
0.0
1001
ACAD
1000
AcDbSavedByObjectVersion
1070
     0
  0
VISUALSTYLE
  5
32A
102
{ACAD_XDICTIONARY
360
39E
102
}
102
{ACAD_REACTORS
330
2B
102
}
330
2B
100
AcDbVisualStyle
  2
Shades of Gray
 70
    23
 71
     2
 72
     2
 73
     3
 90
        0
 40
-0.6
 41
-30.0
 62
     5
 63
     7
 74
     2
 91
        2
 64
     7
 65
     7
 75
     1
175
     1
 42
40.0
 92
        8
 66
     7
 43
1.0
 76
     1
 77
     6
 78
     2
 67
     7
 79
     3
170
     0
171
     0
290
     0
174
     0
 93
        1
 44
0.0
173
     0
291
     0
 45
0.0
1001
ACAD
1000
AcDbSavedByObjectVersion
1070
     0
  0
VISUALSTYLE
  5
32B
102
{ACAD_XDICTIONARY
360
3A0
102
}
102
{ACAD_REACTORS
330
2B
102
}
330
2B
100
AcDbVisualStyle
  2
Sketchy
 70
    24
 71
     1
 72
     2
 73
     2
 90
        0
 40
-0.6
 41
-30.0
 62
     5
 63
     7
 74
     2
 91
        2
 64
     7
 65
     7
 75
     1
175
     1
 42
40.0
 92
       11
 66
     7
 43
1.0
 76
     1
 77
     6
 78
     2
 67
     7
 79
     6
170
     0
171
     0
290
     0
174
     0
 93
        1
 44
0.0
173
     0
291
     0
 45
0.0
1001
ACAD
1000
AcDbSavedByObjectVersion
1070
     0
  0
VISUALSTYLE
  5
326
102
{ACAD_XDICTIONARY
360
396
102
}
102
{ACAD_REACTORS
330
2B
102
}
330
2B
100
AcDbVisualStyle
  2
Thicken
 70
    13
 71
     2
 72
     2
 73
     0
 90
        0
 40
-0.6
 41
-30.0
 62
     5
 63
     7
 74
     1
 91
        4
 64
     7
 65
   257
 75
     1
175
     1
 42
1.0
 92
       12
 66
     7
 43
1.0
 76
     1
 77
     6
 78
     2
 67
     7
 79
     5
170
     0
171
     0
290
     0
174
     0
 93
        1
 44
0.0
173
     0
291
     1
 45
0.0
1001
ACAD
1000
AcDbSavedByObjectVersion
1070
     0
  0
VISUALSTYLE
  5
4C
102
{ACAD_XDICTIONARY
360
37C
102
}
102
{ACAD_REACTORS
330
2B
102
}
330
2B
100
AcDbVisualStyle
  2
Wireframe
 70
     5
 71
     0
 72
     2
 73
     0
 90
        0
 40
-0.6
 41
-30.0
 62
     5
 63
     7
 74
     1
 91
        4
 64
     7
 65
   257
 75
     1
175
     1
 42
1.0
 92
        0
 66
   257
 43
1.0
 76
     1
 77
     6
 78
     2
 67
     7
 79
     3
170
     0
171
     0
290
     0
174
     0
 93
        1
 44
0.0
173
     0
291
     0
 45
0.0
1001
ACAD
1000
AcDbSavedByObjectVersion
1070
     0
  0
VISUALSTYLE
  5
32C
102
{ACAD_XDICTIONARY
360
3A2
102
}
102
{ACAD_REACTORS
330
2B
102
}
330
2B
100
AcDbVisualStyle
  2
X-Ray
 70
    25
 71
     2
 72
     2
 73
     1
 90
        1
 40
0.5
 41
-30.0
 62
     5
 63
     7
 74
     1
 91
        0
 64
     7
 65
   257
 75
     1
175
     1
 42
1.0
 92
        8
 66
     7
 43
1.0
 76
     1
 77
     6
 78
     2
 67
     7
 79
     3
170
     0
171
     0
290
     0
174
     0
 93
       13
 44
0.0
173
     0
291
     0
 45
0.0
1001
ACAD
1000
AcDbSavedByObjectVersion
1070
     0
  0
DICTIONARYVAR
  5
318
102
{ACAD_REACTORS
330
314
102
}
330
314
100
DictionaryVariables
280
     0
  1
1:1
  0
DICTIONARYVAR
  5
316
102
{ACAD_REACTORS
330
314
102
}
330
314
100
DictionaryVariables
280
     0
  1
STANDARD
  0
DICTIONARYVAR
  5
315
102
{ACAD_REACTORS
330
314
102
}
330
314
100
DictionaryVariables
280
     0
  1
STANDARD
  0
DICTIONARYVAR
  5
367
102
{ACAD_REACTORS
330
314
102
}
330
314
100
DictionaryVariables
280
     0
  1
1
  0
DICTIONARYVAR
  5
366
102
{ACAD_REACTORS
330
314
102
}
330
314
100
DictionaryVariables
280
     0
  1
1
  0
DICTIONARYVAR
  5
365
102
{ACAD_REACTORS
330
314
102
}
330
314
100
DictionaryVariables
280
     0
  1
0
  0
DICTIONARYVAR
  5
31A
102
{ACAD_REACTORS
330
314
102
}
330
314
100
DictionaryVariables
280
     0
  1
1
  0
DICTIONARYVAR
  5
31B
102
{ACAD_REACTORS
330
314
102
}
330
314
100
DictionaryVariables
280
     0
  1
15
  0
DICTIONARYVAR
  5
319
102
{ACAD_REACTORS
330
314
102
}
330
314
100
DictionaryVariables
280
     0
  1
0
  0
DICTIONARYVAR
  5
317
102
{ACAD_REACTORS
330
314
102
}
330
314
100
DictionaryVariables
280
     0
  1
0
  0
DICTIONARYVAR
  5
364
102
{ACAD_REACTORS
330
314
102
}
330
314
100
DictionaryVariables
280
     0
  1
127
  0
DICTIONARYVAR
  5
368
102
{ACAD_REACTORS
330
314
102
}
330
314
100
DictionaryVariables
280
     0
  1
2
  0
DICTIONARY
  5
2C8
102
{ACAD_REACTORS
330
2C7
102
}
330
2C7
100
AcDbDictionary
281
     1
  0
DICTIONARY
  5
2C2
102
{ACAD_REACTORS
330
2B8
102
}
330
2B8
100
AcDbDictionary
281
     1
  3
DWGSETTINGS
350
2C1
  3
TRANSSETTINGS
350
2C3
  0
DICTIONARY
  5
373
330
1A
100
AcDbDictionary
280
     1
281
     1
  3
ACAD_XREC_ROUNDTRIP
360
374
  0
DICTIONARY
  5
371
330
15
100
AcDbDictionary
280
     1
281
     1
  3
ACAD_XREC_ROUNDTRIP
360
372
  0
DICTIONARY
  5
3D
330
3C
100
AcDbDictionary
280
     1
281
     1
  3
ACAD_XREC_ROUNDTRIP
360
378
  3
BUMPTILE
360
3E
  3
DIFFUSETILE
360
3F
  3
OPACITYTILE
360
40
  3
REFLECTIONTILE
360
41
  3
REFRACTIONTILE
360
42
  3
SPECULARTILE
360
43
  0
DICTIONARY
  5
35
330
34
100
AcDbDictionary
280
     1
281
     1
  3
ACAD_XREC_ROUNDTRIP
360
377
  3
BUMPTILE
360
36
  3
DIFFUSETILE
360
37
  3
OPACITYTILE
360
38
  3
REFLECTIONTILE
360
39
  3
REFRACTIONTILE
360
3A
  3
SPECULARTILE
360
3B
  0
DICTIONARY
  5
C
330
A
100
AcDbDictionary
280
     1
281
     1
  3
ACAD_XREC_ROUNDTRIP
360
370
  3
BUMPTILE
360
D
  3
DIFFUSETILE
360
E
  3
OPACITYTILE
360
F
  3
REFLECTIONTILE
360
10
  3
REFRACTIONTILE
360
11
  3
SPECULARTILE
360
12
  0
DICTIONARY
  5
4A
330
49
100
AcDbDictionary
280
     1
281
     1
  3
ACAD_ROUNDTRIP_2008_TABLESTYLE_CELLSTYLEMAP
360
369
  3
ACAD_XREC_ROUNDTRIP
360
379
  0
DICTIONARY
  5
375
330
2A
100
AcDbDictionary
280
     1
281
     1
  3
ACAD_XREC_ROUNDTRIP
360
376
  0
DICTIONARY
  5
38C
330
321
100
AcDbDictionary
280
     1
281
     1
  3
ACAD_XREC_ROUNDTRIP
360
38D
  0
DICTIONARY
  5
394
330
325
100
AcDbDictionary
280
     1
281
     1
  3
ACAD_XREC_ROUNDTRIP
360
395
  0
DICTIONARY
  5
39C
330
329
100
AcDbDictionary
280
     1
281
     1
  3
ACAD_XREC_ROUNDTRIP
360
39D
  0
DICTIONARY
  5
390
330
323
100
AcDbDictionary
280
     1
281
     1
  3
ACAD_XREC_ROUNDTRIP
360
391
  0
DICTIONARY
  5
392
330
324
100
AcDbDictionary
280
     1
281
     1
  3
ACAD_XREC_ROUNDTRIP
360
393
  0
DICTIONARY
  5
3AC
330
331
100
AcDbDictionary
280
     1
281
     1
  3
ACAD_XREC_ROUNDTRIP
360
3AD
  0
DICTIONARY
  5
39A
330
328
100
AcDbDictionary
280
     1
281
     1
  3
ACAD_XREC_ROUNDTRIP
360
39B
  0
DICTIONARY
  5
384
330
31D
100
AcDbDictionary
280
     1
281
     1
  3
ACAD_XREC_ROUNDTRIP
360
385
  0
DICTIONARY
  5
386
330
31E
100
AcDbDictionary
280
     1
281
     1
  3
ACAD_XREC_ROUNDTRIP
360
387
  0
DICTIONARY
  5
388
330
31F
100
AcDbDictionary
280
     1
281
     1
  3
ACAD_XREC_ROUNDTRIP
360
389
  0
DICTIONARY
  5
38A
330
320
100
AcDbDictionary
280
     1
281
     1
  3
ACAD_XREC_ROUNDTRIP
360
38B
  0
DICTIONARY
  5
38E
330
322
100
AcDbDictionary
280
     1
281
     1
  3
ACAD_XREC_ROUNDTRIP
360
38F
  0
DICTIONARY
  5
3A8
330
32F
100
AcDbDictionary
280
     1
281
     1
  3
ACAD_XREC_ROUNDTRIP
360
3A9
  0
DICTIONARY
  5
398
330
327
100
AcDbDictionary
280
     1
281
     1
  3
ACAD_XREC_ROUNDTRIP
360
399
  0
DICTIONARY
  5
3AA
330
330
100
AcDbDictionary
280
     1
281
     1
  3
ACAD_XREC_ROUNDTRIP
360
3AB
  0
DICTIONARY
  5
37A
330
4B
100
AcDbDictionary
280
     1
281
     1
  3
ACAD_XREC_ROUNDTRIP
360
37B
  0
DICTIONARY
  5
3A6
330
32E
100
AcDbDictionary
280
     1
281
     1
  3
ACAD_XREC_ROUNDTRIP
360
3A7
  0
DICTIONARY
  5
3A4
330
32D
100
AcDbDictionary
280
     1
281
     1
  3
ACAD_XREC_ROUNDTRIP
360
3A5
  0
DICTIONARY
  5
39E
330
32A
100
AcDbDictionary
280
     1
281
     1
  3
ACAD_XREC_ROUNDTRIP
360
39F
  0
DICTIONARY
  5
3A0
330
32B
100
AcDbDictionary
280
     1
281
     1
  3
ACAD_XREC_ROUNDTRIP
360
3A1
  0
DICTIONARY
  5
396
330
326
100
AcDbDictionary
280
     1
281
     1
  3
ACAD_XREC_ROUNDTRIP
360
397
  0
DICTIONARY
  5
37C
330
4C
100
AcDbDictionary
280
     1
281
     1
  3
ACAD_XREC_ROUNDTRIP
360
37D
  0
DICTIONARY
  5
3A2
330
32C
100
AcDbDictionary
280
     1
281
     1
  3
ACAD_XREC_ROUNDTRIP
360
3A3
  0
XRECORD
  5
374
102
{ACAD_REACTORS
330
373
102
}
330
373
100
AcDbXrecord
280
     1
102
SHADEPLOT
 70
     0
102
SHADEPLOTRESLEVEL
 70
     2
102
SHADEPLOTCUSTOMDPI
 70
   300
  0
XRECORD
  5
372
102
{ACAD_REACTORS
330
371
102
}
330
371
100
AcDbXrecord
280
     1
102
SHADEPLOT
 70
     0
102
SHADEPLOTRESLEVEL
 70
     2
102
SHADEPLOTCUSTOMDPI
 70
   300
  0
XRECORD
  5
378
102
{ACAD_REACTORS
330
3D
102
}
330
3D
100
AcDbXrecord
280
     1
102
MATERIAL
148
0.0
149
0.0
149
0.0
 93
        0
 94
      127
282
     0
 72
     0
 77
     0
171
     0
175
     0
179
     0
273
     0
  0
XRECORD
  5
3E
102
{ACAD_REACTORS
330
3D
102
}
330
3D
100
AcDbXrecord
280
     1
270
     1
271
     1
  0
XRECORD
  5
3F
102
{ACAD_REACTORS
330
3D
102
}
330
3D
100
AcDbXrecord
280
     1
270
     1
271
     1
  0
XRECORD
  5
40
102
{ACAD_REACTORS
330
3D
102
}
330
3D
100
AcDbXrecord
280
     1
270
     1
271
     1
  0
XRECORD
  5
41
102
{ACAD_REACTORS
330
3D
102
}
330
3D
100
AcDbXrecord
280
     1
270
     1
271
     1
  0
XRECORD
  5
42
102
{ACAD_REACTORS
330
3D
102
}
330
3D
100
AcDbXrecord
280
     1
270
     1
271
     1
  0
XRECORD
  5
43
102
{ACAD_REACTORS
330
3D
102
}
330
3D
100
AcDbXrecord
280
     1
270
     1
271
     1
  0
XRECORD
  5
377
102
{ACAD_REACTORS
330
35
102
}
330
35
100
AcDbXrecord
280
     1
102
MATERIAL
148
0.0
149
0.0
149
0.0
 93
        0
 94
      127
282
     0
 72
     0
 77
     0
171
     0
175
     0
179
     0
273
     0
  0
XRECORD
  5
36
102
{ACAD_REACTORS
330
35
102
}
330
35
100
AcDbXrecord
280
     1
270
     1
271
     1
  0
XRECORD
  5
37
102
{ACAD_REACTORS
330
35
102
}
330
35
100
AcDbXrecord
280
     1
270
     1
271
     1
  0
XRECORD
  5
38
102
{ACAD_REACTORS
330
35
102
}
330
35
100
AcDbXrecord
280
     1
270
     1
271
     1
  0
XRECORD
  5
39
102
{ACAD_REACTORS
330
35
102
}
330
35
100
AcDbXrecord
280
     1
270
     1
271
     1
  0
XRECORD
  5
3A
102
{ACAD_REACTORS
330
35
102
}
330
35
100
AcDbXrecord
280
     1
270
     1
271
     1
  0
XRECORD
  5
3B
102
{ACAD_REACTORS
330
35
102
}
330
35
100
AcDbXrecord
280
     1
270
     1
271
     1
  0
XRECORD
  5
370
102
{ACAD_REACTORS
330
C
102
}
330
C
100
AcDbXrecord
280
     1
102
MATERIAL
148
0.0
149
0.0
149
0.0
 93
        0
 94
      127
282
     0
 72
     0
 77
     0
171
     0
175
     0
179
     0
273
     0
  0
XRECORD
  5
D
102
{ACAD_REACTORS
330
C
102
}
330
C
100
AcDbXrecord
280
     1
270
     1
271
     1
  0
XRECORD
  5
E
102
{ACAD_REACTORS
330
C
102
}
330
C
100
AcDbXrecord
280
     1
270
     1
271
     1
  0
XRECORD
  5
F
102
{ACAD_REACTORS
330
C
102
}
330
C
100
AcDbXrecord
280
     1
270
     1
271
     1
  0
XRECORD
  5
10
102
{ACAD_REACTORS
330
C
102
}
330
C
100
AcDbXrecord
280
     1
270
     1
271
     1
  0
XRECORD
  5
11
102
{ACAD_REACTORS
330
C
102
}
330
C
100
AcDbXrecord
280
     1
270
     1
271
     1
  0
XRECORD
  5
12
102
{ACAD_REACTORS
330
C
102
}
330
C
100
AcDbXrecord
280
     1
270
     1
271
     1
  0
CELLSTYLEMAP
  5
369
102
{ACAD_REACTORS
330
4A
102
}
330
4A
100
AcDbCellStyleMap
 90
        3
300
CELLSTYLE
  1
TABLEFORMAT_BEGIN
 90
        5
170
     1
 91
        0
 92
    32768
 62
   257
 93
        1
300
CONTENTFORMAT
  1
CONTENTFORMAT_BEGIN
 90
        0
 91
        0
 92
      512
 93
        0
300

 40
0.0
140
1.0
 94
        5
 62
     0
340
21
144
0.25
309
CONTENTFORMAT_END
171
     0
 94
        0
309
TABLEFORMAT_END
  1
CELLSTYLE_BEGIN
 90
        1
 91
        1
300
_TITLE
309
CELLSTYLE_END
300
CELLSTYLE
  1
TABLEFORMAT_BEGIN
 90
        5
170
     1
 91
        0
 92
        0
 62
   257
 93
        1
300
CONTENTFORMAT
  1
CONTENTFORMAT_BEGIN
 90
        0
 91
        0
 92
      512
 93
        0
300

 40
0.0
140
1.0
 94
        5
 62
     0
340
21
144
0.18
309
CONTENTFORMAT_END
171
     0
 94
        0
309
TABLEFORMAT_END
  1
CELLSTYLE_BEGIN
 90
        2
 91
        1
300
_HEADER
309
CELLSTYLE_END
300
CELLSTYLE
  1
TABLEFORMAT_BEGIN
 90
        5
170
     1
 91
        0
 92
        0
 62
   257
 93
        1
300
CONTENTFORMAT
  1
CONTENTFORMAT_BEGIN
 90
        0
 91
        0
 92
      512
 93
        0
300

 40
0.0
140
1.0
 94
        2
 62
     0
340
21
144
0.18
309
CONTENTFORMAT_END
171
     0
 94
        0
309
TABLEFORMAT_END
  1
CELLSTYLE_BEGIN
 90
        3
 91
        2
300
_DATA
309
CELLSTYLE_END
  0
XRECORD
  5
379
102
{ACAD_REACTORS
330
4A
102
}
330
4A
100
AcDbXrecord
280
     1
102
ACAD_ROUNDTRIP_PRE2007_TABLESTYLE
 90
      512
 91
        0
  1

 92
      512
 93
        0
  2

 94
      512
 95
        0
  3

  0
XRECORD
  5
376
102
{ACAD_REACTORS
330
375
102
}
330
375
100
AcDbXrecord
280
     1
102
RTVSPropertyOp0
 70
     1
102
RTVSPropertyOp1
 70
     1
102
RTVSPropertyOp2
 70
     1
102
RTVSPropertyOp3
 70
     1
102
RTVSPropertyOp4
 70
     1
102
RTVSPropertyOp5
 70
     1
102
RTVSPropertyOp6
 70
     1
102
RTVSPropertyOp7
 70
     1
102
RTVSPropertyOp8
 70
     1
102
RTVSPropertyOp9
 70
     1
102
RTVSPropertyOp10
 70
     1
102
RTVSPropertyOp11
 70
     1
102
RTVSPropertyOp12
 70
     1
102
RTVSPropertyOp13
 70
     1
102
RTVSPropertyOp14
 70
     1
102
RTVSPropertyOp15
 70
     1
102
RTVSPropertyOp16
 70
     1
102
RTVSPropertyOp17
 70
     1
102
RTVSPropertyOp18
 70
     1
102
RTVSPropertyOp19
 70
     1
102
RTVSPropertyOp20
 70
     1
102
RTVSPropertyOp21
 70
     1
102
RTVSPropertyOp22
 70
     1
102
RTVSPropertyOp23
 70
     1
102
RTVSPropertyOp24
 70
     1
102
RTVSPropertyOp25
 70
     1
102
RTVSPropertyOp26
 70
     1
102
RTVSPropertyOp27
 70
     1
102
RTVSPropertyOp28
 70
     1
102
RTVSPropertyOp29
 70
     1
102
RTVSPropertyOp30
 70
     1
102
RTVSPropertyOp31
 70
     1
102
RTVSPropertyOp32
 70
     1
  0
XRECORD
  5
38D
102
{ACAD_REACTORS
330
38C
102
}
330
38C
100
AcDbXrecord
280
     1
102
RTVSPropertyOp0
 70
     1
102
RTVSPropertyOp1
 70
     1
102
RTVSPropertyOp2
 70
     1
102
RTVSPropertyOp3
 70
     1
102
RTVSPropertyOp4
 70
     1
102
RTVSPropertyOp5
 70
     1
102
RTVSPropertyOp6
 70
     1
102
RTVSPropertyOp7
 70
     1
102
RTVSPropertyOp8
 70
     1
102
RTVSPropertyOp9
 70
     1
102
RTVSPropertyOp10
 70
     1
102
RTVSPropertyOp11
 70
     1
102
RTVSPropertyOp12
 70
     1
102
RTVSPropertyOp13
 70
     1
102
RTVSPropertyOp14
 70
     1
102
RTVSPropertyOp15
 70
     1
102
RTVSPropertyOp16
 70
     1
102
RTVSPropertyOp17
 70
     1
102
RTVSPropertyOp18
 70
     1
102
RTVSPropertyOp19
 70
     1
102
RTVSPropertyOp20
 70
     1
102
RTVSPropertyOp21
 70
     1
102
RTVSPropertyOp22
 70
     1
102
RTVSPropertyOp23
 70
     1
102
RTVSPropertyOp24
 70
     1
102
RTVSPropertyOp25
 70
     1
102
RTVSPropertyOp26
 70
     1
102
RTVSPropertyOp27
 70
     1
102
RTVSPropertyOp28
 70
     1
102
RTVSPropertyOp29
 70
     1
102
RTVSPropertyOp30
 70
     1
102
RTVSPropertyOp31
 70
     1
102
RTVSPropertyOp32
 70
     1
  0
XRECORD
  5
395
102
{ACAD_REACTORS
330
394
102
}
330
394
100
AcDbXrecord
280
     1
102
RTVSPropertyOp0
 70
     1
102
RTVSPropertyOp1
 70
     1
102
RTVSPropertyOp2
 70
     1
102
RTVSPropertyOp3
 70
     1
102
RTVSPropertyOp4
 70
     1
102
RTVSPropertyOp5
 70
     1
102
RTVSPropertyOp6
 70
     1
102
RTVSPropertyOp7
 70
     1
102
RTVSPropertyOp8
 70
     1
102
RTVSPropertyOp9
 70
     1
102
RTVSPropertyOp10
 70
     1
102
RTVSPropertyOp11
 70
     1
102
RTVSPropertyOp12
 70
     1
102
RTVSPropertyOp13
 70
     1
102
RTVSPropertyOp14
 70
     1
102
RTVSPropertyOp15
 70
     1
102
RTVSPropertyOp16
 70
     1
102
RTVSPropertyOp17
 70
     1
102
RTVSPropertyOp18
 70
     1
102
RTVSPropertyOp19
 70
     1
102
RTVSPropertyOp20
 70
     1
102
RTVSPropertyOp21
 70
     1
102
RTVSPropertyOp22
 70
     1
102
RTVSPropertyOp23
 70
     1
102
RTVSPropertyOp24
 70
     1
102
RTVSPropertyOp25
 70
     1
102
RTVSPropertyOp26
 70
     1
102
RTVSPropertyOp27
 70
     1
102
RTVSPropertyOp28
 70
     1
102
RTVSPropertyOp29
 70
     1
102
RTVSPropertyOp30
 70
     1
102
RTVSPropertyOp31
 70
     1
102
RTVSPropertyOp32
 70
     1
  0
XRECORD
  5
39D
102
{ACAD_REACTORS
330
39C
102
}
330
39C
100
AcDbXrecord
280
     1
102
RTVSPropertyOp0
 70
     1
102
RTVSPropertyOp1
 70
     1
102
RTVSPropertyOp2
 70
     1
102
RTVSPropertyOp3
 70
     1
102
RTVSPropertyOp4
 70
     1
102
RTVSPropertyOp5
 70
     1
102
RTVSPropertyOp6
 70
     1
102
RTVSPropertyOp7
 70
     1
102
RTVSPropertyOp8
 70
     1
102
RTVSPropertyOp9
 70
     1
102
RTVSPropertyOp10
 70
     1
102
RTVSPropertyOp11
 70
     1
102
RTVSPropertyOp12
 70
     1
102
RTVSPropertyOp13
 70
     1
102
RTVSPropertyOp14
 70
     1
102
RTVSPropertyOp15
 70
     1
102
RTVSPropertyOp16
 70
     1
102
RTVSPropertyOp17
 70
     1
102
RTVSPropertyOp18
 70
     1
102
RTVSPropertyOp19
 70
     1
102
RTVSPropertyOp20
 70
     1
102
RTVSPropertyOp21
 70
     1
102
RTVSPropertyOp22
 70
     1
102
RTVSPropertyOp23
 70
     1
102
RTVSPropertyOp24
 70
     1
102
RTVSPropertyOp25
 70
     1
102
RTVSPropertyOp26
 70
     1
102
RTVSPropertyOp27
 70
     1
102
RTVSPropertyOp28
 70
     1
102
RTVSPropertyOp29
 70
     1
102
RTVSPropertyOp30
 70
     1
102
RTVSPropertyOp31
 70
     1
102
RTVSPropertyOp32
 70
     1
  0
XRECORD
  5
391
102
{ACAD_REACTORS
330
390
102
}
330
390
100
AcDbXrecord
280
     1
102
RTVSPropertyOp0
 70
     1
102
RTVSPropertyOp1
 70
     1
102
RTVSPropertyOp2
 70
     1
102
RTVSPropertyOp3
 70
     1
102
RTVSPropertyOp4
 70
     1
102
RTVSPropertyOp5
 70
     1
102
RTVSPropertyOp6
 70
     1
102
RTVSPropertyOp7
 70
     1
102
RTVSPropertyOp8
 70
     1
102
RTVSPropertyOp9
 70
     1
102
RTVSPropertyOp10
 70
     1
102
RTVSPropertyOp11
 70
     1
102
RTVSPropertyOp12
 70
     1
102
RTVSPropertyOp13
 70
     1
102
RTVSPropertyOp14
 70
     1
102
RTVSPropertyOp15
 70
     1
102
RTVSPropertyOp16
 70
     1
102
RTVSPropertyOp17
 70
     1
102
RTVSPropertyOp18
 70
     1
102
RTVSPropertyOp19
 70
     1
102
RTVSPropertyOp20
 70
     1
102
RTVSPropertyOp21
 70
     1
102
RTVSPropertyOp22
 70
     1
102
RTVSPropertyOp23
 70
     1
102
RTVSPropertyOp24
 70
     1
102
RTVSPropertyOp25
 70
     1
102
RTVSPropertyOp26
 70
     1
102
RTVSPropertyOp27
 70
     1
102
RTVSPropertyOp28
 70
     1
102
RTVSPropertyOp29
 70
     1
102
RTVSPropertyOp30
 70
     1
102
RTVSPropertyOp31
 70
     1
102
RTVSPropertyOp32
 70
     1
  0
XRECORD
  5
393
102
{ACAD_REACTORS
330
392
102
}
330
392
100
AcDbXrecord
280
     1
102
RTVSPropertyOp0
 70
     1
102
RTVSPropertyOp1
 70
     1
102
RTVSPropertyOp2
 70
     1
102
RTVSPropertyOp3
 70
     1
102
RTVSPropertyOp4
 70
     1
102
RTVSPropertyOp5
 70
     1
102
RTVSPropertyOp6
 70
     1
102
RTVSPropertyOp7
 70
     1
102
RTVSPropertyOp8
 70
     1
102
RTVSPropertyOp9
 70
     1
102
RTVSPropertyOp10
 70
     1
102
RTVSPropertyOp11
 70
     1
102
RTVSPropertyOp12
 70
     1
102
RTVSPropertyOp13
 70
     1
102
RTVSPropertyOp14
 70
     1
102
RTVSPropertyOp15
 70
     1
102
RTVSPropertyOp16
 70
     1
102
RTVSPropertyOp17
 70
     1
102
RTVSPropertyOp18
 70
     1
102
RTVSPropertyOp19
 70
     1
102
RTVSPropertyOp20
 70
     1
102
RTVSPropertyOp21
 70
     1
102
RTVSPropertyOp22
 70
     1
102
RTVSPropertyOp23
 70
     1
102
RTVSPropertyOp24
 70
     1
102
RTVSPropertyOp25
 70
     1
102
RTVSPropertyOp26
 70
     1
102
RTVSPropertyOp27
 70
     1
102
RTVSPropertyOp28
 70
     1
102
RTVSPropertyOp29
 70
     1
102
RTVSPropertyOp30
 70
     1
102
RTVSPropertyOp31
 70
     1
102
RTVSPropertyOp32
 70
     1
  0
XRECORD
  5
3AD
102
{ACAD_REACTORS
330
3AC
102
}
330
3AC
100
AcDbXrecord
280
     1
102
RTVSPropertyOp0
 70
     0
102
RTVSPropertyOp1
 70
     0
102
RTVSPropertyOp2
 70
     0
102
RTVSPropertyOp3
 70
     0
102
RTVSPropertyOp4
 70
     0
102
RTVSPropertyOp5
 70
     0
102
RTVSPropertyOp6
 70
     0
102
RTVSPropertyOp7
 70
     0
102
RTVSPropertyOp8
 70
     0
102
RTVSPropertyOp9
 70
     0
102
RTVSPropertyOp10
 70
     0
102
RTVSPropertyOp11
 70
     0
102
RTVSPropertyOp12
 70
     0
102
RTVSPropertyOp13
 70
     0
102
RTVSPropertyOp14
 70
     2
102
RTVSPropertyOp15
 70
     0
102
RTVSPropertyOp16
 70
     0
102
RTVSPropertyOp17
 70
     0
102
RTVSPropertyOp18
 70
     0
102
RTVSPropertyOp19
 70
     0
102
RTVSPropertyOp20
 70
     0
102
RTVSPropertyOp21
 70
     0
102
RTVSPropertyOp22
 70
     0
102
RTVSPropertyOp23
 70
     0
102
RTVSPropertyOp24
 70
     0
102
RTVSPropertyOp25
 70
     0
102
RTVSPropertyOp26
 70
     0
102
RTVSPropertyOp27
 70
     0
102
RTVSPropertyOp28
 70
     0
102
RTVSPropertyOp29
 70
     0
102
RTVSPropertyOp30
 70
     0
102
RTVSPropertyOp31
 70
     0
102
RTVSPropertyOp32
 70
     0
  0
XRECORD
  5
39B
102
{ACAD_REACTORS
330
39A
102
}
330
39A
100
AcDbXrecord
280
     1
102
RTVSPropertyOp0
 70
     1
102
RTVSPropertyOp1
 70
     1
102
RTVSPropertyOp2
 70
     1
102
RTVSPropertyOp3
 70
     1
102
RTVSPropertyOp4
 70
     1
102
RTVSPropertyOp5
 70
     1
102
RTVSPropertyOp6
 70
     1
102
RTVSPropertyOp7
 70
     1
102
RTVSPropertyOp8
 70
     1
102
RTVSPropertyOp9
 70
     1
102
RTVSPropertyOp10
 70
     1
102
RTVSPropertyOp11
 70
     1
102
RTVSPropertyOp12
 70
     1
102
RTVSPropertyOp13
 70
     1
102
RTVSPropertyOp14
 70
     1
102
RTVSPropertyOp15
 70
     1
102
RTVSPropertyOp16
 70
     1
102
RTVSPropertyOp17
 70
     1
102
RTVSPropertyOp18
 70
     1
102
RTVSPropertyOp19
 70
     1
102
RTVSPropertyOp20
 70
     1
102
RTVSPropertyOp21
 70
     1
102
RTVSPropertyOp22
 70
     1
102
RTVSPropertyOp23
 70
     1
102
RTVSPropertyOp24
 70
     1
102
RTVSPropertyOp25
 70
     1
102
RTVSPropertyOp26
 70
     1
102
RTVSPropertyOp27
 70
     1
102
RTVSPropertyOp28
 70
     1
102
RTVSPropertyOp29
 70
     1
102
RTVSPropertyOp30
 70
     1
102
RTVSPropertyOp31
 70
     1
102
RTVSPropertyOp32
 70
     1
  0
XRECORD
  5
385
102
{ACAD_REACTORS
330
384
102
}
330
384
100
AcDbXrecord
280
     1
102
RTVSPropertyOp0
 70
     1
102
RTVSPropertyOp1
 70
     1
102
RTVSPropertyOp2
 70
     1
102
RTVSPropertyOp3
 70
     1
102
RTVSPropertyOp4
 70
     1
102
RTVSPropertyOp5
 70
     1
102
RTVSPropertyOp6
 70
     1
102
RTVSPropertyOp7
 70
     1
102
RTVSPropertyOp8
 70
     1
102
RTVSPropertyOp9
 70
     1
102
RTVSPropertyOp10
 70
     1
102
RTVSPropertyOp11
 70
     1
102
RTVSPropertyOp12
 70
     1
102
RTVSPropertyOp13
 70
     1
102
RTVSPropertyOp14
 70
     1
102
RTVSPropertyOp15
 70
     1
102
RTVSPropertyOp16
 70
     1
102
RTVSPropertyOp17
 70
     1
102
RTVSPropertyOp18
 70
     1
102
RTVSPropertyOp19
 70
     1
102
RTVSPropertyOp20
 70
     1
102
RTVSPropertyOp21
 70
     1
102
RTVSPropertyOp22
 70
     1
102
RTVSPropertyOp23
 70
     1
102
RTVSPropertyOp24
 70
     1
102
RTVSPropertyOp25
 70
     1
102
RTVSPropertyOp26
 70
     1
102
RTVSPropertyOp27
 70
     1
102
RTVSPropertyOp28
 70
     1
102
RTVSPropertyOp29
 70
     1
102
RTVSPropertyOp30
 70
     1
102
RTVSPropertyOp31
 70
     1
102
RTVSPropertyOp32
 70
     1
  0
XRECORD
  5
387
102
{ACAD_REACTORS
330
386
102
}
330
386
100
AcDbXrecord
280
     1
102
RTVSPropertyOp0
 70
     1
102
RTVSPropertyOp1
 70
     1
102
RTVSPropertyOp2
 70
     1
102
RTVSPropertyOp3
 70
     1
102
RTVSPropertyOp4
 70
     1
102
RTVSPropertyOp5
 70
     1
102
RTVSPropertyOp6
 70
     1
102
RTVSPropertyOp7
 70
     1
102
RTVSPropertyOp8
 70
     1
102
RTVSPropertyOp9
 70
     1
102
RTVSPropertyOp10
 70
     1
102
RTVSPropertyOp11
 70
     1
102
RTVSPropertyOp12
 70
     1
102
RTVSPropertyOp13
 70
     1
102
RTVSPropertyOp14
 70
     1
102
RTVSPropertyOp15
 70
     1
102
RTVSPropertyOp16
 70
     1
102
RTVSPropertyOp17
 70
     1
102
RTVSPropertyOp18
 70
     1
102
RTVSPropertyOp19
 70
     1
102
RTVSPropertyOp20
 70
     1
102
RTVSPropertyOp21
 70
     1
102
RTVSPropertyOp22
 70
     1
102
RTVSPropertyOp23
 70
     1
102
RTVSPropertyOp24
 70
     1
102
RTVSPropertyOp25
 70
     1
102
RTVSPropertyOp26
 70
     1
102
RTVSPropertyOp27
 70
     1
102
RTVSPropertyOp28
 70
     1
102
RTVSPropertyOp29
 70
     1
102
RTVSPropertyOp30
 70
     1
102
RTVSPropertyOp31
 70
     1
102
RTVSPropertyOp32
 70
     1
  0
XRECORD
  5
389
102
{ACAD_REACTORS
330
388
102
}
330
388
100
AcDbXrecord
280
     1
102
RTVSPropertyOp0
 70
     1
102
RTVSPropertyOp1
 70
     1
102
RTVSPropertyOp2
 70
     1
102
RTVSPropertyOp3
 70
     1
102
RTVSPropertyOp4
 70
     1
102
RTVSPropertyOp5
 70
     1
102
RTVSPropertyOp6
 70
     1
102
RTVSPropertyOp7
 70
     1
102
RTVSPropertyOp8
 70
     1
102
RTVSPropertyOp9
 70
     1
102
RTVSPropertyOp10
 70
     1
102
RTVSPropertyOp11
 70
     1
102
RTVSPropertyOp12
 70
     1
102
RTVSPropertyOp13
 70
     1
102
RTVSPropertyOp14
 70
     1
102
RTVSPropertyOp15
 70
     1
102
RTVSPropertyOp16
 70
     1
102
RTVSPropertyOp17
 70
     1
102
RTVSPropertyOp18
 70
     1
102
RTVSPropertyOp19
 70
     1
102
RTVSPropertyOp20
 70
     1
102
RTVSPropertyOp21
 70
     1
102
RTVSPropertyOp22
 70
     1
102
RTVSPropertyOp23
 70
     1
102
RTVSPropertyOp24
 70
     1
102
RTVSPropertyOp25
 70
     1
102
RTVSPropertyOp26
 70
     1
102
RTVSPropertyOp27
 70
     1
102
RTVSPropertyOp28
 70
     1
102
RTVSPropertyOp29
 70
     1
102
RTVSPropertyOp30
 70
     1
102
RTVSPropertyOp31
 70
     1
102
RTVSPropertyOp32
 70
     1
  0
XRECORD
  5
38B
102
{ACAD_REACTORS
330
38A
102
}
330
38A
100
AcDbXrecord
280
     1
102
RTVSPropertyOp0
 70
     1
102
RTVSPropertyOp1
 70
     1
102
RTVSPropertyOp2
 70
     1
102
RTVSPropertyOp3
 70
     1
102
RTVSPropertyOp4
 70
     1
102
RTVSPropertyOp5
 70
     1
102
RTVSPropertyOp6
 70
     1
102
RTVSPropertyOp7
 70
     1
102
RTVSPropertyOp8
 70
     1
102
RTVSPropertyOp9
 70
     1
102
RTVSPropertyOp10
 70
     1
102
RTVSPropertyOp11
 70
     1
102
RTVSPropertyOp12
 70
     1
102
RTVSPropertyOp13
 70
     1
102
RTVSPropertyOp14
 70
     1
102
RTVSPropertyOp15
 70
     1
102
RTVSPropertyOp16
 70
     1
102
RTVSPropertyOp17
 70
     1
102
RTVSPropertyOp18
 70
     1
102
RTVSPropertyOp19
 70
     1
102
RTVSPropertyOp20
 70
     1
102
RTVSPropertyOp21
 70
     1
102
RTVSPropertyOp22
 70
     1
102
RTVSPropertyOp23
 70
     1
102
RTVSPropertyOp24
 70
     1
102
RTVSPropertyOp25
 70
     1
102
RTVSPropertyOp26
 70
     1
102
RTVSPropertyOp27
 70
     1
102
RTVSPropertyOp28
 70
     1
102
RTVSPropertyOp29
 70
     1
102
RTVSPropertyOp30
 70
     1
102
RTVSPropertyOp31
 70
     1
102
RTVSPropertyOp32
 70
     1
  0
XRECORD
  5
38F
102
{ACAD_REACTORS
330
38E
102
}
330
38E
100
AcDbXrecord
280
     1
102
RTVSPropertyOp0
 70
     1
102
RTVSPropertyOp1
 70
     1
102
RTVSPropertyOp2
 70
     1
102
RTVSPropertyOp3
 70
     1
102
RTVSPropertyOp4
 70
     1
102
RTVSPropertyOp5
 70
     1
102
RTVSPropertyOp6
 70
     1
102
RTVSPropertyOp7
 70
     1
102
RTVSPropertyOp8
 70
     1
102
RTVSPropertyOp9
 70
     1
102
RTVSPropertyOp10
 70
     1
102
RTVSPropertyOp11
 70
     1
102
RTVSPropertyOp12
 70
     1
102
RTVSPropertyOp13
 70
     1
102
RTVSPropertyOp14
 70
     1
102
RTVSPropertyOp15
 70
     1
102
RTVSPropertyOp16
 70
     1
102
RTVSPropertyOp17
 70
     1
102
RTVSPropertyOp18
 70
     1
102
RTVSPropertyOp19
 70
     1
102
RTVSPropertyOp20
 70
     1
102
RTVSPropertyOp21
 70
     1
102
RTVSPropertyOp22
 70
     1
102
RTVSPropertyOp23
 70
     1
102
RTVSPropertyOp24
 70
     1
102
RTVSPropertyOp25
 70
     1
102
RTVSPropertyOp26
 70
     1
102
RTVSPropertyOp27
 70
     1
102
RTVSPropertyOp28
 70
     1
102
RTVSPropertyOp29
 70
     1
102
RTVSPropertyOp30
 70
     1
102
RTVSPropertyOp31
 70
     1
102
RTVSPropertyOp32
 70
     1
  0
XRECORD
  5
3A9
102
{ACAD_REACTORS
330
3A8
102
}
330
3A8
100
AcDbXrecord
280
     1
102
RTVSPropertyOp0
 70
     0
102
RTVSPropertyOp1
 70
     0
102
RTVSPropertyOp2
 70
     0
102
RTVSPropertyOp3
 70
     0
102
RTVSPropertyOp4
 70
     0
102
RTVSPropertyOp5
 70
     0
102
RTVSPropertyOp6
 70
     0
102
RTVSPropertyOp7
 70
     0
102
RTVSPropertyOp8
 70
     0
102
RTVSPropertyOp9
 70
     0
102
RTVSPropertyOp10
 70
     0
102
RTVSPropertyOp11
 70
     0
102
RTVSPropertyOp12
 70
     0
102
RTVSPropertyOp13
 70
     0
102
RTVSPropertyOp14
 70
     2
102
RTVSPropertyOp15
 70
     0
102
RTVSPropertyOp16
 70
     0
102
RTVSPropertyOp17
 70
     0
102
RTVSPropertyOp18
 70
     0
102
RTVSPropertyOp19
 70
     0
102
RTVSPropertyOp20
 70
     0
102
RTVSPropertyOp21
 70
     0
102
RTVSPropertyOp22
 70
     0
102
RTVSPropertyOp23
 70
     0
102
RTVSPropertyOp24
 70
     0
102
RTVSPropertyOp25
 70
     0
102
RTVSPropertyOp26
 70
     0
102
RTVSPropertyOp27
 70
     0
102
RTVSPropertyOp28
 70
     0
102
RTVSPropertyOp29
 70
     0
102
RTVSPropertyOp30
 70
     0
102
RTVSPropertyOp31
 70
     0
102
RTVSPropertyOp32
 70
     0
  0
XRECORD
  5
399
102
{ACAD_REACTORS
330
398
102
}
330
398
100
AcDbXrecord
280
     1
102
RTVSPropertyOp0
 70
     1
102
RTVSPropertyOp1
 70
     1
102
RTVSPropertyOp2
 70
     1
102
RTVSPropertyOp3
 70
     1
102
RTVSPropertyOp4
 70
     1
102
RTVSPropertyOp5
 70
     1
102
RTVSPropertyOp6
 70
     1
102
RTVSPropertyOp7
 70
     1
102
RTVSPropertyOp8
 70
     1
102
RTVSPropertyOp9
 70
     1
102
RTVSPropertyOp10
 70
     1
102
RTVSPropertyOp11
 70
     1
102
RTVSPropertyOp12
 70
     1
102
RTVSPropertyOp13
 70
     1
102
RTVSPropertyOp14
 70
     1
102
RTVSPropertyOp15
 70
     1
102
RTVSPropertyOp16
 70
     1
102
RTVSPropertyOp17
 70
     1
102
RTVSPropertyOp18
 70
     1
102
RTVSPropertyOp19
 70
     1
102
RTVSPropertyOp20
 70
     1
102
RTVSPropertyOp21
 70
     1
102
RTVSPropertyOp22
 70
     1
102
RTVSPropertyOp23
 70
     1
102
RTVSPropertyOp24
 70
     1
102
RTVSPropertyOp25
 70
     1
102
RTVSPropertyOp26
 70
     1
102
RTVSPropertyOp27
 70
     1
102
RTVSPropertyOp28
 70
     1
102
RTVSPropertyOp29
 70
     1
102
RTVSPropertyOp30
 70
     1
102
RTVSPropertyOp31
 70
     1
102
RTVSPropertyOp32
 70
     1
  0
XRECORD
  5
3AB
102
{ACAD_REACTORS
330
3AA
102
}
330
3AA
100
AcDbXrecord
280
     1
102
RTVSPropertyOp0
 70
     0
102
RTVSPropertyOp1
 70
     0
102
RTVSPropertyOp2
 70
     0
102
RTVSPropertyOp3
 70
     0
102
RTVSPropertyOp4
 70
     0
102
RTVSPropertyOp5
 70
     0
102
RTVSPropertyOp6
 70
     0
102
RTVSPropertyOp7
 70
     0
102
RTVSPropertyOp8
 70
     0
102
RTVSPropertyOp9
 70
     0
102
RTVSPropertyOp10
 70
     0
102
RTVSPropertyOp11
 70
     0
102
RTVSPropertyOp12
 70
     0
102
RTVSPropertyOp13
 70
     0
102
RTVSPropertyOp14
 70
     2
102
RTVSPropertyOp15
 70
     0
102
RTVSPropertyOp16
 70
     0
102
RTVSPropertyOp17
 70
     0
102
RTVSPropertyOp18
 70
     0
102
RTVSPropertyOp19
 70
     0
102
RTVSPropertyOp20
 70
     0
102
RTVSPropertyOp21
 70
     0
102
RTVSPropertyOp22
 70
     0
102
RTVSPropertyOp23
 70
     0
102
RTVSPropertyOp24
 70
     0
102
RTVSPropertyOp25
 70
     0
102
RTVSPropertyOp26
 70
     0
102
RTVSPropertyOp27
 70
     0
102
RTVSPropertyOp28
 70
     0
102
RTVSPropertyOp29
 70
     0
102
RTVSPropertyOp30
 70
     0
102
RTVSPropertyOp31
 70
     0
102
RTVSPropertyOp32
 70
     0
  0
XRECORD
  5
37B
102
{ACAD_REACTORS
330
37A
102
}
330
37A
100
AcDbXrecord
280
     1
102
RTVSPropertyOp0
 70
     1
102
RTVSPropertyOp1
 70
     1
102
RTVSPropertyOp2
 70
     1
102
RTVSPropertyOp3
 70
     1
102
RTVSPropertyOp4
 70
     1
102
RTVSPropertyOp5
 70
     1
102
RTVSPropertyOp6
 70
     1
102
RTVSPropertyOp7
 70
     1
102
RTVSPropertyOp8
 70
     1
102
RTVSPropertyOp9
 70
     1
102
RTVSPropertyOp10
 70
     1
102
RTVSPropertyOp11
 70
     1
102
RTVSPropertyOp12
 70
     1
102
RTVSPropertyOp13
 70
     1
102
RTVSPropertyOp14
 70
     1
102
RTVSPropertyOp15
 70
     1
102
RTVSPropertyOp16
 70
     1
102
RTVSPropertyOp17
 70
     1
102
RTVSPropertyOp18
 70
     1
102
RTVSPropertyOp19
 70
     1
102
RTVSPropertyOp20
 70
     1
102
RTVSPropertyOp21
 70
     1
102
RTVSPropertyOp22
 70
     1
102
RTVSPropertyOp23
 70
     1
102
RTVSPropertyOp24
 70
     1
102
RTVSPropertyOp25
 70
     1
102
RTVSPropertyOp26
 70
     1
102
RTVSPropertyOp27
 70
     1
102
RTVSPropertyOp28
 70
     1
102
RTVSPropertyOp29
 70
     1
102
RTVSPropertyOp30
 70
     1
102
RTVSPropertyOp31
 70
     1
102
RTVSPropertyOp32
 70
     1
  0
XRECORD
  5
3A7
102
{ACAD_REACTORS
330
3A6
102
}
330
3A6
100
AcDbXrecord
280
     1
102
RTVSPropertyOp0
 70
     1
102
RTVSPropertyOp1
 70
     1
102
RTVSPropertyOp2
 70
     1
102
RTVSPropertyOp3
 70
     1
102
RTVSPropertyOp4
 70
     1
102
RTVSPropertyOp5
 70
     1
102
RTVSPropertyOp6
 70
     1
102
RTVSPropertyOp7
 70
     1
102
RTVSPropertyOp8
 70
     1
102
RTVSPropertyOp9
 70
     1
102
RTVSPropertyOp10
 70
     1
102
RTVSPropertyOp11
 70
     1
102
RTVSPropertyOp12
 70
     1
102
RTVSPropertyOp13
 70
     1
102
RTVSPropertyOp14
 70
     1
102
RTVSPropertyOp15
 70
     1
102
RTVSPropertyOp16
 70
     1
102
RTVSPropertyOp17
 70
     1
102
RTVSPropertyOp18
 70
     1
102
RTVSPropertyOp19
 70
     1
102
RTVSPropertyOp20
 70
     1
102
RTVSPropertyOp21
 70
     1
102
RTVSPropertyOp22
 70
     1
102
RTVSPropertyOp23
 70
     1
102
RTVSPropertyOp24
 70
     1
102
RTVSPropertyOp25
 70
     1
102
RTVSPropertyOp26
 70
     1
102
RTVSPropertyOp27
 70
     1
102
RTVSPropertyOp28
 70
     1
102
RTVSPropertyOp29
 70
     1
102
RTVSPropertyOp30
 70
     1
102
RTVSPropertyOp31
 70
     1
102
RTVSPropertyOp32
 70
     1
  0
XRECORD
  5
3A5
102
{ACAD_REACTORS
330
3A4
102
}
330
3A4
100
AcDbXrecord
280
     1
102
RTVSPropertyOp0
 70
     1
102
RTVSPropertyOp1
 70
     1
102
RTVSPropertyOp2
 70
     1
102
RTVSPropertyOp3
 70
     1
102
RTVSPropertyOp4
 70
     1
102
RTVSPropertyOp5
 70
     1
102
RTVSPropertyOp6
 70
     1
102
RTVSPropertyOp7
 70
     1
102
RTVSPropertyOp8
 70
     1
102
RTVSPropertyOp9
 70
     1
102
RTVSPropertyOp10
 70
     1
102
RTVSPropertyOp11
 70
     1
102
RTVSPropertyOp12
 70
     1
102
RTVSPropertyOp13
 70
     1
102
RTVSPropertyOp14
 70
     1
102
RTVSPropertyOp15
 70
     1
102
RTVSPropertyOp16
 70
     1
102
RTVSPropertyOp17
 70
     1
102
RTVSPropertyOp18
 70
     1
102
RTVSPropertyOp19
 70
     1
102
RTVSPropertyOp20
 70
     1
102
RTVSPropertyOp21
 70
     1
102
RTVSPropertyOp22
 70
     1
102
RTVSPropertyOp23
 70
     1
102
RTVSPropertyOp24
 70
     1
102
RTVSPropertyOp25
 70
     1
102
RTVSPropertyOp26
 70
     1
102
RTVSPropertyOp27
 70
     1
102
RTVSPropertyOp28
 70
     1
102
RTVSPropertyOp29
 70
     1
102
RTVSPropertyOp30
 70
     1
102
RTVSPropertyOp31
 70
     1
102
RTVSPropertyOp32
 70
     1
  0
XRECORD
  5
39F
102
{ACAD_REACTORS
330
39E
102
}
330
39E
100
AcDbXrecord
280
     1
102
RTVSPropertyOp0
 70
     1
102
RTVSPropertyOp1
 70
     1
102
RTVSPropertyOp2
 70
     1
102
RTVSPropertyOp3
 70
     1
102
RTVSPropertyOp4
 70
     1
102
RTVSPropertyOp5
 70
     1
102
RTVSPropertyOp6
 70
     1
102
RTVSPropertyOp7
 70
     1
102
RTVSPropertyOp8
 70
     1
102
RTVSPropertyOp9
 70
     1
102
RTVSPropertyOp10
 70
     1
102
RTVSPropertyOp11
 70
     1
102
RTVSPropertyOp12
 70
     1
102
RTVSPropertyOp13
 70
     1
102
RTVSPropertyOp14
 70
     1
102
RTVSPropertyOp15
 70
     1
102
RTVSPropertyOp16
 70
     1
102
RTVSPropertyOp17
 70
     1
102
RTVSPropertyOp18
 70
     1
102
RTVSPropertyOp19
 70
     1
102
RTVSPropertyOp20
 70
     1
102
RTVSPropertyOp21
 70
     1
102
RTVSPropertyOp22
 70
     1
102
RTVSPropertyOp23
 70
     1
102
RTVSPropertyOp24
 70
     1
102
RTVSPropertyOp25
 70
     1
102
RTVSPropertyOp26
 70
     1
102
RTVSPropertyOp27
 70
     1
102
RTVSPropertyOp28
 70
     1
102
RTVSPropertyOp29
 70
     1
102
RTVSPropertyOp30
 70
     1
102
RTVSPropertyOp31
 70
     1
102
RTVSPropertyOp32
 70
     1
  0
XRECORD
  5
3A1
102
{ACAD_REACTORS
330
3A0
102
}
330
3A0
100
AcDbXrecord
280
     1
102
RTVSPropertyOp0
 70
     1
102
RTVSPropertyOp1
 70
     1
102
RTVSPropertyOp2
 70
     1
102
RTVSPropertyOp3
 70
     1
102
RTVSPropertyOp4
 70
     1
102
RTVSPropertyOp5
 70
     1
102
RTVSPropertyOp6
 70
     1
102
RTVSPropertyOp7
 70
     1
102
RTVSPropertyOp8
 70
     1
102
RTVSPropertyOp9
 70
     1
102
RTVSPropertyOp10
 70
     1
102
RTVSPropertyOp11
 70
     1
102
RTVSPropertyOp12
 70
     1
102
RTVSPropertyOp13
 70
     1
102
RTVSPropertyOp14
 70
     1
102
RTVSPropertyOp15
 70
     1
102
RTVSPropertyOp16
 70
     1
102
RTVSPropertyOp17
 70
     1
102
RTVSPropertyOp18
 70
     1
102
RTVSPropertyOp19
 70
     1
102
RTVSPropertyOp20
 70
     1
102
RTVSPropertyOp21
 70
     1
102
RTVSPropertyOp22
 70
     1
102
RTVSPropertyOp23
 70
     1
102
RTVSPropertyOp24
 70
     1
102
RTVSPropertyOp25
 70
     1
102
RTVSPropertyOp26
 70
     1
102
RTVSPropertyOp27
 70
     1
102
RTVSPropertyOp28
 70
     1
102
RTVSPropertyOp29
 70
     1
102
RTVSPropertyOp30
 70
     1
102
RTVSPropertyOp31
 70
     1
102
RTVSPropertyOp32
 70
     1
  0
XRECORD
  5
397
102
{ACAD_REACTORS
330
396
102
}
330
396
100
AcDbXrecord
280
     1
102
RTVSPropertyOp0
 70
     1
102
RTVSPropertyOp1
 70
     1
102
RTVSPropertyOp2
 70
     1
102
RTVSPropertyOp3
 70
     1
102
RTVSPropertyOp4
 70
     1
102
RTVSPropertyOp5
 70
     1
102
RTVSPropertyOp6
 70
     1
102
RTVSPropertyOp7
 70
     1
102
RTVSPropertyOp8
 70
     1
102
RTVSPropertyOp9
 70
     1
102
RTVSPropertyOp10
 70
     1
102
RTVSPropertyOp11
 70
     1
102
RTVSPropertyOp12
 70
     1
102
RTVSPropertyOp13
 70
     1
102
RTVSPropertyOp14
 70
     1
102
RTVSPropertyOp15
 70
     1
102
RTVSPropertyOp16
 70
     1
102
RTVSPropertyOp17
 70
     1
102
RTVSPropertyOp18
 70
     1
102
RTVSPropertyOp19
 70
     1
102
RTVSPropertyOp20
 70
     1
102
RTVSPropertyOp21
 70
     1
102
RTVSPropertyOp22
 70
     1
102
RTVSPropertyOp23
 70
     1
102
RTVSPropertyOp24
 70
     1
102
RTVSPropertyOp25
 70
     1
102
RTVSPropertyOp26
 70
     1
102
RTVSPropertyOp27
 70
     1
102
RTVSPropertyOp28
 70
     1
102
RTVSPropertyOp29
 70
     1
102
RTVSPropertyOp30
 70
     1
102
RTVSPropertyOp31
 70
     1
102
RTVSPropertyOp32
 70
     1
  0
XRECORD
  5
37D
102
{ACAD_REACTORS
330
37C
102
}
330
37C
100
AcDbXrecord
280
     1
102
RTVSPropertyOp0
 70
     1
102
RTVSPropertyOp1
 70
     1
102
RTVSPropertyOp2
 70
     1
102
RTVSPropertyOp3
 70
     1
102
RTVSPropertyOp4
 70
     1
102
RTVSPropertyOp5
 70
     1
102
RTVSPropertyOp6
 70
     1
102
RTVSPropertyOp7
 70
     1
102
RTVSPropertyOp8
 70
     1
102
RTVSPropertyOp9
 70
     1
102
RTVSPropertyOp10
 70
     1
102
RTVSPropertyOp11
 70
     1
102
RTVSPropertyOp12
 70
     1
102
RTVSPropertyOp13
 70
     1
102
RTVSPropertyOp14
 70
     1
102
RTVSPropertyOp15
 70
     1
102
RTVSPropertyOp16
 70
     1
102
RTVSPropertyOp17
 70
     1
102
RTVSPropertyOp18
 70
     1
102
RTVSPropertyOp19
 70
     1
102
RTVSPropertyOp20
 70
     1
102
RTVSPropertyOp21
 70
     1
102
RTVSPropertyOp22
 70
     1
102
RTVSPropertyOp23
 70
     1
102
RTVSPropertyOp24
 70
     1
102
RTVSPropertyOp25
 70
     1
102
RTVSPropertyOp26
 70
     1
102
RTVSPropertyOp27
 70
     1
102
RTVSPropertyOp28
 70
     1
102
RTVSPropertyOp29
 70
     1
102
RTVSPropertyOp30
 70
     1
102
RTVSPropertyOp31
 70
     1
102
RTVSPropertyOp32
 70
     1
  0
XRECORD
  5
3A3
102
{ACAD_REACTORS
330
3A2
102
}
330
3A2
100
AcDbXrecord
280
     1
102
RTVSPropertyOp0
 70
     1
102
RTVSPropertyOp1
 70
     1
102
RTVSPropertyOp2
 70
     1
102
RTVSPropertyOp3
 70
     1
102
RTVSPropertyOp4
 70
     1
102
RTVSPropertyOp5
 70
     1
102
RTVSPropertyOp6
 70
     1
102
RTVSPropertyOp7
 70
     1
102
RTVSPropertyOp8
 70
     1
102
RTVSPropertyOp9
 70
     1
102
RTVSPropertyOp10
 70
     1
102
RTVSPropertyOp11
 70
     1
102
RTVSPropertyOp12
 70
     1
102
RTVSPropertyOp13
 70
     1
102
RTVSPropertyOp14
 70
     1
102
RTVSPropertyOp15
 70
     1
102
RTVSPropertyOp16
 70
     1
102
RTVSPropertyOp17
 70
     1
102
RTVSPropertyOp18
 70
     1
102
RTVSPropertyOp19
 70
     1
102
RTVSPropertyOp20
 70
     1
102
RTVSPropertyOp21
 70
     1
102
RTVSPropertyOp22
 70
     1
102
RTVSPropertyOp23
 70
     1
102
RTVSPropertyOp24
 70
     1
102
RTVSPropertyOp25
 70
     1
102
RTVSPropertyOp26
 70
     1
102
RTVSPropertyOp27
 70
     1
102
RTVSPropertyOp28
 70
     1
102
RTVSPropertyOp29
 70
     1
102
RTVSPropertyOp30
 70
     1
102
RTVSPropertyOp31
 70
     1
102
RTVSPropertyOp32
 70
     1
  0
ENDSEC
  0
EOF
