  0
SECTION
  2
HEADER
  9
$ACADVER
  1
AC1015
  9
$ACADMAINTVER
 70
    18
  9
$DWGCODEPAGE
  3
ANSI_1252
  9
$INSBASE
 10
0.0
 20
0.0
 30
0.0
  9
$EXTMIN
 10
-30.60673249676665
 20
-61.87899591666542
 30
-0.0015258207003583
  9
$EXTMAX
 10
30.62487934951787
 20
11.39538673450624
 30
0.0000000349246037
  9
$LIMMIN
 10
0.0
 20
0.0
  9
$LIMMAX
 10
1189.0
 20
840.9999999999998
  9
$ORTHOMODE
 70
     0
  9
$REGENMODE
 70
     1
  9
$FILLMODE
 70
     1
  9
$QTEXTMODE
 70
     0
  9
$MIRRTEXT
 70
     0
  9
$LTSCALE
 40
1.0
  9
$ATTMODE
 70
     1
  9
$TEXTSIZE
 40
0.2
  9
$TRACEWID
 40
0.05
  9
$TEXTSTYLE
  7
STANDARD
  9
$CLAYER
  8
0
  9
$CELTYPE
  6
ByLayer
  9
$CECOLOR
 62
   256
  9
$CELTSCALE
 40
1.0
  9
$DISPSILH
 70
     0
  9
$DIMSCALE
 40
1.0
  9
$DIMASZ
 40
180.0
  9
$DIMEXO
 40
0.0625
  9
$DIMDLI
 40
0.38
  9
$DIMRND
 40
0.0
  9
$DIMDLE
 40
0.0
  9
$DIMEXE
 40
0.18
  9
$DIMTP
 40
0.0
  9
$DIMTM
 40
0.0
  9
$DIMTXT
 40
34.99999940395355
  9
$DIMCEN
 40
0.09
  9
$DIMTSZ
 40
0.0
  9
$DIMTOL
 70
     0
  9
$DIMLIM
 70
     0
  9
$DIMTIH
 70
     1
  9
$DIMTOH
 70
     1
  9
$DIMSE1
 70
     0
  9
$DIMSE2
 70
     0
  9
$DIMTAD
 70
     0
  9
$DIMZIN
 70
     0
  9
$DIMBLK
  1

  9
$DIMASO
 70
     1
  9
$DIMSHO
 70
     1
  9
$DIMPOST
  1

  9
$DIMAPOST
  1

  9
$DIMALT
 70
     0
  9
$DIMALTD
 70
     2
  9
$DIMALTF
 40
25.4
  9
$DIMLFAC
 40
1.0
  9
$DIMTOFL
 70
     0
  9
$DIMTVP
 40
0.0
  9
$DIMTIX
 70
     0
  9
$DIMSOXD
 70
     0
  9
$DIMSAH
 70
     0
  9
$DIMBLK1
  1

  9
$DIMBLK2
  1

  9
$DIMSTYLE
  2
STANDARD
  9
$DIMCLRD
 70
     0
  9
$DIMCLRE
 70
     0
  9
$DIMCLRT
 70
     0
  9
$DIMTFAC
 40
1.0
  9
$DIMGAP
 40
0.09
  9
$DIMJUST
 70
     0
  9
$DIMSD1
 70
     0
  9
$DIMSD2
 70
     0
  9
$DIMTOLJ
 70
     1
  9
$DIMTZIN
 70
     0
  9
$DIMALTZ
 70
     0
  9
$DIMALTTZ
 70
     0
  9
$DIMUPT
 70
     0
  9
$DIMDEC
 70
     4
  9
$DIMTDEC
 70
     4
  9
$DIMALTU
 70
     2
  9
$DIMALTTD
 70
     2
  9
$DIMTXSTY
  7
STANDARD
  9
$DIMAUNIT
 70
     0
  9
$DIMADEC
 70
     0
  9
$DIMALTRND
 40
0.0
  9
$DIMAZIN
 70
     0
  9
$DIMDSEP
 70
    46
  9
$DIMATFIT
 70
     3
  9
$DIMFRAC
 70
     0
  9
$DIMLDRBLK
  1

  9
$DIMLUNIT
 70
     2
  9
$DIMLWD
 70
    -2
  9
$DIMLWE
 70
    -2
  9
$DIMTMOVE
 70
     0
  9
$LUNITS
 70
     2
  9
$LUPREC
 70
     4
  9
$SKETCHINC
 40
0.1
  9
$FILLETRAD
 40
0.0
  9
$AUNITS
 70
     0
  9
$AUPREC
 70
     0
  9
$MENU
  1
.
  9
$ELEVATION
 40
0.0
  9
$PELEVATION
 40
0.0
  9
$THICKNESS
 40
0.0
  9
$LIMCHECK
 70
     0
  9
$CHAMFERA
 40
0.0
  9
$CHAMFERB
 40
0.0
  9
$CHAMFERC
 40
0.0
  9
$CHAMFERD
 40
0.0
  9
$SKPOLY
 70
     0
  9
$TDCREATE
 40
2454871.539305995
  9
$TDUCREATE
 40
2454871.455972662
  9
$TDUPDATE
 40
2455726.861859213
  9
$TDUUPDATE
 40
2455726.778525880
  9
$TDINDWG
 40
0.0121177199
  9
$TDUSRTIMER
 40
0.0121177199
  9
$USRTIMER
 70
     1
  9
$ANGBASE
 50
0.0
  9
$ANGDIR
 70
     0
  9
$PDMODE
 70
     0
  9
$PDSIZE
 40
0.0
  9
$PLINEWID
 40
0.0
  9
$SPLFRAME
 70
     0
  9
$SPLINETYPE
 70
     6
  9
$SPLINESEGS
 70
     8
  9
$HANDSEED
  5
2F1
  9
$SURFTAB1
 70
     6
  9
$SURFTAB2
 70
     6
  9
$SURFTYPE
 70
     6
  9
$SURFU
 70
     6
  9
$SURFV
 70
     6
  9
$UCSBASE
  2

  9
$UCSNAME
  2

  9
$UCSORG
 10
0.0
 20
0.0
 30
0.0
  9
$UCSXDIR
 10
1.0
 20
0.0
 30
0.0
  9
$UCSYDIR
 10
0.0
 20
1.0
 30
0.0
  9
$UCSORTHOREF
  2

  9
$UCSORTHOVIEW
 70
     0
  9
$UCSORGTOP
 10
0.0
 20
0.0
 30
0.0
  9
$UCSORGBOTTOM
 10
0.0
 20
0.0
 30
0.0
  9
$UCSORGLEFT
 10
0.0
 20
0.0
 30
0.0
  9
$UCSORGRIGHT
 10
0.0
 20
0.0
 30
0.0
  9
$UCSORGFRONT
 10
0.0
 20
0.0
 30
0.0
  9
$UCSORGBACK
 10
0.0
 20
0.0
 30
0.0
  9
$PUCSBASE
  2

  9
$PUCSNAME
  2

  9
$PUCSORG
 10
0.0
 20
0.0
 30
0.0
  9
$PUCSXDIR
 10
1.0
 20
0.0
 30
0.0
  9
$PUCSYDIR
 10
0.0
 20
1.0
 30
0.0
  9
$PUCSORTHOREF
  2

  9
$PUCSORTHOVIEW
 70
     0
  9
$PUCSORGTOP
 10
0.0
 20
0.0
 30
0.0
  9
$PUCSORGBOTTOM
 10
0.0
 20
0.0
 30
0.0
  9
$PUCSORGLEFT
 10
0.0
 20
0.0
 30
0.0
  9
$PUCSORGRIGHT
 10
0.0
 20
0.0
 30
0.0
  9
$PUCSORGFRONT
 10
0.0
 20
0.0
 30
0.0
  9
$PUCSORGBACK
 10
0.0
 20
0.0
 30
0.0
  9
$USERI1
 70
     0
  9
$USERI2
 70
     0
  9
$USERI3
 70
     0
  9
$USERI4
 70
     0
  9
$USERI5
 70
     0
  9
$USERR1
 40
0.0
  9
$USERR2
 40
0.0
  9
$USERR3
 40
0.0
  9
$USERR4
 40
0.0
  9
$USERR5
 40
0.0
  9
$WORLDVIEW
 70
     1
  9
$SHADEDGE
 70
     3
  9
$SHADEDIF
 70
    70
  9
$TILEMODE
 70
     1
  9
$MAXACTVP
 70
    64
  9
$PINSBASE
 10
0.0
 20
0.0
 30
0.0
  9
$PLIMCHECK
 70
     0
  9
$PEXTMIN
 10
0.0
 20
0.0
 30
0.0
  9
$PEXTMAX
 10
1189.0
 20
840.9999999999998
 30
0.0
  9
$PLIMMIN
 10
0.0
 20
0.0
  9
$PLIMMAX
 10
1189.0
 20
840.9999999999998
  9
$UNITMODE
 70
     0
  9
$VISRETAIN
 70
     1
  9
$PLINEGEN
 70
     0
  9
$PSLTSCALE
 70
     1
  9
$TREEDEPTH
 70
  3020
  9
$CMLSTYLE
  2
Standard
  9
$CMLJUST
 70
     0
  9
$CMLSCALE
 40
1.0
  9
$PROXYGRAPHICS
 70
     1
  9
$MEASUREMENT
 70
     1
  9
$CELWEIGHT
370
    -1
  9
$ENDCAPS
280
     0
  9
$JOINSTYLE
280
     0
  9
$LWDISPLAY
290
     0
  9
$INSUNITS
 70
     4
  9
$HYPERLINKBASE
  1

  9
$STYLESHEET
  1

  9
$XEDIT
290
     1
  9
$CEPSNTYPE
380
     0
  9
$PSTYLEMODE
290
     1
  9
$FINGERPRINTGUID
  2
{64FF6D93-4BAD-4FBE-A32D-BA6863D3E2AA}
  9
$VERSIONGUID
  2
{3384D644-BF07-4807-BEE5-1BEADDA53D56}
  9
$EXTNAMES
290
     1
  9
$PSVPSCALE
 40
0.0
  9
$OLESTARTUP
290
     0
  0
ENDSEC
  0
SECTION
  2
CLASSES
  0
CLASS
  1
ACDBDICTIONARYWDFLT
  2
AcDbDictionaryWithDefault
  3
ObjectDBX Classes
 90
        0
280
     0
281
     0
  0
CLASS
  1
MATERIAL
  2
AcDbMaterial
  3
ObjectDBX Classes
 90
     1153
280
     0
281
     0
  0
CLASS
  1
VISUALSTYLE
  2
AcDbVisualStyle
  3
ObjectDBX Classes
 90
     4095
280
     0
281
     0
  0
CLASS
  1
SCALE
  2
AcDbScale
  3
ObjectDBX Classes
 90
     1153
280
     0
281
     0
  0
CLASS
  1
TABLESTYLE
  2
AcDbTableStyle
  3
ObjectDBX Classes
 90
     4095
280
     0
281
     0
  0
CLASS
  1
MLEADERSTYLE
  2
AcDbMLeaderStyle
  3
ACDB_MLEADERSTYLE_CLASS
 90
     4095
280
     0
281
     0
  0
CLASS
  1
SORTENTSTABLE
  2
AcDbSortentsTable
  3
ObjectDBX Classes
 90
        0
280
     0
281
     0
  0
CLASS
  1
CELLSTYLEMAP
  2
AcDbCellStyleMap
  3
ObjectDBX Classes
 90
     1152
280
     0
281
     0
  0
CLASS
  1
DICTIONARYVAR
  2
AcDbDictionaryVar
  3
ObjectDBX Classes
 90
        0
280
     0
281
     0
  0
CLASS
  1
ACME_DOCUMENT
  2
AcMeDbDoc
  3
AcMeServices
 90
     1024
280
     0
281
     0
  0
CLASS
  1
AMGSETTINGSOBJ
  2
AmgSettingsObj
  3
"AcadM|Product Description: AutoCAD Mechanical|Company: Autodesk, Inc."
 90
     1024
280
     0
281
     0
  0
CLASS
  1
ACMESCOPE
  2
AcMeScope
  3
AcMeServices
 90
     1024
280
     0
281
     0
  0
CLASS
  1
ACMECOMMANDHISTORY
  2
AcMeCommandHistory
  3
AcMeServices
 90
     1024
280
     0
281
     0
  0
CLASS
  1
ACIMSYSVARMAN
  2
AcImSysVarManager
  3
AcMeServices
 90
     1024
280
     0
281
     0
  0
CLASS
  1
ACIMINTSYSVAR
  2
AcImIntSysVar
  3
AcMeServices
 90
     1024
280
     0
281
     0
  0
CLASS
  1
ACMEDRAWINGMAN
  2
AcMeDrawingMan
  3
AcMeServices
 90
    33792
280
     0
281
     0
  0
CLASS
  1
ACMEVIEW
  2
AcMeView
  3
AcMeServices
 90
    33792
280
     0
281
     0
  0
CLASS
  1
ACDBENTITYCACHE
  2
AcMeEntityCache
  3
AcMeServices
 90
     1024
280
     0
281
     0
  0
CLASS
  1
GSMANAGER
  2
AcMeGSManager
  3
AcMeServices
 90
    33792
280
     1
281
     0
  0
CLASS
  1
AMDTINTERNALREACTOR
  2
AmdtInternalReactor
  3
AcMeServices
 90
     1024
280
     0
281
     0
  0
CLASS
  1
ACMESTATEMGR
  2
AcMeStateMgr
  3
AcMeServices
 90
     1024
280
     0
281
     0
  0
CLASS
  1
ACGREFMASTER
  2
AcGrefMaster
  3
AcAttribServices
 90
     1024
280
     0
281
     0
  0
CLASS
  1
AM_DRAWING_MGR
  2
AcDmDwgMgr
  3
AcMechDwgViewMgmt
 90
     1024
280
     0
281
     0
  0
CLASS
  1
AM_DWG_DOCUMENT
  2
AcDmDwgDocument
  3
AcMechDwgViewMgmt
 90
     1024
280
     0
281
     0
  0
CLASS
  1
AM_DWG_SHEET
  2
AcDmSheet
  3
AcMechDwgViewMgmt
 90
     1024
280
     0
281
     0
  0
CLASS
  1
AM_VIEWDIMPARMAP
  2
AcDmViewDimParMap
  3
AcMechDwgViewMgmt
 90
     1024
280
     0
281
     0
  0
CLASS
  1
ACIMREALSYSVAR
  2
AcImRealSysVar
  3
AcMeServices
 90
     1024
280
     0
281
     0
  0
CLASS
  1
AM_DWGMGR_NAME
  2
AcDmDwgMgrName
  3
AcMechDwgViewMgmt
 90
     1024
280
     0
281
     0
  0
CLASS
  1
ACME_DATABASE
  2
AcMeDbDatabase
  3
AcMeServices
 90
     1024
280
     0
281
     0
  0
CLASS
  1
ACRFINSADJUSTERMGR
  2
AcRfInsAdjusterMgr
  3
AcMeServices
 90
     1024
280
     0
281
     0
  0
CLASS
  1
ACGREFACADMASTER
  2
AcGrefacadMaster
  3
AcGrefServices
 90
     1024
280
     0
281
     0
  0
CLASS
  1
AMDTMENUSTATEMGR
  2
AmdtMenuStateMgr
  3
McadcomServices
 90
     1024
280
     0
281
     0
  0
CLASS
  1
AMDTMCOMMENUSTATE
  2
AmdtMcomMenuState
  3
McadcomServices
 90
     1024
280
     0
281
     0
  0
CLASS
  1
AMIMASTER
  2
AmiMaster
  3
AmiServices
 90
     1024
280
     0
281
     0
  0
CLASS
  1
MAPIAMMOUDLE
  2
MApiAmModule
  3
MApiAmServices
 90
     1024
280
     0
281
     0
  0
CLASS
  1
ACIMSTRSYSVAR
  2
AcImStrSysVar
  3
AcMeServices
 90
     1024
280
     0
281
     0
  0
CLASS
  1
AMDTADMENUSTATE
  2
AmdtAdMenuState
  3
DesignerServices
 90
    33792
280
     1
281
     0
  0
CLASS
  1
ADAPPL
  2
AcAdAppl
  3
DesignerAssemblies
 90
    33792
280
     0
281
     0
  0
CLASS
  1
DEPMGR
  2
AcAdDepMgr
  3
DesignerAssemblies
 90
    33792
280
     0
281
     0
  0
CLASS
  1
PARAMMGR
  2
AcAdParamMgr
  3
DesignerAssemblies
 90
    33792
280
     0
281
     0
  0
CLASS
  1
PARAMSCOPE
  2
AcAdParamScope
  3
DesignerAssemblies
 90
    33792
280
     0
281
     0
  0
CLASS
  1
NAMEDAPPL
  2
AcAdNamedAppl
  3
DesignerAssemblies
 90
    33792
280
     0
281
     0
  0
CLASS
  1
AMDTDMMENUSTATE
  2
AmdtDmMenuState
  3
AcMechDwgViewMgmt
 90
     1024
280
     0
281
     0
  0
CLASS
  1
AMDTAMMENUSTATE
  2
AmdtAmMenuState
  3
DesignerAssemblies
 90
     1024
280
     0
281
     0
  0
CLASS
  1
ACAMPROJECT
  2
AcAmProject
  3
DesignerAssemblies
 90
     1024
280
     0
281
     0
  0
CLASS
  1
ACAMGRCOMPDEF
  2
AcAmGrCompDef
  3
DesignerAssemblies
 90
     1024
280
     0
281
     0
  0
CLASS
  1
ACCMCONTEXT
  2
AcCmContext
  3
DesignerAssemblies
 90
    33792
280
     0
281
     0
  0
CLASS
  1
ACAMCOMPDEF
  2
AcAmCompDef
  3
DesignerAssemblies
 90
     1024
280
     0
281
     0
  0
CLASS
  1
ACAMCOMPDEFMGR
  2
AcAmCompDefMgr
  3
DesignerAssemblies
 90
     1024
280
     0
281
     0
  0
CLASS
  1
AMCONTEXTMGR
  2
AcAmContextMgr
  3
DesignerAssemblies
 90
     1024
280
     0
281
     0
  0
CLASS
  1
ACAMCONTEXTMODELER
  2
AcAmContextModeler
  3
DesignerAssemblies
 90
     1024
280
     0
281
     0
  0
CLASS
  1
ACMDATADICTIONARY
  2
AcmDataDictionary
  3
"AcmSymBB|Product Description: AutoCAD Mechanical|Company: Autodesk, Inc."
 90
     1024
280
     0
281
     0
  0
CLASS
  1
CATALOGSTATE
  2
AcAmCatalogState
  3
DesignerAssemblies
 90
    33792
280
     0
281
     0
  0
CLASS
  1
ACAMGRCOMPDEFSET
  2
AcAmGrCompDefSet
  3
DesignerAssemblies
 90
     1024
280
     0
281
     0
  0
CLASS
  1
AMDTBROWSERDBTAB
  2
AmdtBrowserDbTab
  3
McadcomServices
 90
     1024
280
     0
281
     0
  0
CLASS
  1
CBROWSERAPPOBJECT
  2
CBrowserAppObject
  3
McadcomServices
 90
     1024
280
     0
281
     0
  0
CLASS
  1
DM_PLACEHOLDER
  2
AcDmSelsetPlaceholder
  3
AcMechDwgViewMgmt
 90
     1024
280
     0
281
     0
  0
CLASS
  1
EXACXREFPANELOBJECT
  2
ExAcXREFPanelObject
  3
EXAC_ESW
 90
     1025
280
     0
281
     0
  0
CLASS
  1
NPOCOLLECTION
  2
AcDbImpNonPersistentObjectsCollection
  3
ObjectDBX Classes
 90
     1153
280
     0
281
     0
  0
CLASS
  1
ACMSTANDARDANSI
  2
AcmStandardANSI
  3
"Amdt_StdImp|Product Description: AutoCAD Mechanical|Company: Autodesk, Inc."
 90
     1024
280
     0
281
     0
  0
CLASS
  1
ACMSURFSTANDARDANSI
  2
AcmSurfTextStdANSI
  3
"Amdt_StdImp|Product Description: AutoCAD Mechanical|Company: Autodesk, Inc."
 90
     1024
280
     0
281
     0
  0
CLASS
  1
ACMFCFSTANDARDANSI
  2
AcmFCFStdANSI
  3
"Amdt_StdImp|Product Description: AutoCAD Mechanical|Company: Autodesk, Inc."
 90
     1024
280
     0
281
     0
  0
CLASS
  1
ACMWELDSTANDARDANSI
  2
AcmWeldingStdANSI
  3
"Amdt_StdImp|Product Description: AutoCAD Mechanical|Company: Autodesk, Inc."
 90
     1024
280
     0
281
     0
  0
CLASS
  1
ACMIDSTANDARDANSI
  2
AcmIdStdANSI
  3
"Amdt_StdImp|Product Description: AutoCAD Mechanical|Company: Autodesk, Inc."
 90
     1024
280
     0
281
     0
  0
CLASS
  1
ACMDATUMSTANDARDANSI
  2
AcmDatumStdANSI
  3
"Amdt_StdImp|Product Description: AutoCAD Mechanical|Company: Autodesk, Inc."
 90
     1024
280
     0
281
     0
  0
CLASS
  1
ACMBOMSTANDARDANSI
  2
AcmBOMStdANSI
  3
"Amdt_StdImp|Product Description: AutoCAD Mechanical|Company: Autodesk, Inc."
 90
     1024
280
     0
281
     0
  0
CLASS
  1
ACMDETAILSTANDARDANSI
  2
AmdtDetailSymStdANSI
  3
"Amdt_StdImp|Product Description: AutoCAD Mechanical|Company: Autodesk, Inc."
 90
     1024
280
     0
281
     0
  0
CLASS
  1
ACMSECTIONSTANDARDANSI
  2
AmdtSectionSymStdANSI
  3
"Amdt_StdImp|Product Description: AutoCAD Mechanical|Company: Autodesk, Inc."
 90
     1024
280
     0
281
     0
  0
CLASS
  1
ACMCENTERLINESTANDARDANSI
  2
AmdtCenterLineStdANSI
  3
"Amdt_StdImp|Product Description: AutoCAD Mechanical|Company: Autodesk, Inc."
 90
     1024
280
     0
281
     0
  0
CLASS
  1
ACMTHREADLINESTANDARDANSI
  2
AmdtThreadLineStdANSI
  3
"Amdt_StdImp|Product Description: AutoCAD Mechanical|Company: Autodesk, Inc."
 90
     1024
280
     0
281
     0
  0
CLASS
  1
ACMNOTESTANDARDANSI
  2
AmdtNoteStdANSI
  3
"Amdt_StdImp|Product Description: AutoCAD Mechanical|Company: Autodesk, Inc."
 90
     1024
280
     0
281
     0
  0
CLASS
  1
ACMTAPERSTANDARDANSI
  2
AcmTaperStdANSI
  3
"Amdt_StdImp|Product Description: AutoCAD Mechanical|Company: Autodesk, Inc."
 90
     1024
280
     0
281
     0
  0
CLASS
  1
ACMANOOTATIONVIEWSTANDARDANSI
  2
AmdtAnViewStdANSI
  3
"Amdt_StdImp|Product Description: AutoCAD Mechanical|Company: Autodesk, Inc."
 90
     1024
280
     0
281
     0
  0
CLASS
  1
ACAMGLAYSTD
  2
AcAmgLayStd
  3
"AmgLay|Product Description: AutoCAD Mechanical|Company: Autodesk, Inc."
 90
     1024
280
     0
281
     0
  0
CLASS
  1
ACAMGDIMSTD
  2
AcAmgDimStd
  3
"AmgDim|Product Description: AutoCAD Mechanical|Company: Autodesk, Inc."
 90
     1024
280
     0
281
     0
  0
CLASS
  1
AMGOBJPROPCFG
  2
AmgObjPropCfg
  3
"AmgLay|Product Description: AutoCAD Mechanical|Company: Autodesk, Inc."
 90
     1025
280
     0
281
     0
  0
CLASS
  1
ACAMGHOLECHARTSTDANSI
  2
AcAmgHoleChartStdANSI
  3
AmgDim|Product Description: AutoCAD Mechanical|Company: Autodesk, Inc.
 90
     1024
280
     0
281
     0
  0
CLASS
  1
ACAMGTITLESTD
  2
AcAmgTitleStd
  3
"AmgTitle|Product Description: AutoCAD Mechanical|Company: Autodesk, Inc."
 90
     4095
280
     0
281
     0
  0
CLASS
  1
AMDTNOTETEMPLATEDB
  2
AmdtNoteTemplateDB
  3
AcmSymBB|Product Description: AutoCAD Mechanical|Company: Autodesk, Inc.
 90
     1024
280
     0
281
     0
  0
CLASS
  1
ACAMGFILTERDAT
  2
AcAmgFilterDat
  3
"AcadM|Product Description: AutoCAD Mechanical|Company: Autodesk, Inc."
 90
    33792
280
     0
281
     0
  0
CLASS
  1
CAMSSTRUCTBTNSTATE
  2
StructBtnState
  3
DesignerAssemblies
 90
    33792
280
     0
281
     0
  0
CLASS
  1
ACDBPLACEHOLDER
  2
AcDbPlaceHolder
  3
ObjectDBX Classes
 90
        0
280
     0
281
     0
  0
CLASS
  1
LAYOUT
  2
AcDbLayout
  3
ObjectDBX Classes
 90
        0
280
     0
281
     0
  0
ENDSEC
  0
SECTION
  2
TABLES
  0
TABLE
  2
VPORT
  5
28
102
{ACAD_XDICTIONARY
360
2C
102
}
330
0
100
AcDbSymbolTable
 70
     1
  0
VPORT
  5
29
330
28
100
AcDbSymbolTableRecord
100
AcDbViewportTableRecord
  2
*ACTIVE
 70
     0
 10
0.0
 20
0.0
 11
1.0
 21
1.0
 12
0.0090734263756005
 22
-25.24180459107959
 13
0.0
 23
0.0
 14
1.0
 24
1.0
 15
0.0
 25
0.0
 16
0.0
 26
0.0
 36
1.0
 17
0.0
 27
0.0
 37
0.0
 40
82.03906220865308
 41
2.068965517241379
 42
50.0
 43
0.0
 44
0.0
 50
0.0
 51
0.0
 71
     0
 72
   100
 73
     1
 74
     1
 75
     0
 76
     0
 77
     0
 78
     0
281
     0
 65
     1
110
0.0
120
0.0
130
0.0
111
1.0
121
0.0
131
0.0
112
0.0
122
1.0
132
0.0
 79
     0
146
0.0
  0
ENDTAB
  0
TABLE
  2
LTYPE
  5
23
330
0
100
AcDbSymbolTable
 70
    12
  0
LTYPE
  5
24
330
23
100
AcDbSymbolTableRecord
100
AcDbLinetypeTableRecord
  2
ByBlock
 70
     0
  3

 72
    65
 73
     0
 40
0.0
  0
LTYPE
  5
25
330
23
100
AcDbSymbolTableRecord
100
AcDbLinetypeTableRecord
  2
ByLayer
 70
     0
  3

 72
    65
 73
     0
 40
0.0
  0
LTYPE
  5
13
330
23
100
AcDbSymbolTableRecord
100
AcDbLinetypeTableRecord
  2
CONTINUOUS
 70
     0
  3
Solid line
 72
    65
 73
     0
 40
0.0
  0
LTYPE
  5
1FB
330
23
100
AcDbSymbolTableRecord
100
AcDbLinetypeTableRecord
  2
HIDDEN
 70
     0
  3
Verdeckt
 72
    65
 73
     2
 40
0.375
 49
0.25
 74
     0
 49
-0.125
 74
     0
  0
LTYPE
  5
1FD
330
23
100
AcDbSymbolTableRecord
100
AcDbLinetypeTableRecord
  2
PHANTOM2
 70
     0
  3
Phantom (.5x) ___ _ _ ___ _ _ ___ _ _ ___ _ _
 72
    65
 73
     6
 40
1.25
 49
0.625
 74
     0
 49
-0.125
 74
     0
 49
0.125
 74
     0
 49
-0.125
 74
     0
 49
0.125
 74
     0
 49
-0.125
 74
     0
  0
LTYPE
  5
1FC
330
23
100
AcDbSymbolTableRecord
100
AcDbLinetypeTableRecord
  2
CENTER
 70
     0
  3
Mitte ____ _ ____ _ ____ _ ____ _ ____ _ ____
 72
    65
 73
     4
 40
2.0
 49
1.25
 74
     0
 49
-0.25
 74
     0
 49
0.25
 74
     0
 49
-0.25
 74
     0
  0
LTYPE
  5
1FE
330
23
100
AcDbSymbolTableRecord
100
AcDbLinetypeTableRecord
  2
Amconstr
 70
     0
  3
_______________________
 72
    65
 73
     2
 40
9999.0
 49
9999.0
 74
     0
 49
0.0
 74
     0
  0
LTYPE
  5
1FF
330
23
100
AcDbSymbolTableRecord
100
AcDbLinetypeTableRecord
  2
CENTER2
 70
     0
  3
Center (.5x) ___ _ ___ _ ___ _ ___ _ ___ _ ___
 72
    65
 73
     4
 40
1.125
 49
0.75
 74
     0
 49
-0.125
 74
     0
 49
0.125
 74
     0
 49
-0.125
 74
     0
  0
LTYPE
  5
200
330
23
100
AcDbSymbolTableRecord
100
AcDbLinetypeTableRecord
  2
HIDDEN2
 70
     0
  3
Hidden (.5x) _ _ _ _ _ _ _ _ _ _ _ _ _ _ _ _ _
 72
    65
 73
     2
 40
0.1875
 49
0.125
 74
     0
 49
-0.0625
 74
     0
  0
LTYPE
  5
201
330
23
100
AcDbSymbolTableRecord
100
AcDbLinetypeTableRecord
  2
Amzigzag2
 70
     0
  3
/\/-/\/-/\/-/\/-/\/-/\/
 72
    65
 73
     2
 40
0.4401
 49
0.0001
 74
     4
 75
   136
340
202
 46
0.0016
 50
0.0
 44
0.0
 45
0.0
 49
-0.4400000000000001
 74
     0
  0
LTYPE
  5
212
330
23
100
AcDbSymbolTableRecord
100
AcDbLinetypeTableRecord
  2
ACANSTGB
 70
     0
  3
__ . . __ . .
 72
    65
 73
     6
 40
0.35433070866
 49
0.15748031496
 74
     0
 49
-0.03937007874
 74
     0
 49
0.03937007874
 74
     0
 49
-0.03937007874
 74
     0
 49
0.03937007874
 74
     0
 49
-0.03937007874
 74
     0
  0
LTYPE
  5
213
330
23
100
AcDbSymbolTableRecord
100
AcDbLinetypeTableRecord
  2
ACANSTGL
 70
     0
  3
_ _ _ _ _
 72
    65
 73
     2
 40
0.11811023622
 49
0.07874015748
 74
     0
 49
-0.03937007874
 74
     0
  0
LTYPE
  5
70
330
23
100
AcDbSymbolTableRecord
100
AcDbLinetypeTableRecord
  2
DASHDOT
 70
     0
  3
Dash dot __ . __ . __ . __ . __ . __ . __ . __
 72
    65
 73
     4
 40
1.0
 49
0.5
 74
     0
 49
-0.25
 74
     0
 49
0.0
 74
     0
 49
-0.25
 74
     0
  0
LTYPE
  5
83
330
23
100
AcDbSymbolTableRecord
100
AcDbLinetypeTableRecord
  2
DASHED
 70
     0
  3
Dashed __ __ __ __ __ __ __ __ __ __ __ __ __ _
 72
    65
 73
     2
 40
0.75
 49
0.5
 74
     0
 49
-0.25
 74
     0
  0
ENDTAB
  0
TABLE
  2
LAYER
  5
1B
102
{ACAD_XDICTIONARY
360
1C
102
}
330
0
100
AcDbSymbolTable
 70
     8
  0
LAYER
  5
6
330
1B
100
AcDbSymbolTableRecord
100
AcDbLayerTableRecord
  2
0
 70
     0
 62
     7
  6
CONTINUOUS
370
    -3
390
7
  0
LAYER
  5
107
330
1B
100
AcDbSymbolTableRecord
100
AcDbLayerTableRecord
  2
GEB-KONTUR-A
 70
     0
 62
     5
  6
CONTINUOUS
370
    -3
390
7
  0
LAYER
  5
6F
330
1B
100
AcDbSymbolTableRecord
100
AcDbLayerTableRecord
  2
GEB-SYMMETRIE
 70
     0
 62
     3
  6
DASHDOT
370
    -3
390
7
1001
AcAecLayerStandard
1000

1000

  0
LAYER
  5
82
330
1B
100
AcDbSymbolTableRecord
100
AcDbLayerTableRecord
  2
GEB-VERDECKT
 70
     0
 62
     2
  6
DASHED
370
    -3
390
7
1001
AcAecLayerStandard
1000

1000

  0
LAYER
  5
7D
330
1B
100
AcDbSymbolTableRecord
100
AcDbLayerTableRecord
  2
Arbeitspunkt(DIN)
 70
     0
 62
     7
  6
CONTINUOUS
370
    25
390
7
  0
LAYER
  5
1F7
330
1B
100
AcDbSymbolTableRecord
100
AcDbLayerTableRecord
  2
GEB-ART-NR
 70
     0
 62
     1
  6
CONTINUOUS
370
    18
390
7
  0
LAYER
  5
79
330
1B
100
AcDbSymbolTableRecord
100
AcDbLayerTableRecord
  2
GEB-BEZUG
 70
     0
 62
     2
  6
CONTINUOUS
370
    25
390
7
  0
LAYER
  5
1F4
330
1B
100
AcDbSymbolTableRecord
100
AcDbLayerTableRecord
  2
GEB-TEXT
 70
     0
 62
     5
  6
CONTINUOUS
370
    18
390
7
  0
ENDTAB
  0
TABLE
  2
STYLE
  5
20
330
0
100
AcDbSymbolTable
 70
     3
  0
STYLE
  5
21
330
20
100
AcDbSymbolTableRecord
100
AcDbTextStyleTableRecord
  2
STANDARD
 70
     0
 40
0.0
 41
1.0
 50
0.0
 71
     0
 42
0.2
  3
arial.ttf
  4

1001
ACAD
1000
Arial
1071
       34
  0
STYLE
  5
202
330
20
100
AcDbSymbolTableRecord
100
AcDbTextStyleTableRecord
  2

 70
     1
 40
0.0
 41
1.0
 50
0.0
 71
     0
 42
0.2
  3
genltshp.shx
  4

  0
STYLE
  5
20E
330
20
100
AcDbSymbolTableRecord
100
AcDbTextStyleTableRecord
  2
ACANSGDT
 70
     0
 40
0.0
 41
1.0
 50
0.0
 71
     0
 42
0.2
  3
amgdt.shx
  4

  0
ENDTAB
  0
TABLE
  2
VIEW
  5
26
330
0
100
AcDbSymbolTable
 70
     0
  0
ENDTAB
  0
TABLE
  2
UCS
  5
27
330
0
100
AcDbSymbolTable
 70
     0
  0
ENDTAB
  0
TABLE
  2
APPID
  5
2D
330
0
100
AcDbSymbolTable
 70
    14
  0
APPID
  5
1F
330
2D
100
AcDbSymbolTableRecord
100
AcDbRegAppTableRecord
  2
ACAD
 70
     0
  0
APPID
  5
71
330
2D
100
AcDbSymbolTableRecord
100
AcDbRegAppTableRecord
  2
AcAecLayerStandard
 70
     0
  0
APPID
  5
251
330
2D
100
AcDbSymbolTableRecord
100
AcDbRegAppTableRecord
  2
ACATTRIBSERVICES
 70
     0
  0
APPID
  5
27C
330
2D
100
AcDbSymbolTableRecord
100
AcDbRegAppTableRecord
  2
MCAD_NO_VIS
 70
     0
  0
APPID
  5
27D
330
2D
100
AcDbSymbolTableRecord
100
AcDbRegAppTableRecord
  2
ACAD_TEMP_GRAPHIC
 70
     0
  0
APPID
  5
281
330
2D
100
AcDbSymbolTableRecord
100
AcDbRegAppTableRecord
  2
AD_DRAW
 70
     0
  0
APPID
  5
29A
330
2D
100
AcDbSymbolTableRecord
100
AcDbRegAppTableRecord
  2
DESIGNERASSEMBLIES
 70
     0
  0
APPID
  5
29F
330
2D
100
AcDbSymbolTableRecord
100
AcDbRegAppTableRecord
  2
ACADM_DIM_EDIT
 70
     0
  0
APPID
  5
2A0
330
2D
100
AcDbSymbolTableRecord
100
AcDbRegAppTableRecord
  2
AMDT_DM_ADJ
 70
     0
  0
APPID
  5
2C0
330
2D
100
AcDbSymbolTableRecord
100
AcDbRegAppTableRecord
  2
ACAD_DSTYLE_DIMARC_LENGTH_SYMBOL
 70
     0
  0
APPID
  5
2C1
330
2D
100
AcDbSymbolTableRecord
100
AcDbRegAppTableRecord
  2
ACAD_DSTYLE_DIM_LINETYPE
 70
     0
  0
APPID
  5
2C2
330
2D
100
AcDbSymbolTableRecord
100
AcDbRegAppTableRecord
  2
ACAD_DSTYLE_DIM_EXT1_LINETYPE
 70
     0
  0
APPID
  5
2C3
330
2D
100
AcDbSymbolTableRecord
100
AcDbRegAppTableRecord
  2
ACAD_DSTYLE_DIM_EXT2_LINETYPE
 70
     0
  0
APPID
  5
2F0
330
2D
100
AcDbSymbolTableRecord
100
AcDbRegAppTableRecord
  2
ACAD_MLEADERVER
 70
     0
  0
ENDTAB
  0
TABLE
  2
DIMSTYLE
  5
2E
330
0
100
AcDbSymbolTable
 70
     7
100
AcDbDimStyleTable
 71
     1
340
2F
  0
DIMSTYLE
105
2F
330
2E
100
AcDbSymbolTableRecord
100
AcDbDimStyleTableRecord
  2
STANDARD
 70
     0
279
     2
340
21
  0
DIMSTYLE
105
224
102
{ACAD_REACTORS
330
20B
102
}
330
2E
100
AcDbSymbolTableRecord
100
AcDbDimStyleTableRecord
  2
AM_ANSI
 70
     0
  4
mm
 41
0.12
 42
0.05
 43
0.5
 44
0.1
 47
0.1
 48
0.1
 78
     7
 79
     2
140
0.12
141
0.0
146
0.71
147
0.06
176
   256
177
   256
178
     2
274
     4
284
     7
340
21
371
    -1
372
    -1
1001
ACAD_DSTYLE_DIMARC_LENGTH_SYMBOL
1070
   379
1070
     1
1001
ACAD_DSTYLE_DIM_LINETYPE
1070
   380
1005
24
1001
ACAD_DSTYLE_DIM_EXT1_LINETYPE
1070
   381
1005
24
1001
ACAD_DSTYLE_DIM_EXT2_LINETYPE
1070
   382
1005
24
  0
DIMSTYLE
105
225
330
2E
100
AcDbSymbolTableRecord
100
AcDbDimStyleTableRecord
  2
AM_ANSI$3
 70
     0
  4
mm
 41
0.12
 42
0.05
 43
0.5
 44
0.1
 47
0.1
 48
0.1
 78
     7
 79
     2
140
0.12
141
0.0
146
0.71
147
0.06
176
   256
177
   256
178
     2
274
     4
284
     7
288
     1
289
     0
340
21
371
    -1
372
    -1
1001
ACAD_DSTYLE_DIMARC_LENGTH_SYMBOL
1070
   379
1070
     1
1001
ACAD_DSTYLE_DIM_LINETYPE
1070
   380
1005
24
1001
ACAD_DSTYLE_DIM_EXT1_LINETYPE
1070
   381
1005
24
1001
ACAD_DSTYLE_DIM_EXT2_LINETYPE
1070
   382
1005
24
  0
DIMSTYLE
105
226
330
2E
100
AcDbSymbolTableRecord
100
AcDbDimStyleTableRecord
  2
AM_ANSI$4
 70
     0
  4
mm
 41
0.12
 42
0.05
 43
0.5
 44
0.1
 47
0.1
 48
0.1
 78
     7
 79
     2
140
0.12
141
0.0
146
0.71
147
0.06
176
   256
177
   256
178
     2
274
     4
284
     7
288
     1
289
     0
340
21
371
    -1
372
    -1
1001
ACAD_DSTYLE_DIMARC_LENGTH_SYMBOL
1070
   379
1070
     1
1001
ACAD_DSTYLE_DIM_LINETYPE
1070
   380
1005
24
1001
ACAD_DSTYLE_DIM_EXT1_LINETYPE
1070
   381
1005
24
1001
ACAD_DSTYLE_DIM_EXT2_LINETYPE
1070
   382
1005
24
  0
DIMSTYLE
105
227
330
2E
100
AcDbSymbolTableRecord
100
AcDbDimStyleTableRecord
  2
AM_ANSI$7
 70
     0
  4
mm
 41
0.12
 42
0.05
 43
0.5
 44
0.1
 47
0.1
 48
0.1
 78
     7
 79
     2
140
0.12
141
0.0
146
0.71
147
0.06
176
   256
177
   256
178
     2
274
     4
284
     7
340
21
371
    -1
372
    -1
1001
ACAD_DSTYLE_DIMARC_LENGTH_SYMBOL
1070
   379
1070
     1
1001
ACAD_DSTYLE_DIM_LINETYPE
1070
   380
1005
24
1001
ACAD_DSTYLE_DIM_EXT1_LINETYPE
1070
   381
1005
24
1001
ACAD_DSTYLE_DIM_EXT2_LINETYPE
1070
   382
1005
24
  0
DIMSTYLE
105
228
330
2E
100
AcDbSymbolTableRecord
100
AcDbDimStyleTableRecord
  2
AM_ANSI$SF
 70
     0
  4
mm
 41
0.12
 42
0.05
 43
0.5
 44
0.1
 47
0.1
 48
0.1
 75
     1
 76
     1
 78
     7
 79
     2
140
0.12
141
0.0
146
0.71
147
0.06
176
   256
177
   256
178
     2
274
     4
284
     7
340
21
371
    -1
372
    -1
1001
ACAD_DSTYLE_DIMARC_LENGTH_SYMBOL
1070
   379
1070
     1
1001
ACAD_DSTYLE_DIM_LINETYPE
1070
   380
1005
24
1001
ACAD_DSTYLE_DIM_EXT1_LINETYPE
1070
   381
1005
24
1001
ACAD_DSTYLE_DIM_EXT2_LINETYPE
1070
   382
1005
24
  0
DIMSTYLE
105
229
330
2E
100
AcDbSymbolTableRecord
100
AcDbDimStyleTableRecord
  2
AM_ANSI$SH
 70
     0
  4
mm
 41
0.12
 42
0.05
 43
0.5
 44
0.1
 47
0.1
 48
0.1
 75
     1
 76
     1
 78
     7
 79
     2
140
0.12
141
0.0
146
0.71
147
0.06
173
     1
176
   256
177
   256
178
     2
274
     4
284
     7
340
21
343
22A
371
    -1
372
    -1
1001
ACAD_DSTYLE_DIMARC_LENGTH_SYMBOL
1070
   379
1070
     1
1001
ACAD_DSTYLE_DIM_LINETYPE
1070
   380
1005
24
1001
ACAD_DSTYLE_DIM_EXT1_LINETYPE
1070
   381
1005
24
1001
ACAD_DSTYLE_DIM_EXT2_LINETYPE
1070
   382
1005
24
  0
ENDTAB
  0
TABLE
  2
BLOCK_RECORD
  5
1
330
0
100
AcDbSymbolTable
 70
     3
  0
BLOCK_RECORD
  5
2
102
{ACAD_XDICTIONARY
360
3
102
}
330
1
100
AcDbSymbolTableRecord
100
AcDbBlockTableRecord
  2
*Model_Space
340
15
  0
BLOCK_RECORD
  5
17
330
1
100
AcDbSymbolTableRecord
100
AcDbBlockTableRecord
  2
*Paper_Space
340
1A
  0
BLOCK_RECORD
  5
22A
330
1
100
AcDbSymbolTableRecord
100
AcDbBlockTableRecord
  2
GENAXEH
340
0
  0
BLOCK_RECORD
  5
76
330
1
100
AcDbSymbolTableRecord
100
AcDbBlockTableRecord
  2
Einfügepunkt
340
0
102
{BLKREFS
331
75
102
}
  0
ENDTAB
  0
ENDSEC
  0
SECTION
  2
BLOCKS
  0
BLOCK
  5
5
330
2
100
AcDbEntity
  8
0
100
AcDbBlockBegin
  2
*Model_Space
 70
     0
 10
0.0
 20
0.0
 30
0.0
  3
*Model_Space
  1

  0
ENDBLK
  5
14
330
2
100
AcDbEntity
  8
0
100
AcDbBlockEnd
  0
BLOCK
  5
18
330
17
100
AcDbEntity
 67
     1
  8
0
100
AcDbBlockBegin
  2
*Paper_Space
 70
     0
 10
0.0
 20
0.0
 30
0.0
  3
*Paper_Space
  1

  0
ENDBLK
  5
19
330
17
100
AcDbEntity
 67
     1
  8
0
100
AcDbBlockEnd
  0
BLOCK
  5
22B
330
22A
100
AcDbEntity
  8
0
100
AcDbBlockBegin
  2
GENAXEH
 70
     0
 10
0.0
 20
0.0
 30
0.0
  3
GENAXEH
  1

  0
LINE
  5
22C
330
22A
100
AcDbEntity
  8
0
100
AcDbLine
 10
-1.0
 20
0.0
 30
0.0
 11
1.0
 21
0.0
 31
0.0
  0
ENDBLK
  5
22D
330
22A
100
AcDbEntity
  8
0
100
AcDbBlockEnd
  0
BLOCK
  5
77
330
76
100
AcDbEntity
  8
0
100
AcDbBlockBegin
  2
Einfügepunkt
 70
     0
 10
0.0
 20
0.0
 30
0.0
  3
Einfügepunkt
  1

  0
LINE
  5
78
330
76
100
AcDbEntity
  8
GEB-BEZUG
100
AcDbLine
 10
-0.7071067811865817
 20
-0.7071067811865106
 30
0.0
 11
0.7071067811864751
 21
0.7071067811865817
 31
0.0
  0
LINE
  5
7A
330
76
100
AcDbEntity
  8
GEB-BEZUG
100
AcDbLine
 10
-0.7071067811865106
 20
0.7071067811865817
 30
0.0
 11
0.7071067811865462
 21
-0.7071067811865106
 31
0.0
  0
ENDBLK
  5
7B
330
76
100
AcDbEntity
  8
0
100
AcDbBlockEnd
  0
ENDSEC
  0
SECTION
  2
ENTITIES
  0
LINE
  5
6E
330
2
100
AcDbEntity
  8
GEB-SYMMETRIE
 48
25.0
100
AcDbLine
 10
0.0
 20
-0.0000000000046896
 30
0.0
 11
0.0
 21
-11.35000000000471
 31
0.0
  0
LINE
  5
72
330
2
100
AcDbEntity
  8
GEB-SYMMETRIE
 48
25.0
100
AcDbLine
 10
0.0
 20
-0.0000000000046896
 30
0.0
 11
0.0
 21
11.34999999999533
 31
0.0
  0
LINE
  5
73
330
2
100
AcDbEntity
  8
GEB-SYMMETRIE
 48
25.0
100
AcDbLine
 10
0.0
 20
-0.0000000000046896
 30
0.0
 11
-11.35000000000002
 21
-0.0000000000046896
 31
0.0
  0
LINE
  5
74
330
2
100
AcDbEntity
  8
GEB-SYMMETRIE
 48
25.0
100
AcDbLine
 10
0.0
 20
-0.0000000000046896
 30
0.0
 11
11.35000000000002
 21
-0.0000000000046896
 31
0.0
  0
INSERT
  5
75
330
2
100
AcDbEntity
  8
0
 48
25.0
100
AcDbBlockReference
  2
Einfügepunkt
 10
0.0
 20
0.0
 30
0.0
  0
LINE
  5
7C
330
2
100
AcDbEntity
  8
Arbeitspunkt(DIN)
 48
25.0
100
AcDbLine
 10
0.0
 20
0.0
 30
0.0
 11
0.0
 21
-2.5
 31
0.0
  0
LINE
  5
7E
330
2
100
AcDbEntity
  8
Arbeitspunkt(DIN)
 48
25.0
100
AcDbLine
 10
0.0
 20
0.0
 30
0.0
 11
0.0
 21
2.5
 31
0.0
  0
LINE
  5
7F
330
2
100
AcDbEntity
  8
Arbeitspunkt(DIN)
 48
25.0
100
AcDbLine
 10
0.0
 20
0.0
 30
0.0
 11
-2.5
 21
0.0
 31
0.0
  0
LINE
  5
80
330
2
100
AcDbEntity
  8
Arbeitspunkt(DIN)
 48
25.0
100
AcDbLine
 10
0.0
 20
0.0
 30
0.0
 11
2.5
 21
0.0
 31
0.0
  0
LINE
  5
81
330
2
100
AcDbEntity
  8
GEB-VERDECKT
 48
25.0
100
AcDbLine
 10
5.569322614062514
 20
-0.5853593943038789
 30
0.0
 11
4.949999999999988
 21
-0.0000000000051728
 31
0.0
  0
LINE
  5
84
330
2
100
AcDbEntity
  8
GEB-VERDECKT
 48
25.0
100
AcDbLine
 10
4.949999999999988
 20
-0.0000000000051728
 30
0.0
 11
5.569322614062173
 21
0.5853593942938744
 31
0.0
  0
ARC
  5
85
330
2
100
AcDbEntity
  8
GEB-VERDECKT
 48
25.0
100
AcDbCircle
 10
-0.0000000000000568
 20
-0.0000000000072191
 30
0.0
 40
5.600000000000058
100
AcDbArc
 50
354.0000000000161
 51
6.000000000016614
  0
ARC
  5
86
330
2
100
AcDbEntity
  8
GEB-VERDECKT
 48
25.0
100
AcDbCircle
 10
-0.0000000000000568
 20
-0.0000000000072191
 30
0.0
 40
5.60000000000004
100
AcDbArc
 50
12.00000000001639
 51
24.00000000001664
  0
LINE
  5
87
330
2
100
AcDbEntity
  8
GEB-VERDECKT
 48
25.0
100
AcDbLine
 10
4.707729755660579
 20
1.529634122150724
 30
0.0
 11
5.115854562797892
 21
2.27772520121934
 31
0.0
  0
LINE
  5
88
330
2
100
AcDbEntity
  8
GEB-VERDECKT
 48
25.0
100
AcDbLine
 10
5.477626564108959
 20
1.164305468574411
 30
0.0
 11
4.707729755660579
 21
1.529634122150724
 31
0.0
  0
ARC
  5
89
330
2
100
AcDbEntity
  8
GEB-VERDECKT
 48
25.0
100
AcDbCircle
 10
0.0000000000000568
 20
-0.0000000000071338
 30
0.0
 40
5.599999999999928
100
AcDbArc
 50
30.00000000001649
 51
42.00000000001723
  0
LINE
  5
8A
330
2
100
AcDbEntity
  8
GEB-VERDECKT
 48
25.0
100
AcDbLine
 10
4.004634122155096
 20
2.90953699884227
 30
0.0
 11
4.161611022672275
 21
3.747131395604185
 31
0.0
  0
LINE
  5
8B
330
2
100
AcDbEntity
  8
GEB-VERDECKT
 48
25.0
100
AcDbLine
 10
4.849742261192034
 20
2.799999999994781
 30
0.0
 11
4.004634122155096
 21
2.90953699884227
 31
0.0
  0
ARC
  5
8C
330
2
100
AcDbEntity
  8
GEB-VERDECKT
 48
25.0
100
AcDbCircle
 10
0.0000000000000568
 20
-0.0000000000071338
 30
0.0
 40
5.599999999999932
100
AcDbArc
 50
48.00000000001737
 51
60.00000000001844
  0
LINE
  5
8D
330
2
100
AcDbEntity
  8
GEB-VERDECKT
 48
25.0
100
AcDbLine
 10
2.90953699884659
 20
4.004634122150207
 30
0.0
 11
2.799999999998533
 21
4.84974226118706
 31
0.0
  0
LINE
  5
8E
330
2
100
AcDbEntity
  8
GEB-VERDECKT
 48
25.0
100
AcDbLine
 10
3.747131395608334
 20
4.161611022667869
 30
0.0
 11
2.90953699884659
 21
4.004634122150207
 31
0.0
  0
ARC
  5
8F
330
2
100
AcDbEntity
  8
GEB-VERDECKT
 48
25.0
100
AcDbCircle
 10
0.0000000000000568
 20
-0.0000000000071054
 30
0.0
 40
5.599999999999932
100
AcDbArc
 50
66.00000000001692
 51
78.00000000001715
  0
LINE
  5
90
330
2
100
AcDbEntity
  8
GEB-VERDECKT
 48
25.0
100
AcDbLine
 10
1.529634122154618
 20
4.70772975565481
 30
0.0
 11
1.164305468577822
 21
5.477626564103019
 31
0.0
  0
LINE
  5
91
330
2
100
AcDbEntity
  8
GEB-VERDECKT
 48
25.0
100
AcDbLine
 10
2.277725201222949
 20
5.115854562792605
 30
0.0
 11
1.529634122154618
 21
4.70772975565481
 31
0.0
  0
ARC
  5
92
330
2
100
AcDbEntity
  8
GEB-VERDECKT
 48
25.0
100
AcDbCircle
 10
0.0
 20
-0.0000000000071338
 30
0.0
 40
5.599999999999957
100
AcDbArc
 50
84.0000000000179
 51
96.00000000001806
  0
LINE
  5
93
330
2
100
AcDbEntity
  8
GEB-VERDECKT
 48
25.0
100
AcDbLine
 10
-0.0000000000014779
 20
4.949999999993366
 30
0.0
 11
-0.5853593943004967
 21
5.569322614055522
 31
0.0
  0
LINE
  5
94
330
2
100
AcDbEntity
  8
GEB-VERDECKT
 48
25.0
100
AcDbLine
 10
0.5853593942971998
 20
5.569322614055863
 30
0.0
 11
-0.0000000000014779
 21
4.949999999993366
 31
0.0
  0
ARC
  5
95
330
2
100
AcDbEntity
  8
GEB-VERDECKT
 48
25.0
100
AcDbCircle
 10
0.0
 20
-0.0000000000071338
 30
0.0
 40
5.599999999999953
100
AcDbArc
 50
102.0000000000164
 51
114.0000000000158
  0
LINE
  5
96
330
2
100
AcDbEntity
  8
GEB-VERDECKT
 48
25.0
100
AcDbLine
 10
-1.529634122157403
 20
4.707729755653929
 30
0.0
 11
-2.277725201226019
 21
5.115854562791241
 31
0.0
  0
LINE
  5
97
330
2
100
AcDbEntity
  8
GEB-VERDECKT
 48
25.0
100
AcDbLine
 10
-1.164305468581062
 20
5.477626564102308
 30
0.0
 11
-1.529634122157403
 21
4.707729755653929
 31
0.0
  0
ARC
  5
98
330
2
100
AcDbEntity
  8
GEB-VERDECKT
 48
25.0
100
AcDbCircle
 10
0.0
 20
-0.0000000000071623
 30
0.0
 40
5.599999999999999
100
AcDbArc
 50
120.000000000015
 51
132.0000000000172
  0
LINE
  5
99
330
2
100
AcDbEntity
  8
GEB-VERDECKT
 48
25.0
100
AcDbLine
 10
-2.909536998848921
 20
4.004634122148473
 30
0.0
 11
-3.747131395610836
 21
4.161611022665624
 31
0.0
  0
LINE
  5
9A
330
2
100
AcDbEntity
  8
GEB-VERDECKT
 48
25.0
100
AcDbLine
 10
-2.800000000001432
 20
4.849742261185383
 30
0.0
 11
-2.909536998848921
 21
4.004634122148473
 31
0.0
  0
ARC
  5
9B
330
2
100
AcDbEntity
  8
GEB-VERDECKT
 48
25.0
100
AcDbCircle
 10
-0.0000000000001137
 20
-0.0000000000071338
 30
0.0
 40
5.599999999999897
100
AcDbArc
 50
138.0000000000173
 51
150.000000000017
  0
LINE
  5
9C
330
2
100
AcDbEntity
  8
GEB-VERDECKT
 48
25.0
100
AcDbLine
 10
-4.004634122156858
 20
2.909536998839882
 30
0.0
 11
-4.849742261193682
 21
2.799999999991911
 31
0.0
  0
LINE
  5
9D
330
2
100
AcDbEntity
  8
GEB-VERDECKT
 48
25.0
100
AcDbLine
 10
-4.161611022674549
 20
3.747131395601712
 30
0.0
 11
-4.004634122156858
 21
2.909536998839882
 31
0.0
  0
ARC
  5
9E
330
2
100
AcDbEntity
  8
GEB-VERDECKT
 48
25.0
100
AcDbCircle
 10
-0.0000000000000568
 20
-0.0000000000071623
 30
0.0
 40
5.599999999999925
100
AcDbArc
 50
156.0000000000169
 51
168.0000000000168
  0
LINE
  5
9F
330
2
100
AcDbEntity
  8
GEB-VERDECKT
 48
25.0
100
AcDbLine
 10
-4.707729755661432
 20
1.529634122147967
 30
0.0
 11
-5.477626564109669
 21
1.164305468571171
 31
0.0
  0
LINE
  5
A0
330
2
100
AcDbEntity
  8
GEB-VERDECKT
 48
25.0
100
AcDbLine
 10
-5.115854562799256
 20
2.277725201216327
 30
0.0
 11
-4.707729755661432
 21
1.529634122147967
 31
0.0
  0
ARC
  5
A1
330
2
100
AcDbEntity
  8
GEB-VERDECKT
 48
25.0
100
AcDbCircle
 10
-0.0000000000000568
 20
-0.0000000000072191
 30
0.0
 40
5.599999999999957
100
AcDbArc
 50
174.0000000000161
 51
186.0000000000166
  0
LINE
  5
A2
330
2
100
AcDbEntity
  8
GEB-VERDECKT
 48
25.0
100
AcDbLine
 10
-4.949999999999988
 20
-0.0000000000081286
 30
0.0
 11
-5.569322614062173
 21
-0.5853593943072042
 31
0.0
  0
LINE
  5
A3
330
2
100
AcDbEntity
  8
GEB-VERDECKT
 48
25.0
100
AcDbLine
 10
-5.569322614062514
 20
0.5853593942905491
 30
0.0
 11
-4.949999999999988
 21
-0.0000000000081286
 31
0.0
  0
ARC
  5
A4
330
2
100
AcDbEntity
  8
GEB-VERDECKT
 48
25.0
100
AcDbCircle
 10
-0.0000000000000568
 20
-0.0000000000072191
 30
0.0
 40
5.599999999999929
100
AcDbArc
 50
192.0000000000164
 51
204.0000000000167
  0
LINE
  5
A5
330
2
100
AcDbEntity
  8
GEB-VERDECKT
 48
25.0
100
AcDbLine
 10
-4.707729755660579
 20
-1.529634122164054
 30
0.0
 11
-5.115854562797892
 21
-2.277725201232669
 31
0.0
  0
LINE
  5
A6
330
2
100
AcDbEntity
  8
GEB-VERDECKT
 48
25.0
100
AcDbLine
 10
-5.477626564108959
 20
-1.164305468587713
 30
0.0
 11
-4.707729755660579
 21
-1.529634122164054
 31
0.0
  0
ARC
  5
A7
330
2
100
AcDbEntity
  8
GEB-VERDECKT
 48
25.0
100
AcDbCircle
 10
-0.0000000000000568
 20
-0.0000000000072191
 30
0.0
 40
5.599999999999973
100
AcDbArc
 50
210.0000000000165
 51
222.0000000000172
  0
LINE
  5
A8
330
2
100
AcDbEntity
  8
GEB-VERDECKT
 48
25.0
100
AcDbLine
 10
-4.004634122155096
 20
-2.9095369988556
 30
0.0
 11
-4.161611022672275
 21
-3.747131395617515
 31
0.0
  0
LINE
  5
A9
330
2
100
AcDbEntity
  8
GEB-VERDECKT
 48
25.0
100
AcDbLine
 10
-4.849742261192034
 20
-2.800000000008111
 30
0.0
 11
-4.004634122155096
 21
-2.9095369988556
 31
0.0
  0
ARC
  5
AA
330
2
100
AcDbEntity
  8
GEB-VERDECKT
 48
25.0
100
AcDbCircle
 10
-0.0000000000000568
 20
-0.0000000000072475
 30
0.0
 40
5.599999999999956
100
AcDbArc
 50
228.0000000000174
 51
240.0000000000185
  0
LINE
  5
AB
330
2
100
AcDbEntity
  8
GEB-VERDECKT
 48
25.0
100
AcDbLine
 10
-2.90953699884659
 20
-4.004634122163537
 30
0.0
 11
-2.799999999998533
 21
-4.84974226120039
 31
0.0
  0
LINE
  5
AC
330
2
100
AcDbEntity
  8
GEB-VERDECKT
 48
25.0
100
AcDbLine
 10
-3.747131395608391
 20
-4.161611022681199
 30
0.0
 11
-2.90953699884659
 21
-4.004634122163537
 31
0.0
  0
ARC
  5
AD
330
2
100
AcDbEntity
  8
GEB-VERDECKT
 48
25.0
100
AcDbCircle
 10
-0.0000000000000568
 20
-0.000000000007276
 30
0.0
 40
5.599999999999933
100
AcDbArc
 50
246.000000000017
 51
258.0000000000171
  0
LINE
  5
AE
330
2
100
AcDbEntity
  8
GEB-VERDECKT
 48
25.0
100
AcDbLine
 10
-1.529634122154618
 20
-4.70772975566814
 30
0.0
 11
-1.164305468577822
 21
-5.477626564116349
 31
0.0
  0
LINE
  5
AF
330
2
100
AcDbEntity
  8
GEB-VERDECKT
 48
25.0
100
AcDbLine
 10
-2.277725201222949
 20
-5.115854562805907
 30
0.0
 11
-1.529634122154618
 21
-4.70772975566814
 31
0.0
  0
ARC
  5
B0
330
2
100
AcDbEntity
  8
GEB-VERDECKT
 48
25.0
100
AcDbCircle
 10
0.0
 20
-0.0000000000071623
 30
0.0
 40
5.600000000000047
100
AcDbArc
 50
264.0000000000179
 51
276.000000000018
  0
LINE
  5
B1
330
2
100
AcDbEntity
  8
GEB-VERDECKT
 48
25.0
100
AcDbLine
 10
0.0000000000014211
 20
-4.950000000006696
 30
0.0
 11
0.5853593943004967
 21
-5.569322614068852
 31
0.0
  0
LINE
  5
B2
330
2
100
AcDbEntity
  8
GEB-VERDECKT
 48
25.0
100
AcDbLine
 10
-0.5853593942971998
 20
-5.569322614069164
 30
0.0
 11
0.0000000000014211
 21
-4.950000000006696
 31
0.0
  0
ARC
  5
B3
330
2
100
AcDbEntity
  8
GEB-VERDECKT
 48
25.0
100
AcDbCircle
 10
0.0
 20
-0.0000000000071338
 30
0.0
 40
5.600000000000063
100
AcDbArc
 50
282.0000000000164
 51
294.0000000000158
  0
LINE
  5
B4
330
2
100
AcDbEntity
  8
GEB-VERDECKT
 48
25.0
100
AcDbLine
 10
1.529634122157347
 20
-4.70772975566723
 30
0.0
 11
2.277725201225962
 21
-5.115854562804571
 31
0.0
  0
LINE
  5
B5
330
2
100
AcDbEntity
  8
GEB-VERDECKT
 48
25.0
100
AcDbLine
 10
1.164305468581062
 20
-5.477626564115638
 30
0.0
 11
1.529634122157347
 21
-4.70772975566723
 31
0.0
  0
ARC
  5
B6
330
2
100
AcDbEntity
  8
GEB-VERDECKT
 48
25.0
100
AcDbCircle
 10
0.0000000000000568
 20
-0.0000000000072191
 30
0.0
 40
5.599999999999977
100
AcDbArc
 50
300.000000000015
 51
312.0000000000172
  0
LINE
  5
B7
330
2
100
AcDbEntity
  8
GEB-VERDECKT
 48
25.0
100
AcDbLine
 10
2.909536998848921
 20
-4.004634122161803
 30
0.0
 11
3.747131395610836
 21
-4.161611022678954
 31
0.0
  0
LINE
  5
B8
330
2
100
AcDbEntity
  8
GEB-VERDECKT
 48
25.0
100
AcDbLine
 10
2.800000000001432
 20
-4.849742261198713
 30
0.0
 11
2.909536998848921
 21
-4.004634122161803
 31
0.0
  0
ARC
  5
B9
330
2
100
AcDbEntity
  8
GEB-VERDECKT
 48
25.0
100
AcDbCircle
 10
-0.0000000000000568
 20
-0.0000000000071338
 30
0.0
 40
5.600000000000094
100
AcDbArc
 50
318.0000000000174
 51
330.0000000000171
  0
LINE
  5
BA
330
2
100
AcDbEntity
  8
GEB-VERDECKT
 48
25.0
100
AcDbLine
 10
4.004634122156858
 20
-2.909536998853212
 30
0.0
 11
4.849742261193682
 21
-2.80000000000524
 31
0.0
  0
LINE
  5
BB
330
2
100
AcDbEntity
  8
GEB-VERDECKT
 48
25.0
100
AcDbLine
 10
4.161611022674492
 20
-3.747131395615042
 30
0.0
 11
4.004634122156858
 21
-2.909536998853212
 31
0.0
  0
ARC
  5
BC
330
2
100
AcDbEntity
  8
GEB-VERDECKT
 48
25.0
100
AcDbCircle
 10
0.0000000000000568
 20
-0.0000000000072191
 30
0.0
 40
5.599999999999933
100
AcDbArc
 50
336.0000000000169
 51
348.0000000000168
  0
LINE
  5
BD
330
2
100
AcDbEntity
  8
GEB-VERDECKT
 48
25.0
100
AcDbLine
 10
4.707729755661432
 20
-1.529634122161269
 30
0.0
 11
5.477626564109641
 21
-1.164305468584501
 31
0.0
  0
LINE
  5
BE
330
2
100
AcDbEntity
  8
GEB-VERDECKT
 48
25.0
100
AcDbLine
 10
5.115854562799256
 20
-2.2777252012296
 30
0.0
 11
4.707729755661432
 21
-1.529634122161269
 31
0.0
  0
CIRCLE
  5
BF
330
2
100
AcDbEntity
  8
GEB-VERDECKT
 48
25.0
100
AcDbCircle
 10
0.0
 20
-0.0000000000092371
 30
0.0
 40
4.200000000000013
  0
ARC
  5
C0
330
2
100
AcDbEntity
  8
GEB-VERDECKT
 48
25.0
100
AcDbCircle
 10
-0.0000000000000568
 20
-0.0000000000089244
 30
0.0
 40
5.200000000000063
100
AcDbArc
 50
344.5507315756795
 51
357.4492684243551
  0
CIRCLE
  5
C1
330
2
100
AcDbEntity
  8
GEB-VERDECKT
 48
25.0
100
AcDbCircle
 10
0.0
 20
-0.0000000000059117
 30
0.0
 40
4.950000000000015
  0
CIRCLE
  5
C2
330
2
100
AcDbEntity
  8
GEB-VERDECKT
 48
25.0
100
AcDbCircle
 10
0.0
 20
-0.0000000000057412
 30
0.0
 40
5.350000000000017
  0
CIRCLE
  5
C3
330
2
100
AcDbEntity
  8
GEB-VERDECKT
 48
25.0
100
AcDbCircle
 10
0.0
 20
-0.0000000000053433
 30
0.0
 40
5.100000000000015
  0
ARC
  5
C4
330
2
100
AcDbEntity
  8
GEB-VERDECKT
 48
25.0
100
AcDbCircle
 10
-0.0000000000004547
 20
-0.0000000000065938
 30
0.0
 40
5.600000000000433
100
AcDbArc
 50
348.0000000000168
 51
354.0000000000161
  0
ARC
  5
C5
330
2
100
AcDbEntity
  8
GEB-VERDECKT
 48
25.0
100
AcDbCircle
 10
-0.0000000000001705
 20
-0.0000000000066791
 30
0.0
 40
5.600000000000183
100
AcDbArc
 50
6.000000000016614
 51
12.00000000001798
  0
ARC
  5
C6
330
2
100
AcDbEntity
  8
GEB-VERDECKT
 48
25.0
100
AcDbCircle
 10
-0.0000000000001705
 20
-0.0000000000067644
 30
0.0
 40
5.60000000000017
100
AcDbArc
 50
24.00000000001664
 51
30.00000000001649
  0
ARC
  5
C7
330
2
100
AcDbEntity
  8
GEB-VERDECKT
 48
25.0
100
AcDbCircle
 10
0.0000000000001137
 20
-0.000000000006537
 30
0.0
 40
5.599999999999832
100
AcDbArc
 50
42.00000000001723
 51
48.00000000001737
  0
ARC
  5
C8
330
2
100
AcDbEntity
  8
GEB-VERDECKT
 48
25.0
100
AcDbCircle
 10
-0.0000000000001137
 20
-0.0000000000068212
 30
0.0
 40
5.60000000000021
100
AcDbArc
 50
60.00000000001844
 51
66.00000000001692
  0
ARC
  5
C9
330
2
100
AcDbEntity
  8
GEB-VERDECKT
 48
25.0
100
AcDbCircle
 10
0.0000000000001137
 20
-0.0000000000059401
 30
0.0
 40
5.599999999999264
100
AcDbArc
 50
78.00000000001715
 51
84.0000000000179
  0
ARC
  5
CA
330
2
100
AcDbEntity
  8
GEB-VERDECKT
 48
25.0
100
AcDbCircle
 10
0.0000000000000568
 20
-0.0000000000067928
 30
0.0
 40
5.600000000000143
100
AcDbArc
 50
96.00000000001806
 51
102.0000000000164
  0
ARC
  5
CB
330
2
100
AcDbEntity
  8
GEB-VERDECKT
 48
25.0
100
AcDbCircle
 10
-0.0000000000000568
 20
-0.0000000000065654
 30
0.0
 40
5.59999999999992
100
AcDbArc
 50
114.0000000000158
 51
120.0000000000187
  0
ARC
  5
CC
330
2
100
AcDbEntity
  8
GEB-VERDECKT
 48
25.0
100
AcDbCircle
 10
-0.0000000000000568
 20
-0.0000000000066507
 30
0.0
 40
5.599999999999971
100
AcDbArc
 50
132.0000000000172
 51
138.0000000000173
  0
ARC
  5
CD
330
2
100
AcDbEntity
  8
GEB-VERDECKT
 48
25.0
100
AcDbCircle
 10
-0.0000000000003411
 20
-0.0000000000065086
 30
0.0
 40
5.599999999999662
100
AcDbArc
 50
150.000000000017
 51
156.0000000000169
  0
ARC
  5
CE
330
2
100
AcDbEntity
  8
GEB-VERDECKT
 48
25.0
100
AcDbCircle
 10
0.0000000000000568
 20
-0.0000000000066791
 30
0.0
 40
5.600000000000062
100
AcDbArc
 50
168.0000000000168
 51
174.0000000000161
  0
ARC
  5
CF
330
2
100
AcDbEntity
  8
GEB-VERDECKT
 48
25.0
100
AcDbCircle
 10
-0.0000000000000568
 20
-0.0000000000066791
 30
0.0
 40
5.599999999999973
100
AcDbArc
 50
186.0000000000166
 51
192.000000000018
  0
ARC
  5
D0
330
2
100
AcDbEntity
  8
GEB-VERDECKT
 48
25.0
100
AcDbCircle
 10
0.0000000000000568
 20
-0.0000000000066507
 30
0.0
 40
5.600000000000065
100
AcDbArc
 50
204.0000000000167
 51
210.0000000000165
  0
ARC
  5
D1
330
2
100
AcDbEntity
  8
GEB-VERDECKT
 48
25.0
100
AcDbCircle
 10
0.0000000000003411
 20
-0.0000000000063096
 30
0.0
 40
5.600000000000489
100
AcDbArc
 50
222.0000000000172
 51
228.0000000000174
  0
ARC
  5
D2
330
2
100
AcDbEntity
  8
GEB-VERDECKT
 48
25.0
100
AcDbCircle
 10
0.0000000000002274
 20
-0.0000000000061391
 30
0.0
 40
5.600000000000585
100
AcDbArc
 50
240.0000000000185
 51
246.000000000017
  0
ARC
  5
D3
330
2
100
AcDbEntity
  8
GEB-VERDECKT
 48
25.0
100
AcDbCircle
 10
0.0
 20
-0.0000000000065938
 30
0.0
 40
5.600000000000059
100
AcDbArc
 50
258.0000000000171
 51
264.0000000000179
  0
ARC
  5
D4
330
2
100
AcDbEntity
  8
GEB-VERDECKT
 48
25.0
100
AcDbCircle
 10
0.0000000000000568
 20
-0.0000000000068496
 30
0.0
 40
5.599999999999805
100
AcDbArc
 50
276.000000000018
 51
282.0000000000164
  0
ARC
  5
D5
330
2
100
AcDbEntity
  8
GEB-VERDECKT
 48
25.0
100
AcDbCircle
 10
-0.0000000000001705
 20
-0.0000000000063949
 30
0.0
 40
5.600000000000305
100
AcDbArc
 50
294.0000000000158
 51
300.000000000015
  0
ARC
  5
D6
330
2
100
AcDbEntity
  8
GEB-VERDECKT
 48
25.0
100
AcDbCircle
 10
-0.0000000000000568
 20
-0.0000000000065938
 30
0.0
 40
5.600000000000077
100
AcDbArc
 50
312.0000000000172
 51
318.0000000000174
  0
ARC
  5
D7
330
2
100
AcDbEntity
  8
GEB-VERDECKT
 48
25.0
100
AcDbCircle
 10
-0.0000000000001705
 20
-0.0000000000065654
 30
0.0
 40
5.600000000000196
100
AcDbArc
 50
330.0000000000171
 51
336.0000000000169
  0
ARC
  5
D8
330
2
100
AcDbEntity
  8
GEB-VERDECKT
 48
25.0
100
AcDbCircle
 10
0.0000000000000568
 20
-0.0000000000089528
 30
0.0
 40
5.199999999999961
100
AcDbArc
 50
326.5507315756771
 51
339.4492684243543
  0
ARC
  5
D9
330
2
100
AcDbEntity
  8
GEB-VERDECKT
 48
25.0
100
AcDbCircle
 10
0.0000000000000568
 20
-0.0000000000089813
 30
0.0
 40
5.199999999999931
100
AcDbArc
 50
308.5507315756786
 51
321.449268424355
  0
ARC
  5
DA
330
2
100
AcDbEntity
  8
GEB-VERDECKT
 48
25.0
100
AcDbCircle
 10
0.0
 20
-0.0000000000089528
 30
0.0
 40
5.199999999999985
100
AcDbArc
 50
290.5507315756802
 51
303.4492684243537
  0
ARC
  5
DB
330
2
100
AcDbEntity
  8
GEB-VERDECKT
 48
25.0
100
AcDbCircle
 10
0.0
 20
-0.0000000000088392
 30
0.0
 40
5.200000000000076
100
AcDbArc
 50
272.5507315756792
 51
285.4492684243557
  0
ARC
  5
DC
330
2
100
AcDbEntity
  8
GEB-VERDECKT
 48
25.0
100
AcDbCircle
 10
0.0
 20
-0.0000000000088676
 30
0.0
 40
5.200000000000065
100
AcDbArc
 50
254.5507315756779
 51
267.4492684243534
  0
ARC
  5
DD
330
2
100
AcDbEntity
  8
GEB-VERDECKT
 48
25.0
100
AcDbCircle
 10
-0.0000000000000568
 20
-0.0000000000089813
 30
0.0
 40
5.199999999999945
100
AcDbArc
 50
236.550731575678
 51
249.4492684243549
  0
ARC
  5
DE
330
2
100
AcDbEntity
  8
GEB-VERDECKT
 48
25.0
100
AcDbCircle
 10
0.0000000000000568
 20
-0.0000000000088676
 30
0.0
 40
5.20000000000004
100
AcDbArc
 50
218.5507315756796
 51
231.449268424355
  0
ARC
  5
DF
330
2
100
AcDbEntity
  8
GEB-VERDECKT
 48
25.0
100
AcDbCircle
 10
0.0000000000000568
 20
-0.0000000000088676
 30
0.0
 40
5.200000000000049
100
AcDbArc
 50
200.5507315756781
 51
213.449268424355
  0
ARC
  5
E0
330
2
100
AcDbEntity
  8
GEB-VERDECKT
 48
25.0
100
AcDbCircle
 10
0.0
 20
-0.0000000000089244
 30
0.0
 40
5.200000000000006
100
AcDbArc
 50
182.5507315756791
 51
195.4492684243545
  0
ARC
  5
E1
330
2
100
AcDbEntity
  8
GEB-VERDECKT
 48
25.0
100
AcDbCircle
 10
0.0000000000000568
 20
-0.0000000000089244
 30
0.0
 40
5.200000000000068
100
AcDbArc
 50
164.5507315756794
 51
177.449268424355
  0
ARC
  5
E2
330
2
100
AcDbEntity
  8
GEB-VERDECKT
 48
25.0
100
AcDbCircle
 10
-0.0000000000000568
 20
-0.0000000000088676
 30
0.0
 40
5.19999999999996
100
AcDbArc
 50
146.5507315756771
 51
159.4492684243542
  0
ARC
  5
E3
330
2
100
AcDbEntity
  8
GEB-VERDECKT
 48
25.0
100
AcDbCircle
 10
0.0
 20
-0.0000000000089244
 30
0.0
 40
5.200000000000015
100
AcDbArc
 50
128.5507315756786
 51
141.449268424355
  0
ARC
  5
E4
330
2
100
AcDbEntity
  8
GEB-VERDECKT
 48
25.0
100
AcDbCircle
 10
0.0000000000000568
 20
-0.0000000000089528
 30
0.0
 40
5.200000000000061
100
AcDbArc
 50
110.5507315756802
 51
123.4492684243536
  0
ARC
  5
E5
330
2
100
AcDbEntity
  8
GEB-VERDECKT
 48
25.0
100
AcDbCircle
 10
0.0
 20
-0.0000000000089244
 30
0.0
 40
5.200000000000008
100
AcDbArc
 50
92.55073157567917
 51
105.4492684243561
  0
ARC
  5
E6
330
2
100
AcDbEntity
  8
GEB-VERDECKT
 48
25.0
100
AcDbCircle
 10
0.0000000000000568
 20
-0.0000000000088107
 30
0.0
 40
5.199999999999896
100
AcDbArc
 50
74.55073157567788
 51
87.44926842435669
  0
ARC
  5
E7
330
2
100
AcDbEntity
  8
GEB-VERDECKT
 48
25.0
100
AcDbCircle
 10
0.0000000000000568
 20
-0.0000000000088676
 30
0.0
 40
5.199999999999969
100
AcDbArc
 50
56.55073157567799
 51
69.44926842435482
  0
ARC
  5
E8
330
2
100
AcDbEntity
  8
GEB-VERDECKT
 48
25.0
100
AcDbCircle
 10
0.0
 20
-0.0000000000089244
 30
0.0
 40
5.199999999999994
100
AcDbArc
 50
38.55073157567959
 51
51.44926842435499
  0
ARC
  5
E9
330
2
100
AcDbEntity
  8
GEB-VERDECKT
 48
25.0
100
AcDbCircle
 10
-0.0000000000000568
 20
-0.0000000000089244
 30
0.0
 40
5.200000000000048
100
AcDbArc
 50
20.55073157567814
 51
33.44926842435498
  0
ARC
  5
EA
330
2
100
AcDbEntity
  8
GEB-VERDECKT
 48
25.0
100
AcDbCircle
 10
-0.0000000000000568
 20
-0.0000000000089244
 30
0.0
 40
5.200000000000085
100
AcDbArc
 50
2.550731575679101
 51
15.44926842435611
  0
ARC
  5
EB
330
2
100
AcDbEntity
  8
GEB-VERDECKT
 48
25.0
100
AcDbCircle
 10
0.0000000000001137
 20
-0.0000000000089244
 30
0.0
 40
5.19999999999988
100
AcDbArc
 50
357.4492684243551
 51
2.550731575679101
  0
ARC
  5
EC
330
2
100
AcDbEntity
  8
GEB-VERDECKT
 48
25.0
100
AcDbCircle
 10
0.0000000000000568
 20
-0.0000000000088676
 30
0.0
 40
5.199999999999926
100
AcDbArc
 50
15.44926842435611
 51
20.55073157567814
  0
ARC
  5
ED
330
2
100
AcDbEntity
  8
GEB-VERDECKT
 48
25.0
100
AcDbCircle
 10
0.0
 20
-0.0000000000089244
 30
0.0
 40
5.200000000000021
100
AcDbArc
 50
33.44926842435498
 51
38.55073157567959
  0
ARC
  5
EE
330
2
100
AcDbEntity
  8
GEB-VERDECKT
 48
25.0
100
AcDbCircle
 10
-0.0000000000000568
 20
-0.0000000000089813
 30
0.0
 40
5.20000000000012
100
AcDbArc
 50
51.44926842435499
 51
56.55073157567799
  0
ARC
  5
EF
330
2
100
AcDbEntity
  8
GEB-VERDECKT
 48
25.0
100
AcDbCircle
 10
0.0000000000000568
 20
-0.0000000000088107
 30
0.0
 40
5.199999999999901
100
AcDbArc
 50
69.44926842435482
 51
74.55073157567788
  0
ARC
  5
F0
330
2
100
AcDbEntity
  8
GEB-VERDECKT
 48
25.0
100
AcDbCircle
 10
0.0
 20
-0.0000000000086686
 30
0.0
 40
5.199999999999775
100
AcDbArc
 50
87.44926842435344
 51
92.55073157567917
  0
ARC
  5
F1
330
2
100
AcDbEntity
  8
GEB-VERDECKT
 48
25.0
100
AcDbCircle
 10
-0.0000000000000568
 20
-0.0000000000088392
 30
0.0
 40
5.199999999999931
100
AcDbArc
 50
105.4492684243561
 51
110.5507315756802
  0
ARC
  5
F2
330
2
100
AcDbEntity
  8
GEB-VERDECKT
 48
25.0
100
AcDbCircle
 10
-0.0000000000002842
 20
-0.0000000000085265
 30
0.0
 40
5.19999999999953
100
AcDbArc
 50
123.4492684243536
 51
128.5507315756786
  0
ARC
  5
F3
330
2
100
AcDbEntity
  8
GEB-VERDECKT
 48
25.0
100
AcDbCircle
 10
-0.0000000000001705
 20
-0.0000000000087823
 30
0.0
 40
5.199999999999796
100
AcDbArc
 50
141.449268424355
 51
146.5507315756788
  0
ARC
  5
F4
330
2
100
AcDbEntity
  8
GEB-VERDECKT
 48
25.0
100
AcDbCircle
 10
-0.0000000000001137
 20
-0.0000000000088676
 30
0.0
 40
5.199999999999906
100
AcDbArc
 50
159.4492684243542
 51
164.5507315756779
  0
ARC
  5
F5
330
2
100
AcDbEntity
  8
GEB-VERDECKT
 48
25.0
100
AcDbCircle
 10
-0.0000000000002842
 20
-0.0000000000089244
 30
0.0
 40
5.199999999999775
100
AcDbArc
 50
177.449268424355
 51
182.5507315756791
  0
ARC
  5
F6
330
2
100
AcDbEntity
  8
GEB-VERDECKT
 48
25.0
100
AcDbCircle
 10
-0.0000000000000568
 20
-0.0000000000089528
 30
0.0
 40
5.199999999999928
100
AcDbArc
 50
195.4492684243561
 51
200.5507315756781
  0
ARC
  5
F7
330
2
100
AcDbEntity
  8
GEB-VERDECKT
 48
25.0
100
AcDbCircle
 10
-0.0000000000000568
 20
-0.0000000000089528
 30
0.0
 40
5.199999999999949
100
AcDbArc
 50
213.449268424355
 51
218.5507315756796
  0
ARC
  5
F8
330
2
100
AcDbEntity
  8
GEB-VERDECKT
 48
25.0
100
AcDbCircle
 10
-0.0000000000000568
 20
-0.0000000000090381
 30
0.0
 40
5.199999999999887
100
AcDbArc
 50
231.449268424355
 51
236.550731575678
  0
ARC
  5
F9
330
2
100
AcDbEntity
  8
GEB-VERDECKT
 48
25.0
100
AcDbCircle
 10
0.0000000000001137
 20
-0.0000000000085265
 30
0.0
 40
5.200000000000432
100
AcDbArc
 50
249.4492684243549
 51
254.5507315756779
  0
ARC
  5
FA
330
2
100
AcDbEntity
  8
GEB-VERDECKT
 48
25.0
100
AcDbCircle
 10
0.0
 20
-0.0000000000091518
 30
0.0
 40
5.199999999999775
100
AcDbArc
 50
267.4492684243534
 51
272.5507315756792
  0
ARC
  5
FB
330
2
100
AcDbEntity
  8
GEB-VERDECKT
 48
25.0
100
AcDbCircle
 10
0.0000000000000568
 20
-0.0000000000089813
 30
0.0
 40
5.199999999999934
100
AcDbArc
 50
285.4492684243561
 51
290.5507315756802
  0
ARC
  5
FC
330
2
100
AcDbEntity
  8
GEB-VERDECKT
 48
25.0
100
AcDbCircle
 10
0.0
 20
-0.0000000000089244
 30
0.0
 40
5.19999999999999
100
AcDbArc
 50
303.4492684243537
 51
308.5507315756786
  0
ARC
  5
FD
330
2
100
AcDbEntity
  8
GEB-VERDECKT
 48
25.0
100
AcDbCircle
 10
0.0000000000002274
 20
-0.0000000000090665
 30
0.0
 40
5.199999999999733
100
AcDbArc
 50
321.449268424355
 51
326.5507315756789
  0
ARC
  5
FE
330
2
100
AcDbEntity
  8
GEB-VERDECKT
 48
25.0
100
AcDbCircle
 10
-0.0000000000003979
 20
-0.0000000000087823
 30
0.0
 40
5.200000000000438
100
AcDbArc
 50
339.4492684243543
 51
344.5507315756779
  0
ARC
  5
FF
330
2
100
AcDbEntity
  8
GEB-VERDECKT
 48
25.0
100
AcDbCircle
 10
4.635639852483848
 20
-43.59999999999859
 30
0.0
 40
0.3999999999999997
100
AcDbArc
 50
190.0000000000168
 51
270.0000000000163
  0
ARC
  5
100
330
2
100
AcDbEntity
  8
GEB-VERDECKT
 48
25.0
100
AcDbCircle
 10
-4.635639852457927
 20
-43.60000000000133
 30
0.0
 40
0.3999999999999997
100
AcDbArc
 50
270.0000000000196
 51
350.000000000018
  0
LINE
  5
101
330
2
100
AcDbEntity
  8
GEB-VERDECKT
 48
25.0
100
AcDbLine
 10
-3.249999999994656
 20
-18.00000000000096
 30
0.0
 11
-3.249999999988688
 21
-38.04515408940236
 31
0.0
  0
LINE
  5
102
330
2
100
AcDbEntity
  8
GEB-VERDECKT
 48
25.0
100
AcDbLine
 10
3.250000000005343
 20
-17.999999999999
 30
0.0
 11
3.250000000011311
 21
-38.04515408940046
 31
0.0
  0
LINE
  5
103
330
2
100
AcDbEntity
  8
GEB-VERDECKT
 48
25.0
100
AcDbLine
 10
-3.249999999988688
 20
-38.04515408940236
 30
0.0
 11
-4.241716751253022
 21
-43.669459271068
 31
0.0
  0
LINE
  5
104
330
2
100
AcDbEntity
  8
GEB-VERDECKT
 48
25.0
100
AcDbLine
 10
3.250000000011311
 20
-38.04515408940046
 30
0.0
 11
4.241716751278943
 21
-43.66945927106548
 31
0.0
  0
LINE
  5
105
330
2
100
AcDbEntity
  8
GEB-VERDECKT
 48
25.0
100
AcDbLine
 10
-3.249999999988688
 20
-38.04515408940236
 30
0.0
 11
3.250000000011311
 21
-38.04515408940046
 31
0.0
  0
LINE
  5
106
330
2
100
AcDbEntity
  8
GEB-KONTUR-A
 48
25.0
100
AcDbLine
 10
0.0000000000066507
 20
-22.49999999999852
 30
0.0
 11
0.0000000000072191
 21
-24.2999999999985
 31
0.0
  0
LINE
  5
108
330
2
100
AcDbEntity
  8
GEB-KONTUR-A
 48
25.0
100
AcDbLine
 10
-0.5853593942921976
 20
-22.49999999999852
 30
0.0
 11
0.0000000000066507
 21
-22.49999999999852
 31
0.0
  0
LINE
  5
109
330
2
100
AcDbEntity
  8
GEB-KONTUR-A
 48
25.0
100
AcDbLine
 10
0.0000000000066507
 20
-22.49999999999852
 30
0.0
 11
0.5853593943055558
 21
-22.49999999999815
 31
0.0
  0
LINE
  5
10A
330
2
100
AcDbEntity
  8
GEB-KONTUR-A
 48
25.0
100
AcDbLine
 10
-0.5853593942916291
 20
-24.2999999999985
 30
0.0
 11
-0.5853593942921976
 21
-22.49999999999852
 31
0.0
  0
LINE
  5
10B
330
2
100
AcDbEntity
  8
GEB-KONTUR-A
 48
25.0
100
AcDbLine
 10
-0.585359394291686
 20
-24.29999999999854
 30
0.0
 11
0.5853593943060674
 21
-24.29999999999819
 31
0.0
  0
LINE
  5
10C
330
2
100
AcDbEntity
  8
GEB-KONTUR-A
 48
25.0
100
AcDbLine
 10
0.5853593943055558
 20
-22.49999999999815
 30
0.0
 11
0.5853593943060674
 21
-24.29999999999814
 31
0.0
  0
LINE
  5
10D
330
2
100
AcDbEntity
  8
GEB-VERDECKT
 48
25.0
100
AcDbLine
 10
4.004634122162656
 20
-22.49999999999795
 30
0.0
 11
4.004634122163224
 21
-24.29999999999794
 31
0.0
  0
LINE
  5
10E
330
2
100
AcDbEntity
  8
GEB-VERDECKT
 48
25.0
100
AcDbLine
 10
4.004634122163224
 20
-24.29999999999794
 30
0.0
 11
4.161611022680631
 21
-24.29999999999765
 31
0.0
  0
LINE
  5
10F
330
2
100
AcDbEntity
  8
GEB-VERDECKT
 48
25.0
100
AcDbLine
 10
4.707729755667685
 20
-22.49999999999815
 30
0.0
 11
4.707729755668253
 21
-24.29999999999814
 31
0.0
  0
LINE
  5
110
330
2
100
AcDbEntity
  8
GEB-VERDECKT
 48
25.0
100
AcDbLine
 10
4.849742261200105
 20
-24.29999999999802
 30
0.0
 11
5.115854562805793
 21
-24.29999999999779
 31
0.0
  0
LINE
  5
111
330
2
100
AcDbEntity
  8
GEB-VERDECKT
 48
25.0
100
AcDbLine
 10
4.950000000006696
 20
-22.49999999999852
 30
0.0
 11
4.950000000007207
 21
-24.2999999999985
 31
0.0
  0
LINE
  5
112
330
2
100
AcDbEntity
  8
GEB-VERDECKT
 48
25.0
100
AcDbLine
 10
5.477626564116519
 20
-24.29999999999822
 30
0.0
 11
5.569322614069506
 21
-24.29999999999814
 31
0.0
  0
LINE
  5
113
330
2
100
AcDbEntity
  8
GEB-VERDECKT
 48
25.0
100
AcDbLine
 10
-5.569322614055124
 20
-24.30000000000146
 30
0.0
 11
-5.477626564102081
 21
-24.30000000000146
 31
0.0
  0
LINE
  5
114
330
2
100
AcDbEntity
  8
GEB-VERDECKT
 48
25.0
100
AcDbLine
 10
-4.949999999993281
 20
-22.50000000000145
 30
0.0
 11
-4.949999999992769
 21
-24.30000000000146
 31
0.0
  0
LINE
  5
115
330
2
100
AcDbEntity
  8
GEB-VERDECKT
 48
25.0
100
AcDbLine
 10
-5.115854562791298
 20
-24.30000000000081
 30
0.0
 11
-4.849742261185667
 21
-24.30000000000089
 31
0.0
  0
LINE
  5
116
330
2
100
AcDbEntity
  8
GEB-VERDECKT
 48
25.0
100
AcDbLine
 10
-4.707729755654327
 20
-22.50000000000091
 30
0.0
 11
-4.707729755653815
 21
-24.30000000000092
 31
0.0
  0
LINE
  5
117
330
2
100
AcDbEntity
  8
GEB-VERDECKT
 48
25.0
100
AcDbLine
 10
-4.161611022666193
 20
-24.3000000000001
 30
0.0
 11
-4.004634122148786
 21
-24.30000000000033
 31
0.0
  0
LINE
  5
118
330
2
100
AcDbEntity
  8
GEB-VERDECKT
 48
25.0
100
AcDbLine
 10
-4.004634122149298
 20
-22.50000000000031
 30
0.0
 11
-4.004634122148786
 21
-24.30000000000033
 31
0.0
  0
LINE
  5
119
330
2
100
AcDbEntity
  8
GEB-KONTUR-A
 48
25.0
100
AcDbLine
 10
1.164305468586633
 20
-24.29999999999805
 30
0.0
 11
2.277725201231703
 21
-24.29999999999779
 31
0.0
  0
LINE
  5
11A
330
2
100
AcDbEntity
  8
GEB-KONTUR-A
 48
25.0
100
AcDbLine
 10
1.52963412216269
 20
-22.49999999999815
 30
0.0
 11
2.277725201231191
 21
-22.49999999999778
 31
0.0
  0
LINE
  5
11B
330
2
100
AcDbEntity
  8
GEB-KONTUR-A
 48
25.0
100
AcDbLine
 10
2.277725201231191
 20
-22.49999999999778
 30
0.0
 11
2.277725201231703
 21
-24.29999999999779
 31
0.0
  0
LINE
  5
11C
330
2
100
AcDbEntity
  8
GEB-KONTUR-A
 48
25.0
100
AcDbLine
 10
1.16430546858669
 20
-24.29999999999802
 30
0.0
 11
1.164305468586121
 21
-22.49999999999801
 31
0.0
  0
LINE
  5
11D
330
2
100
AcDbEntity
  8
GEB-KONTUR-A
 48
25.0
100
AcDbLine
 10
1.164305468586121
 20
-22.49999999999801
 30
0.0
 11
1.52963412216269
 21
-22.49999999999815
 31
0.0
  0
LINE
  5
11E
330
2
100
AcDbEntity
  8
GEB-KONTUR-A
 48
25.0
100
AcDbLine
 10
1.52963412216269
 20
-22.49999999999815
 30
0.0
 11
1.529634122163201
 21
-24.29999999999814
 31
0.0
  0
LINE
  5
11F
330
2
100
AcDbEntity
  8
GEB-KONTUR-A
 48
25.0
100
AcDbLine
 10
2.80000000000723
 20
-24.29999999999774
 30
0.0
 11
3.747131395616861
 21
-24.29999999999765
 31
0.0
  0
LINE
  5
120
330
2
100
AcDbEntity
  8
GEB-KONTUR-A
 48
25.0
100
AcDbLine
 10
2.909536998854434
 20
-22.49999999999795
 30
0.0
 11
3.747131395616293
 21
-22.49999999999767
 31
0.0
  0
LINE
  5
121
330
2
100
AcDbEntity
  8
GEB-KONTUR-A
 48
25.0
100
AcDbLine
 10
3.747131395616293
 20
-22.49999999999767
 30
0.0
 11
3.747131395616804
 21
-24.29999999999765
 31
0.0
  0
LINE
  5
122
330
2
100
AcDbEntity
  8
GEB-KONTUR-A
 48
25.0
100
AcDbLine
 10
2.80000000000723
 20
-24.29999999999774
 30
0.0
 11
2.800000000006662
 21
-22.49999999999773
 31
0.0
  0
LINE
  5
123
330
2
100
AcDbEntity
  8
GEB-KONTUR-A
 48
25.0
100
AcDbLine
 10
2.800000000006662
 20
-22.49999999999773
 30
0.0
 11
2.909536998854434
 21
-22.49999999999795
 31
0.0
  0
LINE
  5
124
330
2
100
AcDbEntity
  8
GEB-KONTUR-A
 48
25.0
100
AcDbLine
 10
2.909536998854434
 20
-22.49999999999795
 30
0.0
 11
2.909536998854946
 21
-24.29999999999794
 31
0.0
  0
LINE
  5
125
330
2
100
AcDbEntity
  8
GEB-KONTUR-A
 48
25.0
100
AcDbLine
 10
4.161611022680631
 20
-24.29999999999765
 30
0.0
 11
4.849742261200049
 21
-24.29999999999774
 31
0.0
  0
LINE
  5
126
330
2
100
AcDbEntity
  8
GEB-KONTUR-A
 48
25.0
100
AcDbLine
 10
4.161611022680119
 20
-22.4999999999979
 30
0.0
 11
4.849742261199537
 21
-22.49999999999773
 31
0.0
  0
LINE
  5
127
330
2
100
AcDbEntity
  8
GEB-KONTUR-A
 48
25.0
100
AcDbLine
 10
4.849742261199537
 20
-22.49999999999773
 30
0.0
 11
4.849742261200049
 21
-24.29999999999774
 31
0.0
  0
LINE
  5
128
330
2
100
AcDbEntity
  8
GEB-KONTUR-A
 48
25.0
100
AcDbLine
 10
4.161611022680631
 20
-24.29999999999765
 30
0.0
 11
4.161611022680119
 21
-22.49999999999767
 31
0.0
  0
LINE
  5
129
330
2
100
AcDbEntity
  8
GEB-KONTUR-A
 48
25.0
100
AcDbLine
 10
5.115854562805793
 20
-24.29999999999783
 30
0.0
 11
5.477626564116519
 21
-24.29999999999805
 31
0.0
  0
LINE
  5
12A
330
2
100
AcDbEntity
  8
GEB-KONTUR-A
 48
25.0
100
AcDbLine
 10
5.115854562805225
 20
-22.49999999999807
 30
0.0
 11
5.477626564116008
 21
-22.49999999999801
 31
0.0
  0
LINE
  5
12B
330
2
100
AcDbEntity
  8
GEB-KONTUR-A
 48
25.0
100
AcDbLine
 10
5.477626564116008
 20
-22.49999999999801
 30
0.0
 11
5.477626564116519
 21
-24.29999999999802
 31
0.0
  0
LINE
  5
12C
330
2
100
AcDbEntity
  8
GEB-KONTUR-A
 48
25.0
100
AcDbLine
 10
5.115854562805793
 20
-24.29999999999779
 30
0.0
 11
5.115854562805225
 21
-22.49999999999778
 31
0.0
  0
LINE
  5
12D
330
2
100
AcDbEntity
  8
GEB-KONTUR-A
 48
25.0
100
AcDbLine
 10
5.569322614069506
 20
-24.29999999999819
 30
0.0
 11
5.600000000007185
 21
-24.29999999999834
 31
0.0
  0
LINE
  5
12E
330
2
100
AcDbEntity
  8
GEB-KONTUR-A
 48
25.0
100
AcDbLine
 10
5.569322614069506
 20
-24.29999999999814
 30
0.0
 11
5.569322614068994
 21
-22.49999999999815
 31
0.0
  0
LINE
  5
12F
330
2
100
AcDbEntity
  8
GEB-KONTUR-A
 48
25.0
100
AcDbLine
 10
-5.599999999992746
 20
-24.30000000000166
 30
0.0
 11
-5.569322614055067
 21
-24.30000000000149
 31
0.0
  0
LINE
  5
130
330
2
100
AcDbEntity
  8
GEB-KONTUR-A
 48
25.0
100
AcDbLine
 10
-5.569322614055636
 20
-22.50000000000145
 30
0.0
 11
-5.569322614055124
 21
-24.30000000000146
 31
0.0
  0
LINE
  5
131
330
2
100
AcDbEntity
  8
GEB-KONTUR-A
 48
25.0
100
AcDbLine
 10
-5.477626564102081
 20
-24.30000000000126
 30
0.0
 11
-5.115854562791298
 21
-24.30000000000087
 31
0.0
  0
LINE
  5
132
330
2
100
AcDbEntity
  8
GEB-KONTUR-A
 48
25.0
100
AcDbLine
 10
-5.115854562791867
 20
-22.50000000000083
 30
0.0
 11
-5.115854562791298
 21
-24.30000000000081
 31
0.0
  0
LINE
  5
133
330
2
100
AcDbEntity
  8
GEB-KONTUR-A
 48
25.0
100
AcDbLine
 10
-5.477626564102081
 20
-24.30000000000126
 30
0.0
 11
-5.477626564102592
 21
-22.50000000000128
 31
0.0
  0
LINE
  5
134
330
2
100
AcDbEntity
  8
GEB-KONTUR-A
 48
25.0
100
AcDbLine
 10
-5.477626564102592
 20
-22.50000000000128
 30
0.0
 11
-5.115854562791867
 21
-22.50000000000111
 31
0.0
  0
LINE
  5
135
330
2
100
AcDbEntity
  8
GEB-KONTUR-A
 48
25.0
100
AcDbLine
 10
-4.849742261185667
 20
-24.30000000000061
 30
0.0
 11
-4.161611022666193
 21
-24.3000000000001
 31
0.0
  0
LINE
  5
136
330
2
100
AcDbEntity
  8
GEB-KONTUR-A
 48
25.0
100
AcDbLine
 10
-4.161611022666704
 20
-22.50000000000011
 30
0.0
 11
-4.161611022666193
 21
-24.3000000000001
 31
0.0
  0
LINE
  5
137
330
2
100
AcDbEntity
  8
GEB-KONTUR-A
 48
25.0
100
AcDbLine
 10
-4.849742261185667
 20
-24.30000000000061
 30
0.0
 11
-4.849742261186179
 21
-22.5000000000006
 31
0.0
  0
LINE
  5
138
330
2
100
AcDbEntity
  8
GEB-KONTUR-A
 48
25.0
100
AcDbLine
 10
-4.849742261186179
 20
-22.5000000000006
 30
0.0
 11
-4.161611022666704
 21
-22.50000000000034
 31
0.0
  0
LINE
  5
139
330
2
100
AcDbEntity
  8
GEB-KONTUR-A
 48
25.0
100
AcDbLine
 10
-3.747131395602366
 20
-24.29999999999984
 30
0.0
 11
-2.799999999992792
 21
-24.29999999999939
 31
0.0
  0
LINE
  5
13A
330
2
100
AcDbEntity
  8
GEB-KONTUR-A
 48
25.0
100
AcDbLine
 10
-2.909536998841019
 20
-22.49999999999966
 30
0.0
 11
-2.799999999993303
 21
-22.49999999999937
 31
0.0
  0
LINE
  5
13B
330
2
100
AcDbEntity
  8
GEB-KONTUR-A
 48
25.0
100
AcDbLine
 10
-2.799999999993303
 20
-22.49999999999937
 30
0.0
 11
-2.799999999992792
 21
-24.29999999999939
 31
0.0
  0
LINE
  5
13C
330
2
100
AcDbEntity
  8
GEB-KONTUR-A
 48
25.0
100
AcDbLine
 10
-3.747131395602366
 20
-24.29999999999984
 30
0.0
 11
-3.747131395602878
 21
-22.49999999999986
 31
0.0
  0
LINE
  5
13D
330
2
100
AcDbEntity
  8
GEB-KONTUR-A
 48
25.0
100
AcDbLine
 10
-3.747131395602878
 20
-22.49999999999986
 30
0.0
 11
-2.909536998841019
 21
-22.49999999999966
 31
0.0
  0
LINE
  5
13E
330
2
100
AcDbEntity
  8
GEB-KONTUR-A
 48
25.0
100
AcDbLine
 10
-2.909536998841019
 20
-22.49999999999966
 30
0.0
 11
-2.909536998840508
 21
-24.29999999999967
 31
0.0
  0
LINE
  5
13F
330
2
100
AcDbEntity
  8
GEB-KONTUR-A
 48
25.0
100
AcDbLine
 10
-2.277725201217265
 20
-24.29999999999919
 30
0.0
 11
-1.164305468572194
 21
-24.2999999999987
 31
0.0
  0
LINE
  5
140
330
2
100
AcDbEntity
  8
GEB-KONTUR-A
 48
25.0
100
AcDbLine
 10
-1.529634122149332
 20
-22.49999999999904
 30
0.0
 11
-1.164305468572763
 21
-22.49999999999872
 31
0.0
  0
LINE
  5
141
330
2
100
AcDbEntity
  8
GEB-KONTUR-A
 48
25.0
100
AcDbLine
 10
-1.164305468572763
 20
-22.49999999999872
 30
0.0
 11
-1.164305468572251
 21
-24.2999999999987
 31
0.0
  0
LINE
  5
142
330
2
100
AcDbEntity
  8
GEB-KONTUR-A
 48
25.0
100
AcDbLine
 10
-2.277725201217265
 20
-24.29999999999916
 30
0.0
 11
-2.277725201217776
 21
-22.49999999999915
 31
0.0
  0
LINE
  5
143
330
2
100
AcDbEntity
  8
GEB-KONTUR-A
 48
25.0
100
AcDbLine
 10
-2.277725201217776
 20
-22.49999999999915
 30
0.0
 11
-1.529634122149332
 21
-22.49999999999904
 31
0.0
  0
LINE
  5
144
330
2
100
AcDbEntity
  8
GEB-KONTUR-A
 48
25.0
100
AcDbLine
 10
-1.529634122149332
 20
-22.49999999999904
 30
0.0
 11
-1.529634122148763
 21
-24.29999999999905
 31
0.0
  0
ARC
  5
145
330
2
100
AcDbEntity
  8
GEB-KONTUR-A
 48
25.0
100
AcDbCircle
 10
-8.299999999988472
 20
-38.70000000000244
 30
0.0
 40
3.399999999999995
100
AcDbArc
 50
322.5719944569752
 51
37.42800554305858
  0
ARC
  5
146
330
2
100
AcDbEntity
  8
GEB-KONTUR-A
 48
25.0
100
AcDbCircle
 10
8.300000000011493
 20
-38.69999999999752
 30
0.0
 40
3.399999999999995
100
AcDbArc
 50
142.5719944569753
 51
217.4280055430586
  0
LINE
  5
147
330
2
100
AcDbEntity
  8
GEB-KONTUR-A
 48
25.0
100
AcDbLine
 10
-5.599999999987886
 20
-40.76639783197882
 30
0.0
 11
5.600000000012073
 21
-40.76639783197546
 31
0.0
  0
LINE
  5
148
330
2
100
AcDbEntity
  8
GEB-KONTUR-A
 48
25.0
100
AcDbLine
 10
5.600000000010879
 20
-36.63360216802113
 30
0.0
 11
-5.599999999989108
 21
-36.63360216802445
 31
0.0
  0
LINE
  5
149
330
2
100
AcDbEntity
  8
GEB-KONTUR-A
 48
25.0
100
AcDbLine
 10
4.200000000009879
 20
-33.19999999999874
 30
0.0
 11
4.200000000009254
 21
-31.19999999999874
 31
0.0
  0
LINE
  5
14A
330
2
100
AcDbEntity
  8
GEB-KONTUR-A
 48
25.0
100
AcDbLine
 10
-4.199999999990097
 20
-33.20000000000121
 30
0.0
 11
-4.199999999990723
 21
-31.20000000000121
 31
0.0
  0
LINE
  5
14B
330
2
100
AcDbEntity
  8
GEB-KONTUR-A
 48
25.0
100
AcDbLine
 10
5.200000000009254
 20
-31.19999999999846
 30
0.0
 11
5.200000000008969
 21
-30.09999999999846
 31
0.0
  0
LINE
  5
14C
330
2
100
AcDbEntity
  8
GEB-KONTUR-A
 48
25.0
100
AcDbLine
 10
-5.199999999990723
 20
-31.20000000000152
 30
0.0
 11
-5.199999999991064
 21
-30.10000000000156
 31
0.0
  0
LINE
  5
14D
330
2
100
AcDbEntity
  8
GEB-KONTUR-A
 48
25.0
100
AcDbLine
 10
4.950000000006696
 20
-22.49999999999852
 30
0.0
 11
4.950000000006355
 21
-21.47125920269536
 31
0.0
  0
LINE
  5
14E
330
2
100
AcDbEntity
  8
GEB-KONTUR-A
 48
25.0
100
AcDbLine
 10
-4.949999999993281
 20
-22.50000000000145
 30
0.0
 11
-4.949999999993565
 21
-21.47125920269829
 31
0.0
  0
LINE
  5
14F
330
2
100
AcDbEntity
  8
GEB-KONTUR-A
 48
25.0
100
AcDbLine
 10
4.950000000006355
 20
-21.47125920269536
 30
0.0
 11
5.350000000006218
 21
-20.89999999999839
 31
0.0
  0
LINE
  5
150
330
2
100
AcDbEntity
  8
GEB-KONTUR-A
 48
25.0
100
AcDbLine
 10
-4.949999999993622
 20
-21.47125920269829
 30
0.0
 11
-5.349999999993769
 21
-20.9000000000016
 31
0.0
  0
LINE
  5
151
330
2
100
AcDbEntity
  8
GEB-KONTUR-A
 48
25.0
100
AcDbLine
 10
4.950000000006241
 20
-20.8999999999985
 30
0.0
 11
4.950000000005957
 21
-19.97125920269536
 31
0.0
  0
LINE
  5
152
330
2
100
AcDbEntity
  8
GEB-KONTUR-A
 48
25.0
100
AcDbLine
 10
-4.949999999993735
 20
-20.90000000000145
 30
0.0
 11
-4.949999999994076
 21
-19.97125920269832
 31
0.0
  0
LINE
  5
153
330
2
100
AcDbEntity
  8
GEB-KONTUR-A
 48
25.0
100
AcDbLine
 10
4.950000000005957
 20
-19.97125920269536
 30
0.0
 11
5.350000000005763
 21
-19.39999999999841
 31
0.0
  0
LINE
  5
154
330
2
100
AcDbEntity
  8
GEB-KONTUR-A
 48
25.0
100
AcDbLine
 10
-4.949999999994076
 20
-19.97125920269832
 30
0.0
 11
-5.349999999994224
 21
-19.40000000000157
 31
0.0
  0
LINE
  5
155
330
2
100
AcDbEntity
  8
GEB-KONTUR-A
 48
25.0
100
AcDbLine
 10
5.100000000005763
 20
-19.3999999999985
 30
0.0
 11
5.100000000005309
 21
-17.99999999999846
 31
0.0
  0
LINE
  5
156
330
2
100
AcDbEntity
  8
GEB-KONTUR-A
 48
25.0
100
AcDbLine
 10
-5.099999999994224
 20
-19.40000000000151
 30
0.0
 11
-5.099999999994622
 21
-18.0000000000015
 31
0.0
  0
ARC
  5
157
330
2
100
AcDbEntity
  8
GEB-KONTUR-A
 48
25.0
100
AcDbCircle
 10
-4.911706186099195
 20
-43.60000000000144
 30
0.0
 40
0.3999999999999997
100
AcDbArc
 50
190.0000000000168
 51
270.0000000000163
  0
ARC
  5
158
330
2
100
AcDbEntity
  8
GEB-KONTUR-A
 48
25.0
100
AcDbCircle
 10
4.911706186125115
 20
-43.59999999999849
 30
0.0
 40
0.3999999999999997
100
AcDbArc
 50
270.0000000000196
 51
350.000000000018
  0
LINE
  5
159
330
2
100
AcDbEntity
  8
GEB-KONTUR-A
 48
25.0
100
AcDbLine
 10
5.30562928733002
 20
-43.66945927106516
 30
0.0
 11
5.600000000012471
 21
-41.99999999999829
 31
0.0
  0
LINE
  5
15A
330
2
100
AcDbEntity
  8
GEB-KONTUR-A
 48
25.0
100
AcDbLine
 10
-5.305629287304043
 20
-43.66945927106832
 30
0.0
 11
-5.599999999987517
 21
-42.00000000000161
 31
0.0
  0
LINE
  5
15B
330
2
100
AcDbEntity
  8
GEB-KONTUR-A
 48
25.0
100
AcDbLine
 10
5.600000000010879
 20
-36.63360216802116
 30
0.0
 11
5.600000000010197
 21
-34.29999999999834
 31
0.0
  0
LINE
  5
15C
330
2
100
AcDbEntity
  8
GEB-KONTUR-A
 48
25.0
100
AcDbLine
 10
-5.59999999998908
 20
-36.63360216802445
 30
0.0
 11
-5.59999999998979
 21
-34.30000000000163
 31
0.0
  0
LINE
  5
15D
330
2
100
AcDbEntity
  8
GEB-KONTUR-A
 48
25.0
100
AcDbLine
 10
5.200000000010163
 20
-34.29999999999842
 30
0.0
 11
5.200000000009879
 21
-33.19999999999846
 31
0.0
  0
LINE
  5
15E
330
2
100
AcDbEntity
  8
GEB-KONTUR-A
 48
25.0
100
AcDbLine
 10
-5.199999999989813
 20
-34.30000000000152
 30
0.0
 11
-5.199999999990126
 21
-33.20000000000153
 31
0.0
  0
LINE
  5
15F
330
2
100
AcDbEntity
  8
GEB-KONTUR-A
 48
25.0
100
AcDbLine
 10
5.600000000008378
 20
-28.29999999999831
 30
0.0
 11
5.600000000007185
 21
-24.29999999999834
 31
0.0
  0
LINE
  5
160
330
2
100
AcDbEntity
  8
GEB-KONTUR-A
 48
25.0
100
AcDbLine
 10
-5.599999999991581
 20
-28.30000000000166
 30
0.0
 11
-5.599999999992746
 21
-24.30000000000163
 31
0.0
  0
LINE
  5
161
330
2
100
AcDbEntity
  8
GEB-KONTUR-A
 48
25.0
100
AcDbLine
 10
5.600000000012471
 20
-41.99999999999829
 30
0.0
 11
5.600000000012073
 21
-40.76639783197549
 31
0.0
  0
LINE
  5
162
330
2
100
AcDbEntity
  8
GEB-KONTUR-A
 48
25.0
100
AcDbLine
 10
-5.599999999987517
 20
-42.00000000000161
 30
0.0
 11
-5.599999999987886
 21
-40.76639783197882
 31
0.0
  0
LINE
  5
163
330
2
100
AcDbEntity
  8
GEB-KONTUR-A
 48
25.0
100
AcDbLine
 10
5.200000000009254
 20
-31.19999999999846
 30
0.0
 11
-5.199999999990723
 21
-31.2000000000015
 31
0.0
  0
LINE
  5
164
330
2
100
AcDbEntity
  8
GEB-KONTUR-A
 48
25.0
100
AcDbLine
 10
4.950000000006355
 20
-21.47125920269536
 30
0.0
 11
-4.949999999993565
 21
-21.47125920269829
 31
0.0
  0
LINE
  5
165
330
2
100
AcDbEntity
  8
GEB-KONTUR-A
 48
25.0
100
AcDbLine
 10
5.350000000006218
 20
-20.89999999999839
 30
0.0
 11
-5.349999999993798
 21
-20.9000000000016
 31
0.0
  0
LINE
  5
166
330
2
100
AcDbEntity
  8
GEB-KONTUR-A
 48
25.0
100
AcDbLine
 10
4.9500000000059
 20
-19.97125920269539
 30
0.0
 11
-4.949999999994076
 21
-19.97125920269832
 31
0.0
  0
LINE
  5
167
330
2
100
AcDbEntity
  8
GEB-KONTUR-A
 48
25.0
100
AcDbLine
 10
5.350000000005763
 20
-19.39999999999838
 30
0.0
 11
-5.349999999994224
 21
-19.40000000000157
 31
0.0
  0
LINE
  5
168
330
2
100
AcDbEntity
  8
GEB-KONTUR-A
 48
25.0
100
AcDbLine
 10
-4.911706186099081
 20
-44.00000000000142
 30
0.0
 11
4.911706186125229
 21
-43.99999999999852
 31
0.0
  0
LINE
  5
169
330
2
100
AcDbEntity
  8
GEB-KONTUR-A
 48
25.0
100
AcDbLine
 10
5.600000000010197
 20
-34.29999999999831
 30
0.0
 11
-5.59999999998979
 21
-34.30000000000163
 31
0.0
  0
LINE
  5
16A
330
2
100
AcDbEntity
  8
GEB-KONTUR-A
 48
25.0
100
AcDbLine
 10
5.200000000009879
 20
-33.19999999999846
 30
0.0
 11
-5.199999999990126
 21
-33.20000000000149
 31
0.0
  0
LINE
  5
16B
330
2
100
AcDbEntity
  8
GEB-KONTUR-A
 48
25.0
100
AcDbLine
 10
-0.5853593942921976
 20
-22.49999999999852
 30
0.0
 11
-1.164305468572763
 21
-22.49999999999872
 31
0.0
  0
LINE
  5
16C
330
2
100
AcDbEntity
  8
GEB-KONTUR-A
 48
25.0
100
AcDbLine
 10
1.164305468586121
 20
-22.49999999999804
 30
0.0
 11
0.5853593943055558
 21
-22.49999999999818
 31
0.0
  0
LINE
  5
16D
330
2
100
AcDbEntity
  8
GEB-KONTUR-A
 48
25.0
100
AcDbLine
 10
2.800000000006662
 20
-22.49999999999776
 30
0.0
 11
2.277725201231135
 21
-22.49999999999778
 31
0.0
  0
LINE
  5
16E
330
2
100
AcDbEntity
  8
GEB-KONTUR-A
 48
25.0
100
AcDbLine
 10
4.161611022680119
 20
-22.49999999999767
 30
0.0
 11
3.747131395616293
 21
-22.49999999999767
 31
0.0
  0
LINE
  5
16F
330
2
100
AcDbEntity
  8
GEB-KONTUR-A
 48
25.0
100
AcDbLine
 10
5.115854562805282
 20
-22.49999999999778
 30
0.0
 11
4.849742261199537
 21
-22.49999999999773
 31
0.0
  0
LINE
  5
170
330
2
100
AcDbEntity
  8
GEB-KONTUR-A
 48
25.0
100
AcDbLine
 10
5.569322614068994
 20
-22.49999999999818
 30
0.0
 11
5.477626564116008
 21
-22.49999999999804
 31
0.0
  0
LINE
  5
171
330
2
100
AcDbEntity
  8
GEB-KONTUR-A
 48
25.0
100
AcDbLine
 10
-5.477626564102564
 20
-22.50000000000128
 30
0.0
 11
-5.569322614055607
 21
-22.50000000000148
 31
0.0
  0
LINE
  5
172
330
2
100
AcDbEntity
  8
GEB-KONTUR-A
 48
25.0
100
AcDbLine
 10
-4.849742261186122
 20
-22.50000000000063
 30
0.0
 11
-5.115854562791867
 21
-22.50000000000085
 31
0.0
  0
LINE
  5
173
330
2
100
AcDbEntity
  8
GEB-KONTUR-A
 48
25.0
100
AcDbLine
 10
-3.747131395602934
 20
-22.49999999999986
 30
0.0
 11
-4.161611022666704
 21
-22.50000000000011
 31
0.0
  0
LINE
  5
174
330
2
100
AcDbEntity
  8
GEB-KONTUR-A
 48
25.0
100
AcDbLine
 10
-2.277725201217776
 20
-22.49999999999915
 30
0.0
 11
-2.799999999993303
 21
-22.4999999999994
 31
0.0
  0
LINE
  5
175
330
2
100
AcDbEntity
  8
GEB-KONTUR-A
 48
25.0
100
AcDbLine
 10
-0.5853593942899238
 20
-30.09999999999849
 30
0.0
 11
-1.164305468570489
 21
-30.09999999999872
 31
0.0
  0
LINE
  5
176
330
2
100
AcDbEntity
  8
GEB-KONTUR-A
 48
25.0
100
AcDbLine
 10
5.600000000012471
 20
-41.99999999999829
 30
0.0
 11
-5.599999999987517
 21
-42.00000000000165
 31
0.0
  0
LINE
  5
177
330
2
100
AcDbEntity
  8
GEB-KONTUR-A
 48
25.0
100
AcDbLine
 10
-2.277725201215559
 20
-30.09999999999911
 30
0.0
 11
-2.799999999991086
 21
-30.09999999999937
 31
0.0
  0
LINE
  5
178
330
2
100
AcDbEntity
  8
GEB-KONTUR-A
 48
25.0
100
AcDbLine
 10
-3.747131395600661
 20
-30.09999999999986
 30
0.0
 11
-4.161611022664487
 21
-30.10000000000008
 31
0.0
  0
LINE
  5
179
330
2
100
AcDbEntity
  8
GEB-KONTUR-A
 48
25.0
100
AcDbLine
 10
-4.849742261183905
 20
-30.10000000000062
 30
0.0
 11
-5.115854562789593
 21
-30.10000000000082
 31
0.0
  0
LINE
  5
17A
330
2
100
AcDbEntity
  8
GEB-KONTUR-A
 48
25.0
100
AcDbLine
 10
-5.477626564100319
 20
-30.10000000000128
 30
0.0
 11
-5.569322614053362
 21
-30.10000000000147
 31
0.0
  0
LINE
  5
17B
330
2
100
AcDbEntity
  8
GEB-KONTUR-A
 48
25.0
100
AcDbLine
 10
5.569322614071268
 20
-30.09999999999818
 30
0.0
 11
5.477626564118281
 21
-30.09999999999803
 31
0.0
  0
LINE
  5
17C
330
2
100
AcDbEntity
  8
GEB-KONTUR-A
 48
25.0
100
AcDbLine
 10
5.115854562807498
 20
-30.09999999999778
 30
0.0
 11
4.849742261201811
 21
-30.09999999999769
 31
0.0
  0
LINE
  5
17D
330
2
100
AcDbEntity
  8
GEB-KONTUR-A
 48
25.0
100
AcDbLine
 10
4.161611022682336
 20
-30.09999999999763
 30
0.0
 11
3.747131395618509
 21
-30.09999999999763
 31
0.0
  0
LINE
  5
17E
330
2
100
AcDbEntity
  8
GEB-KONTUR-A
 48
25.0
100
AcDbLine
 10
2.800000000008935
 20
-30.09999999999775
 30
0.0
 11
2.277725201233408
 21
-30.09999999999778
 31
0.0
  0
LINE
  5
17F
330
2
100
AcDbEntity
  8
GEB-KONTUR-A
 48
25.0
100
AcDbLine
 10
1.164305468588395
 20
-30.09999999999803
 30
0.0
 11
0.5853593943077727
 21
-30.09999999999818
 31
0.0
  0
LINE
  5
180
330
2
100
AcDbEntity
  8
GEB-VERDECKT
 48
25.0
100
AcDbLine
 10
4.161611022681825
 20
-28.29999999999762
 30
0.0
 11
4.004634122164361
 21
-28.29999999999791
 31
0.0
  0
LINE
  5
181
330
2
100
AcDbEntity
  8
GEB-VERDECKT
 48
25.0
100
AcDbLine
 10
4.004634122164361
 20
-28.29999999999791
 30
0.0
 11
4.004634122164929
 21
-30.09999999999792
 31
0.0
  0
LINE
  5
182
330
2
100
AcDbEntity
  8
GEB-VERDECKT
 48
25.0
100
AcDbLine
 10
5.11585456280693
 20
-28.2999999999978
 30
0.0
 11
4.849742261201242
 21
-28.29999999999802
 31
0.0
  0
LINE
  5
183
330
2
100
AcDbEntity
  8
GEB-VERDECKT
 48
25.0
100
AcDbLine
 10
4.70772975566939
 20
-28.29999999999813
 30
0.0
 11
4.707729755669959
 21
-30.09999999999815
 31
0.0
  0
LINE
  5
184
330
2
100
AcDbEntity
  8
GEB-VERDECKT
 48
25.0
100
AcDbLine
 10
5.569322614070699
 20
-28.29999999999817
 30
0.0
 11
5.477626564117713
 21
-28.29999999999819
 31
0.0
  0
LINE
  5
185
330
2
100
AcDbEntity
  8
GEB-VERDECKT
 48
25.0
100
AcDbLine
 10
4.950000000008401
 20
-28.29999999999854
 30
0.0
 11
4.950000000008913
 21
-30.09999999999852
 31
0.0
  0
LINE
  5
186
330
2
100
AcDbEntity
  8
GEB-VERDECKT
 48
25.0
100
AcDbLine
 10
-5.477626564100887
 20
-28.30000000000149
 30
0.0
 11
-5.569322614053902
 21
-28.30000000000149
 31
0.0
  0
LINE
  5
187
330
2
100
AcDbEntity
  8
GEB-VERDECKT
 48
25.0
100
AcDbLine
 10
-4.949999999991575
 20
-28.30000000000143
 30
0.0
 11
-4.949999999991007
 21
-30.10000000000145
 31
0.0
  0
LINE
  5
188
330
2
100
AcDbEntity
  8
GEB-VERDECKT
 48
25.0
100
AcDbLine
 10
-4.849742261184417
 20
-28.30000000000092
 30
0.0
 11
-5.115854562790161
 21
-28.30000000000083
 31
0.0
  0
LINE
  5
189
330
2
100
AcDbEntity
  8
GEB-VERDECKT
 48
25.0
100
AcDbLine
 10
-4.707729755652565
 20
-28.30000000000095
 30
0.0
 11
-4.707729755652053
 21
-30.10000000000093
 31
0.0
  0
LINE
  5
18A
330
2
100
AcDbEntity
  8
GEB-VERDECKT
 48
25.0
100
AcDbLine
 10
-4.004634122147535
 20
-28.3000000000003
 30
0.0
 11
-4.161611022664999
 21
-28.3000000000001
 31
0.0
  0
LINE
  5
18B
330
2
100
AcDbEntity
  8
GEB-VERDECKT
 48
25.0
100
AcDbLine
 10
-4.004634122147535
 20
-28.3000000000003
 30
0.0
 11
-4.004634122147024
 21
-30.10000000000031
 31
0.0
  0
LINE
  5
18C
330
2
100
AcDbEntity
  8
GEB-KONTUR-A
 48
25.0
100
AcDbLine
 10
0.5853593943073179
 20
-28.29999999999813
 30
0.0
 11
-0.5853593942904354
 21
-28.29999999999848
 31
0.0
  0
LINE
  5
18D
330
2
100
AcDbEntity
  8
GEB-KONTUR-A
 48
25.0
100
AcDbLine
 10
0.5853593943072611
 20
-28.29999999999817
 30
0.0
 11
0.5853593943077727
 21
-30.09999999999818
 31
0.0
  0
LINE
  5
18E
330
2
100
AcDbEntity
  8
GEB-KONTUR-A
 48
25.0
100
AcDbLine
 10
-0.2314205943056322
 20
-30.09999999999852
 30
0.0
 11
-0.5853593942899238
 21
-30.09999999999849
 31
0.0
  0
LINE
  5
18F
330
2
100
AcDbEntity
  8
GEB-KONTUR-A
 48
25.0
100
AcDbLine
 10
-0.5853593942899238
 20
-30.09999999999849
 30
0.0
 11
-0.5853593942904923
 21
-28.29999999999848
 31
0.0
  0
LINE
  5
190
330
2
100
AcDbEntity
  8
GEB-KONTUR-A
 48
25.0
100
AcDbLine
 10
0.0000000000084128
 20
-28.29999999999854
 30
0.0
 11
0.0000000000089244
 21
-30.09999999999852
 31
0.0
  0
LINE
  5
191
330
2
100
AcDbEntity
  8
GEB-KONTUR-A
 48
25.0
100
AcDbLine
 10
0.2314205943235379
 20
-30.09999999999838
 30
0.0
 11
-0.2314205943056322
 21
-30.09999999999852
 31
0.0
  0
LINE
  5
192
330
2
100
AcDbEntity
  8
GEB-KONTUR-A
 48
25.0
100
AcDbLine
 10
0.5853593943077727
 20
-30.09999999999818
 30
0.0
 11
0.2314205943235379
 21
-30.09999999999838
 31
0.0
  0
LINE
  5
193
330
2
100
AcDbEntity
  8
GEB-KONTUR-A
 48
25.0
100
AcDbLine
 10
2.277725201232897
 20
-28.29999999999783
 30
0.0
 11
1.164305468587826
 21
-28.29999999999802
 31
0.0
  0
LINE
  5
194
330
2
100
AcDbEntity
  8
GEB-KONTUR-A
 48
25.0
100
AcDbLine
 10
2.277725201232897
 20
-28.2999999999978
 30
0.0
 11
2.277725201233408
 21
-30.09999999999778
 31
0.0
  0
LINE
  5
195
330
2
100
AcDbEntity
  8
GEB-KONTUR-A
 48
25.0
100
AcDbLine
 10
2.277725201233408
 20
-30.09999999999778
 30
0.0
 11
1.825390342711841
 21
-30.09999999999798
 31
0.0
  0
LINE
  5
196
330
2
100
AcDbEntity
  8
GEB-KONTUR-A
 48
25.0
100
AcDbLine
 10
1.38520221425631
 20
-30.09999999999809
 30
0.0
 11
1.164305468588395
 21
-30.09999999999803
 31
0.0
  0
LINE
  5
197
330
2
100
AcDbEntity
  8
GEB-KONTUR-A
 48
25.0
100
AcDbLine
 10
1.164305468588395
 20
-30.09999999999803
 30
0.0
 11
1.164305468587883
 21
-28.29999999999799
 31
0.0
  0
LINE
  5
198
330
2
100
AcDbEntity
  8
GEB-KONTUR-A
 48
25.0
100
AcDbLine
 10
1.529634122164395
 20
-28.29999999999813
 30
0.0
 11
1.529634122164907
 21
-30.09999999999815
 31
0.0
  0
LINE
  5
199
330
2
100
AcDbEntity
  8
GEB-KONTUR-A
 48
25.0
100
AcDbLine
 10
1.825390342711841
 20
-30.09999999999798
 30
0.0
 11
1.38520221425631
 21
-30.09999999999809
 31
0.0
  0
LINE
  5
19A
330
2
100
AcDbEntity
  8
GEB-KONTUR-A
 48
25.0
100
AcDbLine
 10
3.747131395617998
 20
-28.29999999999762
 30
0.0
 11
2.800000000008367
 21
-28.29999999999771
 31
0.0
  0
LINE
  5
19B
330
2
100
AcDbEntity
  8
GEB-KONTUR-A
 48
25.0
100
AcDbLine
 10
3.747131395617998
 20
-28.29999999999762
 30
0.0
 11
3.747131395618566
 21
-30.09999999999763
 31
0.0
  0
LINE
  5
19C
330
2
100
AcDbEntity
  8
GEB-KONTUR-A
 48
25.0
100
AcDbLine
 10
3.747131395618566
 20
-30.09999999999763
 30
0.0
 11
3.240678166114037
 21
-30.09999999999781
 31
0.0
  0
LINE
  5
19D
330
2
100
AcDbEntity
  8
GEB-KONTUR-A
 48
25.0
100
AcDbLine
 10
2.86623177881637
 20
-30.09999999999787
 30
0.0
 11
2.800000000008935
 21
-30.09999999999769
 31
0.0
  0
LINE
  5
19E
330
2
100
AcDbEntity
  8
GEB-KONTUR-A
 48
25.0
100
AcDbLine
 10
2.800000000008935
 20
-30.09999999999769
 30
0.0
 11
2.800000000008367
 21
-28.29999999999771
 31
0.0
  0
LINE
  5
19F
330
2
100
AcDbEntity
  8
GEB-KONTUR-A
 48
25.0
100
AcDbLine
 10
2.90953699885614
 20
-28.29999999999791
 30
0.0
 11
2.909536998856708
 21
-30.09999999999792
 31
0.0
  0
LINE
  5
1A0
330
2
100
AcDbEntity
  8
GEB-KONTUR-A
 48
25.0
100
AcDbLine
 10
3.240678166114037
 20
-30.09999999999781
 30
0.0
 11
2.86623177881637
 21
-30.09999999999787
 31
0.0
  0
LINE
  5
1A1
330
2
100
AcDbEntity
  8
GEB-KONTUR-A
 48
25.0
100
AcDbLine
 10
4.849742261201299
 20
-28.29999999999771
 30
0.0
 11
4.161611022681825
 21
-28.29999999999762
 31
0.0
  0
LINE
  5
1A2
330
2
100
AcDbEntity
  8
GEB-KONTUR-A
 48
25.0
100
AcDbLine
 10
4.849742261201242
 20
-28.29999999999771
 30
0.0
 11
4.849742261201811
 21
-30.09999999999769
 31
0.0
  0
LINE
  5
1A3
330
2
100
AcDbEntity
  8
GEB-KONTUR-A
 48
25.0
100
AcDbLine
 10
4.849742261201811
 20
-30.09999999999769
 30
0.0
 11
4.338745831485368
 21
-30.09999999999787
 31
0.0
  0
LINE
  5
1A4
330
2
100
AcDbEntity
  8
GEB-KONTUR-A
 48
25.0
100
AcDbLine
 10
4.161611022682336
 20
-30.09999999999763
 30
0.0
 11
4.161611022681825
 21
-28.29999999999762
 31
0.0
  0
LINE
  5
1A5
330
2
100
AcDbEntity
  8
GEB-KONTUR-A
 48
25.0
100
AcDbLine
 10
4.338745831485425
 20
-30.09999999999787
 30
0.0
 11
4.161611022682393
 21
-30.09999999999781
 31
0.0
  0
LINE
  5
1A6
330
2
100
AcDbEntity
  8
GEB-KONTUR-A
 48
25.0
100
AcDbLine
 10
5.477626564117713
 20
-28.29999999999802
 30
0.0
 11
5.11585456280693
 21
-28.2999999999978
 31
0.0
  0
LINE
  5
1A7
330
2
100
AcDbEntity
  8
GEB-KONTUR-A
 48
25.0
100
AcDbLine
 10
5.477626564117713
 20
-28.29999999999799
 30
0.0
 11
5.477626564118224
 21
-30.09999999999803
 31
0.0
  0
LINE
  5
1A8
330
2
100
AcDbEntity
  8
GEB-KONTUR-A
 48
25.0
100
AcDbLine
 10
5.477626564118224
 20
-30.09999999999803
 30
0.0
 11
5.115854562807498
 21
-30.09999999999806
 31
0.0
  0
LINE
  5
1A9
330
2
100
AcDbEntity
  8
GEB-KONTUR-A
 48
25.0
100
AcDbLine
 10
5.115854562807498
 20
-30.09999999999778
 30
0.0
 11
5.11585456280693
 21
-28.2999999999978
 31
0.0
  0
LINE
  5
1AA
330
2
100
AcDbEntity
  8
GEB-KONTUR-A
 48
25.0
100
AcDbLine
 10
5.600000000008378
 20
-28.29999999999831
 30
0.0
 11
5.569322614070699
 21
-28.29999999999817
 31
0.0
  0
LINE
  5
1AB
330
2
100
AcDbEntity
  8
GEB-KONTUR-A
 48
25.0
100
AcDbLine
 10
5.569322614071268
 20
-30.09999999999818
 30
0.0
 11
5.569322614070699
 21
-28.29999999999817
 31
0.0
  0
LINE
  5
1AC
330
2
100
AcDbEntity
  8
GEB-KONTUR-A
 48
25.0
100
AcDbLine
 10
-5.569322614053902
 20
-28.30000000000143
 30
0.0
 11
-5.599999999991581
 21
-28.30000000000166
 31
0.0
  0
LINE
  5
1AD
330
2
100
AcDbEntity
  8
GEB-KONTUR-A
 48
25.0
100
AcDbLine
 10
-5.569322614053902
 20
-28.30000000000149
 30
0.0
 11
-5.569322614053362
 21
-30.10000000000147
 31
0.0
  0
LINE
  5
1AE
330
2
100
AcDbEntity
  8
GEB-KONTUR-A
 48
25.0
100
AcDbLine
 10
-5.115854562790161
 20
-28.30000000000081
 30
0.0
 11
-5.477626564100887
 21
-28.30000000000126
 31
0.0
  0
LINE
  5
1AF
330
2
100
AcDbEntity
  8
GEB-KONTUR-A
 48
25.0
100
AcDbLine
 10
-5.115854562790161
 20
-28.30000000000083
 30
0.0
 11
-5.115854562789593
 21
-30.10000000000082
 31
0.0
  0
LINE
  5
1B0
330
2
100
AcDbEntity
  8
GEB-KONTUR-A
 48
25.0
100
AcDbLine
 10
-5.115854562789593
 20
-30.1000000000011
 30
0.0
 11
-5.477626564100376
 21
-30.10000000000128
 31
0.0
  0
LINE
  5
1B1
330
2
100
AcDbEntity
  8
GEB-KONTUR-A
 48
25.0
100
AcDbLine
 10
-5.477626564100376
 20
-30.10000000000128
 30
0.0
 11
-5.477626564100887
 21
-28.30000000000126
 31
0.0
  0
LINE
  5
1B2
330
2
100
AcDbEntity
  8
GEB-KONTUR-A
 48
25.0
100
AcDbLine
 10
-4.161611022664999
 20
-28.30000000000012
 30
0.0
 11
-4.849742261184417
 21
-28.30000000000058
 31
0.0
  0
LINE
  5
1B3
330
2
100
AcDbEntity
  8
GEB-KONTUR-A
 48
25.0
100
AcDbLine
 10
-4.161611022664999
 20
-28.3000000000001
 30
0.0
 11
-4.16161102266443
 21
-30.10000000000014
 31
0.0
  0
LINE
  5
1B4
330
2
100
AcDbEntity
  8
GEB-KONTUR-A
 48
25.0
100
AcDbLine
 10
-4.33874583146752
 20
-30.10000000000042
 30
0.0
 11
-4.849742261183905
 21
-30.10000000000059
 31
0.0
  0
LINE
  5
1B5
330
2
100
AcDbEntity
  8
GEB-KONTUR-A
 48
25.0
100
AcDbLine
 10
-4.849742261183905
 20
-30.10000000000059
 30
0.0
 11
-4.849742261184417
 21
-28.30000000000058
 31
0.0
  0
LINE
  5
1B6
330
2
100
AcDbEntity
  8
GEB-KONTUR-A
 48
25.0
100
AcDbLine
 10
-4.161611022664487
 20
-30.10000000000025
 30
0.0
 11
-4.33874583146752
 21
-30.10000000000042
 31
0.0
  0
LINE
  5
1B7
330
2
100
AcDbEntity
  8
GEB-KONTUR-A
 48
25.0
100
AcDbLine
 10
-2.799999999991598
 20
-28.29999999999939
 30
0.0
 11
-3.747131395601172
 21
-28.29999999999987
 31
0.0
  0
LINE
  5
1B8
330
2
100
AcDbEntity
  8
GEB-KONTUR-A
 48
25.0
100
AcDbLine
 10
-2.799999999991598
 20
-28.29999999999939
 30
0.0
 11
-2.799999999991086
 21
-30.09999999999937
 31
0.0
  0
LINE
  5
1B9
330
2
100
AcDbEntity
  8
GEB-KONTUR-A
 48
25.0
100
AcDbLine
 10
-2.799999999991086
 20
-30.09999999999937
 30
0.0
 11
-2.866231778798464
 21
-30.09999999999957
 31
0.0
  0
LINE
  5
1BA
330
2
100
AcDbEntity
  8
GEB-KONTUR-A
 48
25.0
100
AcDbLine
 10
-3.240678166096131
 20
-30.09999999999974
 30
0.0
 11
-3.747131395600661
 21
-30.09999999999988
 31
0.0
  0
LINE
  5
1BB
330
2
100
AcDbEntity
  8
GEB-KONTUR-A
 48
25.0
100
AcDbLine
 10
-3.747131395600661
 20
-30.09999999999988
 30
0.0
 11
-3.747131395601172
 21
-28.29999999999987
 31
0.0
  0
LINE
  5
1BC
330
2
100
AcDbEntity
  8
GEB-KONTUR-A
 48
25.0
100
AcDbLine
 10
-2.909536998839314
 20
-28.29999999999967
 30
0.0
 11
-2.909536998838802
 21
-30.09999999999966
 31
0.0
  0
LINE
  5
1BD
330
2
100
AcDbEntity
  8
GEB-KONTUR-A
 48
25.0
100
AcDbLine
 10
-2.866231778798464
 20
-30.09999999999957
 30
0.0
 11
-3.240678166096131
 21
-30.09999999999974
 31
0.0
  0
LINE
  5
1BE
330
2
100
AcDbEntity
  8
GEB-KONTUR-A
 48
25.0
100
AcDbLine
 10
-1.164305468571058
 20
-28.2999999999987
 30
0.0
 11
-2.277725201216071
 21
-28.29999999999913
 31
0.0
  0
LINE
  5
1BF
330
2
100
AcDbEntity
  8
GEB-KONTUR-A
 48
25.0
100
AcDbLine
 10
-1.164305468571058
 20
-28.2999999999987
 30
0.0
 11
-1.164305468570489
 21
-30.09999999999872
 31
0.0
  0
LINE
  5
1C0
330
2
100
AcDbEntity
  8
GEB-KONTUR-A
 48
25.0
100
AcDbLine
 10
-1.164305468570489
 20
-30.09999999999872
 30
0.0
 11
-1.385202214238404
 21
-30.09999999999891
 31
0.0
  0
LINE
  5
1C1
330
2
100
AcDbEntity
  8
GEB-KONTUR-A
 48
25.0
100
AcDbLine
 10
-1.825390342693935
 20
-30.09999999999909
 30
0.0
 11
-2.277725201215503
 21
-30.09999999999911
 31
0.0
  0
LINE
  5
1C2
330
2
100
AcDbEntity
  8
GEB-KONTUR-A
 48
25.0
100
AcDbLine
 10
-2.277725201215503
 20
-30.09999999999911
 30
0.0
 11
-2.277725201216071
 21
-28.29999999999913
 31
0.0
  0
LINE
  5
1C3
330
2
100
AcDbEntity
  8
GEB-KONTUR-A
 48
25.0
100
AcDbLine
 10
-1.529634122147569
 20
-28.29999999999902
 30
0.0
 11
-1.529634122147058
 21
-30.09999999999906
 31
0.0
  0
LINE
  5
1C4
330
2
100
AcDbEntity
  8
GEB-KONTUR-A
 48
25.0
100
AcDbLine
 10
-1.385202214238404
 20
-30.09999999999891
 30
0.0
 11
-1.825390342693935
 21
-30.09999999999909
 31
0.0
  0
LINE
  5
1C5
330
2
100
AcDbEntity
  8
GEB-KONTUR-A
 48
25.0
100
AcDbLine
 10
5.375000000000966
 20
-3.249999999998237
 30
0.0
 11
5.374999999999886
 21
0.4750000000006481
 31
0.0
  0
LINE
  5
1C6
330
2
100
AcDbEntity
  8
GEB-KONTUR-A
 48
25.0
100
AcDbLine
 10
-5.37500000000017
 20
0.4749999999974364
 30
0.0
 11
-5.374999999999062
 21
-3.250000000001449
 31
0.0
  0
LINE
  5
1C7
330
2
100
AcDbEntity
  8
GEB-KONTUR-A
 48
25.0
100
AcDbLine
 10
4.900000000004581
 20
-15.39999999999853
 30
0.0
 11
4.900000000003899
 21
-13.09999999999854
 31
0.0
  0
LINE
  5
1C8
330
2
100
AcDbEntity
  8
GEB-KONTUR-A
 48
25.0
100
AcDbLine
 10
-4.899999999995429
 20
-15.40000000000145
 30
0.0
 11
-4.899999999996111
 21
-13.10000000000144
 31
0.0
  0
LINE
  5
1C9
330
2
100
AcDbEntity
  8
GEB-KONTUR-A
 48
25.0
100
AcDbLine
 10
5.375000000003581
 20
-12.19671855483182
 30
0.0
 11
5.375000000000966
 21
-3.249999999998237
 31
0.0
  0
LINE
  5
1CA
330
2
100
AcDbEntity
  8
GEB-KONTUR-A
 48
25.0
100
AcDbLine
 10
-5.37499999999639
 20
-12.196718554835
 30
0.0
 11
-5.374999999999033
 21
-3.250000000001449
 31
0.0
  0
ARC
  5
1CB
330
2
100
AcDbEntity
  8
GEB-KONTUR-A
 48
25.0
100
AcDbCircle
 10
-0.0000000000001705
 20
0.474999999999028
 30
0.0
 40
5.375000000000001
100
AcDbArc
 50
0.0
 51
180.0
  0
SPLINE
  5
1CC
330
2
100
AcDbEntity
  8
GEB-KONTUR-A
 48
25.0
100
AcDbSpline
210
0.0
220
0.0
230
1.0
 70
     8
 71
     3
 72
    18
 73
    14
 74
     0
 42
0.0000000001
 43
0.0000000001
 40
-0.00365285286163
 40
-0.00365285286163
 40
-0.00365285286163
 40
-0.00365285286163
 40
0.0
 40
0.0
 40
0.1474954328323226
 40
0.1474954328323226
 40
0.2965182819326153
 40
0.2965182819326153
 40
0.5132960418817844
 40
0.5132960418817844
 40
0.7237257042892292
 40
0.7237257042892292
 40
0.9170436276696113
 40
0.9170436276696113
 40
0.9170436276696113
 40
0.9170436276696113
 10
0.0000000000029559
 20
-10.11480577065219
 30
0.0
 10
0.0117408439582505
 20
-10.11803251052464
 30
0.0
 10
0.0234816586963689
 20
-10.12125924235158
 30
0.0
 10
0.5092857946159484
 20
-10.25477507023029
 30
0.0
 10
0.981016504645936
 20
-10.38451055476557
 30
0.0
 10
1.899925931490088
 20
-10.64411982744243
 30
0.0
 10
2.342962365706682
 20
-10.77290506666736
 30
0.0
 10
3.355035283140125
 20
-11.0847650088958
 30
0.0
 10
3.880666879417503
 20
-11.2631453018343
 30
0.0
 10
4.709880946378973
 20
-11.60166844450873
 30
0.0
 10
5.012249010775406
 20
-11.75928256325159
 30
0.0
 10
5.353917245523007
 20
-12.04383373380469
 30
0.0
 10
5.409900238923398
 20
-12.17002894107364
 30
0.0
 10
5.353970684802845
 20
-12.28603850584159
 30
0.0
  0
SPLINE
  5
1CD
330
2
100
AcDbEntity
  8
GEB-KONTUR-A
 48
25.0
100
AcDbSpline
210
0.0
220
0.0
230
1.0
 70
     8
 71
     3
 72
    18
 73
    14
 74
     0
 42
0.0000000001
 43
0.0000000001
 40
0.2047109816425182
 40
0.2047109816425182
 40
0.2047109816425182
 40
0.2047109816425182
 40
0.3978445545899429
 40
0.3978445545899429
 40
0.6080735485922303
 40
0.6080735485922303
 40
0.8246445865096106
 40
0.8246445865096106
 40
0.9735253255237182
 40
0.9735253255237182
 40
1.120880104833452
 40
1.120880104833452
 40
1.124529474288088
 40
1.124529474288088
 40
1.124529474288088
 40
1.124529474288088
 10
-5.353970684795569
 20
-12.28603850584474
 30
0.0
 10
-5.409900238916122
 20
-12.17002894107685
 30
0.0
 10
-5.353917245515873
 20
-12.04383373380784
 30
0.0
 10
-5.012249010768414
 20
-11.75928256325454
 30
0.0
 10
-4.709880946372095
 20
-11.60166844451154
 30
0.0
 10
-3.880666879410796
 20
-11.26314530183657
 30
0.0
 10
-3.355035283133531
 20
-11.08476500889779
 30
0.0
 10
-2.342962365700316
 20
-10.77290506666872
 30
0.0
 10
-1.899925931483778
 20
-10.64411982744357
 30
0.0
 10
-0.9810165046397401
 20
-10.38451055476613
 30
0.0
 10
-0.5092857946098662
 20
-10.25477507023072
 30
0.0
 10
-0.0234816586904003
 20
-10.12125924235158
 30
0.0
 10
-0.0117408439522251
 20
-10.11803251052464
 30
0.0
 10
0.0000000000029559
 20
-10.11480577065219
 30
0.0
  0
SPLINE
  5
1CE
330
2
100
AcDbEntity
  8
GEB-VERDECKT
 48
25.0
100
AcDbSpline
210
0.0
220
0.0
230
1.0
 70
     8
 71
     3
 72
    10
 73
     6
 74
     0
 42
0.0000000001
 43
0.0000000001
 40
-0.6106210900467059
 40
-0.6106210900467059
 40
-0.6106210900467059
 40
-0.6106210900467059
 40
-0.6076367979289902
 40
-0.6076367979289902
 40
0.0
 40
0.0
 40
0.0
 40
0.0
 10
-5.374999999996987
 20
-10.10000000000144
 30
0.0
 10
-5.374999999996987
 20
-10.08725447417254
 30
0.0
 10
-5.375000000034049
 20
-10.0745084624435
 30
0.0
 10
-5.3749999697161
 20
-7.466628989123023
 30
0.0
 10
-5.390642652385935
 20
-5.172856453751222
 30
0.0
 10
-5.259289418667776
 20
-3.250000000001733
 30
0.0
  0
SPLINE
  5
1CF
330
2
100
AcDbEntity
  8
GEB-VERDECKT
 48
25.0
100
AcDbSpline
210
0.0
220
0.0
230
1.0
 70
     8
 71
     3
 72
    10
 73
     6
 74
     0
 42
0.0000000001
 43
0.0000000001
 40
-0.7785722796941564
 40
-0.7785722796941564
 40
-0.7785722796941564
 40
-0.7785722796941564
 40
0.0
 40
0.0
 40
0.0038237054970895
 40
0.0038237054970895
 40
0.0038237054970895
 40
0.0038237054970895
 10
5.259289418669652
 20
-3.249999999998635
 30
0.0
 10
5.39063614498076
 20
-5.172761192964912
 30
0.0
 10
5.374999969719283
 20
-7.466526266380213
 30
0.0
 10
5.375000000040074
 20
-10.07450862160067
 30
0.0
 10
5.375000000003012
 20
-10.08725431500795
 30
0.0
 10
5.375000000003012
 20
-10.09999999999826
 30
0.0
  0
ARC
  5
1D0
330
2
100
AcDbEntity
  8
GEB-VERDECKT
 48
25.0
100
AcDbCircle
 10
-0.0000000000001705
 20
0.4749999999970101
 30
0.0
 40
5.375000000000001
100
AcDbArc
 50
191.9101473631587
 51
348.0898526368752
  0
ARC
  5
1D1
330
2
100
AcDbEntity
  8
GEB-VERDECKT
 48
25.0
100
AcDbCircle
 10
-0.0000000000001705
 20
0.474999999999028
 30
0.0
 40
5.374999999999992
100
AcDbArc
 50
180.0
 51
191.9101473631587
  0
ARC
  5
1D2
330
2
100
AcDbEntity
  8
GEB-VERDECKT
 48
25.0
100
AcDbCircle
 10
-0.0000000000000568
 20
0.474999999999028
 30
0.0
 40
5.374999999999928
100
AcDbArc
 50
348.0898526368752
 51
0.0
  0
SPLINE
  5
1D3
330
2
100
AcDbEntity
  8
GEB-VERDECKT
 48
25.0
100
AcDbSpline
210
0.0
220
0.0
230
1.0
 70
     8
 71
     3
 72
    14
 73
    10
 74
     0
 42
0.0000000001
 43
0.0000000001
 40
0.2508045826246673
 40
0.2508045826246673
 40
0.2508045826246673
 40
0.2508045826246673
 40
0.2898510988958671
 40
0.2898510988958671
 40
0.4451891737622319
 40
0.4451891737622319
 40
0.6005272486285973
 40
0.6005272486285973
 40
0.6395737648997976
 40
0.6395737648997976
 40
0.6395737648997976
 40
0.6395737648997976
 10
5.259289418668913
 20
-0.6342789598102741
 30
0.0
 10
5.250899109243562
 20
-0.6740589134369657
 30
0.0
 10
5.242742285548104
 20
-0.7191505874484392
 30
0.0
 10
5.204713343531977
 20
-0.9711419786214321
 30
0.0
 10
5.184396584003764
 20
-1.254377295380834
 30
0.0
 10
5.184396584003934
 20
-1.983995733649408
 30
0.0
 10
5.204713343532432
 20
-2.412883989584742
 30
0.0
 10
5.242742285548786
 20
-3.006006588513542
 30
0.0
 10
5.250899109244244
 20
-3.127175763618254
 30
0.0
 10
5.259289418669652
 20
-3.249999999998635
 30
0.0
  0
SPLINE
  5
1D4
330
2
100
AcDbEntity
  8
GEB-VERDECKT
 48
25.0
100
AcDbSpline
210
0.0
220
0.0
230
1.0
 70
     8
 71
     3
 72
    14
 73
    10
 74
     0
 42
0.0000000001
 43
0.0000000001
 40
0.2508045650340025
 40
0.2508045650340025
 40
0.2508045650340025
 40
0.2508045650340025
 40
0.2898510783149191
 40
0.2898510783149191
 40
0.4451891412850954
 40
0.4451891412850954
 40
0.6005272042552711
 40
0.6005272042552711
 40
0.6395737175361874
 40
0.6395737175361874
 40
0.6395737175361874
 40
0.6395737175361874
 10
-5.259289418667776
 20
-3.250000000001733
 30
0.0
 10
-5.250899109242425
 20
-3.12717576362138
 30
0.0
 10
-5.242742285547024
 20
-3.006006588516669
 30
0.0
 10
-5.204713343531011
 20
-2.412883989587783
 30
0.0
 10
-5.184396584002797
 20
-1.983995733652477
 30
0.0
 10
-5.184396584003025
 20
-1.254377295383932
 30
0.0
 10
-5.204713343531437
 20
-0.9711419786245301
 30
0.0
 10
-5.242742285547706
 20
-0.7191505874515656
 30
0.0
 10
-5.250899109243107
 20
-0.6740589134400921
 30
0.0
 10
-5.259289418668572
 20
-0.6342789598134005
 30
0.0
  0
SPLINE
  5
1D5
330
2
100
AcDbEntity
  8
GEB-VERDECKT
 48
25.0
100
AcDbSpline
210
0.0
220
0.0
230
1.0
 70
     8
 71
     3
 72
    14
 73
    10
 74
     0
 42
0.0000000001
 43
0.0000000001
 40
1.057896341484107
 40
1.057896341484107
 40
1.057896341484107
 40
1.057896341484107
 40
1.060668975087881
 40
1.060668975087881
 40
1.258595373400091
 40
1.258595373400091
 40
1.444115818387808
 40
1.444115818387808
 40
1.629636263375525
 40
1.629636263375525
 40
1.629636263375525
 40
1.629636263375525
 10
4.808098810720139
 20
-12.61480577065311
 30
0.0
 10
4.803744057229152
 20
-12.61618983768895
 30
0.0
 10
4.799365490051229
 20
-12.61757238314902
 30
0.0
 10
4.480703793175109
 20
-12.71753608519657
 30
0.0
 10
4.039258508783291
 20
-12.80776318179673
 30
0.0
 10
3.084332324338049
 20
-12.94495980177009
 30
0.0
 10
2.513813472953358
 20
-13.00331439042014
 30
0.0
 10
1.28086197624367
 20
-13.08088824486927
 30
0.0
 10
0.6184014832962817
 20
-13.10000000000127
 30
0.0
 10
0.0000000000038654
 20
-13.10000000000144
 30
0.0
  0
SPLINE
  5
1D6
330
2
100
AcDbEntity
  8
GEB-VERDECKT
 48
25.0
100
AcDbSpline
210
0.0
220
0.0
230
1.0
 70
     8
 71
     3
 72
    14
 73
    10
 74
     0
 42
0.0000000001
 43
0.0000000001
 40
1.629636263375525
 40
1.629636263375525
 40
1.629636263375525
 40
1.629636263375525
 40
1.815156708363241
 40
1.815156708363241
 40
2.000677153350958
 40
2.000677153350958
 40
2.198603551663169
 40
2.198603551663169
 40
2.201376185266944
 40
2.201376185266944
 40
2.201376185266944
 40
2.201376185266944
 10
0.0000000000038654
 20
-13.10000000000144
 30
0.0
 10
-0.618401483288551
 20
-13.10000000000167
 30
0.0
 10
-1.280861976235939
 20
-13.08088824487004
 30
0.0
 10
-2.513813472945685
 20
-13.00331439042165
 30
0.0
 10
-3.084332324330375
 20
-12.94495980177191
 30
0.0
 10
-4.039258508775731
 20
-12.80776318179914
 30
0.0
 10
-4.480703793167606
 20
-12.71753608519924
 30
0.0
 10
-4.799365490043726
 20
-12.61757238315192
 30
0.0
 10
-4.803744057221706
 20
-12.61618983769179
 30
0.0
 10
-4.808098810712635
 20
-12.61480577065597
 30
0.0
  0
SPLINE
  5
1D7
330
2
100
AcDbEntity
  8
GEB-VERDECKT
 48
25.0
100
AcDbSpline
210
0.0
220
0.0
230
1.0
 70
     8
 71
     3
 72
    10
 73
     6
 74
     0
 42
0.0000000001
 43
0.0000000001
 40
0.9170436276696113
 40
0.9170436276696113
 40
0.9170436276696113
 40
0.9170436276696113
 40
0.9268349993786625
 40
0.9268349993786625
 40
1.121950010647704
 40
1.121950010647704
 40
1.121950010647704
 40
1.121950010647704
 10
5.353970684802845
 20
-12.28603850584159
 30
0.0
 10
5.35113790528436
 20
-12.29191428161331
 30
0.0
 10
5.348018033419123
 20
-12.29776392787531
 30
0.0
 10
5.276707979680338
 20
-12.41963369128621
 30
0.0
 10
5.095660430530074
 20
-12.52341034274295
 30
0.0
 10
4.808098810719968
 20
-12.61480577065311
 30
0.0
  0
SPLINE
  5
1D8
330
2
100
AcDbEntity
  8
GEB-VERDECKT
 48
25.0
100
AcDbSpline
210
0.0
220
0.0
230
1.0
 70
     8
 71
     3
 72
    10
 73
     6
 74
     0
 42
0.0000000001
 43
0.0000000001
 40
0.0
 40
0.0
 40
0.0
 40
0.0
 40
0.1949289471101908
 40
0.1949289471101908
 40
0.2047109816425182
 40
0.2047109816425182
 40
0.2047109816425182
 40
0.2047109816425182
 10
-4.808098810712522
 20
-12.61480577065595
 30
0.0
 10
-5.095660430522684
 20
-12.52341034274599
 30
0.0
 10
-5.276707979672977
 20
-12.41963369128933
 30
0.0
 10
-5.348018033411818
 20
-12.29776392787846
 30
0.0
 10
-5.351137905277084
 20
-12.29191428161653
 30
0.0
 10
-5.353970684795569
 20
-12.28603850584474
 30
0.0
  0
LINE
  5
1D9
330
2
100
AcDbEntity
  8
GEB-KONTUR-A
 48
25.0
100
AcDbLine
 10
4.900000000003899
 20
-13.09999999999854
 30
0.0
 11
5.180127018925929
 21
-12.61480577065242
 31
0.0
  0
LINE
  5
1DA
330
2
100
AcDbEntity
  8
GEB-KONTUR-A
 48
25.0
100
AcDbLine
 10
-4.899999999996111
 20
-13.10000000000144
 30
0.0
 11
-5.180127018918454
 21
-12.61480577065549
 31
0.0
  0
ARC
  5
1DB
330
2
100
AcDbEntity
  8
GEB-KONTUR-A
 48
25.0
100
AcDbCircle
 10
0.8500000000029785
 20
-10.1148057706537
 30
0.0
 40
4.99999999999998
100
AcDbArc
 50
330.0000000000171
 51
334.2626449674722
  0
ARC
  5
1DC
330
2
100
AcDbEntity
  8
GEB-KONTUR-A
 48
25.0
100
AcDbCircle
 10
-0.84999999999701
 20
-10.11480577065418
 30
0.0
 40
4.99999999999998
100
AcDbArc
 50
205.7373550325614
 51
210.0000000000165
  0
LINE
  5
1DD
330
2
100
AcDbEntity
  8
GEB-KONTUR-A
 48
25.0
100
AcDbLine
 10
-4.899999999996168
 20
-13.10000000000144
 30
0.0
 11
4.900000000003899
 21
-13.09999999999854
 31
0.0
  0
CIRCLE
  5
1DE
330
2
100
AcDbEntity
  8
GEB-VERDECKT
 48
25.0
100
AcDbCircle
 10
0.0
 20
-0.0000000000039506
 30
0.0
 40
4.899999999999998
  0
LINE
  5
1DF
330
2
100
AcDbEntity
  8
GEB-VERDECKT
 48
25.0
100
AcDbLine
 10
3.250000000005286
 20
-17.99999999999903
 30
0.0
 11
3.250000000000966
 21
-3.249999999999033
 31
0.0
  0
LINE
  5
1E0
330
2
100
AcDbEntity
  8
GEB-VERDECKT
 48
25.0
100
AcDbLine
 10
-3.249999999994656
 20
-18.00000000000096
 30
0.0
 11
-3.249999999999033
 21
-3.250000000000966
 31
0.0
  0
LINE
  5
1E1
330
2
100
AcDbEntity
  8
GEB-VERDECKT
 48
25.0
100
AcDbLine
 10
3.250000000000966
 20
-3.249999999999033
 30
0.0
 11
3.25
 21
0.0
 31
0.0
  0
LINE
  5
1E2
330
2
100
AcDbEntity
  8
GEB-VERDECKT
 48
25.0
100
AcDbLine
 10
-3.25
 20
-0.0000000000019327
 30
0.0
 11
-3.249999999999033
 21
-3.250000000000966
 31
0.0
  0
CIRCLE
  5
1E3
330
2
100
AcDbEntity
  8
GEB-VERDECKT
 48
25.0
100
AcDbCircle
 10
0.0
 20
-0.0000000000009663
 30
0.0
 40
3.25
  0
LINE
  5
1E4
330
2
100
AcDbEntity
  8
GEB-KONTUR-A
 48
25.0
100
AcDbLine
 10
-7.983974596210998
 20
-15.40000000000236
 30
0.0
 11
-8.849999999995304
 21
-15.90000000000262
 31
0.0
  0
LINE
  5
1E5
330
2
100
AcDbEntity
  8
GEB-KONTUR-A
 48
25.0
100
AcDbLine
 10
7.983974596220093
 20
-15.39999999999764
 30
0.0
 11
8.850000000004683
 21
-15.89999999999736
 31
0.0
  0
LINE
  5
1E6
330
2
100
AcDbEntity
  8
GEB-KONTUR-A
 48
25.0
100
AcDbLine
 10
8.850000000005195
 20
-17.50925227118617
 30
0.0
 11
8.850000000004683
 21
-15.89999999999736
 31
0.0
  0
LINE
  5
1E7
330
2
100
AcDbEntity
  8
GEB-KONTUR-A
 48
25.0
100
AcDbLine
 10
-8.849999999994793
 20
-17.50925227119143
 30
0.0
 11
-8.849999999995304
 21
-15.90000000000262
 31
0.0
  0
LINE
  5
1E8
330
2
100
AcDbEntity
  8
GEB-KONTUR-A
 48
25.0
100
AcDbLine
 10
8.000000000005343
 20
-17.99999999999761
 30
0.0
 11
8.850000000005195
 21
-17.50925227118617
 31
0.0
  0
LINE
  5
1E9
330
2
100
AcDbEntity
  8
GEB-KONTUR-A
 48
25.0
100
AcDbLine
 10
-7.999999999994685
 20
-18.00000000000238
 30
0.0
 11
-8.849999999994793
 21
-17.50925227119143
 31
0.0
  0
LINE
  5
1EA
330
2
100
AcDbEntity
  8
GEB-KONTUR-A
 48
25.0
100
AcDbLine
 10
7.983974596220093
 20
-15.39999999999762
 30
0.0
 11
-7.98397459621097
 21
-15.40000000000236
 31
0.0
  0
LINE
  5
1EB
330
2
100
AcDbEntity
  8
GEB-KONTUR-A
 48
25.0
100
AcDbLine
 10
8.85000000000474
 20
-15.89999999999736
 30
0.0
 11
-8.849999999995304
 21
-15.90000000000262
 31
0.0
  0
LINE
  5
1EC
330
2
100
AcDbEntity
  8
GEB-KONTUR-A
 48
25.0
100
AcDbLine
 10
8.000000000005343
 20
-17.99999999999761
 30
0.0
 11
-7.999999999994685
 21
-18.00000000000238
 31
0.0
  0
LINE
  5
1ED
330
2
100
AcDbEntity
  8
GEB-KONTUR-A
 48
25.0
100
AcDbLine
 10
8.850000000005195
 20
-17.50925227118617
 30
0.0
 11
-8.849999999994849
 21
-17.50925227119143
 31
0.0
  0
ARC
  5
1EE
330
2
100
AcDbEntity
  8
GEB-KONTUR-A
 48
25.0
100
AcDbCircle
 10
0.0
 20
-0.000000000004718
 30
0.0
 40
8.849999999999999
100
AcDbArc
 50
307.3977492862059
 51
232.6022507138302
  0
ARC
  5
1EF
330
2
100
AcDbEntity
  8
GEB-KONTUR-A
 48
25.0
100
AcDbCircle
 10
0.0
 20
-0.0000000000045759
 30
0.0
 40
7.983974596215565
100
AcDbArc
 50
312.3163528478796
 51
227.6836471521561
  0
CIRCLE
  5
1F0
330
2
100
AcDbEntity
  8
GEB-VERDECKT
 48
25.0
100
AcDbCircle
 10
0.0
 20
-0.0000000000053433
 30
0.0
 40
8.0
  0
ARC
  5
1F1
330
2
100
AcDbEntity
  8
GEB-VERDECKT
 48
25.0
100
AcDbCircle
 10
0.0
 20
-0.000000000004718
 30
0.0
 40
8.849999999999999
100
AcDbArc
 50
232.6022507138302
 51
307.3977492862059
  0
ARC
  5
1F2
330
2
100
AcDbEntity
  8
GEB-VERDECKT
 48
25.0
100
AcDbCircle
 10
0.0
 20
-0.0000000000045759
 30
0.0
 40
7.983974596215564
100
AcDbArc
 50
227.6836471521561
 51
312.3163528478785
  0
TEXT
  5
1F3
330
2
100
AcDbEntity
  8
GEB-TEXT
100
AcDbText
 10
-30.57008867667122
 20
-54.50000000000142
 30
0.0
 40
3.5
  1
Winkel MEP PVDF 90G d16
 72
     1
 11
0.0
 21
-54.50000000000142
 31
0.0
100
AcDbText
  0
TEXT
  5
1F5
330
2
100
AcDbEntity
  8
GEB-TEXT
100
AcDbText
 10
-15.35487721691678
 20
-49.00000000000142
 30
0.0
 40
3.5
  1
Geberit Mepla
 72
     1
 11
0.0
 21
-49.00000000000142
 31
0.0
100
AcDbText
  0
TEXT
  5
1F6
330
2
100
AcDbEntity
  8
GEB-ART-NR
100
AcDbText
 10
-26.87528061034451
 20
-60.84278125428165
 30
0.0
 40
3.5
  1
GEB-ART-NR 621.271
 72
     1
 11
-2.147279246088032
 21
-60.84278125428165
 31
0.0
100
AcDbText
  0
ENDSEC
  0
SECTION
  2
OBJECTS
  0
DICTIONARY
  5
9
330
0
100
AcDbDictionary
281
     1
  3
ACAD_2007HEADERVARS_RT
350
2AD
  3
ACAD_COLOR
350
44
  3
ACAD_GROUP
350
31
  3
ACAD_LAYOUT
350
16
  3
ACAD_MATERIAL
350
B
  3
ACAD_MLEADERSTYLE
350
47
  3
ACAD_MLINESTYLE
350
32
  3
ACAD_PLOTSETTINGS
350
33
  3
ACAD_PLOTSTYLENAME
350
8
  3
ACAD_SCALELIST
350
45
  3
ACAD_TABLESTYLE
350
46
  3
ACAD_VISUALSTYLE
350
2B
  3
ACDB_RECOMPOSE_DATA
350
2AC
  3
AcDbVariableDictionary
350
256
  3
AcmDictionary
350
209
  3
AcmSystemVariableManager
350
2C4
  3
AMG
350
1FA
  0
DICTIONARY
  5
2C
330
28
100
AcDbDictionary
280
     1
281
     1
  0
DICTIONARY
  5
1C
330
1B
100
AcDbDictionary
280
     1
281
     1
  3
ACAD_LAYERFILTERS
360
1D
  3
ACLYDICTIONARY
360
1E
  0
DICTIONARY
  5
3
330
2
100
AcDbDictionary
280
     1
281
     1
  3
ACAD_SORTENTS
360
1F8
  0
DICTIONARY
  5
2AD
102
{ACAD_REACTORS
330
9
102
}
330
9
100
AcDbDictionary
281
     1
  3
DIMARCSYM
350
2AE
  3
DIMLTEX1
350
2B0
  3
DIMLTEX2
350
2B1
  3
DIMLTYPE
350
2AF
  0
DICTIONARY
  5
44
102
{ACAD_REACTORS
330
9
102
}
330
9
100
AcDbDictionary
281
     1
  0
DICTIONARY
  5
31
102
{ACAD_REACTORS
330
9
102
}
330
9
100
AcDbDictionary
281
     1
  0
DICTIONARY
  5
16
102
{ACAD_REACTORS
330
9
102
}
330
9
100
AcDbDictionary
281
     1
  3
Layout1
350
1A
  3
Model
350
15
  0
DICTIONARY
  5
B
102
{ACAD_REACTORS
330
9
102
}
330
9
100
AcDbDictionary
281
     1
  3
ByBlock
350
3C
  3
ByLayer
350
34
  3
Global
350
A
  0
DICTIONARY
  5
47
102
{ACAD_REACTORS
330
9
102
}
330
9
100
AcDbDictionary
281
     1
  3
Standard
350
274
  0
DICTIONARY
  5
32
102
{ACAD_REACTORS
330
9
102
}
330
9
100
AcDbDictionary
281
     1
  3
Standard
350
48
  0
DICTIONARY
  5
33
102
{ACAD_REACTORS
330
9
102
}
330
9
100
AcDbDictionary
281
     1
  0
ACDBDICTIONARYWDFLT
  5
8
102
{ACAD_REACTORS
330
9
102
}
330
9
100
AcDbDictionary
281
     1
  3
Normal
350
7
100
AcDbDictionaryWithDefault
340
7
  0
DICTIONARY
  5
45
102
{ACAD_REACTORS
330
9
102
}
330
9
100
AcDbDictionary
281
     1
  3
A0
350
4D
  3
A1
350
4E
  3
A2
350
4F
  3
A3
350
50
  3
A4
350
51
  3
A5
350
52
  3
A6
350
53
  3
A7
350
54
  3
A8
350
55
  3
A9
350
56
  3
B0
350
57
  3
B1
350
58
  3
B2
350
59
  3
B3
350
5A
  3
B4
350
5B
  3
B5
350
5C
  3
B6
350
5D
  3
B7
350
5E
  3
B8
350
5F
  3
B9
350
60
  3
C0
350
61
  3
C1
350
62
  3
C2
350
63
  3
C3
350
64
  3
C4
350
65
  3
C5
350
66
  3
C6
350
67
  3
C7
350
68
  3
C8
350
69
  3
C9
350
6A
  3
D0
350
6B
  3
D1
350
6C
  3
D2
350
6D
  0
DICTIONARY
  5
46
102
{ACAD_REACTORS
330
9
102
}
330
9
100
AcDbDictionary
281
     1
  3
Standard
350
49
  0
DICTIONARY
  5
2B
102
{ACAD_REACTORS
330
9
102
}
330
9
100
AcDbDictionary
281
     1
  3
2dWireframe
350
2A
  3
Basic
350
263
  3
Brighten
350
267
  3
ColorChange
350
26B
  3
Conceptual
350
265
  3
Dim
350
266
  3
EdgeColorOff
350
273
  3
Facepattern
350
26A
  3
Flat
350
25F
  3
FlatWithEdges
350
260
  3
Gouraud
350
261
  3
GouraudWithEdges
350
262
  3
Hidden
350
264
  3
JitterOff
350
271
  3
Linepattern
350
269
  3
OverhangOff
350
272
  3
Realistic
350
4B
  3
Shaded
350
270
  3
Shaded with edges
350
26F
  3
Shades of Gray
350
26C
  3
Sketchy
350
26D
  3
Thicken
350
268
  3
Wireframe
350
4C
  3
X-Ray
350
26E
  0
XRECORD
  5
2AC
102
{ACAD_REACTORS
330
9
102
}
330
9
100
AcDbXrecord
280
     1
 90
        1
330
49
  0
DICTIONARY
  5
256
102
{ACAD_REACTORS
330
9
102
}
330
9
100
AcDbDictionary
281
     1
  3
CANNOSCALE
350
25A
  3
CMLEADERSTYLE
350
258
  3
CTABLESTYLE
350
257
  3
DIMASSOC
350
2A9
  3
HIDETEXT
350
2A8
  3
INDEXCTL
350
2A7
  3
LAYEREVAL
350
25C
  3
LAYERNOTIFY
350
25D
  3
LIGHTINGUNITS
350
25B
  3
MSLTSCALE
350
259
  3
SORTENTS
350
2A6
  3
XCLIPFRAME
350
2AA
  0
DICTIONARY
  5
209
102
{ACAD_REACTORS
330
9
102
}
330
9
100
AcDbDictionary
281
     1
  3
AcmStdDictionary
350
20A
  0
DICTIONARY
  5
1FA
102
{ACAD_REACTORS
330
9
102
}
330
9
100
AcDbDictionary
281
     1
  3
AcMgSettings
350
204
  0
DICTIONARY
  5
1D
102
{ACAD_REACTORS
330
1C
102
}
330
1C
100
AcDbDictionary
281
     1
  0
DICTIONARY
  5
1E
102
{ACAD_REACTORS
330
1C
102
}
330
1C
100
AcDbDictionary
281
     1
1001
ACAD
1000
<All
  0
SORTENTSTABLE
  5
1F8
102
{ACAD_REACTORS
330
3
102
}
330
3
100
AcDbSortentsTable
330
2
331
B6
  5
1B6
331
B2
  5
1BA
331
12C
  5
141
331
1A6
  5
C6
331
AE
  5
1BE
331
167
  5
105
331
128
  5
145
331
ED
  5
17F
331
1A2
  5
CA
331
E9
  5
183
331
163
  5
10A
331
124
  5
149
331
AA
  5
1C2
331
1DD
  5
8F
331
19E
  5
CE
331
120
  5
14D
331
1D9
  5
93
331
19A
  5
D2
331
74
  5
1EF
331
E5
  5
187
331
A6
  5
1C6
331
15F
  5
10E
331
E1
  5
18B
331
A2
  5
1CA
331
15B
  5
112
331
11C
  5
151
331
196
  5
D6
331
1D5
  5
97
331
9E
  5
1CE
331
157
  5
116
331
118
  5
155
331
DD
  5
18F
331
1D1
  5
9B
331
192
  5
DA
331
D9
  5
193
331
153
  5
11A
331
114
  5
159
331
9A
  5
1D2
331
1CD
  5
9F
331
18E
  5
DE
331
110
  5
15D
331
1C9
  5
A3
331
18A
  5
E2
331
D5
  5
197
331
96
  5
1D6
331
14F
  5
11E
331
D1
  5
19B
331
92
  5
1DA
331
10C
  5
161
331
14B
  5
122
331
186
  5
E6
331
1C5
  5
A7
331
8E
  5
1DE
331
147
  5
126
331
108
  5
165
331
CD
  5
19F
331
1C1
  5
AB
331
182
  5
EA
331
C9
  5
1A3
331
143
  5
12A
331
104
  5
168
331
8A
  5
1E2
331
1BD
  5
AF
331
17E
  5
EE
331
100
  5
16C
331
1B9
  5
B3
331
17A
  5
F2
331
1F0
  5
73
331
C5
  5
1A7
331
13F
  5
12E
331
86
  5
1E6
331
C1
  5
1AB
331
FC
  5
170
331
13B
  5
132
331
176
  5
F6
331
1B5
  5
B7
331
7E
  5
1EC
331
137
  5
136
331
F8
  5
174
331
BD
  5
1AF
331
1B1
  5
BB
331
1EC
  5
7E
331
172
  5
FA
331
133
  5
13A
331
F4
  5
178
331
B9
  5
1B3
331
1AD
  5
BF
331
1E8
  5
84
331
16E
  5
FE
331
F0
  5
17C
331
1A9
  5
C3
331
1E4
  5
88
331
16A
  5
102
331
1E0
  5
8C
331
12F
  5
13E
331
B5
  5
1B7
331
B1
  5
1BB
331
12B
  5
142
331
1A5
  5
C7
331
AD
  5
1BF
331
166
  5
106
331
127
  5
146
331
EC
  5
180
331
1A1
  5
CB
331
E8
  5
184
331
162
  5
10B
331
123
  5
14A
331
A9
  5
1C3
331
1DC
  5
90
331
19D
  5
CF
331
199
  5
D3
331
1D8
  5
94
331
73
  5
1F0
331
E4
  5
188
331
A5
  5
1C7
331
11F
  5
14E
331
15E
  5
10F
331
E0
  5
18C
331
A1
  5
1CB
331
15A
  5
113
331
11B
  5
152
331
195
  5
D7
331
1D4
  5
98
331
9D
  5
1CF
331
156
  5
117
331
117
  5
156
331
DC
  5
190
331
1D0
  5
9C
331
191
  5
DB
331
D8
  5
194
331
152
  5
11B
331
113
  5
15A
331
99
  5
1D3
331
1CC
  5
A0
331
18D
  5
DF
331
1C8
  5
A4
331
189
  5
E3
331
D4
  5
198
331
95
  5
1D7
331
10F
  5
15E
331
14E
  5
11F
331
D0
  5
19C
331
91
  5
1DB
331
14A
  5
123
331
10B
  5
162
331
185
  5
E7
331
1C4
  5
A8
331
8D
  5
1DF
331
146
  5
127
331
CC
  5
1A0
331
1C0
  5
AC
331
181
  5
EB
331
C8
  5
1A4
331
142
  5
12B
331
103
  5
169
331
89
  5
1E3
331
1BC
  5
B0
331
17D
  5
EF
331
1B8
  5
B4
331
179
  5
F3
331
1F3
  5
1F6
331
C4
  5
1A8
331
85
  5
1E7
331
FF
  5
16D
331
13E
  5
12F
331
C0
  5
1AC
331
81
  5
1E9
331
FB
  5
171
331
13A
  5
133
331
175
  5
F7
331
1EF
  5
74
331
1B4
  5
B8
331
136
  5
137
331
F7
  5
175
331
BC
  5
1B0
331
1B0
  5
BC
331
1EB
  5
7F
331
171
  5
FB
331
132
  5
13B
331
F3
  5
179
331
B8
  5
1B4
331
1AC
  5
C0
331
1E7
  5
85
331
16D
  5
FF
331
1A8
  5
C4
331
1E3
  5
89
331
169
  5
103
331
12E
  5
13F
331
B4
  5
1B8
331
B0
  5
1BC
331
1A4
  5
C8
331
12A
  5
143
331
EF
  5
17D
331
EB
  5
181
331
165
  5
108
331
1DF
  5
8D
331
1A0
  5
CC
331
126
  5
147
331
AC
  5
1C0
331
161
  5
10C
331
1DB
  5
91
331
19C
  5
D0
331
122
  5
14B
331
A8
  5
1C4
331
198
  5
D4
331
72
  5
1F1
331
E7
  5
185
331
E3
  5
189
331
A4
  5
1C8
331
1D7
  5
95
331
11E
  5
14F
331
15D
  5
110
331
A0
  5
1CC
331
159
  5
114
331
1D3
  5
99
331
194
  5
D8
331
11A
  5
153
331
DF
  5
18D
331
9C
  5
1D0
331
155
  5
118
331
1CF
  5
9D
331
190
  5
DC
331
6E
  5
1F2
331
116
  5
157
331
DB
  5
191
331
151
  5
11C
331
1CB
  5
A1
331
18C
  5
E0
331
112
  5
15B
331
98
  5
1D4
331
188
  5
E4
331
D7
  5
195
331
D3
  5
199
331
94
  5
1D8
331
1C7
  5
A5
331
10E
  5
15F
331
14D
  5
120
331
CF
  5
19D
331
90
  5
1DC
331
149
  5
124
331
184
  5
E8
331
1C3
  5
A9
331
10A
  5
163
331
8C
  5
1E0
331
145
  5
128
331
1BF
  5
AD
331
180
  5
EC
331
106
  5
166
331
CB
  5
1A1
331
141
  5
12C
331
1BB
  5
B1
331
1F6
  5
1F3
331
17C
  5
F0
331
102
  5
16A
331
88
  5
1E4
331
178
  5
F4
331
1F2
  5
6E
331
C7
  5
1A5
331
C3
  5
1A9
331
84
  5
1E8
331
1B7
  5
B5
331
FE
  5
16E
331
13D
  5
130
331
BF
  5
1AD
331
80
  5
1EA
331
139
  5
134
331
174
  5
F8
331
1EE
  5
75
331
1B3
  5
B9
331
FA
  5
172
331
7C
  5
1ED
331
135
  5
138
331
1AF
  5
BD
331
1EA
  5
80
331
170
  5
FC
331
F6
  5
176
331
BB
  5
1B1
331
131
  5
13C
331
1AB
  5
C1
331
1E6
  5
86
331
16C
  5
100
331
F2
  5
17A
331
168
  5
104
331
1E2
  5
8A
331
B7
  5
1B5
331
B3
  5
1B9
331
12D
  5
140
331
1A7
  5
C5
331
AF
  5
1BD
331
129
  5
144
331
EE
  5
17E
331
1A3
  5
C9
331
EA
  5
182
331
164
  5
109
331
125
  5
148
331
AB
  5
1C1
331
1DE
  5
8E
331
19F
  5
CD
331
121
  5
14C
331
160
  5
10D
331
1DA
  5
92
331
19B
  5
D1
331
75
  5
1EE
331
E6
  5
186
331
A7
  5
1C5
331
E2
  5
18A
331
A3
  5
1C9
331
11D
  5
150
331
15C
  5
111
331
197
  5
D5
331
1D6
  5
96
331
9F
  5
1CD
331
158
  5
115
331
119
  5
154
331
DE
  5
18E
331
1D2
  5
9A
331
193
  5
D9
331
DA
  5
192
331
154
  5
119
331
115
  5
158
331
9B
  5
1D1
331
1CE
  5
9E
331
18F
  5
DD
331
150
  5
11D
331
111
  5
15C
331
1CA
  5
A2
331
18B
  5
E1
331
D6
  5
196
331
97
  5
1D5
331
D2
  5
19A
331
93
  5
1D9
331
10D
  5
160
331
14C
  5
121
331
187
  5
E5
331
1C6
  5
A6
331
8F
  5
1DD
331
148
  5
125
331
109
  5
164
331
CE
  5
19E
331
1C2
  5
AA
331
183
  5
E9
331
8B
  5
1E1
331
144
  5
129
331
105
  5
167
331
CA
  5
1A2
331
1BE
  5
AE
331
17F
  5
ED
331
140
  5
12D
331
101
  5
16B
331
1BA
  5
B2
331
17B
  5
F1
331
1F1
  5
72
331
C6
  5
1A6
331
87
  5
1E5
331
C2
  5
1AA
331
FD
  5
16F
331
13C
  5
131
331
177
  5
F5
331
1B6
  5
B6
331
BE
  5
1AE
331
7F
  5
1EB
331
138
  5
135
331
F9
  5
173
331
173
  5
F9
331
1ED
  5
7C
331
1B2
  5
BA
331
134
  5
139
331
F5
  5
177
331
BA
  5
1B2
331
1AE
  5
BE
331
1E9
  5
81
331
16F
  5
FD
331
130
  5
13D
331
F1
  5
17B
331
1AA
  5
C2
331
1E5
  5
87
331
16B
  5
101
331
1E1
  5
8B
  0
XRECORD
  5
2AE
102
{ACAD_REACTORS
330
2AD
102
}
330
2AD
100
AcDbXrecord
280
     1
 70
     1
  0
XRECORD
  5
2B0
102
{ACAD_REACTORS
330
2AD
102
}
330
2AD
100
AcDbXrecord
280
     1
340
24
  0
XRECORD
  5
2B1
102
{ACAD_REACTORS
330
2AD
102
}
330
2AD
100
AcDbXrecord
280
     1
340
24
  0
XRECORD
  5
2AF
102
{ACAD_REACTORS
330
2AD
102
}
330
2AD
100
AcDbXrecord
280
     1
340
24
  0
LAYOUT
  5
1A
102
{ACAD_XDICTIONARY
360
2B5
102
}
102
{ACAD_REACTORS
330
16
102
}
330
16
100
AcDbPlotSettings
  1

  2
\\le-server\HP LaserJet 2100
  4

  6

 40
0.0
 41
0.0
 42
0.0
 43
0.0
 44
0.0
 45
0.0
 46
0.0
 47
0.0
 48
0.0
 49
0.0
140
0.0
141
0.0
142
1.0
143
1.0
 70
   688
 72
     0
 73
     0
 74
     5
  7

 75
    16
147
1.0
148
0.0
149
0.0
100
AcDbLayout
  1
Layout1
 70
     1
 71
     1
 10
0.0
 20
0.0
 11
1189.0
 21
840.9999999999998
 12
0.0
 22
0.0
 32
0.0
 14
0.0
 24
0.0
 34
0.0
 15
1189.0
 25
840.9999999999998
 35
0.0
146
0.0
 13
0.0
 23
0.0
 33
0.0
 16
1.0
 26
0.0
 36
0.0
 17
0.0
 27
1.0
 37
0.0
 76
     0
330
17
  0
LAYOUT
  5
15
102
{ACAD_XDICTIONARY
360
2B3
102
}
102
{ACAD_REACTORS
330
16
102
}
330
16
100
AcDbPlotSettings
  1

  2
\\le-server\HP LaserJet 2100
  4

  6

 40
0.0
 41
0.0
 42
0.0
 43
0.0
 44
0.0
 45
0.0
 46
0.0
 47
0.0
 48
0.0
 49
0.0
140
0.0
141
0.0
142
1.0
143
1.0
 70
  1712
 72
     0
 73
     0
 74
     0
  7

 75
     0
147
1.0
148
0.0
149
0.0
100
AcDbLayout
  1
Model
 70
     1
 71
     0
 10
0.0
 20
0.0
 11
12.0
 21
9.0
 12
0.0
 22
0.0
 32
0.0
 14
0.0
 24
0.0
 34
0.0
 15
0.0
 25
0.0
 35
0.0
146
0.0
 13
0.0
 23
0.0
 33
0.0
 16
1.0
 26
0.0
 36
0.0
 17
0.0
 27
1.0
 37
0.0
 76
     0
330
2
331
29
  0
MATERIAL
  5
3C
102
{ACAD_XDICTIONARY
360
3D
102
}
102
{ACAD_REACTORS
330
B
102
}
330
B
100
AcDbMaterial
  1
ByBlock
 72
     0
 43
0.0208333333333333
 43
0.0
 43
0.0
 43
0.0
 43
0.0
 43
0.0208333333333333
 43
0.0
 43
0.0
 43
0.0
 43
0.0
 43
1.0
 43
0.0
 43
0.0
 43
0.0
 43
0.0
 43
1.0
 77
     0
 47
0.0208333333333333
 47
0.0
 47
0.0
 47
0.0
 47
0.0
 47
0.0208333333333333
 47
0.0
 47
0.0
 47
0.0
 47
0.0
 47
1.0
 47
0.0
 47
0.0
 47
0.0
 47
0.0
 47
1.0
171
     0
 49
0.0208333333333333
 49
0.0
 49
0.0
 49
0.0
 49
0.0
 49
0.0208333333333333
 49
0.0
 49
0.0
 49
0.0
 49
0.0
 49
1.0
 49
0.0
 49
0.0
 49
0.0
 49
0.0
 49
1.0
175
     0
142
0.0208333333333333
142
0.0
142
0.0
142
0.0
142
0.0
142
0.0208333333333333
142
0.0
142
0.0
142
0.0
142
0.0
142
1.0
142
0.0
142
0.0
142
0.0
142
0.0
142
1.0
179
     0
144
0.0208333333333333
144
0.0
144
0.0
144
0.0
144
0.0
144
0.0208333333333333
144
0.0
144
0.0
144
0.0
144
0.0
144
1.0
144
0.0
144
0.0
144
0.0
144
0.0
144
1.0
147
0.0208333333333333
147
0.0
147
0.0
147
0.0
147
0.0
147
0.0208333333333333
147
0.0
147
0.0
147
0.0
147
0.0
147
1.0
147
0.0
147
0.0
147
0.0
147
0.0
147
1.0
  0
MATERIAL
  5
34
102
{ACAD_XDICTIONARY
360
35
102
}
102
{ACAD_REACTORS
330
B
102
}
330
B
100
AcDbMaterial
  1
ByLayer
 72
     0
 43
0.0208333333333333
 43
0.0
 43
0.0
 43
0.0
 43
0.0
 43
0.0208333333333333
 43
0.0
 43
0.0
 43
0.0
 43
0.0
 43
1.0
 43
0.0
 43
0.0
 43
0.0
 43
0.0
 43
1.0
 77
     0
 47
0.0208333333333333
 47
0.0
 47
0.0
 47
0.0
 47
0.0
 47
0.0208333333333333
 47
0.0
 47
0.0
 47
0.0
 47
0.0
 47
1.0
 47
0.0
 47
0.0
 47
0.0
 47
0.0
 47
1.0
171
     0
 49
0.0208333333333333
 49
0.0
 49
0.0
 49
0.0
 49
0.0
 49
0.0208333333333333
 49
0.0
 49
0.0
 49
0.0
 49
0.0
 49
1.0
 49
0.0
 49
0.0
 49
0.0
 49
0.0
 49
1.0
175
     0
142
0.0208333333333333
142
0.0
142
0.0
142
0.0
142
0.0
142
0.0208333333333333
142
0.0
142
0.0
142
0.0
142
0.0
142
1.0
142
0.0
142
0.0
142
0.0
142
0.0
142
1.0
179
     0
144
0.0208333333333333
144
0.0
144
0.0
144
0.0
144
0.0
144
0.0208333333333333
144
0.0
144
0.0
144
0.0
144
0.0
144
1.0
144
0.0
144
0.0
144
0.0
144
0.0
144
1.0
147
0.0208333333333333
147
0.0
147
0.0
147
0.0
147
0.0
147
0.0208333333333333
147
0.0
147
0.0
147
0.0
147
0.0
147
1.0
147
0.0
147
0.0
147
0.0
147
0.0
147
1.0
  0
MATERIAL
  5
A
102
{ACAD_XDICTIONARY
360
C
102
}
102
{ACAD_REACTORS
330
B
102
}
330
B
100
AcDbMaterial
  1
Global
 72
     0
 43
0.0208333333333333
 43
0.0
 43
0.0
 43
0.0
 43
0.0
 43
0.0208333333333333
 43
0.0
 43
0.0
 43
0.0
 43
0.0
 43
1.0
 43
0.0
 43
0.0
 43
0.0
 43
0.0
 43
1.0
 77
     0
 47
0.0208333333333333
 47
0.0
 47
0.0
 47
0.0
 47
0.0
 47
0.0208333333333333
 47
0.0
 47
0.0
 47
0.0
 47
0.0
 47
1.0
 47
0.0
 47
0.0
 47
0.0
 47
0.0
 47
1.0
171
     0
 49
0.0208333333333333
 49
0.0
 49
0.0
 49
0.0
 49
0.0
 49
0.0208333333333333
 49
0.0
 49
0.0
 49
0.0
 49
0.0
 49
1.0
 49
0.0
 49
0.0
 49
0.0
 49
0.0
 49
1.0
175
     0
142
0.0208333333333333
142
0.0
142
0.0
142
0.0
142
0.0
142
0.0208333333333333
142
0.0
142
0.0
142
0.0
142
0.0
142
1.0
142
0.0
142
0.0
142
0.0
142
0.0
142
1.0
179
     0
144
0.0208333333333333
144
0.0
144
0.0
144
0.0
144
0.0
144
0.0208333333333333
144
0.0
144
0.0
144
0.0
144
0.0
144
1.0
144
0.0
144
0.0
144
0.0
144
0.0
144
1.0
147
0.0208333333333333
147
0.0
147
0.0
147
0.0
147
0.0
147
0.0208333333333333
147
0.0
147
0.0
147
0.0
147
0.0
147
1.0
147
0.0
147
0.0
147
0.0
147
0.0
147
1.0
  0
MLEADERSTYLE
  5
274
102
{ACAD_REACTORS
330
47
102
}
330
47
100
AcDbMLeaderStyle
170
     2
171
     1
172
     0
 90
        2
 40
0.0
 41
0.0
173
     1
 91
-1056964608
340
24
 92
       -2
290
     1
 42
2.0
291
     1
 43
0.36
  3
Standard
 44
4.0
300

342
21
174
     1
178
     6
175
     1
176
     0
 93
-1056964608
 45
4.0
292
     0
297
     0
 46
4.0
 94
-1056964608
 47
1.0
 49
1.0
140
1.0
293
     1
141
0.0
294
     1
177
     0
142
1.0
295
     0
296
     0
143
0.125
1001
ACAD_MLEADERVER
1070
     2
  0
MLINESTYLE
  5
48
102
{ACAD_REACTORS
330
32
102
}
330
32
100
AcDbMlineStyle
  2
STANDARD
 70
     0
  3

 62
   256
 51
90.0
 52
90.0
 71
     2
 49
0.5
 62
   256
  6
BYLAYER
 49
-0.5
 62
   256
  6
BYLAYER
  0
ACDBPLACEHOLDER
  5
7
102
{ACAD_REACTORS
330
8
102
}
330
8
  0
SCALE
  5
4D
102
{ACAD_REACTORS
330
45
102
}
330
45
100
AcDbScale
 70
     0
300
1:1
140
1.0
141
1.0
290
     1
  0
SCALE
  5
4E
102
{ACAD_REACTORS
330
45
102
}
330
45
100
AcDbScale
 70
     0
300
1:2
140
1.0
141
2.0
290
     0
  0
SCALE
  5
4F
102
{ACAD_REACTORS
330
45
102
}
330
45
100
AcDbScale
 70
     0
300
1:4
140
1.0
141
4.0
290
     0
  0
SCALE
  5
50
102
{ACAD_REACTORS
330
45
102
}
330
45
100
AcDbScale
 70
     0
300
1:5
140
1.0
141
5.0
290
     0
  0
SCALE
  5
51
102
{ACAD_REACTORS
330
45
102
}
330
45
100
AcDbScale
 70
     0
300
1:8
140
1.0
141
8.0
290
     0
  0
SCALE
  5
52
102
{ACAD_REACTORS
330
45
102
}
330
45
100
AcDbScale
 70
     0
300
1:10
140
1.0
141
10.0
290
     0
  0
SCALE
  5
53
102
{ACAD_REACTORS
330
45
102
}
330
45
100
AcDbScale
 70
     0
300
1:16
140
1.0
141
16.0
290
     0
  0
SCALE
  5
54
102
{ACAD_REACTORS
330
45
102
}
330
45
100
AcDbScale
 70
     0
300
1:20
140
1.0
141
20.0
290
     0
  0
SCALE
  5
55
102
{ACAD_REACTORS
330
45
102
}
330
45
100
AcDbScale
 70
     0
300
1:30
140
1.0
141
30.0
290
     0
  0
SCALE
  5
56
102
{ACAD_REACTORS
330
45
102
}
330
45
100
AcDbScale
 70
     0
300
1:40
140
1.0
141
40.0
290
     0
  0
SCALE
  5
57
102
{ACAD_REACTORS
330
45
102
}
330
45
100
AcDbScale
 70
     0
300
1:50
140
1.0
141
50.0
290
     0
  0
SCALE
  5
58
102
{ACAD_REACTORS
330
45
102
}
330
45
100
AcDbScale
 70
     0
300
1:100
140
1.0
141
100.0
290
     0
  0
SCALE
  5
59
102
{ACAD_REACTORS
330
45
102
}
330
45
100
AcDbScale
 70
     0
300
2:1
140
2.0
141
1.0
290
     0
  0
SCALE
  5
5A
102
{ACAD_REACTORS
330
45
102
}
330
45
100
AcDbScale
 70
     0
300
4:1
140
4.0
141
1.0
290
     0
  0
SCALE
  5
5B
102
{ACAD_REACTORS
330
45
102
}
330
45
100
AcDbScale
 70
     0
300
8:1
140
8.0
141
1.0
290
     0
  0
SCALE
  5
5C
102
{ACAD_REACTORS
330
45
102
}
330
45
100
AcDbScale
 70
     0
300
10:1
140
10.0
141
1.0
290
     0
  0
SCALE
  5
5D
102
{ACAD_REACTORS
330
45
102
}
330
45
100
AcDbScale
 70
     0
300
100:1
140
100.0
141
1.0
290
     0
  0
SCALE
  5
5E
102
{ACAD_REACTORS
330
45
102
}
330
45
100
AcDbScale
 70
     0
300
1/128" = 1'-0"
140
0.0078125
141
12.0
290
     0
  0
SCALE
  5
5F
102
{ACAD_REACTORS
330
45
102
}
330
45
100
AcDbScale
 70
     0
300
1/64" = 1'-0"
140
0.015625
141
12.0
290
     0
  0
SCALE
  5
60
102
{ACAD_REACTORS
330
45
102
}
330
45
100
AcDbScale
 70
     0
300
1/32" = 1'-0"
140
0.03125
141
12.0
290
     0
  0
SCALE
  5
61
102
{ACAD_REACTORS
330
45
102
}
330
45
100
AcDbScale
 70
     0
300
1/16" = 1'-0"
140
0.0625
141
12.0
290
     0
  0
SCALE
  5
62
102
{ACAD_REACTORS
330
45
102
}
330
45
100
AcDbScale
 70
     0
300
3/32" = 1'-0"
140
0.09375
141
12.0
290
     0
  0
SCALE
  5
63
102
{ACAD_REACTORS
330
45
102
}
330
45
100
AcDbScale
 70
     0
300
1/8" = 1'-0"
140
0.125
141
12.0
290
     0
  0
SCALE
  5
64
102
{ACAD_REACTORS
330
45
102
}
330
45
100
AcDbScale
 70
     0
300
3/16" = 1'-0"
140
0.1875
141
12.0
290
     0
  0
SCALE
  5
65
102
{ACAD_REACTORS
330
45
102
}
330
45
100
AcDbScale
 70
     0
300
1/4" = 1'-0"
140
0.25
141
12.0
290
     0
  0
SCALE
  5
66
102
{ACAD_REACTORS
330
45
102
}
330
45
100
AcDbScale
 70
     0
300
3/8" = 1'-0"
140
0.375
141
12.0
290
     0
  0
SCALE
  5
67
102
{ACAD_REACTORS
330
45
102
}
330
45
100
AcDbScale
 70
     0
300
1/2" = 1'-0"
140
0.5
141
12.0
290
     0
  0
SCALE
  5
68
102
{ACAD_REACTORS
330
45
102
}
330
45
100
AcDbScale
 70
     0
300
3/4" = 1'-0"
140
0.75
141
12.0
290
     0
  0
SCALE
  5
69
102
{ACAD_REACTORS
330
45
102
}
330
45
100
AcDbScale
 70
     0
300
1" = 1'-0"
140
1.0
141
12.0
290
     0
  0
SCALE
  5
6A
102
{ACAD_REACTORS
330
45
102
}
330
45
100
AcDbScale
 70
     0
300
1-1/2" = 1'-0"
140
1.5
141
12.0
290
     0
  0
SCALE
  5
6B
102
{ACAD_REACTORS
330
45
102
}
330
45
100
AcDbScale
 70
     0
300
3" = 1'-0"
140
3.0
141
12.0
290
     0
  0
SCALE
  5
6C
102
{ACAD_REACTORS
330
45
102
}
330
45
100
AcDbScale
 70
     0
300
6" = 1'-0"
140
6.0
141
12.0
290
     0
  0
SCALE
  5
6D
102
{ACAD_REACTORS
330
45
102
}
330
45
100
AcDbScale
 70
     0
300
1'-0" = 1'-0"
140
12.0
141
12.0
290
     0
  0
TABLESTYLE
  5
49
102
{ACAD_XDICTIONARY
360
4A
102
}
102
{ACAD_REACTORS
330
46
102
}
330
46
100
AcDbTableStyle
  3
Standard
 70
     0
 71
     0
 40
0.06
 41
0.06
280
     0
281
     0
  7
STANDARD
140
0.18
170
     2
 62
     0
 63
     7
283
     0
274
    -2
284
     1
 64
     0
275
    -2
285
     1
 65
     0
276
    -2
286
     1
 66
     0
277
    -2
287
     1
 67
     0
278
    -2
288
     1
 68
     0
279
    -2
289
     1
 69
     0
  7
STANDARD
140
0.25
170
     5
 62
     0
 63
     7
283
     0
274
    -2
284
     1
 64
     0
275
    -2
285
     1
 65
     0
276
    -2
286
     1
 66
     0
277
    -2
287
     1
 67
     0
278
    -2
288
     1
 68
     0
279
    -2
289
     1
 69
     0
  7
STANDARD
140
0.18
170
     5
 62
     0
 63
     7
283
     0
274
    -2
284
     1
 64
     0
275
    -2
285
     1
 65
     0
276
    -2
286
     1
 66
     0
277
    -2
287
     1
 67
     0
278
    -2
288
     1
 68
     0
279
    -2
289
     1
 69
     0
  0
VISUALSTYLE
  5
2A
102
{ACAD_XDICTIONARY
360
2B7
102
}
102
{ACAD_REACTORS
330
2B
102
}
330
2B
100
AcDbVisualStyle
  2
2dWireframe
 70
     4
 71
     0
 72
     2
 73
     0
 90
        0
 40
-0.6
 41
-30.0
 62
     5
 63
     7
 74
     1
 91
        4
 64
     7
 65
   257
 75
     1
175
     1
 42
1.0
 92
        0
 66
   257
 43
1.0
 76
     1
 77
     6
 78
     2
 67
     7
 79
     5
170
     0
171
     0
290
     0
174
     0
 93
        1
 44
0.0
173
     0
291
     0
 45
0.0
1001
ACAD
1000
AcDbSavedByObjectVersion
1070
     0
  0
VISUALSTYLE
  5
263
102
{ACAD_XDICTIONARY
360
2CE
102
}
102
{ACAD_REACTORS
330
2B
102
}
330
2B
100
AcDbVisualStyle
  2
Basic
 70
     7
 71
     1
 72
     0
 73
     1
 90
        0
 40
-0.6
 41
-30.0
 62
     5
 63
     7
 74
     0
 91
        4
 64
     7
 65
   257
 75
     1
175
     1
 42
1.0
 92
        8
 66
     7
 43
1.0
 76
     1
 77
     6
 78
     2
 67
     7
 79
     5
170
     0
171
     0
290
     0
174
     0
 93
        1
 44
0.0
173
     0
291
     1
 45
0.0
1001
ACAD
1000
AcDbSavedByObjectVersion
1070
     0
  0
VISUALSTYLE
  5
267
102
{ACAD_XDICTIONARY
360
2D6
102
}
102
{ACAD_REACTORS
330
2B
102
}
330
2B
100
AcDbVisualStyle
  2
Brighten
 70
    12
 71
     2
 72
     2
 73
     0
 90
        0
 40
-0.6
 41
-30.0
 62
     5
 63
     7
 74
     1
 91
        4
 64
     7
 65
   257
 75
     1
175
     1
 42
1.0
 92
        8
 66
     7
 43
1.0
 76
     1
 77
     6
 78
     2
 67
     7
 79
     5
170
     0
171
     0
290
     0
174
     0
 93
        1
 44
50.0
173
     0
291
     1
 45
0.0
1001
ACAD
1000
AcDbSavedByObjectVersion
1070
     0
  0
VISUALSTYLE
  5
26B
102
{ACAD_XDICTIONARY
360
2DE
102
}
102
{ACAD_REACTORS
330
2B
102
}
330
2B
100
AcDbVisualStyle
  2
ColorChange
 70
    16
 71
     2
 72
     2
 73
     3
 90
        0
 40
-0.6
 41
-30.0
 62
     5
 63
     8
 74
     1
 91
        4
 64
     7
 65
   257
 75
     1
175
     1
 42
1.0
 92
        8
 66
     8
 43
1.0
 76
     1
 77
     6
 78
     2
 67
     7
 79
     5
170
     0
171
     0
290
     0
174
     0
 93
        1
 44
0.0
173
     0
291
     1
 45
0.0
1001
ACAD
1000
AcDbSavedByObjectVersion
1070
     0
  0
VISUALSTYLE
  5
265
102
{ACAD_XDICTIONARY
360
2D2
102
}
102
{ACAD_REACTORS
330
2B
102
}
330
2B
100
AcDbVisualStyle
  2
Conceptual
 70
     9
 71
     3
 72
     2
 73
     0
 90
        0
 40
-0.6
 41
-30.0
 62
     5
 63
     7
 74
     2
 91
        2
 64
     7
 65
   257
 75
     1
175
     1
 42
179.0
 92
        8
 66
     7
 43
1.0
 76
     1
 77
     6
 78
     2
 67
     7
 79
     3
170
     0
171
     0
290
     0
174
     0
 93
        1
 44
0.0
173
     0
291
     0
 45
0.0
1001
ACAD
1000
AcDbSavedByObjectVersion
1070
     0
  0
VISUALSTYLE
  5
266
102
{ACAD_XDICTIONARY
360
2D4
102
}
102
{ACAD_REACTORS
330
2B
102
}
330
2B
100
AcDbVisualStyle
  2
Dim
 70
    11
 71
     2
 72
     2
 73
     0
 90
        0
 40
-0.6
 41
-30.0
 62
     5
 63
     7
 74
     1
 91
        4
 64
     7
 65
   257
 75
     1
175
     1
 42
1.0
 92
        8
 66
     7
 43
1.0
 76
     1
 77
     6
 78
     2
 67
     7
 79
     5
170
     0
171
     0
290
     0
174
     0
 93
        1
 44
-50.0
173
     0
291
     1
 45
0.0
1001
ACAD
1000
AcDbSavedByObjectVersion
1070
     0
  0
VISUALSTYLE
  5
273
102
{ACAD_XDICTIONARY
360
2EE
102
}
102
{ACAD_REACTORS
330
2B
102
}
330
2B
100
AcDbVisualStyle
  2
EdgeColorOff
 70
    22
 71
     2
 72
     2
 73
     0
 90
        0
 40
-0.6
 41
-30.0
 62
     5
 63
     7
 74
     1
 91
        4
 64
     7
 65
   257
 75
     1
175
     1
 42
1.0
 92
        8
 66
     7
 43
1.0
 76
     1
 77
     6
 78
     2
 67
     7
 79
     5
170
     0
171
     0
290
     0
174
     0
 93
        1
 44
0.0
173
     0
291
     1
 45
0.0
1001
ACAD
1000
AcDbSavedByObjectVersion
1070
     0
  0
VISUALSTYLE
  5
26A
102
{ACAD_XDICTIONARY
360
2DC
102
}
102
{ACAD_REACTORS
330
2B
102
}
330
2B
100
AcDbVisualStyle
  2
Facepattern
 70
    15
 71
     2
 72
     2
 73
     0
 90
        0
 40
-0.6
 41
-30.0
 62
     5
 63
     7
 74
     1
 91
        4
 64
     7
 65
   257
 75
     1
175
     1
 42
1.0
 92
        8
 66
     7
 43
1.0
 76
     1
 77
     6
 78
     2
 67
     7
 79
     5
170
     0
171
     0
290
     0
174
     0
 93
        1
 44
0.0
173
     0
291
     1
 45
0.0
1001
ACAD
1000
AcDbSavedByObjectVersion
1070
     0
  0
VISUALSTYLE
  5
25F
102
{ACAD_XDICTIONARY
360
2C6
102
}
102
{ACAD_REACTORS
330
2B
102
}
330
2B
100
AcDbVisualStyle
  2
Flat
 70
     0
 71
     2
 72
     1
 73
     1
 90
        2
 40
-0.6
 41
30.0
 62
     5
 63
     7
 74
     0
 91
        0
 64
     7
 65
   257
 75
     1
175
     1
 42
1.0
 92
        8
 66
     7
 43
1.0
 76
     1
 77
     6
 78
     2
 67
     7
 79
     5
170
     0
171
     0
290
     0
174
     0
 93
       13
 44
0.0
173
     0
291
     1
 45
0.0
1001
ACAD
1000
AcDbSavedByObjectVersion
1070
     0
  0
VISUALSTYLE
  5
260
102
{ACAD_XDICTIONARY
360
2C8
102
}
102
{ACAD_REACTORS
330
2B
102
}
330
2B
100
AcDbVisualStyle
  2
FlatWithEdges
 70
     1
 71
     2
 72
     1
 73
     1
 90
        2
 40
-0.6
 41
30.0
 62
     5
 63
     7
 74
     1
 91
        0
 64
     7
 65
   257
 75
     1
175
     1
 42
1.0
 92
        0
 66
   257
 43
1.0
 76
     1
 77
     6
 78
     2
 67
     7
 79
     5
170
     0
171
     0
290
     0
174
     0
 93
       13
 44
0.0
173
     0
291
     1
 45
0.0
1001
ACAD
1000
AcDbSavedByObjectVersion
1070
     0
  0
VISUALSTYLE
  5
261
102
{ACAD_XDICTIONARY
360
2CA
102
}
102
{ACAD_REACTORS
330
2B
102
}
330
2B
100
AcDbVisualStyle
  2
Gouraud
 70
     2
 71
     2
 72
     2
 73
     1
 90
        2
 40
-0.6
 41
30.0
 62
     5
 63
     7
 74
     0
 91
        0
 64
     7
 65
   257
 75
     1
175
     1
 42
1.0
 92
        0
 66
     7
 43
1.0
 76
     1
 77
     6
 78
     2
 67
     7
 79
     5
170
     0
171
     0
290
     0
174
     0
 93
       13
 44
0.0
173
     0
291
     1
 45
0.0
1001
ACAD
1000
AcDbSavedByObjectVersion
1070
     0
  0
VISUALSTYLE
  5
262
102
{ACAD_XDICTIONARY
360
2CC
102
}
102
{ACAD_REACTORS
330
2B
102
}
330
2B
100
AcDbVisualStyle
  2
GouraudWithEdges
 70
     3
 71
     2
 72
     2
 73
     1
 90
        2
 40
-0.6
 41
30.0
 62
     5
 63
     7
 74
     1
 91
        0
 64
     7
 65
   257
 75
     1
175
     1
 42
1.0
 92
        0
 66
   257
 43
1.0
 76
     1
 77
     6
 78
     2
 67
     7
 79
     5
170
     0
171
     0
290
     0
174
     0
 93
       13
 44
0.0
173
     0
291
     1
 45
0.0
1001
ACAD
1000
AcDbSavedByObjectVersion
1070
     0
  0
VISUALSTYLE
  5
264
102
{ACAD_XDICTIONARY
360
2D0
102
}
102
{ACAD_REACTORS
330
2B
102
}
330
2B
100
AcDbVisualStyle
  2
Hidden
 70
     6
 71
     1
 72
     2
 73
     2
 90
        0
 40
-0.6
 41
-30.0
 62
     5
 63
     7
 74
     2
 91
        2
 64
     7
 65
   257
 75
     2
175
     1
 42
40.0
 92
        0
 66
   257
 43
1.0
 76
     1
 77
     6
 78
     2
 67
     7
 79
     3
170
     0
171
     0
290
     0
174
     0
 93
        1
 44
0.0
173
     0
291
     0
 45
0.0
1001
ACAD
1000
AcDbSavedByObjectVersion
1070
     0
  0
VISUALSTYLE
  5
271
102
{ACAD_XDICTIONARY
360
2EA
102
}
102
{ACAD_REACTORS
330
2B
102
}
330
2B
100
AcDbVisualStyle
  2
JitterOff
 70
    20
 71
     2
 72
     2
 73
     0
 90
        0
 40
-0.6
 41
-30.0
 62
     5
 63
     7
 74
     1
 91
        4
 64
     7
 65
   257
 75
     1
175
     1
 42
1.0
 92
       10
 66
     7
 43
1.0
 76
     1
 77
     6
 78
     2
 67
     7
 79
     5
170
     0
171
     0
290
     0
174
     0
 93
        1
 44
0.0
173
     0
291
     1
 45
0.0
1001
ACAD
1000
AcDbSavedByObjectVersion
1070
     0
  0
VISUALSTYLE
  5
269
102
{ACAD_XDICTIONARY
360
2DA
102
}
102
{ACAD_REACTORS
330
2B
102
}
330
2B
100
AcDbVisualStyle
  2
Linepattern
 70
    14
 71
     2
 72
     2
 73
     0
 90
        0
 40
-0.6
 41
-30.0
 62
     5
 63
     7
 74
     1
 91
        4
 64
     7
 65
   257
 75
     7
175
     7
 42
1.0
 92
        8
 66
     7
 43
1.0
 76
     1
 77
     6
 78
     2
 67
     7
 79
     5
170
     0
171
     0
290
     0
174
     0
 93
        1
 44
0.0
173
     0
291
     1
 45
0.0
1001
ACAD
1000
AcDbSavedByObjectVersion
1070
     0
  0
VISUALSTYLE
  5
272
102
{ACAD_XDICTIONARY
360
2EC
102
}
102
{ACAD_REACTORS
330
2B
102
}
330
2B
100
AcDbVisualStyle
  2
OverhangOff
 70
    21
 71
     2
 72
     2
 73
     0
 90
        0
 40
-0.6
 41
-30.0
 62
     5
 63
     7
 74
     1
 91
        4
 64
     7
 65
   257
 75
     1
175
     1
 42
1.0
 92
        9
 66
     7
 43
1.0
 76
     1
 77
     6
 78
     2
 67
     7
 79
     5
170
     0
171
     0
290
     0
174
     0
 93
        1
 44
0.0
173
     0
291
     1
 45
0.0
1001
ACAD
1000
AcDbSavedByObjectVersion
1070
     0
  0
VISUALSTYLE
  5
4B
102
{ACAD_XDICTIONARY
360
2BC
102
}
102
{ACAD_REACTORS
330
2B
102
}
330
2B
100
AcDbVisualStyle
  2
Realistic
 70
     8
 71
     2
 72
     2
 73
     0
 90
        0
 40
-0.6
 41
-30.0
 62
     5
 63
     7
 74
     1
 91
        0
 64
     7
 65
   257
 75
     1
175
     1
 42
1.0
 92
        8
 66
     8
 43
1.0
 76
     1
 77
     6
 78
     2
 67
     7
 79
     5
170
     0
171
     0
290
     0
174
     0
 93
       13
 44
0.0
173
     0
291
     0
 45
0.0
1001
ACAD
1000
AcDbSavedByObjectVersion
1070
     0
  0
VISUALSTYLE
  5
270
102
{ACAD_XDICTIONARY
360
2E8
102
}
102
{ACAD_REACTORS
330
2B
102
}
330
2B
100
AcDbVisualStyle
  2
Shaded
 70
    27
 71
     2
 72
     2
 73
     1
 90
        2
 40
-0.6
 41
30.0
 62
     5
 63
     7
 74
     0
 91
        4
 64
     7
 65
   257
 75
     1
175
     1
 42
1.0
 92
        8
 66
   257
 43
1.0
 76
     1
 77
     6
 78
     2
 67
     8
 79
     3
170
     0
171
     0
290
     0
174
     0
 93
        5
 44
0.0
173
     0
291
     0
 45
0.0
1001
ACAD
1000
AcDbSavedByObjectVersion
1070
     0
  0
VISUALSTYLE
  5
26F
102
{ACAD_XDICTIONARY
360
2E6
102
}
102
{ACAD_REACTORS
330
2B
102
}
330
2B
100
AcDbVisualStyle
  2
Shaded with edges
 70
    26
 71
     2
 72
     2
 73
     1
 90
        2
 40
-0.6
 41
30.0
 62
     5
 63
     7
 74
     1
 91
       10
 64
     7
 65
   257
 75
     2
175
     1
 42
1.0
 92
        8
 66
   257
 43
1.0
 76
     1
 77
     6
 78
     2
 67
     7
 79
     3
170
     0
171
     0
290
     0
174
     0
 93
        5
 44
0.0
173
     0
291
     0
 45
0.0
1001
ACAD
1000
AcDbSavedByObjectVersion
1070
     0
  0
VISUALSTYLE
  5
26C
102
{ACAD_XDICTIONARY
360
2E0
102
}
102
{ACAD_REACTORS
330
2B
102
}
330
2B
100
AcDbVisualStyle
  2
Shades of Gray
 70
    23
 71
     2
 72
     2
 73
     3
 90
        0
 40
-0.6
 41
-30.0
 62
     5
 63
     7
 74
     2
 91
        2
 64
     7
 65
     7
 75
     1
175
     1
 42
40.0
 92
        8
 66
     7
 43
1.0
 76
     1
 77
     6
 78
     2
 67
     7
 79
     3
170
     0
171
     0
290
     0
174
     0
 93
        1
 44
0.0
173
     0
291
     0
 45
0.0
1001
ACAD
1000
AcDbSavedByObjectVersion
1070
     0
  0
VISUALSTYLE
  5
26D
102
{ACAD_XDICTIONARY
360
2E2
102
}
102
{ACAD_REACTORS
330
2B
102
}
330
2B
100
AcDbVisualStyle
  2
Sketchy
 70
    24
 71
     1
 72
     2
 73
     2
 90
        0
 40
-0.6
 41
-30.0
 62
     5
 63
     7
 74
     2
 91
        2
 64
     7
 65
     7
 75
     1
175
     1
 42
40.0
 92
       11
 66
     7
 43
1.0
 76
     1
 77
     6
 78
     2
 67
     7
 79
     6
170
     0
171
     0
290
     0
174
     0
 93
        1
 44
0.0
173
     0
291
     0
 45
0.0
1001
ACAD
1000
AcDbSavedByObjectVersion
1070
     0
  0
VISUALSTYLE
  5
268
102
{ACAD_XDICTIONARY
360
2D8
102
}
102
{ACAD_REACTORS
330
2B
102
}
330
2B
100
AcDbVisualStyle
  2
Thicken
 70
    13
 71
     2
 72
     2
 73
     0
 90
        0
 40
-0.6
 41
-30.0
 62
     5
 63
     7
 74
     1
 91
        4
 64
     7
 65
   257
 75
     1
175
     1
 42
1.0
 92
       12
 66
     7
 43
1.0
 76
     1
 77
     6
 78
     2
 67
     7
 79
     5
170
     0
171
     0
290
     0
174
     0
 93
        1
 44
0.0
173
     0
291
     1
 45
0.0
1001
ACAD
1000
AcDbSavedByObjectVersion
1070
     0
  0
VISUALSTYLE
  5
4C
102
{ACAD_XDICTIONARY
360
2BE
102
}
102
{ACAD_REACTORS
330
2B
102
}
330
2B
100
AcDbVisualStyle
  2
Wireframe
 70
     5
 71
     0
 72
     2
 73
     0
 90
        0
 40
-0.6
 41
-30.0
 62
     5
 63
     7
 74
     1
 91
        4
 64
     7
 65
   257
 75
     1
175
     1
 42
1.0
 92
        0
 66
   257
 43
1.0
 76
     1
 77
     6
 78
     2
 67
     7
 79
     3
170
     0
171
     0
290
     0
174
     0
 93
        1
 44
0.0
173
     0
291
     0
 45
0.0
1001
ACAD
1000
AcDbSavedByObjectVersion
1070
     0
  0
VISUALSTYLE
  5
26E
102
{ACAD_XDICTIONARY
360
2E4
102
}
102
{ACAD_REACTORS
330
2B
102
}
330
2B
100
AcDbVisualStyle
  2
X-Ray
 70
    25
 71
     2
 72
     2
 73
     1
 90
        1
 40
0.5
 41
-30.0
 62
     5
 63
     7
 74
     1
 91
        0
 64
     7
 65
   257
 75
     1
175
     1
 42
1.0
 92
        8
 66
     7
 43
1.0
 76
     1
 77
     6
 78
     2
 67
     7
 79
     3
170
     0
171
     0
290
     0
174
     0
 93
       13
 44
0.0
173
     0
291
     0
 45
0.0
1001
ACAD
1000
AcDbSavedByObjectVersion
1070
     0
  0
DICTIONARYVAR
  5
25A
102
{ACAD_REACTORS
330
256
102
}
330
256
100
DictionaryVariables
280
     0
  1
1:1
  0
DICTIONARYVAR
  5
258
102
{ACAD_REACTORS
330
256
102
}
330
256
100
DictionaryVariables
280
     0
  1
STANDARD
  0
DICTIONARYVAR
  5
257
102
{ACAD_REACTORS
330
256
102
}
330
256
100
DictionaryVariables
280
     0
  1
STANDARD
  0
DICTIONARYVAR
  5
2A9
102
{ACAD_REACTORS
330
256
102
}
330
256
100
DictionaryVariables
280
     0
  1
1
  0
DICTIONARYVAR
  5
2A8
102
{ACAD_REACTORS
330
256
102
}
330
256
100
DictionaryVariables
280
     0
  1
1
  0
DICTIONARYVAR
  5
2A7
102
{ACAD_REACTORS
330
256
102
}
330
256
100
DictionaryVariables
280
     0
  1
0
  0
DICTIONARYVAR
  5
25C
102
{ACAD_REACTORS
330
256
102
}
330
256
100
DictionaryVariables
280
     0
  1
1
  0
DICTIONARYVAR
  5
25D
102
{ACAD_REACTORS
330
256
102
}
330
256
100
DictionaryVariables
280
     0
  1
15
  0
DICTIONARYVAR
  5
25B
102
{ACAD_REACTORS
330
256
102
}
330
256
100
DictionaryVariables
280
     0
  1
0
  0
DICTIONARYVAR
  5
259
102
{ACAD_REACTORS
330
256
102
}
330
256
100
DictionaryVariables
280
     0
  1
0
  0
DICTIONARYVAR
  5
2A6
102
{ACAD_REACTORS
330
256
102
}
330
256
100
DictionaryVariables
280
     0
  1
127
  0
DICTIONARYVAR
  5
2AA
102
{ACAD_REACTORS
330
256
102
}
330
256
100
DictionaryVariables
280
     0
  1
2
  0
DICTIONARY
  5
20A
102
{ACAD_REACTORS
330
209
102
}
330
209
100
AcDbDictionary
281
     1
  0
DICTIONARY
  5
204
102
{ACAD_REACTORS
330
1FA
102
}
330
1FA
100
AcDbDictionary
281
     1
  3
DWGSETTINGS
350
203
  3
TRANSSETTINGS
350
205
  0
DICTIONARY
  5
2B5
330
1A
100
AcDbDictionary
280
     1
281
     1
  3
ACAD_XREC_ROUNDTRIP
360
2B6
  0
DICTIONARY
  5
2B3
330
15
100
AcDbDictionary
280
     1
281
     1
  3
ACAD_XREC_ROUNDTRIP
360
2B4
  0
DICTIONARY
  5
3D
330
3C
100
AcDbDictionary
280
     1
281
     1
  3
ACAD_XREC_ROUNDTRIP
360
2BA
  3
BUMPTILE
360
3E
  3
DIFFUSETILE
360
3F
  3
OPACITYTILE
360
40
  3
REFLECTIONTILE
360
41
  3
REFRACTIONTILE
360
42
  3
SPECULARTILE
360
43
  0
DICTIONARY
  5
35
330
34
100
AcDbDictionary
280
     1
281
     1
  3
ACAD_XREC_ROUNDTRIP
360
2B9
  3
BUMPTILE
360
36
  3
DIFFUSETILE
360
37
  3
OPACITYTILE
360
38
  3
REFLECTIONTILE
360
39
  3
REFRACTIONTILE
360
3A
  3
SPECULARTILE
360
3B
  0
DICTIONARY
  5
C
330
A
100
AcDbDictionary
280
     1
281
     1
  3
ACAD_XREC_ROUNDTRIP
360
2B2
  3
BUMPTILE
360
D
  3
DIFFUSETILE
360
E
  3
OPACITYTILE
360
F
  3
REFLECTIONTILE
360
10
  3
REFRACTIONTILE
360
11
  3
SPECULARTILE
360
12
  0
DICTIONARY
  5
4A
330
49
100
AcDbDictionary
280
     1
281
     1
  3
ACAD_ROUNDTRIP_2008_TABLESTYLE_CELLSTYLEMAP
360
2AB
  3
ACAD_XREC_ROUNDTRIP
360
2BB
  0
DICTIONARY
  5
2B7
330
2A
100
AcDbDictionary
280
     1
281
     1
  3
ACAD_XREC_ROUNDTRIP
360
2B8
  0
DICTIONARY
  5
2CE
330
263
100
AcDbDictionary
280
     1
281
     1
  3
ACAD_XREC_ROUNDTRIP
360
2CF
  0
DICTIONARY
  5
2D6
330
267
100
AcDbDictionary
280
     1
281
     1
  3
ACAD_XREC_ROUNDTRIP
360
2D7
  0
DICTIONARY
  5
2DE
330
26B
100
AcDbDictionary
280
     1
281
     1
  3
ACAD_XREC_ROUNDTRIP
360
2DF
  0
DICTIONARY
  5
2D2
330
265
100
AcDbDictionary
280
     1
281
     1
  3
ACAD_XREC_ROUNDTRIP
360
2D3
  0
DICTIONARY
  5
2D4
330
266
100
AcDbDictionary
280
     1
281
     1
  3
ACAD_XREC_ROUNDTRIP
360
2D5
  0
DICTIONARY
  5
2EE
330
273
100
AcDbDictionary
280
     1
281
     1
  3
ACAD_XREC_ROUNDTRIP
360
2EF
  0
DICTIONARY
  5
2DC
330
26A
100
AcDbDictionary
280
     1
281
     1
  3
ACAD_XREC_ROUNDTRIP
360
2DD
  0
DICTIONARY
  5
2C6
330
25F
100
AcDbDictionary
280
     1
281
     1
  3
ACAD_XREC_ROUNDTRIP
360
2C7
  0
DICTIONARY
  5
2C8
330
260
100
AcDbDictionary
280
     1
281
     1
  3
ACAD_XREC_ROUNDTRIP
360
2C9
  0
DICTIONARY
  5
2CA
330
261
100
AcDbDictionary
280
     1
281
     1
  3
ACAD_XREC_ROUNDTRIP
360
2CB
  0
DICTIONARY
  5
2CC
330
262
100
AcDbDictionary
280
     1
281
     1
  3
ACAD_XREC_ROUNDTRIP
360
2CD
  0
DICTIONARY
  5
2D0
330
264
100
AcDbDictionary
280
     1
281
     1
  3
ACAD_XREC_ROUNDTRIP
360
2D1
  0
DICTIONARY
  5
2EA
330
271
100
AcDbDictionary
280
     1
281
     1
  3
ACAD_XREC_ROUNDTRIP
360
2EB
  0
DICTIONARY
  5
2DA
330
269
100
AcDbDictionary
280
     1
281
     1
  3
ACAD_XREC_ROUNDTRIP
360
2DB
  0
DICTIONARY
  5
2EC
330
272
100
AcDbDictionary
280
     1
281
     1
  3
ACAD_XREC_ROUNDTRIP
360
2ED
  0
DICTIONARY
  5
2BC
330
4B
100
AcDbDictionary
280
     1
281
     1
  3
ACAD_XREC_ROUNDTRIP
360
2BD
  0
DICTIONARY
  5
2E8
330
270
100
AcDbDictionary
280
     1
281
     1
  3
ACAD_XREC_ROUNDTRIP
360
2E9
  0
DICTIONARY
  5
2E6
330
26F
100
AcDbDictionary
280
     1
281
     1
  3
ACAD_XREC_ROUNDTRIP
360
2E7
  0
DICTIONARY
  5
2E0
330
26C
100
AcDbDictionary
280
     1
281
     1
  3
ACAD_XREC_ROUNDTRIP
360
2E1
  0
DICTIONARY
  5
2E2
330
26D
100
AcDbDictionary
280
     1
281
     1
  3
ACAD_XREC_ROUNDTRIP
360
2E3
  0
DICTIONARY
  5
2D8
330
268
100
AcDbDictionary
280
     1
281
     1
  3
ACAD_XREC_ROUNDTRIP
360
2D9
  0
DICTIONARY
  5
2BE
330
4C
100
AcDbDictionary
280
     1
281
     1
  3
ACAD_XREC_ROUNDTRIP
360
2BF
  0
DICTIONARY
  5
2E4
330
26E
100
AcDbDictionary
280
     1
281
     1
  3
ACAD_XREC_ROUNDTRIP
360
2E5
  0
XRECORD
  5
2B6
102
{ACAD_REACTORS
330
2B5
102
}
330
2B5
100
AcDbXrecord
280
     1
102
SHADEPLOT
 70
     0
102
SHADEPLOTRESLEVEL
 70
     2
102
SHADEPLOTCUSTOMDPI
 70
   300
  0
XRECORD
  5
2B4
102
{ACAD_REACTORS
330
2B3
102
}
330
2B3
100
AcDbXrecord
280
     1
102
SHADEPLOT
 70
     0
102
SHADEPLOTRESLEVEL
 70
     2
102
SHADEPLOTCUSTOMDPI
 70
   300
  0
XRECORD
  5
2BA
102
{ACAD_REACTORS
330
3D
102
}
330
3D
100
AcDbXrecord
280
     1
102
MATERIAL
148
0.0
149
0.0
149
0.0
 93
        0
 94
      127
282
     0
 72
     0
 77
     0
171
     0
175
     0
179
     0
273
     0
  0
XRECORD
  5
3E
102
{ACAD_REACTORS
330
3D
102
}
330
3D
100
AcDbXrecord
280
     1
270
     1
271
     1
  0
XRECORD
  5
3F
102
{ACAD_REACTORS
330
3D
102
}
330
3D
100
AcDbXrecord
280
     1
270
     1
271
     1
  0
XRECORD
  5
40
102
{ACAD_REACTORS
330
3D
102
}
330
3D
100
AcDbXrecord
280
     1
270
     1
271
     1
  0
XRECORD
  5
41
102
{ACAD_REACTORS
330
3D
102
}
330
3D
100
AcDbXrecord
280
     1
270
     1
271
     1
  0
XRECORD
  5
42
102
{ACAD_REACTORS
330
3D
102
}
330
3D
100
AcDbXrecord
280
     1
270
     1
271
     1
  0
XRECORD
  5
43
102
{ACAD_REACTORS
330
3D
102
}
330
3D
100
AcDbXrecord
280
     1
270
     1
271
     1
  0
XRECORD
  5
2B9
102
{ACAD_REACTORS
330
35
102
}
330
35
100
AcDbXrecord
280
     1
102
MATERIAL
148
0.0
149
0.0
149
0.0
 93
        0
 94
      127
282
     0
 72
     0
 77
     0
171
     0
175
     0
179
     0
273
     0
  0
XRECORD
  5
36
102
{ACAD_REACTORS
330
35
102
}
330
35
100
AcDbXrecord
280
     1
270
     1
271
     1
  0
XRECORD
  5
37
102
{ACAD_REACTORS
330
35
102
}
330
35
100
AcDbXrecord
280
     1
270
     1
271
     1
  0
XRECORD
  5
38
102
{ACAD_REACTORS
330
35
102
}
330
35
100
AcDbXrecord
280
     1
270
     1
271
     1
  0
XRECORD
  5
39
102
{ACAD_REACTORS
330
35
102
}
330
35
100
AcDbXrecord
280
     1
270
     1
271
     1
  0
XRECORD
  5
3A
102
{ACAD_REACTORS
330
35
102
}
330
35
100
AcDbXrecord
280
     1
270
     1
271
     1
  0
XRECORD
  5
3B
102
{ACAD_REACTORS
330
35
102
}
330
35
100
AcDbXrecord
280
     1
270
     1
271
     1
  0
XRECORD
  5
2B2
102
{ACAD_REACTORS
330
C
102
}
330
C
100
AcDbXrecord
280
     1
102
MATERIAL
148
0.0
149
0.0
149
0.0
 93
        0
 94
      127
282
     0
 72
     0
 77
     0
171
     0
175
     0
179
     0
273
     0
  0
XRECORD
  5
D
102
{ACAD_REACTORS
330
C
102
}
330
C
100
AcDbXrecord
280
     1
270
     1
271
     1
  0
XRECORD
  5
E
102
{ACAD_REACTORS
330
C
102
}
330
C
100
AcDbXrecord
280
     1
270
     1
271
     1
  0
XRECORD
  5
F
102
{ACAD_REACTORS
330
C
102
}
330
C
100
AcDbXrecord
280
     1
270
     1
271
     1
  0
XRECORD
  5
10
102
{ACAD_REACTORS
330
C
102
}
330
C
100
AcDbXrecord
280
     1
270
     1
271
     1
  0
XRECORD
  5
11
102
{ACAD_REACTORS
330
C
102
}
330
C
100
AcDbXrecord
280
     1
270
     1
271
     1
  0
XRECORD
  5
12
102
{ACAD_REACTORS
330
C
102
}
330
C
100
AcDbXrecord
280
     1
270
     1
271
     1
  0
CELLSTYLEMAP
  5
2AB
102
{ACAD_REACTORS
330
4A
102
}
330
4A
100
AcDbCellStyleMap
 90
        3
300
CELLSTYLE
  1
TABLEFORMAT_BEGIN
 90
        5
170
     1
 91
        0
 92
    32768
 62
   257
 93
        1
300
CONTENTFORMAT
  1
CONTENTFORMAT_BEGIN
 90
        0
 91
        0
 92
      512
 93
        0
300

 40
0.0
140
1.0
 94
        5
 62
     0
340
21
144
0.25
309
CONTENTFORMAT_END
171
     0
 94
        0
309
TABLEFORMAT_END
  1
CELLSTYLE_BEGIN
 90
        1
 91
        1
300
_TITLE
309
CELLSTYLE_END
300
CELLSTYLE
  1
TABLEFORMAT_BEGIN
 90
        5
170
     1
 91
        0
 92
        0
 62
   257
 93
        1
300
CONTENTFORMAT
  1
CONTENTFORMAT_BEGIN
 90
        0
 91
        0
 92
      512
 93
        0
300

 40
0.0
140
1.0
 94
        5
 62
     0
340
21
144
0.18
309
CONTENTFORMAT_END
171
     0
 94
        0
309
TABLEFORMAT_END
  1
CELLSTYLE_BEGIN
 90
        2
 91
        1
300
_HEADER
309
CELLSTYLE_END
300
CELLSTYLE
  1
TABLEFORMAT_BEGIN
 90
        5
170
     1
 91
        0
 92
        0
 62
   257
 93
        1
300
CONTENTFORMAT
  1
CONTENTFORMAT_BEGIN
 90
        0
 91
        0
 92
      512
 93
        0
300

 40
0.0
140
1.0
 94
        2
 62
     0
340
21
144
0.18
309
CONTENTFORMAT_END
171
     0
 94
        0
309
TABLEFORMAT_END
  1
CELLSTYLE_BEGIN
 90
        3
 91
        2
300
_DATA
309
CELLSTYLE_END
  0
XRECORD
  5
2BB
102
{ACAD_REACTORS
330
4A
102
}
330
4A
100
AcDbXrecord
280
     1
102
ACAD_ROUNDTRIP_PRE2007_TABLESTYLE
 90
      512
 91
        0
  1

 92
      512
 93
        0
  2

 94
      512
 95
        0
  3

  0
XRECORD
  5
2B8
102
{ACAD_REACTORS
330
2B7
102
}
330
2B7
100
AcDbXrecord
280
     1
102
RTVSPropertyOp0
 70
     1
102
RTVSPropertyOp1
 70
     1
102
RTVSPropertyOp2
 70
     1
102
RTVSPropertyOp3
 70
     1
102
RTVSPropertyOp4
 70
     1
102
RTVSPropertyOp5
 70
     1
102
RTVSPropertyOp6
 70
     1
102
RTVSPropertyOp7
 70
     1
102
RTVSPropertyOp8
 70
     1
102
RTVSPropertyOp9
 70
     1
102
RTVSPropertyOp10
 70
     1
102
RTVSPropertyOp11
 70
     1
102
RTVSPropertyOp12
 70
     1
102
RTVSPropertyOp13
 70
     1
102
RTVSPropertyOp14
 70
     1
102
RTVSPropertyOp15
 70
     1
102
RTVSPropertyOp16
 70
     1
102
RTVSPropertyOp17
 70
     1
102
RTVSPropertyOp18
 70
     1
102
RTVSPropertyOp19
 70
     1
102
RTVSPropertyOp20
 70
     1
102
RTVSPropertyOp21
 70
     1
102
RTVSPropertyOp22
 70
     1
102
RTVSPropertyOp23
 70
     1
102
RTVSPropertyOp24
 70
     1
102
RTVSPropertyOp25
 70
     1
102
RTVSPropertyOp26
 70
     1
102
RTVSPropertyOp27
 70
     1
102
RTVSPropertyOp28
 70
     1
102
RTVSPropertyOp29
 70
     1
102
RTVSPropertyOp30
 70
     1
102
RTVSPropertyOp31
 70
     1
102
RTVSPropertyOp32
 70
     1
  0
XRECORD
  5
2CF
102
{ACAD_REACTORS
330
2CE
102
}
330
2CE
100
AcDbXrecord
280
     1
102
RTVSPropertyOp0
 70
     1
102
RTVSPropertyOp1
 70
     1
102
RTVSPropertyOp2
 70
     1
102
RTVSPropertyOp3
 70
     1
102
RTVSPropertyOp4
 70
     1
102
RTVSPropertyOp5
 70
     1
102
RTVSPropertyOp6
 70
     1
102
RTVSPropertyOp7
 70
     1
102
RTVSPropertyOp8
 70
     1
102
RTVSPropertyOp9
 70
     1
102
RTVSPropertyOp10
 70
     1
102
RTVSPropertyOp11
 70
     1
102
RTVSPropertyOp12
 70
     1
102
RTVSPropertyOp13
 70
     1
102
RTVSPropertyOp14
 70
     1
102
RTVSPropertyOp15
 70
     1
102
RTVSPropertyOp16
 70
     1
102
RTVSPropertyOp17
 70
     1
102
RTVSPropertyOp18
 70
     1
102
RTVSPropertyOp19
 70
     1
102
RTVSPropertyOp20
 70
     1
102
RTVSPropertyOp21
 70
     1
102
RTVSPropertyOp22
 70
     1
102
RTVSPropertyOp23
 70
     1
102
RTVSPropertyOp24
 70
     1
102
RTVSPropertyOp25
 70
     1
102
RTVSPropertyOp26
 70
     1
102
RTVSPropertyOp27
 70
     1
102
RTVSPropertyOp28
 70
     1
102
RTVSPropertyOp29
 70
     1
102
RTVSPropertyOp30
 70
     1
102
RTVSPropertyOp31
 70
     1
102
RTVSPropertyOp32
 70
     1
  0
XRECORD
  5
2D7
102
{ACAD_REACTORS
330
2D6
102
}
330
2D6
100
AcDbXrecord
280
     1
102
RTVSPropertyOp0
 70
     1
102
RTVSPropertyOp1
 70
     1
102
RTVSPropertyOp2
 70
     1
102
RTVSPropertyOp3
 70
     1
102
RTVSPropertyOp4
 70
     1
102
RTVSPropertyOp5
 70
     1
102
RTVSPropertyOp6
 70
     1
102
RTVSPropertyOp7
 70
     1
102
RTVSPropertyOp8
 70
     1
102
RTVSPropertyOp9
 70
     1
102
RTVSPropertyOp10
 70
     1
102
RTVSPropertyOp11
 70
     1
102
RTVSPropertyOp12
 70
     1
102
RTVSPropertyOp13
 70
     1
102
RTVSPropertyOp14
 70
     1
102
RTVSPropertyOp15
 70
     1
102
RTVSPropertyOp16
 70
     1
102
RTVSPropertyOp17
 70
     1
102
RTVSPropertyOp18
 70
     1
102
RTVSPropertyOp19
 70
     1
102
RTVSPropertyOp20
 70
     1
102
RTVSPropertyOp21
 70
     1
102
RTVSPropertyOp22
 70
     1
102
RTVSPropertyOp23
 70
     1
102
RTVSPropertyOp24
 70
     1
102
RTVSPropertyOp25
 70
     1
102
RTVSPropertyOp26
 70
     1
102
RTVSPropertyOp27
 70
     1
102
RTVSPropertyOp28
 70
     1
102
RTVSPropertyOp29
 70
     1
102
RTVSPropertyOp30
 70
     1
102
RTVSPropertyOp31
 70
     1
102
RTVSPropertyOp32
 70
     1
  0
XRECORD
  5
2DF
102
{ACAD_REACTORS
330
2DE
102
}
330
2DE
100
AcDbXrecord
280
     1
102
RTVSPropertyOp0
 70
     1
102
RTVSPropertyOp1
 70
     1
102
RTVSPropertyOp2
 70
     1
102
RTVSPropertyOp3
 70
     1
102
RTVSPropertyOp4
 70
     1
102
RTVSPropertyOp5
 70
     1
102
RTVSPropertyOp6
 70
     1
102
RTVSPropertyOp7
 70
     1
102
RTVSPropertyOp8
 70
     1
102
RTVSPropertyOp9
 70
     1
102
RTVSPropertyOp10
 70
     1
102
RTVSPropertyOp11
 70
     1
102
RTVSPropertyOp12
 70
     1
102
RTVSPropertyOp13
 70
     1
102
RTVSPropertyOp14
 70
     1
102
RTVSPropertyOp15
 70
     1
102
RTVSPropertyOp16
 70
     1
102
RTVSPropertyOp17
 70
     1
102
RTVSPropertyOp18
 70
     1
102
RTVSPropertyOp19
 70
     1
102
RTVSPropertyOp20
 70
     1
102
RTVSPropertyOp21
 70
     1
102
RTVSPropertyOp22
 70
     1
102
RTVSPropertyOp23
 70
     1
102
RTVSPropertyOp24
 70
     1
102
RTVSPropertyOp25
 70
     1
102
RTVSPropertyOp26
 70
     1
102
RTVSPropertyOp27
 70
     1
102
RTVSPropertyOp28
 70
     1
102
RTVSPropertyOp29
 70
     1
102
RTVSPropertyOp30
 70
     1
102
RTVSPropertyOp31
 70
     1
102
RTVSPropertyOp32
 70
     1
  0
XRECORD
  5
2D3
102
{ACAD_REACTORS
330
2D2
102
}
330
2D2
100
AcDbXrecord
280
     1
102
RTVSPropertyOp0
 70
     1
102
RTVSPropertyOp1
 70
     1
102
RTVSPropertyOp2
 70
     1
102
RTVSPropertyOp3
 70
     1
102
RTVSPropertyOp4
 70
     1
102
RTVSPropertyOp5
 70
     1
102
RTVSPropertyOp6
 70
     1
102
RTVSPropertyOp7
 70
     1
102
RTVSPropertyOp8
 70
     1
102
RTVSPropertyOp9
 70
     1
102
RTVSPropertyOp10
 70
     1
102
RTVSPropertyOp11
 70
     1
102
RTVSPropertyOp12
 70
     1
102
RTVSPropertyOp13
 70
     1
102
RTVSPropertyOp14
 70
     1
102
RTVSPropertyOp15
 70
     1
102
RTVSPropertyOp16
 70
     1
102
RTVSPropertyOp17
 70
     1
102
RTVSPropertyOp18
 70
     1
102
RTVSPropertyOp19
 70
     1
102
RTVSPropertyOp20
 70
     1
102
RTVSPropertyOp21
 70
     1
102
RTVSPropertyOp22
 70
     1
102
RTVSPropertyOp23
 70
     1
102
RTVSPropertyOp24
 70
     1
102
RTVSPropertyOp25
 70
     1
102
RTVSPropertyOp26
 70
     1
102
RTVSPropertyOp27
 70
     1
102
RTVSPropertyOp28
 70
     1
102
RTVSPropertyOp29
 70
     1
102
RTVSPropertyOp30
 70
     1
102
RTVSPropertyOp31
 70
     1
102
RTVSPropertyOp32
 70
     1
  0
XRECORD
  5
2D5
102
{ACAD_REACTORS
330
2D4
102
}
330
2D4
100
AcDbXrecord
280
     1
102
RTVSPropertyOp0
 70
     1
102
RTVSPropertyOp1
 70
     1
102
RTVSPropertyOp2
 70
     1
102
RTVSPropertyOp3
 70
     1
102
RTVSPropertyOp4
 70
     1
102
RTVSPropertyOp5
 70
     1
102
RTVSPropertyOp6
 70
     1
102
RTVSPropertyOp7
 70
     1
102
RTVSPropertyOp8
 70
     1
102
RTVSPropertyOp9
 70
     1
102
RTVSPropertyOp10
 70
     1
102
RTVSPropertyOp11
 70
     1
102
RTVSPropertyOp12
 70
     1
102
RTVSPropertyOp13
 70
     1
102
RTVSPropertyOp14
 70
     1
102
RTVSPropertyOp15
 70
     1
102
RTVSPropertyOp16
 70
     1
102
RTVSPropertyOp17
 70
     1
102
RTVSPropertyOp18
 70
     1
102
RTVSPropertyOp19
 70
     1
102
RTVSPropertyOp20
 70
     1
102
RTVSPropertyOp21
 70
     1
102
RTVSPropertyOp22
 70
     1
102
RTVSPropertyOp23
 70
     1
102
RTVSPropertyOp24
 70
     1
102
RTVSPropertyOp25
 70
     1
102
RTVSPropertyOp26
 70
     1
102
RTVSPropertyOp27
 70
     1
102
RTVSPropertyOp28
 70
     1
102
RTVSPropertyOp29
 70
     1
102
RTVSPropertyOp30
 70
     1
102
RTVSPropertyOp31
 70
     1
102
RTVSPropertyOp32
 70
     1
  0
XRECORD
  5
2EF
102
{ACAD_REACTORS
330
2EE
102
}
330
2EE
100
AcDbXrecord
280
     1
102
RTVSPropertyOp0
 70
     0
102
RTVSPropertyOp1
 70
     0
102
RTVSPropertyOp2
 70
     0
102
RTVSPropertyOp3
 70
     0
102
RTVSPropertyOp4
 70
     0
102
RTVSPropertyOp5
 70
     0
102
RTVSPropertyOp6
 70
     0
102
RTVSPropertyOp7
 70
     0
102
RTVSPropertyOp8
 70
     0
102
RTVSPropertyOp9
 70
     0
102
RTVSPropertyOp10
 70
     0
102
RTVSPropertyOp11
 70
     0
102
RTVSPropertyOp12
 70
     0
102
RTVSPropertyOp13
 70
     0
102
RTVSPropertyOp14
 70
     2
102
RTVSPropertyOp15
 70
     0
102
RTVSPropertyOp16
 70
     0
102
RTVSPropertyOp17
 70
     0
102
RTVSPropertyOp18
 70
     0
102
RTVSPropertyOp19
 70
     0
102
RTVSPropertyOp20
 70
     0
102
RTVSPropertyOp21
 70
     0
102
RTVSPropertyOp22
 70
     0
102
RTVSPropertyOp23
 70
     0
102
RTVSPropertyOp24
 70
     0
102
RTVSPropertyOp25
 70
     0
102
RTVSPropertyOp26
 70
     0
102
RTVSPropertyOp27
 70
     0
102
RTVSPropertyOp28
 70
     0
102
RTVSPropertyOp29
 70
     0
102
RTVSPropertyOp30
 70
     0
102
RTVSPropertyOp31
 70
     0
102
RTVSPropertyOp32
 70
     0
  0
XRECORD
  5
2DD
102
{ACAD_REACTORS
330
2DC
102
}
330
2DC
100
AcDbXrecord
280
     1
102
RTVSPropertyOp0
 70
     1
102
RTVSPropertyOp1
 70
     1
102
RTVSPropertyOp2
 70
     1
102
RTVSPropertyOp3
 70
     1
102
RTVSPropertyOp4
 70
     1
102
RTVSPropertyOp5
 70
     1
102
RTVSPropertyOp6
 70
     1
102
RTVSPropertyOp7
 70
     1
102
RTVSPropertyOp8
 70
     1
102
RTVSPropertyOp9
 70
     1
102
RTVSPropertyOp10
 70
     1
102
RTVSPropertyOp11
 70
     1
102
RTVSPropertyOp12
 70
     1
102
RTVSPropertyOp13
 70
     1
102
RTVSPropertyOp14
 70
     1
102
RTVSPropertyOp15
 70
     1
102
RTVSPropertyOp16
 70
     1
102
RTVSPropertyOp17
 70
     1
102
RTVSPropertyOp18
 70
     1
102
RTVSPropertyOp19
 70
     1
102
RTVSPropertyOp20
 70
     1
102
RTVSPropertyOp21
 70
     1
102
RTVSPropertyOp22
 70
     1
102
RTVSPropertyOp23
 70
     1
102
RTVSPropertyOp24
 70
     1
102
RTVSPropertyOp25
 70
     1
102
RTVSPropertyOp26
 70
     1
102
RTVSPropertyOp27
 70
     1
102
RTVSPropertyOp28
 70
     1
102
RTVSPropertyOp29
 70
     1
102
RTVSPropertyOp30
 70
     1
102
RTVSPropertyOp31
 70
     1
102
RTVSPropertyOp32
 70
     1
  0
XRECORD
  5
2C7
102
{ACAD_REACTORS
330
2C6
102
}
330
2C6
100
AcDbXrecord
280
     1
102
RTVSPropertyOp0
 70
     1
102
RTVSPropertyOp1
 70
     1
102
RTVSPropertyOp2
 70
     1
102
RTVSPropertyOp3
 70
     1
102
RTVSPropertyOp4
 70
     1
102
RTVSPropertyOp5
 70
     1
102
RTVSPropertyOp6
 70
     1
102
RTVSPropertyOp7
 70
     1
102
RTVSPropertyOp8
 70
     1
102
RTVSPropertyOp9
 70
     1
102
RTVSPropertyOp10
 70
     1
102
RTVSPropertyOp11
 70
     1
102
RTVSPropertyOp12
 70
     1
102
RTVSPropertyOp13
 70
     1
102
RTVSPropertyOp14
 70
     1
102
RTVSPropertyOp15
 70
     1
102
RTVSPropertyOp16
 70
     1
102
RTVSPropertyOp17
 70
     1
102
RTVSPropertyOp18
 70
     1
102
RTVSPropertyOp19
 70
     1
102
RTVSPropertyOp20
 70
     1
102
RTVSPropertyOp21
 70
     1
102
RTVSPropertyOp22
 70
     1
102
RTVSPropertyOp23
 70
     1
102
RTVSPropertyOp24
 70
     1
102
RTVSPropertyOp25
 70
     1
102
RTVSPropertyOp26
 70
     1
102
RTVSPropertyOp27
 70
     1
102
RTVSPropertyOp28
 70
     1
102
RTVSPropertyOp29
 70
     1
102
RTVSPropertyOp30
 70
     1
102
RTVSPropertyOp31
 70
     1
102
RTVSPropertyOp32
 70
     1
  0
XRECORD
  5
2C9
102
{ACAD_REACTORS
330
2C8
102
}
330
2C8
100
AcDbXrecord
280
     1
102
RTVSPropertyOp0
 70
     1
102
RTVSPropertyOp1
 70
     1
102
RTVSPropertyOp2
 70
     1
102
RTVSPropertyOp3
 70
     1
102
RTVSPropertyOp4
 70
     1
102
RTVSPropertyOp5
 70
     1
102
RTVSPropertyOp6
 70
     1
102
RTVSPropertyOp7
 70
     1
102
RTVSPropertyOp8
 70
     1
102
RTVSPropertyOp9
 70
     1
102
RTVSPropertyOp10
 70
     1
102
RTVSPropertyOp11
 70
     1
102
RTVSPropertyOp12
 70
     1
102
RTVSPropertyOp13
 70
     1
102
RTVSPropertyOp14
 70
     1
102
RTVSPropertyOp15
 70
     1
102
RTVSPropertyOp16
 70
     1
102
RTVSPropertyOp17
 70
     1
102
RTVSPropertyOp18
 70
     1
102
RTVSPropertyOp19
 70
     1
102
RTVSPropertyOp20
 70
     1
102
RTVSPropertyOp21
 70
     1
102
RTVSPropertyOp22
 70
     1
102
RTVSPropertyOp23
 70
     1
102
RTVSPropertyOp24
 70
     1
102
RTVSPropertyOp25
 70
     1
102
RTVSPropertyOp26
 70
     1
102
RTVSPropertyOp27
 70
     1
102
RTVSPropertyOp28
 70
     1
102
RTVSPropertyOp29
 70
     1
102
RTVSPropertyOp30
 70
     1
102
RTVSPropertyOp31
 70
     1
102
RTVSPropertyOp32
 70
     1
  0
XRECORD
  5
2CB
102
{ACAD_REACTORS
330
2CA
102
}
330
2CA
100
AcDbXrecord
280
     1
102
RTVSPropertyOp0
 70
     1
102
RTVSPropertyOp1
 70
     1
102
RTVSPropertyOp2
 70
     1
102
RTVSPropertyOp3
 70
     1
102
RTVSPropertyOp4
 70
     1
102
RTVSPropertyOp5
 70
     1
102
RTVSPropertyOp6
 70
     1
102
RTVSPropertyOp7
 70
     1
102
RTVSPropertyOp8
 70
     1
102
RTVSPropertyOp9
 70
     1
102
RTVSPropertyOp10
 70
     1
102
RTVSPropertyOp11
 70
     1
102
RTVSPropertyOp12
 70
     1
102
RTVSPropertyOp13
 70
     1
102
RTVSPropertyOp14
 70
     1
102
RTVSPropertyOp15
 70
     1
102
RTVSPropertyOp16
 70
     1
102
RTVSPropertyOp17
 70
     1
102
RTVSPropertyOp18
 70
     1
102
RTVSPropertyOp19
 70
     1
102
RTVSPropertyOp20
 70
     1
102
RTVSPropertyOp21
 70
     1
102
RTVSPropertyOp22
 70
     1
102
RTVSPropertyOp23
 70
     1
102
RTVSPropertyOp24
 70
     1
102
RTVSPropertyOp25
 70
     1
102
RTVSPropertyOp26
 70
     1
102
RTVSPropertyOp27
 70
     1
102
RTVSPropertyOp28
 70
     1
102
RTVSPropertyOp29
 70
     1
102
RTVSPropertyOp30
 70
     1
102
RTVSPropertyOp31
 70
     1
102
RTVSPropertyOp32
 70
     1
  0
XRECORD
  5
2CD
102
{ACAD_REACTORS
330
2CC
102
}
330
2CC
100
AcDbXrecord
280
     1
102
RTVSPropertyOp0
 70
     1
102
RTVSPropertyOp1
 70
     1
102
RTVSPropertyOp2
 70
     1
102
RTVSPropertyOp3
 70
     1
102
RTVSPropertyOp4
 70
     1
102
RTVSPropertyOp5
 70
     1
102
RTVSPropertyOp6
 70
     1
102
RTVSPropertyOp7
 70
     1
102
RTVSPropertyOp8
 70
     1
102
RTVSPropertyOp9
 70
     1
102
RTVSPropertyOp10
 70
     1
102
RTVSPropertyOp11
 70
     1
102
RTVSPropertyOp12
 70
     1
102
RTVSPropertyOp13
 70
     1
102
RTVSPropertyOp14
 70
     1
102
RTVSPropertyOp15
 70
     1
102
RTVSPropertyOp16
 70
     1
102
RTVSPropertyOp17
 70
     1
102
RTVSPropertyOp18
 70
     1
102
RTVSPropertyOp19
 70
     1
102
RTVSPropertyOp20
 70
     1
102
RTVSPropertyOp21
 70
     1
102
RTVSPropertyOp22
 70
     1
102
RTVSPropertyOp23
 70
     1
102
RTVSPropertyOp24
 70
     1
102
RTVSPropertyOp25
 70
     1
102
RTVSPropertyOp26
 70
     1
102
RTVSPropertyOp27
 70
     1
102
RTVSPropertyOp28
 70
     1
102
RTVSPropertyOp29
 70
     1
102
RTVSPropertyOp30
 70
     1
102
RTVSPropertyOp31
 70
     1
102
RTVSPropertyOp32
 70
     1
  0
XRECORD
  5
2D1
102
{ACAD_REACTORS
330
2D0
102
}
330
2D0
100
AcDbXrecord
280
     1
102
RTVSPropertyOp0
 70
     1
102
RTVSPropertyOp1
 70
     1
102
RTVSPropertyOp2
 70
     1
102
RTVSPropertyOp3
 70
     1
102
RTVSPropertyOp4
 70
     1
102
RTVSPropertyOp5
 70
     1
102
RTVSPropertyOp6
 70
     1
102
RTVSPropertyOp7
 70
     1
102
RTVSPropertyOp8
 70
     1
102
RTVSPropertyOp9
 70
     1
102
RTVSPropertyOp10
 70
     1
102
RTVSPropertyOp11
 70
     1
102
RTVSPropertyOp12
 70
     1
102
RTVSPropertyOp13
 70
     1
102
RTVSPropertyOp14
 70
     1
102
RTVSPropertyOp15
 70
     1
102
RTVSPropertyOp16
 70
     1
102
RTVSPropertyOp17
 70
     1
102
RTVSPropertyOp18
 70
     1
102
RTVSPropertyOp19
 70
     1
102
RTVSPropertyOp20
 70
     1
102
RTVSPropertyOp21
 70
     1
102
RTVSPropertyOp22
 70
     1
102
RTVSPropertyOp23
 70
     1
102
RTVSPropertyOp24
 70
     1
102
RTVSPropertyOp25
 70
     1
102
RTVSPropertyOp26
 70
     1
102
RTVSPropertyOp27
 70
     1
102
RTVSPropertyOp28
 70
     1
102
RTVSPropertyOp29
 70
     1
102
RTVSPropertyOp30
 70
     1
102
RTVSPropertyOp31
 70
     1
102
RTVSPropertyOp32
 70
     1
  0
XRECORD
  5
2EB
102
{ACAD_REACTORS
330
2EA
102
}
330
2EA
100
AcDbXrecord
280
     1
102
RTVSPropertyOp0
 70
     0
102
RTVSPropertyOp1
 70
     0
102
RTVSPropertyOp2
 70
     0
102
RTVSPropertyOp3
 70
     0
102
RTVSPropertyOp4
 70
     0
102
RTVSPropertyOp5
 70
     0
102
RTVSPropertyOp6
 70
     0
102
RTVSPropertyOp7
 70
     0
102
RTVSPropertyOp8
 70
     0
102
RTVSPropertyOp9
 70
     0
102
RTVSPropertyOp10
 70
     0
102
RTVSPropertyOp11
 70
     0
102
RTVSPropertyOp12
 70
     0
102
RTVSPropertyOp13
 70
     0
102
RTVSPropertyOp14
 70
     2
102
RTVSPropertyOp15
 70
     0
102
RTVSPropertyOp16
 70
     0
102
RTVSPropertyOp17
 70
     0
102
RTVSPropertyOp18
 70
     0
102
RTVSPropertyOp19
 70
     0
102
RTVSPropertyOp20
 70
     0
102
RTVSPropertyOp21
 70
     0
102
RTVSPropertyOp22
 70
     0
102
RTVSPropertyOp23
 70
     0
102
RTVSPropertyOp24
 70
     0
102
RTVSPropertyOp25
 70
     0
102
RTVSPropertyOp26
 70
     0
102
RTVSPropertyOp27
 70
     0
102
RTVSPropertyOp28
 70
     0
102
RTVSPropertyOp29
 70
     0
102
RTVSPropertyOp30
 70
     0
102
RTVSPropertyOp31
 70
     0
102
RTVSPropertyOp32
 70
     0
  0
XRECORD
  5
2DB
102
{ACAD_REACTORS
330
2DA
102
}
330
2DA
100
AcDbXrecord
280
     1
102
RTVSPropertyOp0
 70
     1
102
RTVSPropertyOp1
 70
     1
102
RTVSPropertyOp2
 70
     1
102
RTVSPropertyOp3
 70
     1
102
RTVSPropertyOp4
 70
     1
102
RTVSPropertyOp5
 70
     1
102
RTVSPropertyOp6
 70
     1
102
RTVSPropertyOp7
 70
     1
102
RTVSPropertyOp8
 70
     1
102
RTVSPropertyOp9
 70
     1
102
RTVSPropertyOp10
 70
     1
102
RTVSPropertyOp11
 70
     1
102
RTVSPropertyOp12
 70
     1
102
RTVSPropertyOp13
 70
     1
102
RTVSPropertyOp14
 70
     1
102
RTVSPropertyOp15
 70
     1
102
RTVSPropertyOp16
 70
     1
102
RTVSPropertyOp17
 70
     1
102
RTVSPropertyOp18
 70
     1
102
RTVSPropertyOp19
 70
     1
102
RTVSPropertyOp20
 70
     1
102
RTVSPropertyOp21
 70
     1
102
RTVSPropertyOp22
 70
     1
102
RTVSPropertyOp23
 70
     1
102
RTVSPropertyOp24
 70
     1
102
RTVSPropertyOp25
 70
     1
102
RTVSPropertyOp26
 70
     1
102
RTVSPropertyOp27
 70
     1
102
RTVSPropertyOp28
 70
     1
102
RTVSPropertyOp29
 70
     1
102
RTVSPropertyOp30
 70
     1
102
RTVSPropertyOp31
 70
     1
102
RTVSPropertyOp32
 70
     1
  0
XRECORD
  5
2ED
102
{ACAD_REACTORS
330
2EC
102
}
330
2EC
100
AcDbXrecord
280
     1
102
RTVSPropertyOp0
 70
     0
102
RTVSPropertyOp1
 70
     0
102
RTVSPropertyOp2
 70
     0
102
RTVSPropertyOp3
 70
     0
102
RTVSPropertyOp4
 70
     0
102
RTVSPropertyOp5
 70
     0
102
RTVSPropertyOp6
 70
     0
102
RTVSPropertyOp7
 70
     0
102
RTVSPropertyOp8
 70
     0
102
RTVSPropertyOp9
 70
     0
102
RTVSPropertyOp10
 70
     0
102
RTVSPropertyOp11
 70
     0
102
RTVSPropertyOp12
 70
     0
102
RTVSPropertyOp13
 70
     0
102
RTVSPropertyOp14
 70
     2
102
RTVSPropertyOp15
 70
     0
102
RTVSPropertyOp16
 70
     0
102
RTVSPropertyOp17
 70
     0
102
RTVSPropertyOp18
 70
     0
102
RTVSPropertyOp19
 70
     0
102
RTVSPropertyOp20
 70
     0
102
RTVSPropertyOp21
 70
     0
102
RTVSPropertyOp22
 70
     0
102
RTVSPropertyOp23
 70
     0
102
RTVSPropertyOp24
 70
     0
102
RTVSPropertyOp25
 70
     0
102
RTVSPropertyOp26
 70
     0
102
RTVSPropertyOp27
 70
     0
102
RTVSPropertyOp28
 70
     0
102
RTVSPropertyOp29
 70
     0
102
RTVSPropertyOp30
 70
     0
102
RTVSPropertyOp31
 70
     0
102
RTVSPropertyOp32
 70
     0
  0
XRECORD
  5
2BD
102
{ACAD_REACTORS
330
2BC
102
}
330
2BC
100
AcDbXrecord
280
     1
102
RTVSPropertyOp0
 70
     1
102
RTVSPropertyOp1
 70
     1
102
RTVSPropertyOp2
 70
     1
102
RTVSPropertyOp3
 70
     1
102
RTVSPropertyOp4
 70
     1
102
RTVSPropertyOp5
 70
     1
102
RTVSPropertyOp6
 70
     1
102
RTVSPropertyOp7
 70
     1
102
RTVSPropertyOp8
 70
     1
102
RTVSPropertyOp9
 70
     1
102
RTVSPropertyOp10
 70
     1
102
RTVSPropertyOp11
 70
     1
102
RTVSPropertyOp12
 70
     1
102
RTVSPropertyOp13
 70
     1
102
RTVSPropertyOp14
 70
     1
102
RTVSPropertyOp15
 70
     1
102
RTVSPropertyOp16
 70
     1
102
RTVSPropertyOp17
 70
     1
102
RTVSPropertyOp18
 70
     1
102
RTVSPropertyOp19
 70
     1
102
RTVSPropertyOp20
 70
     1
102
RTVSPropertyOp21
 70
     1
102
RTVSPropertyOp22
 70
     1
102
RTVSPropertyOp23
 70
     1
102
RTVSPropertyOp24
 70
     1
102
RTVSPropertyOp25
 70
     1
102
RTVSPropertyOp26
 70
     1
102
RTVSPropertyOp27
 70
     1
102
RTVSPropertyOp28
 70
     1
102
RTVSPropertyOp29
 70
     1
102
RTVSPropertyOp30
 70
     1
102
RTVSPropertyOp31
 70
     1
102
RTVSPropertyOp32
 70
     1
  0
XRECORD
  5
2E9
102
{ACAD_REACTORS
330
2E8
102
}
330
2E8
100
AcDbXrecord
280
     1
102
RTVSPropertyOp0
 70
     1
102
RTVSPropertyOp1
 70
     1
102
RTVSPropertyOp2
 70
     1
102
RTVSPropertyOp3
 70
     1
102
RTVSPropertyOp4
 70
     1
102
RTVSPropertyOp5
 70
     1
102
RTVSPropertyOp6
 70
     1
102
RTVSPropertyOp7
 70
     1
102
RTVSPropertyOp8
 70
     1
102
RTVSPropertyOp9
 70
     1
102
RTVSPropertyOp10
 70
     1
102
RTVSPropertyOp11
 70
     1
102
RTVSPropertyOp12
 70
     1
102
RTVSPropertyOp13
 70
     1
102
RTVSPropertyOp14
 70
     1
102
RTVSPropertyOp15
 70
     1
102
RTVSPropertyOp16
 70
     1
102
RTVSPropertyOp17
 70
     1
102
RTVSPropertyOp18
 70
     1
102
RTVSPropertyOp19
 70
     1
102
RTVSPropertyOp20
 70
     1
102
RTVSPropertyOp21
 70
     1
102
RTVSPropertyOp22
 70
     1
102
RTVSPropertyOp23
 70
     1
102
RTVSPropertyOp24
 70
     1
102
RTVSPropertyOp25
 70
     1
102
RTVSPropertyOp26
 70
     1
102
RTVSPropertyOp27
 70
     1
102
RTVSPropertyOp28
 70
     1
102
RTVSPropertyOp29
 70
     1
102
RTVSPropertyOp30
 70
     1
102
RTVSPropertyOp31
 70
     1
102
RTVSPropertyOp32
 70
     1
  0
XRECORD
  5
2E7
102
{ACAD_REACTORS
330
2E6
102
}
330
2E6
100
AcDbXrecord
280
     1
102
RTVSPropertyOp0
 70
     1
102
RTVSPropertyOp1
 70
     1
102
RTVSPropertyOp2
 70
     1
102
RTVSPropertyOp3
 70
     1
102
RTVSPropertyOp4
 70
     1
102
RTVSPropertyOp5
 70
     1
102
RTVSPropertyOp6
 70
     1
102
RTVSPropertyOp7
 70
     1
102
RTVSPropertyOp8
 70
     1
102
RTVSPropertyOp9
 70
     1
102
RTVSPropertyOp10
 70
     1
102
RTVSPropertyOp11
 70
     1
102
RTVSPropertyOp12
 70
     1
102
RTVSPropertyOp13
 70
     1
102
RTVSPropertyOp14
 70
     1
102
RTVSPropertyOp15
 70
     1
102
RTVSPropertyOp16
 70
     1
102
RTVSPropertyOp17
 70
     1
102
RTVSPropertyOp18
 70
     1
102
RTVSPropertyOp19
 70
     1
102
RTVSPropertyOp20
 70
     1
102
RTVSPropertyOp21
 70
     1
102
RTVSPropertyOp22
 70
     1
102
RTVSPropertyOp23
 70
     1
102
RTVSPropertyOp24
 70
     1
102
RTVSPropertyOp25
 70
     1
102
RTVSPropertyOp26
 70
     1
102
RTVSPropertyOp27
 70
     1
102
RTVSPropertyOp28
 70
     1
102
RTVSPropertyOp29
 70
     1
102
RTVSPropertyOp30
 70
     1
102
RTVSPropertyOp31
 70
     1
102
RTVSPropertyOp32
 70
     1
  0
XRECORD
  5
2E1
102
{ACAD_REACTORS
330
2E0
102
}
330
2E0
100
AcDbXrecord
280
     1
102
RTVSPropertyOp0
 70
     1
102
RTVSPropertyOp1
 70
     1
102
RTVSPropertyOp2
 70
     1
102
RTVSPropertyOp3
 70
     1
102
RTVSPropertyOp4
 70
     1
102
RTVSPropertyOp5
 70
     1
102
RTVSPropertyOp6
 70
     1
102
RTVSPropertyOp7
 70
     1
102
RTVSPropertyOp8
 70
     1
102
RTVSPropertyOp9
 70
     1
102
RTVSPropertyOp10
 70
     1
102
RTVSPropertyOp11
 70
     1
102
RTVSPropertyOp12
 70
     1
102
RTVSPropertyOp13
 70
     1
102
RTVSPropertyOp14
 70
     1
102
RTVSPropertyOp15
 70
     1
102
RTVSPropertyOp16
 70
     1
102
RTVSPropertyOp17
 70
     1
102
RTVSPropertyOp18
 70
     1
102
RTVSPropertyOp19
 70
     1
102
RTVSPropertyOp20
 70
     1
102
RTVSPropertyOp21
 70
     1
102
RTVSPropertyOp22
 70
     1
102
RTVSPropertyOp23
 70
     1
102
RTVSPropertyOp24
 70
     1
102
RTVSPropertyOp25
 70
     1
102
RTVSPropertyOp26
 70
     1
102
RTVSPropertyOp27
 70
     1
102
RTVSPropertyOp28
 70
     1
102
RTVSPropertyOp29
 70
     1
102
RTVSPropertyOp30
 70
     1
102
RTVSPropertyOp31
 70
     1
102
RTVSPropertyOp32
 70
     1
  0
XRECORD
  5
2E3
102
{ACAD_REACTORS
330
2E2
102
}
330
2E2
100
AcDbXrecord
280
     1
102
RTVSPropertyOp0
 70
     1
102
RTVSPropertyOp1
 70
     1
102
RTVSPropertyOp2
 70
     1
102
RTVSPropertyOp3
 70
     1
102
RTVSPropertyOp4
 70
     1
102
RTVSPropertyOp5
 70
     1
102
RTVSPropertyOp6
 70
     1
102
RTVSPropertyOp7
 70
     1
102
RTVSPropertyOp8
 70
     1
102
RTVSPropertyOp9
 70
     1
102
RTVSPropertyOp10
 70
     1
102
RTVSPropertyOp11
 70
     1
102
RTVSPropertyOp12
 70
     1
102
RTVSPropertyOp13
 70
     1
102
RTVSPropertyOp14
 70
     1
102
RTVSPropertyOp15
 70
     1
102
RTVSPropertyOp16
 70
     1
102
RTVSPropertyOp17
 70
     1
102
RTVSPropertyOp18
 70
     1
102
RTVSPropertyOp19
 70
     1
102
RTVSPropertyOp20
 70
     1
102
RTVSPropertyOp21
 70
     1
102
RTVSPropertyOp22
 70
     1
102
RTVSPropertyOp23
 70
     1
102
RTVSPropertyOp24
 70
     1
102
RTVSPropertyOp25
 70
     1
102
RTVSPropertyOp26
 70
     1
102
RTVSPropertyOp27
 70
     1
102
RTVSPropertyOp28
 70
     1
102
RTVSPropertyOp29
 70
     1
102
RTVSPropertyOp30
 70
     1
102
RTVSPropertyOp31
 70
     1
102
RTVSPropertyOp32
 70
     1
  0
XRECORD
  5
2D9
102
{ACAD_REACTORS
330
2D8
102
}
330
2D8
100
AcDbXrecord
280
     1
102
RTVSPropertyOp0
 70
     1
102
RTVSPropertyOp1
 70
     1
102
RTVSPropertyOp2
 70
     1
102
RTVSPropertyOp3
 70
     1
102
RTVSPropertyOp4
 70
     1
102
RTVSPropertyOp5
 70
     1
102
RTVSPropertyOp6
 70
     1
102
RTVSPropertyOp7
 70
     1
102
RTVSPropertyOp8
 70
     1
102
RTVSPropertyOp9
 70
     1
102
RTVSPropertyOp10
 70
     1
102
RTVSPropertyOp11
 70
     1
102
RTVSPropertyOp12
 70
     1
102
RTVSPropertyOp13
 70
     1
102
RTVSPropertyOp14
 70
     1
102
RTVSPropertyOp15
 70
     1
102
RTVSPropertyOp16
 70
     1
102
RTVSPropertyOp17
 70
     1
102
RTVSPropertyOp18
 70
     1
102
RTVSPropertyOp19
 70
     1
102
RTVSPropertyOp20
 70
     1
102
RTVSPropertyOp21
 70
     1
102
RTVSPropertyOp22
 70
     1
102
RTVSPropertyOp23
 70
     1
102
RTVSPropertyOp24
 70
     1
102
RTVSPropertyOp25
 70
     1
102
RTVSPropertyOp26
 70
     1
102
RTVSPropertyOp27
 70
     1
102
RTVSPropertyOp28
 70
     1
102
RTVSPropertyOp29
 70
     1
102
RTVSPropertyOp30
 70
     1
102
RTVSPropertyOp31
 70
     1
102
RTVSPropertyOp32
 70
     1
  0
XRECORD
  5
2BF
102
{ACAD_REACTORS
330
2BE
102
}
330
2BE
100
AcDbXrecord
280
     1
102
RTVSPropertyOp0
 70
     1
102
RTVSPropertyOp1
 70
     1
102
RTVSPropertyOp2
 70
     1
102
RTVSPropertyOp3
 70
     1
102
RTVSPropertyOp4
 70
     1
102
RTVSPropertyOp5
 70
     1
102
RTVSPropertyOp6
 70
     1
102
RTVSPropertyOp7
 70
     1
102
RTVSPropertyOp8
 70
     1
102
RTVSPropertyOp9
 70
     1
102
RTVSPropertyOp10
 70
     1
102
RTVSPropertyOp11
 70
     1
102
RTVSPropertyOp12
 70
     1
102
RTVSPropertyOp13
 70
     1
102
RTVSPropertyOp14
 70
     1
102
RTVSPropertyOp15
 70
     1
102
RTVSPropertyOp16
 70
     1
102
RTVSPropertyOp17
 70
     1
102
RTVSPropertyOp18
 70
     1
102
RTVSPropertyOp19
 70
     1
102
RTVSPropertyOp20
 70
     1
102
RTVSPropertyOp21
 70
     1
102
RTVSPropertyOp22
 70
     1
102
RTVSPropertyOp23
 70
     1
102
RTVSPropertyOp24
 70
     1
102
RTVSPropertyOp25
 70
     1
102
RTVSPropertyOp26
 70
     1
102
RTVSPropertyOp27
 70
     1
102
RTVSPropertyOp28
 70
     1
102
RTVSPropertyOp29
 70
     1
102
RTVSPropertyOp30
 70
     1
102
RTVSPropertyOp31
 70
     1
102
RTVSPropertyOp32
 70
     1
  0
XRECORD
  5
2E5
102
{ACAD_REACTORS
330
2E4
102
}
330
2E4
100
AcDbXrecord
280
     1
102
RTVSPropertyOp0
 70
     1
102
RTVSPropertyOp1
 70
     1
102
RTVSPropertyOp2
 70
     1
102
RTVSPropertyOp3
 70
     1
102
RTVSPropertyOp4
 70
     1
102
RTVSPropertyOp5
 70
     1
102
RTVSPropertyOp6
 70
     1
102
RTVSPropertyOp7
 70
     1
102
RTVSPropertyOp8
 70
     1
102
RTVSPropertyOp9
 70
     1
102
RTVSPropertyOp10
 70
     1
102
RTVSPropertyOp11
 70
     1
102
RTVSPropertyOp12
 70
     1
102
RTVSPropertyOp13
 70
     1
102
RTVSPropertyOp14
 70
     1
102
RTVSPropertyOp15
 70
     1
102
RTVSPropertyOp16
 70
     1
102
RTVSPropertyOp17
 70
     1
102
RTVSPropertyOp18
 70
     1
102
RTVSPropertyOp19
 70
     1
102
RTVSPropertyOp20
 70
     1
102
RTVSPropertyOp21
 70
     1
102
RTVSPropertyOp22
 70
     1
102
RTVSPropertyOp23
 70
     1
102
RTVSPropertyOp24
 70
     1
102
RTVSPropertyOp25
 70
     1
102
RTVSPropertyOp26
 70
     1
102
RTVSPropertyOp27
 70
     1
102
RTVSPropertyOp28
 70
     1
102
RTVSPropertyOp29
 70
     1
102
RTVSPropertyOp30
 70
     1
102
RTVSPropertyOp31
 70
     1
102
RTVSPropertyOp32
 70
     1
  0
ENDSEC
  0
EOF
