  0
SECTION
  2
HEADER
  9
$ACADVER
  1
AC1027
  9
$ACADMAINTVER
 70
   105
  9
$DWGCODEPAGE
  3
ANSI_1252
  9
$REQUIREDVERSIONS
160
                 0
  9
$COMMENTS
  1
File was created by Cadenas
  9
$CUSTOMPROPERTYTAG
  1
NN
  9
$CUSTOMPROPERTY
  1
Geberit Mepla ball valve with actuator lever
  9
$CUSTOMPROPERTYTAG
  1
NT
  9
$CUSTOMPROPERTY
  1

  9
$CUSTOMPROPERTYTAG
  1
NB
  9
$CUSTOMPROPERTY
  1
615061
  9
$CUSTOMPROPERTYTAG
  1
NBSYN
  9
$CUSTOMPROPERTY
  1
$ARTNRTX.
  9
$CUSTOMPROPERTYTAG
  1
LINA
  9
$CUSTOMPROPERTY
  1
615061
  9
$CUSTOMPROPERTYTAG
  1
CATALOG
  9
$CUSTOMPROPERTY
  1
GEBERIT
  9
$CUSTOMPROPERTYTAG
  1
ARTNRT
  9
$CUSTOMPROPERTY
  1
615.061.00.2
  9
$CUSTOMPROPERTYTAG
  1
D
  9
$CUSTOMPROPERTY
  1
40
  9
$CUSTOMPROPERTYTAG
  1
DN
  9
$CUSTOMPROPERTY
  1
32
  9
$CUSTOMPROPERTYTAG
  1
DNV
  9
$CUSTOMPROPERTY
  1
25
  9
$CUSTOMPROPERTYTAG
  1
L
  9
$CUSTOMPROPERTY
  1
139
  9
$CUSTOMPROPERTYTAG
  1
L1
  9
$CUSTOMPROPERTY
  1
71
  9
$CUSTOMPROPERTYTAG
  1
L2
  9
$CUSTOMPROPERTY
  1
124
  9
$CUSTOMPROPERTYTAG
  1
Z
  9
$CUSTOMPROPERTY
  1
35
  9
$CUSTOMPROPERTYTAG
  1
ARTNRTX
  9
$CUSTOMPROPERTY
  1
615061
  9
$CUSTOMPROPERTYTAG
  1
COMPANY
  9
$CUSTOMPROPERTY
  1
geberit
  9
$INSBASE
 10
0.0
 20
0.0
 30
0.0
  9
$EXTMIN
 10
1.000000000000000E+20
 20
1.000000000000000E+20
 30
1.000000000000000E+20
  9
$EXTMAX
 10
-1.000000000000000E+20
 20
-1.000000000000000E+20
 30
-1.000000000000000E+20
  9
$LIMMIN
 10
0.0
 20
0.0
  9
$LIMMAX
 10
420.0
 20
297.0
  9
$ORTHOMODE
 70
     0
  9
$REGENMODE
 70
     1
  9
$FILLMODE
 70
     1
  9
$QTEXTMODE
 70
     0
  9
$MIRRTEXT
 70
     1
  9
$LTSCALE
 40
1.0
  9
$ATTMODE
 70
     1
  9
$TEXTSIZE
 40
2.5
  9
$TRACEWID
 40
1.0
  9
$TEXTSTYLE
  7
Standard
  9
$CLAYER
  8
0
  9
$CELTYPE
  6
ByLayer
  9
$CECOLOR
 62
   256
  9
$CELTSCALE
 40
1.0
  9
$DISPSILH
 70
     0
  9
$DIMSCALE
 40
1.0
  9
$DIMASZ
 40
2.5
  9
$DIMEXO
 40
0.625
  9
$DIMDLI
 40
3.75
  9
$DIMRND
 40
0.0
  9
$DIMDLE
 40
0.0
  9
$DIMEXE
 40
1.25
  9
$DIMTP
 40
0.0
  9
$DIMTM
 40
0.0
  9
$DIMTXT
 40
2.5
  9
$DIMCEN
 40
2.5
  9
$DIMTSZ
 40
0.0
  9
$DIMTOL
 70
     0
  9
$DIMLIM
 70
     0
  9
$DIMTIH
 70
     0
  9
$DIMTOH
 70
     0
  9
$DIMSE1
 70
     0
  9
$DIMSE2
 70
     0
  9
$DIMTAD
 70
     1
  9
$DIMZIN
 70
     8
  9
$DIMBLK
  1

  9
$DIMASO
 70
     1
  9
$DIMSHO
 70
     1
  9
$DIMPOST
  1

  9
$DIMAPOST
  1

  9
$DIMALT
 70
     0
  9
$DIMALTD
 70
     3
  9
$DIMALTF
 40
0.03937007874016
  9
$DIMLFAC
 40
1.0
  9
$DIMTOFL
 70
     1
  9
$DIMTVP
 40
0.0
  9
$DIMTIX
 70
     0
  9
$DIMSOXD
 70
     0
  9
$DIMSAH
 70
     0
  9
$DIMBLK1
  1

  9
$DIMBLK2
  1

  9
$DIMSTYLE
  2
ISO-25
  9
$DIMCLRD
 70
     0
  9
$DIMCLRE
 70
     0
  9
$DIMCLRT
 70
     0
  9
$DIMTFAC
 40
1.0
  9
$DIMGAP
 40
0.625
  9
$DIMJUST
 70
     0
  9
$DIMSD1
 70
     0
  9
$DIMSD2
 70
     0
  9
$DIMTOLJ
 70
     0
  9
$DIMTZIN
 70
     8
  9
$DIMALTZ
 70
     0
  9
$DIMALTTZ
 70
     0
  9
$DIMUPT
 70
     0
  9
$DIMDEC
 70
     2
  9
$DIMTDEC
 70
     2
  9
$DIMALTU
 70
     2
  9
$DIMALTTD
 70
     3
  9
$DIMTXSTY
  7
Standard
  9
$DIMAUNIT
 70
     0
  9
$DIMADEC
 70
     0
  9
$DIMALTRND
 40
0.0
  9
$DIMAZIN
 70
     0
  9
$DIMDSEP
 70
    44
  9
$DIMATFIT
 70
     3
  9
$DIMFRAC
 70
     0
  9
$DIMLDRBLK
  1

  9
$DIMLUNIT
 70
     2
  9
$DIMLWD
 70
    -2
  9
$DIMLWE
 70
    -2
  9
$DIMTMOVE
 70
     0
  9
$DIMFXL
 40
1.0
  9
$DIMFXLON
 70
     0
  9
$DIMJOGANG
 40
0.7853981633974483
  9
$DIMTFILL
 70
     0
  9
$DIMTFILLCLR
 70
     0
  9
$DIMARCSYM
 70
     0
  9
$DIMLTYPE
  6

  9
$DIMLTEX1
  6

  9
$DIMLTEX2
  6

  9
$DIMTXTDIRECTION
 70
     0
  9
$LUNITS
 70
     2
  9
$LUPREC
 70
     4
  9
$SKETCHINC
 40
1.0
  9
$FILLETRAD
 40
10.0
  9
$AUNITS
 70
     0
  9
$AUPREC
 70
     0
  9
$MENU
  1
.
  9
$ELEVATION
 40
0.0
  9
$PELEVATION
 40
0.0
  9
$THICKNESS
 40
0.0
  9
$LIMCHECK
 70
     0
  9
$CHAMFERA
 40
0.0
  9
$CHAMFERB
 40
0.0
  9
$CHAMFERC
 40
0.0
  9
$CHAMFERD
 40
0.0
  9
$SKPOLY
 70
     0
  9
$TDCREATE
 40
2458934.710173334
  9
$TDUCREATE
 40
2458934.668506667
  9
$TDUPDATE
 40
2458934.710173437
  9
$TDUUPDATE
 40
2458934.668506771
  9
$TDINDWG
 40
0.0000000116
  9
$TDUSRTIMER
 40
0.0000000116
  9
$USRTIMER
 70
     1
  9
$ANGBASE
 50
0.0
  9
$ANGDIR
 70
     0
  9
$PDMODE
 70
     0
  9
$PDSIZE
 40
0.0
  9
$PLINEWID
 40
0.0
  9
$SPLFRAME
 70
     0
  9
$SPLINETYPE
 70
     6
  9
$SPLINESEGS
 70
     8
  9
$HANDSEED
  5
16F
  9
$SURFTAB1
 70
     6
  9
$SURFTAB2
 70
     6
  9
$SURFTYPE
 70
     6
  9
$SURFU
 70
     6
  9
$SURFV
 70
     6
  9
$UCSBASE
  2

  9
$UCSNAME
  2

  9
$UCSORG
 10
0.0
 20
0.0
 30
0.0
  9
$UCSXDIR
 10
1.0
 20
0.0
 30
0.0
  9
$UCSYDIR
 10
0.0
 20
1.0
 30
0.0
  9
$UCSORTHOREF
  2

  9
$UCSORTHOVIEW
 70
     0
  9
$UCSORGTOP
 10
0.0
 20
0.0
 30
0.0
  9
$UCSORGBOTTOM
 10
0.0
 20
0.0
 30
0.0
  9
$UCSORGLEFT
 10
0.0
 20
0.0
 30
0.0
  9
$UCSORGRIGHT
 10
0.0
 20
0.0
 30
0.0
  9
$UCSORGFRONT
 10
0.0
 20
0.0
 30
0.0
  9
$UCSORGBACK
 10
0.0
 20
0.0
 30
0.0
  9
$PUCSBASE
  2

  9
$PUCSNAME
  2

  9
$PUCSORG
 10
0.0
 20
0.0
 30
0.0
  9
$PUCSXDIR
 10
1.0
 20
0.0
 30
0.0
  9
$PUCSYDIR
 10
0.0
 20
1.0
 30
0.0
  9
$PUCSORTHOREF
  2

  9
$PUCSORTHOVIEW
 70
     0
  9
$PUCSORGTOP
 10
0.0
 20
0.0
 30
0.0
  9
$PUCSORGBOTTOM
 10
0.0
 20
0.0
 30
0.0
  9
$PUCSORGLEFT
 10
0.0
 20
0.0
 30
0.0
  9
$PUCSORGRIGHT
 10
0.0
 20
0.0
 30
0.0
  9
$PUCSORGFRONT
 10
0.0
 20
0.0
 30
0.0
  9
$PUCSORGBACK
 10
0.0
 20
0.0
 30
0.0
  9
$USERI1
 70
     0
  9
$USERI2
 70
     0
  9
$USERI3
 70
     0
  9
$USERI4
 70
     0
  9
$USERI5
 70
     0
  9
$USERR1
 40
0.0
  9
$USERR2
 40
0.0
  9
$USERR3
 40
0.0
  9
$USERR4
 40
0.0
  9
$USERR5
 40
0.0
  9
$WORLDVIEW
 70
     1
  9
$SHADEDGE
 70
     3
  9
$SHADEDIF
 70
    70
  9
$TILEMODE
 70
     1
  9
$MAXACTVP
 70
    64
  9
$PINSBASE
 10
0.0
 20
0.0
 30
0.0
  9
$PLIMCHECK
 70
     0
  9
$PEXTMIN
 10
1.000000000000000E+20
 20
1.000000000000000E+20
 30
1.000000000000000E+20
  9
$PEXTMAX
 10
-1.000000000000000E+20
 20
-1.000000000000000E+20
 30
-1.000000000000000E+20
  9
$PLIMMIN
 10
0.0
 20
0.0
  9
$PLIMMAX
 10
420.0
 20
297.0
  9
$UNITMODE
 70
     0
  9
$VISRETAIN
 70
     1
  9
$PLINEGEN
 70
     0
  9
$PSLTSCALE
 70
     1
  9
$TREEDEPTH
 70
  3020
  9
$CMLSTYLE
  2
Standard
  9
$CMLJUST
 70
     0
  9
$CMLSCALE
 40
20.0
  9
$PROXYGRAPHICS
 70
     1
  9
$MEASUREMENT
 70
     1
  9
$CELWEIGHT
370
    -1
  9
$ENDCAPS
280
     0
  9
$JOINSTYLE
280
     0
  9
$LWDISPLAY
290
     0
  9
$INSUNITS
 70
     4
  9
$HYPERLINKBASE
  1

  9
$STYLESHEET
  1

  9
$XEDIT
290
     1
  9
$CEPSNTYPE
380
     0
  9
$PSTYLEMODE
290
     1
  9
$FINGERPRINTGUID
  2
{02ECEE96-B6F7-42B6-A99A-787406C6C9DC}
  9
$VERSIONGUID
  2
{FAEB1C32-E019-11D5-929B-00C0DF256EC4}
  9
$EXTNAMES
290
     1
  9
$PSVPSCALE
 40
0.0
  9
$OLESTARTUP
290
     0
  9
$SORTENTS
280
   127
  9
$INDEXCTL
280
     0
  9
$HIDETEXT
280
     1
  9
$XCLIPFRAME
280
     2
  9
$HALOGAP
280
     0
  9
$OBSCOLOR
 70
   257
  9
$OBSLTYPE
280
     0
  9
$INTERSECTIONDISPLAY
280
     0
  9
$INTERSECTIONCOLOR
 70
   257
  9
$DIMASSOC
280
     2
  9
$PROJECTNAME
  1

  9
$CAMERADISPLAY
290
     0
  9
$LENSLENGTH
 40
50.0
  9
$CAMERAHEIGHT
 40
0.0
  9
$STEPSPERSEC
 40
2.0
  9
$STEPSIZE
 40
6.0
  9
$3DDWFPREC
 40
2.0
  9
$PSOLWIDTH
 40
5.0
  9
$PSOLHEIGHT
 40
80.0
  9
$LOFTANG1
 40
1.570796326794897
  9
$LOFTANG2
 40
1.570796326794897
  9
$LOFTMAG1
 40
0.0
  9
$LOFTMAG2
 40
0.0
  9
$LOFTPARAM
 70
     7
  9
$LOFTNORMALS
280
     1
  9
$LATITUDE
 40
37.795
  9
$LONGITUDE
 40
-122.394
  9
$NORTHDIRECTION
 40
0.0
  9
$TIMEZONE
 70
 -8000
  9
$LIGHTGLYPHDISPLAY
280
     1
  9
$TILEMODELIGHTSYNCH
280
     1
  9
$CMATERIAL
347
44
  9
$SOLIDHIST
280
     0
  9
$SHOWHIST
280
     1
  9
$DWFFRAME
280
     2
  9
$DGNFRAME
280
     2
  9
$REALWORLDSCALE
290
     1
  9
$INTERFERECOLOR
 62
   256
  9
$CSHADOW
280
     0
  9
$SHADOWPLANELOCATION
 40
0.0
  0
ENDSEC
  0
SECTION
  2
CLASSES
  0
CLASS
  1
ACDBDICTIONARYWDFLT
  2
AcDbDictionaryWithDefault
  3
ObjectDBX Classes
 90
        0
 91
        4
280
     0
281
     0
  0
CLASS
  1
VISUALSTYLE
  2
AcDbVisualStyle
  3
ObjectDBX Classes
 90
     4095
 91
        4
280
     0
281
     0
  0
CLASS
  1
MATERIAL
  2
AcDbMaterial
  3
ObjectDBX Classes
 90
     1153
 91
        4
280
     0
281
     0
  0
CLASS
  1
SCALE
  2
AcDbScale
  3
ObjectDBX Classes
 90
     1153
 91
        4
280
     0
281
     0
  0
CLASS
  1
TABLESTYLE
  2
AcDbTableStyle
  3
ObjectDBX Classes
 90
     4095
 91
        4
280
     0
281
     0
  0
CLASS
  1
MLEADERSTYLE
  2
AcDbMLeaderStyle
  3
ACDB_MLEADERSTYLE_CLASS
 90
     4095
 91
        4
280
     0
281
     0
  0
CLASS
  1
SUN
  2
AcDbSun
  3
SCENEOE
 90
     1153
 91
        4
280
     0
281
     0
  0
CLASS
  1
DICTIONARYVAR
  2
AcDbDictionaryVar
  3
ObjectDBX Classes
 90
        0
 91
        4
280
     0
281
     0
  0
CLASS
  1
CELLSTYLEMAP
  2
AcDbCellStyleMap
  3
ObjectDBX Classes
 90
     1152
 91
        4
280
     0
281
     0
  0
ENDSEC
  0
SECTION
  2
TABLES
  0
TABLE
  2
VPORT
  5
8
330
0
100
AcDbSymbolTable
 70
     1
  0
VPORT
  5
29
330
8
100
AcDbSymbolTableRecord
100
AcDbViewportTableRecord
  2
*Active
 70
     0
 10
0.0
 20
0.0
 11
1.0
 21
1.0
 12
28.02500000000003
 22
0.3016830515139475
 13
0.0
 23
0.0
 14
10.0
 24
10.0
 15
10.0
 25
10.0
 16
0.0
 26
0.0
 36
1.0
 17
0.0
 27
0.0
 37
0.0
 40
55.23643342508846
 41
3.858485908382284
 42
50.0
 43
0.0
 44
0.0
 50
0.0
 51
0.0
 71
     0
 72
   100
 73
     1
 74
     3
 75
     0
 76
     0
 77
     0
 78
     0
281
     0
 65
     1
110
0.0
120
0.0
130
0.0
111
1.0
121
0.0
131
0.0
112
0.0
122
1.0
132
0.0
 79
     0
146
0.0
348
2F
 60
     3
 61
     5
292
     1
282
     1
141
0.0
142
0.0
 63
   250
361
6D
  0
ENDTAB
  0
TABLE
  2
LTYPE
  5
5
330
0
100
AcDbSymbolTable
 70
     3
  0
LTYPE
  5
14
330
5
100
AcDbSymbolTableRecord
100
AcDbLinetypeTableRecord
  2
ByBlock
 70
     0
  3

 72
    65
 73
     0
 40
0.0
  0
LTYPE
  5
15
330
5
100
AcDbSymbolTableRecord
100
AcDbLinetypeTableRecord
  2
ByLayer
 70
     0
  3

 72
    65
 73
     0
 40
0.0
  0
LTYPE
  5
16
330
5
100
AcDbSymbolTableRecord
100
AcDbLinetypeTableRecord
  2
Continuous
 70
     0
  3
Solid line
 72
    65
 73
     0
 40
0.0
  0
LTYPE
  5
7F
330
5
100
AcDbSymbolTableRecord
100
AcDbLinetypeTableRecord
  2
Dashed
 70
     0
  3

 72
    65
 73
     2
 40
2.0
 49
1.0
 74
     0
 49
-1.0
 74
     0
  0
LTYPE
  5
161
330
5
100
AcDbSymbolTableRecord
100
AcDbLinetypeTableRecord
  2
Center
 70
     0
  3

 72
    65
 73
     4
 40
1.5
 49
0.45
 74
     0
 49
-0.5
 74
     0
 49
0.05
 74
     0
 49
-0.5
 74
     0
  0
ENDTAB
  0
TABLE
  2
LAYER
  5
2
330
0
100
AcDbSymbolTable
 70
     5
  0
LAYER
  5
10
330
2
100
AcDbSymbolTableRecord
100
AcDbLayerTableRecord
  2
0
 70
     0
 62
     7
  6
Continuous
370
    -3
390
F
347
46
348
0
  0
LAYER
  5
6E
330
2
100
AcDbSymbolTableRecord
100
AcDbLayerTableRecord
  2
AM_6
 70
     0
 62
    -2
  6
Continuous
370
    35
390
F
347
46
348
0
  0
LAYER
  5
80
330
2
100
AcDbSymbolTableRecord
100
AcDbLayerTableRecord
  2
VER
 70
     0
 62
    -6
  6
Dashed
370
    25
390
F
347
46
348
0
  0
LAYER
  5
93
330
2
100
AcDbSymbolTableRecord
100
AcDbLayerTableRecord
  2
050
 70
     0
 62
     7
  6
Continuous
370
    50
390
F
347
46
348
0
  0
LAYER
  5
162
330
2
100
AcDbSymbolTableRecord
100
AcDbLayerTableRecord
  2
MITTE
 70
     0
 62
     7
  6
Center
370
    25
390
F
347
46
348
0
  0
ENDTAB
  0
TABLE
  2
STYLE
  5
3
330
0
100
AcDbSymbolTable
 70
     1
  0
STYLE
  5
11
330
3
100
AcDbSymbolTableRecord
100
AcDbTextStyleTableRecord
  2
Standard
 70
     0
 40
0.0
 41
1.0
 50
0.0
 71
     0
 42
2.5
  3
txt
  4

  0
ENDTAB
  0
TABLE
  2
VIEW
  5
6
330
0
100
AcDbSymbolTable
 70
     0
  0
ENDTAB
  0
TABLE
  2
UCS
  5
7
330
0
100
AcDbSymbolTable
 70
     0
  0
ENDTAB
  0
TABLE
  2
APPID
  5
9
330
0
100
AcDbSymbolTable
 70
     1
  0
APPID
  5
12
330
9
100
AcDbSymbolTableRecord
100
AcDbRegAppTableRecord
  2
ACAD
 70
     0
  0
ENDTAB
  0
TABLE
  2
DIMSTYLE
  5
A
330
0
100
AcDbSymbolTable
 70
     1
100
AcDbDimStyleTable
  0
DIMSTYLE
105
27
330
A
100
AcDbSymbolTableRecord
100
AcDbDimStyleTableRecord
  2
ISO-25
 70
     0
 41
2.5
 42
0.625
 43
3.75
 44
1.25
 73
     0
 74
     0
 77
     1
 78
     8
140
2.5
141
2.5
143
0.03937007874016
147
0.625
171
     3
172
     1
178
     0
271
     2
272
     2
274
     3
278
    44
283
     0
284
     8
340
11
  0
ENDTAB
  0
TABLE
  2
BLOCK_RECORD
  5
1
330
0
100
AcDbSymbolTable
 70
     1
  0
BLOCK_RECORD
  5
1F
330
1
100
AcDbSymbolTableRecord
100
AcDbBlockTableRecord
  2
*Model_Space
340
22
 70
     0
280
     1
281
     0
  0
BLOCK_RECORD
  5
1B
330
1
100
AcDbSymbolTableRecord
100
AcDbBlockTableRecord
  2
*Paper_Space
340
1E
 70
     0
280
     1
281
     0
  0
BLOCK_RECORD
  5
23
330
1
100
AcDbSymbolTableRecord
100
AcDbBlockTableRecord
  2
*Paper_Space0
340
26
 70
     0
280
     1
281
     0
  0
ENDTAB
  0
ENDSEC
  0
SECTION
  2
BLOCKS
  0
BLOCK
  5
20
330
1F
100
AcDbEntity
  8
0
100
AcDbBlockBegin
  2
*Model_Space
 70
     0
 10
0.0
 20
0.0
 30
0.0
  3
*Model_Space
  1

  0
ENDBLK
  5
21
330
1F
100
AcDbEntity
  8
0
100
AcDbBlockEnd
  0
BLOCK
  5
1C
330
1B
100
AcDbEntity
 67
     1
  8
0
100
AcDbBlockBegin
  2
*Paper_Space
 70
     0
 10
0.0
 20
0.0
 30
0.0
  3
*Paper_Space
  1

  0
ENDBLK
  5
1D
330
1B
100
AcDbEntity
 67
     1
  8
0
100
AcDbBlockEnd
  0
BLOCK
  5
24
330
23
100
AcDbEntity
  8
0
100
AcDbBlockBegin
  2
*Paper_Space0
 70
     0
 10
0.0
 20
0.0
 30
0.0
  3
*Paper_Space0
  1

  0
ENDBLK
  5
25
330
23
100
AcDbEntity
  8
0
100
AcDbBlockEnd
  0
ENDSEC
  0
SECTION
  2
ENTITIES
  0
ATTDEF
  5
6F
330
1F
100
AcDbEntity
  8
AM_6
100
AcDbText
 10
129.0
 20
26.77499999999999
 30
0.0
 40
0.5
  1
Geberit Mepla ball valve with actuator lever
100
AcDbAttributeDefinition
  3

  2
NN
 70
     8
280
     0
  0
ATTDEF
  5
70
330
1F
100
AcDbEntity
  8
AM_6
100
AcDbText
 10
129.0
 20
26.27499999999999
 30
0.0
 40
0.5
  1

100
AcDbAttributeDefinition
  3

  2
NT
 70
     8
280
     0
  0
ATTDEF
  5
71
330
1F
100
AcDbEntity
  8
AM_6
100
AcDbText
 10
129.0
 20
25.77499999999999
 30
0.0
 40
0.5
  1
615061
100
AcDbAttributeDefinition
  3

  2
NB
 70
     8
280
     0
  0
ATTDEF
  5
72
330
1F
100
AcDbEntity
  8
AM_6
100
AcDbText
 10
129.0
 20
25.27499999999999
 30
0.0
 40
0.5
  1
$ARTNRTX.
100
AcDbAttributeDefinition
  3

  2
NBSYN
 70
     8
280
     0
  0
ATTDEF
  5
73
330
1F
100
AcDbEntity
  8
AM_6
100
AcDbText
 10
129.0
 20
24.77499999999999
 30
0.0
 40
0.5
  1
615061
100
AcDbAttributeDefinition
  3

  2
LINA
 70
     8
280
     0
  0
ATTDEF
  5
74
330
1F
100
AcDbEntity
  8
AM_6
100
AcDbText
 10
129.0
 20
24.27499999999999
 30
0.0
 40
0.5
  1
GEBERIT
100
AcDbAttributeDefinition
  3

  2
CATALOG
 70
     8
280
     0
  0
ATTDEF
  5
75
330
1F
100
AcDbEntity
  8
AM_6
100
AcDbText
 10
129.0
 20
23.77499999999999
 30
0.0
 40
0.5
  1
615.061.00.2
100
AcDbAttributeDefinition
  3

  2
ARTNRT
 70
     8
280
     0
  0
ATTDEF
  5
76
330
1F
100
AcDbEntity
  8
AM_6
100
AcDbText
 10
129.0
 20
23.27499999999999
 30
0.0
 40
0.5
  1
40
100
AcDbAttributeDefinition
  3

  2
D
 70
     8
280
     0
  0
ATTDEF
  5
77
330
1F
100
AcDbEntity
  8
AM_6
100
AcDbText
 10
129.0
 20
22.77499999999999
 30
0.0
 40
0.5
  1
32
100
AcDbAttributeDefinition
  3

  2
DN
 70
     8
280
     0
  0
ATTDEF
  5
78
330
1F
100
AcDbEntity
  8
AM_6
100
AcDbText
 10
129.0
 20
22.27499999999999
 30
0.0
 40
0.5
  1
25
100
AcDbAttributeDefinition
  3

  2
DNV
 70
     8
280
     0
  0
ATTDEF
  5
79
330
1F
100
AcDbEntity
  8
AM_6
100
AcDbText
 10
129.0
 20
21.77499999999999
 30
0.0
 40
0.5
  1
139
100
AcDbAttributeDefinition
  3

  2
L
 70
     8
280
     0
  0
ATTDEF
  5
7A
330
1F
100
AcDbEntity
  8
AM_6
100
AcDbText
 10
129.0
 20
21.27499999999999
 30
0.0
 40
0.5
  1
71
100
AcDbAttributeDefinition
  3

  2
L1
 70
     8
280
     0
  0
ATTDEF
  5
7B
330
1F
100
AcDbEntity
  8
AM_6
100
AcDbText
 10
129.0
 20
20.77499999999999
 30
0.0
 40
0.5
  1
124
100
AcDbAttributeDefinition
  3

  2
L2
 70
     8
280
     0
  0
ATTDEF
  5
7C
330
1F
100
AcDbEntity
  8
AM_6
100
AcDbText
 10
129.0
 20
20.27499999999999
 30
0.0
 40
0.5
  1
35
100
AcDbAttributeDefinition
  3

  2
Z
 70
     8
280
     0
  0
ATTDEF
  5
7D
330
1F
100
AcDbEntity
  8
AM_6
100
AcDbText
 10
129.0
 20
19.77499999999999
 30
0.0
 40
0.5
  1
615061
100
AcDbAttributeDefinition
  3

  2
ARTNRTX
 70
     8
280
     0
  0
ATTDEF
  5
7E
330
1F
100
AcDbEntity
  8
AM_6
100
AcDbText
 10
129.0
 20
19.27499999999999
 30
0.0
 40
0.5
  1
geberit
100
AcDbAttributeDefinition
  3

  2
COMPANY
 70
     8
280
     0
  0
ARC
  5
81
330
1F
100
AcDbEntity
  8
VER
100
AcDbCircle
 10
0.0000000000000258
 20
0.0000000000000284
 30
0.0
 40
14.24684175528039
100
AcDbArc
 50
188.0699509707043
 51
351.9300490292957
  0
ARC
  5
82
330
1F
100
AcDbEntity
  8
VER
100
AcDbCircle
 10
-0.0000000000000009
 20
-0.0000000000000835
 30
0.0
 40
14.24684175528044
100
AcDbArc
 50
8.069950970704504
 51
171.9300490292955
  0
LINE
  5
83
330
1F
100
AcDbEntity
  8
VER
100
AcDbLine
 10
-23.5
 20
2.0
 30
0.0
 11
-23.5
 21
-2.0
 31
0.0
  0
LINE
  5
84
330
1F
100
AcDbEntity
  8
VER
100
AcDbLine
 10
23.5
 20
2.0
 30
0.0
 11
23.5
 21
-2.0
 31
0.0
  0
LINE
  5
85
330
1F
100
AcDbEntity
  8
VER
100
AcDbLine
 10
-25.5
 20
2.0
 30
0.0
 11
-14.10576123433265
 21
2.0
 31
0.0
  0
LINE
  5
86
330
1F
100
AcDbEntity
  8
VER
100
AcDbLine
 10
-25.5
 20
-2.0
 30
0.0
 11
-14.10576123433258
 21
-1.999999999999993
 31
0.0
  0
LINE
  5
87
330
1F
100
AcDbEntity
  8
VER
100
AcDbLine
 10
14.10576123433265
 20
2.0
 30
0.0
 11
25.5
 21
2.0
 31
0.0
  0
LINE
  5
88
330
1F
100
AcDbEntity
  8
VER
100
AcDbLine
 10
14.10576123433264
 20
-2.0
 30
0.0
 11
25.5
 21
-2.0
 31
0.0
  0
ARC
  5
89
330
1F
100
AcDbEntity
  8
VER
100
AcDbCircle
 10
0.0000000000000018
 20
-0.0000000000000107
 30
0.0
 40
24.14966895777537
100
AcDbArc
 50
49.87450076204064
 51
130.1254992379594
  0
ARC
  5
8A
330
1F
100
AcDbEntity
  8
VER
100
AcDbCircle
 10
0.0000000000000009
 20
0.0000000000000142
 30
0.0
 40
24.14966895777537
100
AcDbArc
 50
229.8745007620406
 51
310.1254992379594
  0
LINE
  5
8B
330
1F
100
AcDbEntity
  8
VER
100
AcDbLine
 10
-60.43000000000001
 20
-12.4
 30
0.0
 11
60.43000000000001
 21
-12.4
 31
0.0
  0
LINE
  5
8C
330
1F
100
AcDbEntity
  8
VER
100
AcDbLine
 10
60.43000000000001
 20
12.4
 30
0.0
 11
-60.43000000000001
 21
12.4
 31
0.0
  0
LINE
  5
8D
330
1F
100
AcDbEntity
  8
VER
100
AcDbLine
 10
60.43000000000001
 20
-12.4
 30
0.0
 11
69.08682408883347
 21
-13.9264316541083
 31
0.0
  0
LINE
  5
8E
330
1F
100
AcDbEntity
  8
VER
100
AcDbLine
 10
69.08682408883347
 20
13.9264316541083
 30
0.0
 11
60.43000000000001
 21
12.4
 31
0.0
  0
LINE
  5
8F
330
1F
100
AcDbEntity
  8
VER
100
AcDbLine
 10
60.43000000000001
 20
12.4
 30
0.0
 11
60.43000000000001
 21
-12.4
 31
0.0
  0
LINE
  5
90
330
1F
100
AcDbEntity
  8
VER
100
AcDbLine
 10
-60.43000000000001
 20
12.4
 30
0.0
 11
-69.08682408883348
 21
13.92643165410831
 31
0.0
  0
LINE
  5
91
330
1F
100
AcDbEntity
  8
VER
100
AcDbLine
 10
-69.08682408883348
 20
-13.92643165410831
 30
0.0
 11
-60.43000000000001
 21
-12.4
 31
0.0
  0
LINE
  5
92
330
1F
100
AcDbEntity
  8
VER
100
AcDbLine
 10
-60.43000000000001
 20
12.4
 30
0.0
 11
-60.43000000000001
 21
-12.4
 31
0.0
  0
LINE
  5
94
330
1F
100
AcDbEntity
  8
050
100
AcDbLine
 10
48.09999999999999
 20
-14.3
 30
0.0
 11
55.3
 21
-14.3
 31
0.0
  0
LINE
  5
95
330
1F
100
AcDbEntity
  8
VER
100
AcDbLine
 10
55.3
 20
14.3
 30
0.0
 11
48.09999999999999
 21
14.3
 31
0.0
  0
LINE
  5
96
330
1F
100
AcDbEntity
  8
050
100
AcDbLine
 10
-55.29999999999999
 20
-14.3
 30
0.0
 11
-48.1
 21
-14.3
 31
0.0
  0
LINE
  5
97
330
1F
100
AcDbEntity
  8
050
100
AcDbLine
 10
-48.1
 20
14.3
 30
0.0
 11
-55.29999999999999
 21
14.3
 31
0.0
  0
ARC
  5
98
330
1F
100
AcDbEntity
  8
VER
100
AcDbCircle
 10
-68.99999999999997
 20
-14.41883553061442
 30
0.0
 40
0.5000000000000117
100
AcDbArc
 50
100.0000000000049
 51
179.999999999999
  0
ARC
  5
99
330
1F
100
AcDbEntity
  8
VER
100
AcDbCircle
 10
-68.99999999999997
 20
14.41883553061442
 30
0.0
 40
0.5000000000000142
100
AcDbArc
 50
180.000000000001
 51
259.9999999999951
  0
LINE
  5
9A
330
1F
100
AcDbEntity
  8
VER
100
AcDbLine
 10
-69.08682408883348
 20
13.92643165410831
 30
0.0
 11
-69.08682408883348
 21
-13.92643165410831
 31
0.0
  0
ARC
  5
9B
330
1F
100
AcDbEntity
  8
VER
100
AcDbCircle
 10
68.99999999999996
 20
-14.41883553061444
 30
0.0
 40
0.5000000000000426
100
AcDbArc
 50
0.0000000000026462
 51
79.99999999999565
  0
ARC
  5
9C
330
1F
100
AcDbEntity
  8
VER
100
AcDbCircle
 10
68.99999999999996
 20
14.41883553061444
 30
0.0
 40
0.5000000000000396
100
AcDbArc
 50
280.0000000000043
 51
359.9999999999974
  0
LINE
  5
9D
330
1F
100
AcDbEntity
  8
VER
100
AcDbLine
 10
69.08682408883347
 20
13.9264316541083
 30
0.0
 11
69.08682408883347
 21
-13.9264316541083
 31
0.0
  0
LINE
  5
9E
330
1F
100
AcDbEntity
  8
050
100
AcDbLine
 10
-41.6
 20
-15.15
 30
0.0
 11
-41.09999999999999
 21
-15.15
 31
0.0
  0
LINE
  5
9F
330
1F
100
AcDbEntity
  8
050
100
AcDbLine
 10
-41.09999999999999
 20
15.15
 30
0.0
 11
-41.6
 21
15.15
 31
0.0
  0
LINE
  5
A0
330
1F
100
AcDbEntity
  8
050
100
AcDbLine
 10
-40.09999999999999
 20
-15.15
 30
0.0
 11
-39.59999999999999
 21
-15.15
 31
0.0
  0
LINE
  5
A1
330
1F
100
AcDbEntity
  8
050
100
AcDbLine
 10
-39.59999999999999
 20
15.15
 30
0.0
 11
-40.09999999999999
 21
15.15
 31
0.0
  0
LINE
  5
A2
330
1F
100
AcDbEntity
  8
050
100
AcDbLine
 10
39.6
 20
-15.15
 30
0.0
 11
40.1
 21
-15.15
 31
0.0
  0
LINE
  5
A3
330
1F
100
AcDbEntity
  8
VER
100
AcDbLine
 10
40.1
 20
15.15
 30
0.0
 11
39.6
 21
15.15
 31
0.0
  0
LINE
  5
A4
330
1F
100
AcDbEntity
  8
050
100
AcDbLine
 10
41.1
 20
-15.15
 30
0.0
 11
41.6
 21
-15.15
 31
0.0
  0
LINE
  5
A5
330
1F
100
AcDbEntity
  8
VER
100
AcDbLine
 10
41.6
 20
15.15
 30
0.0
 11
41.1
 21
15.15
 31
0.0
  0
LINE
  5
A6
330
1F
100
AcDbEntity
  8
050
100
AcDbLine
 10
35.0
 20
-15.5
 30
0.0
 11
38.6
 21
-15.5
 31
0.0
  0
LINE
  5
A7
330
1F
100
AcDbEntity
  8
VER
100
AcDbLine
 10
38.6
 20
15.5
 30
0.0
 11
35.0
 21
15.5
 31
0.0
  0
LINE
  5
A8
330
1F
100
AcDbEntity
  8
050
100
AcDbLine
 10
-38.59999999999999
 20
-15.5
 30
0.0
 11
-35.0
 21
-15.5
 31
0.0
  0
LINE
  5
A9
330
1F
100
AcDbEntity
  8
050
100
AcDbLine
 10
-35.0
 20
15.5
 30
0.0
 11
-38.59999999999999
 21
15.5
 31
0.0
  0
LINE
  5
AA
330
1F
100
AcDbEntity
  8
050
100
AcDbLine
 10
-69.5
 20
15.28436014752909
 30
0.0
 11
-69.5
 21
-15.28436014752909
 31
0.0
  0
ARC
  5
AB
330
1F
100
AcDbEntity
  8
050
100
AcDbCircle
 10
-69.10000000000001
 20
-15.2843601475291
 30
0.0
 40
0.3999999999999915
100
AcDbArc
 50
179.9999999999982
 51
260.0000000000011
  0
ARC
  5
AC
330
1F
100
AcDbEntity
  8
050
100
AcDbCircle
 10
-69.10000000000001
 20
15.2843601475291
 30
0.0
 40
0.3999999999999864
100
AcDbArc
 50
99.99999999999889
 51
180.0000000000018
  0
LINE
  5
AD
330
1F
100
AcDbEntity
  8
050
100
AcDbLine
 10
69.5
 20
-4.25
 30
0.0
 11
69.5
 21
-15.28436014752909
 31
0.0
  0
LINE
  5
AE
330
1F
100
AcDbEntity
  8
VER
100
AcDbLine
 10
69.5
 20
15.28436014752909
 30
0.0
 11
69.5
 21
-4.25
 31
0.0
  0
ARC
  5
AF
330
1F
100
AcDbEntity
  8
050
100
AcDbCircle
 10
69.10000000000001
 20
-15.2843601475291
 30
0.0
 40
0.3999999999999864
100
AcDbArc
 50
279.9999999999989
 51
0.0000000000017811
  0
ARC
  5
B0
330
1F
100
AcDbEntity
  8
VER
100
AcDbCircle
 10
69.10000000000001
 20
15.2843601475291
 30
0.0
 40
0.3999999999999915
100
AcDbArc
 50
359.9999999999983
 51
80.00000000000111
  0
LINE
  5
B1
330
1F
100
AcDbEntity
  8
VER
100
AcDbLine
 10
41.1
 20
15.15
 30
0.0
 11
40.1
 21
15.85020753820971
 31
0.0
  0
LINE
  5
B2
330
1F
100
AcDbEntity
  8
050
100
AcDbLine
 10
40.1
 20
-15.85020753820971
 30
0.0
 11
41.1
 21
-15.15
 31
0.0
  0
LINE
  5
B3
330
1F
100
AcDbEntity
  8
050
100
AcDbLine
 10
41.1
 20
-4.25
 30
0.0
 11
41.1
 21
-15.15
 31
0.0
  0
LINE
  5
B4
330
1F
100
AcDbEntity
  8
VER
100
AcDbLine
 10
41.1
 20
15.15
 30
0.0
 11
41.1
 21
-4.25
 31
0.0
  0
LINE
  5
B5
330
1F
100
AcDbEntity
  8
050
100
AcDbLine
 10
40.1
 20
-4.25
 30
0.0
 11
40.1
 21
-15.85020753820971
 31
0.0
  0
LINE
  5
B6
330
1F
100
AcDbEntity
  8
VER
100
AcDbLine
 10
40.1
 20
15.85020753820971
 30
0.0
 11
40.1
 21
-4.25
 31
0.0
  0
LINE
  5
B7
330
1F
100
AcDbEntity
  8
050
100
AcDbLine
 10
-41.09999999999999
 20
-15.15
 30
0.0
 11
-40.09999999999999
 21
-15.85020753820971
 31
0.0
  0
LINE
  5
B8
330
1F
100
AcDbEntity
  8
050
100
AcDbLine
 10
-40.09999999999999
 20
15.85020753820971
 30
0.0
 11
-41.09999999999999
 21
15.15
 31
0.0
  0
LINE
  5
B9
330
1F
100
AcDbEntity
  8
050
100
AcDbLine
 10
-40.09999999999999
 20
15.85020753820971
 30
0.0
 11
-40.09999999999999
 21
-15.85020753820971
 31
0.0
  0
LINE
  5
BA
330
1F
100
AcDbEntity
  8
050
100
AcDbLine
 10
-41.09999999999999
 20
15.15
 30
0.0
 11
-41.09999999999999
 21
-15.15
 31
0.0
  0
LINE
  5
BB
330
1F
100
AcDbEntity
  8
050
100
AcDbLine
 10
-39.59999999999999
 20
-15.15
 30
0.0
 11
-38.59999999999999
 21
-15.85020753820971
 31
0.0
  0
LINE
  5
BC
330
1F
100
AcDbEntity
  8
050
100
AcDbLine
 10
-38.59999999999999
 20
15.85020753820971
 30
0.0
 11
-39.59999999999999
 21
15.15
 31
0.0
  0
LINE
  5
BD
330
1F
100
AcDbEntity
  8
050
100
AcDbLine
 10
-38.59999999999999
 20
15.85020753820971
 30
0.0
 11
-38.59999999999999
 21
-15.85020753820971
 31
0.0
  0
LINE
  5
BE
330
1F
100
AcDbEntity
  8
050
100
AcDbLine
 10
-39.59999999999999
 20
15.15
 30
0.0
 11
-39.59999999999999
 21
-15.15
 31
0.0
  0
LINE
  5
BF
330
1F
100
AcDbEntity
  8
VER
100
AcDbLine
 10
39.6
 20
15.15
 30
0.0
 11
38.6
 21
15.85020753820971
 31
0.0
  0
LINE
  5
C0
330
1F
100
AcDbEntity
  8
050
100
AcDbLine
 10
38.6
 20
-15.85020753820971
 30
0.0
 11
39.6
 21
-15.15
 31
0.0
  0
LINE
  5
C1
330
1F
100
AcDbEntity
  8
050
100
AcDbLine
 10
39.6
 20
-4.25
 30
0.0
 11
39.6
 21
-15.15
 31
0.0
  0
LINE
  5
C2
330
1F
100
AcDbEntity
  8
VER
100
AcDbLine
 10
39.6
 20
15.15
 30
0.0
 11
39.6
 21
-4.25
 31
0.0
  0
LINE
  5
C3
330
1F
100
AcDbEntity
  8
050
100
AcDbLine
 10
38.6
 20
-4.25
 30
0.0
 11
38.6
 21
-15.85020753820971
 31
0.0
  0
LINE
  5
C4
330
1F
100
AcDbEntity
  8
VER
100
AcDbLine
 10
38.6
 20
15.85020753820971
 30
0.0
 11
38.6
 21
-4.25
 31
0.0
  0
LINE
  5
C5
330
1F
100
AcDbEntity
  8
050
100
AcDbLine
 10
26.25
 20
-16.0
 30
0.0
 11
30.9
 21
-16.0
 31
0.0
  0
LINE
  5
C6
330
1F
100
AcDbEntity
  8
VER
100
AcDbLine
 10
30.9
 20
16.0
 30
0.0
 11
26.25
 21
16.0
 31
0.0
  0
LINE
  5
C7
330
1F
100
AcDbEntity
  8
050
100
AcDbLine
 10
-30.9
 20
-16.0
 30
0.0
 11
-26.25
 21
-16.0
 31
0.0
  0
LINE
  5
C8
330
1F
100
AcDbEntity
  8
050
100
AcDbLine
 10
-26.25
 20
16.0
 30
0.0
 11
-30.9
 21
16.0
 31
0.0
  0
LINE
  5
C9
330
1F
100
AcDbEntity
  8
VER
100
AcDbLine
 10
69.16945927106677
 20
15.67828324873397
 30
0.0
 11
65.50174631716952
 21
16.325
 31
0.0
  0
LINE
  5
CA
330
1F
100
AcDbEntity
  8
050
100
AcDbLine
 10
65.50174631716952
 20
-16.325
 30
0.0
 11
69.16945927106677
 21
-15.67828324873397
 31
0.0
  0
LINE
  5
CB
330
1F
100
AcDbEntity
  8
050
100
AcDbLine
 10
69.16945927106677
 20
-4.250000000000001
 30
0.0
 11
69.16945927106677
 21
-15.67828324873397
 31
0.0
  0
LINE
  5
CC
330
1F
100
AcDbEntity
  8
VER
100
AcDbLine
 10
69.16945927106677
 20
15.67828324873397
 30
0.0
 11
69.16945927106677
 21
-4.250000000000001
 31
0.0
  0
ARC
  5
CD
330
1F
100
AcDbEntity
  8
050
100
AcDbCircle
 10
62.67087315858477
 20
-19.42760489911374
 30
0.0
 40
4.200000000000027
100
AcDbArc
 50
47.62210646676301
 51
132.3778935332371
  0
ARC
  5
CE
330
1F
100
AcDbEntity
  8
VER
100
AcDbCircle
 10
62.67087315858477
 20
19.42760489911374
 30
0.0
 40
4.200000000000026
100
AcDbArc
 50
227.6221064667629
 51
312.3778935332371
  0
LINE
  5
CF
330
1F
100
AcDbEntity
  8
050
100
AcDbLine
 10
65.50174631716952
 20
-4.25
 30
0.0
 11
65.50174631716952
 21
-16.325
 31
0.0
  0
LINE
  5
D0
330
1F
100
AcDbEntity
  8
VER
100
AcDbLine
 10
65.50174631716952
 20
16.325
 30
0.0
 11
65.50174631716952
 21
-4.25
 31
0.0
  0
LINE
  5
D1
330
1F
100
AcDbEntity
  8
050
100
AcDbLine
 10
55.3
 20
-16.325
 30
0.0
 11
59.84000000000001
 21
-16.325
 31
0.0
  0
LINE
  5
D2
330
1F
100
AcDbEntity
  8
VER
100
AcDbLine
 10
59.84000000000001
 20
16.325
 30
0.0
 11
55.3
 21
16.325
 31
0.0
  0
LINE
  5
D3
330
1F
100
AcDbEntity
  8
050
100
AcDbLine
 10
59.84000000000001
 20
-4.25
 30
0.0
 11
59.84000000000001
 21
-16.325
 31
0.0
  0
LINE
  5
D4
330
1F
100
AcDbEntity
  8
VER
100
AcDbLine
 10
59.84000000000001
 20
16.325
 30
0.0
 11
59.84000000000001
 21
-4.25
 31
0.0
  0
LINE
  5
D5
330
1F
100
AcDbEntity
  8
050
100
AcDbLine
 10
55.3
 20
-4.25
 30
0.0
 11
55.3
 21
-16.325
 31
0.0
  0
LINE
  5
D6
330
1F
100
AcDbEntity
  8
VER
100
AcDbLine
 10
55.3
 20
16.325
 30
0.0
 11
55.3
 21
-4.25
 31
0.0
  0
LINE
  5
D7
330
1F
100
AcDbEntity
  8
050
100
AcDbLine
 10
41.6
 20
-16.325
 30
0.0
 11
48.1
 21
-16.325
 31
0.0
  0
LINE
  5
D8
330
1F
100
AcDbEntity
  8
VER
100
AcDbLine
 10
48.1
 20
16.325
 30
0.0
 11
41.6
 21
16.325
 31
0.0
  0
LINE
  5
D9
330
1F
100
AcDbEntity
  8
050
100
AcDbLine
 10
48.1
 20
-4.25
 30
0.0
 11
48.1
 21
-16.325
 31
0.0
  0
LINE
  5
DA
330
1F
100
AcDbEntity
  8
VER
100
AcDbLine
 10
48.1
 20
16.325
 30
0.0
 11
48.1
 21
-4.25
 31
0.0
  0
LINE
  5
DB
330
1F
100
AcDbEntity
  8
050
100
AcDbLine
 10
41.6
 20
-4.25
 30
0.0
 11
41.6
 21
-16.325
 31
0.0
  0
LINE
  5
DC
330
1F
100
AcDbEntity
  8
VER
100
AcDbLine
 10
41.6
 20
16.325
 30
0.0
 11
41.6
 21
-4.25
 31
0.0
  0
LINE
  5
DD
330
1F
100
AcDbEntity
  8
050
100
AcDbLine
 10
-48.1
 20
-16.325
 30
0.0
 11
-41.6
 21
-16.325
 31
0.0
  0
LINE
  5
DE
330
1F
100
AcDbEntity
  8
050
100
AcDbLine
 10
-41.6
 20
16.325
 30
0.0
 11
-48.1
 21
16.325
 31
0.0
  0
LINE
  5
DF
330
1F
100
AcDbEntity
  8
050
100
AcDbLine
 10
-41.6
 20
16.325
 30
0.0
 11
-41.6
 21
-16.325
 31
0.0
  0
LINE
  5
E0
330
1F
100
AcDbEntity
  8
050
100
AcDbLine
 10
-48.1
 20
16.325
 30
0.0
 11
-48.1
 21
-16.325
 31
0.0
  0
LINE
  5
E1
330
1F
100
AcDbEntity
  8
050
100
AcDbLine
 10
-69.16945927106677
 20
-15.67828324873397
 30
0.0
 11
-65.50174631716953
 21
-16.325
 31
0.0
  0
LINE
  5
E2
330
1F
100
AcDbEntity
  8
050
100
AcDbLine
 10
-65.50174631716953
 20
16.325
 30
0.0
 11
-69.16945927106677
 21
15.67828324873397
 31
0.0
  0
LINE
  5
E3
330
1F
100
AcDbEntity
  8
050
100
AcDbLine
 10
-69.16945927106677
 20
15.67828324873397
 30
0.0
 11
-69.16945927106677
 21
-15.67828324873397
 31
0.0
  0
LINE
  5
E4
330
1F
100
AcDbEntity
  8
050
100
AcDbLine
 10
-59.84
 20
-16.325
 30
0.0
 11
-55.29999999999999
 21
-16.325
 31
0.0
  0
LINE
  5
E5
330
1F
100
AcDbEntity
  8
050
100
AcDbLine
 10
-55.29999999999999
 20
16.325
 30
0.0
 11
-59.84
 21
16.325
 31
0.0
  0
LINE
  5
E6
330
1F
100
AcDbEntity
  8
050
100
AcDbLine
 10
-55.29999999999999
 20
16.325
 30
0.0
 11
-55.29999999999999
 21
-16.325
 31
0.0
  0
ARC
  5
E7
330
1F
100
AcDbEntity
  8
050
100
AcDbCircle
 10
-62.67087315858477
 20
-19.42760489911374
 30
0.0
 40
4.200000000000019
100
AcDbArc
 50
47.62210646676278
 51
132.3778935332373
  0
ARC
  5
E8
330
1F
100
AcDbEntity
  8
050
100
AcDbCircle
 10
-62.67087315858477
 20
19.42760489911374
 30
0.0
 40
4.200000000000026
100
AcDbArc
 50
227.6221064667627
 51
312.3778935332371
  0
LINE
  5
E9
330
1F
100
AcDbEntity
  8
050
100
AcDbLine
 10
-59.84
 20
16.325
 30
0.0
 11
-59.84
 21
-16.325
 31
0.0
  0
LINE
  5
EA
330
1F
100
AcDbEntity
  8
050
100
AcDbLine
 10
-65.50174631716953
 20
16.325
 30
0.0
 11
-65.50174631716953
 21
-16.325
 31
0.0
  0
ARC
  5
EB
330
1F
100
AcDbEntity
  8
VER
100
AcDbCircle
 10
-0.0000000000000018
 20
-0.0000000000000036
 30
0.0
 40
24.24853289454746
100
AcDbArc
 50
12.37603930580475
 51
167.6239606941952
  0
ARC
  5
EC
330
1F
100
AcDbEntity
  8
VER
100
AcDbCircle
 10
-0.0000000000000018
 20
0.0000000000000036
 30
0.0
 40
24.24853289454746
100
AcDbArc
 50
192.3760393058048
 51
347.6239606941953
  0
LINE
  5
ED
330
1F
100
AcDbEntity
  8
050
100
AcDbLine
 10
26.25
 20
18.0
 30
0.0
 11
25.75
 21
18.5
 31
0.0
  0
LINE
  5
EE
330
1F
100
AcDbEntity
  8
050
100
AcDbLine
 10
25.75
 20
-18.5
 30
0.0
 11
26.25
 21
-18.0
 31
0.0
  0
LINE
  5
EF
330
1F
100
AcDbEntity
  8
050
100
AcDbLine
 10
26.25
 20
-4.296525778556059
 30
0.0
 11
26.25
 21
-18.0
 31
0.0
  0
LINE
  5
F0
330
1F
100
AcDbEntity
  8
VER
100
AcDbLine
 10
26.25
 20
16.75
 30
0.0
 11
26.25
 21
-4.296525778556059
 31
0.0
  0
LINE
  5
F1
330
1F
100
AcDbEntity
  8
050
100
AcDbLine
 10
26.25
 20
18.0
 30
0.0
 11
26.25
 21
16.75
 31
0.0
  0
LWPOLYLINE
  5
F2
330
1F
100
AcDbEntity
  8
VER
100
AcDbPolyline
 90
        4
 70
     0
 43
0.0
 10
24.63639537644659
 20
2.744623492729174
 10
24.46820884035179
 20
3.322263591630128
 10
24.20394655828817
 20
4.061110964841665
 10
23.68504533535771
 20
5.197112178893211
  0
LWPOLYLINE
  5
F3
330
1F
100
AcDbEntity
  8
VER
100
AcDbPolyline
 90
        5
 70
     0
 43
0.0
 10
24.98520601567237
 20
0.4207296302909189
 10
24.94303641247278
 20
1.035590359155827
 10
24.83968681180027
 20
1.805088394698783
 10
24.68255116086699
 20
2.562463498837873
 10
24.63639537644659
 20
2.744623492729174
  0
LWPOLYLINE
  5
F4
330
1F
100
AcDbEntity
  8
VER
100
AcDbPolyline
 90
        5
 70
     0
 43
0.0
 10
24.66098552848142
 20
-2.649182047067969
 10
24.73180147260062
 20
-2.35211344369839
 10
24.88291272853181
 20
-1.531038808536414
 10
24.97061522932768
 20
-0.6978730203793825
 10
24.99010337752149
 20
-0.2700238963897709
  0
LWPOLYLINE
  5
F5
330
1F
100
AcDbEntity
  8
VER
100
AcDbPolyline
 90
        5
 70
     0
 43
0.0
 10
23.68504533535771
 20
-5.197112178893209
 10
24.00846778466574
 20
-4.525921530517627
 10
24.29206463086802
 20
-3.831620614711567
 10
24.53641849496294
 20
-3.10144274530831
 10
24.66098552848142
 20
-2.649182047067969
  0
LINE
  5
F6
330
1F
100
AcDbEntity
  8
VER
100
AcDbLine
 10
15.56359203567922
 20
-18.46567393075815
 30
0.0
 11
15.53194906810155
 21
-18.49999999981767
 31
0.0
  0
LWPOLYLINE
  5
F7
330
1F
100
AcDbEntity
  8
VER
100
AcDbPolyline
 90
       18
 70
     0
 43
0.0
 10
15.56359203567922
 20
-18.46567393075815
 10
15.66288430056219
 20
-18.30425546955017
 10
15.76069569865436
 20
-18.01181385790509
 10
15.85604843373026
 20
-17.59208049596548
 10
15.94796470956443
 20
-17.04878678387391
 10
16.03612886756286
 20
-16.38228755825241
 10
16.12033117414958
 20
-15.59645758585449
 10
16.19977271462139
 20
-14.70017382696023
 10
16.27365457427506
 20
-13.7023132418497
 10
16.34163969842558
 20
-12.6065096526017
 10
16.40371131867011
 20
-11.41680178112788
 10
16.45931007392025
 20
-10.14622979101532
 10
16.5078766030876
 20
-8.80783384585107
 10
16.54914232592554
 20
-7.408298378041485
 10
16.58318926605007
 20
-5.950999754129847
 10
16.60973433651863
 20
-4.451627636075014
 10
16.62849445038863
 20
-2.925871685835841
 10
16.63597452256707
 20
-2.0
  0
LINE
  5
F8
330
1F
100
AcDbEntity
  8
VER
100
AcDbLine
 10
25.5
 20
2.0
 30
0.0
 11
25.5
 21
-2.0
 31
0.0
  0
LWPOLYLINE
  5
F9
330
1F
100
AcDbEntity
  8
VER
100
AcDbPolyline
 90
       18
 70
     0
 43
0.0
 10
16.63597452256709
 20
2.0
 10
16.62489143730827
 20
3.278073950501035
 10
16.60440652132062
 20
4.794449940881469
 10
16.5761931519017
 20
6.2820819361184
 10
16.54054861735012
 20
7.725482271133911
 10
16.49777020596445
 20
9.109163280850082
 10
16.44784830672421
 20
10.42808925165439
 10
16.3910043498734
 20
11.677583190151
 10
16.32780575449666
 20
12.84492443785038
 10
16.25881993967857
 20
13.91739233626298
 10
16.18404119382337
 20
14.89133317875817
 10
16.10383010569606
 20
15.76288075928157
 10
16.01898886421177
 20
16.52347637829059
 10
15.9303196582856
 20
17.1645613362426
 10
15.84231781375533
 20
17.66157326328064
 10
15.75129902275052
 20
18.04616342662958
 10
15.65810864386166
 20
18.31523069341391
 10
15.56359203567922
 20
18.46567393075815
  0
LWPOLYLINE
  5
FA
330
1F
100
AcDbEntity
  8
VER
100
AcDbPolyline
 90
       19
 70
     0
 43
0.0
 10
23.68504533535771
 20
5.197112178893208
 10
23.32111793420223
 20
6.632309584585943
 10
22.88295738366001
 20
8.005510732855212
 10
22.36266840377239
 20
9.35110323583046
 10
21.78568681897093
 20
10.61668510667047
 10
21.18579323392659
 20
11.758806925402
 10
20.55480882168856
 20
12.8206820023059
 10
19.88932166042487
 20
13.82095451612644
 10
19.21491889676691
 20
14.73470311477094
 10
18.45570896355989
 20
15.66415643941062
 10
17.72373584291805
 20
16.47696592355758
 10
17.24864365696891
 20
16.96581242277229
 10
16.80784923858977
 20
17.39477373341859
 10
16.41348765161872
 20
17.75951374951559
 10
16.11684728343828
 20
18.02210289348546
 10
15.87269713139677
 20
18.23033966427733
 10
15.68569556892998
 20
18.38409897564066
 10
15.570058937996
 20
18.47457626894792
 10
15.53194816830301
 20
18.49999999997829
  0
LINE
  5
FB
330
1F
100
AcDbEntity
  8
050
100
AcDbLine
 10
17.54992877478424
 20
-18.5
 30
0.0
 11
25.75
 21
-18.5
 31
0.0
  0
LINE
  5
FC
330
1F
100
AcDbEntity
  8
VER
100
AcDbLine
 10
15.53458027997049
 20
-18.5
 30
0.0
 11
17.54992877478424
 21
-18.5
 31
0.0
  0
LINE
  5
FD
330
1F
100
AcDbEntity
  8
VER
100
AcDbLine
 10
17.54992877478425
 20
18.5
 30
0.0
 11
15.53426560983402
 21
18.5
 31
0.0
  0
LINE
  5
FE
330
1F
100
AcDbEntity
  8
050
100
AcDbLine
 10
25.75
 20
18.5
 30
0.0
 11
17.54992877478425
 21
18.5
 31
0.0
  0
LINE
  5
FF
330
1F
100
AcDbEntity
  8
050
100
AcDbLine
 10
25.75
 20
-4.336995933238503
 30
0.0
 11
25.75
 21
-18.5
 31
0.0
  0
LINE
  5
100
330
1F
100
AcDbEntity
  8
VER
100
AcDbLine
 10
25.75
 20
16.75
 30
0.0
 11
25.75
 21
-4.336995933238503
 31
0.0
  0
LINE
  5
101
330
1F
100
AcDbEntity
  8
050
100
AcDbLine
 10
25.75
 20
18.5
 30
0.0
 11
25.75
 21
16.75
 31
0.0
  0
LWPOLYLINE
  5
102
330
1F
100
AcDbEntity
  8
VER
100
AcDbPolyline
 90
       22
 70
     0
 43
0.0
 10
15.53194906810155
 20
-18.49999999981767
 10
15.53290659277766
 20
-18.49973499005181
 10
15.59277000485466
 20
-18.45736977779512
 10
15.74882097602013
 20
-18.33291815220888
 10
15.99109183134825
 20
-18.13029676410124
 10
16.29402973155853
 20
-17.86647062516281
 10
16.65439516056979
 20
-17.53887831023176
 10
17.07036880141791
 20
-17.14217114773377
 10
17.52379145943728
 20
-16.68624328806067
 10
18.00362248216167
 20
-16.17499232867918
 10
18.50297055362901
 20
-15.60903092205115
 10
19.01352862785043
 20
-14.9907537872579
 10
19.80835487166415
 20
-13.93548330094722
 10
20.59299965461647
 20
-12.75982723033126
 10
21.08954057963279
 20
-11.92900851965016
 10
21.56835193385301
 20
-11.04778088814646
 10
22.02339986013668
 20
-10.11857549263247
 10
22.4648140515392
 20
-9.10477168966797
 10
22.87032307926556
 20
-8.040796025041349
 10
23.23325867083958
 20
-6.932096676105842
 10
23.47320925105234
 20
-6.076866319127262
 10
23.68504533535771
 20
-5.197112178893207
  0
LWPOLYLINE
  5
103
330
1F
100
AcDbEntity
  8
VER
100
AcDbPolyline
 90
        3
 70
     0
 43
0.0
 10
15.53194816830301
 20
18.49999999997829
 10
15.53152072889193
 20
18.49985038370108
 10
15.56359203567922
 20
18.46567393075815
  0
LINE
  5
104
330
1F
100
AcDbEntity
  8
050
100
AcDbLine
 10
-26.25
 20
-18.0
 30
0.0
 11
-25.75000000000001
 21
-18.5
 31
0.0
  0
LINE
  5
105
330
1F
100
AcDbEntity
  8
050
100
AcDbLine
 10
-25.75000000000001
 20
18.5
 30
0.0
 11
-26.25
 21
18.0
 31
0.0
  0
LINE
  5
106
330
1F
100
AcDbEntity
  8
050
100
AcDbLine
 10
-26.25
 20
18.0
 30
0.0
 11
-26.25
 21
-18.0
 31
0.0
  0
LWPOLYLINE
  5
107
330
1F
100
AcDbEntity
  8
VER
100
AcDbPolyline
 90
        4
 70
     0
 43
0.0
 10
-24.62981606760876
 20
-2.769584473876648
 10
-24.46820884035179
 20
-3.322263591630128
 10
-24.20394655828817
 20
-4.061110964841665
 10
-23.68504533535771
 20
-5.197112178893209
  0
LWPOLYLINE
  5
108
330
1F
100
AcDbEntity
  8
VER
100
AcDbPolyline
 90
        5
 70
     0
 43
0.0
 10
-24.98349715772828
 20
-0.4618791113480171
 10
-24.94303641247278
 20
-1.035590359155826
 10
-24.83968681180027
 20
-1.805088394698782
 10
-24.68255116086699
 20
-2.562463498837873
 10
-24.62981606760876
 20
-2.769584473876648
  0
LWPOLYLINE
  5
109
330
1F
100
AcDbEntity
  8
VER
100
AcDbPolyline
 90
        5
 70
     0
 43
0.0
 10
-24.63902011931507
 20
2.734599913665636
 10
-24.73180147260062
 20
2.352113443698392
 10
-24.88291272853181
 20
1.531038808536416
 10
-24.97061522932768
 20
0.6978730203793841
 10
-24.99255998620114
 20
0.1438247380783887
  0
LWPOLYLINE
  5
10A
330
1F
100
AcDbEntity
  8
VER
100
AcDbPolyline
 90
        5
 70
     0
 43
0.0
 10
-23.68504533535771
 20
5.197112178893211
 10
-24.00846778466574
 20
4.525921530517628
 10
-24.29206463086802
 20
3.831620614711569
 10
-24.53641849496294
 20
3.101442745308312
 10
-24.63902011931507
 20
2.734599913665636
  0
LINE
  5
10B
330
1F
100
AcDbEntity
  8
VER
100
AcDbLine
 10
-25.5
 20
-2.0
 30
0.0
 11
-25.5
 21
2.0
 31
0.0
  0
LWPOLYLINE
  5
10C
330
1F
100
AcDbEntity
  8
VER
100
AcDbPolyline
 90
       18
 70
     0
 43
0.0
 10
-16.63597452256707
 20
-2.0
 10
-16.62489143730825
 20
-3.278073950501032
 10
-16.60440652132059
 20
-4.794449940881465
 10
-16.57619315190166
 20
-6.282081936118396
 10
-16.54054861735006
 20
-7.725482271133906
 10
-16.49777020596438
 20
-9.109163280850076
 10
-16.44784830672413
 20
-10.42808925165438
 10
-16.39100434987332
 20
-11.677583190151
 10
-16.32780575449656
 20
-12.84492443785038
 10
-16.25881993967848
 20
-13.91739233626298
 10
-16.18404119382326
 20
-14.89133317875817
 10
-16.10383010569595
 20
-15.76288075928157
 10
-16.01898886421165
 20
-16.52347637829059
 10
-15.93031965828547
 20
-17.1645613362426
 10
-15.84231781375522
 20
-17.66157326328064
 10
-15.75129902275045
 20
-18.04616342662958
 10
-15.65810864386163
 20
-18.31523069341391
 10
-15.56359203567922
 20
-18.46567393075815
  0
LWPOLYLINE
  5
10D
330
1F
100
AcDbEntity
  8
VER
100
AcDbPolyline
 90
       19
 70
     0
 43
0.0
 10
-23.68504533535771
 20
-5.197112178893207
 10
-23.32111793420223
 20
-6.63230958458594
 10
-22.88295738366001
 20
-8.005510732855209
 10
-22.36266840377239
 20
-9.351103235830456
 10
-21.78568681897093
 20
-10.61668510667047
 10
-21.18579323392659
 20
-11.758806925402
 10
-20.55480882168856
 20
-12.82068200230589
 10
-19.88932166042488
 20
-13.82095451612643
 10
-19.21491889676692
 20
-14.73470311477094
 10
-18.45570896355989
 20
-15.66415643941062
 10
-17.72373584291805
 20
-16.47696592355758
 10
-17.24864365696891
 20
-16.96581242277229
 10
-16.80784923858977
 20
-17.39477373341859
 10
-16.41348765161872
 20
-17.75951374951559
 10
-16.11684728343828
 20
-18.02210289348546
 10
-15.87269713139677
 20
-18.23033966427733
 10
-15.68569556892998
 20
-18.38409897564065
 10
-15.570058937996
 20
-18.47457626894792
 10
-15.53194816830302
 20
-18.49999999997829
  0
LINE
  5
10E
330
1F
100
AcDbEntity
  8
VER
100
AcDbLine
 10
-15.56359203567922
 20
18.46567393075815
 30
0.0
 11
-15.53194906810155
 21
18.49999999981767
 31
0.0
  0
LWPOLYLINE
  5
10F
330
1F
100
AcDbEntity
  8
VER
100
AcDbPolyline
 90
       18
 70
     0
 43
0.0
 10
-15.56359203567922
 20
18.46567393075815
 10
-15.66288430056221
 20
18.30425546955017
 10
-15.76069569865442
 20
18.01181385790509
 10
-15.85604843373036
 20
17.59208049596549
 10
-15.94796470956456
 20
17.04878678387391
 10
-16.03612886756298
 20
16.38228755825241
 10
-16.12033117414969
 20
15.59645758585449
 10
-16.1997727146215
 20
14.70017382696023
 10
-16.27365457427516
 20
13.7023132418497
 10
-16.34163969842568
 20
12.60650965260169
 10
-16.40371131867019
 20
11.41680178112788
 10
-16.45931007392031
 20
10.14622979101532
 10
-16.50787660308765
 20
8.807833845851071
 10
-16.54914232592558
 20
7.408298378041485
 10
-16.58318926605011
 20
5.950999754129849
 10
-16.60973433651866
 20
4.451627636075015
 10
-16.62849445038865
 20
2.925871685835843
 10
-16.63597452256709
 20
2.0
  0
LINE
  5
110
330
1F
100
AcDbEntity
  8
VER
100
AcDbLine
 10
-17.54992877478424
 20
-18.5
 30
0.0
 11
-15.53426560983403
 21
-18.5
 31
0.0
  0
LINE
  5
111
330
1F
100
AcDbEntity
  8
050
100
AcDbLine
 10
-25.75000000000001
 20
-18.5
 30
0.0
 11
-17.54992877478424
 21
-18.5
 31
0.0
  0
LINE
  5
112
330
1F
100
AcDbEntity
  8
050
100
AcDbLine
 10
-17.54992877478425
 20
18.5
 30
0.0
 11
-25.75000000000001
 21
18.5
 31
0.0
  0
LINE
  5
113
330
1F
100
AcDbEntity
  8
VER
100
AcDbLine
 10
-15.53458027997049
 20
18.5
 30
0.0
 11
-17.54992877478425
 21
18.5
 31
0.0
  0
LWPOLYLINE
  5
114
330
1F
100
AcDbEntity
  8
VER
100
AcDbPolyline
 90
        3
 70
     0
 43
0.0
 10
-15.53194816830302
 20
-18.49999999997829
 10
-15.53152072889193
 20
-18.49985038370108
 10
-15.56359203567922
 20
-18.46567393075815
  0
LWPOLYLINE
  5
115
330
1F
100
AcDbEntity
  8
VER
100
AcDbPolyline
 90
       22
 70
     0
 43
0.0
 10
-15.53194906810155
 20
18.49999999981767
 10
-15.53290659277766
 20
18.49973499005181
 10
-15.59277000485466
 20
18.45736977779512
 10
-15.74882097602013
 20
18.33291815220888
 10
-15.99109183134825
 20
18.13029676410124
 10
-16.29402973155853
 20
17.86647062516281
 10
-16.65439516056979
 20
17.53887831023176
 10
-17.07036880141791
 20
17.14217114773378
 10
-17.52379145943728
 20
16.68624328806067
 10
-18.00362248216167
 20
16.17499232867918
 10
-18.50297055362901
 20
15.60903092205115
 10
-19.01352862785043
 20
14.9907537872579
 10
-19.80835487166415
 20
13.93548330094722
 10
-20.59299965461647
 20
12.75982723033126
 10
-21.08954057963279
 20
11.92900851965016
 10
-21.56835193385301
 20
11.04778088814646
 10
-22.02339986013668
 20
10.11857549263247
 10
-22.4648140515392
 20
9.10477168966797
 10
-22.87032307926556
 20
8.040796025041349
 10
-23.23325867083958
 20
6.932096676105842
 10
-23.47320925105234
 20
6.076866319127262
 10
-23.68504533535771
 20
5.197112178893208
  0
LINE
  5
116
330
1F
100
AcDbEntity
  8
050
100
AcDbLine
 10
-25.75000000000001
 20
18.5
 30
0.0
 11
-25.75000000000001
 21
-18.5
 31
0.0
  0
LINE
  5
117
330
1F
100
AcDbEntity
  8
050
100
AcDbLine
 10
35.0
 20
18.75
 30
0.0
 11
34.27831216351296
 21
20.0
 31
0.0
  0
LINE
  5
118
330
1F
100
AcDbEntity
  8
050
100
AcDbLine
 10
34.27831216351296
 20
-20.0
 30
0.0
 11
35.0
 21
-18.75
 31
0.0
  0
LINE
  5
119
330
1F
100
AcDbEntity
  8
050
100
AcDbLine
 10
35.0
 20
-4.250000000000001
 30
0.0
 11
35.0
 21
-18.75
 31
0.0
  0
LINE
  5
11A
330
1F
100
AcDbEntity
  8
VER
100
AcDbLine
 10
35.0
 20
16.75
 30
0.0
 11
35.0
 21
-4.250000000000001
 31
0.0
  0
LINE
  5
11B
330
1F
100
AcDbEntity
  8
050
100
AcDbLine
 10
35.0
 20
18.75
 30
0.0
 11
35.0
 21
16.75
 31
0.0
  0
LINE
  5
11C
330
1F
100
AcDbEntity
  8
050
100
AcDbLine
 10
-30.9
 20
18.44
 30
0.0
 11
-31.80066641993581
 21
20.0
 31
0.0
  0
LINE
  5
11D
330
1F
100
AcDbEntity
  8
050
100
AcDbLine
 10
-31.80066641993581
 20
-20.0
 30
0.0
 11
-30.9
 21
-18.44
 31
0.0
  0
LINE
  5
11E
330
1F
100
AcDbEntity
  8
050
100
AcDbLine
 10
-30.9
 20
18.44
 30
0.0
 11
-30.9
 21
-18.44
 31
0.0
  0
LINE
  5
11F
330
1F
100
AcDbEntity
  8
050
100
AcDbLine
 10
30.9
 20
-18.44
 30
0.0
 11
31.80066641993581
 21
-20.0
 31
0.0
  0
LINE
  5
120
330
1F
100
AcDbEntity
  8
050
100
AcDbLine
 10
31.80066641993581
 20
20.0
 30
0.0
 11
30.9
 21
18.44
 31
0.0
  0
LINE
  5
121
330
1F
100
AcDbEntity
  8
050
100
AcDbLine
 10
30.9
 20
-4.25
 30
0.0
 11
30.9
 21
-18.44
 31
0.0
  0
LINE
  5
122
330
1F
100
AcDbEntity
  8
VER
100
AcDbLine
 10
30.9
 20
16.75
 30
0.0
 11
30.9
 21
-4.25
 31
0.0
  0
LINE
  5
123
330
1F
100
AcDbEntity
  8
050
100
AcDbLine
 10
30.9
 20
18.44
 30
0.0
 11
30.9
 21
16.75
 31
0.0
  0
LINE
  5
124
330
1F
100
AcDbEntity
  8
050
100
AcDbLine
 10
31.80066641993581
 20
-20.0
 30
0.0
 11
34.27831216351296
 21
-20.0
 31
0.0
  0
LINE
  5
125
330
1F
100
AcDbEntity
  8
050
100
AcDbLine
 10
34.27831216351296
 20
20.0
 30
0.0
 11
31.80066641993581
 21
20.0
 31
0.0
  0
LINE
  5
126
330
1F
100
AcDbEntity
  8
050
100
AcDbLine
 10
34.27831216351296
 20
-4.25
 30
0.0
 11
34.27831216351296
 21
-20.0
 31
0.0
  0
LINE
  5
127
330
1F
100
AcDbEntity
  8
VER
100
AcDbLine
 10
34.27831216351296
 20
16.75
 30
0.0
 11
34.27831216351296
 21
-4.25
 31
0.0
  0
LINE
  5
128
330
1F
100
AcDbEntity
  8
050
100
AcDbLine
 10
34.27831216351296
 20
20.0
 30
0.0
 11
34.27831216351296
 21
16.75
 31
0.0
  0
LINE
  5
129
330
1F
100
AcDbEntity
  8
050
100
AcDbLine
 10
31.80066641993581
 20
-4.25
 30
0.0
 11
31.80066641993581
 21
-20.0
 31
0.0
  0
LINE
  5
12A
330
1F
100
AcDbEntity
  8
VER
100
AcDbLine
 10
31.80066641993581
 20
16.75
 30
0.0
 11
31.80066641993581
 21
-4.25
 31
0.0
  0
LINE
  5
12B
330
1F
100
AcDbEntity
  8
050
100
AcDbLine
 10
31.80066641993581
 20
20.0
 30
0.0
 11
31.80066641993581
 21
16.75
 31
0.0
  0
LINE
  5
12C
330
1F
100
AcDbEntity
  8
050
100
AcDbLine
 10
-34.27831216351296
 20
-20.0
 30
0.0
 11
-31.80066641993581
 21
-20.0
 31
0.0
  0
LINE
  5
12D
330
1F
100
AcDbEntity
  8
050
100
AcDbLine
 10
-31.80066641993581
 20
20.0
 30
0.0
 11
-34.27831216351296
 21
20.0
 31
0.0
  0
LINE
  5
12E
330
1F
100
AcDbEntity
  8
050
100
AcDbLine
 10
-31.80066641993581
 20
20.0
 30
0.0
 11
-31.80066641993581
 21
-20.0
 31
0.0
  0
LINE
  5
12F
330
1F
100
AcDbEntity
  8
050
100
AcDbLine
 10
-35.0
 20
-18.75
 30
0.0
 11
-34.27831216351296
 21
-20.0
 31
0.0
  0
LINE
  5
130
330
1F
100
AcDbEntity
  8
050
100
AcDbLine
 10
-34.27831216351296
 20
20.0
 30
0.0
 11
-35.0
 21
18.75
 31
0.0
  0
LINE
  5
131
330
1F
100
AcDbEntity
  8
050
100
AcDbLine
 10
-34.27831216351296
 20
20.0
 30
0.0
 11
-34.27831216351296
 21
-20.0
 31
0.0
  0
LINE
  5
132
330
1F
100
AcDbEntity
  8
050
100
AcDbLine
 10
-35.0
 20
18.75
 30
0.0
 11
-35.0
 21
-18.75
 31
0.0
  0
CIRCLE
  5
133
330
1F
100
AcDbEntity
  8
VER
100
AcDbCircle
 10
0.0
 20
0.0000000000000018
 30
0.0
 40
25.0
  0
CIRCLE
  5
134
330
1F
100
AcDbEntity
  8
VER
100
AcDbCircle
 10
0.0
 20
0.000000000000002
 30
0.0
 40
24.5
  0
ARC
  5
135
330
1F
100
AcDbEntity
  8
050
100
AcDbCircle
 10
-0.0000000000000009
 20
-0.0000000000000027
 30
0.0
 40
25.50000000000001
100
AcDbArc
 50
41.06104452012802
 51
350.049138771743
  0
ARC
  5
136
330
1F
100
AcDbEntity
  8
VER
100
AcDbCircle
 10
-0.0000000000000213
 20
-0.000000000000006
 30
0.0
 40
25.50000000000002
100
AcDbArc
 50
350.049138771743
 51
41.061044520128
  0
ARC
  5
137
330
1F
100
AcDbEntity
  8
050
100
AcDbCircle
 10
0.0000000000000053
 20
0.0000000000000018
 30
0.0
 40
17.5
100
AcDbArc
 50
73.1650193267779
 51
330.9078877003191
  0
ARC
  5
138
330
1F
100
AcDbEntity
  8
VER
100
AcDbCircle
 10
0.0000000000000142
 20
0.0000000000000091
 30
0.0
 40
17.49999999999999
100
AcDbArc
 50
330.9078877003191
 51
73.16501932677791
  0
ARC
  5
139
330
1F
100
AcDbEntity
  8
050
100
AcDbCircle
 10
0.0
 20
0.0000000000000036
 30
0.0
 40
19.5
100
AcDbArc
 50
59.20161828970649
 51
340.3947562645261
  0
ARC
  5
13A
330
1F
100
AcDbEntity
  8
VER
100
AcDbCircle
 10
-0.0000000000000071
 20
0.0000000000000032
 30
0.0
 40
19.50000000000001
100
AcDbArc
 50
340.3947562645261
 51
59.20161828970646
  0
ARC
  5
13B
330
1F
100
AcDbEntity
  8
050
100
AcDbCircle
 10
0.0000000000000013
 20
0.0
 30
0.0
 40
24.8
100
AcDbArc
 50
42.48547083499752
 51
349.5172300397032
  0
ARC
  5
13C
330
1F
100
AcDbEntity
  8
VER
100
AcDbCircle
 10
0.0000000000000249
 20
0.0000000000000107
 30
0.0
 40
24.79999999999998
100
AcDbArc
 50
349.5172300397031
 51
42.48547083499753
  0
LINE
  5
13D
330
1F
100
AcDbEntity
  8
VER
100
AcDbLine
 10
-13.85640646055102
 20
0.0
 30
0.0
 11
-6.928203230275511
 21
-12.0
 31
0.0
  0
LINE
  5
13E
330
1F
100
AcDbEntity
  8
VER
100
AcDbLine
 10
-6.928203230275507
 20
12.0
 30
0.0
 11
-13.85640646055102
 21
0.0
 31
0.0
  0
LINE
  5
13F
330
1F
100
AcDbEntity
  8
VER
100
AcDbLine
 10
6.928203230275507
 20
-12.0
 30
0.0
 11
13.85640646055102
 21
0.0
 31
0.0
  0
LINE
  5
140
330
1F
100
AcDbEntity
  8
VER
100
AcDbLine
 10
-6.928203230275511
 20
-12.0
 30
0.0
 11
6.928203230275507
 21
-12.0
 31
0.0
  0
LINE
  5
141
330
1F
100
AcDbEntity
  8
VER
100
AcDbLine
 10
13.85640646055102
 20
0.0
 30
0.0
 11
6.928203230275511
 21
12.0
 31
0.0
  0
LINE
  5
142
330
1F
100
AcDbEntity
  8
VER
100
AcDbLine
 10
6.928203230275511
 20
12.0
 30
0.0
 11
-6.928203230275507
 21
12.0
 31
0.0
  0
ARC
  5
143
330
1F
100
AcDbEntity
  8
VER
100
AcDbCircle
 10
-0.0000000000020961
 20
-0.000000000000604
 30
0.0
 40
22.75000000000217
100
AcDbArc
 50
13.60133943846466
 51
18.31769841119825
  0
ARC
  5
144
330
1F
100
AcDbEntity
  8
VER
100
AcDbCircle
 10
-0.0000000020293633
 20
-0.0000000017909265
 30
0.0
 40
22.75000000270496
100
AcDbArc
 50
39.43221105543401
 51
47.41410830229126
  0
ARC
  5
145
330
1F
100
AcDbEntity
  8
VER
100
AcDbCircle
 10
0.0000000000000568
 20
0.0000000000000271
 30
0.0
 40
16.74999999999998
100
AcDbArc
 50
318.7105026656367
 51
90.00000000000018
  0
ARC
  5
146
330
1F
100
AcDbEntity
  8
VER
100
AcDbCircle
 10
-0.0000000000023839
 20
0.0000000000003784
 30
0.0
 40
22.75000000000241
100
AcDbArc
 50
347.3085185764282
 51
353.6441135457411
  0
LINE
  5
147
330
1F
100
AcDbEntity
  8
VER
100
AcDbLine
 10
63.2
 20
0.0500000000000009
 30
0.0
 11
63.2
 21
5.350000000000001
 31
0.0
  0
LINE
  5
148
330
1F
100
AcDbEntity
  8
VER
100
AcDbLine
 10
16.36581803638304
 20
7.149999999999997
 30
0.0
 11
63.2
 21
7.149999999999999
 31
0.0
  0
ARC
  5
149
330
1F
100
AcDbEntity
  8
VER
100
AcDbCircle
 10
27.61340254296825
 20
-24.25000000000071
 30
0.0
 40
22.30000000000071
100
AcDbArc
 50
90.0000000000003
 51
108.1103313779193
  0
ARC
  5
14A
330
1F
100
AcDbEntity
  8
VER
100
AcDbCircle
 10
16.36581803638304
 20
9.150000000000013
 30
0.0
 40
2.000000000000015
100
AcDbArc
 50
209.209211933766
 51
269.9999999999999
  0
LINE
  5
14B
330
1F
100
AcDbEntity
  8
VER
100
AcDbLine
 10
27.61340254296814
 20
-1.95
 30
0.0
 11
61.2
 21
-1.949999999999999
 31
0.0
  0
ARC
  5
14C
330
1F
100
AcDbEntity
  8
VER
100
AcDbCircle
 10
18.44830615530866
 20
3.350000000000007
 30
0.0
 40
1.999999999999993
100
AcDbArc
 50
89.99999999999949
 51
190.2921017866952
  0
ARC
  5
14D
330
1F
100
AcDbEntity
  8
VER
100
AcDbCircle
 10
19.74895290366608
 20
-0.2033696358329415
 30
0.0
 40
2.999999999999991
100
AcDbArc
 50
179.4100036585956
 51
288.1103280852074
  0
ARC
  5
14E
330
1F
100
AcDbEntity
  8
VER
100
AcDbCircle
 10
61.19999999999999
 20
0.0500000000000158
 30
0.0
 40
2.000000000000015
100
AcDbArc
 50
270.0000000000004
 51
359.9999999999996
  0
LINE
  5
14F
330
1F
100
AcDbEntity
  8
VER
100
AcDbLine
 10
63.2
 20
5.350000000000001
 30
0.0
 11
18.44830615530867
 21
5.350000000000001
 31
0.0
  0
LINE
  5
150
330
1F
100
AcDbEntity
  8
VER
100
AcDbLine
 10
61.2
 20
14.45
 30
0.0
 11
14.01998573465751
 21
14.45
 31
0.0
  0
ARC
  5
151
330
1F
100
AcDbEntity
  8
VER
100
AcDbCircle
 10
61.2
 20
12.44999999999999
 30
0.0
 40
2.000000000000007
100
AcDbArc
 50
0.0000000000002544
 51
89.99999999999982
  0
LINE
  5
152
330
1F
100
AcDbEntity
  8
VER
100
AcDbLine
 10
63.2
 20
7.149999999999999
 30
0.0
 11
63.2
 21
12.45
 31
0.0
  0
ARC
  5
153
330
1F
100
AcDbEntity
  8
VER
100
AcDbCircle
 10
14.0199857346575
 20
12.45
 30
0.0
 40
1.999999999999996
100
AcDbArc
 50
89.99999999999983
 51
221.6056537839167
  0
LWPOLYLINE
  5
154
330
1F
100
AcDbEntity
  8
050
100
AcDbPolyline
 90
       73
 70
     0
 43
0.0
 10
-13.0
 20
0.0
 10
-12.95053107519269
 20
-1.133024655719556
 10
-12.80250078915871
 20
-2.257426309670095
 10
-12.55703574175789
 20
-3.36464758633277
 10
-12.21600407021681
 20
-4.446261863233694
 10
-11.78200123147645
 20
-5.494037402629093
 10
-11.25833024919771
 20
-6.5
 10
-10.64897657575689
 20
-7.4564936725636
 10
-9.958577760546715
 20
-8.35623892592501
 10
-9.192388155425117
 20
-9.19238815542512
 10
-8.356238925925012
 20
-9.958577760546715
 10
-7.4564936725636
 20
-10.64897657575689
 10
-6.500000000000003
 20
-11.2583302491977
 10
-5.494037402629096
 20
-11.78200123147645
 10
-4.446261863233698
 20
-12.21600407021681
 10
-3.364647586332776
 20
-12.55703574175789
 10
-2.257426309670102
 20
-12.8025007891587
 10
-1.133024655719564
 20
-12.95053107519269
 10
-0.0000000000000095
 20
-13.0
 10
1.133024655719546
 20
-12.95053107519269
 10
2.257426309670084
 20
-12.80250078915871
 10
3.364647586332757
 20
-12.55703574175789
 10
4.44626186323368
 20
-12.21600407021682
 10
5.494037402629082
 20
-11.78200123147646
 10
6.499999999999988
 20
-11.25833024919771
 10
7.456493672563586
 20
-10.6489765757569
 10
8.356238925925
 20
-9.958577760546726
 10
9.192388155425109
 20
-9.192388155425132
 10
9.958577760546703
 20
-8.356238925925027
 10
10.64897657575688
 20
-7.456493672563616
 10
11.25833024919769
 20
-6.50000000000002
 10
11.78200123147644
 20
-5.494037402629115
 10
12.2160040702168
 20
-4.446261863233717
 10
12.55703574175788
 20
-3.364647586332796
 10
12.8025007891587
 20
-2.257426309670122
 10
12.95053107519269
 20
-1.133024655719585
 10
13.0
 20
-0.0000000000000305
 10
12.9505310751927
 20
1.133024655719525
 10
12.80250078915871
 20
2.257426309670062
 10
12.5570357417579
 20
3.364647586332737
 10
12.21600407021682
 20
4.44626186323366
 10
11.78200123147647
 20
5.494037402629059
 10
11.25833024919772
 20
6.499999999999968
 10
10.64897657575692
 20
7.456493672563568
 10
9.958577760546742
 20
8.35623892592498
 10
9.192388155425151
 20
9.192388155425089
 10
8.356238925925041
 20
9.95857776054669
 10
7.456493672563633
 20
10.64897657575687
 10
6.500000000000036
 20
11.25833024919768
 10
5.494037402629131
 20
11.78200123147643
 10
4.446261863233735
 20
12.2160040702168
 10
3.364647586332813
 20
12.55703574175788
 10
2.25742630967014
 20
12.8025007891587
 10
1.133024655719603
 20
12.95053107519269
 10
0.0000000000000486
 20
13.0
 10
-1.133024655719507
 20
12.9505310751927
 10
-2.257426309670044
 20
12.80250078915872
 10
-3.364647586332719
 20
12.5570357417579
 10
-4.446261863233643
 20
12.21600407021683
 10
-5.494037402629044
 20
11.78200123147647
 10
-6.499999999999951
 20
11.25833024919773
 10
-7.456493672563553
 20
10.64897657575693
 10
-8.356238925924966
 20
9.958577760546754
 10
-9.192388155425077
 20
9.192388155425162
 10
-9.958577760546676
 20
8.35623892592506
 10
-10.64897657575686
 20
7.456493672563651
 10
-11.25833024919767
 20
6.500000000000057
 10
-11.78200123147642
 20
5.494037402629154
 10
-12.21600407021679
 20
4.446261863233757
 10
-12.55703574175787
 20
3.364647586332836
 10
-12.80250078915869
 20
2.257426309670163
 10
-12.95053107519269
 20
1.133024655719627
 10
-13.0
 20
0.0000000000000725
  0
LWPOLYLINE
  5
155
330
1F
100
AcDbEntity
  8
050
100
AcDbPolyline
 90
        3
 70
     0
 43
0.0
 10
12.58570047876779
 20
-11.05272108843538
 10
13.79310406789479
 20
-9.793190183865427
 10
14.55129039346345
 20
-9.104663219533153
  0
LWPOLYLINE
  5
156
330
1F
100
AcDbEntity
  8
050
100
AcDbPolyline
 90
       73
 70
     0
 43
0.0
 10
-13.1
 20
0.0
 10
-13.05015054500187
 20
1.141740229994322
 10
-12.90098156445992
 20
2.274791127436787
 10
-12.65362832438679
 20
3.390529490843022
 10
-12.3099733322954
 20
4.480463877566261
 10
-11.87263201018011
 20
5.536299228803163
 10
-11.34493278957615
 20
6.55
 10
-10.73089178018579
 20
7.513851316198704
 10
-10.03518220485861
 20
8.420517686893664
 10
-9.263098833543774
 20
9.263098833543774
 10
-8.420517686893666
 20
10.03518220485861
 10
-7.513851316198703
 20
10.73089178018579
 10
-6.550000000000002
 20
11.34493278957615
 10
-5.536299228803164
 20
11.87263201018011
 10
-4.480463877566264
 20
12.3099733322954
 10
-3.390529490843027
 20
12.65362832438679
 10
-2.274791127436794
 20
12.90098156445993
 10
-1.14174022999433
 20
13.05015054500187
 10
-0.0000000000000095
 20
13.1
 10
1.141740229994311
 20
13.05015054500187
 10
2.274791127436776
 20
12.90098156445993
 10
3.390529490843008
 20
12.6536283243868
 10
4.480463877566246
 20
12.3099733322954
 10
5.53629922880315
 20
11.87263201018012
 10
6.549999999999986
 20
11.34493278957615
 10
7.51385131619869
 20
10.7308917801858
 10
8.420517686893652
 20
10.03518220485862
 10
9.26309883354376
 20
9.263098833543786
 10
10.0351822048586
 20
8.42051768689368
 10
10.73089178018578
 20
7.513851316198721
 10
11.34493278957614
 20
6.550000000000019
 10
11.8726320101801
 20
5.536299228803184
 10
12.30997333229539
 20
4.480463877566284
 10
12.65362832438679
 20
3.390529490843048
 10
12.90098156445992
 20
2.274791127436815
 10
13.05015054500186
 20
1.141740229994351
 10
13.1
 20
0.0000000000000307
 10
13.05015054500187
 20
-1.14174022999429
 10
12.90098156445993
 20
-2.274791127436754
 10
12.6536283243868
 20
-3.390529490842988
 10
12.30997333229541
 20
-4.480463877566227
 10
11.87263201018013
 20
-5.536299228803129
 10
11.34493278957617
 20
-6.549999999999966
 10
10.73089178018582
 20
-7.513851316198672
 10
10.03518220485864
 20
-8.420517686893634
 10
9.263098833543802
 20
-9.263098833543744
 10
8.420517686893694
 20
-10.03518220485859
 10
7.513851316198736
 20
-10.73089178018577
 10
6.550000000000035
 20
-11.34493278957613
 10
5.536299228803202
 20
-11.8726320101801
 10
4.480463877566302
 20
-12.30997333229539
 10
3.390529490843066
 20
-12.65362832438678
 10
2.274791127436833
 20
-12.90098156445992
 10
1.141740229994369
 20
-13.05015054500186
 10
0.0000000000000489
 20
-13.1
 10
-1.141740229994272
 20
-13.05015054500187
 10
-2.274791127436737
 20
-12.90098156445994
 10
-3.390529490842971
 20
-12.65362832438681
 10
-4.480463877566209
 20
-12.30997333229542
 10
-5.536299228803112
 20
-11.87263201018014
 10
-6.549999999999951
 20
-11.34493278957618
 10
-7.513851316198657
 20
-10.73089178018583
 10
-8.42051768689362
 20
-10.03518220485865
 10
-9.26309883354373
 20
-9.263098833543816
 10
-10.03518220485857
 20
-8.420517686893714
 10
-10.73089178018576
 20
-7.513851316198756
 10
-11.34493278957611
 20
-6.550000000000057
 10
-11.87263201018009
 20
-5.536299228803223
 10
-12.30997333229538
 20
-4.480463877566324
 10
-12.65362832438678
 20
-3.390529490843089
 10
-12.90098156445991
 20
-2.274791127436857
 10
-13.05015054500186
 20
-1.141740229994394
 10
-13.1
 20
-0.000000000000073
  0
LWPOLYLINE
  5
157
330
1F
100
AcDbEntity
  8
050
100
AcDbPolyline
 90
       47
 70
     0
 43
0.0
 10
0.0000000000000031
 20
16.75
 10
-1.45985869102327
 20
16.68626119303674
 10
-2.908606975921077
 20
16.49552986295449
 10
-4.335219005467216
 20
16.17925759034189
 10
-5.728837400704943
 20
15.73985139816397
 10
-7.078855884156706
 20
15.18065543286389
 10
-8.37499999999999
 20
14.50592551338936
 10
-9.607405308880013
 20
13.72079674184062
 10
-10.76669246224952
 20
12.83124442224289
 10
-11.84403858487466
 20
11.84403858487469
 10
-12.83124442224287
 20
10.76669246224955
 10
-13.7207967418406
 20
9.607405308880042
 10
-14.50592551338934
 20
8.375000000000021
 10
-15.18065543286388
 20
7.07885588415674
 10
-15.73985139816396
 20
5.728837400704977
 10
-16.17925759034189
 20
4.33521900546725
 10
-16.49552986295448
 20
2.908606975921113
 10
-16.68626119303674
 20
1.459858691023306
 10
-16.75
 20
0.0000000000000339
 10
-16.68626119303675
 20
-1.459858691023239
 10
-16.49552986295449
 20
-2.908606975921047
 10
-16.1792575903419
 20
-4.335219005467185
 10
-15.73985139816398
 20
-5.728837400704913
 10
-15.18065543286391
 20
-7.078855884156678
 10
-14.50592551338937
 20
-8.374999999999963
 10
-13.72079674184064
 20
-9.607405308879985
 10
-12.83124442224291
 20
-10.7666924622495
 10
-11.84403858487471
 20
-11.84403858487464
 10
-10.76669246224957
 20
-12.83124442224285
 10
-9.607405308880066
 20
-13.72079674184058
 10
-8.375000000000048
 20
-14.50592551338932
 10
-7.078855884156768
 20
-15.18065543286387
 10
-5.728837400705006
 20
-15.73985139816395
 10
-4.33521900546728
 20
-16.17925759034188
 10
-2.908606975921144
 20
-16.49552986295448
 10
-1.459858691023337
 20
-16.68626119303674
 10
-0.0000000000000646
 20
-16.75
 10
1.459858691023209
 20
-16.68626119303674
 10
2.908606975921017
 20
-16.4955298629545
 10
4.335219005467156
 20
-16.17925759034191
 10
5.728837400704885
 20
-15.73985139816399
 10
7.07885588415665
 20
-15.18065543286392
 10
8.374999999999936
 20
-14.50592551338939
 10
9.607405308879963
 20
-13.72079674184066
 10
10.76669246224948
 20
-12.83124442224293
 10
11.84403858487462
 20
-11.84403858487473
 10
12.58570047876779
 20
-11.05272108843538
  0
LINE
  5
158
330
1F
100
AcDbEntity
  8
050
100
AcDbLine
 10
120.0
 20
16.75
 30
0.0
 11
0.0000000000000013
 21
16.75
 31
0.0
  0
ARC
  5
159
330
1F
100
AcDbEntity
  8
050
100
AcDbCircle
 10
27.61340254296814
 20
-24.25000000000008
 30
0.0
 40
20.00000000000008
100
AcDbArc
 50
89.99999999999999
 51
115.4267316757159
  0
ARC
  5
15A
330
1F
100
AcDbEntity
  8
050
100
AcDbCircle
 10
120.0
 20
12.74999999999998
 30
0.0
 40
4.00000000000001
100
AcDbArc
 50
330.0000000000005
 51
89.99999999999957
  0
LINE
  5
15B
330
1F
100
AcDbEntity
  8
050
100
AcDbLine
 10
27.61340254296815
 20
-4.25
 30
0.0
 11
111.3397459621556
 21
-4.25
 31
0.0
  0
ARC
  5
15C
330
1F
100
AcDbEntity
  8
050
100
AcDbCircle
 10
111.3397459621556
 20
1.749999999999918
 30
0.0
 40
5.999999999999918
100
AcDbArc
 50
269.9999999999996
 51
330.0000000000005
  0
LINE
  5
15D
330
1F
100
AcDbEntity
  8
050
100
AcDbLine
 10
116.5358983848622
 20
-1.250000000000003
 30
0.0
 11
123.4641016151377
 21
10.75
 31
0.0
  0
LWPOLYLINE
  5
15E
330
1F
100
AcDbEntity
  8
050
100
AcDbPolyline
 90
        5
 70
     0
 43
0.0
 10
19.02627168328605
 20
-6.187298552024513
 10
17.84977278953509
 20
-6.795157289798435
 10
16.71117054223673
 20
-7.482730174467047
 10
15.6035424942661
 20
-8.257399785819986
 10
14.55129039346346
 20
-9.104663219533146
  0
LINE
  5
15F
330
1F
100
AcDbEntity
  8
050
100
AcDbLine
 10
14.55129039346345
 20
16.75
 30
0.0
 11
14.55129039346345
 21
-9.10466321953314
 31
0.0
  0
LINE
  5
160
330
1F
100
AcDbEntity
  8
050
100
AcDbLine
 10
19.02627168328605
 20
16.75
 30
0.0
 11
19.02627168328605
 21
-6.187298552024513
 31
0.0
  0
LINE
  5
163
330
1F
100
AcDbEntity
  8
MITTE
100
AcDbLine
 10
-76.45
 20
0.0
 30
0.0
 11
76.45
 21
0.0
 31
0.0
  0
LINE
  5
164
330
1F
100
AcDbEntity
  8
MITTE
100
AcDbLine
 10
-0.0000000000000071
 20
-26.77500000000001
 30
0.0
 11
-0.0000000000000071
 21
26.77499999999999
 31
0.0
  0
ENDSEC
  0
SECTION
  2
OBJECTS
  0
DICTIONARY
  5
C
330
0
100
AcDbDictionary
281
     1
  3
ACAD_DETAILVIEWSTYLE
350
16C
  3
ACAD_GROUP
350
D
  3
ACAD_LAYOUT
350
1A
  3
ACAD_MATERIAL
350
43
  3
ACAD_MLEADERSTYLE
350
6B
  3
ACAD_MLINESTYLE
350
17
  3
ACAD_PLOTSETTINGS
350
19
  3
ACAD_PLOTSTYLENAME
350
E
  3
ACAD_SCALELIST
350
47
  3
ACAD_SECTIONVIEWSTYLE
350
16D
  3
ACAD_TABLESTYLE
350
69
  3
ACAD_VISUALSTYLE
350
2A
  3
ACDB_RECOMPOSE_DATA
350
169
  3
AcDbVariableDictionary
350
165
  0
SUN
  5
6D
330
29
100
AcDbSun
 90
        1
290
     0
 63
     7
421
 16777215
 40
1.0
291
     1
 91
  2455826
 92
 54000000
292
     0
 70
     2
 71
   256
280
     1
  0
DICTIONARY
  5
16C
102
{ACAD_REACTORS
330
C
102
}
330
C
100
AcDbDictionary
281
     1
  0
DICTIONARY
  5
D
102
{ACAD_REACTORS
330
C
102
}
330
C
100
AcDbDictionary
281
     1
  0
DICTIONARY
  5
1A
102
{ACAD_REACTORS
330
C
102
}
330
C
100
AcDbDictionary
281
     1
  3
Layout1
350
1E
  3
Layout2
350
26
  3
Model
350
22
  0
DICTIONARY
  5
43
102
{ACAD_REACTORS
330
C
102
}
330
C
100
AcDbDictionary
281
     1
  3
ByBlock
350
45
  3
ByLayer
350
44
  3
Global
350
46
  0
DICTIONARY
  5
6B
102
{ACAD_REACTORS
330
C
102
}
330
C
100
AcDbDictionary
281
     1
  3
Standard
350
6C
  0
DICTIONARY
  5
17
102
{ACAD_REACTORS
330
C
102
}
330
C
100
AcDbDictionary
281
     1
  3
Standard
350
18
  0
DICTIONARY
  5
19
102
{ACAD_REACTORS
330
C
102
}
330
C
100
AcDbDictionary
281
     1
  0
ACDBDICTIONARYWDFLT
  5
E
102
{ACAD_REACTORS
330
C
102
}
330
C
100
AcDbDictionary
281
     1
  3
Normal
350
F
100
AcDbDictionaryWithDefault
340
F
  0
DICTIONARY
  5
47
102
{ACAD_REACTORS
330
C
102
}
330
C
100
AcDbDictionary
281
     1
  3
A0
350
48
  3
A1
350
49
  3
A2
350
4A
  3
A3
350
4B
  3
A4
350
4C
  3
A5
350
4D
  3
A6
350
4E
  3
A7
350
4F
  3
A8
350
50
  3
A9
350
51
  3
B0
350
52
  3
B1
350
53
  3
B2
350
54
  3
B3
350
55
  3
B4
350
56
  3
B5
350
57
  3
B6
350
58
  3
B7
350
59
  3
B8
350
5A
  3
B9
350
5B
  3
C0
350
5C
  3
C1
350
5D
  3
C2
350
5E
  3
C3
350
5F
  3
C4
350
60
  3
C5
350
61
  3
C6
350
62
  3
C7
350
63
  3
C8
350
64
  3
C9
350
65
  3
D0
350
66
  3
D1
350
67
  3
D2
350
68
  0
DICTIONARY
  5
16D
102
{ACAD_REACTORS
330
C
102
}
330
C
100
AcDbDictionary
281
     1
  0
DICTIONARY
  5
69
102
{ACAD_REACTORS
330
C
102
}
330
C
100
AcDbDictionary
281
     1
  3
Standard
350
6A
  0
DICTIONARY
  5
2A
102
{ACAD_REACTORS
330
C
102
}
330
C
100
AcDbDictionary
281
     1
  3
2dWireframe
350
2F
  3
Basic
350
32
  3
Brighten
350
36
  3
ColorChange
350
3A
  3
Conceptual
350
34
  3
Dim
350
35
  3
EdgeColorOff
350
3D
  3
Facepattern
350
39
  3
Flat
350
2B
  3
FlatWithEdges
350
2C
  3
Gouraud
350
2D
  3
GouraudWithEdges
350
2E
  3
Hidden
350
31
  3
JitterOff
350
3B
  3
Linepattern
350
38
  3
OverhangOff
350
3C
  3
Realistic
350
33
  3
Shaded
350
42
  3
Shaded with edges
350
41
  3
Shades of Gray
350
3E
  3
Sketchy
350
3F
  3
Thicken
350
37
  3
Wireframe
350
30
  3
X-Ray
350
40
  0
XRECORD
  5
169
102
{ACAD_REACTORS
330
C
102
}
330
C
100
AcDbXrecord
280
     1
 90
        1
330
6A
  0
DICTIONARY
  5
165
102
{ACAD_REACTORS
330
C
102
}
330
C
100
AcDbDictionary
281
     1
  3
CANNOSCALE
350
166
  3
CMLEADERSTYLE
350
16B
  3
CTABLESTYLE
350
16A
  3
SECTIONTHICKNESSINC
350
16E
  0
LAYOUT
  5
1E
102
{ACAD_REACTORS
330
1A
102
}
330
1A
100
AcDbPlotSettings
  1

  2
none_device
  4

  6

 40
0.0
 41
0.0
 42
0.0
 43
0.0
 44
0.0
 45
0.0
 46
0.0
 47
0.0
 48
0.0
 49
0.0
140
0.0
141
0.0
142
1.0
143
1.0
 70
   688
 72
     1
 73
     0
 74
     5
  7

 75
    16
 76
     0
 77
     2
 78
   300
147
1.0
148
0.0
149
0.0
100
AcDbLayout
  1
Layout1
 70
     1
 71
     1
 10
0.0
 20
0.0
 11
420.0
 21
297.0
 12
0.0
 22
0.0
 32
0.0
 14
1.000000000000000E+20
 24
1.000000000000000E+20
 34
1.000000000000000E+20
 15
-1.000000000000000E+20
 25
-1.000000000000000E+20
 35
-1.000000000000000E+20
146
0.0
 13
0.0
 23
0.0
 33
0.0
 16
1.0
 26
0.0
 36
0.0
 17
0.0
 27
1.0
 37
0.0
 76
     0
330
1B
  0
LAYOUT
  5
26
102
{ACAD_REACTORS
330
1A
102
}
330
1A
100
AcDbPlotSettings
  1

  2
none_device
  4

  6

 40
0.0
 41
0.0
 42
0.0
 43
0.0
 44
0.0
 45
0.0
 46
0.0
 47
0.0
 48
0.0
 49
0.0
140
0.0
141
0.0
142
1.0
143
1.0
 70
   688
 72
     1
 73
     0
 74
     5
  7

 75
    16
 76
     0
 77
     2
 78
   300
147
1.0
148
0.0
149
0.0
100
AcDbLayout
  1
Layout2
 70
     1
 71
     2
 10
0.0
 20
0.0
 11
0.0
 21
0.0
 12
0.0
 22
0.0
 32
0.0
 14
0.0
 24
0.0
 34
0.0
 15
0.0
 25
0.0
 35
0.0
146
0.0
 13
0.0
 23
0.0
 33
0.0
 16
1.0
 26
0.0
 36
0.0
 17
0.0
 27
1.0
 37
0.0
 76
     0
330
23
  0
LAYOUT
  5
22
102
{ACAD_REACTORS
330
1A
102
}
330
1A
100
AcDbPlotSettings
  1

  2
none_device
  4
Letter_(8.50_x_11.00_Inches)
  6

 40
6.35
 41
6.35
 42
6.35000508
 43
6.35000508
 44
215.9
 45
279.4
 46
0.0
 47
0.0
 48
0.0
 49
0.0
140
0.0
141
0.0
142
1.0
143
1.0
 70
  1712
 72
     1
 73
     0
 74
     0
  7

 75
     0
 76
     0
 77
     2
 78
   300
147
1.0
148
0.0
149
0.0
100
AcDbLayout
  1
Model
 70
     1
 71
     0
 10
0.0
 20
0.0
 11
420.0
 21
297.0
 12
0.0
 22
0.0
 32
0.0
 14
1.000000000000000E+20
 24
1.000000000000000E+20
 34
1.000000000000000E+20
 15
-1.000000000000000E+20
 25
-1.000000000000000E+20
 35
-1.000000000000000E+20
146
0.0
 13
0.0
 23
0.0
 33
0.0
 16
1.0
 26
0.0
 36
0.0
 17
0.0
 27
1.0
 37
0.0
 76
     0
330
1F
331
29
  0
MATERIAL
  5
45
102
{ACAD_REACTORS
330
43
102
}
330
43
100
AcDbMaterial
  1
ByBlock
 72
     1
 94
      127
  0
MATERIAL
  5
44
102
{ACAD_REACTORS
330
43
102
}
330
43
100
AcDbMaterial
  1
ByLayer
 72
     1
 94
      127
  0
MATERIAL
  5
46
102
{ACAD_REACTORS
330
43
102
}
330
43
100
AcDbMaterial
  1
Global
 72
     1
 94
      127
  0
MLEADERSTYLE
  5
6C
102
{ACAD_REACTORS
330
6B
102
}
330
6B
100
AcDbMLeaderStyle
179
     2
170
     2
171
     1
172
     0
 90
        2
 40
0.0
 41
0.0
173
     1
 91
-1056964608
340
14
 92
       -2
290
     1
 42
2.0
291
     1
 43
8.0
  3
Standard
341
0
 44
4.0
300

342
11
174
     1
178
     6
175
     1
176
     0
 93
-1056964608
 45
4.0
292
     0
297
     0
 46
4.0
343
0
 94
-1056964608
 47
1.0
 49
1.0
140
1.0
293
     1
141
0.0
294
     1
177
     0
142
1.0
295
     0
296
     0
143
3.75
271
     0
272
     9
273
     9
298
     0
  0
MLINESTYLE
  5
18
102
{ACAD_REACTORS
330
17
102
}
330
17
100
AcDbMlineStyle
  2
Standard
 70
     0
  3

 62
   256
 51
90.0
 52
90.0
 71
     2
 49
0.5
 62
   256
  6
BYLAYER
 49
-0.5
 62
   256
  6
BYLAYER
  0
ACDBPLACEHOLDER
  5
F
102
{ACAD_REACTORS
330
E
102
}
330
E
  0
SCALE
  5
48
102
{ACAD_REACTORS
330
47
102
}
330
47
100
AcDbScale
 70
     0
300
1:1
140
1.0
141
1.0
290
     1
  0
SCALE
  5
49
102
{ACAD_REACTORS
330
47
102
}
330
47
100
AcDbScale
 70
     0
300
1:2
140
1.0
141
2.0
290
     0
  0
SCALE
  5
4A
102
{ACAD_REACTORS
330
47
102
}
330
47
100
AcDbScale
 70
     0
300
1:4
140
1.0
141
4.0
290
     0
  0
SCALE
  5
4B
102
{ACAD_REACTORS
330
47
102
}
330
47
100
AcDbScale
 70
     0
300
1:5
140
1.0
141
5.0
290
     0
  0
SCALE
  5
4C
102
{ACAD_REACTORS
330
47
102
}
330
47
100
AcDbScale
 70
     0
300
1:8
140
1.0
141
8.0
290
     0
  0
SCALE
  5
4D
102
{ACAD_REACTORS
330
47
102
}
330
47
100
AcDbScale
 70
     0
300
1:10
140
1.0
141
10.0
290
     0
  0
SCALE
  5
4E
102
{ACAD_REACTORS
330
47
102
}
330
47
100
AcDbScale
 70
     0
300
1:16
140
1.0
141
16.0
290
     0
  0
SCALE
  5
4F
102
{ACAD_REACTORS
330
47
102
}
330
47
100
AcDbScale
 70
     0
300
1:20
140
1.0
141
20.0
290
     0
  0
SCALE
  5
50
102
{ACAD_REACTORS
330
47
102
}
330
47
100
AcDbScale
 70
     0
300
1:30
140
1.0
141
30.0
290
     0
  0
SCALE
  5
51
102
{ACAD_REACTORS
330
47
102
}
330
47
100
AcDbScale
 70
     0
300
1:40
140
1.0
141
40.0
290
     0
  0
SCALE
  5
52
102
{ACAD_REACTORS
330
47
102
}
330
47
100
AcDbScale
 70
     0
300
1:50
140
1.0
141
50.0
290
     0
  0
SCALE
  5
53
102
{ACAD_REACTORS
330
47
102
}
330
47
100
AcDbScale
 70
     0
300
1:100
140
1.0
141
100.0
290
     0
  0
SCALE
  5
54
102
{ACAD_REACTORS
330
47
102
}
330
47
100
AcDbScale
 70
     0
300
2:1
140
2.0
141
1.0
290
     0
  0
SCALE
  5
55
102
{ACAD_REACTORS
330
47
102
}
330
47
100
AcDbScale
 70
     0
300
4:1
140
4.0
141
1.0
290
     0
  0
SCALE
  5
56
102
{ACAD_REACTORS
330
47
102
}
330
47
100
AcDbScale
 70
     0
300
8:1
140
8.0
141
1.0
290
     0
  0
SCALE
  5
57
102
{ACAD_REACTORS
330
47
102
}
330
47
100
AcDbScale
 70
     0
300
10:1
140
10.0
141
1.0
290
     0
  0
SCALE
  5
58
102
{ACAD_REACTORS
330
47
102
}
330
47
100
AcDbScale
 70
     0
300
100:1
140
100.0
141
1.0
290
     0
  0
SCALE
  5
59
102
{ACAD_REACTORS
330
47
102
}
330
47
100
AcDbScale
 70
     0
300
1/128" = 1'-0"
140
0.0078125
141
12.0
290
     0
  0
SCALE
  5
5A
102
{ACAD_REACTORS
330
47
102
}
330
47
100
AcDbScale
 70
     0
300
1/64" = 1'-0"
140
0.015625
141
12.0
290
     0
  0
SCALE
  5
5B
102
{ACAD_REACTORS
330
47
102
}
330
47
100
AcDbScale
 70
     0
300
1/32" = 1'-0"
140
0.03125
141
12.0
290
     0
  0
SCALE
  5
5C
102
{ACAD_REACTORS
330
47
102
}
330
47
100
AcDbScale
 70
     0
300
1/16" = 1'-0"
140
0.0625
141
12.0
290
     0
  0
SCALE
  5
5D
102
{ACAD_REACTORS
330
47
102
}
330
47
100
AcDbScale
 70
     0
300
3/32" = 1'-0"
140
0.09375
141
12.0
290
     0
  0
SCALE
  5
5E
102
{ACAD_REACTORS
330
47
102
}
330
47
100
AcDbScale
 70
     0
300
1/8" = 1'-0"
140
0.125
141
12.0
290
     0
  0
SCALE
  5
5F
102
{ACAD_REACTORS
330
47
102
}
330
47
100
AcDbScale
 70
     0
300
3/16" = 1'-0"
140
0.1875
141
12.0
290
     0
  0
SCALE
  5
60
102
{ACAD_REACTORS
330
47
102
}
330
47
100
AcDbScale
 70
     0
300
1/4" = 1'-0"
140
0.25
141
12.0
290
     0
  0
SCALE
  5
61
102
{ACAD_REACTORS
330
47
102
}
330
47
100
AcDbScale
 70
     0
300
3/8" = 1'-0"
140
0.375
141
12.0
290
     0
  0
SCALE
  5
62
102
{ACAD_REACTORS
330
47
102
}
330
47
100
AcDbScale
 70
     0
300
1/2" = 1'-0"
140
0.5
141
12.0
290
     0
  0
SCALE
  5
63
102
{ACAD_REACTORS
330
47
102
}
330
47
100
AcDbScale
 70
     0
300
3/4" = 1'-0"
140
0.75
141
12.0
290
     0
  0
SCALE
  5
64
102
{ACAD_REACTORS
330
47
102
}
330
47
100
AcDbScale
 70
     0
300
1" = 1'-0"
140
1.0
141
12.0
290
     0
  0
SCALE
  5
65
102
{ACAD_REACTORS
330
47
102
}
330
47
100
AcDbScale
 70
     0
300
1-1/2" = 1'-0"
140
1.5
141
12.0
290
     0
  0
SCALE
  5
66
102
{ACAD_REACTORS
330
47
102
}
330
47
100
AcDbScale
 70
     0
300
3" = 1'-0"
140
3.0
141
12.0
290
     0
  0
SCALE
  5
67
102
{ACAD_REACTORS
330
47
102
}
330
47
100
AcDbScale
 70
     0
300
6" = 1'-0"
140
6.0
141
12.0
290
     0
  0
SCALE
  5
68
102
{ACAD_REACTORS
330
47
102
}
330
47
100
AcDbScale
 70
     0
300
1'-0" = 1'-0"
140
12.0
141
12.0
290
     0
  0
TABLESTYLE
  5
6A
102
{ACAD_REACTORS
330
69
102
}
102
{ACAD_XDICTIONARY
360
167
102
}
330
69
100
AcDbTableStyle
  3
Standard
 70
     0
 71
     0
 40
0.06
 41
0.06
280
     0
281
     0
  7
Standard
140
4.5
170
     2
 62
     0
 63
   257
283
     0
 90
        4
 91
        0
  1

274
    -2
284
     1
 64
     0
275
    -2
285
     1
 65
     0
276
    -2
286
     1
 66
     0
277
    -2
287
     1
 67
     0
278
    -2
288
     1
 68
     0
279
    -2
289
     1
 69
     0
  7
Standard
140
6.0
170
     5
 62
     0
 63
   257
283
     0
 90
        4
 91
        0
  1

274
    -2
284
     1
 64
     0
275
    -2
285
     1
 65
     0
276
    -2
286
     1
 66
     0
277
    -2
287
     1
 67
     0
278
    -2
288
     1
 68
     0
279
    -2
289
     1
 69
     0
  7
Standard
140
4.5
170
     5
 62
     0
 63
   257
283
     0
 90
        4
 91
        0
  1

274
    -2
284
     1
 64
     0
275
    -2
285
     1
 65
     0
276
    -2
286
     1
 66
     0
277
    -2
287
     1
 67
     0
278
    -2
288
     1
 68
     0
279
    -2
289
     1
 69
     0
  0
VISUALSTYLE
  5
2F
102
{ACAD_REACTORS
330
2A
102
}
330
2A
100
AcDbVisualStyle
  2
2dWireframe
 70
     4
177
     3
291
     0
 70
    58
 90
        0
176
     1
 90
        2
176
     1
 90
        0
176
     1
 90
        0
176
     1
 40
0.6
176
     1
 40
30.0
176
     1
 62
     7
420
 16777215
176
     1
 90
        1
176
     1
 90
        4
176
     1
 62
     7
176
     1
 62
   257
176
     1
 90
        1
176
     1
 90
        1
176
     1
 40
1.0
176
     1
 90
        0
176
     1
 62
   257
176
     1
 40
1.0
176
     1
 90
        1
176
     1
 90
        6
176
     1
 90
        2
176
     1
 62
     7
176
     1
 90
        5
176
     1
 90
        0
176
     1
 90
        0
176
     1
290
     0
176
     1
 90
        1
176
     1
 40
0.0
176
     1
 90
        0
176
     1
290
     1
176
     1
290
     1
176
     1
290
     0
176
     1
290
     0
176
     1
290
     0
176
     1
290
     0
176
     1
290
     0
176
     1
290
     0
176
     1
290
     0
176
     1
 90
       50
176
     1
 40
0.0
176
     1
 40
1.0
176
     1
 90
        0
176
     1
 62
    18
420
        0
176
     1
 90
       50
176
     1
 90
        3
176
     1
 62
     5
420
      255
176
     1
290
     0
176
     1
 90
       50
176
     1
 90
       50
176
     1
 90
       50
176
     1
290
     0
176
     1
 90
       50
176
     1
 62
   256
176
     0
 40
1.0
176
     0
 90
        2
176
     1
  1
strokes_ogs.tif
176
     1
290
     0
176
     1
 40
1.0
176
     1
 40
1.0
176
     1
  0
VISUALSTYLE
  5
32
102
{ACAD_REACTORS
330
2A
102
}
330
2A
100
AcDbVisualStyle
  2
Basic
 70
     7
177
     3
291
     1
 70
    58
 90
        1
176
     1
 90
        0
176
     1
 90
        1
176
     1
 90
        0
176
     1
 40
0.6
176
     1
 40
30.0
176
     1
 62
     7
420
 16777215
176
     1
 90
        0
176
     1
 90
        4
176
     1
 62
     7
176
     1
 62
   257
176
     1
 90
        1
176
     1
 90
        1
176
     1
 40
1.0
176
     1
 90
        8
176
     1
 62
     7
176
     1
 40
1.0
176
     1
 90
        1
176
     1
 90
        6
176
     1
 90
        2
176
     1
 62
     7
176
     1
 90
        5
176
     1
 90
        0
176
     1
 90
        0
176
     1
290
     0
176
     1
 90
        1
176
     1
 40
0.0
176
     1
 90
        0
176
     1
290
     0
176
     1
290
     1
176
     1
290
     1
176
     1
290
     0
176
     1
290
     0
176
     1
290
     0
176
     1
290
     0
176
     1
290
     0
176
     1
290
     0
176
     1
 90
       50
176
     1
 40
0.0
176
     1
 40
1.0
176
     1
 90
        0
176
     1
 62
    18
420
        0
176
     1
 90
       50
176
     1
 90
        3
176
     1
 62
     5
420
      255
176
     1
290
     0
176
     1
 90
       50
176
     1
 90
       50
176
     1
 90
       50
176
     1
290
     0
176
     1
 90
       50
176
     1
 62
   256
176
     0
 40
1.0
176
     0
 90
        2
176
     1
  1
strokes_ogs.tif
176
     1
290
     0
176
     1
 40
1.0
176
     1
 40
1.0
176
     1
  0
VISUALSTYLE
  5
36
102
{ACAD_REACTORS
330
2A
102
}
330
2A
100
AcDbVisualStyle
  2
Brighten
 70
    12
177
     3
291
     1
 70
    58
 90
        2
176
     1
 90
        2
176
     1
 90
        0
176
     1
 90
        0
176
     1
 40
0.6
176
     1
 40
30.0
176
     1
 62
     7
420
 16777215
176
     1
 90
        1
176
     1
 90
        4
176
     1
 62
     7
176
     1
 62
   257
176
     1
 90
        1
176
     1
 90
        1
176
     1
 40
1.0
176
     1
 90
        8
176
     1
 62
     7
176
     1
 40
1.0
176
     1
 90
        1
176
     1
 90
        6
176
     1
 90
        2
176
     1
 62
     7
176
     1
 90
        5
176
     1
 90
        0
176
     1
 90
        0
176
     1
290
     0
176
     1
 90
        1
176
     1
 40
50.0
176
     1
 90
        0
176
     1
290
     0
176
     1
290
     1
176
     1
290
     1
176
     1
290
     0
176
     1
290
     0
176
     1
290
     0
176
     1
290
     0
176
     1
290
     0
176
     1
290
     0
176
     1
 90
       50
176
     1
 40
0.0
176
     1
 40
1.0
176
     1
 90
        0
176
     1
 62
    18
420
        0
176
     1
 90
       50
176
     1
 90
        3
176
     1
 62
     5
420
      255
176
     1
290
     0
176
     1
 90
       50
176
     1
 90
       50
176
     1
 90
       50
176
     1
290
     0
176
     1
 90
       50
176
     1
 62
   256
176
     0
 40
1.0
176
     0
 90
        2
176
     1
  1
strokes_ogs.tif
176
     1
290
     0
176
     1
 40
1.0
176
     1
 40
1.0
176
     1
  0
VISUALSTYLE
  5
3A
102
{ACAD_REACTORS
330
2A
102
}
330
2A
100
AcDbVisualStyle
  2
ColorChange
 70
    16
177
     3
291
     1
 70
    58
 90
        2
176
     1
 90
        2
176
     1
 90
        3
176
     1
 90
        0
176
     1
 40
0.6
176
     1
 40
30.0
176
     1
 62
     8
420
  8421504
176
     1
 90
        1
176
     1
 90
        4
176
     1
 62
     7
176
     1
 62
   257
176
     1
 90
        1
176
     1
 90
        1
176
     1
 40
1.0
176
     1
 90
        8
176
     1
 62
     8
420
  8421504
176
     1
 40
1.0
176
     1
 90
        1
176
     1
 90
        6
176
     1
 90
        2
176
     1
 62
     7
176
     1
 90
        5
176
     1
 90
        0
176
     1
 90
        0
176
     1
290
     0
176
     1
 90
        1
176
     1
 40
0.0
176
     1
 90
        0
176
     1
290
     0
176
     1
290
     1
176
     1
290
     1
176
     1
290
     0
176
     1
290
     0
176
     1
290
     0
176
     1
290
     0
176
     1
290
     0
176
     1
290
     0
176
     1
 90
       50
176
     1
 40
0.0
176
     1
 40
1.0
176
     1
 90
        0
176
     1
 62
    18
420
        0
176
     1
 90
       50
176
     1
 90
        3
176
     1
 62
     5
420
      255
176
     1
290
     0
176
     1
 90
       50
176
     1
 90
       50
176
     1
 90
       50
176
     1
290
     0
176
     1
 90
       50
176
     1
 62
   256
176
     0
 40
1.0
176
     0
 90
        2
176
     1
  1
strokes_ogs.tif
176
     1
290
     0
176
     1
 40
1.0
176
     1
 40
1.0
176
     1
  0
VISUALSTYLE
  5
34
102
{ACAD_REACTORS
330
2A
102
}
330
2A
100
AcDbVisualStyle
  2
Conceptual
 70
     9
177
     3
291
     0
 70
    58
 90
        3
176
     1
 90
        2
176
     1
 90
        0
176
     1
 90
        0
176
     1
 40
0.6
176
     1
 40
30.0
176
     1
 62
     7
420
 16777215
176
     1
 90
        2
176
     1
 90
        2
176
     1
 62
     7
176
     1
 62
   257
176
     1
 90
        1
176
     1
 90
        1
176
     1
 40
179.0
176
     1
 90
        8
176
     1
 62
     7
176
     1
 40
1.0
176
     1
 90
        1
176
     1
 90
        6
176
     1
 90
        2
176
     1
 62
     7
176
     1
 90
        3
176
     1
 90
        0
176
     1
 90
        0
176
     1
290
     0
176
     1
 90
        1
176
     1
 40
0.0
176
     1
 90
        0
176
     1
290
     0
176
     1
290
     1
176
     1
290
     1
176
     1
290
     0
176
     1
290
     0
176
     1
290
     0
176
     1
290
     0
176
     1
290
     0
176
     1
290
     0
176
     1
 90
       50
176
     1
 40
0.0
176
     1
 40
1.0
176
     1
 90
        0
176
     1
 62
    18
420
        0
176
     1
 90
       50
176
     1
 90
        3
176
     1
 62
     5
420
      255
176
     1
290
     0
176
     1
 90
       50
176
     1
 90
       50
176
     1
 90
       50
176
     1
290
     0
176
     1
 90
       50
176
     1
 62
   256
176
     0
 40
1.0
176
     0
 90
        2
176
     1
  1
strokes_ogs.tif
176
     1
290
     0
176
     1
 40
1.0
176
     1
 40
1.0
176
     1
  0
VISUALSTYLE
  5
35
102
{ACAD_REACTORS
330
2A
102
}
330
2A
100
AcDbVisualStyle
  2
Dim
 70
    11
177
     3
291
     1
 70
    58
 90
        2
176
     1
 90
        2
176
     1
 90
        0
176
     1
 90
        0
176
     1
 40
0.6
176
     1
 40
30.0
176
     1
 62
     7
420
 16777215
176
     1
 90
        1
176
     1
 90
        4
176
     1
 62
     7
176
     1
 62
   257
176
     1
 90
        1
176
     1
 90
        1
176
     1
 40
1.0
176
     1
 90
        8
176
     1
 62
     7
176
     1
 40
1.0
176
     1
 90
        1
176
     1
 90
        6
176
     1
 90
        2
176
     1
 62
     7
176
     1
 90
        5
176
     1
 90
        0
176
     1
 90
        0
176
     1
290
     0
176
     1
 90
        1
176
     1
 40
-50.0
176
     1
 90
        0
176
     1
290
     0
176
     1
290
     1
176
     1
290
     1
176
     1
290
     0
176
     1
290
     0
176
     1
290
     0
176
     1
290
     0
176
     1
290
     0
176
     1
290
     0
176
     1
 90
       50
176
     1
 40
0.0
176
     1
 40
1.0
176
     1
 90
        0
176
     1
 62
    18
420
        0
176
     1
 90
       50
176
     1
 90
        3
176
     1
 62
     5
420
      255
176
     1
290
     0
176
     1
 90
       50
176
     1
 90
       50
176
     1
 90
       50
176
     1
290
     0
176
     1
 90
       50
176
     1
 62
   256
176
     0
 40
1.0
176
     0
 90
        2
176
     1
  1
strokes_ogs.tif
176
     1
290
     0
176
     1
 40
1.0
176
     1
 40
1.0
176
     1
  0
VISUALSTYLE
  5
3D
102
{ACAD_REACTORS
330
2A
102
}
330
2A
100
AcDbVisualStyle
  2
EdgeColorOff
 70
    22
177
     3
291
     1
 70
    58
 90
        2
176
     0
 90
        2
176
     0
 90
        0
176
     0
 90
        0
176
     0
 40
0.6
176
     0
 40
30.0
176
     0
 62
     7
420
 16777215
176
     0
 90
        1
176
     0
 90
        4
176
     0
 62
     7
176
     0
 62
   257
176
     0
 90
        1
176
     0
 90
        1
176
     0
 40
1.0
176
     0
 90
        8
176
     2
 62
     7
176
     0
 40
1.0
176
     0
 90
        1
176
     0
 90
        6
176
     0
 90
        2
176
     0
 62
     7
176
     0
 90
        5
176
     0
 90
        0
176
     0
 90
        0
176
     0
290
     0
176
     0
 90
        1
176
     0
 40
0.0
176
     0
 90
        0
176
     0
290
     0
176
     0
290
     1
176
     0
290
     1
176
     0
290
     0
176
     0
290
     0
176
     0
290
     0
176
     0
290
     0
176
     0
290
     0
176
     0
290
     0
176
     0
 90
       50
176
     0
 40
0.0
176
     0
 40
1.0
176
     0
 90
        0
176
     0
 62
    18
420
        0
176
     0
 90
       50
176
     0
 90
        3
176
     0
 62
     5
420
      255
176
     0
290
     0
176
     0
 90
       50
176
     0
 90
       50
176
     0
 90
       50
176
     0
290
     0
176
     0
 90
       50
176
     0
 62
   256
176
     0
 40
1.0
176
     0
 90
        2
176
     0
  1
strokes_ogs.tif
176
     0
290
     0
176
     0
 40
1.0
176
     0
 40
1.0
176
     0
  0
VISUALSTYLE
  5
39
102
{ACAD_REACTORS
330
2A
102
}
330
2A
100
AcDbVisualStyle
  2
Facepattern
 70
    15
177
     3
291
     1
 70
    58
 90
        2
176
     1
 90
        2
176
     1
 90
        0
176
     1
 90
        0
176
     1
 40
0.6
176
     1
 40
30.0
176
     1
 62
     7
420
 16777215
176
     1
 90
        1
176
     1
 90
        4
176
     1
 62
     7
176
     1
 62
   257
176
     1
 90
        1
176
     1
 90
        1
176
     1
 40
1.0
176
     1
 90
        8
176
     1
 62
     7
176
     1
 40
1.0
176
     1
 90
        1
176
     1
 90
        6
176
     1
 90
        2
176
     1
 62
     7
176
     1
 90
        5
176
     1
 90
        0
176
     1
 90
        0
176
     1
290
     0
176
     1
 90
        1
176
     1
 40
0.0
176
     1
 90
        0
176
     1
290
     0
176
     1
290
     1
176
     1
290
     1
176
     1
290
     0
176
     1
290
     0
176
     1
290
     0
176
     1
290
     0
176
     1
290
     0
176
     1
290
     0
176
     1
 90
       50
176
     1
 40
0.0
176
     1
 40
1.0
176
     1
 90
        0
176
     1
 62
    18
420
        0
176
     1
 90
       50
176
     1
 90
        3
176
     1
 62
     5
420
      255
176
     1
290
     0
176
     1
 90
       50
176
     1
 90
       50
176
     1
 90
       50
176
     1
290
     0
176
     1
 90
       50
176
     1
 62
   256
176
     0
 40
1.0
176
     0
 90
        2
176
     1
  1
strokes_ogs.tif
176
     1
290
     0
176
     1
 40
1.0
176
     1
 40
1.0
176
     1
  0
VISUALSTYLE
  5
2B
102
{ACAD_REACTORS
330
2A
102
}
330
2A
100
AcDbVisualStyle
  2
Flat
 70
     0
177
     3
291
     1
 70
    58
 90
        2
176
     1
 90
        1
176
     1
 90
        1
176
     1
 90
        2
176
     1
 40
0.6
176
     1
 40
30.0
176
     1
 62
     7
420
 16777215
176
     1
 90
        0
176
     1
 90
        0
176
     1
 62
     7
176
     1
 62
   257
176
     1
 90
        1
176
     1
 90
        1
176
     1
 40
1.0
176
     1
 90
        8
176
     1
 62
     7
176
     1
 40
1.0
176
     1
 90
        1
176
     1
 90
        6
176
     1
 90
        2
176
     1
 62
     7
176
     1
 90
        5
176
     1
 90
        0
176
     1
 90
        0
176
     1
290
     0
176
     1
 90
       13
176
     1
 40
0.0
176
     1
 90
        0
176
     1
290
     0
176
     1
290
     1
176
     1
290
     1
176
     1
290
     0
176
     1
290
     0
176
     1
290
     0
176
     1
290
     0
176
     1
290
     0
176
     1
290
     0
176
     1
 90
       50
176
     1
 40
0.0
176
     1
 40
1.0
176
     1
 90
        0
176
     1
 62
    18
420
        0
176
     1
 90
       50
176
     1
 90
        3
176
     1
 62
     5
420
      255
176
     1
290
     0
176
     1
 90
       50
176
     1
 90
       50
176
     1
 90
       50
176
     1
290
     0
176
     1
 90
       50
176
     1
 62
   256
176
     0
 40
1.0
176
     0
 90
        2
176
     1
  1
strokes_ogs.tif
176
     1
290
     0
176
     1
 40
1.0
176
     1
 40
1.0
176
     1
  0
VISUALSTYLE
  5
2C
102
{ACAD_REACTORS
330
2A
102
}
330
2A
100
AcDbVisualStyle
  2
FlatWithEdges
 70
     1
177
     3
291
     1
 70
    58
 90
        2
176
     1
 90
        1
176
     1
 90
        1
176
     1
 90
        2
176
     1
 40
0.6
176
     1
 40
30.0
176
     1
 62
     7
420
 16777215
176
     1
 90
        1
176
     1
 90
        0
176
     1
 62
     7
176
     1
 62
   257
176
     1
 90
        1
176
     1
 90
        1
176
     1
 40
1.0
176
     1
 90
        0
176
     1
 62
   257
176
     1
 40
1.0
176
     1
 90
        1
176
     1
 90
        6
176
     1
 90
        2
176
     1
 62
     7
176
     1
 90
        5
176
     1
 90
        0
176
     1
 90
        0
176
     1
290
     0
176
     1
 90
       13
176
     1
 40
0.0
176
     1
 90
        0
176
     1
290
     0
176
     1
290
     1
176
     1
290
     1
176
     1
290
     0
176
     1
290
     0
176
     1
290
     0
176
     1
290
     0
176
     1
290
     0
176
     1
290
     0
176
     1
 90
       50
176
     1
 40
0.0
176
     1
 40
1.0
176
     1
 90
        0
176
     1
 62
    18
420
        0
176
     1
 90
       50
176
     1
 90
        3
176
     1
 62
     5
420
      255
176
     1
290
     0
176
     1
 90
       50
176
     1
 90
       50
176
     1
 90
       50
176
     1
290
     0
176
     1
 90
       50
176
     1
 62
   256
176
     0
 40
1.0
176
     0
 90
        2
176
     1
  1
strokes_ogs.tif
176
     1
290
     0
176
     1
 40
1.0
176
     1
 40
1.0
176
     1
  0
VISUALSTYLE
  5
2D
102
{ACAD_REACTORS
330
2A
102
}
330
2A
100
AcDbVisualStyle
  2
Gouraud
 70
     2
177
     3
291
     1
 70
    58
 90
        2
176
     1
 90
        2
176
     1
 90
        1
176
     1
 90
        2
176
     1
 40
0.6
176
     1
 40
30.0
176
     1
 62
     7
420
 16777215
176
     1
 90
        0
176
     1
 90
        0
176
     1
 62
     7
176
     1
 62
   257
176
     1
 90
        1
176
     1
 90
        1
176
     1
 40
1.0
176
     1
 90
        0
176
     1
 62
     7
176
     1
 40
1.0
176
     1
 90
        1
176
     1
 90
        6
176
     1
 90
        2
176
     1
 62
     7
176
     1
 90
        5
176
     1
 90
        0
176
     1
 90
        0
176
     1
290
     0
176
     1
 90
       13
176
     1
 40
0.0
176
     1
 90
        0
176
     1
290
     0
176
     1
290
     1
176
     1
290
     1
176
     1
290
     0
176
     1
290
     0
176
     1
290
     0
176
     1
290
     0
176
     1
290
     0
176
     1
290
     0
176
     1
 90
       50
176
     1
 40
0.0
176
     1
 40
1.0
176
     1
 90
        0
176
     1
 62
    18
420
        0
176
     1
 90
       50
176
     1
 90
        3
176
     1
 62
     5
420
      255
176
     1
290
     0
176
     1
 90
       50
176
     1
 90
       50
176
     1
 90
       50
176
     1
290
     0
176
     1
 90
       50
176
     1
 62
   256
176
     0
 40
1.0
176
     0
 90
        2
176
     1
  1
strokes_ogs.tif
176
     1
290
     0
176
     1
 40
1.0
176
     1
 40
1.0
176
     1
  0
VISUALSTYLE
  5
2E
102
{ACAD_REACTORS
330
2A
102
}
330
2A
100
AcDbVisualStyle
  2
GouraudWithEdges
 70
     3
177
     3
291
     1
 70
    58
 90
        2
176
     1
 90
        2
176
     1
 90
        1
176
     1
 90
        2
176
     1
 40
0.6
176
     1
 40
30.0
176
     1
 62
     7
420
 16777215
176
     1
 90
        1
176
     1
 90
        0
176
     1
 62
     7
176
     1
 62
   257
176
     1
 90
        1
176
     1
 90
        1
176
     1
 40
1.0
176
     1
 90
        0
176
     1
 62
   257
176
     1
 40
1.0
176
     1
 90
        1
176
     1
 90
        6
176
     1
 90
        2
176
     1
 62
     7
176
     1
 90
        5
176
     1
 90
        0
176
     1
 90
        0
176
     1
290
     0
176
     1
 90
       13
176
     1
 40
0.0
176
     1
 90
        0
176
     1
290
     0
176
     1
290
     1
176
     1
290
     1
176
     1
290
     0
176
     1
290
     0
176
     1
290
     0
176
     1
290
     0
176
     1
290
     0
176
     1
290
     0
176
     1
 90
       50
176
     1
 40
0.0
176
     1
 40
1.0
176
     1
 90
        0
176
     1
 62
    18
420
        0
176
     1
 90
       50
176
     1
 90
        3
176
     1
 62
     5
420
      255
176
     1
290
     0
176
     1
 90
       50
176
     1
 90
       50
176
     1
 90
       50
176
     1
290
     0
176
     1
 90
       50
176
     1
 62
   256
176
     0
 40
1.0
176
     0
 90
        2
176
     1
  1
strokes_ogs.tif
176
     1
290
     0
176
     1
 40
1.0
176
     1
 40
1.0
176
     1
  0
VISUALSTYLE
  5
31
102
{ACAD_REACTORS
330
2A
102
}
330
2A
100
AcDbVisualStyle
  2
Hidden
 70
     6
177
     3
291
     0
 70
    58
 90
        1
176
     1
 90
        2
176
     1
 90
        2
176
     1
 90
        0
176
     1
 40
0.6
176
     1
 40
30.0
176
     1
 62
     7
420
 16777215
176
     1
 90
        2
176
     1
 90
        2
176
     1
 62
     7
176
     1
 62
   257
176
     1
 90
        2
176
     1
 90
        1
176
     1
 40
40.0
176
     1
 90
        0
176
     1
 62
   257
176
     1
 40
1.0
176
     1
 90
        1
176
     1
 90
        6
176
     1
 90
        2
176
     1
 62
     7
176
     1
 90
        3
176
     1
 90
        0
176
     1
 90
        0
176
     1
290
     0
176
     1
 90
        1
176
     1
 40
0.0
176
     1
 90
        0
176
     1
290
     0
176
     1
290
     1
176
     1
290
     1
176
     1
290
     0
176
     1
290
     0
176
     1
290
     0
176
     1
290
     0
176
     1
290
     0
176
     1
290
     0
176
     1
 90
       50
176
     1
 40
0.0
176
     1
 40
1.0
176
     1
 90
        0
176
     1
 62
    18
420
        0
176
     1
 90
       50
176
     1
 90
        3
176
     1
 62
     5
420
      255
176
     1
290
     0
176
     1
 90
       50
176
     1
 90
       50
176
     1
 90
       50
176
     1
290
     0
176
     1
 90
       50
176
     1
 62
   256
176
     0
 40
1.0
176
     0
 90
        2
176
     1
  1
strokes_ogs.tif
176
     1
290
     0
176
     1
 40
1.0
176
     1
 40
1.0
176
     1
  0
VISUALSTYLE
  5
3B
102
{ACAD_REACTORS
330
2A
102
}
330
2A
100
AcDbVisualStyle
  2
JitterOff
 70
    20
177
     3
291
     1
 70
    58
 90
        2
176
     0
 90
        2
176
     0
 90
        0
176
     0
 90
        0
176
     0
 40
0.6
176
     0
 40
30.0
176
     0
 62
     7
420
 16777215
176
     0
 90
        1
176
     0
 90
        4
176
     0
 62
     7
176
     0
 62
   257
176
     0
 90
        1
176
     0
 90
        1
176
     0
 40
1.0
176
     0
 90
       10
176
     2
 62
     7
176
     0
 40
1.0
176
     0
 90
        1
176
     0
 90
        6
176
     0
 90
        2
176
     0
 62
     7
176
     0
 90
        5
176
     0
 90
        0
176
     0
 90
        0
176
     0
290
     0
176
     0
 90
        1
176
     0
 40
0.0
176
     0
 90
        0
176
     0
290
     0
176
     0
290
     1
176
     0
290
     1
176
     0
290
     0
176
     0
290
     0
176
     0
290
     0
176
     0
290
     0
176
     0
290
     0
176
     0
290
     0
176
     0
 90
       50
176
     0
 40
0.0
176
     0
 40
1.0
176
     0
 90
        0
176
     0
 62
    18
420
        0
176
     0
 90
       50
176
     0
 90
        3
176
     0
 62
     5
420
      255
176
     0
290
     0
176
     0
 90
       50
176
     0
 90
       50
176
     0
 90
       50
176
     0
290
     0
176
     0
 90
       50
176
     0
 62
   256
176
     0
 40
1.0
176
     0
 90
        2
176
     0
  1
strokes_ogs.tif
176
     0
290
     0
176
     0
 40
1.0
176
     0
 40
1.0
176
     0
  0
VISUALSTYLE
  5
38
102
{ACAD_REACTORS
330
2A
102
}
330
2A
100
AcDbVisualStyle
  2
Linepattern
 70
    14
177
     3
291
     1
 70
    58
 90
        2
176
     1
 90
        2
176
     1
 90
        0
176
     1
 90
        0
176
     1
 40
0.6
176
     1
 40
30.0
176
     1
 62
     7
420
 16777215
176
     1
 90
        1
176
     1
 90
        4
176
     1
 62
     7
176
     1
 62
   257
176
     1
 90
        7
176
     1
 90
        7
176
     1
 40
1.0
176
     1
 90
        8
176
     1
 62
     7
176
     1
 40
1.0
176
     1
 90
        1
176
     1
 90
        6
176
     1
 90
        2
176
     1
 62
     7
176
     1
 90
        5
176
     1
 90
        0
176
     1
 90
        0
176
     1
290
     0
176
     1
 90
        1
176
     1
 40
0.0
176
     1
 90
        0
176
     1
290
     0
176
     1
290
     1
176
     1
290
     1
176
     1
290
     0
176
     1
290
     0
176
     1
290
     0
176
     1
290
     0
176
     1
290
     0
176
     1
290
     0
176
     1
 90
       50
176
     1
 40
0.0
176
     1
 40
1.0
176
     1
 90
        0
176
     1
 62
    18
420
        0
176
     1
 90
       50
176
     1
 90
        3
176
     1
 62
     5
420
      255
176
     1
290
     0
176
     1
 90
       50
176
     1
 90
       50
176
     1
 90
       50
176
     1
290
     0
176
     1
 90
       50
176
     1
 62
   256
176
     0
 40
1.0
176
     0
 90
        2
176
     1
  1
strokes_ogs.tif
176
     1
290
     0
176
     1
 40
1.0
176
     1
 40
1.0
176
     1
  0
VISUALSTYLE
  5
3C
102
{ACAD_REACTORS
330
2A
102
}
330
2A
100
AcDbVisualStyle
  2
OverhangOff
 70
    21
177
     3
291
     1
 70
    58
 90
        2
176
     0
 90
        2
176
     0
 90
        0
176
     0
 90
        0
176
     0
 40
0.6
176
     0
 40
30.0
176
     0
 62
     7
420
 16777215
176
     0
 90
        1
176
     0
 90
        4
176
     0
 62
     7
176
     0
 62
   257
176
     0
 90
        1
176
     0
 90
        1
176
     0
 40
1.0
176
     0
 90
        9
176
     2
 62
     7
176
     0
 40
1.0
176
     0
 90
        1
176
     0
 90
        6
176
     0
 90
        2
176
     0
 62
     7
176
     0
 90
        5
176
     0
 90
        0
176
     0
 90
        0
176
     0
290
     0
176
     0
 90
        1
176
     0
 40
0.0
176
     0
 90
        0
176
     0
290
     0
176
     0
290
     1
176
     0
290
     1
176
     0
290
     0
176
     0
290
     0
176
     0
290
     0
176
     0
290
     0
176
     0
290
     0
176
     0
290
     0
176
     0
 90
       50
176
     0
 40
0.0
176
     0
 40
1.0
176
     0
 90
        0
176
     0
 62
    18
420
        0
176
     0
 90
       50
176
     0
 90
        3
176
     0
 62
     5
420
      255
176
     0
290
     0
176
     0
 90
       50
176
     0
 90
       50
176
     0
 90
       50
176
     0
290
     0
176
     0
 90
       50
176
     0
 62
   256
176
     0
 40
1.0
176
     0
 90
        2
176
     0
  1
strokes_ogs.tif
176
     0
290
     0
176
     0
 40
1.0
176
     0
 40
1.0
176
     0
  0
VISUALSTYLE
  5
33
102
{ACAD_REACTORS
330
2A
102
}
330
2A
100
AcDbVisualStyle
  2
Realistic
 70
     8
177
     3
291
     0
 70
    58
 90
        2
176
     1
 90
        3
176
     1
 90
        0
176
     1
 90
        2
176
     1
 40
0.6
176
     1
 40
30.0
176
     1
 62
     7
420
 16777215
176
     1
 90
        0
176
     1
 90
        0
176
     1
 62
     7
176
     1
 62
   257
176
     1
 90
        1
176
     1
 90
        1
176
     1
 40
1.0
176
     1
 90
        8
176
     1
 62
   257
176
     1
 40
1.0
176
     1
 90
        1
176
     1
 90
        6
176
     1
 90
        2
176
     1
 62
     7
176
     1
 90
        3
176
     1
 90
        0
176
     1
 90
        0
176
     1
290
     0
176
     1
 90
       13
176
     1
 40
0.0
176
     1
 90
        0
176
     1
290
     0
176
     1
290
     1
176
     1
290
     1
176
     1
290
     0
176
     1
290
     0
176
     1
290
     0
176
     1
290
     0
176
     1
290
     0
176
     1
290
     0
176
     1
 90
       50
176
     1
 40
0.0
176
     1
 40
1.0
176
     1
 90
        0
176
     1
 62
    18
420
        0
176
     1
 90
       50
176
     1
 90
        3
176
     1
 62
     5
420
      255
176
     1
290
     0
176
     1
 90
       50
176
     1
 90
       50
176
     1
 90
       50
176
     1
290
     0
176
     1
 90
       50
176
     1
 62
   256
176
     0
 40
1.0
176
     0
 90
        2
176
     1
  1
strokes_ogs.tif
176
     1
290
     0
176
     1
 40
1.0
176
     1
 40
1.0
176
     1
  0
VISUALSTYLE
  5
42
102
{ACAD_REACTORS
330
2A
102
}
330
2A
100
AcDbVisualStyle
  2
Shaded
 70
    27
177
     3
291
     0
 70
    58
 90
        2
176
     1
 90
        2
176
     1
 90
        1
176
     1
 90
        2
176
     1
 40
0.6
176
     1
 40
30.0
176
     1
 62
     7
420
 16777215
176
     1
 90
        0
176
     1
 90
        4
176
     1
 62
     7
176
     1
 62
   257
176
     1
 90
        1
176
     1
 90
        1
176
     1
 40
1.0
176
     1
 90
        8
176
     1
 62
   257
176
     1
 40
1.0
176
     1
 90
        1
176
     1
 90
        6
176
     1
 90
        2
176
     1
 62
     8
420
  7895160
176
     1
 90
        3
176
     1
 90
        0
176
     1
 90
        0
176
     1
290
     0
176
     1
 90
        5
176
     1
 40
0.0
176
     1
 90
        0
176
     1
290
     0
176
     1
290
     1
176
     1
290
     1
176
     1
290
     0
176
     1
290
     0
176
     1
290
     0
176
     1
290
     0
176
     1
290
     0
176
     1
290
     0
176
     1
 90
       50
176
     1
 40
0.0
176
     1
 40
1.0
176
     1
 90
        0
176
     1
 62
    18
420
        0
176
     1
 90
       50
176
     1
 90
        3
176
     1
 62
     5
420
      255
176
     1
290
     0
176
     1
 90
       50
176
     1
 90
       50
176
     1
 90
       50
176
     1
290
     0
176
     1
 90
       50
176
     1
 62
   256
176
     0
 40
1.0
176
     0
 90
        2
176
     1
  1
strokes_ogs.tif
176
     1
290
     0
176
     1
 40
1.0
176
     1
 40
1.0
176
     1
  0
VISUALSTYLE
  5
41
102
{ACAD_REACTORS
330
2A
102
}
330
2A
100
AcDbVisualStyle
  2
Shaded with edges
 70
    26
177
     3
291
     0
 70
    58
 90
        2
176
     1
 90
        2
176
     1
 90
        1
176
     1
 90
        2
176
     1
 40
0.6
176
     1
 40
30.0
176
     1
 62
     7
420
 16777215
176
     1
 90
        1
176
     1
 90
       10
176
     1
 62
     7
176
     1
 62
   257
176
     1
 90
        2
176
     1
 90
        1
176
     1
 40
1.0
176
     1
 90
        8
176
     1
 62
   257
176
     1
 40
1.0
176
     1
 90
        1
176
     1
 90
        6
176
     1
 90
        2
176
     1
 62
     7
176
     1
 90
        3
176
     1
 90
        0
176
     1
 90
        0
176
     1
290
     0
176
     1
 90
        5
176
     1
 40
0.0
176
     1
 90
        0
176
     1
290
     0
176
     1
290
     1
176
     1
290
     1
176
     1
290
     0
176
     1
290
     0
176
     1
290
     0
176
     1
290
     0
176
     1
290
     0
176
     1
290
     0
176
     1
 90
       50
176
     1
 40
0.0
176
     1
 40
1.0
176
     1
 90
        0
176
     1
 62
    18
420
        0
176
     1
 90
       50
176
     1
 90
        3
176
     1
 62
     5
420
      255
176
     1
290
     0
176
     1
 90
       50
176
     1
 90
       50
176
     1
 90
       50
176
     1
290
     0
176
     1
 90
       50
176
     1
 62
   256
176
     0
 40
1.0
176
     0
 90
        2
176
     1
  1
strokes_ogs.tif
176
     1
290
     0
176
     1
 40
1.0
176
     1
 40
1.0
176
     1
  0
VISUALSTYLE
  5
3E
102
{ACAD_REACTORS
330
2A
102
}
330
2A
100
AcDbVisualStyle
  2
Shades of Gray
 70
    23
177
     3
291
     0
 70
    58
 90
        2
176
     1
 90
        2
176
     1
 90
        3
176
     1
 90
        0
176
     1
 40
0.6
176
     1
 40
30.0
176
     1
 62
     7
420
 16777215
176
     1
 90
        2
176
     1
 90
        2
176
     1
 62
     7
176
     1
 62
     7
176
     1
 90
        1
176
     1
 90
        1
176
     1
 40
40.0
176
     1
 90
        8
176
     1
 62
     7
176
     1
 40
1.0
176
     1
 90
        1
176
     1
 90
        6
176
     1
 90
        2
176
     1
 62
     7
176
     1
 90
        3
176
     1
 90
        0
176
     1
 90
        0
176
     1
290
     0
176
     1
 90
        1
176
     1
 40
0.0
176
     1
 90
        0
176
     1
290
     0
176
     1
290
     1
176
     1
290
     1
176
     1
290
     0
176
     1
290
     0
176
     1
290
     0
176
     1
290
     0
176
     1
290
     0
176
     1
290
     0
176
     1
 90
       50
176
     1
 40
0.0
176
     1
 40
1.0
176
     1
 90
        0
176
     1
 62
    18
420
        0
176
     1
 90
       50
176
     1
 90
        3
176
     1
 62
     5
420
      255
176
     1
290
     0
176
     1
 90
       50
176
     1
 90
       50
176
     1
 90
       50
176
     1
290
     0
176
     1
 90
       50
176
     1
 62
   256
176
     0
 40
1.0
176
     0
 90
        2
176
     1
  1
strokes_ogs.tif
176
     1
290
     0
176
     1
 40
1.0
176
     1
 40
1.0
176
     1
  0
VISUALSTYLE
  5
3F
102
{ACAD_REACTORS
330
2A
102
}
330
2A
100
AcDbVisualStyle
  2
Sketchy
 70
    24
177
     3
291
     0
 70
    58
 90
        1
176
     1
 90
        2
176
     1
 90
        2
176
     1
 90
        0
176
     1
 40
0.6
176
     1
 40
30.0
176
     1
 62
     7
420
 16777215
176
     1
 90
        2
176
     1
 90
        2
176
     1
 62
     7
176
     1
 62
     7
176
     1
 90
        1
176
     1
 90
        1
176
     1
 40
40.0
176
     1
 90
       11
176
     1
 62
     7
176
     1
 40
1.0
176
     1
 90
        1
176
     1
 90
        6
176
     1
 90
        2
176
     1
 62
     7
176
     1
 90
        6
176
     1
 90
        0
176
     1
 90
        0
176
     1
290
     0
176
     1
 90
        1
176
     1
 40
0.0
176
     1
 90
        0
176
     1
290
     0
176
     1
290
     1
176
     1
290
     1
176
     1
290
     0
176
     1
290
     0
176
     1
290
     0
176
     1
290
     0
176
     1
290
     0
176
     1
290
     0
176
     1
 90
       50
176
     1
 40
0.0
176
     1
 40
1.0
176
     1
 90
        0
176
     1
 62
    18
420
        0
176
     1
 90
       50
176
     1
 90
        3
176
     1
 62
     5
420
      255
176
     1
290
     0
176
     1
 90
       50
176
     1
 90
       50
176
     1
 90
       50
176
     1
290
     0
176
     1
 90
       50
176
     1
 62
   256
176
     0
 40
1.0
176
     0
 90
        2
176
     1
  1
strokes_ogs.tif
176
     1
290
     0
176
     1
 40
1.0
176
     1
 40
1.0
176
     1
  0
VISUALSTYLE
  5
37
102
{ACAD_REACTORS
330
2A
102
}
330
2A
100
AcDbVisualStyle
  2
Thicken
 70
    13
177
     3
291
     1
 70
    58
 90
        2
176
     1
 90
        2
176
     1
 90
        0
176
     1
 90
        0
176
     1
 40
0.6
176
     1
 40
30.0
176
     1
 62
     7
420
 16777215
176
     1
 90
        1
176
     1
 90
        4
176
     1
 62
     7
176
     1
 62
   257
176
     1
 90
        1
176
     1
 90
        1
176
     1
 40
1.0
176
     1
 90
       12
176
     1
 62
     7
176
     1
 40
1.0
176
     1
 90
        1
176
     1
 90
        6
176
     1
 90
        2
176
     1
 62
     7
176
     1
 90
        5
176
     1
 90
        0
176
     1
 90
        0
176
     1
290
     0
176
     1
 90
        1
176
     1
 40
0.0
176
     1
 90
        0
176
     1
290
     0
176
     1
290
     1
176
     1
290
     1
176
     1
290
     0
176
     1
290
     0
176
     1
290
     0
176
     1
290
     0
176
     1
290
     0
176
     1
290
     0
176
     1
 90
       50
176
     1
 40
0.0
176
     1
 40
1.0
176
     1
 90
        0
176
     1
 62
    18
420
        0
176
     1
 90
       50
176
     1
 90
        3
176
     1
 62
     5
420
      255
176
     1
290
     0
176
     1
 90
       50
176
     1
 90
       50
176
     1
 90
       50
176
     1
290
     0
176
     1
 90
       50
176
     1
 62
   256
176
     0
 40
1.0
176
     0
 90
        2
176
     1
  1
strokes_ogs.tif
176
     1
290
     0
176
     1
 40
1.0
176
     1
 40
1.0
176
     1
  0
VISUALSTYLE
  5
30
102
{ACAD_REACTORS
330
2A
102
}
330
2A
100
AcDbVisualStyle
  2
Wireframe
 70
     5
177
     3
291
     0
 70
    58
 90
        0
176
     1
 90
        2
176
     1
 90
        0
176
     1
 90
        0
176
     1
 40
0.6
176
     1
 40
30.0
176
     1
 62
     7
420
 16777215
176
     1
 90
        1
176
     1
 90
        4
176
     1
 62
     7
176
     1
 62
   257
176
     1
 90
        1
176
     1
 90
        1
176
     1
 40
1.0
176
     1
 90
        0
176
     1
 62
   257
176
     1
 40
1.0
176
     1
 90
        1
176
     1
 90
        6
176
     1
 90
        2
176
     1
 62
     7
176
     1
 90
        3
176
     1
 90
        0
176
     1
 90
        0
176
     1
290
     0
176
     1
 90
        1
176
     1
 40
0.0
176
     1
 90
        0
176
     1
290
     0
176
     1
290
     1
176
     1
290
     1
176
     1
290
     0
176
     1
290
     0
176
     1
290
     0
176
     1
290
     0
176
     1
290
     0
176
     1
290
     0
176
     1
 90
       50
176
     1
 40
0.0
176
     1
 40
1.0
176
     1
 90
        0
176
     1
 62
    18
420
        0
176
     1
 90
       50
176
     1
 90
        3
176
     1
 62
     5
420
      255
176
     1
290
     0
176
     1
 90
       50
176
     1
 90
       50
176
     1
 90
       50
176
     1
290
     0
176
     1
 90
       50
176
     1
 62
   256
176
     0
 40
1.0
176
     0
 90
        2
176
     1
  1
strokes_ogs.tif
176
     1
290
     0
176
     1
 40
1.0
176
     1
 40
1.0
176
     1
  0
VISUALSTYLE
  5
40
102
{ACAD_REACTORS
330
2A
102
}
330
2A
100
AcDbVisualStyle
  2
X-Ray
 70
    25
177
     3
291
     0
 70
    58
 90
        2
176
     1
 90
        2
176
     1
 90
        1
176
     1
 90
        1
176
     1
 40
0.5
176
     1
 40
30.0
176
     1
 62
     7
420
 16777215
176
     1
 90
        1
176
     1
 90
        0
176
     1
 62
     7
176
     1
 62
   257
176
     1
 90
        1
176
     1
 90
        1
176
     1
 40
1.0
176
     1
 90
        8
176
     1
 62
     7
176
     1
 40
1.0
176
     1
 90
        1
176
     1
 90
        6
176
     1
 90
        2
176
     1
 62
     7
176
     1
 90
        3
176
     1
 90
        0
176
     1
 90
        0
176
     1
290
     0
176
     1
 90
       13
176
     1
 40
0.0
176
     1
 90
        0
176
     1
290
     0
176
     1
290
     1
176
     1
290
     1
176
     1
290
     0
176
     1
290
     0
176
     1
290
     0
176
     1
290
     0
176
     1
290
     0
176
     1
290
     0
176
     1
 90
       50
176
     1
 40
0.0
176
     1
 40
1.0
176
     1
 90
        0
176
     1
 62
    18
420
        0
176
     1
 90
       50
176
     1
 90
        3
176
     1
 62
     5
420
      255
176
     1
290
     0
176
     1
 90
       50
176
     1
 90
       50
176
     1
 90
       50
176
     1
290
     0
176
     1
 90
       50
176
     1
 62
   256
176
     0
 40
1.0
176
     0
 90
        2
176
     1
  1
strokes_ogs.tif
176
     1
290
     0
176
     1
 40
1.0
176
     1
 40
1.0
176
     1
  0
DICTIONARYVAR
  5
166
102
{ACAD_REACTORS
330
165
102
}
330
165
100
DictionaryVariables
280
     0
  1
1:1
  0
DICTIONARYVAR
  5
16B
102
{ACAD_REACTORS
330
165
102
}
330
165
100
DictionaryVariables
280
     0
  1
Standard
  0
DICTIONARYVAR
  5
16A
102
{ACAD_REACTORS
330
165
102
}
330
165
100
DictionaryVariables
280
     0
  1
Standard
  0
DICTIONARYVAR
  5
16E
102
{ACAD_REACTORS
330
165
102
}
330
165
100
DictionaryVariables
280
     0
  1
6.000000
  0
DICTIONARY
  5
167
330
6A
100
AcDbDictionary
280
     1
281
     1
  3
ACAD_ROUNDTRIP_2008_TABLESTYLE_CELLSTYLEMAP
360
168
  0
CELLSTYLEMAP
  5
168
102
{ACAD_REACTORS
330
167
102
}
330
167
100
AcDbCellStyleMap
 90
        3
300
CELLSTYLE
  1
TABLEFORMAT_BEGIN
 90
        5
170
     1
 91
        0
 92
    32768
 62
   257
 93
        1
300
CONTENTFORMAT
  1
CONTENTFORMAT_BEGIN
 90
        0
 91
        0
 92
        4
 93
        0
300

 40
0.0
140
1.0
 94
        5
 62
     0
340
11
144
6.0
309
CONTENTFORMAT_END
171
     1
301
MARGIN
  1
CELLMARGIN_BEGIN
 40
1.5
 40
1.5
 40
1.5
 40
1.5
 40
1.5
 40
1.5
309
CELLMARGIN_END
 94
        6
 95
        1
302
GRIDFORMAT
  1
GRIDFORMAT_BEGIN
 90
        0
 91
        1
 62
     0
 92
       -2
340
14
 93
        0
 40
0.045
309
GRIDFORMAT_END
 95
        2
302
GRIDFORMAT
  1
GRIDFORMAT_BEGIN
 90
        0
 91
        1
 62
     0
 92
       -2
340
14
 93
        0
 40
0.045
309
GRIDFORMAT_END
 95
        4
302
GRIDFORMAT
  1
GRIDFORMAT_BEGIN
 90
        0
 91
        1
 62
     0
 92
       -2
340
14
 93
        0
 40
0.045
309
GRIDFORMAT_END
 95
        8
302
GRIDFORMAT
  1
GRIDFORMAT_BEGIN
 90
        0
 91
        1
 62
     0
 92
       -2
340
14
 93
        0
 40
0.045
309
GRIDFORMAT_END
 95
       16
302
GRIDFORMAT
  1
GRIDFORMAT_BEGIN
 90
        0
 91
        1
 62
     0
 92
       -2
340
14
 93
        0
 40
0.045
309
GRIDFORMAT_END
 95
       32
302
GRIDFORMAT
  1
GRIDFORMAT_BEGIN
 90
        0
 91
        1
 62
     0
 92
       -2
340
14
 93
        0
 40
0.045
309
GRIDFORMAT_END
309
TABLEFORMAT_END
  1
CELLSTYLE_BEGIN
 90
        1
 91
        1
300
_TITLE
309
CELLSTYLE_END
300
CELLSTYLE
  1
TABLEFORMAT_BEGIN
 90
        5
170
     1
 91
        0
 92
        0
 62
   257
 93
        1
300
CONTENTFORMAT
  1
CONTENTFORMAT_BEGIN
 90
        0
 91
        0
 92
        4
 93
        0
300

 40
0.0
140
1.0
 94
        5
 62
     0
340
11
144
4.5
309
CONTENTFORMAT_END
171
     1
301
MARGIN
  1
CELLMARGIN_BEGIN
 40
1.5
 40
1.5
 40
1.5
 40
1.5
 40
1.5
 40
1.5
309
CELLMARGIN_END
 94
        6
 95
        1
302
GRIDFORMAT
  1
GRIDFORMAT_BEGIN
 90
        0
 91
        1
 62
     0
 92
       -2
340
14
 93
        0
 40
0.045
309
GRIDFORMAT_END
 95
        2
302
GRIDFORMAT
  1
GRIDFORMAT_BEGIN
 90
        0
 91
        1
 62
     0
 92
       -2
340
14
 93
        0
 40
0.045
309
GRIDFORMAT_END
 95
        4
302
GRIDFORMAT
  1
GRIDFORMAT_BEGIN
 90
        0
 91
        1
 62
     0
 92
       -2
340
14
 93
        0
 40
0.045
309
GRIDFORMAT_END
 95
        8
302
GRIDFORMAT
  1
GRIDFORMAT_BEGIN
 90
        0
 91
        1
 62
     0
 92
       -2
340
14
 93
        0
 40
0.045
309
GRIDFORMAT_END
 95
       16
302
GRIDFORMAT
  1
GRIDFORMAT_BEGIN
 90
        0
 91
        1
 62
     0
 92
       -2
340
14
 93
        0
 40
0.045
309
GRIDFORMAT_END
 95
       32
302
GRIDFORMAT
  1
GRIDFORMAT_BEGIN
 90
        0
 91
        1
 62
     0
 92
       -2
340
14
 93
        0
 40
0.045
309
GRIDFORMAT_END
309
TABLEFORMAT_END
  1
CELLSTYLE_BEGIN
 90
        2
 91
        1
300
_HEADER
309
CELLSTYLE_END
300
CELLSTYLE
  1
TABLEFORMAT_BEGIN
 90
        5
170
     1
 91
        0
 92
        0
 62
   257
 93
        1
300
CONTENTFORMAT
  1
CONTENTFORMAT_BEGIN
 90
        0
 91
        0
 92
        4
 93
        0
300

 40
0.0
140
1.0
 94
        2
 62
     0
340
11
144
4.5
309
CONTENTFORMAT_END
171
     1
301
MARGIN
  1
CELLMARGIN_BEGIN
 40
1.5
 40
1.5
 40
1.5
 40
1.5
 40
1.5
 40
1.5
309
CELLMARGIN_END
 94
        6
 95
        1
302
GRIDFORMAT
  1
GRIDFORMAT_BEGIN
 90
        0
 91
        1
 62
     0
 92
       -2
340
14
 93
        0
 40
0.045
309
GRIDFORMAT_END
 95
        2
302
GRIDFORMAT
  1
GRIDFORMAT_BEGIN
 90
        0
 91
        1
 62
     0
 92
       -2
340
14
 93
        0
 40
0.045
309
GRIDFORMAT_END
 95
        4
302
GRIDFORMAT
  1
GRIDFORMAT_BEGIN
 90
        0
 91
        1
 62
     0
 92
       -2
340
14
 93
        0
 40
0.045
309
GRIDFORMAT_END
 95
        8
302
GRIDFORMAT
  1
GRIDFORMAT_BEGIN
 90
        0
 91
        1
 62
     0
 92
       -2
340
14
 93
        0
 40
0.045
309
GRIDFORMAT_END
 95
       16
302
GRIDFORMAT
  1
GRIDFORMAT_BEGIN
 90
        0
 91
        1
 62
     0
 92
       -2
340
14
 93
        0
 40
0.045
309
GRIDFORMAT_END
 95
       32
302
GRIDFORMAT
  1
GRIDFORMAT_BEGIN
 90
        0
 91
        1
 62
     0
 92
       -2
340
14
 93
        0
 40
0.045
309
GRIDFORMAT_END
309
TABLEFORMAT_END
  1
CELLSTYLE_BEGIN
 90
        3
 91
        2
300
_DATA
309
CELLSTYLE_END
  0
ENDSEC
  0
EOF
