  0
SECTION
  2
HEADER
  9
$ACADVER
  1
AC1027
  9
$ACADMAINTVER
 70
   105
  9
$DWGCODEPAGE
  3
ANSI_1252
  9
$REQUIREDVERSIONS
160
                 0
  9
$COMMENTS
  1
File was created by Cadenas
  9
$CUSTOMPROPERTYTAG
  1
NN
  9
$CUSTOMPROPERTY
  1
Geberit Mepla angle-seat stop valve
  9
$CUSTOMPROPERTYTAG
  1
NT
  9
$CUSTOMPROPERTY
  1

  9
$CUSTOMPROPERTYTAG
  1
NB
  9
$CUSTOMPROPERTY
  1
605032
  9
$CUSTOMPROPERTYTAG
  1
NBSYN
  9
$CUSTOMPROPERTY
  1
$ARTNRTX.
  9
$CUSTOMPROPERTYTAG
  1
LINA
  9
$CUSTOMPROPERTY
  1
605032
  9
$CUSTOMPROPERTYTAG
  1
CATALOG
  9
$CUSTOMPROPERTY
  1
GEBERIT
  9
$CUSTOMPROPERTYTAG
  1
ARTNRT
  9
$CUSTOMPROPERTY
  1
605.032.00.1
  9
$CUSTOMPROPERTYTAG
  1
DD
  9
$CUSTOMPROPERTY
  1
70
  9
$CUSTOMPROPERTYTAG
  1
D
  9
$CUSTOMPROPERTY
  1
40
  9
$CUSTOMPROPERTYTAG
  1
DN
  9
$CUSTOMPROPERTY
  1
32
  9
$CUSTOMPROPERTYTAG
  1
DNV
  9
$CUSTOMPROPERTY
  1
32
  9
$CUSTOMPROPERTYTAG
  1
L
  9
$CUSTOMPROPERTY
  1
186
  9
$CUSTOMPROPERTYTAG
  1
L1
  9
$CUSTOMPROPERTY
  1
68
  9
$CUSTOMPROPERTYTAG
  1
L2
  9
$CUSTOMPROPERTY
  1
150
  9
$CUSTOMPROPERTYTAG
  1
Z
  9
$CUSTOMPROPERTY
  1
32
  9
$CUSTOMPROPERTYTAG
  1
Z1
  9
$CUSTOMPROPERTY
  1
84
  9
$CUSTOMPROPERTYTAG
  1
ARTNRTX
  9
$CUSTOMPROPERTY
  1
605032
  9
$CUSTOMPROPERTYTAG
  1
COMPANY
  9
$CUSTOMPROPERTY
  1
geberit
  9
$INSBASE
 10
0.0
 20
0.0
 30
0.0
  9
$EXTMIN
 10
1.000000000000000E+20
 20
1.000000000000000E+20
 30
1.000000000000000E+20
  9
$EXTMAX
 10
-1.000000000000000E+20
 20
-1.000000000000000E+20
 30
-1.000000000000000E+20
  9
$LIMMIN
 10
0.0
 20
0.0
  9
$LIMMAX
 10
420.0
 20
297.0
  9
$ORTHOMODE
 70
     0
  9
$REGENMODE
 70
     1
  9
$FILLMODE
 70
     1
  9
$QTEXTMODE
 70
     0
  9
$MIRRTEXT
 70
     1
  9
$LTSCALE
 40
1.0
  9
$ATTMODE
 70
     1
  9
$TEXTSIZE
 40
2.5
  9
$TRACEWID
 40
1.0
  9
$TEXTSTYLE
  7
Standard
  9
$CLAYER
  8
0
  9
$CELTYPE
  6
ByLayer
  9
$CECOLOR
 62
   256
  9
$CELTSCALE
 40
1.0
  9
$DISPSILH
 70
     0
  9
$DIMSCALE
 40
1.0
  9
$DIMASZ
 40
2.5
  9
$DIMEXO
 40
0.625
  9
$DIMDLI
 40
3.75
  9
$DIMRND
 40
0.0
  9
$DIMDLE
 40
0.0
  9
$DIMEXE
 40
1.25
  9
$DIMTP
 40
0.0
  9
$DIMTM
 40
0.0
  9
$DIMTXT
 40
2.5
  9
$DIMCEN
 40
2.5
  9
$DIMTSZ
 40
0.0
  9
$DIMTOL
 70
     0
  9
$DIMLIM
 70
     0
  9
$DIMTIH
 70
     0
  9
$DIMTOH
 70
     0
  9
$DIMSE1
 70
     0
  9
$DIMSE2
 70
     0
  9
$DIMTAD
 70
     1
  9
$DIMZIN
 70
     8
  9
$DIMBLK
  1

  9
$DIMASO
 70
     1
  9
$DIMSHO
 70
     1
  9
$DIMPOST
  1

  9
$DIMAPOST
  1

  9
$DIMALT
 70
     0
  9
$DIMALTD
 70
     3
  9
$DIMALTF
 40
0.03937007874016
  9
$DIMLFAC
 40
1.0
  9
$DIMTOFL
 70
     1
  9
$DIMTVP
 40
0.0
  9
$DIMTIX
 70
     0
  9
$DIMSOXD
 70
     0
  9
$DIMSAH
 70
     0
  9
$DIMBLK1
  1

  9
$DIMBLK2
  1

  9
$DIMSTYLE
  2
ISO-25
  9
$DIMCLRD
 70
     0
  9
$DIMCLRE
 70
     0
  9
$DIMCLRT
 70
     0
  9
$DIMTFAC
 40
1.0
  9
$DIMGAP
 40
0.625
  9
$DIMJUST
 70
     0
  9
$DIMSD1
 70
     0
  9
$DIMSD2
 70
     0
  9
$DIMTOLJ
 70
     0
  9
$DIMTZIN
 70
     8
  9
$DIMALTZ
 70
     0
  9
$DIMALTTZ
 70
     0
  9
$DIMUPT
 70
     0
  9
$DIMDEC
 70
     2
  9
$DIMTDEC
 70
     2
  9
$DIMALTU
 70
     2
  9
$DIMALTTD
 70
     3
  9
$DIMTXSTY
  7
Standard
  9
$DIMAUNIT
 70
     0
  9
$DIMADEC
 70
     0
  9
$DIMALTRND
 40
0.0
  9
$DIMAZIN
 70
     0
  9
$DIMDSEP
 70
    44
  9
$DIMATFIT
 70
     3
  9
$DIMFRAC
 70
     0
  9
$DIMLDRBLK
  1

  9
$DIMLUNIT
 70
     2
  9
$DIMLWD
 70
    -2
  9
$DIMLWE
 70
    -2
  9
$DIMTMOVE
 70
     0
  9
$DIMFXL
 40
1.0
  9
$DIMFXLON
 70
     0
  9
$DIMJOGANG
 40
0.7853981633974483
  9
$DIMTFILL
 70
     0
  9
$DIMTFILLCLR
 70
     0
  9
$DIMARCSYM
 70
     0
  9
$DIMLTYPE
  6

  9
$DIMLTEX1
  6

  9
$DIMLTEX2
  6

  9
$DIMTXTDIRECTION
 70
     0
  9
$LUNITS
 70
     2
  9
$LUPREC
 70
     4
  9
$SKETCHINC
 40
1.0
  9
$FILLETRAD
 40
10.0
  9
$AUNITS
 70
     0
  9
$AUPREC
 70
     0
  9
$MENU
  1
.
  9
$ELEVATION
 40
0.0
  9
$PELEVATION
 40
0.0
  9
$THICKNESS
 40
0.0
  9
$LIMCHECK
 70
     0
  9
$CHAMFERA
 40
0.0
  9
$CHAMFERB
 40
0.0
  9
$CHAMFERC
 40
0.0
  9
$CHAMFERD
 40
0.0
  9
$SKPOLY
 70
     0
  9
$TDCREATE
 40
2458934.710006863
  9
$TDUCREATE
 40
2458934.668340197
  9
$TDUPDATE
 40
2458934.710007025
  9
$TDUUPDATE
 40
2458934.668340359
  9
$TDINDWG
 40
0.0000000116
  9
$TDUSRTIMER
 40
0.0000000116
  9
$USRTIMER
 70
     1
  9
$ANGBASE
 50
0.0
  9
$ANGDIR
 70
     0
  9
$PDMODE
 70
     0
  9
$PDSIZE
 40
0.0
  9
$PLINEWID
 40
0.0
  9
$SPLFRAME
 70
     0
  9
$SPLINETYPE
 70
     6
  9
$SPLINESEGS
 70
     8
  9
$HANDSEED
  5
226
  9
$SURFTAB1
 70
     6
  9
$SURFTAB2
 70
     6
  9
$SURFTYPE
 70
     6
  9
$SURFU
 70
     6
  9
$SURFV
 70
     6
  9
$UCSBASE
  2

  9
$UCSNAME
  2

  9
$UCSORG
 10
0.0
 20
0.0
 30
0.0
  9
$UCSXDIR
 10
1.0
 20
0.0
 30
0.0
  9
$UCSYDIR
 10
0.0
 20
1.0
 30
0.0
  9
$UCSORTHOREF
  2

  9
$UCSORTHOVIEW
 70
     0
  9
$UCSORGTOP
 10
0.0
 20
0.0
 30
0.0
  9
$UCSORGBOTTOM
 10
0.0
 20
0.0
 30
0.0
  9
$UCSORGLEFT
 10
0.0
 20
0.0
 30
0.0
  9
$UCSORGRIGHT
 10
0.0
 20
0.0
 30
0.0
  9
$UCSORGFRONT
 10
0.0
 20
0.0
 30
0.0
  9
$UCSORGBACK
 10
0.0
 20
0.0
 30
0.0
  9
$PUCSBASE
  2

  9
$PUCSNAME
  2

  9
$PUCSORG
 10
0.0
 20
0.0
 30
0.0
  9
$PUCSXDIR
 10
1.0
 20
0.0
 30
0.0
  9
$PUCSYDIR
 10
0.0
 20
1.0
 30
0.0
  9
$PUCSORTHOREF
  2

  9
$PUCSORTHOVIEW
 70
     0
  9
$PUCSORGTOP
 10
0.0
 20
0.0
 30
0.0
  9
$PUCSORGBOTTOM
 10
0.0
 20
0.0
 30
0.0
  9
$PUCSORGLEFT
 10
0.0
 20
0.0
 30
0.0
  9
$PUCSORGRIGHT
 10
0.0
 20
0.0
 30
0.0
  9
$PUCSORGFRONT
 10
0.0
 20
0.0
 30
0.0
  9
$PUCSORGBACK
 10
0.0
 20
0.0
 30
0.0
  9
$USERI1
 70
     0
  9
$USERI2
 70
     0
  9
$USERI3
 70
     0
  9
$USERI4
 70
     0
  9
$USERI5
 70
     0
  9
$USERR1
 40
0.0
  9
$USERR2
 40
0.0
  9
$USERR3
 40
0.0
  9
$USERR4
 40
0.0
  9
$USERR5
 40
0.0
  9
$WORLDVIEW
 70
     1
  9
$SHADEDGE
 70
     3
  9
$SHADEDIF
 70
    70
  9
$TILEMODE
 70
     1
  9
$MAXACTVP
 70
    64
  9
$PINSBASE
 10
0.0
 20
0.0
 30
0.0
  9
$PLIMCHECK
 70
     0
  9
$PEXTMIN
 10
1.000000000000000E+20
 20
1.000000000000000E+20
 30
1.000000000000000E+20
  9
$PEXTMAX
 10
-1.000000000000000E+20
 20
-1.000000000000000E+20
 30
-1.000000000000000E+20
  9
$PLIMMIN
 10
0.0
 20
0.0
  9
$PLIMMAX
 10
420.0
 20
297.0
  9
$UNITMODE
 70
     0
  9
$VISRETAIN
 70
     1
  9
$PLINEGEN
 70
     0
  9
$PSLTSCALE
 70
     1
  9
$TREEDEPTH
 70
  3020
  9
$CMLSTYLE
  2
Standard
  9
$CMLJUST
 70
     0
  9
$CMLSCALE
 40
20.0
  9
$PROXYGRAPHICS
 70
     1
  9
$MEASUREMENT
 70
     1
  9
$CELWEIGHT
370
    -1
  9
$ENDCAPS
280
     0
  9
$JOINSTYLE
280
     0
  9
$LWDISPLAY
290
     0
  9
$INSUNITS
 70
     4
  9
$HYPERLINKBASE
  1

  9
$STYLESHEET
  1

  9
$XEDIT
290
     1
  9
$CEPSNTYPE
380
     0
  9
$PSTYLEMODE
290
     1
  9
$FINGERPRINTGUID
  2
{F035048A-23F5-4848-ACFA-2FE1E67A5DB3}
  9
$VERSIONGUID
  2
{FAEB1C32-E019-11D5-929B-00C0DF256EC4}
  9
$EXTNAMES
290
     1
  9
$PSVPSCALE
 40
0.0
  9
$OLESTARTUP
290
     0
  9
$SORTENTS
280
   127
  9
$INDEXCTL
280
     0
  9
$HIDETEXT
280
     1
  9
$XCLIPFRAME
280
     2
  9
$HALOGAP
280
     0
  9
$OBSCOLOR
 70
   257
  9
$OBSLTYPE
280
     0
  9
$INTERSECTIONDISPLAY
280
     0
  9
$INTERSECTIONCOLOR
 70
   257
  9
$DIMASSOC
280
     2
  9
$PROJECTNAME
  1

  9
$CAMERADISPLAY
290
     0
  9
$LENSLENGTH
 40
50.0
  9
$CAMERAHEIGHT
 40
0.0
  9
$STEPSPERSEC
 40
2.0
  9
$STEPSIZE
 40
6.0
  9
$3DDWFPREC
 40
2.0
  9
$PSOLWIDTH
 40
5.0
  9
$PSOLHEIGHT
 40
80.0
  9
$LOFTANG1
 40
1.570796326794897
  9
$LOFTANG2
 40
1.570796326794897
  9
$LOFTMAG1
 40
0.0
  9
$LOFTMAG2
 40
0.0
  9
$LOFTPARAM
 70
     7
  9
$LOFTNORMALS
280
     1
  9
$LATITUDE
 40
37.795
  9
$LONGITUDE
 40
-122.394
  9
$NORTHDIRECTION
 40
0.0
  9
$TIMEZONE
 70
 -8000
  9
$LIGHTGLYPHDISPLAY
280
     1
  9
$TILEMODELIGHTSYNCH
280
     1
  9
$CMATERIAL
347
44
  9
$SOLIDHIST
280
     0
  9
$SHOWHIST
280
     1
  9
$DWFFRAME
280
     2
  9
$DGNFRAME
280
     2
  9
$REALWORLDSCALE
290
     1
  9
$INTERFERECOLOR
 62
   256
  9
$CSHADOW
280
     0
  9
$SHADOWPLANELOCATION
 40
0.0
  0
ENDSEC
  0
SECTION
  2
CLASSES
  0
CLASS
  1
ACDBDICTIONARYWDFLT
  2
AcDbDictionaryWithDefault
  3
ObjectDBX Classes
 90
        0
 91
        4
280
     0
281
     0
  0
CLASS
  1
VISUALSTYLE
  2
AcDbVisualStyle
  3
ObjectDBX Classes
 90
     4095
 91
        4
280
     0
281
     0
  0
CLASS
  1
MATERIAL
  2
AcDbMaterial
  3
ObjectDBX Classes
 90
     1153
 91
        4
280
     0
281
     0
  0
CLASS
  1
SCALE
  2
AcDbScale
  3
ObjectDBX Classes
 90
     1153
 91
        4
280
     0
281
     0
  0
CLASS
  1
TABLESTYLE
  2
AcDbTableStyle
  3
ObjectDBX Classes
 90
     4095
 91
        4
280
     0
281
     0
  0
CLASS
  1
MLEADERSTYLE
  2
AcDbMLeaderStyle
  3
ACDB_MLEADERSTYLE_CLASS
 90
     4095
 91
        4
280
     0
281
     0
  0
CLASS
  1
SUN
  2
AcDbSun
  3
SCENEOE
 90
     1153
 91
        4
280
     0
281
     0
  0
CLASS
  1
DICTIONARYVAR
  2
AcDbDictionaryVar
  3
ObjectDBX Classes
 90
        0
 91
        4
280
     0
281
     0
  0
CLASS
  1
CELLSTYLEMAP
  2
AcDbCellStyleMap
  3
ObjectDBX Classes
 90
     1152
 91
        4
280
     0
281
     0
  0
ENDSEC
  0
SECTION
  2
TABLES
  0
TABLE
  2
VPORT
  5
8
330
0
100
AcDbSymbolTable
 70
     1
  0
VPORT
  5
29
330
8
100
AcDbSymbolTableRecord
100
AcDbViewportTableRecord
  2
*Active
 70
     0
 10
0.0
 20
0.0
 11
1.0
 21
1.0
 12
-7.035551852807657
 22
0.3840752518063653
 13
0.0
 23
0.0
 14
10.0
 24
10.0
 15
10.0
 25
10.0
 16
0.0
 26
0.0
 36
1.0
 17
0.0
 27
0.0
 37
0.0
 40
71.84735333649203
 41
3.345767305497025
 42
50.0
 43
0.0
 44
0.0
 50
0.0
 51
0.0
 71
     0
 72
   100
 73
     1
 74
     3
 75
     0
 76
     0
 77
     0
 78
     0
281
     0
 65
     1
110
0.0
120
0.0
130
0.0
111
1.0
121
0.0
131
0.0
112
0.0
122
1.0
132
0.0
 79
     0
146
0.0
348
2F
 60
     3
 61
     5
292
     1
282
     1
141
0.0
142
0.0
 63
   250
361
6D
  0
ENDTAB
  0
TABLE
  2
LTYPE
  5
5
330
0
100
AcDbSymbolTable
 70
     3
  0
LTYPE
  5
14
330
5
100
AcDbSymbolTableRecord
100
AcDbLinetypeTableRecord
  2
ByBlock
 70
     0
  3

 72
    65
 73
     0
 40
0.0
  0
LTYPE
  5
15
330
5
100
AcDbSymbolTableRecord
100
AcDbLinetypeTableRecord
  2
ByLayer
 70
     0
  3

 72
    65
 73
     0
 40
0.0
  0
LTYPE
  5
16
330
5
100
AcDbSymbolTableRecord
100
AcDbLinetypeTableRecord
  2
Continuous
 70
     0
  3
Solid line
 72
    65
 73
     0
 40
0.0
  0
LTYPE
  5
81
330
5
100
AcDbSymbolTableRecord
100
AcDbLinetypeTableRecord
  2
Dashed
 70
     0
  3

 72
    65
 73
     2
 40
2.0
 49
1.0
 74
     0
 49
-1.0
 74
     0
  0
LTYPE
  5
213
330
5
100
AcDbSymbolTableRecord
100
AcDbLinetypeTableRecord
  2
Center
 70
     0
  3

 72
    65
 73
     4
 40
1.5
 49
0.45
 74
     0
 49
-0.5
 74
     0
 49
0.05
 74
     0
 49
-0.5
 74
     0
  0
ENDTAB
  0
TABLE
  2
LAYER
  5
2
330
0
100
AcDbSymbolTable
 70
     5
  0
LAYER
  5
10
330
2
100
AcDbSymbolTableRecord
100
AcDbLayerTableRecord
  2
0
 70
     0
 62
     7
  6
Continuous
370
    -3
390
F
347
46
348
0
  0
LAYER
  5
6E
330
2
100
AcDbSymbolTableRecord
100
AcDbLayerTableRecord
  2
AM_6
 70
     0
 62
    -2
  6
Continuous
370
    35
390
F
347
46
348
0
  0
LAYER
  5
82
330
2
100
AcDbSymbolTableRecord
100
AcDbLayerTableRecord
  2
VER
 70
     0
 62
    -6
  6
Dashed
370
    25
390
F
347
46
348
0
  0
LAYER
  5
8B
330
2
100
AcDbSymbolTableRecord
100
AcDbLayerTableRecord
  2
050
 70
     0
 62
     7
  6
Continuous
370
    50
390
F
347
46
348
0
  0
LAYER
  5
214
330
2
100
AcDbSymbolTableRecord
100
AcDbLayerTableRecord
  2
MITTE
 70
     0
 62
     7
  6
Center
370
    25
390
F
347
46
348
0
  0
ENDTAB
  0
TABLE
  2
STYLE
  5
3
330
0
100
AcDbSymbolTable
 70
     1
  0
STYLE
  5
11
330
3
100
AcDbSymbolTableRecord
100
AcDbTextStyleTableRecord
  2
Standard
 70
     0
 40
0.0
 41
1.0
 50
0.0
 71
     0
 42
2.5
  3
txt
  4

  0
ENDTAB
  0
TABLE
  2
VIEW
  5
6
330
0
100
AcDbSymbolTable
 70
     0
  0
ENDTAB
  0
TABLE
  2
UCS
  5
7
330
0
100
AcDbSymbolTable
 70
     0
  0
ENDTAB
  0
TABLE
  2
APPID
  5
9
330
0
100
AcDbSymbolTable
 70
     1
  0
APPID
  5
12
330
9
100
AcDbSymbolTableRecord
100
AcDbRegAppTableRecord
  2
ACAD
 70
     0
  0
ENDTAB
  0
TABLE
  2
DIMSTYLE
  5
A
330
0
100
AcDbSymbolTable
 70
     1
100
AcDbDimStyleTable
  0
DIMSTYLE
105
27
330
A
100
AcDbSymbolTableRecord
100
AcDbDimStyleTableRecord
  2
ISO-25
 70
     0
 41
2.5
 42
0.625
 43
3.75
 44
1.25
 73
     0
 74
     0
 77
     1
 78
     8
140
2.5
141
2.5
143
0.03937007874016
147
0.625
171
     3
172
     1
178
     0
271
     2
272
     2
274
     3
278
    44
283
     0
284
     8
340
11
  0
ENDTAB
  0
TABLE
  2
BLOCK_RECORD
  5
1
330
0
100
AcDbSymbolTable
 70
     1
  0
BLOCK_RECORD
  5
1F
330
1
100
AcDbSymbolTableRecord
100
AcDbBlockTableRecord
  2
*Model_Space
340
22
 70
     0
280
     1
281
     0
  0
BLOCK_RECORD
  5
1B
330
1
100
AcDbSymbolTableRecord
100
AcDbBlockTableRecord
  2
*Paper_Space
340
1E
 70
     0
280
     1
281
     0
  0
BLOCK_RECORD
  5
23
330
1
100
AcDbSymbolTableRecord
100
AcDbBlockTableRecord
  2
*Paper_Space0
340
26
 70
     0
280
     1
281
     0
  0
ENDTAB
  0
ENDSEC
  0
SECTION
  2
BLOCKS
  0
BLOCK
  5
20
330
1F
100
AcDbEntity
  8
0
100
AcDbBlockBegin
  2
*Model_Space
 70
     0
 10
0.0
 20
0.0
 30
0.0
  3
*Model_Space
  1

  0
ENDBLK
  5
21
330
1F
100
AcDbEntity
  8
0
100
AcDbBlockEnd
  0
BLOCK
  5
1C
330
1B
100
AcDbEntity
 67
     1
  8
0
100
AcDbBlockBegin
  2
*Paper_Space
 70
     0
 10
0.0
 20
0.0
 30
0.0
  3
*Paper_Space
  1

  0
ENDBLK
  5
1D
330
1B
100
AcDbEntity
 67
     1
  8
0
100
AcDbBlockEnd
  0
BLOCK
  5
24
330
23
100
AcDbEntity
  8
0
100
AcDbBlockBegin
  2
*Paper_Space0
 70
     0
 10
0.0
 20
0.0
 30
0.0
  3
*Paper_Space0
  1

  0
ENDBLK
  5
25
330
23
100
AcDbEntity
  8
0
100
AcDbBlockEnd
  0
ENDSEC
  0
SECTION
  2
ENTITIES
  0
ATTDEF
  5
6F
330
1F
100
AcDbEntity
  8
AM_6
100
AcDbText
 10
107.3
 20
35.00000000000002
 30
0.0
 40
0.5
  1
Geberit Mepla angle-seat stop valve
100
AcDbAttributeDefinition
  3

  2
NN
 70
     8
280
     0
  0
ATTDEF
  5
70
330
1F
100
AcDbEntity
  8
AM_6
100
AcDbText
 10
107.3
 20
34.50000000000002
 30
0.0
 40
0.5
  1

100
AcDbAttributeDefinition
  3

  2
NT
 70
     8
280
     0
  0
ATTDEF
  5
71
330
1F
100
AcDbEntity
  8
AM_6
100
AcDbText
 10
107.3
 20
34.00000000000002
 30
0.0
 40
0.5
  1
605032
100
AcDbAttributeDefinition
  3

  2
NB
 70
     8
280
     0
  0
ATTDEF
  5
72
330
1F
100
AcDbEntity
  8
AM_6
100
AcDbText
 10
107.3
 20
33.50000000000002
 30
0.0
 40
0.5
  1
$ARTNRTX.
100
AcDbAttributeDefinition
  3

  2
NBSYN
 70
     8
280
     0
  0
ATTDEF
  5
73
330
1F
100
AcDbEntity
  8
AM_6
100
AcDbText
 10
107.3
 20
33.00000000000002
 30
0.0
 40
0.5
  1
605032
100
AcDbAttributeDefinition
  3

  2
LINA
 70
     8
280
     0
  0
ATTDEF
  5
74
330
1F
100
AcDbEntity
  8
AM_6
100
AcDbText
 10
107.3
 20
32.50000000000002
 30
0.0
 40
0.5
  1
GEBERIT
100
AcDbAttributeDefinition
  3

  2
CATALOG
 70
     8
280
     0
  0
ATTDEF
  5
75
330
1F
100
AcDbEntity
  8
AM_6
100
AcDbText
 10
107.3
 20
32.00000000000002
 30
0.0
 40
0.5
  1
605.032.00.1
100
AcDbAttributeDefinition
  3

  2
ARTNRT
 70
     8
280
     0
  0
ATTDEF
  5
76
330
1F
100
AcDbEntity
  8
AM_6
100
AcDbText
 10
107.3
 20
31.50000000000002
 30
0.0
 40
0.5
  1
70
100
AcDbAttributeDefinition
  3

  2
DD
 70
     8
280
     0
  0
ATTDEF
  5
77
330
1F
100
AcDbEntity
  8
AM_6
100
AcDbText
 10
107.3
 20
31.00000000000002
 30
0.0
 40
0.5
  1
40
100
AcDbAttributeDefinition
  3

  2
D
 70
     8
280
     0
  0
ATTDEF
  5
78
330
1F
100
AcDbEntity
  8
AM_6
100
AcDbText
 10
107.3
 20
30.50000000000002
 30
0.0
 40
0.5
  1
32
100
AcDbAttributeDefinition
  3

  2
DN
 70
     8
280
     0
  0
ATTDEF
  5
79
330
1F
100
AcDbEntity
  8
AM_6
100
AcDbText
 10
107.3
 20
30.00000000000002
 30
0.0
 40
0.5
  1
32
100
AcDbAttributeDefinition
  3

  2
DNV
 70
     8
280
     0
  0
ATTDEF
  5
7A
330
1F
100
AcDbEntity
  8
AM_6
100
AcDbText
 10
107.3
 20
29.50000000000002
 30
0.0
 40
0.5
  1
186
100
AcDbAttributeDefinition
  3

  2
L
 70
     8
280
     0
  0
ATTDEF
  5
7B
330
1F
100
AcDbEntity
  8
AM_6
100
AcDbText
 10
107.3
 20
29.00000000000002
 30
0.0
 40
0.5
  1
68
100
AcDbAttributeDefinition
  3

  2
L1
 70
     8
280
     0
  0
ATTDEF
  5
7C
330
1F
100
AcDbEntity
  8
AM_6
100
AcDbText
 10
107.3
 20
28.50000000000002
 30
0.0
 40
0.5
  1
150
100
AcDbAttributeDefinition
  3

  2
L2
 70
     8
280
     0
  0
ATTDEF
  5
7D
330
1F
100
AcDbEntity
  8
AM_6
100
AcDbText
 10
107.3
 20
28.00000000000002
 30
0.0
 40
0.5
  1
32
100
AcDbAttributeDefinition
  3

  2
Z
 70
     8
280
     0
  0
ATTDEF
  5
7E
330
1F
100
AcDbEntity
  8
AM_6
100
AcDbText
 10
107.3
 20
27.50000000000002
 30
0.0
 40
0.5
  1
84
100
AcDbAttributeDefinition
  3

  2
Z1
 70
     8
280
     0
  0
ATTDEF
  5
7F
330
1F
100
AcDbEntity
  8
AM_6
100
AcDbText
 10
107.3
 20
27.00000000000002
 30
0.0
 40
0.5
  1
605032
100
AcDbAttributeDefinition
  3

  2
ARTNRTX
 70
     8
280
     0
  0
ATTDEF
  5
80
330
1F
100
AcDbEntity
  8
AM_6
100
AcDbText
 10
107.3
 20
26.50000000000002
 30
0.0
 40
0.5
  1
geberit
100
AcDbAttributeDefinition
  3

  2
COMPANY
 70
     8
280
     0
  0
LINE
  5
83
330
1F
100
AcDbEntity
  8
VER
100
AcDbLine
 10
83.92999999999998
 20
12.4
 30
0.0
 11
-83.92999999999998
 21
12.4
 31
0.0
  0
LINE
  5
84
330
1F
100
AcDbEntity
  8
VER
100
AcDbLine
 10
-83.92999999999996
 20
-12.4
 30
0.0
 11
83.92999999999998
 21
-12.4
 31
0.0
  0
LINE
  5
85
330
1F
100
AcDbEntity
  8
VER
100
AcDbLine
 10
83.92999999999998
 20
-12.4
 30
0.0
 11
92.58682408883348
 21
-13.92643165410832
 31
0.0
  0
LINE
  5
86
330
1F
100
AcDbEntity
  8
VER
100
AcDbLine
 10
92.58682408883348
 20
13.92643165410832
 30
0.0
 11
83.92999999999998
 21
12.4
 31
0.0
  0
LINE
  5
87
330
1F
100
AcDbEntity
  8
VER
100
AcDbLine
 10
83.92999999999998
 20
-12.4
 30
0.0
 11
83.92999999999998
 21
12.4
 31
0.0
  0
LINE
  5
88
330
1F
100
AcDbEntity
  8
VER
100
AcDbLine
 10
-83.92999999999996
 20
12.4
 30
0.0
 11
-92.58682408883347
 21
13.92643165410832
 31
0.0
  0
LINE
  5
89
330
1F
100
AcDbEntity
  8
VER
100
AcDbLine
 10
-92.58682408883347
 20
-13.92643165410832
 30
0.0
 11
-83.92999999999996
 21
-12.4
 31
0.0
  0
LINE
  5
8A
330
1F
100
AcDbEntity
  8
VER
100
AcDbLine
 10
-83.92999999999996
 20
-12.4
 30
0.0
 11
-83.92999999999996
 21
12.4
 31
0.0
  0
LINE
  5
8C
330
1F
100
AcDbEntity
  8
050
100
AcDbLine
 10
78.80000000000001
 20
14.3
 30
0.0
 11
71.6
 21
14.3
 31
0.0
  0
LINE
  5
8D
330
1F
100
AcDbEntity
  8
050
100
AcDbLine
 10
71.6
 20
-14.3
 30
0.0
 11
78.80000000000001
 21
-14.3
 31
0.0
  0
LINE
  5
8E
330
1F
100
AcDbEntity
  8
VER
100
AcDbLine
 10
-71.6
 20
14.3
 30
0.0
 11
-78.8
 21
14.3
 31
0.0
  0
LINE
  5
8F
330
1F
100
AcDbEntity
  8
VER
100
AcDbLine
 10
-78.8
 20
-14.3
 30
0.0
 11
-71.6
 21
-14.3
 31
0.0
  0
ARC
  5
90
330
1F
100
AcDbEntity
  8
VER
100
AcDbCircle
 10
92.50000000000003
 20
14.4188355306144
 30
0.0
 40
0.4999999999999703
100
AcDbArc
 50
279.9999999999991
 51
0.0000000000030533
  0
ARC
  5
91
330
1F
100
AcDbEntity
  8
VER
100
AcDbCircle
 10
92.50000000000003
 20
-14.4188355306144
 30
0.0
 40
0.4999999999999716
100
AcDbArc
 50
359.9999999999969
 51
80.00000000000085
  0
LINE
  5
92
330
1F
100
AcDbEntity
  8
VER
100
AcDbLine
 10
92.58682408883348
 20
-13.92643165410832
 30
0.0
 11
92.58682408883348
 21
13.92643165410832
 31
0.0
  0
ARC
  5
93
330
1F
100
AcDbEntity
  8
VER
100
AcDbCircle
 10
-92.49999999999999
 20
14.41883553061444
 30
0.0
 40
0.5000000000000142
100
AcDbArc
 50
180.0000000000014
 51
259.9999999999984
  0
ARC
  5
94
330
1F
100
AcDbEntity
  8
VER
100
AcDbCircle
 10
-92.49999999999999
 20
-14.41883553061444
 30
0.0
 40
0.500000000000012
100
AcDbArc
 50
100.0000000000016
 51
179.9999999999986
  0
LINE
  5
95
330
1F
100
AcDbEntity
  8
VER
100
AcDbLine
 10
-92.58682408883347
 20
-13.92643165410832
 30
0.0
 11
-92.58682408883347
 21
13.92643165410832
 31
0.0
  0
LINE
  5
96
330
1F
100
AcDbEntity
  8
050
100
AcDbLine
 10
65.1
 20
15.15
 30
0.0
 11
64.6
 21
15.15
 31
0.0
  0
LINE
  5
97
330
1F
100
AcDbEntity
  8
050
100
AcDbLine
 10
64.6
 20
-15.15
 30
0.0
 11
65.1
 21
-15.15
 31
0.0
  0
LINE
  5
98
330
1F
100
AcDbEntity
  8
050
100
AcDbLine
 10
63.60000000000002
 20
15.15
 30
0.0
 11
63.10000000000002
 21
15.15
 31
0.0
  0
LINE
  5
99
330
1F
100
AcDbEntity
  8
050
100
AcDbLine
 10
63.10000000000002
 20
-15.15
 30
0.0
 11
63.60000000000002
 21
-15.15
 31
0.0
  0
LINE
  5
9A
330
1F
100
AcDbEntity
  8
050
100
AcDbLine
 10
-63.1
 20
15.15
 30
0.0
 11
-63.6
 21
15.15
 31
0.0
  0
LINE
  5
9B
330
1F
100
AcDbEntity
  8
050
100
AcDbLine
 10
-63.6
 20
-15.15
 30
0.0
 11
-63.1
 21
-15.15
 31
0.0
  0
LINE
  5
9C
330
1F
100
AcDbEntity
  8
050
100
AcDbLine
 10
-64.6
 20
15.15
 30
0.0
 11
-65.1
 21
15.15
 31
0.0
  0
LINE
  5
9D
330
1F
100
AcDbEntity
  8
050
100
AcDbLine
 10
-65.1
 20
-15.15
 30
0.0
 11
-64.6
 21
-15.15
 31
0.0
  0
LINE
  5
9E
330
1F
100
AcDbEntity
  8
050
100
AcDbLine
 10
-58.5
 20
15.5
 30
0.0
 11
-62.1
 21
15.5
 31
0.0
  0
LINE
  5
9F
330
1F
100
AcDbEntity
  8
050
100
AcDbLine
 10
-62.1
 20
-15.5
 30
0.0
 11
-58.5
 21
-15.5
 31
0.0
  0
LINE
  5
A0
330
1F
100
AcDbEntity
  8
050
100
AcDbLine
 10
62.10000000000002
 20
15.5
 30
0.0
 11
58.5
 21
15.5
 31
0.0
  0
LINE
  5
A1
330
1F
100
AcDbEntity
  8
050
100
AcDbLine
 10
58.5
 20
-15.5
 30
0.0
 11
62.10000000000002
 21
-15.5
 31
0.0
  0
LINE
  5
A2
330
1F
100
AcDbEntity
  8
050
100
AcDbLine
 10
-93.0
 20
10.00000000000001
 30
0.0
 11
-93.0
 21
15.28436014752909
 31
0.0
  0
LINE
  5
A3
330
1F
100
AcDbEntity
  8
VER
100
AcDbLine
 10
-93.0
 20
-9.999999999999996
 30
0.0
 11
-93.0
 21
10.00000000000001
 31
0.0
  0
LINE
  5
A4
330
1F
100
AcDbEntity
  8
050
100
AcDbLine
 10
-93.0
 20
-15.28436014752909
 30
0.0
 11
-93.0
 21
-9.999999999999996
 31
0.0
  0
ARC
  5
A5
330
1F
100
AcDbEntity
  8
050
100
AcDbCircle
 10
-92.60000000000004
 20
15.28436014752911
 30
0.0
 40
0.399999999999971
100
AcDbArc
 50
99.99999999999515
 51
180.0000000000031
  0
ARC
  5
A6
330
1F
100
AcDbEntity
  8
050
100
AcDbCircle
 10
-92.60000000000004
 20
-15.28436014752911
 30
0.0
 40
0.3999999999999631
100
AcDbArc
 50
179.9999999999969
 51
260.0000000000049
  0
LINE
  5
A7
330
1F
100
AcDbEntity
  8
050
100
AcDbLine
 10
93.0
 20
-15.28436014752909
 30
0.0
 11
93.0
 21
15.28436014752909
 31
0.0
  0
ARC
  5
A8
330
1F
100
AcDbEntity
  8
050
100
AcDbCircle
 10
92.60000000000004
 20
15.28436014752912
 30
0.0
 40
0.3999999999999631
100
AcDbArc
 50
359.9999999999952
 51
80.00000000000674
  0
ARC
  5
A9
330
1F
100
AcDbEntity
  8
050
100
AcDbCircle
 10
92.60000000000004
 20
-15.28436014752912
 30
0.0
 40
0.3999999999999633
100
AcDbArc
 50
279.9999999999933
 51
0.0000000000048344
  0
LINE
  5
AA
330
1F
100
AcDbEntity
  8
050
100
AcDbLine
 10
-63.1
 20
-15.15
 30
0.0
 11
-62.1
 21
-15.85020753820971
 31
0.0
  0
LINE
  5
AB
330
1F
100
AcDbEntity
  8
050
100
AcDbLine
 10
-62.1
 20
15.85020753820971
 30
0.0
 11
-63.1
 21
15.15
 31
0.0
  0
LINE
  5
AC
330
1F
100
AcDbEntity
  8
050
100
AcDbLine
 10
-63.1
 20
12.99934926725344
 30
0.0
 11
-63.1
 21
15.15
 31
0.0
  0
LINE
  5
AD
330
1F
100
AcDbEntity
  8
VER
100
AcDbLine
 10
-63.1
 20
-12.99934926725344
 30
0.0
 11
-63.1
 21
12.99934926725344
 31
0.0
  0
LINE
  5
AE
330
1F
100
AcDbEntity
  8
050
100
AcDbLine
 10
-63.1
 20
-15.15
 30
0.0
 11
-63.1
 21
-12.99934926725344
 31
0.0
  0
LINE
  5
AF
330
1F
100
AcDbEntity
  8
050
100
AcDbLine
 10
-62.1
 20
13.0
 30
0.0
 11
-62.1
 21
15.85020753820971
 31
0.0
  0
LINE
  5
B0
330
1F
100
AcDbEntity
  8
VER
100
AcDbLine
 10
-62.1
 20
-12.99999999999999
 30
0.0
 11
-62.1
 21
13.0
 31
0.0
  0
LINE
  5
B1
330
1F
100
AcDbEntity
  8
050
100
AcDbLine
 10
-62.1
 20
-15.85020753820971
 30
0.0
 11
-62.1
 21
-12.99999999999999
 31
0.0
  0
LINE
  5
B2
330
1F
100
AcDbEntity
  8
050
100
AcDbLine
 10
63.10000000000002
 20
15.15
 30
0.0
 11
62.10000000000002
 21
15.85020753820971
 31
0.0
  0
LINE
  5
B3
330
1F
100
AcDbEntity
  8
050
100
AcDbLine
 10
62.10000000000002
 20
-15.85020753820971
 30
0.0
 11
63.10000000000002
 21
-15.15
 31
0.0
  0
LINE
  5
B4
330
1F
100
AcDbEntity
  8
050
100
AcDbLine
 10
62.10000000000002
 20
-15.85020753820971
 30
0.0
 11
62.10000000000002
 21
15.85020753820971
 31
0.0
  0
LINE
  5
B5
330
1F
100
AcDbEntity
  8
050
100
AcDbLine
 10
63.10000000000002
 20
-15.15
 30
0.0
 11
63.10000000000002
 21
15.15
 31
0.0
  0
LINE
  5
B6
330
1F
100
AcDbEntity
  8
050
100
AcDbLine
 10
64.6
 20
15.15
 30
0.0
 11
63.60000000000002
 21
15.85020753820971
 31
0.0
  0
LINE
  5
B7
330
1F
100
AcDbEntity
  8
050
100
AcDbLine
 10
63.60000000000002
 20
-15.85020753820971
 30
0.0
 11
64.6
 21
-15.15
 31
0.0
  0
LINE
  5
B8
330
1F
100
AcDbEntity
  8
050
100
AcDbLine
 10
63.60000000000002
 20
-15.85020753820971
 30
0.0
 11
63.60000000000002
 21
15.85020753820971
 31
0.0
  0
LINE
  5
B9
330
1F
100
AcDbEntity
  8
050
100
AcDbLine
 10
64.6
 20
-15.15
 30
0.0
 11
64.6
 21
15.15
 31
0.0
  0
LINE
  5
BA
330
1F
100
AcDbEntity
  8
050
100
AcDbLine
 10
-64.6
 20
-15.15
 30
0.0
 11
-63.6
 21
-15.85020753820971
 31
0.0
  0
LINE
  5
BB
330
1F
100
AcDbEntity
  8
050
100
AcDbLine
 10
-63.6
 20
15.85020753820971
 30
0.0
 11
-64.6
 21
15.15
 31
0.0
  0
LINE
  5
BC
330
1F
100
AcDbEntity
  8
050
100
AcDbLine
 10
-64.6
 20
12.80356333987725
 30
0.0
 11
-64.6
 21
15.15
 31
0.0
  0
LINE
  5
BD
330
1F
100
AcDbEntity
  8
VER
100
AcDbLine
 10
-64.6
 20
-12.80356333987723
 30
0.0
 11
-64.6
 21
12.80356333987725
 31
0.0
  0
LINE
  5
BE
330
1F
100
AcDbEntity
  8
050
100
AcDbLine
 10
-64.6
 20
-15.15
 30
0.0
 11
-64.6
 21
-12.80356333987723
 31
0.0
  0
LINE
  5
BF
330
1F
100
AcDbEntity
  8
050
100
AcDbLine
 10
-63.6
 20
12.97301554435634
 30
0.0
 11
-63.6
 21
15.85020753820971
 31
0.0
  0
LINE
  5
C0
330
1F
100
AcDbEntity
  8
VER
100
AcDbLine
 10
-63.6
 20
-12.97301554435633
 30
0.0
 11
-63.6
 21
12.97301554435634
 31
0.0
  0
LINE
  5
C1
330
1F
100
AcDbEntity
  8
050
100
AcDbLine
 10
-63.6
 20
-15.85020753820971
 30
0.0
 11
-63.6
 21
-12.97301554435633
 31
0.0
  0
LINE
  5
C2
330
1F
100
AcDbEntity
  8
050
100
AcDbLine
 10
54.40000000000001
 20
16.0
 30
0.0
 11
49.72499999999999
 21
16.0
 31
0.0
  0
LINE
  5
C3
330
1F
100
AcDbEntity
  8
050
100
AcDbLine
 10
49.72499999999999
 20
-16.0
 30
0.0
 11
54.40000000000001
 21
-16.0
 31
0.0
  0
LINE
  5
C4
330
1F
100
AcDbEntity
  8
050
100
AcDbLine
 10
-51.74870318381733
 20
16.0
 30
0.0
 11
-54.4
 21
16.0
 31
0.0
  0
LINE
  5
C5
330
1F
100
AcDbEntity
  8
VER
100
AcDbLine
 10
-49.72500000000001
 20
16.0
 30
0.0
 11
-51.74870318381733
 21
16.0
 31
0.0
  0
LINE
  5
C6
330
1F
100
AcDbEntity
  8
VER
100
AcDbLine
 10
-51.74785845340143
 20
-16.0
 30
0.0
 11
-49.72500000000001
 21
-16.0
 31
0.0
  0
LINE
  5
C7
330
1F
100
AcDbEntity
  8
050
100
AcDbLine
 10
-54.4
 20
-16.0
 30
0.0
 11
-51.74785845340143
 21
-16.0
 31
0.0
  0
LINE
  5
C8
330
1F
100
AcDbEntity
  8
VER
100
AcDbLine
 10
-78.8
 20
16.325
 30
0.0
 11
-83.34000000000002
 21
16.325
 31
0.0
  0
LINE
  5
C9
330
1F
100
AcDbEntity
  8
VER
100
AcDbLine
 10
-83.34000000000002
 20
-16.325
 30
0.0
 11
-78.8
 21
-16.325
 31
0.0
  0
LINE
  5
CA
330
1F
100
AcDbEntity
  8
VER
100
AcDbLine
 10
-78.8
 20
-16.325
 30
0.0
 11
-78.8
 21
16.325
 31
0.0
  0
LINE
  5
CB
330
1F
100
AcDbEntity
  8
050
100
AcDbLine
 10
83.34
 20
16.325
 30
0.0
 11
78.80000000000001
 21
16.325
 31
0.0
  0
LINE
  5
CC
330
1F
100
AcDbEntity
  8
050
100
AcDbLine
 10
78.80000000000001
 20
-16.325
 30
0.0
 11
83.34
 21
-16.325
 31
0.0
  0
LINE
  5
CD
330
1F
100
AcDbEntity
  8
050
100
AcDbLine
 10
78.80000000000001
 20
-16.325
 30
0.0
 11
78.80000000000001
 21
16.325
 31
0.0
  0
LINE
  5
CE
330
1F
100
AcDbEntity
  8
050
100
AcDbLine
 10
71.6
 20
16.325
 30
0.0
 11
65.1
 21
16.325
 31
0.0
  0
LINE
  5
CF
330
1F
100
AcDbEntity
  8
050
100
AcDbLine
 10
65.1
 20
-16.325
 30
0.0
 11
71.6
 21
-16.325
 31
0.0
  0
LINE
  5
D0
330
1F
100
AcDbEntity
  8
050
100
AcDbLine
 10
65.1
 20
-16.325
 30
0.0
 11
65.1
 21
16.325
 31
0.0
  0
LINE
  5
D1
330
1F
100
AcDbEntity
  8
050
100
AcDbLine
 10
71.6
 20
-16.325
 30
0.0
 11
71.6
 21
16.325
 31
0.0
  0
LINE
  5
D2
330
1F
100
AcDbEntity
  8
050
100
AcDbLine
 10
-65.1
 20
16.325
 30
0.0
 11
-71.6
 21
16.325
 31
0.0
  0
LINE
  5
D3
330
1F
100
AcDbEntity
  8
050
100
AcDbLine
 10
-71.6
 20
-16.325
 30
0.0
 11
-65.1
 21
-16.325
 31
0.0
  0
LINE
  5
D4
330
1F
100
AcDbEntity
  8
050
100
AcDbLine
 10
-71.6
 20
15.98242430426393
 30
0.0
 11
-71.6
 21
16.325
 31
0.0
  0
LINE
  5
D5
330
1F
100
AcDbEntity
  8
VER
100
AcDbLine
 10
-71.6
 20
-15.98242430426392
 30
0.0
 11
-71.6
 21
15.98242430426393
 31
0.0
  0
LINE
  5
D6
330
1F
100
AcDbEntity
  8
050
100
AcDbLine
 10
-71.6
 20
-16.325
 30
0.0
 11
-71.6
 21
-15.98242430426392
 31
0.0
  0
LINE
  5
D7
330
1F
100
AcDbEntity
  8
050
100
AcDbLine
 10
-65.1
 20
12.65888167020756
 30
0.0
 11
-65.1
 21
16.325
 31
0.0
  0
LINE
  5
D8
330
1F
100
AcDbEntity
  8
VER
100
AcDbLine
 10
-65.1
 20
-12.65888167020755
 30
0.0
 11
-65.1
 21
12.65888167020756
 31
0.0
  0
LINE
  5
D9
330
1F
100
AcDbEntity
  8
050
100
AcDbLine
 10
-65.1
 20
-16.325
 30
0.0
 11
-65.1
 21
-12.65888167020755
 31
0.0
  0
LINE
  5
DA
330
1F
100
AcDbEntity
  8
050
100
AcDbLine
 10
92.66945927106676
 20
15.67828324873398
 30
0.0
 11
89.0017463171695
 21
16.325
 31
0.0
  0
LINE
  5
DB
330
1F
100
AcDbEntity
  8
050
100
AcDbLine
 10
89.0017463171695
 20
-16.325
 30
0.0
 11
92.66945927106676
 21
-15.67828324873398
 31
0.0
  0
LINE
  5
DC
330
1F
100
AcDbEntity
  8
050
100
AcDbLine
 10
92.66945927106676
 20
-15.67828324873398
 30
0.0
 11
92.66945927106676
 21
15.67828324873398
 31
0.0
  0
ARC
  5
DD
330
1F
100
AcDbEntity
  8
050
100
AcDbCircle
 10
86.17087315858475
 20
19.42760489911372
 30
0.0
 40
4.200000000000006
100
AcDbArc
 50
227.6221064667627
 51
312.3778935332372
  0
ARC
  5
DE
330
1F
100
AcDbEntity
  8
050
100
AcDbCircle
 10
86.17087315858475
 20
-19.42760489911372
 30
0.0
 40
4.200000000000004
100
AcDbArc
 50
47.62210646676273
 51
132.3778935332373
  0
LINE
  5
DF
330
1F
100
AcDbEntity
  8
050
100
AcDbLine
 10
83.34
 20
-16.325
 30
0.0
 11
83.34
 21
16.325
 31
0.0
  0
LINE
  5
E0
330
1F
100
AcDbEntity
  8
050
100
AcDbLine
 10
89.0017463171695
 20
-16.325
 30
0.0
 11
89.0017463171695
 21
16.325
 31
0.0
  0
LINE
  5
E1
330
1F
100
AcDbEntity
  8
VER
100
AcDbLine
 10
-89.35614329532437
 20
-16.26251025086976
 30
0.0
 11
-89.0017463171695
 21
-16.32500000000001
 31
0.0
  0
LINE
  5
E2
330
1F
100
AcDbEntity
  8
050
100
AcDbLine
 10
-92.66945927106677
 20
-15.67828324873397
 30
0.0
 11
-89.35614329532437
 21
-16.26251025086976
 31
0.0
  0
LINE
  5
E3
330
1F
100
AcDbEntity
  8
050
100
AcDbLine
 10
-89.35416166687405
 20
16.26285966543129
 30
0.0
 11
-92.66945927106677
 21
15.67828324873397
 31
0.0
  0
LINE
  5
E4
330
1F
100
AcDbEntity
  8
VER
100
AcDbLine
 10
-89.0017463171695
 20
16.32500000000001
 30
0.0
 11
-89.35416166687405
 21
16.26285966543129
 31
0.0
  0
LINE
  5
E5
330
1F
100
AcDbEntity
  8
050
100
AcDbLine
 10
-92.66945927106677
 20
10.00000000000001
 30
0.0
 11
-92.66945927106677
 21
15.67828324873397
 31
0.0
  0
LINE
  5
E6
330
1F
100
AcDbEntity
  8
VER
100
AcDbLine
 10
-92.66945927106677
 20
-9.999999999999995
 30
0.0
 11
-92.66945927106677
 21
10.00000000000001
 31
0.0
  0
LINE
  5
E7
330
1F
100
AcDbEntity
  8
050
100
AcDbLine
 10
-92.66945927106677
 20
-15.67828324873397
 30
0.0
 11
-92.66945927106677
 21
-9.999999999999995
 31
0.0
  0
ARC
  5
E8
330
1F
100
AcDbEntity
  8
VER
100
AcDbCircle
 10
-86.17087315858475
 20
19.42760489911369
 30
0.0
 40
4.199999999999974
100
AcDbArc
 50
227.6221064667623
 51
312.3778935332374
  0
ARC
  5
E9
330
1F
100
AcDbEntity
  8
VER
100
AcDbCircle
 10
-86.17087315858475
 20
-19.42760489911369
 30
0.0
 40
4.199999999999975
100
AcDbArc
 50
47.62210646676262
 51
132.3778935332377
  0
LINE
  5
EA
330
1F
100
AcDbEntity
  8
VER
100
AcDbLine
 10
-89.0017463171695
 20
15.78140498363568
 30
0.0
 11
-89.0017463171695
 21
16.32500000000001
 31
0.0
  0
LINE
  5
EB
330
1F
100
AcDbEntity
  8
050
100
AcDbLine
 10
-89.0017463171695
 20
9.966316921898468
 30
0.0
 11
-89.0017463171695
 21
15.78140498363568
 31
0.0
  0
LINE
  5
EC
330
1F
100
AcDbEntity
  8
VER
100
AcDbLine
 10
-89.0017463171695
 20
-9.966316921898457
 30
0.0
 11
-89.0017463171695
 21
9.966316921898468
 31
0.0
  0
LINE
  5
ED
330
1F
100
AcDbEntity
  8
050
100
AcDbLine
 10
-89.0017463171695
 20
-15.78218990537798
 30
0.0
 11
-89.0017463171695
 21
-9.966316921898457
 31
0.0
  0
LINE
  5
EE
330
1F
100
AcDbEntity
  8
VER
100
AcDbLine
 10
-89.0017463171695
 20
-16.32500000000001
 30
0.0
 11
-89.0017463171695
 21
-15.78218990537798
 31
0.0
  0
LINE
  5
EF
330
1F
100
AcDbEntity
  8
VER
100
AcDbLine
 10
-83.34000000000002
 20
-16.325
 30
0.0
 11
-83.34000000000002
 21
16.325
 31
0.0
  0
LINE
  5
F0
330
1F
100
AcDbEntity
  8
050
100
AcDbLine
 10
58.5
 20
18.74999999999999
 30
0.0
 11
57.77831216351295
 21
20.0
 31
0.0
  0
LINE
  5
F1
330
1F
100
AcDbEntity
  8
050
100
AcDbLine
 10
57.77831216351295
 20
-20.0
 30
0.0
 11
58.5
 21
-18.74999999999999
 31
0.0
  0
LINE
  5
F2
330
1F
100
AcDbEntity
  8
050
100
AcDbLine
 10
58.5
 20
-18.74999999999999
 30
0.0
 11
58.5
 21
18.74999999999999
 31
0.0
  0
LINE
  5
F3
330
1F
100
AcDbEntity
  8
050
100
AcDbLine
 10
-55.30066641993582
 20
20.0
 30
0.0
 11
-57.77831216351296
 21
20.0
 31
0.0
  0
LINE
  5
F4
330
1F
100
AcDbEntity
  8
050
100
AcDbLine
 10
-57.77831216351296
 20
-20.0
 30
0.0
 11
-55.30066641993582
 21
-20.0
 31
0.0
  0
LINE
  5
F5
330
1F
100
AcDbEntity
  8
050
100
AcDbLine
 10
54.40000000000001
 20
-18.44
 30
0.0
 11
55.30066641993581
 21
-20.0
 31
0.0
  0
LINE
  5
F6
330
1F
100
AcDbEntity
  8
050
100
AcDbLine
 10
55.30066641993581
 20
20.0
 30
0.0
 11
54.40000000000001
 21
18.44
 31
0.0
  0
LINE
  5
F7
330
1F
100
AcDbEntity
  8
050
100
AcDbLine
 10
54.40000000000001
 20
-18.44
 30
0.0
 11
54.40000000000001
 21
18.44
 31
0.0
  0
LWPOLYLINE
  5
F8
330
1F
100
AcDbEntity
  8
VER
100
AcDbPolyline
 90
        3
 70
     0
 43
0.0
 10
-22.18496035504798
 20
-8.414310118976566
 10
-21.52064774363695
 20
-6.800950183647869
 10
-21.04799999999998
 20
-5.31509678777467
  0
LWPOLYLINE
  5
F9
330
1F
100
AcDbEntity
  8
VER
100
AcDbPolyline
 90
        3
 70
     0
 43
0.0
 10
-21.04799999999997
 20
5.315096787774633
 10
-21.58461052244034
 20
6.97530480902072
 10
-22.18496035504797
 20
8.414310118976548
  0
LINE
  5
FA
330
1F
100
AcDbEntity
  8
050
100
AcDbLine
 10
49.72500000000001
 20
20.0
 30
0.0
 11
-0.0952828671233232
 21
20.0
 31
0.0
  0
LINE
  5
FB
330
1F
100
AcDbEntity
  8
050
100
AcDbLine
 10
-34.58855894940539
 20
20.0
 30
0.0
 11
-49.72500000000001
 21
20.0
 31
0.0
  0
LINE
  5
FC
330
1F
100
AcDbEntity
  8
VER
100
AcDbLine
 10
-34.58855894940538
 20
-20.0
 30
0.0
 11
-0.0952828671233232
 21
-20.0
 31
0.0
  0
LINE
  5
FD
330
1F
100
AcDbEntity
  8
050
100
AcDbLine
 10
-49.72500000000001
 20
-20.0
 30
0.0
 11
-34.58855894940538
 21
-20.0
 31
0.0
  0
LINE
  5
FE
330
1F
100
AcDbEntity
  8
050
100
AcDbLine
 10
-0.0952828671233232
 20
-20.0
 30
0.0
 11
49.72500000000001
 21
-20.0
 31
0.0
  0
LINE
  5
FF
330
1F
100
AcDbEntity
  8
050
100
AcDbLine
 10
-49.72500000000001
 20
19.01774521041171
 30
0.0
 11
-49.72500000000001
 21
20.0
 31
0.0
  0
LINE
  5
100
330
1F
100
AcDbEntity
  8
VER
100
AcDbLine
 10
-49.72500000000001
 20
-19.02755627002434
 30
0.0
 11
-49.72500000000001
 21
19.01774521041171
 31
0.0
  0
LINE
  5
101
330
1F
100
AcDbEntity
  8
050
100
AcDbLine
 10
-49.72500000000001
 20
-20.0
 30
0.0
 11
-49.72500000000001
 21
-19.02755627002434
 31
0.0
  0
LINE
  5
102
330
1F
100
AcDbEntity
  8
050
100
AcDbLine
 10
49.72500000000001
 20
-20.0
 30
0.0
 11
49.72500000000001
 21
20.0
 31
0.0
  0
LINE
  5
103
330
1F
100
AcDbEntity
  8
050
100
AcDbLine
 10
-54.4
 20
18.44
 30
0.0
 11
-55.30066641993582
 21
20.0
 31
0.0
  0
LINE
  5
104
330
1F
100
AcDbEntity
  8
050
100
AcDbLine
 10
-55.30066641993582
 20
-20.0
 30
0.0
 11
-54.4
 21
-18.44
 31
0.0
  0
LINE
  5
105
330
1F
100
AcDbEntity
  8
050
100
AcDbLine
 10
-55.30066641993582
 20
13.0
 30
0.0
 11
-55.30066641993582
 21
20.0
 31
0.0
  0
LINE
  5
106
330
1F
100
AcDbEntity
  8
VER
100
AcDbLine
 10
-55.30066641993582
 20
-12.99999999999999
 30
0.0
 11
-55.30066641993582
 21
13.0
 31
0.0
  0
LINE
  5
107
330
1F
100
AcDbEntity
  8
050
100
AcDbLine
 10
-55.30066641993582
 20
-20.0
 30
0.0
 11
-55.30066641993582
 21
-12.99999999999999
 31
0.0
  0
LINE
  5
108
330
1F
100
AcDbEntity
  8
050
100
AcDbLine
 10
-54.4
 20
13.0
 30
0.0
 11
-54.4
 21
18.44
 31
0.0
  0
LINE
  5
109
330
1F
100
AcDbEntity
  8
VER
100
AcDbLine
 10
-54.4
 20
-12.99999999999999
 30
0.0
 11
-54.4
 21
13.0
 31
0.0
  0
LINE
  5
10A
330
1F
100
AcDbEntity
  8
050
100
AcDbLine
 10
-54.4
 20
-18.44
 30
0.0
 11
-54.4
 21
-12.99999999999999
 31
0.0
  0
LINE
  5
10B
330
1F
100
AcDbEntity
  8
050
100
AcDbLine
 10
57.77831216351295
 20
20.0
 30
0.0
 11
55.30066641993581
 21
20.0
 31
0.0
  0
LINE
  5
10C
330
1F
100
AcDbEntity
  8
050
100
AcDbLine
 10
55.30066641993581
 20
-20.0
 30
0.0
 11
57.77831216351295
 21
-20.0
 31
0.0
  0
LINE
  5
10D
330
1F
100
AcDbEntity
  8
050
100
AcDbLine
 10
55.30066641993581
 20
-20.0
 30
0.0
 11
55.30066641993581
 21
20.0
 31
0.0
  0
LINE
  5
10E
330
1F
100
AcDbEntity
  8
050
100
AcDbLine
 10
57.77831216351295
 20
-20.0
 30
0.0
 11
57.77831216351295
 21
20.0
 31
0.0
  0
LINE
  5
10F
330
1F
100
AcDbEntity
  8
050
100
AcDbLine
 10
-58.5
 20
-18.74999999999999
 30
0.0
 11
-57.77831216351296
 21
-20.0
 31
0.0
  0
LINE
  5
110
330
1F
100
AcDbEntity
  8
050
100
AcDbLine
 10
-57.77831216351296
 20
20.0
 30
0.0
 11
-58.5
 21
18.74999999999999
 31
0.0
  0
LINE
  5
111
330
1F
100
AcDbEntity
  8
050
100
AcDbLine
 10
-58.5
 20
13.0
 30
0.0
 11
-58.5
 21
18.74999999999999
 31
0.0
  0
LINE
  5
112
330
1F
100
AcDbEntity
  8
VER
100
AcDbLine
 10
-58.5
 20
-12.99999999999999
 30
0.0
 11
-58.5
 21
13.0
 31
0.0
  0
LINE
  5
113
330
1F
100
AcDbEntity
  8
050
100
AcDbLine
 10
-58.5
 20
-18.74999999999999
 30
0.0
 11
-58.5
 21
-12.99999999999999
 31
0.0
  0
LINE
  5
114
330
1F
100
AcDbEntity
  8
050
100
AcDbLine
 10
-57.77831216351296
 20
13.0
 30
0.0
 11
-57.77831216351296
 21
20.0
 31
0.0
  0
LINE
  5
115
330
1F
100
AcDbEntity
  8
VER
100
AcDbLine
 10
-57.77831216351296
 20
-12.99999999999999
 30
0.0
 11
-57.77831216351296
 21
13.0
 31
0.0
  0
LINE
  5
116
330
1F
100
AcDbEntity
  8
050
100
AcDbLine
 10
-57.77831216351296
 20
-20.0
 30
0.0
 11
-57.77831216351296
 21
-12.99999999999999
 31
0.0
  0
LWPOLYLINE
  5
117
330
1F
100
AcDbEntity
  8
050
100
AcDbPolyline
 90
       12
 70
     0
 43
0.0
 10
32.10958294119511
 20
12.05719342730563
 10
31.64915364929311
 20
13.40205154028139
 10
31.14192558515951
 20
14.64491194865564
 10
30.59175906063502
 20
15.77631573426102
 10
30.00284117517093
 20
16.78765223112877
 10
29.37965394947395
 20
17.67122455785608
 10
28.72694021462237
 20
18.42030819552098
 10
28.04966751625773
 20
19.02920216533178
 10
27.35299030856304
 20
19.49327241651798
 10
26.64221072575404
 20
19.80898709425479
 10
25.92273822963636
 20
19.97394341921088
 10
25.49999999999999
 20
20.0
  0
LWPOLYLINE
  5
118
330
1F
100
AcDbEntity
  8
VER
100
AcDbPolyline
 90
        3
 70
     0
 43
0.0
 10
32.67186231155173
 20
10.01055948656935
 10
32.28317909438181
 20
11.48151631043496
 10
32.10958294119511
 20
12.05719342730563
  0
LWPOLYLINE
  5
119
330
1F
100
AcDbEntity
  8
VER
100
AcDbPolyline
 90
       16
 70
     0
 43
0.0
 10
25.5
 20
20.0
 10
21.29174847639806
 20
19.92389396183491
 10
17.11552428790248
 20
19.69615506024417
 10
13.00311102226082
 20
19.31851652578137
 10
8.985806627567625
 20
18.79385241571817
 10
5.094185215981231
 20
18.12615574073301
 10
1.357864376269065
 20
17.32050807568878
 10
-2.194720233926459
 20
16.38304088577985
 10
-5.536531300612518
 20
15.32088886237958
 10
-8.642135623730937
 20
14.14213562373097
 10
-11.48789767916762
 20
12.85575219373081
 10
-14.0521594993626
 20
11.47152872702095
 10
-16.31540550352054
 20
10.00000000000003
 10
-18.26041102296453
 20
8.452365234814021
 10
-19.87237339126516
 20
6.840402866513408
 10
-21.04799999999998
 20
5.315096787774674
  0
LWPOLYLINE
  5
11A
330
1F
100
AcDbEntity
  8
VER
100
AcDbPolyline
 90
       16
 70
     0
 43
0.0
 10
-21.04799999999998
 20
-5.315096787774674
 10
-19.75250759901232
 20
-6.975304809020762
 10
-18.11261629098502
 20
-8.582426548866001
 10
-16.14080663896562
 20
-10.12423084046354
 10
-13.85208530501719
 20
-11.58898362218742
 10
-11.2638708404588
 20
-12.96553724092682
 10
-8.395861120172384
 20
-14.24341529245735
 10
-5.269883429880929
 20
-15.41289235320296
 10
-1.909728347324478
 20
-16.46506799658186
 10
1.659031318401585
 20
-17.39193453062689
 10
5.409235151365089
 20
-18.18643794135665
 10
9.312341835962197
 20
-18.84253157808122
 10
13.33864637356287
 20
-19.35522217206496
 10
17.45750615548683
 20
-19.7206078383166
 10
21.63757417175808
 20
-19.93590777129008
 10
25.5
 20
-20.0
  0
LWPOLYLINE
  5
11B
330
1F
100
AcDbEntity
  8
VER
100
AcDbPolyline
 90
        3
 70
     0
 43
0.0
 10
32.10958294119509
 20
-12.05719342730568
 10
32.51970931593929
 20
-10.62057279201568
 10
32.67186231155173
 20
-10.01055948656938
  0
LWPOLYLINE
  5
11C
330
1F
100
AcDbEntity
  8
050
100
AcDbPolyline
 90
       12
 70
     0
 43
0.0
 10
25.49999999999999
 20
-20.0
 10
26.2220218136956
 20
-19.92389396183491
 10
26.9385486054203
 20
-19.69615506024416
 10
27.64412717363835
 20
-19.31851652578137
 10
28.33338763940563
 20
-18.79385241571817
 10
29.00108431439079
 20
-18.126155740733
 10
29.64213562373093
 20
-17.32050807568878
 10
30.25166277988462
 20
-16.38304088577984
 10
30.82502691315095
 20
-15.32088886237957
 10
31.35786437626903
 20
-14.14213562373096
 10
31.8461199544085
 20
-12.8557521937308
 10
32.10958294119509
 20
-12.05719342730568
  0
LINE
  5
11D
330
1F
100
AcDbEntity
  8
VER
100
AcDbLine
 10
-0.0952828671233232
 20
20.0
 30
0.0
 11
-34.58855894940539
 21
20.0
 31
0.0
  0
ELLIPSE
  5
11E
330
1F
100
AcDbEntity
  8
VER
100
AcDbEllipse
 10
-7.41440645067137
 20
0.0000000000000586
 30
0.0
 11
-3.673940397442073E-15
 21
-20.00000000000008
 31
0.0
210
0.0
220
0.0
230
1.0
 40
0.7071067811865477
 41
4.98137581369742
 42
10.72658745425155
  0
CIRCLE
  5
11F
330
1F
100
AcDbEntity
  8
VER
100
AcDbCircle
 10
25.5
 20
0.0000000000000035
 30
0.0
 40
11.3145
  0
CIRCLE
  5
120
330
1F
100
AcDbEntity
  8
VER
100
AcDbCircle
 10
25.5
 20
0.0000000000000034
 30
0.0
 40
12.3145
  0
ELLIPSE
  5
121
330
1F
100
AcDbEntity
  8
VER
100
AcDbEllipse
 10
-7.414406450671401
 20
0.0000000000000036
 30
0.0
 11
-4.136810963264792E-15
 21
-22.51975000000001
 31
0.0
210
0.0
220
0.0
230
1.0
 40
0.7071067811865479
 41
3.141592653589794
 42
4.329457359177431
  0
LWPOLYLINE
  5
122
330
1F
100
AcDbEntity
  8
VER
100
AcDbPolyline
 90
       21
 70
     0
 43
0.0
 10
-22.18496035504801
 20
8.414310118976525
 10
-23.42813504532907
 20
7.091358275107425
 10
-24.00658811068835
 20
6.368629744382585
 10
-24.54238880878917
 20
5.607553941785592
 10
-25.02331057639719
 20
4.814366342813504
 10
-25.44538508633147
 20
3.982221841110393
 10
-25.80827308998348
 20
3.084100652660146
 10
-26.08618611539972
 20
2.150719561138187
 10
-26.22429107794483
 20
1.478106444469936
 10
-26.31203210854099
 20
0.7955068114088376
 10
-26.34720609306147
 20
0.0873072099408728
 10
-26.32594269029197
 20
-0.6215509961986978
 10
-26.25134346228069
 20
-1.306184360675923
 10
-26.12572466839472
 20
-1.98188401207128
 10
-25.72035759961948
 20
-3.324995032812736
 10
-25.34108816200283
 20
-4.203752602863955
 10
-24.89272758445854
 20
-5.042924992190497
 10
-24.37128062730358
 20
-5.862275595837797
 10
-23.79807448701172
 20
-6.639225274085711
 10
-23.01884107806715
 20
-7.556558836289897
 10
-22.18496035504801
 20
-8.414310118976525
  0
LINE
  5
123
330
1F
100
AcDbEntity
  8
050
100
AcDbLine
 10
-14.3710050749199
 20
-22.51974999999999
 30
0.0
 11
-7.414406450671429
 21
-22.51974999999999
 31
0.0
  0
LINE
  5
124
330
1F
100
AcDbEntity
  8
VER
100
AcDbLine
 10
-19.6049273583275
 20
-22.51974999999999
 30
0.0
 11
-14.3710050749199
 21
-22.51974999999999
 31
0.0
  0
LINE
  5
125
330
1F
100
AcDbEntity
  8
VER
100
AcDbLine
 10
-14.3710050749199
 20
22.51975
 30
0.0
 11
-19.6049273583275
 21
22.51975
 31
0.0
  0
LINE
  5
126
330
1F
100
AcDbEntity
  8
050
100
AcDbLine
 10
-7.414406450671429
 20
22.51975
 30
0.0
 11
-14.3710050749199
 21
22.51975
 31
0.0
  0
ELLIPSE
  5
127
330
1F
100
AcDbEntity
  8
050
100
AcDbEllipse
 10
-7.414406450671413
 20
0.0000000000000053
 30
0.0
 11
-4.136810963264791E-15
 21
-22.51975
 31
0.0
210
0.0
220
0.0
230
1.0
 40
0.7071067811865474
 41
0.0000000000000001
 42
3.141592653589794
  0
ELLIPSE
  5
128
330
1F
100
AcDbEntity
  8
VER
100
AcDbEllipse
 10
-7.414406450671418
 20
0.0000000000000338
 30
0.0
 11
-4.136810963264795E-15
 21
-22.51975000000002
 31
0.0
210
0.0
220
0.0
230
1.0
 40
0.7071067811865478
 41
5.095320601591949
 42
6.283185307179586
  0
LINE
  5
129
330
1F
100
AcDbEntity
  8
VER
100
AcDbLine
 10
-53.81549871465948
 20
0.000000000000003
 30
0.0
 11
-41.10402129869842
 21
0.0000000000000022
 31
0.0
  0
ARC
  5
12A
330
1F
100
AcDbEntity
  8
050
100
AcDbCircle
 10
25.49999999999928
 20
-0.0000000000012417
 30
0.0
 40
13.74999999999856
100
AcDbArc
 50
234.6199773286565
 51
245.3800226713434
  0
ARC
  5
12B
330
1F
100
AcDbEntity
  8
050
100
AcDbCircle
 10
25.50000000000053
 20
0.0000000000008953
 30
0.0
 40
13.74999999999897
100
AcDbArc
 50
54.61997732865669
 51
65.38002267134334
  0
LINE
  5
12C
330
1F
100
AcDbEntity
  8
050
100
AcDbLine
 10
31.2282196186948
 20
12.5
 30
0.0
 11
19.7717803813052
 21
12.5
 31
0.0
  0
LINE
  5
12D
330
1F
100
AcDbEntity
  8
050
100
AcDbLine
 10
33.46120773795809
 20
-11.2107837082461
 30
0.0
 11
39.18942735665289
 21
-1.2892162917539
 31
0.0
  0
ARC
  5
12E
330
1F
100
AcDbEntity
  8
050
100
AcDbCircle
 10
25.49999999999937
 20
0.0000000000000009
 30
0.0
 40
13.75000000000063
100
AcDbArc
 50
354.6199773286573
 51
5.380022671342676
  0
LINE
  5
12F
330
1F
100
AcDbEntity
  8
050
100
AcDbLine
 10
39.18942735665289
 20
1.2892162917539
 30
0.0
 11
33.46120773795809
 21
11.2107837082461
 31
0.0
  0
ARC
  5
130
330
1F
100
AcDbEntity
  8
050
100
AcDbCircle
 10
25.50000000000019
 20
-0.0000000000003304
 30
0.0
 40
13.75000000000038
100
AcDbArc
 50
114.6199773286573
 51
125.3800226713426
  0
LINE
  5
131
330
1F
100
AcDbEntity
  8
050
100
AcDbLine
 10
17.53879226204194
 20
11.21078370824612
 30
0.0
 11
11.81057264334712
 21
1.289216291753892
 31
0.0
  0
ARC
  5
132
330
1F
100
AcDbEntity
  8
050
100
AcDbCircle
 10
25.50000000000003
 20
-0.0000000000000172
 30
0.0
 40
13.75000000000003
100
AcDbArc
 50
174.6199773286571
 51
185.3800226713427
  0
LINE
  5
133
330
1F
100
AcDbEntity
  8
050
100
AcDbLine
 10
11.81057264334711
 20
-1.28921629175387
 30
0.0
 11
17.53879226204192
 21
-11.2107837082461
 31
0.0
  0
LINE
  5
134
330
1F
100
AcDbEntity
  8
050
100
AcDbLine
 10
19.7717803813052
 20
-12.49999999999999
 30
0.0
 11
31.2282196186948
 21
-12.5
 31
0.0
  0
ARC
  5
135
330
1F
100
AcDbEntity
  8
050
100
AcDbCircle
 10
25.49999999999991
 20
0.0000000000001528
 30
0.0
 40
13.75000000000017
100
AcDbArc
 50
294.6199773286572
 51
305.3800226713428
  0
ELLIPSE
  5
136
330
1F
100
AcDbEntity
  8
050
100
AcDbEllipse
 10
-19.60492735832748
 20
0.000000000000032
 30
0.0
 11
-2.540880729505970E-14
 21
-23.70500000000003
 31
0.0
210
0.0
220
0.0
230
1.0
 40
0.7071067811865469
 41
0.0000000000000007
 42
3.141592653589796
  0
LINE
  5
137
330
1F
100
AcDbEntity
  8
050
100
AcDbLine
 10
-23.46926591751199
 20
-23.70500000000001
 30
0.0
 11
-19.6049273583275
 21
-23.70500000000001
 31
0.0
  0
LINE
  5
138
330
1F
100
AcDbEntity
  8
050
100
AcDbLine
 10
-19.6049273583275
 20
23.70500000000001
 30
0.0
 11
-23.46926591751199
 21
23.70500000000001
 31
0.0
  0
ELLIPSE
  5
139
330
1F
100
AcDbEntity
  8
VER
100
AcDbEllipse
 10
-19.60492735832749
 20
0.0
 30
0.0
 11
-4.354537856068205E-15
 21
-23.70500000000002
 31
0.0
210
0.0
220
0.0
230
1.0
 40
0.7071067811865475
 41
3.141592653589794
 42
6.283185307179586
  0
ELLIPSE
  5
13A
330
1F
100
AcDbEntity
  8
VER
100
AcDbEllipse
 10
-23.46926591751207
 20
-0.0000000000003126
 30
0.0
 11
3.775400102191420E-14
 21
-23.70499999999966
 31
0.0
210
0.0
220
0.0
230
1.0
 40
0.707106781186547
 41
3.162686814406435
 42
6.262091146362939
  0
ELLIPSE
  5
13B
330
1F
100
AcDbEntity
  8
050
100
AcDbEllipse
 10
-23.46926591754356
 20
0.0000000000404405
 30
0.0
 11
6.387429894015302E-11
 21
-23.70500000004044
 31
0.0
210
0.0
220
0.0
230
1.0
 40
0.7071067811865331
 41
6.262091146361046
 42
9.445872121580372
  0
ELLIPSE
  5
13C
330
1F
100
AcDbEntity
  8
VER
100
AcDbEllipse
 10
-24.17637269869853
 20
0.000000000000003
 30
0.0
 11
1.390280278732034E-15
 21
22.70500000000002
 31
0.0
210
0.0
220
0.0
230
1.0
 40
0.7071067811865478
 41
0.0
 42
6.283185307179586
  0
LINE
  5
13D
330
1F
100
AcDbEntity
  8
VER
100
AcDbLine
 10
-33.34730377988502
 20
19.0
 30
0.0
 11
-41.10402129869842
 21
0.0000000000000022
 31
0.0
  0
LINE
  5
13E
330
1F
100
AcDbEntity
  8
VER
100
AcDbLine
 10
-41.10402129869842
 20
0.0000000000000022
 30
0.0
 11
-33.34730377988502
 21
-19.0
 31
0.0
  0
ELLIPSE
  5
13F
330
1F
100
AcDbEntity
  8
050
100
AcDbEllipse
 10
-24.17637269869854
 20
0.0000000000000391
 30
0.0
 11
-4.354537856068202E-15
 21
-23.70500000000001
 31
0.0
210
0.0
220
0.0
230
1.0
 40
0.7071067811865474
 41
6.283185307179586
 42
9.42477796076938
  0
LINE
  5
140
330
1F
100
AcDbEntity
  8
050
100
AcDbLine
 10
-25.59058626107164
 20
-23.70499999999999
 30
0.0
 11
-24.17637269869856
 21
-23.70499999999999
 31
0.0
  0
LINE
  5
141
330
1F
100
AcDbEntity
  8
050
100
AcDbLine
 10
-24.17637269869856
 20
23.705
 30
0.0
 11
-25.59058626107164
 21
23.705
 31
0.0
  0
ELLIPSE
  5
142
330
1F
100
AcDbEntity
  8
VER
100
AcDbEllipse
 10
-24.17637269869855
 20
0.0
 30
0.0
 11
-4.354537856068201E-15
 21
-23.705
 31
0.0
210
0.0
220
0.0
230
1.0
 40
0.7071067811865475
 41
3.141592653589794
 42
6.283185307179586
  0
ELLIPSE
  5
143
330
1F
100
AcDbEntity
  8
050
100
AcDbEllipse
 10
-25.59058626107163
 20
-0.0000000000001208
 30
0.0
 11
-6.751734617304302E-14
 21
-23.70500000000014
 31
0.0
210
0.0
220
0.0
230
1.0
 40
0.707106781186547
 41
5.643649002367324
 42
10.06499379489675
  0
ELLIPSE
  5
144
330
1F
100
AcDbEntity
  8
VER
100
AcDbEllipse
 10
-25.59058626107151
 20
-0.0000000000000835
 30
0.0
 11
-4.354537856068233E-15
 21
-23.70500000000018
 31
0.0
210
0.0
220
0.0
230
1.0
 40
0.7071067811865476
 41
3.781808487717164
 42
5.643649002367315
  0
ELLIPSE
  5
145
330
1F
100
AcDbEntity
  8
VER
100
AcDbEllipse
 10
-45.38957613429493
 20
0.0000000000000195
 30
0.0
 11
-6.699995223122173E-15
 21
17.50000000000003
 31
0.0
210
0.0
220
0.0
230
1.0
 40
0.7071067811865464
 41
0.7334681181845495
 42
2.408124535405243
  0
LINE
  5
146
330
1F
100
AcDbEntity
  8
050
100
AcDbLine
 10
-43.97536257192187
 20
17.5
 30
0.0
 11
-45.38957613429496
 21
17.5
 31
0.0
  0
LINE
  5
147
330
1F
100
AcDbEntity
  8
050
100
AcDbLine
 10
-45.38957613429496
 20
-17.49999999999999
 30
0.0
 11
-43.97536257192187
 21
-17.49999999999999
 31
0.0
  0
ELLIPSE
  5
148
330
1F
100
AcDbEntity
  8
050
100
AcDbEllipse
 10
-45.38957613429485
 20
-0.0000000000002256
 30
0.0
 11
1.071565949253948E-15
 21
17.50000000000023
 31
0.0
210
0.0
220
0.0
230
1.0
 40
0.7071067811865472
 41
2.408124535405229
 42
7.016653425364131
  0
ELLIPSE
  5
149
330
1F
100
AcDbEntity
  8
050
100
AcDbEllipse
 10
-43.97536257192189
 20
-0.0000000000000142
 30
0.0
 11
1.071565949253935E-15
 21
17.50000000000001
 31
0.0
210
0.0
220
0.0
230
1.0
 40
0.7071067811865472
 41
3.141592653589794
 42
6.283185307179585
  0
ELLIPSE
  5
14A
330
1F
100
AcDbEntity
  8
VER
100
AcDbEllipse
 10
-43.97536257192183
 20
-0.0000000000000169
 30
0.0
 11
-2.612889815406247E-14
 21
17.50000000000005
 31
0.0
210
0.0
220
0.0
230
1.0
 40
0.7071067811865481
 41
0.0000000000000019
 42
3.141592653589787
  0
LINE
  5
14B
330
1F
100
AcDbEntity
  8
VER
100
AcDbLine
 10
-72.20041362332456
 20
-0.0003395092833531
 30
0.0
 11
-67.6044274533062
 21
-11.25816049071664
 31
0.0
  0
LINE
  5
14C
330
1F
100
AcDbEntity
  8
VER
100
AcDbLine
 10
-67.60442745330619
 20
11.25816049071664
 30
0.0
 11
-72.20041362332456
 21
0.0003395092833593
 31
0.0
  0
LINE
  5
14D
330
1F
100
AcDbEntity
  8
050
100
AcDbLine
 10
-49.91973927882324
 20
-19.0
 30
0.0
 11
-17.83386874225822
 21
-19.0
 31
0.0
  0
LINE
  5
14E
330
1F
100
AcDbEntity
  8
050
100
AcDbLine
 10
-17.83386874225822
 20
-19.0
 30
0.0
 11
-10.07715122344482
 21
0.0000000000000041
 31
0.0
  0
LINE
  5
14F
330
1F
100
AcDbEntity
  8
050
100
AcDbLine
 10
-26.64958672238306
 20
0.0000000000000051
 30
0.0
 11
-10.07715122344482
 21
0.0000000000000041
 31
0.0
  0
LINE
  5
150
330
1F
100
AcDbEntity
  8
050
100
AcDbLine
 10
-10.07715122344482
 20
0.0000000000000041
 30
0.0
 11
-17.83386874225822
 21
19.0
 31
0.0
  0
LINE
  5
151
330
1F
100
AcDbEntity
  8
050
100
AcDbLine
 10
-49.91973927882324
 20
19.0
 30
0.0
 11
-17.83386874225822
 21
19.0
 31
0.0
  0
LWPOLYLINE
  5
152
330
1F
100
AcDbEntity
  8
VER
100
AcDbPolyline
 90
        6
 70
     0
 43
0.0
 10
-55.21918385248001
 20
8.947674121377469
 10
-55.26739707713662
 20
8.824262246426413
 10
-56.05977855565697
 20
6.606950904412283
 10
-56.71470559158541
 20
4.40516951587538
 10
-57.25166618441803
 20
2.188472758242592
 10
-57.67645679763665
 20
0.0000000000000032
  0
LWPOLYLINE
  5
153
330
1F
100
AcDbEntity
  8
VER
100
AcDbPolyline
 90
        4
 70
     0
 43
0.0
 10
-53.39493018520302
 20
13.00144808216207
 10
-53.74354584634385
 20
12.29846266705549
 10
-54.54746704207604
 20
10.56246649533661
 10
-55.21918385248001
 20
8.947674121377469
  0
LINE
  5
154
330
1F
100
AcDbEntity
  8
VER
100
AcDbLine
 10
-52.99390256887627
 20
13.77763427037336
 30
0.0
 11
-53.39493018520302
 21
13.00144808216207
 31
0.0
  0
LWPOLYLINE
  5
155
330
1F
100
AcDbEntity
  8
050
100
AcDbPolyline
 90
        4
 70
     0
 43
0.0
 10
-49.91973927882324
 20
19.0
 10
-51.45002477405447
 20
16.52950489817821
 10
-52.86349729426995
 20
14.02366383826154
 10
-52.99390256887627
 20
13.77763427037336
  0
LWPOLYLINE
  5
156
330
1F
100
AcDbEntity
  8
050
100
AcDbPolyline
 90
        4
 70
     0
 43
0.0
 10
-52.94879407675961
 20
-13.86307285717622
 10
-52.55479392089131
 20
-14.59483048412462
 10
-51.28182919016317
 20
-16.81152724175741
 10
-49.91973927882324
 20
-19.0
  0
LINE
  5
157
330
1F
100
AcDbEntity
  8
VER
100
AcDbLine
 10
-53.39470217812199
 20
-13.00189835937634
 30
0.0
 11
-52.94879407675961
 21
-13.86307285717622
 31
0.0
  0
LWPOLYLINE
  5
158
330
1F
100
AcDbEntity
  8
VER
100
AcDbPolyline
 90
        4
 70
     0
 43
0.0
 10
-55.20906464471648
 20
-8.973435718791821
 10
-54.71565951174
 20
-10.17573775357358
 10
-53.69761386065355
 20
-12.39304909558772
 10
-53.39470217812199
 20
-13.00189835937634
  0
LWPOLYLINE
  5
159
330
1F
100
AcDbEntity
  8
VER
100
AcDbPolyline
 90
        6
 70
     0
 43
0.0
 10
-57.67645679763665
 20
0.0000000000000032
 10
-57.18959148903168
 20
-2.470495101821789
 10
-56.5570533514769
 20
-4.97633616173846
 10
-56.02848104584854
 20
-6.701537332944511
 10
-55.41496730286863
 20
-8.437533504663389
 10
-55.20906464471648
 20
-8.973435718791821
  0
LWPOLYLINE
  5
15A
330
1F
100
AcDbEntity
  8
050
100
AcDbPolyline
 90
       10
 70
     0
 43
0.0
 10
-34.40630424119645
 20
-19.0
 10
-33.91943893259148
 20
-16.5295048981782
 10
-33.2869007950367
 20
-14.02366383826153
 10
-32.75832848940835
 20
-12.29846266705547
 10
-32.14481474642844
 20
-10.56246649533659
 10
-31.4455069552998
 20
-8.824262246426397
 10
-30.42746130421335
 20
-6.606950904412267
 10
-29.2846413644511
 20
-4.405169515875365
 10
-28.01167663372297
 20
-2.188472758242581
 10
-26.64958672238306
 20
0.0000000000000051
  0
LWPOLYLINE
  5
15B
330
1F
100
AcDbEntity
  8
050
100
AcDbPolyline
 90
       10
 70
     0
 43
0.0
 10
-26.64958672238306
 20
0.0000000000000051
 10
-28.17987221761427
 20
2.470495101821798
 10
-29.59334473782975
 20
4.976336161738469
 10
-30.47339328990365
 20
6.701537332944523
 10
-31.27731448563584
 20
8.437533504663403
 10
-31.99724452069642
 20
10.1757377535736
 10
-32.78962599921677
 20
12.39304909558773
 10
-33.4445530351452
 20
14.59483048412462
 10
-33.98151362797782
 20
16.81152724175741
 10
-34.40630424119644
 20
19.0
  0
LINE
  5
15C
330
1F
100
AcDbEntity
  8
VER
100
AcDbLine
 10
-72.20055222740909
 20
0.0000000000000049
 30
0.0
 11
-83.74972728452897
 21
0.0000000000000056
 31
0.0
  0
ELLIPSE
  5
15D
330
1F
100
AcDbEntity
  8
050
100
AcDbEllipse
 10
-63.00802547103429
 20
-0.0000000000001776
 30
0.0
 11
-7.863719172630326E-15
 21
12.99999999999981
 31
0.0
210
0.0
220
0.0
230
1.0
 40
0.7071067811865495
 41
2.618019994090209
 42
6.806757966679154
  0
ELLIPSE
  5
15E
330
1F
100
AcDbEntity
  8
VER
100
AcDbEllipse
 10
-63.00802547103408
 20
-0.0000000000003553
 30
0.0
 11
6.416167502330639E-13
 21
12.99999999999955
 31
0.0
210
0.0
220
0.0
230
1.0
 40
0.7071067811865641
 41
0.5236248916970752
 42
2.617967761892811
  0
ELLIPSE
  5
15F
330
1F
100
AcDbEntity
  8
VER
100
AcDbEllipse
 10
-48.57155664963442
 20
0.000000000000048
 30
0.0
 11
-7.863719172630484E-15
 21
13.00000000000007
 31
0.0
210
0.0
220
0.0
230
1.0
 40
0.7071067811865472
 41
6.283185307179584
 42
9.424777960769378
  0
LINE
  5
160
330
1F
100
AcDbEntity
  8
050
100
AcDbLine
 10
-48.57155664963443
 20
13.0
 30
0.0
 11
-63.00802547103429
 21
13.0
 31
0.0
  0
LINE
  5
161
330
1F
100
AcDbEntity
  8
050
100
AcDbLine
 10
-63.00802547103429
 20
-12.99999999999999
 30
0.0
 11
-48.57155664963442
 21
-12.99999999999999
 31
0.0
  0
ELLIPSE
  5
162
330
1F
100
AcDbEntity
  8
050
100
AcDbEllipse
 10
-48.57155664963442
 20
0.0000000000000124
 30
0.0
 11
-7.863719172630432E-15
 21
12.99999999999998
 31
0.0
210
0.0
220
0.0
230
1.0
 40
0.7071067811865481
 41
3.141592653589792
 42
6.283185307179584
  0
ELLIPSE
  5
163
330
1F
100
AcDbEntity
  8
VER
100
AcDbEllipse
 10
-114.8855972546797
 20
0.0000000000000023
 30
0.0
 11
-3.673940397442125E-16
 21
-2.000000000000036
 31
0.0
210
0.0
220
0.0
230
1.0
 40
0.7071067811865476
 41
4.319689898685972
 42
5.105088062083404
  0
LINE
  5
164
330
1F
100
AcDbEntity
  8
VER
100
AcDbLine
 10
-116.1921602195561
 20
-0.7653668647301773
 30
0.0
 11
-124.5647244235248
 21
-0.7653668647301768
 31
0.0
  0
LINE
  5
165
330
1F
100
AcDbEntity
  8
VER
100
AcDbLine
 10
-116.1921602195561
 20
0.7653668647301819
 30
0.0
 11
-124.5647244235334
 21
0.7653668647301823
 31
0.0
  0
ELLIPSE
  5
166
330
1F
100
AcDbEntity
  8
VER
100
AcDbEllipse
 10
-108.0852014423186
 20
-23.21800361206889
 30
0.0
 11
5.469966798166084E-14
 21
-1.999999999999901
 31
0.0
210
0.0
220
0.0
230
1.0
 40
0.7071067811865316
 41
5.105088062083365
 42
5.890486225480848
  0
LINE
  5
167
330
1F
100
AcDbEntity
  8
VER
100
AcDbLine
 10
-108.6263975424648
 20
-25.06576267709137
 30
0.0
 11
-116.9989617464553
 21
-25.06576267709137
 31
0.0
  0
LINE
  5
168
330
1F
100
AcDbEntity
  8
VER
100
AcDbLine
 10
-109.3917644071949
 20
-23.98337047679898
 30
0.0
 11
-117.7643286111722
 21
-23.98337047679898
 31
0.0
  0
ELLIPSE
  5
169
330
1F
100
AcDbEntity
  8
VER
100
AcDbEllipse
 10
-108.0852014423186
 20
23.21800361206886
 30
0.0
 11
-5.721081290055079E-14
 21
-1.99999999999995
 31
0.0
210
0.0
220
0.0
230
1.0
 40
0.7071067811865281
 41
3.534291735288544
 42
4.319689898686002
  0
LINE
  5
16A
330
1F
100
AcDbEntity
  8
VER
100
AcDbLine
 10
-108.6263975424648
 20
25.06576267709139
 30
0.0
 11
-116.9989617464421
 21
25.06576267709139
 31
0.0
  0
LINE
  5
16B
330
1F
100
AcDbEntity
  8
VER
100
AcDbLine
 10
-109.3917644071949
 20
23.983370476799
 30
0.0
 11
-117.7643286111722
 21
23.983370476799
 31
0.0
  0
LINE
  5
16C
330
1F
100
AcDbEntity
  8
VER
100
AcDbLine
 10
-116.1921602195561
 20
0.7653668647301819
 30
0.0
 11
-109.3917644071949
 21
23.983370476799
 31
0.0
  0
LINE
  5
16D
330
1F
100
AcDbEntity
  8
VER
100
AcDbLine
 10
-109.3917644071949
 20
-23.98337047679898
 30
0.0
 11
-116.1921602195561
 21
-0.7653668647301773
 31
0.0
  0
LINE
  5
16E
330
1F
100
AcDbEntity
  8
050
100
AcDbLine
 10
-53.81563731874402
 20
0.0003395092833752
 30
0.0
 11
-58.41162348876236
 21
11.25816049071664
 31
0.0
  0
LINE
  5
16F
330
1F
100
AcDbEntity
  8
050
100
AcDbLine
 10
-58.41176209284689
 20
11.25850000000001
 30
0.0
 11
-70.21639460509303
 21
11.25850000000001
 31
0.0
  0
LINE
  5
170
330
1F
100
AcDbEntity
  8
050
100
AcDbLine
 10
-58.41176209284689
 20
-11.25849999999999
 30
0.0
 11
-70.21639460509303
 21
-11.25849999999999
 31
0.0
  0
LINE
  5
171
330
1F
100
AcDbEntity
  8
050
100
AcDbLine
 10
-58.41162348876237
 20
-11.25816049071664
 30
0.0
 11
-53.81563731874401
 21
-0.0003395092833441
 31
0.0
  0
LINE
  5
172
330
1F
100
AcDbEntity
  8
050
100
AcDbLine
 10
-53.81549871465948
 20
0.000000000000006
 30
0.0
 11
-65.36467377177937
 21
0.0000000000000067
 31
0.0
  0
LINE
  5
173
330
1F
100
AcDbEntity
  8
050
100
AcDbLine
 10
-69.96093714996677
 20
-11.25849999999999
 30
0.0
 11
-65.36467377177937
 21
0.0000000000000067
 31
0.0
  0
LINE
  5
174
330
1F
100
AcDbEntity
  8
050
100
AcDbLine
 10
-65.36467377177937
 20
0.0000000000000067
 30
0.0
 11
-69.96093714996675
 21
11.25850000000001
 31
0.0
  0
LINE
  5
175
330
1F
100
AcDbEntity
  8
VER
100
AcDbLine
 10
-70.21639460509303
 20
11.25850000000001
 30
0.0
 11
-79.15346390634157
 21
11.25850000000001
 31
0.0
  0
LINE
  5
176
330
1F
100
AcDbEntity
  8
VER
100
AcDbLine
 10
-79.15346390634157
 20
11.25850000000001
 30
0.0
 11
-83.74972728452897
 21
0.0000000000000056
 31
0.0
  0
LINE
  5
177
330
1F
100
AcDbEntity
  8
VER
100
AcDbLine
 10
-83.74972728452897
 20
0.0000000000000056
 30
0.0
 11
-79.15346390634157
 21
-11.25849999999999
 31
0.0
  0
LINE
  5
178
330
1F
100
AcDbEntity
  8
VER
100
AcDbLine
 10
-79.15346390634157
 20
-11.25849999999999
 30
0.0
 11
-70.21639460509303
 21
-11.25849999999999
 31
0.0
  0
LINE
  5
179
330
1F
100
AcDbEntity
  8
VER
100
AcDbLine
 10
-111.8436646213623
 20
-20.58477300999471
 30
0.0
 11
-113.4080441731573
 21
-18.31609573570913
 31
0.0
  0
LINE
  5
17A
330
1F
100
AcDbEntity
  8
VER
100
AcDbLine
 10
-111.0473154645804
 20
-20.5847730099947
 30
0.0
 11
-112.7969950325783
 21
-18.31609573570913
 31
0.0
  0
LINE
  5
17B
330
1F
100
AcDbEntity
  8
VER
100
AcDbLine
 10
-112.7969950325783
 20
-18.31609573570913
 30
0.0
 11
-113.4080441731573
 21
-18.31609573570913
 31
0.0
  0
LINE
  5
17C
330
1F
100
AcDbEntity
  8
VER
100
AcDbLine
 10
-112.942365826978
 20
19.0460963207635
 30
0.0
 11
-111.3224033788201
 21
21.23693249820099
 31
0.0
  0
LINE
  5
17D
330
1F
100
AcDbEntity
  8
VER
100
AcDbLine
 10
-112.2761573070825
 20
19.0460963207635
 30
0.0
 11
-110.4643110750007
 21
21.23693249820099
 31
0.0
  0
LINE
  5
17E
330
1F
100
AcDbEntity
  8
VER
100
AcDbLine
 10
-112.2761573070825
 20
19.0460963207635
 30
0.0
 11
-112.942365826978
 21
19.0460963207635
 31
0.0
  0
ELLIPSE
  5
17F
330
1F
100
AcDbEntity
  8
VER
100
AcDbEllipse
 10
-98.24368670763667
 20
0.0000000000044675
 30
0.0
 11
5.018222915157066E-12
 21
22.00000000000809
 31
0.0
210
0.0
220
0.0
230
1.0
 40
0.707106781186711
 41
-4.163825467277245
 42
-4.083250923767519
  0
ELLIPSE
  5
180
330
1F
100
AcDbEntity
  8
050
100
AcDbEllipse
 10
-98.2436867076458
 20
0.000000000000024
 30
0.0
 11
1.347111479062091E-15
 21
22.00000000000004
 31
0.0
210
0.0
220
0.0
230
1.0
 40
0.7071067811865455
 41
0.9873726869157329
 42
2.119359839902165
  0
ELLIPSE
  5
181
330
1F
100
AcDbEntity
  8
VER
100
AcDbEllipse
 10
-98.24368670766111
 20
0.0000000000019558
 30
0.0
 11
1.544277302717304E-11
 21
21.99999999999637
 31
0.0
210
0.0
220
0.0
230
1.0
 40
0.7071067811860666
 41
0.906726046078596
 42
0.987372686916222
  0
LINE
  5
182
330
1F
100
AcDbEntity
  8
VER
100
AcDbLine
 10
-111.1461015625593
 20
13.65829132702122
 30
0.0
 11
-110.4941582551315
 21
13.55919959763443
 31
0.0
  0
LINE
  5
183
330
1F
100
AcDbEntity
  8
VER
100
AcDbLine
 10
-110.8215397692934
 20
-12.9458574346857
 30
0.0
 11
-111.4771664139544
 21
-13.04530423874952
 31
0.0
  0
LINE
  5
184
330
1F
100
AcDbEntity
  8
VER
100
AcDbLine
 10
-113.4080441731573
 20
-18.31609573570913
 30
0.0
 11
-110.8215397692934
 21
-12.9458574346857
 31
0.0
  0
LINE
  5
185
330
1F
100
AcDbEntity
  8
VER
100
AcDbLine
 10
-112.7969950325783
 20
-18.31609573570913
 30
0.0
 11
-103.419049928321
 21
-0.9071836581536415
 31
0.0
  0
LINE
  5
186
330
1F
100
AcDbEntity
  8
VER
100
AcDbLine
 10
-110.4941582551315
 20
13.55919959763442
 30
0.0
 11
-112.942365826978
 21
19.0460963207635
 31
0.0
  0
LINE
  5
187
330
1F
100
AcDbEntity
  8
VER
100
AcDbLine
 10
-103.390077073274
 20
1.239849482138985
 30
0.0
 11
-112.2761573070825
 21
19.0460963207635
 31
0.0
  0
LINE
  5
188
330
1F
100
AcDbEntity
  8
VER
100
AcDbLine
 10
-74.55720052815417
 20
5.999999999999999
 30
0.0
 11
-89.58162863811064
 21
6.0
 31
0.0
  0
LINE
  5
189
330
1F
100
AcDbEntity
  8
VER
100
AcDbLine
 10
-89.58162863811064
 20
-5.999999999999987
 30
0.0
 11
-74.55720052815417
 21
-5.999999999999987
 31
0.0
  0
LINE
  5
18A
330
1F
100
AcDbEntity
  8
VER
100
AcDbLine
 10
-107.9574122824425
 20
-17.18391896265461
 30
0.0
 11
-111.8436646213623
 21
-20.58477300999471
 31
0.0
  0
LINE
  5
18B
330
1F
100
AcDbEntity
  8
VER
100
AcDbLine
 10
-111.0473154645804
 20
-20.5847730099947
 30
0.0
 11
-111.8436646213623
 21
-20.58477300999471
 31
0.0
  0
LINE
  5
18C
330
1F
100
AcDbEntity
  8
VER
100
AcDbLine
 10
-107.430011104151
 20
-17.75451740161774
 30
0.0
 11
-111.0473154645804
 21
-20.5847730099947
 31
0.0
  0
LINE
  5
18D
330
1F
100
AcDbEntity
  8
050
100
AcDbLine
 10
-97.51908661843505
 20
-9.999999999999996
 30
0.0
 11
-107.430011104151
 21
-17.75451740161774
 31
0.0
  0
LINE
  5
18E
330
1F
100
AcDbEntity
  8
VER
100
AcDbLine
 10
-97.19422722554407
 20
-9.745823124887803
 30
0.0
 11
-97.51908661843505
 21
-9.999999999999996
 31
0.0
  0
LINE
  5
18F
330
1F
100
AcDbEntity
  8
VER
100
AcDbLine
 10
-106.5481244270141
 20
-2.247136429485253
 30
0.0
 11
-106.2036295540485
 21
-1.607627359219408
 31
0.0
  0
LINE
  5
190
330
1F
100
AcDbEntity
  8
050
100
AcDbLine
 10
-112.5816063476497
 20
-13.44749590164517
 30
0.0
 11
-106.5481244270141
 21
-2.247136429485253
 31
0.0
  0
LINE
  5
191
330
1F
100
AcDbEntity
  8
050
100
AcDbLine
 10
-99.91771617972255
 20
-9.993247289351453
 30
0.0
 11
-109.3064680515609
 21
-17.33920576926638
 31
0.0
  0
LINE
  5
192
330
1F
100
AcDbEntity
  8
VER
100
AcDbLine
 10
-99.71257028490581
 20
-9.832736792725271
 30
0.0
 11
-99.91771617972255
 21
-9.993247289351453
 31
0.0
  0
LINE
  5
193
330
1F
100
AcDbEntity
  8
VER
100
AcDbLine
 10
-111.3224033788201
 20
21.23693249820099
 30
0.0
 11
-107.527801027043
 21
17.65249111623427
 31
0.0
  0
LINE
  5
194
330
1F
100
AcDbEntity
  8
VER
100
AcDbLine
 10
-110.4643110750007
 20
21.23693249820099
 30
0.0
 11
-111.3224033788201
 21
21.23693249820099
 31
0.0
  0
LINE
  5
195
330
1F
100
AcDbEntity
  8
VER
100
AcDbLine
 10
-97.15949268800887
 20
10.00000000000001
 30
0.0
 11
-96.93846892751193
 21
9.813328599837877
 31
0.0
  0
LINE
  5
196
330
1F
100
AcDbEntity
  8
050
100
AcDbLine
 10
-106.9294311243298
 20
18.25145714336495
 30
0.0
 11
-97.15949268800887
 21
10.00000000000001
 31
0.0
  0
LINE
  5
197
330
1F
100
AcDbEntity
  8
VER
100
AcDbLine
 10
-110.4643110750007
 20
21.23693249820099
 30
0.0
 11
-106.9294311243298
 21
18.25145714336495
 31
0.0
  0
LINE
  5
198
330
1F
100
AcDbEntity
  8
VER
100
AcDbLine
 10
-99.56675278061705
 20
10.00000000000001
 30
0.0
 11
-99.43652649799778
 21
9.890013985556163
 31
0.0
  0
LINE
  5
199
330
1F
100
AcDbEntity
  8
050
100
AcDbLine
 10
-108.797100602423
 20
17.79573177112733
 30
0.0
 11
-99.56675278061705
 21
10.00000000000001
 31
0.0
  0
LINE
  5
19A
330
1F
100
AcDbEntity
  8
050
100
AcDbLine
 10
-106.4831071884109
 20
2.614020092169816
 30
0.0
 11
-112.1824553247799
 21
14.03457865851364
 31
0.0
  0
LINE
  5
19B
330
1F
100
AcDbEntity
  8
VER
100
AcDbLine
 10
-106.1532284995986
 20
1.952997323385104
 30
0.0
 11
-106.4831071884109
 21
2.614020092169816
 31
0.0
  0
LINE
  5
19C
330
1F
100
AcDbEntity
  8
VER
100
AcDbLine
 10
-108.6263975424648
 20
25.06576267709139
 30
0.0
 11
-91.66759364261094
 21
35.00000000000001
 31
0.0
  0
ELLIPSE
  5
19D
330
1F
100
AcDbEntity
  8
050
100
AcDbEllipse
 10
-91.66759364261118
 20
-32.83521559941503
 30
0.0
 11
3.673384717161415E-13
 21
-2.000000000000185
 31
0.0
210
0.0
220
0.0
230
1.0
 40
0.707106781186559
 41
6.283185307179497
 42
6.675884388878178
  0
LINE
  5
19E
330
1F
100
AcDbEntity
  8
VER
100
AcDbLine
 10
-99.49896174645522
 20
-34.68297466443778
 30
0.0
 11
-100.5813539467344
 21
-34.68297466443778
 31
0.0
  0
LINE
  5
19F
330
1F
100
AcDbEntity
  8
050
100
AcDbLine
 10
-99.75564858775058
 20
-34.83521559941521
 30
0.0
 11
-91.66759364261094
 21
-34.83521559941521
 31
0.0
  0
LWPOLYLINE
  5
1A0
330
1F
100
AcDbEntity
  8
050
100
AcDbPolyline
 90
        5
 70
     0
 43
0.0
 10
-99.75428192796976
 20
-34.83521559920418
 10
-99.7633014007082
 20
-34.83517554843181
 10
-99.9382700451296
 20
-34.82288830796447
 10
-100.2495494962215
 20
-34.76941812109646
 10
-100.5813539467344
 20
-34.68297466443777
  0
ELLIPSE
  5
1A1
330
1F
100
AcDbEntity
  8
VER
100
AcDbEllipse
 10
-91.6675936426109
 20
-32.83521559941498
 30
0.0
 11
-3.673940397442477E-16
 21
-2.000000000000227
 31
0.0
210
0.0
220
0.0
230
1.0
 40
0.707106781186551
 41
5.89048622548088
 42
6.283185307179556
  0
LINE
  5
1A2
330
1F
100
AcDbEntity
  8
VER
100
AcDbLine
 10
-92.20878974275713
 20
-34.68297466443778
 30
0.0
 11
-108.6263975424648
 21
-25.06576267709137
 31
0.0
  0
ELLIPSE
  5
1A3
330
1F
100
AcDbEntity
  8
050
100
AcDbEllipse
 10
-101.7792206135786
 20
0.0000000000000078
 30
0.0
 11
-5.510910596163070E-16
 21
-2.99999999999999
 31
0.0
210
0.0
220
0.0
230
1.0
 40
0.7071067811865461
 41
0.0
 42
6.283185307179586
  0
LWPOLYLINE
  5
1A4
330
1F
100
AcDbEntity
  8
050
100
AcDbPolyline
 90
       18
 70
     0
 43
0.0
 10
-104.7792206135786
 20
0.0000000000000075
 10
-104.7704958025611
 20
-0.3553317478296423
 10
-104.7196581599562
 20
-0.9258294099329736
 10
-104.6231031766658
 20
-1.490933306327686
 10
-104.4805488283346
 20
-2.045915502390117
 10
-104.2918634080056
 20
-2.585861138658258
 10
-104.0574176040302
 20
-3.105099466099235
 10
-103.7783681615141
 20
-3.597446003895127
 10
-103.4569295368857
 20
-4.056469805679406
 10
-103.0965155624626
 20
-4.475928790045631
 10
-102.7016021885902
 20
-4.850339409633236
 10
-102.277379032659
 20
-5.175398271349889
 10
-101.8293583663807
 20
-5.448113991694199
 10
-101.3630818957066
 20
-5.66669270241518
 10
-100.8839548214227
 20
-5.830317452097508
 10
-100.397162135513
 20
-5.93893188259159
 10
-99.90761681662856
 20
-5.993066843694457
 10
-99.65951976756433
 20
-5.999999708580845
  0
LWPOLYLINE
  5
1A5
330
1F
100
AcDbEntity
  8
050
100
AcDbPolyline
 90
       19
 70
     0
 43
0.0
 10
-99.65794267494174
 20
5.999999999800217
 10
-99.8847564502405
 20
5.994278777646631
 10
-100.3665553037143
 20
5.943909829527227
 10
-100.8380571764092
 20
5.842969861405068
 10
-101.2958192117252
 20
5.693239956492576
 10
-101.73678726128
 20
5.496505147422744
 10
-102.1582141028822
 20
5.254485417259976
 10
-102.5575621008068
 20
4.968809106022556
 10
-102.9323791905043
 20
4.641053102098701
 10
-103.2801686044617
 20
4.272870078802073
 10
-103.598289607833
 20
3.866203810862308
 10
-103.8839377014273
 20
3.423552891147944
 10
-104.1342411269455
 20
2.948192193616029
 10
-104.3464635573483
 20
2.444239180609439
 10
-104.5182381867923
 20
1.916503156933223
 10
-104.647728133941
 20
1.370168891589711
 10
-104.7336383594442
 20
0.8105430840415547
 10
-104.7751545794265
 20
0.2426343623545168
 10
-104.7792206135786
 20
0.0000000000000075
  0
ELLIPSE
  5
1A6
330
1F
100
AcDbEntity
  8
050
100
AcDbEllipse
 10
-99.65790027001889
 20
-0.0000000000000124
 30
0.0
 11
1.369007033524606E-14
 21
5.999999999999988
 31
0.0
210
0.0
220
0.0
230
1.0
 40
0.7071067811865475
 41
3.141248632019582
 42
6.283133181953908
  0
LWPOLYLINE
  5
1A7
330
1F
100
AcDbEntity
  8
VER
100
AcDbPolyline
 90
       16
 70
     0
 43
0.0
 10
-90.48852498350392
 20
5.917723263273872
 10
-90.19372223695447
 20
5.192637608331694
 10
-89.93844699375597
 20
4.428032845789797
 10
-89.72464205264859
 20
3.629728079572108
 10
-89.55393459833309
 20
2.803798890979137
 10
-89.42762381761277
 20
1.956531099845756
 10
-89.34667101179747
 20
1.094372925656771
 10
-89.3116922806201
 20
0.2238859127030988
 10
-89.32295383334562
 20
-0.6483050072322544
 10
-89.3803699627579
 20
-1.515561934605304
 10
-89.4835036974433
 20
-2.371284520534691
 10
-89.63157012740702
 20
-3.208960199442067
 10
-89.82344237771207
 20
-4.022213753608544
 10
-90.05766018467801
 20
-4.804855832430994
 10
-90.33244100936923
 20
-5.550930057117369
 10
-90.48852498350392
 20
-5.917723263273868
  0
LINE
  5
1A8
330
1F
100
AcDbEntity
  8
VER
100
AcDbLine
 10
-97.19422722554407
 20
-9.745823124887801
 30
0.0
 11
-99.71257028490578
 21
-9.832736792725271
 31
0.0
  0
LWPOLYLINE
  5
1A9
330
1F
100
AcDbEntity
  8
VER
100
AcDbPolyline
 90
       16
 70
     0
 43
0.0
 10
-97.19422722554408
 20
-9.745823124887806
 10
-97.87238317778953
 20
-9.51348255767078
 10
-98.53162738712393
 20
-9.208738643792058
 10
-99.16694260705172
 20
-8.83391066844566
 10
-99.77349370513542
 20
-8.391851298851286
 10
-100.3466644612731
 20
-7.885924873734303
 10
-100.8820926999204
 20
-7.319981798676571
 10
-101.3757034888811
 20
-6.698329242205059
 10
-101.8237401520006
 20
-6.025698355638585
 10
-102.2227928597408
 20
-5.307208266169559
 10
-102.5698245800412
 20
-4.548327117215014
 10
-102.8621941919666
 20
-3.754830452543461
 10
-103.0976765862329
 20
-2.932757260899438
 10
-103.2744795996314
 20
-2.088364015652719
 10
-103.3912576544737
 20
-1.228077059258212
 10
-103.419049928321
 20
-0.9071836581536599
  0
LINE
  5
1AA
330
1F
100
AcDbEntity
  8
VER
100
AcDbLine
 10
-106.2036295540485
 20
-1.607627359219419
 30
0.0
 11
-103.419049928321
 21
-0.9071836581536356
 31
0.0
  0
LWPOLYLINE
  5
1AB
330
1F
100
AcDbEntity
  8
VER
100
AcDbPolyline
 90
       16
 70
     0
 43
0.0
 10
-99.71257028490582
 20
-9.832736792725274
 10
-100.3981211128724
 20
-9.636579834256207
 10
-101.0672753941321
 20
-9.367082684522455
 10
-101.7149404605582
 20
-9.026296379560321
 10
-102.3361871899242
 20
-8.616814508922966
 10
-102.9262875195008
 20
-8.141753476897852
 10
-103.4807504294675
 20
-7.604728784788385
 10
-103.9953561222857
 20
-7.009827514765892
 10
-104.4661881379054
 20
-6.361577224706451
 10
-104.8896631603918
 20
-5.664911490741645
 10
-105.2625582891225
 20
-4.925132359765214
 10
-105.5820355670076
 20
-4.147869997654742
 10
-105.8456635790568
 20
-3.339039840309737
 10
-106.0514359569155
 20
-2.504797573612594
 10
-106.1977866485392
 20
-1.651492284942134
 10
-106.2036295540485
 20
-1.607627359219427
  0
LINE
  5
1AC
330
1F
100
AcDbEntity
  8
VER
100
AcDbLine
 10
-103.390077073274
 20
1.239849482138986
 30
0.0
 11
-106.1532284995985
 21
1.952997323385091
 31
0.0
  0
LWPOLYLINE
  5
1AD
330
1F
100
AcDbEntity
  8
VER
100
AcDbPolyline
 90
       16
 70
     0
 43
0.0
 10
-103.390077073274
 20
1.239849482138964
 10
-103.2724760305229
 20
2.099964056964205
 10
-103.0948652775861
 20
2.944096637322983
 10
-102.858596539538
 20
3.765822864577579
 10
-102.5654679641379
 20
4.558888905966726
 10
-102.2177104368406
 20
5.31725905004908
 10
-101.8179706024106
 20
6.035161642111766
 10
-101.3692907223573
 20
6.707133009947747
 10
-100.8750855214884
 20
7.328059045700386
 10
-100.3391161997916
 20
7.893214127312217
 10
-99.76546180743216
 20
8.398297083362202
 10
-99.15848820071801
 20
8.839463927577373
 10
-98.52281481529687
 20
9.213357113889433
 10
-97.8632795094619
 20
9.517131089387666
 10
-97.18490174512881
 20
9.74847395069479
 10
-96.93846892751193
 20
9.813328599837874
  0
LINE
  5
1AE
330
1F
100
AcDbEntity
  8
VER
100
AcDbLine
 10
-99.43652649799779
 20
9.890013985556159
 30
0.0
 11
-96.93846892751195
 21
9.813328599837872
 31
0.0
  0
LWPOLYLINE
  5
1AF
330
1F
100
AcDbEntity
  8
VER
100
AcDbPolyline
 90
       16
 70
     0
 43
0.0
 10
-106.1532284995986
 20
1.952997323385082
 10
-105.9858546586916
 20
2.80033995046534
 10
-105.7595582448283
 20
3.626370299631065
 10
-105.4760615103597
 20
4.424801781154343
 10
-105.1375220366152
 20
5.189557849354672
 10
-104.7465163134057
 20
5.914818248780708
 10
-104.3060201303804
 20
6.595063309868618
 10
-103.8193859294712
 20
7.225115956960323
 10
-103.2903172907846
 20
7.800181108975266
 10
-102.7228407461214
 20
8.315882172872783
 10
-102.1212751346383
 20
8.768294352167795
 10
-101.4901987338739
 20
9.153974517001922
 10
-100.8344144162924
 20
9.469987408440732
 10
-100.1589130965238
 20
9.713927977566572
 10
-99.46883574749063
 20
9.883939689353047
 10
-99.43652649799778
 20
9.890013985556163
  0
ELLIPSE
  5
1B0
330
1F
100
AcDbEntity
  8
VER
100
AcDbEllipse
 10
-89.5816286381107
 20
-0.0000000000000178
 30
0.0
 11
-2.825347524068026E-14
 21
9.999999999999954
 31
0.0
210
0.0
220
0.0
230
1.0
 40
0.7071067811865466
 41
6.28318530717957
 42
9.424777960769386
  0
LINE
  5
1B1
330
1F
100
AcDbEntity
  8
050
100
AcDbLine
 10
-89.58162863811062
 20
10.00000000000001
 30
0.0
 11
-99.6579002700189
 21
10.00000000000001
 31
0.0
  0
LINE
  5
1B2
330
1F
100
AcDbEntity
  8
050
100
AcDbLine
 10
-99.6579002700189
 20
-9.999999999999996
 30
0.0
 11
-89.58162863811062
 21
-9.999999999999996
 31
0.0
  0
ELLIPSE
  5
1B3
330
1F
100
AcDbEntity
  8
050
100
AcDbEllipse
 10
-89.58162863811063
 20
0.0000000000001315
 30
0.0
 11
1.560435468470931E-13
 21
9.99999999999984
 31
0.0
210
0.0
220
0.0
230
1.0
 40
0.7071067811865503
 41
5.695214432538275
 42
6.283185307179607
  0
ELLIPSE
  5
1B4
330
1F
100
AcDbEntity
  8
VER
100
AcDbEllipse
 10
-89.58162863811063
 20
0.0000000000000124
 30
0.0
 11
6.123233995736776E-16
 21
10.00000000000002
 31
0.0
210
0.0
220
0.0
230
1.0
 40
0.7071067811865478
 41
3.731307223168002
 42
5.695214432538265
  0
ELLIPSE
  5
1B5
330
1F
100
AcDbEntity
  8
050
100
AcDbEllipse
 10
-89.5816286381105
 20
0.0000000000000906
 30
0.0
 11
1.560435468470968E-13
 21
10.00000000000007
 31
0.0
210
0.0
220
0.0
230
1.0
 40
0.7071067811865466
 41
3.141592653589799
 42
3.731307223168003
  0
ELLIPSE
  5
1B6
330
1F
100
AcDbEntity
  8
VER
100
AcDbEllipse
 10
-99.65790027001812
 20
0.000000000261803
 30
0.0
 11
3.673940397602368E-16
 21
6.000000000261803
 31
0.0
210
0.0
220
0.0
230
1.0
 40
0.7071067811865465
 41
0.021013518002067
 42
3.141248632019413
  0
ELLIPSE
  5
1B7
330
1F
100
AcDbEntity
  8
050
100
AcDbEllipse
 10
-98.24368670764571
 20
0.0000000000000568
 30
0.0
 11
1.137016815711284E-13
 21
22.0000000000001
 31
0.0
210
0.0
220
0.0
230
1.0
 40
0.7071067811865488
 41
2.467201424217746
 42
3.141592653589793
  0
LINE
  5
1B8
330
1F
100
AcDbEntity
  8
050
100
AcDbLine
 10
-108.6210697125631
 20
-17.23286150102465
 30
0.0
 11
-107.9574122824425
 21
-17.18391896265461
 31
0.0
  0
LINE
  5
1B9
330
1F
100
AcDbEntity
  8
VER
100
AcDbLine
 10
-98.95079348883235
 20
-22.0
 30
0.0
 11
-98.2436867076458
 21
-22.0
 31
0.0
  0
ELLIPSE
  5
1BA
330
1F
100
AcDbEntity
  8
VER
100
AcDbEllipse
 10
-98.24368670764575
 20
0.0000000000000444
 30
0.0
 11
1.600205540411426E-14
 21
22.00000000000015
 31
0.0
210
0.0
220
0.0
230
1.0
 40
0.707106781186549
 41
3.14159265358979
 42
4.57838465797053
  0
ELLIPSE
  5
1BB
330
1F
100
AcDbEntity
  8
VER
100
AcDbEllipse
 10
-98.24368670764571
 20
0.0000000000000995
 30
0.0
 11
-2.796277637104206E-14
 21
22.00000000000001
 31
0.0
210
0.0
220
0.0
230
1.0
 40
0.707106781186549
 41
4.846393302798843
 42
6.298308427274725
  0
LINE
  5
1BC
330
1F
100
AcDbEntity
  8
050
100
AcDbLine
 10
-107.5278010270429
 20
17.65249111623426
 30
0.0
 11
-108.187791041691
 21
17.70185731546179
 31
0.0
  0
LINE
  5
1BD
330
1F
100
AcDbEntity
  8
VER
100
AcDbLine
 10
-98.2436867076458
 20
22.00000000000001
 30
0.0
 11
-98.95079348883237
 21
22.00000000000001
 31
0.0
  0
ELLIPSE
  5
1BE
330
1F
100
AcDbEntity
  8
050
100
AcDbEllipse
 10
-98.24368670764589
 20
0.0000000000002238
 30
0.0
 11
1.478965507295811E-13
 21
21.99999999999976
 31
0.0
210
0.0
220
0.0
230
1.0
 40
0.7071067811865468
 41
0.0151231200951383
 42
0.6395138999718406
  0
LWPOLYLINE
  5
1BF
330
1F
100
AcDbEntity
  8
050
100
AcDbPolyline
 90
       16
 70
     0
 43
0.0
 10
-93.28282566352664
 20
5.776361010617671
 10
-92.99574610239902
 20
5.042932772504874
 10
-92.74860653807052
 20
4.271124770987252
 10
-92.54328785185261
 20
3.46681093098677
 10
-92.38135264292221
 20
2.636112566483804
 10
-92.26403333599846
 20
1.78535179362161
 10
-92.19222280184637
 20
0.9210034155850682
 10
-92.16646756199123
 20
0.0496456454388571
 10
-92.18696362935974
 20
-0.822089958046004
 10
-92.25355501650341
 20
-1.687568960558647
 10
-92.36573492275708
 20
-2.540204544299439
 10
-92.52264959129808
 20
-3.373507637640673
 10
-92.72310480675115
 20
-4.181136300879857
 10
-92.9655749838885
 20
-4.956943992230221
 10
-93.24821477825466
 20
-5.695026346715096
 10
-93.28282566352664
 20
-5.776361010617652
  0
ELLIPSE
  5
1C0
330
1F
100
AcDbEntity
  8
050
100
AcDbEllipse
 10
-75.2499858429035
 20
23.21800361206879
 30
0.0
 11
-2.845844883437868E-13
 21
-2.000000000000018
 31
0.0
210
0.0
220
0.0
230
1.0
 40
0.7071067811866038
 41
1.963495408493729
 42
2.748893571891178
  0
ELLIPSE
  5
1C1
330
1F
100
AcDbEntity
  8
050
100
AcDbEllipse
 10
-75.24998584290354
 20
-23.21800361206878
 30
0.0
 11
2.838497002642989E-13
 21
-2.000000000000021
 31
0.0
210
0.0
220
0.0
230
1.0
 40
0.7071067811866096
 41
0.3926990816986438
 42
1.178097245096074
  0
LINE
  5
1C2
330
1F
100
AcDbEntity
  8
050
100
AcDbLine
 10
-74.70878974275713
 20
25.06576267709138
 30
0.0
 11
-83.08135394674088
 21
25.06576267709139
 31
0.0
  0
LINE
  5
1C3
330
1F
100
AcDbEntity
  8
050
100
AcDbLine
 10
-91.66759364261094
 20
35.00000000000001
 30
0.0
 11
-74.70878974275713
 21
25.06576267709138
 31
0.0
  0
LINE
  5
1C4
330
1F
100
AcDbEntity
  8
050
100
AcDbLine
 10
-91.66759364261094
 20
35.00000000000001
 30
0.0
 11
-98.95079348883235
 21
35.00000000000001
 31
0.0
  0
LINE
  5
1C5
330
1F
100
AcDbEntity
  8
VER
100
AcDbLine
 10
-78.25012082564794
 20
1.576916273239392
 30
0.0
 11
-78.25012082564794
 21
-1.576916273239374
 31
0.0
  0
LINE
  5
1C6
330
1F
100
AcDbEntity
  8
VER
100
AcDbLine
 10
-78.1983240191993
 20
1.576916273239392
 30
0.0
 11
-78.1983240191993
 21
-1.576916273239374
 31
0.0
  0
LINE
  5
1C7
330
1F
100
AcDbEntity
  8
VER
100
AcDbLine
 10
-82.82680254782453
 20
2.939279776629972
 30
0.0
 11
-78.25012082564794
 21
1.576916273239392
 31
0.0
  0
LINE
  5
1C8
330
1F
100
AcDbEntity
  8
VER
100
AcDbLine
 10
-83.53102274787257
 20
2.908838357916523
 30
0.0
 11
-82.82680254782441
 21
2.939279776629977
 31
0.0
  0
LINE
  5
1C9
330
1F
100
AcDbEntity
  8
VER
100
AcDbLine
 10
-78.1983240191993
 20
1.576916273239392
 30
0.0
 11
-78.25012082564794
 21
1.576916273239392
 31
0.0
  0
LINE
  5
1CA
330
1F
100
AcDbEntity
  8
VER
100
AcDbLine
 10
-84.80538901868508
 20
3.910482178034405
 30
0.0
 11
-78.1983240191993
 21
1.576916273239392
 31
0.0
  0
LINE
  5
1CB
330
1F
100
AcDbEntity
  8
050
100
AcDbLine
 10
-90.48852498350392
 20
5.917723263273877
 30
0.0
 11
-84.80538901868508
 21
3.910482178034405
 31
0.0
  0
LINE
  5
1CC
330
1F
100
AcDbEntity
  8
050
100
AcDbLine
 10
-90.48852498350382
 20
5.917723263273883
 30
0.0
 11
-93.28282566352655
 21
5.776361010617686
 31
0.0
  0
LINE
  5
1CD
330
1F
100
AcDbEntity
  8
VER
100
AcDbLine
 10
-84.68536144841462
 20
2.739801000743089
 30
0.0
 11
-84.58818335774558
 21
2.705478426484167
 31
0.0
  0
LINE
  5
1CE
330
1F
100
AcDbEntity
  8
050
100
AcDbLine
 10
-93.28282566352664
 20
5.776361010617685
 30
0.0
 11
-84.68536144841462
 21
2.739801000743089
 31
0.0
  0
LINE
  5
1CF
330
1F
100
AcDbEntity
  8
VER
100
AcDbLine
 10
-78.25012082564794
 20
-1.576916273239374
 30
0.0
 11
-82.82680254782453
 21
-2.939279776629951
 31
0.0
  0
LINE
  5
1D0
330
1F
100
AcDbEntity
  8
VER
100
AcDbLine
 10
-78.1983240191993
 20
-1.576916273239374
 30
0.0
 11
-78.25012082564794
 21
-1.576916273239374
 31
0.0
  0
LINE
  5
1D1
330
1F
100
AcDbEntity
  8
VER
100
AcDbLine
 10
-82.82680254782422
 20
-2.939279776629967
 30
0.0
 11
-83.53102274787257
 21
-2.908838357916502
 31
0.0
  0
LINE
  5
1D2
330
1F
100
AcDbEntity
  8
050
100
AcDbLine
 10
-84.68492861717287
 20
-2.739648127988171
 30
0.0
 11
-93.28282566352664
 21
-5.776361010617669
 31
0.0
  0
LINE
  5
1D3
330
1F
100
AcDbEntity
  8
VER
100
AcDbLine
 10
-84.58818335774556
 20
-2.705478426484163
 30
0.0
 11
-84.68492861717287
 21
-2.739648127988171
 31
0.0
  0
LINE
  5
1D4
330
1F
100
AcDbEntity
  8
050
100
AcDbLine
 10
-93.28282566352658
 20
-5.776361010617666
 30
0.0
 11
-90.48852498350388
 21
-5.917723263273861
 31
0.0
  0
LINE
  5
1D5
330
1F
100
AcDbEntity
  8
050
100
AcDbLine
 10
-84.80426635576946
 20
-3.910085661895575
 30
0.0
 11
-90.48852498350394
 21
-5.917723263273865
 31
0.0
  0
LINE
  5
1D6
330
1F
100
AcDbEntity
  8
VER
100
AcDbLine
 10
-78.1983240191993
 20
-1.576916273239374
 30
0.0
 11
-84.80426635576946
 21
-3.910085661895575
 31
0.0
  0
ELLIPSE
  5
1D7
330
1F
100
AcDbEntity
  8
050
100
AcDbEllipse
 10
-91.66759364261121
 20
-0.0000000000000018
 30
0.0
 11
1.745121688784956E-15
 21
28.49999999999964
 31
0.0
210
0.0
220
0.0
230
1.0
 40
0.7071067811865478
 41
1.194259558275641
 42
1.920625677365343
  0
LINE
  5
1D8
330
1F
100
AcDbEntity
  8
VER
100
AcDbLine
 10
-91.66759364261091
 20
28.50000000000001
 30
0.0
 11
-98.2436867076458
 21
28.50000000000001
 31
0.0
  0
LINE
  5
1D9
330
1F
100
AcDbEntity
  8
VER
100
AcDbLine
 10
-98.2436867076458
 20
-28.5
 30
0.0
 11
-91.66759364261091
 21
-28.5
 31
0.0
  0
ELLIPSE
  5
1DA
330
1F
100
AcDbEntity
  8
VER
100
AcDbEllipse
 10
-91.66759364261078
 20
-0.0000000000003766
 30
0.0
 11
2.705820665023895E-14
 21
28.50000000000043
 31
0.0
210
0.0
220
0.0
230
1.0
 40
0.7071067811865486
 41
1.920625677365325
 42
7.477444865455222
  0
LINE
  5
1DB
330
1F
100
AcDbEntity
  8
050
100
AcDbLine
 10
-91.12639754246476
 20
-34.68297466443778
 30
0.0
 11
-99.49896174645522
 21
-34.68297466443778
 31
0.0
  0
LINE
  5
1DC
330
1F
100
AcDbEntity
  8
050
100
AcDbLine
 10
-74.70878974275713
 20
-25.06576267709137
 30
0.0
 11
-91.12639754246476
 21
-34.68297466443778
 31
0.0
  0
LINE
  5
1DD
330
1F
100
AcDbEntity
  8
050
100
AcDbLine
 10
-74.70878974275713
 20
-25.06576267709137
 30
0.0
 11
-83.08135394673441
 21
-25.06576267709137
 31
0.0
  0
LWPOLYLINE
  5
1DE
330
1F
100
AcDbEntity
  8
VER
100
AcDbPolyline
 90
        5
 70
     0
 43
0.0
 10
-84.58818335774558
 20
2.705478426484167
 10
-84.55038265126794
 20
2.729396767249402
 10
-84.33030535774554
 20
2.811356874181847
 10
-83.98755111267555
 20
2.872979891269182
 10
-83.53102274787265
 20
2.90883835791652
  0
LWPOLYLINE
  5
1DF
330
1F
100
AcDbEntity
  8
VER
100
AcDbPolyline
 90
        4
 70
     0
 43
0.0
 10
-84.58818335774556
 20
-2.705478426484163
 10
-84.48951514430524
 20
-0.8148623170739893
 10
-84.4975685576908
 20
1.099466126616549
 10
-84.58818335774558
 20
2.705478426484167
  0
LWPOLYLINE
  5
1E0
330
1F
100
AcDbEntity
  8
VER
100
AcDbPolyline
 90
        5
 70
     0
 43
0.0
 10
-83.53102274787265
 20
-2.908838357916502
 10
-83.88858976178331
 20
-2.883992165602538
 10
-84.18909083275989
 20
-2.842359376526838
 10
-84.42789511984792
 20
-2.782397439598902
 10
-84.58818335774556
 20
-2.705478426484163
  0
ELLIPSE
  5
1E1
330
1F
100
AcDbEntity
  8
050
100
AcDbEllipse
 10
-98.95079348883232
 20
0.0000000000000142
 30
0.0
 11
-2.429019539384725E-13
 21
22.00000000000002
 31
0.0
210
0.0
220
0.0
230
1.0
 40
0.7071067811865468
 41
2.470772158925517
 42
3.140918747425677
  0
LWPOLYLINE
  5
1E2
330
1F
100
AcDbEntity
  8
050
100
AcDbPolyline
 90
        3
 70
     0
 43
0.0
 10
-109.3064680515609
 20
-17.33920576926638
 10
-108.824587826331
 20
-17.25346700001406
 10
-108.6210697125631
 20
-17.23286150102465
  0
LWPOLYLINE
  5
1E3
330
1F
100
AcDbEntity
  8
050
100
AcDbPolyline
 90
        6
 70
     0
 43
0.0
 10
-112.5816063476497
 20
-13.44749590164517
 10
-112.0818101148666
 20
-14.17642434770007
 10
-111.4412654406155
 20
-15.02690180393614
 10
-110.7652914454739
 20
-15.83763435895252
 10
-110.0519240839322
 20
-16.61048436894476
 10
-109.3064680515609
 20
-17.33920576926638
  0
LWPOLYLINE
  5
1E4
330
1F
100
AcDbEntity
  8
VER
100
AcDbPolyline
 90
        5
 70
     0
 43
0.0
 10
-111.4771664139544
 20
-13.04530423874953
 10
-111.6248551307254
 20
-13.07260668707575
 10
-112.0636886608776
 20
-13.20577550420673
 10
-112.5370960486567
 20
-13.42348540346149
 10
-112.5816063476497
 20
-13.44749590164517
  0
ELLIPSE
  5
1E5
330
1F
100
AcDbEntity
  8
VER
100
AcDbEllipse
 10
-98.95079348884198
 20
-0.000000000009468
 30
0.0
 11
-5.115759258973751E-13
 21
21.99999999998344
 31
0.0
210
0.0
220
0.0
230
1.0
 40
0.7071067811865545
 41
-4.125304468013482
 42
-4.077648733471435
  0
ELLIPSE
  5
1E6
330
1F
100
AcDbEntity
  8
050
100
AcDbEllipse
 10
-98.95079348883253
 20
0.000000000000008
 30
0.0
 11
1.347111479062076E-15
 21
21.9999999999998
 31
0.0
210
0.0
220
0.0
230
1.0
 40
0.7071067811865474
 41
0.9477924967893969
 42
2.157880839166143
  0
ELLIPSE
  5
1E7
330
1F
100
AcDbEntity
  8
VER
100
AcDbEllipse
 10
-98.95079348881539
 20
-0.000000000004464
 30
0.0
 11
-1.538634400983067E-11
 21
22.00000000000724
 31
0.0
210
0.0
220
0.0
230
1.0
 40
0.7071067811870233
 41
0.9009935030365073
 42
0.9477924967888931
  0
LWPOLYLINE
  5
1E8
330
1F
100
AcDbEntity
  8
VER
100
AcDbPolyline
 90
        3
 70
     0
 43
0.0
 10
-112.1824553247799
 20
14.03457865851364
 10
-111.6105430616199
 20
13.77673010845906
 10
-111.1461015625593
 20
13.65829132702122
  0
LWPOLYLINE
  5
1E9
330
1F
100
AcDbEntity
  8
050
100
AcDbPolyline
 90
        5
 70
     0
 43
0.0
 10
-108.797100602423
 20
17.79573177112733
 10
-109.7021513492347
 20
16.96181650717507
 10
-110.5688510018769
 20
16.05841771543718
 10
-111.3991959953089
 20
15.07981235887253
 10
-112.1824553247799
 20
14.03457865851364
  0
LWPOLYLINE
  5
1EA
330
1F
100
AcDbEntity
  8
050
100
AcDbPolyline
 90
        3
 70
     0
 43
0.0
 10
-108.187791041691
 20
17.70185731546178
 10
-108.4625556003878
 20
17.7331392834607
 10
-108.797100602423
 20
17.79573177112733
  0
ELLIPSE
  5
1EB
330
1F
100
AcDbEntity
  8
VER
100
AcDbEllipse
 10
-98.95079348771061
 20
0.0000000012926797
 30
0.0
 11
-2.237647385729316E-9
 21
21.99999999870732
 31
0.0
210
0.0
220
0.0
230
1.0
 40
0.7071067811864649
 41
6.277779997771392
 42
6.282820102707849
  0
ELLIPSE
  5
1EC
330
1F
100
AcDbEntity
  8
VER
100
AcDbEllipse
 10
-98.95079348883249
 20
-0.0000000000000249
 30
0.0
 11
4.042696194586760E-14
 21
22.0
 31
0.0
210
0.0
220
0.0
230
1.0
 40
0.7071067811865486
 41
4.844997215566021
 42
6.203858210554304
  0
LWPOLYLINE
  5
1ED
330
1F
100
AcDbEntity
  8
050
100
AcDbPolyline
 90
       68
 70
     0
 43
0.0
 10
-98.9463180895392
 20
21.99999888726671
 10
-98.56824370296339
 20
21.99186873810029
 10
-97.88113370507834
 20
21.93637215608286
 10
-97.19598505193505
 20
21.82846589487924
 10
-96.51602917228426
 20
21.66893658479261
 10
-95.84384347542995
 20
21.45905268968984
 10
-95.18122784005259
 20
21.20024873230694
 10
-94.52934879758749
 20
20.89388651999399
 10
-93.88899156917407
 20
20.54114523300389
 10
-93.26079201225771
 20
20.14301467673595
 10
-92.64539671420782
 20
19.70034373943818
 10
-92.04355116600772
 20
19.21390662487983
 10
-91.45613502758881
 20
18.68446630753002
 10
-90.884164414181
 20
18.11282687643563
 10
-90.32877611493913
 20
17.49987300784577
 10
-89.79120335880646
 20
16.84659765561032
 10
-89.2727487986437
 20
16.15411996175369
 10
-88.77475782770486
 20
15.42369544840996
 10
-88.29859380105044
 20
14.65672029839493
 10
-87.84561584681899
 20
13.85473120463052
 10
-87.41715945967887
 20
13.01940196099135
 10
-87.01454669482104
 20
12.15259862239086
 10
-86.63901130226114
 20
11.25625323393583
 10
-86.29171463464378
 20
10.3323955456708
 10
-85.97374484933252
 20
9.383162034628675
 10
-85.68610825877003
 20
8.410786587208593
 10
-85.42972218053961
 20
7.417590883313652
 10
-85.20540907563586
 20
6.405974667955196
 10
-85.0138917796491
 20
5.378406027040495
 10
-84.8557896562593
 20
4.337411742183279
 10
-84.73161552675181
 20
3.285567766774534
 10
-84.6417732525285
 20
2.225489840276078
 10
-84.58655586953591
 20
1.159824238379833
 10
-84.56614419411991
 20
0.091238641980754
 10
-84.58060583919917
 20
-0.9775869030100349
 10
-84.6298936117369
 20
-2.043953222997759
 10
-84.71384359398644
 20
-3.10516098453771
 10
-84.83217796910213
 20
-4.158549056657359
 10
-84.98450565635116
 20
-5.201481265243607
 10
-85.17032326747076
 20
-6.231355580488653
 10
-85.38901650069506
 20
-7.245613470219253
 10
-85.63986204698
 20
-8.241749447787107
 10
-85.92203010643746
 20
-9.217320837588966
 10
-86.23458763875274
 20
-10.16995776672086
 10
-86.576502499785
 20
-11.09737337101825
 10
-86.94664864766555
 20
-11.99737417611926
 10
-87.34381263526457
 20
-12.86787057726175
 10
-87.76670164117685
 20
-13.70688729285571
 10
-88.21395332692717
 20
-14.51257360346911
 10
-88.684146324123
 20
-15.28321073325563
 10
-89.1757621365272
 20
-16.01714685071139
 10
-89.6872885311811
 20
-16.71295042742613
 10
-90.21720404366464
 20
-17.36934892362402
 10
-90.7640019747944
 20
-17.98523252994974
 10
-91.32621820041255
 20
-18.55965405556785
 10
-91.90246278447043
 20
-19.0918236057443
 10
-92.49145491826707
 20
-19.58109634119514
 10
-93.0920599271408
 20
-20.02695130422643
 10
-93.70332577401406
 20
-20.42895909674716
 10
-94.32451436794999
 20
-20.78673631160466
 10
-94.95511972264426
 20
-21.09988546786984
 10
-95.59486038696525
 20
-21.36792154201465
 10
-96.24362801417831
 20
-21.59019122887553
 10
-96.9013697741986
 20
-21.76580025261424
 10
-97.56788592524387
 20
-21.89357774789503
 10
-98.24254720601314
 20
-21.97212060623415
 10
-98.92399174357811
 20
-21.99996009255604
 10
-98.95938751857565
 20
-21.99999589681377
  0
ELLIPSE
  5
1EE
330
1F
100
AcDbEntity
  8
VER
100
AcDbEllipse
 10
-98.95079348883223
 20
-0.000000000000183
 30
0.0
 11
1.347111479062073E-15
 21
21.99999999999974
 31
0.0
210
0.0
220
0.0
230
1.0
 40
0.7071067811865472
 41
3.241799505793761
 42
4.579780745203367
  0
ELLIPSE
  5
1EF
330
1F
100
AcDbEntity
  8
VER
100
AcDbEllipse
 10
-98.95079348881735
 20
-0.000000000016005
 30
0.0
 11
2.967272357837955E-11
 21
21.99999999998399
 31
0.0
210
0.0
220
0.0
230
1.0
 40
0.7071067811865259
 41
3.140918747426637
 42
3.184699316900019
  0
ELLIPSE
  5
1F0
330
1F
100
AcDbEntity
  8
050
100
AcDbEllipse
 10
-98.95079348883267
 20
0.0000000000002593
 30
0.0
 11
2.700210834383462E-13
 21
21.99999999999969
 31
0.0
210
0.0
220
0.0
230
1.0
 40
0.7071067811865457
 41
6.2828201027796
 42
6.918929764674769
  0
ELLIPSE
  5
1F1
330
1F
100
AcDbEntity
  8
050
100
AcDbEllipse
 10
-101.7792206135785
 20
0.0000000000000078
 30
0.0
 11
-4.776122516674682E-15
 21
-26.00000000000002
 31
0.0
210
0.0
220
0.0
230
1.0
 40
0.7071067811865487
 41
0.0
 42
6.283185307179586
  0
ELLIPSE
  5
1F2
330
1F
100
AcDbEntity
  8
050
100
AcDbEllipse
 10
-68.44959003054237
 20
0.0000000000000086
 30
0.0
 11
-3.673940397442163E-16
 21
-2.000000000000056
 31
0.0
210
0.0
220
0.0
230
1.0
 40
0.7071067811866398
 41
1.178097245096187
 42
1.963495408493606
  0
LWPOLYLINE
  5
1F3
330
1F
100
AcDbEntity
  8
VER
100
AcDbPolyline
 90
        7
 70
     0
 43
0.0
 10
-124.5647244235248
 20
-0.7653668647301768
 10
-124.4637642504279
 20
-0.4704839823258388
 10
-124.4012226774572
 20
-0.1973709466317257
 10
-124.386541630456
 20
0.0127897076209956
 10
-124.4050126516904
 20
0.221823206072787
 10
-124.4755296210038
 20
0.5089528267660823
 10
-124.5647244235334
 20
0.7653668647301823
  0
LWPOLYLINE
  5
1F4
330
1F
100
AcDbEntity
  8
VER
100
AcDbPolyline
 90
        4
 70
     0
 43
0.0
 10
-117.7643286111722
 20
-23.98337047679897
 10
-118.087069456772
 20
-23.61563254210748
 10
-118.3907900406439
 20
-23.2156011465589
 10
-118.771622815262
 20
-22.6427839328402
  0
LWPOLYLINE
  5
1F5
330
1F
100
AcDbEntity
  8
VER
100
AcDbPolyline
 90
        7
 70
     0
 43
0.0
 10
-116.9989617464553
 20
-25.06576267709137
 10
-117.02550148251
 20
-24.92533801103221
 10
-117.0899031278016
 20
-24.76496550004569
 10
-117.178267729465
 20
-24.62323903035531
 10
-117.3037955962201
 20
-24.4667249135712
 10
-117.5288858946209
 20
-24.22592726234768
 10
-117.7643286111722
 20
-23.98337047679898
  0
LWPOLYLINE
  5
1F6
330
1F
100
AcDbEntity
  8
050
100
AcDbPolyline
 90
       18
 70
     0
 43
0.0
 10
-100.5813539467344
 20
-34.68297466443777
 10
-101.0563318181708
 20
-34.53068135354251
 10
-101.525667635589
 20
-34.36501596256173
 10
-102.4512624372755
 20
-34.00269213098039
 10
-103.5845035277357
 20
-33.50776183052142
 10
-104.6629724457526
 20
-32.99516737646587
 10
-105.707417353937
 20
-32.46767543990772
 10
-106.7140744784152
 20
-31.93584617446604
 10
-108.1397555491997
 20
-31.15189001583414
 10
-109.5214189898301
 20
-30.36582763095906
 10
-112.1869055164548
 20
-28.78902123882591
 10
-113.4518170010658
 20
-28.004728706531
 10
-114.6493209188821
 20
-27.2216474080604
 10
-115.2153197894735
 20
-26.82758227580604
 10
-115.7434456163874
 20
-26.43584367077953
 10
-116.2227375384765
 20
-26.04564955284275
 10
-116.6268039220285
 20
-25.66298723590094
 10
-116.7884659160961
 20
-25.47706851076152
  0
LWPOLYLINE
  5
1F7
330
1F
100
AcDbEntity
  8
050
100
AcDbPolyline
 90
        4
 70
     0
 43
0.0
 10
-99.49896174644162
 20
-34.68297466443423
 10
-99.53849629696406
 20
-34.77903252464836
 10
-99.63627780189269
 20
-34.82543906747856
 10
-99.75428192796976
 20
-34.83521559920418
  0
LWPOLYLINE
  5
1F8
330
1F
100
AcDbEntity
  8
050
100
AcDbPolyline
 90
       19
 70
     0
 43
0.0
 10
-83.08135394673441
 20
-25.06576267709137
 10
-83.55633181817076
 20
-25.21805598798665
 10
-84.02566763558895
 20
-25.38372137896743
 10
-84.95126243727553
 20
-25.74604521054877
 10
-86.08450352773573
 20
-26.24097551100775
 10
-87.16297244575256
 20
-26.75356996506329
 10
-88.20741735393703
 20
-27.28106190162146
 10
-89.21407447841521
 20
-27.81289116706314
 10
-90.63975554919975
 20
-28.59684732569502
 10
-92.02141898983004
 20
-29.38290971057009
 10
-94.68690551645474
 20
-30.95971610270324
 10
-95.95181700106575
 20
-31.74400863499813
 10
-97.14932091888203
 20
-32.52708993346871
 10
-97.7153197894734
 20
-32.92115506572306
 10
-98.24344561638735
 20
-33.31289367074957
 10
-98.72273753847644
 20
-33.70308778868635
 10
-99.12680392202839
 20
-34.08575010562816
 10
-99.37780572418286
 20
-34.39488683988746
 10
-99.49896174645522
 20
-34.68297466443778
  0
LWPOLYLINE
  5
1F9
330
1F
100
AcDbEntity
  8
050
100
AcDbPolyline
 90
        7
 70
     0
 43
0.0
 10
-82.31598708200417
 20
-23.98337047679897
 10
-82.24644776498882
 20
-24.25984745398228
 10
-82.26449679201895
 20
-24.48575160711908
 10
-82.34316087641146
 20
-24.64123194955612
 10
-82.48099431612931
 20
-24.78034456165451
 10
-82.75965943744639
 20
-24.94554382045929
 10
-83.08135394673441
 20
-25.06576267709137
  0
LWPOLYLINE
  5
1FA
330
1F
100
AcDbEntity
  8
050
100
AcDbPolyline
 90
        7
 70
     0
 43
0.0
 10
-75.51559126964295
 20
0.765366864730189
 10
-75.27870452683707
 20
0.4704839823258556
 10
-75.15059480057582
 20
0.1973709466317353
 10
-75.12216511523238
 20
-0.0127897076209852
 10
-75.15802891920278
 20
-0.2218232060727742
 10
-75.30420997590693
 20
-0.508952826766069
 10
-75.51559126964297
 20
-0.7653668647301707
  0
LWPOLYLINE
  5
1FB
330
1F
100
AcDbEntity
  8
050
100
AcDbPolyline
 90
        7
 70
     0
 43
0.0
 10
-83.08135394674088
 20
25.06576267709139
 10
-82.71718761745436
 20
24.92533801103223
 10
-82.46197510462899
 20
24.76496550004572
 10
-82.33043521707638
 20
24.62323903035537
 10
-82.25919315373085
 20
24.46672491357127
 10
-82.25068445193575
 20
24.22592726234779
 10
-82.31598708200418
 20
23.983370476799
  0
LWPOLYLINE
  5
1FC
330
1F
100
AcDbEntity
  8
050
100
AcDbPolyline
 90
       24
 70
     0
 43
0.0
 10
-98.95079348883235
 20
35.00000000000001
 10
-99.18651518264089
 20
34.98224013703077
 10
-99.39721580238304
 20
34.90621668692923
 10
-99.47979456545919
 20
34.81281960741624
 10
-99.50010864184873
 20
34.69705772200528
 10
-99.4210818926957
 20
34.46600605300345
 10
-99.2352213422696
 20
34.2066811553902
 10
-98.86028448381907
 20
33.82531819802087
 10
-98.38919839327248
 20
33.42703338412664
 10
-97.84403313856527
 20
33.01403712482776
 10
-97.25012698867953
 20
32.5958103291886
 10
-95.86290974431196
 20
31.68774332311543
 10
-94.37964688785661
 20
30.77350965156108
 10
-92.83199638506713
 20
29.85396013863348
 10
-91.23675969900157
 20
28.93371891530326
 10
-89.40906547261683
 20
27.91817096415398
 10
-88.45616815942459
 20
27.41053066306402
 10
-87.46742587180293
 20
26.90446016062159
 10
-86.242721743042
 20
26.31385939062552
 10
-85.59516129949263
 20
26.02115617934859
 10
-84.9200501614722
 20
25.73315446665652
 10
-84.0365070656848
 20
25.38770498311285
 10
-83.56724604816478
 20
25.22174827649226
 10
-83.08135394674088
 20
25.06576267709139
  0
LWPOLYLINE
  5
1FD
330
1F
100
AcDbEntity
  8
VER
100
AcDbPolyline
 90
        4
 70
     0
 43
0.0
 10
-116.998961746442
 20
25.0657626770914
 10
-116.9539777303611
 20
25.21805598798666
 10
-116.8576965230768
 20
25.38372137896744
 10
-116.7882967492944
 20
25.47728280600263
  0
LWPOLYLINE
  5
1FE
330
1F
100
AcDbEntity
  8
VER
100
AcDbPolyline
 90
        7
 70
     0
 43
0.0
 10
-117.7643286111722
 20
23.983370476799
 10
-117.4960210052962
 20
24.25984745398229
 10
-117.287320684089
 20
24.48575160711909
 10
-117.1655458693979
 20
24.64123194955613
 10
-117.0820472564385
 20
24.78034456165453
 10
-117.0200801648304
 20
24.94554382045933
 10
-116.9989617464421
 20
25.06576267709139
  0
LWPOLYLINE
  5
1FF
330
1F
100
AcDbEntity
  8
VER
100
AcDbPolyline
 90
        5
 70
     0
 43
0.0
 10
-124.5647244235334
 20
0.7653668647301942
 10
-124.7263812373617
 20
1.424920002592669
 10
-124.7837121344007
 20
2.033362595830027
 10
-124.7889925729466
 20
2.674061543460375
 10
-124.7647472305917
 20
3.186567928679097
  0
ELLIPSE
  5
200
330
1F
100
AcDbEntity
  8
050
100
AcDbEllipse
 10
-101.7792206135785
 20
0.0000000000000078
 30
0.0
 11
-5.694607616035196E-15
 21
-31.00000000000002
 31
0.0
210
0.0
220
0.0
230
1.0
 40
0.7071067811865486
 41
0.0
 42
6.283185307179586
  0
LWPOLYLINE
  5
201
330
1F
100
AcDbEntity
  8
050
100
AcDbPolyline
 90
        4
 70
     0
 43
0.0
 10
-124.8711037056153
 20
0.0000000000000063
 10
-124.8655040941569
 20
-0.7319273757540771
 10
-124.8253836754856
 20
-2.090584487620211
 10
-124.764596711578
 20
-3.188884486667246
  0
LWPOLYLINE
  5
202
330
1F
100
AcDbEntity
  8
050
100
AcDbPolyline
 90
        5
 70
     0
 43
0.0
 10
-118.7711247012083
 20
-22.64362678555806
 10
-118.4406253900916
 20
-23.1622150228228
 10
-117.7551522617703
 20
-24.17532639044365
 10
-117.0398087063126
 20
-25.15181059609372
 10
-116.7818448811617
 20
-25.48554437309426
  0
LWPOLYLINE
  5
203
330
1F
100
AcDbEntity
  8
050
100
AcDbPolyline
 90
        5
 70
     0
 43
0.0
 10
-116.7814422243025
 20
25.48605806366128
 10
-117.0684851378176
 20
25.11413095178106
 10
-117.7790437325113
 20
24.14134552033122
 10
-118.4604396736435
 20
23.13170236470567
 10
-118.7704946280042
 20
22.64463537523699
  0
LWPOLYLINE
  5
204
330
1F
100
AcDbEntity
  8
050
100
AcDbPolyline
 90
        4
 70
     0
 43
0.0
 10
-124.7646330540364
 20
3.188341545209185
 10
-124.8257522030693
 20
2.082149523513668
 10
-124.8656320531667
 20
0.72351718804944
 10
-124.8711037056153
 20
0.0000000000000063
  0
LWPOLYLINE
  5
205
330
1F
100
AcDbEntity
  8
050
100
AcDbPolyline
 90
       15
 70
     0
 43
0.0
 10
-118.771622815262
 20
-22.6427839328402
 10
-118.9541485158498
 20
-22.3406927657259
 10
-119.5925510059143
 20
-21.14557306908346
 10
-120.158499531969
 20
-19.90780397664232
 10
-120.6755165783878
 20
-18.63406672588277
 10
-121.1504026434249
 20
-17.34985957609008
 10
-121.8841032904543
 20
-15.17237562772471
 10
-122.559629921348
 20
-12.98848121396807
 10
-123.1916391348268
 20
-10.79728116712163
 10
-123.773742580096
 20
-8.605602264528182
 10
-124.131429342308
 20
-7.106607903818846
 10
-124.4393532731793
 20
-5.611072385179809
 10
-124.6719419858395
 20
-4.13246131266728
 10
-124.7488389258062
 20
-3.398407869441268
 10
-124.7647156646773
 20
-3.187034916511379
  0
LWPOLYLINE
  5
206
330
1F
100
AcDbEntity
  8
VER
100
AcDbPolyline
 90
        5
 70
     0
 43
0.0
 10
-124.7647156646773
 20
-3.187034916511379
 10
-124.7889925729466
 20
-2.674061543458787
 10
-124.783966518244
 20
-2.038904251869599
 10
-124.7263812373618
 20
-1.424920002592987
 10
-124.5647244235313
 20
-0.765366864724637
  0
LWPOLYLINE
  5
207
330
1F
100
AcDbEntity
  8
VER
100
AcDbPolyline
 90
        3
 70
     0
 43
0.0
 10
-116.7884659160961
 20
-25.47706851076152
 10
-116.8778057241829
 20
-25.35385050164167
 10
-116.9989617464417
 20
-25.06576267709491
  0
LWPOLYLINE
  5
208
330
1F
100
AcDbEntity
  8
050
100
AcDbPolyline
 90
       22
 70
     0
 43
0.0
 10
-116.7882967492944
 20
25.47728280600263
 10
-116.5462403850074
 20
25.74604521054878
 10
-115.9896837312112
 20
26.24097551100775
 10
-115.3180457121943
 20
26.7535699650633
 10
-114.5615204965394
 20
27.28106190162147
 10
-113.7523989300797
 20
27.81289116706314
 10
-112.3081491184084
 20
28.71514753120078
 10
-110.799259261162
 20
29.62006255419296
 10
-109.2395073060535
 20
30.52800735452134
 10
-107.6293281917492
 20
31.43615061784099
 10
-106.4913179593576
 20
32.05526897995155
 10
-105.3073051551321
 20
32.672963041057
 10
-104.0663870182777
 20
33.28320055567317
 10
-103.4121604968021
 20
33.58616785682769
 10
-102.7312151074694
 20
33.88517996441469
 10
-102.080774731382
 20
34.15282601014759
 10
-101.3978496408201
 20
34.41147522292208
 10
-100.8179390080305
 20
34.60924410546573
 10
-100.2109504210342
 20
34.7886551235779
 10
-99.5792069226932
 20
34.9330085502486
 10
-99.0914024784613
 20
34.9955705138248
 10
-98.95079348883233
 20
35.00000000000002
  0
LWPOLYLINE
  5
209
330
1F
100
AcDbEntity
  8
050
100
AcDbPolyline
 90
       15
 70
     0
 43
0.0
 10
-124.7647472305917
 20
3.186567928679097
 10
-124.7496139530967
 20
3.388965286798249
 10
-124.673672157493
 20
4.118598198040424
 10
-124.4393532731791
 20
5.611072385180476
 10
-124.1320416362611
 20
7.103877661906801
 10
-123.773742580096
 20
8.605602264528015
 10
-123.194683485544
 20
10.78633016621784
 10
-122.5649723056779
 20
12.97057871894206
 10
-121.8879173558933
 20
15.16050064075048
 10
-121.1504026434249
 20
17.3498595760902
 10
-120.6859897080626
 20
18.60689591642042
 10
-120.1792541045322
 20
19.85926852511269
 10
-119.6097056627415
 20
21.11050384457545
 10
-118.9541485158498
 20
22.34069276572593
 10
-118.770986603799
 20
22.64380586743717
  0
LWPOLYLINE
  5
20A
330
1F
100
AcDbEntity
  8
VER
100
AcDbPolyline
 90
        4
 70
     0
 43
0.0
 10
-118.770986603799
 20
22.64380586743717
 10
-118.4083376104374
 20
23.19093334823237
 10
-118.1001137653754
 20
23.59951020098727
 10
-117.7643286111722
 20
23.98337047679899
  0
LWPOLYLINE
  5
20B
330
1F
100
AcDbEntity
  8
050
100
AcDbPolyline
 90
       20
 70
     0
 43
0.0
 10
-75.51559126964297
 20
-0.7653668647301707
 10
-76.0636053665252
 20
-1.424920002592342
 10
-76.47735368275767
 20
-2.033362595830468
 10
-76.85794687542767
 20
-2.674061543461663
 10
-77.2373491726337
 20
-3.388965286799363
 10
-77.58881644088173
 20
-4.118598198041342
 10
-78.2287686939025
 20
-5.611072385180947
 10
-78.79592214210852
 20
-7.103877661906963
 10
-79.31731299120946
 20
-8.605602264527876
 10
-80.01569472562197
 20
-10.78633016621776
 10
-80.66548672434794
 20
-12.97057871894202
 10
-81.27125833582056
 20
-15.16050064075049
 10
-81.81624039477143
 20
-17.34985957609026
 10
-82.08818229917874
 20
-18.60689591642046
 10
-82.31506958467567
 20
-19.85926852511271
 10
-82.47847782330601
 20
-21.11050384457545
 10
-82.54354866214312
 20
-22.34069276572591
 10
-82.495797158683
 20
-23.19093334823235
 10
-82.42691209269312
 20
-23.59951020098725
 10
-82.31598708200417
 20
-23.98337047679897
  0
LINE
  5
20C
330
1F
100
AcDbEntity
  8
050
100
AcDbLine
 10
-73.94342287802696
 20
-23.98337047679898
 30
0.0
 11
-82.31598708200417
 21
-23.98337047679897
 31
0.0
  0
LINE
  5
20D
330
1F
100
AcDbEntity
  8
050
100
AcDbLine
 10
-67.14302706566576
 20
-0.7653668647301712
 30
0.0
 11
-73.94342287802696
 21
-23.98337047679898
 31
0.0
  0
LINE
  5
20E
330
1F
100
AcDbEntity
  8
050
100
AcDbLine
 10
-67.14302706566576
 20
-0.7653668647301712
 30
0.0
 11
-75.51559126964297
 21
-0.7653668647301707
 31
0.0
  0
LWPOLYLINE
  5
20F
330
1F
100
AcDbEntity
  8
050
100
AcDbPolyline
 90
       20
 70
     0
 43
0.0
 10
-82.31598708200418
 20
23.983370476799
 10
-82.42331203286075
 20
23.6156325421075
 10
-82.49269965059536
 20
23.21560114655894
 10
-82.54354866214312
 20
22.34069276572594
 10
-82.48186624257379
 20
21.14557306908355
 10
-82.32274642136267
 20
19.90780397664246
 10
-82.09362546118638
 20
18.63406672588295
 10
-81.81624039477144
 20
17.34985957609032
 10
-81.27440047669806
 20
15.17237562772485
 10
-80.67063137880393
 20
12.98848121396809
 10
-80.01906532271259
 20
10.79728116712153
 10
-79.31731299120949
 20
8.605602264527974
 10
-78.796909186839
 20
7.106607903819275
 10
-78.22876869390245
 20
5.611072385180872
 10
-77.59520709376034
 20
4.132461312669123
 10
-77.24210548219216
 20
3.398407869443484
 10
-76.85794687542747
 20
2.674061543461365
 10
-76.48085429355122
 20
2.038904251870587
 10
-76.06360536652527
 20
1.424920002592453
 10
-75.51559126964295
 20
0.765366864730189
  0
LINE
  5
210
330
1F
100
AcDbEntity
  8
050
100
AcDbLine
 10
-67.14302706566576
 20
0.7653668647301884
 30
0.0
 11
-75.51559126964295
 21
0.765366864730189
 31
0.0
  0
LINE
  5
211
330
1F
100
AcDbEntity
  8
050
100
AcDbLine
 10
-73.94342287802696
 20
23.98337047679899
 30
0.0
 11
-67.14302706566576
 21
0.7653668647301884
 31
0.0
  0
LINE
  5
212
330
1F
100
AcDbEntity
  8
050
100
AcDbLine
 10
-73.94342287802696
 20
23.98337047679899
 30
0.0
 11
-82.31598708200418
 21
23.983370476799
 31
0.0
  0
LINE
  5
215
330
1F
100
AcDbEntity
  8
MITTE
100
AcDbLine
 10
25.5
 20
-12.930225
 30
0.0
 11
25.5
 21
12.930225
 31
0.0
  0
LINE
  5
216
330
1F
100
AcDbEntity
  8
MITTE
100
AcDbLine
 10
102.3
 20
0.0
 30
0.0
 11
-102.3
 21
0.0
 31
0.0
  0
ELLIPSE
  5
217
330
1F
100
AcDbEntity
  8
VER
100
AcDbEllipse
 10
-19.60492735832751
 20
-0.0000000000000142
 30
0.0
 11
-4.136810963264788E-15
 21
-22.51974999999998
 31
0.0
210
0.0
220
0.0
230
1.0
 40
0.7071067811865476
 41
0.0
 42
6.283185307179586
  0
ELLIPSE
  5
218
330
1F
100
AcDbEntity
  8
VER
100
AcDbEllipse
 10
-89.58162863811067
 20
0.0000000000000151
 30
0.0
 11
-1.561981751485803E-14
 21
5.999999999999993
 31
0.0
210
0.0
220
0.0
230
1.0
 40
0.7071067811865446
 41
0.0
 42
6.283185307179586
  0
ELLIPSE
  5
219
330
1F
100
AcDbEntity
  8
VER
100
AcDbEllipse
 10
-74.55720052815414
 20
0.0000000000000018
 30
0.0
 11
3.673940397442075E-16
 21
6.000000000000025
 31
0.0
210
0.0
220
0.0
230
1.0
 40
0.7071067811865479
 41
0.0
 42
6.283185307179586
  0
ELLIPSE
  5
21A
330
1F
100
AcDbEntity
  8
050
100
AcDbEllipse
 10
-99.6579002700189
 20
0.0000000000000053
 30
0.0
 11
6.123233995736772E-16
 21
10.00000000000001
 31
0.0
210
0.0
220
0.0
230
1.0
 40
0.7071067811865482
 41
0.0
 42
6.283185307179586
  0
ELLIPSE
  5
21B
330
1F
100
AcDbEntity
  8
VER
100
AcDbEllipse
 10
-98.243686707646
 20
-0.0000000000000853
 30
0.0
 11
3.971474913096571E-14
 21
28.50000000000027
 31
0.0
210
0.0
220
0.0
230
1.0
 40
0.7071067811865485
 41
0.0
 42
6.283185307179586
  0
ENDSEC
  0
SECTION
  2
OBJECTS
  0
DICTIONARY
  5
C
330
0
100
AcDbDictionary
281
     1
  3
ACAD_DETAILVIEWSTYLE
350
223
  3
ACAD_GROUP
350
D
  3
ACAD_LAYOUT
350
1A
  3
ACAD_MATERIAL
350
43
  3
ACAD_MLEADERSTYLE
350
6B
  3
ACAD_MLINESTYLE
350
17
  3
ACAD_PLOTSETTINGS
350
19
  3
ACAD_PLOTSTYLENAME
350
E
  3
ACAD_SCALELIST
350
47
  3
ACAD_SECTIONVIEWSTYLE
350
224
  3
ACAD_TABLESTYLE
350
69
  3
ACAD_VISUALSTYLE
350
2A
  3
ACDB_RECOMPOSE_DATA
350
220
  3
AcDbVariableDictionary
350
21C
  0
SUN
  5
6D
330
29
100
AcDbSun
 90
        1
290
     0
 63
     7
421
 16777215
 40
1.0
291
     1
 91
  2455826
 92
 54000000
292
     0
 70
     2
 71
   256
280
     1
  0
DICTIONARY
  5
223
102
{ACAD_REACTORS
330
C
102
}
330
C
100
AcDbDictionary
281
     1
  0
DICTIONARY
  5
D
102
{ACAD_REACTORS
330
C
102
}
330
C
100
AcDbDictionary
281
     1
  0
DICTIONARY
  5
1A
102
{ACAD_REACTORS
330
C
102
}
330
C
100
AcDbDictionary
281
     1
  3
Layout1
350
1E
  3
Layout2
350
26
  3
Model
350
22
  0
DICTIONARY
  5
43
102
{ACAD_REACTORS
330
C
102
}
330
C
100
AcDbDictionary
281
     1
  3
ByBlock
350
45
  3
ByLayer
350
44
  3
Global
350
46
  0
DICTIONARY
  5
6B
102
{ACAD_REACTORS
330
C
102
}
330
C
100
AcDbDictionary
281
     1
  3
Standard
350
6C
  0
DICTIONARY
  5
17
102
{ACAD_REACTORS
330
C
102
}
330
C
100
AcDbDictionary
281
     1
  3
Standard
350
18
  0
DICTIONARY
  5
19
102
{ACAD_REACTORS
330
C
102
}
330
C
100
AcDbDictionary
281
     1
  0
ACDBDICTIONARYWDFLT
  5
E
102
{ACAD_REACTORS
330
C
102
}
330
C
100
AcDbDictionary
281
     1
  3
Normal
350
F
100
AcDbDictionaryWithDefault
340
F
  0
DICTIONARY
  5
47
102
{ACAD_REACTORS
330
C
102
}
330
C
100
AcDbDictionary
281
     1
  3
A0
350
48
  3
A1
350
49
  3
A2
350
4A
  3
A3
350
4B
  3
A4
350
4C
  3
A5
350
4D
  3
A6
350
4E
  3
A7
350
4F
  3
A8
350
50
  3
A9
350
51
  3
B0
350
52
  3
B1
350
53
  3
B2
350
54
  3
B3
350
55
  3
B4
350
56
  3
B5
350
57
  3
B6
350
58
  3
B7
350
59
  3
B8
350
5A
  3
B9
350
5B
  3
C0
350
5C
  3
C1
350
5D
  3
C2
350
5E
  3
C3
350
5F
  3
C4
350
60
  3
C5
350
61
  3
C6
350
62
  3
C7
350
63
  3
C8
350
64
  3
C9
350
65
  3
D0
350
66
  3
D1
350
67
  3
D2
350
68
  0
DICTIONARY
  5
224
102
{ACAD_REACTORS
330
C
102
}
330
C
100
AcDbDictionary
281
     1
  0
DICTIONARY
  5
69
102
{ACAD_REACTORS
330
C
102
}
330
C
100
AcDbDictionary
281
     1
  3
Standard
350
6A
  0
DICTIONARY
  5
2A
102
{ACAD_REACTORS
330
C
102
}
330
C
100
AcDbDictionary
281
     1
  3
2dWireframe
350
2F
  3
Basic
350
32
  3
Brighten
350
36
  3
ColorChange
350
3A
  3
Conceptual
350
34
  3
Dim
350
35
  3
EdgeColorOff
350
3D
  3
Facepattern
350
39
  3
Flat
350
2B
  3
FlatWithEdges
350
2C
  3
Gouraud
350
2D
  3
GouraudWithEdges
350
2E
  3
Hidden
350
31
  3
JitterOff
350
3B
  3
Linepattern
350
38
  3
OverhangOff
350
3C
  3
Realistic
350
33
  3
Shaded
350
42
  3
Shaded with edges
350
41
  3
Shades of Gray
350
3E
  3
Sketchy
350
3F
  3
Thicken
350
37
  3
Wireframe
350
30
  3
X-Ray
350
40
  0
XRECORD
  5
220
102
{ACAD_REACTORS
330
C
102
}
330
C
100
AcDbXrecord
280
     1
 90
        1
330
6A
  0
DICTIONARY
  5
21C
102
{ACAD_REACTORS
330
C
102
}
330
C
100
AcDbDictionary
281
     1
  3
CANNOSCALE
350
21D
  3
CMLEADERSTYLE
350
222
  3
CTABLESTYLE
350
221
  3
SECTIONTHICKNESSINC
350
225
  0
LAYOUT
  5
1E
102
{ACAD_REACTORS
330
1A
102
}
330
1A
100
AcDbPlotSettings
  1

  2
none_device
  4

  6

 40
0.0
 41
0.0
 42
0.0
 43
0.0
 44
0.0
 45
0.0
 46
0.0
 47
0.0
 48
0.0
 49
0.0
140
0.0
141
0.0
142
1.0
143
1.0
 70
   688
 72
     1
 73
     0
 74
     5
  7

 75
    16
 76
     0
 77
     2
 78
   300
147
1.0
148
0.0
149
0.0
100
AcDbLayout
  1
Layout1
 70
     1
 71
     1
 10
0.0
 20
0.0
 11
420.0
 21
297.0
 12
0.0
 22
0.0
 32
0.0
 14
1.000000000000000E+20
 24
1.000000000000000E+20
 34
1.000000000000000E+20
 15
-1.000000000000000E+20
 25
-1.000000000000000E+20
 35
-1.000000000000000E+20
146
0.0
 13
0.0
 23
0.0
 33
0.0
 16
1.0
 26
0.0
 36
0.0
 17
0.0
 27
1.0
 37
0.0
 76
     0
330
1B
  0
LAYOUT
  5
26
102
{ACAD_REACTORS
330
1A
102
}
330
1A
100
AcDbPlotSettings
  1

  2
none_device
  4

  6

 40
0.0
 41
0.0
 42
0.0
 43
0.0
 44
0.0
 45
0.0
 46
0.0
 47
0.0
 48
0.0
 49
0.0
140
0.0
141
0.0
142
1.0
143
1.0
 70
   688
 72
     1
 73
     0
 74
     5
  7

 75
    16
 76
     0
 77
     2
 78
   300
147
1.0
148
0.0
149
0.0
100
AcDbLayout
  1
Layout2
 70
     1
 71
     2
 10
0.0
 20
0.0
 11
0.0
 21
0.0
 12
0.0
 22
0.0
 32
0.0
 14
0.0
 24
0.0
 34
0.0
 15
0.0
 25
0.0
 35
0.0
146
0.0
 13
0.0
 23
0.0
 33
0.0
 16
1.0
 26
0.0
 36
0.0
 17
0.0
 27
1.0
 37
0.0
 76
     0
330
23
  0
LAYOUT
  5
22
102
{ACAD_REACTORS
330
1A
102
}
330
1A
100
AcDbPlotSettings
  1

  2
none_device
  4
Letter_(8.50_x_11.00_Inches)
  6

 40
6.35
 41
6.35
 42
6.35000508
 43
6.35000508
 44
215.9
 45
279.4
 46
0.0
 47
0.0
 48
0.0
 49
0.0
140
0.0
141
0.0
142
1.0
143
1.0
 70
  1712
 72
     1
 73
     0
 74
     0
  7

 75
     0
 76
     0
 77
     2
 78
   300
147
1.0
148
0.0
149
0.0
100
AcDbLayout
  1
Model
 70
     1
 71
     0
 10
0.0
 20
0.0
 11
420.0
 21
297.0
 12
0.0
 22
0.0
 32
0.0
 14
1.000000000000000E+20
 24
1.000000000000000E+20
 34
1.000000000000000E+20
 15
-1.000000000000000E+20
 25
-1.000000000000000E+20
 35
-1.000000000000000E+20
146
0.0
 13
0.0
 23
0.0
 33
0.0
 16
1.0
 26
0.0
 36
0.0
 17
0.0
 27
1.0
 37
0.0
 76
     0
330
1F
331
29
  0
MATERIAL
  5
45
102
{ACAD_REACTORS
330
43
102
}
330
43
100
AcDbMaterial
  1
ByBlock
 72
     1
 94
      127
  0
MATERIAL
  5
44
102
{ACAD_REACTORS
330
43
102
}
330
43
100
AcDbMaterial
  1
ByLayer
 72
     1
 94
      127
  0
MATERIAL
  5
46
102
{ACAD_REACTORS
330
43
102
}
330
43
100
AcDbMaterial
  1
Global
 72
     1
 94
      127
  0
MLEADERSTYLE
  5
6C
102
{ACAD_REACTORS
330
6B
102
}
330
6B
100
AcDbMLeaderStyle
179
     2
170
     2
171
     1
172
     0
 90
        2
 40
0.0
 41
0.0
173
     1
 91
-1056964608
340
14
 92
       -2
290
     1
 42
2.0
291
     1
 43
8.0
  3
Standard
341
0
 44
4.0
300

342
11
174
     1
178
     6
175
     1
176
     0
 93
-1056964608
 45
4.0
292
     0
297
     0
 46
4.0
343
0
 94
-1056964608
 47
1.0
 49
1.0
140
1.0
293
     1
141
0.0
294
     1
177
     0
142
1.0
295
     0
296
     0
143
3.75
271
     0
272
     9
273
     9
298
     0
  0
MLINESTYLE
  5
18
102
{ACAD_REACTORS
330
17
102
}
330
17
100
AcDbMlineStyle
  2
Standard
 70
     0
  3

 62
   256
 51
90.0
 52
90.0
 71
     2
 49
0.5
 62
   256
  6
BYLAYER
 49
-0.5
 62
   256
  6
BYLAYER
  0
ACDBPLACEHOLDER
  5
F
102
{ACAD_REACTORS
330
E
102
}
330
E
  0
SCALE
  5
48
102
{ACAD_REACTORS
330
47
102
}
330
47
100
AcDbScale
 70
     0
300
1:1
140
1.0
141
1.0
290
     1
  0
SCALE
  5
49
102
{ACAD_REACTORS
330
47
102
}
330
47
100
AcDbScale
 70
     0
300
1:2
140
1.0
141
2.0
290
     0
  0
SCALE
  5
4A
102
{ACAD_REACTORS
330
47
102
}
330
47
100
AcDbScale
 70
     0
300
1:4
140
1.0
141
4.0
290
     0
  0
SCALE
  5
4B
102
{ACAD_REACTORS
330
47
102
}
330
47
100
AcDbScale
 70
     0
300
1:5
140
1.0
141
5.0
290
     0
  0
SCALE
  5
4C
102
{ACAD_REACTORS
330
47
102
}
330
47
100
AcDbScale
 70
     0
300
1:8
140
1.0
141
8.0
290
     0
  0
SCALE
  5
4D
102
{ACAD_REACTORS
330
47
102
}
330
47
100
AcDbScale
 70
     0
300
1:10
140
1.0
141
10.0
290
     0
  0
SCALE
  5
4E
102
{ACAD_REACTORS
330
47
102
}
330
47
100
AcDbScale
 70
     0
300
1:16
140
1.0
141
16.0
290
     0
  0
SCALE
  5
4F
102
{ACAD_REACTORS
330
47
102
}
330
47
100
AcDbScale
 70
     0
300
1:20
140
1.0
141
20.0
290
     0
  0
SCALE
  5
50
102
{ACAD_REACTORS
330
47
102
}
330
47
100
AcDbScale
 70
     0
300
1:30
140
1.0
141
30.0
290
     0
  0
SCALE
  5
51
102
{ACAD_REACTORS
330
47
102
}
330
47
100
AcDbScale
 70
     0
300
1:40
140
1.0
141
40.0
290
     0
  0
SCALE
  5
52
102
{ACAD_REACTORS
330
47
102
}
330
47
100
AcDbScale
 70
     0
300
1:50
140
1.0
141
50.0
290
     0
  0
SCALE
  5
53
102
{ACAD_REACTORS
330
47
102
}
330
47
100
AcDbScale
 70
     0
300
1:100
140
1.0
141
100.0
290
     0
  0
SCALE
  5
54
102
{ACAD_REACTORS
330
47
102
}
330
47
100
AcDbScale
 70
     0
300
2:1
140
2.0
141
1.0
290
     0
  0
SCALE
  5
55
102
{ACAD_REACTORS
330
47
102
}
330
47
100
AcDbScale
 70
     0
300
4:1
140
4.0
141
1.0
290
     0
  0
SCALE
  5
56
102
{ACAD_REACTORS
330
47
102
}
330
47
100
AcDbScale
 70
     0
300
8:1
140
8.0
141
1.0
290
     0
  0
SCALE
  5
57
102
{ACAD_REACTORS
330
47
102
}
330
47
100
AcDbScale
 70
     0
300
10:1
140
10.0
141
1.0
290
     0
  0
SCALE
  5
58
102
{ACAD_REACTORS
330
47
102
}
330
47
100
AcDbScale
 70
     0
300
100:1
140
100.0
141
1.0
290
     0
  0
SCALE
  5
59
102
{ACAD_REACTORS
330
47
102
}
330
47
100
AcDbScale
 70
     0
300
1/128" = 1'-0"
140
0.0078125
141
12.0
290
     0
  0
SCALE
  5
5A
102
{ACAD_REACTORS
330
47
102
}
330
47
100
AcDbScale
 70
     0
300
1/64" = 1'-0"
140
0.015625
141
12.0
290
     0
  0
SCALE
  5
5B
102
{ACAD_REACTORS
330
47
102
}
330
47
100
AcDbScale
 70
     0
300
1/32" = 1'-0"
140
0.03125
141
12.0
290
     0
  0
SCALE
  5
5C
102
{ACAD_REACTORS
330
47
102
}
330
47
100
AcDbScale
 70
     0
300
1/16" = 1'-0"
140
0.0625
141
12.0
290
     0
  0
SCALE
  5
5D
102
{ACAD_REACTORS
330
47
102
}
330
47
100
AcDbScale
 70
     0
300
3/32" = 1'-0"
140
0.09375
141
12.0
290
     0
  0
SCALE
  5
5E
102
{ACAD_REACTORS
330
47
102
}
330
47
100
AcDbScale
 70
     0
300
1/8" = 1'-0"
140
0.125
141
12.0
290
     0
  0
SCALE
  5
5F
102
{ACAD_REACTORS
330
47
102
}
330
47
100
AcDbScale
 70
     0
300
3/16" = 1'-0"
140
0.1875
141
12.0
290
     0
  0
SCALE
  5
60
102
{ACAD_REACTORS
330
47
102
}
330
47
100
AcDbScale
 70
     0
300
1/4" = 1'-0"
140
0.25
141
12.0
290
     0
  0
SCALE
  5
61
102
{ACAD_REACTORS
330
47
102
}
330
47
100
AcDbScale
 70
     0
300
3/8" = 1'-0"
140
0.375
141
12.0
290
     0
  0
SCALE
  5
62
102
{ACAD_REACTORS
330
47
102
}
330
47
100
AcDbScale
 70
     0
300
1/2" = 1'-0"
140
0.5
141
12.0
290
     0
  0
SCALE
  5
63
102
{ACAD_REACTORS
330
47
102
}
330
47
100
AcDbScale
 70
     0
300
3/4" = 1'-0"
140
0.75
141
12.0
290
     0
  0
SCALE
  5
64
102
{ACAD_REACTORS
330
47
102
}
330
47
100
AcDbScale
 70
     0
300
1" = 1'-0"
140
1.0
141
12.0
290
     0
  0
SCALE
  5
65
102
{ACAD_REACTORS
330
47
102
}
330
47
100
AcDbScale
 70
     0
300
1-1/2" = 1'-0"
140
1.5
141
12.0
290
     0
  0
SCALE
  5
66
102
{ACAD_REACTORS
330
47
102
}
330
47
100
AcDbScale
 70
     0
300
3" = 1'-0"
140
3.0
141
12.0
290
     0
  0
SCALE
  5
67
102
{ACAD_REACTORS
330
47
102
}
330
47
100
AcDbScale
 70
     0
300
6" = 1'-0"
140
6.0
141
12.0
290
     0
  0
SCALE
  5
68
102
{ACAD_REACTORS
330
47
102
}
330
47
100
AcDbScale
 70
     0
300
1'-0" = 1'-0"
140
12.0
141
12.0
290
     0
  0
TABLESTYLE
  5
6A
102
{ACAD_REACTORS
330
69
102
}
102
{ACAD_XDICTIONARY
360
21E
102
}
330
69
100
AcDbTableStyle
  3
Standard
 70
     0
 71
     0
 40
0.06
 41
0.06
280
     0
281
     0
  7
Standard
140
4.5
170
     2
 62
     0
 63
   257
283
     0
 90
        4
 91
        0
  1

274
    -2
284
     1
 64
     0
275
    -2
285
     1
 65
     0
276
    -2
286
     1
 66
     0
277
    -2
287
     1
 67
     0
278
    -2
288
     1
 68
     0
279
    -2
289
     1
 69
     0
  7
Standard
140
6.0
170
     5
 62
     0
 63
   257
283
     0
 90
        4
 91
        0
  1

274
    -2
284
     1
 64
     0
275
    -2
285
     1
 65
     0
276
    -2
286
     1
 66
     0
277
    -2
287
     1
 67
     0
278
    -2
288
     1
 68
     0
279
    -2
289
     1
 69
     0
  7
Standard
140
4.5
170
     5
 62
     0
 63
   257
283
     0
 90
        4
 91
        0
  1

274
    -2
284
     1
 64
     0
275
    -2
285
     1
 65
     0
276
    -2
286
     1
 66
     0
277
    -2
287
     1
 67
     0
278
    -2
288
     1
 68
     0
279
    -2
289
     1
 69
     0
  0
VISUALSTYLE
  5
2F
102
{ACAD_REACTORS
330
2A
102
}
330
2A
100
AcDbVisualStyle
  2
2dWireframe
 70
     4
177
     3
291
     0
 70
    58
 90
        0
176
     1
 90
        2
176
     1
 90
        0
176
     1
 90
        0
176
     1
 40
0.6
176
     1
 40
30.0
176
     1
 62
     7
420
 16777215
176
     1
 90
        1
176
     1
 90
        4
176
     1
 62
     7
176
     1
 62
   257
176
     1
 90
        1
176
     1
 90
        1
176
     1
 40
1.0
176
     1
 90
        0
176
     1
 62
   257
176
     1
 40
1.0
176
     1
 90
        1
176
     1
 90
        6
176
     1
 90
        2
176
     1
 62
     7
176
     1
 90
        5
176
     1
 90
        0
176
     1
 90
        0
176
     1
290
     0
176
     1
 90
        1
176
     1
 40
0.0
176
     1
 90
        0
176
     1
290
     1
176
     1
290
     1
176
     1
290
     0
176
     1
290
     0
176
     1
290
     0
176
     1
290
     0
176
     1
290
     0
176
     1
290
     0
176
     1
290
     0
176
     1
 90
       50
176
     1
 40
0.0
176
     1
 40
1.0
176
     1
 90
        0
176
     1
 62
    18
420
        0
176
     1
 90
       50
176
     1
 90
        3
176
     1
 62
     5
420
      255
176
     1
290
     0
176
     1
 90
       50
176
     1
 90
       50
176
     1
 90
       50
176
     1
290
     0
176
     1
 90
       50
176
     1
 62
   256
176
     0
 40
1.0
176
     0
 90
        2
176
     1
  1
strokes_ogs.tif
176
     1
290
     0
176
     1
 40
1.0
176
     1
 40
1.0
176
     1
  0
VISUALSTYLE
  5
32
102
{ACAD_REACTORS
330
2A
102
}
330
2A
100
AcDbVisualStyle
  2
Basic
 70
     7
177
     3
291
     1
 70
    58
 90
        1
176
     1
 90
        0
176
     1
 90
        1
176
     1
 90
        0
176
     1
 40
0.6
176
     1
 40
30.0
176
     1
 62
     7
420
 16777215
176
     1
 90
        0
176
     1
 90
        4
176
     1
 62
     7
176
     1
 62
   257
176
     1
 90
        1
176
     1
 90
        1
176
     1
 40
1.0
176
     1
 90
        8
176
     1
 62
     7
176
     1
 40
1.0
176
     1
 90
        1
176
     1
 90
        6
176
     1
 90
        2
176
     1
 62
     7
176
     1
 90
        5
176
     1
 90
        0
176
     1
 90
        0
176
     1
290
     0
176
     1
 90
        1
176
     1
 40
0.0
176
     1
 90
        0
176
     1
290
     0
176
     1
290
     1
176
     1
290
     1
176
     1
290
     0
176
     1
290
     0
176
     1
290
     0
176
     1
290
     0
176
     1
290
     0
176
     1
290
     0
176
     1
 90
       50
176
     1
 40
0.0
176
     1
 40
1.0
176
     1
 90
        0
176
     1
 62
    18
420
        0
176
     1
 90
       50
176
     1
 90
        3
176
     1
 62
     5
420
      255
176
     1
290
     0
176
     1
 90
       50
176
     1
 90
       50
176
     1
 90
       50
176
     1
290
     0
176
     1
 90
       50
176
     1
 62
   256
176
     0
 40
1.0
176
     0
 90
        2
176
     1
  1
strokes_ogs.tif
176
     1
290
     0
176
     1
 40
1.0
176
     1
 40
1.0
176
     1
  0
VISUALSTYLE
  5
36
102
{ACAD_REACTORS
330
2A
102
}
330
2A
100
AcDbVisualStyle
  2
Brighten
 70
    12
177
     3
291
     1
 70
    58
 90
        2
176
     1
 90
        2
176
     1
 90
        0
176
     1
 90
        0
176
     1
 40
0.6
176
     1
 40
30.0
176
     1
 62
     7
420
 16777215
176
     1
 90
        1
176
     1
 90
        4
176
     1
 62
     7
176
     1
 62
   257
176
     1
 90
        1
176
     1
 90
        1
176
     1
 40
1.0
176
     1
 90
        8
176
     1
 62
     7
176
     1
 40
1.0
176
     1
 90
        1
176
     1
 90
        6
176
     1
 90
        2
176
     1
 62
     7
176
     1
 90
        5
176
     1
 90
        0
176
     1
 90
        0
176
     1
290
     0
176
     1
 90
        1
176
     1
 40
50.0
176
     1
 90
        0
176
     1
290
     0
176
     1
290
     1
176
     1
290
     1
176
     1
290
     0
176
     1
290
     0
176
     1
290
     0
176
     1
290
     0
176
     1
290
     0
176
     1
290
     0
176
     1
 90
       50
176
     1
 40
0.0
176
     1
 40
1.0
176
     1
 90
        0
176
     1
 62
    18
420
        0
176
     1
 90
       50
176
     1
 90
        3
176
     1
 62
     5
420
      255
176
     1
290
     0
176
     1
 90
       50
176
     1
 90
       50
176
     1
 90
       50
176
     1
290
     0
176
     1
 90
       50
176
     1
 62
   256
176
     0
 40
1.0
176
     0
 90
        2
176
     1
  1
strokes_ogs.tif
176
     1
290
     0
176
     1
 40
1.0
176
     1
 40
1.0
176
     1
  0
VISUALSTYLE
  5
3A
102
{ACAD_REACTORS
330
2A
102
}
330
2A
100
AcDbVisualStyle
  2
ColorChange
 70
    16
177
     3
291
     1
 70
    58
 90
        2
176
     1
 90
        2
176
     1
 90
        3
176
     1
 90
        0
176
     1
 40
0.6
176
     1
 40
30.0
176
     1
 62
     8
420
  8421504
176
     1
 90
        1
176
     1
 90
        4
176
     1
 62
     7
176
     1
 62
   257
176
     1
 90
        1
176
     1
 90
        1
176
     1
 40
1.0
176
     1
 90
        8
176
     1
 62
     8
420
  8421504
176
     1
 40
1.0
176
     1
 90
        1
176
     1
 90
        6
176
     1
 90
        2
176
     1
 62
     7
176
     1
 90
        5
176
     1
 90
        0
176
     1
 90
        0
176
     1
290
     0
176
     1
 90
        1
176
     1
 40
0.0
176
     1
 90
        0
176
     1
290
     0
176
     1
290
     1
176
     1
290
     1
176
     1
290
     0
176
     1
290
     0
176
     1
290
     0
176
     1
290
     0
176
     1
290
     0
176
     1
290
     0
176
     1
 90
       50
176
     1
 40
0.0
176
     1
 40
1.0
176
     1
 90
        0
176
     1
 62
    18
420
        0
176
     1
 90
       50
176
     1
 90
        3
176
     1
 62
     5
420
      255
176
     1
290
     0
176
     1
 90
       50
176
     1
 90
       50
176
     1
 90
       50
176
     1
290
     0
176
     1
 90
       50
176
     1
 62
   256
176
     0
 40
1.0
176
     0
 90
        2
176
     1
  1
strokes_ogs.tif
176
     1
290
     0
176
     1
 40
1.0
176
     1
 40
1.0
176
     1
  0
VISUALSTYLE
  5
34
102
{ACAD_REACTORS
330
2A
102
}
330
2A
100
AcDbVisualStyle
  2
Conceptual
 70
     9
177
     3
291
     0
 70
    58
 90
        3
176
     1
 90
        2
176
     1
 90
        0
176
     1
 90
        0
176
     1
 40
0.6
176
     1
 40
30.0
176
     1
 62
     7
420
 16777215
176
     1
 90
        2
176
     1
 90
        2
176
     1
 62
     7
176
     1
 62
   257
176
     1
 90
        1
176
     1
 90
        1
176
     1
 40
179.0
176
     1
 90
        8
176
     1
 62
     7
176
     1
 40
1.0
176
     1
 90
        1
176
     1
 90
        6
176
     1
 90
        2
176
     1
 62
     7
176
     1
 90
        3
176
     1
 90
        0
176
     1
 90
        0
176
     1
290
     0
176
     1
 90
        1
176
     1
 40
0.0
176
     1
 90
        0
176
     1
290
     0
176
     1
290
     1
176
     1
290
     1
176
     1
290
     0
176
     1
290
     0
176
     1
290
     0
176
     1
290
     0
176
     1
290
     0
176
     1
290
     0
176
     1
 90
       50
176
     1
 40
0.0
176
     1
 40
1.0
176
     1
 90
        0
176
     1
 62
    18
420
        0
176
     1
 90
       50
176
     1
 90
        3
176
     1
 62
     5
420
      255
176
     1
290
     0
176
     1
 90
       50
176
     1
 90
       50
176
     1
 90
       50
176
     1
290
     0
176
     1
 90
       50
176
     1
 62
   256
176
     0
 40
1.0
176
     0
 90
        2
176
     1
  1
strokes_ogs.tif
176
     1
290
     0
176
     1
 40
1.0
176
     1
 40
1.0
176
     1
  0
VISUALSTYLE
  5
35
102
{ACAD_REACTORS
330
2A
102
}
330
2A
100
AcDbVisualStyle
  2
Dim
 70
    11
177
     3
291
     1
 70
    58
 90
        2
176
     1
 90
        2
176
     1
 90
        0
176
     1
 90
        0
176
     1
 40
0.6
176
     1
 40
30.0
176
     1
 62
     7
420
 16777215
176
     1
 90
        1
176
     1
 90
        4
176
     1
 62
     7
176
     1
 62
   257
176
     1
 90
        1
176
     1
 90
        1
176
     1
 40
1.0
176
     1
 90
        8
176
     1
 62
     7
176
     1
 40
1.0
176
     1
 90
        1
176
     1
 90
        6
176
     1
 90
        2
176
     1
 62
     7
176
     1
 90
        5
176
     1
 90
        0
176
     1
 90
        0
176
     1
290
     0
176
     1
 90
        1
176
     1
 40
-50.0
176
     1
 90
        0
176
     1
290
     0
176
     1
290
     1
176
     1
290
     1
176
     1
290
     0
176
     1
290
     0
176
     1
290
     0
176
     1
290
     0
176
     1
290
     0
176
     1
290
     0
176
     1
 90
       50
176
     1
 40
0.0
176
     1
 40
1.0
176
     1
 90
        0
176
     1
 62
    18
420
        0
176
     1
 90
       50
176
     1
 90
        3
176
     1
 62
     5
420
      255
176
     1
290
     0
176
     1
 90
       50
176
     1
 90
       50
176
     1
 90
       50
176
     1
290
     0
176
     1
 90
       50
176
     1
 62
   256
176
     0
 40
1.0
176
     0
 90
        2
176
     1
  1
strokes_ogs.tif
176
     1
290
     0
176
     1
 40
1.0
176
     1
 40
1.0
176
     1
  0
VISUALSTYLE
  5
3D
102
{ACAD_REACTORS
330
2A
102
}
330
2A
100
AcDbVisualStyle
  2
EdgeColorOff
 70
    22
177
     3
291
     1
 70
    58
 90
        2
176
     0
 90
        2
176
     0
 90
        0
176
     0
 90
        0
176
     0
 40
0.6
176
     0
 40
30.0
176
     0
 62
     7
420
 16777215
176
     0
 90
        1
176
     0
 90
        4
176
     0
 62
     7
176
     0
 62
   257
176
     0
 90
        1
176
     0
 90
        1
176
     0
 40
1.0
176
     0
 90
        8
176
     2
 62
     7
176
     0
 40
1.0
176
     0
 90
        1
176
     0
 90
        6
176
     0
 90
        2
176
     0
 62
     7
176
     0
 90
        5
176
     0
 90
        0
176
     0
 90
        0
176
     0
290
     0
176
     0
 90
        1
176
     0
 40
0.0
176
     0
 90
        0
176
     0
290
     0
176
     0
290
     1
176
     0
290
     1
176
     0
290
     0
176
     0
290
     0
176
     0
290
     0
176
     0
290
     0
176
     0
290
     0
176
     0
290
     0
176
     0
 90
       50
176
     0
 40
0.0
176
     0
 40
1.0
176
     0
 90
        0
176
     0
 62
    18
420
        0
176
     0
 90
       50
176
     0
 90
        3
176
     0
 62
     5
420
      255
176
     0
290
     0
176
     0
 90
       50
176
     0
 90
       50
176
     0
 90
       50
176
     0
290
     0
176
     0
 90
       50
176
     0
 62
   256
176
     0
 40
1.0
176
     0
 90
        2
176
     0
  1
strokes_ogs.tif
176
     0
290
     0
176
     0
 40
1.0
176
     0
 40
1.0
176
     0
  0
VISUALSTYLE
  5
39
102
{ACAD_REACTORS
330
2A
102
}
330
2A
100
AcDbVisualStyle
  2
Facepattern
 70
    15
177
     3
291
     1
 70
    58
 90
        2
176
     1
 90
        2
176
     1
 90
        0
176
     1
 90
        0
176
     1
 40
0.6
176
     1
 40
30.0
176
     1
 62
     7
420
 16777215
176
     1
 90
        1
176
     1
 90
        4
176
     1
 62
     7
176
     1
 62
   257
176
     1
 90
        1
176
     1
 90
        1
176
     1
 40
1.0
176
     1
 90
        8
176
     1
 62
     7
176
     1
 40
1.0
176
     1
 90
        1
176
     1
 90
        6
176
     1
 90
        2
176
     1
 62
     7
176
     1
 90
        5
176
     1
 90
        0
176
     1
 90
        0
176
     1
290
     0
176
     1
 90
        1
176
     1
 40
0.0
176
     1
 90
        0
176
     1
290
     0
176
     1
290
     1
176
     1
290
     1
176
     1
290
     0
176
     1
290
     0
176
     1
290
     0
176
     1
290
     0
176
     1
290
     0
176
     1
290
     0
176
     1
 90
       50
176
     1
 40
0.0
176
     1
 40
1.0
176
     1
 90
        0
176
     1
 62
    18
420
        0
176
     1
 90
       50
176
     1
 90
        3
176
     1
 62
     5
420
      255
176
     1
290
     0
176
     1
 90
       50
176
     1
 90
       50
176
     1
 90
       50
176
     1
290
     0
176
     1
 90
       50
176
     1
 62
   256
176
     0
 40
1.0
176
     0
 90
        2
176
     1
  1
strokes_ogs.tif
176
     1
290
     0
176
     1
 40
1.0
176
     1
 40
1.0
176
     1
  0
VISUALSTYLE
  5
2B
102
{ACAD_REACTORS
330
2A
102
}
330
2A
100
AcDbVisualStyle
  2
Flat
 70
     0
177
     3
291
     1
 70
    58
 90
        2
176
     1
 90
        1
176
     1
 90
        1
176
     1
 90
        2
176
     1
 40
0.6
176
     1
 40
30.0
176
     1
 62
     7
420
 16777215
176
     1
 90
        0
176
     1
 90
        0
176
     1
 62
     7
176
     1
 62
   257
176
     1
 90
        1
176
     1
 90
        1
176
     1
 40
1.0
176
     1
 90
        8
176
     1
 62
     7
176
     1
 40
1.0
176
     1
 90
        1
176
     1
 90
        6
176
     1
 90
        2
176
     1
 62
     7
176
     1
 90
        5
176
     1
 90
        0
176
     1
 90
        0
176
     1
290
     0
176
     1
 90
       13
176
     1
 40
0.0
176
     1
 90
        0
176
     1
290
     0
176
     1
290
     1
176
     1
290
     1
176
     1
290
     0
176
     1
290
     0
176
     1
290
     0
176
     1
290
     0
176
     1
290
     0
176
     1
290
     0
176
     1
 90
       50
176
     1
 40
0.0
176
     1
 40
1.0
176
     1
 90
        0
176
     1
 62
    18
420
        0
176
     1
 90
       50
176
     1
 90
        3
176
     1
 62
     5
420
      255
176
     1
290
     0
176
     1
 90
       50
176
     1
 90
       50
176
     1
 90
       50
176
     1
290
     0
176
     1
 90
       50
176
     1
 62
   256
176
     0
 40
1.0
176
     0
 90
        2
176
     1
  1
strokes_ogs.tif
176
     1
290
     0
176
     1
 40
1.0
176
     1
 40
1.0
176
     1
  0
VISUALSTYLE
  5
2C
102
{ACAD_REACTORS
330
2A
102
}
330
2A
100
AcDbVisualStyle
  2
FlatWithEdges
 70
     1
177
     3
291
     1
 70
    58
 90
        2
176
     1
 90
        1
176
     1
 90
        1
176
     1
 90
        2
176
     1
 40
0.6
176
     1
 40
30.0
176
     1
 62
     7
420
 16777215
176
     1
 90
        1
176
     1
 90
        0
176
     1
 62
     7
176
     1
 62
   257
176
     1
 90
        1
176
     1
 90
        1
176
     1
 40
1.0
176
     1
 90
        0
176
     1
 62
   257
176
     1
 40
1.0
176
     1
 90
        1
176
     1
 90
        6
176
     1
 90
        2
176
     1
 62
     7
176
     1
 90
        5
176
     1
 90
        0
176
     1
 90
        0
176
     1
290
     0
176
     1
 90
       13
176
     1
 40
0.0
176
     1
 90
        0
176
     1
290
     0
176
     1
290
     1
176
     1
290
     1
176
     1
290
     0
176
     1
290
     0
176
     1
290
     0
176
     1
290
     0
176
     1
290
     0
176
     1
290
     0
176
     1
 90
       50
176
     1
 40
0.0
176
     1
 40
1.0
176
     1
 90
        0
176
     1
 62
    18
420
        0
176
     1
 90
       50
176
     1
 90
        3
176
     1
 62
     5
420
      255
176
     1
290
     0
176
     1
 90
       50
176
     1
 90
       50
176
     1
 90
       50
176
     1
290
     0
176
     1
 90
       50
176
     1
 62
   256
176
     0
 40
1.0
176
     0
 90
        2
176
     1
  1
strokes_ogs.tif
176
     1
290
     0
176
     1
 40
1.0
176
     1
 40
1.0
176
     1
  0
VISUALSTYLE
  5
2D
102
{ACAD_REACTORS
330
2A
102
}
330
2A
100
AcDbVisualStyle
  2
Gouraud
 70
     2
177
     3
291
     1
 70
    58
 90
        2
176
     1
 90
        2
176
     1
 90
        1
176
     1
 90
        2
176
     1
 40
0.6
176
     1
 40
30.0
176
     1
 62
     7
420
 16777215
176
     1
 90
        0
176
     1
 90
        0
176
     1
 62
     7
176
     1
 62
   257
176
     1
 90
        1
176
     1
 90
        1
176
     1
 40
1.0
176
     1
 90
        0
176
     1
 62
     7
176
     1
 40
1.0
176
     1
 90
        1
176
     1
 90
        6
176
     1
 90
        2
176
     1
 62
     7
176
     1
 90
        5
176
     1
 90
        0
176
     1
 90
        0
176
     1
290
     0
176
     1
 90
       13
176
     1
 40
0.0
176
     1
 90
        0
176
     1
290
     0
176
     1
290
     1
176
     1
290
     1
176
     1
290
     0
176
     1
290
     0
176
     1
290
     0
176
     1
290
     0
176
     1
290
     0
176
     1
290
     0
176
     1
 90
       50
176
     1
 40
0.0
176
     1
 40
1.0
176
     1
 90
        0
176
     1
 62
    18
420
        0
176
     1
 90
       50
176
     1
 90
        3
176
     1
 62
     5
420
      255
176
     1
290
     0
176
     1
 90
       50
176
     1
 90
       50
176
     1
 90
       50
176
     1
290
     0
176
     1
 90
       50
176
     1
 62
   256
176
     0
 40
1.0
176
     0
 90
        2
176
     1
  1
strokes_ogs.tif
176
     1
290
     0
176
     1
 40
1.0
176
     1
 40
1.0
176
     1
  0
VISUALSTYLE
  5
2E
102
{ACAD_REACTORS
330
2A
102
}
330
2A
100
AcDbVisualStyle
  2
GouraudWithEdges
 70
     3
177
     3
291
     1
 70
    58
 90
        2
176
     1
 90
        2
176
     1
 90
        1
176
     1
 90
        2
176
     1
 40
0.6
176
     1
 40
30.0
176
     1
 62
     7
420
 16777215
176
     1
 90
        1
176
     1
 90
        0
176
     1
 62
     7
176
     1
 62
   257
176
     1
 90
        1
176
     1
 90
        1
176
     1
 40
1.0
176
     1
 90
        0
176
     1
 62
   257
176
     1
 40
1.0
176
     1
 90
        1
176
     1
 90
        6
176
     1
 90
        2
176
     1
 62
     7
176
     1
 90
        5
176
     1
 90
        0
176
     1
 90
        0
176
     1
290
     0
176
     1
 90
       13
176
     1
 40
0.0
176
     1
 90
        0
176
     1
290
     0
176
     1
290
     1
176
     1
290
     1
176
     1
290
     0
176
     1
290
     0
176
     1
290
     0
176
     1
290
     0
176
     1
290
     0
176
     1
290
     0
176
     1
 90
       50
176
     1
 40
0.0
176
     1
 40
1.0
176
     1
 90
        0
176
     1
 62
    18
420
        0
176
     1
 90
       50
176
     1
 90
        3
176
     1
 62
     5
420
      255
176
     1
290
     0
176
     1
 90
       50
176
     1
 90
       50
176
     1
 90
       50
176
     1
290
     0
176
     1
 90
       50
176
     1
 62
   256
176
     0
 40
1.0
176
     0
 90
        2
176
     1
  1
strokes_ogs.tif
176
     1
290
     0
176
     1
 40
1.0
176
     1
 40
1.0
176
     1
  0
VISUALSTYLE
  5
31
102
{ACAD_REACTORS
330
2A
102
}
330
2A
100
AcDbVisualStyle
  2
Hidden
 70
     6
177
     3
291
     0
 70
    58
 90
        1
176
     1
 90
        2
176
     1
 90
        2
176
     1
 90
        0
176
     1
 40
0.6
176
     1
 40
30.0
176
     1
 62
     7
420
 16777215
176
     1
 90
        2
176
     1
 90
        2
176
     1
 62
     7
176
     1
 62
   257
176
     1
 90
        2
176
     1
 90
        1
176
     1
 40
40.0
176
     1
 90
        0
176
     1
 62
   257
176
     1
 40
1.0
176
     1
 90
        1
176
     1
 90
        6
176
     1
 90
        2
176
     1
 62
     7
176
     1
 90
        3
176
     1
 90
        0
176
     1
 90
        0
176
     1
290
     0
176
     1
 90
        1
176
     1
 40
0.0
176
     1
 90
        0
176
     1
290
     0
176
     1
290
     1
176
     1
290
     1
176
     1
290
     0
176
     1
290
     0
176
     1
290
     0
176
     1
290
     0
176
     1
290
     0
176
     1
290
     0
176
     1
 90
       50
176
     1
 40
0.0
176
     1
 40
1.0
176
     1
 90
        0
176
     1
 62
    18
420
        0
176
     1
 90
       50
176
     1
 90
        3
176
     1
 62
     5
420
      255
176
     1
290
     0
176
     1
 90
       50
176
     1
 90
       50
176
     1
 90
       50
176
     1
290
     0
176
     1
 90
       50
176
     1
 62
   256
176
     0
 40
1.0
176
     0
 90
        2
176
     1
  1
strokes_ogs.tif
176
     1
290
     0
176
     1
 40
1.0
176
     1
 40
1.0
176
     1
  0
VISUALSTYLE
  5
3B
102
{ACAD_REACTORS
330
2A
102
}
330
2A
100
AcDbVisualStyle
  2
JitterOff
 70
    20
177
     3
291
     1
 70
    58
 90
        2
176
     0
 90
        2
176
     0
 90
        0
176
     0
 90
        0
176
     0
 40
0.6
176
     0
 40
30.0
176
     0
 62
     7
420
 16777215
176
     0
 90
        1
176
     0
 90
        4
176
     0
 62
     7
176
     0
 62
   257
176
     0
 90
        1
176
     0
 90
        1
176
     0
 40
1.0
176
     0
 90
       10
176
     2
 62
     7
176
     0
 40
1.0
176
     0
 90
        1
176
     0
 90
        6
176
     0
 90
        2
176
     0
 62
     7
176
     0
 90
        5
176
     0
 90
        0
176
     0
 90
        0
176
     0
290
     0
176
     0
 90
        1
176
     0
 40
0.0
176
     0
 90
        0
176
     0
290
     0
176
     0
290
     1
176
     0
290
     1
176
     0
290
     0
176
     0
290
     0
176
     0
290
     0
176
     0
290
     0
176
     0
290
     0
176
     0
290
     0
176
     0
 90
       50
176
     0
 40
0.0
176
     0
 40
1.0
176
     0
 90
        0
176
     0
 62
    18
420
        0
176
     0
 90
       50
176
     0
 90
        3
176
     0
 62
     5
420
      255
176
     0
290
     0
176
     0
 90
       50
176
     0
 90
       50
176
     0
 90
       50
176
     0
290
     0
176
     0
 90
       50
176
     0
 62
   256
176
     0
 40
1.0
176
     0
 90
        2
176
     0
  1
strokes_ogs.tif
176
     0
290
     0
176
     0
 40
1.0
176
     0
 40
1.0
176
     0
  0
VISUALSTYLE
  5
38
102
{ACAD_REACTORS
330
2A
102
}
330
2A
100
AcDbVisualStyle
  2
Linepattern
 70
    14
177
     3
291
     1
 70
    58
 90
        2
176
     1
 90
        2
176
     1
 90
        0
176
     1
 90
        0
176
     1
 40
0.6
176
     1
 40
30.0
176
     1
 62
     7
420
 16777215
176
     1
 90
        1
176
     1
 90
        4
176
     1
 62
     7
176
     1
 62
   257
176
     1
 90
        7
176
     1
 90
        7
176
     1
 40
1.0
176
     1
 90
        8
176
     1
 62
     7
176
     1
 40
1.0
176
     1
 90
        1
176
     1
 90
        6
176
     1
 90
        2
176
     1
 62
     7
176
     1
 90
        5
176
     1
 90
        0
176
     1
 90
        0
176
     1
290
     0
176
     1
 90
        1
176
     1
 40
0.0
176
     1
 90
        0
176
     1
290
     0
176
     1
290
     1
176
     1
290
     1
176
     1
290
     0
176
     1
290
     0
176
     1
290
     0
176
     1
290
     0
176
     1
290
     0
176
     1
290
     0
176
     1
 90
       50
176
     1
 40
0.0
176
     1
 40
1.0
176
     1
 90
        0
176
     1
 62
    18
420
        0
176
     1
 90
       50
176
     1
 90
        3
176
     1
 62
     5
420
      255
176
     1
290
     0
176
     1
 90
       50
176
     1
 90
       50
176
     1
 90
       50
176
     1
290
     0
176
     1
 90
       50
176
     1
 62
   256
176
     0
 40
1.0
176
     0
 90
        2
176
     1
  1
strokes_ogs.tif
176
     1
290
     0
176
     1
 40
1.0
176
     1
 40
1.0
176
     1
  0
VISUALSTYLE
  5
3C
102
{ACAD_REACTORS
330
2A
102
}
330
2A
100
AcDbVisualStyle
  2
OverhangOff
 70
    21
177
     3
291
     1
 70
    58
 90
        2
176
     0
 90
        2
176
     0
 90
        0
176
     0
 90
        0
176
     0
 40
0.6
176
     0
 40
30.0
176
     0
 62
     7
420
 16777215
176
     0
 90
        1
176
     0
 90
        4
176
     0
 62
     7
176
     0
 62
   257
176
     0
 90
        1
176
     0
 90
        1
176
     0
 40
1.0
176
     0
 90
        9
176
     2
 62
     7
176
     0
 40
1.0
176
     0
 90
        1
176
     0
 90
        6
176
     0
 90
        2
176
     0
 62
     7
176
     0
 90
        5
176
     0
 90
        0
176
     0
 90
        0
176
     0
290
     0
176
     0
 90
        1
176
     0
 40
0.0
176
     0
 90
        0
176
     0
290
     0
176
     0
290
     1
176
     0
290
     1
176
     0
290
     0
176
     0
290
     0
176
     0
290
     0
176
     0
290
     0
176
     0
290
     0
176
     0
290
     0
176
     0
 90
       50
176
     0
 40
0.0
176
     0
 40
1.0
176
     0
 90
        0
176
     0
 62
    18
420
        0
176
     0
 90
       50
176
     0
 90
        3
176
     0
 62
     5
420
      255
176
     0
290
     0
176
     0
 90
       50
176
     0
 90
       50
176
     0
 90
       50
176
     0
290
     0
176
     0
 90
       50
176
     0
 62
   256
176
     0
 40
1.0
176
     0
 90
        2
176
     0
  1
strokes_ogs.tif
176
     0
290
     0
176
     0
 40
1.0
176
     0
 40
1.0
176
     0
  0
VISUALSTYLE
  5
33
102
{ACAD_REACTORS
330
2A
102
}
330
2A
100
AcDbVisualStyle
  2
Realistic
 70
     8
177
     3
291
     0
 70
    58
 90
        2
176
     1
 90
        3
176
     1
 90
        0
176
     1
 90
        2
176
     1
 40
0.6
176
     1
 40
30.0
176
     1
 62
     7
420
 16777215
176
     1
 90
        0
176
     1
 90
        0
176
     1
 62
     7
176
     1
 62
   257
176
     1
 90
        1
176
     1
 90
        1
176
     1
 40
1.0
176
     1
 90
        8
176
     1
 62
   257
176
     1
 40
1.0
176
     1
 90
        1
176
     1
 90
        6
176
     1
 90
        2
176
     1
 62
     7
176
     1
 90
        3
176
     1
 90
        0
176
     1
 90
        0
176
     1
290
     0
176
     1
 90
       13
176
     1
 40
0.0
176
     1
 90
        0
176
     1
290
     0
176
     1
290
     1
176
     1
290
     1
176
     1
290
     0
176
     1
290
     0
176
     1
290
     0
176
     1
290
     0
176
     1
290
     0
176
     1
290
     0
176
     1
 90
       50
176
     1
 40
0.0
176
     1
 40
1.0
176
     1
 90
        0
176
     1
 62
    18
420
        0
176
     1
 90
       50
176
     1
 90
        3
176
     1
 62
     5
420
      255
176
     1
290
     0
176
     1
 90
       50
176
     1
 90
       50
176
     1
 90
       50
176
     1
290
     0
176
     1
 90
       50
176
     1
 62
   256
176
     0
 40
1.0
176
     0
 90
        2
176
     1
  1
strokes_ogs.tif
176
     1
290
     0
176
     1
 40
1.0
176
     1
 40
1.0
176
     1
  0
VISUALSTYLE
  5
42
102
{ACAD_REACTORS
330
2A
102
}
330
2A
100
AcDbVisualStyle
  2
Shaded
 70
    27
177
     3
291
     0
 70
    58
 90
        2
176
     1
 90
        2
176
     1
 90
        1
176
     1
 90
        2
176
     1
 40
0.6
176
     1
 40
30.0
176
     1
 62
     7
420
 16777215
176
     1
 90
        0
176
     1
 90
        4
176
     1
 62
     7
176
     1
 62
   257
176
     1
 90
        1
176
     1
 90
        1
176
     1
 40
1.0
176
     1
 90
        8
176
     1
 62
   257
176
     1
 40
1.0
176
     1
 90
        1
176
     1
 90
        6
176
     1
 90
        2
176
     1
 62
     8
420
  7895160
176
     1
 90
        3
176
     1
 90
        0
176
     1
 90
        0
176
     1
290
     0
176
     1
 90
        5
176
     1
 40
0.0
176
     1
 90
        0
176
     1
290
     0
176
     1
290
     1
176
     1
290
     1
176
     1
290
     0
176
     1
290
     0
176
     1
290
     0
176
     1
290
     0
176
     1
290
     0
176
     1
290
     0
176
     1
 90
       50
176
     1
 40
0.0
176
     1
 40
1.0
176
     1
 90
        0
176
     1
 62
    18
420
        0
176
     1
 90
       50
176
     1
 90
        3
176
     1
 62
     5
420
      255
176
     1
290
     0
176
     1
 90
       50
176
     1
 90
       50
176
     1
 90
       50
176
     1
290
     0
176
     1
 90
       50
176
     1
 62
   256
176
     0
 40
1.0
176
     0
 90
        2
176
     1
  1
strokes_ogs.tif
176
     1
290
     0
176
     1
 40
1.0
176
     1
 40
1.0
176
     1
  0
VISUALSTYLE
  5
41
102
{ACAD_REACTORS
330
2A
102
}
330
2A
100
AcDbVisualStyle
  2
Shaded with edges
 70
    26
177
     3
291
     0
 70
    58
 90
        2
176
     1
 90
        2
176
     1
 90
        1
176
     1
 90
        2
176
     1
 40
0.6
176
     1
 40
30.0
176
     1
 62
     7
420
 16777215
176
     1
 90
        1
176
     1
 90
       10
176
     1
 62
     7
176
     1
 62
   257
176
     1
 90
        2
176
     1
 90
        1
176
     1
 40
1.0
176
     1
 90
        8
176
     1
 62
   257
176
     1
 40
1.0
176
     1
 90
        1
176
     1
 90
        6
176
     1
 90
        2
176
     1
 62
     7
176
     1
 90
        3
176
     1
 90
        0
176
     1
 90
        0
176
     1
290
     0
176
     1
 90
        5
176
     1
 40
0.0
176
     1
 90
        0
176
     1
290
     0
176
     1
290
     1
176
     1
290
     1
176
     1
290
     0
176
     1
290
     0
176
     1
290
     0
176
     1
290
     0
176
     1
290
     0
176
     1
290
     0
176
     1
 90
       50
176
     1
 40
0.0
176
     1
 40
1.0
176
     1
 90
        0
176
     1
 62
    18
420
        0
176
     1
 90
       50
176
     1
 90
        3
176
     1
 62
     5
420
      255
176
     1
290
     0
176
     1
 90
       50
176
     1
 90
       50
176
     1
 90
       50
176
     1
290
     0
176
     1
 90
       50
176
     1
 62
   256
176
     0
 40
1.0
176
     0
 90
        2
176
     1
  1
strokes_ogs.tif
176
     1
290
     0
176
     1
 40
1.0
176
     1
 40
1.0
176
     1
  0
VISUALSTYLE
  5
3E
102
{ACAD_REACTORS
330
2A
102
}
330
2A
100
AcDbVisualStyle
  2
Shades of Gray
 70
    23
177
     3
291
     0
 70
    58
 90
        2
176
     1
 90
        2
176
     1
 90
        3
176
     1
 90
        0
176
     1
 40
0.6
176
     1
 40
30.0
176
     1
 62
     7
420
 16777215
176
     1
 90
        2
176
     1
 90
        2
176
     1
 62
     7
176
     1
 62
     7
176
     1
 90
        1
176
     1
 90
        1
176
     1
 40
40.0
176
     1
 90
        8
176
     1
 62
     7
176
     1
 40
1.0
176
     1
 90
        1
176
     1
 90
        6
176
     1
 90
        2
176
     1
 62
     7
176
     1
 90
        3
176
     1
 90
        0
176
     1
 90
        0
176
     1
290
     0
176
     1
 90
        1
176
     1
 40
0.0
176
     1
 90
        0
176
     1
290
     0
176
     1
290
     1
176
     1
290
     1
176
     1
290
     0
176
     1
290
     0
176
     1
290
     0
176
     1
290
     0
176
     1
290
     0
176
     1
290
     0
176
     1
 90
       50
176
     1
 40
0.0
176
     1
 40
1.0
176
     1
 90
        0
176
     1
 62
    18
420
        0
176
     1
 90
       50
176
     1
 90
        3
176
     1
 62
     5
420
      255
176
     1
290
     0
176
     1
 90
       50
176
     1
 90
       50
176
     1
 90
       50
176
     1
290
     0
176
     1
 90
       50
176
     1
 62
   256
176
     0
 40
1.0
176
     0
 90
        2
176
     1
  1
strokes_ogs.tif
176
     1
290
     0
176
     1
 40
1.0
176
     1
 40
1.0
176
     1
  0
VISUALSTYLE
  5
3F
102
{ACAD_REACTORS
330
2A
102
}
330
2A
100
AcDbVisualStyle
  2
Sketchy
 70
    24
177
     3
291
     0
 70
    58
 90
        1
176
     1
 90
        2
176
     1
 90
        2
176
     1
 90
        0
176
     1
 40
0.6
176
     1
 40
30.0
176
     1
 62
     7
420
 16777215
176
     1
 90
        2
176
     1
 90
        2
176
     1
 62
     7
176
     1
 62
     7
176
     1
 90
        1
176
     1
 90
        1
176
     1
 40
40.0
176
     1
 90
       11
176
     1
 62
     7
176
     1
 40
1.0
176
     1
 90
        1
176
     1
 90
        6
176
     1
 90
        2
176
     1
 62
     7
176
     1
 90
        6
176
     1
 90
        0
176
     1
 90
        0
176
     1
290
     0
176
     1
 90
        1
176
     1
 40
0.0
176
     1
 90
        0
176
     1
290
     0
176
     1
290
     1
176
     1
290
     1
176
     1
290
     0
176
     1
290
     0
176
     1
290
     0
176
     1
290
     0
176
     1
290
     0
176
     1
290
     0
176
     1
 90
       50
176
     1
 40
0.0
176
     1
 40
1.0
176
     1
 90
        0
176
     1
 62
    18
420
        0
176
     1
 90
       50
176
     1
 90
        3
176
     1
 62
     5
420
      255
176
     1
290
     0
176
     1
 90
       50
176
     1
 90
       50
176
     1
 90
       50
176
     1
290
     0
176
     1
 90
       50
176
     1
 62
   256
176
     0
 40
1.0
176
     0
 90
        2
176
     1
  1
strokes_ogs.tif
176
     1
290
     0
176
     1
 40
1.0
176
     1
 40
1.0
176
     1
  0
VISUALSTYLE
  5
37
102
{ACAD_REACTORS
330
2A
102
}
330
2A
100
AcDbVisualStyle
  2
Thicken
 70
    13
177
     3
291
     1
 70
    58
 90
        2
176
     1
 90
        2
176
     1
 90
        0
176
     1
 90
        0
176
     1
 40
0.6
176
     1
 40
30.0
176
     1
 62
     7
420
 16777215
176
     1
 90
        1
176
     1
 90
        4
176
     1
 62
     7
176
     1
 62
   257
176
     1
 90
        1
176
     1
 90
        1
176
     1
 40
1.0
176
     1
 90
       12
176
     1
 62
     7
176
     1
 40
1.0
176
     1
 90
        1
176
     1
 90
        6
176
     1
 90
        2
176
     1
 62
     7
176
     1
 90
        5
176
     1
 90
        0
176
     1
 90
        0
176
     1
290
     0
176
     1
 90
        1
176
     1
 40
0.0
176
     1
 90
        0
176
     1
290
     0
176
     1
290
     1
176
     1
290
     1
176
     1
290
     0
176
     1
290
     0
176
     1
290
     0
176
     1
290
     0
176
     1
290
     0
176
     1
290
     0
176
     1
 90
       50
176
     1
 40
0.0
176
     1
 40
1.0
176
     1
 90
        0
176
     1
 62
    18
420
        0
176
     1
 90
       50
176
     1
 90
        3
176
     1
 62
     5
420
      255
176
     1
290
     0
176
     1
 90
       50
176
     1
 90
       50
176
     1
 90
       50
176
     1
290
     0
176
     1
 90
       50
176
     1
 62
   256
176
     0
 40
1.0
176
     0
 90
        2
176
     1
  1
strokes_ogs.tif
176
     1
290
     0
176
     1
 40
1.0
176
     1
 40
1.0
176
     1
  0
VISUALSTYLE
  5
30
102
{ACAD_REACTORS
330
2A
102
}
330
2A
100
AcDbVisualStyle
  2
Wireframe
 70
     5
177
     3
291
     0
 70
    58
 90
        0
176
     1
 90
        2
176
     1
 90
        0
176
     1
 90
        0
176
     1
 40
0.6
176
     1
 40
30.0
176
     1
 62
     7
420
 16777215
176
     1
 90
        1
176
     1
 90
        4
176
     1
 62
     7
176
     1
 62
   257
176
     1
 90
        1
176
     1
 90
        1
176
     1
 40
1.0
176
     1
 90
        0
176
     1
 62
   257
176
     1
 40
1.0
176
     1
 90
        1
176
     1
 90
        6
176
     1
 90
        2
176
     1
 62
     7
176
     1
 90
        3
176
     1
 90
        0
176
     1
 90
        0
176
     1
290
     0
176
     1
 90
        1
176
     1
 40
0.0
176
     1
 90
        0
176
     1
290
     0
176
     1
290
     1
176
     1
290
     1
176
     1
290
     0
176
     1
290
     0
176
     1
290
     0
176
     1
290
     0
176
     1
290
     0
176
     1
290
     0
176
     1
 90
       50
176
     1
 40
0.0
176
     1
 40
1.0
176
     1
 90
        0
176
     1
 62
    18
420
        0
176
     1
 90
       50
176
     1
 90
        3
176
     1
 62
     5
420
      255
176
     1
290
     0
176
     1
 90
       50
176
     1
 90
       50
176
     1
 90
       50
176
     1
290
     0
176
     1
 90
       50
176
     1
 62
   256
176
     0
 40
1.0
176
     0
 90
        2
176
     1
  1
strokes_ogs.tif
176
     1
290
     0
176
     1
 40
1.0
176
     1
 40
1.0
176
     1
  0
VISUALSTYLE
  5
40
102
{ACAD_REACTORS
330
2A
102
}
330
2A
100
AcDbVisualStyle
  2
X-Ray
 70
    25
177
     3
291
     0
 70
    58
 90
        2
176
     1
 90
        2
176
     1
 90
        1
176
     1
 90
        1
176
     1
 40
0.5
176
     1
 40
30.0
176
     1
 62
     7
420
 16777215
176
     1
 90
        1
176
     1
 90
        0
176
     1
 62
     7
176
     1
 62
   257
176
     1
 90
        1
176
     1
 90
        1
176
     1
 40
1.0
176
     1
 90
        8
176
     1
 62
     7
176
     1
 40
1.0
176
     1
 90
        1
176
     1
 90
        6
176
     1
 90
        2
176
     1
 62
     7
176
     1
 90
        3
176
     1
 90
        0
176
     1
 90
        0
176
     1
290
     0
176
     1
 90
       13
176
     1
 40
0.0
176
     1
 90
        0
176
     1
290
     0
176
     1
290
     1
176
     1
290
     1
176
     1
290
     0
176
     1
290
     0
176
     1
290
     0
176
     1
290
     0
176
     1
290
     0
176
     1
290
     0
176
     1
 90
       50
176
     1
 40
0.0
176
     1
 40
1.0
176
     1
 90
        0
176
     1
 62
    18
420
        0
176
     1
 90
       50
176
     1
 90
        3
176
     1
 62
     5
420
      255
176
     1
290
     0
176
     1
 90
       50
176
     1
 90
       50
176
     1
 90
       50
176
     1
290
     0
176
     1
 90
       50
176
     1
 62
   256
176
     0
 40
1.0
176
     0
 90
        2
176
     1
  1
strokes_ogs.tif
176
     1
290
     0
176
     1
 40
1.0
176
     1
 40
1.0
176
     1
  0
DICTIONARYVAR
  5
21D
102
{ACAD_REACTORS
330
21C
102
}
330
21C
100
DictionaryVariables
280
     0
  1
1:1
  0
DICTIONARYVAR
  5
222
102
{ACAD_REACTORS
330
21C
102
}
330
21C
100
DictionaryVariables
280
     0
  1
Standard
  0
DICTIONARYVAR
  5
221
102
{ACAD_REACTORS
330
21C
102
}
330
21C
100
DictionaryVariables
280
     0
  1
Standard
  0
DICTIONARYVAR
  5
225
102
{ACAD_REACTORS
330
21C
102
}
330
21C
100
DictionaryVariables
280
     0
  1
6.000000
  0
DICTIONARY
  5
21E
330
6A
100
AcDbDictionary
280
     1
281
     1
  3
ACAD_ROUNDTRIP_2008_TABLESTYLE_CELLSTYLEMAP
360
21F
  0
CELLSTYLEMAP
  5
21F
102
{ACAD_REACTORS
330
21E
102
}
330
21E
100
AcDbCellStyleMap
 90
        3
300
CELLSTYLE
  1
TABLEFORMAT_BEGIN
 90
        5
170
     1
 91
        0
 92
    32768
 62
   257
 93
        1
300
CONTENTFORMAT
  1
CONTENTFORMAT_BEGIN
 90
        0
 91
        0
 92
        4
 93
        0
300

 40
0.0
140
1.0
 94
        5
 62
     0
340
11
144
6.0
309
CONTENTFORMAT_END
171
     1
301
MARGIN
  1
CELLMARGIN_BEGIN
 40
1.5
 40
1.5
 40
1.5
 40
1.5
 40
1.5
 40
1.5
309
CELLMARGIN_END
 94
        6
 95
        1
302
GRIDFORMAT
  1
GRIDFORMAT_BEGIN
 90
        0
 91
        1
 62
     0
 92
       -2
340
14
 93
        0
 40
0.045
309
GRIDFORMAT_END
 95
        2
302
GRIDFORMAT
  1
GRIDFORMAT_BEGIN
 90
        0
 91
        1
 62
     0
 92
       -2
340
14
 93
        0
 40
0.045
309
GRIDFORMAT_END
 95
        4
302
GRIDFORMAT
  1
GRIDFORMAT_BEGIN
 90
        0
 91
        1
 62
     0
 92
       -2
340
14
 93
        0
 40
0.045
309
GRIDFORMAT_END
 95
        8
302
GRIDFORMAT
  1
GRIDFORMAT_BEGIN
 90
        0
 91
        1
 62
     0
 92
       -2
340
14
 93
        0
 40
0.045
309
GRIDFORMAT_END
 95
       16
302
GRIDFORMAT
  1
GRIDFORMAT_BEGIN
 90
        0
 91
        1
 62
     0
 92
       -2
340
14
 93
        0
 40
0.045
309
GRIDFORMAT_END
 95
       32
302
GRIDFORMAT
  1
GRIDFORMAT_BEGIN
 90
        0
 91
        1
 62
     0
 92
       -2
340
14
 93
        0
 40
0.045
309
GRIDFORMAT_END
309
TABLEFORMAT_END
  1
CELLSTYLE_BEGIN
 90
        1
 91
        1
300
_TITLE
309
CELLSTYLE_END
300
CELLSTYLE
  1
TABLEFORMAT_BEGIN
 90
        5
170
     1
 91
        0
 92
        0
 62
   257
 93
        1
300
CONTENTFORMAT
  1
CONTENTFORMAT_BEGIN
 90
        0
 91
        0
 92
        4
 93
        0
300

 40
0.0
140
1.0
 94
        5
 62
     0
340
11
144
4.5
309
CONTENTFORMAT_END
171
     1
301
MARGIN
  1
CELLMARGIN_BEGIN
 40
1.5
 40
1.5
 40
1.5
 40
1.5
 40
1.5
 40
1.5
309
CELLMARGIN_END
 94
        6
 95
        1
302
GRIDFORMAT
  1
GRIDFORMAT_BEGIN
 90
        0
 91
        1
 62
     0
 92
       -2
340
14
 93
        0
 40
0.045
309
GRIDFORMAT_END
 95
        2
302
GRIDFORMAT
  1
GRIDFORMAT_BEGIN
 90
        0
 91
        1
 62
     0
 92
       -2
340
14
 93
        0
 40
0.045
309
GRIDFORMAT_END
 95
        4
302
GRIDFORMAT
  1
GRIDFORMAT_BEGIN
 90
        0
 91
        1
 62
     0
 92
       -2
340
14
 93
        0
 40
0.045
309
GRIDFORMAT_END
 95
        8
302
GRIDFORMAT
  1
GRIDFORMAT_BEGIN
 90
        0
 91
        1
 62
     0
 92
       -2
340
14
 93
        0
 40
0.045
309
GRIDFORMAT_END
 95
       16
302
GRIDFORMAT
  1
GRIDFORMAT_BEGIN
 90
        0
 91
        1
 62
     0
 92
       -2
340
14
 93
        0
 40
0.045
309
GRIDFORMAT_END
 95
       32
302
GRIDFORMAT
  1
GRIDFORMAT_BEGIN
 90
        0
 91
        1
 62
     0
 92
       -2
340
14
 93
        0
 40
0.045
309
GRIDFORMAT_END
309
TABLEFORMAT_END
  1
CELLSTYLE_BEGIN
 90
        2
 91
        1
300
_HEADER
309
CELLSTYLE_END
300
CELLSTYLE
  1
TABLEFORMAT_BEGIN
 90
        5
170
     1
 91
        0
 92
        0
 62
   257
 93
        1
300
CONTENTFORMAT
  1
CONTENTFORMAT_BEGIN
 90
        0
 91
        0
 92
        4
 93
        0
300

 40
0.0
140
1.0
 94
        2
 62
     0
340
11
144
4.5
309
CONTENTFORMAT_END
171
     1
301
MARGIN
  1
CELLMARGIN_BEGIN
 40
1.5
 40
1.5
 40
1.5
 40
1.5
 40
1.5
 40
1.5
309
CELLMARGIN_END
 94
        6
 95
        1
302
GRIDFORMAT
  1
GRIDFORMAT_BEGIN
 90
        0
 91
        1
 62
     0
 92
       -2
340
14
 93
        0
 40
0.045
309
GRIDFORMAT_END
 95
        2
302
GRIDFORMAT
  1
GRIDFORMAT_BEGIN
 90
        0
 91
        1
 62
     0
 92
       -2
340
14
 93
        0
 40
0.045
309
GRIDFORMAT_END
 95
        4
302
GRIDFORMAT
  1
GRIDFORMAT_BEGIN
 90
        0
 91
        1
 62
     0
 92
       -2
340
14
 93
        0
 40
0.045
309
GRIDFORMAT_END
 95
        8
302
GRIDFORMAT
  1
GRIDFORMAT_BEGIN
 90
        0
 91
        1
 62
     0
 92
       -2
340
14
 93
        0
 40
0.045
309
GRIDFORMAT_END
 95
       16
302
GRIDFORMAT
  1
GRIDFORMAT_BEGIN
 90
        0
 91
        1
 62
     0
 92
       -2
340
14
 93
        0
 40
0.045
309
GRIDFORMAT_END
 95
       32
302
GRIDFORMAT
  1
GRIDFORMAT_BEGIN
 90
        0
 91
        1
 62
     0
 92
       -2
340
14
 93
        0
 40
0.045
309
GRIDFORMAT_END
309
TABLEFORMAT_END
  1
CELLSTYLE_BEGIN
 90
        3
 91
        2
300
_DATA
309
CELLSTYLE_END
  0
ENDSEC
  0
EOF
