  0
SECTION
  2
HEADER
  9
$ACADVER
  1
AC1027
  9
$ACADMAINTVER
 70
   105
  9
$DWGCODEPAGE
  3
ANSI_1252
  9
$REQUIREDVERSIONS
160
                 0
  9
$COMMENTS
  1
File was created by Cadenas
  9
$CUSTOMPROPERTYTAG
  1
NN
  9
$CUSTOMPROPERTY
  1
Geberit Mepla angle-seat stop valve
  9
$CUSTOMPROPERTYTAG
  1
NT
  9
$CUSTOMPROPERTY
  1

  9
$CUSTOMPROPERTYTAG
  1
NB
  9
$CUSTOMPROPERTY
  1
604032
  9
$CUSTOMPROPERTYTAG
  1
NBSYN
  9
$CUSTOMPROPERTY
  1
$ARTNRTX.
  9
$CUSTOMPROPERTYTAG
  1
LINA
  9
$CUSTOMPROPERTY
  1
604032
  9
$CUSTOMPROPERTYTAG
  1
CATALOG
  9
$CUSTOMPROPERTY
  1
GEBERIT
  9
$CUSTOMPROPERTYTAG
  1
ARTNRT
  9
$CUSTOMPROPERTY
  1
604.032.00.1
  9
$CUSTOMPROPERTYTAG
  1
DD
  9
$CUSTOMPROPERTY
  1
70
  9
$CUSTOMPROPERTYTAG
  1
D
  9
$CUSTOMPROPERTY
  1
32
  9
$CUSTOMPROPERTYTAG
  1
DN
  9
$CUSTOMPROPERTY
  1
25
  9
$CUSTOMPROPERTYTAG
  1
DNV
  9
$CUSTOMPROPERTY
  1
25
  9
$CUSTOMPROPERTYTAG
  1
L
  9
$CUSTOMPROPERTY
  1
154
  9
$CUSTOMPROPERTYTAG
  1
L1
  9
$CUSTOMPROPERTY
  1
56
  9
$CUSTOMPROPERTYTAG
  1
L2
  9
$CUSTOMPROPERTY
  1
132
  9
$CUSTOMPROPERTYTAG
  1
Z
  9
$CUSTOMPROPERTY
  1
26
  9
$CUSTOMPROPERTYTAG
  1
Z1
  9
$CUSTOMPROPERTY
  1
69
  9
$CUSTOMPROPERTYTAG
  1
ARTNRTX
  9
$CUSTOMPROPERTY
  1
604032
  9
$CUSTOMPROPERTYTAG
  1
COMPANY
  9
$CUSTOMPROPERTY
  1
geberit
  9
$INSBASE
 10
0.0
 20
0.0
 30
0.0
  9
$EXTMIN
 10
1.000000000000000E+20
 20
1.000000000000000E+20
 30
1.000000000000000E+20
  9
$EXTMAX
 10
-1.000000000000000E+20
 20
-1.000000000000000E+20
 30
-1.000000000000000E+20
  9
$LIMMIN
 10
0.0
 20
0.0
  9
$LIMMAX
 10
420.0
 20
297.0
  9
$ORTHOMODE
 70
     0
  9
$REGENMODE
 70
     1
  9
$FILLMODE
 70
     1
  9
$QTEXTMODE
 70
     0
  9
$MIRRTEXT
 70
     1
  9
$LTSCALE
 40
1.0
  9
$ATTMODE
 70
     1
  9
$TEXTSIZE
 40
2.5
  9
$TRACEWID
 40
1.0
  9
$TEXTSTYLE
  7
Standard
  9
$CLAYER
  8
0
  9
$CELTYPE
  6
ByLayer
  9
$CECOLOR
 62
   256
  9
$CELTSCALE
 40
1.0
  9
$DISPSILH
 70
     0
  9
$DIMSCALE
 40
1.0
  9
$DIMASZ
 40
2.5
  9
$DIMEXO
 40
0.625
  9
$DIMDLI
 40
3.75
  9
$DIMRND
 40
0.0
  9
$DIMDLE
 40
0.0
  9
$DIMEXE
 40
1.25
  9
$DIMTP
 40
0.0
  9
$DIMTM
 40
0.0
  9
$DIMTXT
 40
2.5
  9
$DIMCEN
 40
2.5
  9
$DIMTSZ
 40
0.0
  9
$DIMTOL
 70
     0
  9
$DIMLIM
 70
     0
  9
$DIMTIH
 70
     0
  9
$DIMTOH
 70
     0
  9
$DIMSE1
 70
     0
  9
$DIMSE2
 70
     0
  9
$DIMTAD
 70
     1
  9
$DIMZIN
 70
     8
  9
$DIMBLK
  1

  9
$DIMASO
 70
     1
  9
$DIMSHO
 70
     1
  9
$DIMPOST
  1

  9
$DIMAPOST
  1

  9
$DIMALT
 70
     0
  9
$DIMALTD
 70
     3
  9
$DIMALTF
 40
0.03937007874016
  9
$DIMLFAC
 40
1.0
  9
$DIMTOFL
 70
     1
  9
$DIMTVP
 40
0.0
  9
$DIMTIX
 70
     0
  9
$DIMSOXD
 70
     0
  9
$DIMSAH
 70
     0
  9
$DIMBLK1
  1

  9
$DIMBLK2
  1

  9
$DIMSTYLE
  2
ISO-25
  9
$DIMCLRD
 70
     0
  9
$DIMCLRE
 70
     0
  9
$DIMCLRT
 70
     0
  9
$DIMTFAC
 40
1.0
  9
$DIMGAP
 40
0.625
  9
$DIMJUST
 70
     0
  9
$DIMSD1
 70
     0
  9
$DIMSD2
 70
     0
  9
$DIMTOLJ
 70
     0
  9
$DIMTZIN
 70
     8
  9
$DIMALTZ
 70
     0
  9
$DIMALTTZ
 70
     0
  9
$DIMUPT
 70
     0
  9
$DIMDEC
 70
     2
  9
$DIMTDEC
 70
     2
  9
$DIMALTU
 70
     2
  9
$DIMALTTD
 70
     3
  9
$DIMTXSTY
  7
Standard
  9
$DIMAUNIT
 70
     0
  9
$DIMADEC
 70
     0
  9
$DIMALTRND
 40
0.0
  9
$DIMAZIN
 70
     0
  9
$DIMDSEP
 70
    44
  9
$DIMATFIT
 70
     3
  9
$DIMFRAC
 70
     0
  9
$DIMLDRBLK
  1

  9
$DIMLUNIT
 70
     2
  9
$DIMLWD
 70
    -2
  9
$DIMLWE
 70
    -2
  9
$DIMTMOVE
 70
     0
  9
$DIMFXL
 40
1.0
  9
$DIMFXLON
 70
     0
  9
$DIMJOGANG
 40
0.7853981633974483
  9
$DIMTFILL
 70
     0
  9
$DIMTFILLCLR
 70
     0
  9
$DIMARCSYM
 70
     0
  9
$DIMLTYPE
  6

  9
$DIMLTEX1
  6

  9
$DIMLTEX2
  6

  9
$DIMTXTDIRECTION
 70
     0
  9
$LUNITS
 70
     2
  9
$LUPREC
 70
     4
  9
$SKETCHINC
 40
1.0
  9
$FILLETRAD
 40
10.0
  9
$AUNITS
 70
     0
  9
$AUPREC
 70
     0
  9
$MENU
  1
.
  9
$ELEVATION
 40
0.0
  9
$PELEVATION
 40
0.0
  9
$THICKNESS
 40
0.0
  9
$LIMCHECK
 70
     0
  9
$CHAMFERA
 40
0.0
  9
$CHAMFERB
 40
0.0
  9
$CHAMFERC
 40
0.0
  9
$CHAMFERD
 40
0.0
  9
$SKPOLY
 70
     0
  9
$TDCREATE
 40
2458934.709972141
  9
$TDUCREATE
 40
2458934.668305474
  9
$TDUPDATE
 40
2458934.70997228
  9
$TDUUPDATE
 40
2458934.668305614
  9
$TDINDWG
 40
0.0000000116
  9
$TDUSRTIMER
 40
0.0000000116
  9
$USRTIMER
 70
     1
  9
$ANGBASE
 50
0.0
  9
$ANGDIR
 70
     0
  9
$PDMODE
 70
     0
  9
$PDSIZE
 40
0.0
  9
$PLINEWID
 40
0.0
  9
$SPLFRAME
 70
     0
  9
$SPLINETYPE
 70
     6
  9
$SPLINESEGS
 70
     8
  9
$HANDSEED
  5
220
  9
$SURFTAB1
 70
     6
  9
$SURFTAB2
 70
     6
  9
$SURFTYPE
 70
     6
  9
$SURFU
 70
     6
  9
$SURFV
 70
     6
  9
$UCSBASE
  2

  9
$UCSNAME
  2

  9
$UCSORG
 10
0.0
 20
0.0
 30
0.0
  9
$UCSXDIR
 10
1.0
 20
0.0
 30
0.0
  9
$UCSYDIR
 10
0.0
 20
1.0
 30
0.0
  9
$UCSORTHOREF
  2

  9
$UCSORTHOVIEW
 70
     0
  9
$UCSORGTOP
 10
0.0
 20
0.0
 30
0.0
  9
$UCSORGBOTTOM
 10
0.0
 20
0.0
 30
0.0
  9
$UCSORGLEFT
 10
0.0
 20
0.0
 30
0.0
  9
$UCSORGRIGHT
 10
0.0
 20
0.0
 30
0.0
  9
$UCSORGFRONT
 10
0.0
 20
0.0
 30
0.0
  9
$UCSORGBACK
 10
0.0
 20
0.0
 30
0.0
  9
$PUCSBASE
  2

  9
$PUCSNAME
  2

  9
$PUCSORG
 10
0.0
 20
0.0
 30
0.0
  9
$PUCSXDIR
 10
1.0
 20
0.0
 30
0.0
  9
$PUCSYDIR
 10
0.0
 20
1.0
 30
0.0
  9
$PUCSORTHOREF
  2

  9
$PUCSORTHOVIEW
 70
     0
  9
$PUCSORGTOP
 10
0.0
 20
0.0
 30
0.0
  9
$PUCSORGBOTTOM
 10
0.0
 20
0.0
 30
0.0
  9
$PUCSORGLEFT
 10
0.0
 20
0.0
 30
0.0
  9
$PUCSORGRIGHT
 10
0.0
 20
0.0
 30
0.0
  9
$PUCSORGFRONT
 10
0.0
 20
0.0
 30
0.0
  9
$PUCSORGBACK
 10
0.0
 20
0.0
 30
0.0
  9
$USERI1
 70
     0
  9
$USERI2
 70
     0
  9
$USERI3
 70
     0
  9
$USERI4
 70
     0
  9
$USERI5
 70
     0
  9
$USERR1
 40
0.0
  9
$USERR2
 40
0.0
  9
$USERR3
 40
0.0
  9
$USERR4
 40
0.0
  9
$USERR5
 40
0.0
  9
$WORLDVIEW
 70
     1
  9
$SHADEDGE
 70
     3
  9
$SHADEDIF
 70
    70
  9
$TILEMODE
 70
     1
  9
$MAXACTVP
 70
    64
  9
$PINSBASE
 10
0.0
 20
0.0
 30
0.0
  9
$PLIMCHECK
 70
     0
  9
$PEXTMIN
 10
1.000000000000000E+20
 20
1.000000000000000E+20
 30
1.000000000000000E+20
  9
$PEXTMAX
 10
-1.000000000000000E+20
 20
-1.000000000000000E+20
 30
-1.000000000000000E+20
  9
$PLIMMIN
 10
0.0
 20
0.0
  9
$PLIMMAX
 10
420.0
 20
297.0
  9
$UNITMODE
 70
     0
  9
$VISRETAIN
 70
     1
  9
$PLINEGEN
 70
     0
  9
$PSLTSCALE
 70
     1
  9
$TREEDEPTH
 70
  3020
  9
$CMLSTYLE
  2
Standard
  9
$CMLJUST
 70
     0
  9
$CMLSCALE
 40
20.0
  9
$PROXYGRAPHICS
 70
     1
  9
$MEASUREMENT
 70
     1
  9
$CELWEIGHT
370
    -1
  9
$ENDCAPS
280
     0
  9
$JOINSTYLE
280
     0
  9
$LWDISPLAY
290
     0
  9
$INSUNITS
 70
     4
  9
$HYPERLINKBASE
  1

  9
$STYLESHEET
  1

  9
$XEDIT
290
     1
  9
$CEPSNTYPE
380
     0
  9
$PSTYLEMODE
290
     1
  9
$FINGERPRINTGUID
  2
{1F8A8FD0-C49F-460E-A79E-D2EBF1B25791}
  9
$VERSIONGUID
  2
{FAEB1C32-E019-11D5-929B-00C0DF256EC4}
  9
$EXTNAMES
290
     1
  9
$PSVPSCALE
 40
0.0
  9
$OLESTARTUP
290
     0
  9
$SORTENTS
280
   127
  9
$INDEXCTL
280
     0
  9
$HIDETEXT
280
     1
  9
$XCLIPFRAME
280
     2
  9
$HALOGAP
280
     0
  9
$OBSCOLOR
 70
   257
  9
$OBSLTYPE
280
     0
  9
$INTERSECTIONDISPLAY
280
     0
  9
$INTERSECTIONCOLOR
 70
   257
  9
$DIMASSOC
280
     2
  9
$PROJECTNAME
  1

  9
$CAMERADISPLAY
290
     0
  9
$LENSLENGTH
 40
50.0
  9
$CAMERAHEIGHT
 40
0.0
  9
$STEPSPERSEC
 40
2.0
  9
$STEPSIZE
 40
6.0
  9
$3DDWFPREC
 40
2.0
  9
$PSOLWIDTH
 40
5.0
  9
$PSOLHEIGHT
 40
80.0
  9
$LOFTANG1
 40
1.570796326794897
  9
$LOFTANG2
 40
1.570796326794897
  9
$LOFTMAG1
 40
0.0
  9
$LOFTMAG2
 40
0.0
  9
$LOFTPARAM
 70
     7
  9
$LOFTNORMALS
280
     1
  9
$LATITUDE
 40
37.795
  9
$LONGITUDE
 40
-122.394
  9
$NORTHDIRECTION
 40
0.0
  9
$TIMEZONE
 70
 -8000
  9
$LIGHTGLYPHDISPLAY
280
     1
  9
$TILEMODELIGHTSYNCH
280
     1
  9
$CMATERIAL
347
44
  9
$SOLIDHIST
280
     0
  9
$SHOWHIST
280
     1
  9
$DWFFRAME
280
     2
  9
$DGNFRAME
280
     2
  9
$REALWORLDSCALE
290
     1
  9
$INTERFERECOLOR
 62
   256
  9
$CSHADOW
280
     0
  9
$SHADOWPLANELOCATION
 40
0.0
  0
ENDSEC
  0
SECTION
  2
CLASSES
  0
CLASS
  1
ACDBDICTIONARYWDFLT
  2
AcDbDictionaryWithDefault
  3
ObjectDBX Classes
 90
        0
 91
        4
280
     0
281
     0
  0
CLASS
  1
VISUALSTYLE
  2
AcDbVisualStyle
  3
ObjectDBX Classes
 90
     4095
 91
        4
280
     0
281
     0
  0
CLASS
  1
MATERIAL
  2
AcDbMaterial
  3
ObjectDBX Classes
 90
     1153
 91
        4
280
     0
281
     0
  0
CLASS
  1
SCALE
  2
AcDbScale
  3
ObjectDBX Classes
 90
     1153
 91
        4
280
     0
281
     0
  0
CLASS
  1
TABLESTYLE
  2
AcDbTableStyle
  3
ObjectDBX Classes
 90
     4095
 91
        4
280
     0
281
     0
  0
CLASS
  1
MLEADERSTYLE
  2
AcDbMLeaderStyle
  3
ACDB_MLEADERSTYLE_CLASS
 90
     4095
 91
        4
280
     0
281
     0
  0
CLASS
  1
SUN
  2
AcDbSun
  3
SCENEOE
 90
     1153
 91
        4
280
     0
281
     0
  0
CLASS
  1
DICTIONARYVAR
  2
AcDbDictionaryVar
  3
ObjectDBX Classes
 90
        0
 91
        4
280
     0
281
     0
  0
CLASS
  1
CELLSTYLEMAP
  2
AcDbCellStyleMap
  3
ObjectDBX Classes
 90
     1152
 91
        4
280
     0
281
     0
  0
ENDSEC
  0
SECTION
  2
TABLES
  0
TABLE
  2
VPORT
  5
8
330
0
100
AcDbSymbolTable
 70
     1
  0
VPORT
  5
29
330
8
100
AcDbSymbolTableRecord
100
AcDbViewportTableRecord
  2
*Active
 70
     0
 10
0.0
 20
0.0
 11
1.0
 21
1.0
 12
-8.99671708797581
 22
0.3840752518063368
 13
0.0
 23
0.0
 14
10.0
 24
10.0
 15
10.0
 25
10.0
 16
0.0
 26
0.0
 36
1.0
 17
0.0
 27
0.0
 37
0.0
 40
71.84735333649199
 41
2.901725577601491
 42
50.0
 43
0.0
 44
0.0
 50
0.0
 51
0.0
 71
     0
 72
   100
 73
     1
 74
     3
 75
     0
 76
     0
 77
     0
 78
     0
281
     0
 65
     1
110
0.0
120
0.0
130
0.0
111
1.0
121
0.0
131
0.0
112
0.0
122
1.0
132
0.0
 79
     0
146
0.0
348
2F
 60
     3
 61
     5
292
     1
282
     1
141
0.0
142
0.0
 63
   250
361
6D
  0
ENDTAB
  0
TABLE
  2
LTYPE
  5
5
330
0
100
AcDbSymbolTable
 70
     3
  0
LTYPE
  5
14
330
5
100
AcDbSymbolTableRecord
100
AcDbLinetypeTableRecord
  2
ByBlock
 70
     0
  3

 72
    65
 73
     0
 40
0.0
  0
LTYPE
  5
15
330
5
100
AcDbSymbolTableRecord
100
AcDbLinetypeTableRecord
  2
ByLayer
 70
     0
  3

 72
    65
 73
     0
 40
0.0
  0
LTYPE
  5
16
330
5
100
AcDbSymbolTableRecord
100
AcDbLinetypeTableRecord
  2
Continuous
 70
     0
  3
Solid line
 72
    65
 73
     0
 40
0.0
  0
LTYPE
  5
81
330
5
100
AcDbSymbolTableRecord
100
AcDbLinetypeTableRecord
  2
Dashed
 70
     0
  3

 72
    65
 73
     2
 40
2.0
 49
1.0
 74
     0
 49
-1.0
 74
     0
  0
LTYPE
  5
20D
330
5
100
AcDbSymbolTableRecord
100
AcDbLinetypeTableRecord
  2
Center
 70
     0
  3

 72
    65
 73
     4
 40
1.5
 49
0.45
 74
     0
 49
-0.5
 74
     0
 49
0.05
 74
     0
 49
-0.5
 74
     0
  0
ENDTAB
  0
TABLE
  2
LAYER
  5
2
330
0
100
AcDbSymbolTable
 70
     5
  0
LAYER
  5
10
330
2
100
AcDbSymbolTableRecord
100
AcDbLayerTableRecord
  2
0
 70
     0
 62
     7
  6
Continuous
370
    -3
390
F
347
46
348
0
  0
LAYER
  5
6E
330
2
100
AcDbSymbolTableRecord
100
AcDbLayerTableRecord
  2
AM_6
 70
     0
 62
    -2
  6
Continuous
370
    35
390
F
347
46
348
0
  0
LAYER
  5
82
330
2
100
AcDbSymbolTableRecord
100
AcDbLayerTableRecord
  2
VER
 70
     0
 62
    -6
  6
Dashed
370
    25
390
F
347
46
348
0
  0
LAYER
  5
8B
330
2
100
AcDbSymbolTableRecord
100
AcDbLayerTableRecord
  2
050
 70
     0
 62
     7
  6
Continuous
370
    50
390
F
347
46
348
0
  0
LAYER
  5
20E
330
2
100
AcDbSymbolTableRecord
100
AcDbLayerTableRecord
  2
MITTE
 70
     0
 62
     7
  6
Center
370
    25
390
F
347
46
348
0
  0
ENDTAB
  0
TABLE
  2
STYLE
  5
3
330
0
100
AcDbSymbolTable
 70
     1
  0
STYLE
  5
11
330
3
100
AcDbSymbolTableRecord
100
AcDbTextStyleTableRecord
  2
Standard
 70
     0
 40
0.0
 41
1.0
 50
0.0
 71
     0
 42
2.5
  3
txt
  4

  0
ENDTAB
  0
TABLE
  2
VIEW
  5
6
330
0
100
AcDbSymbolTable
 70
     0
  0
ENDTAB
  0
TABLE
  2
UCS
  5
7
330
0
100
AcDbSymbolTable
 70
     0
  0
ENDTAB
  0
TABLE
  2
APPID
  5
9
330
0
100
AcDbSymbolTable
 70
     1
  0
APPID
  5
12
330
9
100
AcDbSymbolTableRecord
100
AcDbRegAppTableRecord
  2
ACAD
 70
     0
  0
ENDTAB
  0
TABLE
  2
DIMSTYLE
  5
A
330
0
100
AcDbSymbolTable
 70
     1
100
AcDbDimStyleTable
  0
DIMSTYLE
105
27
330
A
100
AcDbSymbolTableRecord
100
AcDbDimStyleTableRecord
  2
ISO-25
 70
     0
 41
2.5
 42
0.625
 43
3.75
 44
1.25
 73
     0
 74
     0
 77
     1
 78
     8
140
2.5
141
2.5
143
0.03937007874016
147
0.625
171
     3
172
     1
178
     0
271
     2
272
     2
274
     3
278
    44
283
     0
284
     8
340
11
  0
ENDTAB
  0
TABLE
  2
BLOCK_RECORD
  5
1
330
0
100
AcDbSymbolTable
 70
     1
  0
BLOCK_RECORD
  5
1F
330
1
100
AcDbSymbolTableRecord
100
AcDbBlockTableRecord
  2
*Model_Space
340
22
 70
     0
280
     1
281
     0
  0
BLOCK_RECORD
  5
1B
330
1
100
AcDbSymbolTableRecord
100
AcDbBlockTableRecord
  2
*Paper_Space
340
1E
 70
     0
280
     1
281
     0
  0
BLOCK_RECORD
  5
23
330
1
100
AcDbSymbolTableRecord
100
AcDbBlockTableRecord
  2
*Paper_Space0
340
26
 70
     0
280
     1
281
     0
  0
ENDTAB
  0
ENDSEC
  0
SECTION
  2
BLOCKS
  0
BLOCK
  5
20
330
1F
100
AcDbEntity
  8
0
100
AcDbBlockBegin
  2
*Model_Space
 70
     0
 10
0.0
 20
0.0
 30
0.0
  3
*Model_Space
  1

  0
ENDBLK
  5
21
330
1F
100
AcDbEntity
  8
0
100
AcDbBlockEnd
  0
BLOCK
  5
1C
330
1B
100
AcDbEntity
 67
     1
  8
0
100
AcDbBlockBegin
  2
*Paper_Space
 70
     0
 10
0.0
 20
0.0
 30
0.0
  3
*Paper_Space
  1

  0
ENDBLK
  5
1D
330
1B
100
AcDbEntity
 67
     1
  8
0
100
AcDbBlockEnd
  0
BLOCK
  5
24
330
23
100
AcDbEntity
  8
0
100
AcDbBlockBegin
  2
*Paper_Space0
 70
     0
 10
0.0
 20
0.0
 30
0.0
  3
*Paper_Space0
  1

  0
ENDBLK
  5
25
330
23
100
AcDbEntity
  8
0
100
AcDbBlockEnd
  0
ENDSEC
  0
SECTION
  2
ENTITIES
  0
ATTDEF
  5
6F
330
1F
100
AcDbEntity
  8
AM_6
100
AcDbText
 10
89.7
 20
35.00000000000001
 30
0.0
 40
0.5
  1
Geberit Mepla angle-seat stop valve
100
AcDbAttributeDefinition
  3

  2
NN
 70
     8
280
     0
  0
ATTDEF
  5
70
330
1F
100
AcDbEntity
  8
AM_6
100
AcDbText
 10
89.7
 20
34.50000000000001
 30
0.0
 40
0.5
  1

100
AcDbAttributeDefinition
  3

  2
NT
 70
     8
280
     0
  0
ATTDEF
  5
71
330
1F
100
AcDbEntity
  8
AM_6
100
AcDbText
 10
89.7
 20
34.00000000000001
 30
0.0
 40
0.5
  1
604032
100
AcDbAttributeDefinition
  3

  2
NB
 70
     8
280
     0
  0
ATTDEF
  5
72
330
1F
100
AcDbEntity
  8
AM_6
100
AcDbText
 10
89.7
 20
33.50000000000001
 30
0.0
 40
0.5
  1
$ARTNRTX.
100
AcDbAttributeDefinition
  3

  2
NBSYN
 70
     8
280
     0
  0
ATTDEF
  5
73
330
1F
100
AcDbEntity
  8
AM_6
100
AcDbText
 10
89.7
 20
33.00000000000001
 30
0.0
 40
0.5
  1
604032
100
AcDbAttributeDefinition
  3

  2
LINA
 70
     8
280
     0
  0
ATTDEF
  5
74
330
1F
100
AcDbEntity
  8
AM_6
100
AcDbText
 10
89.7
 20
32.50000000000001
 30
0.0
 40
0.5
  1
GEBERIT
100
AcDbAttributeDefinition
  3

  2
CATALOG
 70
     8
280
     0
  0
ATTDEF
  5
75
330
1F
100
AcDbEntity
  8
AM_6
100
AcDbText
 10
89.7
 20
32.00000000000001
 30
0.0
 40
0.5
  1
604.032.00.1
100
AcDbAttributeDefinition
  3

  2
ARTNRT
 70
     8
280
     0
  0
ATTDEF
  5
76
330
1F
100
AcDbEntity
  8
AM_6
100
AcDbText
 10
89.7
 20
31.50000000000001
 30
0.0
 40
0.5
  1
70
100
AcDbAttributeDefinition
  3

  2
DD
 70
     8
280
     0
  0
ATTDEF
  5
77
330
1F
100
AcDbEntity
  8
AM_6
100
AcDbText
 10
89.7
 20
31.00000000000001
 30
0.0
 40
0.5
  1
32
100
AcDbAttributeDefinition
  3

  2
D
 70
     8
280
     0
  0
ATTDEF
  5
78
330
1F
100
AcDbEntity
  8
AM_6
100
AcDbText
 10
89.7
 20
30.50000000000001
 30
0.0
 40
0.5
  1
25
100
AcDbAttributeDefinition
  3

  2
DN
 70
     8
280
     0
  0
ATTDEF
  5
79
330
1F
100
AcDbEntity
  8
AM_6
100
AcDbText
 10
89.7
 20
30.00000000000001
 30
0.0
 40
0.5
  1
25
100
AcDbAttributeDefinition
  3

  2
DNV
 70
     8
280
     0
  0
ATTDEF
  5
7A
330
1F
100
AcDbEntity
  8
AM_6
100
AcDbText
 10
89.7
 20
29.50000000000001
 30
0.0
 40
0.5
  1
154
100
AcDbAttributeDefinition
  3

  2
L
 70
     8
280
     0
  0
ATTDEF
  5
7B
330
1F
100
AcDbEntity
  8
AM_6
100
AcDbText
 10
89.7
 20
29.00000000000001
 30
0.0
 40
0.5
  1
56
100
AcDbAttributeDefinition
  3

  2
L1
 70
     8
280
     0
  0
ATTDEF
  5
7C
330
1F
100
AcDbEntity
  8
AM_6
100
AcDbText
 10
89.7
 20
28.50000000000001
 30
0.0
 40
0.5
  1
132
100
AcDbAttributeDefinition
  3

  2
L2
 70
     8
280
     0
  0
ATTDEF
  5
7D
330
1F
100
AcDbEntity
  8
AM_6
100
AcDbText
 10
89.7
 20
28.00000000000001
 30
0.0
 40
0.5
  1
26
100
AcDbAttributeDefinition
  3

  2
Z
 70
     8
280
     0
  0
ATTDEF
  5
7E
330
1F
100
AcDbEntity
  8
AM_6
100
AcDbText
 10
89.7
 20
27.50000000000001
 30
0.0
 40
0.5
  1
69
100
AcDbAttributeDefinition
  3

  2
Z1
 70
     8
280
     0
  0
ATTDEF
  5
7F
330
1F
100
AcDbEntity
  8
AM_6
100
AcDbText
 10
89.7
 20
27.00000000000001
 30
0.0
 40
0.5
  1
604032
100
AcDbAttributeDefinition
  3

  2
ARTNRTX
 70
     8
280
     0
  0
ATTDEF
  5
80
330
1F
100
AcDbEntity
  8
AM_6
100
AcDbText
 10
89.7
 20
26.50000000000001
 30
0.0
 40
0.5
  1
geberit
100
AcDbAttributeDefinition
  3

  2
COMPANY
 70
     8
280
     0
  0
LINE
  5
83
330
1F
100
AcDbEntity
  8
VER
100
AcDbLine
 10
68.48999999999998
 20
9.4
 30
0.0
 11
-68.48999999999998
 21
9.4
 31
0.0
  0
LINE
  5
84
330
1F
100
AcDbEntity
  8
VER
100
AcDbLine
 10
-68.48999999999998
 20
-9.4
 30
0.0
 11
68.48999999999998
 21
-9.4
 31
0.0
  0
LINE
  5
85
330
1F
100
AcDbEntity
  8
VER
100
AcDbLine
 10
68.48999999999998
 20
-9.4
 30
0.0
 11
76.58682408883345
 21
-10.82768854491156
 31
0.0
  0
LINE
  5
86
330
1F
100
AcDbEntity
  8
VER
100
AcDbLine
 10
76.58682408883345
 20
10.82768854491156
 30
0.0
 11
68.48999999999998
 21
9.4
 31
0.0
  0
LINE
  5
87
330
1F
100
AcDbEntity
  8
VER
100
AcDbLine
 10
68.48999999999998
 20
-9.4
 30
0.0
 11
68.48999999999998
 21
9.4
 31
0.0
  0
LINE
  5
88
330
1F
100
AcDbEntity
  8
VER
100
AcDbLine
 10
-68.48999999999998
 20
9.4
 30
0.0
 11
-76.58682408883347
 21
10.82768854491158
 31
0.0
  0
LINE
  5
89
330
1F
100
AcDbEntity
  8
VER
100
AcDbLine
 10
-76.58682408883347
 20
-10.82768854491158
 30
0.0
 11
-68.48999999999998
 21
-9.4
 31
0.0
  0
LINE
  5
8A
330
1F
100
AcDbEntity
  8
VER
100
AcDbLine
 10
-68.48999999999998
 20
-9.4
 30
0.0
 11
-68.48999999999998
 21
9.4
 31
0.0
  0
LINE
  5
8C
330
1F
100
AcDbEntity
  8
050
100
AcDbLine
 10
64.50000000000001
 20
11.0
 30
0.0
 11
58.1
 21
11.0
 31
0.0
  0
LINE
  5
8D
330
1F
100
AcDbEntity
  8
050
100
AcDbLine
 10
58.1
 20
-11.0
 30
0.0
 11
64.50000000000001
 21
-11.0
 31
0.0
  0
LINE
  5
8E
330
1F
100
AcDbEntity
  8
VER
100
AcDbLine
 10
-58.10000000000001
 20
11.0
 30
0.0
 11
-64.5
 21
11.0
 31
0.0
  0
LINE
  5
8F
330
1F
100
AcDbEntity
  8
VER
100
AcDbLine
 10
-64.5
 20
-11.0
 30
0.0
 11
-58.10000000000001
 21
-11.0
 31
0.0
  0
ARC
  5
90
330
1F
100
AcDbEntity
  8
VER
100
AcDbCircle
 10
-76.49999999999994
 20
11.32009242141772
 30
0.0
 40
0.5000000000000426
100
AcDbArc
 50
180.0000000000036
 51
259.9999999999941
  0
ARC
  5
91
330
1F
100
AcDbEntity
  8
VER
100
AcDbCircle
 10
-76.49999999999994
 20
-11.32009242141772
 30
0.0
 40
0.5000000000000439
100
AcDbArc
 50
100.0000000000059
 51
179.9999999999964
  0
LINE
  5
92
330
1F
100
AcDbEntity
  8
VER
100
AcDbLine
 10
-76.58682408883347
 20
-10.82768854491158
 30
0.0
 11
-76.58682408883347
 21
10.82768854491158
 31
0.0
  0
ARC
  5
93
330
1F
100
AcDbEntity
  8
VER
100
AcDbCircle
 10
76.5
 20
11.32009242141768
 30
0.0
 40
0.5000000000000088
100
AcDbArc
 50
279.9999999999984
 51
0.0000000000008142
  0
ARC
  5
94
330
1F
100
AcDbEntity
  8
VER
100
AcDbCircle
 10
76.5
 20
-11.32009242141768
 30
0.0
 40
0.5
100
AcDbArc
 50
359.9999999999993
 51
80.00000000000165
  0
LINE
  5
95
330
1F
100
AcDbEntity
  8
VER
100
AcDbLine
 10
76.58682408883345
 20
-10.82768854491156
 30
0.0
 11
76.58682408883345
 21
10.82768854491156
 31
0.0
  0
LINE
  5
96
330
1F
100
AcDbEntity
  8
050
100
AcDbLine
 10
-51.56
 20
11.95
 30
0.0
 11
-52.2
 21
11.95
 31
0.0
  0
LINE
  5
97
330
1F
100
AcDbEntity
  8
050
100
AcDbLine
 10
-52.2
 20
-11.95
 30
0.0
 11
-51.56
 21
-11.95
 31
0.0
  0
LINE
  5
98
330
1F
100
AcDbEntity
  8
050
100
AcDbLine
 10
-53.06
 20
11.95
 30
0.0
 11
-53.40000000000001
 21
11.95
 31
0.0
  0
LINE
  5
99
330
1F
100
AcDbEntity
  8
050
100
AcDbLine
 10
-53.40000000000001
 20
-11.95
 30
0.0
 11
-53.06
 21
-11.95
 31
0.0
  0
LINE
  5
9A
330
1F
100
AcDbEntity
  8
050
100
AcDbLine
 10
53.40000000000002
 20
11.95
 30
0.0
 11
53.06000000000001
 21
11.95
 31
0.0
  0
LINE
  5
9B
330
1F
100
AcDbEntity
  8
050
100
AcDbLine
 10
53.06000000000001
 20
-11.95
 30
0.0
 11
53.40000000000002
 21
-11.95
 31
0.0
  0
LINE
  5
9C
330
1F
100
AcDbEntity
  8
050
100
AcDbLine
 10
52.20000000000001
 20
11.95
 30
0.0
 11
51.56000000000001
 21
11.95
 31
0.0
  0
LINE
  5
9D
330
1F
100
AcDbEntity
  8
050
100
AcDbLine
 10
51.56000000000001
 20
-11.95
 30
0.0
 11
52.20000000000001
 21
-11.95
 31
0.0
  0
LINE
  5
9E
330
1F
100
AcDbEntity
  8
050
100
AcDbLine
 10
50.70000000000001
 20
12.15
 30
0.0
 11
47.5
 21
12.15
 31
0.0
  0
LINE
  5
9F
330
1F
100
AcDbEntity
  8
050
100
AcDbLine
 10
47.5
 20
-12.15
 30
0.0
 11
50.70000000000001
 21
-12.15
 31
0.0
  0
LINE
  5
A0
330
1F
100
AcDbEntity
  8
050
100
AcDbLine
 10
-47.5
 20
12.15
 30
0.0
 11
-50.7
 21
12.15
 31
0.0
  0
LINE
  5
A1
330
1F
100
AcDbEntity
  8
050
100
AcDbLine
 10
-50.7
 20
-12.15
 30
0.0
 11
-47.5
 21
-12.15
 31
0.0
  0
LINE
  5
A2
330
1F
100
AcDbEntity
  8
050
100
AcDbLine
 10
-77.0
 20
10.0
 30
0.0
 11
-77.0
 21
11.98537920540369
 31
0.0
  0
LINE
  5
A3
330
1F
100
AcDbEntity
  8
VER
100
AcDbLine
 10
-77.0
 20
-9.999999999999993
 30
0.0
 11
-77.0
 21
10.0
 31
0.0
  0
LINE
  5
A4
330
1F
100
AcDbEntity
  8
050
100
AcDbLine
 10
-77.0
 20
-11.98537920540369
 30
0.0
 11
-77.0
 21
-9.999999999999993
 31
0.0
  0
ARC
  5
A5
330
1F
100
AcDbEntity
  8
050
100
AcDbCircle
 10
-76.60000000000004
 20
11.98537920540372
 30
0.0
 40
0.3999999999999674
100
AcDbArc
 50
99.99999999999523
 51
180.0000000000036
  0
ARC
  5
A6
330
1F
100
AcDbEntity
  8
050
100
AcDbCircle
 10
-76.60000000000004
 20
-11.98537920540372
 30
0.0
 40
0.3999999999999631
100
AcDbArc
 50
179.9999999999964
 51
260.0000000000048
  0
LINE
  5
A7
330
1F
100
AcDbEntity
  8
050
100
AcDbLine
 10
77.0
 20
-11.98537920540369
 30
0.0
 11
77.0
 21
11.98537920540369
 31
0.0
  0
ARC
  5
A8
330
1F
100
AcDbEntity
  8
050
100
AcDbCircle
 10
76.60000000000007
 20
11.98537920540375
 30
0.0
 40
0.3999999999999346
100
AcDbArc
 50
359.9999999999924
 51
80.00000000000603
  0
ARC
  5
A9
330
1F
100
AcDbEntity
  8
050
100
AcDbCircle
 10
76.60000000000007
 20
-11.98537920540375
 30
0.0
 40
0.3999999999999352
100
AcDbArc
 50
279.999999999994
 51
0.0000000000076333
  0
LINE
  5
AA
330
1F
100
AcDbEntity
  8
050
100
AcDbLine
 10
-53.06
 20
-11.95
 30
0.0
 11
-52.2
 21
-12.55217848286035
 31
0.0
  0
LINE
  5
AB
330
1F
100
AcDbEntity
  8
050
100
AcDbLine
 10
-52.2
 20
12.55217848286035
 30
0.0
 11
-53.06
 21
11.95
 31
0.0
  0
LINE
  5
AC
330
1F
100
AcDbEntity
  8
050
100
AcDbLine
 10
-52.2
 20
10.35578291427178
 30
0.0
 11
-52.2
 21
12.55217848286035
 31
0.0
  0
LINE
  5
AD
330
1F
100
AcDbEntity
  8
VER
100
AcDbLine
 10
-52.2
 20
-10.35578291427177
 30
0.0
 11
-52.2
 21
10.35578291427178
 31
0.0
  0
LINE
  5
AE
330
1F
100
AcDbEntity
  8
050
100
AcDbLine
 10
-52.2
 20
-12.55217848286035
 30
0.0
 11
-52.2
 21
-10.35578291427177
 31
0.0
  0
LINE
  5
AF
330
1F
100
AcDbEntity
  8
050
100
AcDbLine
 10
-53.06
 20
10.07692769619991
 30
0.0
 11
-53.06
 21
11.95
 31
0.0
  0
LINE
  5
B0
330
1F
100
AcDbEntity
  8
VER
100
AcDbLine
 10
-53.06
 20
-10.0769276961999
 30
0.0
 11
-53.06
 21
10.07692769619991
 31
0.0
  0
LINE
  5
B1
330
1F
100
AcDbEntity
  8
050
100
AcDbLine
 10
-53.06
 20
-11.95
 30
0.0
 11
-53.06
 21
-10.0769276961999
 31
0.0
  0
LINE
  5
B2
330
1F
100
AcDbEntity
  8
050
100
AcDbLine
 10
-51.56
 20
-11.95
 30
0.0
 11
-50.7
 21
-12.55217848286035
 31
0.0
  0
LINE
  5
B3
330
1F
100
AcDbEntity
  8
050
100
AcDbLine
 10
-50.7
 20
12.55217848286035
 30
0.0
 11
-51.56
 21
11.95
 31
0.0
  0
LINE
  5
B4
330
1F
100
AcDbEntity
  8
050
100
AcDbLine
 10
-50.7
 20
10.49999999999999
 30
0.0
 11
-50.7
 21
12.55217848286035
 31
0.0
  0
LINE
  5
B5
330
1F
100
AcDbEntity
  8
VER
100
AcDbLine
 10
-50.7
 20
-10.49999999999999
 30
0.0
 11
-50.7
 21
10.49999999999999
 31
0.0
  0
LINE
  5
B6
330
1F
100
AcDbEntity
  8
050
100
AcDbLine
 10
-50.7
 20
-12.55217848286035
 30
0.0
 11
-50.7
 21
-10.49999999999999
 31
0.0
  0
LINE
  5
B7
330
1F
100
AcDbEntity
  8
050
100
AcDbLine
 10
-51.56
 20
10.46720780291249
 30
0.0
 11
-51.56
 21
11.95
 31
0.0
  0
LINE
  5
B8
330
1F
100
AcDbEntity
  8
VER
100
AcDbLine
 10
-51.56
 20
-10.46720780291248
 30
0.0
 11
-51.56
 21
10.46720780291249
 31
0.0
  0
LINE
  5
B9
330
1F
100
AcDbEntity
  8
050
100
AcDbLine
 10
-51.56
 20
-11.95
 30
0.0
 11
-51.56
 21
-10.46720780291248
 31
0.0
  0
LINE
  5
BA
330
1F
100
AcDbEntity
  8
050
100
AcDbLine
 10
53.06000000000001
 20
11.95
 30
0.0
 11
52.20000000000001
 21
12.55217848286035
 31
0.0
  0
LINE
  5
BB
330
1F
100
AcDbEntity
  8
050
100
AcDbLine
 10
52.20000000000001
 20
-12.55217848286035
 30
0.0
 11
53.06000000000001
 21
-11.95
 31
0.0
  0
LINE
  5
BC
330
1F
100
AcDbEntity
  8
050
100
AcDbLine
 10
53.06000000000001
 20
-11.95
 30
0.0
 11
53.06000000000001
 21
11.95
 31
0.0
  0
LINE
  5
BD
330
1F
100
AcDbEntity
  8
050
100
AcDbLine
 10
52.20000000000001
 20
-12.55217848286035
 30
0.0
 11
52.20000000000001
 21
12.55217848286035
 31
0.0
  0
LINE
  5
BE
330
1F
100
AcDbEntity
  8
050
100
AcDbLine
 10
51.56000000000001
 20
11.95
 30
0.0
 11
50.70000000000001
 21
12.55217848286035
 31
0.0
  0
LINE
  5
BF
330
1F
100
AcDbEntity
  8
050
100
AcDbLine
 10
50.70000000000001
 20
-12.55217848286035
 30
0.0
 11
51.56000000000001
 21
-11.95
 31
0.0
  0
LINE
  5
C0
330
1F
100
AcDbEntity
  8
050
100
AcDbLine
 10
51.56000000000001
 20
-11.95
 30
0.0
 11
51.56000000000001
 21
11.95
 31
0.0
  0
LINE
  5
C1
330
1F
100
AcDbEntity
  8
050
100
AcDbLine
 10
50.70000000000001
 20
-12.55217848286035
 30
0.0
 11
50.70000000000001
 21
12.55217848286035
 31
0.0
  0
LINE
  5
C2
330
1F
100
AcDbEntity
  8
050
100
AcDbLine
 10
44.29999999999999
 20
12.8
 30
0.0
 11
40.37500000000001
 21
12.8
 31
0.0
  0
LINE
  5
C3
330
1F
100
AcDbEntity
  8
050
100
AcDbLine
 10
40.37500000000001
 20
-12.8
 30
0.0
 11
44.29999999999999
 21
-12.8
 31
0.0
  0
LINE
  5
C4
330
1F
100
AcDbEntity
  8
VER
100
AcDbLine
 10
-40.375
 20
12.8
 30
0.0
 11
-44.29999999999999
 21
12.8
 31
0.0
  0
LINE
  5
C5
330
1F
100
AcDbEntity
  8
VER
100
AcDbLine
 10
-44.29999999999999
 20
-12.8
 30
0.0
 11
-40.375
 21
-12.8
 31
0.0
  0
LINE
  5
C6
330
1F
100
AcDbEntity
  8
050
100
AcDbLine
 10
58.1
 20
12.85
 30
0.0
 11
53.40000000000002
 21
12.85
 31
0.0
  0
LINE
  5
C7
330
1F
100
AcDbEntity
  8
050
100
AcDbLine
 10
53.40000000000002
 20
-12.85
 30
0.0
 11
58.1
 21
-12.85
 31
0.0
  0
LINE
  5
C8
330
1F
100
AcDbEntity
  8
050
100
AcDbLine
 10
58.1
 20
-12.85
 30
0.0
 11
58.1
 21
12.85
 31
0.0
  0
LINE
  5
C9
330
1F
100
AcDbEntity
  8
050
100
AcDbLine
 10
53.40000000000002
 20
-12.85
 30
0.0
 11
53.40000000000002
 21
12.85
 31
0.0
  0
LINE
  5
CA
330
1F
100
AcDbEntity
  8
050
100
AcDbLine
 10
76.66945927106678
 20
12.37930230660857
 30
0.0
 11
73.99999999999997
 21
12.85
 31
0.0
  0
LINE
  5
CB
330
1F
100
AcDbEntity
  8
050
100
AcDbLine
 10
73.99999999999997
 20
-12.85
 30
0.0
 11
76.66945927106678
 21
-12.37930230660857
 31
0.0
  0
LINE
  5
CC
330
1F
100
AcDbEntity
  8
050
100
AcDbLine
 10
76.66945927106678
 20
-12.37930230660857
 30
0.0
 11
76.66945927106678
 21
12.37930230660857
 31
0.0
  0
LINE
  5
CD
330
1F
100
AcDbEntity
  8
050
100
AcDbLine
 10
-76.66945927106677
 20
-12.37930230660857
 30
0.0
 11
-73.99999999999997
 21
-12.85
 31
0.0
  0
LINE
  5
CE
330
1F
100
AcDbEntity
  8
050
100
AcDbLine
 10
-73.99999999999997
 20
12.85
 30
0.0
 11
-76.66945927106677
 21
12.37930230660857
 31
0.0
  0
LINE
  5
CF
330
1F
100
AcDbEntity
  8
050
100
AcDbLine
 10
-76.66945927106677
 20
10.00000000000001
 30
0.0
 11
-76.66945927106677
 21
12.37930230660857
 31
0.0
  0
LINE
  5
D0
330
1F
100
AcDbEntity
  8
VER
100
AcDbLine
 10
-76.66945927106677
 20
-9.999999999999993
 30
0.0
 11
-76.66945927106677
 21
10.00000000000001
 31
0.0
  0
LINE
  5
D1
330
1F
100
AcDbEntity
  8
050
100
AcDbLine
 10
-76.66945927106677
 20
-12.37930230660857
 30
0.0
 11
-76.66945927106677
 21
-9.999999999999993
 31
0.0
  0
ARC
  5
D2
330
1F
100
AcDbEntity
  8
050
100
AcDbCircle
 10
70.605
 20
15.70004824520569
 30
0.0
 40
4.200000000000005
100
AcDbArc
 50
222.7330060642226
 51
317.2669939357771
  0
ARC
  5
D3
330
1F
100
AcDbEntity
  8
050
100
AcDbCircle
 10
70.605
 20
-15.70004824520569
 30
0.0
 40
4.200000000000004
100
AcDbArc
 50
42.73300606422292
 51
137.2669939357774
  0
LINE
  5
D4
330
1F
100
AcDbEntity
  8
050
100
AcDbLine
 10
73.99999999999997
 20
12.85
 30
0.0
 11
73.69
 21
12.85
 31
0.0
  0
LINE
  5
D5
330
1F
100
AcDbEntity
  8
050
100
AcDbLine
 10
73.69
 20
-12.85
 30
0.0
 11
73.99999999999997
 21
-12.85
 31
0.0
  0
LINE
  5
D6
330
1F
100
AcDbEntity
  8
050
100
AcDbLine
 10
73.99999999999997
 20
-12.85
 30
0.0
 11
73.99999999999997
 21
12.85
 31
0.0
  0
LINE
  5
D7
330
1F
100
AcDbEntity
  8
050
100
AcDbLine
 10
73.69
 20
-12.84999999999999
 30
0.0
 11
73.69
 21
12.84999999999999
 31
0.0
  0
LINE
  5
D8
330
1F
100
AcDbEntity
  8
VER
100
AcDbLine
 10
-57.00486463317094
 20
12.85
 30
0.0
 11
-58.10000000000001
 21
12.85
 31
0.0
  0
LINE
  5
D9
330
1F
100
AcDbEntity
  8
050
100
AcDbLine
 10
-53.40000000000001
 20
12.85
 30
0.0
 11
-57.00486463317094
 21
12.85
 31
0.0
  0
LINE
  5
DA
330
1F
100
AcDbEntity
  8
050
100
AcDbLine
 10
-57.00486463317094
 20
-12.85
 30
0.0
 11
-53.40000000000001
 21
-12.85
 31
0.0
  0
LINE
  5
DB
330
1F
100
AcDbEntity
  8
VER
100
AcDbLine
 10
-58.10000000000001
 20
-12.85
 30
0.0
 11
-57.00486463317094
 21
-12.85
 31
0.0
  0
LINE
  5
DC
330
1F
100
AcDbEntity
  8
050
100
AcDbLine
 10
-53.40000000000001
 20
9.9235006853224
 30
0.0
 11
-53.40000000000001
 21
12.85
 31
0.0
  0
LINE
  5
DD
330
1F
100
AcDbEntity
  8
VER
100
AcDbLine
 10
-53.40000000000001
 20
-9.923500685322393
 30
0.0
 11
-53.40000000000001
 21
9.9235006853224
 31
0.0
  0
LINE
  5
DE
330
1F
100
AcDbEntity
  8
050
100
AcDbLine
 10
-53.40000000000001
 20
-12.85
 30
0.0
 11
-53.40000000000001
 21
-9.923500685322393
 31
0.0
  0
LINE
  5
DF
330
1F
100
AcDbEntity
  8
VER
100
AcDbLine
 10
-58.10000000000001
 20
-12.85
 30
0.0
 11
-58.10000000000001
 21
12.85
 31
0.0
  0
LINE
  5
E0
330
1F
100
AcDbEntity
  8
050
100
AcDbLine
 10
-73.69
 20
12.85
 30
0.0
 11
-73.99999999999997
 21
12.85
 31
0.0
  0
LINE
  5
E1
330
1F
100
AcDbEntity
  8
050
100
AcDbLine
 10
-73.99999999999997
 20
-12.85
 30
0.0
 11
-73.69
 21
-12.85
 31
0.0
  0
LINE
  5
E2
330
1F
100
AcDbEntity
  8
050
100
AcDbLine
 10
-73.99999999999997
 20
9.630673882274484
 30
0.0
 11
-73.99999999999997
 21
12.85
 31
0.0
  0
LINE
  5
E3
330
1F
100
AcDbEntity
  8
VER
100
AcDbLine
 10
-73.99999999999997
 20
-9.630673882274474
 30
0.0
 11
-73.99999999999997
 21
9.630673882274484
 31
0.0
  0
LINE
  5
E4
330
1F
100
AcDbEntity
  8
050
100
AcDbLine
 10
-73.99999999999997
 20
-12.85
 30
0.0
 11
-73.99999999999997
 21
-9.630673882274474
 31
0.0
  0
LINE
  5
E5
330
1F
100
AcDbEntity
  8
050
100
AcDbLine
 10
67.51999999999998
 20
12.85
 30
0.0
 11
64.50000000000001
 21
12.85
 31
0.0
  0
LINE
  5
E6
330
1F
100
AcDbEntity
  8
050
100
AcDbLine
 10
64.50000000000001
 20
-12.85
 30
0.0
 11
67.51999999999998
 21
-12.85
 31
0.0
  0
LINE
  5
E7
330
1F
100
AcDbEntity
  8
050
100
AcDbLine
 10
67.51999999999998
 20
-12.85
 30
0.0
 11
67.51999999999998
 21
12.85
 31
0.0
  0
LINE
  5
E8
330
1F
100
AcDbEntity
  8
050
100
AcDbLine
 10
64.50000000000001
 20
-12.85
 30
0.0
 11
64.50000000000001
 21
12.85
 31
0.0
  0
ARC
  5
E9
330
1F
100
AcDbEntity
  8
VER
100
AcDbCircle
 10
-70.605
 20
15.70004824520571
 30
0.0
 40
4.200000000000014
100
AcDbArc
 50
222.733006064223
 51
317.2669939357772
  0
ARC
  5
EA
330
1F
100
AcDbEntity
  8
VER
100
AcDbCircle
 10
-70.605
 20
-15.7000482452057
 30
0.0
 40
4.200000000000005
100
AcDbArc
 50
42.73300606422265
 51
137.2669939357771
  0
LINE
  5
EB
330
1F
100
AcDbEntity
  8
050
100
AcDbLine
 10
-73.69
 20
9.49719801479625
 30
0.0
 11
-73.69
 21
12.85
 31
0.0
  0
LINE
  5
EC
330
1F
100
AcDbEntity
  8
VER
100
AcDbLine
 10
-73.69
 20
-9.497198014796238
 30
0.0
 11
-73.69
 21
9.49719801479625
 31
0.0
  0
LINE
  5
ED
330
1F
100
AcDbEntity
  8
050
100
AcDbLine
 10
-73.69
 20
-12.85
 30
0.0
 11
-73.69
 21
-9.497198014796238
 31
0.0
  0
LINE
  5
EE
330
1F
100
AcDbEntity
  8
VER
100
AcDbLine
 10
-64.50000000000001
 20
12.85
 30
0.0
 11
-67.52
 21
12.85
 31
0.0
  0
LINE
  5
EF
330
1F
100
AcDbEntity
  8
VER
100
AcDbLine
 10
-67.52
 20
-12.85
 30
0.0
 11
-64.50000000000001
 21
-12.85
 31
0.0
  0
LINE
  5
F0
330
1F
100
AcDbEntity
  8
VER
100
AcDbLine
 10
-64.50000000000001
 20
-12.85
 30
0.0
 11
-64.50000000000001
 21
12.85
 31
0.0
  0
LINE
  5
F1
330
1F
100
AcDbEntity
  8
VER
100
AcDbLine
 10
-67.52
 20
-12.85000000000001
 30
0.0
 11
-67.52
 21
12.85000000000001
 31
0.0
  0
LINE
  5
F2
330
1F
100
AcDbEntity
  8
050
100
AcDbLine
 10
47.5
 20
14.75
 30
0.0
 11
46.77831216351296
 21
16.0
 31
0.0
  0
LINE
  5
F3
330
1F
100
AcDbEntity
  8
050
100
AcDbLine
 10
46.77831216351296
 20
-16.0
 30
0.0
 11
47.5
 21
-14.75
 31
0.0
  0
LINE
  5
F4
330
1F
100
AcDbEntity
  8
050
100
AcDbLine
 10
47.5
 20
-14.75
 30
0.0
 11
47.5
 21
14.75
 31
0.0
  0
LINE
  5
F5
330
1F
100
AcDbEntity
  8
050
100
AcDbLine
 10
-44.39965831006412
 20
14.61261325642749
 30
0.0
 11
-45.20066641993582
 21
16.0
 31
0.0
  0
LINE
  5
F6
330
1F
100
AcDbEntity
  8
VER
100
AcDbLine
 10
-44.3
 20
14.43999999999999
 30
0.0
 11
-44.39965831006412
 21
14.61261325642749
 31
0.0
  0
LINE
  5
F7
330
1F
100
AcDbEntity
  8
VER
100
AcDbLine
 10
-44.40163998155111
 20
-14.61604561212688
 30
0.0
 11
-44.3
 21
-14.43999999999999
 31
0.0
  0
LINE
  5
F8
330
1F
100
AcDbEntity
  8
050
100
AcDbLine
 10
-45.20066641993582
 20
-16.0
 30
0.0
 11
-44.40163998155111
 21
-14.61604561212688
 31
0.0
  0
LINE
  5
F9
330
1F
100
AcDbEntity
  8
VER
100
AcDbLine
 10
-44.3
 20
-14.43999999999999
 30
0.0
 11
-44.3
 21
14.43999999999999
 31
0.0
  0
LINE
  5
FA
330
1F
100
AcDbEntity
  8
050
100
AcDbLine
 10
-45.20066641993582
 20
16.0
 30
0.0
 11
-46.77831216351296
 21
16.0
 31
0.0
  0
LINE
  5
FB
330
1F
100
AcDbEntity
  8
050
100
AcDbLine
 10
-46.77831216351296
 20
-16.0
 30
0.0
 11
-45.20066641993582
 21
-16.0
 31
0.0
  0
LINE
  5
FC
330
1F
100
AcDbEntity
  8
050
100
AcDbLine
 10
-45.20066641993582
 20
13.27543159105456
 30
0.0
 11
-45.20066641993582
 21
16.0
 31
0.0
  0
LINE
  5
FD
330
1F
100
AcDbEntity
  8
VER
100
AcDbLine
 10
-45.20066641993582
 20
-13.26740458365489
 30
0.0
 11
-45.20066641993582
 21
13.27543159105456
 31
0.0
  0
LINE
  5
FE
330
1F
100
AcDbEntity
  8
050
100
AcDbLine
 10
-45.20066641993582
 20
-16.0
 30
0.0
 11
-45.20066641993582
 21
-13.26740458365489
 31
0.0
  0
LINE
  5
FF
330
1F
100
AcDbEntity
  8
050
100
AcDbLine
 10
46.77831216351296
 20
16.0
 30
0.0
 11
45.20066641993582
 21
16.0
 31
0.0
  0
LINE
  5
100
330
1F
100
AcDbEntity
  8
050
100
AcDbLine
 10
45.20066641993582
 20
-16.0
 30
0.0
 11
46.77831216351296
 21
-16.0
 31
0.0
  0
LINE
  5
101
330
1F
100
AcDbEntity
  8
050
100
AcDbLine
 10
46.77831216351296
 20
-16.0
 30
0.0
 11
46.77831216351296
 21
16.0
 31
0.0
  0
LINE
  5
102
330
1F
100
AcDbEntity
  8
050
100
AcDbLine
 10
-47.5
 20
-14.75
 30
0.0
 11
-46.77831216351296
 21
-16.0
 31
0.0
  0
LINE
  5
103
330
1F
100
AcDbEntity
  8
050
100
AcDbLine
 10
-46.77831216351296
 20
16.0
 30
0.0
 11
-47.5
 21
14.75
 31
0.0
  0
LINE
  5
104
330
1F
100
AcDbEntity
  8
050
100
AcDbLine
 10
-46.77831216351296
 20
10.52376291846663
 30
0.0
 11
-46.77831216351296
 21
16.0
 31
0.0
  0
LINE
  5
105
330
1F
100
AcDbEntity
  8
VER
100
AcDbLine
 10
-46.77831216351296
 20
-10.49999999999999
 30
0.0
 11
-46.77831216351296
 21
10.49999999999999
 31
0.0
  0
LINE
  5
106
330
1F
100
AcDbEntity
  8
050
100
AcDbLine
 10
-46.77831216351296
 20
-16.0
 30
0.0
 11
-46.77831216351296
 21
-10.52376291846662
 31
0.0
  0
LINE
  5
107
330
1F
100
AcDbEntity
  8
050
100
AcDbLine
 10
-47.5
 20
10.49999999999999
 30
0.0
 11
-47.5
 21
14.75
 31
0.0
  0
LINE
  5
108
330
1F
100
AcDbEntity
  8
VER
100
AcDbLine
 10
-47.5
 20
-10.49999999999999
 30
0.0
 11
-47.5
 21
10.49999999999999
 31
0.0
  0
LINE
  5
109
330
1F
100
AcDbEntity
  8
050
100
AcDbLine
 10
-47.5
 20
-14.75
 30
0.0
 11
-47.5
 21
-10.49999999999999
 31
0.0
  0
LINE
  5
10A
330
1F
100
AcDbEntity
  8
050
100
AcDbLine
 10
44.29999999999999
 20
-14.43999999999999
 30
0.0
 11
45.20066641993582
 21
-16.0
 31
0.0
  0
LINE
  5
10B
330
1F
100
AcDbEntity
  8
050
100
AcDbLine
 10
45.20066641993582
 20
16.0
 30
0.0
 11
44.29999999999999
 21
14.43999999999999
 31
0.0
  0
LINE
  5
10C
330
1F
100
AcDbEntity
  8
050
100
AcDbLine
 10
45.20066641993582
 20
-16.0
 30
0.0
 11
45.20066641993582
 21
16.0
 31
0.0
  0
LINE
  5
10D
330
1F
100
AcDbEntity
  8
050
100
AcDbLine
 10
44.29999999999999
 20
-14.43999999999999
 30
0.0
 11
44.29999999999999
 21
14.43999999999999
 31
0.0
  0
LINE
  5
10E
330
1F
100
AcDbEntity
  8
050
100
AcDbLine
 10
40.375
 20
16.0
 30
0.0
 11
-1.797060610619523
 21
16.0
 31
0.0
  0
LINE
  5
10F
330
1F
100
AcDbEntity
  8
VER
100
AcDbLine
 10
-17.45408526596524
 20
-16.0
 30
0.0
 11
-1.79706061061953
 21
-16.0
 31
0.0
  0
LINE
  5
110
330
1F
100
AcDbEntity
  8
050
100
AcDbLine
 10
-1.79706061061953
 20
-16.0
 30
0.0
 11
40.375
 21
-16.0
 31
0.0
  0
LINE
  5
111
330
1F
100
AcDbEntity
  8
VER
100
AcDbLine
 10
-40.375
 20
-16.0
 30
0.0
 11
-40.375
 21
16.0
 31
0.0
  0
LINE
  5
112
330
1F
100
AcDbEntity
  8
050
100
AcDbLine
 10
40.375
 20
-16.0
 30
0.0
 11
40.375
 21
16.0
 31
0.0
  0
LWPOLYLINE
  5
113
330
1F
100
AcDbEntity
  8
VER
100
AcDbPolyline
 90
        3
 70
     0
 43
0.0
 10
26.53892583856101
 20
-10.392869016469
 10
26.89494511129057
 20
-9.293067645296306
 10
27.0992290865835
 20
-8.55983912734095
  0
LWPOLYLINE
  5
114
330
1F
100
AcDbEntity
  8
050
100
AcDbPolyline
 90
       11
 70
     0
 43
0.0
 10
21.49999999999999
 20
-16.0
 10
22.07761745095648
 20
-15.93911516946793
 10
22.65083888433623
 20
-15.75692404819533
 10
23.21530173891068
 20
-15.45481322062509
 10
23.7667101115245
 20
-15.03508193257453
 10
24.30086745151263
 20
-14.50092459258639
 10
24.81370849898475
 20
-13.85640646055101
 10
25.30133022390769
 20
-13.10643270862386
 10
25.76002153052075
 20
-12.25671108990364
 10
26.18629150101522
 20
-11.31370849898476
 10
26.53892583856101
 20
-10.392869016469
  0
LWPOLYLINE
  5
115
330
1F
100
AcDbEntity
  8
050
100
AcDbPolyline
 90
       11
 70
     0
 43
0.0
 10
26.538925838561
 20
10.39286901646903
 10
26.14455729761337
 20
11.4135743790405
 10
25.71484087117054
 20
12.34741554888284
 10
25.2530469607076
 20
13.18728543082482
 10
24.76269009672196
 20
13.92679210793758
 10
24.24750219103412
 20
14.56030748788194
 10
23.71140413468533
 20
15.08301013608948
 10
23.15847595758926
 20
15.49092196979086
 10
22.59292577704077
 20
15.78093853362771
 10
22.01905777140238
 20
15.95085262643243
 10
21.5
 20
16.0
  0
LWPOLYLINE
  5
116
330
1F
100
AcDbEntity
  8
VER
100
AcDbPolyline
 90
        3
 70
     0
 43
0.0
 10
27.0992290865835
 20
8.559839127340947
 10
26.7689028008723
 20
9.705414571905893
 10
26.538925838561
 20
10.39286901646903
  0
LWPOLYLINE
  5
117
330
1F
100
AcDbEntity
  8
VER
100
AcDbPolyline
 90
       37
 70
     0
 43
0.0
 10
21.49999999999999
 20
16.0
 10
18.13339878111845
 20
15.93911516946793
 10
14.79241943032198
 20
15.75692404819533
 10
11.50248881780865
 20
15.4548132206251
 10
8.288645302054096
 20
15.03508193257454
 10
5.175348172784981
 20
14.50092459258641
 10
2.186291501015246
 20
13.85640646055102
 10
-0.6557761871411744
 20
13.10643270862388
 10
-3.329225040490019
 20
12.25671108990366
 10
-5.813708498984753
 20
11.31370849898477
 10
-8.090318143334093
 20
10.28460175498464
 10
-10.14172759949007
 20
9.177222981616755
 10
-11.95232440281644
 20
8.00000000000002
 10
-13.50832881837163
 20
6.761892187851214
 10
-14.79789871301213
 20
5.472322293210726
 10
-15.81121968117612
 20
4.141104721640359
 10
-16.54057973843595
 20
2.778370842670915
 10
-16.98042801435622
 20
1.394491883962562
 10
-17.12741699796954
 20
0.0000000000000333
 10
-16.98042801435624
 20
-1.394491883962496
 10
-16.54057973843597
 20
-2.77837084267085
 10
-15.81121968117615
 20
-4.141104721640295
 10
-14.79789871301217
 20
-5.472322293210662
 10
-13.5083288183717
 20
-6.761892187851154
 10
-11.95232440281652
 20
-7.999999999999964
 10
-10.14172759949016
 20
-9.177222981616701
 10
-8.090318143334198
 20
-10.28460175498459
 10
-5.813708498984858
 20
-11.31370849898473
 10
-3.329225040490137
 20
-12.25671108990362
 10
-0.6557761871413027
 20
-13.10643270862384
 10
2.186291501015115
 20
-13.85640646055099
 10
5.175348172784838
 20
-14.50092459258638
 10
8.288645302053949
 20
-15.03508193257452
 10
11.5024888178085
 20
-15.45481322062508
 10
14.79241943032183
 20
-15.75692404819532
 10
18.13339878111829
 20
-15.93911516946792
 10
21.49999999999984
 20
-16.0
  0
LINE
  5
118
330
1F
100
AcDbEntity
  8
VER
100
AcDbLine
 10
-1.797060610619523
 20
16.0
 30
0.0
 11
-17.45408526596524
 21
16.0
 31
0.0
  0
CIRCLE
  5
119
330
1F
100
AcDbEntity
  8
VER
100
AcDbCircle
 10
21.5
 20
0.0000000000000028
 30
0.0
 40
10.2285
  0
CIRCLE
  5
11A
330
1F
100
AcDbEntity
  8
VER
100
AcDbCircle
 10
21.5
 20
0.0000000000000029
 30
0.0
 40
9.2285
  0
ELLIPSE
  5
11B
330
1F
100
AcDbEntity
  8
050
100
AcDbEllipse
 10
-8.648911829450853
 20
0.0000000000000213
 30
0.0
 11
-3.436144605217626E-15
 21
-18.70550000000002
 31
0.0
210
0.0
220
0.0
230
1.0
 40
0.7071067811865478
 41
0.0000000000000017
 42
3.141592653589792
  0
LINE
  5
11C
330
1F
100
AcDbEntity
  8
050
100
AcDbLine
 10
-14.42724664959232
 20
-18.7055
 30
0.0
 11
-8.648911829450844
 21
-18.7055
 31
0.0
  0
LINE
  5
11D
330
1F
100
AcDbEntity
  8
VER
100
AcDbLine
 10
-18.77468093604221
 20
-18.7055
 30
0.0
 11
-14.42724664959232
 21
-18.7055
 31
0.0
  0
LINE
  5
11E
330
1F
100
AcDbEntity
  8
VER
100
AcDbLine
 10
-14.42724664959232
 20
18.70550000000001
 30
0.0
 11
-18.77468093604221
 21
18.70550000000001
 31
0.0
  0
LINE
  5
11F
330
1F
100
AcDbEntity
  8
050
100
AcDbLine
 10
-8.648911829450844
 20
18.70550000000001
 30
0.0
 11
-14.42724664959232
 21
18.70550000000001
 31
0.0
  0
ELLIPSE
  5
120
330
1F
100
AcDbEntity
  8
VER
100
AcDbEllipse
 10
-8.648911829450848
 20
0.0000000000000178
 30
0.0
 11
-3.436144605217619E-15
 21
-18.70549999999998
 31
0.0
210
0.0
220
0.0
230
1.0
 40
0.7071067811865476
 41
3.141592653589793
 42
6.283185307179588
  0
LINE
  5
121
330
1F
100
AcDbEntity
  8
VER
100
AcDbLine
 10
-43.54886044218183
 20
0.0000000000000042
 30
0.0
 11
-37.05000320823066
 21
0.0000000000000038
 31
0.0
  0
LINE
  5
122
330
1F
100
AcDbEntity
  8
050
100
AcDbLine
 10
28.1874144998848
 20
-9.417058314926724
 30
0.0
 11
32.99911897958842
 21
-1.082941685073281
 31
0.0
  0
ARC
  5
123
330
1F
100
AcDbEntity
  8
050
100
AcDbCircle
 10
21.50000000000102
 20
0.000000000000039
 30
0.0
 40
11.54999999999898
100
AcDbArc
 50
354.6199773286564
 51
5.380022671343245
  0
LINE
  5
124
330
1F
100
AcDbEntity
  8
050
100
AcDbLine
 10
32.99911897958842
 20
1.082941685073283
 30
0.0
 11
28.18741449988479
 21
9.417058314926736
 31
0.0
  0
ARC
  5
125
330
1F
100
AcDbEntity
  8
050
100
AcDbCircle
 10
21.50000000000067
 20
0.0000000000011084
 30
0.0
 40
11.54999999999872
100
AcDbArc
 50
54.61997732865663
 51
65.38002267134362
  0
LINE
  5
126
330
1F
100
AcDbEntity
  8
050
100
AcDbLine
 10
26.31170447970363
 20
10.5
 30
0.0
 11
16.68829552029637
 21
10.5
 31
0.0
  0
ARC
  5
127
330
1F
100
AcDbEntity
  8
050
100
AcDbCircle
 10
21.50000000000028
 20
-0.0000000000004388
 30
0.0
 40
11.55000000000052
100
AcDbArc
 50
114.6199773286575
 51
125.3800226713427
  0
LINE
  5
128
330
1F
100
AcDbEntity
  8
050
100
AcDbLine
 10
14.81258550011522
 20
9.417058314926736
 30
0.0
 11
10.00088102041158
 21
1.082941685073267
 31
0.0
  0
ARC
  5
129
330
1F
100
AcDbEntity
  8
050
100
AcDbCircle
 10
21.4999999999998
 20
0.0000000000000026
 30
0.0
 40
11.5499999999998
100
AcDbArc
 50
174.6199773286571
 51
185.3800226713429
  0
LINE
  5
12A
330
1F
100
AcDbEntity
  8
050
100
AcDbLine
 10
10.00088102041158
 20
-1.082941685073262
 30
0.0
 11
14.81258550011521
 21
-9.417058314926726
 31
0.0
  0
ARC
  5
12B
330
1F
100
AcDbEntity
  8
050
100
AcDbCircle
 10
21.50000000000044
 20
0.0000000000007194
 30
0.0
 40
11.55000000000084
100
AcDbArc
 50
234.6199773286573
 51
245.3800226713423
  0
LINE
  5
12C
330
1F
100
AcDbEntity
  8
050
100
AcDbLine
 10
16.68829552029637
 20
-10.5
 30
0.0
 11
26.31170447970363
 21
-10.5
 31
0.0
  0
ARC
  5
12D
330
1F
100
AcDbEntity
  8
050
100
AcDbCircle
 10
21.50000000000017
 20
-0.0000000000002842
 30
0.0
 40
11.54999999999967
100
AcDbArc
 50
294.6199773286568
 51
305.3800226713431
  0
ELLIPSE
  5
12E
330
1F
100
AcDbEntity
  8
VER
100
AcDbEllipse
 10
-22.57184435101395
 20
0.0000000000000027
 30
0.0
 11
1.144432433803201E-15
 21
18.69
 31
0.0
210
0.0
220
0.0
230
1.0
 40
0.7071067811865476
 41
0.0
 42
6.283185307179586
  0
ELLIPSE
  5
12F
330
1F
100
AcDbEntity
  8
050
100
AcDbEllipse
 10
-18.77468093604219
 20
0.000000000000032
 30
0.0
 11
-3.616994321281711E-15
 21
-19.69000000000002
 31
0.0
210
0.0
220
0.0
230
1.0
 40
0.7071067811865477
 41
6.283185307179585
 42
9.42477796076938
  0
LINE
  5
130
330
1F
100
AcDbEntity
  8
050
100
AcDbLine
 10
-21.86473756982741
 20
-19.68999999999999
 30
0.0
 11
-18.7746809360422
 21
-19.68999999999999
 31
0.0
  0
LINE
  5
131
330
1F
100
AcDbEntity
  8
050
100
AcDbLine
 10
-18.77468093604221
 20
19.68999999999999
 30
0.0
 11
-21.86473756982743
 21
19.68999999999999
 31
0.0
  0
ELLIPSE
  5
132
330
1F
100
AcDbEntity
  8
VER
100
AcDbEllipse
 10
-18.77468093604218
 20
-0.0000000000000124
 30
0.0
 11
-3.616994321281709E-15
 21
-19.69000000000001
 31
0.0
210
0.0
220
0.0
230
1.0
 40
0.7071067811865476
 41
3.141592653589794
 42
6.283185307179585
  0
ELLIPSE
  5
133
330
1F
100
AcDbEntity
  8
050
100
AcDbEllipse
 10
-21.86473756980562
 20
0.0000000000197176
 30
0.0
 11
4.406673037705115E-11
 21
-19.68999999998028
 31
0.0
210
0.0
220
0.0
230
1.0
 40
0.7071067811865687
 41
6.257788976455018
 42
9.45017429148767
  0
ELLIPSE
  5
134
330
1F
100
AcDbEntity
  8
VER
100
AcDbEllipse
 10
-21.86473756982733
 20
0.0000000000002842
 30
0.0
 11
-3.616994321281761E-15
 21
-19.69000000000029
 31
0.0
210
0.0
220
0.0
230
1.0
 40
0.707106781186547
 41
3.166988984309665
 42
6.257788976459715
  0
ELLIPSE
  5
135
330
1F
100
AcDbEntity
  8
050
100
AcDbEllipse
 10
-22.57184435101393
 20
-0.0000000000000249
 30
0.0
 11
-3.616994321281698E-15
 21
-19.68999999999995
 31
0.0
210
0.0
220
0.0
230
1.0
 40
0.7071067811865479
 41
6.283185307179584
 42
9.42477796076938
  0
LINE
  5
136
330
1F
100
AcDbEntity
  8
050
100
AcDbLine
 10
-23.98605791338706
 20
-19.68999999999999
 30
0.0
 11
-22.57184435101395
 21
-19.68999999999999
 31
0.0
  0
LINE
  5
137
330
1F
100
AcDbEntity
  8
050
100
AcDbLine
 10
-22.57184435101396
 20
19.68999999999999
 30
0.0
 11
-23.98605791338706
 21
19.68999999999999
 31
0.0
  0
ELLIPSE
  5
138
330
1F
100
AcDbEntity
  8
VER
100
AcDbEllipse
 10
-22.57184435101397
 20
0.0000000000000266
 30
0.0
 11
-3.616994321281702E-15
 21
-19.68999999999997
 31
0.0
210
0.0
220
0.0
230
1.0
 40
0.7071067811865472
 41
3.141592653589792
 42
6.283185307179588
  0
ELLIPSE
  5
139
330
1F
100
AcDbEntity
  8
VER
100
AcDbEllipse
 10
-23.98605791338699
 20
-0.0000000000000249
 30
0.0
 11
-3.616994321281722E-15
 21
-19.69000000000008
 31
0.0
210
0.0
220
0.0
230
1.0
 40
0.7071067811865477
 41
3.761978596345632
 42
5.660980186010482
  0
ELLIPSE
  5
13A
330
1F
100
AcDbEntity
  8
050
100
AcDbEllipse
 10
-23.98605791338706
 20
-0.0000000000000249
 30
0.0
 11
-3.859346048907257E-14
 21
-19.68999999999996
 31
0.0
210
0.0
220
0.0
230
1.0
 40
0.707106781186548
 41
5.660980186010489
 42
10.04516390352522
  0
LINE
  5
13B
330
1F
100
AcDbEntity
  8
VER
100
AcDbLine
 10
-30.51803056080885
 20
16.0
 30
0.0
 11
-37.05000320823066
 21
0.0000000000000038
 31
0.0
  0
LINE
  5
13C
330
1F
100
AcDbEntity
  8
VER
100
AcDbLine
 10
-37.05000320823066
 20
0.0000000000000038
 30
0.0
 11
-30.51803056080886
 21
-15.99999999999999
 31
0.0
  0
LINE
  5
13D
330
1F
100
AcDbEntity
  8
VER
100
AcDbLine
 10
-58.39829329597794
 20
-0.0004665384789269
 30
0.0
 11
-54.68626839371773
 21
-9.09303346152105
 31
0.0
  0
LINE
  5
13E
330
1F
100
AcDbEntity
  8
VER
100
AcDbLine
 10
-54.68626839371772
 20
9.093033461521058
 30
0.0
 11
-58.39829329597793
 21
0.0004665384789331
 31
0.0
  0
LINE
  5
13F
330
1F
100
AcDbEntity
  8
050
100
AcDbLine
 10
-38.83530031830454
 20
14.00000000000001
 30
0.0
 11
-40.24951388067764
 21
14.00000000000001
 31
0.0
  0
LINE
  5
140
330
1F
100
AcDbEntity
  8
050
100
AcDbLine
 10
-40.24951388067764
 20
-14.0
 30
0.0
 11
-38.83530031830454
 21
-14.0
 31
0.0
  0
ELLIPSE
  5
141
330
1F
100
AcDbEntity
  8
050
100
AcDbEllipse
 10
-40.24951388067765
 20
0.0000000000000053
 30
0.0
 11
8.572527594031474E-16
 21
14.0
 31
0.0
210
0.0
220
0.0
230
1.0
 40
0.707106781186548
 41
2.418858405776378
 42
7.005919554993003
  0
ELLIPSE
  5
142
330
1F
100
AcDbEntity
  8
050
100
AcDbEllipse
 10
-38.83530031830453
 20
0.0000000000000133
 30
0.0
 11
8.572527594031479E-16
 21
14.00000000000001
 31
0.0
210
0.0
220
0.0
230
1.0
 40
0.7071067811865476
 41
3.141592653589793
 42
6.283185307179588
  0
ELLIPSE
  5
143
330
1F
100
AcDbEntity
  8
VER
100
AcDbEllipse
 10
-38.83530031830457
 20
0.0000000000000275
 30
0.0
 11
-1.157724511639858E-14
 21
13.99999999999997
 31
0.0
210
0.0
220
0.0
230
1.0
 40
0.7071067811865478
 41
6.283185307179581
 42
9.42477796076938
  0
ELLIPSE
  5
144
330
1F
100
AcDbEntity
  8
VER
100
AcDbEllipse
 10
-40.24951388067744
 20
-0.0000000000006803
 30
0.0
 11
9.738567115408225E-13
 21
13.99999999999902
 31
0.0
210
0.0
220
0.0
230
1.0
 40
0.7071067811865852
 41
0.7227342478134497
 42
2.418858405776433
  0
LINE
  5
145
330
1F
100
AcDbEntity
  8
050
100
AcDbLine
 10
-10.92211261854343
 20
0.0000000000000001
 30
0.0
 11
-17.45408526596523
 21
16.0
 31
0.0
  0
LINE
  5
146
330
1F
100
AcDbEntity
  8
050
100
AcDbLine
 10
-43.54027669956393
 20
16.0
 30
0.0
 11
-17.45408526596523
 21
16.0
 31
0.0
  0
LINE
  5
147
330
1F
100
AcDbEntity
  8
050
100
AcDbLine
 10
-43.54027669956394
 20
-15.99999999999999
 30
0.0
 11
-17.45408526596524
 21
-16.0
 31
0.0
  0
LINE
  5
148
330
1F
100
AcDbEntity
  8
050
100
AcDbLine
 10
-17.45408526596524
 20
-16.0
 30
0.0
 11
-10.92211261854343
 21
0.0000000000000001
 31
0.0
  0
LINE
  5
149
330
1F
100
AcDbEntity
  8
050
100
AcDbLine
 10
-23.9443587572985
 20
0.0000000000000009
 30
0.0
 11
-10.92211261854343
 21
0.0000000000000001
 31
0.0
  0
LWPOLYLINE
  5
14A
330
1F
100
AcDbEntity
  8
VER
100
AcDbPolyline
 90
        7
 70
     0
 43
0.0
 10
-47.34991653205365
 20
9.09376553327621
 10
-47.43730169544828
 20
8.894728960101071
 10
-48.04355791346509
 20
7.430982272312709
 10
-48.71083002596171
 20
5.563766680631881
 10
-49.26235023301641
 20
3.709628939208161
 10
-49.71452959567119
 20
1.842930605508505
 10
-50.07224934698574
 20
0.0000000000000046
  0
LWPOLYLINE
  5
14B
330
1F
100
AcDbEntity
  8
VER
100
AcDbPolyline
 90
        3
 70
     0
 43
0.0
 10
-46.6904644847972
 20
10.5004354614406
 10
-46.7603165429234
 20
10.35661614896346
 10
-47.34991653205365
 20
9.09376553327621
  0
LINE
  5
14C
330
1F
100
AcDbEntity
  8
VER
100
AcDbLine
 10
-46.53531288825738
 20
10.81260965298517
 30
0.0
 11
-46.6904644847972
 21
10.5004354614406
 31
0.0
  0
LWPOLYLINE
  5
14D
330
1F
100
AcDbEntity
  8
050
100
AcDbPolyline
 90
        4
 70
     0
 43
0.0
 10
-43.54027669956393
 20
16.0
 10
-44.82893474538163
 20
13.91958884397709
 10
-46.01922458205146
 20
11.80941282174301
 10
-46.53531288825738
 20
10.81260965298517
  0
LWPOLYLINE
  5
14E
330
1F
100
AcDbEntity
  8
050
100
AcDbPolyline
 90
        4
 70
     0
 43
0.0
 10
-46.54246320682067
 20
-10.79836016228916
 10
-45.75927693096862
 20
-12.29037106079184
 10
-44.68730348653413
 20
-14.1570693944915
 10
-43.54027669956394
 20
-15.99999999999999
  0
LINE
  5
14F
330
1F
100
AcDbEntity
  8
VER
100
AcDbLine
 10
-46.69054896665874
 20
-10.50026373636206
 30
0.0
 11
-46.54246320682067
 21
-10.79836016228916
 31
0.0
  0
LWPOLYLINE
  5
150
330
1F
100
AcDbEntity
  8
VER
100
AcDbPolyline
 90
        3
 70
     0
 43
0.0
 10
-47.34974075216459
 20
-9.094160233635252
 10
-46.72165385035543
 20
-10.43623331936812
 10
-46.69054896665874
 20
-10.50026373636206
  0
LWPOLYLINE
  5
151
330
1F
100
AcDbEntity
  8
VER
100
AcDbPolyline
 90
        7
 70
     0
 43
0.0
 10
-50.07224934698574
 20
0.0000000000000046
 10
-49.66225879698685
 20
-2.080411156022911
 10
-49.12959712634687
 20
-4.190587178256989
 10
-48.68448557111113
 20
-5.643383851036543
 10
-48.16784483222782
 20
-7.105271039898935
 10
-47.57895688432116
 20
-8.569017727687296
 10
-47.34974075216459
 20
-9.094160233635252
  0
LWPOLYLINE
  5
152
330
1F
100
AcDbEntity
  8
050
100
AcDbPolyline
 90
       10
 70
     0
 43
0.0
 10
-30.47633140472031
 20
-16.0
 10
-30.06634085472141
 20
-13.91958884397708
 10
-29.53367918408144
 20
-11.80941282174301
 10
-29.08856762884569
 20
-10.35661614896345
 10
-28.57192688996239
 20
-8.894728960101057
 10
-27.98303894205572
 20
-7.430982272312689
 10
-27.12573590809
 20
-5.563766680631867
 10
-26.16335898870318
 20
-3.709628939208152
 10
-25.09138554426869
 20
-1.842930605508498
 10
-23.9443587572985
 20
0.0000000000000009
  0
LWPOLYLINE
  5
153
330
1F
100
AcDbEntity
  8
050
100
AcDbPolyline
 90
       10
 70
     0
 43
0.0
 10
-23.9443587572985
 20
0.0000000000000009
 10
-25.23301680311621
 20
2.080411156022917
 10
-26.42330663978603
 20
4.190587178256995
 10
-27.16439860065797
 20
5.643383851036551
 10
-27.84138375318286
 20
7.105271039898942
 10
-28.44763997119967
 20
8.569017727687305
 10
-29.11491208369629
 20
10.43623331936813
 10
-29.66643229075099
 20
12.29037106079185
 10
-30.11861165340575
 20
14.1570693944915
 10
-30.47633140472031
 20
16.0
  0
LINE
  5
154
330
1F
100
AcDbEntity
  8
VER
100
AcDbLine
 10
-58.39848375951438
 20
0.000000000000004
 30
0.0
 11
-64.99791134832844
 21
0.0000000000000044
 31
0.0
  0
ELLIPSE
  5
155
330
1F
100
AcDbEntity
  8
050
100
AcDbEllipse
 10
-50.97367210084792
 20
0.0000000000002025
 30
0.0
 11
3.060652936439386E-13
 21
10.50000000000019
 31
0.0
210
0.0
220
0.0
230
1.0
 40
0.7071067811865523
 41
2.618038310227625
 42
6.806739650541846
  0
ELLIPSE
  5
156
330
1F
100
AcDbEntity
  8
VER
100
AcDbEllipse
 10
-50.97367210084992
 20
-0.0000000000002167
 30
0.0
 11
-2.878720474795719E-12
 21
10.49999999999974
 31
0.0
210
0.0
220
0.0
230
1.0
 40
0.7071067811864504
 41
0.5236432078339028
 42
2.61794944575519
  0
ELLIPSE
  5
157
330
1F
100
AcDbEntity
  8
VER
100
AcDbEllipse
 10
-42.72438761483057
 20
0.0000000000000195
 30
0.0
 11
-6.351465485586131E-15
 21
10.50000000000001
 31
0.0
210
0.0
220
0.0
230
1.0
 40
0.7071067811865472
 41
6.283185307179584
 42
9.42477796076938
  0
LINE
  5
158
330
1F
100
AcDbEntity
  8
050
100
AcDbLine
 10
-42.72438761483056
 20
10.49999999999999
 30
0.0
 11
-50.97367210084813
 21
10.5
 31
0.0
  0
LINE
  5
159
330
1F
100
AcDbEntity
  8
050
100
AcDbLine
 10
-50.97367210084813
 20
-10.49999999999999
 30
0.0
 11
-42.72438761483056
 21
-10.49999999999999
 31
0.0
  0
ELLIPSE
  5
15A
330
1F
100
AcDbEntity
  8
050
100
AcDbEllipse
 10
-42.72438761483056
 20
0.0000000000000089
 30
0.0
 11
6.429395695523604E-16
 21
10.5
 31
0.0
210
0.0
220
0.0
230
1.0
 40
0.7071067811865478
 41
3.141592653589793
 42
6.283185307179586
  0
ELLIPSE
  5
15B
330
1F
100
AcDbEntity
  8
VER
100
AcDbEllipse
 10
-101.207927725016
 20
0.0000000000000013
 30
0.0
 11
-3.673940397442163E-16
 21
-2.000000000000056
 31
0.0
210
0.0
220
0.0
230
1.0
 40
0.7071067811865475
 41
4.319689898685978
 42
5.105088062083402
  0
LINE
  5
15C
330
1F
100
AcDbEntity
  8
VER
100
AcDbLine
 10
-102.5144906898924
 20
-0.7653668647301783
 30
0.0
 11
-110.8870548938612
 21
-0.7653668647301778
 31
0.0
  0
LINE
  5
15D
330
1F
100
AcDbEntity
  8
VER
100
AcDbLine
 10
-102.5144906898924
 20
0.7653668647301808
 30
0.0
 11
-110.8870548938697
 21
0.7653668647301813
 31
0.0
  0
LINE
  5
15E
330
1F
100
AcDbEntity
  8
050
100
AcDbLine
 10
-47.26126627151498
 20
-9.093499999999995
 30
0.0
 11
-55.9046112566982
 21
-9.093499999999995
 31
0.0
  0
LINE
  5
15F
330
1F
100
AcDbEntity
  8
050
100
AcDbLine
 10
-47.26107580797851
 20
-9.093033461521049
 30
0.0
 11
-43.5490509057183
 21
-0.0004665384789538
 31
0.0
  0
LINE
  5
160
330
1F
100
AcDbEntity
  8
050
100
AcDbLine
 10
-43.54886044218183
 20
0.0000000000000049
 30
0.0
 11
-50.14828803099589
 21
0.0000000000000053
 31
0.0
  0
LINE
  5
161
330
1F
100
AcDbEntity
  8
050
100
AcDbLine
 10
-43.5490509057183
 20
0.0004665384789609
 30
0.0
 11
-47.26107580797851
 21
9.093033461521053
 31
0.0
  0
LINE
  5
162
330
1F
100
AcDbEntity
  8
050
100
AcDbLine
 10
-47.26126627151498
 20
9.093500000000006
 30
0.0
 11
-55.90461125669821
 21
9.093500000000006
 31
0.0
  0
LINE
  5
163
330
1F
100
AcDbEntity
  8
050
100
AcDbLine
 10
-53.86069386032903
 20
-9.093499999999995
 30
0.0
 11
-50.14828803099589
 21
0.0000000000000053
 31
0.0
  0
LINE
  5
164
330
1F
100
AcDbEntity
  8
050
100
AcDbLine
 10
-50.14828803099589
 20
0.0000000000000053
 30
0.0
 11
-53.86069386032904
 21
9.093500000000006
 31
0.0
  0
LINE
  5
165
330
1F
100
AcDbEntity
  8
VER
100
AcDbLine
 10
-55.90461125669821
 20
9.093500000000006
 30
0.0
 11
-61.28550551899531
 21
9.093500000000006
 31
0.0
  0
LINE
  5
166
330
1F
100
AcDbEntity
  8
VER
100
AcDbLine
 10
-61.28550551899531
 20
9.093500000000006
 30
0.0
 11
-64.99791134832844
 21
0.0000000000000044
 31
0.0
  0
LINE
  5
167
330
1F
100
AcDbEntity
  8
VER
100
AcDbLine
 10
-64.99791134832844
 20
0.0000000000000044
 30
0.0
 11
-61.28550551899531
 21
-9.093499999999995
 31
0.0
  0
LINE
  5
168
330
1F
100
AcDbEntity
  8
VER
100
AcDbLine
 10
-61.28550551899531
 20
-9.093499999999995
 30
0.0
 11
-55.9046112566982
 21
-9.093499999999995
 31
0.0
  0
ELLIPSE
  5
169
330
1F
100
AcDbEntity
  8
VER
100
AcDbEllipse
 10
-94.40753191265482
 20
-23.21800361206887
 30
0.0
 11
-1.264887296371557E-13
 21
-1.999999999999901
 31
0.0
210
0.0
220
0.0
230
1.0
 40
0.7071067811865813
 41
5.105088062083443
 42
5.890486225480931
  0
LINE
  5
16A
330
1F
100
AcDbEntity
  8
VER
100
AcDbLine
 10
-94.94872801280104
 20
-25.06576267709137
 30
0.0
 11
-103.3212922167916
 21
-25.06576267709137
 31
0.0
  0
LINE
  5
16B
330
1F
100
AcDbEntity
  8
VER
100
AcDbLine
 10
-95.71409487753122
 20
-23.98337047679898
 30
0.0
 11
-104.0866590815085
 21
-23.98337047679898
 31
0.0
  0
ELLIPSE
  5
16C
330
1F
100
AcDbEntity
  8
VER
100
AcDbEllipse
 10
-94.4075319126547
 20
23.21800361206872
 30
0.0
 11
1.275302983970806E-13
 21
-2.000000000000107
 31
0.0
210
0.0
220
0.0
230
1.0
 40
0.7071067811865794
 41
3.534291735288505
 42
4.3196898986859
  0
LINE
  5
16D
330
1F
100
AcDbEntity
  8
VER
100
AcDbLine
 10
-94.94872801280106
 20
25.06576267709138
 30
0.0
 11
-103.3212922167784
 21
25.06576267709139
 31
0.0
  0
LINE
  5
16E
330
1F
100
AcDbEntity
  8
VER
100
AcDbLine
 10
-95.71409487753124
 20
23.98337047679899
 30
0.0
 11
-104.0866590815085
 21
23.98337047679899
 31
0.0
  0
LINE
  5
16F
330
1F
100
AcDbEntity
  8
VER
100
AcDbLine
 10
-102.5144906898924
 20
0.7653668647301808
 30
0.0
 11
-95.71409487753124
 21
23.98337047679899
 31
0.0
  0
LINE
  5
170
330
1F
100
AcDbEntity
  8
VER
100
AcDbLine
 10
-95.71409487753122
 20
-23.98337047679898
 30
0.0
 11
-102.5144906898924
 21
-0.7653668647301783
 31
0.0
  0
LINE
  5
171
330
1F
100
AcDbEntity
  8
VER
100
AcDbLine
 10
-98.1659950916986
 20
-20.58477300999471
 30
0.0
 11
-99.73037464349362
 21
-18.31609573570913
 31
0.0
  0
LINE
  5
172
330
1F
100
AcDbEntity
  8
VER
100
AcDbLine
 10
-97.36964593491676
 20
-20.5847730099947
 30
0.0
 11
-99.1193255029146
 21
-18.31609573570913
 31
0.0
  0
LINE
  5
173
330
1F
100
AcDbEntity
  8
VER
100
AcDbLine
 10
-99.1193255029146
 20
-18.31609573570913
 30
0.0
 11
-99.73037464349362
 21
-18.31609573570913
 31
0.0
  0
LINE
  5
174
330
1F
100
AcDbEntity
  8
VER
100
AcDbLine
 10
-99.26469629731426
 20
19.0460963207635
 30
0.0
 11
-97.64473384915641
 21
21.23693249820099
 31
0.0
  0
LINE
  5
175
330
1F
100
AcDbEntity
  8
VER
100
AcDbLine
 10
-98.59848777741881
 20
19.0460963207635
 30
0.0
 11
-96.78664154533705
 21
21.23693249820099
 31
0.0
  0
LINE
  5
176
330
1F
100
AcDbEntity
  8
VER
100
AcDbLine
 10
-98.59848777741881
 20
19.0460963207635
 30
0.0
 11
-99.26469629731426
 21
19.0460963207635
 31
0.0
  0
ELLIPSE
  5
177
330
1F
100
AcDbEntity
  8
VER
100
AcDbEllipse
 10
-84.56601717797622
 20
0.0000000000055191
 30
0.0
 11
1.347111479062702E-15
 21
22.00000000001001
 31
0.0
210
0.0
220
0.0
230
1.0
 40
0.7071067811865479
 41
-4.163825467277404
 42
-4.083250923767682
  0
ELLIPSE
  5
178
330
1F
100
AcDbEntity
  8
050
100
AcDbEllipse
 10
-84.56601717798213
 20
0.0000000000000098
 30
0.0
 11
1.347111479062089E-15
 21
22.00000000000001
 31
0.0
210
0.0
220
0.0
230
1.0
 40
0.7071067811865477
 41
0.9873726869157293
 42
2.119359839902166
  0
ELLIPSE
  5
179
330
1F
100
AcDbEntity
  8
VER
100
AcDbEllipse
 10
-84.56601717798304
 20
0.0000000000007869
 30
0.0
 11
1.347111479061997E-15
 21
21.99999999999851
 31
0.0
210
0.0
220
0.0
230
1.0
 40
0.7071067811865476
 41
0.9067260460781084
 42
0.9873726869157265
  0
LINE
  5
17A
330
1F
100
AcDbEntity
  8
VER
100
AcDbLine
 10
-97.46843203289556
 20
13.65829132702123
 30
0.0
 11
-96.81648872546776
 21
13.55919959763443
 31
0.0
  0
LINE
  5
17B
330
1F
100
AcDbEntity
  8
VER
100
AcDbLine
 10
-97.14387023962965
 20
-12.9458574346857
 30
0.0
 11
-97.7994968842907
 21
-13.04530423874953
 31
0.0
  0
LINE
  5
17C
330
1F
100
AcDbEntity
  8
VER
100
AcDbLine
 10
-99.73037464349362
 20
-18.31609573570913
 30
0.0
 11
-97.14387023962968
 21
-12.94585743468572
 31
0.0
  0
LINE
  5
17D
330
1F
100
AcDbEntity
  8
VER
100
AcDbLine
 10
-99.1193255029146
 20
-18.31609573570913
 30
0.0
 11
-89.74138039865731
 21
-0.9071836581536287
 31
0.0
  0
LINE
  5
17E
330
1F
100
AcDbEntity
  8
VER
100
AcDbLine
 10
-96.81648872546778
 20
13.55919959763444
 30
0.0
 11
-99.26469629731426
 21
19.0460963207635
 31
0.0
  0
LINE
  5
17F
330
1F
100
AcDbEntity
  8
VER
100
AcDbLine
 10
-89.71240754361034
 20
1.239849482138994
 30
0.0
 11
-98.59848777741881
 21
19.0460963207635
 31
0.0
  0
LINE
  5
180
330
1F
100
AcDbEntity
  8
VER
100
AcDbLine
 10
-57.57309968966218
 20
6.000000000000002
 30
0.0
 11
-75.90395910844693
 21
6.000000000000003
 31
0.0
  0
LINE
  5
181
330
1F
100
AcDbEntity
  8
VER
100
AcDbLine
 10
-75.90395910844693
 20
-5.99999999999999
 30
0.0
 11
-57.57309968966218
 21
-5.999999999999991
 31
0.0
  0
ELLIPSE
  5
182
330
1F
100
AcDbEntity
  8
VER
100
AcDbEllipse
 10
-57.57309968966226
 20
-0.0000000000000826
 30
0.0
 11
1.056165367742106E-13
 21
6.000000000000089
 31
0.0
210
0.0
220
0.0
230
1.0
 40
0.7071067811865522
 41
5.443390271756264
 42
10.26457299619275
  0
ELLIPSE
  5
183
330
1F
100
AcDbEntity
  8
050
100
AcDbEllipse
 10
-57.57309968966219
 20
0.0000000000000044
 30
0.0
 11
8.360999817045301E-15
 21
5.999999999999978
 31
0.0
210
0.0
220
0.0
230
1.0
 40
0.7071067811865488
 41
3.981387689013133
 42
5.443390271756247
  0
LINE
  5
184
330
1F
100
AcDbEntity
  8
VER
100
AcDbLine
 10
-92.87045489735043
 20
-2.247136429485253
 30
0.0
 11
-92.52596002438477
 21
-1.607627359219416
 31
0.0
  0
LINE
  5
185
330
1F
100
AcDbEntity
  8
050
100
AcDbLine
 10
-98.903936817986
 20
-13.44749590164516
 30
0.0
 11
-92.87045489735043
 21
-2.247136429485253
 31
0.0
  0
LINE
  5
186
330
1F
100
AcDbEntity
  8
VER
100
AcDbLine
 10
-94.27974275277884
 20
-17.18391896265461
 30
0.0
 11
-98.1659950916986
 21
-20.58477300999471
 31
0.0
  0
LINE
  5
187
330
1F
100
AcDbEntity
  8
VER
100
AcDbLine
 10
-97.36964593491676
 20
-20.5847730099947
 30
0.0
 11
-98.1659950916986
 21
-20.58477300999471
 31
0.0
  0
LINE
  5
188
330
1F
100
AcDbEntity
  8
VER
100
AcDbLine
 10
-93.75234157448732
 20
-17.75451740161776
 30
0.0
 11
-97.36964593491676
 21
-20.5847730099947
 31
0.0
  0
LINE
  5
189
330
1F
100
AcDbEntity
  8
050
100
AcDbLine
 10
-83.84141708877135
 20
-9.999999999999991
 30
0.0
 11
-93.75234157448732
 21
-17.75451740161776
 31
0.0
  0
LINE
  5
18A
330
1F
100
AcDbEntity
  8
VER
100
AcDbLine
 10
-83.51655769588037
 20
-9.745823124887794
 30
0.0
 11
-83.84141708877135
 21
-9.999999999999991
 31
0.0
  0
LINE
  5
18B
330
1F
100
AcDbEntity
  8
050
100
AcDbLine
 10
-86.24004665005882
 20
-9.993247289351421
 30
0.0
 11
-95.62879852189718
 21
-17.33920576926638
 31
0.0
  0
LINE
  5
18C
330
1F
100
AcDbEntity
  8
VER
100
AcDbLine
 10
-86.03490075524212
 20
-9.832736792725273
 30
0.0
 11
-86.24004665005882
 21
-9.993247289351421
 31
0.0
  0
LINE
  5
18D
330
1F
100
AcDbEntity
  8
VER
100
AcDbLine
 10
-97.64473384915641
 20
21.23693249820099
 30
0.0
 11
-93.8501314973793
 21
17.65249111623427
 31
0.0
  0
LINE
  5
18E
330
1F
100
AcDbEntity
  8
VER
100
AcDbLine
 10
-96.78664154533705
 20
21.23693249820099
 30
0.0
 11
-97.64473384915641
 21
21.23693249820099
 31
0.0
  0
LINE
  5
18F
330
1F
100
AcDbEntity
  8
VER
100
AcDbLine
 10
-83.48182315834516
 20
10.00000000000001
 30
0.0
 11
-83.26079939784823
 21
9.81332859983788
 31
0.0
  0
LINE
  5
190
330
1F
100
AcDbEntity
  8
050
100
AcDbLine
 10
-93.25176159466608
 20
18.25145714336495
 30
0.0
 11
-83.48182315834516
 21
10.00000000000001
 31
0.0
  0
LINE
  5
191
330
1F
100
AcDbEntity
  8
VER
100
AcDbLine
 10
-96.78664154533705
 20
21.23693249820099
 30
0.0
 11
-93.25176159466608
 21
18.25145714336495
 31
0.0
  0
LINE
  5
192
330
1F
100
AcDbEntity
  8
VER
100
AcDbLine
 10
-85.88908325095336
 20
10.00000000000001
 30
0.0
 11
-85.75885696833409
 21
9.890013985556159
 31
0.0
  0
LINE
  5
193
330
1F
100
AcDbEntity
  8
050
100
AcDbLine
 10
-95.11943107275937
 20
17.79573177112733
 30
0.0
 11
-85.88908325095336
 21
10.00000000000001
 31
0.0
  0
LINE
  5
194
330
1F
100
AcDbEntity
  8
050
100
AcDbLine
 10
-92.80543765874725
 20
2.614020092169818
 30
0.0
 11
-98.50478579511618
 21
14.03457865851363
 31
0.0
  0
LINE
  5
195
330
1F
100
AcDbEntity
  8
VER
100
AcDbLine
 10
-92.47555896993485
 20
1.952997323385097
 30
0.0
 11
-92.80543765874725
 21
2.614020092169818
 31
0.0
  0
LINE
  5
196
330
1F
100
AcDbEntity
  8
VER
100
AcDbLine
 10
-94.94872801280106
 20
25.06576267709138
 30
0.0
 11
-77.98992411294725
 21
35.00000000000001
 31
0.0
  0
ELLIPSE
  5
197
330
1F
100
AcDbEntity
  8
050
100
AcDbEllipse
 10
-77.98992411294692
 20
-32.83521559941498
 30
0.0
 11
-7.251209845151288E-13
 21
-2.000000000000227
 31
0.0
210
0.0
220
0.0
230
1.0
 40
0.7071067811865084
 41
0.0000000000002816
 42
0.3926990816989606
  0
LINE
  5
198
330
1F
100
AcDbEntity
  8
VER
100
AcDbLine
 10
-85.82129221679155
 20
-34.68297466443778
 30
0.0
 11
-86.90368441707079
 21
-34.68297466443778
 31
0.0
  0
LINE
  5
199
330
1F
100
AcDbEntity
  8
050
100
AcDbLine
 10
-86.07797905808691
 20
-34.83521559941521
 30
0.0
 11
-77.98992411294725
 21
-34.83521559941521
 31
0.0
  0
LWPOLYLINE
  5
19A
330
1F
100
AcDbEntity
  8
050
100
AcDbPolyline
 90
        5
 70
     0
 43
0.0
 10
-86.07661239830611
 20
-34.83521559920418
 10
-86.08563187104447
 20
-34.83517554843181
 10
-86.26060051546582
 20
-34.82288830796448
 10
-86.5718799665577
 20
-34.76941812109649
 10
-86.90368441707079
 20
-34.68297466443777
  0
ELLIPSE
  5
19B
330
1F
100
AcDbEntity
  8
VER
100
AcDbEllipse
 10
-77.98992411294738
 20
-32.83521559941498
 30
0.0
 11
3.673384717161507E-13
 21
-2.000000000000234
 31
0.0
210
0.0
220
0.0
230
1.0
 40
0.7071067811865343
 41
5.890486225480743
 42
6.283185307179417
  0
LINE
  5
19C
330
1F
100
AcDbEntity
  8
VER
100
AcDbLine
 10
-78.53112021309344
 20
-34.68297466443778
 30
0.0
 11
-94.94872801280104
 21
-25.06576267709137
 31
0.0
  0
ELLIPSE
  5
19D
330
1F
100
AcDbEntity
  8
050
100
AcDbEllipse
 10
-88.10155108391488
 20
0.0000000000000067
 30
0.0
 11
-5.510910596163051E-16
 21
-2.999999999999979
 31
0.0
210
0.0
220
0.0
230
1.0
 40
0.7071067811865487
 41
0.0
 42
6.283185307179586
  0
LWPOLYLINE
  5
19E
330
1F
100
AcDbEntity
  8
050
100
AcDbPolyline
 90
       18
 70
     0
 43
0.0
 10
-91.10155108391487
 20
0.0000000000000065
 10
-91.09282627289741
 20
-0.3553317478296437
 10
-91.04198863029248
 20
-0.9258294099328346
 10
-90.94543364700213
 20
-1.490933306327537
 10
-90.80287929867089
 20
-2.045915502390143
 10
-90.61419387834198
 20
-2.585861138658133
 10
-90.3797480743666
 20
-3.10509946609898
 10
-90.10069863185058
 20
-3.597446003894832
 10
-89.77926000722204
 20
-4.056469805679285
 10
-89.418846032799
 20
-4.475928790045513
 10
-89.02393265892674
 20
-4.850339409633038
 10
-88.59970950299564
 20
-5.175398271349675
 10
-88.1516888367172
 20
-5.448113991694056
 10
-87.68541236604314
 20
-5.666692702415081
 10
-87.20628529175923
 20
-5.830317452097433
 10
-86.71949260584952
 20
-5.938931882591534
 10
-86.22994728696509
 20
-5.99306684369443
 10
-85.98185023790074
 20
-5.99999970858083
  0
LWPOLYLINE
  5
19F
330
1F
100
AcDbEntity
  8
050
100
AcDbPolyline
 90
       19
 70
     0
 43
0.0
 10
-85.98027314527815
 20
5.9999999998002
 10
-86.20708692057651
 20
5.994278777646629
 10
-86.68888577405032
 20
5.943909829527256
 10
-87.16038764674524
 20
5.842969861405133
 10
-87.61814968206127
 20
5.693239956492664
 10
-88.05911773161598
 20
5.496505147422862
 10
-88.4805445732182
 20
5.25448541726013
 10
-88.87989257114276
 20
4.96880910602278
 10
-89.25470966084032
 20
4.641053102098981
 10
-89.6024990747979
 20
4.272870078802185
 10
-89.92062007816916
 20
3.866203810862549
 10
-90.20626817176348
 20
3.423552891148177
 10
-90.45657159728167
 20
2.948192193616343
 10
-90.66879402768448
 20
2.444239180609632
 10
-90.84056865712859
 20
1.916503156933432
 10
-90.97005860427723
 20
1.370168891589945
 10
-91.05596882978047
 20
0.8105430840416803
 10
-91.09748504976281
 20
0.2426343623546689
 10
-91.10155108391487
 20
0.0000000000000065
  0
ELLIPSE
  5
1A0
330
1F
100
AcDbEntity
  8
050
100
AcDbEllipse
 10
-85.98023074035522
 20
-0.0000000000000004
 30
0.0
 11
3.673940397442040E-16
 21
5.999999999999968
 31
0.0
210
0.0
220
0.0
230
1.0
 40
0.7071067811865476
 41
3.141248632019559
 42
6.283133181953917
  0
ELLIPSE
  5
1A1
330
1F
100
AcDbEntity
  8
VER
100
AcDbEllipse
 10
-85.98023074142856
 20
0.0000000001264828
 30
0.0
 11
-2.147303300860809E-9
 21
6.000000000126467
 31
0.0
210
0.0
220
0.0
230
1.0
 40
0.7071067811858361
 41
0.0210135172424337
 42
3.141248631766428
  0
LWPOLYLINE
  5
1A2
330
1F
100
AcDbEntity
  8
VER
100
AcDbPolyline
 90
       16
 70
     0
 43
0.0
 10
-76.8108554538402
 20
5.917723263273796
 10
-76.51605270729075
 20
5.192637608331614
 10
-76.26077746409227
 20
4.428032845789716
 10
-76.04697252298489
 20
3.629728079572023
 10
-75.87626506866937
 20
2.803798890979049
 10
-75.74995428794907
 20
1.956531099845667
 10
-75.66900148213378
 20
1.094372925656681
 10
-75.6340227509564
 20
0.2238859127030088
 10
-75.64528430368193
 20
-0.6483050072323436
 10
-75.70270043309422
 20
-1.515561934605392
 10
-75.80583416777964
 20
-2.371284520534776
 10
-75.95390059774336
 20
-3.20896019944215
 10
-76.14577284804841
 20
-4.022213753608624
 10
-76.37999065501434
 20
-4.804855832431071
 10
-76.65477147970557
 20
-5.550930057117442
 10
-76.81085545384025
 20
-5.917723263273901
  0
LINE
  5
1A3
330
1F
100
AcDbEntity
  8
VER
100
AcDbLine
 10
-83.51655769588034
 20
-9.7458231248878
 30
0.0
 11
-86.0349007552421
 21
-9.832736792725271
 31
0.0
  0
LWPOLYLINE
  5
1A4
330
1F
100
AcDbEntity
  8
VER
100
AcDbPolyline
 90
       16
 70
     0
 43
0.0
 10
-83.51655769588037
 20
-9.745823124887806
 10
-84.19471364812581
 20
-9.513482557670782
 10
-84.8539578574602
 20
-9.208738643792062
 10
-85.489273077388
 20
-8.833910668445665
 10
-86.0958241754717
 20
-8.391851298851293
 10
-86.66899493160933
 20
-7.88592487373431
 10
-87.20442317025673
 20
-7.319981798676581
 10
-87.69803395921738
 20
-6.69832924220507
 10
-88.14607062233694
 20
-6.025698355638598
 10
-88.54512333007712
 20
-5.307208266169573
 10
-88.89215505037744
 20
-4.548327117215028
 10
-89.1845246623029
 20
-3.754830452543477
 10
-89.42000705656918
 20
-2.932757260899454
 10
-89.59681006996773
 20
-2.088364015652736
 10
-89.71358812481
 20
-1.22807705925823
 10
-89.74138039865731
 20
-0.907183658153572
  0
LINE
  5
1A5
330
1F
100
AcDbEntity
  8
VER
100
AcDbLine
 10
-92.52596002438476
 20
-1.607627359219431
 30
0.0
 11
-89.7413803986573
 21
-0.9071836581536408
 31
0.0
  0
LWPOLYLINE
  5
1A6
330
1F
100
AcDbEntity
  8
VER
100
AcDbPolyline
 90
       16
 70
     0
 43
0.0
 10
-86.03490075524212
 20
-9.832736792725273
 10
-86.72045158320866
 20
-9.636579834256208
 10
-87.38960586446835
 20
-9.367082684522456
 10
-88.03727093089445
 20
-9.026296379560325
 10
-88.65851766026053
 20
-8.616814508922973
 10
-89.24861798983714
 20
-8.14175347689786
 10
-89.80308089980385
 20
-7.604728784788393
 10
-90.31768659262195
 20
-7.009827514765901
 10
-90.78851860824172
 20
-6.361577224706463
 10
-91.21199363072813
 20
-5.664911490741657
 10
-91.58488875945882
 20
-4.925132359765228
 10
-91.90436603734395
 20
-4.147869997654757
 10
-92.16799404939314
 20
-3.339039840309753
 10
-92.37376642725174
 20
-2.504797573612611
 10
-92.52011711887553
 20
-1.651492284942152
 10
-92.52596002438477
 20
-1.607627359219401
  0
LINE
  5
1A7
330
1F
100
AcDbEntity
  8
VER
100
AcDbLine
 10
-89.71240754361033
 20
1.239849482138994
 30
0.0
 11
-92.47555896993484
 21
1.952997323385107
 31
0.0
  0
LWPOLYLINE
  5
1A8
330
1F
100
AcDbEntity
  8
VER
100
AcDbPolyline
 90
       16
 70
     0
 43
0.0
 10
-89.71240754361034
 20
1.239849482138954
 10
-89.59480650085916
 20
2.099964056964195
 10
-89.4171957479224
 20
2.944096637322972
 10
-89.18092700987428
 20
3.765822864577568
 10
-88.88779843447423
 20
4.558888905966715
 10
-88.54004090717697
 20
5.317259050049071
 10
-88.14030107274694
 20
6.035161642111755
 10
-87.69162119269367
 20
6.707133009947736
 10
-87.19741599182471
 20
7.328059045700376
 10
-86.6614466701279
 20
7.893214127312205
 10
-86.0877922777685
 20
8.398297083362191
 10
-85.48081867105434
 20
8.839463927577363
 10
-84.8451452856332
 20
9.213357113889424
 10
-84.18560997979823
 20
9.517131089387657
 10
-83.50723221546514
 20
9.748473950694782
 10
-83.26079939784823
 20
9.813328599837872
  0
LINE
  5
1A9
330
1F
100
AcDbEntity
  8
VER
100
AcDbLine
 10
-85.75885696833409
 20
9.89001398555616
 30
0.0
 11
-83.26079939784825
 21
9.813328599837874
 31
0.0
  0
LWPOLYLINE
  5
1AA
330
1F
100
AcDbEntity
  8
VER
100
AcDbPolyline
 90
       16
 70
     0
 43
0.0
 10
-92.47555896993485
 20
1.952997323385112
 10
-92.30818512902786
 20
2.800339950465369
 10
-92.08188871516458
 20
3.626370299631093
 10
-91.79839198069602
 20
4.424801781154368
 10
-91.45985250695153
 20
5.189557849354696
 10
-91.06884678374198
 20
5.914818248780731
 10
-90.62835060071673
 20
6.595063309868639
 10
-90.14171639980746
 20
7.225115956960341
 10
-89.61264776112087
 20
7.800181108975282
 10
-89.04517121645773
 20
8.315882172872795
 10
-88.44360560497464
 20
8.768294352167805
 10
-87.81252920421021
 20
9.153974517001929
 10
-87.15674488662864
 20
9.469987408440737
 10
-86.48124356686012
 20
9.713927977566572
 10
-85.79116621782693
 20
9.883939689353047
 10
-85.7588569683341
 20
9.890013985556157
  0
ELLIPSE
  5
1AB
330
1F
100
AcDbEntity
  8
VER
100
AcDbEllipse
 10
-75.90395910844686
 20
0.0000000000000515
 30
0.0
 11
6.123233995736830E-16
 21
10.0000000000001
 31
0.0
210
0.0
220
0.0
230
1.0
 40
0.7071067811865472
 41
0.0000000000000101
 42
3.141592653589783
  0
LINE
  5
1AC
330
1F
100
AcDbEntity
  8
050
100
AcDbLine
 10
-75.90395910844693
 20
10.0
 30
0.0
 11
-85.98023074035524
 21
10.00000000000001
 31
0.0
  0
LINE
  5
1AD
330
1F
100
AcDbEntity
  8
050
100
AcDbLine
 10
-85.98023074035524
 20
-9.999999999999991
 30
0.0
 11
-75.90395910844693
 21
-9.999999999999993
 31
0.0
  0
ELLIPSE
  5
1AE
330
1F
100
AcDbEntity
  8
050
100
AcDbEllipse
 10
-75.90395910844703
 20
-0.0000000000002771
 30
0.0
 11
6.123233995736958E-16
 21
10.00000000000031
 31
0.0
210
0.0
220
0.0
230
1.0
 40
0.7071067811865481
 41
5.695214432538292
 42
6.283185307179573
  0
ELLIPSE
  5
1AF
330
1F
100
AcDbEntity
  8
VER
100
AcDbEllipse
 10
-75.90395910844684
 20
-0.0000000000001181
 30
0.0
 11
6.123233995736666E-16
 21
9.999999999999837
 31
0.0
210
0.0
220
0.0
230
1.0
 40
0.7071067811865477
 41
3.731307223167969
 42
5.695214432538304
  0
ELLIPSE
  5
1B0
330
1F
100
AcDbEntity
  8
050
100
AcDbEllipse
 10
-75.90395910844678
 20
0.0000000000000373
 30
0.0
 11
3.136952163438691E-13
 21
10.00000000000004
 31
0.0
210
0.0
220
0.0
230
1.0
 40
0.7071067811865434
 41
3.141592653589817
 42
3.731307223167994
  0
ELLIPSE
  5
1B1
330
1F
100
AcDbEntity
  8
VER
100
AcDbEllipse
 10
-84.56601717798213
 20
-0.0000000000000675
 30
0.0
 11
1.347111479062090E-15
 21
22.00000000000002
 31
0.0
210
0.0
220
0.0
230
1.0
 40
0.7071067811865455
 41
4.846393302798851
 42
6.298308427274712
  0
LINE
  5
1B2
330
1F
100
AcDbEntity
  8
050
100
AcDbLine
 10
-93.85013149737934
 20
17.65249111623426
 30
0.0
 11
-94.51012151202725
 21
17.70185731546178
 31
0.0
  0
LINE
  5
1B3
330
1F
100
AcDbEntity
  8
VER
100
AcDbLine
 10
-84.56601717798218
 20
22.0
 30
0.0
 11
-85.2731239591687
 21
22.0
 31
0.0
  0
ELLIPSE
  5
1B4
330
1F
100
AcDbEntity
  8
050
100
AcDbEllipse
 10
-84.56601717798205
 20
-0.0000000000001812
 30
0.0
 11
-2.575568978635261E-13
 21
22.00000000000015
 31
0.0
210
0.0
220
0.0
230
1.0
 40
0.7071067811865498
 41
0.0151231200951143
 42
0.6395138999718137
  0
ELLIPSE
  5
1B5
330
1F
100
AcDbEntity
  8
050
100
AcDbEllipse
 10
-84.56601717798212
 20
-0.00000000000054
 30
0.0
 11
1.137016815711249E-13
 21
21.99999999999942
 31
0.0
210
0.0
220
0.0
230
1.0
 40
0.7071067811865478
 41
2.467201424217733
 42
3.141592653589799
  0
LINE
  5
1B6
330
1F
100
AcDbEntity
  8
050
100
AcDbLine
 10
-94.94340018289937
 20
-17.23286150102465
 30
0.0
 11
-94.27974275277884
 21
-17.18391896265461
 31
0.0
  0
LINE
  5
1B7
330
1F
100
AcDbEntity
  8
VER
100
AcDbLine
 10
-85.2731239591687
 20
-21.99999999999999
 30
0.0
 11
-84.56601717798215
 21
-21.99999999999999
 31
0.0
  0
ELLIPSE
  5
1B8
330
1F
100
AcDbEntity
  8
VER
100
AcDbEllipse
 10
-84.56601717798216
 20
0.0000000000000906
 30
0.0
 11
-1.330783244599001E-14
 21
22.00000000000005
 31
0.0
210
0.0
220
0.0
230
1.0
 40
0.7071067811865471
 41
3.141592653589793
 42
4.578384657970528
  0
LWPOLYLINE
  5
1B9
330
1F
100
AcDbEntity
  8
050
100
AcDbPolyline
 90
       16
 70
     0
 43
0.0
 10
-79.60515613386296
 20
5.776361010617689
 10
-79.31807657273535
 20
5.042932772504892
 10
-79.07093700840684
 20
4.271124770987274
 10
-78.86561832218892
 20
3.466810930986791
 10
-78.70368311325853
 20
2.636112566483827
 10
-78.58636380633479
 20
1.785351793621634
 10
-78.51455327218268
 20
0.9210034155850931
 10
-78.48879803232752
 20
0.0496456454388827
 10
-78.50929409969605
 20
-0.8220899580459782
 10
-78.57588548683972
 20
-1.68756896055862
 10
-78.6880653930934
 20
-2.540204544299413
 10
-78.84498006163439
 20
-3.373507637640647
 10
-79.04543527708746
 20
-4.181136300879832
 10
-79.28790545422481
 20
-4.956943992230197
 10
-79.57054524859097
 20
-5.695026346715072
 10
-79.60515613386296
 20
-5.776361010617671
  0
ELLIPSE
  5
1BA
330
1F
100
AcDbEntity
  8
050
100
AcDbEllipse
 10
-61.57231631323968
 20
23.21800361206877
 30
0.0
 11
-5.010538554295228E-14
 21
-2.000000000000043
 31
0.0
210
0.0
220
0.0
230
1.0
 40
0.7071067811865488
 41
1.963495408493648
 42
2.748893571891084
  0
ELLIPSE
  5
1BB
330
1F
100
AcDbEntity
  8
050
100
AcDbEllipse
 10
-61.57231631323967
 20
-23.21800361206875
 30
0.0
 11
4.404152694526323E-14
 21
-2.000000000000053
 31
0.0
210
0.0
220
0.0
230
1.0
 40
0.7071067811865521
 41
0.392699081698705
 42
1.178097245096139
  0
LINE
  5
1BC
330
1F
100
AcDbEntity
  8
050
100
AcDbLine
 10
-61.03112021309344
 20
25.06576267709139
 30
0.0
 11
-69.40368441707726
 21
25.06576267709139
 31
0.0
  0
LINE
  5
1BD
330
1F
100
AcDbEntity
  8
050
100
AcDbLine
 10
-77.98992411294725
 20
35.00000000000001
 30
0.0
 11
-61.03112021309344
 21
25.06576267709139
 31
0.0
  0
LINE
  5
1BE
330
1F
100
AcDbEntity
  8
050
100
AcDbLine
 10
-77.98992411294725
 20
35.00000000000001
 30
0.0
 11
-85.27312395916871
 21
35.00000000000001
 31
0.0
  0
LINE
  5
1BF
330
1F
100
AcDbEntity
  8
VER
100
AcDbLine
 10
-69.14913301816095
 20
2.939279776629973
 30
0.0
 11
-64.57245129598434
 21
1.576916273239391
 31
0.0
  0
LINE
  5
1C0
330
1F
100
AcDbEntity
  8
VER
100
AcDbLine
 10
-69.85335321820907
 20
2.90883835791652
 30
0.0
 11
-69.14913301816092
 21
2.939279776629972
 31
0.0
  0
LINE
  5
1C1
330
1F
100
AcDbEntity
  8
VER
100
AcDbLine
 10
-71.1277194890215
 20
3.91048217803444
 30
0.0
 11
-64.52065448953562
 21
1.576916273239391
 31
0.0
  0
LINE
  5
1C2
330
1F
100
AcDbEntity
  8
050
100
AcDbLine
 10
-76.8108554538402
 20
5.917723263273868
 30
0.0
 11
-71.1277194890215
 21
3.91048217803444
 31
0.0
  0
LINE
  5
1C3
330
1F
100
AcDbEntity
  8
050
100
AcDbLine
 10
-76.81085545384016
 20
5.917723263273884
 30
0.0
 11
-79.60515613386292
 21
5.776361010617689
 31
0.0
  0
LINE
  5
1C4
330
1F
100
AcDbEntity
  8
VER
100
AcDbLine
 10
-71.00769191875105
 20
2.739801000743126
 30
0.0
 11
-70.91051382808196
 21
2.705478426484192
 31
0.0
  0
LINE
  5
1C5
330
1F
100
AcDbEntity
  8
050
100
AcDbLine
 10
-79.60515613386296
 20
5.776361010617685
 30
0.0
 11
-71.00769191875105
 21
2.739801000743126
 31
0.0
  0
LINE
  5
1C6
330
1F
100
AcDbEntity
  8
VER
100
AcDbLine
 10
-64.57245129598434
 20
1.576916273239391
 30
0.0
 11
-64.57245129598434
 21
-1.576916273239375
 31
0.0
  0
LINE
  5
1C7
330
1F
100
AcDbEntity
  8
VER
100
AcDbLine
 10
-64.52065448953562
 20
1.576916273239391
 30
0.0
 11
-64.57245129598434
 21
1.576916273239391
 31
0.0
  0
LINE
  5
1C8
330
1F
100
AcDbEntity
  8
VER
100
AcDbLine
 10
-64.52065448953562
 20
1.576916273239391
 30
0.0
 11
-64.52065448953562
 21
-1.576916273239375
 31
0.0
  0
LINE
  5
1C9
330
1F
100
AcDbEntity
  8
VER
100
AcDbLine
 10
-64.57245129598434
 20
-1.576916273239375
 30
0.0
 11
-69.14913301816092
 21
-2.939279776629958
 31
0.0
  0
LINE
  5
1CA
330
1F
100
AcDbEntity
  8
VER
100
AcDbLine
 10
-64.52065448953562
 20
-1.576916273239375
 30
0.0
 11
-64.57245129598434
 21
-1.576916273239375
 31
0.0
  0
LINE
  5
1CB
330
1F
100
AcDbEntity
  8
VER
100
AcDbLine
 10
-69.14913301816073
 20
-2.939279776629964
 30
0.0
 11
-69.85335321820907
 21
-2.908838357916501
 31
0.0
  0
LINE
  5
1CC
330
1F
100
AcDbEntity
  8
050
100
AcDbLine
 10
-71.0072590875093
 20
-2.739648127988212
 30
0.0
 11
-79.60515613386296
 21
-5.776361010617672
 31
0.0
  0
LINE
  5
1CD
330
1F
100
AcDbEntity
  8
VER
100
AcDbLine
 10
-70.91051382808196
 20
-2.705478426484193
 30
0.0
 11
-71.0072590875093
 21
-2.739648127988212
 31
0.0
  0
LINE
  5
1CE
330
1F
100
AcDbEntity
  8
050
100
AcDbLine
 10
-79.60515613386292
 20
-5.776361010617674
 30
0.0
 11
-76.81085545384025
 21
-5.917723263273866
 31
0.0
  0
LINE
  5
1CF
330
1F
100
AcDbEntity
  8
050
100
AcDbLine
 10
-71.1265968261059
 20
-3.910085661895621
 30
0.0
 11
-76.81085545384025
 21
-5.917723263273871
 31
0.0
  0
LINE
  5
1D0
330
1F
100
AcDbEntity
  8
VER
100
AcDbLine
 10
-64.52065448953562
 20
-1.576916273239375
 30
0.0
 11
-71.1265968261059
 21
-3.910085661895621
 31
0.0
  0
ELLIPSE
  5
1D1
330
1F
100
AcDbEntity
  8
050
100
AcDbEllipse
 10
-77.98992411294677
 20
0.0000000000000435
 30
0.0
 11
1.156540040153276E-13
 21
28.50000000000039
 31
0.0
210
0.0
220
0.0
230
1.0
 40
0.7071067811865556
 41
1.194259558275655
 42
1.920625677365339
  0
LINE
  5
1D2
330
1F
100
AcDbEntity
  8
VER
100
AcDbLine
 10
-77.98992411294725
 20
28.49999999999999
 30
0.0
 11
-84.56601717798215
 21
28.49999999999999
 31
0.0
  0
LINE
  5
1D3
330
1F
100
AcDbEntity
  8
VER
100
AcDbLine
 10
-84.56601717798215
 20
-28.49999999999998
 30
0.0
 11
-77.98992411294725
 21
-28.49999999999998
 31
0.0
  0
ELLIPSE
  5
1D4
330
1F
100
AcDbEntity
  8
VER
100
AcDbEllipse
 10
-77.9899241129473
 20
0.0000000000001599
 30
0.0
 11
2.105780726207756E-13
 21
28.49999999999982
 31
0.0
210
0.0
220
0.0
230
1.0
 40
0.7071067811865458
 41
1.92062567736535
 42
7.477444865455243
  0
LINE
  5
1D5
330
1F
100
AcDbEntity
  8
050
100
AcDbLine
 10
-77.44872801280106
 20
-34.68297466443778
 30
0.0
 11
-85.82129221679155
 21
-34.68297466443778
 31
0.0
  0
LINE
  5
1D6
330
1F
100
AcDbEntity
  8
050
100
AcDbLine
 10
-61.03112021309344
 20
-25.06576267709137
 30
0.0
 11
-77.44872801280106
 21
-34.68297466443778
 31
0.0
  0
LINE
  5
1D7
330
1F
100
AcDbEntity
  8
050
100
AcDbLine
 10
-61.03112021309344
 20
-25.06576267709137
 30
0.0
 11
-69.40368441707082
 21
-25.06576267709137
 31
0.0
  0
LWPOLYLINE
  5
1D8
330
1F
100
AcDbEntity
  8
VER
100
AcDbPolyline
 90
        5
 70
     0
 43
0.0
 10
-70.91051382808196
 20
2.705478426484192
 10
-70.87271312160436
 20
2.7293967672494
 10
-70.65263582808198
 20
2.811356874181844
 10
-70.30988158301199
 20
2.872979891269177
 10
-69.85335321820901
 20
2.908838357916525
  0
LWPOLYLINE
  5
1D9
330
1F
100
AcDbEntity
  8
VER
100
AcDbPolyline
 90
        4
 70
     0
 43
0.0
 10
-70.91051382808196
 20
-2.705478426484193
 10
-70.81184561464163
 20
-0.8148623170739707
 10
-70.81989902802717
 20
1.099466126616615
 10
-70.91051382808196
 20
2.705478426484192
  0
LWPOLYLINE
  5
1DA
330
1F
100
AcDbEntity
  8
VER
100
AcDbPolyline
 90
        5
 70
     0
 43
0.0
 10
-69.85335321820901
 20
-2.90883835791651
 10
-70.21092023211968
 20
-2.883992165602542
 10
-70.5114213030963
 20
-2.84235937652684
 10
-70.7502255901843
 20
-2.782397439598914
 10
-70.91051382808196
 20
-2.705478426484193
  0
ELLIPSE
  5
1DB
330
1F
100
AcDbEntity
  8
050
100
AcDbEllipse
 10
-85.27312395916891
 20
-0.0000000000001172
 30
0.0
 11
-1.158924399213536E-13
 21
21.99999999999984
 31
0.0
210
0.0
220
0.0
230
1.0
 40
0.707106781186546
 41
2.470772158925535
 42
3.140918747425681
  0
LWPOLYLINE
  5
1DC
330
1F
100
AcDbEntity
  8
050
100
AcDbPolyline
 90
        3
 70
     0
 43
0.0
 10
-95.62879852189718
 20
-17.33920576926638
 10
-95.1469182966674
 20
-17.25346700001407
 10
-94.94340018289937
 20
-17.23286150102465
  0
LWPOLYLINE
  5
1DD
330
1F
100
AcDbEntity
  8
050
100
AcDbPolyline
 90
        6
 70
     0
 43
0.0
 10
-98.903936817986
 20
-13.44749590164516
 10
-98.40414058520295
 20
-14.17642434770002
 10
-97.76359591095182
 20
-15.02690180393609
 10
-97.08762191581025
 20
-15.83763435895249
 10
-96.37425455426855
 20
-16.61048436894474
 10
-95.62879852189718
 20
-17.33920576926638
  0
LWPOLYLINE
  5
1DE
330
1F
100
AcDbEntity
  8
VER
100
AcDbPolyline
 90
        5
 70
     0
 43
0.0
 10
-97.79949688429076
 20
-13.04530423874954
 10
-97.94718560106173
 20
-13.07260668707576
 10
-98.3860191312139
 20
-13.20577550420674
 10
-98.85942651899305
 20
-13.42348540346148
 10
-98.903936817986
 20
-13.44749590164516
  0
ELLIPSE
  5
1DF
330
1F
100
AcDbEntity
  8
VER
100
AcDbEllipse
 10
-85.27312395911834
 20
0.0000000000376197
 30
0.0
 11
1.410917313003779E-11
 21
22.00000000006539
 31
0.0
210
0.0
220
0.0
230
1.0
 40
0.7071067811870171
 41
-4.12530446801292
 42
-4.077648733471049
  0
ELLIPSE
  5
1E0
330
1F
100
AcDbEntity
  8
050
100
AcDbEllipse
 10
-85.27312395916861
 20
-0.0000000000000533
 30
0.0
 11
1.600205540411407E-14
 21
21.99999999999988
 31
0.0
210
0.0
220
0.0
230
1.0
 40
0.7071067811865486
 41
0.9477924967894023
 42
2.157880839166133
  0
ELLIPSE
  5
1E1
330
1F
100
AcDbEntity
  8
VER
100
AcDbEllipse
 10
-85.27312395917833
 20
-0.00000000000367
 30
0.0
 11
1.538903823278790E-11
 21
22.00000000000595
 31
0.0
210
0.0
220
0.0
230
1.0
 40
0.7071067811860731
 41
0.9009935030374967
 42
0.9477924967898849
  0
LWPOLYLINE
  5
1E2
330
1F
100
AcDbEntity
  8
VER
100
AcDbPolyline
 90
        3
 70
     0
 43
0.0
 10
-98.50478579511618
 20
14.03457865851363
 10
-97.9328735319562
 20
13.77673010845907
 10
-97.46843203289558
 20
13.65829132702123
  0
LWPOLYLINE
  5
1E3
330
1F
100
AcDbEntity
  8
050
100
AcDbPolyline
 90
        5
 70
     0
 43
0.0
 10
-95.11943107275937
 20
17.79573177112733
 10
-96.02448181957101
 20
16.96181650717507
 10
-96.89118147221318
 20
16.05841771543718
 10
-97.72152646564524
 20
15.07981235887253
 10
-98.50478579511618
 20
14.03457865851363
  0
LWPOLYLINE
  5
1E4
330
1F
100
AcDbEntity
  8
050
100
AcDbPolyline
 90
        3
 70
     0
 43
0.0
 10
-94.5101215120273
 20
17.70185731546178
 10
-94.784886070724
 20
17.73313928346069
 10
-95.11943107275937
 20
17.79573177112733
  0
ELLIPSE
  5
1E5
330
1F
100
AcDbEntity
  8
VER
100
AcDbEllipse
 10
-85.27312395804707
 20
0.0000000011730563
 30
0.0
 11
-2.238321513161998E-9
 21
21.99999999882694
 31
0.0
210
0.0
220
0.0
230
1.0
 40
0.7071067811864651
 41
6.277779997771384
 42
6.282820102707822
  0
ELLIPSE
  5
1E6
330
1F
100
AcDbEntity
  8
VER
100
AcDbEllipse
 10
-85.27312395916867
 20
0.0000000000000249
 30
0.0
 11
-2.796277637104199E-14
 21
21.99999999999995
 31
0.0
210
0.0
220
0.0
230
1.0
 40
0.7071067811865464
 41
4.844997215566019
 42
6.203858210554293
  0
LWPOLYLINE
  5
1E7
330
1F
100
AcDbEntity
  8
050
100
AcDbPolyline
 90
       68
 70
     0
 43
0.0
 10
-85.26864855987586
 20
21.99999888726671
 10
-84.89057417329913
 20
21.99186873810027
 10
-84.20346417541411
 20
21.93637215608279
 10
-83.51831552227087
 20
21.82846589487912
 10
-82.83835964262002
 20
21.66893658479243
 10
-82.16617394576572
 20
21.45905268968963
 10
-81.50355831038844
 20
21.2002487323067
 10
-80.85167926792334
 20
20.89388651999372
 10
-80.21132203950988
 20
20.54114523300354
 10
-79.58312248259352
 20
20.14301467673557
 10
-78.96772718454373
 20
19.7003437394378
 10
-78.3658816363436
 20
19.21390662487938
 10
-77.7784654979248
 20
18.68446630752961
 10
-77.20649488451677
 20
18.11282687643495
 10
-76.65110658527512
 20
17.49987300784528
 10
-76.11353382914248
 20
16.84659765560984
 10
-75.59507926897977
 20
16.15411996175321
 10
-75.0970882980409
 20
15.42369544840942
 10
-74.62092427138661
 20
14.65672029839452
 10
-74.16794631715516
 20
13.85473120463008
 10
-73.73948993001514
 20
13.01940196099102
 10
-73.3368771651574
 20
12.15259862239075
 10
-72.9613417725976
 20
11.25625323393598
 10
-72.61404510498022
 20
10.33239554567085
 10
-72.2960753196688
 20
9.383162034628246
 10
-72.00843872910643
 20
8.410786587208523
 10
-71.752052650876
 20
7.417590883313525
 10
-71.52773954597222
 20
6.405974667955007
 10
-71.33622224998541
 20
5.378406027039837
 10
-71.17812012659569
 20
4.337411742183155
 10
-71.05394599708816
 20
3.285567766774156
 10
-70.96410372286488
 20
2.225489840275658
 10
-70.90888633987231
 20
1.159824238379555
 10
-70.88847466445633
 20
0.0912386419808558
 10
-70.90293630953559
 20
-0.9775869030099742
 10
-70.95222408207333
 20
-2.043953222997728
 10
-71.03617406432284
 20
-3.105160984537292
 10
-71.15450843943859
 20
-4.158549056657581
 10
-71.30683612668759
 20
-5.201481265243657
 10
-71.49265373780723
 20
-6.231355580488919
 10
-71.71134697103156
 20
-7.245613470219532
 10
-71.96219251731655
 20
-8.241749447787601
 10
-72.244360576774
 20
-9.217320837589282
 10
-72.55691810908922
 20
-10.16995776672101
 10
-72.89883297012149
 20
-11.09737337101847
 10
-73.26897911800206
 20
-11.99737417611947
 10
-73.66614310560107
 20
-12.86787057726191
 10
-74.08903211151349
 20
-13.70688729285617
 10
-74.5362837972638
 20
-14.5125736034695
 10
-75.00647679445973
 20
-15.2832107332561
 10
-75.49809260686396
 20
-16.01714685071191
 10
-76.00961900151789
 20
-16.71295042742662
 10
-76.53953451400135
 20
-17.36934892362439
 10
-77.08633244513118
 20
-17.98523252995014
 10
-77.64854867074938
 20
-18.55965405556827
 10
-78.2247932548074
 20
-19.0918236057448
 10
-78.81378538860407
 20
-19.58109634119563
 10
-79.41439039747775
 20
-20.02695130422682
 10
-80.02565624435094
 20
-20.42895909674744
 10
-80.64684483828688
 20
-20.78673631160493
 10
-81.27745019298119
 20
-21.09988546787008
 10
-81.91719085730223
 20
-21.36792154201487
 10
-82.56595848451526
 20
-21.59019122887571
 10
-83.22370024453559
 20
-21.76580025261439
 10
-83.89021639558085
 20
-21.89357774789512
 10
-84.56487767635001
 20
-21.97212060623419
 10
-85.24632221391505
 20
-21.99996009255604
 10
-85.28171798891229
 20
-21.99999589681377
  0
ELLIPSE
  5
1E8
330
1F
100
AcDbEntity
  8
VER
100
AcDbEllipse
 10
-85.27312395916873
 20
0.0000000000000924
 30
0.0
 11
4.042696194586775E-14
 21
22.00000000000009
 31
0.0
210
0.0
220
0.0
230
1.0
 40
0.7071067811865466
 41
3.24179950579375
 42
4.579780745203355
  0
ELLIPSE
  5
1E9
330
1F
100
AcDbEntity
  8
VER
100
AcDbEllipse
 10
-85.27312395918308
 20
-0.0000000000330154
 30
0.0
 11
-2.966025939278179E-11
 21
21.99999999996697
 31
0.0
210
0.0
220
0.0
230
1.0
 40
0.7071067811865543
 41
3.140918747424692
 42
3.184699316898154
  0
ELLIPSE
  5
1EA
330
1F
100
AcDbEntity
  8
050
100
AcDbEllipse
 10
-85.27312395916876
 20
0.0000000000003091
 30
0.0
 11
-1.403173464631059E-13
 21
21.99999999999968
 31
0.0
210
0.0
220
0.0
230
1.0
 40
0.7071067811865479
 41
6.282820102779609
 42
6.918929764674759
  0
ELLIPSE
  5
1EB
330
1F
100
AcDbEntity
  8
050
100
AcDbEllipse
 10
-88.1015510839149
 20
0.0000000000000067
 30
0.0
 11
-4.776122516674672E-15
 21
-25.99999999999998
 31
0.0
210
0.0
220
0.0
230
1.0
 40
0.7071067811865474
 41
0.0
 42
6.283185307179586
  0
ELLIPSE
  5
1EC
330
1F
100
AcDbEntity
  8
050
100
AcDbEllipse
 10
-54.77192050087849
 20
0.0000000000000073
 30
0.0
 11
-3.673940397442153E-16
 21
-2.000000000000051
 31
0.0
210
0.0
220
0.0
230
1.0
 40
0.7071067811865458
 41
1.178097245096186
 42
1.963495408493608
  0
LINE
  5
1ED
330
1F
100
AcDbEntity
  8
050
100
AcDbLine
 10
-60.26575334836325
 20
-23.98337047679898
 30
0.0
 11
-68.63831755234054
 21
-23.98337047679898
 31
0.0
  0
LINE
  5
1EE
330
1F
100
AcDbEntity
  8
050
100
AcDbLine
 10
-53.46535753600206
 20
-0.7653668647301723
 30
0.0
 11
-60.26575334836325
 21
-23.98337047679898
 31
0.0
  0
LINE
  5
1EF
330
1F
100
AcDbEntity
  8
050
100
AcDbLine
 10
-53.46535753600206
 20
-0.7653668647301723
 30
0.0
 11
-61.83792173997937
 21
-0.7653668647301718
 31
0.0
  0
LWPOLYLINE
  5
1F0
330
1F
100
AcDbEntity
  8
VER
100
AcDbPolyline
 90
        7
 70
     0
 43
0.0
 10
-110.8870548938612
 20
-0.7653668647301778
 10
-110.7860947207642
 20
-0.4704839823258323
 10
-110.7235531477935
 20
-0.1973709466317315
 10
-110.7088721007923
 20
0.0127897076209811
 10
-110.7273431220267
 20
0.2218232060727658
 10
-110.7978600913401
 20
0.5089528267660407
 10
-110.8870548938697
 20
0.7653668647301813
  0
LWPOLYLINE
  5
1F1
330
1F
100
AcDbEntity
  8
VER
100
AcDbPolyline
 90
        4
 70
     0
 43
0.0
 10
-104.0866590815085
 20
-23.98337047679898
 10
-104.4093999271083
 20
-23.61563254210751
 10
-104.7131205109802
 20
-23.21560114655894
 10
-105.0939532855984
 20
-22.64278393284017
  0
LWPOLYLINE
  5
1F2
330
1F
100
AcDbEntity
  8
VER
100
AcDbPolyline
 90
        7
 70
     0
 43
0.0
 10
-103.3212922167916
 20
-25.06576267709137
 10
-103.3478319528463
 20
-24.92533801103222
 10
-103.4122335981379
 20
-24.7649655000457
 10
-103.5005981998013
 20
-24.62323903035534
 10
-103.6261260665564
 20
-24.46672491357125
 10
-103.8512163649571
 20
-24.22592726234778
 10
-104.0866590815085
 20
-23.98337047679898
  0
LWPOLYLINE
  5
1F3
330
1F
100
AcDbEntity
  8
050
100
AcDbPolyline
 90
       18
 70
     0
 43
0.0
 10
-86.90368441707079
 20
-34.68297466443777
 10
-87.37866228850713
 20
-34.53068135354251
 10
-87.84799810592529
 20
-34.36501596256174
 10
-88.77359290761184
 20
-34.00269213098041
 10
-89.90683399807197
 20
-33.50776183052147
 10
-90.98530291608876
 20
-32.99516737646596
 10
-92.02974782427316
 20
-32.46767543990781
 10
-93.0364049487513
 20
-31.93584617446617
 10
-94.46208601953585
 20
-31.15189001583428
 10
-95.84374946016617
 20
-30.36582763095921
 10
-98.50923598679087
 20
-28.78902123882606
 10
-99.77414747140192
 20
-28.00472870653115
 10
-100.9716513892182
 20
-27.22164740806056
 10
-101.5376502598096
 20
-26.8275822758062
 10
-102.0657760867235
 20
-26.43584367077969
 10
-102.5450680088127
 20
-26.04564955284292
 10
-102.9491343923646
 20
-25.6629872359011
 10
-103.1107963864324
 20
-25.47706851076153
  0
LWPOLYLINE
  5
1F4
330
1F
100
AcDbEntity
  8
050
100
AcDbPolyline
 90
        4
 70
     0
 43
0.0
 10
-85.82129221677798
 20
-34.68297466443425
 10
-85.86082676730041
 20
-34.77903252464835
 10
-85.95860827222901
 20
-34.82543906747855
 10
-86.07661239830611
 20
-34.83521559920418
  0
LWPOLYLINE
  5
1F5
330
1F
100
AcDbEntity
  8
050
100
AcDbPolyline
 90
       19
 70
     0
 43
0.0
 10
-69.40368441707082
 20
-25.06576267709137
 10
-69.87866228850714
 20
-25.21805598798665
 10
-70.34799810592529
 20
-25.38372137896741
 10
-71.27359290761184
 20
-25.74604521054874
 10
-72.40683399807196
 20
-26.24097551100767
 10
-73.48530291608873
 20
-26.75356996506318
 10
-74.52974782427313
 20
-27.28106190162131
 10
-75.53640494875125
 20
-27.81289116706296
 10
-76.9620860195358
 20
-28.59684732569484
 10
-78.34374946016612
 20
-29.38290971056992
 10
-81.00923598679083
 20
-30.95971610270307
 10
-82.27414747140186
 20
-31.74400863499797
 10
-83.47165138921818
 20
-32.52708993346856
 10
-84.03765025980957
 20
-32.92115506572292
 10
-84.56577608672352
 20
-33.31289367074943
 10
-85.04506800881263
 20
-33.7030877886862
 10
-85.4491343923646
 20
-34.08575010562801
 10
-85.70013619451919
 20
-34.3948868398874
 10
-85.82129221679155
 20
-34.68297466443778
  0
LWPOLYLINE
  5
1F6
330
1F
100
AcDbEntity
  8
050
100
AcDbPolyline
 90
        7
 70
     0
 43
0.0
 10
-68.63831755234054
 20
-23.98337047679898
 10
-68.56877823532521
 20
-24.25984745398228
 10
-68.58682726235533
 20
-24.48575160711907
 10
-68.66549134674781
 20
-24.64123194955609
 10
-68.80332478646568
 20
-24.7803445616545
 10
-69.08198990778277
 20
-24.94554382045929
 10
-69.40368441707082
 20
-25.06576267709137
  0
LWPOLYLINE
  5
1F7
330
1F
100
AcDbEntity
  8
050
100
AcDbPolyline
 90
       20
 70
     0
 43
0.0
 10
-61.83792173997937
 20
-0.7653668647301718
 10
-62.38593583686087
 20
-1.424920002591368
 10
-62.79968415309517
 20
-2.033362595832193
 10
-63.18027734576671
 20
-2.674061543466381
 10
-63.55967964297216
 20
-3.388965286803458
 10
-63.9111469112197
 20
-4.118598198044757
 10
-64.55109916423966
 20
-5.611072385182844
 10
-65.11825261244519
 20
-7.103877661907708
 10
-65.63964346154572
 20
-8.605602264527425
 10
-66.33802519595828
 20
-10.7863301662175
 10
-66.98781719468431
 20
-12.97057871894194
 10
-67.593588806157
 20
-15.16050064075061
 10
-68.1385708651079
 20
-17.34985957609058
 10
-68.41051276951518
 20
-18.60689591642072
 10
-68.63740005501211
 20
-19.85926852511289
 10
-68.8008082936424
 20
-21.11050384457557
 10
-68.8658791324795
 20
-22.34069276572595
 10
-68.81812762901939
 20
-23.19093334823238
 10
-68.7492425630295
 20
-23.59951020098727
 10
-68.63831755234054
 20
-23.98337047679898
  0
LWPOLYLINE
  5
1F8
330
1F
100
AcDbEntity
  8
050
100
AcDbPolyline
 90
        7
 70
     0
 43
0.0
 10
-61.83792173997934
 20
0.7653668647301879
 10
-61.60103499717346
 20
0.4704839823258415
 10
-61.47292527091219
 20
0.197370946631768
 10
-61.44449558556875
 20
-0.0127897076209356
 10
-61.48035938953912
 20
-0.2218232060727097
 10
-61.62654044624325
 20
-0.5089528267659515
 10
-61.83792173997937
 20
-0.7653668647301718
  0
LWPOLYLINE
  5
1F9
330
1F
100
AcDbEntity
  8
050
100
AcDbPolyline
 90
        7
 70
     0
 43
0.0
 10
-69.40368441707726
 20
25.06576267709139
 10
-69.03951808779074
 20
24.92533801103224
 10
-68.78430557496539
 20
24.76496550004573
 10
-68.65276568741275
 20
24.62323903035539
 10
-68.58152362406723
 20
24.4667249135713
 10
-68.57301492227211
 20
24.22592726234788
 10
-68.63831755234057
 20
23.98337047679899
  0
LWPOLYLINE
  5
1FA
330
1F
100
AcDbEntity
  8
050
100
AcDbPolyline
 90
       24
 70
     0
 43
0.0
 10
-85.27312395916871
 20
35.00000000000001
 10
-85.50884565297679
 20
34.98224013703084
 10
-85.71954627271914
 20
34.90621668692938
 10
-85.8021250357954
 20
34.81281960741652
 10
-85.82243911218511
 20
34.69705772200569
 10
-85.74341236303248
 20
34.46600605300416
 10
-85.55755181260682
 20
34.20668115539121
 10
-85.18261495415727
 20
33.82531819802254
 10
-84.71152886361179
 20
33.42703338412897
 10
-84.16636360890575
 20
33.01403712483075
 10
-83.57245745902125
 20
32.59581032919227
 10
-82.18524021465369
 20
31.68774332311881
 10
-80.70197735819805
 20
30.77350965156413
 10
-79.15432685540814
 20
29.8539601386362
 10
-77.55909016934214
 20
28.93371891530564
 10
-75.7313959429567
 20
27.91817096415586
 10
-74.77849862976409
 20
27.41053066306565
 10
-73.78975634214208
 20
26.90446016062297
 10
-72.56505221338081
 20
26.31385939062664
 10
-71.91749176983124
 20
26.02115617934957
 10
-71.24238063181062
 20
25.73315446665734
 10
-70.35883753602229
 20
25.38770498311326
 10
-69.88957651850176
 20
25.22174827649245
 10
-69.40368441707726
 20
25.06576267709139
  0
LWPOLYLINE
  5
1FB
330
1F
100
AcDbEntity
  8
VER
100
AcDbPolyline
 90
        4
 70
     0
 43
0.0
 10
-103.3212922167783
 20
25.0657626770914
 10
-103.2763082006974
 20
25.21805598798665
 10
-103.1800269934132
 20
25.38372137896743
 10
-103.1106272196308
 20
25.47728280600265
  0
LWPOLYLINE
  5
1FC
330
1F
100
AcDbEntity
  8
VER
100
AcDbPolyline
 90
        7
 70
     0
 43
0.0
 10
-104.0866590815085
 20
23.98337047679899
 10
-103.8183514756325
 20
24.25984745398229
 10
-103.6096511544254
 20
24.48575160711908
 10
-103.4878763397343
 20
24.64123194955611
 10
-103.4043777267748
 20
24.78034456165452
 10
-103.3424106351667
 20
24.94554382045932
 10
-103.3212922167784
 20
25.06576267709139
  0
LWPOLYLINE
  5
1FD
330
1F
100
AcDbEntity
  8
VER
100
AcDbPolyline
 90
        5
 70
     0
 43
0.0
 10
-110.8870548938697
 20
0.7653668647301887
 10
-111.0487117076979
 20
1.424920002591628
 10
-111.1060426047371
 20
2.033362595831602
 10
-111.1113230432828
 20
2.674061543464844
 10
-111.087077700928
 20
3.186567928679152
  0
ELLIPSE
  5
1FE
330
1F
100
AcDbEntity
  8
050
100
AcDbEllipse
 10
-88.10155108391488
 20
0.0000000000000067
 30
0.0
 11
-5.694607616035189E-15
 21
-30.99999999999999
 31
0.0
210
0.0
220
0.0
230
1.0
 40
0.7071067811865471
 41
0.0
 42
6.283185307179586
  0
LWPOLYLINE
  5
1FF
330
1F
100
AcDbEntity
  8
050
100
AcDbPolyline
 90
        4
 70
     0
 43
0.0
 10
-111.1934341759517
 20
0.0000000000000052
 10
-111.1878345644932
 20
-0.731927375754076
 10
-111.147714145822
 20
-2.090584487619287
 10
-111.0869271819143
 20
-3.188884486667291
  0
LWPOLYLINE
  5
200
330
1F
100
AcDbEntity
  8
050
100
AcDbPolyline
 90
        5
 70
     0
 43
0.0
 10
-105.0934551715446
 20
-22.64362678555802
 10
-104.7629558604284
 20
-23.16221502282207
 10
-104.0774827321069
 20
-24.17532639044317
 10
-103.3621391766494
 20
-25.1518105960932
 10
-103.104175351498
 20
-25.48554437309427
  0
LWPOLYLINE
  5
201
330
1F
100
AcDbEntity
  8
050
100
AcDbPolyline
 90
        5
 70
     0
 43
0.0
 10
-103.1037726946388
 20
25.4860580636613
 10
-103.3908156081541
 20
25.1141309517809
 10
-104.1013742028479
 20
24.14134552033094
 10
-104.78277014398
 20
23.13170236470538
 10
-105.0928250983405
 20
22.64463537523694
  0
LWPOLYLINE
  5
202
330
1F
100
AcDbEntity
  8
050
100
AcDbPolyline
 90
        4
 70
     0
 43
0.0
 10
-111.0869635243728
 20
3.188341545209213
 10
-111.1480826734056
 20
2.082149523514177
 10
-111.1879625235031
 20
0.7235171880500395
 10
-111.1934341759517
 20
0.0000000000000052
  0
LWPOLYLINE
  5
203
330
1F
100
AcDbEntity
  8
050
100
AcDbPolyline
 90
       15
 70
     0
 43
0.0
 10
-105.0939532855984
 20
-22.64278393284017
 10
-105.2764789861861
 20
-22.34069276572594
 10
-105.9148814762506
 20
-21.14557306908356
 10
-106.4808300023053
 20
-19.90780397664247
 10
-106.997847048724
 20
-18.63406672588296
 10
-107.4727331137612
 20
-17.34985957609033
 10
-108.2064337607906
 20
-15.17237562772477
 10
-108.8819603916843
 20
-12.98848121396792
 10
-109.5139696051632
 20
-10.79728116712127
 10
-110.0960730504324
 20
-8.605602264527636
 10
-110.4537598126442
 20
-7.10660790381955
 10
-110.7616837435152
 20
-5.611072385181763
 10
-110.9942724561754
 20
-4.132461312670777
 10
-111.0711693961422
 20
-3.398407869445521
 10
-111.0870461350136
 20
-3.187034916511414
  0
LWPOLYLINE
  5
204
330
1F
100
AcDbEntity
  8
VER
100
AcDbPolyline
 90
        5
 70
     0
 43
0.0
 10
-111.0870461350136
 20
-3.187034916511414
 10
-111.1113230432828
 20
-2.674061543463754
 10
-111.1062969885804
 20
-2.038904251871465
 10
-111.048711707698
 20
-1.424920002591895
 10
-110.8870548938677
 20
-0.7653668647246396
  0
LWPOLYLINE
  5
205
330
1F
100
AcDbEntity
  8
VER
100
AcDbPolyline
 90
        3
 70
     0
 43
0.0
 10
-103.1107963864324
 20
-25.47706851076153
 10
-103.2001361945192
 20
-25.35385050164174
 10
-103.321292216778
 20
-25.06576267709491
  0
LWPOLYLINE
  5
206
330
1F
100
AcDbEntity
  8
050
100
AcDbPolyline
 90
       22
 70
     0
 43
0.0
 10
-103.1106272196308
 20
25.47728280600265
 10
-102.8685708553438
 20
25.74604521054876
 10
-102.3120142015476
 20
26.2409755110077
 10
-101.6403761825308
 20
26.75356996506323
 10
-100.8838509668759
 20
27.28106190162137
 10
-100.0747294004163
 20
27.81289116706303
 10
-98.63047958874475
 20
28.71514753120076
 10
-97.1215897314982
 20
29.62006255419302
 10
-95.56183777638955
 20
30.52800735452148
 10
-93.9516586620851
 20
31.43615061784122
 10
-92.8136484296946
 20
32.05526897995122
 10
-91.6296356254702
 20
32.67296304105612
 10
-90.38871748861739
 20
33.2832005556716
 10
-89.73449096714273
 20
33.58616785682577
 10
-89.053545577811
 20
33.88517996441247
 10
-88.40310520172036
 20
34.15282601014678
 10
-87.72018011115506
 20
34.4114752229226
 10
-87.14026947836756
 20
34.6092441054655
 10
-86.53328089137356
 20
34.78865512357708
 10
-85.9015373930309
 20
34.93300855024834
 10
-85.41373294879872
 20
34.99557051382472
 10
-85.27312395916873
 20
35.0
  0
LWPOLYLINE
  5
207
330
1F
100
AcDbEntity
  8
050
100
AcDbPolyline
 90
       15
 70
     0
 43
0.0
 10
-111.087077700928
 20
3.186567928679152
 10
-111.0719444234327
 20
3.388965286802123
 10
-110.9960026278289
 20
4.118598198043625
 10
-110.7616837435151
 20
5.611072385182189
 10
-110.4543721065973
 20
7.103877661907434
 10
-110.0960730504325
 20
8.605602264527544
 10
-109.5170139558804
 20
10.78633016621754
 10
-108.8873027760143
 20
12.97057871894192
 10
-108.2102478262296
 20
15.16050064075051
 10
-107.4727331137611
 20
17.34985957609041
 10
-107.0083201783989
 20
18.60689591642059
 10
-106.5015845748685
 20
19.8592685251128
 10
-105.9320361330777
 20
21.11050384457552
 10
-105.2764789861861
 20
22.34069276572596
 10
-105.0933170741354
 20
22.64380586743713
  0
LWPOLYLINE
  5
208
330
1F
100
AcDbEntity
  8
VER
100
AcDbPolyline
 90
        4
 70
     0
 43
0.0
 10
-105.0933170741354
 20
22.64380586743713
 10
-104.7306680807737
 20
23.19093334823239
 10
-104.4224442357117
 20
23.59951020098728
 10
-104.0866590815085
 20
23.98337047679899
  0
LWPOLYLINE
  5
209
330
1F
100
AcDbEntity
  8
050
100
AcDbPolyline
 90
       20
 70
     0
 43
0.0
 10
-68.63831755234057
 20
23.98337047679899
 10
-68.74564250319713
 20
23.61563254210751
 10
-68.81503012093175
 20
23.21560114655894
 10
-68.8658791324795
 20
22.34069276572597
 10
-68.80419671291018
 20
21.14557306908362
 10
-68.64507689169909
 20
19.90780397664261
 10
-68.4159559315228
 20
18.63406672588316
 10
-68.1385708651079
 20
17.34985957609059
 10
-67.59673094703449
 20
15.17237562772491
 10
-66.99296184914027
 20
12.98848121396795
 10
-66.34139579304889
 20
10.79728116712118
 10
-65.6396434615457
 20
8.605602264527406
 10
-65.11923965717568
 20
7.106607903820056
 10
-64.55109916423972
 20
5.611072385183007
 10
-63.9175375640985
 20
4.132461312672953
 10
-63.56443595253091
 20
3.398407869448155
 10
-63.18027734576695
 20
2.674061543466812
 10
-62.80318476388892
 20
2.03890425187264
 10
-62.3859358368608
 20
1.424920002591282
 10
-61.83792173997934
 20
0.7653668647301879
  0
LINE
  5
20A
330
1F
100
AcDbEntity
  8
050
100
AcDbLine
 10
-53.46535753600206
 20
0.7653668647301873
 30
0.0
 11
-61.83792173997934
 21
0.7653668647301879
 31
0.0
  0
LINE
  5
20B
330
1F
100
AcDbEntity
  8
050
100
AcDbLine
 10
-60.26575334836327
 20
23.98337047679899
 30
0.0
 11
-53.46535753600206
 21
0.7653668647301873
 31
0.0
  0
LINE
  5
20C
330
1F
100
AcDbEntity
  8
050
100
AcDbLine
 10
-60.26575334836327
 20
23.98337047679899
 30
0.0
 11
-68.63831755234057
 21
23.98337047679899
 31
0.0
  0
LINE
  5
20F
330
1F
100
AcDbEntity
  8
MITTE
100
AcDbLine
 10
21.5
 20
-10.739925
 30
0.0
 11
21.5
 21
10.739925
 31
0.0
  0
LINE
  5
210
330
1F
100
AcDbEntity
  8
MITTE
100
AcDbLine
 10
84.7
 20
0.0
 30
0.0
 11
-84.7
 21
0.0
 31
0.0
  0
ELLIPSE
  5
211
330
1F
100
AcDbEntity
  8
VER
100
AcDbEllipse
 10
-8.64891182945087
 20
0.0000000000000533
 30
0.0
 11
-2.939152317953657E-15
 21
-16.00000000000005
 31
0.0
210
0.0
220
0.0
230
1.0
 40
0.7071067811865477
 41
0.0
 42
6.283185307179586
  0
ELLIPSE
  5
212
330
1F
100
AcDbEntity
  8
VER
100
AcDbEllipse
 10
-18.77468093604222
 20
0.0000000000000178
 30
0.0
 11
-3.436144605217626E-15
 21
-18.70550000000002
 31
0.0
210
0.0
220
0.0
230
1.0
 40
0.7071067811865477
 41
0.0
 42
6.283185307179586
  0
ELLIPSE
  5
213
330
1F
100
AcDbEntity
  8
VER
100
AcDbEllipse
 10
-75.9039591084469
 20
0.000000000000016
 30
0.0
 11
3.673940397442081E-16
 21
6.000000000000035
 31
0.0
210
0.0
220
0.0
230
1.0
 40
0.7071067811865468
 41
0.0
 42
6.283185307179586
  0
ELLIPSE
  5
214
330
1F
100
AcDbEntity
  8
050
100
AcDbEllipse
 10
-85.98023074035518
 20
0.0000000000000338
 30
0.0
 11
-1.493079894517861E-14
 21
10.00000000000007
 31
0.0
210
0.0
220
0.0
230
1.0
 40
0.7071067811865457
 41
0.0
 42
6.283185307179586
  0
ELLIPSE
  5
215
330
1F
100
AcDbEntity
  8
VER
100
AcDbEllipse
 10
-84.56601717798193
 20
0.0000000000002558
 30
0.0
 11
3.971474913096476E-14
 21
28.49999999999959
 31
0.0
210
0.0
220
0.0
230
1.0
 40
0.7071067811865472
 41
0.0
 42
6.283185307179586
  0
ENDSEC
  0
SECTION
  2
OBJECTS
  0
DICTIONARY
  5
C
330
0
100
AcDbDictionary
281
     1
  3
ACAD_DETAILVIEWSTYLE
350
21D
  3
ACAD_GROUP
350
D
  3
ACAD_LAYOUT
350
1A
  3
ACAD_MATERIAL
350
43
  3
ACAD_MLEADERSTYLE
350
6B
  3
ACAD_MLINESTYLE
350
17
  3
ACAD_PLOTSETTINGS
350
19
  3
ACAD_PLOTSTYLENAME
350
E
  3
ACAD_SCALELIST
350
47
  3
ACAD_SECTIONVIEWSTYLE
350
21E
  3
ACAD_TABLESTYLE
350
69
  3
ACAD_VISUALSTYLE
350
2A
  3
ACDB_RECOMPOSE_DATA
350
21A
  3
AcDbVariableDictionary
350
216
  0
SUN
  5
6D
330
29
100
AcDbSun
 90
        1
290
     0
 63
     7
421
 16777215
 40
1.0
291
     1
 91
  2455826
 92
 54000000
292
     0
 70
     2
 71
   256
280
     1
  0
DICTIONARY
  5
21D
102
{ACAD_REACTORS
330
C
102
}
330
C
100
AcDbDictionary
281
     1
  0
DICTIONARY
  5
D
102
{ACAD_REACTORS
330
C
102
}
330
C
100
AcDbDictionary
281
     1
  0
DICTIONARY
  5
1A
102
{ACAD_REACTORS
330
C
102
}
330
C
100
AcDbDictionary
281
     1
  3
Layout1
350
1E
  3
Layout2
350
26
  3
Model
350
22
  0
DICTIONARY
  5
43
102
{ACAD_REACTORS
330
C
102
}
330
C
100
AcDbDictionary
281
     1
  3
ByBlock
350
45
  3
ByLayer
350
44
  3
Global
350
46
  0
DICTIONARY
  5
6B
102
{ACAD_REACTORS
330
C
102
}
330
C
100
AcDbDictionary
281
     1
  3
Standard
350
6C
  0
DICTIONARY
  5
17
102
{ACAD_REACTORS
330
C
102
}
330
C
100
AcDbDictionary
281
     1
  3
Standard
350
18
  0
DICTIONARY
  5
19
102
{ACAD_REACTORS
330
C
102
}
330
C
100
AcDbDictionary
281
     1
  0
ACDBDICTIONARYWDFLT
  5
E
102
{ACAD_REACTORS
330
C
102
}
330
C
100
AcDbDictionary
281
     1
  3
Normal
350
F
100
AcDbDictionaryWithDefault
340
F
  0
DICTIONARY
  5
47
102
{ACAD_REACTORS
330
C
102
}
330
C
100
AcDbDictionary
281
     1
  3
A0
350
48
  3
A1
350
49
  3
A2
350
4A
  3
A3
350
4B
  3
A4
350
4C
  3
A5
350
4D
  3
A6
350
4E
  3
A7
350
4F
  3
A8
350
50
  3
A9
350
51
  3
B0
350
52
  3
B1
350
53
  3
B2
350
54
  3
B3
350
55
  3
B4
350
56
  3
B5
350
57
  3
B6
350
58
  3
B7
350
59
  3
B8
350
5A
  3
B9
350
5B
  3
C0
350
5C
  3
C1
350
5D
  3
C2
350
5E
  3
C3
350
5F
  3
C4
350
60
  3
C5
350
61
  3
C6
350
62
  3
C7
350
63
  3
C8
350
64
  3
C9
350
65
  3
D0
350
66
  3
D1
350
67
  3
D2
350
68
  0
DICTIONARY
  5
21E
102
{ACAD_REACTORS
330
C
102
}
330
C
100
AcDbDictionary
281
     1
  0
DICTIONARY
  5
69
102
{ACAD_REACTORS
330
C
102
}
330
C
100
AcDbDictionary
281
     1
  3
Standard
350
6A
  0
DICTIONARY
  5
2A
102
{ACAD_REACTORS
330
C
102
}
330
C
100
AcDbDictionary
281
     1
  3
2dWireframe
350
2F
  3
Basic
350
32
  3
Brighten
350
36
  3
ColorChange
350
3A
  3
Conceptual
350
34
  3
Dim
350
35
  3
EdgeColorOff
350
3D
  3
Facepattern
350
39
  3
Flat
350
2B
  3
FlatWithEdges
350
2C
  3
Gouraud
350
2D
  3
GouraudWithEdges
350
2E
  3
Hidden
350
31
  3
JitterOff
350
3B
  3
Linepattern
350
38
  3
OverhangOff
350
3C
  3
Realistic
350
33
  3
Shaded
350
42
  3
Shaded with edges
350
41
  3
Shades of Gray
350
3E
  3
Sketchy
350
3F
  3
Thicken
350
37
  3
Wireframe
350
30
  3
X-Ray
350
40
  0
XRECORD
  5
21A
102
{ACAD_REACTORS
330
C
102
}
330
C
100
AcDbXrecord
280
     1
 90
        1
330
6A
  0
DICTIONARY
  5
216
102
{ACAD_REACTORS
330
C
102
}
330
C
100
AcDbDictionary
281
     1
  3
CANNOSCALE
350
217
  3
CMLEADERSTYLE
350
21C
  3
CTABLESTYLE
350
21B
  3
SECTIONTHICKNESSINC
350
21F
  0
LAYOUT
  5
1E
102
{ACAD_REACTORS
330
1A
102
}
330
1A
100
AcDbPlotSettings
  1

  2
none_device
  4

  6

 40
0.0
 41
0.0
 42
0.0
 43
0.0
 44
0.0
 45
0.0
 46
0.0
 47
0.0
 48
0.0
 49
0.0
140
0.0
141
0.0
142
1.0
143
1.0
 70
   688
 72
     1
 73
     0
 74
     5
  7

 75
    16
 76
     0
 77
     2
 78
   300
147
1.0
148
0.0
149
0.0
100
AcDbLayout
  1
Layout1
 70
     1
 71
     1
 10
0.0
 20
0.0
 11
420.0
 21
297.0
 12
0.0
 22
0.0
 32
0.0
 14
1.000000000000000E+20
 24
1.000000000000000E+20
 34
1.000000000000000E+20
 15
-1.000000000000000E+20
 25
-1.000000000000000E+20
 35
-1.000000000000000E+20
146
0.0
 13
0.0
 23
0.0
 33
0.0
 16
1.0
 26
0.0
 36
0.0
 17
0.0
 27
1.0
 37
0.0
 76
     0
330
1B
  0
LAYOUT
  5
26
102
{ACAD_REACTORS
330
1A
102
}
330
1A
100
AcDbPlotSettings
  1

  2
none_device
  4

  6

 40
0.0
 41
0.0
 42
0.0
 43
0.0
 44
0.0
 45
0.0
 46
0.0
 47
0.0
 48
0.0
 49
0.0
140
0.0
141
0.0
142
1.0
143
1.0
 70
   688
 72
     1
 73
     0
 74
     5
  7

 75
    16
 76
     0
 77
     2
 78
   300
147
1.0
148
0.0
149
0.0
100
AcDbLayout
  1
Layout2
 70
     1
 71
     2
 10
0.0
 20
0.0
 11
0.0
 21
0.0
 12
0.0
 22
0.0
 32
0.0
 14
0.0
 24
0.0
 34
0.0
 15
0.0
 25
0.0
 35
0.0
146
0.0
 13
0.0
 23
0.0
 33
0.0
 16
1.0
 26
0.0
 36
0.0
 17
0.0
 27
1.0
 37
0.0
 76
     0
330
23
  0
LAYOUT
  5
22
102
{ACAD_REACTORS
330
1A
102
}
330
1A
100
AcDbPlotSettings
  1

  2
none_device
  4
Letter_(8.50_x_11.00_Inches)
  6

 40
6.35
 41
6.35
 42
6.35000508
 43
6.35000508
 44
215.9
 45
279.4
 46
0.0
 47
0.0
 48
0.0
 49
0.0
140
0.0
141
0.0
142
1.0
143
1.0
 70
  1712
 72
     1
 73
     0
 74
     0
  7

 75
     0
 76
     0
 77
     2
 78
   300
147
1.0
148
0.0
149
0.0
100
AcDbLayout
  1
Model
 70
     1
 71
     0
 10
0.0
 20
0.0
 11
420.0
 21
297.0
 12
0.0
 22
0.0
 32
0.0
 14
1.000000000000000E+20
 24
1.000000000000000E+20
 34
1.000000000000000E+20
 15
-1.000000000000000E+20
 25
-1.000000000000000E+20
 35
-1.000000000000000E+20
146
0.0
 13
0.0
 23
0.0
 33
0.0
 16
1.0
 26
0.0
 36
0.0
 17
0.0
 27
1.0
 37
0.0
 76
     0
330
1F
331
29
  0
MATERIAL
  5
45
102
{ACAD_REACTORS
330
43
102
}
330
43
100
AcDbMaterial
  1
ByBlock
 72
     1
 94
      127
  0
MATERIAL
  5
44
102
{ACAD_REACTORS
330
43
102
}
330
43
100
AcDbMaterial
  1
ByLayer
 72
     1
 94
      127
  0
MATERIAL
  5
46
102
{ACAD_REACTORS
330
43
102
}
330
43
100
AcDbMaterial
  1
Global
 72
     1
 94
      127
  0
MLEADERSTYLE
  5
6C
102
{ACAD_REACTORS
330
6B
102
}
330
6B
100
AcDbMLeaderStyle
179
     2
170
     2
171
     1
172
     0
 90
        2
 40
0.0
 41
0.0
173
     1
 91
-1056964608
340
14
 92
       -2
290
     1
 42
2.0
291
     1
 43
8.0
  3
Standard
341
0
 44
4.0
300

342
11
174
     1
178
     6
175
     1
176
     0
 93
-1056964608
 45
4.0
292
     0
297
     0
 46
4.0
343
0
 94
-1056964608
 47
1.0
 49
1.0
140
1.0
293
     1
141
0.0
294
     1
177
     0
142
1.0
295
     0
296
     0
143
3.75
271
     0
272
     9
273
     9
298
     0
  0
MLINESTYLE
  5
18
102
{ACAD_REACTORS
330
17
102
}
330
17
100
AcDbMlineStyle
  2
Standard
 70
     0
  3

 62
   256
 51
90.0
 52
90.0
 71
     2
 49
0.5
 62
   256
  6
BYLAYER
 49
-0.5
 62
   256
  6
BYLAYER
  0
ACDBPLACEHOLDER
  5
F
102
{ACAD_REACTORS
330
E
102
}
330
E
  0
SCALE
  5
48
102
{ACAD_REACTORS
330
47
102
}
330
47
100
AcDbScale
 70
     0
300
1:1
140
1.0
141
1.0
290
     1
  0
SCALE
  5
49
102
{ACAD_REACTORS
330
47
102
}
330
47
100
AcDbScale
 70
     0
300
1:2
140
1.0
141
2.0
290
     0
  0
SCALE
  5
4A
102
{ACAD_REACTORS
330
47
102
}
330
47
100
AcDbScale
 70
     0
300
1:4
140
1.0
141
4.0
290
     0
  0
SCALE
  5
4B
102
{ACAD_REACTORS
330
47
102
}
330
47
100
AcDbScale
 70
     0
300
1:5
140
1.0
141
5.0
290
     0
  0
SCALE
  5
4C
102
{ACAD_REACTORS
330
47
102
}
330
47
100
AcDbScale
 70
     0
300
1:8
140
1.0
141
8.0
290
     0
  0
SCALE
  5
4D
102
{ACAD_REACTORS
330
47
102
}
330
47
100
AcDbScale
 70
     0
300
1:10
140
1.0
141
10.0
290
     0
  0
SCALE
  5
4E
102
{ACAD_REACTORS
330
47
102
}
330
47
100
AcDbScale
 70
     0
300
1:16
140
1.0
141
16.0
290
     0
  0
SCALE
  5
4F
102
{ACAD_REACTORS
330
47
102
}
330
47
100
AcDbScale
 70
     0
300
1:20
140
1.0
141
20.0
290
     0
  0
SCALE
  5
50
102
{ACAD_REACTORS
330
47
102
}
330
47
100
AcDbScale
 70
     0
300
1:30
140
1.0
141
30.0
290
     0
  0
SCALE
  5
51
102
{ACAD_REACTORS
330
47
102
}
330
47
100
AcDbScale
 70
     0
300
1:40
140
1.0
141
40.0
290
     0
  0
SCALE
  5
52
102
{ACAD_REACTORS
330
47
102
}
330
47
100
AcDbScale
 70
     0
300
1:50
140
1.0
141
50.0
290
     0
  0
SCALE
  5
53
102
{ACAD_REACTORS
330
47
102
}
330
47
100
AcDbScale
 70
     0
300
1:100
140
1.0
141
100.0
290
     0
  0
SCALE
  5
54
102
{ACAD_REACTORS
330
47
102
}
330
47
100
AcDbScale
 70
     0
300
2:1
140
2.0
141
1.0
290
     0
  0
SCALE
  5
55
102
{ACAD_REACTORS
330
47
102
}
330
47
100
AcDbScale
 70
     0
300
4:1
140
4.0
141
1.0
290
     0
  0
SCALE
  5
56
102
{ACAD_REACTORS
330
47
102
}
330
47
100
AcDbScale
 70
     0
300
8:1
140
8.0
141
1.0
290
     0
  0
SCALE
  5
57
102
{ACAD_REACTORS
330
47
102
}
330
47
100
AcDbScale
 70
     0
300
10:1
140
10.0
141
1.0
290
     0
  0
SCALE
  5
58
102
{ACAD_REACTORS
330
47
102
}
330
47
100
AcDbScale
 70
     0
300
100:1
140
100.0
141
1.0
290
     0
  0
SCALE
  5
59
102
{ACAD_REACTORS
330
47
102
}
330
47
100
AcDbScale
 70
     0
300
1/128" = 1'-0"
140
0.0078125
141
12.0
290
     0
  0
SCALE
  5
5A
102
{ACAD_REACTORS
330
47
102
}
330
47
100
AcDbScale
 70
     0
300
1/64" = 1'-0"
140
0.015625
141
12.0
290
     0
  0
SCALE
  5
5B
102
{ACAD_REACTORS
330
47
102
}
330
47
100
AcDbScale
 70
     0
300
1/32" = 1'-0"
140
0.03125
141
12.0
290
     0
  0
SCALE
  5
5C
102
{ACAD_REACTORS
330
47
102
}
330
47
100
AcDbScale
 70
     0
300
1/16" = 1'-0"
140
0.0625
141
12.0
290
     0
  0
SCALE
  5
5D
102
{ACAD_REACTORS
330
47
102
}
330
47
100
AcDbScale
 70
     0
300
3/32" = 1'-0"
140
0.09375
141
12.0
290
     0
  0
SCALE
  5
5E
102
{ACAD_REACTORS
330
47
102
}
330
47
100
AcDbScale
 70
     0
300
1/8" = 1'-0"
140
0.125
141
12.0
290
     0
  0
SCALE
  5
5F
102
{ACAD_REACTORS
330
47
102
}
330
47
100
AcDbScale
 70
     0
300
3/16" = 1'-0"
140
0.1875
141
12.0
290
     0
  0
SCALE
  5
60
102
{ACAD_REACTORS
330
47
102
}
330
47
100
AcDbScale
 70
     0
300
1/4" = 1'-0"
140
0.25
141
12.0
290
     0
  0
SCALE
  5
61
102
{ACAD_REACTORS
330
47
102
}
330
47
100
AcDbScale
 70
     0
300
3/8" = 1'-0"
140
0.375
141
12.0
290
     0
  0
SCALE
  5
62
102
{ACAD_REACTORS
330
47
102
}
330
47
100
AcDbScale
 70
     0
300
1/2" = 1'-0"
140
0.5
141
12.0
290
     0
  0
SCALE
  5
63
102
{ACAD_REACTORS
330
47
102
}
330
47
100
AcDbScale
 70
     0
300
3/4" = 1'-0"
140
0.75
141
12.0
290
     0
  0
SCALE
  5
64
102
{ACAD_REACTORS
330
47
102
}
330
47
100
AcDbScale
 70
     0
300
1" = 1'-0"
140
1.0
141
12.0
290
     0
  0
SCALE
  5
65
102
{ACAD_REACTORS
330
47
102
}
330
47
100
AcDbScale
 70
     0
300
1-1/2" = 1'-0"
140
1.5
141
12.0
290
     0
  0
SCALE
  5
66
102
{ACAD_REACTORS
330
47
102
}
330
47
100
AcDbScale
 70
     0
300
3" = 1'-0"
140
3.0
141
12.0
290
     0
  0
SCALE
  5
67
102
{ACAD_REACTORS
330
47
102
}
330
47
100
AcDbScale
 70
     0
300
6" = 1'-0"
140
6.0
141
12.0
290
     0
  0
SCALE
  5
68
102
{ACAD_REACTORS
330
47
102
}
330
47
100
AcDbScale
 70
     0
300
1'-0" = 1'-0"
140
12.0
141
12.0
290
     0
  0
TABLESTYLE
  5
6A
102
{ACAD_REACTORS
330
69
102
}
102
{ACAD_XDICTIONARY
360
218
102
}
330
69
100
AcDbTableStyle
  3
Standard
 70
     0
 71
     0
 40
0.06
 41
0.06
280
     0
281
     0
  7
Standard
140
4.5
170
     2
 62
     0
 63
   257
283
     0
 90
        4
 91
        0
  1

274
    -2
284
     1
 64
     0
275
    -2
285
     1
 65
     0
276
    -2
286
     1
 66
     0
277
    -2
287
     1
 67
     0
278
    -2
288
     1
 68
     0
279
    -2
289
     1
 69
     0
  7
Standard
140
6.0
170
     5
 62
     0
 63
   257
283
     0
 90
        4
 91
        0
  1

274
    -2
284
     1
 64
     0
275
    -2
285
     1
 65
     0
276
    -2
286
     1
 66
     0
277
    -2
287
     1
 67
     0
278
    -2
288
     1
 68
     0
279
    -2
289
     1
 69
     0
  7
Standard
140
4.5
170
     5
 62
     0
 63
   257
283
     0
 90
        4
 91
        0
  1

274
    -2
284
     1
 64
     0
275
    -2
285
     1
 65
     0
276
    -2
286
     1
 66
     0
277
    -2
287
     1
 67
     0
278
    -2
288
     1
 68
     0
279
    -2
289
     1
 69
     0
  0
VISUALSTYLE
  5
2F
102
{ACAD_REACTORS
330
2A
102
}
330
2A
100
AcDbVisualStyle
  2
2dWireframe
 70
     4
177
     3
291
     0
 70
    58
 90
        0
176
     1
 90
        2
176
     1
 90
        0
176
     1
 90
        0
176
     1
 40
0.6
176
     1
 40
30.0
176
     1
 62
     7
420
 16777215
176
     1
 90
        1
176
     1
 90
        4
176
     1
 62
     7
176
     1
 62
   257
176
     1
 90
        1
176
     1
 90
        1
176
     1
 40
1.0
176
     1
 90
        0
176
     1
 62
   257
176
     1
 40
1.0
176
     1
 90
        1
176
     1
 90
        6
176
     1
 90
        2
176
     1
 62
     7
176
     1
 90
        5
176
     1
 90
        0
176
     1
 90
        0
176
     1
290
     0
176
     1
 90
        1
176
     1
 40
0.0
176
     1
 90
        0
176
     1
290
     1
176
     1
290
     1
176
     1
290
     0
176
     1
290
     0
176
     1
290
     0
176
     1
290
     0
176
     1
290
     0
176
     1
290
     0
176
     1
290
     0
176
     1
 90
       50
176
     1
 40
0.0
176
     1
 40
1.0
176
     1
 90
        0
176
     1
 62
    18
420
        0
176
     1
 90
       50
176
     1
 90
        3
176
     1
 62
     5
420
      255
176
     1
290
     0
176
     1
 90
       50
176
     1
 90
       50
176
     1
 90
       50
176
     1
290
     0
176
     1
 90
       50
176
     1
 62
   256
176
     0
 40
1.0
176
     0
 90
        2
176
     1
  1
strokes_ogs.tif
176
     1
290
     0
176
     1
 40
1.0
176
     1
 40
1.0
176
     1
  0
VISUALSTYLE
  5
32
102
{ACAD_REACTORS
330
2A
102
}
330
2A
100
AcDbVisualStyle
  2
Basic
 70
     7
177
     3
291
     1
 70
    58
 90
        1
176
     1
 90
        0
176
     1
 90
        1
176
     1
 90
        0
176
     1
 40
0.6
176
     1
 40
30.0
176
     1
 62
     7
420
 16777215
176
     1
 90
        0
176
     1
 90
        4
176
     1
 62
     7
176
     1
 62
   257
176
     1
 90
        1
176
     1
 90
        1
176
     1
 40
1.0
176
     1
 90
        8
176
     1
 62
     7
176
     1
 40
1.0
176
     1
 90
        1
176
     1
 90
        6
176
     1
 90
        2
176
     1
 62
     7
176
     1
 90
        5
176
     1
 90
        0
176
     1
 90
        0
176
     1
290
     0
176
     1
 90
        1
176
     1
 40
0.0
176
     1
 90
        0
176
     1
290
     0
176
     1
290
     1
176
     1
290
     1
176
     1
290
     0
176
     1
290
     0
176
     1
290
     0
176
     1
290
     0
176
     1
290
     0
176
     1
290
     0
176
     1
 90
       50
176
     1
 40
0.0
176
     1
 40
1.0
176
     1
 90
        0
176
     1
 62
    18
420
        0
176
     1
 90
       50
176
     1
 90
        3
176
     1
 62
     5
420
      255
176
     1
290
     0
176
     1
 90
       50
176
     1
 90
       50
176
     1
 90
       50
176
     1
290
     0
176
     1
 90
       50
176
     1
 62
   256
176
     0
 40
1.0
176
     0
 90
        2
176
     1
  1
strokes_ogs.tif
176
     1
290
     0
176
     1
 40
1.0
176
     1
 40
1.0
176
     1
  0
VISUALSTYLE
  5
36
102
{ACAD_REACTORS
330
2A
102
}
330
2A
100
AcDbVisualStyle
  2
Brighten
 70
    12
177
     3
291
     1
 70
    58
 90
        2
176
     1
 90
        2
176
     1
 90
        0
176
     1
 90
        0
176
     1
 40
0.6
176
     1
 40
30.0
176
     1
 62
     7
420
 16777215
176
     1
 90
        1
176
     1
 90
        4
176
     1
 62
     7
176
     1
 62
   257
176
     1
 90
        1
176
     1
 90
        1
176
     1
 40
1.0
176
     1
 90
        8
176
     1
 62
     7
176
     1
 40
1.0
176
     1
 90
        1
176
     1
 90
        6
176
     1
 90
        2
176
     1
 62
     7
176
     1
 90
        5
176
     1
 90
        0
176
     1
 90
        0
176
     1
290
     0
176
     1
 90
        1
176
     1
 40
50.0
176
     1
 90
        0
176
     1
290
     0
176
     1
290
     1
176
     1
290
     1
176
     1
290
     0
176
     1
290
     0
176
     1
290
     0
176
     1
290
     0
176
     1
290
     0
176
     1
290
     0
176
     1
 90
       50
176
     1
 40
0.0
176
     1
 40
1.0
176
     1
 90
        0
176
     1
 62
    18
420
        0
176
     1
 90
       50
176
     1
 90
        3
176
     1
 62
     5
420
      255
176
     1
290
     0
176
     1
 90
       50
176
     1
 90
       50
176
     1
 90
       50
176
     1
290
     0
176
     1
 90
       50
176
     1
 62
   256
176
     0
 40
1.0
176
     0
 90
        2
176
     1
  1
strokes_ogs.tif
176
     1
290
     0
176
     1
 40
1.0
176
     1
 40
1.0
176
     1
  0
VISUALSTYLE
  5
3A
102
{ACAD_REACTORS
330
2A
102
}
330
2A
100
AcDbVisualStyle
  2
ColorChange
 70
    16
177
     3
291
     1
 70
    58
 90
        2
176
     1
 90
        2
176
     1
 90
        3
176
     1
 90
        0
176
     1
 40
0.6
176
     1
 40
30.0
176
     1
 62
     8
420
  8421504
176
     1
 90
        1
176
     1
 90
        4
176
     1
 62
     7
176
     1
 62
   257
176
     1
 90
        1
176
     1
 90
        1
176
     1
 40
1.0
176
     1
 90
        8
176
     1
 62
     8
420
  8421504
176
     1
 40
1.0
176
     1
 90
        1
176
     1
 90
        6
176
     1
 90
        2
176
     1
 62
     7
176
     1
 90
        5
176
     1
 90
        0
176
     1
 90
        0
176
     1
290
     0
176
     1
 90
        1
176
     1
 40
0.0
176
     1
 90
        0
176
     1
290
     0
176
     1
290
     1
176
     1
290
     1
176
     1
290
     0
176
     1
290
     0
176
     1
290
     0
176
     1
290
     0
176
     1
290
     0
176
     1
290
     0
176
     1
 90
       50
176
     1
 40
0.0
176
     1
 40
1.0
176
     1
 90
        0
176
     1
 62
    18
420
        0
176
     1
 90
       50
176
     1
 90
        3
176
     1
 62
     5
420
      255
176
     1
290
     0
176
     1
 90
       50
176
     1
 90
       50
176
     1
 90
       50
176
     1
290
     0
176
     1
 90
       50
176
     1
 62
   256
176
     0
 40
1.0
176
     0
 90
        2
176
     1
  1
strokes_ogs.tif
176
     1
290
     0
176
     1
 40
1.0
176
     1
 40
1.0
176
     1
  0
VISUALSTYLE
  5
34
102
{ACAD_REACTORS
330
2A
102
}
330
2A
100
AcDbVisualStyle
  2
Conceptual
 70
     9
177
     3
291
     0
 70
    58
 90
        3
176
     1
 90
        2
176
     1
 90
        0
176
     1
 90
        0
176
     1
 40
0.6
176
     1
 40
30.0
176
     1
 62
     7
420
 16777215
176
     1
 90
        2
176
     1
 90
        2
176
     1
 62
     7
176
     1
 62
   257
176
     1
 90
        1
176
     1
 90
        1
176
     1
 40
179.0
176
     1
 90
        8
176
     1
 62
     7
176
     1
 40
1.0
176
     1
 90
        1
176
     1
 90
        6
176
     1
 90
        2
176
     1
 62
     7
176
     1
 90
        3
176
     1
 90
        0
176
     1
 90
        0
176
     1
290
     0
176
     1
 90
        1
176
     1
 40
0.0
176
     1
 90
        0
176
     1
290
     0
176
     1
290
     1
176
     1
290
     1
176
     1
290
     0
176
     1
290
     0
176
     1
290
     0
176
     1
290
     0
176
     1
290
     0
176
     1
290
     0
176
     1
 90
       50
176
     1
 40
0.0
176
     1
 40
1.0
176
     1
 90
        0
176
     1
 62
    18
420
        0
176
     1
 90
       50
176
     1
 90
        3
176
     1
 62
     5
420
      255
176
     1
290
     0
176
     1
 90
       50
176
     1
 90
       50
176
     1
 90
       50
176
     1
290
     0
176
     1
 90
       50
176
     1
 62
   256
176
     0
 40
1.0
176
     0
 90
        2
176
     1
  1
strokes_ogs.tif
176
     1
290
     0
176
     1
 40
1.0
176
     1
 40
1.0
176
     1
  0
VISUALSTYLE
  5
35
102
{ACAD_REACTORS
330
2A
102
}
330
2A
100
AcDbVisualStyle
  2
Dim
 70
    11
177
     3
291
     1
 70
    58
 90
        2
176
     1
 90
        2
176
     1
 90
        0
176
     1
 90
        0
176
     1
 40
0.6
176
     1
 40
30.0
176
     1
 62
     7
420
 16777215
176
     1
 90
        1
176
     1
 90
        4
176
     1
 62
     7
176
     1
 62
   257
176
     1
 90
        1
176
     1
 90
        1
176
     1
 40
1.0
176
     1
 90
        8
176
     1
 62
     7
176
     1
 40
1.0
176
     1
 90
        1
176
     1
 90
        6
176
     1
 90
        2
176
     1
 62
     7
176
     1
 90
        5
176
     1
 90
        0
176
     1
 90
        0
176
     1
290
     0
176
     1
 90
        1
176
     1
 40
-50.0
176
     1
 90
        0
176
     1
290
     0
176
     1
290
     1
176
     1
290
     1
176
     1
290
     0
176
     1
290
     0
176
     1
290
     0
176
     1
290
     0
176
     1
290
     0
176
     1
290
     0
176
     1
 90
       50
176
     1
 40
0.0
176
     1
 40
1.0
176
     1
 90
        0
176
     1
 62
    18
420
        0
176
     1
 90
       50
176
     1
 90
        3
176
     1
 62
     5
420
      255
176
     1
290
     0
176
     1
 90
       50
176
     1
 90
       50
176
     1
 90
       50
176
     1
290
     0
176
     1
 90
       50
176
     1
 62
   256
176
     0
 40
1.0
176
     0
 90
        2
176
     1
  1
strokes_ogs.tif
176
     1
290
     0
176
     1
 40
1.0
176
     1
 40
1.0
176
     1
  0
VISUALSTYLE
  5
3D
102
{ACAD_REACTORS
330
2A
102
}
330
2A
100
AcDbVisualStyle
  2
EdgeColorOff
 70
    22
177
     3
291
     1
 70
    58
 90
        2
176
     0
 90
        2
176
     0
 90
        0
176
     0
 90
        0
176
     0
 40
0.6
176
     0
 40
30.0
176
     0
 62
     7
420
 16777215
176
     0
 90
        1
176
     0
 90
        4
176
     0
 62
     7
176
     0
 62
   257
176
     0
 90
        1
176
     0
 90
        1
176
     0
 40
1.0
176
     0
 90
        8
176
     2
 62
     7
176
     0
 40
1.0
176
     0
 90
        1
176
     0
 90
        6
176
     0
 90
        2
176
     0
 62
     7
176
     0
 90
        5
176
     0
 90
        0
176
     0
 90
        0
176
     0
290
     0
176
     0
 90
        1
176
     0
 40
0.0
176
     0
 90
        0
176
     0
290
     0
176
     0
290
     1
176
     0
290
     1
176
     0
290
     0
176
     0
290
     0
176
     0
290
     0
176
     0
290
     0
176
     0
290
     0
176
     0
290
     0
176
     0
 90
       50
176
     0
 40
0.0
176
     0
 40
1.0
176
     0
 90
        0
176
     0
 62
    18
420
        0
176
     0
 90
       50
176
     0
 90
        3
176
     0
 62
     5
420
      255
176
     0
290
     0
176
     0
 90
       50
176
     0
 90
       50
176
     0
 90
       50
176
     0
290
     0
176
     0
 90
       50
176
     0
 62
   256
176
     0
 40
1.0
176
     0
 90
        2
176
     0
  1
strokes_ogs.tif
176
     0
290
     0
176
     0
 40
1.0
176
     0
 40
1.0
176
     0
  0
VISUALSTYLE
  5
39
102
{ACAD_REACTORS
330
2A
102
}
330
2A
100
AcDbVisualStyle
  2
Facepattern
 70
    15
177
     3
291
     1
 70
    58
 90
        2
176
     1
 90
        2
176
     1
 90
        0
176
     1
 90
        0
176
     1
 40
0.6
176
     1
 40
30.0
176
     1
 62
     7
420
 16777215
176
     1
 90
        1
176
     1
 90
        4
176
     1
 62
     7
176
     1
 62
   257
176
     1
 90
        1
176
     1
 90
        1
176
     1
 40
1.0
176
     1
 90
        8
176
     1
 62
     7
176
     1
 40
1.0
176
     1
 90
        1
176
     1
 90
        6
176
     1
 90
        2
176
     1
 62
     7
176
     1
 90
        5
176
     1
 90
        0
176
     1
 90
        0
176
     1
290
     0
176
     1
 90
        1
176
     1
 40
0.0
176
     1
 90
        0
176
     1
290
     0
176
     1
290
     1
176
     1
290
     1
176
     1
290
     0
176
     1
290
     0
176
     1
290
     0
176
     1
290
     0
176
     1
290
     0
176
     1
290
     0
176
     1
 90
       50
176
     1
 40
0.0
176
     1
 40
1.0
176
     1
 90
        0
176
     1
 62
    18
420
        0
176
     1
 90
       50
176
     1
 90
        3
176
     1
 62
     5
420
      255
176
     1
290
     0
176
     1
 90
       50
176
     1
 90
       50
176
     1
 90
       50
176
     1
290
     0
176
     1
 90
       50
176
     1
 62
   256
176
     0
 40
1.0
176
     0
 90
        2
176
     1
  1
strokes_ogs.tif
176
     1
290
     0
176
     1
 40
1.0
176
     1
 40
1.0
176
     1
  0
VISUALSTYLE
  5
2B
102
{ACAD_REACTORS
330
2A
102
}
330
2A
100
AcDbVisualStyle
  2
Flat
 70
     0
177
     3
291
     1
 70
    58
 90
        2
176
     1
 90
        1
176
     1
 90
        1
176
     1
 90
        2
176
     1
 40
0.6
176
     1
 40
30.0
176
     1
 62
     7
420
 16777215
176
     1
 90
        0
176
     1
 90
        0
176
     1
 62
     7
176
     1
 62
   257
176
     1
 90
        1
176
     1
 90
        1
176
     1
 40
1.0
176
     1
 90
        8
176
     1
 62
     7
176
     1
 40
1.0
176
     1
 90
        1
176
     1
 90
        6
176
     1
 90
        2
176
     1
 62
     7
176
     1
 90
        5
176
     1
 90
        0
176
     1
 90
        0
176
     1
290
     0
176
     1
 90
       13
176
     1
 40
0.0
176
     1
 90
        0
176
     1
290
     0
176
     1
290
     1
176
     1
290
     1
176
     1
290
     0
176
     1
290
     0
176
     1
290
     0
176
     1
290
     0
176
     1
290
     0
176
     1
290
     0
176
     1
 90
       50
176
     1
 40
0.0
176
     1
 40
1.0
176
     1
 90
        0
176
     1
 62
    18
420
        0
176
     1
 90
       50
176
     1
 90
        3
176
     1
 62
     5
420
      255
176
     1
290
     0
176
     1
 90
       50
176
     1
 90
       50
176
     1
 90
       50
176
     1
290
     0
176
     1
 90
       50
176
     1
 62
   256
176
     0
 40
1.0
176
     0
 90
        2
176
     1
  1
strokes_ogs.tif
176
     1
290
     0
176
     1
 40
1.0
176
     1
 40
1.0
176
     1
  0
VISUALSTYLE
  5
2C
102
{ACAD_REACTORS
330
2A
102
}
330
2A
100
AcDbVisualStyle
  2
FlatWithEdges
 70
     1
177
     3
291
     1
 70
    58
 90
        2
176
     1
 90
        1
176
     1
 90
        1
176
     1
 90
        2
176
     1
 40
0.6
176
     1
 40
30.0
176
     1
 62
     7
420
 16777215
176
     1
 90
        1
176
     1
 90
        0
176
     1
 62
     7
176
     1
 62
   257
176
     1
 90
        1
176
     1
 90
        1
176
     1
 40
1.0
176
     1
 90
        0
176
     1
 62
   257
176
     1
 40
1.0
176
     1
 90
        1
176
     1
 90
        6
176
     1
 90
        2
176
     1
 62
     7
176
     1
 90
        5
176
     1
 90
        0
176
     1
 90
        0
176
     1
290
     0
176
     1
 90
       13
176
     1
 40
0.0
176
     1
 90
        0
176
     1
290
     0
176
     1
290
     1
176
     1
290
     1
176
     1
290
     0
176
     1
290
     0
176
     1
290
     0
176
     1
290
     0
176
     1
290
     0
176
     1
290
     0
176
     1
 90
       50
176
     1
 40
0.0
176
     1
 40
1.0
176
     1
 90
        0
176
     1
 62
    18
420
        0
176
     1
 90
       50
176
     1
 90
        3
176
     1
 62
     5
420
      255
176
     1
290
     0
176
     1
 90
       50
176
     1
 90
       50
176
     1
 90
       50
176
     1
290
     0
176
     1
 90
       50
176
     1
 62
   256
176
     0
 40
1.0
176
     0
 90
        2
176
     1
  1
strokes_ogs.tif
176
     1
290
     0
176
     1
 40
1.0
176
     1
 40
1.0
176
     1
  0
VISUALSTYLE
  5
2D
102
{ACAD_REACTORS
330
2A
102
}
330
2A
100
AcDbVisualStyle
  2
Gouraud
 70
     2
177
     3
291
     1
 70
    58
 90
        2
176
     1
 90
        2
176
     1
 90
        1
176
     1
 90
        2
176
     1
 40
0.6
176
     1
 40
30.0
176
     1
 62
     7
420
 16777215
176
     1
 90
        0
176
     1
 90
        0
176
     1
 62
     7
176
     1
 62
   257
176
     1
 90
        1
176
     1
 90
        1
176
     1
 40
1.0
176
     1
 90
        0
176
     1
 62
     7
176
     1
 40
1.0
176
     1
 90
        1
176
     1
 90
        6
176
     1
 90
        2
176
     1
 62
     7
176
     1
 90
        5
176
     1
 90
        0
176
     1
 90
        0
176
     1
290
     0
176
     1
 90
       13
176
     1
 40
0.0
176
     1
 90
        0
176
     1
290
     0
176
     1
290
     1
176
     1
290
     1
176
     1
290
     0
176
     1
290
     0
176
     1
290
     0
176
     1
290
     0
176
     1
290
     0
176
     1
290
     0
176
     1
 90
       50
176
     1
 40
0.0
176
     1
 40
1.0
176
     1
 90
        0
176
     1
 62
    18
420
        0
176
     1
 90
       50
176
     1
 90
        3
176
     1
 62
     5
420
      255
176
     1
290
     0
176
     1
 90
       50
176
     1
 90
       50
176
     1
 90
       50
176
     1
290
     0
176
     1
 90
       50
176
     1
 62
   256
176
     0
 40
1.0
176
     0
 90
        2
176
     1
  1
strokes_ogs.tif
176
     1
290
     0
176
     1
 40
1.0
176
     1
 40
1.0
176
     1
  0
VISUALSTYLE
  5
2E
102
{ACAD_REACTORS
330
2A
102
}
330
2A
100
AcDbVisualStyle
  2
GouraudWithEdges
 70
     3
177
     3
291
     1
 70
    58
 90
        2
176
     1
 90
        2
176
     1
 90
        1
176
     1
 90
        2
176
     1
 40
0.6
176
     1
 40
30.0
176
     1
 62
     7
420
 16777215
176
     1
 90
        1
176
     1
 90
        0
176
     1
 62
     7
176
     1
 62
   257
176
     1
 90
        1
176
     1
 90
        1
176
     1
 40
1.0
176
     1
 90
        0
176
     1
 62
   257
176
     1
 40
1.0
176
     1
 90
        1
176
     1
 90
        6
176
     1
 90
        2
176
     1
 62
     7
176
     1
 90
        5
176
     1
 90
        0
176
     1
 90
        0
176
     1
290
     0
176
     1
 90
       13
176
     1
 40
0.0
176
     1
 90
        0
176
     1
290
     0
176
     1
290
     1
176
     1
290
     1
176
     1
290
     0
176
     1
290
     0
176
     1
290
     0
176
     1
290
     0
176
     1
290
     0
176
     1
290
     0
176
     1
 90
       50
176
     1
 40
0.0
176
     1
 40
1.0
176
     1
 90
        0
176
     1
 62
    18
420
        0
176
     1
 90
       50
176
     1
 90
        3
176
     1
 62
     5
420
      255
176
     1
290
     0
176
     1
 90
       50
176
     1
 90
       50
176
     1
 90
       50
176
     1
290
     0
176
     1
 90
       50
176
     1
 62
   256
176
     0
 40
1.0
176
     0
 90
        2
176
     1
  1
strokes_ogs.tif
176
     1
290
     0
176
     1
 40
1.0
176
     1
 40
1.0
176
     1
  0
VISUALSTYLE
  5
31
102
{ACAD_REACTORS
330
2A
102
}
330
2A
100
AcDbVisualStyle
  2
Hidden
 70
     6
177
     3
291
     0
 70
    58
 90
        1
176
     1
 90
        2
176
     1
 90
        2
176
     1
 90
        0
176
     1
 40
0.6
176
     1
 40
30.0
176
     1
 62
     7
420
 16777215
176
     1
 90
        2
176
     1
 90
        2
176
     1
 62
     7
176
     1
 62
   257
176
     1
 90
        2
176
     1
 90
        1
176
     1
 40
40.0
176
     1
 90
        0
176
     1
 62
   257
176
     1
 40
1.0
176
     1
 90
        1
176
     1
 90
        6
176
     1
 90
        2
176
     1
 62
     7
176
     1
 90
        3
176
     1
 90
        0
176
     1
 90
        0
176
     1
290
     0
176
     1
 90
        1
176
     1
 40
0.0
176
     1
 90
        0
176
     1
290
     0
176
     1
290
     1
176
     1
290
     1
176
     1
290
     0
176
     1
290
     0
176
     1
290
     0
176
     1
290
     0
176
     1
290
     0
176
     1
290
     0
176
     1
 90
       50
176
     1
 40
0.0
176
     1
 40
1.0
176
     1
 90
        0
176
     1
 62
    18
420
        0
176
     1
 90
       50
176
     1
 90
        3
176
     1
 62
     5
420
      255
176
     1
290
     0
176
     1
 90
       50
176
     1
 90
       50
176
     1
 90
       50
176
     1
290
     0
176
     1
 90
       50
176
     1
 62
   256
176
     0
 40
1.0
176
     0
 90
        2
176
     1
  1
strokes_ogs.tif
176
     1
290
     0
176
     1
 40
1.0
176
     1
 40
1.0
176
     1
  0
VISUALSTYLE
  5
3B
102
{ACAD_REACTORS
330
2A
102
}
330
2A
100
AcDbVisualStyle
  2
JitterOff
 70
    20
177
     3
291
     1
 70
    58
 90
        2
176
     0
 90
        2
176
     0
 90
        0
176
     0
 90
        0
176
     0
 40
0.6
176
     0
 40
30.0
176
     0
 62
     7
420
 16777215
176
     0
 90
        1
176
     0
 90
        4
176
     0
 62
     7
176
     0
 62
   257
176
     0
 90
        1
176
     0
 90
        1
176
     0
 40
1.0
176
     0
 90
       10
176
     2
 62
     7
176
     0
 40
1.0
176
     0
 90
        1
176
     0
 90
        6
176
     0
 90
        2
176
     0
 62
     7
176
     0
 90
        5
176
     0
 90
        0
176
     0
 90
        0
176
     0
290
     0
176
     0
 90
        1
176
     0
 40
0.0
176
     0
 90
        0
176
     0
290
     0
176
     0
290
     1
176
     0
290
     1
176
     0
290
     0
176
     0
290
     0
176
     0
290
     0
176
     0
290
     0
176
     0
290
     0
176
     0
290
     0
176
     0
 90
       50
176
     0
 40
0.0
176
     0
 40
1.0
176
     0
 90
        0
176
     0
 62
    18
420
        0
176
     0
 90
       50
176
     0
 90
        3
176
     0
 62
     5
420
      255
176
     0
290
     0
176
     0
 90
       50
176
     0
 90
       50
176
     0
 90
       50
176
     0
290
     0
176
     0
 90
       50
176
     0
 62
   256
176
     0
 40
1.0
176
     0
 90
        2
176
     0
  1
strokes_ogs.tif
176
     0
290
     0
176
     0
 40
1.0
176
     0
 40
1.0
176
     0
  0
VISUALSTYLE
  5
38
102
{ACAD_REACTORS
330
2A
102
}
330
2A
100
AcDbVisualStyle
  2
Linepattern
 70
    14
177
     3
291
     1
 70
    58
 90
        2
176
     1
 90
        2
176
     1
 90
        0
176
     1
 90
        0
176
     1
 40
0.6
176
     1
 40
30.0
176
     1
 62
     7
420
 16777215
176
     1
 90
        1
176
     1
 90
        4
176
     1
 62
     7
176
     1
 62
   257
176
     1
 90
        7
176
     1
 90
        7
176
     1
 40
1.0
176
     1
 90
        8
176
     1
 62
     7
176
     1
 40
1.0
176
     1
 90
        1
176
     1
 90
        6
176
     1
 90
        2
176
     1
 62
     7
176
     1
 90
        5
176
     1
 90
        0
176
     1
 90
        0
176
     1
290
     0
176
     1
 90
        1
176
     1
 40
0.0
176
     1
 90
        0
176
     1
290
     0
176
     1
290
     1
176
     1
290
     1
176
     1
290
     0
176
     1
290
     0
176
     1
290
     0
176
     1
290
     0
176
     1
290
     0
176
     1
290
     0
176
     1
 90
       50
176
     1
 40
0.0
176
     1
 40
1.0
176
     1
 90
        0
176
     1
 62
    18
420
        0
176
     1
 90
       50
176
     1
 90
        3
176
     1
 62
     5
420
      255
176
     1
290
     0
176
     1
 90
       50
176
     1
 90
       50
176
     1
 90
       50
176
     1
290
     0
176
     1
 90
       50
176
     1
 62
   256
176
     0
 40
1.0
176
     0
 90
        2
176
     1
  1
strokes_ogs.tif
176
     1
290
     0
176
     1
 40
1.0
176
     1
 40
1.0
176
     1
  0
VISUALSTYLE
  5
3C
102
{ACAD_REACTORS
330
2A
102
}
330
2A
100
AcDbVisualStyle
  2
OverhangOff
 70
    21
177
     3
291
     1
 70
    58
 90
        2
176
     0
 90
        2
176
     0
 90
        0
176
     0
 90
        0
176
     0
 40
0.6
176
     0
 40
30.0
176
     0
 62
     7
420
 16777215
176
     0
 90
        1
176
     0
 90
        4
176
     0
 62
     7
176
     0
 62
   257
176
     0
 90
        1
176
     0
 90
        1
176
     0
 40
1.0
176
     0
 90
        9
176
     2
 62
     7
176
     0
 40
1.0
176
     0
 90
        1
176
     0
 90
        6
176
     0
 90
        2
176
     0
 62
     7
176
     0
 90
        5
176
     0
 90
        0
176
     0
 90
        0
176
     0
290
     0
176
     0
 90
        1
176
     0
 40
0.0
176
     0
 90
        0
176
     0
290
     0
176
     0
290
     1
176
     0
290
     1
176
     0
290
     0
176
     0
290
     0
176
     0
290
     0
176
     0
290
     0
176
     0
290
     0
176
     0
290
     0
176
     0
 90
       50
176
     0
 40
0.0
176
     0
 40
1.0
176
     0
 90
        0
176
     0
 62
    18
420
        0
176
     0
 90
       50
176
     0
 90
        3
176
     0
 62
     5
420
      255
176
     0
290
     0
176
     0
 90
       50
176
     0
 90
       50
176
     0
 90
       50
176
     0
290
     0
176
     0
 90
       50
176
     0
 62
   256
176
     0
 40
1.0
176
     0
 90
        2
176
     0
  1
strokes_ogs.tif
176
     0
290
     0
176
     0
 40
1.0
176
     0
 40
1.0
176
     0
  0
VISUALSTYLE
  5
33
102
{ACAD_REACTORS
330
2A
102
}
330
2A
100
AcDbVisualStyle
  2
Realistic
 70
     8
177
     3
291
     0
 70
    58
 90
        2
176
     1
 90
        3
176
     1
 90
        0
176
     1
 90
        2
176
     1
 40
0.6
176
     1
 40
30.0
176
     1
 62
     7
420
 16777215
176
     1
 90
        0
176
     1
 90
        0
176
     1
 62
     7
176
     1
 62
   257
176
     1
 90
        1
176
     1
 90
        1
176
     1
 40
1.0
176
     1
 90
        8
176
     1
 62
   257
176
     1
 40
1.0
176
     1
 90
        1
176
     1
 90
        6
176
     1
 90
        2
176
     1
 62
     7
176
     1
 90
        3
176
     1
 90
        0
176
     1
 90
        0
176
     1
290
     0
176
     1
 90
       13
176
     1
 40
0.0
176
     1
 90
        0
176
     1
290
     0
176
     1
290
     1
176
     1
290
     1
176
     1
290
     0
176
     1
290
     0
176
     1
290
     0
176
     1
290
     0
176
     1
290
     0
176
     1
290
     0
176
     1
 90
       50
176
     1
 40
0.0
176
     1
 40
1.0
176
     1
 90
        0
176
     1
 62
    18
420
        0
176
     1
 90
       50
176
     1
 90
        3
176
     1
 62
     5
420
      255
176
     1
290
     0
176
     1
 90
       50
176
     1
 90
       50
176
     1
 90
       50
176
     1
290
     0
176
     1
 90
       50
176
     1
 62
   256
176
     0
 40
1.0
176
     0
 90
        2
176
     1
  1
strokes_ogs.tif
176
     1
290
     0
176
     1
 40
1.0
176
     1
 40
1.0
176
     1
  0
VISUALSTYLE
  5
42
102
{ACAD_REACTORS
330
2A
102
}
330
2A
100
AcDbVisualStyle
  2
Shaded
 70
    27
177
     3
291
     0
 70
    58
 90
        2
176
     1
 90
        2
176
     1
 90
        1
176
     1
 90
        2
176
     1
 40
0.6
176
     1
 40
30.0
176
     1
 62
     7
420
 16777215
176
     1
 90
        0
176
     1
 90
        4
176
     1
 62
     7
176
     1
 62
   257
176
     1
 90
        1
176
     1
 90
        1
176
     1
 40
1.0
176
     1
 90
        8
176
     1
 62
   257
176
     1
 40
1.0
176
     1
 90
        1
176
     1
 90
        6
176
     1
 90
        2
176
     1
 62
     8
420
  7895160
176
     1
 90
        3
176
     1
 90
        0
176
     1
 90
        0
176
     1
290
     0
176
     1
 90
        5
176
     1
 40
0.0
176
     1
 90
        0
176
     1
290
     0
176
     1
290
     1
176
     1
290
     1
176
     1
290
     0
176
     1
290
     0
176
     1
290
     0
176
     1
290
     0
176
     1
290
     0
176
     1
290
     0
176
     1
 90
       50
176
     1
 40
0.0
176
     1
 40
1.0
176
     1
 90
        0
176
     1
 62
    18
420
        0
176
     1
 90
       50
176
     1
 90
        3
176
     1
 62
     5
420
      255
176
     1
290
     0
176
     1
 90
       50
176
     1
 90
       50
176
     1
 90
       50
176
     1
290
     0
176
     1
 90
       50
176
     1
 62
   256
176
     0
 40
1.0
176
     0
 90
        2
176
     1
  1
strokes_ogs.tif
176
     1
290
     0
176
     1
 40
1.0
176
     1
 40
1.0
176
     1
  0
VISUALSTYLE
  5
41
102
{ACAD_REACTORS
330
2A
102
}
330
2A
100
AcDbVisualStyle
  2
Shaded with edges
 70
    26
177
     3
291
     0
 70
    58
 90
        2
176
     1
 90
        2
176
     1
 90
        1
176
     1
 90
        2
176
     1
 40
0.6
176
     1
 40
30.0
176
     1
 62
     7
420
 16777215
176
     1
 90
        1
176
     1
 90
       10
176
     1
 62
     7
176
     1
 62
   257
176
     1
 90
        2
176
     1
 90
        1
176
     1
 40
1.0
176
     1
 90
        8
176
     1
 62
   257
176
     1
 40
1.0
176
     1
 90
        1
176
     1
 90
        6
176
     1
 90
        2
176
     1
 62
     7
176
     1
 90
        3
176
     1
 90
        0
176
     1
 90
        0
176
     1
290
     0
176
     1
 90
        5
176
     1
 40
0.0
176
     1
 90
        0
176
     1
290
     0
176
     1
290
     1
176
     1
290
     1
176
     1
290
     0
176
     1
290
     0
176
     1
290
     0
176
     1
290
     0
176
     1
290
     0
176
     1
290
     0
176
     1
 90
       50
176
     1
 40
0.0
176
     1
 40
1.0
176
     1
 90
        0
176
     1
 62
    18
420
        0
176
     1
 90
       50
176
     1
 90
        3
176
     1
 62
     5
420
      255
176
     1
290
     0
176
     1
 90
       50
176
     1
 90
       50
176
     1
 90
       50
176
     1
290
     0
176
     1
 90
       50
176
     1
 62
   256
176
     0
 40
1.0
176
     0
 90
        2
176
     1
  1
strokes_ogs.tif
176
     1
290
     0
176
     1
 40
1.0
176
     1
 40
1.0
176
     1
  0
VISUALSTYLE
  5
3E
102
{ACAD_REACTORS
330
2A
102
}
330
2A
100
AcDbVisualStyle
  2
Shades of Gray
 70
    23
177
     3
291
     0
 70
    58
 90
        2
176
     1
 90
        2
176
     1
 90
        3
176
     1
 90
        0
176
     1
 40
0.6
176
     1
 40
30.0
176
     1
 62
     7
420
 16777215
176
     1
 90
        2
176
     1
 90
        2
176
     1
 62
     7
176
     1
 62
     7
176
     1
 90
        1
176
     1
 90
        1
176
     1
 40
40.0
176
     1
 90
        8
176
     1
 62
     7
176
     1
 40
1.0
176
     1
 90
        1
176
     1
 90
        6
176
     1
 90
        2
176
     1
 62
     7
176
     1
 90
        3
176
     1
 90
        0
176
     1
 90
        0
176
     1
290
     0
176
     1
 90
        1
176
     1
 40
0.0
176
     1
 90
        0
176
     1
290
     0
176
     1
290
     1
176
     1
290
     1
176
     1
290
     0
176
     1
290
     0
176
     1
290
     0
176
     1
290
     0
176
     1
290
     0
176
     1
290
     0
176
     1
 90
       50
176
     1
 40
0.0
176
     1
 40
1.0
176
     1
 90
        0
176
     1
 62
    18
420
        0
176
     1
 90
       50
176
     1
 90
        3
176
     1
 62
     5
420
      255
176
     1
290
     0
176
     1
 90
       50
176
     1
 90
       50
176
     1
 90
       50
176
     1
290
     0
176
     1
 90
       50
176
     1
 62
   256
176
     0
 40
1.0
176
     0
 90
        2
176
     1
  1
strokes_ogs.tif
176
     1
290
     0
176
     1
 40
1.0
176
     1
 40
1.0
176
     1
  0
VISUALSTYLE
  5
3F
102
{ACAD_REACTORS
330
2A
102
}
330
2A
100
AcDbVisualStyle
  2
Sketchy
 70
    24
177
     3
291
     0
 70
    58
 90
        1
176
     1
 90
        2
176
     1
 90
        2
176
     1
 90
        0
176
     1
 40
0.6
176
     1
 40
30.0
176
     1
 62
     7
420
 16777215
176
     1
 90
        2
176
     1
 90
        2
176
     1
 62
     7
176
     1
 62
     7
176
     1
 90
        1
176
     1
 90
        1
176
     1
 40
40.0
176
     1
 90
       11
176
     1
 62
     7
176
     1
 40
1.0
176
     1
 90
        1
176
     1
 90
        6
176
     1
 90
        2
176
     1
 62
     7
176
     1
 90
        6
176
     1
 90
        0
176
     1
 90
        0
176
     1
290
     0
176
     1
 90
        1
176
     1
 40
0.0
176
     1
 90
        0
176
     1
290
     0
176
     1
290
     1
176
     1
290
     1
176
     1
290
     0
176
     1
290
     0
176
     1
290
     0
176
     1
290
     0
176
     1
290
     0
176
     1
290
     0
176
     1
 90
       50
176
     1
 40
0.0
176
     1
 40
1.0
176
     1
 90
        0
176
     1
 62
    18
420
        0
176
     1
 90
       50
176
     1
 90
        3
176
     1
 62
     5
420
      255
176
     1
290
     0
176
     1
 90
       50
176
     1
 90
       50
176
     1
 90
       50
176
     1
290
     0
176
     1
 90
       50
176
     1
 62
   256
176
     0
 40
1.0
176
     0
 90
        2
176
     1
  1
strokes_ogs.tif
176
     1
290
     0
176
     1
 40
1.0
176
     1
 40
1.0
176
     1
  0
VISUALSTYLE
  5
37
102
{ACAD_REACTORS
330
2A
102
}
330
2A
100
AcDbVisualStyle
  2
Thicken
 70
    13
177
     3
291
     1
 70
    58
 90
        2
176
     1
 90
        2
176
     1
 90
        0
176
     1
 90
        0
176
     1
 40
0.6
176
     1
 40
30.0
176
     1
 62
     7
420
 16777215
176
     1
 90
        1
176
     1
 90
        4
176
     1
 62
     7
176
     1
 62
   257
176
     1
 90
        1
176
     1
 90
        1
176
     1
 40
1.0
176
     1
 90
       12
176
     1
 62
     7
176
     1
 40
1.0
176
     1
 90
        1
176
     1
 90
        6
176
     1
 90
        2
176
     1
 62
     7
176
     1
 90
        5
176
     1
 90
        0
176
     1
 90
        0
176
     1
290
     0
176
     1
 90
        1
176
     1
 40
0.0
176
     1
 90
        0
176
     1
290
     0
176
     1
290
     1
176
     1
290
     1
176
     1
290
     0
176
     1
290
     0
176
     1
290
     0
176
     1
290
     0
176
     1
290
     0
176
     1
290
     0
176
     1
 90
       50
176
     1
 40
0.0
176
     1
 40
1.0
176
     1
 90
        0
176
     1
 62
    18
420
        0
176
     1
 90
       50
176
     1
 90
        3
176
     1
 62
     5
420
      255
176
     1
290
     0
176
     1
 90
       50
176
     1
 90
       50
176
     1
 90
       50
176
     1
290
     0
176
     1
 90
       50
176
     1
 62
   256
176
     0
 40
1.0
176
     0
 90
        2
176
     1
  1
strokes_ogs.tif
176
     1
290
     0
176
     1
 40
1.0
176
     1
 40
1.0
176
     1
  0
VISUALSTYLE
  5
30
102
{ACAD_REACTORS
330
2A
102
}
330
2A
100
AcDbVisualStyle
  2
Wireframe
 70
     5
177
     3
291
     0
 70
    58
 90
        0
176
     1
 90
        2
176
     1
 90
        0
176
     1
 90
        0
176
     1
 40
0.6
176
     1
 40
30.0
176
     1
 62
     7
420
 16777215
176
     1
 90
        1
176
     1
 90
        4
176
     1
 62
     7
176
     1
 62
   257
176
     1
 90
        1
176
     1
 90
        1
176
     1
 40
1.0
176
     1
 90
        0
176
     1
 62
   257
176
     1
 40
1.0
176
     1
 90
        1
176
     1
 90
        6
176
     1
 90
        2
176
     1
 62
     7
176
     1
 90
        3
176
     1
 90
        0
176
     1
 90
        0
176
     1
290
     0
176
     1
 90
        1
176
     1
 40
0.0
176
     1
 90
        0
176
     1
290
     0
176
     1
290
     1
176
     1
290
     1
176
     1
290
     0
176
     1
290
     0
176
     1
290
     0
176
     1
290
     0
176
     1
290
     0
176
     1
290
     0
176
     1
 90
       50
176
     1
 40
0.0
176
     1
 40
1.0
176
     1
 90
        0
176
     1
 62
    18
420
        0
176
     1
 90
       50
176
     1
 90
        3
176
     1
 62
     5
420
      255
176
     1
290
     0
176
     1
 90
       50
176
     1
 90
       50
176
     1
 90
       50
176
     1
290
     0
176
     1
 90
       50
176
     1
 62
   256
176
     0
 40
1.0
176
     0
 90
        2
176
     1
  1
strokes_ogs.tif
176
     1
290
     0
176
     1
 40
1.0
176
     1
 40
1.0
176
     1
  0
VISUALSTYLE
  5
40
102
{ACAD_REACTORS
330
2A
102
}
330
2A
100
AcDbVisualStyle
  2
X-Ray
 70
    25
177
     3
291
     0
 70
    58
 90
        2
176
     1
 90
        2
176
     1
 90
        1
176
     1
 90
        1
176
     1
 40
0.5
176
     1
 40
30.0
176
     1
 62
     7
420
 16777215
176
     1
 90
        1
176
     1
 90
        0
176
     1
 62
     7
176
     1
 62
   257
176
     1
 90
        1
176
     1
 90
        1
176
     1
 40
1.0
176
     1
 90
        8
176
     1
 62
     7
176
     1
 40
1.0
176
     1
 90
        1
176
     1
 90
        6
176
     1
 90
        2
176
     1
 62
     7
176
     1
 90
        3
176
     1
 90
        0
176
     1
 90
        0
176
     1
290
     0
176
     1
 90
       13
176
     1
 40
0.0
176
     1
 90
        0
176
     1
290
     0
176
     1
290
     1
176
     1
290
     1
176
     1
290
     0
176
     1
290
     0
176
     1
290
     0
176
     1
290
     0
176
     1
290
     0
176
     1
290
     0
176
     1
 90
       50
176
     1
 40
0.0
176
     1
 40
1.0
176
     1
 90
        0
176
     1
 62
    18
420
        0
176
     1
 90
       50
176
     1
 90
        3
176
     1
 62
     5
420
      255
176
     1
290
     0
176
     1
 90
       50
176
     1
 90
       50
176
     1
 90
       50
176
     1
290
     0
176
     1
 90
       50
176
     1
 62
   256
176
     0
 40
1.0
176
     0
 90
        2
176
     1
  1
strokes_ogs.tif
176
     1
290
     0
176
     1
 40
1.0
176
     1
 40
1.0
176
     1
  0
DICTIONARYVAR
  5
217
102
{ACAD_REACTORS
330
216
102
}
330
216
100
DictionaryVariables
280
     0
  1
1:1
  0
DICTIONARYVAR
  5
21C
102
{ACAD_REACTORS
330
216
102
}
330
216
100
DictionaryVariables
280
     0
  1
Standard
  0
DICTIONARYVAR
  5
21B
102
{ACAD_REACTORS
330
216
102
}
330
216
100
DictionaryVariables
280
     0
  1
Standard
  0
DICTIONARYVAR
  5
21F
102
{ACAD_REACTORS
330
216
102
}
330
216
100
DictionaryVariables
280
     0
  1
6.000000
  0
DICTIONARY
  5
218
330
6A
100
AcDbDictionary
280
     1
281
     1
  3
ACAD_ROUNDTRIP_2008_TABLESTYLE_CELLSTYLEMAP
360
219
  0
CELLSTYLEMAP
  5
219
102
{ACAD_REACTORS
330
218
102
}
330
218
100
AcDbCellStyleMap
 90
        3
300
CELLSTYLE
  1
TABLEFORMAT_BEGIN
 90
        5
170
     1
 91
        0
 92
    32768
 62
   257
 93
        1
300
CONTENTFORMAT
  1
CONTENTFORMAT_BEGIN
 90
        0
 91
        0
 92
        4
 93
        0
300

 40
0.0
140
1.0
 94
        5
 62
     0
340
11
144
6.0
309
CONTENTFORMAT_END
171
     1
301
MARGIN
  1
CELLMARGIN_BEGIN
 40
1.5
 40
1.5
 40
1.5
 40
1.5
 40
1.5
 40
1.5
309
CELLMARGIN_END
 94
        6
 95
        1
302
GRIDFORMAT
  1
GRIDFORMAT_BEGIN
 90
        0
 91
        1
 62
     0
 92
       -2
340
14
 93
        0
 40
0.045
309
GRIDFORMAT_END
 95
        2
302
GRIDFORMAT
  1
GRIDFORMAT_BEGIN
 90
        0
 91
        1
 62
     0
 92
       -2
340
14
 93
        0
 40
0.045
309
GRIDFORMAT_END
 95
        4
302
GRIDFORMAT
  1
GRIDFORMAT_BEGIN
 90
        0
 91
        1
 62
     0
 92
       -2
340
14
 93
        0
 40
0.045
309
GRIDFORMAT_END
 95
        8
302
GRIDFORMAT
  1
GRIDFORMAT_BEGIN
 90
        0
 91
        1
 62
     0
 92
       -2
340
14
 93
        0
 40
0.045
309
GRIDFORMAT_END
 95
       16
302
GRIDFORMAT
  1
GRIDFORMAT_BEGIN
 90
        0
 91
        1
 62
     0
 92
       -2
340
14
 93
        0
 40
0.045
309
GRIDFORMAT_END
 95
       32
302
GRIDFORMAT
  1
GRIDFORMAT_BEGIN
 90
        0
 91
        1
 62
     0
 92
       -2
340
14
 93
        0
 40
0.045
309
GRIDFORMAT_END
309
TABLEFORMAT_END
  1
CELLSTYLE_BEGIN
 90
        1
 91
        1
300
_TITLE
309
CELLSTYLE_END
300
CELLSTYLE
  1
TABLEFORMAT_BEGIN
 90
        5
170
     1
 91
        0
 92
        0
 62
   257
 93
        1
300
CONTENTFORMAT
  1
CONTENTFORMAT_BEGIN
 90
        0
 91
        0
 92
        4
 93
        0
300

 40
0.0
140
1.0
 94
        5
 62
     0
340
11
144
4.5
309
CONTENTFORMAT_END
171
     1
301
MARGIN
  1
CELLMARGIN_BEGIN
 40
1.5
 40
1.5
 40
1.5
 40
1.5
 40
1.5
 40
1.5
309
CELLMARGIN_END
 94
        6
 95
        1
302
GRIDFORMAT
  1
GRIDFORMAT_BEGIN
 90
        0
 91
        1
 62
     0
 92
       -2
340
14
 93
        0
 40
0.045
309
GRIDFORMAT_END
 95
        2
302
GRIDFORMAT
  1
GRIDFORMAT_BEGIN
 90
        0
 91
        1
 62
     0
 92
       -2
340
14
 93
        0
 40
0.045
309
GRIDFORMAT_END
 95
        4
302
GRIDFORMAT
  1
GRIDFORMAT_BEGIN
 90
        0
 91
        1
 62
     0
 92
       -2
340
14
 93
        0
 40
0.045
309
GRIDFORMAT_END
 95
        8
302
GRIDFORMAT
  1
GRIDFORMAT_BEGIN
 90
        0
 91
        1
 62
     0
 92
       -2
340
14
 93
        0
 40
0.045
309
GRIDFORMAT_END
 95
       16
302
GRIDFORMAT
  1
GRIDFORMAT_BEGIN
 90
        0
 91
        1
 62
     0
 92
       -2
340
14
 93
        0
 40
0.045
309
GRIDFORMAT_END
 95
       32
302
GRIDFORMAT
  1
GRIDFORMAT_BEGIN
 90
        0
 91
        1
 62
     0
 92
       -2
340
14
 93
        0
 40
0.045
309
GRIDFORMAT_END
309
TABLEFORMAT_END
  1
CELLSTYLE_BEGIN
 90
        2
 91
        1
300
_HEADER
309
CELLSTYLE_END
300
CELLSTYLE
  1
TABLEFORMAT_BEGIN
 90
        5
170
     1
 91
        0
 92
        0
 62
   257
 93
        1
300
CONTENTFORMAT
  1
CONTENTFORMAT_BEGIN
 90
        0
 91
        0
 92
        4
 93
        0
300

 40
0.0
140
1.0
 94
        2
 62
     0
340
11
144
4.5
309
CONTENTFORMAT_END
171
     1
301
MARGIN
  1
CELLMARGIN_BEGIN
 40
1.5
 40
1.5
 40
1.5
 40
1.5
 40
1.5
 40
1.5
309
CELLMARGIN_END
 94
        6
 95
        1
302
GRIDFORMAT
  1
GRIDFORMAT_BEGIN
 90
        0
 91
        1
 62
     0
 92
       -2
340
14
 93
        0
 40
0.045
309
GRIDFORMAT_END
 95
        2
302
GRIDFORMAT
  1
GRIDFORMAT_BEGIN
 90
        0
 91
        1
 62
     0
 92
       -2
340
14
 93
        0
 40
0.045
309
GRIDFORMAT_END
 95
        4
302
GRIDFORMAT
  1
GRIDFORMAT_BEGIN
 90
        0
 91
        1
 62
     0
 92
       -2
340
14
 93
        0
 40
0.045
309
GRIDFORMAT_END
 95
        8
302
GRIDFORMAT
  1
GRIDFORMAT_BEGIN
 90
        0
 91
        1
 62
     0
 92
       -2
340
14
 93
        0
 40
0.045
309
GRIDFORMAT_END
 95
       16
302
GRIDFORMAT
  1
GRIDFORMAT_BEGIN
 90
        0
 91
        1
 62
     0
 92
       -2
340
14
 93
        0
 40
0.045
309
GRIDFORMAT_END
 95
       32
302
GRIDFORMAT
  1
GRIDFORMAT_BEGIN
 90
        0
 91
        1
 62
     0
 92
       -2
340
14
 93
        0
 40
0.045
309
GRIDFORMAT_END
309
TABLEFORMAT_END
  1
CELLSTYLE_BEGIN
 90
        3
 91
        2
300
_DATA
309
CELLSTYLE_END
  0
ENDSEC
  0
EOF
